  0
SECTION
  2
HEADER
  9
$ACADVER
  1
AC1015
  9
$ACADMAINTVER
 70
    20
  9
$DWGCODEPAGE
  3
ANSI_932
  9
$INSBASE
 10
0.0
 20
0.0
 30
0.0
  9
$EXTMIN
 10
62.54107962905454
 20
77.340201027587
 30
0.0
  9
$EXTMAX
 10
2207.669296633062
 20
1689.632147280003
 30
0.0
  9
$LIMMIN
 10
-619.3572082519531
 20
-987.7130889892578
  9
$LIMMAX
 10
1209.079373966757
 20
503.2441101074218
  9
$ORTHOMODE
 70
     1
  9
$REGENMODE
 70
     1
  9
$FILLMODE
 70
     1
  9
$QTEXTMODE
 70
     0
  9
$MIRRTEXT
 70
     1
  9
$LTSCALE
 40
0.2365427212452325
  9
$ATTMODE
 70
     1
  9
$TEXTSIZE
 40
2.5
  9
$TRACEWID
 40
1.0
  9
$TEXTSTYLE
  7
Standard
  9
$CLAYER
  8
0
  9
$CELTYPE
  6
ByLayer
  9
$CECOLOR
 62
   256
  9
$CELTSCALE
 40
1.0
  9
$DISPSILH
 70
     0
  9
$DIMSCALE
 40
1.0
  9
$DIMASZ
 40
2.5
  9
$DIMEXO
 40
0.625
  9
$DIMDLI
 40
3.75
  9
$DIMRND
 40
0.0
  9
$DIMDLE
 40
0.0
  9
$DIMEXE
 40
1.25
  9
$DIMTP
 40
0.0
  9
$DIMTM
 40
0.0
  9
$DIMTXT
 40
2.5
  9
$DIMCEN
 40
2.5
  9
$DIMTSZ
 40
0.0
  9
$DIMTOL
 70
     0
  9
$DIMLIM
 70
     0
  9
$DIMTIH
 70
     0
  9
$DIMTOH
 70
     0
  9
$DIMSE1
 70
     0
  9
$DIMSE2
 70
     0
  9
$DIMTAD
 70
     1
  9
$DIMZIN
 70
     0
  9
$DIMBLK
  1

  9
$DIMASO
 70
     1
  9
$DIMSHO
 70
     1
  9
$DIMPOST
  1

  9
$DIMAPOST
  1

  9
$DIMALT
 70
     0
  9
$DIMALTD
 70
     3
  9
$DIMALTF
 40
0.03937007874016
  9
$DIMLFAC
 40
1.0
  9
$DIMTOFL
 70
     1
  9
$DIMTVP
 40
0.0
  9
$DIMTIX
 70
     0
  9
$DIMSOXD
 70
     0
  9
$DIMSAH
 70
     0
  9
$DIMBLK1
  1

  9
$DIMBLK2
  1

  9
$DIMSTYLE
  2
Standard
  9
$DIMCLRD
 70
     0
  9
$DIMCLRE
 70
     0
  9
$DIMCLRT
 70
     0
  9
$DIMTFAC
 40
0.75
  9
$DIMGAP
 40
0.625
  9
$DIMJUST
 70
     0
  9
$DIMSD1
 70
     0
  9
$DIMSD2
 70
     0
  9
$DIMTOLJ
 70
     0
  9
$DIMTZIN
 70
     8
  9
$DIMALTZ
 70
     0
  9
$DIMALTTZ
 70
     0
  9
$DIMUPT
 70
     0
  9
$DIMDEC
 70
     2
  9
$DIMTDEC
 70
     2
  9
$DIMALTU
 70
     2
  9
$DIMALTTD
 70
     3
  9
$DIMTXSTY
  7
Standard
  9
$DIMAUNIT
 70
     0
  9
$DIMADEC
 70
     0
  9
$DIMALTRND
 40
0.0
  9
$DIMAZIN
 70
     0
  9
$DIMDSEP
 70
    46
  9
$DIMATFIT
 70
     3
  9
$DIMFRAC
 70
     0
  9
$DIMLDRBLK
  1

  9
$DIMLUNIT
 70
     2
  9
$DIMLWD
 70
    -2
  9
$DIMLWE
 70
    -2
  9
$DIMTMOVE
 70
     0
  9
$LUNITS
 70
     2
  9
$LUPREC
 70
     4
  9
$SKETCHINC
 40
1.0
  9
$FILLETRAD
 40
0.0
  9
$AUNITS
 70
     0
  9
$AUPREC
 70
     0
  9
$MENU
  1
.
  9
$ELEVATION
 40
0.0
  9
$PELEVATION
 40
0.0
  9
$THICKNESS
 40
0.0
  9
$LIMCHECK
 70
     0
  9
$CHAMFERA
 40
10.0
  9
$CHAMFERB
 40
10.0
  9
$CHAMFERC
 40
20.0
  9
$CHAMFERD
 40
0.0
  9
$SKPOLY
 70
     0
  9
$TDCREATE
 40
2455188.750000000
  9
$TDUCREATE
 40
2455188.375000000
  9
$TDUPDATE
 40
2459744.667203981
  9
$TDUUPDATE
 40
2459744.292203982
  9
$TDINDWG
 40
0.0066874537
  9
$TDUSRTIMER
 40
0.0066872222
  9
$USRTIMER
 70
     1
  9
$ANGBASE
 50
0.0
  9
$ANGDIR
 70
     0
  9
$PDMODE
 70
     0
  9
$PDSIZE
 40
0.0
  9
$PLINEWID
 40
0.0
  9
$SPLFRAME
 70
     0
  9
$SPLINETYPE
 70
     6
  9
$SPLINESEGS
 70
     8
  9
$HANDSEED
  5
75D
  9
$SURFTAB1
 70
     6
  9
$SURFTAB2
 70
     6
  9
$SURFTYPE
 70
     6
  9
$SURFU
 70
     6
  9
$SURFV
 70
     6
  9
$UCSBASE
  2

  9
$UCSNAME
  2

  9
$UCSORG
 10
0.0
 20
0.0
 30
0.0
  9
$UCSXDIR
 10
1.0
 20
0.0
 30
0.0
  9
$UCSYDIR
 10
0.0
 20
1.0
 30
0.0
  9
$UCSORTHOREF
  2

  9
$UCSORTHOVIEW
 70
     0
  9
$UCSORGTOP
 10
0.0
 20
0.0
 30
0.0
  9
$UCSORGBOTTOM
 10
0.0
 20
0.0
 30
0.0
  9
$UCSORGLEFT
 10
0.0
 20
0.0
 30
0.0
  9
$UCSORGRIGHT
 10
0.0
 20
0.0
 30
0.0
  9
$UCSORGFRONT
 10
0.0
 20
0.0
 30
0.0
  9
$UCSORGBACK
 10
0.0
 20
0.0
 30
0.0
  9
$PUCSBASE
  2

  9
$PUCSNAME
  2

  9
$PUCSORG
 10
0.0
 20
0.0
 30
0.0
  9
$PUCSXDIR
 10
1.0
 20
0.0
 30
0.0
  9
$PUCSYDIR
 10
0.0
 20
1.0
 30
0.0
  9
$PUCSORTHOREF
  2

  9
$PUCSORTHOVIEW
 70
     0
  9
$PUCSORGTOP
 10
0.0
 20
0.0
 30
0.0
  9
$PUCSORGBOTTOM
 10
0.0
 20
0.0
 30
0.0
  9
$PUCSORGLEFT
 10
0.0
 20
0.0
 30
0.0
  9
$PUCSORGRIGHT
 10
0.0
 20
0.0
 30
0.0
  9
$PUCSORGFRONT
 10
0.0
 20
0.0
 30
0.0
  9
$PUCSORGBACK
 10
0.0
 20
0.0
 30
0.0
  9
$USERI1
 70
     0
  9
$USERI2
 70
     0
  9
$USERI3
 70
     0
  9
$USERI4
 70
     0
  9
$USERI5
 70
     0
  9
$USERR1
 40
0.0
  9
$USERR2
 40
0.0
  9
$USERR3
 40
0.0
  9
$USERR4
 40
0.0
  9
$USERR5
 40
0.0
  9
$WORLDVIEW
 70
     1
  9
$SHADEDGE
 70
     3
  9
$SHADEDIF
 70
    70
  9
$TILEMODE
 70
     1
  9
$MAXACTVP
 70
    64
  9
$PINSBASE
 10
0.0
 20
0.0
 30
0.0
  9
$PLIMCHECK
 70
     0
  9
$PEXTMIN
 10
1.000000000000000E+20
 20
1.000000000000000E+20
 30
1.000000000000000E+20
  9
$PEXTMAX
 10
-1.000000000000000E+20
 20
-1.000000000000000E+20
 30
-1.000000000000000E+20
  9
$PLIMMIN
 10
0.0
 20
0.0
  9
$PLIMMAX
 10
420.0
 20
297.0
  9
$UNITMODE
 70
     0
  9
$VISRETAIN
 70
     1
  9
$PLINEGEN
 70
     0
  9
$PSLTSCALE
 70
     1
  9
$TREEDEPTH
 70
  3020
  9
$CMLSTYLE
  2
Standard
  9
$CMLJUST
 70
     0
  9
$CMLSCALE
 40
20.0
  9
$PROXYGRAPHICS
 70
     1
  9
$MEASUREMENT
 70
     1
  9
$CELWEIGHT
370
    -1
  9
$ENDCAPS
280
     0
  9
$JOINSTYLE
280
     0
  9
$LWDISPLAY
290
     0
  9
$INSUNITS
 70
     4
  9
$HYPERLINKBASE
  1

  9
$STYLESHEET
  1

  9
$XEDIT
290
     1
  9
$CEPSNTYPE
380
     0
  9
$PSTYLEMODE
290
     1
  9
$FINGERPRINTGUID
  2
{A05E2E87-D592-47F7-9EF8-5543C67BAD66}
  9
$VERSIONGUID
  2
{07BB227D-DD63-4B9A-AB40-29CD0D24CA48}
  9
$EXTNAMES
290
     1
  9
$PSVPSCALE
 40
0.0
  9
$OLESTARTUP
290
     0
  0
ENDSEC
  0
SECTION
  2
CLASSES
  0
CLASS
  1
ACDBDICTIONARYWDFLT
  2
AcDbDictionaryWithDefault
  3
ObjectDBX Classes
 90
        0
280
     0
281
     0
  0
CLASS
  1
VISUALSTYLE
  2
AcDbVisualStyle
  3
ObjectDBX Classes
 90
     4095
280
     0
281
     0
  0
CLASS
  1
MATERIAL
  2
AcDbMaterial
  3
ObjectDBX Classes
 90
     1153
280
     0
281
     0
  0
CLASS
  1
SCALE
  2
AcDbScale
  3
ObjectDBX Classes
 90
     1153
280
     0
281
     0
  0
CLASS
  1
TABLESTYLE
  2
AcDbTableStyle
  3
ObjectDBX Classes
 90
     4095
280
     0
281
     0
  0
CLASS
  1
MLEADERSTYLE
  2
AcDbMLeaderStyle
  3
ACDB_MLEADERSTYLE_CLASS
 90
     4095
280
     0
281
     0
  0
CLASS
  1
SUN
  2
AcDbSun
  3
SCENEOE
 90
    33921
280
     0
281
     0
  0
CLASS
  1
DICTIONARYVAR
  2
AcDbDictionaryVar
  3
ObjectDBX Classes
 90
        0
280
     0
281
     0
  0
CLASS
  1
ACDBSECTIONVIEWSTYLE
  2
AcDbSectionViewStyle
  3
ObjectDBX Classes
 90
     1025
280
     0
281
     0
  0
CLASS
  1
ACDBDETAILVIEWSTYLE
  2
AcDbDetailViewStyle
  3
ObjectDBX Classes
 90
     1025
280
     0
281
     0
  0
CLASS
  1
SORTENTSTABLE
  2
AcDbSortentsTable
  3
ObjectDBX Classes
 90
        0
280
     0
281
     0
  0
CLASS
  1
CELLSTYLEMAP
  2
AcDbCellStyleMap
  3
ObjectDBX Classes
 90
     1152
280
     0
281
     0
  0
CLASS
  1
ACDBPLACEHOLDER
  2
AcDbPlaceHolder
  3
ObjectDBX Classes
 90
        0
280
     0
281
     0
  0
CLASS
  1
LAYOUT
  2
AcDbLayout
  3
ObjectDBX Classes
 90
        0
280
     0
281
     0
  0
ENDSEC
  0
SECTION
  2
TABLES
  0
TABLE
  2
VPORT
  5
8
330
0
100
AcDbSymbolTable
 70
     1
  0
VPORT
  5
29
330
8
100
AcDbSymbolTableRecord
100
AcDbViewportTableRecord
  2
*Active
 70
     0
 10
0.0
 20
0.0
 11
1.0
 21
1.0
 12
1396.584268726856
 22
716.5095863826122
 13
0.0
 23
0.0
 14
10.0
 24
10.0
 15
10.0
 25
10.0
 16
0.0
 26
0.0
 36
1.0
 17
0.0
 27
0.0
 37
0.0
 40
2166.269187686367
 41
2.204301075268817
 42
50.0
 43
0.0
 44
0.0
 50
0.0
 51
0.0
 71
     0
 72
 20000
 73
     1
 74
     3
 75
     0
 76
     0
 77
     0
 78
     0
281
     0
 65
     1
110
0.0
120
0.0
130
0.0
111
1.0
121
0.0
131
0.0
112
0.0
122
1.0
132
0.0
 79
     0
146
0.0
1001
ACAD_NAV_VCDISPLAY
1070
     3
  0
ENDTAB
  0
TABLE
  2
LTYPE
  5
5
330
0
100
AcDbSymbolTable
 70
     2
  0
LTYPE
  5
14
330
5
100
AcDbSymbolTableRecord
100
AcDbLinetypeTableRecord
  2
ByBlock
 70
     0
  3

 72
    65
 73
     0
 40
0.0
  0
LTYPE
  5
15
330
5
100
AcDbSymbolTableRecord
100
AcDbLinetypeTableRecord
  2
ByLayer
 70
     0
  3

 72
    65
 73
     0
 40
0.0
  0
LTYPE
  5
16
330
5
100
AcDbSymbolTableRecord
100
AcDbLinetypeTableRecord
  2
Continuous
 70
     0
  3
Solid line
 72
    65
 73
     0
 40
0.0
  0
LTYPE
  5
256
330
5
100
AcDbSymbolTableRecord
100
AcDbLinetypeTableRecord
  2
CENTER2
 70
     0
  3
Center (.5x) ___ _ ___ _ ___ _ ___ _ ___ _ ___
 72
    65
 73
     4
 40
28.575
 49
19.05
 74
     0
 49
-3.174999999999998
 74
     0
 49
3.174999999999998
 74
     0
 49
-3.174999999999998
 74
     0
  0
ENDTAB
  0
TABLE
  2
LAYER
  5
2
102
{ACAD_XDICTIONARY
360
25C
102
}
330
0
100
AcDbSymbolTable
 70
     4
  0
LAYER
  5
10
102
{ACAD_XDICTIONARY
360
685
102
}
330
2
100
AcDbSymbolTableRecord
100
AcDbLayerTableRecord
  2
0
 70
     0
 62
     7
  6
Continuous
370
    -3
390
F
  0
LAYER
  5
66
330
2
100
AcDbSymbolTableRecord
100
AcDbLayerTableRecord
  2
Defpoints
 70
     0
 62
     7
  6
Continuous
290
     0
370
    -3
390
F
  0
LAYER
  5
257
102
{ACAD_XDICTIONARY
360
258
102
}
330
2
100
AcDbSymbolTableRecord
100
AcDbLayerTableRecord
  2
中心線
 70
     0
 62
     3
  6
CENTER2
370
    -3
390
F
  0
LAYER
  5
259
102
{ACAD_XDICTIONARY
360
25A
102
}
330
2
100
AcDbSymbolTableRecord
100
AcDbLayerTableRecord
  2
実線
 70
     0
 62
     7
  6
Continuous
370
    -3
390
F
  0
ENDTAB
  0
TABLE
  2
STYLE
  5
3
330
0
100
AcDbSymbolTable
 70
     1
  0
STYLE
  5
11
330
3
100
AcDbSymbolTableRecord
100
AcDbTextStyleTableRecord
  2
Standard
 70
     0
 40
0.0
 41
1.0
 50
0.0
 71
     0
 42
2.5
  3
txt
  4
extfont2
  0
ENDTAB
  0
TABLE
  2
VIEW
  5
6
330
0
100
AcDbSymbolTable
 70
     0
  0
ENDTAB
  0
TABLE
  2
UCS
  5
7
330
0
100
AcDbSymbolTable
 70
     0
  0
ENDTAB
  0
TABLE
  2
APPID
  5
9
330
0
100
AcDbSymbolTable
 70
     3
  0
APPID
  5
12
330
9
100
AcDbSymbolTableRecord
100
AcDbRegAppTableRecord
  2
ACAD
 70
     0
  0
APPID
  5
246
330
9
100
AcDbSymbolTableRecord
100
AcDbRegAppTableRecord
  2
ACAD_MLEADERVER
 70
     0
  0
APPID
  5
25B
330
9
100
AcDbSymbolTableRecord
100
AcDbRegAppTableRecord
  2
ACAD_NAV_VCDISPLAY
 70
     0
  0
ENDTAB
  0
TABLE
  2
DIMSTYLE
  5
A
330
0
100
AcDbSymbolTable
 70
     1
100
AcDbDimStyleTable
 71
     0
  0
DIMSTYLE
105
27
330
A
100
AcDbSymbolTableRecord
100
AcDbDimStyleTableRecord
  2
Standard
 70
     0
 41
2.5
 42
0.625
 43
3.75
 44
1.25
 73
     0
 74
     0
 77
     1
140
2.5
141
2.5
143
0.03937007874016
146
0.75
147
0.625
171
     3
172
     1
271
     2
272
     2
274
     3
283
     0
284
     8
340
11
  0
ENDTAB
  0
TABLE
  2
BLOCK_RECORD
  5
1
330
0
100
AcDbSymbolTable
 70
     1
  0
BLOCK_RECORD
  5
1F
102
{ACAD_XDICTIONARY
360
4F6
102
}
330
1
100
AcDbSymbolTableRecord
100
AcDbBlockTableRecord
  2
*Model_Space
340
22
  0
BLOCK_RECORD
  5
1B
330
1
100
AcDbSymbolTableRecord
100
AcDbBlockTableRecord
  2
*Paper_Space
340
1E
  0
BLOCK_RECORD
  5
23
330
1
100
AcDbSymbolTableRecord
100
AcDbBlockTableRecord
  2
*Paper_Space0
340
250
  0
ENDTAB
  0
ENDSEC
  0
SECTION
  2
BLOCKS
  0
BLOCK
  5
20
330
1F
100
AcDbEntity
  8
0
100
AcDbBlockBegin
  2
*Model_Space
 70
     0
 10
0.0
 20
0.0
 30
0.0
  3
*Model_Space
  1

  0
ENDBLK
  5
21
330
1F
100
AcDbEntity
  8
0
100
AcDbBlockEnd
  0
BLOCK
  5
1C
330
1B
100
AcDbEntity
 67
     1
  8
0
100
AcDbBlockBegin
  2
*Paper_Space
 70
     0
 10
0.0
 20
0.0
 30
0.0
  3
*Paper_Space
  1

  0
ENDBLK
  5
1D
330
1B
100
AcDbEntity
 67
     1
  8
0
100
AcDbBlockEnd
  0
BLOCK
  5
24
330
23
100
AcDbEntity
 67
     1
  8
0
100
AcDbBlockBegin
  2
*Paper_Space0
 70
     0
 10
0.0
 20
0.0
 30
0.0
  3
*Paper_Space0
  1

  0
ENDBLK
  5
25
330
23
100
AcDbEntity
 67
     1
  8
0
100
AcDbBlockEnd
  0
ENDSEC
  0
SECTION
  2
ENTITIES
  0
LINE
  5
4CE
102
{ACAD_REACTORS
330
684
102
}
330
1F
100
AcDbEntity
  8
実線
100
AcDbLine
 10
495.2428294040386
 20
1201.840201027587
 30
0.0
 11
497.2580837304203
 21
1201.840201027587
 31
0.0
  0
LINE
  5
4CF
102
{ACAD_REACTORS
330
684
102
}
330
1F
100
AcDbEntity
  8
実線
100
AcDbLine
 10
497.2580837304203
 20
1292.840201027587
 30
0.0
 11
495.2428294040386
 21
1292.840201027587
 31
0.0
  0
ELLIPSE
  5
4D0
102
{ACAD_REACTORS
330
684
102
}
330
1F
100
AcDbEntity
  8
実線
100
AcDbEllipse
 10
495.2428294040386
 20
1247.340201027587
 30
0.0
 11
0.0
 21
45.49999999999998
 31
0.0
210
0.0
220
0.0
230
1.0
 40
0.7071067811865474
 41
0.0
 42
3.141592653589792
  0
ELLIPSE
  5
4D1
102
{ACAD_REACTORS
330
684
102
}
330
1F
100
AcDbEntity
  8
実線
100
AcDbEllipse
 10
497.2580837304203
 20
1247.340201027587
 30
0.0
 11
0.0
 21
45.49999999999998
 31
0.0
210
0.0
220
0.0
230
1.0
 40
0.7071067811865474
 41
0.0
 42
3.141592653589792
  0
ELLIPSE
  5
4D2
102
{ACAD_REACTORS
330
684
102
}
330
1F
100
AcDbEntity
  8
実線
100
AcDbEllipse
 10
497.2580837304203
 20
1247.340201027587
 30
0.0
 11
0.0
 21
45.49999999999998
 31
0.0
210
0.0
220
0.0
230
1.0
 40
0.7071067811865474
 41
3.141592653589792
 42
3.717934987947213
  0
ELLIPSE
  5
4D3
102
{ACAD_REACTORS
330
684
102
}
330
1F
100
AcDbEntity
  8
実線
100
AcDbEllipse
 10
497.2580837304203
 20
1247.340201027587
 30
0.0
 11
0.0
 21
45.49999999999998
 31
0.0
210
0.0
220
0.0
230
1.0
 40
0.7071067811865474
 41
5.706842972822162
 42
6.283185307179584
  0
LINE
  5
4D4
102
{ACAD_REACTORS
330
684
102
}
330
1F
100
AcDbEntity
  8
実線
100
AcDbLine
 10
499.3440487349207
 20
1209.190201027588
 30
0.0
 11
509.738518418363
 21
1209.190201027588
 31
0.0
  0
LINE
  5
4D5
102
{ACAD_REACTORS
330
684
102
}
330
1F
100
AcDbEntity
  8
実線
100
AcDbLine
 10
509.738518418363
 20
1285.490201027587
 30
0.0
 11
499.3440487349207
 21
1285.490201027587
 31
0.0
  0
ELLIPSE
  5
4D6
102
{ACAD_REACTORS
330
684
102
}
330
1F
100
AcDbEntity
  8
実線
100
AcDbEllipse
 10
499.3440487349207
 20
1247.340201027587
 30
0.0
 11
0.0
 21
38.15000000000001
 31
0.0
210
0.0
220
0.0
230
1.0
 40
0.7071067811865475
 41
0.0
 42
3.141592632516367
  0
ELLIPSE
  5
4D7
102
{ACAD_REACTORS
330
684
102
}
330
1F
100
AcDbEntity
  8
実線
100
AcDbEllipse
 10
509.738518418363
 20
1247.340201027587
 30
0.0
 11
0.0
 21
38.15000000000001
 31
0.0
210
0.0
220
0.0
230
1.0
 40
0.7071067811865475
 41
0.0
 42
3.141592632516367
  0
ELLIPSE
  5
4D8
102
{ACAD_REACTORS
330
684
102
}
330
1F
100
AcDbEntity
  8
実線
100
AcDbEllipse
 10
509.7385184183629
 20
1247.340201027587
 30
0.0
 11
0.0
 21
38.15000000000001
 31
0.0
210
0.0
220
0.0
230
1.0
 40
0.7071067811865475
 41
0.0
 42
3.141592653589792
  0
LINE
  5
4D9
102
{ACAD_REACTORS
330
684
102
}
330
1F
100
AcDbEntity
  8
実線
100
AcDbLine
 10
547.8392700643719
 20
1285.490201027587
 30
0.0
 11
509.738518418363
 21
1285.490201027587
 31
0.0
  0
LINE
  5
4DA
102
{ACAD_REACTORS
330
684
102
}
330
1F
100
AcDbEntity
  8
実線
100
AcDbLine
 10
580.1517277546604
 20
1285.490201027587
 30
0.0
 11
563.1993437007398
 21
1285.490201027587
 31
0.0
  0
LINE
  5
4DB
102
{ACAD_REACTORS
330
684
102
}
330
1F
100
AcDbEntity
  8
実線
100
AcDbLine
 10
563.1993437007397
 20
1209.190201027588
 30
0.0
 11
580.1517277546604
 21
1209.190201027588
 31
0.0
  0
LINE
  5
4DC
102
{ACAD_REACTORS
330
684
102
}
330
1F
100
AcDbEntity
  8
実線
100
AcDbLine
 10
509.738518418363
 20
1209.190201027588
 30
0.0
 11
547.8392700643719
 21
1209.190201027588
 31
0.0
  0
CIRCLE
  5
4DF
102
{ACAD_REACTORS
330
684
102
}
330
1F
100
AcDbEntity
  8
実線
100
AcDbCircle
 10
793.406623530408
 20
1293.262212911398
 30
0.0
 40
11.5
  0
CIRCLE
  5
4E2
102
{ACAD_REACTORS
330
684
102
}
330
1F
100
AcDbEntity
  8
実線
100
AcDbCircle
 10
793.406623530408
 20
1201.418189143776
 30
0.0
 40
11.5
  0
CIRCLE
  5
4E5
102
{ACAD_REACTORS
330
684
102
}
330
1F
100
AcDbEntity
  8
実線
100
AcDbCircle
 10
728.4630915128651
 20
1136.474657126233
 30
0.0
 40
11.5
  0
CIRCLE
  5
4E8
102
{ACAD_REACTORS
330
684
102
}
330
1F
100
AcDbEntity
  8
実線
100
AcDbCircle
 10
636.6190677452436
 20
1136.474657126233
 30
0.0
 40
11.5
  0
CIRCLE
  5
4EB
102
{ACAD_REACTORS
330
684
102
}
330
1F
100
AcDbEntity
  8
実線
100
AcDbCircle
 10
571.6755357277
 20
1201.418189143777
 30
0.0
 40
11.5
  0
CIRCLE
  5
4EE
102
{ACAD_REACTORS
330
684
102
}
330
1F
100
AcDbEntity
  8
実線
100
AcDbCircle
 10
571.6755357277
 20
1293.262212911398
 30
0.0
 40
11.5
  0
CIRCLE
  5
4F1
102
{ACAD_REACTORS
330
684
102
}
330
1F
100
AcDbEntity
  8
実線
100
AcDbCircle
 10
636.6190677452436
 20
1358.205744928942
 30
0.0
 40
11.5
  0
CIRCLE
  5
4F4
102
{ACAD_REACTORS
330
684
102
}
330
1F
100
AcDbEntity
  8
実線
100
AcDbCircle
 10
728.4630915128651
 20
1358.205744928942
 30
0.0
 40
11.5
  0
CIRCLE
  5
4F5
102
{ACAD_REACTORS
330
684
102
}
330
1F
100
AcDbEntity
  8
実線
100
AcDbCircle
 10
682.5410796290545
 20
1247.340201027587
 30
0.0
 40
140.0
  0
ELLIPSE
  5
4F8
102
{ACAD_REACTORS
330
6D1
102
}
330
1F
100
AcDbEntity
  8
実線
100
AcDbEllipse
 10
509.738518418363
 20
227.340201027587
 30
0.0
 11
0.0
 21
38.15000000000001
 31
0.0
210
0.0
220
0.0
230
1.0
 40
0.7071067811865475
 41
3.368763277808243
 42
4.71238898038469
  0
ELLIPSE
  5
4F9
102
{ACAD_REACTORS
330
6D1
102
}
330
1F
100
AcDbEntity
  8
実線
100
AcDbEllipse
 10
509.738518418363
 20
227.340201027587
 30
0.0
 11
0.0
 21
38.15000000000001
 31
0.0
210
0.0
220
0.0
230
1.0
 40
0.7071067811865475
 41
4.71238898038469
 42
6.056014682961134
  0
ELLIPSE
  5
4FA
102
{ACAD_REACTORS
330
6D1
102
}
330
1F
100
AcDbEntity
  8
実線
100
AcDbEllipse
 10
495.2428294040386
 20
227.340201027587
 30
0.0
 11
0.0
 21
45.49999999999998
 31
0.0
210
0.0
220
0.0
230
1.0
 40
0.7071067811865474
 41
3.141592653589792
 42
4.71238898038469
  0
ELLIPSE
  5
4FB
102
{ACAD_REACTORS
330
6D1
102
}
330
1F
100
AcDbEntity
  8
実線
100
AcDbEllipse
 10
497.2580837304203
 20
227.340201027587
 30
0.0
 11
0.0
 21
45.49999999999998
 31
0.0
210
0.0
220
0.0
230
1.0
 40
0.7071067811865474
 41
3.141592653589792
 42
4.71238898038469
  0
LINE
  5
4FC
102
{ACAD_REACTORS
330
6D1
102
}
330
1F
100
AcDbEntity
  8
実線
100
AcDbLine
 10
495.2428294040386
 20
181.8402010275869
 30
0.0
 11
497.2580837304203
 21
181.8402010275869
 31
0.0
  0
LINE
  5
4FD
102
{ACAD_REACTORS
330
6D1
102
}
330
1F
100
AcDbEntity
  8
実線
100
AcDbLine
 10
497.2580837304203
 20
272.840201027587
 30
0.0
 11
495.2428294040386
 21
272.840201027587
 31
0.0
  0
ELLIPSE
  5
4FE
102
{ACAD_REACTORS
330
6D1
102
}
330
1F
100
AcDbEntity
  8
実線
100
AcDbEllipse
 10
495.2428294040386
 20
227.340201027587
 30
0.0
 11
0.0
 21
45.49999999999998
 31
0.0
210
0.0
220
0.0
230
1.0
 40
0.7071067811865474
 41
0.0
 42
3.141592653589792
  0
ELLIPSE
  5
4FF
102
{ACAD_REACTORS
330
6D1
102
}
330
1F
100
AcDbEntity
  8
実線
100
AcDbEllipse
 10
495.2428294040386
 20
227.340201027587
 30
0.0
 11
0.0
 21
45.49999999999998
 31
0.0
210
0.0
220
0.0
230
1.0
 40
0.7071067811865474
 41
4.71238898038469
 42
6.283185307179584
  0
ELLIPSE
  5
500
102
{ACAD_REACTORS
330
6D1
102
}
330
1F
100
AcDbEntity
  8
実線
100
AcDbEllipse
 10
497.2580837304203
 20
227.340201027587
 30
0.0
 11
0.0
 21
45.49999999999998
 31
0.0
210
0.0
220
0.0
230
1.0
 40
0.7071067811865474
 41
4.71238898038469
 42
6.283185307179584
  0
LINE
  5
501
102
{ACAD_REACTORS
330
6D1
102
}
330
1F
100
AcDbEntity
  8
実線
100
AcDbLine
 10
618.6730307789794
 20
265.4902010275869
 30
0.0
 11
599.5410796290545
 21
265.4902010275869
 31
0.0
  0
LINE
  5
502
102
{ACAD_REACTORS
330
6D1
102
}
330
1F
100
AcDbEntity
  8
実線
100
AcDbLine
 10
599.5410796290545
 20
189.190201027587
 30
0.0
 11
618.6730307789794
 21
189.190201027587
 31
0.0
  0
LINE
  5
503
102
{ACAD_REACTORS
330
6D1
102
}
330
1F
100
AcDbEntity
  8
実線
100
AcDbLine
 10
514.7913022027944
 20
189.190201027587
 30
0.0
 11
599.5410796290545
 21
189.190201027587
 31
0.0
  0
LINE
  5
504
102
{ACAD_REACTORS
330
6D1
102
}
330
1F
100
AcDbEntity
  8
実線
100
AcDbLine
 10
599.5410796290545
 20
265.4902010275869
 30
0.0
 11
514.7913022027944
 21
265.4902010275869
 31
0.0
  0
ELLIPSE
  5
505
102
{ACAD_REACTORS
330
6D1
102
}
330
1F
100
AcDbEntity
  8
実線
100
AcDbEllipse
 10
509.7385184183629
 20
227.340201027587
 30
0.0
 11
0.0
 21
38.15000000000001
 31
0.0
210
0.0
220
0.0
230
1.0
 40
0.7071067811865475
 41
3.368763277808236
 42
6.056014682961142
  0
LINE
  5
506
102
{ACAD_REACTORS
330
6D1
102
}
330
1F
100
AcDbEntity
  8
実線
100
AcDbLine
 10
599.5410796290545
 20
265.4902010275869
 30
0.0
 11
599.5410796290545
 21
189.190201027587
 31
0.0
  0
CIRCLE
  5
507
102
{ACAD_REACTORS
330
6D1
102
}
330
1F
100
AcDbEntity
  8
実線
100
AcDbCircle
 10
682.5410796290545
 20
227.340201027587
 30
0.0
 40
17.5
  0
LINE
  5
508
102
{ACAD_REACTORS
330
6D1
102
}
330
1F
100
AcDbEntity
  8
実線
100
AcDbLine
 10
675.5410796290544
 20
209.2402010275869
 30
0.0
 11
675.5410796290544
 21
201.3402010275869
 31
0.0
  0
LINE
  5
509
102
{ACAD_REACTORS
330
6D1
102
}
330
1F
100
AcDbEntity
  8
実線
100
AcDbLine
 10
700.5410796290542
 20
201.3402010275869
 30
0.0
 11
700.5410796290542
 21
209.2402010275869
 31
0.0
  0
LINE
  5
50A
102
{ACAD_REACTORS
330
6D1
102
}
330
1F
100
AcDbEntity
  8
実線
100
AcDbLine
 10
675.5410796290544
 20
209.2402010275869
 30
0.0
 11
700.5410796290542
 21
209.2402010275869
 31
0.0
  0
LINE
  5
50B
102
{ACAD_REACTORS
330
6D1
102
}
330
1F
100
AcDbEntity
  8
実線
100
AcDbLine
 10
700.5410796290542
 20
203.7902010275871
 30
0.0
 11
707.0410796290542
 21
203.7902010275871
 31
0.0
  0
LINE
  5
50C
102
{ACAD_REACTORS
330
6D1
102
}
330
1F
100
AcDbEntity
  8
実線
100
AcDbLine
 10
707.0410796290542
 20
206.790201027587
 30
0.0
 11
700.5410796290542
 21
206.790201027587
 31
0.0
  0
LINE
  5
50D
102
{ACAD_REACTORS
330
6D1
102
}
330
1F
100
AcDbEntity
  8
実線
100
AcDbLine
 10
707.0410796290542
 20
203.7902010275871
 30
0.0
 11
707.0410796290542
 21
206.790201027587
 31
0.0
  0
LINE
  5
50E
102
{ACAD_REACTORS
330
6D1
102
}
330
1F
100
AcDbEntity
  8
実線
100
AcDbLine
 10
675.5410796290542
 20
180.3402010275869
 30
0.0
 11
675.5410796290542
 21
201.3402010275869
 31
0.0
  0
LINE
  5
50F
102
{ACAD_REACTORS
330
6D1
102
}
330
1F
100
AcDbEntity
  8
実線
100
AcDbLine
 10
685.5410796290542
 20
200.1402010275869
 30
0.0
 11
685.5410796290542
 21
180.3402010275869
 31
0.0
  0
CIRCLE
  5
512
102
{ACAD_REACTORS
330
6D1
102
}
330
1F
100
AcDbEntity
  8
実線
100
AcDbCircle
 10
680.5410796290544
 20
185.8402010275869
 30
0.0
 40
2.0
  0
LINE
  5
513
102
{ACAD_REACTORS
330
6D1
102
}
330
1F
100
AcDbEntity
  8
実線
100
AcDbLine
 10
685.5410796290542
 20
180.3402010275869
 30
0.0
 11
675.5410796290542
 21
180.3402010275869
 31
0.0
  0
LINE
  5
514
102
{ACAD_REACTORS
330
6D1
102
}
330
1F
100
AcDbEntity
  8
実線
100
AcDbLine
 10
717.5410796290544
 20
200.1402010275869
 30
0.0
 11
675.5410796290544
 21
200.1402010275869
 31
0.0
  0
CIRCLE
  5
517
102
{ACAD_REACTORS
330
6D1
102
}
330
1F
100
AcDbEntity
  8
実線
100
AcDbCircle
 10
712.5410796290544
 20
203.8402010275869
 30
0.0
 40
2.0
  0
LINE
  5
518
102
{ACAD_REACTORS
330
6D1
102
}
330
1F
100
AcDbEntity
  8
実線
100
AcDbLine
 10
717.5410796290544
 20
209.3402010275869
 30
0.0
 11
717.5410796290544
 21
200.1402010275869
 31
0.0
  0
LINE
  5
519
102
{ACAD_REACTORS
330
6D1
102
}
330
1F
100
AcDbEntity
  8
実線
100
AcDbLine
 10
690.5410796290542
 20
209.3402010275869
 30
0.0
 11
717.5410796290544
 21
209.3402010275869
 31
0.0
  0
LINE
  5
51A
102
{ACAD_REACTORS
330
6D1
102
}
330
1F
100
AcDbEntity
  8
実線
100
AcDbLine
 10
690.5410796290542
 20
209.2402010275869
 30
0.0
 11
690.5410796290542
 21
209.3402010275869
 31
0.0
  0
LINE
  5
51B
102
{ACAD_REACTORS
330
6D1
102
}
330
1F
100
AcDbEntity
  8
実線
100
AcDbLine
 10
702.5410796290542
 20
201.3402010275869
 30
0.0
 11
702.5410796290542
 21
200.1402010275869
 31
0.0
  0
LINE
  5
51C
102
{ACAD_REACTORS
330
6D1
102
}
330
1F
100
AcDbEntity
  8
実線
100
AcDbLine
 10
675.5410796290544
 20
201.3402010275869
 30
0.0
 11
702.5410796290542
 21
201.3402010275869
 31
0.0
  0
LINE
  5
51D
102
{ACAD_REACTORS
330
6D1
102
}
330
1F
100
AcDbEntity
  8
実線
100
AcDbLine
 10
611.7091992752529
 20
275.4355831089221
 30
0.0
 11
624.6668047939838
 21
256.9302046151958
 31
0.0
  0
ARC
  5
51E
102
{ACAD_REACTORS
330
6D1
102
}
330
1F
100
AcDbEntity
  8
実線
100
AcDbCircle
 10
625.8420510024535
 20
285.8848007170538
 30
0.0
 40
14.99999999999999
100
AcDbArc
 50
55.00000000000264
 51
134.0825141848806
  0
LINE
  5
51F
102
{ACAD_REACTORS
330
6D1
102
}
330
1F
100
AcDbEntity
  8
実線
100
AcDbLine
 10
652.9510760414455
 20
285.2144758626576
 30
0.0
 11
634.4456975477196
 21
298.1720813813885
 31
0.0
  0
ARC
  5
520
102
{ACAD_REACTORS
330
6D1
102
}
330
1F
100
AcDbEntity
  8
実線
100
AcDbCircle
 10
623.9964799395876
 20
284.0392296541876
 30
0.0
 40
14.99999999999991
100
AcDbArc
 50
135.9174858151217
 51
214.9999999999974
  0
ARC
  5
521
102
{ACAD_REACTORS
330
6D1
102
}
330
1F
100
AcDbEntity
  8
実線
100
AcDbCircle
 10
682.541079629054
 20
227.3402010275906
 30
0.0
 40
96.49999999999705
100
AcDbArc
 50
134.0825141848806
 51
135.9174858151217
  0
LINE
  5
522
102
{ACAD_REACTORS
330
6D1
102
}
330
1F
100
AcDbEntity
  8
実線
100
AcDbLine
 10
624.6668047939838
 20
197.7501974399782
 30
0.0
 11
611.7091992752529
 21
179.244818946252
 31
0.0
  0
ARC
  5
523
102
{ACAD_REACTORS
330
6D1
102
}
330
1F
100
AcDbEntity
  8
実線
100
AcDbCircle
 10
623.9964799395876
 20
170.6411724009862
 30
0.0
 40
15.0
100
AcDbArc
 50
145.0000000000026
 51
224.0825141848783
  0
ARC
  5
524
102
{ACAD_REACTORS
330
6D1
102
}
330
1F
100
AcDbEntity
  8
実線
100
AcDbCircle
 10
682.5410796290545
 20
227.3402010275906
 30
0.0
 40
96.50000000000247
100
AcDbArc
 50
224.0825141848829
 51
225.9174858151194
  0
LINE
  5
525
102
{ACAD_REACTORS
330
6D1
102
}
330
1F
100
AcDbEntity
  8
実線
100
AcDbLine
 10
634.4456975477196
 20
156.5083206737854
 30
0.0
 11
652.9510760414455
 21
169.4659261925163
 31
0.0
  0
ARC
  5
526
102
{ACAD_REACTORS
330
6D1
102
}
330
1F
100
AcDbEntity
  8
実線
100
AcDbCircle
 10
625.8420510024535
 20
168.7956013381202
 30
0.0
 40
14.99999999999994
100
AcDbArc
 50
225.9174858151194
 51
304.9999999999974
  0
ARC
  5
527
102
{ACAD_REACTORS
330
6D1
102
}
330
1F
100
AcDbEntity
  8
実線
100
AcDbCircle
 10
741.0856793185212
 20
284.0392296541876
 30
0.0
 40
15.00000000000001
100
AcDbArc
 50
325.0000000000026
 51
44.08251418487829
  0
ARC
  5
528
102
{ACAD_REACTORS
330
6D1
102
}
330
1F
100
AcDbEntity
  8
実線
100
AcDbCircle
 10
739.2401082556553
 20
285.8848007170537
 30
0.0
 40
15.0000000000001
100
AcDbArc
 50
45.9174858151194
 51
124.9999999999974
  0
LINE
  5
529
102
{ACAD_REACTORS
330
6D1
102
}
330
1F
100
AcDbEntity
  8
実線
100
AcDbLine
 10
730.6364617103895
 20
298.1720813813886
 30
0.0
 11
712.1310832166632
 21
285.2144758626576
 31
0.0
  0
ARC
  5
52A
102
{ACAD_REACTORS
330
6D1
102
}
330
1F
100
AcDbEntity
  8
実線
100
AcDbCircle
 10
682.5410796290542
 20
227.3402010275906
 30
0.0
 40
96.49999999999771
100
AcDbArc
 50
44.08251418487829
 51
45.9174858151194
  0
LINE
  5
52B
102
{ACAD_REACTORS
330
6D1
102
}
330
1F
100
AcDbEntity
  8
実線
100
AcDbLine
 10
740.4153544641253
 20
256.9302046151958
 30
0.0
 11
753.3729599828562
 21
275.4355831089219
 31
0.0
  0
LINE
  5
52C
102
{ACAD_REACTORS
330
6D1
102
}
330
1F
100
AcDbEntity
  8
実線
100
AcDbLine
 10
712.1310832166632
 20
169.4659261925162
 30
0.0
 11
730.6364617103895
 21
156.5083206737852
 31
0.0
  0
LINE
  5
52D
102
{ACAD_REACTORS
330
6D1
102
}
330
1F
100
AcDbEntity
  8
実線
100
AcDbLine
 10
753.3729599828562
 20
179.244818946252
 30
0.0
 11
740.4153544641253
 21
197.7501974399782
 31
0.0
  0
ARC
  5
52E
102
{ACAD_REACTORS
330
6D1
102
}
330
1F
100
AcDbEntity
  8
実線
100
AcDbCircle
 10
739.2401082556553
 20
168.7956013381201
 30
0.0
 40
14.99999999999996
100
AcDbArc
 50
235.0000000000026
 51
314.0825141848806
  0
ARC
  5
52F
102
{ACAD_REACTORS
330
6D1
102
}
330
1F
100
AcDbEntity
  8
実線
100
AcDbCircle
 10
682.541079629054
 20
227.3402010275906
 30
0.0
 40
96.50000000000281
100
AcDbArc
 50
314.0825141848806
 51
315.9174858151171
  0
ARC
  5
530
102
{ACAD_REACTORS
330
6D1
102
}
330
1F
100
AcDbEntity
  8
実線
100
AcDbCircle
 10
741.0856793185212
 20
170.6411724009862
 30
0.0
 40
15.00000000000002
100
AcDbArc
 50
315.9174858151217
 51
34.99999999999737
  0
ARC
  5
533
102
{ACAD_REACTORS
330
6D1
102
}
330
1F
100
AcDbEntity
  8
実線
100
AcDbCircle
 10
571.6755357277
 20
273.2622129113977
 30
0.0
 40
11.5
100
AcDbArc
 50
317.4815861721108
 51
222.5184138278892
  0
CIRCLE
  5
536
102
{ACAD_REACTORS
330
6D1
102
}
330
1F
100
AcDbEntity
  8
実線
100
AcDbCircle
 10
793.406623530408
 20
181.4181891437762
 30
0.0
 40
11.5
  0
CIRCLE
  5
539
102
{ACAD_REACTORS
330
6D1
102
}
330
1F
100
AcDbEntity
  8
実線
100
AcDbCircle
 10
793.406623530408
 20
273.2622129113977
 30
0.0
 40
11.5
  0
CIRCLE
  5
53C
102
{ACAD_REACTORS
330
6D1
102
}
330
1F
100
AcDbEntity
  8
実線
100
AcDbCircle
 10
728.4630915128651
 20
338.2057449289414
 30
0.0
 40
11.5
  0
CIRCLE
  5
53F
102
{ACAD_REACTORS
330
6D1
102
}
330
1F
100
AcDbEntity
  8
実線
100
AcDbCircle
 10
636.6190677452436
 20
338.2057449289414
 30
0.0
 40
11.5
  0
ARC
  5
542
102
{ACAD_REACTORS
330
6D1
102
}
330
1F
100
AcDbEntity
  8
実線
100
AcDbCircle
 10
571.6755357277
 20
181.4181891437762
 30
0.0
 40
11.5
100
AcDbArc
 50
137.4815861721107
 51
42.51841382788924
  0
CIRCLE
  5
545
102
{ACAD_REACTORS
330
6D1
102
}
330
1F
100
AcDbEntity
  8
実線
100
AcDbCircle
 10
636.6190677452436
 20
116.4746571262325
 30
0.0
 40
11.5
  0
CIRCLE
  5
548
102
{ACAD_REACTORS
330
6D1
102
}
330
1F
100
AcDbEntity
  8
実線
100
AcDbCircle
 10
728.4630915128651
 20
116.4746571262325
 30
0.0
 40
11.5
  0
ARC
  5
549
102
{ACAD_REACTORS
330
6D1
102
}
330
1F
100
AcDbEntity
  8
実線
100
AcDbCircle
 10
682.5410796290545
 20
227.340201027587
 30
0.0
 40
140.0
100
AcDbArc
 50
195.8130857292005
 51
164.1869142707995
  0
CIRCLE
  5
54A
102
{ACAD_REACTORS
330
6D1
102
}
330
1F
100
AcDbEntity
  8
実線
100
AcDbCircle
 10
682.5410796290545
 20
227.340201027587
 30
0.0
 40
65.0
  0
LINE
  5
54B
102
{ACAD_REACTORS
330
680
102
}
330
1F
100
AcDbEntity
  8
実線
100
AcDbLine
 10
1788.367517137479
 20
802.6666385360112
 30
0.0
 11
1842.319764542013
 21
856.618885940545
 31
0.0
  0
LINE
  5
54C
102
{ACAD_REACTORS
330
680
102
}
330
1F
100
AcDbEntity
  8
実線
100
AcDbLine
 10
1852.714234225454
 20
846.224416257103
 30
0.0
 11
1842.319764542013
 21
856.618885940545
 31
0.0
  0
LINE
  5
54D
102
{ACAD_REACTORS
330
680
102
}
330
1F
100
AcDbEntity
  8
実線
100
AcDbLine
 10
1788.367517137479
 20
802.6666385360112
 30
0.0
 11
1798.761986820921
 21
792.272168852569
 31
0.0
  0
LINE
  5
54E
102
{ACAD_REACTORS
330
680
102
}
330
1F
100
AcDbEntity
  8
実線
100
AcDbLine
 10
1797.665971310082
 20
782.9737146799659
 30
0.0
 11
1862.012688398058
 21
847.3204317679419
 31
0.0
  0
LINE
  5
54F
102
{ACAD_REACTORS
330
680
102
}
330
1F
100
AcDbEntity
  8
実線
100
AcDbLine
 10
1862.012688398058
 20
847.3204317679419
 30
0.0
 11
1859.997434071676
 21
849.3356860943229
 31
0.0
  0
LINE
  5
550
102
{ACAD_REACTORS
330
680
102
}
330
1F
100
AcDbEntity
  8
実線
100
AcDbLine
 10
1795.650716983701
 20
784.9889690063474
 30
0.0
 11
1797.665971310082
 21
782.9737146799659
 31
0.0
  0
LINE
  5
551
102
{ACAD_REACTORS
330
680
102
}
330
1F
100
AcDbEntity
  8
実線
100
AcDbLine
 10
1795.650716983701
 20
784.9889690063474
 30
0.0
 11
1859.997434071676
 21
849.3356860943229
 31
0.0
  0
LINE
  5
552
102
{ACAD_REACTORS
330
680
102
}
330
1F
100
AcDbEntity
  8
実線
100
AcDbLine
 10
1798.761986820921
 20
792.272168852569
 30
0.0
 11
1852.714234225454
 21
846.224416257103
 31
0.0
  0
LINE
  5
553
102
{ACAD_REACTORS
330
680
102
}
330
1F
100
AcDbEntity
  8
実線
100
AcDbLine
 10
1798.761986820921
 20
792.272168852569
 30
0.0
 11
1795.650716983701
 21
784.9889690063474
 31
0.0
  0
LINE
  5
554
102
{ACAD_REACTORS
330
680
102
}
330
1F
100
AcDbEntity
  8
実線
100
AcDbLine
 10
1859.997434071676
 20
849.3356860943229
 30
0.0
 11
1852.714234225454
 21
846.224416257103
 31
0.0
  0
LINE
  5
555
102
{ACAD_REACTORS
330
680
102
}
330
1F
100
AcDbEntity
  8
実線
100
AcDbLine
 10
1716.085679318521
 20
828.6902010275868
 30
0.0
 11
1725.541079629054
 21
828.6902010275868
 31
0.0
  0
LINE
  5
556
102
{ACAD_REACTORS
330
680
102
}
330
1F
100
AcDbEntity
  8
実線
100
AcDbLine
 10
1725.541079629054
 20
904.9902010275859
 30
0.0
 11
1703.104104763929
 21
904.9902010275859
 31
0.0
  0
LINE
  5
557
102
{ACAD_REACTORS
330
680
102
}
330
1F
100
AcDbEntity
  8
実線
100
AcDbLine
 10
1725.541079629054
 20
904.9902010275859
 30
0.0
 11
1725.541079629054
 21
828.6902010275868
 31
0.0
  0
ARC
  5
558
102
{ACAD_REACTORS
330
680
102
}
330
1F
100
AcDbEntity
  8
実線
100
AcDbCircle
 10
1725.541079629054
 20
739.8402010275864
 30
0.0
 40
165.15
100
AcDbArc
 50
44.99999999999539
 51
90.0
  0
ARC
  5
559
102
{ACAD_REACTORS
330
680
102
}
330
1F
100
AcDbEntity
  8
実線
100
AcDbCircle
 10
1725.541079629054
 20
739.8402010275864
 30
0.0
 40
88.84999999999998
100
AcDbArc
 50
44.99999999999539
 51
90.0
  0
LINE
  5
55A
102
{ACAD_REACTORS
330
680
102
}
330
1F
100
AcDbEntity
  8
実線
100
AcDbLine
 10
1702.541079629054
 20
919.3402010275859
 30
0.0
 11
1702.541079629054
 21
925.3402010275859
 31
0.0
  0
LINE
  5
55B
102
{ACAD_REACTORS
330
680
102
}
330
1F
100
AcDbEntity
  8
実線
100
AcDbLine
 10
1582.541079629054
 20
925.3402010275859
 30
0.0
 11
1582.541079629054
 21
919.3402010275859
 31
0.0
  0
LINE
  5
55C
102
{ACAD_REACTORS
330
680
102
}
330
1F
100
AcDbEntity
  8
実線
100
AcDbLine
 10
1592.541079629054
 20
909.3402010275859
 30
0.0
 11
1692.541079629054
 21
909.3402010275859
 31
0.0
  0
LINE
  5
55D
102
{ACAD_REACTORS
330
680
102
}
330
1F
100
AcDbEntity
  8
実線
100
AcDbLine
 10
1582.541079629054
 20
919.3402010275859
 30
0.0
 11
1702.541079629054
 21
919.3402010275859
 31
0.0
  0
LINE
  5
55E
102
{ACAD_REACTORS
330
680
102
}
330
1F
100
AcDbEntity
  8
実線
100
AcDbLine
 10
1692.541079629054
 20
909.3402010275859
 30
0.0
 11
1702.541079629054
 21
919.3402010275859
 31
0.0
  0
LINE
  5
55F
102
{ACAD_REACTORS
330
680
102
}
330
1F
100
AcDbEntity
  8
実線
100
AcDbLine
 10
1582.541079629054
 20
919.3402010275859
 30
0.0
 11
1592.541079629054
 21
909.3402010275859
 31
0.0
  0
LINE
  5
560
102
{ACAD_REACTORS
330
680
102
}
330
1F
100
AcDbEntity
  8
実線
100
AcDbLine
 10
1577.541079629054
 20
797.8402010275864
 30
0.0
 11
1577.541079629054
 21
543.8402010275864
 31
0.0
  0
LINE
  5
561
102
{ACAD_REACTORS
330
680
102
}
330
1F
100
AcDbEntity
  8
実線
100
AcDbLine
 10
1707.541079629054
 20
543.8402010275864
 30
0.0
 11
1707.541079629054
 21
797.8402010275866
 31
0.0
  0
LINE
  5
562
102
{ACAD_REACTORS
330
680
102
}
330
1F
100
AcDbEntity
  8
実線
100
AcDbLine
 10
1577.541079629054
 20
543.8402010275864
 30
0.0
 11
1707.541079629054
 21
543.8402010275864
 31
0.0
  0
LINE
  5
563
102
{ACAD_REACTORS
330
680
102
}
330
1F
100
AcDbEntity
  8
実線
100
AcDbLine
 10
1660.041079629054
 20
502.3402010275866
 30
0.0
 11
1660.041079629054
 21
512.3402010275866
 31
0.0
  0
LINE
  5
564
102
{ACAD_REACTORS
330
680
102
}
330
1F
100
AcDbEntity
  8
実線
100
AcDbLine
 10
1649.541079629054
 20
502.3402010275866
 30
0.0
 11
1660.041079629054
 21
502.3402010275866
 31
0.0
  0
LINE
  5
565
102
{ACAD_REACTORS
330
680
102
}
330
1F
100
AcDbEntity
  8
実線
100
AcDbLine
 10
1649.541079629054
 20
512.3402010275866
 30
0.0
 11
1660.041079629054
 21
512.3402010275866
 31
0.0
  0
LINE
  5
566
102
{ACAD_REACTORS
330
680
102
}
330
1F
100
AcDbEntity
  8
実線
100
AcDbLine
 10
1622.541079629054
 20
530.3402010275864
 30
0.0
 11
1618.041079629054
 21
530.3402010275864
 31
0.0
  0
LINE
  5
567
102
{ACAD_REACTORS
330
680
102
}
330
1F
100
AcDbEntity
  8
実線
100
AcDbLine
 10
1618.041079629054
 20
527.3402010275864
 30
0.0
 11
1622.541079629054
 21
527.3402010275864
 31
0.0
  0
LINE
  5
568
102
{ACAD_REACTORS
330
680
102
}
330
1F
100
AcDbEntity
  8
実線
100
AcDbLine
 10
1618.041079629054
 20
530.3402010275864
 30
0.0
 11
1618.041079629054
 21
527.3402010275864
 31
0.0
  0
LINE
  5
569
102
{ACAD_REACTORS
330
680
102
}
330
1F
100
AcDbEntity
  8
実線
100
AcDbLine
 10
1656.541079629054
 20
512.3402010275866
 30
0.0
 11
1656.541079629054
 21
538.8402010275864
 31
0.0
  0
LINE
  5
56A
102
{ACAD_REACTORS
330
680
102
}
330
1F
100
AcDbEntity
  8
実線
100
AcDbLine
 10
1622.541079629054
 20
510.3402010275864
 30
0.0
 11
1618.041079629054
 21
510.3402010275864
 31
0.0
  0
LINE
  5
56B
102
{ACAD_REACTORS
330
680
102
}
330
1F
100
AcDbEntity
  8
実線
100
AcDbLine
 10
1618.041079629054
 20
507.3402010275864
 30
0.0
 11
1622.541079629054
 21
507.3402010275864
 31
0.0
  0
LINE
  5
56C
102
{ACAD_REACTORS
330
680
102
}
330
1F
100
AcDbEntity
  8
実線
100
AcDbLine
 10
1618.041079629054
 20
510.3402010275864
 30
0.0
 11
1618.041079629054
 21
507.3402010275864
 31
0.0
  0
ARC
  5
56D
102
{ACAD_REACTORS
330
680
102
}
330
1F
100
AcDbEntity
  8
実線
100
AcDbCircle
 10
1692.541079629054
 20
894.3402010275859
 30
0.0
 40
15.0
100
AcDbArc
 50
45.23491532867498
 51
90.0
  0
ARC
  5
56E
102
{ACAD_REACTORS
330
680
102
}
330
1F
100
AcDbEntity
  8
実線
100
AcDbCircle
 10
1592.541079629054
 20
894.3402010275859
 30
0.0
 40
15.0
100
AcDbArc
 50
90.0
 51
180.0
  0
LINE
  5
56F
102
{ACAD_REACTORS
330
680
102
}
330
1F
100
AcDbEntity
  8
実線
100
AcDbLine
 10
1716.085679318521
 20
819.8402010275858
 30
0.0
 11
1568.996479939587
 21
819.8402010275858
 31
0.0
  0
LINE
  5
570
102
{ACAD_REACTORS
330
680
102
}
330
1F
100
AcDbEntity
  8
実線
100
AcDbLine
 10
1577.541079629054
 20
894.3402010275859
 30
0.0
 11
1577.541079629054
 21
839.8402010275859
 31
0.0
  0
LINE
  5
571
102
{ACAD_REACTORS
330
680
102
}
330
1F
100
AcDbEntity
  8
実線
100
AcDbLine
 10
1568.996479939587
 20
839.8402010275859
 30
0.0
 11
1612.951076041445
 21
839.8402010275859
 31
0.0
  0
LINE
  5
572
102
{ACAD_REACTORS
330
680
102
}
330
1F
100
AcDbEntity
  8
実線
100
AcDbLine
 10
1568.996479939587
 20
839.8402010275859
 30
0.0
 11
1568.996479939587
 21
819.8402010275858
 31
0.0
  0
LINE
  5
573
102
{ACAD_REACTORS
330
680
102
}
330
1F
100
AcDbEntity
  8
実線
100
AcDbLine
 10
1716.085679318521
 20
819.8402010275858
 30
0.0
 11
1716.085679318521
 21
839.8402010275859
 31
0.0
  0
LINE
  5
574
102
{ACAD_REACTORS
330
680
102
}
330
1F
100
AcDbEntity
  8
実線
100
AcDbLine
 10
1716.085679318521
 20
839.8402010275859
 30
0.0
 11
1672.131083216663
 21
839.8402010275859
 31
0.0
  0
LINE
  5
575
102
{ACAD_REACTORS
330
680
102
}
330
1F
100
AcDbEntity
  8
実線
100
AcDbLine
 10
1672.131083216663
 20
819.8402010275858
 30
0.0
 11
1672.131083216663
 21
839.8402010275859
 31
0.0
  0
LINE
  5
576
102
{ACAD_REACTORS
330
680
102
}
330
1F
100
AcDbEntity
  8
実線
100
AcDbLine
 10
1612.951076041445
 20
819.8402010275858
 30
0.0
 11
1612.951076041445
 21
839.8402010275859
 31
0.0
  0
LINE
  5
577
102
{ACAD_REACTORS
330
680
102
}
330
1F
100
AcDbEntity
  8
実線
100
AcDbLine
 10
1649.541079629054
 20
498.8402010275864
 30
0.0
 11
1649.541079629054
 21
538.8402010275864
 31
0.0
  0
LINE
  5
578
102
{ACAD_REACTORS
330
680
102
}
330
1F
100
AcDbEntity
  8
実線
100
AcDbLine
 10
1622.541079629054
 20
537.6402010275866
 30
0.0
 11
1622.541079629054
 21
498.8402010275864
 31
0.0
  0
LINE
  5
579
102
{ACAD_REACTORS
330
680
102
}
330
1F
100
AcDbEntity
  8
実線
100
AcDbLine
 10
1622.541079629054
 20
498.8402010275864
 30
0.0
 11
1649.541079629054
 21
498.8402010275864
 31
0.0
  0
LINE
  5
57A
102
{ACAD_REACTORS
330
680
102
}
330
1F
100
AcDbEntity
  8
実線
100
AcDbLine
 10
1607.541079629054
 20
537.6402010275866
 30
0.0
 11
1622.541079629054
 21
537.6402010275866
 31
0.0
  0
LINE
  5
57B
102
{ACAD_REACTORS
330
680
102
}
330
1F
100
AcDbEntity
  8
実線
100
AcDbLine
 10
1607.541079629054
 20
538.8402010275864
 30
0.0
 11
1607.541079629054
 21
537.6402010275865
 31
0.0
  0
LINE
  5
57C
102
{ACAD_REACTORS
330
680
102
}
330
1F
100
AcDbEntity
  8
実線
100
AcDbLine
 10
1639.541079629054
 20
538.8402010275864
 30
0.0
 11
1639.541079629054
 21
537.6402010275865
 31
0.0
  0
LINE
  5
57D
102
{ACAD_REACTORS
330
680
102
}
330
1F
100
AcDbEntity
  8
実線
100
AcDbLine
 10
1639.541079629054
 20
537.6402010275866
 30
0.0
 11
1649.541079629054
 21
537.6402010275866
 31
0.0
  0
LINE
  5
57E
102
{ACAD_REACTORS
330
680
102
}
330
1F
100
AcDbEntity
  8
実線
100
AcDbLine
 10
1707.541079629054
 20
797.8402010275864
 30
0.0
 11
1707.541079629054
 21
801.3402010275864
 31
0.0
  0
LINE
  5
57F
102
{ACAD_REACTORS
330
680
102
}
330
1F
100
AcDbEntity
  8
実線
100
AcDbLine
 10
1577.541079629054
 20
801.3402010275864
 30
0.0
 11
1577.541079629054
 21
797.8402010275864
 31
0.0
  0
LINE
  5
580
102
{ACAD_REACTORS
330
680
102
}
330
1F
100
AcDbEntity
  8
実線
100
AcDbLine
 10
1577.541079629054
 20
797.8402010275864
 30
0.0
 11
1707.541079629054
 21
797.8402010275864
 31
0.0
  0
LINE
  5
581
102
{ACAD_REACTORS
330
680
102
}
330
1F
100
AcDbEntity
  8
実線
100
AcDbLine
 10
1568.996479939587
 20
801.3402010275864
 30
0.0
 11
1612.951076041445
 21
801.3402010275864
 31
0.0
  0
LINE
  5
582
102
{ACAD_REACTORS
330
680
102
}
330
1F
100
AcDbEntity
  8
実線
100
AcDbLine
 10
1568.996479939587
 20
819.8402010275858
 30
0.0
 11
1568.996479939587
 21
801.3402010275864
 31
0.0
  0
LINE
  5
583
102
{ACAD_REACTORS
330
680
102
}
330
1F
100
AcDbEntity
  8
実線
100
AcDbLine
 10
1716.085679318521
 20
801.3402010275864
 30
0.0
 11
1716.085679318521
 21
819.8402010275858
 31
0.0
  0
LINE
  5
584
102
{ACAD_REACTORS
330
680
102
}
330
1F
100
AcDbEntity
  8
実線
100
AcDbLine
 10
1716.085679318521
 20
801.3402010275864
 30
0.0
 11
1672.131083216663
 21
801.3402010275864
 31
0.0
  0
LINE
  5
585
102
{ACAD_REACTORS
330
680
102
}
330
1F
100
AcDbEntity
  8
実線
100
AcDbLine
 10
1672.131083216663
 20
801.3402010275864
 30
0.0
 11
1672.131083216663
 21
819.8402010275858
 31
0.0
  0
LINE
  5
586
102
{ACAD_REACTORS
330
680
102
}
330
1F
100
AcDbEntity
  8
実線
100
AcDbLine
 10
1612.951076041445
 20
801.3402010275864
 30
0.0
 11
1612.951076041445
 21
819.8402010275858
 31
0.0
  0
LINE
  5
587
102
{ACAD_REACTORS
330
680
102
}
330
1F
100
AcDbEntity
  8
実線
100
AcDbLine
 10
1782.541079629054
 20
925.3402010275859
 30
0.0
 11
1502.541079629054
 21
925.3402010275859
 31
0.0
  0
LINE
  5
588
102
{ACAD_REACTORS
330
680
102
}
330
1F
100
AcDbEntity
  8
実線
100
AcDbLine
 10
1782.541079629054
 20
925.3402010275859
 30
0.0
 11
1782.541079629054
 21
947.340201027587
 31
0.0
  0
LINE
  5
589
102
{ACAD_REACTORS
330
680
102
}
330
1F
100
AcDbEntity
  8
実線
100
AcDbLine
 10
1502.541079629054
 20
947.340201027587
 30
0.0
 11
1502.541079629054
 21
925.3402010275859
 31
0.0
  0
LINE
  5
58A
102
{ACAD_REACTORS
330
680
102
}
330
1F
100
AcDbEntity
  8
実線
100
AcDbLine
 10
1782.541079629054
 20
947.340201027587
 30
0.0
 11
1502.541079629054
 21
947.340201027587
 31
0.0
  0
LINE
  5
58B
102
{ACAD_REACTORS
330
680
102
}
330
1F
100
AcDbEntity
  8
実線
100
AcDbLine
 10
1702.541079619702
 20
538.8402010275864
 30
0.0
 11
1582.541079629054
 21
538.8402010275864
 31
0.0
  0
ARC
  5
58C
102
{ACAD_REACTORS
330
680
102
}
330
1F
100
AcDbEntity
  8
実線
100
AcDbCircle
 10
1582.541079629054
 20
543.8402010275864
 30
0.0
 40
5.0
100
AcDbArc
 50
180.0
 51
270.0
  0
ARC
  5
58D
102
{ACAD_REACTORS
330
680
102
}
330
1F
100
AcDbEntity
  8
実線
100
AcDbCircle
 10
1702.541079629054
 20
543.8402010275864
 30
0.0
 40
5.0
100
AcDbArc
 50
270.0
 51
0.0
  0
LINE
  5
58E
102
{ACAD_REACTORS
330
681
102
}
330
1F
100
AcDbEntity
  8
実線
100
AcDbLine
 10
1212.541079629055
 20
909.3402010275859
 30
0.0
 11
1112.541079629055
 21
909.3402010275859
 31
0.0
  0
LINE
  5
58F
102
{ACAD_REACTORS
330
681
102
}
330
1F
100
AcDbEntity
  8
実線
100
AcDbLine
 10
1212.541079629055
 20
909.3402010275859
 30
0.0
 11
1222.541079629055
 21
919.3402010275859
 31
0.0
  0
LINE
  5
590
102
{ACAD_REACTORS
330
681
102
}
330
1F
100
AcDbEntity
  8
実線
100
AcDbLine
 10
1102.541079629055
 20
919.3402010275859
 30
0.0
 11
1112.541079629055
 21
909.3402010275859
 31
0.0
  0
LINE
  5
591
102
{ACAD_REACTORS
330
681
102
}
330
1F
100
AcDbEntity
  8
実線
100
AcDbLine
 10
1222.541079629055
 20
919.3402010275859
 30
0.0
 11
1102.541079629055
 21
919.3402010275859
 31
0.0
  0
LINE
  5
592
102
{ACAD_REACTORS
330
681
102
}
330
1F
100
AcDbEntity
  8
実線
100
AcDbLine
 10
1222.541079629055
 20
919.3402010275859
 30
0.0
 11
1222.541079629055
 21
925.3402010275859
 31
0.0
  0
LINE
  5
593
102
{ACAD_REACTORS
330
681
102
}
330
1F
100
AcDbEntity
  8
実線
100
AcDbLine
 10
1102.541079629055
 20
925.3402010275859
 30
0.0
 11
1102.541079629055
 21
919.3402010275859
 31
0.0
  0
LINE
  5
594
102
{ACAD_REACTORS
330
681
102
}
330
1F
100
AcDbEntity
  8
実線
100
AcDbLine
 10
1097.541079629055
 20
543.8402010275864
 30
0.0
 11
1227.541079629055
 21
543.8402010275864
 31
0.0
  0
LINE
  5
595
102
{ACAD_REACTORS
330
681
102
}
330
1F
100
AcDbEntity
  8
実線
100
AcDbLine
 10
1097.541079629055
 20
797.8402010275864
 30
0.0
 11
1097.541079629055
 21
543.8402010275864
 31
0.0
  0
LINE
  5
596
102
{ACAD_REACTORS
330
681
102
}
330
1F
100
AcDbEntity
  8
実線
100
AcDbLine
 10
1227.541079629055
 20
543.8402010275864
 30
0.0
 11
1227.541079629055
 21
797.8402010275866
 31
0.0
  0
LINE
  5
597
102
{ACAD_REACTORS
330
681
102
}
330
1F
100
AcDbEntity
  8
実線
100
AcDbLine
 10
1145.041079629054
 20
502.3402010275866
 30
0.0
 11
1180.041079629054
 21
502.3402010275866
 31
0.0
  0
LINE
  5
598
102
{ACAD_REACTORS
330
681
102
}
330
1F
100
AcDbEntity
  8
実線
100
AcDbLine
 10
1180.041079629054
 20
512.3402010275866
 30
0.0
 11
1145.041079629054
 21
512.3402010275866
 31
0.0
  0
LINE
  5
599
102
{ACAD_REACTORS
330
681
102
}
330
1F
100
AcDbEntity
  8
実線
100
AcDbLine
 10
1145.041079629054
 20
512.3402010275866
 30
0.0
 11
1145.041079629054
 21
502.3402010275866
 31
0.0
  0
LINE
  5
59A
102
{ACAD_REACTORS
330
681
102
}
330
1F
100
AcDbEntity
  8
実線
100
AcDbLine
 10
1180.041079629054
 20
502.3402010275866
 30
0.0
 11
1180.041079629054
 21
512.3402010275866
 31
0.0
  0
LINE
  5
59B
102
{ACAD_REACTORS
330
681
102
}
330
1F
100
AcDbEntity
  8
実線
100
AcDbLine
 10
1180.641079629055
 20
524.8902010275863
 30
0.0
 11
1180.641079629055
 21
532.7902010275866
 31
0.0
  0
LINE
  5
59C
102
{ACAD_REACTORS
330
681
102
}
330
1F
100
AcDbEntity
  8
実線
100
AcDbLine
 10
1188.541079629054
 20
524.8902010275863
 30
0.0
 11
1180.641079629055
 21
524.8902010275863
 31
0.0
  0
LINE
  5
59D
102
{ACAD_REACTORS
330
681
102
}
330
1F
100
AcDbEntity
  8
実線
100
AcDbLine
 10
1180.641079629055
 20
532.7902010275866
 30
0.0
 11
1188.541079629054
 21
532.7902010275866
 31
0.0
  0
CIRCLE
  5
59E
102
{ACAD_REACTORS
330
681
102
}
330
1F
100
AcDbEntity
  8
実線
100
AcDbCircle
 10
1184.591079629055
 20
528.8402010275866
 30
0.0
 40
1.5
  0
LINE
  5
59F
102
{ACAD_REACTORS
330
681
102
}
330
1F
100
AcDbEntity
  8
実線
100
AcDbLine
 10
1148.541079629054
 20
538.8402010275864
 30
0.0
 11
1148.541079629054
 21
512.3402010275866
 31
0.0
  0
LINE
  5
5A0
102
{ACAD_REACTORS
330
681
102
}
330
1F
100
AcDbEntity
  8
実線
100
AcDbLine
 10
1176.541079629055
 20
512.3402010275866
 30
0.0
 11
1176.541079629055
 21
538.8402010275864
 31
0.0
  0
LINE
  5
5A1
102
{ACAD_REACTORS
330
681
102
}
330
1F
100
AcDbEntity
  8
実線
100
AcDbLine
 10
1180.641079629055
 20
504.8902010275865
 30
0.0
 11
1180.641079629055
 21
512.7902010275866
 31
0.0
  0
LINE
  5
5A2
102
{ACAD_REACTORS
330
681
102
}
330
1F
100
AcDbEntity
  8
実線
100
AcDbLine
 10
1188.541079629054
 20
504.8902010275865
 30
0.0
 11
1180.641079629055
 21
504.8902010275865
 31
0.0
  0
LINE
  5
5A3
102
{ACAD_REACTORS
330
681
102
}
330
1F
100
AcDbEntity
  8
実線
100
AcDbLine
 10
1180.641079629055
 20
512.7902010275866
 30
0.0
 11
1188.541079629054
 21
512.7902010275866
 31
0.0
  0
CIRCLE
  5
5A4
102
{ACAD_REACTORS
330
681
102
}
330
1F
100
AcDbEntity
  8
実線
100
AcDbCircle
 10
1184.591079629055
 20
508.8402010275864
 30
0.0
 40
1.5
  0
ARC
  5
5A5
102
{ACAD_REACTORS
330
681
102
}
330
1F
100
AcDbEntity
  8
実線
100
AcDbCircle
 10
1212.541079629055
 20
894.3402010275859
 30
0.0
 40
15.0
100
AcDbArc
 50
0.0
 51
90.0
  0
ARC
  5
5A6
102
{ACAD_REACTORS
330
681
102
}
330
1F
100
AcDbEntity
  8
実線
100
AcDbCircle
 10
1112.541079629055
 20
894.3402010275859
 30
0.0
 40
15.0
100
AcDbArc
 50
90.0
 51
180.0
  0
LINE
  5
5A7
102
{ACAD_REACTORS
330
681
102
}
330
1F
100
AcDbEntity
  8
実線
100
AcDbLine
 10
1088.996479939588
 20
819.8402010275858
 30
0.0
 11
1236.085679318521
 21
819.8402010275858
 31
0.0
  0
LINE
  5
5A8
102
{ACAD_REACTORS
330
681
102
}
330
1F
100
AcDbEntity
  8
実線
100
AcDbLine
 10
1097.541079629055
 20
894.3402010275859
 30
0.0
 11
1097.541079629055
 21
839.8402010275859
 31
0.0
  0
LINE
  5
5A9
102
{ACAD_REACTORS
330
681
102
}
330
1F
100
AcDbEntity
  8
実線
100
AcDbLine
 10
1227.541079629055
 20
839.8402010275859
 30
0.0
 11
1227.541079629055
 21
894.3402010275859
 31
0.0
  0
LINE
  5
5AA
102
{ACAD_REACTORS
330
681
102
}
330
1F
100
AcDbEntity
  8
実線
100
AcDbLine
 10
1236.085679318521
 20
819.8402010275858
 30
0.0
 11
1236.085679318521
 21
839.8402010275859
 31
0.0
  0
LINE
  5
5AB
102
{ACAD_REACTORS
330
681
102
}
330
1F
100
AcDbEntity
  8
実線
100
AcDbLine
 10
1236.085679318521
 20
839.8402010275859
 30
0.0
 11
1192.131083216664
 21
839.8402010275859
 31
0.0
  0
LINE
  5
5AC
102
{ACAD_REACTORS
330
681
102
}
330
1F
100
AcDbEntity
  8
実線
100
AcDbLine
 10
1088.996479939588
 20
839.8402010275859
 30
0.0
 11
1132.951076041446
 21
839.8402010275859
 31
0.0
  0
LINE
  5
5AD
102
{ACAD_REACTORS
330
681
102
}
330
1F
100
AcDbEntity
  8
実線
100
AcDbLine
 10
1088.996479939588
 20
839.8402010275859
 30
0.0
 11
1088.996479939588
 21
819.8402010275858
 31
0.0
  0
LINE
  5
5AE
102
{ACAD_REACTORS
330
681
102
}
330
1F
100
AcDbEntity
  8
実線
100
AcDbLine
 10
1192.131083216664
 20
819.8402010275858
 30
0.0
 11
1192.131083216664
 21
839.8402010275859
 31
0.0
  0
LINE
  5
5AF
102
{ACAD_REACTORS
330
681
102
}
330
1F
100
AcDbEntity
  8
実線
100
AcDbLine
 10
1132.951076041446
 20
819.8402010275858
 30
0.0
 11
1132.951076041446
 21
839.8402010275859
 31
0.0
  0
LINE
  5
5B0
102
{ACAD_REACTORS
330
681
102
}
330
1F
100
AcDbEntity
  8
実線
100
AcDbLine
 10
1209.541079629055
 20
537.6402010275866
 30
0.0
 11
1180.541079629054
 21
537.6402010275866
 31
0.0
  0
LINE
  5
5B1
102
{ACAD_REACTORS
330
681
102
}
330
1F
100
AcDbEntity
  8
実線
100
AcDbLine
 10
1209.541079629055
 20
538.8402010275864
 30
0.0
 11
1209.541079629055
 21
537.6402010275865
 31
0.0
  0
LINE
  5
5B2
102
{ACAD_REACTORS
330
681
102
}
330
1F
100
AcDbEntity
  8
実線
100
AcDbLine
 10
1189.741079629055
 20
498.8402010275864
 30
0.0
 11
1189.741079629055
 21
538.8402010275864
 31
0.0
  0
LINE
  5
5B3
102
{ACAD_REACTORS
330
681
102
}
330
1F
100
AcDbEntity
  8
実線
100
AcDbLine
 10
1188.541079629054
 20
537.6402010275866
 30
0.0
 11
1188.541079629054
 21
498.8402010275864
 31
0.0
  0
LINE
  5
5B4
102
{ACAD_REACTORS
330
681
102
}
330
1F
100
AcDbEntity
  8
実線
100
AcDbLine
 10
1188.541079629054
 20
498.8402010275864
 30
0.0
 11
1189.741079629055
 21
498.8402010275864
 31
0.0
  0
LINE
  5
5B5
102
{ACAD_REACTORS
330
681
102
}
330
1F
100
AcDbEntity
  8
実線
100
AcDbLine
 10
1180.541079629054
 20
538.8402010275864
 30
0.0
 11
1180.541079629054
 21
537.6402010275865
 31
0.0
  0
LINE
  5
5B6
102
{ACAD_REACTORS
330
681
102
}
330
1F
100
AcDbEntity
  8
実線
100
AcDbLine
 10
1227.541079629055
 20
797.8402010275864
 30
0.0
 11
1227.541079629055
 21
801.3402010275864
 31
0.0
  0
LINE
  5
5B7
102
{ACAD_REACTORS
330
681
102
}
330
1F
100
AcDbEntity
  8
実線
100
AcDbLine
 10
1097.541079629055
 20
801.3402010275864
 30
0.0
 11
1097.541079629055
 21
797.8402010275864
 31
0.0
  0
LINE
  5
5B8
102
{ACAD_REACTORS
330
681
102
}
330
1F
100
AcDbEntity
  8
実線
100
AcDbLine
 10
1097.541079629055
 20
797.8402010275864
 30
0.0
 11
1227.541079629055
 21
797.8402010275864
 31
0.0
  0
LINE
  5
5B9
102
{ACAD_REACTORS
330
681
102
}
330
1F
100
AcDbEntity
  8
実線
100
AcDbLine
 10
1236.085679318521
 20
801.3402010275864
 30
0.0
 11
1236.085679318521
 21
819.8402010275858
 31
0.0
  0
LINE
  5
5BA
102
{ACAD_REACTORS
330
681
102
}
330
1F
100
AcDbEntity
  8
実線
100
AcDbLine
 10
1236.085679318521
 20
801.3402010275864
 30
0.0
 11
1192.131083216664
 21
801.3402010275864
 31
0.0
  0
LINE
  5
5BB
102
{ACAD_REACTORS
330
681
102
}
330
1F
100
AcDbEntity
  8
実線
100
AcDbLine
 10
1088.996479939588
 20
801.3402010275864
 30
0.0
 11
1132.951076041446
 21
801.3402010275864
 31
0.0
  0
LINE
  5
5BC
102
{ACAD_REACTORS
330
681
102
}
330
1F
100
AcDbEntity
  8
実線
100
AcDbLine
 10
1088.996479939588
 20
819.8402010275858
 30
0.0
 11
1088.996479939588
 21
801.3402010275864
 31
0.0
  0
LINE
  5
5BD
102
{ACAD_REACTORS
330
681
102
}
330
1F
100
AcDbEntity
  8
実線
100
AcDbLine
 10
1192.131083216664
 20
801.3402010275864
 30
0.0
 11
1192.131083216664
 21
819.8402010275858
 31
0.0
  0
LINE
  5
5BE
102
{ACAD_REACTORS
330
681
102
}
330
1F
100
AcDbEntity
  8
実線
100
AcDbLine
 10
1132.951076041446
 20
801.3402010275864
 30
0.0
 11
1132.951076041446
 21
819.8402010275858
 31
0.0
  0
LINE
  5
5BF
102
{ACAD_REACTORS
330
681
102
}
330
1F
100
AcDbEntity
  8
実線
100
AcDbLine
 10
1302.541079629054
 20
925.3402010275859
 30
0.0
 11
1302.541079629054
 21
947.340201027587
 31
0.0
  0
LINE
  5
5C0
102
{ACAD_REACTORS
330
681
102
}
330
1F
100
AcDbEntity
  8
実線
100
AcDbLine
 10
1022.541079629055
 20
947.340201027587
 30
0.0
 11
1022.541079629055
 21
925.3402010275859
 31
0.0
  0
LINE
  5
5C1
102
{ACAD_REACTORS
330
681
102
}
330
1F
100
AcDbEntity
  8
実線
100
AcDbLine
 10
1302.541079629054
 20
947.340201027587
 30
0.0
 11
1022.541079629055
 21
947.340201027587
 31
0.0
  0
LINE
  5
5C2
102
{ACAD_REACTORS
330
681
102
}
330
1F
100
AcDbEntity
  8
実線
100
AcDbLine
 10
1302.541079629054
 20
925.3402010275859
 30
0.0
 11
1022.541079629055
 21
925.3402010275859
 31
0.0
  0
LINE
  5
5C3
102
{ACAD_REACTORS
330
681
102
}
330
1F
100
AcDbEntity
  8
実線
100
AcDbLine
 10
1102.541079629055
 20
538.8402010275864
 30
0.0
 11
1222.541079629055
 21
538.8402010275864
 31
0.0
  0
ARC
  5
5C4
102
{ACAD_REACTORS
330
681
102
}
330
1F
100
AcDbEntity
  8
実線
100
AcDbCircle
 10
1102.541079629055
 20
543.8402010275864
 30
0.0
 40
5.0
100
AcDbArc
 50
180.0
 51
270.0
  0
ARC
  5
5C5
102
{ACAD_REACTORS
330
681
102
}
330
1F
100
AcDbEntity
  8
実線
100
AcDbCircle
 10
1222.541079629055
 20
543.8402010275864
 30
0.0
 40
5.0
100
AcDbArc
 50
270.0
 51
0.0
  0
ELLIPSE
  5
5C6
102
{ACAD_REACTORS
330
683
102
}
330
1F
100
AcDbEntity
  8
実線
100
AcDbEllipse
 10
202.5410796290544
 20
829.6427622382777
 30
0.0
 11
38.15000000000001
 21
0.0
 31
0.0
210
0.0
220
0.0
230
1.0
 40
0.7071067811865476
 41
0.2271706242184396
 42
2.914422029371351
  0
LINE
  5
5C7
102
{ACAD_REACTORS
330
683
102
}
330
1F
100
AcDbEntity
  8
実線
100
AcDbLine
 10
248.0410796290544
 20
815.1470732239539
 30
0.0
 11
248.0410796290544
 21
817.1623275503348
 31
0.0
  0
LINE
  5
5C8
102
{ACAD_REACTORS
330
683
102
}
330
1F
100
AcDbEntity
  8
実線
100
AcDbLine
 10
157.0410796290543
 20
817.1623275503348
 30
0.0
 11
157.0410796290543
 21
815.1470732239539
 31
0.0
  0
ELLIPSE
  5
5C9
102
{ACAD_REACTORS
330
683
102
}
330
1F
100
AcDbEntity
  8
実線
100
AcDbEllipse
 10
202.5410796290544
 20
815.1470732239539
 30
0.0
 11
45.49999999999998
 21
0.0
 31
0.0
210
0.0
220
0.0
230
1.0
 40
0.7071067811865476
 41
0.0
 42
3.141592653589792
  0
ELLIPSE
  5
5CA
102
{ACAD_REACTORS
330
683
102
}
330
1F
100
AcDbEntity
  8
実線
100
AcDbEllipse
 10
202.5410796290544
 20
815.1470732239539
 30
0.0
 11
45.49999999999998
 21
0.0
 31
0.0
210
0.0
220
0.0
230
1.0
 40
0.7071067811865476
 41
4.71238898038469
 42
6.283185307179584
  0
ELLIPSE
  5
5CB
102
{ACAD_REACTORS
330
683
102
}
330
1F
100
AcDbEntity
  8
実線
100
AcDbEllipse
 10
202.5410796290544
 20
817.1623275503348
 30
0.0
 11
45.49999999999998
 21
0.0
 31
0.0
210
0.0
220
0.0
230
1.0
 40
0.7071067811865476
 41
0.0
 42
3.141592653589792
  0
ELLIPSE
  5
5CC
102
{ACAD_REACTORS
330
683
102
}
330
1F
100
AcDbEntity
  8
実線
100
AcDbEllipse
 10
202.5410796290544
 20
815.1470732239539
 30
0.0
 11
45.49999999999998
 21
0.0
 31
0.0
210
0.0
220
0.0
230
1.0
 40
0.7071067811865476
 41
3.141592653589792
 42
4.71238898038469
  0
ELLIPSE
  5
5CD
102
{ACAD_REACTORS
330
683
102
}
330
1F
100
AcDbEntity
  8
実線
100
AcDbEllipse
 10
202.5410796290544
 20
829.6427622382777
 30
0.0
 11
38.15000000000001
 21
0.0
 31
0.0
210
0.0
220
0.0
230
1.0
 40
0.7071067811865476
 41
0.2271706242184387
 42
2.914422029371353
  0
ARC
  5
5CE
102
{ACAD_REACTORS
330
683
102
}
330
1F
100
AcDbEntity
  8
実線
100
AcDbCircle
 10
202.5410796290544
 20
866.8402010275858
 30
0.0
 40
38.15000000000001
100
AcDbArc
 50
0.0
 51
180.0
  0
LINE
  5
5CF
102
{ACAD_REACTORS
330
683
102
}
330
1F
100
AcDbEntity
  8
実線
100
AcDbLine
 10
164.3910796290545
 20
866.8402010275858
 30
0.0
 11
164.3910796290545
 21
834.6955460227089
 31
0.0
  0
LINE
  5
5D0
102
{ACAD_REACTORS
330
683
102
}
330
1F
100
AcDbEntity
  8
実線
100
AcDbLine
 10
240.6910796290544
 20
834.6955460227089
 30
0.0
 11
240.6910796290544
 21
866.8402010275858
 31
0.0
  0
LINE
  5
5D1
102
{ACAD_REACTORS
330
683
102
}
330
1F
100
AcDbEntity
  8
実線
100
AcDbLine
 10
262.5410796290545
 20
919.3402010275859
 30
0.0
 11
262.5410796290545
 21
925.3402010275859
 31
0.0
  0
LINE
  5
5D2
102
{ACAD_REACTORS
330
683
102
}
330
1F
100
AcDbEntity
  8
実線
100
AcDbLine
 10
142.5410796290544
 20
925.3402010275859
 30
0.0
 11
142.5410796290544
 21
919.3402010275859
 31
0.0
  0
LINE
  5
5D3
102
{ACAD_REACTORS
330
683
102
}
330
1F
100
AcDbEntity
  8
実線
100
AcDbLine
 10
252.5410796290544
 20
909.3402010275859
 30
0.0
 11
262.5410796290545
 21
919.3402010275859
 31
0.0
  0
LINE
  5
5D4
102
{ACAD_REACTORS
330
683
102
}
330
1F
100
AcDbEntity
  8
実線
100
AcDbLine
 10
142.5410796290544
 20
919.3402010275859
 30
0.0
 11
152.5410796290543
 21
909.3402010275859
 31
0.0
  0
LINE
  5
5D5
102
{ACAD_REACTORS
330
683
102
}
330
1F
100
AcDbEntity
  8
実線
100
AcDbLine
 10
152.5410796290543
 20
909.3402010275859
 30
0.0
 11
252.5410796290544
 21
909.3402010275859
 31
0.0
  0
LINE
  5
5D6
102
{ACAD_REACTORS
330
683
102
}
330
1F
100
AcDbEntity
  8
実線
100
AcDbLine
 10
142.5410796290544
 20
919.3402010275859
 30
0.0
 11
262.5410796290545
 21
919.3402010275859
 31
0.0
  0
LINE
  5
5D7
102
{ACAD_REACTORS
330
683
102
}
330
1F
100
AcDbEntity
  8
実線
100
AcDbLine
 10
137.5410796290545
 20
797.8402010275864
 30
0.0
 11
137.5410796290545
 21
543.8402010275864
 31
0.0
  0
LINE
  5
5D8
102
{ACAD_REACTORS
330
683
102
}
330
1F
100
AcDbEntity
  8
実線
100
AcDbLine
 10
267.5410796290544
 20
543.8402010275864
 30
0.0
 11
267.5410796290544
 21
797.8402010275866
 31
0.0
  0
LINE
  5
5D9
102
{ACAD_REACTORS
330
683
102
}
330
1F
100
AcDbEntity
  8
実線
100
AcDbLine
 10
137.5410796290545
 20
543.8402010275864
 30
0.0
 11
267.5410796290544
 21
543.8402010275864
 31
0.0
  0
LINE
  5
5DA
102
{ACAD_REACTORS
330
683
102
}
330
1F
100
AcDbEntity
  8
実線
100
AcDbLine
 10
164.1849282376908
 20
797.8402010275864
 30
0.0
 11
137.5410796290545
 21
797.8402010275864
 31
0.0
  0
LINE
  5
5DB
102
{ACAD_REACTORS
330
683
102
}
330
1F
100
AcDbEntity
  8
実線
100
AcDbLine
 10
185.0410796290543
 20
512.3402010275866
 30
0.0
 11
185.0410796290543
 21
502.3402010275866
 31
0.0
  0
LINE
  5
5DC
102
{ACAD_REACTORS
330
683
102
}
330
1F
100
AcDbEntity
  8
実線
100
AcDbLine
 10
220.0410796290545
 20
502.3402010275866
 30
0.0
 11
220.0410796290545
 21
512.3402010275866
 31
0.0
  0
LINE
  5
5DD
102
{ACAD_REACTORS
330
683
102
}
330
1F
100
AcDbEntity
  8
実線
100
AcDbLine
 10
185.0410796290543
 20
502.3402010275866
 30
0.0
 11
220.0410796290545
 21
502.3402010275866
 31
0.0
  0
LINE
  5
5DE
102
{ACAD_REACTORS
330
683
102
}
330
1F
100
AcDbEntity
  8
実線
100
AcDbLine
 10
185.0410796290543
 20
512.3402010275866
 30
0.0
 11
220.0410796290545
 21
512.3402010275866
 31
0.0
  0
LINE
  5
5DF
102
{ACAD_REACTORS
330
683
102
}
330
1F
100
AcDbEntity
  8
実線
100
AcDbLine
 10
184.4410796290544
 20
524.8902010275863
 30
0.0
 11
176.5410796290543
 21
524.8902010275863
 31
0.0
  0
LINE
  5
5E0
102
{ACAD_REACTORS
330
683
102
}
330
1F
100
AcDbEntity
  8
実線
100
AcDbLine
 10
184.4410796290544
 20
532.7902010275866
 30
0.0
 11
184.4410796290544
 21
524.8902010275863
 31
0.0
  0
LINE
  5
5E1
102
{ACAD_REACTORS
330
683
102
}
330
1F
100
AcDbEntity
  8
実線
100
AcDbLine
 10
176.5410796290543
 20
532.7902010275866
 30
0.0
 11
184.4410796290544
 21
532.7902010275866
 31
0.0
  0
LINE
  5
5E2
102
{ACAD_REACTORS
330
683
102
}
330
1F
100
AcDbEntity
  8
実線
100
AcDbLine
 10
188.5410796290543
 20
538.8402010275864
 30
0.0
 11
188.5410796290543
 21
512.3402010275866
 31
0.0
  0
LINE
  5
5E3
102
{ACAD_REACTORS
330
683
102
}
330
1F
100
AcDbEntity
  8
実線
100
AcDbLine
 10
216.5410796290545
 20
512.3402010275866
 30
0.0
 11
216.5410796290545
 21
538.8402010275864
 31
0.0
  0
LINE
  5
5E4
102
{ACAD_REACTORS
330
683
102
}
330
1F
100
AcDbEntity
  8
実線
100
AcDbLine
 10
184.4410796290544
 20
504.8902010275865
 30
0.0
 11
176.5410796290543
 21
504.8902010275865
 31
0.0
  0
LINE
  5
5E5
102
{ACAD_REACTORS
330
683
102
}
330
1F
100
AcDbEntity
  8
実線
100
AcDbLine
 10
184.4410796290544
 20
512.7902010275866
 30
0.0
 11
184.4410796290544
 21
504.8902010275865
 31
0.0
  0
LINE
  5
5E6
102
{ACAD_REACTORS
330
683
102
}
330
1F
100
AcDbEntity
  8
実線
100
AcDbLine
 10
176.5410796290543
 20
512.7902010275866
 30
0.0
 11
184.4410796290544
 21
512.7902010275866
 31
0.0
  0
ARC
  5
5E7
102
{ACAD_REACTORS
330
683
102
}
330
1F
100
AcDbEntity
  8
実線
100
AcDbCircle
 10
252.5410796290544
 20
894.3402010275859
 30
0.0
 40
15.0
100
AcDbArc
 50
0.0
 51
90.0
  0
ARC
  5
5E8
102
{ACAD_REACTORS
330
683
102
}
330
1F
100
AcDbEntity
  8
実線
100
AcDbCircle
 10
152.5410796290543
 20
894.3402010275859
 30
0.0
 40
15.0
100
AcDbArc
 50
90.0
 51
180.0
  0
LINE
  5
5E9
102
{ACAD_REACTORS
330
683
102
}
330
1F
100
AcDbEntity
  8
実線
100
AcDbLine
 10
137.5410796290545
 20
894.3402010275859
 30
0.0
 11
137.5410796290545
 21
839.8402010275859
 31
0.0
  0
LINE
  5
5EA
102
{ACAD_REACTORS
330
683
102
}
330
1F
100
AcDbEntity
  8
実線
100
AcDbLine
 10
267.5410796290544
 20
839.8402010275859
 30
0.0
 11
267.5410796290544
 21
894.3402010275859
 31
0.0
  0
LINE
  5
5EB
102
{ACAD_REACTORS
330
683
102
}
330
1F
100
AcDbEntity
  8
実線
100
AcDbLine
 10
276.0856793185211
 20
819.8402010275858
 30
0.0
 11
276.0856793185211
 21
839.8402010275859
 31
0.0
  0
LINE
  5
5EC
102
{ACAD_REACTORS
330
683
102
}
330
1F
100
AcDbEntity
  8
実線
100
AcDbLine
 10
276.0856793185211
 20
839.8402010275859
 30
0.0
 11
240.6910796290544
 21
839.8402010275859
 31
0.0
  0
LINE
  5
5ED
102
{ACAD_REACTORS
330
683
102
}
330
1F
100
AcDbEntity
  8
実線
100
AcDbLine
 10
276.0856793185211
 20
819.8402010275858
 30
0.0
 11
247.8832011859432
 21
819.8402010275858
 31
0.0
  0
LINE
  5
5EE
102
{ACAD_REACTORS
330
683
102
}
330
1F
100
AcDbEntity
  8
実線
100
AcDbLine
 10
128.9964799395877
 20
819.8402010275858
 30
0.0
 11
157.1989580721657
 21
819.8402010275858
 31
0.0
  0
LINE
  5
5EF
102
{ACAD_REACTORS
330
683
102
}
330
1F
100
AcDbEntity
  8
実線
100
AcDbLine
 10
128.9964799395877
 20
839.8402010275859
 30
0.0
 11
164.3910796290545
 21
839.8402010275859
 31
0.0
  0
LINE
  5
5F0
102
{ACAD_REACTORS
330
683
102
}
330
1F
100
AcDbEntity
  8
実線
100
AcDbLine
 10
128.9964799395877
 20
839.8402010275859
 30
0.0
 11
128.9964799395877
 21
819.8402010275858
 31
0.0
  0
LINE
  5
5F1
102
{ACAD_REACTORS
330
683
102
}
330
1F
100
AcDbEntity
  8
実線
100
AcDbLine
 10
176.5410796290543
 20
537.6402010275866
 30
0.0
 11
184.5410796290543
 21
537.6402010275866
 31
0.0
  0
LINE
  5
5F2
102
{ACAD_REACTORS
330
683
102
}
330
1F
100
AcDbEntity
  8
実線
100
AcDbLine
 10
184.5410796290543
 20
538.8402010275864
 30
0.0
 11
184.5410796290543
 21
537.6402010275865
 31
0.0
  0
LINE
  5
5F3
102
{ACAD_REACTORS
330
683
102
}
330
1F
100
AcDbEntity
  8
実線
100
AcDbLine
 10
176.5410796290543
 20
498.8402010275864
 30
0.0
 11
176.5410796290543
 21
538.8402010275866
 31
0.0
  0
LINE
  5
5F4
102
{ACAD_REACTORS
330
683
102
}
330
1F
100
AcDbEntity
  8
実線
100
AcDbLine
 10
155.5410796290543
 20
537.6402010275866
 30
0.0
 11
175.3410796290545
 21
537.6402010275866
 31
0.0
  0
LINE
  5
5F5
102
{ACAD_REACTORS
330
683
102
}
330
1F
100
AcDbEntity
  8
実線
100
AcDbLine
 10
155.5410796290543
 20
538.8402010275864
 30
0.0
 11
155.5410796290543
 21
537.6402010275865
 31
0.0
  0
LINE
  5
5F6
102
{ACAD_REACTORS
330
683
102
}
330
1F
100
AcDbEntity
  8
実線
100
AcDbLine
 10
175.3410796290545
 20
537.6402010275866
 30
0.0
 11
175.3410796290545
 21
498.8402010275864
 31
0.0
  0
LINE
  5
5F7
102
{ACAD_REACTORS
330
683
102
}
330
1F
100
AcDbEntity
  8
実線
100
AcDbLine
 10
175.3410796290545
 20
498.8402010275864
 30
0.0
 11
176.5410796290543
 21
498.8402010275864
 31
0.0
  0
LINE
  5
5F8
102
{ACAD_REACTORS
330
683
102
}
330
1F
100
AcDbEntity
  8
実線
100
AcDbLine
 10
240.8972310204182
 20
797.8402010275864
 30
0.0
 11
267.5410796290544
 21
797.8402010275864
 31
0.0
  0
LINE
  5
5F9
102
{ACAD_REACTORS
330
683
102
}
330
1F
100
AcDbEntity
  8
実線
100
AcDbLine
 10
267.5410796290544
 20
797.8402010275864
 30
0.0
 11
267.5410796290544
 21
801.3402010275864
 31
0.0
  0
LINE
  5
5FA
102
{ACAD_REACTORS
330
683
102
}
330
1F
100
AcDbEntity
  8
実線
100
AcDbLine
 10
137.5410796290545
 20
801.3402010275864
 30
0.0
 11
137.5410796290545
 21
797.8402010275864
 31
0.0
  0
LINE
  5
5FB
102
{ACAD_REACTORS
330
683
102
}
330
1F
100
AcDbEntity
  8
実線
100
AcDbLine
 10
128.9964799395877
 20
801.3402010275864
 30
0.0
 11
161.4437492984069
 21
801.3402010275864
 31
0.0
  0
LINE
  5
5FC
102
{ACAD_REACTORS
330
683
102
}
330
1F
100
AcDbEntity
  8
実線
100
AcDbLine
 10
128.9964799395877
 20
819.8402010275858
 30
0.0
 11
128.9964799395877
 21
801.3402010275864
 31
0.0
  0
LINE
  5
5FD
102
{ACAD_REACTORS
330
683
102
}
330
1F
100
AcDbEntity
  8
実線
100
AcDbLine
 10
276.0856793185211
 20
801.3402010275864
 30
0.0
 11
276.0856793185211
 21
819.8402010275858
 31
0.0
  0
LINE
  5
5FE
102
{ACAD_REACTORS
330
683
102
}
330
1F
100
AcDbEntity
  8
実線
100
AcDbLine
 10
276.0856793185211
 20
801.3402010275864
 30
0.0
 11
243.6384099597019
 21
801.3402010275864
 31
0.0
  0
LINE
  5
5FF
102
{ACAD_REACTORS
330
683
102
}
330
1F
100
AcDbEntity
  8
実線
100
AcDbLine
 10
342.5410796290544
 20
947.340201027587
 30
0.0
 11
62.54107962905454
 21
947.340201027587
 31
0.0
  0
LINE
  5
600
102
{ACAD_REACTORS
330
683
102
}
330
1F
100
AcDbEntity
  8
実線
100
AcDbLine
 10
62.54107962905454
 20
925.3402010275859
 30
0.0
 11
342.5410796290544
 21
925.3402010275859
 31
0.0
  0
LINE
  5
601
102
{ACAD_REACTORS
330
683
102
}
330
1F
100
AcDbEntity
  8
実線
100
AcDbLine
 10
342.5410796290544
 20
925.3402010275859
 30
0.0
 11
342.5410796290544
 21
947.340201027587
 31
0.0
  0
LINE
  5
602
102
{ACAD_REACTORS
330
683
102
}
330
1F
100
AcDbEntity
  8
実線
100
AcDbLine
 10
62.54107962905454
 20
947.340201027587
 30
0.0
 11
62.54107962905454
 21
925.3402010275859
 31
0.0
  0
LINE
  5
603
102
{ACAD_REACTORS
330
683
102
}
330
1F
100
AcDbEntity
  8
実線
100
AcDbLine
 10
262.5410796290545
 20
538.8402010275864
 30
0.0
 11
142.5410796290544
 21
538.8402010275864
 31
0.0
  0
ARC
  5
604
102
{ACAD_REACTORS
330
683
102
}
330
1F
100
AcDbEntity
  8
実線
100
AcDbCircle
 10
142.5410796290544
 20
543.8402010275864
 30
0.0
 40
5.0
100
AcDbArc
 50
180.0
 51
270.0
  0
ARC
  5
605
102
{ACAD_REACTORS
330
683
102
}
330
1F
100
AcDbEntity
  8
実線
100
AcDbCircle
 10
262.5410796290545
 20
543.8402010275864
 30
0.0
 40
5.0
100
AcDbArc
 50
270.0
 51
0.0
  0
LINE
  5
606
102
{ACAD_REACTORS
330
682
102
}
330
1F
100
AcDbEntity
  8
実線
100
AcDbLine
 10
526.3201724371874
 20
792.272168852569
 30
0.0
 11
536.7146421206296
 21
802.6666385360112
 31
0.0
  0
LINE
  5
607
102
{ACAD_REACTORS
330
682
102
}
330
1F
100
AcDbEntity
  8
実線
100
AcDbLine
 10
482.7623947160961
 20
856.618885940545
 30
0.0
 11
472.3679250326538
 21
846.224416257103
 31
0.0
  0
LINE
  5
608
102
{ACAD_REACTORS
330
682
102
}
330
1F
100
AcDbEntity
  8
実線
100
AcDbLine
 10
536.7146421206296
 20
802.6666385360112
 30
0.0
 11
482.7623947160961
 21
856.618885940545
 31
0.0
  0
LINE
  5
609
102
{ACAD_REACTORS
330
682
102
}
330
1F
100
AcDbEntity
  8
実線
100
AcDbLine
 10
527.4161879480264
 20
782.9737146799659
 30
0.0
 11
529.4314422744082
 21
784.9889690063474
 31
0.0
  0
LINE
  5
60A
102
{ACAD_REACTORS
330
682
102
}
330
1F
100
AcDbEntity
  8
実線
100
AcDbLine
 10
465.0847251864323
 20
849.3356860943229
 30
0.0
 11
463.0694708600508
 21
847.3204317679419
 31
0.0
  0
LINE
  5
60B
102
{ACAD_REACTORS
330
682
102
}
330
1F
100
AcDbEntity
  8
実線
100
AcDbLine
 10
527.4161879480264
 20
782.9737146799659
 30
0.0
 11
463.0694708600508
 21
847.3204317679419
 31
0.0
  0
LINE
  5
60C
102
{ACAD_REACTORS
330
682
102
}
330
1F
100
AcDbEntity
  8
実線
100
AcDbLine
 10
472.3679250326538
 20
846.224416257103
 30
0.0
 11
465.0847251864323
 21
849.3356860943229
 31
0.0
  0
LINE
  5
60D
102
{ACAD_REACTORS
330
682
102
}
330
1F
100
AcDbEntity
  8
実線
100
AcDbLine
 10
529.4314422744082
 20
784.9889690063474
 30
0.0
 11
526.3201724371874
 21
792.272168852569
 31
0.0
  0
LINE
  5
60E
102
{ACAD_REACTORS
330
682
102
}
330
1F
100
AcDbEntity
  8
実線
100
AcDbLine
 10
465.0847251864323
 20
849.3356860943229
 30
0.0
 11
529.4314422744082
 21
784.9889690063474
 31
0.0
  0
LINE
  5
60F
102
{ACAD_REACTORS
330
682
102
}
330
1F
100
AcDbEntity
  8
実線
100
AcDbLine
 10
472.3679250326538
 20
846.224416257103
 30
0.0
 11
526.3201724371874
 21
792.272168852569
 31
0.0
  0
LINE
  5
610
102
{ACAD_REACTORS
330
682
102
}
330
1F
100
AcDbEntity
  8
実線
100
AcDbLine
 10
621.9780544941792
 20
904.9902010275859
 30
0.0
 11
599.5410796290543
 21
904.9902010275859
 31
0.0
  0
LINE
  5
611
102
{ACAD_REACTORS
330
682
102
}
330
1F
100
AcDbEntity
  8
実線
100
AcDbLine
 10
599.5410796290543
 20
828.6902010275868
 30
0.0
 11
608.9964799395874
 21
828.6902010275868
 31
0.0
  0
ARC
  5
612
102
{ACAD_REACTORS
330
682
102
}
330
1F
100
AcDbEntity
  8
実線
100
AcDbCircle
 10
599.5410796290543
 20
739.8402010275864
 30
0.0
 40
165.15
100
AcDbArc
 50
90.0
 51
135.0000000000046
  0
ARC
  5
613
102
{ACAD_REACTORS
330
682
102
}
330
1F
100
AcDbEntity
  8
実線
100
AcDbCircle
 10
599.5410796290543
 20
739.8402010275864
 30
0.0
 40
88.84999999999998
100
AcDbArc
 50
90.0
 51
135.0000000000046
  0
LINE
  5
614
102
{ACAD_REACTORS
330
682
102
}
330
1F
100
AcDbEntity
  8
実線
100
AcDbLine
 10
599.5410796290543
 20
904.9902010275859
 30
0.0
 11
599.5410796290543
 21
828.6902010275868
 31
0.0
  0
LINE
  5
615
102
{ACAD_REACTORS
330
682
102
}
330
1F
100
AcDbEntity
  8
実線
100
AcDbLine
 10
742.5410796290541
 20
919.3402010275859
 30
0.0
 11
742.5410796290541
 21
925.3402010275859
 31
0.0
  0
LINE
  5
616
102
{ACAD_REACTORS
330
682
102
}
330
1F
100
AcDbEntity
  8
実線
100
AcDbLine
 10
622.5410796290543
 20
925.3402010275859
 30
0.0
 11
622.5410796290543
 21
919.3402010275859
 31
0.0
  0
LINE
  5
617
102
{ACAD_REACTORS
330
682
102
}
330
1F
100
AcDbEntity
  8
実線
100
AcDbLine
 10
732.5410796290541
 20
909.3402010275859
 30
0.0
 11
742.5410796290541
 21
919.3402010275859
 31
0.0
  0
LINE
  5
618
102
{ACAD_REACTORS
330
682
102
}
330
1F
100
AcDbEntity
  8
実線
100
AcDbLine
 10
622.5410796290543
 20
919.3402010275859
 30
0.0
 11
632.5410796290543
 21
909.3402010275859
 31
0.0
  0
LINE
  5
619
102
{ACAD_REACTORS
330
682
102
}
330
1F
100
AcDbEntity
  8
実線
100
AcDbLine
 10
632.5410796290543
 20
909.3402010275859
 30
0.0
 11
732.5410796290541
 21
909.3402010275859
 31
0.0
  0
LINE
  5
61A
102
{ACAD_REACTORS
330
682
102
}
330
1F
100
AcDbEntity
  8
実線
100
AcDbLine
 10
622.5410796290543
 20
919.3402010275859
 30
0.0
 11
742.5410796290541
 21
919.3402010275859
 31
0.0
  0
LINE
  5
61B
102
{ACAD_REACTORS
330
682
102
}
330
1F
100
AcDbEntity
  8
実線
100
AcDbLine
 10
747.5410796290541
 20
543.8402010275864
 30
0.0
 11
617.5410796290544
 21
543.8402010275864
 31
0.0
  0
LINE
  5
61C
102
{ACAD_REACTORS
330
682
102
}
330
1F
100
AcDbEntity
  8
実線
100
AcDbLine
 10
617.5410796290544
 20
797.8402010275864
 30
0.0
 11
617.5410796290544
 21
543.8402010275864
 31
0.0
  0
LINE
  5
61D
102
{ACAD_REACTORS
330
682
102
}
330
1F
100
AcDbEntity
  8
実線
100
AcDbLine
 10
747.5410796290541
 20
543.8402010275864
 30
0.0
 11
747.5410796290541
 21
797.8402010275866
 31
0.0
  0
LINE
  5
61E
102
{ACAD_REACTORS
330
682
102
}
330
1F
100
AcDbEntity
  8
実線
100
AcDbLine
 10
617.5410796290544
 20
797.8402010275864
 30
0.0
 11
747.5410796290541
 21
797.8402010275864
 31
0.0
  0
LINE
  5
61F
102
{ACAD_REACTORS
330
682
102
}
330
1F
100
AcDbEntity
  8
実線
100
AcDbLine
 10
700.0410796290541
 20
502.3402010275866
 30
0.0
 11
665.0410796290543
 21
502.3402010275866
 31
0.0
  0
LINE
  5
620
102
{ACAD_REACTORS
330
682
102
}
330
1F
100
AcDbEntity
  8
実線
100
AcDbLine
 10
665.0410796290543
 20
512.3402010275866
 30
0.0
 11
665.0410796290543
 21
502.3402010275866
 31
0.0
  0
LINE
  5
621
102
{ACAD_REACTORS
330
682
102
}
330
1F
100
AcDbEntity
  8
実線
100
AcDbLine
 10
700.0410796290541
 20
502.3402010275866
 30
0.0
 11
700.0410796290541
 21
512.3402010275866
 31
0.0
  0
LINE
  5
622
102
{ACAD_REACTORS
330
682
102
}
330
1F
100
AcDbEntity
  8
実線
100
AcDbLine
 10
700.0410796290541
 20
512.3402010275866
 30
0.0
 11
665.0410796290543
 21
512.3402010275866
 31
0.0
  0
LINE
  5
623
102
{ACAD_REACTORS
330
682
102
}
330
1F
100
AcDbEntity
  8
実線
100
AcDbLine
 10
696.5410796290541
 20
524.8902010275863
 30
0.0
 11
700.5410796290541
 21
524.8902010275863
 31
0.0
  0
LINE
  5
624
102
{ACAD_REACTORS
330
682
102
}
330
1F
100
AcDbEntity
  8
実線
100
AcDbLine
 10
700.5410796290541
 20
524.8902010275863
 30
0.0
 11
700.5410796290541
 21
532.7902010275866
 31
0.0
  0
LINE
  5
625
102
{ACAD_REACTORS
330
682
102
}
330
1F
100
AcDbEntity
  8
実線
100
AcDbLine
 10
696.5410796290541
 20
532.7902010275866
 30
0.0
 11
700.5410796290541
 21
532.7902010275866
 31
0.0
  0
LINE
  5
626
102
{ACAD_REACTORS
330
682
102
}
330
1F
100
AcDbEntity
  8
実線
100
AcDbLine
 10
707.0410796290541
 20
530.3402010275864
 30
0.0
 11
707.0410796290541
 21
527.3402010275864
 31
0.0
  0
LINE
  5
627
102
{ACAD_REACTORS
330
682
102
}
330
1F
100
AcDbEntity
  8
実線
100
AcDbLine
 10
700.5410796290541
 20
527.3402010275864
 30
0.0
 11
707.0410796290541
 21
527.3402010275864
 31
0.0
  0
LINE
  5
628
102
{ACAD_REACTORS
330
682
102
}
330
1F
100
AcDbEntity
  8
実線
100
AcDbLine
 10
707.0410796290541
 20
530.3402010275864
 30
0.0
 11
700.5410796290541
 21
530.3402010275864
 31
0.0
  0
LINE
  5
629
102
{ACAD_REACTORS
330
682
102
}
330
1F
100
AcDbEntity
  8
実線
100
AcDbLine
 10
668.5410796290543
 20
538.8402010275864
 30
0.0
 11
668.5410796290543
 21
512.3402010275866
 31
0.0
  0
LINE
  5
62A
102
{ACAD_REACTORS
330
682
102
}
330
1F
100
AcDbEntity
  8
実線
100
AcDbLine
 10
696.5410796290541
 20
512.3402010275866
 30
0.0
 11
696.5410796290541
 21
538.8402010275864
 31
0.0
  0
LINE
  5
62B
102
{ACAD_REACTORS
330
682
102
}
330
1F
100
AcDbEntity
  8
実線
100
AcDbLine
 10
696.5410796290541
 20
512.7902010275866
 30
0.0
 11
700.5410796290541
 21
512.7902010275866
 31
0.0
  0
LINE
  5
62C
102
{ACAD_REACTORS
330
682
102
}
330
1F
100
AcDbEntity
  8
実線
100
AcDbLine
 10
700.0410796290541
 20
504.8902010275865
 30
0.0
 11
700.5410796290541
 21
504.8902010275865
 31
0.0
  0
LINE
  5
62D
102
{ACAD_REACTORS
330
682
102
}
330
1F
100
AcDbEntity
  8
実線
100
AcDbLine
 10
700.5410796290541
 20
504.8902010275865
 30
0.0
 11
700.5410796290541
 21
512.7902010275866
 31
0.0
  0
LINE
  5
62E
102
{ACAD_REACTORS
330
682
102
}
330
1F
100
AcDbEntity
  8
実線
100
AcDbLine
 10
707.0410796290541
 20
510.3402010275864
 30
0.0
 11
707.0410796290541
 21
507.3402010275864
 31
0.0
  0
LINE
  5
62F
102
{ACAD_REACTORS
330
682
102
}
330
1F
100
AcDbEntity
  8
実線
100
AcDbLine
 10
700.5410796290541
 20
507.3402010275864
 30
0.0
 11
707.0410796290541
 21
507.3402010275864
 31
0.0
  0
LINE
  5
630
102
{ACAD_REACTORS
330
682
102
}
330
1F
100
AcDbEntity
  8
実線
100
AcDbLine
 10
707.0410796290541
 20
510.3402010275864
 30
0.0
 11
700.5410796290541
 21
510.3402010275864
 31
0.0
  0
LINE
  5
631
102
{ACAD_REACTORS
330
682
102
}
330
1F
100
AcDbEntity
  8
実線
100
AcDbLine
 10
756.0856793185211
 20
819.8402010275858
 30
0.0
 11
608.9964799395874
 21
819.8402010275858
 31
0.0
  0
LINE
  5
632
102
{ACAD_REACTORS
330
682
102
}
330
1F
100
AcDbEntity
  8
実線
100
AcDbLine
 10
747.5410796290541
 20
839.8402010275859
 30
0.0
 11
747.5410796290541
 21
894.3402010275859
 31
0.0
  0
ARC
  5
633
102
{ACAD_REACTORS
330
682
102
}
330
1F
100
AcDbEntity
  8
実線
100
AcDbCircle
 10
732.5410796290541
 20
894.3402010275859
 30
0.0
 40
15.0
100
AcDbArc
 50
0.0
 51
90.0
  0
ARC
  5
634
102
{ACAD_REACTORS
330
682
102
}
330
1F
100
AcDbEntity
  8
実線
100
AcDbCircle
 10
632.5410796290543
 20
894.3402010275859
 30
0.0
 40
15.0
100
AcDbArc
 50
90.0
 51
134.7650846713296
  0
LINE
  5
635
102
{ACAD_REACTORS
330
682
102
}
330
1F
100
AcDbEntity
  8
実線
100
AcDbLine
 10
608.9964799395874
 20
839.8402010275859
 30
0.0
 11
652.9510760414455
 21
839.8402010275859
 31
0.0
  0
LINE
  5
636
102
{ACAD_REACTORS
330
682
102
}
330
1F
100
AcDbEntity
  8
実線
100
AcDbLine
 10
608.9964799395874
 20
839.8402010275859
 30
0.0
 11
608.9964799395874
 21
819.8402010275858
 31
0.0
  0
LINE
  5
637
102
{ACAD_REACTORS
330
682
102
}
330
1F
100
AcDbEntity
  8
実線
100
AcDbLine
 10
756.0856793185211
 20
819.8402010275858
 30
0.0
 11
756.0856793185211
 21
839.8402010275859
 31
0.0
  0
LINE
  5
638
102
{ACAD_REACTORS
330
682
102
}
330
1F
100
AcDbEntity
  8
実線
100
AcDbLine
 10
756.0856793185211
 20
839.8402010275859
 30
0.0
 11
712.1310832166632
 21
839.8402010275859
 31
0.0
  0
LINE
  5
639
102
{ACAD_REACTORS
330
682
102
}
330
1F
100
AcDbEntity
  8
実線
100
AcDbLine
 10
652.9510760414455
 20
819.8402010275858
 30
0.0
 11
652.9510760414455
 21
839.8402010275859
 31
0.0
  0
LINE
  5
63A
102
{ACAD_REACTORS
330
682
102
}
330
1F
100
AcDbEntity
  8
実線
100
AcDbLine
 10
712.1310832166632
 20
819.8402010275858
 30
0.0
 11
712.1310832166632
 21
839.8402010275859
 31
0.0
  0
LINE
  5
63B
102
{ACAD_REACTORS
330
682
102
}
330
1F
100
AcDbEntity
  8
実線
100
AcDbLine
 10
675.5410796290541
 20
502.3402010275866
 30
0.0
 11
675.5410796290541
 21
498.8402010275864
 31
0.0
  0
LINE
  5
63C
102
{ACAD_REACTORS
330
682
102
}
330
1F
100
AcDbEntity
  8
実線
100
AcDbLine
 10
675.5410796290544
 20
498.8402010275864
 30
0.0
 11
702.5410796290541
 21
498.8402010275864
 31
0.0
  0
LINE
  5
63D
102
{ACAD_REACTORS
330
682
102
}
330
1F
100
AcDbEntity
  8
実線
100
AcDbLine
 10
702.5410796290541
 20
507.3402010275864
 30
0.0
 11
702.5410796290541
 21
498.8402010275864
 31
0.0
  0
LINE
  5
63E
102
{ACAD_REACTORS
330
682
102
}
330
1F
100
AcDbEntity
  8
実線
100
AcDbLine
 10
702.5410796290541
 20
527.3402010275864
 30
0.0
 11
702.5410796290541
 21
510.3402010275864
 31
0.0
  0
LINE
  5
63F
102
{ACAD_REACTORS
330
682
102
}
330
1F
100
AcDbEntity
  8
実線
100
AcDbLine
 10
702.5410796290541
 20
537.6402010275866
 30
0.0
 11
702.5410796290541
 21
530.3402010275864
 31
0.0
  0
LINE
  5
640
102
{ACAD_REACTORS
330
682
102
}
330
1F
100
AcDbEntity
  8
実線
100
AcDbLine
 10
696.5410796290541
 20
537.6402010275866
 30
0.0
 11
717.5410796290541
 21
537.6402010275866
 31
0.0
  0
LINE
  5
641
102
{ACAD_REACTORS
330
682
102
}
330
1F
100
AcDbEntity
  8
実線
100
AcDbLine
 10
717.5410796290541
 20
538.8402010275864
 30
0.0
 11
717.5410796290541
 21
537.6402010275865
 31
0.0
  0
LINE
  5
642
102
{ACAD_REACTORS
330
682
102
}
330
1F
100
AcDbEntity
  8
実線
100
AcDbLine
 10
747.5410796290541
 20
797.8402010275864
 30
0.0
 11
747.5410796290541
 21
801.3402010275864
 31
0.0
  0
LINE
  5
643
102
{ACAD_REACTORS
330
682
102
}
330
1F
100
AcDbEntity
  8
実線
100
AcDbLine
 10
617.5410796290544
 20
801.3402010275864
 30
0.0
 11
617.5410796290544
 21
797.8402010275864
 31
0.0
  0
LINE
  5
644
102
{ACAD_REACTORS
330
682
102
}
330
1F
100
AcDbEntity
  8
実線
100
AcDbLine
 10
608.9964799395874
 20
801.3402010275864
 30
0.0
 11
652.9510760414455
 21
801.3402010275864
 31
0.0
  0
LINE
  5
645
102
{ACAD_REACTORS
330
682
102
}
330
1F
100
AcDbEntity
  8
実線
100
AcDbLine
 10
608.9964799395874
 20
819.8402010275858
 30
0.0
 11
608.9964799395874
 21
801.3402010275864
 31
0.0
  0
LINE
  5
646
102
{ACAD_REACTORS
330
682
102
}
330
1F
100
AcDbEntity
  8
実線
100
AcDbLine
 10
756.0856793185211
 20
801.3402010275864
 30
0.0
 11
756.0856793185211
 21
819.8402010275858
 31
0.0
  0
LINE
  5
647
102
{ACAD_REACTORS
330
682
102
}
330
1F
100
AcDbEntity
  8
実線
100
AcDbLine
 10
756.0856793185211
 20
801.3402010275864
 30
0.0
 11
712.1310832166632
 21
801.3402010275864
 31
0.0
  0
LINE
  5
648
102
{ACAD_REACTORS
330
682
102
}
330
1F
100
AcDbEntity
  8
実線
100
AcDbLine
 10
652.9510760414455
 20
801.3402010275864
 30
0.0
 11
652.9510760414455
 21
819.8402010275858
 31
0.0
  0
LINE
  5
649
102
{ACAD_REACTORS
330
682
102
}
330
1F
100
AcDbEntity
  8
実線
100
AcDbLine
 10
712.1310832166632
 20
801.3402010275864
 30
0.0
 11
712.1310832166632
 21
819.8402010275858
 31
0.0
  0
LINE
  5
64A
102
{ACAD_REACTORS
330
682
102
}
330
1F
100
AcDbEntity
  8
実線
100
AcDbLine
 10
542.5410796290544
 20
947.340201027587
 30
0.0
 11
822.5410796290541
 21
947.340201027587
 31
0.0
  0
LINE
  5
64B
102
{ACAD_REACTORS
330
682
102
}
330
1F
100
AcDbEntity
  8
実線
100
AcDbLine
 10
822.5410796290541
 20
925.3402010275859
 30
0.0
 11
822.5410796290541
 21
947.340201027587
 31
0.0
  0
LINE
  5
64C
102
{ACAD_REACTORS
330
682
102
}
330
1F
100
AcDbEntity
  8
実線
100
AcDbLine
 10
542.5410796290544
 20
947.340201027587
 30
0.0
 11
542.5410796290544
 21
925.3402010275859
 31
0.0
  0
LINE
  5
64D
102
{ACAD_REACTORS
330
682
102
}
330
1F
100
AcDbEntity
  8
実線
100
AcDbLine
 10
542.5410796290544
 20
925.3402010275859
 30
0.0
 11
822.5410796290541
 21
925.3402010275859
 31
0.0
  0
LINE
  5
64E
102
{ACAD_REACTORS
330
682
102
}
330
1F
100
AcDbEntity
  8
実線
100
AcDbLine
 10
742.5410796290541
 20
538.8402010275864
 30
0.0
 11
622.5410796290543
 21
538.8402010275864
 31
0.0
  0
ARC
  5
64F
102
{ACAD_REACTORS
330
682
102
}
330
1F
100
AcDbEntity
  8
実線
100
AcDbCircle
 10
622.5410796290543
 20
543.8402010275864
 30
0.0
 40
5.0
100
AcDbArc
 50
180.0
 51
270.0
  0
ARC
  5
650
102
{ACAD_REACTORS
330
682
102
}
330
1F
100
AcDbEntity
  8
実線
100
AcDbCircle
 10
742.5410796290541
 20
543.8402010275864
 30
0.0
 40
5.0
100
AcDbArc
 50
270.0
 51
0.0
  0
LINE
  5
651
102
{ACAD_REACTORS
330
684
102
}
330
1F
100
AcDbEntity
  8
中心線
100
AcDbLine
 10
793.4066235304089
 20
1307.762212911398
 30
0.0
 11
793.4066235304089
 21
1278.762212911398
 31
0.0
  0
LINE
  5
652
102
{ACAD_REACTORS
330
684
102
}
330
1F
100
AcDbEntity
  8
中心線
100
AcDbLine
 10
778.906623530409
 20
1293.262212911398
 30
0.0
 11
807.906623530409
 21
1293.262212911398
 31
0.0
  0
LINE
  5
653
102
{ACAD_REACTORS
330
684
102
}
330
1F
100
AcDbEntity
  8
中心線
100
AcDbLine
 10
793.4066235304089
 20
1215.918189143776
 30
0.0
 11
793.4066235304089
 21
1186.918189143776
 31
0.0
  0
LINE
  5
654
102
{ACAD_REACTORS
330
684
102
}
330
1F
100
AcDbEntity
  8
中心線
100
AcDbLine
 10
778.906623530409
 20
1201.418189143776
 30
0.0
 11
807.906623530409
 21
1201.418189143776
 31
0.0
  0
LINE
  5
655
102
{ACAD_REACTORS
330
684
102
}
330
1F
100
AcDbEntity
  8
中心線
100
AcDbLine
 10
728.4630915128651
 20
1150.974657126233
 30
0.0
 11
728.4630915128651
 21
1121.974657126233
 31
0.0
  0
LINE
  5
656
102
{ACAD_REACTORS
330
684
102
}
330
1F
100
AcDbEntity
  8
中心線
100
AcDbLine
 10
713.963091512865
 20
1136.474657126233
 30
0.0
 11
742.963091512865
 21
1136.474657126233
 31
0.0
  0
LINE
  5
657
102
{ACAD_REACTORS
330
684
102
}
330
1F
100
AcDbEntity
  8
中心線
100
AcDbLine
 10
636.6190677452436
 20
1150.974657126233
 30
0.0
 11
636.6190677452436
 21
1121.974657126233
 31
0.0
  0
LINE
  5
658
102
{ACAD_REACTORS
330
684
102
}
330
1F
100
AcDbEntity
  8
中心線
100
AcDbLine
 10
622.1190677452437
 20
1136.474657126233
 30
0.0
 11
651.1190677452439
 21
1136.474657126233
 31
0.0
  0
LINE
  5
659
102
{ACAD_REACTORS
330
684
102
}
330
1F
100
AcDbEntity
  8
中心線
100
AcDbLine
 10
571.6755357276999
 20
1215.918189143776
 30
0.0
 11
571.6755357276999
 21
1186.918189143776
 31
0.0
  0
LINE
  5
65A
102
{ACAD_REACTORS
330
684
102
}
330
1F
100
AcDbEntity
  8
中心線
100
AcDbLine
 10
557.1755357276998
 20
1201.418189143776
 30
0.0
 11
586.1755357276997
 21
1201.418189143776
 31
0.0
  0
LINE
  5
65B
102
{ACAD_REACTORS
330
684
102
}
330
1F
100
AcDbEntity
  8
中心線
100
AcDbLine
 10
571.6755357276999
 20
1307.762212911398
 30
0.0
 11
571.6755357276999
 21
1278.762212911398
 31
0.0
  0
LINE
  5
65C
102
{ACAD_REACTORS
330
684
102
}
330
1F
100
AcDbEntity
  8
中心線
100
AcDbLine
 10
557.1755357276998
 20
1293.262212911398
 30
0.0
 11
586.1755357276997
 21
1293.262212911398
 31
0.0
  0
LINE
  5
65D
102
{ACAD_REACTORS
330
684
102
}
330
1F
100
AcDbEntity
  8
中心線
100
AcDbLine
 10
636.6190677452436
 20
1372.705744928942
 30
0.0
 11
636.6190677452436
 21
1343.705744928942
 31
0.0
  0
LINE
  5
65E
102
{ACAD_REACTORS
330
684
102
}
330
1F
100
AcDbEntity
  8
中心線
100
AcDbLine
 10
622.1190677452437
 20
1358.205744928942
 30
0.0
 11
651.1190677452439
 21
1358.205744928942
 31
0.0
  0
LINE
  5
65F
102
{ACAD_REACTORS
330
684
102
}
330
1F
100
AcDbEntity
  8
中心線
100
AcDbLine
 10
728.4630915128651
 20
1372.705744928942
 30
0.0
 11
728.4630915128651
 21
1343.705744928942
 31
0.0
  0
LINE
  5
660
102
{ACAD_REACTORS
330
684
102
}
330
1F
100
AcDbEntity
  8
中心線
100
AcDbLine
 10
713.963091512865
 20
1358.205744928942
 30
0.0
 11
742.963091512865
 21
1358.205744928942
 31
0.0
  0
LINE
  5
661
102
{ACAD_REACTORS
330
684
102
}
330
1F
100
AcDbEntity
  8
中心線
100
AcDbLine
 10
457.5410796290545
 20
1247.340201027587
 30
0.0
 11
907.5410796290544
 21
1247.340201027587
 31
0.0
  0
LINE
  5
662
102
{ACAD_REACTORS
330
684
102
}
330
1F
100
AcDbEntity
  8
中心線
100
AcDbLine
 10
682.5410796290546
 20
1097.340201027587
 30
0.0
 11
682.5410796290546
 21
1397.340201027587
 31
0.0
  0
LINE
  5
663
102
{ACAD_REACTORS
330
6D1
102
}
330
1F
100
AcDbEntity
  8
中心線
100
AcDbLine
 10
793.4066235304089
 20
287.7622129113975
 30
0.0
 11
793.4066235304089
 21
258.7622129113974
 31
0.0
  0
LINE
  5
664
102
{ACAD_REACTORS
330
6D1
102
}
330
1F
100
AcDbEntity
  8
中心線
100
AcDbLine
 10
778.906623530409
 20
273.2622129113974
 30
0.0
 11
807.906623530409
 21
273.2622129113974
 31
0.0
  0
LINE
  5
665
102
{ACAD_REACTORS
330
6D1
102
}
330
1F
100
AcDbEntity
  8
中心線
100
AcDbLine
 10
793.4066235304089
 20
195.9181891437758
 30
0.0
 11
793.4066235304089
 21
166.9181891437758
 31
0.0
  0
LINE
  5
666
102
{ACAD_REACTORS
330
6D1
102
}
330
1F
100
AcDbEntity
  8
中心線
100
AcDbLine
 10
778.906623530409
 20
181.4181891437758
 30
0.0
 11
807.906623530409
 21
181.4181891437758
 31
0.0
  0
LINE
  5
667
102
{ACAD_REACTORS
330
6D1
102
}
330
1F
100
AcDbEntity
  8
中心線
100
AcDbLine
 10
728.4630915128651
 20
130.9746571262323
 30
0.0
 11
728.4630915128651
 21
101.9746571262323
 31
0.0
  0
LINE
  5
668
102
{ACAD_REACTORS
330
6D1
102
}
330
1F
100
AcDbEntity
  8
中心線
100
AcDbLine
 10
713.963091512865
 20
116.4746571262323
 30
0.0
 11
742.963091512865
 21
116.4746571262323
 31
0.0
  0
LINE
  5
669
102
{ACAD_REACTORS
330
6D1
102
}
330
1F
100
AcDbEntity
  8
中心線
100
AcDbLine
 10
636.6190677452436
 20
130.9746571262323
 30
0.0
 11
636.6190677452436
 21
101.9746571262323
 31
0.0
  0
LINE
  5
66A
102
{ACAD_REACTORS
330
6D1
102
}
330
1F
100
AcDbEntity
  8
中心線
100
AcDbLine
 10
622.1190677452437
 20
116.4746571262323
 30
0.0
 11
651.1190677452439
 21
116.4746571262323
 31
0.0
  0
LINE
  5
66B
102
{ACAD_REACTORS
330
6D1
102
}
330
1F
100
AcDbEntity
  8
中心線
100
AcDbLine
 10
571.6755357276999
 20
195.9181891437758
 30
0.0
 11
571.6755357276999
 21
166.9181891437758
 31
0.0
  0
LINE
  5
66C
102
{ACAD_REACTORS
330
6D1
102
}
330
1F
100
AcDbEntity
  8
中心線
100
AcDbLine
 10
557.1755357276998
 20
181.4181891437758
 30
0.0
 11
586.1755357276997
 21
181.4181891437758
 31
0.0
  0
LINE
  5
66D
102
{ACAD_REACTORS
330
6D1
102
}
330
1F
100
AcDbEntity
  8
中心線
100
AcDbLine
 10
571.6755357276999
 20
287.7622129113975
 30
0.0
 11
571.6755357276999
 21
258.7622129113974
 31
0.0
  0
LINE
  5
66E
102
{ACAD_REACTORS
330
6D1
102
}
330
1F
100
AcDbEntity
  8
中心線
100
AcDbLine
 10
557.1755357276998
 20
273.2622129113974
 30
0.0
 11
586.1755357276997
 21
273.2622129113974
 31
0.0
  0
LINE
  5
66F
102
{ACAD_REACTORS
330
6D1
102
}
330
1F
100
AcDbEntity
  8
中心線
100
AcDbLine
 10
636.6190677452436
 20
352.7057449289411
 30
0.0
 11
636.6190677452436
 21
323.7057449289411
 31
0.0
  0
LINE
  5
670
102
{ACAD_REACTORS
330
6D1
102
}
330
1F
100
AcDbEntity
  8
中心線
100
AcDbLine
 10
622.1190677452437
 20
338.2057449289411
 30
0.0
 11
651.1190677452439
 21
338.2057449289411
 31
0.0
  0
LINE
  5
671
102
{ACAD_REACTORS
330
6D1
102
}
330
1F
100
AcDbEntity
  8
中心線
100
AcDbLine
 10
728.4630915128651
 20
352.7057449289411
 30
0.0
 11
728.4630915128651
 21
323.7057449289411
 31
0.0
  0
LINE
  5
672
102
{ACAD_REACTORS
330
6D1
102
}
330
1F
100
AcDbEntity
  8
中心線
100
AcDbLine
 10
713.963091512865
 20
338.2057449289411
 30
0.0
 11
742.963091512865
 21
338.2057449289411
 31
0.0
  0
LINE
  5
673
102
{ACAD_REACTORS
330
6D1
102
}
330
1F
100
AcDbEntity
  8
中心線
100
AcDbLine
 10
457.5410796290546
 20
227.3402010275867
 30
0.0
 11
907.5410796290546
 21
227.3402010275868
 31
0.0
  0
LINE
  5
674
102
{ACAD_REACTORS
330
6D1
102
}
330
1F
100
AcDbEntity
  8
中心線
100
AcDbLine
 10
682.5410796290546
 20
77.340201027587
 30
0.0
 11
682.5410796290546
 21
377.340201027587
 31
0.0
  0
LINE
  5
675
102
{ACAD_REACTORS
330
680
102
}
330
1F
100
AcDbEntity
  8
中心線
100
AcDbLine
 10
1506.935957207671
 20
866.8402010275858
 30
0.0
 11
1778.146202050438
 21
866.8402010275858
 31
0.0
  0
LINE
  5
676
102
{ACAD_REACTORS
330
680
102
}
330
1F
100
AcDbEntity
  8
中心線
100
AcDbLine
 10
1642.541079629054
 20
490.009856852328
 30
0.0
 11
1642.541079629054
 21
951.8402010275858
 31
0.0
  0
LINE
  5
677
102
{ACAD_REACTORS
330
680
102
}
330
1F
100
AcDbEntity
  8
中心線
100
AcDbLine
 10
1778.146202050438
 20
866.8402010275858
 30
0.0
 11
1831.253543416443
 21
813.7328596615809
 31
0.0
  0
LINE
  5
678
102
{ACAD_REACTORS
330
681
102
}
330
1F
100
AcDbEntity
  8
中心線
100
AcDbLine
 10
1162.541079629054
 20
490.0098568523282
 30
0.0
 11
1162.541079629054
 21
951.8402010275858
 31
0.0
  0
LINE
  5
679
102
{ACAD_REACTORS
330
681
102
}
330
1F
100
AcDbEntity
  8
中心線
100
AcDbLine
 10
1077.541079629055
 20
866.8402010275858
 30
0.0
 11
1247.541079629055
 21
866.8402010275858
 31
0.0
  0
LINE
  5
67A
102
{ACAD_REACTORS
330
683
102
}
330
1F
100
AcDbEntity
  8
中心線
100
AcDbLine
 10
202.5410796290544
 20
490.0098568523282
 30
0.0
 11
202.5410796290544
 21
951.8402010275858
 31
0.0
  0
LINE
  5
67B
102
{ACAD_REACTORS
330
683
102
}
330
1F
100
AcDbEntity
  8
中心線
100
AcDbLine
 10
117.5410796290544
 20
866.8402010275858
 30
0.0
 11
287.5410796290544
 21
866.8402010275858
 31
0.0
  0
LINE
  5
67C
102
{ACAD_REACTORS
330
682
102
}
330
1F
100
AcDbEntity
  8
中心線
100
AcDbLine
 10
818.1462020504378
 20
866.8402010275858
 30
0.0
 11
546.9359572076708
 21
866.8402010275858
 31
0.0
  0
LINE
  5
67D
102
{ACAD_REACTORS
330
682
102
}
330
1F
100
AcDbEntity
  8
中心線
100
AcDbLine
 10
682.5410796290545
 20
490.009856852328
 30
0.0
 11
682.5410796290543
 21
951.8402010275858
 31
0.0
  0
LINE
  5
67E
102
{ACAD_REACTORS
330
682
102
}
330
1F
100
AcDbEntity
  8
中心線
100
AcDbLine
 10
546.9359572076708
 20
866.8402010275858
 30
0.0
 11
493.8286158416656
 21
813.7328596615807
 31
0.0
  0
ENDSEC
  0
SECTION
  2
OBJECTS
  0
DICTIONARY
  5
C
330
0
100
AcDbDictionary
281
     1
  3
ACAD_CIP_PREVIOUS_PRODUCT_INFO
350
255
  3
ACAD_COLOR
350
24B
  3
ACAD_DETAILVIEWSTYLE
350
24E
  3
ACAD_GROUP
350
D
  3
ACAD_LAYOUT
350
1A
  3
ACAD_MATERIAL
350
43
  3
ACAD_MLEADERSTYLE
350
5B
  3
ACAD_MLINESTYLE
350
17
  3
ACAD_PLOTSETTINGS
350
19
  3
ACAD_PLOTSTYLENAME
350
E
  3
ACAD_SCALELIST
350
47
  3
ACAD_SECTIONVIEWSTYLE
350
24C
  3
ACAD_TABLESTYLE
350
59
  3
ACAD_VISUALSTYLE
350
2A
  3
ACDB_RECOMPOSE_DATA
350
720
  3
AcDbVariableDictionary
350
200
  3
DWGPROPS
350
721
  0
DICTIONARY
  5
25C
330
2
100
AcDbDictionary
280
     1
281
     1
  3
ACAD_LAYERSTATES
360
25D
  0
DICTIONARY
  5
685
330
10
100
AcDbDictionary
280
     1
281
     1
  3
ADSK_XREC_LAYER_RECONCILED
360
686
  0
DICTIONARY
  5
258
330
257
100
AcDbDictionary
280
     1
281
     1
  3
ADSK_XREC_LAYER_RECONCILED
360
687
  0
DICTIONARY
  5
25A
330
259
100
AcDbDictionary
280
     1
281
     1
  3
ADSK_XREC_LAYER_RECONCILED
360
688
  0
DICTIONARY
  5
4F6
330
1F
100
AcDbDictionary
280
     1
281
     1
  3
ACAD_SORTENTS
360
4F7
  0
XRECORD
  5
255
102
{ACAD_REACTORS
330
C
102
}
330
C
100
AcDbXrecord
280
     1
300
ACDLT
300
2016
300
ACDLT_F_S
  0
DICTIONARY
  5
24B
102
{ACAD_REACTORS
330
C
102
}
330
C
100
AcDbDictionary
281
     1
  0
DICTIONARY
  5
24E
102
{ACAD_REACTORS
330
C
102
}
330
C
100
AcDbDictionary
281
     1
  3
Metric50
350
24F
  0
DICTIONARY
  5
D
102
{ACAD_REACTORS
330
C
102
}
330
C
100
AcDbDictionary
281
     1
  3
*A2
350
680
  3
*A3
350
681
  3
*A4
350
682
  3
*A5
350
683
  3
*A6
350
684
  3
*A7
350
6D1
  0
DICTIONARY
  5
1A
102
{ACAD_REACTORS
330
C
102
}
330
C
100
AcDbDictionary
281
     1
  3
Layout1
350
1E
  3
Model
350
22
  3
レイアウト1
350
250
  0
DICTIONARY
  5
43
102
{ACAD_REACTORS
330
C
102
}
330
C
100
AcDbDictionary
281
     1
  3
ByBlock
350
45
  3
ByLayer
350
44
  3
Global
350
46
  0
DICTIONARY
  5
5B
102
{ACAD_REACTORS
330
C
102
}
330
C
100
AcDbDictionary
281
     1
  3
Standard
350
5C
  0
DICTIONARY
  5
17
102
{ACAD_REACTORS
330
C
102
}
330
C
100
AcDbDictionary
281
     1
  3
Standard
350
18
  0
DICTIONARY
  5
19
102
{ACAD_REACTORS
330
C
102
}
330
C
100
AcDbDictionary
281
     1
  0
ACDBDICTIONARYWDFLT
  5
E
102
{ACAD_REACTORS
330
C
102
}
330
C
100
AcDbDictionary
281
     1
  3
Normal
350
F
100
AcDbDictionaryWithDefault
340
F
  0
DICTIONARY
  5
47
102
{ACAD_REACTORS
330
C
102
}
330
C
100
AcDbDictionary
281
     1
  3
A0
350
48
  3
A1
350
49
  3
A2
350
4A
  3
A3
350
4B
  3
A4
350
4C
  3
A5
350
4D
  3
A6
350
4E
  3
A7
350
4F
  3
A8
350
50
  3
A9
350
51
  3
B0
350
52
  3
B1
350
53
  3
B2
350
54
  3
B3
350
55
  3
B4
350
56
  3
B5
350
57
  3
B6
350
58
  0
DICTIONARY
  5
24C
102
{ACAD_REACTORS
330
C
102
}
330
C
100
AcDbDictionary
281
     1
  3
Metric50
350
24D
  0
DICTIONARY
  5
59
102
{ACAD_REACTORS
330
C
102
}
330
C
100
AcDbDictionary
281
     1
  3
Standard
350
5A
  0
DICTIONARY
  5
2A
102
{ACAD_REACTORS
330
C
102
}
330
C
100
AcDbDictionary
281
     1
  3
2dWireframe
350
2F
  3
Basic
350
32
  3
Brighten
350
36
  3
ColorChange
350
3A
  3
Conceptual
350
34
  3
Dim
350
35
  3
EdgeColorOff
350
3D
  3
Facepattern
350
39
  3
Flat
350
2B
  3
FlatWithEdges
350
2C
  3
Gouraud
350
2D
  3
GouraudWithEdges
350
2E
  3
Hidden
350
31
  3
JitterOff
350
3B
  3
Linepattern
350
38
  3
OverhangOff
350
3C
  3
Realistic
350
33
  3
Shaded
350
42
  3
Shaded with edges
350
41
  3
Shades of Gray
350
3E
  3
Sketchy
350
3F
  3
Thicken
350
37
  3
Wireframe
350
30
  3
X-Ray
350
40
  0
XRECORD
  5
720
102
{ACAD_REACTORS
330
C
102
}
330
C
100
AcDbXrecord
280
     1
 90
        1
330
5A
  0
DICTIONARY
  5
200
102
{ACAD_REACTORS
330
C
102
}
330
C
100
AcDbDictionary
281
     1
  3
CANNOSCALE
350
20E
  3
CENTEREXE
350
207
  3
CENTERLTYPEFILE
350
208
  3
CMLEADERSTYLE
350
202
  3
CTABLESTYLE
350
201
  3
CVIEWDETAILSTYLE
350
689
  3
CVIEWSECTIONSTYLE
350
68A
  3
DIMASSOC
350
209
  3
HIDETEXT
350
20A
  3
INDEXCTL
350
6DA
  3
LAYEREVAL
350
68C
  3
LAYERNOTIFY
350
68D
  3
LIGHTINGUNITS
350
68B
  3
LOFTANG1
350
6DD
  3
LOFTANG2
350
6DE
  3
LONGITUDE
350
6DF
  3
MSLTSCALE
350
20F
  3
PSOLHEIGHT
350
6DC
  3
PSOLWIDTH
350
6DB
  3
SORTENTS
350
6D9
  3
XCLIPFRAME
350
6E0
  0
XRECORD
  5
721
102
{ACAD_REACTORS
330
C
102
}
330
C
100
AcDbXrecord
280
     1
  1
DWGPROPS COOKIE
  2

  3

  4

  6
File was created by TR2_DExp
  7

  8
fujino
  9

300
=
301
=
302
=
303
=
304
=
305
=
306
=
307
=
308
=
309
=
 40
0.0066866782407407
 41
2455188.75
 42
2459744.667203981
  1

 90
        0
  0
DICTIONARY
  5
25D
102
{ACAD_REACTORS
330
25C
102
}
330
25C
100
AcDbDictionary
281
     1
  0
XRECORD
  5
686
102
{ACAD_REACTORS
330
685
102
}
330
685
100
AcDbXrecord
280
     1
290
     1
  0
XRECORD
  5
687
102
{ACAD_REACTORS
330
258
102
}
330
258
100
AcDbXrecord
280
     1
290
     1
  0
XRECORD
  5
688
102
{ACAD_REACTORS
330
25A
102
}
330
25A
100
AcDbXrecord
280
     1
290
     1
  0
SORTENTSTABLE
  5
4F7
102
{ACAD_REACTORS
330
4F6
102
}
330
4F6
100
AcDbSortentsTable
330
1F
331
4D6
  5
4FC
331
4D2
  5
4F8
331
5DF
  5
3FD
331
61E
  5
3B1
331
4FD
  5
4A4
331
53C
  5
4E3
331
4CE
  5
4F2
331
5DB
  5
3F9
331
61A
  5
3AD
331
4F9
  5
4A0
331
657
  5
657
331
56D
  5
47E
331
5AC
  5
442
331
67D
  5
67D
331
5A8
  5
43E
331
5D7
  5
3F5
331
616
  5
3A9
331
653
  5
653
331
569
  5
47A
331
679
  5
679
331
612
  5
3A5
331
530
  5
4D7
331
565
  5
476
331
5A4
  5
43A
331
64F
  5
3E2
331
5D3
  5
3F1
331
561
  5
472
331
5A0
  5
436
331
64B
  5
3DE
331
60E
  5
3A1
331
52C
  5
4D3
331
5CF
  5
3ED
331
528
  5
4CF
331
5CB
  5
3E9
331
60A
  5
39D
331
647
  5
3DA
331
55D
  5
46E
331
59C
  5
432
331
524
  5
4CB
331
598
  5
42E
331
606
  5
399
331
643
  5
3D6
331
559
  5
46A
331
520
  5
4C7
331
594
  5
42A
331
63F
  5
3D2
331
602
  5
420
331
590
  5
426
331
63B
  5
3CE
331
5FE
  5
41C
331
51C
  5
4C3
331
518
  5
4BF
331
557
  5
468
331
5FA
  5
418
331
676
  5
676
331
58C
  5
49D
331
514
  5
4BB
331
553
  5
464
331
672
  5
672
331
588
  5
499
331
5C7
  5
3E5
331
5F6
  5
414
331
635
  5
3C8
331
631
  5
3C4
331
66E
  5
66E
331
584
  5
495
331
5C3
  5
459
331
5F2
  5
410
331
66A
  5
66A
331
580
  5
491
331
4E5
  5
50B
331
54F
  5
460
331
54B
  5
45C
331
5EE
  5
40C
331
62D
  5
3C0
331
50C
  5
4B3
331
5BF
  5
455
331
5BB
  5
451
331
5EA
  5
408
331
629
  5
3BC
331
666
  5
666
331
57C
  5
48D
331
508
  5
4AF
331
4D9
  5
4FF
331
504
  5
4AB
331
662
  5
662
331
578
  5
489
331
5B7
  5
44D
331
5E6
  5
404
331
625
  5
3B8
331
621
  5
3B4
331
500
  5
4A7
331
65E
  5
65E
331
574
  5
485
331
5B3
  5
449
331
5E2
  5
400
331
65A
  5
65A
331
570
  5
481
331
4D5
  5
4FB
331
53F
  5
4E6
331
4D1
  5
4F5
331
5DE
  5
3FC
331
61D
  5
3B0
331
4FC
  5
4A3
331
5AF
  5
445
331
5AB
  5
441
331
5DA
  5
3F8
331
619
  5
3AC
331
656
  5
656
331
56C
  5
47D
331
4F8
  5
49F
331
67C
  5
67C
331
533
  5
4DA
331
5A7
  5
43D
331
5D6
  5
3F4
331
615
  5
3A8
331
652
  5
652
331
568
  5
479
331
678
  5
678
331
611
  5
3A4
331
564
  5
475
331
5A3
  5
439
331
64E
  5
3E1
331
5D2
  5
3F0
331
560
  5
471
331
64A
  5
3DD
331
52F
  5
4D6
331
5CE
  5
3EC
331
60D
  5
3A0
331
59F
  5
435
331
52B
  5
4D2
331
527
  5
4CE
331
5CA
  5
3E8
331
609
  5
39C
331
4F5
  5
51B
331
646
  5
3D9
331
55C
  5
46D
331
59B
  5
431
331
523
  5
4CA
331
597
  5
42D
331
605
  5
423
331
642
  5
3D5
331
558
  5
469
331
4F1
  5
517
331
601
  5
41F
331
593
  5
429
331
63E
  5
3D1
331
63A
  5
3CD
331
51F
  5
4C6
331
5FD
  5
41B
331
58F
  5
425
331
51B
  5
4C2
331
517
  5
4BE
331
556
  5
467
331
5F9
  5
417
331
675
  5
675
331
58B
  5
49C
331
4E8
  5
50E
331
634
  5
3C7
331
513
  5
4BA
331
552
  5
463
331
671
  5
671
331
587
  5
498
331
5C6
  5
3E4
331
5F5
  5
413
331
630
  5
3C3
331
66D
  5
66D
331
583
  5
494
331
5C2
  5
458
331
5F1
  5
40F
331
669
  5
669
331
50F
  5
4B6
331
54E
  5
45F
331
54A
  5
4F1
331
5ED
  5
40B
331
62C
  5
3BF
331
50B
  5
4B2
331
57F
  5
490
331
5BE
  5
454
331
507
  5
4AE
331
5BA
  5
450
331
5E9
  5
407
331
628
  5
3BB
331
665
  5
665
331
57B
  5
48C
331
4DC
  5
502
331
4D8
  5
4FE
331
503
  5
4AA
331
542
  5
4E9
331
661
  5
661
331
577
  5
488
331
5B6
  5
44C
331
5E5
  5
403
331
624
  5
3B7
331
620
  5
3B3
331
65D
  5
65D
331
573
  5
484
331
5B2
  5
448
331
5E1
  5
3FF
331
659
  5
659
331
4D4
  5
4FA
331
4FF
  5
4A6
331
4D0
  5
4F4
331
5DD
  5
3FB
331
61C
  5
3AF
331
4FB
  5
4A2
331
56F
  5
480
331
5AE
  5
444
331
536
  5
4DD
331
5AA
  5
440
331
5D9
  5
3F7
331
618
  5
3AB
331
655
  5
655
331
56B
  5
47C
331
67B
  5
67B
331
651
  5
651
331
567
  5
478
331
5A6
  5
43C
331
5D5
  5
3F3
331
614
  5
3A7
331
610
  5
3A3
331
563
  5
474
331
5A2
  5
438
331
64D
  5
3E0
331
5D1
  5
3EF
331
649
  5
3DC
331
52E
  5
4D5
331
5CD
  5
3EB
331
60C
  5
39F
331
55F
  5
470
331
59E
  5
434
331
52A
  5
4D1
331
526
  5
4CD
331
59A
  5
430
331
5C9
  5
3E7
331
608
  5
39B
331
645
  5
3D8
331
55B
  5
46C
331
4F4
  5
51A
331
522
  5
4C9
331
596
  5
42C
331
641
  5
3D4
331
604
  5
422
331
600
  5
41E
331
592
  5
428
331
63D
  5
3D0
331
639
  5
3CC
331
51E
  5
4C5
331
5FC
  5
41A
331
58E
  5
424
331
51A
  5
4C1
331
4EB
  5
511
331
555
  5
466
331
5F8
  5
416
331
637
  5
3CA
331
674
  5
674
331
58A
  5
49B
331
633
  5
3C6
331
512
  5
4B9
331
551
  5
462
331
670
  5
670
331
586
  5
497
331
5C5
  5
45B
331
5F4
  5
412
331
5F0
  5
40E
331
66C
  5
66C
331
582
  5
493
331
5C1
  5
457
331
668
  5
668
331
62F
  5
3C2
331
50E
  5
4B5
331
54D
  5
45E
331
549
  5
4F0
331
4DF
  5
505
331
5EC
  5
40A
331
62B
  5
3BE
331
50A
  5
4B1
331
57E
  5
48F
331
5BD
  5
453
331
506
  5
4AD
331
545
  5
4EC
331
5B9
  5
44F
331
5E8
  5
406
331
627
  5
3BA
331
664
  5
664
331
57A
  5
48B
331
4DB
  5
501
331
623
  5
3B6
331
502
  5
4A9
331
660
  5
660
331
576
  5
487
331
5B5
  5
44B
331
5E4
  5
402
331
65C
  5
65C
331
572
  5
483
331
5B1
  5
447
331
5E0
  5
3FE
331
658
  5
658
331
4D7
  5
4FD
331
4D3
  5
4F9
331
61F
  5
3B2
331
4FE
  5
4A5
331
539
  5
4E0
331
4CF
  5
4F3
331
5DC
  5
3FA
331
61B
  5
3AE
331
4FA
  5
4A1
331
56E
  5
47F
331
5AD
  5
443
331
67E
  5
67E
331
5A9
  5
43F
331
5D8
  5
3F6
331
617
  5
3AA
331
654
  5
654
331
56A
  5
47B
331
67A
  5
67A
331
566
  5
477
331
5A5
  5
43B
331
650
  5
3E3
331
5D4
  5
3F2
331
613
  5
3A6
331
562
  5
473
331
5A1
  5
437
331
64C
  5
3DF
331
5D0
  5
3EE
331
648
  5
3DB
331
60F
  5
3A2
331
52D
  5
4D4
331
529
  5
4D0
331
5CC
  5
3EA
331
60B
  5
39E
331
55E
  5
46F
331
59D
  5
433
331
525
  5
4CC
331
599
  5
42F
331
5C8
  5
3E6
331
607
  5
39A
331
644
  5
3D7
331
55A
  5
46B
331
521
  5
4C8
331
595
  5
42B
331
640
  5
3D3
331
603
  5
421
331
591
  5
427
331
63C
  5
3CF
331
638
  5
3CB
331
5FF
  5
41D
331
51D
  5
4C4
331
4EE
  5
514
331
5FB
  5
419
331
677
  5
677
331
58D
  5
49E
331
519
  5
4C0
331
554
  5
465
331
673
  5
673
331
589
  5
49A
331
5F7
  5
415
331
636
  5
3C9
331
632
  5
3C5
331
550
  5
461
331
66F
  5
66F
331
585
  5
496
331
5C4
  5
45A
331
5F3
  5
411
331
66B
  5
66B
331
581
  5
492
331
5C0
  5
456
331
4E2
  5
508
331
5EF
  5
40D
331
62E
  5
3C1
331
50D
  5
4B4
331
54C
  5
45D
331
548
  5
4EF
331
5BC
  5
452
331
5EB
  5
409
331
62A
  5
3BD
331
667
  5
667
331
57D
  5
48E
331
509
  5
4B0
331
4DA
  5
500
331
505
  5
4AC
331
5B8
  5
44E
331
5E7
  5
405
331
626
  5
3B9
331
663
  5
663
331
579
  5
48A
331
622
  5
3B5
331
501
  5
4A8
331
65F
  5
65F
331
575
  5
486
331
5B4
  5
44A
331
5E3
  5
401
331
65B
  5
65B
331
571
  5
482
331
5B0
  5
446
  0
ACDBDETAILVIEWSTYLE
  5
24F
102
{ACAD_XDICTIONARY
360
759
102
}
102
{ACAD_REACTORS
330
24E
102
}
330
24E
100
AcDbModelDocViewStyle
 70
     0
  3
Metric50
290
     0
100
AcDbDetailViewStyle
 70
     0
 71
     0
 90
        3
 71
     1
340
11
 40
5.0
340
0
 40
5.0
300

 40
0.0
280
     1
 71
     2
340
16
 90
       25
 71
     3
340
11
 40
5.0
 90
        0
 40
15.0
 90
        1
300
%<\AcVar ViewDetailId>% (%<\AcVar ViewScale \f "%sn">%)
 71
     4
340
16
 90
       25
340
16
 90
       25
280
     0
  0
GROUP
  5
680
102
{ACAD_REACTORS
330
D
102
}
330
D
100
AcDbGroup
300

 70
     1
 71
     1
340
677
340
676
340
675
340
58D
340
58C
340
58B
340
58A
340
589
340
588
340
587
340
586
340
585
340
584
340
583
340
582
340
581
340
580
340
57F
340
57E
340
57D
340
57C
340
57B
340
57A
340
579
340
578
340
577
340
576
340
575
340
574
340
573
340
572
340
571
340
570
340
56F
340
56E
340
56D
340
56C
340
56B
340
56A
340
569
340
568
340
567
340
566
340
565
340
564
340
563
340
562
340
561
340
560
340
55F
340
55E
340
55D
340
55C
340
55B
340
55A
340
559
340
558
340
557
340
556
340
555
340
554
340
553
340
552
340
551
340
550
340
54F
340
54E
340
54D
340
54C
340
54B
  0
GROUP
  5
681
102
{ACAD_REACTORS
330
D
102
}
330
D
100
AcDbGroup
300

 70
     1
 71
     1
340
679
340
678
340
5C5
340
5C4
340
5C3
340
5C2
340
5C1
340
5C0
340
5BF
340
5BE
340
5BD
340
5BC
340
5BB
340
5BA
340
5B9
340
5B8
340
5B7
340
5B6
340
5B5
340
5B4
340
5B3
340
5B2
340
5B1
340
5B0
340
5AF
340
5AE
340
5AD
340
5AC
340
5AB
340
5AA
340
5A9
340
5A8
340
5A7
340
5A6
340
5A5
340
5A4
340
5A3
340
5A2
340
5A1
340
5A0
340
59F
340
59E
340
59D
340
59C
340
59B
340
59A
340
599
340
598
340
597
340
596
340
595
340
594
340
593
340
592
340
591
340
590
340
58F
340
58E
  0
GROUP
  5
682
102
{ACAD_REACTORS
330
D
102
}
330
D
100
AcDbGroup
300

 70
     1
 71
     1
340
67E
340
67D
340
67C
340
650
340
64F
340
64E
340
64D
340
64C
340
64B
340
64A
340
649
340
648
340
647
340
646
340
645
340
644
340
643
340
642
340
641
340
640
340
63F
340
63E
340
63D
340
63C
340
63B
340
63A
340
639
340
638
340
637
340
636
340
635
340
634
340
633
340
632
340
631
340
630
340
62F
340
62E
340
62D
340
62C
340
62B
340
62A
340
629
340
628
340
627
340
626
340
625
340
624
340
623
340
622
340
621
340
620
340
61F
340
61E
340
61D
340
61C
340
61B
340
61A
340
619
340
618
340
617
340
616
340
615
340
614
340
613
340
612
340
611
340
610
340
60F
340
60E
340
60D
340
60C
340
60B
340
60A
340
609
340
608
340
607
340
606
  0
GROUP
  5
683
102
{ACAD_REACTORS
330
D
102
}
330
D
100
AcDbGroup
300

 70
     1
 71
     1
340
67B
340
67A
340
605
340
604
340
603
340
602
340
601
340
600
340
5FF
340
5FE
340
5FD
340
5FC
340
5FB
340
5FA
340
5F9
340
5F8
340
5F7
340
5F6
340
5F5
340
5F4
340
5F3
340
5F2
340
5F1
340
5F0
340
5EF
340
5EE
340
5ED
340
5EC
340
5EB
340
5EA
340
5E9
340
5E8
340
5E7
340
5E6
340
5E5
340
5E4
340
5E3
340
5E2
340
5E1
340
5E0
340
5DF
340
5DE
340
5DD
340
5DC
340
5DB
340
5DA
340
5D9
340
5D8
340
5D7
340
5D6
340
5D5
340
5D4
340
5D3
340
5D2
340
5D1
340
5D0
340
5CF
340
5CE
340
5CD
340
5CC
340
5CB
340
5CA
340
5C9
340
5C8
340
5C7
340
5C6
  0
GROUP
  5
684
102
{ACAD_REACTORS
330
D
102
}
330
D
100
AcDbGroup
300

 70
     1
 71
     1
340
662
340
661
340
660
340
65F
340
65E
340
65D
340
65C
340
65B
340
65A
340
659
340
658
340
657
340
656
340
655
340
654
340
653
340
652
340
651
340
4F5
340
4F4
340
4F1
340
4EE
340
4EB
340
4E8
340
4E5
340
4E2
340
4DF
340
4DC
340
4DB
340
4DA
340
4D9
340
4D8
340
4D7
340
4D6
340
4D5
340
4D4
340
4D3
340
4D2
340
4D1
340
4D0
340
4CF
340
4CE
  0
GROUP
  5
6D1
102
{ACAD_REACTORS
330
D
102
}
330
D
100
AcDbGroup
300

 70
     1
 71
     1
340
674
340
673
340
672
340
671
340
670
340
66F
340
66E
340
66D
340
66C
340
66B
340
66A
340
669
340
668
340
667
340
666
340
665
340
664
340
663
340
54A
340
549
340
548
340
545
340
542
340
53F
340
53C
340
539
340
536
340
533
340
530
340
52F
340
52E
340
52D
340
52C
340
52B
340
52A
340
529
340
528
340
527
340
526
340
525
340
524
340
523
340
522
340
521
340
520
340
51F
340
51E
340
51D
340
51C
340
51B
340
51A
340
519
340
518
340
517
340
514
340
513
340
512
340
50F
340
50E
340
50D
340
50C
340
50B
340
50A
340
509
340
508
340
507
340
506
340
505
340
504
340
503
340
502
340
501
340
500
340
4FF
340
4FE
340
4FD
340
4FC
340
4FB
340
4FA
340
4F9
340
4F8
  0
LAYOUT
  5
1E
102
{ACAD_XDICTIONARY
360
722
102
}
102
{ACAD_REACTORS
330
1A
102
}
330
1A
100
AcDbPlotSettings
  1

  2
none_device
  4

  6

 40
0.0
 41
0.0
 42
0.0
 43
0.0
 44
0.0
 45
0.0
 46
0.0
 47
0.0
 48
0.0
 49
0.0
140
0.0
141
0.0
142
1.0
143
1.0
 70
   688
 72
     1
 73
     0
 74
     5
  7

 75
    16
147
1.0
148
0.0
149
0.0
100
AcDbLayout
  1
Layout1
 70
     1
 71
     1
 10
0.0
 20
0.0
 11
420.0
 21
297.0
 12
0.0
 22
0.0
 32
0.0
 14
1.000000000000000E+20
 24
1.000000000000000E+20
 34
1.000000000000000E+20
 15
-1.000000000000000E+20
 25
-1.000000000000000E+20
 35
-1.000000000000000E+20
146
0.0
 13
0.0
 23
0.0
 33
0.0
 16
1.0
 26
0.0
 36
0.0
 17
0.0
 27
1.0
 37
0.0
 76
     0
330
1B
  0
LAYOUT
  5
22
102
{ACAD_XDICTIONARY
360
724
102
}
102
{ACAD_REACTORS
330
1A
102
}
330
1A
100
AcDbPlotSettings
  1

  2
none_device
  4
Letter_(8.50_x_11.00_Inches)
  6

 40
6.349999999999998
 41
6.349999999999998
 42
6.350005079999998
 43
6.350005079999998
 44
215.9
 45
279.4
 46
0.0
 47
0.0
 48
0.0
 49
0.0
140
0.0
141
0.0
142
1.0
143
1.0
 70
  1712
 72
     1
 73
     0
 74
     0
  7

 75
     0
147
1.0
148
0.0
149
0.0
100
AcDbLayout
  1
Model
 70
     1
 71
     0
 10
-619.3572082519531
 20
-987.7130889892578
 11
1209.079373966757
 21
503.2441101074218
 12
0.0
 22
0.0
 32
0.0
 14
-619.3572082519531
 24
-987.7130889892578
 34
0.0
 15
1209.079373966757
 25
503.2441101074218
 35
0.0
146
0.0
 13
0.0
 23
0.0
 33
0.0
 16
1.0
 26
0.0
 36
0.0
 17
0.0
 27
1.0
 37
0.0
 76
     0
330
1F
331
29
  0
LAYOUT
  5
250
102
{ACAD_XDICTIONARY
360
75B
102
}
102
{ACAD_REACTORS
330
1A
102
}
330
1A
100
AcDbPlotSettings
  1

  2
青梅 FX DocuCentre-V C2275 T2
  4

  6

 40
0.0
 41
0.0
 42
0.0
 43
0.0
 44
0.0
 45
0.0
 46
0.0
 47
0.0
 48
0.0
 49
0.0
140
0.0
141
0.0
142
1.0
143
1.0
 70
   688
 72
     0
 73
     0
 74
     5
  7
AutoCAD_PEN.ctb
 75
    16
147
1.0
148
0.0
149
0.0
100
AcDbLayout
  1
レイアウト1
 70
     1
 71
     2
 10
0.0
 20
0.0
 11
12.0
 21
9.0
 12
0.0
 22
0.0
 32
0.0
 14
0.0
 24
0.0
 34
0.0
 15
0.0
 25
0.0
 35
0.0
146
0.0
 13
0.0
 23
0.0
 33
0.0
 16
1.0
 26
0.0
 36
0.0
 17
0.0
 27
1.0
 37
0.0
 76
     0
330
23
  0
MATERIAL
  5
45
102
{ACAD_XDICTIONARY
360
242
102
}
102
{ACAD_REACTORS
330
43
102
}
330
43
100
AcDbMaterial
  1
ByBlock
  0
MATERIAL
  5
44
102
{ACAD_XDICTIONARY
360
240
102
}
102
{ACAD_REACTORS
330
43
102
}
330
43
100
AcDbMaterial
  1
ByLayer
  0
MATERIAL
  5
46
102
{ACAD_XDICTIONARY
360
244
102
}
102
{ACAD_REACTORS
330
43
102
}
330
43
100
AcDbMaterial
  1
Global
  0
MLEADERSTYLE
  5
5C
102
{ACAD_REACTORS
330
5B
102
}
330
5B
100
AcDbMLeaderStyle
170
     2
171
     1
172
     0
 90
        2
 40
0.0
 41
0.0
173
     1
 91
-1056964608
340
14
 92
       -2
290
     1
 42
2.0
291
     1
 43
8.0
  3
Standard
 44
4.0
300

342
11
174
     1
178
     6
175
     1
176
     0
 93
-1056964608
 45
4.0
292
     0
297
     0
 46
4.0
 94
-1056964608
 47
1.0
 49
1.0
140
1.0
293
     1
141
0.0
294
     1
177
     0
142
1.0
295
     0
296
     0
143
3.75
1001
ACAD_MLEADERVER
1070
     2
  0
MLINESTYLE
  5
18
102
{ACAD_REACTORS
330
17
102
}
330
17
100
AcDbMlineStyle
  2
STANDARD
 70
     0
  3

 62
   256
 51
90.0
 52
90.0
 71
     2
 49
0.5
 62
   256
  6
BYLAYER
 49
-0.5
 62
   256
  6
BYLAYER
  0
ACDBPLACEHOLDER
  5
F
102
{ACAD_REACTORS
330
E
102
}
330
E
  0
SCALE
  5
48
102
{ACAD_REACTORS
330
47
102
}
330
47
100
AcDbScale
 70
     0
300
1:1
140
1.0
141
1.0
290
     1
  0
SCALE
  5
49
102
{ACAD_REACTORS
330
47
102
}
330
47
100
AcDbScale
 70
     0
300
1:2
140
1.0
141
2.0
290
     0
  0
SCALE
  5
4A
102
{ACAD_REACTORS
330
47
102
}
330
47
100
AcDbScale
 70
     0
300
1:4
140
1.0
141
4.0
290
     0
  0
SCALE
  5
4B
102
{ACAD_REACTORS
330
47
102
}
330
47
100
AcDbScale
 70
     0
300
1:5
140
1.0
141
5.0
290
     0
  0
SCALE
  5
4C
102
{ACAD_REACTORS
330
47
102
}
330
47
100
AcDbScale
 70
     0
300
1:8
140
1.0
141
8.0
290
     0
  0
SCALE
  5
4D
102
{ACAD_REACTORS
330
47
102
}
330
47
100
AcDbScale
 70
     0
300
1:10
140
1.0
141
10.0
290
     0
  0
SCALE
  5
4E
102
{ACAD_REACTORS
330
47
102
}
330
47
100
AcDbScale
 70
     0
300
1:16
140
1.0
141
16.0
290
     0
  0
SCALE
  5
4F
102
{ACAD_REACTORS
330
47
102
}
330
47
100
AcDbScale
 70
     0
300
1:20
140
1.0
141
20.0
290
     0
  0
SCALE
  5
50
102
{ACAD_REACTORS
330
47
102
}
330
47
100
AcDbScale
 70
     0
300
1:30
140
1.0
141
30.0
290
     0
  0
SCALE
  5
51
102
{ACAD_REACTORS
330
47
102
}
330
47
100
AcDbScale
 70
     0
300
1:40
140
1.0
141
40.0
290
     0
  0
SCALE
  5
52
102
{ACAD_REACTORS
330
47
102
}
330
47
100
AcDbScale
 70
     0
300
1:50
140
1.0
141
50.0
290
     0
  0
SCALE
  5
53
102
{ACAD_REACTORS
330
47
102
}
330
47
100
AcDbScale
 70
     0
300
1:100
140
1.0
141
100.0
290
     0
  0
SCALE
  5
54
102
{ACAD_REACTORS
330
47
102
}
330
47
100
AcDbScale
 70
     0
300
2:1
140
2.0
141
1.0
290
     0
  0
SCALE
  5
55
102
{ACAD_REACTORS
330
47
102
}
330
47
100
AcDbScale
 70
     0
300
4:1
140
4.0
141
1.0
290
     0
  0
SCALE
  5
56
102
{ACAD_REACTORS
330
47
102
}
330
47
100
AcDbScale
 70
     0
300
8:1
140
8.0
141
1.0
290
     0
  0
SCALE
  5
57
102
{ACAD_REACTORS
330
47
102
}
330
47
100
AcDbScale
 70
     0
300
10:1
140
10.0
141
1.0
290
     0
  0
SCALE
  5
58
102
{ACAD_REACTORS
330
47
102
}
330
47
100
AcDbScale
 70
     0
300
100:1
140
100.0
141
1.0
290
     0
  0
ACDBSECTIONVIEWSTYLE
  5
24D
102
{ACAD_XDICTIONARY
360
757
102
}
102
{ACAD_REACTORS
330
24C
102
}
330
24C
100
AcDbModelDocViewStyle
 70
     0
  3
Metric50
290
     0
100
AcDbSectionViewStyle
 70
     0
 71
     0
 90
      102
 71
     1
340
11
 40
5.0
340
0
340
0
 40
5.0
300
I, O, Q, S, X, Z
 40
10.0
 90
        0
 40
2.5
 90
        0
 71
     2
340
16
 90
       25
340
16
 90
       50
 40
5.0
 40
2.5
 40
5.0
 71
     3
340
11
 40
5.0
 90
        0
 40
15.0
 90
        1
300
%<\AcVar ViewSectionStartId>%-%<\AcVar ViewSectionEndId>% (%<\AcVar ViewScale \f "%sn">%)
 71
     4
300
ANSI31
 40
1.0
 90
        0
290
     0
290
     0
 90
        6
 40
0.0
 40
1.570796326794896
 40
0.2617993877991494
 40
1.308996938995747
 40
-0.2617993877991494
 40
1.832595714594045
  0
TABLESTYLE
  5
5A
102
{ACAD_XDICTIONARY
360
68E
102
}
102
{ACAD_REACTORS
330
59
102
}
330
59
100
AcDbTableStyle
  3
Standard
 70
     0
 71
     0
 40
1.5
 41
1.5
280
     0
281
     0
  7
Standard
140
4.5
170
     2
 62
     0
 63
     7
283
     0
274
    -2
284
     1
 64
     0
275
    -2
285
     1
 65
     0
276
    -2
286
     1
 66
     0
277
    -2
287
     1
 67
     0
278
    -2
288
     1
 68
     0
279
    -2
289
     1
 69
     0
  7
Standard
140
6.0
170
     5
 62
     0
 63
     7
283
     0
274
    -2
284
     1
 64
     0
275
    -2
285
     1
 65
     0
276
    -2
286
     1
 66
     0
277
    -2
287
     1
 67
     0
278
    -2
288
     1
 68
     0
279
    -2
289
     1
 69
     0
  7
Standard
140
4.5
170
     5
 62
     0
 63
     7
283
     0
274
    -2
284
     1
 64
     0
275
    -2
285
     1
 65
     0
276
    -2
286
     1
 66
     0
277
    -2
287
     1
 67
     0
278
    -2
288
     1
 68
     0
279
    -2
289
     1
 69
     0
  0
VISUALSTYLE
  5
2F
102
{ACAD_XDICTIONARY
360
72E
102
}
102
{ACAD_REACTORS
330
2A
102
}
330
2A
100
AcDbVisualStyle
  2

 70
     4
 71
     0
 72
     2
 73
     0
 90
        0
 40
-0.6
 41
-30.0
 62
     5
 63
     7
 74
     1
 91
        4
 64
     7
 65
   257
 75
     1
175
     1
 42
1.0
 92
        0
 66
   257
 43
1.0
 76
     1
 77
     6
 78
     2
 67
     7
 79
     5
170
     0
171
     0
290
     0
174
     0
 93
        1
 44
0.0
173
     0
291
     0
 45
0.0
1001
ACAD
1000
AcDbSavedByObjectVersion
1070
     0
  0
VISUALSTYLE
  5
32
102
{ACAD_XDICTIONARY
360
734
102
}
102
{ACAD_REACTORS
330
2A
102
}
330
2A
100
AcDbVisualStyle
  2

 70
     7
 71
     1
 72
     0
 73
     1
 90
        0
 40
-0.6
 41
-30.0
 62
     5
 63
     7
 74
     0
 91
        4
 64
     7
 65
   257
 75
     1
175
     1
 42
1.0
 92
        8
 66
     7
 43
1.0
 76
     1
 77
     6
 78
     2
 67
     7
 79
     5
170
     0
171
     0
290
     0
174
     0
 93
        1
 44
0.0
173
     0
291
     1
 45
0.0
1001
ACAD
1000
AcDbSavedByObjectVersion
1070
     0
  0
VISUALSTYLE
  5
36
102
{ACAD_XDICTIONARY
360
73C
102
}
102
{ACAD_REACTORS
330
2A
102
}
330
2A
100
AcDbVisualStyle
  2

 70
    12
 71
     2
 72
     2
 73
     0
 90
        0
 40
-0.6
 41
-30.0
 62
     5
 63
     7
 74
     1
 91
        4
 64
     7
 65
   257
 75
     1
175
     1
 42
1.0
 92
        8
 66
     7
 43
1.0
 76
     1
 77
     6
 78
     2
 67
     7
 79
     5
170
     0
171
     0
290
     0
174
     0
 93
        1
 44
50.0
173
     0
291
     1
 45
0.0
1001
ACAD
1000
AcDbSavedByObjectVersion
1070
     0
  0
VISUALSTYLE
  5
3A
102
{ACAD_XDICTIONARY
360
744
102
}
102
{ACAD_REACTORS
330
2A
102
}
330
2A
100
AcDbVisualStyle
  2

 70
    16
 71
     2
 72
     2
 73
     3
 90
        0
 40
-0.6
 41
-30.0
 62
     5
 63
     8
 74
     1
 91
        4
 64
     7
 65
   257
 75
     1
175
     1
 42
1.0
 92
        8
 66
     8
 43
1.0
 76
     1
 77
     6
 78
     2
 67
     7
 79
     5
170
     0
171
     0
290
     0
174
     0
 93
        1
 44
0.0
173
     0
291
     1
 45
0.0
1001
ACAD
1000
AcDbSavedByObjectVersion
1070
     0
  0
VISUALSTYLE
  5
34
102
{ACAD_XDICTIONARY
360
738
102
}
102
{ACAD_REACTORS
330
2A
102
}
330
2A
100
AcDbVisualStyle
  2

 70
     9
 71
     3
 72
     2
 73
     0
 90
        0
 40
-0.6
 41
-30.0
 62
     5
 63
     7
 74
     2
 91
        2
 64
     7
 65
   257
 75
     1
175
     1
 42
179.0
 92
        8
 66
     7
 43
1.0
 76
     1
 77
     6
 78
     2
 67
     7
 79
     3
170
     0
171
     0
290
     0
174
     0
 93
        1
 44
0.0
173
     0
291
     0
 45
0.0
1001
ACAD
1000
AcDbSavedByObjectVersion
1070
     0
  0
VISUALSTYLE
  5
35
102
{ACAD_XDICTIONARY
360
73A
102
}
102
{ACAD_REACTORS
330
2A
102
}
330
2A
100
AcDbVisualStyle
  2

 70
    11
 71
     2
 72
     2
 73
     0
 90
        0
 40
-0.6
 41
-30.0
 62
     5
 63
     7
 74
     1
 91
        4
 64
     7
 65
   257
 75
     1
175
     1
 42
1.0
 92
        8
 66
     7
 43
1.0
 76
     1
 77
     6
 78
     2
 67
     7
 79
     5
170
     0
171
     0
290
     0
174
     0
 93
        1
 44
-50.0
173
     0
291
     1
 45
0.0
1001
ACAD
1000
AcDbSavedByObjectVersion
1070
     0
  0
VISUALSTYLE
  5
3D
102
{ACAD_XDICTIONARY
360
74A
102
}
102
{ACAD_REACTORS
330
2A
102
}
330
2A
100
AcDbVisualStyle
  2

 70
    22
 71
     2
 72
     2
 73
     0
 90
        0
 40
-0.6
 41
-30.0
 62
     5
 63
     7
 74
     1
 91
        4
 64
     7
 65
   257
 75
     1
175
     1
 42
1.0
 92
        8
 66
     7
 43
1.0
 76
     1
 77
     6
 78
     2
 67
     7
 79
     5
170
     0
171
     0
290
     0
174
     0
 93
        1
 44
0.0
173
     0
291
     1
 45
0.0
1001
ACAD
1000
AcDbSavedByObjectVersion
1070
     0
  0
VISUALSTYLE
  5
39
102
{ACAD_XDICTIONARY
360
742
102
}
102
{ACAD_REACTORS
330
2A
102
}
330
2A
100
AcDbVisualStyle
  2

 70
    15
 71
     2
 72
     2
 73
     0
 90
        0
 40
-0.6
 41
-30.0
 62
     5
 63
     7
 74
     1
 91
        4
 64
     7
 65
   257
 75
     1
175
     1
 42
1.0
 92
        8
 66
     7
 43
1.0
 76
     1
 77
     6
 78
     2
 67
     7
 79
     5
170
     0
171
     0
290
     0
174
     0
 93
        1
 44
0.0
173
     0
291
     1
 45
0.0
1001
ACAD
1000
AcDbSavedByObjectVersion
1070
     0
  0
VISUALSTYLE
  5
2B
102
{ACAD_XDICTIONARY
360
726
102
}
102
{ACAD_REACTORS
330
2A
102
}
330
2A
100
AcDbVisualStyle
  2

 70
     0
 71
     2
 72
     1
 73
     1
 90
        2
 40
-0.6
 41
30.0
 62
     5
 63
     7
 74
     0
 91
        0
 64
     7
 65
   257
 75
     1
175
     1
 42
1.0
 92
        8
 66
     7
 43
1.0
 76
     1
 77
     6
 78
     2
 67
     7
 79
     5
170
     0
171
     0
290
     0
174
     0
 93
       13
 44
0.0
173
     0
291
     1
 45
0.0
1001
ACAD
1000
AcDbSavedByObjectVersion
1070
     0
  0
VISUALSTYLE
  5
2C
102
{ACAD_XDICTIONARY
360
728
102
}
102
{ACAD_REACTORS
330
2A
102
}
330
2A
100
AcDbVisualStyle
  2

 70
     1
 71
     2
 72
     1
 73
     1
 90
        2
 40
-0.6
 41
30.0
 62
     5
 63
     7
 74
     1
 91
        0
 64
     7
 65
   257
 75
     1
175
     1
 42
1.0
 92
        0
 66
   257
 43
1.0
 76
     1
 77
     6
 78
     2
 67
     7
 79
     5
170
     0
171
     0
290
     0
174
     0
 93
       13
 44
0.0
173
     0
291
     1
 45
0.0
1001
ACAD
1000
AcDbSavedByObjectVersion
1070
     0
  0
VISUALSTYLE
  5
2D
102
{ACAD_XDICTIONARY
360
72A
102
}
102
{ACAD_REACTORS
330
2A
102
}
330
2A
100
AcDbVisualStyle
  2

 70
     2
 71
     2
 72
     2
 73
     1
 90
        2
 40
-0.6
 41
30.0
 62
     5
 63
     7
 74
     0
 91
        0
 64
     7
 65
   257
 75
     1
175
     1
 42
1.0
 92
        0
 66
     7
 43
1.0
 76
     1
 77
     6
 78
     2
 67
     7
 79
     5
170
     0
171
     0
290
     0
174
     0
 93
       13
 44
0.0
173
     0
291
     1
 45
0.0
1001
ACAD
1000
AcDbSavedByObjectVersion
1070
     0
  0
VISUALSTYLE
  5
2E
102
{ACAD_XDICTIONARY
360
72C
102
}
102
{ACAD_REACTORS
330
2A
102
}
330
2A
100
AcDbVisualStyle
  2

 70
     3
 71
     2
 72
     2
 73
     1
 90
        2
 40
-0.6
 41
30.0
 62
     5
 63
     7
 74
     1
 91
        0
 64
     7
 65
   257
 75
     1
175
     1
 42
1.0
 92
        0
 66
   257
 43
1.0
 76
     1
 77
     6
 78
     2
 67
     7
 79
     5
170
     0
171
     0
290
     0
174
     0
 93
       13
 44
0.0
173
     0
291
     1
 45
0.0
1001
ACAD
1000
AcDbSavedByObjectVersion
1070
     0
  0
VISUALSTYLE
  5
31
102
{ACAD_XDICTIONARY
360
732
102
}
102
{ACAD_REACTORS
330
2A
102
}
330
2A
100
AcDbVisualStyle
  2

 70
     6
 71
     1
 72
     2
 73
     2
 90
        0
 40
-0.6
 41
-30.0
 62
     5
 63
     7
 74
     2
 91
        2
 64
     7
 65
   257
 75
     2
175
     1
 42
40.0
 92
        0
 66
   257
 43
1.0
 76
     1
 77
     6
 78
     2
 67
     7
 79
     3
170
     0
171
     0
290
     0
174
     0
 93
        1
 44
0.0
173
     0
291
     0
 45
0.0
1001
ACAD
1000
AcDbSavedByObjectVersion
1070
     0
  0
VISUALSTYLE
  5
3B
102
{ACAD_XDICTIONARY
360
746
102
}
102
{ACAD_REACTORS
330
2A
102
}
330
2A
100
AcDbVisualStyle
  2

 70
    20
 71
     2
 72
     2
 73
     0
 90
        0
 40
-0.6
 41
-30.0
 62
     5
 63
     7
 74
     1
 91
        4
 64
     7
 65
   257
 75
     1
175
     1
 42
1.0
 92
       10
 66
     7
 43
1.0
 76
     1
 77
     6
 78
     2
 67
     7
 79
     5
170
     0
171
     0
290
     0
174
     0
 93
        1
 44
0.0
173
     0
291
     1
 45
0.0
1001
ACAD
1000
AcDbSavedByObjectVersion
1070
     0
  0
VISUALSTYLE
  5
38
102
{ACAD_XDICTIONARY
360
740
102
}
102
{ACAD_REACTORS
330
2A
102
}
330
2A
100
AcDbVisualStyle
  2

 70
    14
 71
     2
 72
     2
 73
     0
 90
        0
 40
-0.6
 41
-30.0
 62
     5
 63
     7
 74
     1
 91
        4
 64
     7
 65
   257
 75
     7
175
     7
 42
1.0
 92
        8
 66
     7
 43
1.0
 76
     1
 77
     6
 78
     2
 67
     7
 79
     5
170
     0
171
     0
290
     0
174
     0
 93
        1
 44
0.0
173
     0
291
     1
 45
0.0
1001
ACAD
1000
AcDbSavedByObjectVersion
1070
     0
  0
VISUALSTYLE
  5
3C
102
{ACAD_XDICTIONARY
360
748
102
}
102
{ACAD_REACTORS
330
2A
102
}
330
2A
100
AcDbVisualStyle
  2

 70
    21
 71
     2
 72
     2
 73
     0
 90
        0
 40
-0.6
 41
-30.0
 62
     5
 63
     7
 74
     1
 91
        4
 64
     7
 65
   257
 75
     1
175
     1
 42
1.0
 92
        9
 66
     7
 43
1.0
 76
     1
 77
     6
 78
     2
 67
     7
 79
     5
170
     0
171
     0
290
     0
174
     0
 93
        1
 44
0.0
173
     0
291
     1
 45
0.0
1001
ACAD
1000
AcDbSavedByObjectVersion
1070
     0
  0
VISUALSTYLE
  5
33
102
{ACAD_XDICTIONARY
360
736
102
}
102
{ACAD_REACTORS
330
2A
102
}
330
2A
100
AcDbVisualStyle
  2

 70
     8
 71
     2
 72
     3
 73
     0
 90
        2
 40
-0.6
 41
30.0
 62
     5
 63
     7
 74
     0
 91
        0
 64
     7
 65
   257
 75
     1
175
     1
 42
1.0
 92
        8
 66
   257
 43
1.0
 76
     1
 77
     6
 78
     2
 67
     7
 79
     3
170
     0
171
     0
290
     0
174
     0
 93
       13
 44
0.0
173
     0
291
     0
 45
0.0
1001
ACAD
1000
AcDbSavedByObjectVersion
1070
     0
  0
VISUALSTYLE
  5
42
102
{ACAD_XDICTIONARY
360
754
102
}
102
{ACAD_REACTORS
330
2A
102
}
330
2A
100
AcDbVisualStyle
  2

 70
    27
 71
     2
 72
     2
 73
     1
 90
        2
 40
-0.6
 41
30.0
 62
     5
 63
     7
 74
     0
 91
        4
 64
     7
 65
   257
 75
     1
175
     1
 42
1.0
 92
        8
 66
   257
 43
1.0
 76
     1
 77
     6
 78
     2
 67
     8
 79
     3
170
     0
171
     0
290
     0
174
     0
 93
        5
 44
0.0
173
     0
291
     0
 45
0.0
1001
ACAD
1000
AcDbSavedByObjectVersion
1070
     0
  0
VISUALSTYLE
  5
41
102
{ACAD_XDICTIONARY
360
752
102
}
102
{ACAD_REACTORS
330
2A
102
}
330
2A
100
AcDbVisualStyle
  2

 70
    26
 71
     2
 72
     2
 73
     1
 90
        2
 40
-0.6
 41
30.0
 62
     5
 63
     7
 74
     1
 91
       10
 64
     7
 65
   257
 75
     2
175
     1
 42
1.0
 92
        8
 66
   257
 43
1.0
 76
     1
 77
     6
 78
     2
 67
     7
 79
     3
170
     0
171
     0
290
     0
174
     0
 93
        5
 44
0.0
173
     0
291
     0
 45
0.0
1001
ACAD
1000
AcDbSavedByObjectVersion
1070
     0
  0
VISUALSTYLE
  5
3E
102
{ACAD_XDICTIONARY
360
74C
102
}
102
{ACAD_REACTORS
330
2A
102
}
330
2A
100
AcDbVisualStyle
  2

 70
    23
 71
     2
 72
     2
 73
     3
 90
        0
 40
-0.6
 41
-30.0
 62
     5
 63
     7
 74
     2
 91
        2
 64
     7
 65
     7
 75
     1
175
     1
 42
40.0
 92
        8
 66
     7
 43
1.0
 76
     1
 77
     6
 78
     2
 67
     7
 79
     3
170
     0
171
     0
290
     0
174
     0
 93
        1
 44
0.0
173
     0
291
     0
 45
0.0
1001
ACAD
1000
AcDbSavedByObjectVersion
1070
     0
  0
VISUALSTYLE
  5
3F
102
{ACAD_XDICTIONARY
360
74E
102
}
102
{ACAD_REACTORS
330
2A
102
}
330
2A
100
AcDbVisualStyle
  2

 70
    24
 71
     1
 72
     2
 73
     2
 90
        0
 40
-0.6
 41
-30.0
 62
     5
 63
     7
 74
     2
 91
        2
 64
     7
 65
     7
 75
     1
175
     1
 42
40.0
 92
       11
 66
     7
 43
1.0
 76
     1
 77
     6
 78
     2
 67
     7
 79
     6
170
     0
171
     0
290
     0
174
     0
 93
        1
 44
0.0
173
     0
291
     0
 45
0.0
1001
ACAD
1000
AcDbSavedByObjectVersion
1070
     0
  0
VISUALSTYLE
  5
37
102
{ACAD_XDICTIONARY
360
73E
102
}
102
{ACAD_REACTORS
330
2A
102
}
330
2A
100
AcDbVisualStyle
  2

 70
    13
 71
     2
 72
     2
 73
     0
 90
        0
 40
-0.6
 41
-30.0
 62
     5
 63
     7
 74
     1
 91
        4
 64
     7
 65
   257
 75
     1
175
     1
 42
1.0
 92
       12
 66
     7
 43
1.0
 76
     1
 77
     6
 78
     2
 67
     7
 79
     5
170
     0
171
     0
290
     0
174
     0
 93
        1
 44
0.0
173
     0
291
     1
 45
0.0
1001
ACAD
1000
AcDbSavedByObjectVersion
1070
     0
  0
VISUALSTYLE
  5
30
102
{ACAD_XDICTIONARY
360
730
102
}
102
{ACAD_REACTORS
330
2A
102
}
330
2A
100
AcDbVisualStyle
  2

 70
     5
 71
     0
 72
     2
 73
     0
 90
        0
 40
-0.6
 41
-30.0
 62
     5
 63
     7
 74
     1
 91
        4
 64
     7
 65
   257
 75
     1
175
     1
 42
1.0
 92
        0
 66
   257
 43
1.0
 76
     1
 77
     6
 78
     2
 67
     7
 79
     3
170
     0
171
     0
290
     0
174
     0
 93
        1
 44
0.0
173
     0
291
     0
 45
0.0
1001
ACAD
1000
AcDbSavedByObjectVersion
1070
     0
  0
VISUALSTYLE
  5
40
102
{ACAD_XDICTIONARY
360
750
102
}
102
{ACAD_REACTORS
330
2A
102
}
330
2A
100
AcDbVisualStyle
  2

 70
    25
 71
     2
 72
     2
 73
     1
 90
        1
 40
0.5
 41
-30.0
 62
     5
 63
     7
 74
     1
 91
        0
 64
     7
 65
   257
 75
     1
175
     1
 42
1.0
 92
        8
 66
     7
 43
1.0
 76
     1
 77
     6
 78
     2
 67
     7
 79
     3
170
     0
171
     0
290
     0
174
     0
 93
       13
 44
0.0
173
     0
291
     0
 45
0.0
1001
ACAD
1000
AcDbSavedByObjectVersion
1070
     0
  0
DICTIONARYVAR
  5
20E
102
{ACAD_REACTORS
330
200
102
}
330
200
100
DictionaryVariables
280
     0
  1
1:1
  0
DICTIONARYVAR
  5
207
102
{ACAD_REACTORS
330
200
102
}
330
200
100
DictionaryVariables
280
     0
  1
3.500000
  0
DICTIONARYVAR
  5
208
102
{ACAD_REACTORS
330
200
102
}
330
200
100
DictionaryVariables
280
     0
  1
acadiso.lin
  0
DICTIONARYVAR
  5
202
102
{ACAD_REACTORS
330
200
102
}
330
200
100
DictionaryVariables
280
     0
  1
STANDARD
  0
DICTIONARYVAR
  5
201
102
{ACAD_REACTORS
330
200
102
}
330
200
100
DictionaryVariables
280
     0
  1
STANDARD
  0
DICTIONARYVAR
  5
689
102
{ACAD_REACTORS
330
200
102
}
330
200
100
DictionaryVariables
280
     0
  1
Metric50
  0
DICTIONARYVAR
  5
68A
102
{ACAD_REACTORS
330
200
102
}
330
200
100
DictionaryVariables
280
     0
  1
Metric50
  0
DICTIONARYVAR
  5
209
102
{ACAD_REACTORS
330
200
102
}
330
200
100
DictionaryVariables
280
     0
  1
2
  0
DICTIONARYVAR
  5
20A
102
{ACAD_REACTORS
330
200
102
}
330
200
100
DictionaryVariables
280
     0
  1
1
  0
DICTIONARYVAR
  5
6DA
102
{ACAD_REACTORS
330
200
102
}
330
200
100
DictionaryVariables
280
     0
  1
0
  0
DICTIONARYVAR
  5
68C
102
{ACAD_REACTORS
330
200
102
}
330
200
100
DictionaryVariables
280
     0
  1
1
  0
DICTIONARYVAR
  5
68D
102
{ACAD_REACTORS
330
200
102
}
330
200
100
DictionaryVariables
280
     0
  1
15
  0
DICTIONARYVAR
  5
68B
102
{ACAD_REACTORS
330
200
102
}
330
200
100
DictionaryVariables
280
     0
  1
0
  0
DICTIONARYVAR
  5
6DD
102
{ACAD_REACTORS
330
200
102
}
330
200
100
DictionaryVariables
280
     0
  1
1.570796
  0
DICTIONARYVAR
  5
6DE
102
{ACAD_REACTORS
330
200
102
}
330
200
100
DictionaryVariables
280
     0
  1
1.570796
  0
DICTIONARYVAR
  5
6DF
102
{ACAD_REACTORS
330
200
102
}
330
200
100
DictionaryVariables
280
     0
  1
-122.394000
  0
DICTIONARYVAR
  5
20F
102
{ACAD_REACTORS
330
200
102
}
330
200
100
DictionaryVariables
280
     0
  1
1
  0
DICTIONARYVAR
  5
6DC
102
{ACAD_REACTORS
330
200
102
}
330
200
100
DictionaryVariables
280
     0
  1
80.000000
  0
DICTIONARYVAR
  5
6DB
102
{ACAD_REACTORS
330
200
102
}
330
200
100
DictionaryVariables
280
     0
  1
5.000000
  0
DICTIONARYVAR
  5
6D9
102
{ACAD_REACTORS
330
200
102
}
330
200
100
DictionaryVariables
280
     0
  1
127
  0
DICTIONARYVAR
  5
6E0
102
{ACAD_REACTORS
330
200
102
}
330
200
100
DictionaryVariables
280
     0
  1
2
  0
DICTIONARY
  5
759
330
24F
100
AcDbDictionary
280
     1
281
     1
  3
ACAD_XREC_ROUNDTRIP
360
75A
  0
DICTIONARY
  5
722
330
1E
100
AcDbDictionary
280
     1
281
     1
  3
ACAD_XREC_ROUNDTRIP
360
723
  0
DICTIONARY
  5
724
330
22
100
AcDbDictionary
280
     1
281
     1
  3
ACAD_XREC_ROUNDTRIP
360
725
  0
DICTIONARY
  5
75B
330
250
100
AcDbDictionary
280
     1
281
     1
  3
ACAD_XREC_ROUNDTRIP
360
75C
  0
DICTIONARY
  5
242
330
45
100
AcDbDictionary
280
     1
281
     1
  3
ACAD_XREC_ROUNDTRIP
360
243
  0
DICTIONARY
  5
240
330
44
100
AcDbDictionary
280
     1
281
     1
  3
ACAD_XREC_ROUNDTRIP
360
241
  0
DICTIONARY
  5
244
330
46
100
AcDbDictionary
280
     1
281
     1
  3
ACAD_XREC_ROUNDTRIP
360
245
  0
DICTIONARY
  5
757
330
24D
100
AcDbDictionary
280
     1
281
     1
  3
ACAD_XREC_ROUNDTRIP
360
758
  0
DICTIONARY
  5
68E
330
5A
100
AcDbDictionary
280
     1
281
     1
  3
ACAD_ROUNDTRIP_2008_TABLESTYLE_CELLSTYLEMAP
360
71F
  3
ACAD_XREC_ROUNDTRIP
360
756
  0
DICTIONARY
  5
72E
330
2F
100
AcDbDictionary
280
     1
281
     1
  3
ACAD_XREC_ROUNDTRIP
360
72F
  0
DICTIONARY
  5
734
330
32
100
AcDbDictionary
280
     1
281
     1
  3
ACAD_XREC_ROUNDTRIP
360
735
  0
DICTIONARY
  5
73C
330
36
100
AcDbDictionary
280
     1
281
     1
  3
ACAD_XREC_ROUNDTRIP
360
73D
  0
DICTIONARY
  5
744
330
3A
100
AcDbDictionary
280
     1
281
     1
  3
ACAD_XREC_ROUNDTRIP
360
745
  0
DICTIONARY
  5
738
330
34
100
AcDbDictionary
280
     1
281
     1
  3
ACAD_XREC_ROUNDTRIP
360
739
  0
DICTIONARY
  5
73A
330
35
100
AcDbDictionary
280
     1
281
     1
  3
ACAD_XREC_ROUNDTRIP
360
73B
  0
DICTIONARY
  5
74A
330
3D
100
AcDbDictionary
280
     1
281
     1
  3
ACAD_XREC_ROUNDTRIP
360
74B
  0
DICTIONARY
  5
742
330
39
100
AcDbDictionary
280
     1
281
     1
  3
ACAD_XREC_ROUNDTRIP
360
743
  0
DICTIONARY
  5
726
330
2B
100
AcDbDictionary
280
     1
281
     1
  3
ACAD_XREC_ROUNDTRIP
360
727
  0
DICTIONARY
  5
728
330
2C
100
AcDbDictionary
280
     1
281
     1
  3
ACAD_XREC_ROUNDTRIP
360
729
  0
DICTIONARY
  5
72A
330
2D
100
AcDbDictionary
280
     1
281
     1
  3
ACAD_XREC_ROUNDTRIP
360
72B
  0
DICTIONARY
  5
72C
330
2E
100
AcDbDictionary
280
     1
281
     1
  3
ACAD_XREC_ROUNDTRIP
360
72D
  0
DICTIONARY
  5
732
330
31
100
AcDbDictionary
280
     1
281
     1
  3
ACAD_XREC_ROUNDTRIP
360
733
  0
DICTIONARY
  5
746
330
3B
100
AcDbDictionary
280
     1
281
     1
  3
ACAD_XREC_ROUNDTRIP
360
747
  0
DICTIONARY
  5
740
330
38
100
AcDbDictionary
280
     1
281
     1
  3
ACAD_XREC_ROUNDTRIP
360
741
  0
DICTIONARY
  5
748
330
3C
100
AcDbDictionary
280
     1
281
     1
  3
ACAD_XREC_ROUNDTRIP
360
749
  0
DICTIONARY
  5
736
330
33
100
AcDbDictionary
280
     1
281
     1
  3
ACAD_XREC_ROUNDTRIP
360
737
  0
DICTIONARY
  5
754
330
42
100
AcDbDictionary
280
     1
281
     1
  3
ACAD_XREC_ROUNDTRIP
360
755
  0
DICTIONARY
  5
752
330
41
100
AcDbDictionary
280
     1
281
     1
  3
ACAD_XREC_ROUNDTRIP
360
753
  0
DICTIONARY
  5
74C
330
3E
100
AcDbDictionary
280
     1
281
     1
  3
ACAD_XREC_ROUNDTRIP
360
74D
  0
DICTIONARY
  5
74E
330
3F
100
AcDbDictionary
280
     1
281
     1
  3
ACAD_XREC_ROUNDTRIP
360
74F
  0
DICTIONARY
  5
73E
330
37
100
AcDbDictionary
280
     1
281
     1
  3
ACAD_XREC_ROUNDTRIP
360
73F
  0
DICTIONARY
  5
730
330
30
100
AcDbDictionary
280
     1
281
     1
  3
ACAD_XREC_ROUNDTRIP
360
731
  0
DICTIONARY
  5
750
330
40
100
AcDbDictionary
280
     1
281
     1
  3
ACAD_XREC_ROUNDTRIP
360
751
  0
XRECORD
  5
75A
102
{ACAD_REACTORS
330
759
102
}
330
759
100
AcDbXrecord
280
     1
102
DISPLAYNAME
  1
Metric50
102
FLAGS
 90
        0
  0
XRECORD
  5
723
102
{ACAD_REACTORS
330
722
102
}
330
722
100
AcDbXrecord
280
     1
102
SHADEPLOT
 70
     0
102
SHADEPLOTRESLEVEL
 70
     2
102
SHADEPLOTCUSTOMDPI
 70
   300
  0
XRECORD
  5
725
102
{ACAD_REACTORS
330
724
102
}
330
724
100
AcDbXrecord
280
     1
102
SHADEPLOT
 70
     0
102
SHADEPLOTRESLEVEL
 70
     2
102
SHADEPLOTCUSTOMDPI
 70
   300
  0
XRECORD
  5
75C
102
{ACAD_REACTORS
330
75B
102
}
330
75B
100
AcDbXrecord
280
     1
102
SHADEPLOT
 70
     0
102
SHADEPLOTRESLEVEL
 70
     2
102
SHADEPLOTCUSTOMDPI
 70
   300
  0
XRECORD
  5
243
102
{ACAD_REACTORS
330
242
102
}
330
242
100
AcDbXrecord
280
     1
102
MATERIAL
148
0.0
149
0.0
149
0.0
 93
        0
 94
      127
282
     0
 72
     1
 77
     1
171
     1
175
     1
179
     1
273
     0
  0
XRECORD
  5
241
102
{ACAD_REACTORS
330
240
102
}
330
240
100
AcDbXrecord
280
     1
102
MATERIAL
148
0.0
149
0.0
149
0.0
 93
        0
 94
      127
282
     0
 72
     1
 77
     1
171
     1
175
     1
179
     1
273
     0
  0
XRECORD
  5
245
102
{ACAD_REACTORS
330
244
102
}
330
244
100
AcDbXrecord
280
     1
102
MATERIAL
148
0.0
149
0.0
149
0.0
 93
        0
 94
      127
282
     0
 72
     1
 77
     1
171
     1
175
     1
179
     1
273
     0
  0
XRECORD
  5
758
102
{ACAD_REACTORS
330
757
102
}
330
757
100
AcDbXrecord
280
     1
102
DISPLAYNAME
  1
Metric50
102
FLAGS
 90
        0
  0
CELLSTYLEMAP
  5
71F
102
{ACAD_REACTORS
330
68E
102
}
330
68E
100
AcDbCellStyleMap
 90
        3
300
CELLSTYLE
  1
TABLEFORMAT_BEGIN
 90
        5
170
     1
 91
        0
 92
    32768
 62
   257
 93
        1
300
CONTENTFORMAT
  1
CONTENTFORMAT_BEGIN
 90
        0
 91
        0
 92
        4
 93
        0
300

 40
0.0
140
1.0
 94
        5
 62
     0
340
11
144
6.0
309
CONTENTFORMAT_END
171
     1
301
MARGIN
  1
CELLMARGIN_BEGIN
 40
1.5
 40
1.5
 40
1.5
 40
1.5
 40
0.18
 40
0.18
309
CELLMARGIN_END
 94
        6
 95
        1
302
GRIDFORMAT
  1
GRIDFORMAT_BEGIN
 90
        0
 91
        1
 62
     0
 92
       -2
340
0
 93
        0
 40
0.045
309
GRIDFORMAT_END
 95
        2
302
GRIDFORMAT
  1
GRIDFORMAT_BEGIN
 90
        0
 91
        1
 62
     0
 92
       -2
340
0
 93
        0
 40
0.045
309
GRIDFORMAT_END
 95
        4
302
GRIDFORMAT
  1
GRIDFORMAT_BEGIN
 90
        0
 91
        1
 62
     0
 92
       -2
340
0
 93
        0
 40
0.045
309
GRIDFORMAT_END
 95
        8
302
GRIDFORMAT
  1
GRIDFORMAT_BEGIN
 90
        0
 91
        1
 62
     0
 92
       -2
340
0
 93
        0
 40
0.045
309
GRIDFORMAT_END
 95
       16
302
GRIDFORMAT
  1
GRIDFORMAT_BEGIN
 90
        0
 91
        1
 62
     0
 92
       -2
340
0
 93
        0
 40
0.045
309
GRIDFORMAT_END
 95
       32
302
GRIDFORMAT
  1
GRIDFORMAT_BEGIN
 90
        0
 91
        1
 62
     0
 92
       -2
340
0
 93
        0
 40
0.045
309
GRIDFORMAT_END
309
TABLEFORMAT_END
  1
CELLSTYLE_BEGIN
 90
        1
 91
        1
300
_TITLE
309
CELLSTYLE_END
300
CELLSTYLE
  1
TABLEFORMAT_BEGIN
 90
        5
170
     1
 91
        0
 92
        0
 62
   257
 93
        1
300
CONTENTFORMAT
  1
CONTENTFORMAT_BEGIN
 90
        0
 91
        0
 92
        4
 93
        0
300

 40
0.0
140
1.0
 94
        5
 62
     0
340
11
144
4.5
309
CONTENTFORMAT_END
171
     1
301
MARGIN
  1
CELLMARGIN_BEGIN
 40
1.5
 40
1.5
 40
1.5
 40
1.5
 40
0.18
 40
0.18
309
CELLMARGIN_END
 94
        6
 95
        1
302
GRIDFORMAT
  1
GRIDFORMAT_BEGIN
 90
        0
 91
        1
 62
     0
 92
       -2
340
0
 93
        0
 40
0.045
309
GRIDFORMAT_END
 95
        2
302
GRIDFORMAT
  1
GRIDFORMAT_BEGIN
 90
        0
 91
        1
 62
     0
 92
       -2
340
0
 93
        0
 40
0.045
309
GRIDFORMAT_END
 95
        4
302
GRIDFORMAT
  1
GRIDFORMAT_BEGIN
 90
        0
 91
        1
 62
     0
 92
       -2
340
0
 93
        0
 40
0.045
309
GRIDFORMAT_END
 95
        8
302
GRIDFORMAT
  1
GRIDFORMAT_BEGIN
 90
        0
 91
        1
 62
     0
 92
       -2
340
0
 93
        0
 40
0.045
309
GRIDFORMAT_END
 95
       16
302
GRIDFORMAT
  1
GRIDFORMAT_BEGIN
 90
        0
 91
        1
 62
     0
 92
       -2
340
0
 93
        0
 40
0.045
309
GRIDFORMAT_END
 95
       32
302
GRIDFORMAT
  1
GRIDFORMAT_BEGIN
 90
        0
 91
        1
 62
     0
 92
       -2
340
0
 93
        0
 40
0.045
309
GRIDFORMAT_END
309
TABLEFORMAT_END
  1
CELLSTYLE_BEGIN
 90
        2
 91
        1
300
_HEADER
309
CELLSTYLE_END
300
CELLSTYLE
  1
TABLEFORMAT_BEGIN
 90
        5
170
     1
 91
        0
 92
        0
 62
   257
 93
        1
300
CONTENTFORMAT
  1
CONTENTFORMAT_BEGIN
 90
        0
 91
        0
 92
        4
 93
        0
300

 40
0.0
140
1.0
 94
        2
 62
     0
340
11
144
4.5
309
CONTENTFORMAT_END
171
     1
301
MARGIN
  1
CELLMARGIN_BEGIN
 40
1.5
 40
1.5
 40
1.5
 40
1.5
 40
0.18
 40
0.18
309
CELLMARGIN_END
 94
        6
 95
        1
302
GRIDFORMAT
  1
GRIDFORMAT_BEGIN
 90
        0
 91
        1
 62
     0
 92
       -2
340
0
 93
        0
 40
0.045
309
GRIDFORMAT_END
 95
        2
302
GRIDFORMAT
  1
GRIDFORMAT_BEGIN
 90
        0
 91
        1
 62
     0
 92
       -2
340
0
 93
        0
 40
0.045
309
GRIDFORMAT_END
 95
        4
302
GRIDFORMAT
  1
GRIDFORMAT_BEGIN
 90
        0
 91
        1
 62
     0
 92
       -2
340
0
 93
        0
 40
0.045
309
GRIDFORMAT_END
 95
        8
302
GRIDFORMAT
  1
GRIDFORMAT_BEGIN
 90
        0
 91
        1
 62
     0
 92
       -2
340
0
 93
        0
 40
0.045
309
GRIDFORMAT_END
 95
       16
302
GRIDFORMAT
  1
GRIDFORMAT_BEGIN
 90
        0
 91
        1
 62
     0
 92
       -2
340
0
 93
        0
 40
0.045
309
GRIDFORMAT_END
 95
       32
302
GRIDFORMAT
  1
GRIDFORMAT_BEGIN
 90
        0
 91
        1
 62
     0
 92
       -2
340
0
 93
        0
 40
0.045
309
GRIDFORMAT_END
309
TABLEFORMAT_END
  1
CELLSTYLE_BEGIN
 90
        3
 91
        2
300
_DATA
309
CELLSTYLE_END
  0
XRECORD
  5
756
102
{ACAD_REACTORS
330
68E
102
}
330
68E
100
AcDbXrecord
280
     1
102
ACAD_ROUNDTRIP_PRE2007_TABLESTYLE
 90
        4
 91
        0
  1

 92
        4
 93
        0
  2

 94
        4
 95
        0
  3

  0
XRECORD
  5
72F
102
{ACAD_REACTORS
330
72E
102
}
330
72E
100
AcDbXrecord
280
     1
102
RTVSPost2010Prop28
280
     1
102
RTVSPost2010PropOp28
 70
     1
102
RTVSPost2010Prop29
280
     1
102
RTVSPost2010PropOp29
 70
     1
102
RTVSPost2010Prop30
280
     0
102
RTVSPost2010PropOp30
 70
     1
102
RTVSPost2010Prop31
280
     0
102
RTVSPost2010PropOp31
 70
     1
102
RTVSPost2010Prop32
280
     0
102
RTVSPost2010PropOp32
 70
     1
102
RTVSPost2010Prop33
280
     0
102
RTVSPost2010PropOp33
 70
     1
102
RTVSPost2010Prop34
280
     0
102
RTVSPost2010PropOp34
 70
     1
102
RTVSPost2010Prop35
280
     0
102
RTVSPost2010PropOp35
 70
     1
102
RTVSPost2010Prop36
280
     0
102
RTVSPost2010PropOp36
 70
     1
102
RTVSPost2010Prop37
 90
       50
102
RTVSPost2010PropOp37
 70
     1
102
RTVSPost2010Prop38
140
0.0
102
RTVSPost2010PropOp38
 70
     1
102
RTVSPost2010Prop39
140
1.0
102
RTVSPost2010PropOp39
 70
     1
102
RTVSPost2010Prop40
 90
        0
102
RTVSPost2010PropOp40
 70
     1
102
RTVSPost2010Prop41ColorIndex
 90
       18
102
RTVSPost2010Prop41ColorRGB
 90
        0
102
RTVSPost2010PropOp41
 70
     1
102
RTVSPost2010Prop42
 90
       50
102
RTVSPost2010PropOp42
 70
     1
102
RTVSPost2010Prop43
 90
        3
102
RTVSPost2010PropOp43
 70
     1
102
RTVSPost2010Prop44ColorIndex
 90
        5
102
RTVSPost2010Prop44ColorRGB
 90
      255
102
RTVSPost2010PropOp44
 70
     1
102
RTVSPost2010Prop45
280
     0
102
RTVSPost2010PropOp45
 70
     1
102
RTVSPost2010Prop46
 90
       50
102
RTVSPost2010PropOp46
 70
     1
102
RTVSPost2010Prop47
 90
       50
102
RTVSPost2010PropOp47
 70
     1
102
RTVSPost2010Prop48
 90
       50
102
RTVSPost2010PropOp48
 70
     1
102
RTVSPost2010Prop49
280
     0
102
RTVSPost2010PropOp49
 70
     1
102
RTVSPost2010Prop50
 90
       50
102
RTVSPost2010PropOp50
 70
     1
102
RTVSPost2010Prop51ColorIndex
 90
      256
102
RTVSPost2010Prop51ColorRGB
 90
-16777216
102
RTVSPost2010PropOp51
 70
     0
102
RTVSPost2010Prop52
140
1.0
102
RTVSPost2010PropOp52
 70
     0
102
RTVSPost2010Prop53
 90
        2
102
RTVSPost2010PropOp53
 70
     1
102
RTVSPost2010Prop54
  1
strokes_ogs.tif
102
RTVSPost2010PropOp54
 70
     1
102
RTVSPost2010Prop55
280
     0
102
RTVSPost2010PropOp55
 70
     1
102
RTVSPost2010Prop56
140
1.0
102
RTVSPost2010PropOp56
 70
     1
102
RTVSPost2010Prop57
140
1.0
102
RTVSPost2010PropOp57
 70
     1
102
RTVSPropertyOp0
 70
     1
102
RTVSPropertyOp1
 70
     1
102
RTVSPropertyOp2
 70
     1
102
RTVSPropertyOp3
 70
     1
102
RTVSPropertyOp4
 70
     1
102
RTVSPropertyOp5
 70
     1
102
RTVSPropertyOp6
 70
     1
102
RTVSPropertyOp7
 70
     1
102
RTVSPropertyOp8
 70
     1
102
RTVSPropertyOp9
 70
     1
102
RTVSPropertyOp10
 70
     1
102
RTVSPropertyOp11
 70
     1
102
RTVSPropertyOp12
 70
     1
102
RTVSPropertyOp13
 70
     1
102
RTVSPropertyOp14
 70
     1
102
RTVSPropertyOp15
 70
     1
102
RTVSPropertyOp16
 70
     1
102
RTVSPropertyOp17
 70
     1
102
RTVSPropertyOp18
 70
     1
102
RTVSPropertyOp19
 70
     1
102
RTVSPropertyOp20
 70
     1
102
RTVSPropertyOp21
 70
     1
102
RTVSPropertyOp22
 70
     1
102
RTVSPropertyOp23
 70
     1
102
RTVSPropertyOp24
 70
     1
102
RTVSPropertyOp25
 70
     1
102
RTVSPropertyOp26
 70
     1
102
RTVSPropertyOp27
 70
     1
102
RTVSPropertyOp28
 70
     1
102
RTVSPropertyOp29
 70
     1
102
RTVSPropertyOp30
 70
     1
102
RTVSPropertyOp31
 70
     1
102
RTVSPropertyOp32
 70
     1
102
RTVSPropertyOp33
 70
     1
102
RTVSPropertyOp34
 70
     1
102
RTVSPropertyOp35
 70
     1
102
RTVSPropertyOp36
 70
     1
102
RTVSPropertyOp37
 70
     1
102
RTVSPropertyOp38
 70
     1
102
RTVSPropertyOp39
 70
     1
102
RTVSPropertyOp40
 70
     1
102
RTVSPropertyOp41
 70
     1
102
RTVSPropertyOp42
 70
     1
102
RTVSPropertyOp43
 70
     1
102
RTVSPropertyOp44
 70
     1
102
RTVSPropertyOp45
 70
     1
102
RTVSPropertyOp46
 70
     1
102
RTVSPropertyOp47
 70
     1
102
RTVSPropertyOp48
 70
     1
102
RTVSPropertyOp49
 70
     1
102
RTVSPropertyOp50
 70
     1
102
RTVSPropertyOp51
 70
     0
102
RTVSPropertyOp52
 70
     0
102
RTVSPropertyOp53
 70
     1
102
RTVSPropertyOp54
 70
     1
102
RTVSPropertyOp55
 70
     1
102
RTVSPropertyOp56
 70
     1
102
RTVSPropertyOp57
 70
     1
102
RTVSPropertyOp58
 70
     1
102
RTVSPropertyOp59
 70
     1
102
RTVSPropertyOp60
 70
     1
102
RTVSPropertyOp61
 70
     1
102
RTVSPropertyOp62
 70
     1
  0
XRECORD
  5
735
102
{ACAD_REACTORS
330
734
102
}
330
734
100
AcDbXrecord
280
     1
102
RTVSPost2010Prop28
280
     0
102
RTVSPost2010PropOp28
 70
     1
102
RTVSPost2010Prop29
280
     1
102
RTVSPost2010PropOp29
 70
     1
102
RTVSPost2010Prop30
280
     1
102
RTVSPost2010PropOp30
 70
     1
102
RTVSPost2010Prop31
280
     0
102
RTVSPost2010PropOp31
 70
     1
102
RTVSPost2010Prop32
280
     0
102
RTVSPost2010PropOp32
 70
     1
102
RTVSPost2010Prop33
280
     0
102
RTVSPost2010PropOp33
 70
     1
102
RTVSPost2010Prop34
280
     0
102
RTVSPost2010PropOp34
 70
     1
102
RTVSPost2010Prop35
280
     0
102
RTVSPost2010PropOp35
 70
     1
102
RTVSPost2010Prop36
280
     0
102
RTVSPost2010PropOp36
 70
     1
102
RTVSPost2010Prop37
 90
       50
102
RTVSPost2010PropOp37
 70
     1
102
RTVSPost2010Prop38
140
0.0
102
RTVSPost2010PropOp38
 70
     1
102
RTVSPost2010Prop39
140
1.0
102
RTVSPost2010PropOp39
 70
     1
102
RTVSPost2010Prop40
 90
        0
102
RTVSPost2010PropOp40
 70
     1
102
RTVSPost2010Prop41ColorIndex
 90
       18
102
RTVSPost2010Prop41ColorRGB
 90
        0
102
RTVSPost2010PropOp41
 70
     1
102
RTVSPost2010Prop42
 90
       50
102
RTVSPost2010PropOp42
 70
     1
102
RTVSPost2010Prop43
 90
        3
102
RTVSPost2010PropOp43
 70
     1
102
RTVSPost2010Prop44ColorIndex
 90
        5
102
RTVSPost2010Prop44ColorRGB
 90
      255
102
RTVSPost2010PropOp44
 70
     1
102
RTVSPost2010Prop45
280
     0
102
RTVSPost2010PropOp45
 70
     1
102
RTVSPost2010Prop46
 90
       50
102
RTVSPost2010PropOp46
 70
     1
102
RTVSPost2010Prop47
 90
       50
102
RTVSPost2010PropOp47
 70
     1
102
RTVSPost2010Prop48
 90
       50
102
RTVSPost2010PropOp48
 70
     1
102
RTVSPost2010Prop49
280
     0
102
RTVSPost2010PropOp49
 70
     1
102
RTVSPost2010Prop50
 90
       50
102
RTVSPost2010PropOp50
 70
     1
102
RTVSPost2010Prop51ColorIndex
 90
      256
102
RTVSPost2010Prop51ColorRGB
 90
-16777216
102
RTVSPost2010PropOp51
 70
     0
102
RTVSPost2010Prop52
140
1.0
102
RTVSPost2010PropOp52
 70
     0
102
RTVSPost2010Prop53
 90
        2
102
RTVSPost2010PropOp53
 70
     1
102
RTVSPost2010Prop54
  1
strokes_ogs.tif
102
RTVSPost2010PropOp54
 70
     1
102
RTVSPost2010Prop55
280
     0
102
RTVSPost2010PropOp55
 70
     1
102
RTVSPost2010Prop56
140
1.0
102
RTVSPost2010PropOp56
 70
     1
102
RTVSPost2010Prop57
140
1.0
102
RTVSPost2010PropOp57
 70
     1
102
RTVSPropertyOp0
 70
     1
102
RTVSPropertyOp1
 70
     1
102
RTVSPropertyOp2
 70
     1
102
RTVSPropertyOp3
 70
     1
102
RTVSPropertyOp4
 70
     1
102
RTVSPropertyOp5
 70
     1
102
RTVSPropertyOp6
 70
     1
102
RTVSPropertyOp7
 70
     1
102
RTVSPropertyOp8
 70
     1
102
RTVSPropertyOp9
 70
     1
102
RTVSPropertyOp10
 70
     1
102
RTVSPropertyOp11
 70
     1
102
RTVSPropertyOp12
 70
     1
102
RTVSPropertyOp13
 70
     1
102
RTVSPropertyOp14
 70
     1
102
RTVSPropertyOp15
 70
     1
102
RTVSPropertyOp16
 70
     1
102
RTVSPropertyOp17
 70
     1
102
RTVSPropertyOp18
 70
     1
102
RTVSPropertyOp19
 70
     1
102
RTVSPropertyOp20
 70
     1
102
RTVSPropertyOp21
 70
     1
102
RTVSPropertyOp22
 70
     1
102
RTVSPropertyOp23
 70
     1
102
RTVSPropertyOp24
 70
     1
102
RTVSPropertyOp25
 70
     1
102
RTVSPropertyOp26
 70
     1
102
RTVSPropertyOp27
 70
     1
102
RTVSPropertyOp28
 70
     1
102
RTVSPropertyOp29
 70
     1
102
RTVSPropertyOp30
 70
     1
102
RTVSPropertyOp31
 70
     1
102
RTVSPropertyOp32
 70
     1
102
RTVSPropertyOp33
 70
     1
102
RTVSPropertyOp34
 70
     1
102
RTVSPropertyOp35
 70
     1
102
RTVSPropertyOp36
 70
     1
102
RTVSPropertyOp37
 70
     1
102
RTVSPropertyOp38
 70
     1
102
RTVSPropertyOp39
 70
     1
102
RTVSPropertyOp40
 70
     1
102
RTVSPropertyOp41
 70
     1
102
RTVSPropertyOp42
 70
     1
102
RTVSPropertyOp43
 70
     1
102
RTVSPropertyOp44
 70
     1
102
RTVSPropertyOp45
 70
     1
102
RTVSPropertyOp46
 70
     1
102
RTVSPropertyOp47
 70
     1
102
RTVSPropertyOp48
 70
     1
102
RTVSPropertyOp49
 70
     1
102
RTVSPropertyOp50
 70
     1
102
RTVSPropertyOp51
 70
     0
102
RTVSPropertyOp52
 70
     0
102
RTVSPropertyOp53
 70
     1
102
RTVSPropertyOp54
 70
     1
102
RTVSPropertyOp55
 70
     1
102
RTVSPropertyOp56
 70
     1
102
RTVSPropertyOp57
 70
     1
102
RTVSPropertyOp58
 70
     1
102
RTVSPropertyOp59
 70
     1
102
RTVSPropertyOp60
 70
     1
102
RTVSPropertyOp61
 70
     1
102
RTVSPropertyOp62
 70
     1
  0
XRECORD
  5
73D
102
{ACAD_REACTORS
330
73C
102
}
330
73C
100
AcDbXrecord
280
     1
102
RTVSPost2010Prop28
280
     0
102
RTVSPost2010PropOp28
 70
     1
102
RTVSPost2010Prop29
280
     1
102
RTVSPost2010PropOp29
 70
     1
102
RTVSPost2010Prop30
280
     1
102
RTVSPost2010PropOp30
 70
     1
102
RTVSPost2010Prop31
280
     0
102
RTVSPost2010PropOp31
 70
     1
102
RTVSPost2010Prop32
280
     0
102
RTVSPost2010PropOp32
 70
     1
102
RTVSPost2010Prop33
280
     0
102
RTVSPost2010PropOp33
 70
     1
102
RTVSPost2010Prop34
280
     0
102
RTVSPost2010PropOp34
 70
     1
102
RTVSPost2010Prop35
280
     0
102
RTVSPost2010PropOp35
 70
     1
102
RTVSPost2010Prop36
280
     0
102
RTVSPost2010PropOp36
 70
     1
102
RTVSPost2010Prop37
 90
       50
102
RTVSPost2010PropOp37
 70
     1
102
RTVSPost2010Prop38
140
0.0
102
RTVSPost2010PropOp38
 70
     1
102
RTVSPost2010Prop39
140
1.0
102
RTVSPost2010PropOp39
 70
     1
102
RTVSPost2010Prop40
 90
        0
102
RTVSPost2010PropOp40
 70
     1
102
RTVSPost2010Prop41ColorIndex
 90
       18
102
RTVSPost2010Prop41ColorRGB
 90
        0
102
RTVSPost2010PropOp41
 70
     1
102
RTVSPost2010Prop42
 90
       50
102
RTVSPost2010PropOp42
 70
     1
102
RTVSPost2010Prop43
 90
        3
102
RTVSPost2010PropOp43
 70
     1
102
RTVSPost2010Prop44ColorIndex
 90
        5
102
RTVSPost2010Prop44ColorRGB
 90
      255
102
RTVSPost2010PropOp44
 70
     1
102
RTVSPost2010Prop45
280
     0
102
RTVSPost2010PropOp45
 70
     1
102
RTVSPost2010Prop46
 90
       50
102
RTVSPost2010PropOp46
 70
     1
102
RTVSPost2010Prop47
 90
       50
102
RTVSPost2010PropOp47
 70
     1
102
RTVSPost2010Prop48
 90
       50
102
RTVSPost2010PropOp48
 70
     1
102
RTVSPost2010Prop49
280
     0
102
RTVSPost2010PropOp49
 70
     1
102
RTVSPost2010Prop50
 90
       50
102
RTVSPost2010PropOp50
 70
     1
102
RTVSPost2010Prop51ColorIndex
 90
      256
102
RTVSPost2010Prop51ColorRGB
 90
-16777216
102
RTVSPost2010PropOp51
 70
     0
102
RTVSPost2010Prop52
140
1.0
102
RTVSPost2010PropOp52
 70
     0
102
RTVSPost2010Prop53
 90
        2
102
RTVSPost2010PropOp53
 70
     1
102
RTVSPost2010Prop54
  1
strokes_ogs.tif
102
RTVSPost2010PropOp54
 70
     1
102
RTVSPost2010Prop55
280
     0
102
RTVSPost2010PropOp55
 70
     1
102
RTVSPost2010Prop56
140
1.0
102
RTVSPost2010PropOp56
 70
     1
102
RTVSPost2010Prop57
140
1.0
102
RTVSPost2010PropOp57
 70
     1
102
RTVSPropertyOp0
 70
     1
102
RTVSPropertyOp1
 70
     1
102
RTVSPropertyOp2
 70
     1
102
RTVSPropertyOp3
 70
     1
102
RTVSPropertyOp4
 70
     1
102
RTVSPropertyOp5
 70
     1
102
RTVSPropertyOp6
 70
     1
102
RTVSPropertyOp7
 70
     1
102
RTVSPropertyOp8
 70
     1
102
RTVSPropertyOp9
 70
     1
102
RTVSPropertyOp10
 70
     1
102
RTVSPropertyOp11
 70
     1
102
RTVSPropertyOp12
 70
     1
102
RTVSPropertyOp13
 70
     1
102
RTVSPropertyOp14
 70
     1
102
RTVSPropertyOp15
 70
     1
102
RTVSPropertyOp16
 70
     1
102
RTVSPropertyOp17
 70
     1
102
RTVSPropertyOp18
 70
     1
102
RTVSPropertyOp19
 70
     1
102
RTVSPropertyOp20
 70
     1
102
RTVSPropertyOp21
 70
     1
102
RTVSPropertyOp22
 70
     1
102
RTVSPropertyOp23
 70
     1
102
RTVSPropertyOp24
 70
     1
102
RTVSPropertyOp25
 70
     1
102
RTVSPropertyOp26
 70
     1
102
RTVSPropertyOp27
 70
     1
102
RTVSPropertyOp28
 70
     1
102
RTVSPropertyOp29
 70
     1
102
RTVSPropertyOp30
 70
     1
102
RTVSPropertyOp31
 70
     1
102
RTVSPropertyOp32
 70
     1
102
RTVSPropertyOp33
 70
     1
102
RTVSPropertyOp34
 70
     1
102
RTVSPropertyOp35
 70
     1
102
RTVSPropertyOp36
 70
     1
102
RTVSPropertyOp37
 70
     1
102
RTVSPropertyOp38
 70
     1
102
RTVSPropertyOp39
 70
     1
102
RTVSPropertyOp40
 70
     1
102
RTVSPropertyOp41
 70
     1
102
RTVSPropertyOp42
 70
     1
102
RTVSPropertyOp43
 70
     1
102
RTVSPropertyOp44
 70
     1
102
RTVSPropertyOp45
 70
     1
102
RTVSPropertyOp46
 70
     1
102
RTVSPropertyOp47
 70
     1
102
RTVSPropertyOp48
 70
     1
102
RTVSPropertyOp49
 70
     1
102
RTVSPropertyOp50
 70
     1
102
RTVSPropertyOp51
 70
     0
102
RTVSPropertyOp52
 70
     0
102
RTVSPropertyOp53
 70
     1
102
RTVSPropertyOp54
 70
     1
102
RTVSPropertyOp55
 70
     1
102
RTVSPropertyOp56
 70
     1
102
RTVSPropertyOp57
 70
     1
102
RTVSPropertyOp58
 70
     1
102
RTVSPropertyOp59
 70
     1
102
RTVSPropertyOp60
 70
     1
102
RTVSPropertyOp61
 70
     1
102
RTVSPropertyOp62
 70
     1
  0
XRECORD
  5
745
102
{ACAD_REACTORS
330
744
102
}
330
744
100
AcDbXrecord
280
     1
102
RTVSPost2010Prop28
280
     0
102
RTVSPost2010PropOp28
 70
     1
102
RTVSPost2010Prop29
280
     1
102
RTVSPost2010PropOp29
 70
     1
102
RTVSPost2010Prop30
280
     1
102
RTVSPost2010PropOp30
 70
     1
102
RTVSPost2010Prop31
280
     0
102
RTVSPost2010PropOp31
 70
     1
102
RTVSPost2010Prop32
280
     0
102
RTVSPost2010PropOp32
 70
     1
102
RTVSPost2010Prop33
280
     0
102
RTVSPost2010PropOp33
 70
     1
102
RTVSPost2010Prop34
280
     0
102
RTVSPost2010PropOp34
 70
     1
102
RTVSPost2010Prop35
280
     0
102
RTVSPost2010PropOp35
 70
     1
102
RTVSPost2010Prop36
280
     0
102
RTVSPost2010PropOp36
 70
     1
102
RTVSPost2010Prop37
 90
       50
102
RTVSPost2010PropOp37
 70
     1
102
RTVSPost2010Prop38
140
0.0
102
RTVSPost2010PropOp38
 70
     1
102
RTVSPost2010Prop39
140
1.0
102
RTVSPost2010PropOp39
 70
     1
102
RTVSPost2010Prop40
 90
        0
102
RTVSPost2010PropOp40
 70
     1
102
RTVSPost2010Prop41ColorIndex
 90
       18
102
RTVSPost2010Prop41ColorRGB
 90
        0
102
RTVSPost2010PropOp41
 70
     1
102
RTVSPost2010Prop42
 90
       50
102
RTVSPost2010PropOp42
 70
     1
102
RTVSPost2010Prop43
 90
        3
102
RTVSPost2010PropOp43
 70
     1
102
RTVSPost2010Prop44ColorIndex
 90
        5
102
RTVSPost2010Prop44ColorRGB
 90
      255
102
RTVSPost2010PropOp44
 70
     1
102
RTVSPost2010Prop45
280
     0
102
RTVSPost2010PropOp45
 70
     1
102
RTVSPost2010Prop46
 90
       50
102
RTVSPost2010PropOp46
 70
     1
102
RTVSPost2010Prop47
 90
       50
102
RTVSPost2010PropOp47
 70
     1
102
RTVSPost2010Prop48
 90
       50
102
RTVSPost2010PropOp48
 70
     1
102
RTVSPost2010Prop49
280
     0
102
RTVSPost2010PropOp49
 70
     1
102
RTVSPost2010Prop50
 90
       50
102
RTVSPost2010PropOp50
 70
     1
102
RTVSPost2010Prop51ColorIndex
 90
      256
102
RTVSPost2010Prop51ColorRGB
 90
-16777216
102
RTVSPost2010PropOp51
 70
     0
102
RTVSPost2010Prop52
140
1.0
102
RTVSPost2010PropOp52
 70
     0
102
RTVSPost2010Prop53
 90
        2
102
RTVSPost2010PropOp53
 70
     1
102
RTVSPost2010Prop54
  1
strokes_ogs.tif
102
RTVSPost2010PropOp54
 70
     1
102
RTVSPost2010Prop55
280
     0
102
RTVSPost2010PropOp55
 70
     1
102
RTVSPost2010Prop56
140
1.0
102
RTVSPost2010PropOp56
 70
     1
102
RTVSPost2010Prop57
140
1.0
102
RTVSPost2010PropOp57
 70
     1
102
RTVSPropertyOp0
 70
     1
102
RTVSPropertyOp1
 70
     1
102
RTVSPropertyOp2
 70
     1
102
RTVSPropertyOp3
 70
     1
102
RTVSPropertyOp4
 70
     1
102
RTVSPropertyOp5
 70
     1
102
RTVSPropertyOp6
 70
     1
102
RTVSPropertyOp7
 70
     1
102
RTVSPropertyOp8
 70
     1
102
RTVSPropertyOp9
 70
     1
102
RTVSPropertyOp10
 70
     1
102
RTVSPropertyOp11
 70
     1
102
RTVSPropertyOp12
 70
     1
102
RTVSPropertyOp13
 70
     1
102
RTVSPropertyOp14
 70
     1
102
RTVSPropertyOp15
 70
     1
102
RTVSPropertyOp16
 70
     1
102
RTVSPropertyOp17
 70
     1
102
RTVSPropertyOp18
 70
     1
102
RTVSPropertyOp19
 70
     1
102
RTVSPropertyOp20
 70
     1
102
RTVSPropertyOp21
 70
     1
102
RTVSPropertyOp22
 70
     1
102
RTVSPropertyOp23
 70
     1
102
RTVSPropertyOp24
 70
     1
102
RTVSPropertyOp25
 70
     1
102
RTVSPropertyOp26
 70
     1
102
RTVSPropertyOp27
 70
     1
102
RTVSPropertyOp28
 70
     1
102
RTVSPropertyOp29
 70
     1
102
RTVSPropertyOp30
 70
     1
102
RTVSPropertyOp31
 70
     1
102
RTVSPropertyOp32
 70
     1
102
RTVSPropertyOp33
 70
     1
102
RTVSPropertyOp34
 70
     1
102
RTVSPropertyOp35
 70
     1
102
RTVSPropertyOp36
 70
     1
102
RTVSPropertyOp37
 70
     1
102
RTVSPropertyOp38
 70
     1
102
RTVSPropertyOp39
 70
     1
102
RTVSPropertyOp40
 70
     1
102
RTVSPropertyOp41
 70
     1
102
RTVSPropertyOp42
 70
     1
102
RTVSPropertyOp43
 70
     1
102
RTVSPropertyOp44
 70
     1
102
RTVSPropertyOp45
 70
     1
102
RTVSPropertyOp46
 70
     1
102
RTVSPropertyOp47
 70
     1
102
RTVSPropertyOp48
 70
     1
102
RTVSPropertyOp49
 70
     1
102
RTVSPropertyOp50
 70
     1
102
RTVSPropertyOp51
 70
     0
102
RTVSPropertyOp52
 70
     0
102
RTVSPropertyOp53
 70
     1
102
RTVSPropertyOp54
 70
     1
102
RTVSPropertyOp55
 70
     1
102
RTVSPropertyOp56
 70
     1
102
RTVSPropertyOp57
 70
     1
102
RTVSPropertyOp58
 70
     1
102
RTVSPropertyOp59
 70
     1
102
RTVSPropertyOp60
 70
     1
102
RTVSPropertyOp61
 70
     1
102
RTVSPropertyOp62
 70
     1
  0
XRECORD
  5
739
102
{ACAD_REACTORS
330
738
102
}
330
738
100
AcDbXrecord
280
     1
102
RTVSPost2010Prop28
280
     0
102
RTVSPost2010PropOp28
 70
     1
102
RTVSPost2010Prop29
280
     1
102
RTVSPost2010PropOp29
 70
     1
102
RTVSPost2010Prop30
280
     1
102
RTVSPost2010PropOp30
 70
     1
102
RTVSPost2010Prop31
280
     0
102
RTVSPost2010PropOp31
 70
     1
102
RTVSPost2010Prop32
280
     0
102
RTVSPost2010PropOp32
 70
     1
102
RTVSPost2010Prop33
280
     0
102
RTVSPost2010PropOp33
 70
     1
102
RTVSPost2010Prop34
280
     0
102
RTVSPost2010PropOp34
 70
     1
102
RTVSPost2010Prop35
280
     0
102
RTVSPost2010PropOp35
 70
     1
102
RTVSPost2010Prop36
280
     0
102
RTVSPost2010PropOp36
 70
     1
102
RTVSPost2010Prop37
 90
       50
102
RTVSPost2010PropOp37
 70
     1
102
RTVSPost2010Prop38
140
0.0
102
RTVSPost2010PropOp38
 70
     1
102
RTVSPost2010Prop39
140
1.0
102
RTVSPost2010PropOp39
 70
     1
102
RTVSPost2010Prop40
 90
        0
102
RTVSPost2010PropOp40
 70
     1
102
RTVSPost2010Prop41ColorIndex
 90
       18
102
RTVSPost2010Prop41ColorRGB
 90
        0
102
RTVSPost2010PropOp41
 70
     1
102
RTVSPost2010Prop42
 90
       50
102
RTVSPost2010PropOp42
 70
     1
102
RTVSPost2010Prop43
 90
        3
102
RTVSPost2010PropOp43
 70
     1
102
RTVSPost2010Prop44ColorIndex
 90
        5
102
RTVSPost2010Prop44ColorRGB
 90
      255
102
RTVSPost2010PropOp44
 70
     1
102
RTVSPost2010Prop45
280
     0
102
RTVSPost2010PropOp45
 70
     1
102
RTVSPost2010Prop46
 90
       50
102
RTVSPost2010PropOp46
 70
     1
102
RTVSPost2010Prop47
 90
       50
102
RTVSPost2010PropOp47
 70
     1
102
RTVSPost2010Prop48
 90
       50
102
RTVSPost2010PropOp48
 70
     1
102
RTVSPost2010Prop49
280
     0
102
RTVSPost2010PropOp49
 70
     1
102
RTVSPost2010Prop50
 90
       50
102
RTVSPost2010PropOp50
 70
     1
102
RTVSPost2010Prop51ColorIndex
 90
      256
102
RTVSPost2010Prop51ColorRGB
 90
-16777216
102
RTVSPost2010PropOp51
 70
     0
102
RTVSPost2010Prop52
140
1.0
102
RTVSPost2010PropOp52
 70
     0
102
RTVSPost2010Prop53
 90
        2
102
RTVSPost2010PropOp53
 70
     1
102
RTVSPost2010Prop54
  1
strokes_ogs.tif
102
RTVSPost2010PropOp54
 70
     1
102
RTVSPost2010Prop55
280
     0
102
RTVSPost2010PropOp55
 70
     1
102
RTVSPost2010Prop56
140
1.0
102
RTVSPost2010PropOp56
 70
     1
102
RTVSPost2010Prop57
140
1.0
102
RTVSPost2010PropOp57
 70
     1
102
RTVSPropertyOp0
 70
     1
102
RTVSPropertyOp1
 70
     1
102
RTVSPropertyOp2
 70
     1
102
RTVSPropertyOp3
 70
     1
102
RTVSPropertyOp4
 70
     1
102
RTVSPropertyOp5
 70
     1
102
RTVSPropertyOp6
 70
     1
102
RTVSPropertyOp7
 70
     1
102
RTVSPropertyOp8
 70
     1
102
RTVSPropertyOp9
 70
     1
102
RTVSPropertyOp10
 70
     1
102
RTVSPropertyOp11
 70
     1
102
RTVSPropertyOp12
 70
     1
102
RTVSPropertyOp13
 70
     1
102
RTVSPropertyOp14
 70
     1
102
RTVSPropertyOp15
 70
     1
102
RTVSPropertyOp16
 70
     1
102
RTVSPropertyOp17
 70
     1
102
RTVSPropertyOp18
 70
     1
102
RTVSPropertyOp19
 70
     1
102
RTVSPropertyOp20
 70
     1
102
RTVSPropertyOp21
 70
     1
102
RTVSPropertyOp22
 70
     1
102
RTVSPropertyOp23
 70
     1
102
RTVSPropertyOp24
 70
     1
102
RTVSPropertyOp25
 70
     1
102
RTVSPropertyOp26
 70
     1
102
RTVSPropertyOp27
 70
     1
102
RTVSPropertyOp28
 70
     1
102
RTVSPropertyOp29
 70
     1
102
RTVSPropertyOp30
 70
     1
102
RTVSPropertyOp31
 70
     1
102
RTVSPropertyOp32
 70
     1
102
RTVSPropertyOp33
 70
     1
102
RTVSPropertyOp34
 70
     1
102
RTVSPropertyOp35
 70
     1
102
RTVSPropertyOp36
 70
     1
102
RTVSPropertyOp37
 70
     1
102
RTVSPropertyOp38
 70
     1
102
RTVSPropertyOp39
 70
     1
102
RTVSPropertyOp40
 70
     1
102
RTVSPropertyOp41
 70
     1
102
RTVSPropertyOp42
 70
     1
102
RTVSPropertyOp43
 70
     1
102
RTVSPropertyOp44
 70
     1
102
RTVSPropertyOp45
 70
     1
102
RTVSPropertyOp46
 70
     1
102
RTVSPropertyOp47
 70
     1
102
RTVSPropertyOp48
 70
     1
102
RTVSPropertyOp49
 70
     1
102
RTVSPropertyOp50
 70
     1
102
RTVSPropertyOp51
 70
     0
102
RTVSPropertyOp52
 70
     0
102
RTVSPropertyOp53
 70
     1
102
RTVSPropertyOp54
 70
     1
102
RTVSPropertyOp55
 70
     1
102
RTVSPropertyOp56
 70
     1
102
RTVSPropertyOp57
 70
     1
102
RTVSPropertyOp58
 70
     1
102
RTVSPropertyOp59
 70
     1
102
RTVSPropertyOp60
 70
     1
102
RTVSPropertyOp61
 70
     1
102
RTVSPropertyOp62
 70
     1
  0
XRECORD
  5
73B
102
{ACAD_REACTORS
330
73A
102
}
330
73A
100
AcDbXrecord
280
     1
102
RTVSPost2010Prop28
280
     0
102
RTVSPost2010PropOp28
 70
     1
102
RTVSPost2010Prop29
280
     1
102
RTVSPost2010PropOp29
 70
     1
102
RTVSPost2010Prop30
280
     1
102
RTVSPost2010PropOp30
 70
     1
102
RTVSPost2010Prop31
280
     0
102
RTVSPost2010PropOp31
 70
     1
102
RTVSPost2010Prop32
280
     0
102
RTVSPost2010PropOp32
 70
     1
102
RTVSPost2010Prop33
280
     0
102
RTVSPost2010PropOp33
 70
     1
102
RTVSPost2010Prop34
280
     0
102
RTVSPost2010PropOp34
 70
     1
102
RTVSPost2010Prop35
280
     0
102
RTVSPost2010PropOp35
 70
     1
102
RTVSPost2010Prop36
280
     0
102
RTVSPost2010PropOp36
 70
     1
102
RTVSPost2010Prop37
 90
       50
102
RTVSPost2010PropOp37
 70
     1
102
RTVSPost2010Prop38
140
0.0
102
RTVSPost2010PropOp38
 70
     1
102
RTVSPost2010Prop39
140
1.0
102
RTVSPost2010PropOp39
 70
     1
102
RTVSPost2010Prop40
 90
        0
102
RTVSPost2010PropOp40
 70
     1
102
RTVSPost2010Prop41ColorIndex
 90
       18
102
RTVSPost2010Prop41ColorRGB
 90
        0
102
RTVSPost2010PropOp41
 70
     1
102
RTVSPost2010Prop42
 90
       50
102
RTVSPost2010PropOp42
 70
     1
102
RTVSPost2010Prop43
 90
        3
102
RTVSPost2010PropOp43
 70
     1
102
RTVSPost2010Prop44ColorIndex
 90
        5
102
RTVSPost2010Prop44ColorRGB
 90
      255
102
RTVSPost2010PropOp44
 70
     1
102
RTVSPost2010Prop45
280
     0
102
RTVSPost2010PropOp45
 70
     1
102
RTVSPost2010Prop46
 90
       50
102
RTVSPost2010PropOp46
 70
     1
102
RTVSPost2010Prop47
 90
       50
102
RTVSPost2010PropOp47
 70
     1
102
RTVSPost2010Prop48
 90
       50
102
RTVSPost2010PropOp48
 70
     1
102
RTVSPost2010Prop49
280
     0
102
RTVSPost2010PropOp49
 70
     1
102
RTVSPost2010Prop50
 90
       50
102
RTVSPost2010PropOp50
 70
     1
102
RTVSPost2010Prop51ColorIndex
 90
      256
102
RTVSPost2010Prop51ColorRGB
 90
-16777216
102
RTVSPost2010PropOp51
 70
     0
102
RTVSPost2010Prop52
140
1.0
102
RTVSPost2010PropOp52
 70
     0
102
RTVSPost2010Prop53
 90
        2
102
RTVSPost2010PropOp53
 70
     1
102
RTVSPost2010Prop54
  1
strokes_ogs.tif
102
RTVSPost2010PropOp54
 70
     1
102
RTVSPost2010Prop55
280
     0
102
RTVSPost2010PropOp55
 70
     1
102
RTVSPost2010Prop56
140
1.0
102
RTVSPost2010PropOp56
 70
     1
102
RTVSPost2010Prop57
140
1.0
102
RTVSPost2010PropOp57
 70
     1
102
RTVSPropertyOp0
 70
     1
102
RTVSPropertyOp1
 70
     1
102
RTVSPropertyOp2
 70
     1
102
RTVSPropertyOp3
 70
     1
102
RTVSPropertyOp4
 70
     1
102
RTVSPropertyOp5
 70
     1
102
RTVSPropertyOp6
 70
     1
102
RTVSPropertyOp7
 70
     1
102
RTVSPropertyOp8
 70
     1
102
RTVSPropertyOp9
 70
     1
102
RTVSPropertyOp10
 70
     1
102
RTVSPropertyOp11
 70
     1
102
RTVSPropertyOp12
 70
     1
102
RTVSPropertyOp13
 70
     1
102
RTVSPropertyOp14
 70
     1
102
RTVSPropertyOp15
 70
     1
102
RTVSPropertyOp16
 70
     1
102
RTVSPropertyOp17
 70
     1
102
RTVSPropertyOp18
 70
     1
102
RTVSPropertyOp19
 70
     1
102
RTVSPropertyOp20
 70
     1
102
RTVSPropertyOp21
 70
     1
102
RTVSPropertyOp22
 70
     1
102
RTVSPropertyOp23
 70
     1
102
RTVSPropertyOp24
 70
     1
102
RTVSPropertyOp25
 70
     1
102
RTVSPropertyOp26
 70
     1
102
RTVSPropertyOp27
 70
     1
102
RTVSPropertyOp28
 70
     1
102
RTVSPropertyOp29
 70
     1
102
RTVSPropertyOp30
 70
     1
102
RTVSPropertyOp31
 70
     1
102
RTVSPropertyOp32
 70
     1
102
RTVSPropertyOp33
 70
     1
102
RTVSPropertyOp34
 70
     1
102
RTVSPropertyOp35
 70
     1
102
RTVSPropertyOp36
 70
     1
102
RTVSPropertyOp37
 70
     1
102
RTVSPropertyOp38
 70
     1
102
RTVSPropertyOp39
 70
     1
102
RTVSPropertyOp40
 70
     1
102
RTVSPropertyOp41
 70
     1
102
RTVSPropertyOp42
 70
     1
102
RTVSPropertyOp43
 70
     1
102
RTVSPropertyOp44
 70
     1
102
RTVSPropertyOp45
 70
     1
102
RTVSPropertyOp46
 70
     1
102
RTVSPropertyOp47
 70
     1
102
RTVSPropertyOp48
 70
     1
102
RTVSPropertyOp49
 70
     1
102
RTVSPropertyOp50
 70
     1
102
RTVSPropertyOp51
 70
     0
102
RTVSPropertyOp52
 70
     0
102
RTVSPropertyOp53
 70
     1
102
RTVSPropertyOp54
 70
     1
102
RTVSPropertyOp55
 70
     1
102
RTVSPropertyOp56
 70
     1
102
RTVSPropertyOp57
 70
     1
102
RTVSPropertyOp58
 70
     1
102
RTVSPropertyOp59
 70
     1
102
RTVSPropertyOp60
 70
     1
102
RTVSPropertyOp61
 70
     1
102
RTVSPropertyOp62
 70
     1
  0
XRECORD
  5
74B
102
{ACAD_REACTORS
330
74A
102
}
330
74A
100
AcDbXrecord
280
     1
102
RTVSPost2010Prop28
280
     0
102
RTVSPost2010PropOp28
 70
     0
102
RTVSPost2010Prop29
280
     1
102
RTVSPost2010PropOp29
 70
     0
102
RTVSPost2010Prop30
280
     1
102
RTVSPost2010PropOp30
 70
     0
102
RTVSPost2010Prop31
280
     0
102
RTVSPost2010PropOp31
 70
     0
102
RTVSPost2010Prop32
280
     0
102
RTVSPost2010PropOp32
 70
     0
102
RTVSPost2010Prop33
280
     0
102
RTVSPost2010PropOp33
 70
     0
102
RTVSPost2010Prop34
280
     0
102
RTVSPost2010PropOp34
 70
     0
102
RTVSPost2010Prop35
280
     0
102
RTVSPost2010PropOp35
 70
     0
102
RTVSPost2010Prop36
280
     0
102
RTVSPost2010PropOp36
 70
     0
102
RTVSPost2010Prop37
 90
       50
102
RTVSPost2010PropOp37
 70
     0
102
RTVSPost2010Prop38
140
0.0
102
RTVSPost2010PropOp38
 70
     0
102
RTVSPost2010Prop39
140
1.0
102
RTVSPost2010PropOp39
 70
     0
102
RTVSPost2010Prop40
 90
        0
102
RTVSPost2010PropOp40
 70
     0
102
RTVSPost2010Prop41ColorIndex
 90
       18
102
RTVSPost2010Prop41ColorRGB
 90
        0
102
RTVSPost2010PropOp41
 70
     0
102
RTVSPost2010Prop42
 90
       50
102
RTVSPost2010PropOp42
 70
     0
102
RTVSPost2010Prop43
 90
        3
102
RTVSPost2010PropOp43
 70
     0
102
RTVSPost2010Prop44ColorIndex
 90
        5
102
RTVSPost2010Prop44ColorRGB
 90
      255
102
RTVSPost2010PropOp44
 70
     0
102
RTVSPost2010Prop45
280
     0
102
RTVSPost2010PropOp45
 70
     0
102
RTVSPost2010Prop46
 90
       50
102
RTVSPost2010PropOp46
 70
     0
102
RTVSPost2010Prop47
 90
       50
102
RTVSPost2010PropOp47
 70
     0
102
RTVSPost2010Prop48
 90
       50
102
RTVSPost2010PropOp48
 70
     0
102
RTVSPost2010Prop49
280
     0
102
RTVSPost2010PropOp49
 70
     0
102
RTVSPost2010Prop50
 90
       50
102
RTVSPost2010PropOp50
 70
     0
102
RTVSPost2010Prop51ColorIndex
 90
      256
102
RTVSPost2010Prop51ColorRGB
 90
-16777216
102
RTVSPost2010PropOp51
 70
     0
102
RTVSPost2010Prop52
140
1.0
102
RTVSPost2010PropOp52
 70
     0
102
RTVSPost2010Prop53
 90
        2
102
RTVSPost2010PropOp53
 70
     0
102
RTVSPost2010Prop54
  1
strokes_ogs.tif
102
RTVSPost2010PropOp54
 70
     0
102
RTVSPost2010Prop55
280
     0
102
RTVSPost2010PropOp55
 70
     0
102
RTVSPost2010Prop56
140
1.0
102
RTVSPost2010PropOp56
 70
     0
102
RTVSPost2010Prop57
140
1.0
102
RTVSPost2010PropOp57
 70
     0
102
RTVSPropertyOp0
 70
     0
102
RTVSPropertyOp1
 70
     0
102
RTVSPropertyOp2
 70
     0
102
RTVSPropertyOp3
 70
     0
102
RTVSPropertyOp4
 70
     0
102
RTVSPropertyOp5
 70
     0
102
RTVSPropertyOp6
 70
     0
102
RTVSPropertyOp7
 70
     0
102
RTVSPropertyOp8
 70
     0
102
RTVSPropertyOp9
 70
     0
102
RTVSPropertyOp10
 70
     0
102
RTVSPropertyOp11
 70
     0
102
RTVSPropertyOp12
 70
     0
102
RTVSPropertyOp13
 70
     0
102
RTVSPropertyOp14
 70
     2
102
RTVSPropertyOp15
 70
     0
102
RTVSPropertyOp16
 70
     0
102
RTVSPropertyOp17
 70
     0
102
RTVSPropertyOp18
 70
     0
102
RTVSPropertyOp19
 70
     0
102
RTVSPropertyOp20
 70
     0
102
RTVSPropertyOp21
 70
     0
102
RTVSPropertyOp22
 70
     0
102
RTVSPropertyOp23
 70
     0
102
RTVSPropertyOp24
 70
     0
102
RTVSPropertyOp25
 70
     0
102
RTVSPropertyOp26
 70
     0
102
RTVSPropertyOp27
 70
     0
102
RTVSPropertyOp28
 70
     0
102
RTVSPropertyOp29
 70
     0
102
RTVSPropertyOp30
 70
     0
102
RTVSPropertyOp31
 70
     0
102
RTVSPropertyOp32
 70
     0
102
RTVSPropertyOp33
 70
     0
102
RTVSPropertyOp34
 70
     0
102
RTVSPropertyOp35
 70
     0
102
RTVSPropertyOp36
 70
     0
102
RTVSPropertyOp37
 70
     0
102
RTVSPropertyOp38
 70
     0
102
RTVSPropertyOp39
 70
     0
102
RTVSPropertyOp40
 70
     0
102
RTVSPropertyOp41
 70
     0
102
RTVSPropertyOp42
 70
     0
102
RTVSPropertyOp43
 70
     0
102
RTVSPropertyOp44
 70
     0
102
RTVSPropertyOp45
 70
     0
102
RTVSPropertyOp46
 70
     0
102
RTVSPropertyOp47
 70
     0
102
RTVSPropertyOp48
 70
     0
102
RTVSPropertyOp49
 70
     0
102
RTVSPropertyOp50
 70
     0
102
RTVSPropertyOp51
 70
     0
102
RTVSPropertyOp52
 70
     0
102
RTVSPropertyOp53
 70
     0
102
RTVSPropertyOp54
 70
     0
102
RTVSPropertyOp55
 70
     0
102
RTVSPropertyOp56
 70
     0
102
RTVSPropertyOp57
 70
     0
102
RTVSPropertyOp58
 70
     1
102
RTVSPropertyOp59
 70
     1
102
RTVSPropertyOp60
 70
     1
102
RTVSPropertyOp61
 70
     1
102
RTVSPropertyOp62
 70
     1
  0
XRECORD
  5
743
102
{ACAD_REACTORS
330
742
102
}
330
742
100
AcDbXrecord
280
     1
102
RTVSPost2010Prop28
280
     0
102
RTVSPost2010PropOp28
 70
     1
102
RTVSPost2010Prop29
280
     1
102
RTVSPost2010PropOp29
 70
     1
102
RTVSPost2010Prop30
280
     1
102
RTVSPost2010PropOp30
 70
     1
102
RTVSPost2010Prop31
280
     0
102
RTVSPost2010PropOp31
 70
     1
102
RTVSPost2010Prop32
280
     0
102
RTVSPost2010PropOp32
 70
     1
102
RTVSPost2010Prop33
280
     0
102
RTVSPost2010PropOp33
 70
     1
102
RTVSPost2010Prop34
280
     0
102
RTVSPost2010PropOp34
 70
     1
102
RTVSPost2010Prop35
280
     0
102
RTVSPost2010PropOp35
 70
     1
102
RTVSPost2010Prop36
280
     0
102
RTVSPost2010PropOp36
 70
     1
102
RTVSPost2010Prop37
 90
       50
102
RTVSPost2010PropOp37
 70
     1
102
RTVSPost2010Prop38
140
0.0
102
RTVSPost2010PropOp38
 70
     1
102
RTVSPost2010Prop39
140
1.0
102
RTVSPost2010PropOp39
 70
     1
102
RTVSPost2010Prop40
 90
        0
102
RTVSPost2010PropOp40
 70
     1
102
RTVSPost2010Prop41ColorIndex
 90
       18
102
RTVSPost2010Prop41ColorRGB
 90
        0
102
RTVSPost2010PropOp41
 70
     1
102
RTVSPost2010Prop42
 90
       50
102
RTVSPost2010PropOp42
 70
     1
102
RTVSPost2010Prop43
 90
        3
102
RTVSPost2010PropOp43
 70
     1
102
RTVSPost2010Prop44ColorIndex
 90
        5
102
RTVSPost2010Prop44ColorRGB
 90
      255
102
RTVSPost2010PropOp44
 70
     1
102
RTVSPost2010Prop45
280
     0
102
RTVSPost2010PropOp45
 70
     1
102
RTVSPost2010Prop46
 90
       50
102
RTVSPost2010PropOp46
 70
     1
102
RTVSPost2010Prop47
 90
       50
102
RTVSPost2010PropOp47
 70
     1
102
RTVSPost2010Prop48
 90
       50
102
RTVSPost2010PropOp48
 70
     1
102
RTVSPost2010Prop49
280
     0
102
RTVSPost2010PropOp49
 70
     1
102
RTVSPost2010Prop50
 90
       50
102
RTVSPost2010PropOp50
 70
     1
102
RTVSPost2010Prop51ColorIndex
 90
      256
102
RTVSPost2010Prop51ColorRGB
 90
-16777216
102
RTVSPost2010PropOp51
 70
     0
102
RTVSPost2010Prop52
140
1.0
102
RTVSPost2010PropOp52
 70
     0
102
RTVSPost2010Prop53
 90
        2
102
RTVSPost2010PropOp53
 70
     1
102
RTVSPost2010Prop54
  1
strokes_ogs.tif
102
RTVSPost2010PropOp54
 70
     1
102
RTVSPost2010Prop55
280
     0
102
RTVSPost2010PropOp55
 70
     1
102
RTVSPost2010Prop56
140
1.0
102
RTVSPost2010PropOp56
 70
     1
102
RTVSPost2010Prop57
140
1.0
102
RTVSPost2010PropOp57
 70
     1
102
RTVSPropertyOp0
 70
     1
102
RTVSPropertyOp1
 70
     1
102
RTVSPropertyOp2
 70
     1
102
RTVSPropertyOp3
 70
     1
102
RTVSPropertyOp4
 70
     1
102
RTVSPropertyOp5
 70
     1
102
RTVSPropertyOp6
 70
     1
102
RTVSPropertyOp7
 70
     1
102
RTVSPropertyOp8
 70
     1
102
RTVSPropertyOp9
 70
     1
102
RTVSPropertyOp10
 70
     1
102
RTVSPropertyOp11
 70
     1
102
RTVSPropertyOp12
 70
     1
102
RTVSPropertyOp13
 70
     1
102
RTVSPropertyOp14
 70
     1
102
RTVSPropertyOp15
 70
     1
102
RTVSPropertyOp16
 70
     1
102
RTVSPropertyOp17
 70
     1
102
RTVSPropertyOp18
 70
     1
102
RTVSPropertyOp19
 70
     1
102
RTVSPropertyOp20
 70
     1
102
RTVSPropertyOp21
 70
     1
102
RTVSPropertyOp22
 70
     1
102
RTVSPropertyOp23
 70
     1
102
RTVSPropertyOp24
 70
     1
102
RTVSPropertyOp25
 70
     1
102
RTVSPropertyOp26
 70
     1
102
RTVSPropertyOp27
 70
     1
102
RTVSPropertyOp28
 70
     1
102
RTVSPropertyOp29
 70
     1
102
RTVSPropertyOp30
 70
     1
102
RTVSPropertyOp31
 70
     1
102
RTVSPropertyOp32
 70
     1
102
RTVSPropertyOp33
 70
     1
102
RTVSPropertyOp34
 70
     1
102
RTVSPropertyOp35
 70
     1
102
RTVSPropertyOp36
 70
     1
102
RTVSPropertyOp37
 70
     1
102
RTVSPropertyOp38
 70
     1
102
RTVSPropertyOp39
 70
     1
102
RTVSPropertyOp40
 70
     1
102
RTVSPropertyOp41
 70
     1
102
RTVSPropertyOp42
 70
     1
102
RTVSPropertyOp43
 70
     1
102
RTVSPropertyOp44
 70
     1
102
RTVSPropertyOp45
 70
     1
102
RTVSPropertyOp46
 70
     1
102
RTVSPropertyOp47
 70
     1
102
RTVSPropertyOp48
 70
     1
102
RTVSPropertyOp49
 70
     1
102
RTVSPropertyOp50
 70
     1
102
RTVSPropertyOp51
 70
     0
102
RTVSPropertyOp52
 70
     0
102
RTVSPropertyOp53
 70
     1
102
RTVSPropertyOp54
 70
     1
102
RTVSPropertyOp55
 70
     1
102
RTVSPropertyOp56
 70
     1
102
RTVSPropertyOp57
 70
     1
102
RTVSPropertyOp58
 70
     1
102
RTVSPropertyOp59
 70
     1
102
RTVSPropertyOp60
 70
     1
102
RTVSPropertyOp61
 70
     1
102
RTVSPropertyOp62
 70
     1
  0
XRECORD
  5
727
102
{ACAD_REACTORS
330
726
102
}
330
726
100
AcDbXrecord
280
     1
102
RTVSPost2010Prop28
280
     0
102
RTVSPost2010PropOp28
 70
     1
102
RTVSPost2010Prop29
280
     1
102
RTVSPost2010PropOp29
 70
     1
102
RTVSPost2010Prop30
280
     1
102
RTVSPost2010PropOp30
 70
     1
102
RTVSPost2010Prop31
280
     0
102
RTVSPost2010PropOp31
 70
     1
102
RTVSPost2010Prop32
280
     0
102
RTVSPost2010PropOp32
 70
     1
102
RTVSPost2010Prop33
280
     0
102
RTVSPost2010PropOp33
 70
     1
102
RTVSPost2010Prop34
280
     0
102
RTVSPost2010PropOp34
 70
     1
102
RTVSPost2010Prop35
280
     0
102
RTVSPost2010PropOp35
 70
     1
102
RTVSPost2010Prop36
280
     0
102
RTVSPost2010PropOp36
 70
     1
102
RTVSPost2010Prop37
 90
       50
102
RTVSPost2010PropOp37
 70
     1
102
RTVSPost2010Prop38
140
0.0
102
RTVSPost2010PropOp38
 70
     1
102
RTVSPost2010Prop39
140
1.0
102
RTVSPost2010PropOp39
 70
     1
102
RTVSPost2010Prop40
 90
        0
102
RTVSPost2010PropOp40
 70
     1
102
RTVSPost2010Prop41ColorIndex
 90
       18
102
RTVSPost2010Prop41ColorRGB
 90
        0
102
RTVSPost2010PropOp41
 70
     1
102
RTVSPost2010Prop42
 90
       50
102
RTVSPost2010PropOp42
 70
     1
102
RTVSPost2010Prop43
 90
        3
102
RTVSPost2010PropOp43
 70
     1
102
RTVSPost2010Prop44ColorIndex
 90
        5
102
RTVSPost2010Prop44ColorRGB
 90
      255
102
RTVSPost2010PropOp44
 70
     1
102
RTVSPost2010Prop45
280
     0
102
RTVSPost2010PropOp45
 70
     1
102
RTVSPost2010Prop46
 90
       50
102
RTVSPost2010PropOp46
 70
     1
102
RTVSPost2010Prop47
 90
       50
102
RTVSPost2010PropOp47
 70
     1
102
RTVSPost2010Prop48
 90
       50
102
RTVSPost2010PropOp48
 70
     1
102
RTVSPost2010Prop49
280
     0
102
RTVSPost2010PropOp49
 70
     1
102
RTVSPost2010Prop50
 90
       50
102
RTVSPost2010PropOp50
 70
     1
102
RTVSPost2010Prop51ColorIndex
 90
      256
102
RTVSPost2010Prop51ColorRGB
 90
-16777216
102
RTVSPost2010PropOp51
 70
     0
102
RTVSPost2010Prop52
140
1.0
102
RTVSPost2010PropOp52
 70
     0
102
RTVSPost2010Prop53
 90
        2
102
RTVSPost2010PropOp53
 70
     1
102
RTVSPost2010Prop54
  1
strokes_ogs.tif
102
RTVSPost2010PropOp54
 70
     1
102
RTVSPost2010Prop55
280
     0
102
RTVSPost2010PropOp55
 70
     1
102
RTVSPost2010Prop56
140
1.0
102
RTVSPost2010PropOp56
 70
     1
102
RTVSPost2010Prop57
140
1.0
102
RTVSPost2010PropOp57
 70
     1
102
RTVSPropertyOp0
 70
     1
102
RTVSPropertyOp1
 70
     1
102
RTVSPropertyOp2
 70
     1
102
RTVSPropertyOp3
 70
     1
102
RTVSPropertyOp4
 70
     1
102
RTVSPropertyOp5
 70
     1
102
RTVSPropertyOp6
 70
     1
102
RTVSPropertyOp7
 70
     1
102
RTVSPropertyOp8
 70
     1
102
RTVSPropertyOp9
 70
     1
102
RTVSPropertyOp10
 70
     1
102
RTVSPropertyOp11
 70
     1
102
RTVSPropertyOp12
 70
     1
102
RTVSPropertyOp13
 70
     1
102
RTVSPropertyOp14
 70
     1
102
RTVSPropertyOp15
 70
     1
102
RTVSPropertyOp16
 70
     1
102
RTVSPropertyOp17
 70
     1
102
RTVSPropertyOp18
 70
     1
102
RTVSPropertyOp19
 70
     1
102
RTVSPropertyOp20
 70
     1
102
RTVSPropertyOp21
 70
     1
102
RTVSPropertyOp22
 70
     1
102
RTVSPropertyOp23
 70
     1
102
RTVSPropertyOp24
 70
     1
102
RTVSPropertyOp25
 70
     1
102
RTVSPropertyOp26
 70
     1
102
RTVSPropertyOp27
 70
     1
102
RTVSPropertyOp28
 70
     1
102
RTVSPropertyOp29
 70
     1
102
RTVSPropertyOp30
 70
     1
102
RTVSPropertyOp31
 70
     1
102
RTVSPropertyOp32
 70
     1
102
RTVSPropertyOp33
 70
     1
102
RTVSPropertyOp34
 70
     1
102
RTVSPropertyOp35
 70
     1
102
RTVSPropertyOp36
 70
     1
102
RTVSPropertyOp37
 70
     1
102
RTVSPropertyOp38
 70
     1
102
RTVSPropertyOp39
 70
     1
102
RTVSPropertyOp40
 70
     1
102
RTVSPropertyOp41
 70
     1
102
RTVSPropertyOp42
 70
     1
102
RTVSPropertyOp43
 70
     1
102
RTVSPropertyOp44
 70
     1
102
RTVSPropertyOp45
 70
     1
102
RTVSPropertyOp46
 70
     1
102
RTVSPropertyOp47
 70
     1
102
RTVSPropertyOp48
 70
     1
102
RTVSPropertyOp49
 70
     1
102
RTVSPropertyOp50
 70
     1
102
RTVSPropertyOp51
 70
     0
102
RTVSPropertyOp52
 70
     0
102
RTVSPropertyOp53
 70
     1
102
RTVSPropertyOp54
 70
     1
102
RTVSPropertyOp55
 70
     1
102
RTVSPropertyOp56
 70
     1
102
RTVSPropertyOp57
 70
     1
102
RTVSPropertyOp58
 70
     1
102
RTVSPropertyOp59
 70
     1
102
RTVSPropertyOp60
 70
     1
102
RTVSPropertyOp61
 70
     1
102
RTVSPropertyOp62
 70
     1
  0
XRECORD
  5
729
102
{ACAD_REACTORS
330
728
102
}
330
728
100
AcDbXrecord
280
     1
102
RTVSPost2010Prop28
280
     0
102
RTVSPost2010PropOp28
 70
     1
102
RTVSPost2010Prop29
280
     1
102
RTVSPost2010PropOp29
 70
     1
102
RTVSPost2010Prop30
280
     1
102
RTVSPost2010PropOp30
 70
     1
102
RTVSPost2010Prop31
280
     0
102
RTVSPost2010PropOp31
 70
     1
102
RTVSPost2010Prop32
280
     0
102
RTVSPost2010PropOp32
 70
     1
102
RTVSPost2010Prop33
280
     0
102
RTVSPost2010PropOp33
 70
     1
102
RTVSPost2010Prop34
280
     0
102
RTVSPost2010PropOp34
 70
     1
102
RTVSPost2010Prop35
280
     0
102
RTVSPost2010PropOp35
 70
     1
102
RTVSPost2010Prop36
280
     0
102
RTVSPost2010PropOp36
 70
     1
102
RTVSPost2010Prop37
 90
       50
102
RTVSPost2010PropOp37
 70
     1
102
RTVSPost2010Prop38
140
0.0
102
RTVSPost2010PropOp38
 70
     1
102
RTVSPost2010Prop39
140
1.0
102
RTVSPost2010PropOp39
 70
     1
102
RTVSPost2010Prop40
 90
        0
102
RTVSPost2010PropOp40
 70
     1
102
RTVSPost2010Prop41ColorIndex
 90
       18
102
RTVSPost2010Prop41ColorRGB
 90
        0
102
RTVSPost2010PropOp41
 70
     1
102
RTVSPost2010Prop42
 90
       50
102
RTVSPost2010PropOp42
 70
     1
102
RTVSPost2010Prop43
 90
        3
102
RTVSPost2010PropOp43
 70
     1
102
RTVSPost2010Prop44ColorIndex
 90
        5
102
RTVSPost2010Prop44ColorRGB
 90
      255
102
RTVSPost2010PropOp44
 70
     1
102
RTVSPost2010Prop45
280
     0
102
RTVSPost2010PropOp45
 70
     1
102
RTVSPost2010Prop46
 90
       50
102
RTVSPost2010PropOp46
 70
     1
102
RTVSPost2010Prop47
 90
       50
102
RTVSPost2010PropOp47
 70
     1
102
RTVSPost2010Prop48
 90
       50
102
RTVSPost2010PropOp48
 70
     1
102
RTVSPost2010Prop49
280
     0
102
RTVSPost2010PropOp49
 70
     1
102
RTVSPost2010Prop50
 90
       50
102
RTVSPost2010PropOp50
 70
     1
102
RTVSPost2010Prop51ColorIndex
 90
      256
102
RTVSPost2010Prop51ColorRGB
 90
-16777216
102
RTVSPost2010PropOp51
 70
     0
102
RTVSPost2010Prop52
140
1.0
102
RTVSPost2010PropOp52
 70
     0
102
RTVSPost2010Prop53
 90
        2
102
RTVSPost2010PropOp53
 70
     1
102
RTVSPost2010Prop54
  1
strokes_ogs.tif
102
RTVSPost2010PropOp54
 70
     1
102
RTVSPost2010Prop55
280
     0
102
RTVSPost2010PropOp55
 70
     1
102
RTVSPost2010Prop56
140
1.0
102
RTVSPost2010PropOp56
 70
     1
102
RTVSPost2010Prop57
140
1.0
102
RTVSPost2010PropOp57
 70
     1
102
RTVSPropertyOp0
 70
     1
102
RTVSPropertyOp1
 70
     1
102
RTVSPropertyOp2
 70
     1
102
RTVSPropertyOp3
 70
     1
102
RTVSPropertyOp4
 70
     1
102
RTVSPropertyOp5
 70
     1
102
RTVSPropertyOp6
 70
     1
102
RTVSPropertyOp7
 70
     1
102
RTVSPropertyOp8
 70
     1
102
RTVSPropertyOp9
 70
     1
102
RTVSPropertyOp10
 70
     1
102
RTVSPropertyOp11
 70
     1
102
RTVSPropertyOp12
 70
     1
102
RTVSPropertyOp13
 70
     1
102
RTVSPropertyOp14
 70
     1
102
RTVSPropertyOp15
 70
     1
102
RTVSPropertyOp16
 70
     1
102
RTVSPropertyOp17
 70
     1
102
RTVSPropertyOp18
 70
     1
102
RTVSPropertyOp19
 70
     1
102
RTVSPropertyOp20
 70
     1
102
RTVSPropertyOp21
 70
     1
102
RTVSPropertyOp22
 70
     1
102
RTVSPropertyOp23
 70
     1
102
RTVSPropertyOp24
 70
     1
102
RTVSPropertyOp25
 70
     1
102
RTVSPropertyOp26
 70
     1
102
RTVSPropertyOp27
 70
     1
102
RTVSPropertyOp28
 70
     1
102
RTVSPropertyOp29
 70
     1
102
RTVSPropertyOp30
 70
     1
102
RTVSPropertyOp31
 70
     1
102
RTVSPropertyOp32
 70
     1
102
RTVSPropertyOp33
 70
     1
102
RTVSPropertyOp34
 70
     1
102
RTVSPropertyOp35
 70
     1
102
RTVSPropertyOp36
 70
     1
102
RTVSPropertyOp37
 70
     1
102
RTVSPropertyOp38
 70
     1
102
RTVSPropertyOp39
 70
     1
102
RTVSPropertyOp40
 70
     1
102
RTVSPropertyOp41
 70
     1
102
RTVSPropertyOp42
 70
     1
102
RTVSPropertyOp43
 70
     1
102
RTVSPropertyOp44
 70
     1
102
RTVSPropertyOp45
 70
     1
102
RTVSPropertyOp46
 70
     1
102
RTVSPropertyOp47
 70
     1
102
RTVSPropertyOp48
 70
     1
102
RTVSPropertyOp49
 70
     1
102
RTVSPropertyOp50
 70
     1
102
RTVSPropertyOp51
 70
     0
102
RTVSPropertyOp52
 70
     0
102
RTVSPropertyOp53
 70
     1
102
RTVSPropertyOp54
 70
     1
102
RTVSPropertyOp55
 70
     1
102
RTVSPropertyOp56
 70
     1
102
RTVSPropertyOp57
 70
     1
102
RTVSPropertyOp58
 70
     1
102
RTVSPropertyOp59
 70
     1
102
RTVSPropertyOp60
 70
     1
102
RTVSPropertyOp61
 70
     1
102
RTVSPropertyOp62
 70
     1
  0
XRECORD
  5
72B
102
{ACAD_REACTORS
330
72A
102
}
330
72A
100
AcDbXrecord
280
     1
102
RTVSPost2010Prop28
280
     0
102
RTVSPost2010PropOp28
 70
     1
102
RTVSPost2010Prop29
280
     1
102
RTVSPost2010PropOp29
 70
     1
102
RTVSPost2010Prop30
280
     1
102
RTVSPost2010PropOp30
 70
     1
102
RTVSPost2010Prop31
280
     0
102
RTVSPost2010PropOp31
 70
     1
102
RTVSPost2010Prop32
280
     0
102
RTVSPost2010PropOp32
 70
     1
102
RTVSPost2010Prop33
280
     0
102
RTVSPost2010PropOp33
 70
     1
102
RTVSPost2010Prop34
280
     0
102
RTVSPost2010PropOp34
 70
     1
102
RTVSPost2010Prop35
280
     0
102
RTVSPost2010PropOp35
 70
     1
102
RTVSPost2010Prop36
280
     0
102
RTVSPost2010PropOp36
 70
     1
102
RTVSPost2010Prop37
 90
       50
102
RTVSPost2010PropOp37
 70
     1
102
RTVSPost2010Prop38
140
0.0
102
RTVSPost2010PropOp38
 70
     1
102
RTVSPost2010Prop39
140
1.0
102
RTVSPost2010PropOp39
 70
     1
102
RTVSPost2010Prop40
 90
        0
102
RTVSPost2010PropOp40
 70
     1
102
RTVSPost2010Prop41ColorIndex
 90
       18
102
RTVSPost2010Prop41ColorRGB
 90
        0
102
RTVSPost2010PropOp41
 70
     1
102
RTVSPost2010Prop42
 90
       50
102
RTVSPost2010PropOp42
 70
     1
102
RTVSPost2010Prop43
 90
        3
102
RTVSPost2010PropOp43
 70
     1
102
RTVSPost2010Prop44ColorIndex
 90
        5
102
RTVSPost2010Prop44ColorRGB
 90
      255
102
RTVSPost2010PropOp44
 70
     1
102
RTVSPost2010Prop45
280
     0
102
RTVSPost2010PropOp45
 70
     1
102
RTVSPost2010Prop46
 90
       50
102
RTVSPost2010PropOp46
 70
     1
102
RTVSPost2010Prop47
 90
       50
102
RTVSPost2010PropOp47
 70
     1
102
RTVSPost2010Prop48
 90
       50
102
RTVSPost2010PropOp48
 70
     1
102
RTVSPost2010Prop49
280
     0
102
RTVSPost2010PropOp49
 70
     1
102
RTVSPost2010Prop50
 90
       50
102
RTVSPost2010PropOp50
 70
     1
102
RTVSPost2010Prop51ColorIndex
 90
      256
102
RTVSPost2010Prop51ColorRGB
 90
-16777216
102
RTVSPost2010PropOp51
 70
     0
102
RTVSPost2010Prop52
140
1.0
102
RTVSPost2010PropOp52
 70
     0
102
RTVSPost2010Prop53
 90
        2
102
RTVSPost2010PropOp53
 70
     1
102
RTVSPost2010Prop54
  1
strokes_ogs.tif
102
RTVSPost2010PropOp54
 70
     1
102
RTVSPost2010Prop55
280
     0
102
RTVSPost2010PropOp55
 70
     1
102
RTVSPost2010Prop56
140
1.0
102
RTVSPost2010PropOp56
 70
     1
102
RTVSPost2010Prop57
140
1.0
102
RTVSPost2010PropOp57
 70
     1
102
RTVSPropertyOp0
 70
     1
102
RTVSPropertyOp1
 70
     1
102
RTVSPropertyOp2
 70
     1
102
RTVSPropertyOp3
 70
     1
102
RTVSPropertyOp4
 70
     1
102
RTVSPropertyOp5
 70
     1
102
RTVSPropertyOp6
 70
     1
102
RTVSPropertyOp7
 70
     1
102
RTVSPropertyOp8
 70
     1
102
RTVSPropertyOp9
 70
     1
102
RTVSPropertyOp10
 70
     1
102
RTVSPropertyOp11
 70
     1
102
RTVSPropertyOp12
 70
     1
102
RTVSPropertyOp13
 70
     1
102
RTVSPropertyOp14
 70
     1
102
RTVSPropertyOp15
 70
     1
102
RTVSPropertyOp16
 70
     1
102
RTVSPropertyOp17
 70
     1
102
RTVSPropertyOp18
 70
     1
102
RTVSPropertyOp19
 70
     1
102
RTVSPropertyOp20
 70
     1
102
RTVSPropertyOp21
 70
     1
102
RTVSPropertyOp22
 70
     1
102
RTVSPropertyOp23
 70
     1
102
RTVSPropertyOp24
 70
     1
102
RTVSPropertyOp25
 70
     1
102
RTVSPropertyOp26
 70
     1
102
RTVSPropertyOp27
 70
     1
102
RTVSPropertyOp28
 70
     1
102
RTVSPropertyOp29
 70
     1
102
RTVSPropertyOp30
 70
     1
102
RTVSPropertyOp31
 70
     1
102
RTVSPropertyOp32
 70
     1
102
RTVSPropertyOp33
 70
     1
102
RTVSPropertyOp34
 70
     1
102
RTVSPropertyOp35
 70
     1
102
RTVSPropertyOp36
 70
     1
102
RTVSPropertyOp37
 70
     1
102
RTVSPropertyOp38
 70
     1
102
RTVSPropertyOp39
 70
     1
102
RTVSPropertyOp40
 70
     1
102
RTVSPropertyOp41
 70
     1
102
RTVSPropertyOp42
 70
     1
102
RTVSPropertyOp43
 70
     1
102
RTVSPropertyOp44
 70
     1
102
RTVSPropertyOp45
 70
     1
102
RTVSPropertyOp46
 70
     1
102
RTVSPropertyOp47
 70
     1
102
RTVSPropertyOp48
 70
     1
102
RTVSPropertyOp49
 70
     1
102
RTVSPropertyOp50
 70
     1
102
RTVSPropertyOp51
 70
     0
102
RTVSPropertyOp52
 70
     0
102
RTVSPropertyOp53
 70
     1
102
RTVSPropertyOp54
 70
     1
102
RTVSPropertyOp55
 70
     1
102
RTVSPropertyOp56
 70
     1
102
RTVSPropertyOp57
 70
     1
102
RTVSPropertyOp58
 70
     1
102
RTVSPropertyOp59
 70
     1
102
RTVSPropertyOp60
 70
     1
102
RTVSPropertyOp61
 70
     1
102
RTVSPropertyOp62
 70
     1
  0
XRECORD
  5
72D
102
{ACAD_REACTORS
330
72C
102
}
330
72C
100
AcDbXrecord
280
     1
102
RTVSPost2010Prop28
280
     0
102
RTVSPost2010PropOp28
 70
     1
102
RTVSPost2010Prop29
280
     1
102
RTVSPost2010PropOp29
 70
     1
102
RTVSPost2010Prop30
280
     1
102
RTVSPost2010PropOp30
 70
     1
102
RTVSPost2010Prop31
280
     0
102
RTVSPost2010PropOp31
 70
     1
102
RTVSPost2010Prop32
280
     0
102
RTVSPost2010PropOp32
 70
     1
102
RTVSPost2010Prop33
280
     0
102
RTVSPost2010PropOp33
 70
     1
102
RTVSPost2010Prop34
280
     0
102
RTVSPost2010PropOp34
 70
     1
102
RTVSPost2010Prop35
280
     0
102
RTVSPost2010PropOp35
 70
     1
102
RTVSPost2010Prop36
280
     0
102
RTVSPost2010PropOp36
 70
     1
102
RTVSPost2010Prop37
 90
       50
102
RTVSPost2010PropOp37
 70
     1
102
RTVSPost2010Prop38
140
0.0
102
RTVSPost2010PropOp38
 70
     1
102
RTVSPost2010Prop39
140
1.0
102
RTVSPost2010PropOp39
 70
     1
102
RTVSPost2010Prop40
 90
        0
102
RTVSPost2010PropOp40
 70
     1
102
RTVSPost2010Prop41ColorIndex
 90
       18
102
RTVSPost2010Prop41ColorRGB
 90
        0
102
RTVSPost2010PropOp41
 70
     1
102
RTVSPost2010Prop42
 90
       50
102
RTVSPost2010PropOp42
 70
     1
102
RTVSPost2010Prop43
 90
        3
102
RTVSPost2010PropOp43
 70
     1
102
RTVSPost2010Prop44ColorIndex
 90
        5
102
RTVSPost2010Prop44ColorRGB
 90
      255
102
RTVSPost2010PropOp44
 70
     1
102
RTVSPost2010Prop45
280
     0
102
RTVSPost2010PropOp45
 70
     1
102
RTVSPost2010Prop46
 90
       50
102
RTVSPost2010PropOp46
 70
     1
102
RTVSPost2010Prop47
 90
       50
102
RTVSPost2010PropOp47
 70
     1
102
RTVSPost2010Prop48
 90
       50
102
RTVSPost2010PropOp48
 70
     1
102
RTVSPost2010Prop49
280
     0
102
RTVSPost2010PropOp49
 70
     1
102
RTVSPost2010Prop50
 90
       50
102
RTVSPost2010PropOp50
 70
     1
102
RTVSPost2010Prop51ColorIndex
 90
      256
102
RTVSPost2010Prop51ColorRGB
 90
-16777216
102
RTVSPost2010PropOp51
 70
     0
102
RTVSPost2010Prop52
140
1.0
102
RTVSPost2010PropOp52
 70
     0
102
RTVSPost2010Prop53
 90
        2
102
RTVSPost2010PropOp53
 70
     1
102
RTVSPost2010Prop54
  1
strokes_ogs.tif
102
RTVSPost2010PropOp54
 70
     1
102
RTVSPost2010Prop55
280
     0
102
RTVSPost2010PropOp55
 70
     1
102
RTVSPost2010Prop56
140
1.0
102
RTVSPost2010PropOp56
 70
     1
102
RTVSPost2010Prop57
140
1.0
102
RTVSPost2010PropOp57
 70
     1
102
RTVSPropertyOp0
 70
     1
102
RTVSPropertyOp1
 70
     1
102
RTVSPropertyOp2
 70
     1
102
RTVSPropertyOp3
 70
     1
102
RTVSPropertyOp4
 70
     1
102
RTVSPropertyOp5
 70
     1
102
RTVSPropertyOp6
 70
     1
102
RTVSPropertyOp7
 70
     1
102
RTVSPropertyOp8
 70
     1
102
RTVSPropertyOp9
 70
     1
102
RTVSPropertyOp10
 70
     1
102
RTVSPropertyOp11
 70
     1
102
RTVSPropertyOp12
 70
     1
102
RTVSPropertyOp13
 70
     1
102
RTVSPropertyOp14
 70
     1
102
RTVSPropertyOp15
 70
     1
102
RTVSPropertyOp16
 70
     1
102
RTVSPropertyOp17
 70
     1
102
RTVSPropertyOp18
 70
     1
102
RTVSPropertyOp19
 70
     1
102
RTVSPropertyOp20
 70
     1
102
RTVSPropertyOp21
 70
     1
102
RTVSPropertyOp22
 70
     1
102
RTVSPropertyOp23
 70
     1
102
RTVSPropertyOp24
 70
     1
102
RTVSPropertyOp25
 70
     1
102
RTVSPropertyOp26
 70
     1
102
RTVSPropertyOp27
 70
     1
102
RTVSPropertyOp28
 70
     1
102
RTVSPropertyOp29
 70
     1
102
RTVSPropertyOp30
 70
     1
102
RTVSPropertyOp31
 70
     1
102
RTVSPropertyOp32
 70
     1
102
RTVSPropertyOp33
 70
     1
102
RTVSPropertyOp34
 70
     1
102
RTVSPropertyOp35
 70
     1
102
RTVSPropertyOp36
 70
     1
102
RTVSPropertyOp37
 70
     1
102
RTVSPropertyOp38
 70
     1
102
RTVSPropertyOp39
 70
     1
102
RTVSPropertyOp40
 70
     1
102
RTVSPropertyOp41
 70
     1
102
RTVSPropertyOp42
 70
     1
102
RTVSPropertyOp43
 70
     1
102
RTVSPropertyOp44
 70
     1
102
RTVSPropertyOp45
 70
     1
102
RTVSPropertyOp46
 70
     1
102
RTVSPropertyOp47
 70
     1
102
RTVSPropertyOp48
 70
     1
102
RTVSPropertyOp49
 70
     1
102
RTVSPropertyOp50
 70
     1
102
RTVSPropertyOp51
 70
     0
102
RTVSPropertyOp52
 70
     0
102
RTVSPropertyOp53
 70
     1
102
RTVSPropertyOp54
 70
     1
102
RTVSPropertyOp55
 70
     1
102
RTVSPropertyOp56
 70
     1
102
RTVSPropertyOp57
 70
     1
102
RTVSPropertyOp58
 70
     1
102
RTVSPropertyOp59
 70
     1
102
RTVSPropertyOp60
 70
     1
102
RTVSPropertyOp61
 70
     1
102
RTVSPropertyOp62
 70
     1
  0
XRECORD
  5
733
102
{ACAD_REACTORS
330
732
102
}
330
732
100
AcDbXrecord
280
     1
102
RTVSPost2010Prop28
280
     0
102
RTVSPost2010PropOp28
 70
     1
102
RTVSPost2010Prop29
280
     1
102
RTVSPost2010PropOp29
 70
     1
102
RTVSPost2010Prop30
280
     1
102
RTVSPost2010PropOp30
 70
     1
102
RTVSPost2010Prop31
280
     0
102
RTVSPost2010PropOp31
 70
     1
102
RTVSPost2010Prop32
280
     0
102
RTVSPost2010PropOp32
 70
     1
102
RTVSPost2010Prop33
280
     0
102
RTVSPost2010PropOp33
 70
     1
102
RTVSPost2010Prop34
280
     0
102
RTVSPost2010PropOp34
 70
     1
102
RTVSPost2010Prop35
280
     0
102
RTVSPost2010PropOp35
 70
     1
102
RTVSPost2010Prop36
280
     0
102
RTVSPost2010PropOp36
 70
     1
102
RTVSPost2010Prop37
 90
       50
102
RTVSPost2010PropOp37
 70
     1
102
RTVSPost2010Prop38
140
0.0
102
RTVSPost2010PropOp38
 70
     1
102
RTVSPost2010Prop39
140
1.0
102
RTVSPost2010PropOp39
 70
     1
102
RTVSPost2010Prop40
 90
        0
102
RTVSPost2010PropOp40
 70
     1
102
RTVSPost2010Prop41ColorIndex
 90
       18
102
RTVSPost2010Prop41ColorRGB
 90
        0
102
RTVSPost2010PropOp41
 70
     1
102
RTVSPost2010Prop42
 90
       50
102
RTVSPost2010PropOp42
 70
     1
102
RTVSPost2010Prop43
 90
        3
102
RTVSPost2010PropOp43
 70
     1
102
RTVSPost2010Prop44ColorIndex
 90
        5
102
RTVSPost2010Prop44ColorRGB
 90
      255
102
RTVSPost2010PropOp44
 70
     1
102
RTVSPost2010Prop45
280
     0
102
RTVSPost2010PropOp45
 70
     1
102
RTVSPost2010Prop46
 90
       50
102
RTVSPost2010PropOp46
 70
     1
102
RTVSPost2010Prop47
 90
       50
102
RTVSPost2010PropOp47
 70
     1
102
RTVSPost2010Prop48
 90
       50
102
RTVSPost2010PropOp48
 70
     1
102
RTVSPost2010Prop49
280
     0
102
RTVSPost2010PropOp49
 70
     1
102
RTVSPost2010Prop50
 90
       50
102
RTVSPost2010PropOp50
 70
     1
102
RTVSPost2010Prop51ColorIndex
 90
      256
102
RTVSPost2010Prop51ColorRGB
 90
-16777216
102
RTVSPost2010PropOp51
 70
     0
102
RTVSPost2010Prop52
140
1.0
102
RTVSPost2010PropOp52
 70
     0
102
RTVSPost2010Prop53
 90
        2
102
RTVSPost2010PropOp53
 70
     1
102
RTVSPost2010Prop54
  1
strokes_ogs.tif
102
RTVSPost2010PropOp54
 70
     1
102
RTVSPost2010Prop55
280
     0
102
RTVSPost2010PropOp55
 70
     1
102
RTVSPost2010Prop56
140
1.0
102
RTVSPost2010PropOp56
 70
     1
102
RTVSPost2010Prop57
140
1.0
102
RTVSPost2010PropOp57
 70
     1
102
RTVSPropertyOp0
 70
     1
102
RTVSPropertyOp1
 70
     1
102
RTVSPropertyOp2
 70
     1
102
RTVSPropertyOp3
 70
     1
102
RTVSPropertyOp4
 70
     1
102
RTVSPropertyOp5
 70
     1
102
RTVSPropertyOp6
 70
     1
102
RTVSPropertyOp7
 70
     1
102
RTVSPropertyOp8
 70
     1
102
RTVSPropertyOp9
 70
     1
102
RTVSPropertyOp10
 70
     1
102
RTVSPropertyOp11
 70
     1
102
RTVSPropertyOp12
 70
     1
102
RTVSPropertyOp13
 70
     1
102
RTVSPropertyOp14
 70
     1
102
RTVSPropertyOp15
 70
     1
102
RTVSPropertyOp16
 70
     1
102
RTVSPropertyOp17
 70
     1
102
RTVSPropertyOp18
 70
     1
102
RTVSPropertyOp19
 70
     1
102
RTVSPropertyOp20
 70
     1
102
RTVSPropertyOp21
 70
     1
102
RTVSPropertyOp22
 70
     1
102
RTVSPropertyOp23
 70
     1
102
RTVSPropertyOp24
 70
     1
102
RTVSPropertyOp25
 70
     1
102
RTVSPropertyOp26
 70
     1
102
RTVSPropertyOp27
 70
     1
102
RTVSPropertyOp28
 70
     1
102
RTVSPropertyOp29
 70
     1
102
RTVSPropertyOp30
 70
     1
102
RTVSPropertyOp31
 70
     1
102
RTVSPropertyOp32
 70
     1
102
RTVSPropertyOp33
 70
     1
102
RTVSPropertyOp34
 70
     1
102
RTVSPropertyOp35
 70
     1
102
RTVSPropertyOp36
 70
     1
102
RTVSPropertyOp37
 70
     1
102
RTVSPropertyOp38
 70
     1
102
RTVSPropertyOp39
 70
     1
102
RTVSPropertyOp40
 70
     1
102
RTVSPropertyOp41
 70
     1
102
RTVSPropertyOp42
 70
     1
102
RTVSPropertyOp43
 70
     1
102
RTVSPropertyOp44
 70
     1
102
RTVSPropertyOp45
 70
     1
102
RTVSPropertyOp46
 70
     1
102
RTVSPropertyOp47
 70
     1
102
RTVSPropertyOp48
 70
     1
102
RTVSPropertyOp49
 70
     1
102
RTVSPropertyOp50
 70
     1
102
RTVSPropertyOp51
 70
     0
102
RTVSPropertyOp52
 70
     0
102
RTVSPropertyOp53
 70
     1
102
RTVSPropertyOp54
 70
     1
102
RTVSPropertyOp55
 70
     1
102
RTVSPropertyOp56
 70
     1
102
RTVSPropertyOp57
 70
     1
102
RTVSPropertyOp58
 70
     1
102
RTVSPropertyOp59
 70
     1
102
RTVSPropertyOp60
 70
     1
102
RTVSPropertyOp61
 70
     1
102
RTVSPropertyOp62
 70
     1
  0
XRECORD
  5
747
102
{ACAD_REACTORS
330
746
102
}
330
746
100
AcDbXrecord
280
     1
102
RTVSPost2010Prop28
280
     0
102
RTVSPost2010PropOp28
 70
     0
102
RTVSPost2010Prop29
280
     1
102
RTVSPost2010PropOp29
 70
     0
102
RTVSPost2010Prop30
280
     1
102
RTVSPost2010PropOp30
 70
     0
102
RTVSPost2010Prop31
280
     0
102
RTVSPost2010PropOp31
 70
     0
102
RTVSPost2010Prop32
280
     0
102
RTVSPost2010PropOp32
 70
     0
102
RTVSPost2010Prop33
280
     0
102
RTVSPost2010PropOp33
 70
     0
102
RTVSPost2010Prop34
280
     0
102
RTVSPost2010PropOp34
 70
     0
102
RTVSPost2010Prop35
280
     0
102
RTVSPost2010PropOp35
 70
     0
102
RTVSPost2010Prop36
280
     0
102
RTVSPost2010PropOp36
 70
     0
102
RTVSPost2010Prop37
 90
       50
102
RTVSPost2010PropOp37
 70
     0
102
RTVSPost2010Prop38
140
0.0
102
RTVSPost2010PropOp38
 70
     0
102
RTVSPost2010Prop39
140
1.0
102
RTVSPost2010PropOp39
 70
     0
102
RTVSPost2010Prop40
 90
        0
102
RTVSPost2010PropOp40
 70
     0
102
RTVSPost2010Prop41ColorIndex
 90
       18
102
RTVSPost2010Prop41ColorRGB
 90
        0
102
RTVSPost2010PropOp41
 70
     0
102
RTVSPost2010Prop42
 90
       50
102
RTVSPost2010PropOp42
 70
     0
102
RTVSPost2010Prop43
 90
        3
102
RTVSPost2010PropOp43
 70
     0
102
RTVSPost2010Prop44ColorIndex
 90
        5
102
RTVSPost2010Prop44ColorRGB
 90
      255
102
RTVSPost2010PropOp44
 70
     0
102
RTVSPost2010Prop45
280
     0
102
RTVSPost2010PropOp45
 70
     0
102
RTVSPost2010Prop46
 90
       50
102
RTVSPost2010PropOp46
 70
     0
102
RTVSPost2010Prop47
 90
       50
102
RTVSPost2010PropOp47
 70
     0
102
RTVSPost2010Prop48
 90
       50
102
RTVSPost2010PropOp48
 70
     0
102
RTVSPost2010Prop49
280
     0
102
RTVSPost2010PropOp49
 70
     0
102
RTVSPost2010Prop50
 90
       50
102
RTVSPost2010PropOp50
 70
     0
102
RTVSPost2010Prop51ColorIndex
 90
      256
102
RTVSPost2010Prop51ColorRGB
 90
-16777216
102
RTVSPost2010PropOp51
 70
     0
102
RTVSPost2010Prop52
140
1.0
102
RTVSPost2010PropOp52
 70
     0
102
RTVSPost2010Prop53
 90
        2
102
RTVSPost2010PropOp53
 70
     0
102
RTVSPost2010Prop54
  1
strokes_ogs.tif
102
RTVSPost2010PropOp54
 70
     0
102
RTVSPost2010Prop55
280
     0
102
RTVSPost2010PropOp55
 70
     0
102
RTVSPost2010Prop56
140
1.0
102
RTVSPost2010PropOp56
 70
     0
102
RTVSPost2010Prop57
140
1.0
102
RTVSPost2010PropOp57
 70
     0
102
RTVSPropertyOp0
 70
     0
102
RTVSPropertyOp1
 70
     0
102
RTVSPropertyOp2
 70
     0
102
RTVSPropertyOp3
 70
     0
102
RTVSPropertyOp4
 70
     0
102
RTVSPropertyOp5
 70
     0
102
RTVSPropertyOp6
 70
     0
102
RTVSPropertyOp7
 70
     0
102
RTVSPropertyOp8
 70
     0
102
RTVSPropertyOp9
 70
     0
102
RTVSPropertyOp10
 70
     0
102
RTVSPropertyOp11
 70
     0
102
RTVSPropertyOp12
 70
     0
102
RTVSPropertyOp13
 70
     0
102
RTVSPropertyOp14
 70
     2
102
RTVSPropertyOp15
 70
     0
102
RTVSPropertyOp16
 70
     0
102
RTVSPropertyOp17
 70
     0
102
RTVSPropertyOp18
 70
     0
102
RTVSPropertyOp19
 70
     0
102
RTVSPropertyOp20
 70
     0
102
RTVSPropertyOp21
 70
     0
102
RTVSPropertyOp22
 70
     0
102
RTVSPropertyOp23
 70
     0
102
RTVSPropertyOp24
 70
     0
102
RTVSPropertyOp25
 70
     0
102
RTVSPropertyOp26
 70
     0
102
RTVSPropertyOp27
 70
     0
102
RTVSPropertyOp28
 70
     0
102
RTVSPropertyOp29
 70
     0
102
RTVSPropertyOp30
 70
     0
102
RTVSPropertyOp31
 70
     0
102
RTVSPropertyOp32
 70
     0
102
RTVSPropertyOp33
 70
     0
102
RTVSPropertyOp34
 70
     0
102
RTVSPropertyOp35
 70
     0
102
RTVSPropertyOp36
 70
     0
102
RTVSPropertyOp37
 70
     0
102
RTVSPropertyOp38
 70
     0
102
RTVSPropertyOp39
 70
     0
102
RTVSPropertyOp40
 70
     0
102
RTVSPropertyOp41
 70
     0
102
RTVSPropertyOp42
 70
     0
102
RTVSPropertyOp43
 70
     0
102
RTVSPropertyOp44
 70
     0
102
RTVSPropertyOp45
 70
     0
102
RTVSPropertyOp46
 70
     0
102
RTVSPropertyOp47
 70
     0
102
RTVSPropertyOp48
 70
     0
102
RTVSPropertyOp49
 70
     0
102
RTVSPropertyOp50
 70
     0
102
RTVSPropertyOp51
 70
     0
102
RTVSPropertyOp52
 70
     0
102
RTVSPropertyOp53
 70
     0
102
RTVSPropertyOp54
 70
     0
102
RTVSPropertyOp55
 70
     0
102
RTVSPropertyOp56
 70
     0
102
RTVSPropertyOp57
 70
     0
102
RTVSPropertyOp58
 70
     1
102
RTVSPropertyOp59
 70
     1
102
RTVSPropertyOp60
 70
     1
102
RTVSPropertyOp61
 70
     1
102
RTVSPropertyOp62
 70
     1
  0
XRECORD
  5
741
102
{ACAD_REACTORS
330
740
102
}
330
740
100
AcDbXrecord
280
     1
102
RTVSPost2010Prop28
280
     0
102
RTVSPost2010PropOp28
 70
     1
102
RTVSPost2010Prop29
280
     1
102
RTVSPost2010PropOp29
 70
     1
102
RTVSPost2010Prop30
280
     1
102
RTVSPost2010PropOp30
 70
     1
102
RTVSPost2010Prop31
280
     0
102
RTVSPost2010PropOp31
 70
     1
102
RTVSPost2010Prop32
280
     0
102
RTVSPost2010PropOp32
 70
     1
102
RTVSPost2010Prop33
280
     0
102
RTVSPost2010PropOp33
 70
     1
102
RTVSPost2010Prop34
280
     0
102
RTVSPost2010PropOp34
 70
     1
102
RTVSPost2010Prop35
280
     0
102
RTVSPost2010PropOp35
 70
     1
102
RTVSPost2010Prop36
280
     0
102
RTVSPost2010PropOp36
 70
     1
102
RTVSPost2010Prop37
 90
       50
102
RTVSPost2010PropOp37
 70
     1
102
RTVSPost2010Prop38
140
0.0
102
RTVSPost2010PropOp38
 70
     1
102
RTVSPost2010Prop39
140
1.0
102
RTVSPost2010PropOp39
 70
     1
102
RTVSPost2010Prop40
 90
        0
102
RTVSPost2010PropOp40
 70
     1
102
RTVSPost2010Prop41ColorIndex
 90
       18
102
RTVSPost2010Prop41ColorRGB
 90
        0
102
RTVSPost2010PropOp41
 70
     1
102
RTVSPost2010Prop42
 90
       50
102
RTVSPost2010PropOp42
 70
     1
102
RTVSPost2010Prop43
 90
        3
102
RTVSPost2010PropOp43
 70
     1
102
RTVSPost2010Prop44ColorIndex
 90
        5
102
RTVSPost2010Prop44ColorRGB
 90
      255
102
RTVSPost2010PropOp44
 70
     1
102
RTVSPost2010Prop45
280
     0
102
RTVSPost2010PropOp45
 70
     1
102
RTVSPost2010Prop46
 90
       50
102
RTVSPost2010PropOp46
 70
     1
102
RTVSPost2010Prop47
 90
       50
102
RTVSPost2010PropOp47
 70
     1
102
RTVSPost2010Prop48
 90
       50
102
RTVSPost2010PropOp48
 70
     1
102
RTVSPost2010Prop49
280
     0
102
RTVSPost2010PropOp49
 70
     1
102
RTVSPost2010Prop50
 90
       50
102
RTVSPost2010PropOp50
 70
     1
102
RTVSPost2010Prop51ColorIndex
 90
      256
102
RTVSPost2010Prop51ColorRGB
 90
-16777216
102
RTVSPost2010PropOp51
 70
     0
102
RTVSPost2010Prop52
140
1.0
102
RTVSPost2010PropOp52
 70
     0
102
RTVSPost2010Prop53
 90
        2
102
RTVSPost2010PropOp53
 70
     1
102
RTVSPost2010Prop54
  1
strokes_ogs.tif
102
RTVSPost2010PropOp54
 70
     1
102
RTVSPost2010Prop55
280
     0
102
RTVSPost2010PropOp55
 70
     1
102
RTVSPost2010Prop56
140
1.0
102
RTVSPost2010PropOp56
 70
     1
102
RTVSPost2010Prop57
140
1.0
102
RTVSPost2010PropOp57
 70
     1
102
RTVSPropertyOp0
 70
     1
102
RTVSPropertyOp1
 70
     1
102
RTVSPropertyOp2
 70
     1
102
RTVSPropertyOp3
 70
     1
102
RTVSPropertyOp4
 70
     1
102
RTVSPropertyOp5
 70
     1
102
RTVSPropertyOp6
 70
     1
102
RTVSPropertyOp7
 70
     1
102
RTVSPropertyOp8
 70
     1
102
RTVSPropertyOp9
 70
     1
102
RTVSPropertyOp10
 70
     1
102
RTVSPropertyOp11
 70
     1
102
RTVSPropertyOp12
 70
     1
102
RTVSPropertyOp13
 70
     1
102
RTVSPropertyOp14
 70
     1
102
RTVSPropertyOp15
 70
     1
102
RTVSPropertyOp16
 70
     1
102
RTVSPropertyOp17
 70
     1
102
RTVSPropertyOp18
 70
     1
102
RTVSPropertyOp19
 70
     1
102
RTVSPropertyOp20
 70
     1
102
RTVSPropertyOp21
 70
     1
102
RTVSPropertyOp22
 70
     1
102
RTVSPropertyOp23
 70
     1
102
RTVSPropertyOp24
 70
     1
102
RTVSPropertyOp25
 70
     1
102
RTVSPropertyOp26
 70
     1
102
RTVSPropertyOp27
 70
     1
102
RTVSPropertyOp28
 70
     1
102
RTVSPropertyOp29
 70
     1
102
RTVSPropertyOp30
 70
     1
102
RTVSPropertyOp31
 70
     1
102
RTVSPropertyOp32
 70
     1
102
RTVSPropertyOp33
 70
     1
102
RTVSPropertyOp34
 70
     1
102
RTVSPropertyOp35
 70
     1
102
RTVSPropertyOp36
 70
     1
102
RTVSPropertyOp37
 70
     1
102
RTVSPropertyOp38
 70
     1
102
RTVSPropertyOp39
 70
     1
102
RTVSPropertyOp40
 70
     1
102
RTVSPropertyOp41
 70
     1
102
RTVSPropertyOp42
 70
     1
102
RTVSPropertyOp43
 70
     1
102
RTVSPropertyOp44
 70
     1
102
RTVSPropertyOp45
 70
     1
102
RTVSPropertyOp46
 70
     1
102
RTVSPropertyOp47
 70
     1
102
RTVSPropertyOp48
 70
     1
102
RTVSPropertyOp49
 70
     1
102
RTVSPropertyOp50
 70
     1
102
RTVSPropertyOp51
 70
     0
102
RTVSPropertyOp52
 70
     0
102
RTVSPropertyOp53
 70
     1
102
RTVSPropertyOp54
 70
     1
102
RTVSPropertyOp55
 70
     1
102
RTVSPropertyOp56
 70
     1
102
RTVSPropertyOp57
 70
     1
102
RTVSPropertyOp58
 70
     1
102
RTVSPropertyOp59
 70
     1
102
RTVSPropertyOp60
 70
     1
102
RTVSPropertyOp61
 70
     1
102
RTVSPropertyOp62
 70
     1
  0
XRECORD
  5
749
102
{ACAD_REACTORS
330
748
102
}
330
748
100
AcDbXrecord
280
     1
102
RTVSPost2010Prop28
280
     0
102
RTVSPost2010PropOp28
 70
     0
102
RTVSPost2010Prop29
280
     1
102
RTVSPost2010PropOp29
 70
     0
102
RTVSPost2010Prop30
280
     1
102
RTVSPost2010PropOp30
 70
     0
102
RTVSPost2010Prop31
280
     0
102
RTVSPost2010PropOp31
 70
     0
102
RTVSPost2010Prop32
280
     0
102
RTVSPost2010PropOp32
 70
     0
102
RTVSPost2010Prop33
280
     0
102
RTVSPost2010PropOp33
 70
     0
102
RTVSPost2010Prop34
280
     0
102
RTVSPost2010PropOp34
 70
     0
102
RTVSPost2010Prop35
280
     0
102
RTVSPost2010PropOp35
 70
     0
102
RTVSPost2010Prop36
280
     0
102
RTVSPost2010PropOp36
 70
     0
102
RTVSPost2010Prop37
 90
       50
102
RTVSPost2010PropOp37
 70
     0
102
RTVSPost2010Prop38
140
0.0
102
RTVSPost2010PropOp38
 70
     0
102
RTVSPost2010Prop39
140
1.0
102
RTVSPost2010PropOp39
 70
     0
102
RTVSPost2010Prop40
 90
        0
102
RTVSPost2010PropOp40
 70
     0
102
RTVSPost2010Prop41ColorIndex
 90
       18
102
RTVSPost2010Prop41ColorRGB
 90
        0
102
RTVSPost2010PropOp41
 70
     0
102
RTVSPost2010Prop42
 90
       50
102
RTVSPost2010PropOp42
 70
     0
102
RTVSPost2010Prop43
 90
        3
102
RTVSPost2010PropOp43
 70
     0
102
RTVSPost2010Prop44ColorIndex
 90
        5
102
RTVSPost2010Prop44ColorRGB
 90
      255
102
RTVSPost2010PropOp44
 70
     0
102
RTVSPost2010Prop45
280
     0
102
RTVSPost2010PropOp45
 70
     0
102
RTVSPost2010Prop46
 90
       50
102
RTVSPost2010PropOp46
 70
     0
102
RTVSPost2010Prop47
 90
       50
102
RTVSPost2010PropOp47
 70
     0
102
RTVSPost2010Prop48
 90
       50
102
RTVSPost2010PropOp48
 70
     0
102
RTVSPost2010Prop49
280
     0
102
RTVSPost2010PropOp49
 70
     0
102
RTVSPost2010Prop50
 90
       50
102
RTVSPost2010PropOp50
 70
     0
102
RTVSPost2010Prop51ColorIndex
 90
      256
102
RTVSPost2010Prop51ColorRGB
 90
-16777216
102
RTVSPost2010PropOp51
 70
     0
102
RTVSPost2010Prop52
140
1.0
102
RTVSPost2010PropOp52
 70
     0
102
RTVSPost2010Prop53
 90
        2
102
RTVSPost2010PropOp53
 70
     0
102
RTVSPost2010Prop54
  1
strokes_ogs.tif
102
RTVSPost2010PropOp54
 70
     0
102
RTVSPost2010Prop55
280
     0
102
RTVSPost2010PropOp55
 70
     0
102
RTVSPost2010Prop56
140
1.0
102
RTVSPost2010PropOp56
 70
     0
102
RTVSPost2010Prop57
140
1.0
102
RTVSPost2010PropOp57
 70
     0
102
RTVSPropertyOp0
 70
     0
102
RTVSPropertyOp1
 70
     0
102
RTVSPropertyOp2
 70
     0
102
RTVSPropertyOp3
 70
     0
102
RTVSPropertyOp4
 70
     0
102
RTVSPropertyOp5
 70
     0
102
RTVSPropertyOp6
 70
     0
102
RTVSPropertyOp7
 70
     0
102
RTVSPropertyOp8
 70
     0
102
RTVSPropertyOp9
 70
     0
102
RTVSPropertyOp10
 70
     0
102
RTVSPropertyOp11
 70
     0
102
RTVSPropertyOp12
 70
     0
102
RTVSPropertyOp13
 70
     0
102
RTVSPropertyOp14
 70
     2
102
RTVSPropertyOp15
 70
     0
102
RTVSPropertyOp16
 70
     0
102
RTVSPropertyOp17
 70
     0
102
RTVSPropertyOp18
 70
     0
102
RTVSPropertyOp19
 70
     0
102
RTVSPropertyOp20
 70
     0
102
RTVSPropertyOp21
 70
     0
102
RTVSPropertyOp22
 70
     0
102
RTVSPropertyOp23
 70
     0
102
RTVSPropertyOp24
 70
     0
102
RTVSPropertyOp25
 70
     0
102
RTVSPropertyOp26
 70
     0
102
RTVSPropertyOp27
 70
     0
102
RTVSPropertyOp28
 70
     0
102
RTVSPropertyOp29
 70
     0
102
RTVSPropertyOp30
 70
     0
102
RTVSPropertyOp31
 70
     0
102
RTVSPropertyOp32
 70
     0
102
RTVSPropertyOp33
 70
     0
102
RTVSPropertyOp34
 70
     0
102
RTVSPropertyOp35
 70
     0
102
RTVSPropertyOp36
 70
     0
102
RTVSPropertyOp37
 70
     0
102
RTVSPropertyOp38
 70
     0
102
RTVSPropertyOp39
 70
     0
102
RTVSPropertyOp40
 70
     0
102
RTVSPropertyOp41
 70
     0
102
RTVSPropertyOp42
 70
     0
102
RTVSPropertyOp43
 70
     0
102
RTVSPropertyOp44
 70
     0
102
RTVSPropertyOp45
 70
     0
102
RTVSPropertyOp46
 70
     0
102
RTVSPropertyOp47
 70
     0
102
RTVSPropertyOp48
 70
     0
102
RTVSPropertyOp49
 70
     0
102
RTVSPropertyOp50
 70
     0
102
RTVSPropertyOp51
 70
     0
102
RTVSPropertyOp52
 70
     0
102
RTVSPropertyOp53
 70
     0
102
RTVSPropertyOp54
 70
     0
102
RTVSPropertyOp55
 70
     0
102
RTVSPropertyOp56
 70
     0
102
RTVSPropertyOp57
 70
     0
102
RTVSPropertyOp58
 70
     1
102
RTVSPropertyOp59
 70
     1
102
RTVSPropertyOp60
 70
     1
102
RTVSPropertyOp61
 70
     1
102
RTVSPropertyOp62
 70
     1
  0
XRECORD
  5
737
102
{ACAD_REACTORS
330
736
102
}
330
736
100
AcDbXrecord
280
     1
102
RTVSPost2010Prop28
280
     0
102
RTVSPost2010PropOp28
 70
     1
102
RTVSPost2010Prop29
280
     1
102
RTVSPost2010PropOp29
 70
     1
102
RTVSPost2010Prop30
280
     1
102
RTVSPost2010PropOp30
 70
     1
102
RTVSPost2010Prop31
280
     0
102
RTVSPost2010PropOp31
 70
     1
102
RTVSPost2010Prop32
280
     0
102
RTVSPost2010PropOp32
 70
     1
102
RTVSPost2010Prop33
280
     0
102
RTVSPost2010PropOp33
 70
     1
102
RTVSPost2010Prop34
280
     0
102
RTVSPost2010PropOp34
 70
     1
102
RTVSPost2010Prop35
280
     0
102
RTVSPost2010PropOp35
 70
     1
102
RTVSPost2010Prop36
280
     0
102
RTVSPost2010PropOp36
 70
     1
102
RTVSPost2010Prop37
 90
       50
102
RTVSPost2010PropOp37
 70
     1
102
RTVSPost2010Prop38
140
0.0
102
RTVSPost2010PropOp38
 70
     1
102
RTVSPost2010Prop39
140
1.0
102
RTVSPost2010PropOp39
 70
     1
102
RTVSPost2010Prop40
 90
        0
102
RTVSPost2010PropOp40
 70
     1
102
RTVSPost2010Prop41ColorIndex
 90
       18
102
RTVSPost2010Prop41ColorRGB
 90
        0
102
RTVSPost2010PropOp41
 70
     1
102
RTVSPost2010Prop42
 90
       50
102
RTVSPost2010PropOp42
 70
     1
102
RTVSPost2010Prop43
 90
        3
102
RTVSPost2010PropOp43
 70
     1
102
RTVSPost2010Prop44ColorIndex
 90
        5
102
RTVSPost2010Prop44ColorRGB
 90
      255
102
RTVSPost2010PropOp44
 70
     1
102
RTVSPost2010Prop45
280
     0
102
RTVSPost2010PropOp45
 70
     1
102
RTVSPost2010Prop46
 90
       50
102
RTVSPost2010PropOp46
 70
     1
102
RTVSPost2010Prop47
 90
       50
102
RTVSPost2010PropOp47
 70
     1
102
RTVSPost2010Prop48
 90
       50
102
RTVSPost2010PropOp48
 70
     1
102
RTVSPost2010Prop49
280
     0
102
RTVSPost2010PropOp49
 70
     1
102
RTVSPost2010Prop50
 90
       50
102
RTVSPost2010PropOp50
 70
     1
102
RTVSPost2010Prop51ColorIndex
 90
      256
102
RTVSPost2010Prop51ColorRGB
 90
-16777216
102
RTVSPost2010PropOp51
 70
     0
102
RTVSPost2010Prop52
140
1.0
102
RTVSPost2010PropOp52
 70
     0
102
RTVSPost2010Prop53
 90
        2
102
RTVSPost2010PropOp53
 70
     1
102
RTVSPost2010Prop54
  1
strokes_ogs.tif
102
RTVSPost2010PropOp54
 70
     1
102
RTVSPost2010Prop55
280
     0
102
RTVSPost2010PropOp55
 70
     1
102
RTVSPost2010Prop56
140
1.0
102
RTVSPost2010PropOp56
 70
     1
102
RTVSPost2010Prop57
140
1.0
102
RTVSPost2010PropOp57
 70
     1
102
RTVSPropertyOp0
 70
     1
102
RTVSPropertyOp1
 70
     1
102
RTVSPropertyOp2
 70
     1
102
RTVSPropertyOp3
 70
     1
102
RTVSPropertyOp4
 70
     1
102
RTVSPropertyOp5
 70
     1
102
RTVSPropertyOp6
 70
     1
102
RTVSPropertyOp7
 70
     1
102
RTVSPropertyOp8
 70
     1
102
RTVSPropertyOp9
 70
     1
102
RTVSPropertyOp10
 70
     1
102
RTVSPropertyOp11
 70
     1
102
RTVSPropertyOp12
 70
     1
102
RTVSPropertyOp13
 70
     1
102
RTVSPropertyOp14
 70
     1
102
RTVSPropertyOp15
 70
     1
102
RTVSPropertyOp16
 70
     1
102
RTVSPropertyOp17
 70
     1
102
RTVSPropertyOp18
 70
     1
102
RTVSPropertyOp19
 70
     1
102
RTVSPropertyOp20
 70
     1
102
RTVSPropertyOp21
 70
     1
102
RTVSPropertyOp22
 70
     1
102
RTVSPropertyOp23
 70
     1
102
RTVSPropertyOp24
 70
     1
102
RTVSPropertyOp25
 70
     1
102
RTVSPropertyOp26
 70
     1
102
RTVSPropertyOp27
 70
     1
102
RTVSPropertyOp28
 70
     1
102
RTVSPropertyOp29
 70
     1
102
RTVSPropertyOp30
 70
     1
102
RTVSPropertyOp31
 70
     1
102
RTVSPropertyOp32
 70
     1
102
RTVSPropertyOp33
 70
     1
102
RTVSPropertyOp34
 70
     1
102
RTVSPropertyOp35
 70
     1
102
RTVSPropertyOp36
 70
     1
102
RTVSPropertyOp37
 70
     1
102
RTVSPropertyOp38
 70
     1
102
RTVSPropertyOp39
 70
     1
102
RTVSPropertyOp40
 70
     1
102
RTVSPropertyOp41
 70
     1
102
RTVSPropertyOp42
 70
     1
102
RTVSPropertyOp43
 70
     1
102
RTVSPropertyOp44
 70
     1
102
RTVSPropertyOp45
 70
     1
102
RTVSPropertyOp46
 70
     1
102
RTVSPropertyOp47
 70
     1
102
RTVSPropertyOp48
 70
     1
102
RTVSPropertyOp49
 70
     1
102
RTVSPropertyOp50
 70
     1
102
RTVSPropertyOp51
 70
     0
102
RTVSPropertyOp52
 70
     0
102
RTVSPropertyOp53
 70
     1
102
RTVSPropertyOp54
 70
     1
102
RTVSPropertyOp55
 70
     1
102
RTVSPropertyOp56
 70
     1
102
RTVSPropertyOp57
 70
     1
102
RTVSPropertyOp58
 70
     1
102
RTVSPropertyOp59
 70
     1
102
RTVSPropertyOp60
 70
     1
102
RTVSPropertyOp61
 70
     1
102
RTVSPropertyOp62
 70
     1
  0
XRECORD
  5
755
102
{ACAD_REACTORS
330
754
102
}
330
754
100
AcDbXrecord
280
     1
102
RTVSPost2010Prop28
280
     0
102
RTVSPost2010PropOp28
 70
     1
102
RTVSPost2010Prop29
280
     1
102
RTVSPost2010PropOp29
 70
     1
102
RTVSPost2010Prop30
280
     1
102
RTVSPost2010PropOp30
 70
     1
102
RTVSPost2010Prop31
280
     0
102
RTVSPost2010PropOp31
 70
     1
102
RTVSPost2010Prop32
280
     0
102
RTVSPost2010PropOp32
 70
     1
102
RTVSPost2010Prop33
280
     0
102
RTVSPost2010PropOp33
 70
     1
102
RTVSPost2010Prop34
280
     0
102
RTVSPost2010PropOp34
 70
     1
102
RTVSPost2010Prop35
280
     0
102
RTVSPost2010PropOp35
 70
     1
102
RTVSPost2010Prop36
280
     0
102
RTVSPost2010PropOp36
 70
     1
102
RTVSPost2010Prop37
 90
       50
102
RTVSPost2010PropOp37
 70
     1
102
RTVSPost2010Prop38
140
0.0
102
RTVSPost2010PropOp38
 70
     1
102
RTVSPost2010Prop39
140
1.0
102
RTVSPost2010PropOp39
 70
     1
102
RTVSPost2010Prop40
 90
        0
102
RTVSPost2010PropOp40
 70
     1
102
RTVSPost2010Prop41ColorIndex
 90
       18
102
RTVSPost2010Prop41ColorRGB
 90
        0
102
RTVSPost2010PropOp41
 70
     1
102
RTVSPost2010Prop42
 90
       50
102
RTVSPost2010PropOp42
 70
     1
102
RTVSPost2010Prop43
 90
        3
102
RTVSPost2010PropOp43
 70
     1
102
RTVSPost2010Prop44ColorIndex
 90
        5
102
RTVSPost2010Prop44ColorRGB
 90
      255
102
RTVSPost2010PropOp44
 70
     1
102
RTVSPost2010Prop45
280
     0
102
RTVSPost2010PropOp45
 70
     1
102
RTVSPost2010Prop46
 90
       50
102
RTVSPost2010PropOp46
 70
     1
102
RTVSPost2010Prop47
 90
       50
102
RTVSPost2010PropOp47
 70
     1
102
RTVSPost2010Prop48
 90
       50
102
RTVSPost2010PropOp48
 70
     1
102
RTVSPost2010Prop49
280
     0
102
RTVSPost2010PropOp49
 70
     1
102
RTVSPost2010Prop50
 90
       50
102
RTVSPost2010PropOp50
 70
     1
102
RTVSPost2010Prop51ColorIndex
 90
      256
102
RTVSPost2010Prop51ColorRGB
 90
-16777216
102
RTVSPost2010PropOp51
 70
     0
102
RTVSPost2010Prop52
140
1.0
102
RTVSPost2010PropOp52
 70
     0
102
RTVSPost2010Prop53
 90
        2
102
RTVSPost2010PropOp53
 70
     1
102
RTVSPost2010Prop54
  1
strokes_ogs.tif
102
RTVSPost2010PropOp54
 70
     1
102
RTVSPost2010Prop55
280
     0
102
RTVSPost2010PropOp55
 70
     1
102
RTVSPost2010Prop56
140
1.0
102
RTVSPost2010PropOp56
 70
     1
102
RTVSPost2010Prop57
140
1.0
102
RTVSPost2010PropOp57
 70
     1
102
RTVSPropertyOp0
 70
     1
102
RTVSPropertyOp1
 70
     1
102
RTVSPropertyOp2
 70
     1
102
RTVSPropertyOp3
 70
     1
102
RTVSPropertyOp4
 70
     1
102
RTVSPropertyOp5
 70
     1
102
RTVSPropertyOp6
 70
     1
102
RTVSPropertyOp7
 70
     1
102
RTVSPropertyOp8
 70
     1
102
RTVSPropertyOp9
 70
     1
102
RTVSPropertyOp10
 70
     1
102
RTVSPropertyOp11
 70
     1
102
RTVSPropertyOp12
 70
     1
102
RTVSPropertyOp13
 70
     1
102
RTVSPropertyOp14
 70
     1
102
RTVSPropertyOp15
 70
     1
102
RTVSPropertyOp16
 70
     1
102
RTVSPropertyOp17
 70
     1
102
RTVSPropertyOp18
 70
     1
102
RTVSPropertyOp19
 70
     1
102
RTVSPropertyOp20
 70
     1
102
RTVSPropertyOp21
 70
     1
102
RTVSPropertyOp22
 70
     1
102
RTVSPropertyOp23
 70
     1
102
RTVSPropertyOp24
 70
     1
102
RTVSPropertyOp25
 70
     1
102
RTVSPropertyOp26
 70
     1
102
RTVSPropertyOp27
 70
     1
102
RTVSPropertyOp28
 70
     1
102
RTVSPropertyOp29
 70
     1
102
RTVSPropertyOp30
 70
     1
102
RTVSPropertyOp31
 70
     1
102
RTVSPropertyOp32
 70
     1
102
RTVSPropertyOp33
 70
     1
102
RTVSPropertyOp34
 70
     1
102
RTVSPropertyOp35
 70
     1
102
RTVSPropertyOp36
 70
     1
102
RTVSPropertyOp37
 70
     1
102
RTVSPropertyOp38
 70
     1
102
RTVSPropertyOp39
 70
     1
102
RTVSPropertyOp40
 70
     1
102
RTVSPropertyOp41
 70
     1
102
RTVSPropertyOp42
 70
     1
102
RTVSPropertyOp43
 70
     1
102
RTVSPropertyOp44
 70
     1
102
RTVSPropertyOp45
 70
     1
102
RTVSPropertyOp46
 70
     1
102
RTVSPropertyOp47
 70
     1
102
RTVSPropertyOp48
 70
     1
102
RTVSPropertyOp49
 70
     1
102
RTVSPropertyOp50
 70
     1
102
RTVSPropertyOp51
 70
     0
102
RTVSPropertyOp52
 70
     0
102
RTVSPropertyOp53
 70
     1
102
RTVSPropertyOp54
 70
     1
102
RTVSPropertyOp55
 70
     1
102
RTVSPropertyOp56
 70
     1
102
RTVSPropertyOp57
 70
     1
102
RTVSPropertyOp58
 70
     1
102
RTVSPropertyOp59
 70
     1
102
RTVSPropertyOp60
 70
     1
102
RTVSPropertyOp61
 70
     1
102
RTVSPropertyOp62
 70
     1
  0
XRECORD
  5
753
102
{ACAD_REACTORS
330
752
102
}
330
752
100
AcDbXrecord
280
     1
102
RTVSPost2010Prop28
280
     0
102
RTVSPost2010PropOp28
 70
     1
102
RTVSPost2010Prop29
280
     1
102
RTVSPost2010PropOp29
 70
     1
102
RTVSPost2010Prop30
280
     1
102
RTVSPost2010PropOp30
 70
     1
102
RTVSPost2010Prop31
280
     0
102
RTVSPost2010PropOp31
 70
     1
102
RTVSPost2010Prop32
280
     0
102
RTVSPost2010PropOp32
 70
     1
102
RTVSPost2010Prop33
280
     0
102
RTVSPost2010PropOp33
 70
     1
102
RTVSPost2010Prop34
280
     0
102
RTVSPost2010PropOp34
 70
     1
102
RTVSPost2010Prop35
280
     0
102
RTVSPost2010PropOp35
 70
     1
102
RTVSPost2010Prop36
280
     0
102
RTVSPost2010PropOp36
 70
     1
102
RTVSPost2010Prop37
 90
       50
102
RTVSPost2010PropOp37
 70
     1
102
RTVSPost2010Prop38
140
0.0
102
RTVSPost2010PropOp38
 70
     1
102
RTVSPost2010Prop39
140
1.0
102
RTVSPost2010PropOp39
 70
     1
102
RTVSPost2010Prop40
 90
        0
102
RTVSPost2010PropOp40
 70
     1
102
RTVSPost2010Prop41ColorIndex
 90
       18
102
RTVSPost2010Prop41ColorRGB
 90
        0
102
RTVSPost2010PropOp41
 70
     1
102
RTVSPost2010Prop42
 90
       50
102
RTVSPost2010PropOp42
 70
     1
102
RTVSPost2010Prop43
 90
        3
102
RTVSPost2010PropOp43
 70
     1
102
RTVSPost2010Prop44ColorIndex
 90
        5
102
RTVSPost2010Prop44ColorRGB
 90
      255
102
RTVSPost2010PropOp44
 70
     1
102
RTVSPost2010Prop45
280
     0
102
RTVSPost2010PropOp45
 70
     1
102
RTVSPost2010Prop46
 90
       50
102
RTVSPost2010PropOp46
 70
     1
102
RTVSPost2010Prop47
 90
       50
102
RTVSPost2010PropOp47
 70
     1
102
RTVSPost2010Prop48
 90
       50
102
RTVSPost2010PropOp48
 70
     1
102
RTVSPost2010Prop49
280
     0
102
RTVSPost2010PropOp49
 70
     1
102
RTVSPost2010Prop50
 90
       50
102
RTVSPost2010PropOp50
 70
     1
102
RTVSPost2010Prop51ColorIndex
 90
      256
102
RTVSPost2010Prop51ColorRGB
 90
-16777216
102
RTVSPost2010PropOp51
 70
     0
102
RTVSPost2010Prop52
140
1.0
102
RTVSPost2010PropOp52
 70
     0
102
RTVSPost2010Prop53
 90
        2
102
RTVSPost2010PropOp53
 70
     1
102
RTVSPost2010Prop54
  1
strokes_ogs.tif
102
RTVSPost2010PropOp54
 70
     1
102
RTVSPost2010Prop55
280
     0
102
RTVSPost2010PropOp55
 70
     1
102
RTVSPost2010Prop56
140
1.0
102
RTVSPost2010PropOp56
 70
     1
102
RTVSPost2010Prop57
140
1.0
102
RTVSPost2010PropOp57
 70
     1
102
RTVSPropertyOp0
 70
     1
102
RTVSPropertyOp1
 70
     1
102
RTVSPropertyOp2
 70
     1
102
RTVSPropertyOp3
 70
     1
102
RTVSPropertyOp4
 70
     1
102
RTVSPropertyOp5
 70
     1
102
RTVSPropertyOp6
 70
     1
102
RTVSPropertyOp7
 70
     1
102
RTVSPropertyOp8
 70
     1
102
RTVSPropertyOp9
 70
     1
102
RTVSPropertyOp10
 70
     1
102
RTVSPropertyOp11
 70
     1
102
RTVSPropertyOp12
 70
     1
102
RTVSPropertyOp13
 70
     1
102
RTVSPropertyOp14
 70
     1
102
RTVSPropertyOp15
 70
     1
102
RTVSPropertyOp16
 70
     1
102
RTVSPropertyOp17
 70
     1
102
RTVSPropertyOp18
 70
     1
102
RTVSPropertyOp19
 70
     1
102
RTVSPropertyOp20
 70
     1
102
RTVSPropertyOp21
 70
     1
102
RTVSPropertyOp22
 70
     1
102
RTVSPropertyOp23
 70
     1
102
RTVSPropertyOp24
 70
     1
102
RTVSPropertyOp25
 70
     1
102
RTVSPropertyOp26
 70
     1
102
RTVSPropertyOp27
 70
     1
102
RTVSPropertyOp28
 70
     1
102
RTVSPropertyOp29
 70
     1
102
RTVSPropertyOp30
 70
     1
102
RTVSPropertyOp31
 70
     1
102
RTVSPropertyOp32
 70
     1
102
RTVSPropertyOp33
 70
     1
102
RTVSPropertyOp34
 70
     1
102
RTVSPropertyOp35
 70
     1
102
RTVSPropertyOp36
 70
     1
102
RTVSPropertyOp37
 70
     1
102
RTVSPropertyOp38
 70
     1
102
RTVSPropertyOp39
 70
     1
102
RTVSPropertyOp40
 70
     1
102
RTVSPropertyOp41
 70
     1
102
RTVSPropertyOp42
 70
     1
102
RTVSPropertyOp43
 70
     1
102
RTVSPropertyOp44
 70
     1
102
RTVSPropertyOp45
 70
     1
102
RTVSPropertyOp46
 70
     1
102
RTVSPropertyOp47
 70
     1
102
RTVSPropertyOp48
 70
     1
102
RTVSPropertyOp49
 70
     1
102
RTVSPropertyOp50
 70
     1
102
RTVSPropertyOp51
 70
     0
102
RTVSPropertyOp52
 70
     0
102
RTVSPropertyOp53
 70
     1
102
RTVSPropertyOp54
 70
     1
102
RTVSPropertyOp55
 70
     1
102
RTVSPropertyOp56
 70
     1
102
RTVSPropertyOp57
 70
     1
102
RTVSPropertyOp58
 70
     1
102
RTVSPropertyOp59
 70
     1
102
RTVSPropertyOp60
 70
     1
102
RTVSPropertyOp61
 70
     1
102
RTVSPropertyOp62
 70
     1
  0
XRECORD
  5
74D
102
{ACAD_REACTORS
330
74C
102
}
330
74C
100
AcDbXrecord
280
     1
102
RTVSPost2010Prop28
280
     0
102
RTVSPost2010PropOp28
 70
     1
102
RTVSPost2010Prop29
280
     1
102
RTVSPost2010PropOp29
 70
     1
102
RTVSPost2010Prop30
280
     1
102
RTVSPost2010PropOp30
 70
     1
102
RTVSPost2010Prop31
280
     0
102
RTVSPost2010PropOp31
 70
     1
102
RTVSPost2010Prop32
280
     0
102
RTVSPost2010PropOp32
 70
     1
102
RTVSPost2010Prop33
280
     0
102
RTVSPost2010PropOp33
 70
     1
102
RTVSPost2010Prop34
280
     0
102
RTVSPost2010PropOp34
 70
     1
102
RTVSPost2010Prop35
280
     0
102
RTVSPost2010PropOp35
 70
     1
102
RTVSPost2010Prop36
280
     0
102
RTVSPost2010PropOp36
 70
     1
102
RTVSPost2010Prop37
 90
       50
102
RTVSPost2010PropOp37
 70
     1
102
RTVSPost2010Prop38
140
0.0
102
RTVSPost2010PropOp38
 70
     1
102
RTVSPost2010Prop39
140
1.0
102
RTVSPost2010PropOp39
 70
     1
102
RTVSPost2010Prop40
 90
        0
102
RTVSPost2010PropOp40
 70
     1
102
RTVSPost2010Prop41ColorIndex
 90
       18
102
RTVSPost2010Prop41ColorRGB
 90
        0
102
RTVSPost2010PropOp41
 70
     1
102
RTVSPost2010Prop42
 90
       50
102
RTVSPost2010PropOp42
 70
     1
102
RTVSPost2010Prop43
 90
        3
102
RTVSPost2010PropOp43
 70
     1
102
RTVSPost2010Prop44ColorIndex
 90
        5
102
RTVSPost2010Prop44ColorRGB
 90
      255
102
RTVSPost2010PropOp44
 70
     1
102
RTVSPost2010Prop45
280
     0
102
RTVSPost2010PropOp45
 70
     1
102
RTVSPost2010Prop46
 90
       50
102
RTVSPost2010PropOp46
 70
     1
102
RTVSPost2010Prop47
 90
       50
102
RTVSPost2010PropOp47
 70
     1
102
RTVSPost2010Prop48
 90
       50
102
RTVSPost2010PropOp48
 70
     1
102
RTVSPost2010Prop49
280
     0
102
RTVSPost2010PropOp49
 70
     1
102
RTVSPost2010Prop50
 90
       50
102
RTVSPost2010PropOp50
 70
     1
102
RTVSPost2010Prop51ColorIndex
 90
      256
102
RTVSPost2010Prop51ColorRGB
 90
-16777216
102
RTVSPost2010PropOp51
 70
     0
102
RTVSPost2010Prop52
140
1.0
102
RTVSPost2010PropOp52
 70
     0
102
RTVSPost2010Prop53
 90
        2
102
RTVSPost2010PropOp53
 70
     1
102
RTVSPost2010Prop54
  1
strokes_ogs.tif
102
RTVSPost2010PropOp54
 70
     1
102
RTVSPost2010Prop55
280
     0
102
RTVSPost2010PropOp55
 70
     1
102
RTVSPost2010Prop56
140
1.0
102
RTVSPost2010PropOp56
 70
     1
102
RTVSPost2010Prop57
140
1.0
102
RTVSPost2010PropOp57
 70
     1
102
RTVSPropertyOp0
 70
     1
102
RTVSPropertyOp1
 70
     1
102
RTVSPropertyOp2
 70
     1
102
RTVSPropertyOp3
 70
     1
102
RTVSPropertyOp4
 70
     1
102
RTVSPropertyOp5
 70
     1
102
RTVSPropertyOp6
 70
     1
102
RTVSPropertyOp7
 70
     1
102
RTVSPropertyOp8
 70
     1
102
RTVSPropertyOp9
 70
     1
102
RTVSPropertyOp10
 70
     1
102
RTVSPropertyOp11
 70
     1
102
RTVSPropertyOp12
 70
     1
102
RTVSPropertyOp13
 70
     1
102
RTVSPropertyOp14
 70
     1
102
RTVSPropertyOp15
 70
     1
102
RTVSPropertyOp16
 70
     1
102
RTVSPropertyOp17
 70
     1
102
RTVSPropertyOp18
 70
     1
102
RTVSPropertyOp19
 70
     1
102
RTVSPropertyOp20
 70
     1
102
RTVSPropertyOp21
 70
     1
102
RTVSPropertyOp22
 70
     1
102
RTVSPropertyOp23
 70
     1
102
RTVSPropertyOp24
 70
     1
102
RTVSPropertyOp25
 70
     1
102
RTVSPropertyOp26
 70
     1
102
RTVSPropertyOp27
 70
     1
102
RTVSPropertyOp28
 70
     1
102
RTVSPropertyOp29
 70
     1
102
RTVSPropertyOp30
 70
     1
102
RTVSPropertyOp31
 70
     1
102
RTVSPropertyOp32
 70
     1
102
RTVSPropertyOp33
 70
     1
102
RTVSPropertyOp34
 70
     1
102
RTVSPropertyOp35
 70
     1
102
RTVSPropertyOp36
 70
     1
102
RTVSPropertyOp37
 70
     1
102
RTVSPropertyOp38
 70
     1
102
RTVSPropertyOp39
 70
     1
102
RTVSPropertyOp40
 70
     1
102
RTVSPropertyOp41
 70
     1
102
RTVSPropertyOp42
 70
     1
102
RTVSPropertyOp43
 70
     1
102
RTVSPropertyOp44
 70
     1
102
RTVSPropertyOp45
 70
     1
102
RTVSPropertyOp46
 70
     1
102
RTVSPropertyOp47
 70
     1
102
RTVSPropertyOp48
 70
     1
102
RTVSPropertyOp49
 70
     1
102
RTVSPropertyOp50
 70
     1
102
RTVSPropertyOp51
 70
     0
102
RTVSPropertyOp52
 70
     0
102
RTVSPropertyOp53
 70
     1
102
RTVSPropertyOp54
 70
     1
102
RTVSPropertyOp55
 70
     1
102
RTVSPropertyOp56
 70
     1
102
RTVSPropertyOp57
 70
     1
102
RTVSPropertyOp58
 70
     1
102
RTVSPropertyOp59
 70
     1
102
RTVSPropertyOp60
 70
     1
102
RTVSPropertyOp61
 70
     1
102
RTVSPropertyOp62
 70
     1
  0
XRECORD
  5
74F
102
{ACAD_REACTORS
330
74E
102
}
330
74E
100
AcDbXrecord
280
     1
102
RTVSPost2010Prop28
280
     0
102
RTVSPost2010PropOp28
 70
     1
102
RTVSPost2010Prop29
280
     1
102
RTVSPost2010PropOp29
 70
     1
102
RTVSPost2010Prop30
280
     1
102
RTVSPost2010PropOp30
 70
     1
102
RTVSPost2010Prop31
280
     0
102
RTVSPost2010PropOp31
 70
     1
102
RTVSPost2010Prop32
280
     0
102
RTVSPost2010PropOp32
 70
     1
102
RTVSPost2010Prop33
280
     0
102
RTVSPost2010PropOp33
 70
     1
102
RTVSPost2010Prop34
280
     0
102
RTVSPost2010PropOp34
 70
     1
102
RTVSPost2010Prop35
280
     0
102
RTVSPost2010PropOp35
 70
     1
102
RTVSPost2010Prop36
280
     0
102
RTVSPost2010PropOp36
 70
     1
102
RTVSPost2010Prop37
 90
       50
102
RTVSPost2010PropOp37
 70
     1
102
RTVSPost2010Prop38
140
0.0
102
RTVSPost2010PropOp38
 70
     1
102
RTVSPost2010Prop39
140
1.0
102
RTVSPost2010PropOp39
 70
     1
102
RTVSPost2010Prop40
 90
        0
102
RTVSPost2010PropOp40
 70
     1
102
RTVSPost2010Prop41ColorIndex
 90
       18
102
RTVSPost2010Prop41ColorRGB
 90
        0
102
RTVSPost2010PropOp41
 70
     1
102
RTVSPost2010Prop42
 90
       50
102
RTVSPost2010PropOp42
 70
     1
102
RTVSPost2010Prop43
 90
        3
102
RTVSPost2010PropOp43
 70
     1
102
RTVSPost2010Prop44ColorIndex
 90
        5
102
RTVSPost2010Prop44ColorRGB
 90
      255
102
RTVSPost2010PropOp44
 70
     1
102
RTVSPost2010Prop45
280
     0
102
RTVSPost2010PropOp45
 70
     1
102
RTVSPost2010Prop46
 90
       50
102
RTVSPost2010PropOp46
 70
     1
102
RTVSPost2010Prop47
 90
       50
102
RTVSPost2010PropOp47
 70
     1
102
RTVSPost2010Prop48
 90
       50
102
RTVSPost2010PropOp48
 70
     1
102
RTVSPost2010Prop49
280
     0
102
RTVSPost2010PropOp49
 70
     1
102
RTVSPost2010Prop50
 90
       50
102
RTVSPost2010PropOp50
 70
     1
102
RTVSPost2010Prop51ColorIndex
 90
      256
102
RTVSPost2010Prop51ColorRGB
 90
-16777216
102
RTVSPost2010PropOp51
 70
     0
102
RTVSPost2010Prop52
140
1.0
102
RTVSPost2010PropOp52
 70
     0
102
RTVSPost2010Prop53
 90
        2
102
RTVSPost2010PropOp53
 70
     1
102
RTVSPost2010Prop54
  1
strokes_ogs.tif
102
RTVSPost2010PropOp54
 70
     1
102
RTVSPost2010Prop55
280
     0
102
RTVSPost2010PropOp55
 70
     1
102
RTVSPost2010Prop56
140
1.0
102
RTVSPost2010PropOp56
 70
     1
102
RTVSPost2010Prop57
140
1.0
102
RTVSPost2010PropOp57
 70
     1
102
RTVSPropertyOp0
 70
     1
102
RTVSPropertyOp1
 70
     1
102
RTVSPropertyOp2
 70
     1
102
RTVSPropertyOp3
 70
     1
102
RTVSPropertyOp4
 70
     1
102
RTVSPropertyOp5
 70
     1
102
RTVSPropertyOp6
 70
     1
102
RTVSPropertyOp7
 70
     1
102
RTVSPropertyOp8
 70
     1
102
RTVSPropertyOp9
 70
     1
102
RTVSPropertyOp10
 70
     1
102
RTVSPropertyOp11
 70
     1
102
RTVSPropertyOp12
 70
     1
102
RTVSPropertyOp13
 70
     1
102
RTVSPropertyOp14
 70
     1
102
RTVSPropertyOp15
 70
     1
102
RTVSPropertyOp16
 70
     1
102
RTVSPropertyOp17
 70
     1
102
RTVSPropertyOp18
 70
     1
102
RTVSPropertyOp19
 70
     1
102
RTVSPropertyOp20
 70
     1
102
RTVSPropertyOp21
 70
     1
102
RTVSPropertyOp22
 70
     1
102
RTVSPropertyOp23
 70
     1
102
RTVSPropertyOp24
 70
     1
102
RTVSPropertyOp25
 70
     1
102
RTVSPropertyOp26
 70
     1
102
RTVSPropertyOp27
 70
     1
102
RTVSPropertyOp28
 70
     1
102
RTVSPropertyOp29
 70
     1
102
RTVSPropertyOp30
 70
     1
102
RTVSPropertyOp31
 70
     1
102
RTVSPropertyOp32
 70
     1
102
RTVSPropertyOp33
 70
     1
102
RTVSPropertyOp34
 70
     1
102
RTVSPropertyOp35
 70
     1
102
RTVSPropertyOp36
 70
     1
102
RTVSPropertyOp37
 70
     1
102
RTVSPropertyOp38
 70
     1
102
RTVSPropertyOp39
 70
     1
102
RTVSPropertyOp40
 70
     1
102
RTVSPropertyOp41
 70
     1
102
RTVSPropertyOp42
 70
     1
102
RTVSPropertyOp43
 70
     1
102
RTVSPropertyOp44
 70
     1
102
RTVSPropertyOp45
 70
     1
102
RTVSPropertyOp46
 70
     1
102
RTVSPropertyOp47
 70
     1
102
RTVSPropertyOp48
 70
     1
102
RTVSPropertyOp49
 70
     1
102
RTVSPropertyOp50
 70
     1
102
RTVSPropertyOp51
 70
     0
102
RTVSPropertyOp52
 70
     0
102
RTVSPropertyOp53
 70
     1
102
RTVSPropertyOp54
 70
     1
102
RTVSPropertyOp55
 70
     1
102
RTVSPropertyOp56
 70
     1
102
RTVSPropertyOp57
 70
     1
102
RTVSPropertyOp58
 70
     1
102
RTVSPropertyOp59
 70
     1
102
RTVSPropertyOp60
 70
     1
102
RTVSPropertyOp61
 70
     1
102
RTVSPropertyOp62
 70
     1
  0
XRECORD
  5
73F
102
{ACAD_REACTORS
330
73E
102
}
330
73E
100
AcDbXrecord
280
     1
102
RTVSPost2010Prop28
280
     0
102
RTVSPost2010PropOp28
 70
     1
102
RTVSPost2010Prop29
280
     1
102
RTVSPost2010PropOp29
 70
     1
102
RTVSPost2010Prop30
280
     1
102
RTVSPost2010PropOp30
 70
     1
102
RTVSPost2010Prop31
280
     0
102
RTVSPost2010PropOp31
 70
     1
102
RTVSPost2010Prop32
280
     0
102
RTVSPost2010PropOp32
 70
     1
102
RTVSPost2010Prop33
280
     0
102
RTVSPost2010PropOp33
 70
     1
102
RTVSPost2010Prop34
280
     0
102
RTVSPost2010PropOp34
 70
     1
102
RTVSPost2010Prop35
280
     0
102
RTVSPost2010PropOp35
 70
     1
102
RTVSPost2010Prop36
280
     0
102
RTVSPost2010PropOp36
 70
     1
102
RTVSPost2010Prop37
 90
       50
102
RTVSPost2010PropOp37
 70
     1
102
RTVSPost2010Prop38
140
0.0
102
RTVSPost2010PropOp38
 70
     1
102
RTVSPost2010Prop39
140
1.0
102
RTVSPost2010PropOp39
 70
     1
102
RTVSPost2010Prop40
 90
        0
102
RTVSPost2010PropOp40
 70
     1
102
RTVSPost2010Prop41ColorIndex
 90
       18
102
RTVSPost2010Prop41ColorRGB
 90
        0
102
RTVSPost2010PropOp41
 70
     1
102
RTVSPost2010Prop42
 90
       50
102
RTVSPost2010PropOp42
 70
     1
102
RTVSPost2010Prop43
 90
        3
102
RTVSPost2010PropOp43
 70
     1
102
RTVSPost2010Prop44ColorIndex
 90
        5
102
RTVSPost2010Prop44ColorRGB
 90
      255
102
RTVSPost2010PropOp44
 70
     1
102
RTVSPost2010Prop45
280
     0
102
RTVSPost2010PropOp45
 70
     1
102
RTVSPost2010Prop46
 90
       50
102
RTVSPost2010PropOp46
 70
     1
102
RTVSPost2010Prop47
 90
       50
102
RTVSPost2010PropOp47
 70
     1
102
RTVSPost2010Prop48
 90
       50
102
RTVSPost2010PropOp48
 70
     1
102
RTVSPost2010Prop49
280
     0
102
RTVSPost2010PropOp49
 70
     1
102
RTVSPost2010Prop50
 90
       50
102
RTVSPost2010PropOp50
 70
     1
102
RTVSPost2010Prop51ColorIndex
 90
      256
102
RTVSPost2010Prop51ColorRGB
 90
-16777216
102
RTVSPost2010PropOp51
 70
     0
102
RTVSPost2010Prop52
140
1.0
102
RTVSPost2010PropOp52
 70
     0
102
RTVSPost2010Prop53
 90
        2
102
RTVSPost2010PropOp53
 70
     1
102
RTVSPost2010Prop54
  1
strokes_ogs.tif
102
RTVSPost2010PropOp54
 70
     1
102
RTVSPost2010Prop55
280
     0
102
RTVSPost2010PropOp55
 70
     1
102
RTVSPost2010Prop56
140
1.0
102
RTVSPost2010PropOp56
 70
     1
102
RTVSPost2010Prop57
140
1.0
102
RTVSPost2010PropOp57
 70
     1
102
RTVSPropertyOp0
 70
     1
102
RTVSPropertyOp1
 70
     1
102
RTVSPropertyOp2
 70
     1
102
RTVSPropertyOp3
 70
     1
102
RTVSPropertyOp4
 70
     1
102
RTVSPropertyOp5
 70
     1
102
RTVSPropertyOp6
 70
     1
102
RTVSPropertyOp7
 70
     1
102
RTVSPropertyOp8
 70
     1
102
RTVSPropertyOp9
 70
     1
102
RTVSPropertyOp10
 70
     1
102
RTVSPropertyOp11
 70
     1
102
RTVSPropertyOp12
 70
     1
102
RTVSPropertyOp13
 70
     1
102
RTVSPropertyOp14
 70
     1
102
RTVSPropertyOp15
 70
     1
102
RTVSPropertyOp16
 70
     1
102
RTVSPropertyOp17
 70
     1
102
RTVSPropertyOp18
 70
     1
102
RTVSPropertyOp19
 70
     1
102
RTVSPropertyOp20
 70
     1
102
RTVSPropertyOp21
 70
     1
102
RTVSPropertyOp22
 70
     1
102
RTVSPropertyOp23
 70
     1
102
RTVSPropertyOp24
 70
     1
102
RTVSPropertyOp25
 70
     1
102
RTVSPropertyOp26
 70
     1
102
RTVSPropertyOp27
 70
     1
102
RTVSPropertyOp28
 70
     1
102
RTVSPropertyOp29
 70
     1
102
RTVSPropertyOp30
 70
     1
102
RTVSPropertyOp31
 70
     1
102
RTVSPropertyOp32
 70
     1
102
RTVSPropertyOp33
 70
     1
102
RTVSPropertyOp34
 70
     1
102
RTVSPropertyOp35
 70
     1
102
RTVSPropertyOp36
 70
     1
102
RTVSPropertyOp37
 70
     1
102
RTVSPropertyOp38
 70
     1
102
RTVSPropertyOp39
 70
     1
102
RTVSPropertyOp40
 70
     1
102
RTVSPropertyOp41
 70
     1
102
RTVSPropertyOp42
 70
     1
102
RTVSPropertyOp43
 70
     1
102
RTVSPropertyOp44
 70
     1
102
RTVSPropertyOp45
 70
     1
102
RTVSPropertyOp46
 70
     1
102
RTVSPropertyOp47
 70
     1
102
RTVSPropertyOp48
 70
     1
102
RTVSPropertyOp49
 70
     1
102
RTVSPropertyOp50
 70
     1
102
RTVSPropertyOp51
 70
     0
102
RTVSPropertyOp52
 70
     0
102
RTVSPropertyOp53
 70
     1
102
RTVSPropertyOp54
 70
     1
102
RTVSPropertyOp55
 70
     1
102
RTVSPropertyOp56
 70
     1
102
RTVSPropertyOp57
 70
     1
102
RTVSPropertyOp58
 70
     1
102
RTVSPropertyOp59
 70
     1
102
RTVSPropertyOp60
 70
     1
102
RTVSPropertyOp61
 70
     1
102
RTVSPropertyOp62
 70
     1
  0
XRECORD
  5
731
102
{ACAD_REACTORS
330
730
102
}
330
730
100
AcDbXrecord
280
     1
102
RTVSPost2010Prop28
280
     0
102
RTVSPost2010PropOp28
 70
     1
102
RTVSPost2010Prop29
280
     1
102
RTVSPost2010PropOp29
 70
     1
102
RTVSPost2010Prop30
280
     1
102
RTVSPost2010PropOp30
 70
     1
102
RTVSPost2010Prop31
280
     0
102
RTVSPost2010PropOp31
 70
     1
102
RTVSPost2010Prop32
280
     0
102
RTVSPost2010PropOp32
 70
     1
102
RTVSPost2010Prop33
280
     0
102
RTVSPost2010PropOp33
 70
     1
102
RTVSPost2010Prop34
280
     0
102
RTVSPost2010PropOp34
 70
     1
102
RTVSPost2010Prop35
280
     0
102
RTVSPost2010PropOp35
 70
     1
102
RTVSPost2010Prop36
280
     0
102
RTVSPost2010PropOp36
 70
     1
102
RTVSPost2010Prop37
 90
       50
102
RTVSPost2010PropOp37
 70
     1
102
RTVSPost2010Prop38
140
0.0
102
RTVSPost2010PropOp38
 70
     1
102
RTVSPost2010Prop39
140
1.0
102
RTVSPost2010PropOp39
 70
     1
102
RTVSPost2010Prop40
 90
        0
102
RTVSPost2010PropOp40
 70
     1
102
RTVSPost2010Prop41ColorIndex
 90
       18
102
RTVSPost2010Prop41ColorRGB
 90
        0
102
RTVSPost2010PropOp41
 70
     1
102
RTVSPost2010Prop42
 90
       50
102
RTVSPost2010PropOp42
 70
     1
102
RTVSPost2010Prop43
 90
        3
102
RTVSPost2010PropOp43
 70
     1
102
RTVSPost2010Prop44ColorIndex
 90
        5
102
RTVSPost2010Prop44ColorRGB
 90
      255
102
RTVSPost2010PropOp44
 70
     1
102
RTVSPost2010Prop45
280
     0
102
RTVSPost2010PropOp45
 70
     1
102
RTVSPost2010Prop46
 90
       50
102
RTVSPost2010PropOp46
 70
     1
102
RTVSPost2010Prop47
 90
       50
102
RTVSPost2010PropOp47
 70
     1
102
RTVSPost2010Prop48
 90
       50
102
RTVSPost2010PropOp48
 70
     1
102
RTVSPost2010Prop49
280
     0
102
RTVSPost2010PropOp49
 70
     1
102
RTVSPost2010Prop50
 90
       50
102
RTVSPost2010PropOp50
 70
     1
102
RTVSPost2010Prop51ColorIndex
 90
      256
102
RTVSPost2010Prop51ColorRGB
 90
-16777216
102
RTVSPost2010PropOp51
 70
     0
102
RTVSPost2010Prop52
140
1.0
102
RTVSPost2010PropOp52
 70
     0
102
RTVSPost2010Prop53
 90
        2
102
RTVSPost2010PropOp53
 70
     1
102
RTVSPost2010Prop54
  1
strokes_ogs.tif
102
RTVSPost2010PropOp54
 70
     1
102
RTVSPost2010Prop55
280
     0
102
RTVSPost2010PropOp55
 70
     1
102
RTVSPost2010Prop56
140
1.0
102
RTVSPost2010PropOp56
 70
     1
102
RTVSPost2010Prop57
140
1.0
102
RTVSPost2010PropOp57
 70
     1
102
RTVSPropertyOp0
 70
     1
102
RTVSPropertyOp1
 70
     1
102
RTVSPropertyOp2
 70
     1
102
RTVSPropertyOp3
 70
     1
102
RTVSPropertyOp4
 70
     1
102
RTVSPropertyOp5
 70
     1
102
RTVSPropertyOp6
 70
     1
102
RTVSPropertyOp7
 70
     1
102
RTVSPropertyOp8
 70
     1
102
RTVSPropertyOp9
 70
     1
102
RTVSPropertyOp10
 70
     1
102
RTVSPropertyOp11
 70
     1
102
RTVSPropertyOp12
 70
     1
102
RTVSPropertyOp13
 70
     1
102
RTVSPropertyOp14
 70
     1
102
RTVSPropertyOp15
 70
     1
102
RTVSPropertyOp16
 70
     1
102
RTVSPropertyOp17
 70
     1
102
RTVSPropertyOp18
 70
     1
102
RTVSPropertyOp19
 70
     1
102
RTVSPropertyOp20
 70
     1
102
RTVSPropertyOp21
 70
     1
102
RTVSPropertyOp22
 70
     1
102
RTVSPropertyOp23
 70
     1
102
RTVSPropertyOp24
 70
     1
102
RTVSPropertyOp25
 70
     1
102
RTVSPropertyOp26
 70
     1
102
RTVSPropertyOp27
 70
     1
102
RTVSPropertyOp28
 70
     1
102
RTVSPropertyOp29
 70
     1
102
RTVSPropertyOp30
 70
     1
102
RTVSPropertyOp31
 70
     1
102
RTVSPropertyOp32
 70
     1
102
RTVSPropertyOp33
 70
     1
102
RTVSPropertyOp34
 70
     1
102
RTVSPropertyOp35
 70
     1
102
RTVSPropertyOp36
 70
     1
102
RTVSPropertyOp37
 70
     1
102
RTVSPropertyOp38
 70
     1
102
RTVSPropertyOp39
 70
     1
102
RTVSPropertyOp40
 70
     1
102
RTVSPropertyOp41
 70
     1
102
RTVSPropertyOp42
 70
     1
102
RTVSPropertyOp43
 70
     1
102
RTVSPropertyOp44
 70
     1
102
RTVSPropertyOp45
 70
     1
102
RTVSPropertyOp46
 70
     1
102
RTVSPropertyOp47
 70
     1
102
RTVSPropertyOp48
 70
     1
102
RTVSPropertyOp49
 70
     1
102
RTVSPropertyOp50
 70
     1
102
RTVSPropertyOp51
 70
     0
102
RTVSPropertyOp52
 70
     0
102
RTVSPropertyOp53
 70
     1
102
RTVSPropertyOp54
 70
     1
102
RTVSPropertyOp55
 70
     1
102
RTVSPropertyOp56
 70
     1
102
RTVSPropertyOp57
 70
     1
102
RTVSPropertyOp58
 70
     1
102
RTVSPropertyOp59
 70
     1
102
RTVSPropertyOp60
 70
     1
102
RTVSPropertyOp61
 70
     1
102
RTVSPropertyOp62
 70
     1
  0
XRECORD
  5
751
102
{ACAD_REACTORS
330
750
102
}
330
750
100
AcDbXrecord
280
     1
102
RTVSPost2010Prop28
280
     0
102
RTVSPost2010PropOp28
 70
     1
102
RTVSPost2010Prop29
280
     1
102
RTVSPost2010PropOp29
 70
     1
102
RTVSPost2010Prop30
280
     1
102
RTVSPost2010PropOp30
 70
     1
102
RTVSPost2010Prop31
280
     0
102
RTVSPost2010PropOp31
 70
     1
102
RTVSPost2010Prop32
280
     0
102
RTVSPost2010PropOp32
 70
     1
102
RTVSPost2010Prop33
280
     0
102
RTVSPost2010PropOp33
 70
     1
102
RTVSPost2010Prop34
280
     0
102
RTVSPost2010PropOp34
 70
     1
102
RTVSPost2010Prop35
280
     0
102
RTVSPost2010PropOp35
 70
     1
102
RTVSPost2010Prop36
280
     0
102
RTVSPost2010PropOp36
 70
     1
102
RTVSPost2010Prop37
 90
       50
102
RTVSPost2010PropOp37
 70
     1
102
RTVSPost2010Prop38
140
0.0
102
RTVSPost2010PropOp38
 70
     1
102
RTVSPost2010Prop39
140
1.0
102
RTVSPost2010PropOp39
 70
     1
102
RTVSPost2010Prop40
 90
        0
102
RTVSPost2010PropOp40
 70
     1
102
RTVSPost2010Prop41ColorIndex
 90
       18
102
RTVSPost2010Prop41ColorRGB
 90
        0
102
RTVSPost2010PropOp41
 70
     1
102
RTVSPost2010Prop42
 90
       50
102
RTVSPost2010PropOp42
 70
     1
102
RTVSPost2010Prop43
 90
        3
102
RTVSPost2010PropOp43
 70
     1
102
RTVSPost2010Prop44ColorIndex
 90
        5
102
RTVSPost2010Prop44ColorRGB
 90
      255
102
RTVSPost2010PropOp44
 70
     1
102
RTVSPost2010Prop45
280
     0
102
RTVSPost2010PropOp45
 70
     1
102
RTVSPost2010Prop46
 90
       50
102
RTVSPost2010PropOp46
 70
     1
102
RTVSPost2010Prop47
 90
       50
102
RTVSPost2010PropOp47
 70
     1
102
RTVSPost2010Prop48
 90
       50
102
RTVSPost2010PropOp48
 70
     1
102
RTVSPost2010Prop49
280
     0
102
RTVSPost2010PropOp49
 70
     1
102
RTVSPost2010Prop50
 90
       50
102
RTVSPost2010PropOp50
 70
     1
102
RTVSPost2010Prop51ColorIndex
 90
      256
102
RTVSPost2010Prop51ColorRGB
 90
-16777216
102
RTVSPost2010PropOp51
 70
     0
102
RTVSPost2010Prop52
140
1.0
102
RTVSPost2010PropOp52
 70
     0
102
RTVSPost2010Prop53
 90
        2
102
RTVSPost2010PropOp53
 70
     1
102
RTVSPost2010Prop54
  1
strokes_ogs.tif
102
RTVSPost2010PropOp54
 70
     1
102
RTVSPost2010Prop55
280
     0
102
RTVSPost2010PropOp55
 70
     1
102
RTVSPost2010Prop56
140
1.0
102
RTVSPost2010PropOp56
 70
     1
102
RTVSPost2010Prop57
140
1.0
102
RTVSPost2010PropOp57
 70
     1
102
RTVSPropertyOp0
 70
     1
102
RTVSPropertyOp1
 70
     1
102
RTVSPropertyOp2
 70
     1
102
RTVSPropertyOp3
 70
     1
102
RTVSPropertyOp4
 70
     1
102
RTVSPropertyOp5
 70
     1
102
RTVSPropertyOp6
 70
     1
102
RTVSPropertyOp7
 70
     1
102
RTVSPropertyOp8
 70
     1
102
RTVSPropertyOp9
 70
     1
102
RTVSPropertyOp10
 70
     1
102
RTVSPropertyOp11
 70
     1
102
RTVSPropertyOp12
 70
     1
102
RTVSPropertyOp13
 70
     1
102
RTVSPropertyOp14
 70
     1
102
RTVSPropertyOp15
 70
     1
102
RTVSPropertyOp16
 70
     1
102
RTVSPropertyOp17
 70
     1
102
RTVSPropertyOp18
 70
     1
102
RTVSPropertyOp19
 70
     1
102
RTVSPropertyOp20
 70
     1
102
RTVSPropertyOp21
 70
     1
102
RTVSPropertyOp22
 70
     1
102
RTVSPropertyOp23
 70
     1
102
RTVSPropertyOp24
 70
     1
102
RTVSPropertyOp25
 70
     1
102
RTVSPropertyOp26
 70
     1
102
RTVSPropertyOp27
 70
     1
102
RTVSPropertyOp28
 70
     1
102
RTVSPropertyOp29
 70
     1
102
RTVSPropertyOp30
 70
     1
102
RTVSPropertyOp31
 70
     1
102
RTVSPropertyOp32
 70
     1
102
RTVSPropertyOp33
 70
     1
102
RTVSPropertyOp34
 70
     1
102
RTVSPropertyOp35
 70
     1
102
RTVSPropertyOp36
 70
     1
102
RTVSPropertyOp37
 70
     1
102
RTVSPropertyOp38
 70
     1
102
RTVSPropertyOp39
 70
     1
102
RTVSPropertyOp40
 70
     1
102
RTVSPropertyOp41
 70
     1
102
RTVSPropertyOp42
 70
     1
102
RTVSPropertyOp43
 70
     1
102
RTVSPropertyOp44
 70
     1
102
RTVSPropertyOp45
 70
     1
102
RTVSPropertyOp46
 70
     1
102
RTVSPropertyOp47
 70
     1
102
RTVSPropertyOp48
 70
     1
102
RTVSPropertyOp49
 70
     1
102
RTVSPropertyOp50
 70
     1
102
RTVSPropertyOp51
 70
     0
102
RTVSPropertyOp52
 70
     0
102
RTVSPropertyOp53
 70
     1
102
RTVSPropertyOp54
 70
     1
102
RTVSPropertyOp55
 70
     1
102
RTVSPropertyOp56
 70
     1
102
RTVSPropertyOp57
 70
     1
102
RTVSPropertyOp58
 70
     1
102
RTVSPropertyOp59
 70
     1
102
RTVSPropertyOp60
 70
     1
102
RTVSPropertyOp61
 70
     1
102
RTVSPropertyOp62
 70
     1
  0
ENDSEC
  0
EOF
