  0
SECTION
  2
HEADER
  9
$ACADVER
  1
AC1015
  9
$ACADMAINTVER
 70
    20
  9
$DWGCODEPAGE
  3
ANSI_932
  9
$INSBASE
 10
0.0
 20
0.0
 30
0.0
  9
$EXTMIN
 10
50.47631012926547
 20
23.8157764019395
 30
0.0
  9
$EXTMAX
 10
2796.945759845065
 20
2197.45465185731
 30
0.0
  9
$LIMMIN
 10
-836.9292449951171
 20
-1262.300933837891
  9
$LIMMAX
 10
1653.181989323203
 20
727.3375244140623
  9
$ORTHOMODE
 70
     0
  9
$REGENMODE
 70
     1
  9
$FILLMODE
 70
     1
  9
$QTEXTMODE
 70
     0
  9
$MIRRTEXT
 70
     1
  9
$LTSCALE
 40
0.3379358486866388
  9
$ATTMODE
 70
     1
  9
$TEXTSIZE
 40
2.5
  9
$TRACEWID
 40
1.0
  9
$TEXTSTYLE
  7
Standard
  9
$CLAYER
  8
0
  9
$CELTYPE
  6
ByLayer
  9
$CECOLOR
 62
   256
  9
$CELTSCALE
 40
1.0
  9
$DISPSILH
 70
     0
  9
$DIMSCALE
 40
1.0
  9
$DIMASZ
 40
2.5
  9
$DIMEXO
 40
0.625
  9
$DIMDLI
 40
3.75
  9
$DIMRND
 40
0.0
  9
$DIMDLE
 40
0.0
  9
$DIMEXE
 40
1.25
  9
$DIMTP
 40
0.0
  9
$DIMTM
 40
0.0
  9
$DIMTXT
 40
2.5
  9
$DIMCEN
 40
2.5
  9
$DIMTSZ
 40
0.0
  9
$DIMTOL
 70
     0
  9
$DIMLIM
 70
     0
  9
$DIMTIH
 70
     0
  9
$DIMTOH
 70
     0
  9
$DIMSE1
 70
     0
  9
$DIMSE2
 70
     0
  9
$DIMTAD
 70
     1
  9
$DIMZIN
 70
     0
  9
$DIMBLK
  1

  9
$DIMASO
 70
     1
  9
$DIMSHO
 70
     1
  9
$DIMPOST
  1

  9
$DIMAPOST
  1

  9
$DIMALT
 70
     0
  9
$DIMALTD
 70
     3
  9
$DIMALTF
 40
0.03937007874016
  9
$DIMLFAC
 40
1.0
  9
$DIMTOFL
 70
     1
  9
$DIMTVP
 40
0.0
  9
$DIMTIX
 70
     0
  9
$DIMSOXD
 70
     0
  9
$DIMSAH
 70
     0
  9
$DIMBLK1
  1

  9
$DIMBLK2
  1

  9
$DIMSTYLE
  2
Standard
  9
$DIMCLRD
 70
     0
  9
$DIMCLRE
 70
     0
  9
$DIMCLRT
 70
     0
  9
$DIMTFAC
 40
0.75
  9
$DIMGAP
 40
0.625
  9
$DIMJUST
 70
     0
  9
$DIMSD1
 70
     0
  9
$DIMSD2
 70
     0
  9
$DIMTOLJ
 70
     0
  9
$DIMTZIN
 70
     8
  9
$DIMALTZ
 70
     0
  9
$DIMALTTZ
 70
     0
  9
$DIMUPT
 70
     0
  9
$DIMDEC
 70
     2
  9
$DIMTDEC
 70
     2
  9
$DIMALTU
 70
     2
  9
$DIMALTTD
 70
     3
  9
$DIMTXSTY
  7
Standard
  9
$DIMAUNIT
 70
     0
  9
$DIMADEC
 70
     0
  9
$DIMALTRND
 40
0.0
  9
$DIMAZIN
 70
     0
  9
$DIMDSEP
 70
    46
  9
$DIMATFIT
 70
     3
  9
$DIMFRAC
 70
     0
  9
$DIMLDRBLK
  1

  9
$DIMLUNIT
 70
     2
  9
$DIMLWD
 70
    -2
  9
$DIMLWE
 70
    -2
  9
$DIMTMOVE
 70
     0
  9
$LUNITS
 70
     2
  9
$LUPREC
 70
     4
  9
$SKETCHINC
 40
1.0
  9
$FILLETRAD
 40
0.0
  9
$AUNITS
 70
     0
  9
$AUPREC
 70
     0
  9
$MENU
  1
.
  9
$ELEVATION
 40
0.0
  9
$PELEVATION
 40
0.0
  9
$THICKNESS
 40
0.0
  9
$LIMCHECK
 70
     0
  9
$CHAMFERA
 40
10.0
  9
$CHAMFERB
 40
10.0
  9
$CHAMFERC
 40
20.0
  9
$CHAMFERD
 40
0.0
  9
$SKPOLY
 70
     0
  9
$TDCREATE
 40
2455188.750000000
  9
$TDUCREATE
 40
2455188.375000000
  9
$TDUPDATE
 40
2459744.671412778
  9
$TDUUPDATE
 40
2459744.296412778
  9
$TDINDWG
 40
0.0068346644
  9
$TDUSRTIMER
 40
0.0068345023
  9
$USRTIMER
 70
     1
  9
$ANGBASE
 50
0.0
  9
$ANGDIR
 70
     0
  9
$PDMODE
 70
     0
  9
$PDSIZE
 40
0.0
  9
$PLINEWID
 40
0.0
  9
$SPLFRAME
 70
     0
  9
$SPLINETYPE
 70
     6
  9
$SPLINESEGS
 70
     8
  9
$HANDSEED
  5
716
  9
$SURFTAB1
 70
     6
  9
$SURFTAB2
 70
     6
  9
$SURFTYPE
 70
     6
  9
$SURFU
 70
     6
  9
$SURFV
 70
     6
  9
$UCSBASE
  2

  9
$UCSNAME
  2

  9
$UCSORG
 10
0.0
 20
0.0
 30
0.0
  9
$UCSXDIR
 10
1.0
 20
0.0
 30
0.0
  9
$UCSYDIR
 10
0.0
 20
1.0
 30
0.0
  9
$UCSORTHOREF
  2

  9
$UCSORTHOVIEW
 70
     0
  9
$UCSORGTOP
 10
0.0
 20
0.0
 30
0.0
  9
$UCSORGBOTTOM
 10
0.0
 20
0.0
 30
0.0
  9
$UCSORGLEFT
 10
0.0
 20
0.0
 30
0.0
  9
$UCSORGRIGHT
 10
0.0
 20
0.0
 30
0.0
  9
$UCSORGFRONT
 10
0.0
 20
0.0
 30
0.0
  9
$UCSORGBACK
 10
0.0
 20
0.0
 30
0.0
  9
$PUCSBASE
  2

  9
$PUCSNAME
  2

  9
$PUCSORG
 10
0.0
 20
0.0
 30
0.0
  9
$PUCSXDIR
 10
1.0
 20
0.0
 30
0.0
  9
$PUCSYDIR
 10
0.0
 20
1.0
 30
0.0
  9
$PUCSORTHOREF
  2

  9
$PUCSORTHOVIEW
 70
     0
  9
$PUCSORGTOP
 10
0.0
 20
0.0
 30
0.0
  9
$PUCSORGBOTTOM
 10
0.0
 20
0.0
 30
0.0
  9
$PUCSORGLEFT
 10
0.0
 20
0.0
 30
0.0
  9
$PUCSORGRIGHT
 10
0.0
 20
0.0
 30
0.0
  9
$PUCSORGFRONT
 10
0.0
 20
0.0
 30
0.0
  9
$PUCSORGBACK
 10
0.0
 20
0.0
 30
0.0
  9
$USERI1
 70
     0
  9
$USERI2
 70
     0
  9
$USERI3
 70
     0
  9
$USERI4
 70
     0
  9
$USERI5
 70
     0
  9
$USERR1
 40
0.0
  9
$USERR2
 40
0.0
  9
$USERR3
 40
0.0
  9
$USERR4
 40
0.0
  9
$USERR5
 40
0.0
  9
$WORLDVIEW
 70
     1
  9
$SHADEDGE
 70
     3
  9
$SHADEDIF
 70
    70
  9
$TILEMODE
 70
     1
  9
$MAXACTVP
 70
    64
  9
$PINSBASE
 10
0.0
 20
0.0
 30
0.0
  9
$PLIMCHECK
 70
     0
  9
$PEXTMIN
 10
1.000000000000000E+20
 20
1.000000000000000E+20
 30
1.000000000000000E+20
  9
$PEXTMAX
 10
-1.000000000000000E+20
 20
-1.000000000000000E+20
 30
-1.000000000000000E+20
  9
$PLIMMIN
 10
0.0
 20
0.0
  9
$PLIMMAX
 10
420.0
 20
297.0
  9
$UNITMODE
 70
     0
  9
$VISRETAIN
 70
     1
  9
$PLINEGEN
 70
     0
  9
$PSLTSCALE
 70
     1
  9
$TREEDEPTH
 70
  3020
  9
$CMLSTYLE
  2
Standard
  9
$CMLJUST
 70
     0
  9
$CMLSCALE
 40
20.0
  9
$PROXYGRAPHICS
 70
     1
  9
$MEASUREMENT
 70
     1
  9
$CELWEIGHT
370
    -1
  9
$ENDCAPS
280
     0
  9
$JOINSTYLE
280
     0
  9
$LWDISPLAY
290
     0
  9
$INSUNITS
 70
     4
  9
$HYPERLINKBASE
  1

  9
$STYLESHEET
  1

  9
$XEDIT
290
     1
  9
$CEPSNTYPE
380
     0
  9
$PSTYLEMODE
290
     1
  9
$FINGERPRINTGUID
  2
{DDB29D48-C223-4E36-A799-8A4D40109FA4}
  9
$VERSIONGUID
  2
{FEBF2DCB-3F8C-4D0F-BCB2-56A09D207E75}
  9
$EXTNAMES
290
     1
  9
$PSVPSCALE
 40
0.0
  9
$OLESTARTUP
290
     0
  0
ENDSEC
  0
SECTION
  2
CLASSES
  0
CLASS
  1
ACDBDICTIONARYWDFLT
  2
AcDbDictionaryWithDefault
  3
ObjectDBX Classes
 90
        0
280
     0
281
     0
  0
CLASS
  1
VISUALSTYLE
  2
AcDbVisualStyle
  3
ObjectDBX Classes
 90
     4095
280
     0
281
     0
  0
CLASS
  1
MATERIAL
  2
AcDbMaterial
  3
ObjectDBX Classes
 90
     1153
280
     0
281
     0
  0
CLASS
  1
SCALE
  2
AcDbScale
  3
ObjectDBX Classes
 90
     1153
280
     0
281
     0
  0
CLASS
  1
TABLESTYLE
  2
AcDbTableStyle
  3
ObjectDBX Classes
 90
     4095
280
     0
281
     0
  0
CLASS
  1
MLEADERSTYLE
  2
AcDbMLeaderStyle
  3
ACDB_MLEADERSTYLE_CLASS
 90
     4095
280
     0
281
     0
  0
CLASS
  1
SUN
  2
AcDbSun
  3
SCENEOE
 90
    33921
280
     0
281
     0
  0
CLASS
  1
DICTIONARYVAR
  2
AcDbDictionaryVar
  3
ObjectDBX Classes
 90
        0
280
     0
281
     0
  0
CLASS
  1
ACDBSECTIONVIEWSTYLE
  2
AcDbSectionViewStyle
  3
ObjectDBX Classes
 90
     1025
280
     0
281
     0
  0
CLASS
  1
ACDBDETAILVIEWSTYLE
  2
AcDbDetailViewStyle
  3
ObjectDBX Classes
 90
     1025
280
     0
281
     0
  0
CLASS
  1
SORTENTSTABLE
  2
AcDbSortentsTable
  3
ObjectDBX Classes
 90
        0
280
     0
281
     0
  0
CLASS
  1
CELLSTYLEMAP
  2
AcDbCellStyleMap
  3
ObjectDBX Classes
 90
     1152
280
     0
281
     0
  0
CLASS
  1
ACDBPLACEHOLDER
  2
AcDbPlaceHolder
  3
ObjectDBX Classes
 90
        0
280
     0
281
     0
  0
CLASS
  1
LAYOUT
  2
AcDbLayout
  3
ObjectDBX Classes
 90
        0
280
     0
281
     0
  0
ENDSEC
  0
SECTION
  2
TABLES
  0
TABLE
  2
VPORT
  5
8
330
0
100
AcDbSymbolTable
 70
     1
  0
VPORT
  5
29
330
8
100
AcDbSymbolTableRecord
100
AcDbViewportTableRecord
  2
*Active
 70
     0
 10
0.0
 20
0.0
 11
1.0
 21
1.0
 12
1284.781414068983
 22
620.8408264206391
 13
0.0
 23
0.0
 14
10.0
 24
10.0
 15
10.0
 25
10.0
 16
0.0
 26
0.0
 36
1.0
 17
0.0
 27
0.0
 37
0.0
 40
1811.776475226757
 41
2.204301075268817
 42
50.0
 43
0.0
 44
0.0
 50
0.0
 51
0.0
 71
     0
 72
 20000
 73
     1
 74
     3
 75
     0
 76
     0
 77
     0
 78
     0
281
     0
 65
     1
110
0.0
120
0.0
130
0.0
111
1.0
121
0.0
131
0.0
112
0.0
122
1.0
132
0.0
 79
     0
146
0.0
1001
ACAD_NAV_VCDISPLAY
1070
     3
  0
ENDTAB
  0
TABLE
  2
LTYPE
  5
5
330
0
100
AcDbSymbolTable
 70
     2
  0
LTYPE
  5
14
330
5
100
AcDbSymbolTableRecord
100
AcDbLinetypeTableRecord
  2
ByBlock
 70
     0
  3

 72
    65
 73
     0
 40
0.0
  0
LTYPE
  5
15
330
5
100
AcDbSymbolTableRecord
100
AcDbLinetypeTableRecord
  2
ByLayer
 70
     0
  3

 72
    65
 73
     0
 40
0.0
  0
LTYPE
  5
16
330
5
100
AcDbSymbolTableRecord
100
AcDbLinetypeTableRecord
  2
Continuous
 70
     0
  3
Solid line
 72
    65
 73
     0
 40
0.0
  0
LTYPE
  5
22F
330
5
100
AcDbSymbolTableRecord
100
AcDbLinetypeTableRecord
  2
CENTER2
 70
     0
  3
Center (.5x) ___ _ ___ _ ___ _ ___ _ ___ _ ___
 72
    65
 73
     4
 40
28.575
 49
19.05
 74
     0
 49
-3.174999999999998
 74
     0
 49
3.174999999999998
 74
     0
 49
-3.174999999999998
 74
     0
  0
ENDTAB
  0
TABLE
  2
LAYER
  5
2
102
{ACAD_XDICTIONARY
360
235
102
}
330
0
100
AcDbSymbolTable
 70
     4
  0
LAYER
  5
10
102
{ACAD_XDICTIONARY
360
63F
102
}
330
2
100
AcDbSymbolTableRecord
100
AcDbLayerTableRecord
  2
0
 70
     0
 62
     7
  6
Continuous
370
    -3
390
F
  0
LAYER
  5
66
330
2
100
AcDbSymbolTableRecord
100
AcDbLayerTableRecord
  2
Defpoints
 70
     0
 62
     7
  6
Continuous
290
     0
370
    -3
390
F
  0
LAYER
  5
230
102
{ACAD_XDICTIONARY
360
231
102
}
330
2
100
AcDbSymbolTableRecord
100
AcDbLayerTableRecord
  2
中心線
 70
     0
 62
     3
  6
CENTER2
370
    -3
390
F
  0
LAYER
  5
232
102
{ACAD_XDICTIONARY
360
233
102
}
330
2
100
AcDbSymbolTableRecord
100
AcDbLayerTableRecord
  2
実線
 70
     0
 62
     7
  6
Continuous
370
    -3
390
F
  0
ENDTAB
  0
TABLE
  2
STYLE
  5
3
330
0
100
AcDbSymbolTable
 70
     1
  0
STYLE
  5
11
330
3
100
AcDbSymbolTableRecord
100
AcDbTextStyleTableRecord
  2
Standard
 70
     0
 40
0.0
 41
1.0
 50
0.0
 71
     0
 42
2.5
  3
txt
  4
extfont2
  0
ENDTAB
  0
TABLE
  2
VIEW
  5
6
330
0
100
AcDbSymbolTable
 70
     0
  0
ENDTAB
  0
TABLE
  2
UCS
  5
7
330
0
100
AcDbSymbolTable
 70
     0
  0
ENDTAB
  0
TABLE
  2
APPID
  5
9
330
0
100
AcDbSymbolTable
 70
     4
  0
APPID
  5
12
330
9
100
AcDbSymbolTableRecord
100
AcDbRegAppTableRecord
  2
ACAD
 70
     0
  0
APPID
  5
21F
330
9
100
AcDbSymbolTableRecord
100
AcDbRegAppTableRecord
  2
ACAD_MLEADERVER
 70
     0
  0
APPID
  5
234
330
9
100
AcDbSymbolTableRecord
100
AcDbRegAppTableRecord
  2
ACAD_NAV_VCDISPLAY
 70
     0
  0
APPID
  5
62A
330
9
100
AcDbSymbolTableRecord
100
AcDbRegAppTableRecord
  2
ACAD_EXEMPT_FROM_CAD_STANDARDS
 70
     0
  0
ENDTAB
  0
TABLE
  2
DIMSTYLE
  5
A
330
0
100
AcDbSymbolTable
 70
     1
100
AcDbDimStyleTable
 71
     1
340
27
  0
DIMSTYLE
105
27
330
A
100
AcDbSymbolTableRecord
100
AcDbDimStyleTableRecord
  2
Standard
 70
     0
 41
2.5
 42
0.625
 43
3.75
 44
1.25
 73
     0
 74
     0
 77
     1
140
2.5
141
2.5
143
0.03937007874016
146
0.75
147
0.625
171
     3
172
     1
271
     2
272
     2
274
     3
283
     0
284
     8
340
11
  0
ENDTAB
  0
TABLE
  2
BLOCK_RECORD
  5
1
330
0
100
AcDbSymbolTable
 70
     1
  0
BLOCK_RECORD
  5
1F
102
{ACAD_XDICTIONARY
360
4CF
102
}
330
1
100
AcDbSymbolTableRecord
100
AcDbBlockTableRecord
  2
*Model_Space
340
22
  0
BLOCK_RECORD
  5
1B
330
1
100
AcDbSymbolTableRecord
100
AcDbBlockTableRecord
  2
*Paper_Space
340
1E
  0
BLOCK_RECORD
  5
23
330
1
100
AcDbSymbolTableRecord
100
AcDbBlockTableRecord
  2
*Paper_Space0
340
229
  0
ENDTAB
  0
ENDSEC
  0
SECTION
  2
BLOCKS
  0
BLOCK
  5
20
330
1F
100
AcDbEntity
  8
0
100
AcDbBlockBegin
  2
*Model_Space
 70
     0
 10
0.0
 20
0.0
 30
0.0
  3
*Model_Space
  1

  0
ENDBLK
  5
21
330
1F
100
AcDbEntity
  8
0
100
AcDbBlockEnd
  0
BLOCK
  5
1C
330
1B
100
AcDbEntity
 67
     1
  8
0
100
AcDbBlockBegin
  2
*Paper_Space
 70
     0
 10
0.0
 20
0.0
 30
0.0
  3
*Paper_Space
  1

  0
ENDBLK
  5
1D
330
1B
100
AcDbEntity
 67
     1
  8
0
100
AcDbBlockEnd
  0
BLOCK
  5
24
330
23
100
AcDbEntity
 67
     1
  8
0
100
AcDbBlockBegin
  2
*Paper_Space0
 70
     0
 10
0.0
 20
0.0
 30
0.0
  3
*Paper_Space0
  1

  0
ENDBLK
  5
25
330
23
100
AcDbEntity
 67
     1
  8
0
100
AcDbBlockEnd
  0
ENDSEC
  0
SECTION
  2
ENTITIES
  0
ELLIPSE
  5
4A7
102
{ACAD_REACTORS
330
63E
102
}
330
1F
100
AcDbEntity
  8
実線
100
AcDbEllipse
 10
497.6737489185739
 20
1253.815776401939
 30
0.0
 11
0.0
 21
38.15000000000001
 31
0.0
210
0.0
220
0.0
230
1.0
 40
0.7071067811865475
 41
0.0
 42
3.141592653589792
  0
LINE
  5
4A8
102
{ACAD_REACTORS
330
63E
102
}
330
1F
100
AcDbEntity
  8
実線
100
AcDbLine
 10
535.7745005645832
 20
1291.965776401939
 30
0.0
 11
497.6737489185739
 21
1291.965776401939
 31
0.0
  0
LINE
  5
4A9
102
{ACAD_REACTORS
330
63E
102
}
330
1F
100
AcDbEntity
  8
実線
100
AcDbLine
 10
568.0869582548711
 20
1291.965776401939
 30
0.0
 11
551.1345742009511
 21
1291.965776401939
 31
0.0
  0
LINE
  5
4AA
102
{ACAD_REACTORS
330
63E
102
}
330
1F
100
AcDbEntity
  8
実線
100
AcDbLine
 10
551.1345742009502
 20
1215.665776401939
 30
0.0
 11
568.0869582548711
 21
1215.665776401939
 31
0.0
  0
LINE
  5
4AB
102
{ACAD_REACTORS
330
63E
102
}
330
1F
100
AcDbEntity
  8
実線
100
AcDbLine
 10
497.6737489185739
 20
1215.665776401939
 30
0.0
 11
535.7745005645832
 21
1215.665776401939
 31
0.0
  0
LINE
  5
4AC
102
{ACAD_REACTORS
330
63E
102
}
330
1F
100
AcDbEntity
  8
実線
100
AcDbLine
 10
483.1780599042498
 20
1208.315776401939
 30
0.0
 11
485.1933142306315
 21
1208.315776401939
 31
0.0
  0
LINE
  5
4AD
102
{ACAD_REACTORS
330
63E
102
}
330
1F
100
AcDbEntity
  8
実線
100
AcDbLine
 10
485.1933142306315
 20
1299.31577640194
 30
0.0
 11
483.1780599042498
 21
1299.31577640194
 31
0.0
  0
ELLIPSE
  5
4AE
102
{ACAD_REACTORS
330
63E
102
}
330
1F
100
AcDbEntity
  8
実線
100
AcDbEllipse
 10
483.1780599042498
 20
1253.815776401939
 30
0.0
 11
0.0
 21
45.49999999999998
 31
0.0
210
0.0
220
0.0
230
1.0
 40
0.7071067811865474
 41
0.0
 42
3.141592653589792
  0
ELLIPSE
  5
4AF
102
{ACAD_REACTORS
330
63E
102
}
330
1F
100
AcDbEntity
  8
実線
100
AcDbEllipse
 10
485.1933142306315
 20
1253.815776401939
 30
0.0
 11
0.0
 21
45.49999999999998
 31
0.0
210
0.0
220
0.0
230
1.0
 40
0.7071067811865474
 41
0.0
 42
3.141592653589792
  0
ELLIPSE
  5
4B0
102
{ACAD_REACTORS
330
63E
102
}
330
1F
100
AcDbEntity
  8
実線
100
AcDbEllipse
 10
485.1933142306315
 20
1253.815776401939
 30
0.0
 11
0.0
 21
45.49999999999998
 31
0.0
210
0.0
220
0.0
230
1.0
 40
0.7071067811865474
 41
3.141592653589792
 42
3.717934987947213
  0
ELLIPSE
  5
4B1
102
{ACAD_REACTORS
330
63E
102
}
330
1F
100
AcDbEntity
  8
実線
100
AcDbEllipse
 10
485.1933142306315
 20
1253.815776401939
 30
0.0
 11
0.0
 21
45.49999999999998
 31
0.0
210
0.0
220
0.0
230
1.0
 40
0.7071067811865474
 41
5.706842972822162
 42
6.283185307179584
  0
LINE
  5
4B2
102
{ACAD_REACTORS
330
63E
102
}
330
1F
100
AcDbEntity
  8
実線
100
AcDbLine
 10
487.2792792351318
 20
1215.665776401939
 30
0.0
 11
497.6737489185739
 21
1215.665776401939
 31
0.0
  0
LINE
  5
4B3
102
{ACAD_REACTORS
330
63E
102
}
330
1F
100
AcDbEntity
  8
実線
100
AcDbLine
 10
497.6737489185739
 20
1291.965776401939
 30
0.0
 11
487.2792792351318
 21
1291.965776401939
 31
0.0
  0
ELLIPSE
  5
4B4
102
{ACAD_REACTORS
330
63E
102
}
330
1F
100
AcDbEntity
  8
実線
100
AcDbEllipse
 10
487.2792792351318
 20
1253.815776401939
 30
0.0
 11
0.0
 21
38.15000000000001
 31
0.0
210
0.0
220
0.0
230
1.0
 40
0.7071067811865475
 41
0.0
 42
3.141592632516367
  0
ELLIPSE
  5
4B5
102
{ACAD_REACTORS
330
63E
102
}
330
1F
100
AcDbEntity
  8
実線
100
AcDbEllipse
 10
497.6737489185739
 20
1253.815776401939
 30
0.0
 11
0.0
 21
38.15000000000001
 31
0.0
210
0.0
220
0.0
230
1.0
 40
0.7071067811865475
 41
0.0
 42
3.141592632516367
  0
CIRCLE
  5
4B8
102
{ACAD_REACTORS
330
63E
102
}
330
1F
100
AcDbEntity
  8
実線
100
AcDbCircle
 10
781.3418540306201
 20
1299.73778828575
 30
0.0
 40
11.5
  0
CIRCLE
  5
4BB
102
{ACAD_REACTORS
330
63E
102
}
330
1F
100
AcDbEntity
  8
実線
100
AcDbCircle
 10
781.3418540306201
 20
1207.893764518128
 30
0.0
 40
11.5
  0
CIRCLE
  5
4BE
102
{ACAD_REACTORS
330
63E
102
}
330
1F
100
AcDbEntity
  8
実線
100
AcDbCircle
 10
716.3983220130762
 20
1142.950232500585
 30
0.0
 40
11.5
  0
CIRCLE
  5
4C1
102
{ACAD_REACTORS
330
63E
102
}
330
1F
100
AcDbEntity
  8
実線
100
AcDbCircle
 10
624.5542982454551
 20
1142.950232500585
 30
0.0
 40
11.5
  0
CIRCLE
  5
4C4
102
{ACAD_REACTORS
330
63E
102
}
330
1F
100
AcDbEntity
  8
実線
100
AcDbCircle
 10
559.6107662279112
 20
1207.893764518128
 30
0.0
 40
11.5
  0
CIRCLE
  5
4C7
102
{ACAD_REACTORS
330
63E
102
}
330
1F
100
AcDbEntity
  8
実線
100
AcDbCircle
 10
559.6107662279112
 20
1299.73778828575
 30
0.0
 40
11.5
  0
CIRCLE
  5
4CA
102
{ACAD_REACTORS
330
63E
102
}
330
1F
100
AcDbEntity
  8
実線
100
AcDbCircle
 10
624.5542982454551
 20
1364.681320303294
 30
0.0
 40
11.5
  0
CIRCLE
  5
4CD
102
{ACAD_REACTORS
330
63E
102
}
330
1F
100
AcDbEntity
  8
実線
100
AcDbCircle
 10
716.3983220130762
 20
1364.681320303294
 30
0.0
 40
11.5
  0
CIRCLE
  5
4CE
102
{ACAD_REACTORS
330
63E
102
}
330
1F
100
AcDbEntity
  8
実線
100
AcDbCircle
 10
670.4763101292654
 20
1253.815776401939
 30
0.0
 40
140.0
  0
LINE
  5
4D1
102
{ACAD_REACTORS
330
63D
102
}
330
1F
100
AcDbEntity
  8
実線
100
AcDbLine
 10
606.6082612791902
 20
211.9657764019396
 30
0.0
 11
587.4763101292653
 21
211.9657764019396
 31
0.0
  0
LINE
  5
4D2
102
{ACAD_REACTORS
330
63D
102
}
330
1F
100
AcDbEntity
  8
実線
100
AcDbLine
 10
587.4763101292653
 20
135.6657764019394
 30
0.0
 11
606.6082612791902
 21
135.6657764019394
 31
0.0
  0
LINE
  5
4D3
102
{ACAD_REACTORS
330
63D
102
}
330
1F
100
AcDbEntity
  8
実線
100
AcDbLine
 10
502.7265327030057
 20
135.6657764019394
 30
0.0
 11
587.4763101292653
 21
135.6657764019394
 31
0.0
  0
LINE
  5
4D4
102
{ACAD_REACTORS
330
63D
102
}
330
1F
100
AcDbEntity
  8
実線
100
AcDbLine
 10
587.4763101292653
 20
211.9657764019396
 30
0.0
 11
502.7265327030057
 21
211.9657764019396
 31
0.0
  0
ELLIPSE
  5
4D5
102
{ACAD_REACTORS
330
63D
102
}
330
1F
100
AcDbEntity
  8
実線
100
AcDbEllipse
 10
497.6737489185739
 20
173.8157764019395
 30
0.0
 11
0.0
 21
38.15000000000001
 31
0.0
210
0.0
220
0.0
230
1.0
 40
0.7071067811865475
 41
3.368763277808236
 42
6.056014682961142
  0
LINE
  5
4D6
102
{ACAD_REACTORS
330
63D
102
}
330
1F
100
AcDbEntity
  8
実線
100
AcDbLine
 10
587.4763101292653
 20
211.9657764019396
 30
0.0
 11
587.4763101292653
 21
135.6657764019394
 31
0.0
  0
ELLIPSE
  5
4D7
102
{ACAD_REACTORS
330
63D
102
}
330
1F
100
AcDbEntity
  8
実線
100
AcDbEllipse
 10
497.6737489185739
 20
173.8157764019395
 30
0.0
 11
0.0
 21
38.15000000000001
 31
0.0
210
0.0
220
0.0
230
1.0
 40
0.7071067811865475
 41
3.368763277808243
 42
4.71238898038469
  0
ELLIPSE
  5
4D8
102
{ACAD_REACTORS
330
63D
102
}
330
1F
100
AcDbEntity
  8
実線
100
AcDbEllipse
 10
497.6737489185739
 20
173.8157764019395
 30
0.0
 11
0.0
 21
38.15000000000001
 31
0.0
210
0.0
220
0.0
230
1.0
 40
0.7071067811865475
 41
4.71238898038469
 42
6.056014682961134
  0
ELLIPSE
  5
4D9
102
{ACAD_REACTORS
330
63D
102
}
330
1F
100
AcDbEntity
  8
実線
100
AcDbEllipse
 10
485.1933142306315
 20
173.8157764019395
 30
0.0
 11
0.0
 21
45.49999999999998
 31
0.0
210
0.0
220
0.0
230
1.0
 40
0.7071067811865474
 41
3.141592653589792
 42
4.71238898038469
  0
LINE
  5
4DA
102
{ACAD_REACTORS
330
63D
102
}
330
1F
100
AcDbEntity
  8
実線
100
AcDbLine
 10
483.1780599042498
 20
128.3157764019395
 30
0.0
 11
485.1933142306315
 21
128.3157764019395
 31
0.0
  0
LINE
  5
4DB
102
{ACAD_REACTORS
330
63D
102
}
330
1F
100
AcDbEntity
  8
実線
100
AcDbLine
 10
485.1933142306315
 20
219.3157764019395
 30
0.0
 11
483.1780599042498
 21
219.3157764019395
 31
0.0
  0
ELLIPSE
  5
4DC
102
{ACAD_REACTORS
330
63D
102
}
330
1F
100
AcDbEntity
  8
実線
100
AcDbEllipse
 10
483.1780599042498
 20
173.8157764019395
 30
0.0
 11
0.0
 21
45.49999999999998
 31
0.0
210
0.0
220
0.0
230
1.0
 40
0.7071067811865474
 41
0.0
 42
3.141592653589792
  0
ELLIPSE
  5
4DD
102
{ACAD_REACTORS
330
63D
102
}
330
1F
100
AcDbEntity
  8
実線
100
AcDbEllipse
 10
483.1780599042498
 20
173.8157764019395
 30
0.0
 11
0.0
 21
45.49999999999998
 31
0.0
210
0.0
220
0.0
230
1.0
 40
0.7071067811865474
 41
4.71238898038469
 42
6.283185307179584
  0
ELLIPSE
  5
4DE
102
{ACAD_REACTORS
330
63D
102
}
330
1F
100
AcDbEntity
  8
実線
100
AcDbEllipse
 10
485.1933142306315
 20
173.8157764019395
 30
0.0
 11
0.0
 21
45.49999999999998
 31
0.0
210
0.0
220
0.0
230
1.0
 40
0.7071067811865474
 41
4.71238898038469
 42
6.283185307179584
  0
ELLIPSE
  5
4DF
102
{ACAD_REACTORS
330
63D
102
}
330
1F
100
AcDbEntity
  8
実線
100
AcDbEllipse
 10
483.1780599042498
 20
173.8157764019395
 30
0.0
 11
0.0
 21
45.49999999999998
 31
0.0
210
0.0
220
0.0
230
1.0
 40
0.7071067811865474
 41
3.141592653589792
 42
4.71238898038469
  0
CIRCLE
  5
4E0
102
{ACAD_REACTORS
330
63D
102
}
330
1F
100
AcDbEntity
  8
実線
100
AcDbCircle
 10
670.4763101292654
 20
173.8157764019395
 30
0.0
 40
44.0
  0
CIRCLE
  5
4E1
102
{ACAD_REACTORS
330
63D
102
}
330
1F
100
AcDbEntity
  8
実線
100
AcDbCircle
 10
670.4763101292654
 20
173.8157764019395
 30
0.0
 40
43.3
  0
CIRCLE
  5
4E2
102
{ACAD_REACTORS
330
63D
102
}
330
1F
100
AcDbEntity
  8
実線
100
AcDbCircle
 10
670.4763101292654
 20
173.8157764019395
 30
0.0
 40
42.5
  0
CIRCLE
  5
4E3
102
{ACAD_REACTORS
330
63D
102
}
330
1F
100
AcDbEntity
  8
実線
100
AcDbCircle
 10
670.4763101292654
 20
173.8157764019395
 30
0.0
 40
16.5
  0
CIRCLE
  5
4E4
102
{ACAD_REACTORS
330
63D
102
}
330
1F
100
AcDbEntity
  8
実線
100
AcDbCircle
 10
670.4763101292654
 20
173.8157764019395
 30
0.0
 40
65.0
  0
LINE
  5
4E5
102
{ACAD_REACTORS
330
63D
102
}
330
1F
100
AcDbEntity
  8
実線
100
AcDbLine
 10
622.3809280479302
 20
102.9838960481377
 30
0.0
 11
640.8863065416571
 21
115.9415015668686
 31
0.0
  0
LINE
  5
4E6
102
{ACAD_REACTORS
330
63D
102
}
330
1F
100
AcDbEntity
  8
実線
100
AcDbLine
 10
612.6020352941952
 20
144.2257728143306
 30
0.0
 11
599.6444297754642
 21
125.7203943206044
 31
0.0
  0
ARC
  5
4E7
102
{ACAD_REACTORS
330
63D
102
}
330
1F
100
AcDbEntity
  8
実線
100
AcDbCircle
 10
611.9317104397992
 20
117.1167477753388
 30
0.0
 40
15.00000000000001
100
AcDbArc
 50
145.0000000000025
 51
224.0825141848862
  0
ARC
  5
4E8
102
{ACAD_REACTORS
330
63D
102
}
330
1F
100
AcDbEntity
  8
実線
100
AcDbCircle
 10
670.4763101292662
 20
173.8157764019358
 30
0.0
 40
96.49999999999771
100
AcDbArc
 50
224.0825141848862
 51
225.9174858151182
  0
ARC
  5
4E9
102
{ACAD_REACTORS
330
63D
102
}
330
1F
100
AcDbEntity
  8
実線
100
AcDbCircle
 10
613.7772815026653
 20
115.2711767124725
 30
0.0
 40
15.0000000000001
100
AcDbArc
 50
225.9174858151182
 51
304.9999999999973
  0
LINE
  5
4EA
102
{ACAD_REACTORS
330
63D
102
}
330
1F
100
AcDbEntity
  8
実線
100
AcDbLine
 10
700.0663137168742
 20
115.9415015668686
 30
0.0
 11
718.5716922106003
 21
102.9838960481378
 31
0.0
  0
ARC
  5
4EB
102
{ACAD_REACTORS
330
63D
102
}
330
1F
100
AcDbEntity
  8
実線
100
AcDbCircle
 10
727.1753387558662
 20
115.2711767124725
 30
0.0
 40
14.99999999999999
100
AcDbArc
 50
235.0000000000027
 51
314.0825141848818
  0
ARC
  5
4EC
102
{ACAD_REACTORS
330
63D
102
}
330
1F
100
AcDbEntity
  8
実線
100
AcDbCircle
 10
670.4763101292662
 20
173.8157764019358
 30
0.0
 40
96.49999999999705
100
AcDbArc
 50
314.0825141848818
 51
315.9174858151138
  0
ARC
  5
4ED
102
{ACAD_REACTORS
330
63D
102
}
330
1F
100
AcDbEntity
  8
実線
100
AcDbCircle
 10
729.0209098187322
 20
117.1167477753388
 30
0.0
 40
14.99999999999991
100
AcDbArc
 50
315.9174858151138
 51
34.99999999999751
  0
LINE
  5
4EE
102
{ACAD_REACTORS
330
63D
102
}
330
1F
100
AcDbEntity
  8
実線
100
AcDbLine
 10
741.3081904830671
 20
125.7203943206043
 30
0.0
 11
728.3505849643363
 21
144.2257728143306
 31
0.0
  0
LINE
  5
4EF
102
{ACAD_REACTORS
330
63D
102
}
330
1F
100
AcDbEntity
  8
実線
100
AcDbLine
 10
640.8863065416571
 20
231.6900512370103
 30
0.0
 11
622.3809280479302
 21
244.6476567557411
 31
0.0
  0
ARC
  5
4F0
102
{ACAD_REACTORS
330
63D
102
}
330
1F
100
AcDbEntity
  8
実線
100
AcDbCircle
 10
613.7772815026653
 20
232.3603760914064
 30
0.0
 40
14.99999999999996
100
AcDbArc
 50
55.00000000000268
 51
134.0825141848817
  0
ARC
  5
4F1
102
{ACAD_REACTORS
330
63D
102
}
330
1F
100
AcDbEntity
  8
実線
100
AcDbCircle
 10
670.4763101292662
 20
173.8157764019358
 30
0.0
 40
96.50000000000281
100
AcDbArc
 50
134.0825141848817
 51
135.9174858151137
  0
ARC
  5
4F2
102
{ACAD_REACTORS
330
63D
102
}
330
1F
100
AcDbEntity
  8
実線
100
AcDbCircle
 10
611.9317104397992
 20
230.5148050285401
 30
0.0
 40
15.00000000000002
100
AcDbArc
 50
135.9174858151137
 51
214.9999999999975
  0
LINE
  5
4F3
102
{ACAD_REACTORS
330
63D
102
}
330
1F
100
AcDbEntity
  8
実線
100
AcDbLine
 10
599.6444297754642
 20
221.9111584832745
 30
0.0
 11
612.6020352941952
 21
203.4057799895482
 31
0.0
  0
LINE
  5
4F4
102
{ACAD_REACTORS
330
63D
102
}
330
1F
100
AcDbEntity
  8
実線
100
AcDbLine
 10
728.3505849643363
 20
203.4057799895482
 30
0.0
 11
741.3081904830671
 21
221.9111584832745
 31
0.0
  0
ARC
  5
4F5
102
{ACAD_REACTORS
330
63D
102
}
330
1F
100
AcDbEntity
  8
実線
100
AcDbCircle
 10
729.0209098187322
 20
230.5148050285401
 30
0.0
 40
15.0
100
AcDbArc
 50
325.0000000000025
 51
44.08251418488624
  0
ARC
  5
4F6
102
{ACAD_REACTORS
330
63D
102
}
330
1F
100
AcDbEntity
  8
実線
100
AcDbCircle
 10
670.4763101292654
 20
173.8157764019358
 30
0.0
 40
96.50000000000247
100
AcDbArc
 50
44.08251418488624
 51
45.91748581511821
  0
ARC
  5
4F7
102
{ACAD_REACTORS
330
63D
102
}
330
1F
100
AcDbEntity
  8
実線
100
AcDbCircle
 10
727.1753387558662
 20
232.3603760914061
 30
0.0
 40
14.99999999999994
100
AcDbArc
 50
45.91748581511821
 51
124.9999999999973
  0
LINE
  5
4F8
102
{ACAD_REACTORS
330
63D
102
}
330
1F
100
AcDbEntity
  8
実線
100
AcDbLine
 10
718.5716922106003
 20
244.6476567557411
 30
0.0
 11
700.0663137168742
 21
231.6900512370103
 31
0.0
  0
CIRCLE
  5
4FB
102
{ACAD_REACTORS
330
63D
102
}
330
1F
100
AcDbEntity
  8
実線
100
AcDbCircle
 10
624.5542982454551
 20
284.6813203032938
 30
0.0
 40
11.5
  0
CIRCLE
  5
4FE
102
{ACAD_REACTORS
330
63D
102
}
330
1F
100
AcDbEntity
  8
実線
100
AcDbCircle
 10
716.3983220130762
 20
284.6813203032938
 30
0.0
 40
11.5
  0
CIRCLE
  5
501
102
{ACAD_REACTORS
330
63D
102
}
330
1F
100
AcDbEntity
  8
実線
100
AcDbCircle
 10
781.3418540306201
 20
219.7377882857504
 30
0.0
 40
11.5
  0
CIRCLE
  5
504
102
{ACAD_REACTORS
330
63D
102
}
330
1F
100
AcDbEntity
  8
実線
100
AcDbCircle
 10
781.3418540306201
 20
127.8937645181288
 30
0.0
 40
11.5
  0
ARC
  5
507
102
{ACAD_REACTORS
330
63D
102
}
330
1F
100
AcDbEntity
  8
実線
100
AcDbCircle
 10
559.6107662279112
 20
127.8937645181286
 30
0.0
 40
11.5
100
AcDbArc
 50
137.4815861721154
 51
42.51841382788458
  0
ARC
  5
50A
102
{ACAD_REACTORS
330
63D
102
}
330
1F
100
AcDbEntity
  8
実線
100
AcDbCircle
 10
559.6107662279112
 20
219.7377882857504
 30
0.0
 40
11.5
100
AcDbArc
 50
317.4815861721154
 51
222.5184138278846
  0
CIRCLE
  5
50D
102
{ACAD_REACTORS
330
63D
102
}
330
1F
100
AcDbEntity
  8
実線
100
AcDbCircle
 10
624.5542982454551
 20
62.95023250058512
 30
0.0
 40
11.5
  0
CIRCLE
  5
510
102
{ACAD_REACTORS
330
63D
102
}
330
1F
100
AcDbEntity
  8
実線
100
AcDbCircle
 10
716.3983220130762
 20
62.95023250058512
 30
0.0
 40
11.5
  0
ARC
  5
511
102
{ACAD_REACTORS
330
63D
102
}
330
1F
100
AcDbEntity
  8
実線
100
AcDbCircle
 10
670.4763101292654
 20
173.8157764019395
 30
0.0
 40
140.0
100
AcDbArc
 50
195.8130857292013
 51
164.1869142707986
  0
LINE
  5
512
102
{ACAD_REACTORS
330
639
102
}
330
1F
100
AcDbEntity
  8
実線
100
AcDbLine
 10
1586.476310129264
 20
545.3157764019393
 30
0.0
 11
1586.476310129264
 21
500.31577640194
 31
0.0
  0
LINE
  5
513
102
{ACAD_REACTORS
330
639
102
}
330
1F
100
AcDbEntity
  8
実線
100
AcDbLine
 10
1674.476310129265
 20
500.31577640194
 30
0.0
 11
1674.476310129265
 21
545.3157764019393
 31
0.0
  0
LINE
  5
514
102
{ACAD_REACTORS
330
639
102
}
330
1F
100
AcDbEntity
  8
実線
100
AcDbLine
 10
1586.476310129264
 20
500.31577640194
 30
0.0
 11
1674.476310129265
 21
500.31577640194
 31
0.0
  0
LINE
  5
515
102
{ACAD_REACTORS
330
639
102
}
330
1F
100
AcDbEntity
  8
実線
100
AcDbLine
 10
1713.476310129265
 20
911.4657764019394
 30
0.0
 11
1713.476310129265
 21
835.1657764019403
 31
0.0
  0
LINE
  5
516
102
{ACAD_REACTORS
330
639
102
}
330
1F
100
AcDbEntity
  8
実線
100
AcDbLine
 10
1704.020909818731
 20
835.1657764019403
 30
0.0
 11
1713.476310129265
 21
835.1657764019403
 31
0.0
  0
LINE
  5
517
102
{ACAD_REACTORS
330
639
102
}
330
1F
100
AcDbEntity
  8
実線
100
AcDbLine
 10
1713.476310129265
 20
911.4657764019394
 30
0.0
 11
1691.039335264141
 21
911.4657764019394
 31
0.0
  0
ARC
  5
518
102
{ACAD_REACTORS
330
639
102
}
330
1F
100
AcDbEntity
  8
実線
100
AcDbCircle
 10
1713.476310129265
 20
746.3157764019395
 30
0.0
 40
165.15
100
AcDbArc
 50
45.00000000000915
 51
90.0
  0
ARC
  5
519
102
{ACAD_REACTORS
330
639
102
}
330
1F
100
AcDbEntity
  8
実線
100
AcDbCircle
 10
1713.476310129265
 20
746.3157764019395
 30
0.0
 40
88.84999999999998
100
AcDbArc
 50
45.00000000000915
 51
90.0
  0
LINE
  5
51A
102
{ACAD_REACTORS
330
639
102
}
330
1F
100
AcDbEntity
  8
実線
100
AcDbLine
 10
1690.476310129265
 20
925.8157764019395
 30
0.0
 11
1690.476310129265
 21
931.8157764019394
 31
0.0
  0
LINE
  5
51B
102
{ACAD_REACTORS
330
639
102
}
330
1F
100
AcDbEntity
  8
実線
100
AcDbLine
 10
1570.476310129264
 20
931.8157764019394
 30
0.0
 11
1570.476310129264
 21
925.8157764019395
 31
0.0
  0
LINE
  5
51C
102
{ACAD_REACTORS
330
639
102
}
330
1F
100
AcDbEntity
  8
実線
100
AcDbLine
 10
1580.476310129265
 20
915.8157764019394
 30
0.0
 11
1680.476310129266
 21
915.8157764019394
 31
0.0
  0
LINE
  5
51D
102
{ACAD_REACTORS
330
639
102
}
330
1F
100
AcDbEntity
  8
実線
100
AcDbLine
 10
1570.476310129264
 20
925.8157764019395
 30
0.0
 11
1690.476310129265
 21
925.8157764019395
 31
0.0
  0
LINE
  5
51E
102
{ACAD_REACTORS
330
639
102
}
330
1F
100
AcDbEntity
  8
実線
100
AcDbLine
 10
1680.476310129266
 20
915.8157764019394
 30
0.0
 11
1690.476310129265
 21
925.8157764019395
 31
0.0
  0
LINE
  5
51F
102
{ACAD_REACTORS
330
639
102
}
330
1F
100
AcDbEntity
  8
実線
100
AcDbLine
 10
1570.476310129264
 20
925.8157764019395
 30
0.0
 11
1580.476310129265
 21
915.8157764019394
 31
0.0
  0
LINE
  5
520
102
{ACAD_REACTORS
330
639
102
}
330
1F
100
AcDbEntity
  8
実線
100
AcDbLine
 10
1776.302747637689
 20
809.1422139103645
 30
0.0
 11
1830.254995042223
 21
863.0944613148974
 31
0.0
  0
LINE
  5
521
102
{ACAD_REACTORS
330
639
102
}
330
1F
100
AcDbEntity
  8
実線
100
AcDbLine
 10
1840.649464725665
 20
852.6999916314563
 30
0.0
 11
1830.254995042223
 21
863.0944613148974
 31
0.0
  0
LINE
  5
522
102
{ACAD_REACTORS
330
639
102
}
330
1F
100
AcDbEntity
  8
実線
100
AcDbLine
 10
1776.302747637689
 20
809.1422139103645
 30
0.0
 11
1786.697217321133
 21
798.7477442269224
 31
0.0
  0
LINE
  5
523
102
{ACAD_REACTORS
330
639
102
}
330
1F
100
AcDbEntity
  8
実線
100
AcDbLine
 10
1785.601201810293
 20
789.4492900543193
 30
0.0
 11
1849.947918898268
 21
853.7960071422954
 31
0.0
  0
LINE
  5
524
102
{ACAD_REACTORS
330
639
102
}
330
1F
100
AcDbEntity
  8
実線
100
AcDbLine
 10
1849.947918898268
 20
853.7960071422954
 30
0.0
 11
1847.932664571887
 21
855.8112614686763
 31
0.0
  0
LINE
  5
525
102
{ACAD_REACTORS
330
639
102
}
330
1F
100
AcDbEntity
  8
実線
100
AcDbLine
 10
1783.585947483911
 20
791.4645443807014
 30
0.0
 11
1785.601201810293
 21
789.4492900543193
 31
0.0
  0
LINE
  5
526
102
{ACAD_REACTORS
330
639
102
}
330
1F
100
AcDbEntity
  8
実線
100
AcDbLine
 10
1783.585947483911
 20
791.4645443807014
 30
0.0
 11
1847.932664571887
 21
855.8112614686763
 31
0.0
  0
LINE
  5
527
102
{ACAD_REACTORS
330
639
102
}
330
1F
100
AcDbEntity
  8
実線
100
AcDbLine
 10
1786.697217321133
 20
798.7477442269224
 30
0.0
 11
1840.649464725665
 21
852.6999916314563
 31
0.0
  0
LINE
  5
528
102
{ACAD_REACTORS
330
639
102
}
330
1F
100
AcDbEntity
  8
実線
100
AcDbLine
 10
1786.697217321133
 20
798.7477442269224
 30
0.0
 11
1783.585947483911
 21
791.4645443807014
 31
0.0
  0
LINE
  5
529
102
{ACAD_REACTORS
330
639
102
}
330
1F
100
AcDbEntity
  8
実線
100
AcDbLine
 10
1847.932664571887
 20
855.8112614686763
 30
0.0
 11
1840.649464725665
 21
852.6999916314563
 31
0.0
  0
LINE
  5
52A
102
{ACAD_REACTORS
330
639
102
}
330
1F
100
AcDbEntity
  8
実線
100
AcDbLine
 10
1565.476310129265
 20
804.3157764019394
 30
0.0
 11
1565.476310129265
 21
550.3157764019395
 31
0.0
  0
LINE
  5
52B
102
{ACAD_REACTORS
330
639
102
}
330
1F
100
AcDbEntity
  8
実線
100
AcDbLine
 10
1695.476310129265
 20
550.3157764019395
 30
0.0
 11
1695.476310129265
 21
804.3157764019394
 31
0.0
  0
LINE
  5
52C
102
{ACAD_REACTORS
330
639
102
}
330
1F
100
AcDbEntity
  8
実線
100
AcDbLine
 10
1673.776310129264
 20
496.6157764019397
 30
0.0
 11
1674.476310129265
 21
500.31577640194
 31
0.0
  0
LINE
  5
52D
102
{ACAD_REACTORS
330
639
102
}
330
1F
100
AcDbEntity
  8
実線
100
AcDbLine
 10
1586.476310129264
 20
500.31577640194
 30
0.0
 11
1587.176310129265
 21
496.6157764019397
 31
0.0
  0
LINE
  5
52E
102
{ACAD_REACTORS
330
639
102
}
330
1F
100
AcDbEntity
  8
実線
100
AcDbLine
 10
1587.176310129265
 20
496.6157764019397
 30
0.0
 11
1673.776310129264
 21
496.6157764019397
 31
0.0
  0
LINE
  5
52F
102
{ACAD_REACTORS
330
639
102
}
330
1F
100
AcDbEntity
  8
実線
100
AcDbLine
 10
1587.176310129265
 20
496.6157764019397
 30
0.0
 11
1587.176310129265
 21
460.6157764019396
 31
0.0
  0
LINE
  5
530
102
{ACAD_REACTORS
330
639
102
}
330
1F
100
AcDbEntity
  8
実線
100
AcDbLine
 10
1673.776310129264
 20
460.6157764019396
 30
0.0
 11
1673.776310129264
 21
496.6157764019397
 31
0.0
  0
LINE
  5
531
102
{ACAD_REACTORS
330
639
102
}
330
1F
100
AcDbEntity
  8
実線
100
AcDbLine
 10
1587.176310129265
 20
460.6157764019396
 30
0.0
 11
1673.776310129264
 21
460.6157764019396
 31
0.0
  0
LINE
  5
532
102
{ACAD_REACTORS
330
639
102
}
330
1F
100
AcDbEntity
  8
実線
100
AcDbLine
 10
1587.976310129265
 20
460.6157764019396
 30
0.0
 11
1587.976310129265
 21
383.6157764019397
 31
0.0
  0
LINE
  5
533
102
{ACAD_REACTORS
330
639
102
}
330
1F
100
AcDbEntity
  8
実線
100
AcDbLine
 10
1672.976310129265
 20
383.6157764019397
 30
0.0
 11
1672.976310129265
 21
460.6157764019396
 31
0.0
  0
LINE
  5
534
102
{ACAD_REACTORS
330
639
102
}
330
1F
100
AcDbEntity
  8
実線
100
AcDbLine
 10
1587.976310129265
 20
383.6157764019397
 30
0.0
 11
1672.976310129265
 21
383.6157764019397
 31
0.0
  0
LINE
  5
535
102
{ACAD_REACTORS
330
639
102
}
330
1F
100
AcDbEntity
  8
実線
100
AcDbLine
 10
1646.976310129265
 20
374.4157764019401
 30
0.0
 11
1672.976310129264
 21
383.6157764019397
 31
0.0
  0
LINE
  5
536
102
{ACAD_REACTORS
330
639
102
}
330
1F
100
AcDbEntity
  8
実線
100
AcDbLine
 10
1587.976310129265
 20
383.6157764019397
 30
0.0
 11
1613.976310129265
 21
374.4157764019401
 31
0.0
  0
LINE
  5
537
102
{ACAD_REACTORS
330
639
102
}
330
1F
100
AcDbEntity
  8
実線
100
AcDbLine
 10
1613.976310129265
 20
374.4157764019401
 30
0.0
 11
1646.976310129265
 21
374.4157764019401
 31
0.0
  0
LINE
  5
538
102
{ACAD_REACTORS
330
639
102
}
330
1F
100
AcDbEntity
  8
実線
100
AcDbLine
 10
1690.476310129265
 20
545.3157764019393
 30
0.0
 11
1570.476310129264
 21
545.3157764019393
 31
0.0
  0
LINE
  5
539
102
{ACAD_REACTORS
330
639
102
}
330
1F
100
AcDbEntity
  8
実線
100
AcDbLine
 10
1695.476310129265
 20
550.3157764019395
 30
0.0
 11
1565.476310129265
 21
550.3157764019395
 31
0.0
  0
ARC
  5
53A
102
{ACAD_REACTORS
330
639
102
}
330
1F
100
AcDbEntity
  8
実線
100
AcDbCircle
 10
1570.476310129264
 20
550.3157764019395
 30
0.0
 40
5.0
100
AcDbArc
 50
180.0
 51
270.0
  0
ARC
  5
53B
102
{ACAD_REACTORS
330
639
102
}
330
1F
100
AcDbEntity
  8
実線
100
AcDbCircle
 10
1690.476310129265
 20
550.3157764019395
 30
0.0
 40
5.0
100
AcDbArc
 50
270.0
 51
0.0
  0
LINE
  5
53C
102
{ACAD_REACTORS
330
639
102
}
330
1F
100
AcDbEntity
  8
実線
100
AcDbLine
 10
1565.476310129265
 20
804.3157764019394
 30
0.0
 11
1695.476310129265
 21
804.3157764019394
 31
0.0
  0
LINE
  5
53D
102
{ACAD_REACTORS
330
639
102
}
330
1F
100
AcDbEntity
  8
実線
100
AcDbLine
 10
1695.476310129265
 20
804.3157764019394
 30
0.0
 11
1695.476310129265
 21
807.8157764019394
 31
0.0
  0
LINE
  5
53E
102
{ACAD_REACTORS
330
639
102
}
330
1F
100
AcDbEntity
  8
実線
100
AcDbLine
 10
1565.476310129264
 20
807.8157764019394
 30
0.0
 11
1565.476310129264
 21
804.3157764019394
 31
0.0
  0
LINE
  5
53F
102
{ACAD_REACTORS
330
639
102
}
330
1F
100
AcDbEntity
  8
実線
100
AcDbLine
 10
1556.931710439799
 20
807.8157764019394
 30
0.0
 11
1600.886306541655
 21
807.8157764019394
 31
0.0
  0
LINE
  5
540
102
{ACAD_REACTORS
330
639
102
}
330
1F
100
AcDbEntity
  8
実線
100
AcDbLine
 10
1556.931710439799
 20
826.3157764019394
 30
0.0
 11
1556.931710439799
 21
807.8157764019394
 31
0.0
  0
LINE
  5
541
102
{ACAD_REACTORS
330
639
102
}
330
1F
100
AcDbEntity
  8
実線
100
AcDbLine
 10
1704.020909818731
 20
807.8157764019394
 30
0.0
 11
1704.020909818731
 21
826.3157764019394
 31
0.0
  0
LINE
  5
542
102
{ACAD_REACTORS
330
639
102
}
330
1F
100
AcDbEntity
  8
実線
100
AcDbLine
 10
1704.020909818731
 20
807.8157764019394
 30
0.0
 11
1660.066313716873
 21
807.8157764019394
 31
0.0
  0
LINE
  5
543
102
{ACAD_REACTORS
330
639
102
}
330
1F
100
AcDbEntity
  8
実線
100
AcDbLine
 10
1600.886306541655
 20
807.8157764019394
 30
0.0
 11
1600.886306541655
 21
826.3157764019394
 31
0.0
  0
LINE
  5
544
102
{ACAD_REACTORS
330
639
102
}
330
1F
100
AcDbEntity
  8
実線
100
AcDbLine
 10
1660.066313716873
 20
807.8157764019394
 30
0.0
 11
1660.066313716873
 21
826.3157764019394
 31
0.0
  0
LINE
  5
545
102
{ACAD_REACTORS
330
639
102
}
330
1F
100
AcDbEntity
  8
実線
100
AcDbLine
 10
1770.476310129265
 20
931.8157764019394
 30
0.0
 11
1490.476310129265
 21
931.8157764019394
 31
0.0
  0
LINE
  5
546
102
{ACAD_REACTORS
330
639
102
}
330
1F
100
AcDbEntity
  8
実線
100
AcDbLine
 10
1770.476310129265
 20
931.8157764019394
 30
0.0
 11
1770.476310129265
 21
953.8157764019395
 31
0.0
  0
LINE
  5
547
102
{ACAD_REACTORS
330
639
102
}
330
1F
100
AcDbEntity
  8
実線
100
AcDbLine
 10
1490.476310129265
 20
953.8157764019395
 30
0.0
 11
1490.476310129265
 21
931.8157764019394
 31
0.0
  0
LINE
  5
548
102
{ACAD_REACTORS
330
639
102
}
330
1F
100
AcDbEntity
  8
実線
100
AcDbLine
 10
1770.476310129265
 20
953.8157764019395
 30
0.0
 11
1490.476310129265
 21
953.8157764019395
 31
0.0
  0
LINE
  5
549
102
{ACAD_REACTORS
330
639
102
}
330
1F
100
AcDbEntity
  8
実線
100
AcDbLine
 10
1704.020909818732
 20
826.3157764019394
 30
0.0
 11
1556.931710439799
 21
826.3157764019394
 31
0.0
  0
LINE
  5
54A
102
{ACAD_REACTORS
330
639
102
}
330
1F
100
AcDbEntity
  8
実線
100
AcDbLine
 10
1565.476310129265
 20
900.8157764019395
 30
0.0
 11
1565.476310129265
 21
846.3157764019396
 31
0.0
  0
ARC
  5
54B
102
{ACAD_REACTORS
330
639
102
}
330
1F
100
AcDbEntity
  8
実線
100
AcDbCircle
 10
1680.476310129266
 20
900.8157764019395
 30
0.0
 40
15.0
100
AcDbArc
 50
45.23491532867043
 51
90.0
  0
ARC
  5
54C
102
{ACAD_REACTORS
330
639
102
}
330
1F
100
AcDbEntity
  8
実線
100
AcDbCircle
 10
1580.476310129265
 20
900.8157764019395
 30
0.0
 40
15.0
100
AcDbArc
 50
90.0
 51
180.0
  0
LINE
  5
54D
102
{ACAD_REACTORS
330
639
102
}
330
1F
100
AcDbEntity
  8
実線
100
AcDbLine
 10
1556.931710439799
 20
846.3157764019396
 30
0.0
 11
1600.886306541655
 21
846.3157764019396
 31
0.0
  0
LINE
  5
54E
102
{ACAD_REACTORS
330
639
102
}
330
1F
100
AcDbEntity
  8
実線
100
AcDbLine
 10
1556.931710439799
 20
846.3157764019396
 30
0.0
 11
1556.931710439799
 21
826.3157764019394
 31
0.0
  0
LINE
  5
54F
102
{ACAD_REACTORS
330
639
102
}
330
1F
100
AcDbEntity
  8
実線
100
AcDbLine
 10
1704.020909818732
 20
826.3157764019394
 30
0.0
 11
1704.020909818732
 21
846.3157764019396
 31
0.0
  0
LINE
  5
550
102
{ACAD_REACTORS
330
639
102
}
330
1F
100
AcDbEntity
  8
実線
100
AcDbLine
 10
1704.020909818732
 20
846.3157764019396
 30
0.0
 11
1660.066313716873
 21
846.3157764019396
 31
0.0
  0
LINE
  5
551
102
{ACAD_REACTORS
330
639
102
}
330
1F
100
AcDbEntity
  8
実線
100
AcDbLine
 10
1660.066313716873
 20
826.3157764019394
 30
0.0
 11
1660.066313716873
 21
846.3157764019396
 31
0.0
  0
LINE
  5
552
102
{ACAD_REACTORS
330
639
102
}
330
1F
100
AcDbEntity
  8
実線
100
AcDbLine
 10
1600.886306541655
 20
826.3157764019394
 30
0.0
 11
1600.886306541655
 21
846.3157764019396
 31
0.0
  0
LINE
  5
553
102
{ACAD_REACTORS
330
63A
102
}
330
1F
100
AcDbEntity
  8
実線
100
AcDbLine
 10
1106.476310129265
 20
500.31577640194
 30
0.0
 11
1194.476310129265
 21
500.31577640194
 31
0.0
  0
LINE
  5
554
102
{ACAD_REACTORS
330
63A
102
}
330
1F
100
AcDbEntity
  8
実線
100
AcDbLine
 10
1106.476310129265
 20
545.3157764019393
 30
0.0
 11
1106.476310129265
 21
500.31577640194
 31
0.0
  0
LINE
  5
555
102
{ACAD_REACTORS
330
63A
102
}
330
1F
100
AcDbEntity
  8
実線
100
AcDbLine
 10
1194.476310129265
 20
500.31577640194
 30
0.0
 11
1194.476310129265
 21
545.3157764019393
 31
0.0
  0
LINE
  5
556
102
{ACAD_REACTORS
330
63A
102
}
330
1F
100
AcDbEntity
  8
実線
100
AcDbLine
 10
1210.476310129265
 20
925.8157764019395
 30
0.0
 11
1210.476310129265
 21
931.8157764019394
 31
0.0
  0
LINE
  5
557
102
{ACAD_REACTORS
330
63A
102
}
330
1F
100
AcDbEntity
  8
実線
100
AcDbLine
 10
1090.476310129265
 20
931.8157764019394
 30
0.0
 11
1090.476310129265
 21
925.8157764019395
 31
0.0
  0
LINE
  5
558
102
{ACAD_REACTORS
330
63A
102
}
330
1F
100
AcDbEntity
  8
実線
100
AcDbLine
 10
1200.476310129265
 20
915.8157764019394
 30
0.0
 11
1100.476310129265
 21
915.8157764019394
 31
0.0
  0
LINE
  5
559
102
{ACAD_REACTORS
330
63A
102
}
330
1F
100
AcDbEntity
  8
実線
100
AcDbLine
 10
1210.476310129265
 20
925.8157764019395
 30
0.0
 11
1090.476310129265
 21
925.8157764019395
 31
0.0
  0
LINE
  5
55A
102
{ACAD_REACTORS
330
63A
102
}
330
1F
100
AcDbEntity
  8
実線
100
AcDbLine
 10
1200.476310129265
 20
915.8157764019394
 30
0.0
 11
1210.476310129265
 21
925.8157764019395
 31
0.0
  0
LINE
  5
55B
102
{ACAD_REACTORS
330
63A
102
}
330
1F
100
AcDbEntity
  8
実線
100
AcDbLine
 10
1090.476310129265
 20
925.8157764019395
 30
0.0
 11
1100.476310129265
 21
915.8157764019394
 31
0.0
  0
LINE
  5
55C
102
{ACAD_REACTORS
330
63A
102
}
330
1F
100
AcDbEntity
  8
実線
100
AcDbLine
 10
1085.476310129265
 20
804.3157764019394
 30
0.0
 11
1085.476310129265
 21
550.3157764019395
 31
0.0
  0
LINE
  5
55D
102
{ACAD_REACTORS
330
63A
102
}
330
1F
100
AcDbEntity
  8
実線
100
AcDbLine
 10
1215.476310129265
 20
550.3157764019395
 30
0.0
 11
1215.476310129265
 21
804.3157764019394
 31
0.0
  0
LINE
  5
55E
102
{ACAD_REACTORS
330
63A
102
}
330
1F
100
AcDbEntity
  8
実線
100
AcDbLine
 10
1107.176310129265
 20
496.6157764019397
 30
0.0
 11
1193.776310129265
 21
496.6157764019397
 31
0.0
  0
LINE
  5
55F
102
{ACAD_REACTORS
330
63A
102
}
330
1F
100
AcDbEntity
  8
実線
100
AcDbLine
 10
1193.776310129265
 20
496.6157764019397
 30
0.0
 11
1194.476310129265
 21
500.31577640194
 31
0.0
  0
LINE
  5
560
102
{ACAD_REACTORS
330
63A
102
}
330
1F
100
AcDbEntity
  8
実線
100
AcDbLine
 10
1106.476310129265
 20
500.31577640194
 30
0.0
 11
1107.176310129265
 21
496.6157764019397
 31
0.0
  0
LINE
  5
561
102
{ACAD_REACTORS
330
63A
102
}
330
1F
100
AcDbEntity
  8
実線
100
AcDbLine
 10
1107.176310129265
 20
460.6157764019396
 30
0.0
 11
1193.776310129265
 21
460.6157764019396
 31
0.0
  0
LINE
  5
562
102
{ACAD_REACTORS
330
63A
102
}
330
1F
100
AcDbEntity
  8
実線
100
AcDbLine
 10
1107.176310129265
 20
496.6157764019397
 30
0.0
 11
1107.176310129265
 21
460.6157764019396
 31
0.0
  0
LINE
  5
563
102
{ACAD_REACTORS
330
63A
102
}
330
1F
100
AcDbEntity
  8
実線
100
AcDbLine
 10
1193.776310129265
 20
460.6157764019396
 30
0.0
 11
1193.776310129265
 21
496.6157764019397
 31
0.0
  0
LINE
  5
564
102
{ACAD_REACTORS
330
63A
102
}
330
1F
100
AcDbEntity
  8
実線
100
AcDbLine
 10
1107.976310129265
 20
383.6157764019397
 30
0.0
 11
1192.976310129265
 21
383.6157764019397
 31
0.0
  0
LINE
  5
565
102
{ACAD_REACTORS
330
63A
102
}
330
1F
100
AcDbEntity
  8
実線
100
AcDbLine
 10
1107.976310129265
 20
460.6157764019396
 30
0.0
 11
1107.976310129265
 21
383.6157764019397
 31
0.0
  0
LINE
  5
566
102
{ACAD_REACTORS
330
63A
102
}
330
1F
100
AcDbEntity
  8
実線
100
AcDbLine
 10
1192.976310129265
 20
383.6157764019397
 30
0.0
 11
1192.976310129265
 21
460.6157764019396
 31
0.0
  0
LINE
  5
567
102
{ACAD_REACTORS
330
63A
102
}
330
1F
100
AcDbEntity
  8
実線
100
AcDbLine
 10
1133.976310129265
 20
374.4157764019401
 30
0.0
 11
1166.976310129265
 21
374.4157764019401
 31
0.0
  0
LINE
  5
568
102
{ACAD_REACTORS
330
63A
102
}
330
1F
100
AcDbEntity
  8
実線
100
AcDbLine
 10
1166.976310129265
 20
374.4157764019401
 30
0.0
 11
1192.976310129265
 21
383.6157764019397
 31
0.0
  0
LINE
  5
569
102
{ACAD_REACTORS
330
63A
102
}
330
1F
100
AcDbEntity
  8
実線
100
AcDbLine
 10
1107.976310129265
 20
383.6157764019397
 30
0.0
 11
1133.976310129265
 21
374.4157764019401
 31
0.0
  0
LINE
  5
56A
102
{ACAD_REACTORS
330
63A
102
}
330
1F
100
AcDbEntity
  8
実線
100
AcDbLine
 10
1210.476310129265
 20
545.3157764019393
 30
0.0
 11
1090.476310129265
 21
545.3157764019393
 31
0.0
  0
ARC
  5
56B
102
{ACAD_REACTORS
330
63A
102
}
330
1F
100
AcDbEntity
  8
実線
100
AcDbCircle
 10
1090.476310129265
 20
550.3157764019395
 30
0.0
 40
5.0
100
AcDbArc
 50
180.0
 51
270.0
  0
ARC
  5
56C
102
{ACAD_REACTORS
330
63A
102
}
330
1F
100
AcDbEntity
  8
実線
100
AcDbCircle
 10
1210.476310129265
 20
550.3157764019395
 30
0.0
 40
5.0
100
AcDbArc
 50
270.0
 51
0.0
  0
LINE
  5
56D
102
{ACAD_REACTORS
330
63A
102
}
330
1F
100
AcDbEntity
  8
実線
100
AcDbLine
 10
1215.476310129265
 20
550.3157764019395
 30
0.0
 11
1085.476310129265
 21
550.3157764019395
 31
0.0
  0
LINE
  5
56E
102
{ACAD_REACTORS
330
63A
102
}
330
1F
100
AcDbEntity
  8
実線
100
AcDbLine
 10
1215.476310129265
 20
804.3157764019394
 30
0.0
 11
1085.476310129265
 21
804.3157764019394
 31
0.0
  0
LINE
  5
56F
102
{ACAD_REACTORS
330
63A
102
}
330
1F
100
AcDbEntity
  8
実線
100
AcDbLine
 10
1215.476310129265
 20
804.3157764019394
 30
0.0
 11
1215.476310129265
 21
807.8157764019394
 31
0.0
  0
LINE
  5
570
102
{ACAD_REACTORS
330
63A
102
}
330
1F
100
AcDbEntity
  8
実線
100
AcDbLine
 10
1085.476310129265
 20
807.8157764019394
 30
0.0
 11
1085.476310129265
 21
804.3157764019394
 31
0.0
  0
LINE
  5
571
102
{ACAD_REACTORS
330
63A
102
}
330
1F
100
AcDbEntity
  8
実線
100
AcDbLine
 10
1224.020909818732
 20
807.8157764019394
 30
0.0
 11
1224.020909818732
 21
826.3157764019394
 31
0.0
  0
LINE
  5
572
102
{ACAD_REACTORS
330
63A
102
}
330
1F
100
AcDbEntity
  8
実線
100
AcDbLine
 10
1224.020909818732
 20
807.8157764019394
 30
0.0
 11
1180.066313716874
 21
807.8157764019394
 31
0.0
  0
LINE
  5
573
102
{ACAD_REACTORS
330
63A
102
}
330
1F
100
AcDbEntity
  8
実線
100
AcDbLine
 10
1076.931710439798
 20
807.8157764019394
 30
0.0
 11
1120.886306541656
 21
807.8157764019394
 31
0.0
  0
LINE
  5
574
102
{ACAD_REACTORS
330
63A
102
}
330
1F
100
AcDbEntity
  8
実線
100
AcDbLine
 10
1076.931710439798
 20
826.3157764019394
 30
0.0
 11
1076.931710439798
 21
807.8157764019394
 31
0.0
  0
LINE
  5
575
102
{ACAD_REACTORS
330
63A
102
}
330
1F
100
AcDbEntity
  8
実線
100
AcDbLine
 10
1180.066313716874
 20
807.8157764019394
 30
0.0
 11
1180.066313716874
 21
826.3157764019394
 31
0.0
  0
LINE
  5
576
102
{ACAD_REACTORS
330
63A
102
}
330
1F
100
AcDbEntity
  8
実線
100
AcDbLine
 10
1120.886306541656
 20
807.8157764019394
 30
0.0
 11
1120.886306541656
 21
826.3157764019394
 31
0.0
  0
LINE
  5
577
102
{ACAD_REACTORS
330
63A
102
}
330
1F
100
AcDbEntity
  8
実線
100
AcDbLine
 10
1290.476310129265
 20
931.8157764019394
 30
0.0
 11
1290.476310129265
 21
953.8157764019395
 31
0.0
  0
LINE
  5
578
102
{ACAD_REACTORS
330
63A
102
}
330
1F
100
AcDbEntity
  8
実線
100
AcDbLine
 10
1010.476310129265
 20
953.8157764019395
 30
0.0
 11
1010.476310129265
 21
931.8157764019394
 31
0.0
  0
LINE
  5
579
102
{ACAD_REACTORS
330
63A
102
}
330
1F
100
AcDbEntity
  8
実線
100
AcDbLine
 10
1290.476310129265
 20
953.8157764019395
 30
0.0
 11
1010.476310129265
 21
953.8157764019395
 31
0.0
  0
LINE
  5
57A
102
{ACAD_REACTORS
330
63A
102
}
330
1F
100
AcDbEntity
  8
実線
100
AcDbLine
 10
1290.476310129265
 20
931.8157764019394
 30
0.0
 11
1010.476310129265
 21
931.8157764019394
 31
0.0
  0
ARC
  5
57B
102
{ACAD_REACTORS
330
63A
102
}
330
1F
100
AcDbEntity
  8
実線
100
AcDbCircle
 10
1200.476310129265
 20
900.8157764019395
 30
0.0
 40
15.0
100
AcDbArc
 50
0.0
 51
90.0
  0
ARC
  5
57C
102
{ACAD_REACTORS
330
63A
102
}
330
1F
100
AcDbEntity
  8
実線
100
AcDbCircle
 10
1100.476310129265
 20
900.8157764019395
 30
0.0
 40
15.0
100
AcDbArc
 50
90.0
 51
180.0
  0
LINE
  5
57D
102
{ACAD_REACTORS
330
63A
102
}
330
1F
100
AcDbEntity
  8
実線
100
AcDbLine
 10
1076.931710439798
 20
826.3157764019394
 30
0.0
 11
1224.020909818732
 21
826.3157764019394
 31
0.0
  0
LINE
  5
57E
102
{ACAD_REACTORS
330
63A
102
}
330
1F
100
AcDbEntity
  8
実線
100
AcDbLine
 10
1085.476310129265
 20
900.8157764019395
 30
0.0
 11
1085.476310129265
 21
846.3157764019396
 31
0.0
  0
LINE
  5
57F
102
{ACAD_REACTORS
330
63A
102
}
330
1F
100
AcDbEntity
  8
実線
100
AcDbLine
 10
1215.476310129265
 20
846.3157764019396
 30
0.0
 11
1215.476310129265
 21
900.8157764019395
 31
0.0
  0
LINE
  5
580
102
{ACAD_REACTORS
330
63A
102
}
330
1F
100
AcDbEntity
  8
実線
100
AcDbLine
 10
1224.020909818732
 20
826.3157764019394
 30
0.0
 11
1224.020909818732
 21
846.3157764019396
 31
0.0
  0
LINE
  5
581
102
{ACAD_REACTORS
330
63A
102
}
330
1F
100
AcDbEntity
  8
実線
100
AcDbLine
 10
1224.020909818732
 20
846.3157764019396
 30
0.0
 11
1180.066313716874
 21
846.3157764019396
 31
0.0
  0
LINE
  5
582
102
{ACAD_REACTORS
330
63A
102
}
330
1F
100
AcDbEntity
  8
実線
100
AcDbLine
 10
1076.931710439798
 20
846.3157764019396
 30
0.0
 11
1120.886306541656
 21
846.3157764019396
 31
0.0
  0
LINE
  5
583
102
{ACAD_REACTORS
330
63A
102
}
330
1F
100
AcDbEntity
  8
実線
100
AcDbLine
 10
1076.931710439798
 20
846.3157764019396
 30
0.0
 11
1076.931710439798
 21
826.3157764019394
 31
0.0
  0
LINE
  5
584
102
{ACAD_REACTORS
330
63A
102
}
330
1F
100
AcDbEntity
  8
実線
100
AcDbLine
 10
1180.066313716874
 20
826.3157764019394
 30
0.0
 11
1180.066313716874
 21
846.3157764019396
 31
0.0
  0
LINE
  5
585
102
{ACAD_REACTORS
330
63A
102
}
330
1F
100
AcDbEntity
  8
実線
100
AcDbLine
 10
1120.886306541656
 20
826.3157764019394
 30
0.0
 11
1120.886306541656
 21
846.3157764019396
 31
0.0
  0
LINE
  5
586
102
{ACAD_REACTORS
330
63C
102
}
330
1F
100
AcDbEntity
  8
実線
100
AcDbLine
 10
146.4763101292653
 20
545.3157764019393
 30
0.0
 11
146.4763101292653
 21
500.31577640194
 31
0.0
  0
LINE
  5
587
102
{ACAD_REACTORS
330
63C
102
}
330
1F
100
AcDbEntity
  8
実線
100
AcDbLine
 10
234.4763101292654
 20
500.31577640194
 30
0.0
 11
234.4763101292654
 21
545.3157764019393
 31
0.0
  0
LINE
  5
588
102
{ACAD_REACTORS
330
63C
102
}
330
1F
100
AcDbEntity
  8
実線
100
AcDbLine
 10
146.4763101292653
 20
500.31577640194
 30
0.0
 11
234.4763101292654
 21
500.31577640194
 31
0.0
  0
ELLIPSE
  5
589
102
{ACAD_REACTORS
330
63C
102
}
330
1F
100
AcDbEntity
  8
実線
100
AcDbEllipse
 10
190.4763101292653
 20
836.1183376126314
 30
0.0
 11
38.15000000000001
 21
0.0
 31
0.0
210
0.0
220
0.0
230
1.0
 40
0.7071067811865476
 41
0.2271706242184387
 42
2.914422029371353
  0
ARC
  5
58A
102
{ACAD_REACTORS
330
63C
102
}
330
1F
100
AcDbEntity
  8
実線
100
AcDbCircle
 10
190.4763101292653
 20
873.3157764019395
 30
0.0
 40
38.15000000000001
100
AcDbArc
 50
0.0
 51
180.0
  0
LINE
  5
58B
102
{ACAD_REACTORS
330
63C
102
}
330
1F
100
AcDbEntity
  8
実線
100
AcDbLine
 10
152.3263101292652
 20
873.3157764019395
 30
0.0
 11
152.3263101292652
 21
841.1711213970624
 31
0.0
  0
LINE
  5
58C
102
{ACAD_REACTORS
330
63C
102
}
330
1F
100
AcDbEntity
  8
実線
100
AcDbLine
 10
228.6263101292653
 20
841.1711213970624
 30
0.0
 11
228.6263101292653
 21
873.3157764019395
 31
0.0
  0
LINE
  5
58D
102
{ACAD_REACTORS
330
63C
102
}
330
1F
100
AcDbEntity
  8
実線
100
AcDbLine
 10
250.4763101292653
 20
925.8157764019395
 30
0.0
 11
250.4763101292653
 21
931.8157764019394
 31
0.0
  0
LINE
  5
58E
102
{ACAD_REACTORS
330
63C
102
}
330
1F
100
AcDbEntity
  8
実線
100
AcDbLine
 10
130.4763101292653
 20
931.8157764019394
 30
0.0
 11
130.4763101292653
 21
925.8157764019395
 31
0.0
  0
LINE
  5
58F
102
{ACAD_REACTORS
330
63C
102
}
330
1F
100
AcDbEntity
  8
実線
100
AcDbLine
 10
240.4763101292654
 20
915.8157764019394
 30
0.0
 11
250.4763101292653
 21
925.8157764019395
 31
0.0
  0
LINE
  5
590
102
{ACAD_REACTORS
330
63C
102
}
330
1F
100
AcDbEntity
  8
実線
100
AcDbLine
 10
130.4763101292653
 20
925.8157764019395
 30
0.0
 11
140.4763101292653
 21
915.8157764019394
 31
0.0
  0
LINE
  5
591
102
{ACAD_REACTORS
330
63C
102
}
330
1F
100
AcDbEntity
  8
実線
100
AcDbLine
 10
140.4763101292653
 20
915.8157764019394
 30
0.0
 11
240.4763101292654
 21
915.8157764019394
 31
0.0
  0
LINE
  5
592
102
{ACAD_REACTORS
330
63C
102
}
330
1F
100
AcDbEntity
  8
実線
100
AcDbLine
 10
130.4763101292653
 20
925.8157764019395
 30
0.0
 11
250.4763101292653
 21
925.8157764019395
 31
0.0
  0
ELLIPSE
  5
593
102
{ACAD_REACTORS
330
63C
102
}
330
1F
100
AcDbEntity
  8
実線
100
AcDbEllipse
 10
190.4763101292653
 20
836.1183376126314
 30
0.0
 11
38.15000000000001
 21
0.0
 31
0.0
210
0.0
220
0.0
230
1.0
 40
0.7071067811865476
 41
0.2271706242184396
 42
2.914422029371351
  0
LINE
  5
594
102
{ACAD_REACTORS
330
63C
102
}
330
1F
100
AcDbEntity
  8
実線
100
AcDbLine
 10
235.9763101292653
 20
821.6226485983074
 30
0.0
 11
235.9763101292653
 21
823.6379029246885
 31
0.0
  0
LINE
  5
595
102
{ACAD_REACTORS
330
63C
102
}
330
1F
100
AcDbEntity
  8
実線
100
AcDbLine
 10
144.9763101292653
 20
823.6379029246885
 30
0.0
 11
144.9763101292653
 21
821.6226485983074
 31
0.0
  0
ELLIPSE
  5
596
102
{ACAD_REACTORS
330
63C
102
}
330
1F
100
AcDbEntity
  8
実線
100
AcDbEllipse
 10
190.4763101292653
 20
821.6226485983074
 30
0.0
 11
45.49999999999998
 21
0.0
 31
0.0
210
0.0
220
0.0
230
1.0
 40
0.7071067811865476
 41
0.0
 42
3.141592653589792
  0
ELLIPSE
  5
597
102
{ACAD_REACTORS
330
63C
102
}
330
1F
100
AcDbEntity
  8
実線
100
AcDbEllipse
 10
190.4763101292653
 20
821.6226485983074
 30
0.0
 11
45.49999999999998
 21
0.0
 31
0.0
210
0.0
220
0.0
230
1.0
 40
0.7071067811865476
 41
4.71238898038469
 42
6.283185307179584
  0
ELLIPSE
  5
598
102
{ACAD_REACTORS
330
63C
102
}
330
1F
100
AcDbEntity
  8
実線
100
AcDbEllipse
 10
190.4763101292653
 20
823.6379029246885
 30
0.0
 11
45.49999999999998
 21
0.0
 31
0.0
210
0.0
220
0.0
230
1.0
 40
0.7071067811865476
 41
0.0
 42
3.141592653589792
  0
ELLIPSE
  5
599
102
{ACAD_REACTORS
330
63C
102
}
330
1F
100
AcDbEntity
  8
実線
100
AcDbEllipse
 10
190.4763101292653
 20
821.6226485983074
 30
0.0
 11
45.49999999999998
 21
0.0
 31
0.0
210
0.0
220
0.0
230
1.0
 40
0.7071067811865476
 41
3.141592653589792
 42
4.71238898038469
  0
LINE
  5
59A
102
{ACAD_REACTORS
330
63C
102
}
330
1F
100
AcDbEntity
  8
実線
100
AcDbLine
 10
125.4763101292653
 20
804.3157764019394
 30
0.0
 11
125.4763101292653
 21
550.3157764019395
 31
0.0
  0
LINE
  5
59B
102
{ACAD_REACTORS
330
63C
102
}
330
1F
100
AcDbEntity
  8
実線
100
AcDbLine
 10
255.4763101292654
 20
550.3157764019395
 30
0.0
 11
255.4763101292654
 21
804.3157764019394
 31
0.0
  0
LINE
  5
59C
102
{ACAD_REACTORS
330
63C
102
}
330
1F
100
AcDbEntity
  8
実線
100
AcDbLine
 10
152.1201587379016
 20
804.3157764019394
 30
0.0
 11
125.4763101292653
 21
804.3157764019394
 31
0.0
  0
LINE
  5
59D
102
{ACAD_REACTORS
330
63C
102
}
330
1F
100
AcDbEntity
  8
実線
100
AcDbLine
 10
228.8324615206291
 20
804.3157764019394
 30
0.0
 11
255.4763101292654
 21
804.3157764019394
 31
0.0
  0
LINE
  5
59E
102
{ACAD_REACTORS
330
63C
102
}
330
1F
100
AcDbEntity
  8
実線
100
AcDbLine
 10
233.7763101292653
 20
496.6157764019397
 30
0.0
 11
234.4763101292654
 21
500.31577640194
 31
0.0
  0
LINE
  5
59F
102
{ACAD_REACTORS
330
63C
102
}
330
1F
100
AcDbEntity
  8
実線
100
AcDbLine
 10
146.4763101292653
 20
500.31577640194
 30
0.0
 11
147.1763101292654
 21
496.6157764019397
 31
0.0
  0
LINE
  5
5A0
102
{ACAD_REACTORS
330
63C
102
}
330
1F
100
AcDbEntity
  8
実線
100
AcDbLine
 10
147.1763101292654
 20
496.6157764019397
 30
0.0
 11
233.7763101292653
 21
496.6157764019397
 31
0.0
  0
LINE
  5
5A1
102
{ACAD_REACTORS
330
63C
102
}
330
1F
100
AcDbEntity
  8
実線
100
AcDbLine
 10
147.1763101292654
 20
496.6157764019397
 30
0.0
 11
147.1763101292654
 21
460.6157764019396
 31
0.0
  0
LINE
  5
5A2
102
{ACAD_REACTORS
330
63C
102
}
330
1F
100
AcDbEntity
  8
実線
100
AcDbLine
 10
233.7763101292653
 20
460.6157764019396
 30
0.0
 11
233.7763101292653
 21
496.6157764019397
 31
0.0
  0
LINE
  5
5A3
102
{ACAD_REACTORS
330
63C
102
}
330
1F
100
AcDbEntity
  8
実線
100
AcDbLine
 10
147.1763101292654
 20
460.6157764019396
 30
0.0
 11
233.7763101292653
 21
460.6157764019396
 31
0.0
  0
LINE
  5
5A4
102
{ACAD_REACTORS
330
63C
102
}
330
1F
100
AcDbEntity
  8
実線
100
AcDbLine
 10
147.9763101292653
 20
460.6157764019396
 30
0.0
 11
147.9763101292653
 21
383.6157764019397
 31
0.0
  0
LINE
  5
5A5
102
{ACAD_REACTORS
330
63C
102
}
330
1F
100
AcDbEntity
  8
実線
100
AcDbLine
 10
232.9763101292656
 20
383.6157764019397
 30
0.0
 11
232.9763101292656
 21
460.6157764019396
 31
0.0
  0
LINE
  5
5A6
102
{ACAD_REACTORS
330
63C
102
}
330
1F
100
AcDbEntity
  8
実線
100
AcDbLine
 10
147.9763101292653
 20
383.6157764019397
 30
0.0
 11
232.9763101292654
 21
383.6157764019397
 31
0.0
  0
LINE
  5
5A7
102
{ACAD_REACTORS
330
63C
102
}
330
1F
100
AcDbEntity
  8
実線
100
AcDbLine
 10
206.9763101292653
 20
374.4157764019401
 30
0.0
 11
232.9763101292652
 21
383.6157764019397
 31
0.0
  0
LINE
  5
5A8
102
{ACAD_REACTORS
330
63C
102
}
330
1F
100
AcDbEntity
  8
実線
100
AcDbLine
 10
147.9763101292653
 20
383.6157764019397
 30
0.0
 11
173.9763101292653
 21
374.4157764019401
 31
0.0
  0
LINE
  5
5A9
102
{ACAD_REACTORS
330
63C
102
}
330
1F
100
AcDbEntity
  8
実線
100
AcDbLine
 10
173.9763101292653
 20
374.4157764019401
 30
0.0
 11
206.9763101292653
 21
374.4157764019401
 31
0.0
  0
LINE
  5
5AA
102
{ACAD_REACTORS
330
63C
102
}
330
1F
100
AcDbEntity
  8
実線
100
AcDbLine
 10
125.4763101292653
 20
550.3157764019395
 30
0.0
 11
255.4763101292654
 21
550.3157764019395
 31
0.0
  0
LINE
  5
5AB
102
{ACAD_REACTORS
330
63C
102
}
330
1F
100
AcDbEntity
  8
実線
100
AcDbLine
 10
130.4763101292653
 20
545.3157764019393
 30
0.0
 11
250.4763101292653
 21
545.3157764019393
 31
0.0
  0
ARC
  5
5AC
102
{ACAD_REACTORS
330
63C
102
}
330
1F
100
AcDbEntity
  8
実線
100
AcDbCircle
 10
130.4763101292653
 20
550.3157764019395
 30
0.0
 40
5.0
100
AcDbArc
 50
180.0
 51
270.0
  0
ARC
  5
5AD
102
{ACAD_REACTORS
330
63C
102
}
330
1F
100
AcDbEntity
  8
実線
100
AcDbCircle
 10
250.4763101292653
 20
550.3157764019395
 30
0.0
 40
5.0
100
AcDbArc
 50
270.0
 51
0.0
  0
LINE
  5
5AE
102
{ACAD_REACTORS
330
63C
102
}
330
1F
100
AcDbEntity
  8
実線
100
AcDbLine
 10
255.4763101292654
 20
804.3157764019394
 30
0.0
 11
255.4763101292654
 21
807.8157764019394
 31
0.0
  0
LINE
  5
5AF
102
{ACAD_REACTORS
330
63C
102
}
330
1F
100
AcDbEntity
  8
実線
100
AcDbLine
 10
125.4763101292653
 20
807.8157764019394
 30
0.0
 11
125.4763101292653
 21
804.3157764019394
 31
0.0
  0
LINE
  5
5B0
102
{ACAD_REACTORS
330
63C
102
}
330
1F
100
AcDbEntity
  8
実線
100
AcDbLine
 10
264.0209098187322
 20
807.8157764019394
 30
0.0
 11
264.0209098187322
 21
826.3157764019394
 31
0.0
  0
LINE
  5
5B1
102
{ACAD_REACTORS
330
63C
102
}
330
1F
100
AcDbEntity
  8
実線
100
AcDbLine
 10
264.0209098187322
 20
807.8157764019394
 30
0.0
 11
231.5736404599129
 21
807.8157764019394
 31
0.0
  0
LINE
  5
5B2
102
{ACAD_REACTORS
330
63C
102
}
330
1F
100
AcDbEntity
  8
実線
100
AcDbLine
 10
116.9317104397985
 20
826.3157764019394
 30
0.0
 11
145.1341885723766
 21
826.3157764019394
 31
0.0
  0
LINE
  5
5B3
102
{ACAD_REACTORS
330
63C
102
}
330
1F
100
AcDbEntity
  8
実線
100
AcDbLine
 10
116.9317104397985
 20
807.8157764019394
 30
0.0
 11
149.3789797986179
 21
807.8157764019394
 31
0.0
  0
LINE
  5
5B4
102
{ACAD_REACTORS
330
63C
102
}
330
1F
100
AcDbEntity
  8
実線
100
AcDbLine
 10
116.9317104397985
 20
826.3157764019394
 30
0.0
 11
116.9317104397985
 21
807.8157764019394
 31
0.0
  0
LINE
  5
5B5
102
{ACAD_REACTORS
330
63C
102
}
330
1F
100
AcDbEntity
  8
実線
100
AcDbLine
 10
330.4763101292656
 20
953.8157764019395
 30
0.0
 11
50.47631012926547
 21
953.8157764019395
 31
0.0
  0
LINE
  5
5B6
102
{ACAD_REACTORS
330
63C
102
}
330
1F
100
AcDbEntity
  8
実線
100
AcDbLine
 10
50.47631012926547
 20
931.8157764019394
 30
0.0
 11
330.4763101292656
 21
931.8157764019394
 31
0.0
  0
LINE
  5
5B7
102
{ACAD_REACTORS
330
63C
102
}
330
1F
100
AcDbEntity
  8
実線
100
AcDbLine
 10
330.4763101292656
 20
931.8157764019394
 30
0.0
 11
330.4763101292656
 21
953.8157764019395
 31
0.0
  0
LINE
  5
5B8
102
{ACAD_REACTORS
330
63C
102
}
330
1F
100
AcDbEntity
  8
実線
100
AcDbLine
 10
50.47631012926547
 20
953.8157764019395
 30
0.0
 11
50.47631012926547
 21
931.8157764019394
 31
0.0
  0
ARC
  5
5B9
102
{ACAD_REACTORS
330
63C
102
}
330
1F
100
AcDbEntity
  8
実線
100
AcDbCircle
 10
240.4763101292654
 20
900.8157764019395
 30
0.0
 40
15.0
100
AcDbArc
 50
0.0
 51
90.0
  0
ARC
  5
5BA
102
{ACAD_REACTORS
330
63C
102
}
330
1F
100
AcDbEntity
  8
実線
100
AcDbCircle
 10
140.4763101292653
 20
900.8157764019395
 30
0.0
 40
15.0
100
AcDbArc
 50
90.0
 51
180.0
  0
LINE
  5
5BB
102
{ACAD_REACTORS
330
63C
102
}
330
1F
100
AcDbEntity
  8
実線
100
AcDbLine
 10
125.4763101292653
 20
900.8157764019395
 30
0.0
 11
125.4763101292653
 21
846.3157764019396
 31
0.0
  0
LINE
  5
5BC
102
{ACAD_REACTORS
330
63C
102
}
330
1F
100
AcDbEntity
  8
実線
100
AcDbLine
 10
255.4763101292654
 20
846.3157764019396
 30
0.0
 11
255.4763101292654
 21
900.8157764019395
 31
0.0
  0
LINE
  5
5BD
102
{ACAD_REACTORS
330
63C
102
}
330
1F
100
AcDbEntity
  8
実線
100
AcDbLine
 10
264.0209098187322
 20
826.3157764019394
 30
0.0
 11
264.0209098187322
 21
846.3157764019396
 31
0.0
  0
LINE
  5
5BE
102
{ACAD_REACTORS
330
63C
102
}
330
1F
100
AcDbEntity
  8
実線
100
AcDbLine
 10
264.0209098187322
 20
846.3157764019396
 30
0.0
 11
228.6263101292653
 21
846.3157764019396
 31
0.0
  0
LINE
  5
5BF
102
{ACAD_REACTORS
330
63C
102
}
330
1F
100
AcDbEntity
  8
実線
100
AcDbLine
 10
264.0209098187322
 20
826.3157764019394
 30
0.0
 11
235.8184316861541
 21
826.3157764019394
 31
0.0
  0
LINE
  5
5C0
102
{ACAD_REACTORS
330
63C
102
}
330
1F
100
AcDbEntity
  8
実線
100
AcDbLine
 10
116.9317104397987
 20
846.3157764019396
 30
0.0
 11
152.3263101292652
 21
846.3157764019396
 31
0.0
  0
LINE
  5
5C1
102
{ACAD_REACTORS
330
63C
102
}
330
1F
100
AcDbEntity
  8
実線
100
AcDbLine
 10
116.9317104397987
 20
846.3157764019396
 30
0.0
 11
116.9317104397987
 21
826.3157764019394
 31
0.0
  0
LINE
  5
5C2
102
{ACAD_REACTORS
330
63B
102
}
330
1F
100
AcDbEntity
  8
実線
100
AcDbLine
 10
714.4763101292653
 20
500.31577640194
 30
0.0
 11
626.4763101292653
 21
500.31577640194
 31
0.0
  0
LINE
  5
5C3
102
{ACAD_REACTORS
330
63B
102
}
330
1F
100
AcDbEntity
  8
実線
100
AcDbLine
 10
626.4763101292653
 20
545.3157764019393
 30
0.0
 11
626.4763101292653
 21
500.31577640194
 31
0.0
  0
LINE
  5
5C4
102
{ACAD_REACTORS
330
63B
102
}
330
1F
100
AcDbEntity
  8
実線
100
AcDbLine
 10
714.4763101292653
 20
500.31577640194
 30
0.0
 11
714.4763101292653
 21
545.3157764019393
 31
0.0
  0
LINE
  5
5C5
102
{ACAD_REACTORS
330
63B
102
}
330
1F
100
AcDbEntity
  8
実線
100
AcDbLine
 10
609.9132849943903
 20
911.4657764019394
 30
0.0
 11
587.4763101292653
 21
911.4657764019394
 31
0.0
  0
LINE
  5
5C6
102
{ACAD_REACTORS
330
63B
102
}
330
1F
100
AcDbEntity
  8
実線
100
AcDbLine
 10
587.4763101292653
 20
835.1657764019403
 30
0.0
 11
596.9317104397982
 21
835.1657764019403
 31
0.0
  0
LINE
  5
5C7
102
{ACAD_REACTORS
330
63B
102
}
330
1F
100
AcDbEntity
  8
実線
100
AcDbLine
 10
587.4763101292653
 20
911.4657764019394
 30
0.0
 11
587.4763101292653
 21
835.1657764019403
 31
0.0
  0
ARC
  5
5C8
102
{ACAD_REACTORS
330
63B
102
}
330
1F
100
AcDbEntity
  8
実線
100
AcDbCircle
 10
587.4763101292653
 20
746.3157764019395
 30
0.0
 40
165.15
100
AcDbArc
 50
90.0
 51
135.0000000000001
  0
ARC
  5
5C9
102
{ACAD_REACTORS
330
63B
102
}
330
1F
100
AcDbEntity
  8
実線
100
AcDbCircle
 10
587.4763101292653
 20
746.3157764019395
 30
0.0
 40
88.84999999999998
100
AcDbArc
 50
90.0
 51
135.0000000000001
  0
LINE
  5
5CA
102
{ACAD_REACTORS
330
63B
102
}
330
1F
100
AcDbEntity
  8
実線
100
AcDbLine
 10
730.4763101292653
 20
925.8157764019395
 30
0.0
 11
730.4763101292653
 21
931.8157764019394
 31
0.0
  0
LINE
  5
5CB
102
{ACAD_REACTORS
330
63B
102
}
330
1F
100
AcDbEntity
  8
実線
100
AcDbLine
 10
610.4763101292653
 20
931.8157764019394
 30
0.0
 11
610.4763101292653
 21
925.8157764019395
 31
0.0
  0
LINE
  5
5CC
102
{ACAD_REACTORS
330
63B
102
}
330
1F
100
AcDbEntity
  8
実線
100
AcDbLine
 10
720.4763101292654
 20
915.8157764019394
 30
0.0
 11
730.4763101292653
 21
925.8157764019395
 31
0.0
  0
LINE
  5
5CD
102
{ACAD_REACTORS
330
63B
102
}
330
1F
100
AcDbEntity
  8
実線
100
AcDbLine
 10
610.4763101292653
 20
925.8157764019395
 30
0.0
 11
620.4763101292654
 21
915.8157764019394
 31
0.0
  0
LINE
  5
5CE
102
{ACAD_REACTORS
330
63B
102
}
330
1F
100
AcDbEntity
  8
実線
100
AcDbLine
 10
620.4763101292654
 20
915.8157764019394
 30
0.0
 11
720.4763101292654
 21
915.8157764019394
 31
0.0
  0
LINE
  5
5CF
102
{ACAD_REACTORS
330
63B
102
}
330
1F
100
AcDbEntity
  8
実線
100
AcDbLine
 10
610.4763101292653
 20
925.8157764019395
 30
0.0
 11
730.4763101292653
 21
925.8157764019395
 31
0.0
  0
LINE
  5
5D0
102
{ACAD_REACTORS
330
63B
102
}
330
1F
100
AcDbEntity
  8
実線
100
AcDbLine
 10
514.2554029373985
 20
798.7477442269224
 30
0.0
 11
524.6498726208409
 21
809.1422139103645
 31
0.0
  0
LINE
  5
5D1
102
{ACAD_REACTORS
330
63B
102
}
330
1F
100
AcDbEntity
  8
実線
100
AcDbLine
 10
470.6976252163071
 20
863.0944613148974
 30
0.0
 11
460.3031555328648
 21
852.6999916314563
 31
0.0
  0
LINE
  5
5D2
102
{ACAD_REACTORS
330
63B
102
}
330
1F
100
AcDbEntity
  8
実線
100
AcDbLine
 10
524.6498726208409
 20
809.1422139103645
 30
0.0
 11
470.6976252163071
 21
863.0944613148974
 31
0.0
  0
LINE
  5
5D3
102
{ACAD_REACTORS
330
63B
102
}
330
1F
100
AcDbEntity
  8
実線
100
AcDbLine
 10
515.3514184482376
 20
789.4492900543193
 30
0.0
 11
517.3666727746194
 21
791.4645443807014
 31
0.0
  0
LINE
  5
5D4
102
{ACAD_REACTORS
330
63B
102
}
330
1F
100
AcDbEntity
  8
実線
100
AcDbLine
 10
453.0199556866437
 20
855.8112614686763
 30
0.0
 11
451.0047013602619
 21
853.7960071422954
 31
0.0
  0
LINE
  5
5D5
102
{ACAD_REACTORS
330
63B
102
}
330
1F
100
AcDbEntity
  8
実線
100
AcDbLine
 10
515.3514184482376
 20
789.4492900543193
 30
0.0
 11
451.0047013602619
 21
853.7960071422954
 31
0.0
  0
LINE
  5
5D6
102
{ACAD_REACTORS
330
63B
102
}
330
1F
100
AcDbEntity
  8
実線
100
AcDbLine
 10
460.3031555328648
 20
852.6999916314563
 30
0.0
 11
453.0199556866437
 21
855.8112614686763
 31
0.0
  0
LINE
  5
5D7
102
{ACAD_REACTORS
330
63B
102
}
330
1F
100
AcDbEntity
  8
実線
100
AcDbLine
 10
517.3666727746194
 20
791.4645443807014
 30
0.0
 11
514.2554029373985
 21
798.7477442269224
 31
0.0
  0
LINE
  5
5D8
102
{ACAD_REACTORS
330
63B
102
}
330
1F
100
AcDbEntity
  8
実線
100
AcDbLine
 10
453.0199556866437
 20
855.8112614686763
 30
0.0
 11
517.3666727746194
 21
791.4645443807014
 31
0.0
  0
LINE
  5
5D9
102
{ACAD_REACTORS
330
63B
102
}
330
1F
100
AcDbEntity
  8
実線
100
AcDbLine
 10
460.3031555328648
 20
852.6999916314563
 30
0.0
 11
514.2554029373985
 21
798.7477442269224
 31
0.0
  0
LINE
  5
5DA
102
{ACAD_REACTORS
330
63B
102
}
330
1F
100
AcDbEntity
  8
実線
100
AcDbLine
 10
605.4763101292653
 20
804.3157764019394
 30
0.0
 11
605.4763101292653
 21
550.3157764019395
 31
0.0
  0
LINE
  5
5DB
102
{ACAD_REACTORS
330
63B
102
}
330
1F
100
AcDbEntity
  8
実線
100
AcDbLine
 10
735.4763101292653
 20
550.3157764019395
 30
0.0
 11
735.4763101292653
 21
804.3157764019394
 31
0.0
  0
LINE
  5
5DC
102
{ACAD_REACTORS
330
63B
102
}
330
1F
100
AcDbEntity
  8
実線
100
AcDbLine
 10
713.7763101292653
 20
496.6157764019397
 30
0.0
 11
627.1763101292651
 21
496.6157764019397
 31
0.0
  0
LINE
  5
5DD
102
{ACAD_REACTORS
330
63B
102
}
330
1F
100
AcDbEntity
  8
実線
100
AcDbLine
 10
713.7763101292653
 20
496.6157764019397
 30
0.0
 11
714.4763101292653
 21
500.31577640194
 31
0.0
  0
LINE
  5
5DE
102
{ACAD_REACTORS
330
63B
102
}
330
1F
100
AcDbEntity
  8
実線
100
AcDbLine
 10
626.4763101292653
 20
500.31577640194
 30
0.0
 11
627.1763101292651
 21
496.6157764019397
 31
0.0
  0
LINE
  5
5DF
102
{ACAD_REACTORS
330
63B
102
}
330
1F
100
AcDbEntity
  8
実線
100
AcDbLine
 10
713.7763101292653
 20
460.6157764019396
 30
0.0
 11
627.1763101292651
 21
460.6157764019396
 31
0.0
  0
LINE
  5
5E0
102
{ACAD_REACTORS
330
63B
102
}
330
1F
100
AcDbEntity
  8
実線
100
AcDbLine
 10
627.1763101292651
 20
496.6157764019397
 30
0.0
 11
627.1763101292651
 21
460.6157764019396
 31
0.0
  0
LINE
  5
5E1
102
{ACAD_REACTORS
330
63B
102
}
330
1F
100
AcDbEntity
  8
実線
100
AcDbLine
 10
713.7763101292653
 20
460.6157764019396
 30
0.0
 11
713.7763101292653
 21
496.6157764019397
 31
0.0
  0
LINE
  5
5E2
102
{ACAD_REACTORS
330
63B
102
}
330
1F
100
AcDbEntity
  8
実線
100
AcDbLine
 10
712.9763101292653
 20
383.6157764019397
 30
0.0
 11
627.9763101292653
 21
383.6157764019397
 31
0.0
  0
LINE
  5
5E3
102
{ACAD_REACTORS
330
63B
102
}
330
1F
100
AcDbEntity
  8
実線
100
AcDbLine
 10
627.9763101292653
 20
460.6157764019396
 30
0.0
 11
627.9763101292653
 21
383.6157764019397
 31
0.0
  0
LINE
  5
5E4
102
{ACAD_REACTORS
330
63B
102
}
330
1F
100
AcDbEntity
  8
実線
100
AcDbLine
 10
712.9763101292653
 20
383.6157764019397
 30
0.0
 11
712.9763101292653
 21
460.6157764019396
 31
0.0
  0
LINE
  5
5E5
102
{ACAD_REACTORS
330
63B
102
}
330
1F
100
AcDbEntity
  8
実線
100
AcDbLine
 10
686.9763101292654
 20
374.4157764019401
 30
0.0
 11
653.9763101292654
 21
374.4157764019401
 31
0.0
  0
LINE
  5
5E6
102
{ACAD_REACTORS
330
63B
102
}
330
1F
100
AcDbEntity
  8
実線
100
AcDbLine
 10
686.9763101292654
 20
374.4157764019401
 30
0.0
 11
712.9763101292653
 21
383.6157764019397
 31
0.0
  0
LINE
  5
5E7
102
{ACAD_REACTORS
330
63B
102
}
330
1F
100
AcDbEntity
  8
実線
100
AcDbLine
 10
627.9763101292653
 20
383.6157764019397
 30
0.0
 11
653.9763101292654
 21
374.4157764019401
 31
0.0
  0
LINE
  5
5E8
102
{ACAD_REACTORS
330
63B
102
}
330
1F
100
AcDbEntity
  8
実線
100
AcDbLine
 10
730.4763101199132
 20
545.3157764019393
 30
0.0
 11
610.4763101292653
 21
545.3157764019393
 31
0.0
  0
ARC
  5
5E9
102
{ACAD_REACTORS
330
63B
102
}
330
1F
100
AcDbEntity
  8
実線
100
AcDbCircle
 10
610.4763101292653
 20
550.3157764019395
 30
0.0
 40
5.0
100
AcDbArc
 50
180.0
 51
270.0
  0
ARC
  5
5EA
102
{ACAD_REACTORS
330
63B
102
}
330
1F
100
AcDbEntity
  8
実線
100
AcDbCircle
 10
730.4763101292653
 20
550.3157764019395
 30
0.0
 40
5.0
100
AcDbArc
 50
270.0
 51
0.0
  0
LINE
  5
5EB
102
{ACAD_REACTORS
330
63B
102
}
330
1F
100
AcDbEntity
  8
実線
100
AcDbLine
 10
605.4763101292653
 20
550.3157764019395
 30
0.0
 11
735.4763101292653
 21
550.3157764019395
 31
0.0
  0
LINE
  5
5EC
102
{ACAD_REACTORS
330
63B
102
}
330
1F
100
AcDbEntity
  8
実線
100
AcDbLine
 10
744.0209098187322
 20
826.3157764019394
 30
0.0
 11
596.9317104397982
 21
826.3157764019394
 31
0.0
  0
LINE
  5
5ED
102
{ACAD_REACTORS
330
63B
102
}
330
1F
100
AcDbEntity
  8
実線
100
AcDbLine
 10
735.4763101292653
 20
804.3157764019394
 30
0.0
 11
735.4763101292653
 21
807.8157764019394
 31
0.0
  0
LINE
  5
5EE
102
{ACAD_REACTORS
330
63B
102
}
330
1F
100
AcDbEntity
  8
実線
100
AcDbLine
 10
605.4763101292653
 20
807.8157764019394
 30
0.0
 11
605.4763101292653
 21
804.3157764019394
 31
0.0
  0
LINE
  5
5EF
102
{ACAD_REACTORS
330
63B
102
}
330
1F
100
AcDbEntity
  8
実線
100
AcDbLine
 10
605.4763101292653
 20
804.3157764019394
 30
0.0
 11
735.4763101292653
 21
804.3157764019394
 31
0.0
  0
LINE
  5
5F0
102
{ACAD_REACTORS
330
63B
102
}
330
1F
100
AcDbEntity
  8
実線
100
AcDbLine
 10
596.9317104397982
 20
807.8157764019394
 30
0.0
 11
640.8863065416571
 21
807.8157764019394
 31
0.0
  0
LINE
  5
5F1
102
{ACAD_REACTORS
330
63B
102
}
330
1F
100
AcDbEntity
  8
実線
100
AcDbLine
 10
596.9317104397982
 20
826.3157764019394
 30
0.0
 11
596.9317104397982
 21
807.8157764019394
 31
0.0
  0
LINE
  5
5F2
102
{ACAD_REACTORS
330
63B
102
}
330
1F
100
AcDbEntity
  8
実線
100
AcDbLine
 10
744.0209098187322
 20
807.8157764019394
 30
0.0
 11
744.0209098187322
 21
826.3157764019394
 31
0.0
  0
LINE
  5
5F3
102
{ACAD_REACTORS
330
63B
102
}
330
1F
100
AcDbEntity
  8
実線
100
AcDbLine
 10
744.0209098187322
 20
807.8157764019394
 30
0.0
 11
700.0663137168742
 21
807.8157764019394
 31
0.0
  0
LINE
  5
5F4
102
{ACAD_REACTORS
330
63B
102
}
330
1F
100
AcDbEntity
  8
実線
100
AcDbLine
 10
700.0663137168742
 20
807.8157764019394
 30
0.0
 11
700.0663137168742
 21
826.3157764019394
 31
0.0
  0
LINE
  5
5F5
102
{ACAD_REACTORS
330
63B
102
}
330
1F
100
AcDbEntity
  8
実線
100
AcDbLine
 10
640.8863065416571
 20
807.8157764019394
 30
0.0
 11
640.8863065416571
 21
826.3157764019394
 31
0.0
  0
LINE
  5
5F6
102
{ACAD_REACTORS
330
63B
102
}
330
1F
100
AcDbEntity
  8
実線
100
AcDbLine
 10
530.4763101292652
 20
953.8157764019395
 30
0.0
 11
810.4763101292654
 21
953.8157764019395
 31
0.0
  0
LINE
  5
5F7
102
{ACAD_REACTORS
330
63B
102
}
330
1F
100
AcDbEntity
  8
実線
100
AcDbLine
 10
810.4763101292654
 20
931.8157764019394
 30
0.0
 11
810.4763101292654
 21
953.8157764019395
 31
0.0
  0
LINE
  5
5F8
102
{ACAD_REACTORS
330
63B
102
}
330
1F
100
AcDbEntity
  8
実線
100
AcDbLine
 10
530.4763101292652
 20
953.8157764019395
 30
0.0
 11
530.4763101292652
 21
931.8157764019394
 31
0.0
  0
LINE
  5
5F9
102
{ACAD_REACTORS
330
63B
102
}
330
1F
100
AcDbEntity
  8
実線
100
AcDbLine
 10
530.4763101292652
 20
931.8157764019394
 30
0.0
 11
810.4763101292654
 21
931.8157764019394
 31
0.0
  0
LINE
  5
5FA
102
{ACAD_REACTORS
330
63B
102
}
330
1F
100
AcDbEntity
  8
実線
100
AcDbLine
 10
735.4763101292653
 20
846.3157764019396
 30
0.0
 11
735.4763101292653
 21
900.8157764019395
 31
0.0
  0
ARC
  5
5FB
102
{ACAD_REACTORS
330
63B
102
}
330
1F
100
AcDbEntity
  8
実線
100
AcDbCircle
 10
720.4763101292654
 20
900.8157764019395
 30
0.0
 40
15.0
100
AcDbArc
 50
0.0
 51
90.0
  0
ARC
  5
5FC
102
{ACAD_REACTORS
330
63B
102
}
330
1F
100
AcDbEntity
  8
実線
100
AcDbCircle
 10
620.4763101292654
 20
900.8157764019395
 30
0.0
 40
15.0
100
AcDbArc
 50
90.0
 51
134.7650846713295
  0
LINE
  5
5FD
102
{ACAD_REACTORS
330
63B
102
}
330
1F
100
AcDbEntity
  8
実線
100
AcDbLine
 10
596.9317104397982
 20
846.3157764019396
 30
0.0
 11
640.8863065416563
 21
846.3157764019396
 31
0.0
  0
LINE
  5
5FE
102
{ACAD_REACTORS
330
63B
102
}
330
1F
100
AcDbEntity
  8
実線
100
AcDbLine
 10
596.9317104397982
 20
846.3157764019396
 30
0.0
 11
596.9317104397982
 21
826.3157764019394
 31
0.0
  0
LINE
  5
5FF
102
{ACAD_REACTORS
330
63B
102
}
330
1F
100
AcDbEntity
  8
実線
100
AcDbLine
 10
744.0209098187322
 20
826.3157764019394
 30
0.0
 11
744.0209098187322
 21
846.3157764019396
 31
0.0
  0
LINE
  5
600
102
{ACAD_REACTORS
330
63B
102
}
330
1F
100
AcDbEntity
  8
実線
100
AcDbLine
 10
744.0209098187322
 20
846.3157764019396
 30
0.0
 11
700.0663137168742
 21
846.3157764019396
 31
0.0
  0
LINE
  5
601
102
{ACAD_REACTORS
330
63B
102
}
330
1F
100
AcDbEntity
  8
実線
100
AcDbLine
 10
640.8863065416563
 20
826.3157764019394
 30
0.0
 11
640.8863065416563
 21
846.3157764019396
 31
0.0
  0
LINE
  5
602
102
{ACAD_REACTORS
330
63B
102
}
330
1F
100
AcDbEntity
  8
実線
100
AcDbLine
 10
700.0663137168742
 20
826.3157764019394
 30
0.0
 11
700.0663137168742
 21
846.3157764019396
 31
0.0
  0
LINE
  5
603
102
{ACAD_REACTORS
330
63D
102
}
330
1F
100
AcDbEntity
  8
中心線
100
AcDbLine
 10
781.3418540306201
 20
142.3937645181251
 30
0.0
 11
781.3418540306201
 21
113.393764518125
 31
0.0
  0
LINE
  5
604
102
{ACAD_REACTORS
330
63D
102
}
330
1F
100
AcDbEntity
  8
中心線
100
AcDbLine
 10
766.8418540306202
 20
127.893764518125
 30
0.0
 11
795.8418540306202
 21
127.893764518125
 31
0.0
  0
LINE
  5
605
102
{ACAD_REACTORS
330
63D
102
}
330
1F
100
AcDbEntity
  8
中心線
100
AcDbLine
 10
781.3418540306201
 20
234.2377882857466
 30
0.0
 11
781.3418540306201
 21
205.2377882857467
 31
0.0
  0
LINE
  5
606
102
{ACAD_REACTORS
330
63D
102
}
330
1F
100
AcDbEntity
  8
中心線
100
AcDbLine
 10
766.8418540306202
 20
219.7377882857466
 30
0.0
 11
795.8418540306202
 21
219.7377882857466
 31
0.0
  0
LINE
  5
607
102
{ACAD_REACTORS
330
63D
102
}
330
1F
100
AcDbEntity
  8
中心線
100
AcDbLine
 10
716.3983220130762
 20
299.1813203032901
 30
0.0
 11
716.3983220130762
 21
270.1813203032902
 31
0.0
  0
LINE
  5
608
102
{ACAD_REACTORS
330
63D
102
}
330
1F
100
AcDbEntity
  8
中心線
100
AcDbLine
 10
701.8983220130762
 20
284.6813203032901
 30
0.0
 11
730.8983220130762
 21
284.6813203032901
 31
0.0
  0
LINE
  5
609
102
{ACAD_REACTORS
330
63D
102
}
330
1F
100
AcDbEntity
  8
中心線
100
AcDbLine
 10
624.5542982454551
 20
299.1813203032901
 30
0.0
 11
624.5542982454551
 21
270.1813203032902
 31
0.0
  0
LINE
  5
60A
102
{ACAD_REACTORS
330
63D
102
}
330
1F
100
AcDbEntity
  8
中心線
100
AcDbLine
 10
610.0542982454542
 20
284.6813203032901
 30
0.0
 11
639.0542982454551
 21
284.6813203032901
 31
0.0
  0
LINE
  5
60B
102
{ACAD_REACTORS
330
63D
102
}
330
1F
100
AcDbEntity
  8
中心線
100
AcDbLine
 10
559.6107662279112
 20
234.2377882857466
 30
0.0
 11
559.6107662279112
 21
205.2377882857467
 31
0.0
  0
LINE
  5
60C
102
{ACAD_REACTORS
330
63D
102
}
330
1F
100
AcDbEntity
  8
中心線
100
AcDbLine
 10
545.1107662279111
 20
219.7377882857466
 30
0.0
 11
574.1107662279111
 21
219.7377882857466
 31
0.0
  0
LINE
  5
60D
102
{ACAD_REACTORS
330
63D
102
}
330
1F
100
AcDbEntity
  8
中心線
100
AcDbLine
 10
559.6107662279112
 20
142.3937645181248
 30
0.0
 11
559.6107662279112
 21
113.3937645181248
 31
0.0
  0
LINE
  5
60E
102
{ACAD_REACTORS
330
63D
102
}
330
1F
100
AcDbEntity
  8
中心線
100
AcDbLine
 10
545.1107662279111
 20
127.8937645181248
 30
0.0
 11
574.1107662279111
 21
127.8937645181248
 31
0.0
  0
LINE
  5
60F
102
{ACAD_REACTORS
330
63D
102
}
330
1F
100
AcDbEntity
  8
中心線
100
AcDbLine
 10
624.5542982454551
 20
77.45023250058148
 30
0.0
 11
624.5542982454551
 21
48.45023250058137
 31
0.0
  0
LINE
  5
610
102
{ACAD_REACTORS
330
63D
102
}
330
1F
100
AcDbEntity
  8
中心線
100
AcDbLine
 10
610.0542982454542
 20
62.95023250058136
 30
0.0
 11
639.0542982454551
 21
62.95023250058136
 31
0.0
  0
LINE
  5
611
102
{ACAD_REACTORS
330
63D
102
}
330
1F
100
AcDbEntity
  8
中心線
100
AcDbLine
 10
716.3983220130762
 20
77.45023250058148
 30
0.0
 11
716.3983220130762
 21
48.45023250058137
 31
0.0
  0
LINE
  5
612
102
{ACAD_REACTORS
330
63D
102
}
330
1F
100
AcDbEntity
  8
中心線
100
AcDbLine
 10
701.8983220130762
 20
62.95023250058136
 30
0.0
 11
730.8983220130762
 21
62.95023250058136
 31
0.0
  0
LINE
  5
613
102
{ACAD_REACTORS
330
63D
102
}
330
1F
100
AcDbEntity
  8
中心線
100
AcDbLine
 10
445.4763101292651
 20
173.8157764019395
 30
0.0
 11
895.4763101292652
 21
173.8157764019395
 31
0.0
  0
LINE
  5
614
102
{ACAD_REACTORS
330
63D
102
}
330
1F
100
AcDbEntity
  8
中心線
100
AcDbLine
 10
670.4763101292654
 20
23.8157764019395
 30
0.0
 11
670.4763101292654
 21
323.8157764019395
 31
0.0
  0
LINE
  5
615
102
{ACAD_REACTORS
330
63E
102
}
330
1F
100
AcDbEntity
  8
中心線
100
AcDbLine
 10
781.3418540306201
 20
1222.393764518125
 30
0.0
 11
781.3418540306201
 21
1193.393764518125
 31
0.0
  0
LINE
  5
616
102
{ACAD_REACTORS
330
63E
102
}
330
1F
100
AcDbEntity
  8
中心線
100
AcDbLine
 10
766.8418540306202
 20
1207.893764518125
 30
0.0
 11
795.8418540306202
 21
1207.893764518125
 31
0.0
  0
LINE
  5
617
102
{ACAD_REACTORS
330
63E
102
}
330
1F
100
AcDbEntity
  8
中心線
100
AcDbLine
 10
781.3418540306201
 20
1314.237788285748
 30
0.0
 11
781.3418540306201
 21
1285.237788285746
 31
0.0
  0
LINE
  5
618
102
{ACAD_REACTORS
330
63E
102
}
330
1F
100
AcDbEntity
  8
中心線
100
AcDbLine
 10
766.8418540306202
 20
1299.737788285746
 30
0.0
 11
795.8418540306202
 21
1299.737788285746
 31
0.0
  0
LINE
  5
619
102
{ACAD_REACTORS
330
63E
102
}
330
1F
100
AcDbEntity
  8
中心線
100
AcDbLine
 10
716.3983220130762
 20
1379.18132030329
 30
0.0
 11
716.3983220130762
 21
1350.181320303291
 31
0.0
  0
LINE
  5
61A
102
{ACAD_REACTORS
330
63E
102
}
330
1F
100
AcDbEntity
  8
中心線
100
AcDbLine
 10
701.8983220130762
 20
1364.681320303291
 30
0.0
 11
730.8983220130762
 21
1364.681320303291
 31
0.0
  0
LINE
  5
61B
102
{ACAD_REACTORS
330
63E
102
}
330
1F
100
AcDbEntity
  8
中心線
100
AcDbLine
 10
624.5542982454551
 20
1379.18132030329
 30
0.0
 11
624.5542982454551
 21
1350.181320303291
 31
0.0
  0
LINE
  5
61C
102
{ACAD_REACTORS
330
63E
102
}
330
1F
100
AcDbEntity
  8
中心線
100
AcDbLine
 10
610.0542982454542
 20
1364.681320303291
 30
0.0
 11
639.0542982454551
 21
1364.681320303291
 31
0.0
  0
LINE
  5
61D
102
{ACAD_REACTORS
330
63E
102
}
330
1F
100
AcDbEntity
  8
中心線
100
AcDbLine
 10
559.6107662279112
 20
1314.237788285748
 30
0.0
 11
559.6107662279112
 21
1285.237788285746
 31
0.0
  0
LINE
  5
61E
102
{ACAD_REACTORS
330
63E
102
}
330
1F
100
AcDbEntity
  8
中心線
100
AcDbLine
 10
545.1107662279111
 20
1299.737788285746
 30
0.0
 11
574.1107662279111
 21
1299.737788285746
 31
0.0
  0
LINE
  5
61F
102
{ACAD_REACTORS
330
63E
102
}
330
1F
100
AcDbEntity
  8
中心線
100
AcDbLine
 10
559.6107662279112
 20
1222.393764518125
 30
0.0
 11
559.6107662279112
 21
1193.393764518124
 31
0.0
  0
LINE
  5
620
102
{ACAD_REACTORS
330
63E
102
}
330
1F
100
AcDbEntity
  8
中心線
100
AcDbLine
 10
545.1107662279111
 20
1207.893764518125
 30
0.0
 11
574.1107662279111
 21
1207.893764518125
 31
0.0
  0
LINE
  5
621
102
{ACAD_REACTORS
330
63E
102
}
330
1F
100
AcDbEntity
  8
中心線
100
AcDbLine
 10
624.5542982454551
 20
1157.450232500581
 30
0.0
 11
624.5542982454551
 21
1128.450232500581
 31
0.0
  0
LINE
  5
622
102
{ACAD_REACTORS
330
63E
102
}
330
1F
100
AcDbEntity
  8
中心線
100
AcDbLine
 10
610.0542982454542
 20
1142.950232500581
 30
0.0
 11
639.0542982454551
 21
1142.950232500581
 31
0.0
  0
LINE
  5
623
102
{ACAD_REACTORS
330
63E
102
}
330
1F
100
AcDbEntity
  8
中心線
100
AcDbLine
 10
716.3983220130762
 20
1157.450232500581
 30
0.0
 11
716.3983220130762
 21
1128.450232500581
 31
0.0
  0
LINE
  5
624
102
{ACAD_REACTORS
330
63E
102
}
330
1F
100
AcDbEntity
  8
中心線
100
AcDbLine
 10
701.8983220130762
 20
1142.950232500581
 30
0.0
 11
730.8983220130762
 21
1142.950232500581
 31
0.0
  0
LINE
  5
625
102
{ACAD_REACTORS
330
63E
102
}
330
1F
100
AcDbEntity
  8
中心線
100
AcDbLine
 10
445.4763101292654
 20
1253.815776401939
 30
0.0
 11
895.4763101292654
 21
1253.815776401939
 31
0.0
  0
LINE
  5
626
102
{ACAD_REACTORS
330
63E
102
}
330
1F
100
AcDbEntity
  8
中心線
100
AcDbLine
 10
670.4763101292654
 20
1103.815776401939
 30
0.0
 11
670.4763101292654
 21
1403.815776401939
 31
0.0
  0
LINE
  5
627
102
{ACAD_REACTORS
330
639
102
}
330
1F
100
AcDbEntity
  8
中心線
100
AcDbLine
 10
1494.871187707882
 20
873.3157764019395
 30
0.0
 11
1766.081432550648
 21
873.3157764019395
 31
0.0
  0
LINE
  5
628
102
{ACAD_REACTORS
330
639
102
}
330
1F
100
AcDbEntity
  8
中心線
100
AcDbLine
 10
1630.476310129266
 20
368.0665306828523
 30
0.0
 11
1630.476310129266
 21
958.3785493326187
 31
0.0
  0
LINE
  5
629
102
{ACAD_REACTORS
330
639
102
}
330
1F
100
AcDbEntity
  8
中心線
100
AcDbLine
 10
1766.081432550648
 20
873.3157764019395
 30
0.0
 11
1819.188773916653
 21
820.2084350359344
 31
0.0
  0
LINE
  5
632
102
{ACAD_REACTORS
330
63A
102
}
330
1F
100
AcDbEntity
  8
中心線
100
AcDbLine
 10
1150.476310129265
 20
368.0665306828523
 30
0.0
 11
1150.476310129265
 21
958.3785493326187
 31
0.0
  0
LINE
  5
633
102
{ACAD_REACTORS
330
63A
102
}
330
1F
100
AcDbEntity
  8
中心線
100
AcDbLine
 10
1065.476333308332
 20
873.3157764019395
 30
0.0
 11
1235.476286950198
 21
873.3157764019395
 31
0.0
  0
LINE
  5
634
102
{ACAD_REACTORS
330
63B
102
}
330
1F
100
AcDbEntity
  8
中心線
100
AcDbLine
 10
806.0814325506484
 20
873.3157764019395
 30
0.0
 11
534.8711877078821
 21
873.3157764019395
 31
0.0
  0
LINE
  5
635
102
{ACAD_REACTORS
330
63B
102
}
330
1F
100
AcDbEntity
  8
中心線
100
AcDbLine
 10
670.4763101292651
 20
368.0665306828523
 30
0.0
 11
670.4763101292654
 21
958.3785493326191
 31
0.0
  0
LINE
  5
636
102
{ACAD_REACTORS
330
63B
102
}
330
1F
100
AcDbEntity
  8
中心線
100
AcDbLine
 10
534.8711877078821
 20
873.3157764019395
 30
0.0
 11
481.7638463418766
 21
820.2084350359344
 31
0.0
  0
LINE
  5
637
102
{ACAD_REACTORS
330
63C
102
}
330
1F
100
AcDbEntity
  8
中心線
100
AcDbLine
 10
190.4763101292652
 20
368.0665306828523
 30
0.0
 11
190.4763101292653
 21
958.3157764019395
 31
0.0
  0
LINE
  5
638
102
{ACAD_REACTORS
330
63C
102
}
330
1F
100
AcDbEntity
  8
中心線
100
AcDbLine
 10
105.4763101292653
 20
873.3157764019395
 30
0.0
 11
275.4763101292653
 21
873.3157764019395
 31
0.0
  0
ENDSEC
  0
SECTION
  2
OBJECTS
  0
DICTIONARY
  5
C
330
0
100
AcDbDictionary
281
     1
  3
ACAD_CIP_PREVIOUS_PRODUCT_INFO
350
22E
  3
ACAD_COLOR
350
224
  3
ACAD_DETAILVIEWSTYLE
350
227
  3
ACAD_GROUP
350
D
  3
ACAD_LAYOUT
350
1A
  3
ACAD_MATERIAL
350
43
  3
ACAD_MLEADERSTYLE
350
5B
  3
ACAD_MLINESTYLE
350
17
  3
ACAD_PLOTSETTINGS
350
19
  3
ACAD_PLOTSTYLENAME
350
E
  3
ACAD_SCALELIST
350
47
  3
ACAD_SECTIONVIEWSTYLE
350
225
  3
ACAD_TABLESTYLE
350
59
  3
ACAD_VISUALSTYLE
350
2A
  3
ACDB_RECOMPOSE_DATA
350
6D9
  3
AcDbVariableDictionary
350
1D9
  3
DWGPROPS
350
6DA
  0
DICTIONARY
  5
235
330
2
100
AcDbDictionary
280
     1
281
     1
  3
ACAD_LAYERSTATES
360
236
  0
DICTIONARY
  5
63F
330
10
100
AcDbDictionary
280
     1
281
     1
  3
ADSK_XREC_LAYER_RECONCILED
360
640
  0
DICTIONARY
  5
231
330
230
100
AcDbDictionary
280
     1
281
     1
  3
ADSK_XREC_LAYER_RECONCILED
360
641
  0
DICTIONARY
  5
233
330
232
100
AcDbDictionary
280
     1
281
     1
  3
ADSK_XREC_LAYER_RECONCILED
360
642
  0
DICTIONARY
  5
4CF
330
1F
100
AcDbDictionary
280
     1
281
     1
  3
ACAD_SORTENTS
360
4D0
  0
XRECORD
  5
22E
102
{ACAD_REACTORS
330
C
102
}
330
C
100
AcDbXrecord
280
     1
300
ACDLT
300
2016
300
ACDLT_F_S
  0
DICTIONARY
  5
224
102
{ACAD_REACTORS
330
C
102
}
330
C
100
AcDbDictionary
281
     1
  0
DICTIONARY
  5
227
102
{ACAD_REACTORS
330
C
102
}
330
C
100
AcDbDictionary
281
     1
  3
Metric50
350
228
  0
DICTIONARY
  5
D
102
{ACAD_REACTORS
330
C
102
}
330
C
100
AcDbDictionary
281
     1
  3
*A1
350
639
  3
*A2
350
63A
  3
*A3
350
63B
  3
*A4
350
63C
  3
*A5
350
63D
  3
*A6
350
63E
  0
DICTIONARY
  5
1A
102
{ACAD_REACTORS
330
C
102
}
330
C
100
AcDbDictionary
281
     1
  3
Layout1
350
1E
  3
Model
350
22
  3
レイアウト1
350
229
  0
DICTIONARY
  5
43
102
{ACAD_REACTORS
330
C
102
}
330
C
100
AcDbDictionary
281
     1
  3
ByBlock
350
45
  3
ByLayer
350
44
  3
Global
350
46
  0
DICTIONARY
  5
5B
102
{ACAD_REACTORS
330
C
102
}
330
C
100
AcDbDictionary
281
     1
  3
Standard
350
5C
  0
DICTIONARY
  5
17
102
{ACAD_REACTORS
330
C
102
}
330
C
100
AcDbDictionary
281
     1
  3
Standard
350
18
  0
DICTIONARY
  5
19
102
{ACAD_REACTORS
330
C
102
}
330
C
100
AcDbDictionary
281
     1
  0
ACDBDICTIONARYWDFLT
  5
E
102
{ACAD_REACTORS
330
C
102
}
330
C
100
AcDbDictionary
281
     1
  3
Normal
350
F
100
AcDbDictionaryWithDefault
340
F
  0
DICTIONARY
  5
47
102
{ACAD_REACTORS
330
C
102
}
330
C
100
AcDbDictionary
281
     1
  3
A0
350
48
  3
A1
350
49
  3
A2
350
4A
  3
A3
350
4B
  3
A4
350
4C
  3
A5
350
4D
  3
A6
350
4E
  3
A7
350
4F
  3
A8
350
50
  3
A9
350
51
  3
B0
350
52
  3
B1
350
53
  3
B2
350
54
  3
B3
350
55
  3
B4
350
56
  3
B5
350
57
  3
B6
350
58
  0
DICTIONARY
  5
225
102
{ACAD_REACTORS
330
C
102
}
330
C
100
AcDbDictionary
281
     1
  3
Metric50
350
226
  0
DICTIONARY
  5
59
102
{ACAD_REACTORS
330
C
102
}
330
C
100
AcDbDictionary
281
     1
  3
Standard
350
5A
  0
DICTIONARY
  5
2A
102
{ACAD_REACTORS
330
C
102
}
330
C
100
AcDbDictionary
281
     1
  3
2dWireframe
350
2F
  3
Basic
350
32
  3
Brighten
350
36
  3
ColorChange
350
3A
  3
Conceptual
350
34
  3
Dim
350
35
  3
EdgeColorOff
350
3D
  3
Facepattern
350
39
  3
Flat
350
2B
  3
FlatWithEdges
350
2C
  3
Gouraud
350
2D
  3
GouraudWithEdges
350
2E
  3
Hidden
350
31
  3
JitterOff
350
3B
  3
Linepattern
350
38
  3
OverhangOff
350
3C
  3
Realistic
350
33
  3
Shaded
350
42
  3
Shaded with edges
350
41
  3
Shades of Gray
350
3E
  3
Sketchy
350
3F
  3
Thicken
350
37
  3
Wireframe
350
30
  3
X-Ray
350
40
  0
XRECORD
  5
6D9
102
{ACAD_REACTORS
330
C
102
}
330
C
100
AcDbXrecord
280
     1
 90
        1
330
5A
  0
DICTIONARY
  5
1D9
102
{ACAD_REACTORS
330
C
102
}
330
C
100
AcDbDictionary
281
     1
  3
CANNOSCALE
350
1E7
  3
CENTEREXE
350
1E0
  3
CENTERLTYPEFILE
350
1E1
  3
CMLEADERSTYLE
350
1DB
  3
CTABLESTYLE
350
1DA
  3
CVIEWDETAILSTYLE
350
643
  3
CVIEWSECTIONSTYLE
350
644
  3
DIMASSOC
350
1E2
  3
HIDETEXT
350
1E3
  3
INDEXCTL
350
693
  3
LAYEREVAL
350
646
  3
LAYERNOTIFY
350
647
  3
LIGHTINGUNITS
350
645
  3
LOFTANG1
350
696
  3
LOFTANG2
350
697
  3
LONGITUDE
350
698
  3
MSLTSCALE
350
1E8
  3
PSOLHEIGHT
350
695
  3
PSOLWIDTH
350
694
  3
SORTENTS
350
692
  3
XCLIPFRAME
350
699
  0
XRECORD
  5
6DA
102
{ACAD_REACTORS
330
C
102
}
330
C
100
AcDbXrecord
280
     1
  1
DWGPROPS COOKIE
  2

  3

  4

  6
File was created by TR2_DExp
  7

  8
fujino
  9

300
=
301
=
302
=
303
=
304
=
305
=
306
=
307
=
308
=
309
=
 40
0.0068337268518519
 41
2455188.75
 42
2459744.671412778
  1

 90
        0
  0
DICTIONARY
  5
236
102
{ACAD_REACTORS
330
235
102
}
330
235
100
AcDbDictionary
281
     1
  0
XRECORD
  5
640
102
{ACAD_REACTORS
330
63F
102
}
330
63F
100
AcDbXrecord
280
     1
290
     1
  0
XRECORD
  5
641
102
{ACAD_REACTORS
330
231
102
}
330
231
100
AcDbXrecord
280
     1
290
     1
  0
XRECORD
  5
642
102
{ACAD_REACTORS
330
233
102
}
330
233
100
AcDbXrecord
280
     1
290
     1
  0
SORTENTSTABLE
  5
4D0
102
{ACAD_REACTORS
330
4CF
102
}
330
4CF
100
AcDbSortentsTable
330
1F
331
636
  5
636
331
4D7
  5
469
331
516
  5
426
331
632
  5
632
331
4D3
  5
465
331
512
  5
422
331
587
  5
3B4
331
5B6
  5
3E3
331
5F5
  5
3A5
331
626
  5
626
331
5F1
  5
3A1
331
4C7
  5
4C4
331
544
  5
454
331
583
  5
41F
331
5B2
  5
3DF
331
622
  5
622
331
50A
  5
49C
331
5AE
  5
3DB
331
5ED
  5
39D
331
540
  5
450
331
57F
  5
41B
331
57B
  5
417
331
5AA
  5
3D7
331
5E9
  5
399
331
53C
  5
44C
331
538
  5
448
331
61E
  5
61E
331
61A
  5
61A
331
577
  5
413
331
5A6
  5
3D3
331
5E5
  5
395
331
616
  5
616
331
5E1
  5
391
331
534
  5
444
331
573
  5
40F
331
5A2
  5
3CF
331
4FE
  5
490
331
612
  5
612
331
5DD
  5
38D
331
530
  5
440
331
56F
  5
40B
331
5D9
  5
389
331
56B
  5
407
331
4F6
  5
488
331
4BB
  5
4B8
331
4F2
  5
484
331
567
  5
403
331
5D5
  5
385
331
52D
  5
43D
331
5D1
  5
381
331
563
  5
3FF
331
4EE
  5
480
331
529
  5
439
331
60C
  5
60C
331
5CD
  5
37D
331
4EA
  5
47C
331
55F
  5
3FB
331
59E
  5
3CB
331
608
  5
608
331
59A
  5
3C7
331
5C9
  5
379
331
55B
  5
3F7
331
4B3
  5
4B0
331
628
  5
628
331
4AF
  5
4AC
331
4AB
  5
4A8
331
4E6
  5
478
331
525
  5
435
331
604
  5
604
331
4E2
  5
474
331
521
  5
431
331
557
  5
3F3
331
596
  5
3C3
331
5C5
  5
375
331
600
  5
3B0
331
4DE
  5
470
331
553
  5
3EF
331
592
  5
3BF
331
5C1
  5
3EE
331
51D
  5
42D
331
519
  5
429
331
5BD
  5
3EA
331
5FC
  5
3AC
331
54F
  5
45F
331
58E
  5
3BB
331
4DA
  5
46C
331
58A
  5
3B7
331
5B9
  5
3E6
331
5F8
  5
3A8
331
54B
  5
45B
331
4A7
  5
4A4
331
635
  5
635
331
4D6
  5
468
331
515
  5
425
331
638
  5
638
331
4D2
  5
464
331
511
  5
4A3
331
547
  5
457
331
586
  5
3B3
331
5B5
  5
3E2
331
5F4
  5
3A4
331
625
  5
625
331
5F0
  5
3A0
331
543
  5
453
331
582
  5
41E
331
5B1
  5
3DE
331
50D
  5
49F
331
621
  5
621
331
5AD
  5
3DA
331
5EC
  5
39C
331
53F
  5
44F
331
57E
  5
41A
331
57A
  5
416
331
5A9
  5
3D6
331
5E8
  5
398
331
53B
  5
44B
331
61D
  5
61D
331
619
  5
619
331
501
  5
493
331
537
  5
447
331
576
  5
412
331
5A5
  5
3D2
331
5E4
  5
394
331
615
  5
615
331
5E0
  5
390
331
533
  5
443
331
572
  5
40E
331
5A1
  5
3CE
331
611
  5
611
331
5DC
  5
38C
331
56E
  5
40A
331
56A
  5
406
331
5D8
  5
388
331
4BE
  5
4BB
331
4F5
  5
487
331
4F1
  5
483
331
566
  5
402
331
5D4
  5
384
331
52C
  5
43C
331
60F
  5
60F
331
5D0
  5
380
331
562
  5
3FE
331
4ED
  5
47F
331
60B
  5
60B
331
4E9
  5
47B
331
528
  5
438
331
59D
  5
3CA
331
5CC
  5
37C
331
55E
  5
3FA
331
599
  5
3C6
331
5C8
  5
378
331
55A
  5
3F6
331
4B2
  5
4AF
331
4AE
  5
4AB
331
4AA
  5
4A7
331
607
  5
607
331
4E5
  5
477
331
524
  5
434
331
603
  5
603
331
4E1
  5
473
331
520
  5
430
331
556
  5
3F2
331
595
  5
3C2
331
5C4
  5
374
331
51C
  5
42C
331
5C0
  5
3ED
331
5FF
  5
3AF
331
552
  5
462
331
591
  5
3BE
331
4DD
  5
46F
331
518
  5
428
331
5BC
  5
3E9
331
5FB
  5
3AB
331
54E
  5
45E
331
58D
  5
3BA
331
4D9
  5
46B
331
589
  5
3B6
331
5B8
  5
3E5
331
54A
  5
45A
331
634
  5
634
331
4D5
  5
467
331
514
  5
424
331
5F7
  5
3A7
331
5F3
  5
3A3
331
4D1
  5
463
331
546
  5
456
331
585
  5
421
331
5B4
  5
3E1
331
510
  5
4A2
331
624
  5
624
331
5EF
  5
39F
331
542
  5
452
331
581
  5
41D
331
5B0
  5
3DD
331
620
  5
620
331
5AC
  5
3D9
331
5EB
  5
39B
331
53E
  5
44E
331
57D
  5
419
331
4C1
  5
4BE
331
579
  5
415
331
5A8
  5
3D5
331
53A
  5
44A
331
4CE
  5
4CB
331
4CA
  5
4C7
331
61C
  5
61C
331
504
  5
496
331
5E7
  5
397
331
618
  5
618
331
536
  5
446
331
575
  5
411
331
5A4
  5
3D1
331
5E3
  5
393
331
614
  5
614
331
5DF
  5
38F
331
532
  5
442
331
571
  5
40D
331
5A0
  5
3CD
331
610
  5
610
331
4F8
  5
48A
331
5DB
  5
38B
331
56D
  5
409
331
569
  5
405
331
4F4
  5
486
331
5D7
  5
387
331
4F0
  5
482
331
52F
  5
43F
331
565
  5
401
331
5D3
  5
383
331
52B
  5
43B
331
60E
  5
60E
331
5CF
  5
37F
331
561
  5
3FD
331
4EC
  5
47E
331
60A
  5
60A
331
4E8
  5
47A
331
59C
  5
3C9
331
5CB
  5
37B
331
55D
  5
3F9
331
559
  5
3F5
331
598
  5
3C5
331
4B5
  5
4B2
331
4B1
  5
4AE
331
4AD
  5
4AA
331
527
  5
437
331
4A9
  5
4A6
331
606
  5
606
331
4E4
  5
476
331
523
  5
433
331
5C7
  5
377
331
602
  5
3B2
331
4E0
  5
472
331
555
  5
3F1
331
594
  5
3C1
331
5C3
  5
373
331
51F
  5
42F
331
51B
  5
42B
331
5BF
  5
3EC
331
5FE
  5
3AE
331
551
  5
461
331
590
  5
3BD
331
4DC
  5
46E
331
4D8
  5
46A
331
58C
  5
3B9
331
5BB
  5
3E8
331
5FA
  5
3AA
331
54D
  5
45D
331
588
  5
3B5
331
549
  5
459
331
637
  5
637
331
517
  5
427
331
633
  5
633
331
4D4
  5
466
331
513
  5
423
331
5B7
  5
3E4
331
5F6
  5
3A6
331
627
  5
627
331
5F2
  5
3A2
331
545
  5
455
331
584
  5
420
331
5B3
  5
3E0
331
623
  5
623
331
5AF
  5
3DC
331
5EE
  5
39E
331
541
  5
451
331
580
  5
41C
331
4C4
  5
4C1
331
5AB
  5
3D8
331
5EA
  5
39A
331
53D
  5
44D
331
57C
  5
418
331
578
  5
414
331
539
  5
449
331
4CD
  5
4CA
331
61F
  5
61F
331
507
  5
499
331
61B
  5
61B
331
5A7
  5
3D4
331
5E6
  5
396
331
617
  5
617
331
5E2
  5
392
331
535
  5
445
331
574
  5
410
331
5A3
  5
3D0
331
613
  5
613
331
5DE
  5
38E
331
531
  5
441
331
570
  5
40C
331
4FB
  5
48D
331
5DA
  5
38A
331
56C
  5
408
331
568
  5
404
331
4F7
  5
489
331
4F3
  5
485
331
4B8
  5
4B5
331
5D6
  5
386
331
4EF
  5
481
331
52E
  5
43E
331
564
  5
400
331
5D2
  5
382
331
52A
  5
43A
331
60D
  5
60D
331
5CE
  5
37E
331
560
  5
3FC
331
59F
  5
3CC
331
4EB
  5
47D
331
609
  5
609
331
59B
  5
3C8
331
5CA
  5
37A
331
55C
  5
3F8
331
558
  5
3F4
331
4B4
  5
4B1
331
629
  5
629
331
4B0
  5
4AD
331
4AC
  5
4A9
331
4E7
  5
479
331
526
  5
436
331
4A8
  5
4A5
331
605
  5
605
331
4E3
  5
475
331
522
  5
432
331
597
  5
3C4
331
5C6
  5
376
331
601
  5
3B1
331
4DF
  5
471
331
554
  5
3F0
331
593
  5
3C0
331
5C2
  5
372
331
51E
  5
42E
331
51A
  5
42A
331
5BE
  5
3EB
331
5FD
  5
3AD
331
550
  5
460
331
58F
  5
3BC
331
4DB
  5
46D
331
58B
  5
3B8
331
5BA
  5
3E7
331
5F9
  5
3A9
331
54C
  5
45C
331
548
  5
458
  0
ACDBDETAILVIEWSTYLE
  5
228
102
{ACAD_XDICTIONARY
360
712
102
}
102
{ACAD_REACTORS
330
227
102
}
330
227
100
AcDbModelDocViewStyle
 70
     0
  3
Metric50
290
     0
100
AcDbDetailViewStyle
 70
     0
 71
     0
 90
        3
 71
     1
340
11
 40
5.0
340
0
 40
5.0
300

 40
0.0
280
     1
 71
     2
340
16
 90
       25
 71
     3
340
11
 40
5.0
 90
        0
 40
15.0
 90
        1
300
%<\AcVar ViewDetailId>% (%<\AcVar ViewScale \f "%sn">%)
 71
     4
340
16
 90
       25
340
16
 90
       25
280
     0
  0
GROUP
  5
639
102
{ACAD_REACTORS
330
D
102
}
330
D
100
AcDbGroup
300

 70
     1
 71
     1
340
629
340
628
340
627
340
552
340
551
340
550
340
54F
340
54E
340
54D
340
54C
340
54B
340
54A
340
549
340
548
340
547
340
546
340
545
340
544
340
543
340
542
340
541
340
540
340
53F
340
53E
340
53D
340
53C
340
53B
340
53A
340
539
340
538
340
537
340
536
340
535
340
534
340
533
340
532
340
531
340
530
340
52F
340
52E
340
52D
340
52C
340
52B
340
52A
340
529
340
528
340
527
340
526
340
525
340
524
340
523
340
522
340
521
340
520
340
51F
340
51E
340
51D
340
51C
340
51B
340
51A
340
519
340
518
340
517
340
516
340
515
340
514
340
513
340
512
  0
GROUP
  5
63A
102
{ACAD_REACTORS
330
D
102
}
330
D
100
AcDbGroup
300

 70
     1
 71
     1
340
633
340
632
340
585
340
584
340
583
340
582
340
581
340
580
340
57F
340
57E
340
57D
340
57C
340
57B
340
57A
340
579
340
578
340
577
340
576
340
575
340
574
340
573
340
572
340
571
340
570
340
56F
340
56E
340
56D
340
56C
340
56B
340
56A
340
569
340
568
340
567
340
566
340
565
340
564
340
563
340
562
340
561
340
560
340
55F
340
55E
340
55D
340
55C
340
55B
340
55A
340
559
340
558
340
557
340
556
340
555
340
554
340
553
  0
GROUP
  5
63B
102
{ACAD_REACTORS
330
D
102
}
330
D
100
AcDbGroup
300

 70
     1
 71
     1
340
636
340
635
340
634
340
602
340
601
340
600
340
5FF
340
5FE
340
5FD
340
5FC
340
5FB
340
5FA
340
5F9
340
5F8
340
5F7
340
5F6
340
5F5
340
5F4
340
5F3
340
5F2
340
5F1
340
5F0
340
5EF
340
5EE
340
5ED
340
5EC
340
5EB
340
5EA
340
5E9
340
5E8
340
5E7
340
5E6
340
5E5
340
5E4
340
5E3
340
5E2
340
5E1
340
5E0
340
5DF
340
5DE
340
5DD
340
5DC
340
5DB
340
5DA
340
5D9
340
5D8
340
5D7
340
5D6
340
5D5
340
5D4
340
5D3
340
5D2
340
5D1
340
5D0
340
5CF
340
5CE
340
5CD
340
5CC
340
5CB
340
5CA
340
5C9
340
5C8
340
5C7
340
5C6
340
5C5
340
5C4
340
5C3
340
5C2
  0
GROUP
  5
63C
102
{ACAD_REACTORS
330
D
102
}
330
D
100
AcDbGroup
300

 70
     1
 71
     1
340
638
340
637
340
5C1
340
5C0
340
5BF
340
5BE
340
5BD
340
5BC
340
5BB
340
5BA
340
5B9
340
5B8
340
5B7
340
5B6
340
5B5
340
5B4
340
5B3
340
5B2
340
5B1
340
5B0
340
5AF
340
5AE
340
5AD
340
5AC
340
5AB
340
5AA
340
5A9
340
5A8
340
5A7
340
5A6
340
5A5
340
5A4
340
5A3
340
5A2
340
5A1
340
5A0
340
59F
340
59E
340
59D
340
59C
340
59B
340
59A
340
599
340
598
340
597
340
596
340
595
340
594
340
593
340
592
340
591
340
590
340
58F
340
58E
340
58D
340
58C
340
58B
340
58A
340
589
340
588
340
587
340
586
  0
GROUP
  5
63D
102
{ACAD_REACTORS
330
D
102
}
330
D
100
AcDbGroup
300

 70
     1
 71
     1
340
614
340
613
340
612
340
611
340
610
340
60F
340
60E
340
60D
340
60C
340
60B
340
60A
340
609
340
608
340
607
340
606
340
605
340
604
340
603
340
511
340
510
340
50D
340
50A
340
507
340
504
340
501
340
4FE
340
4FB
340
4F8
340
4F7
340
4F6
340
4F5
340
4F4
340
4F3
340
4F2
340
4F1
340
4F0
340
4EF
340
4EE
340
4ED
340
4EC
340
4EB
340
4EA
340
4E9
340
4E8
340
4E7
340
4E6
340
4E5
340
4E4
340
4E3
340
4E2
340
4E1
340
4E0
340
4DF
340
4DE
340
4DD
340
4DC
340
4DB
340
4DA
340
4D9
340
4D8
340
4D7
340
4D6
340
4D5
340
4D4
340
4D3
340
4D2
340
4D1
  0
GROUP
  5
63E
102
{ACAD_REACTORS
330
D
102
}
330
D
100
AcDbGroup
300

 70
     1
 71
     1
340
626
340
625
340
624
340
623
340
622
340
621
340
620
340
61F
340
61E
340
61D
340
61C
340
61B
340
61A
340
619
340
618
340
617
340
616
340
615
340
4CE
340
4CD
340
4CA
340
4C7
340
4C4
340
4C1
340
4BE
340
4BB
340
4B8
340
4B5
340
4B4
340
4B3
340
4B2
340
4B1
340
4B0
340
4AF
340
4AE
340
4AD
340
4AC
340
4AB
340
4AA
340
4A9
340
4A8
340
4A7
  0
LAYOUT
  5
1E
102
{ACAD_XDICTIONARY
360
6DB
102
}
102
{ACAD_REACTORS
330
1A
102
}
330
1A
100
AcDbPlotSettings
  1

  2
none_device
  4

  6

 40
0.0
 41
0.0
 42
0.0
 43
0.0
 44
0.0
 45
0.0
 46
0.0
 47
0.0
 48
0.0
 49
0.0
140
0.0
141
0.0
142
1.0
143
1.0
 70
   688
 72
     1
 73
     0
 74
     5
  7

 75
    16
147
1.0
148
0.0
149
0.0
100
AcDbLayout
  1
Layout1
 70
     1
 71
     1
 10
0.0
 20
0.0
 11
420.0
 21
297.0
 12
0.0
 22
0.0
 32
0.0
 14
1.000000000000000E+20
 24
1.000000000000000E+20
 34
1.000000000000000E+20
 15
-1.000000000000000E+20
 25
-1.000000000000000E+20
 35
-1.000000000000000E+20
146
0.0
 13
0.0
 23
0.0
 33
0.0
 16
1.0
 26
0.0
 36
0.0
 17
0.0
 27
1.0
 37
0.0
 76
     0
330
1B
  0
LAYOUT
  5
22
102
{ACAD_XDICTIONARY
360
6DD
102
}
102
{ACAD_REACTORS
330
1A
102
}
330
1A
100
AcDbPlotSettings
  1

  2
none_device
  4
Letter_(8.50_x_11.00_Inches)
  6

 40
6.349999999999998
 41
6.349999999999998
 42
6.350005079999998
 43
6.350005079999998
 44
215.9
 45
279.4
 46
0.0
 47
0.0
 48
0.0
 49
0.0
140
0.0
141
0.0
142
1.0
143
1.0
 70
  1712
 72
     1
 73
     0
 74
     0
  7

 75
     0
147
1.0
148
0.0
149
0.0
100
AcDbLayout
  1
Model
 70
     1
 71
     0
 10
-836.9292449951171
 20
-1262.300933837891
 11
1653.181989323203
 21
727.3375244140623
 12
0.0
 22
0.0
 32
0.0
 14
-836.9292449951171
 24
-1262.300933837891
 34
0.0
 15
1653.181989323203
 25
727.3375244140623
 35
0.0
146
0.0
 13
0.0
 23
0.0
 33
0.0
 16
1.0
 26
0.0
 36
0.0
 17
0.0
 27
1.0
 37
0.0
 76
     0
330
1F
331
29
  0
LAYOUT
  5
229
102
{ACAD_XDICTIONARY
360
714
102
}
102
{ACAD_REACTORS
330
1A
102
}
330
1A
100
AcDbPlotSettings
  1

  2
青梅 FX DocuCentre-V C2275 T2
  4

  6

 40
0.0
 41
0.0
 42
0.0
 43
0.0
 44
0.0
 45
0.0
 46
0.0
 47
0.0
 48
0.0
 49
0.0
140
0.0
141
0.0
142
1.0
143
1.0
 70
   688
 72
     0
 73
     0
 74
     5
  7
AutoCAD_PEN.ctb
 75
    16
147
1.0
148
0.0
149
0.0
100
AcDbLayout
  1
レイアウト1
 70
     1
 71
     2
 10
0.0
 20
0.0
 11
12.0
 21
9.0
 12
0.0
 22
0.0
 32
0.0
 14
0.0
 24
0.0
 34
0.0
 15
0.0
 25
0.0
 35
0.0
146
0.0
 13
0.0
 23
0.0
 33
0.0
 16
1.0
 26
0.0
 36
0.0
 17
0.0
 27
1.0
 37
0.0
 76
     0
330
23
  0
MATERIAL
  5
45
102
{ACAD_XDICTIONARY
360
21B
102
}
102
{ACAD_REACTORS
330
43
102
}
330
43
100
AcDbMaterial
  1
ByBlock
  0
MATERIAL
  5
44
102
{ACAD_XDICTIONARY
360
219
102
}
102
{ACAD_REACTORS
330
43
102
}
330
43
100
AcDbMaterial
  1
ByLayer
  0
MATERIAL
  5
46
102
{ACAD_XDICTIONARY
360
21D
102
}
102
{ACAD_REACTORS
330
43
102
}
330
43
100
AcDbMaterial
  1
Global
  0
MLEADERSTYLE
  5
5C
102
{ACAD_REACTORS
330
5B
102
}
330
5B
100
AcDbMLeaderStyle
170
     2
171
     1
172
     0
 90
        2
 40
0.0
 41
0.0
173
     1
 91
-1056964608
340
14
 92
       -2
290
     1
 42
2.0
291
     1
 43
8.0
  3
Standard
 44
4.0
300

342
11
174
     1
178
     6
175
     1
176
     0
 93
-1056964608
 45
4.0
292
     0
297
     0
 46
4.0
 94
-1056964608
 47
1.0
 49
1.0
140
1.0
293
     1
141
0.0
294
     1
177
     0
142
1.0
295
     0
296
     0
143
3.75
1001
ACAD_MLEADERVER
1070
     2
  0
MLINESTYLE
  5
18
102
{ACAD_REACTORS
330
17
102
}
330
17
100
AcDbMlineStyle
  2
STANDARD
 70
     0
  3

 62
   256
 51
90.0
 52
90.0
 71
     2
 49
0.5
 62
   256
  6
BYLAYER
 49
-0.5
 62
   256
  6
BYLAYER
  0
ACDBPLACEHOLDER
  5
F
102
{ACAD_REACTORS
330
E
102
}
330
E
  0
SCALE
  5
48
102
{ACAD_REACTORS
330
47
102
}
330
47
100
AcDbScale
 70
     0
300
1:1
140
1.0
141
1.0
290
     1
  0
SCALE
  5
49
102
{ACAD_REACTORS
330
47
102
}
330
47
100
AcDbScale
 70
     0
300
1:2
140
1.0
141
2.0
290
     0
  0
SCALE
  5
4A
102
{ACAD_REACTORS
330
47
102
}
330
47
100
AcDbScale
 70
     0
300
1:4
140
1.0
141
4.0
290
     0
  0
SCALE
  5
4B
102
{ACAD_REACTORS
330
47
102
}
330
47
100
AcDbScale
 70
     0
300
1:5
140
1.0
141
5.0
290
     0
  0
SCALE
  5
4C
102
{ACAD_REACTORS
330
47
102
}
330
47
100
AcDbScale
 70
     0
300
1:8
140
1.0
141
8.0
290
     0
  0
SCALE
  5
4D
102
{ACAD_REACTORS
330
47
102
}
330
47
100
AcDbScale
 70
     0
300
1:10
140
1.0
141
10.0
290
     0
  0
SCALE
  5
4E
102
{ACAD_REACTORS
330
47
102
}
330
47
100
AcDbScale
 70
     0
300
1:16
140
1.0
141
16.0
290
     0
  0
SCALE
  5
4F
102
{ACAD_REACTORS
330
47
102
}
330
47
100
AcDbScale
 70
     0
300
1:20
140
1.0
141
20.0
290
     0
  0
SCALE
  5
50
102
{ACAD_REACTORS
330
47
102
}
330
47
100
AcDbScale
 70
     0
300
1:30
140
1.0
141
30.0
290
     0
  0
SCALE
  5
51
102
{ACAD_REACTORS
330
47
102
}
330
47
100
AcDbScale
 70
     0
300
1:40
140
1.0
141
40.0
290
     0
  0
SCALE
  5
52
102
{ACAD_REACTORS
330
47
102
}
330
47
100
AcDbScale
 70
     0
300
1:50
140
1.0
141
50.0
290
     0
  0
SCALE
  5
53
102
{ACAD_REACTORS
330
47
102
}
330
47
100
AcDbScale
 70
     0
300
1:100
140
1.0
141
100.0
290
     0
  0
SCALE
  5
54
102
{ACAD_REACTORS
330
47
102
}
330
47
100
AcDbScale
 70
     0
300
2:1
140
2.0
141
1.0
290
     0
  0
SCALE
  5
55
102
{ACAD_REACTORS
330
47
102
}
330
47
100
AcDbScale
 70
     0
300
4:1
140
4.0
141
1.0
290
     0
  0
SCALE
  5
56
102
{ACAD_REACTORS
330
47
102
}
330
47
100
AcDbScale
 70
     0
300
8:1
140
8.0
141
1.0
290
     0
  0
SCALE
  5
57
102
{ACAD_REACTORS
330
47
102
}
330
47
100
AcDbScale
 70
     0
300
10:1
140
10.0
141
1.0
290
     0
  0
SCALE
  5
58
102
{ACAD_REACTORS
330
47
102
}
330
47
100
AcDbScale
 70
     0
300
100:1
140
100.0
141
1.0
290
     0
  0
ACDBSECTIONVIEWSTYLE
  5
226
102
{ACAD_XDICTIONARY
360
710
102
}
102
{ACAD_REACTORS
330
225
102
}
330
225
100
AcDbModelDocViewStyle
 70
     0
  3
Metric50
290
     0
100
AcDbSectionViewStyle
 70
     0
 71
     0
 90
      102
 71
     1
340
11
 40
5.0
340
0
340
0
 40
5.0
300
I, O, Q, S, X, Z
 40
10.0
 90
        0
 40
2.5
 90
        0
 71
     2
340
16
 90
       25
340
16
 90
       50
 40
5.0
 40
2.5
 40
5.0
 71
     3
340
11
 40
5.0
 90
        0
 40
15.0
 90
        1
300
%<\AcVar ViewSectionStartId>%-%<\AcVar ViewSectionEndId>% (%<\AcVar ViewScale \f "%sn">%)
 71
     4
300
ANSI31
 40
1.0
 90
        0
290
     0
290
     0
 90
        6
 40
0.0
 40
1.570796326794896
 40
0.2617993877991494
 40
1.308996938995747
 40
-0.2617993877991494
 40
1.832595714594045
  0
TABLESTYLE
  5
5A
102
{ACAD_XDICTIONARY
360
648
102
}
102
{ACAD_REACTORS
330
59
102
}
330
59
100
AcDbTableStyle
  3
Standard
 70
     0
 71
     0
 40
1.5
 41
1.5
280
     0
281
     0
  7
Standard
140
4.5
170
     2
 62
     0
 63
     7
283
     0
274
    -2
284
     1
 64
     0
275
    -2
285
     1
 65
     0
276
    -2
286
     1
 66
     0
277
    -2
287
     1
 67
     0
278
    -2
288
     1
 68
     0
279
    -2
289
     1
 69
     0
  7
Standard
140
6.0
170
     5
 62
     0
 63
     7
283
     0
274
    -2
284
     1
 64
     0
275
    -2
285
     1
 65
     0
276
    -2
286
     1
 66
     0
277
    -2
287
     1
 67
     0
278
    -2
288
     1
 68
     0
279
    -2
289
     1
 69
     0
  7
Standard
140
4.5
170
     5
 62
     0
 63
     7
283
     0
274
    -2
284
     1
 64
     0
275
    -2
285
     1
 65
     0
276
    -2
286
     1
 66
     0
277
    -2
287
     1
 67
     0
278
    -2
288
     1
 68
     0
279
    -2
289
     1
 69
     0
  0
VISUALSTYLE
  5
2F
102
{ACAD_XDICTIONARY
360
6E7
102
}
102
{ACAD_REACTORS
330
2A
102
}
330
2A
100
AcDbVisualStyle
  2

 70
     4
 71
     0
 72
     2
 73
     0
 90
        0
 40
-0.6
 41
-30.0
 62
     5
 63
     7
 74
     1
 91
        4
 64
     7
 65
   257
 75
     1
175
     1
 42
1.0
 92
        0
 66
   257
 43
1.0
 76
     1
 77
     6
 78
     2
 67
     7
 79
     5
170
     0
171
     0
290
     0
174
     0
 93
        1
 44
0.0
173
     0
291
     0
 45
0.0
1001
ACAD
1000
AcDbSavedByObjectVersion
1070
     0
  0
VISUALSTYLE
  5
32
102
{ACAD_XDICTIONARY
360
6ED
102
}
102
{ACAD_REACTORS
330
2A
102
}
330
2A
100
AcDbVisualStyle
  2

 70
     7
 71
     1
 72
     0
 73
     1
 90
        0
 40
-0.6
 41
-30.0
 62
     5
 63
     7
 74
     0
 91
        4
 64
     7
 65
   257
 75
     1
175
     1
 42
1.0
 92
        8
 66
     7
 43
1.0
 76
     1
 77
     6
 78
     2
 67
     7
 79
     5
170
     0
171
     0
290
     0
174
     0
 93
        1
 44
0.0
173
     0
291
     1
 45
0.0
1001
ACAD
1000
AcDbSavedByObjectVersion
1070
     0
  0
VISUALSTYLE
  5
36
102
{ACAD_XDICTIONARY
360
6F5
102
}
102
{ACAD_REACTORS
330
2A
102
}
330
2A
100
AcDbVisualStyle
  2

 70
    12
 71
     2
 72
     2
 73
     0
 90
        0
 40
-0.6
 41
-30.0
 62
     5
 63
     7
 74
     1
 91
        4
 64
     7
 65
   257
 75
     1
175
     1
 42
1.0
 92
        8
 66
     7
 43
1.0
 76
     1
 77
     6
 78
     2
 67
     7
 79
     5
170
     0
171
     0
290
     0
174
     0
 93
        1
 44
50.0
173
     0
291
     1
 45
0.0
1001
ACAD
1000
AcDbSavedByObjectVersion
1070
     0
  0
VISUALSTYLE
  5
3A
102
{ACAD_XDICTIONARY
360
6FD
102
}
102
{ACAD_REACTORS
330
2A
102
}
330
2A
100
AcDbVisualStyle
  2

 70
    16
 71
     2
 72
     2
 73
     3
 90
        0
 40
-0.6
 41
-30.0
 62
     5
 63
     8
 74
     1
 91
        4
 64
     7
 65
   257
 75
     1
175
     1
 42
1.0
 92
        8
 66
     8
 43
1.0
 76
     1
 77
     6
 78
     2
 67
     7
 79
     5
170
     0
171
     0
290
     0
174
     0
 93
        1
 44
0.0
173
     0
291
     1
 45
0.0
1001
ACAD
1000
AcDbSavedByObjectVersion
1070
     0
  0
VISUALSTYLE
  5
34
102
{ACAD_XDICTIONARY
360
6F1
102
}
102
{ACAD_REACTORS
330
2A
102
}
330
2A
100
AcDbVisualStyle
  2

 70
     9
 71
     3
 72
     2
 73
     0
 90
        0
 40
-0.6
 41
-30.0
 62
     5
 63
     7
 74
     2
 91
        2
 64
     7
 65
   257
 75
     1
175
     1
 42
179.0
 92
        8
 66
     7
 43
1.0
 76
     1
 77
     6
 78
     2
 67
     7
 79
     3
170
     0
171
     0
290
     0
174
     0
 93
        1
 44
0.0
173
     0
291
     0
 45
0.0
1001
ACAD
1000
AcDbSavedByObjectVersion
1070
     0
  0
VISUALSTYLE
  5
35
102
{ACAD_XDICTIONARY
360
6F3
102
}
102
{ACAD_REACTORS
330
2A
102
}
330
2A
100
AcDbVisualStyle
  2

 70
    11
 71
     2
 72
     2
 73
     0
 90
        0
 40
-0.6
 41
-30.0
 62
     5
 63
     7
 74
     1
 91
        4
 64
     7
 65
   257
 75
     1
175
     1
 42
1.0
 92
        8
 66
     7
 43
1.0
 76
     1
 77
     6
 78
     2
 67
     7
 79
     5
170
     0
171
     0
290
     0
174
     0
 93
        1
 44
-50.0
173
     0
291
     1
 45
0.0
1001
ACAD
1000
AcDbSavedByObjectVersion
1070
     0
  0
VISUALSTYLE
  5
3D
102
{ACAD_XDICTIONARY
360
703
102
}
102
{ACAD_REACTORS
330
2A
102
}
330
2A
100
AcDbVisualStyle
  2

 70
    22
 71
     2
 72
     2
 73
     0
 90
        0
 40
-0.6
 41
-30.0
 62
     5
 63
     7
 74
     1
 91
        4
 64
     7
 65
   257
 75
     1
175
     1
 42
1.0
 92
        8
 66
     7
 43
1.0
 76
     1
 77
     6
 78
     2
 67
     7
 79
     5
170
     0
171
     0
290
     0
174
     0
 93
        1
 44
0.0
173
     0
291
     1
 45
0.0
1001
ACAD
1000
AcDbSavedByObjectVersion
1070
     0
  0
VISUALSTYLE
  5
39
102
{ACAD_XDICTIONARY
360
6FB
102
}
102
{ACAD_REACTORS
330
2A
102
}
330
2A
100
AcDbVisualStyle
  2

 70
    15
 71
     2
 72
     2
 73
     0
 90
        0
 40
-0.6
 41
-30.0
 62
     5
 63
     7
 74
     1
 91
        4
 64
     7
 65
   257
 75
     1
175
     1
 42
1.0
 92
        8
 66
     7
 43
1.0
 76
     1
 77
     6
 78
     2
 67
     7
 79
     5
170
     0
171
     0
290
     0
174
     0
 93
        1
 44
0.0
173
     0
291
     1
 45
0.0
1001
ACAD
1000
AcDbSavedByObjectVersion
1070
     0
  0
VISUALSTYLE
  5
2B
102
{ACAD_XDICTIONARY
360
6DF
102
}
102
{ACAD_REACTORS
330
2A
102
}
330
2A
100
AcDbVisualStyle
  2

 70
     0
 71
     2
 72
     1
 73
     1
 90
        2
 40
-0.6
 41
30.0
 62
     5
 63
     7
 74
     0
 91
        0
 64
     7
 65
   257
 75
     1
175
     1
 42
1.0
 92
        8
 66
     7
 43
1.0
 76
     1
 77
     6
 78
     2
 67
     7
 79
     5
170
     0
171
     0
290
     0
174
     0
 93
       13
 44
0.0
173
     0
291
     1
 45
0.0
1001
ACAD
1000
AcDbSavedByObjectVersion
1070
     0
  0
VISUALSTYLE
  5
2C
102
{ACAD_XDICTIONARY
360
6E1
102
}
102
{ACAD_REACTORS
330
2A
102
}
330
2A
100
AcDbVisualStyle
  2

 70
     1
 71
     2
 72
     1
 73
     1
 90
        2
 40
-0.6
 41
30.0
 62
     5
 63
     7
 74
     1
 91
        0
 64
     7
 65
   257
 75
     1
175
     1
 42
1.0
 92
        0
 66
   257
 43
1.0
 76
     1
 77
     6
 78
     2
 67
     7
 79
     5
170
     0
171
     0
290
     0
174
     0
 93
       13
 44
0.0
173
     0
291
     1
 45
0.0
1001
ACAD
1000
AcDbSavedByObjectVersion
1070
     0
  0
VISUALSTYLE
  5
2D
102
{ACAD_XDICTIONARY
360
6E3
102
}
102
{ACAD_REACTORS
330
2A
102
}
330
2A
100
AcDbVisualStyle
  2

 70
     2
 71
     2
 72
     2
 73
     1
 90
        2
 40
-0.6
 41
30.0
 62
     5
 63
     7
 74
     0
 91
        0
 64
     7
 65
   257
 75
     1
175
     1
 42
1.0
 92
        0
 66
     7
 43
1.0
 76
     1
 77
     6
 78
     2
 67
     7
 79
     5
170
     0
171
     0
290
     0
174
     0
 93
       13
 44
0.0
173
     0
291
     1
 45
0.0
1001
ACAD
1000
AcDbSavedByObjectVersion
1070
     0
  0
VISUALSTYLE
  5
2E
102
{ACAD_XDICTIONARY
360
6E5
102
}
102
{ACAD_REACTORS
330
2A
102
}
330
2A
100
AcDbVisualStyle
  2

 70
     3
 71
     2
 72
     2
 73
     1
 90
        2
 40
-0.6
 41
30.0
 62
     5
 63
     7
 74
     1
 91
        0
 64
     7
 65
   257
 75
     1
175
     1
 42
1.0
 92
        0
 66
   257
 43
1.0
 76
     1
 77
     6
 78
     2
 67
     7
 79
     5
170
     0
171
     0
290
     0
174
     0
 93
       13
 44
0.0
173
     0
291
     1
 45
0.0
1001
ACAD
1000
AcDbSavedByObjectVersion
1070
     0
  0
VISUALSTYLE
  5
31
102
{ACAD_XDICTIONARY
360
6EB
102
}
102
{ACAD_REACTORS
330
2A
102
}
330
2A
100
AcDbVisualStyle
  2

 70
     6
 71
     1
 72
     2
 73
     2
 90
        0
 40
-0.6
 41
-30.0
 62
     5
 63
     7
 74
     2
 91
        2
 64
     7
 65
   257
 75
     2
175
     1
 42
40.0
 92
        0
 66
   257
 43
1.0
 76
     1
 77
     6
 78
     2
 67
     7
 79
     3
170
     0
171
     0
290
     0
174
     0
 93
        1
 44
0.0
173
     0
291
     0
 45
0.0
1001
ACAD
1000
AcDbSavedByObjectVersion
1070
     0
  0
VISUALSTYLE
  5
3B
102
{ACAD_XDICTIONARY
360
6FF
102
}
102
{ACAD_REACTORS
330
2A
102
}
330
2A
100
AcDbVisualStyle
  2

 70
    20
 71
     2
 72
     2
 73
     0
 90
        0
 40
-0.6
 41
-30.0
 62
     5
 63
     7
 74
     1
 91
        4
 64
     7
 65
   257
 75
     1
175
     1
 42
1.0
 92
       10
 66
     7
 43
1.0
 76
     1
 77
     6
 78
     2
 67
     7
 79
     5
170
     0
171
     0
290
     0
174
     0
 93
        1
 44
0.0
173
     0
291
     1
 45
0.0
1001
ACAD
1000
AcDbSavedByObjectVersion
1070
     0
  0
VISUALSTYLE
  5
38
102
{ACAD_XDICTIONARY
360
6F9
102
}
102
{ACAD_REACTORS
330
2A
102
}
330
2A
100
AcDbVisualStyle
  2

 70
    14
 71
     2
 72
     2
 73
     0
 90
        0
 40
-0.6
 41
-30.0
 62
     5
 63
     7
 74
     1
 91
        4
 64
     7
 65
   257
 75
     7
175
     7
 42
1.0
 92
        8
 66
     7
 43
1.0
 76
     1
 77
     6
 78
     2
 67
     7
 79
     5
170
     0
171
     0
290
     0
174
     0
 93
        1
 44
0.0
173
     0
291
     1
 45
0.0
1001
ACAD
1000
AcDbSavedByObjectVersion
1070
     0
  0
VISUALSTYLE
  5
3C
102
{ACAD_XDICTIONARY
360
701
102
}
102
{ACAD_REACTORS
330
2A
102
}
330
2A
100
AcDbVisualStyle
  2

 70
    21
 71
     2
 72
     2
 73
     0
 90
        0
 40
-0.6
 41
-30.0
 62
     5
 63
     7
 74
     1
 91
        4
 64
     7
 65
   257
 75
     1
175
     1
 42
1.0
 92
        9
 66
     7
 43
1.0
 76
     1
 77
     6
 78
     2
 67
     7
 79
     5
170
     0
171
     0
290
     0
174
     0
 93
        1
 44
0.0
173
     0
291
     1
 45
0.0
1001
ACAD
1000
AcDbSavedByObjectVersion
1070
     0
  0
VISUALSTYLE
  5
33
102
{ACAD_XDICTIONARY
360
6EF
102
}
102
{ACAD_REACTORS
330
2A
102
}
330
2A
100
AcDbVisualStyle
  2

 70
     8
 71
     2
 72
     3
 73
     0
 90
        2
 40
-0.6
 41
30.0
 62
     5
 63
     7
 74
     0
 91
        0
 64
     7
 65
   257
 75
     1
175
     1
 42
1.0
 92
        8
 66
   257
 43
1.0
 76
     1
 77
     6
 78
     2
 67
     7
 79
     3
170
     0
171
     0
290
     0
174
     0
 93
       13
 44
0.0
173
     0
291
     0
 45
0.0
1001
ACAD
1000
AcDbSavedByObjectVersion
1070
     0
  0
VISUALSTYLE
  5
42
102
{ACAD_XDICTIONARY
360
70D
102
}
102
{ACAD_REACTORS
330
2A
102
}
330
2A
100
AcDbVisualStyle
  2

 70
    27
 71
     2
 72
     2
 73
     1
 90
        2
 40
-0.6
 41
30.0
 62
     5
 63
     7
 74
     0
 91
        4
 64
     7
 65
   257
 75
     1
175
     1
 42
1.0
 92
        8
 66
   257
 43
1.0
 76
     1
 77
     6
 78
     2
 67
     8
 79
     3
170
     0
171
     0
290
     0
174
     0
 93
        5
 44
0.0
173
     0
291
     0
 45
0.0
1001
ACAD
1000
AcDbSavedByObjectVersion
1070
     0
  0
VISUALSTYLE
  5
41
102
{ACAD_XDICTIONARY
360
70B
102
}
102
{ACAD_REACTORS
330
2A
102
}
330
2A
100
AcDbVisualStyle
  2

 70
    26
 71
     2
 72
     2
 73
     1
 90
        2
 40
-0.6
 41
30.0
 62
     5
 63
     7
 74
     1
 91
       10
 64
     7
 65
   257
 75
     2
175
     1
 42
1.0
 92
        8
 66
   257
 43
1.0
 76
     1
 77
     6
 78
     2
 67
     7
 79
     3
170
     0
171
     0
290
     0
174
     0
 93
        5
 44
0.0
173
     0
291
     0
 45
0.0
1001
ACAD
1000
AcDbSavedByObjectVersion
1070
     0
  0
VISUALSTYLE
  5
3E
102
{ACAD_XDICTIONARY
360
705
102
}
102
{ACAD_REACTORS
330
2A
102
}
330
2A
100
AcDbVisualStyle
  2

 70
    23
 71
     2
 72
     2
 73
     3
 90
        0
 40
-0.6
 41
-30.0
 62
     5
 63
     7
 74
     2
 91
        2
 64
     7
 65
     7
 75
     1
175
     1
 42
40.0
 92
        8
 66
     7
 43
1.0
 76
     1
 77
     6
 78
     2
 67
     7
 79
     3
170
     0
171
     0
290
     0
174
     0
 93
        1
 44
0.0
173
     0
291
     0
 45
0.0
1001
ACAD
1000
AcDbSavedByObjectVersion
1070
     0
  0
VISUALSTYLE
  5
3F
102
{ACAD_XDICTIONARY
360
707
102
}
102
{ACAD_REACTORS
330
2A
102
}
330
2A
100
AcDbVisualStyle
  2

 70
    24
 71
     1
 72
     2
 73
     2
 90
        0
 40
-0.6
 41
-30.0
 62
     5
 63
     7
 74
     2
 91
        2
 64
     7
 65
     7
 75
     1
175
     1
 42
40.0
 92
       11
 66
     7
 43
1.0
 76
     1
 77
     6
 78
     2
 67
     7
 79
     6
170
     0
171
     0
290
     0
174
     0
 93
        1
 44
0.0
173
     0
291
     0
 45
0.0
1001
ACAD
1000
AcDbSavedByObjectVersion
1070
     0
  0
VISUALSTYLE
  5
37
102
{ACAD_XDICTIONARY
360
6F7
102
}
102
{ACAD_REACTORS
330
2A
102
}
330
2A
100
AcDbVisualStyle
  2

 70
    13
 71
     2
 72
     2
 73
     0
 90
        0
 40
-0.6
 41
-30.0
 62
     5
 63
     7
 74
     1
 91
        4
 64
     7
 65
   257
 75
     1
175
     1
 42
1.0
 92
       12
 66
     7
 43
1.0
 76
     1
 77
     6
 78
     2
 67
     7
 79
     5
170
     0
171
     0
290
     0
174
     0
 93
        1
 44
0.0
173
     0
291
     1
 45
0.0
1001
ACAD
1000
AcDbSavedByObjectVersion
1070
     0
  0
VISUALSTYLE
  5
30
102
{ACAD_XDICTIONARY
360
6E9
102
}
102
{ACAD_REACTORS
330
2A
102
}
330
2A
100
AcDbVisualStyle
  2

 70
     5
 71
     0
 72
     2
 73
     0
 90
        0
 40
-0.6
 41
-30.0
 62
     5
 63
     7
 74
     1
 91
        4
 64
     7
 65
   257
 75
     1
175
     1
 42
1.0
 92
        0
 66
   257
 43
1.0
 76
     1
 77
     6
 78
     2
 67
     7
 79
     3
170
     0
171
     0
290
     0
174
     0
 93
        1
 44
0.0
173
     0
291
     0
 45
0.0
1001
ACAD
1000
AcDbSavedByObjectVersion
1070
     0
  0
VISUALSTYLE
  5
40
102
{ACAD_XDICTIONARY
360
709
102
}
102
{ACAD_REACTORS
330
2A
102
}
330
2A
100
AcDbVisualStyle
  2

 70
    25
 71
     2
 72
     2
 73
     1
 90
        1
 40
0.5
 41
-30.0
 62
     5
 63
     7
 74
     1
 91
        0
 64
     7
 65
   257
 75
     1
175
     1
 42
1.0
 92
        8
 66
     7
 43
1.0
 76
     1
 77
     6
 78
     2
 67
     7
 79
     3
170
     0
171
     0
290
     0
174
     0
 93
       13
 44
0.0
173
     0
291
     0
 45
0.0
1001
ACAD
1000
AcDbSavedByObjectVersion
1070
     0
  0
DICTIONARYVAR
  5
1E7
102
{ACAD_REACTORS
330
1D9
102
}
330
1D9
100
DictionaryVariables
280
     0
  1
1:1
  0
DICTIONARYVAR
  5
1E0
102
{ACAD_REACTORS
330
1D9
102
}
330
1D9
100
DictionaryVariables
280
     0
  1
3.500000
  0
DICTIONARYVAR
  5
1E1
102
{ACAD_REACTORS
330
1D9
102
}
330
1D9
100
DictionaryVariables
280
     0
  1
acadiso.lin
  0
DICTIONARYVAR
  5
1DB
102
{ACAD_REACTORS
330
1D9
102
}
330
1D9
100
DictionaryVariables
280
     0
  1
STANDARD
  0
DICTIONARYVAR
  5
1DA
102
{ACAD_REACTORS
330
1D9
102
}
330
1D9
100
DictionaryVariables
280
     0
  1
STANDARD
  0
DICTIONARYVAR
  5
643
102
{ACAD_REACTORS
330
1D9
102
}
330
1D9
100
DictionaryVariables
280
     0
  1
Metric50
  0
DICTIONARYVAR
  5
644
102
{ACAD_REACTORS
330
1D9
102
}
330
1D9
100
DictionaryVariables
280
     0
  1
Metric50
  0
DICTIONARYVAR
  5
1E2
102
{ACAD_REACTORS
330
1D9
102
}
330
1D9
100
DictionaryVariables
280
     0
  1
2
  0
DICTIONARYVAR
  5
1E3
102
{ACAD_REACTORS
330
1D9
102
}
330
1D9
100
DictionaryVariables
280
     0
  1
1
  0
DICTIONARYVAR
  5
693
102
{ACAD_REACTORS
330
1D9
102
}
330
1D9
100
DictionaryVariables
280
     0
  1
0
  0
DICTIONARYVAR
  5
646
102
{ACAD_REACTORS
330
1D9
102
}
330
1D9
100
DictionaryVariables
280
     0
  1
1
  0
DICTIONARYVAR
  5
647
102
{ACAD_REACTORS
330
1D9
102
}
330
1D9
100
DictionaryVariables
280
     0
  1
15
  0
DICTIONARYVAR
  5
645
102
{ACAD_REACTORS
330
1D9
102
}
330
1D9
100
DictionaryVariables
280
     0
  1
0
  0
DICTIONARYVAR
  5
696
102
{ACAD_REACTORS
330
1D9
102
}
330
1D9
100
DictionaryVariables
280
     0
  1
1.570796
  0
DICTIONARYVAR
  5
697
102
{ACAD_REACTORS
330
1D9
102
}
330
1D9
100
DictionaryVariables
280
     0
  1
1.570796
  0
DICTIONARYVAR
  5
698
102
{ACAD_REACTORS
330
1D9
102
}
330
1D9
100
DictionaryVariables
280
     0
  1
-122.394000
  0
DICTIONARYVAR
  5
1E8
102
{ACAD_REACTORS
330
1D9
102
}
330
1D9
100
DictionaryVariables
280
     0
  1
1
  0
DICTIONARYVAR
  5
695
102
{ACAD_REACTORS
330
1D9
102
}
330
1D9
100
DictionaryVariables
280
     0
  1
80.000000
  0
DICTIONARYVAR
  5
694
102
{ACAD_REACTORS
330
1D9
102
}
330
1D9
100
DictionaryVariables
280
     0
  1
5.000000
  0
DICTIONARYVAR
  5
692
102
{ACAD_REACTORS
330
1D9
102
}
330
1D9
100
DictionaryVariables
280
     0
  1
127
  0
DICTIONARYVAR
  5
699
102
{ACAD_REACTORS
330
1D9
102
}
330
1D9
100
DictionaryVariables
280
     0
  1
2
  0
DICTIONARY
  5
712
330
228
100
AcDbDictionary
280
     1
281
     1
  3
ACAD_XREC_ROUNDTRIP
360
713
  0
DICTIONARY
  5
6DB
330
1E
100
AcDbDictionary
280
     1
281
     1
  3
ACAD_XREC_ROUNDTRIP
360
6DC
  0
DICTIONARY
  5
6DD
330
22
100
AcDbDictionary
280
     1
281
     1
  3
ACAD_XREC_ROUNDTRIP
360
6DE
  0
DICTIONARY
  5
714
330
229
100
AcDbDictionary
280
     1
281
     1
  3
ACAD_XREC_ROUNDTRIP
360
715
  0
DICTIONARY
  5
21B
330
45
100
AcDbDictionary
280
     1
281
     1
  3
ACAD_XREC_ROUNDTRIP
360
21C
  0
DICTIONARY
  5
219
330
44
100
AcDbDictionary
280
     1
281
     1
  3
ACAD_XREC_ROUNDTRIP
360
21A
  0
DICTIONARY
  5
21D
330
46
100
AcDbDictionary
280
     1
281
     1
  3
ACAD_XREC_ROUNDTRIP
360
21E
  0
DICTIONARY
  5
710
330
226
100
AcDbDictionary
280
     1
281
     1
  3
ACAD_XREC_ROUNDTRIP
360
711
  0
DICTIONARY
  5
648
330
5A
100
AcDbDictionary
280
     1
281
     1
  3
ACAD_ROUNDTRIP_2008_TABLESTYLE_CELLSTYLEMAP
360
6D8
  3
ACAD_XREC_ROUNDTRIP
360
70F
  0
DICTIONARY
  5
6E7
330
2F
100
AcDbDictionary
280
     1
281
     1
  3
ACAD_XREC_ROUNDTRIP
360
6E8
  0
DICTIONARY
  5
6ED
330
32
100
AcDbDictionary
280
     1
281
     1
  3
ACAD_XREC_ROUNDTRIP
360
6EE
  0
DICTIONARY
  5
6F5
330
36
100
AcDbDictionary
280
     1
281
     1
  3
ACAD_XREC_ROUNDTRIP
360
6F6
  0
DICTIONARY
  5
6FD
330
3A
100
AcDbDictionary
280
     1
281
     1
  3
ACAD_XREC_ROUNDTRIP
360
6FE
  0
DICTIONARY
  5
6F1
330
34
100
AcDbDictionary
280
     1
281
     1
  3
ACAD_XREC_ROUNDTRIP
360
6F2
  0
DICTIONARY
  5
6F3
330
35
100
AcDbDictionary
280
     1
281
     1
  3
ACAD_XREC_ROUNDTRIP
360
6F4
  0
DICTIONARY
  5
703
330
3D
100
AcDbDictionary
280
     1
281
     1
  3
ACAD_XREC_ROUNDTRIP
360
704
  0
DICTIONARY
  5
6FB
330
39
100
AcDbDictionary
280
     1
281
     1
  3
ACAD_XREC_ROUNDTRIP
360
6FC
  0
DICTIONARY
  5
6DF
330
2B
100
AcDbDictionary
280
     1
281
     1
  3
ACAD_XREC_ROUNDTRIP
360
6E0
  0
DICTIONARY
  5
6E1
330
2C
100
AcDbDictionary
280
     1
281
     1
  3
ACAD_XREC_ROUNDTRIP
360
6E2
  0
DICTIONARY
  5
6E3
330
2D
100
AcDbDictionary
280
     1
281
     1
  3
ACAD_XREC_ROUNDTRIP
360
6E4
  0
DICTIONARY
  5
6E5
330
2E
100
AcDbDictionary
280
     1
281
     1
  3
ACAD_XREC_ROUNDTRIP
360
6E6
  0
DICTIONARY
  5
6EB
330
31
100
AcDbDictionary
280
     1
281
     1
  3
ACAD_XREC_ROUNDTRIP
360
6EC
  0
DICTIONARY
  5
6FF
330
3B
100
AcDbDictionary
280
     1
281
     1
  3
ACAD_XREC_ROUNDTRIP
360
700
  0
DICTIONARY
  5
6F9
330
38
100
AcDbDictionary
280
     1
281
     1
  3
ACAD_XREC_ROUNDTRIP
360
6FA
  0
DICTIONARY
  5
701
330
3C
100
AcDbDictionary
280
     1
281
     1
  3
ACAD_XREC_ROUNDTRIP
360
702
  0
DICTIONARY
  5
6EF
330
33
100
AcDbDictionary
280
     1
281
     1
  3
ACAD_XREC_ROUNDTRIP
360
6F0
  0
DICTIONARY
  5
70D
330
42
100
AcDbDictionary
280
     1
281
     1
  3
ACAD_XREC_ROUNDTRIP
360
70E
  0
DICTIONARY
  5
70B
330
41
100
AcDbDictionary
280
     1
281
     1
  3
ACAD_XREC_ROUNDTRIP
360
70C
  0
DICTIONARY
  5
705
330
3E
100
AcDbDictionary
280
     1
281
     1
  3
ACAD_XREC_ROUNDTRIP
360
706
  0
DICTIONARY
  5
707
330
3F
100
AcDbDictionary
280
     1
281
     1
  3
ACAD_XREC_ROUNDTRIP
360
708
  0
DICTIONARY
  5
6F7
330
37
100
AcDbDictionary
280
     1
281
     1
  3
ACAD_XREC_ROUNDTRIP
360
6F8
  0
DICTIONARY
  5
6E9
330
30
100
AcDbDictionary
280
     1
281
     1
  3
ACAD_XREC_ROUNDTRIP
360
6EA
  0
DICTIONARY
  5
709
330
40
100
AcDbDictionary
280
     1
281
     1
  3
ACAD_XREC_ROUNDTRIP
360
70A
  0
XRECORD
  5
713
102
{ACAD_REACTORS
330
712
102
}
330
712
100
AcDbXrecord
280
     1
102
DISPLAYNAME
  1
Metric50
102
FLAGS
 90
        0
  0
XRECORD
  5
6DC
102
{ACAD_REACTORS
330
6DB
102
}
330
6DB
100
AcDbXrecord
280
     1
102
SHADEPLOT
 70
     0
102
SHADEPLOTRESLEVEL
 70
     2
102
SHADEPLOTCUSTOMDPI
 70
   300
  0
XRECORD
  5
6DE
102
{ACAD_REACTORS
330
6DD
102
}
330
6DD
100
AcDbXrecord
280
     1
102
SHADEPLOT
 70
     0
102
SHADEPLOTRESLEVEL
 70
     2
102
SHADEPLOTCUSTOMDPI
 70
   300
  0
XRECORD
  5
715
102
{ACAD_REACTORS
330
714
102
}
330
714
100
AcDbXrecord
280
     1
102
SHADEPLOT
 70
     0
102
SHADEPLOTRESLEVEL
 70
     2
102
SHADEPLOTCUSTOMDPI
 70
   300
  0
XRECORD
  5
21C
102
{ACAD_REACTORS
330
21B
102
}
330
21B
100
AcDbXrecord
280
     1
102
MATERIAL
148
0.0
149
0.0
149
0.0
 93
        0
 94
      127
282
     0
 72
     1
 77
     1
171
     1
175
     1
179
     1
273
     0
  0
XRECORD
  5
21A
102
{ACAD_REACTORS
330
219
102
}
330
219
100
AcDbXrecord
280
     1
102
MATERIAL
148
0.0
149
0.0
149
0.0
 93
        0
 94
      127
282
     0
 72
     1
 77
     1
171
     1
175
     1
179
     1
273
     0
  0
XRECORD
  5
21E
102
{ACAD_REACTORS
330
21D
102
}
330
21D
100
AcDbXrecord
280
     1
102
MATERIAL
148
0.0
149
0.0
149
0.0
 93
        0
 94
      127
282
     0
 72
     1
 77
     1
171
     1
175
     1
179
     1
273
     0
  0
XRECORD
  5
711
102
{ACAD_REACTORS
330
710
102
}
330
710
100
AcDbXrecord
280
     1
102
DISPLAYNAME
  1
Metric50
102
FLAGS
 90
        0
  0
CELLSTYLEMAP
  5
6D8
102
{ACAD_REACTORS
330
648
102
}
330
648
100
AcDbCellStyleMap
 90
        3
300
CELLSTYLE
  1
TABLEFORMAT_BEGIN
 90
        5
170
     1
 91
        0
 92
    32768
 62
   257
 93
        1
300
CONTENTFORMAT
  1
CONTENTFORMAT_BEGIN
 90
        0
 91
        0
 92
        4
 93
        0
300

 40
0.0
140
1.0
 94
        5
 62
     0
340
11
144
6.0
309
CONTENTFORMAT_END
171
     1
301
MARGIN
  1
CELLMARGIN_BEGIN
 40
1.5
 40
1.5
 40
1.5
 40
1.5
 40
0.18
 40
0.18
309
CELLMARGIN_END
 94
        6
 95
        1
302
GRIDFORMAT
  1
GRIDFORMAT_BEGIN
 90
        0
 91
        1
 62
     0
 92
       -2
340
0
 93
        0
 40
0.045
309
GRIDFORMAT_END
 95
        2
302
GRIDFORMAT
  1
GRIDFORMAT_BEGIN
 90
        0
 91
        1
 62
     0
 92
       -2
340
0
 93
        0
 40
0.045
309
GRIDFORMAT_END
 95
        4
302
GRIDFORMAT
  1
GRIDFORMAT_BEGIN
 90
        0
 91
        1
 62
     0
 92
       -2
340
0
 93
        0
 40
0.045
309
GRIDFORMAT_END
 95
        8
302
GRIDFORMAT
  1
GRIDFORMAT_BEGIN
 90
        0
 91
        1
 62
     0
 92
       -2
340
0
 93
        0
 40
0.045
309
GRIDFORMAT_END
 95
       16
302
GRIDFORMAT
  1
GRIDFORMAT_BEGIN
 90
        0
 91
        1
 62
     0
 92
       -2
340
0
 93
        0
 40
0.045
309
GRIDFORMAT_END
 95
       32
302
GRIDFORMAT
  1
GRIDFORMAT_BEGIN
 90
        0
 91
        1
 62
     0
 92
       -2
340
0
 93
        0
 40
0.045
309
GRIDFORMAT_END
309
TABLEFORMAT_END
  1
CELLSTYLE_BEGIN
 90
        1
 91
        1
300
_TITLE
309
CELLSTYLE_END
300
CELLSTYLE
  1
TABLEFORMAT_BEGIN
 90
        5
170
     1
 91
        0
 92
        0
 62
   257
 93
        1
300
CONTENTFORMAT
  1
CONTENTFORMAT_BEGIN
 90
        0
 91
        0
 92
        4
 93
        0
300

 40
0.0
140
1.0
 94
        5
 62
     0
340
11
144
4.5
309
CONTENTFORMAT_END
171
     1
301
MARGIN
  1
CELLMARGIN_BEGIN
 40
1.5
 40
1.5
 40
1.5
 40
1.5
 40
0.18
 40
0.18
309
CELLMARGIN_END
 94
        6
 95
        1
302
GRIDFORMAT
  1
GRIDFORMAT_BEGIN
 90
        0
 91
        1
 62
     0
 92
       -2
340
0
 93
        0
 40
0.045
309
GRIDFORMAT_END
 95
        2
302
GRIDFORMAT
  1
GRIDFORMAT_BEGIN
 90
        0
 91
        1
 62
     0
 92
       -2
340
0
 93
        0
 40
0.045
309
GRIDFORMAT_END
 95
        4
302
GRIDFORMAT
  1
GRIDFORMAT_BEGIN
 90
        0
 91
        1
 62
     0
 92
       -2
340
0
 93
        0
 40
0.045
309
GRIDFORMAT_END
 95
        8
302
GRIDFORMAT
  1
GRIDFORMAT_BEGIN
 90
        0
 91
        1
 62
     0
 92
       -2
340
0
 93
        0
 40
0.045
309
GRIDFORMAT_END
 95
       16
302
GRIDFORMAT
  1
GRIDFORMAT_BEGIN
 90
        0
 91
        1
 62
     0
 92
       -2
340
0
 93
        0
 40
0.045
309
GRIDFORMAT_END
 95
       32
302
GRIDFORMAT
  1
GRIDFORMAT_BEGIN
 90
        0
 91
        1
 62
     0
 92
       -2
340
0
 93
        0
 40
0.045
309
GRIDFORMAT_END
309
TABLEFORMAT_END
  1
CELLSTYLE_BEGIN
 90
        2
 91
        1
300
_HEADER
309
CELLSTYLE_END
300
CELLSTYLE
  1
TABLEFORMAT_BEGIN
 90
        5
170
     1
 91
        0
 92
        0
 62
   257
 93
        1
300
CONTENTFORMAT
  1
CONTENTFORMAT_BEGIN
 90
        0
 91
        0
 92
        4
 93
        0
300

 40
0.0
140
1.0
 94
        2
 62
     0
340
11
144
4.5
309
CONTENTFORMAT_END
171
     1
301
MARGIN
  1
CELLMARGIN_BEGIN
 40
1.5
 40
1.5
 40
1.5
 40
1.5
 40
0.18
 40
0.18
309
CELLMARGIN_END
 94
        6
 95
        1
302
GRIDFORMAT
  1
GRIDFORMAT_BEGIN
 90
        0
 91
        1
 62
     0
 92
       -2
340
0
 93
        0
 40
0.045
309
GRIDFORMAT_END
 95
        2
302
GRIDFORMAT
  1
GRIDFORMAT_BEGIN
 90
        0
 91
        1
 62
     0
 92
       -2
340
0
 93
        0
 40
0.045
309
GRIDFORMAT_END
 95
        4
302
GRIDFORMAT
  1
GRIDFORMAT_BEGIN
 90
        0
 91
        1
 62
     0
 92
       -2
340
0
 93
        0
 40
0.045
309
GRIDFORMAT_END
 95
        8
302
GRIDFORMAT
  1
GRIDFORMAT_BEGIN
 90
        0
 91
        1
 62
     0
 92
       -2
340
0
 93
        0
 40
0.045
309
GRIDFORMAT_END
 95
       16
302
GRIDFORMAT
  1
GRIDFORMAT_BEGIN
 90
        0
 91
        1
 62
     0
 92
       -2
340
0
 93
        0
 40
0.045
309
GRIDFORMAT_END
 95
       32
302
GRIDFORMAT
  1
GRIDFORMAT_BEGIN
 90
        0
 91
        1
 62
     0
 92
       -2
340
0
 93
        0
 40
0.045
309
GRIDFORMAT_END
309
TABLEFORMAT_END
  1
CELLSTYLE_BEGIN
 90
        3
 91
        2
300
_DATA
309
CELLSTYLE_END
  0
XRECORD
  5
70F
102
{ACAD_REACTORS
330
648
102
}
330
648
100
AcDbXrecord
280
     1
102
ACAD_ROUNDTRIP_PRE2007_TABLESTYLE
 90
        4
 91
        0
  1

 92
        4
 93
        0
  2

 94
        4
 95
        0
  3

  0
XRECORD
  5
6E8
102
{ACAD_REACTORS
330
6E7
102
}
330
6E7
100
AcDbXrecord
280
     1
102
RTVSPost2010Prop28
280
     1
102
RTVSPost2010PropOp28
 70
     1
102
RTVSPost2010Prop29
280
     1
102
RTVSPost2010PropOp29
 70
     1
102
RTVSPost2010Prop30
280
     0
102
RTVSPost2010PropOp30
 70
     1
102
RTVSPost2010Prop31
280
     0
102
RTVSPost2010PropOp31
 70
     1
102
RTVSPost2010Prop32
280
     0
102
RTVSPost2010PropOp32
 70
     1
102
RTVSPost2010Prop33
280
     0
102
RTVSPost2010PropOp33
 70
     1
102
RTVSPost2010Prop34
280
     0
102
RTVSPost2010PropOp34
 70
     1
102
RTVSPost2010Prop35
280
     0
102
RTVSPost2010PropOp35
 70
     1
102
RTVSPost2010Prop36
280
     0
102
RTVSPost2010PropOp36
 70
     1
102
RTVSPost2010Prop37
 90
       50
102
RTVSPost2010PropOp37
 70
     1
102
RTVSPost2010Prop38
140
0.0
102
RTVSPost2010PropOp38
 70
     1
102
RTVSPost2010Prop39
140
1.0
102
RTVSPost2010PropOp39
 70
     1
102
RTVSPost2010Prop40
 90
        0
102
RTVSPost2010PropOp40
 70
     1
102
RTVSPost2010Prop41ColorIndex
 90
       18
102
RTVSPost2010Prop41ColorRGB
 90
        0
102
RTVSPost2010PropOp41
 70
     1
102
RTVSPost2010Prop42
 90
       50
102
RTVSPost2010PropOp42
 70
     1
102
RTVSPost2010Prop43
 90
        3
102
RTVSPost2010PropOp43
 70
     1
102
RTVSPost2010Prop44ColorIndex
 90
        5
102
RTVSPost2010Prop44ColorRGB
 90
      255
102
RTVSPost2010PropOp44
 70
     1
102
RTVSPost2010Prop45
280
     0
102
RTVSPost2010PropOp45
 70
     1
102
RTVSPost2010Prop46
 90
       50
102
RTVSPost2010PropOp46
 70
     1
102
RTVSPost2010Prop47
 90
       50
102
RTVSPost2010PropOp47
 70
     1
102
RTVSPost2010Prop48
 90
       50
102
RTVSPost2010PropOp48
 70
     1
102
RTVSPost2010Prop49
280
     0
102
RTVSPost2010PropOp49
 70
     1
102
RTVSPost2010Prop50
 90
       50
102
RTVSPost2010PropOp50
 70
     1
102
RTVSPost2010Prop51ColorIndex
 90
      256
102
RTVSPost2010Prop51ColorRGB
 90
-16777216
102
RTVSPost2010PropOp51
 70
     0
102
RTVSPost2010Prop52
140
1.0
102
RTVSPost2010PropOp52
 70
     0
102
RTVSPost2010Prop53
 90
        2
102
RTVSPost2010PropOp53
 70
     1
102
RTVSPost2010Prop54
  1
strokes_ogs.tif
102
RTVSPost2010PropOp54
 70
     1
102
RTVSPost2010Prop55
280
     0
102
RTVSPost2010PropOp55
 70
     1
102
RTVSPost2010Prop56
140
1.0
102
RTVSPost2010PropOp56
 70
     1
102
RTVSPost2010Prop57
140
1.0
102
RTVSPost2010PropOp57
 70
     1
102
RTVSPropertyOp0
 70
     1
102
RTVSPropertyOp1
 70
     1
102
RTVSPropertyOp2
 70
     1
102
RTVSPropertyOp3
 70
     1
102
RTVSPropertyOp4
 70
     1
102
RTVSPropertyOp5
 70
     1
102
RTVSPropertyOp6
 70
     1
102
RTVSPropertyOp7
 70
     1
102
RTVSPropertyOp8
 70
     1
102
RTVSPropertyOp9
 70
     1
102
RTVSPropertyOp10
 70
     1
102
RTVSPropertyOp11
 70
     1
102
RTVSPropertyOp12
 70
     1
102
RTVSPropertyOp13
 70
     1
102
RTVSPropertyOp14
 70
     1
102
RTVSPropertyOp15
 70
     1
102
RTVSPropertyOp16
 70
     1
102
RTVSPropertyOp17
 70
     1
102
RTVSPropertyOp18
 70
     1
102
RTVSPropertyOp19
 70
     1
102
RTVSPropertyOp20
 70
     1
102
RTVSPropertyOp21
 70
     1
102
RTVSPropertyOp22
 70
     1
102
RTVSPropertyOp23
 70
     1
102
RTVSPropertyOp24
 70
     1
102
RTVSPropertyOp25
 70
     1
102
RTVSPropertyOp26
 70
     1
102
RTVSPropertyOp27
 70
     1
102
RTVSPropertyOp28
 70
     1
102
RTVSPropertyOp29
 70
     1
102
RTVSPropertyOp30
 70
     1
102
RTVSPropertyOp31
 70
     1
102
RTVSPropertyOp32
 70
     1
102
RTVSPropertyOp33
 70
     1
102
RTVSPropertyOp34
 70
     1
102
RTVSPropertyOp35
 70
     1
102
RTVSPropertyOp36
 70
     1
102
RTVSPropertyOp37
 70
     1
102
RTVSPropertyOp38
 70
     1
102
RTVSPropertyOp39
 70
     1
102
RTVSPropertyOp40
 70
     1
102
RTVSPropertyOp41
 70
     1
102
RTVSPropertyOp42
 70
     1
102
RTVSPropertyOp43
 70
     1
102
RTVSPropertyOp44
 70
     1
102
RTVSPropertyOp45
 70
     1
102
RTVSPropertyOp46
 70
     1
102
RTVSPropertyOp47
 70
     1
102
RTVSPropertyOp48
 70
     1
102
RTVSPropertyOp49
 70
     1
102
RTVSPropertyOp50
 70
     1
102
RTVSPropertyOp51
 70
     0
102
RTVSPropertyOp52
 70
     0
102
RTVSPropertyOp53
 70
     1
102
RTVSPropertyOp54
 70
     1
102
RTVSPropertyOp55
 70
     1
102
RTVSPropertyOp56
 70
     1
102
RTVSPropertyOp57
 70
     1
102
RTVSPropertyOp58
 70
     1
102
RTVSPropertyOp59
 70
     1
102
RTVSPropertyOp60
 70
     1
102
RTVSPropertyOp61
 70
     1
102
RTVSPropertyOp62
 70
     1
  0
XRECORD
  5
6EE
102
{ACAD_REACTORS
330
6ED
102
}
330
6ED
100
AcDbXrecord
280
     1
102
RTVSPost2010Prop28
280
     0
102
RTVSPost2010PropOp28
 70
     1
102
RTVSPost2010Prop29
280
     1
102
RTVSPost2010PropOp29
 70
     1
102
RTVSPost2010Prop30
280
     1
102
RTVSPost2010PropOp30
 70
     1
102
RTVSPost2010Prop31
280
     0
102
RTVSPost2010PropOp31
 70
     1
102
RTVSPost2010Prop32
280
     0
102
RTVSPost2010PropOp32
 70
     1
102
RTVSPost2010Prop33
280
     0
102
RTVSPost2010PropOp33
 70
     1
102
RTVSPost2010Prop34
280
     0
102
RTVSPost2010PropOp34
 70
     1
102
RTVSPost2010Prop35
280
     0
102
RTVSPost2010PropOp35
 70
     1
102
RTVSPost2010Prop36
280
     0
102
RTVSPost2010PropOp36
 70
     1
102
RTVSPost2010Prop37
 90
       50
102
RTVSPost2010PropOp37
 70
     1
102
RTVSPost2010Prop38
140
0.0
102
RTVSPost2010PropOp38
 70
     1
102
RTVSPost2010Prop39
140
1.0
102
RTVSPost2010PropOp39
 70
     1
102
RTVSPost2010Prop40
 90
        0
102
RTVSPost2010PropOp40
 70
     1
102
RTVSPost2010Prop41ColorIndex
 90
       18
102
RTVSPost2010Prop41ColorRGB
 90
        0
102
RTVSPost2010PropOp41
 70
     1
102
RTVSPost2010Prop42
 90
       50
102
RTVSPost2010PropOp42
 70
     1
102
RTVSPost2010Prop43
 90
        3
102
RTVSPost2010PropOp43
 70
     1
102
RTVSPost2010Prop44ColorIndex
 90
        5
102
RTVSPost2010Prop44ColorRGB
 90
      255
102
RTVSPost2010PropOp44
 70
     1
102
RTVSPost2010Prop45
280
     0
102
RTVSPost2010PropOp45
 70
     1
102
RTVSPost2010Prop46
 90
       50
102
RTVSPost2010PropOp46
 70
     1
102
RTVSPost2010Prop47
 90
       50
102
RTVSPost2010PropOp47
 70
     1
102
RTVSPost2010Prop48
 90
       50
102
RTVSPost2010PropOp48
 70
     1
102
RTVSPost2010Prop49
280
     0
102
RTVSPost2010PropOp49
 70
     1
102
RTVSPost2010Prop50
 90
       50
102
RTVSPost2010PropOp50
 70
     1
102
RTVSPost2010Prop51ColorIndex
 90
      256
102
RTVSPost2010Prop51ColorRGB
 90
-16777216
102
RTVSPost2010PropOp51
 70
     0
102
RTVSPost2010Prop52
140
1.0
102
RTVSPost2010PropOp52
 70
     0
102
RTVSPost2010Prop53
 90
        2
102
RTVSPost2010PropOp53
 70
     1
102
RTVSPost2010Prop54
  1
strokes_ogs.tif
102
RTVSPost2010PropOp54
 70
     1
102
RTVSPost2010Prop55
280
     0
102
RTVSPost2010PropOp55
 70
     1
102
RTVSPost2010Prop56
140
1.0
102
RTVSPost2010PropOp56
 70
     1
102
RTVSPost2010Prop57
140
1.0
102
RTVSPost2010PropOp57
 70
     1
102
RTVSPropertyOp0
 70
     1
102
RTVSPropertyOp1
 70
     1
102
RTVSPropertyOp2
 70
     1
102
RTVSPropertyOp3
 70
     1
102
RTVSPropertyOp4
 70
     1
102
RTVSPropertyOp5
 70
     1
102
RTVSPropertyOp6
 70
     1
102
RTVSPropertyOp7
 70
     1
102
RTVSPropertyOp8
 70
     1
102
RTVSPropertyOp9
 70
     1
102
RTVSPropertyOp10
 70
     1
102
RTVSPropertyOp11
 70
     1
102
RTVSPropertyOp12
 70
     1
102
RTVSPropertyOp13
 70
     1
102
RTVSPropertyOp14
 70
     1
102
RTVSPropertyOp15
 70
     1
102
RTVSPropertyOp16
 70
     1
102
RTVSPropertyOp17
 70
     1
102
RTVSPropertyOp18
 70
     1
102
RTVSPropertyOp19
 70
     1
102
RTVSPropertyOp20
 70
     1
102
RTVSPropertyOp21
 70
     1
102
RTVSPropertyOp22
 70
     1
102
RTVSPropertyOp23
 70
     1
102
RTVSPropertyOp24
 70
     1
102
RTVSPropertyOp25
 70
     1
102
RTVSPropertyOp26
 70
     1
102
RTVSPropertyOp27
 70
     1
102
RTVSPropertyOp28
 70
     1
102
RTVSPropertyOp29
 70
     1
102
RTVSPropertyOp30
 70
     1
102
RTVSPropertyOp31
 70
     1
102
RTVSPropertyOp32
 70
     1
102
RTVSPropertyOp33
 70
     1
102
RTVSPropertyOp34
 70
     1
102
RTVSPropertyOp35
 70
     1
102
RTVSPropertyOp36
 70
     1
102
RTVSPropertyOp37
 70
     1
102
RTVSPropertyOp38
 70
     1
102
RTVSPropertyOp39
 70
     1
102
RTVSPropertyOp40
 70
     1
102
RTVSPropertyOp41
 70
     1
102
RTVSPropertyOp42
 70
     1
102
RTVSPropertyOp43
 70
     1
102
RTVSPropertyOp44
 70
     1
102
RTVSPropertyOp45
 70
     1
102
RTVSPropertyOp46
 70
     1
102
RTVSPropertyOp47
 70
     1
102
RTVSPropertyOp48
 70
     1
102
RTVSPropertyOp49
 70
     1
102
RTVSPropertyOp50
 70
     1
102
RTVSPropertyOp51
 70
     0
102
RTVSPropertyOp52
 70
     0
102
RTVSPropertyOp53
 70
     1
102
RTVSPropertyOp54
 70
     1
102
RTVSPropertyOp55
 70
     1
102
RTVSPropertyOp56
 70
     1
102
RTVSPropertyOp57
 70
     1
102
RTVSPropertyOp58
 70
     1
102
RTVSPropertyOp59
 70
     1
102
RTVSPropertyOp60
 70
     1
102
RTVSPropertyOp61
 70
     1
102
RTVSPropertyOp62
 70
     1
  0
XRECORD
  5
6F6
102
{ACAD_REACTORS
330
6F5
102
}
330
6F5
100
AcDbXrecord
280
     1
102
RTVSPost2010Prop28
280
     0
102
RTVSPost2010PropOp28
 70
     1
102
RTVSPost2010Prop29
280
     1
102
RTVSPost2010PropOp29
 70
     1
102
RTVSPost2010Prop30
280
     1
102
RTVSPost2010PropOp30
 70
     1
102
RTVSPost2010Prop31
280
     0
102
RTVSPost2010PropOp31
 70
     1
102
RTVSPost2010Prop32
280
     0
102
RTVSPost2010PropOp32
 70
     1
102
RTVSPost2010Prop33
280
     0
102
RTVSPost2010PropOp33
 70
     1
102
RTVSPost2010Prop34
280
     0
102
RTVSPost2010PropOp34
 70
     1
102
RTVSPost2010Prop35
280
     0
102
RTVSPost2010PropOp35
 70
     1
102
RTVSPost2010Prop36
280
     0
102
RTVSPost2010PropOp36
 70
     1
102
RTVSPost2010Prop37
 90
       50
102
RTVSPost2010PropOp37
 70
     1
102
RTVSPost2010Prop38
140
0.0
102
RTVSPost2010PropOp38
 70
     1
102
RTVSPost2010Prop39
140
1.0
102
RTVSPost2010PropOp39
 70
     1
102
RTVSPost2010Prop40
 90
        0
102
RTVSPost2010PropOp40
 70
     1
102
RTVSPost2010Prop41ColorIndex
 90
       18
102
RTVSPost2010Prop41ColorRGB
 90
        0
102
RTVSPost2010PropOp41
 70
     1
102
RTVSPost2010Prop42
 90
       50
102
RTVSPost2010PropOp42
 70
     1
102
RTVSPost2010Prop43
 90
        3
102
RTVSPost2010PropOp43
 70
     1
102
RTVSPost2010Prop44ColorIndex
 90
        5
102
RTVSPost2010Prop44ColorRGB
 90
      255
102
RTVSPost2010PropOp44
 70
     1
102
RTVSPost2010Prop45
280
     0
102
RTVSPost2010PropOp45
 70
     1
102
RTVSPost2010Prop46
 90
       50
102
RTVSPost2010PropOp46
 70
     1
102
RTVSPost2010Prop47
 90
       50
102
RTVSPost2010PropOp47
 70
     1
102
RTVSPost2010Prop48
 90
       50
102
RTVSPost2010PropOp48
 70
     1
102
RTVSPost2010Prop49
280
     0
102
RTVSPost2010PropOp49
 70
     1
102
RTVSPost2010Prop50
 90
       50
102
RTVSPost2010PropOp50
 70
     1
102
RTVSPost2010Prop51ColorIndex
 90
      256
102
RTVSPost2010Prop51ColorRGB
 90
-16777216
102
RTVSPost2010PropOp51
 70
     0
102
RTVSPost2010Prop52
140
1.0
102
RTVSPost2010PropOp52
 70
     0
102
RTVSPost2010Prop53
 90
        2
102
RTVSPost2010PropOp53
 70
     1
102
RTVSPost2010Prop54
  1
strokes_ogs.tif
102
RTVSPost2010PropOp54
 70
     1
102
RTVSPost2010Prop55
280
     0
102
RTVSPost2010PropOp55
 70
     1
102
RTVSPost2010Prop56
140
1.0
102
RTVSPost2010PropOp56
 70
     1
102
RTVSPost2010Prop57
140
1.0
102
RTVSPost2010PropOp57
 70
     1
102
RTVSPropertyOp0
 70
     1
102
RTVSPropertyOp1
 70
     1
102
RTVSPropertyOp2
 70
     1
102
RTVSPropertyOp3
 70
     1
102
RTVSPropertyOp4
 70
     1
102
RTVSPropertyOp5
 70
     1
102
RTVSPropertyOp6
 70
     1
102
RTVSPropertyOp7
 70
     1
102
RTVSPropertyOp8
 70
     1
102
RTVSPropertyOp9
 70
     1
102
RTVSPropertyOp10
 70
     1
102
RTVSPropertyOp11
 70
     1
102
RTVSPropertyOp12
 70
     1
102
RTVSPropertyOp13
 70
     1
102
RTVSPropertyOp14
 70
     1
102
RTVSPropertyOp15
 70
     1
102
RTVSPropertyOp16
 70
     1
102
RTVSPropertyOp17
 70
     1
102
RTVSPropertyOp18
 70
     1
102
RTVSPropertyOp19
 70
     1
102
RTVSPropertyOp20
 70
     1
102
RTVSPropertyOp21
 70
     1
102
RTVSPropertyOp22
 70
     1
102
RTVSPropertyOp23
 70
     1
102
RTVSPropertyOp24
 70
     1
102
RTVSPropertyOp25
 70
     1
102
RTVSPropertyOp26
 70
     1
102
RTVSPropertyOp27
 70
     1
102
RTVSPropertyOp28
 70
     1
102
RTVSPropertyOp29
 70
     1
102
RTVSPropertyOp30
 70
     1
102
RTVSPropertyOp31
 70
     1
102
RTVSPropertyOp32
 70
     1
102
RTVSPropertyOp33
 70
     1
102
RTVSPropertyOp34
 70
     1
102
RTVSPropertyOp35
 70
     1
102
RTVSPropertyOp36
 70
     1
102
RTVSPropertyOp37
 70
     1
102
RTVSPropertyOp38
 70
     1
102
RTVSPropertyOp39
 70
     1
102
RTVSPropertyOp40
 70
     1
102
RTVSPropertyOp41
 70
     1
102
RTVSPropertyOp42
 70
     1
102
RTVSPropertyOp43
 70
     1
102
RTVSPropertyOp44
 70
     1
102
RTVSPropertyOp45
 70
     1
102
RTVSPropertyOp46
 70
     1
102
RTVSPropertyOp47
 70
     1
102
RTVSPropertyOp48
 70
     1
102
RTVSPropertyOp49
 70
     1
102
RTVSPropertyOp50
 70
     1
102
RTVSPropertyOp51
 70
     0
102
RTVSPropertyOp52
 70
     0
102
RTVSPropertyOp53
 70
     1
102
RTVSPropertyOp54
 70
     1
102
RTVSPropertyOp55
 70
     1
102
RTVSPropertyOp56
 70
     1
102
RTVSPropertyOp57
 70
     1
102
RTVSPropertyOp58
 70
     1
102
RTVSPropertyOp59
 70
     1
102
RTVSPropertyOp60
 70
     1
102
RTVSPropertyOp61
 70
     1
102
RTVSPropertyOp62
 70
     1
  0
XRECORD
  5
6FE
102
{ACAD_REACTORS
330
6FD
102
}
330
6FD
100
AcDbXrecord
280
     1
102
RTVSPost2010Prop28
280
     0
102
RTVSPost2010PropOp28
 70
     1
102
RTVSPost2010Prop29
280
     1
102
RTVSPost2010PropOp29
 70
     1
102
RTVSPost2010Prop30
280
     1
102
RTVSPost2010PropOp30
 70
     1
102
RTVSPost2010Prop31
280
     0
102
RTVSPost2010PropOp31
 70
     1
102
RTVSPost2010Prop32
280
     0
102
RTVSPost2010PropOp32
 70
     1
102
RTVSPost2010Prop33
280
     0
102
RTVSPost2010PropOp33
 70
     1
102
RTVSPost2010Prop34
280
     0
102
RTVSPost2010PropOp34
 70
     1
102
RTVSPost2010Prop35
280
     0
102
RTVSPost2010PropOp35
 70
     1
102
RTVSPost2010Prop36
280
     0
102
RTVSPost2010PropOp36
 70
     1
102
RTVSPost2010Prop37
 90
       50
102
RTVSPost2010PropOp37
 70
     1
102
RTVSPost2010Prop38
140
0.0
102
RTVSPost2010PropOp38
 70
     1
102
RTVSPost2010Prop39
140
1.0
102
RTVSPost2010PropOp39
 70
     1
102
RTVSPost2010Prop40
 90
        0
102
RTVSPost2010PropOp40
 70
     1
102
RTVSPost2010Prop41ColorIndex
 90
       18
102
RTVSPost2010Prop41ColorRGB
 90
        0
102
RTVSPost2010PropOp41
 70
     1
102
RTVSPost2010Prop42
 90
       50
102
RTVSPost2010PropOp42
 70
     1
102
RTVSPost2010Prop43
 90
        3
102
RTVSPost2010PropOp43
 70
     1
102
RTVSPost2010Prop44ColorIndex
 90
        5
102
RTVSPost2010Prop44ColorRGB
 90
      255
102
RTVSPost2010PropOp44
 70
     1
102
RTVSPost2010Prop45
280
     0
102
RTVSPost2010PropOp45
 70
     1
102
RTVSPost2010Prop46
 90
       50
102
RTVSPost2010PropOp46
 70
     1
102
RTVSPost2010Prop47
 90
       50
102
RTVSPost2010PropOp47
 70
     1
102
RTVSPost2010Prop48
 90
       50
102
RTVSPost2010PropOp48
 70
     1
102
RTVSPost2010Prop49
280
     0
102
RTVSPost2010PropOp49
 70
     1
102
RTVSPost2010Prop50
 90
       50
102
RTVSPost2010PropOp50
 70
     1
102
RTVSPost2010Prop51ColorIndex
 90
      256
102
RTVSPost2010Prop51ColorRGB
 90
-16777216
102
RTVSPost2010PropOp51
 70
     0
102
RTVSPost2010Prop52
140
1.0
102
RTVSPost2010PropOp52
 70
     0
102
RTVSPost2010Prop53
 90
        2
102
RTVSPost2010PropOp53
 70
     1
102
RTVSPost2010Prop54
  1
strokes_ogs.tif
102
RTVSPost2010PropOp54
 70
     1
102
RTVSPost2010Prop55
280
     0
102
RTVSPost2010PropOp55
 70
     1
102
RTVSPost2010Prop56
140
1.0
102
RTVSPost2010PropOp56
 70
     1
102
RTVSPost2010Prop57
140
1.0
102
RTVSPost2010PropOp57
 70
     1
102
RTVSPropertyOp0
 70
     1
102
RTVSPropertyOp1
 70
     1
102
RTVSPropertyOp2
 70
     1
102
RTVSPropertyOp3
 70
     1
102
RTVSPropertyOp4
 70
     1
102
RTVSPropertyOp5
 70
     1
102
RTVSPropertyOp6
 70
     1
102
RTVSPropertyOp7
 70
     1
102
RTVSPropertyOp8
 70
     1
102
RTVSPropertyOp9
 70
     1
102
RTVSPropertyOp10
 70
     1
102
RTVSPropertyOp11
 70
     1
102
RTVSPropertyOp12
 70
     1
102
RTVSPropertyOp13
 70
     1
102
RTVSPropertyOp14
 70
     1
102
RTVSPropertyOp15
 70
     1
102
RTVSPropertyOp16
 70
     1
102
RTVSPropertyOp17
 70
     1
102
RTVSPropertyOp18
 70
     1
102
RTVSPropertyOp19
 70
     1
102
RTVSPropertyOp20
 70
     1
102
RTVSPropertyOp21
 70
     1
102
RTVSPropertyOp22
 70
     1
102
RTVSPropertyOp23
 70
     1
102
RTVSPropertyOp24
 70
     1
102
RTVSPropertyOp25
 70
     1
102
RTVSPropertyOp26
 70
     1
102
RTVSPropertyOp27
 70
     1
102
RTVSPropertyOp28
 70
     1
102
RTVSPropertyOp29
 70
     1
102
RTVSPropertyOp30
 70
     1
102
RTVSPropertyOp31
 70
     1
102
RTVSPropertyOp32
 70
     1
102
RTVSPropertyOp33
 70
     1
102
RTVSPropertyOp34
 70
     1
102
RTVSPropertyOp35
 70
     1
102
RTVSPropertyOp36
 70
     1
102
RTVSPropertyOp37
 70
     1
102
RTVSPropertyOp38
 70
     1
102
RTVSPropertyOp39
 70
     1
102
RTVSPropertyOp40
 70
     1
102
RTVSPropertyOp41
 70
     1
102
RTVSPropertyOp42
 70
     1
102
RTVSPropertyOp43
 70
     1
102
RTVSPropertyOp44
 70
     1
102
RTVSPropertyOp45
 70
     1
102
RTVSPropertyOp46
 70
     1
102
RTVSPropertyOp47
 70
     1
102
RTVSPropertyOp48
 70
     1
102
RTVSPropertyOp49
 70
     1
102
RTVSPropertyOp50
 70
     1
102
RTVSPropertyOp51
 70
     0
102
RTVSPropertyOp52
 70
     0
102
RTVSPropertyOp53
 70
     1
102
RTVSPropertyOp54
 70
     1
102
RTVSPropertyOp55
 70
     1
102
RTVSPropertyOp56
 70
     1
102
RTVSPropertyOp57
 70
     1
102
RTVSPropertyOp58
 70
     1
102
RTVSPropertyOp59
 70
     1
102
RTVSPropertyOp60
 70
     1
102
RTVSPropertyOp61
 70
     1
102
RTVSPropertyOp62
 70
     1
  0
XRECORD
  5
6F2
102
{ACAD_REACTORS
330
6F1
102
}
330
6F1
100
AcDbXrecord
280
     1
102
RTVSPost2010Prop28
280
     0
102
RTVSPost2010PropOp28
 70
     1
102
RTVSPost2010Prop29
280
     1
102
RTVSPost2010PropOp29
 70
     1
102
RTVSPost2010Prop30
280
     1
102
RTVSPost2010PropOp30
 70
     1
102
RTVSPost2010Prop31
280
     0
102
RTVSPost2010PropOp31
 70
     1
102
RTVSPost2010Prop32
280
     0
102
RTVSPost2010PropOp32
 70
     1
102
RTVSPost2010Prop33
280
     0
102
RTVSPost2010PropOp33
 70
     1
102
RTVSPost2010Prop34
280
     0
102
RTVSPost2010PropOp34
 70
     1
102
RTVSPost2010Prop35
280
     0
102
RTVSPost2010PropOp35
 70
     1
102
RTVSPost2010Prop36
280
     0
102
RTVSPost2010PropOp36
 70
     1
102
RTVSPost2010Prop37
 90
       50
102
RTVSPost2010PropOp37
 70
     1
102
RTVSPost2010Prop38
140
0.0
102
RTVSPost2010PropOp38
 70
     1
102
RTVSPost2010Prop39
140
1.0
102
RTVSPost2010PropOp39
 70
     1
102
RTVSPost2010Prop40
 90
        0
102
RTVSPost2010PropOp40
 70
     1
102
RTVSPost2010Prop41ColorIndex
 90
       18
102
RTVSPost2010Prop41ColorRGB
 90
        0
102
RTVSPost2010PropOp41
 70
     1
102
RTVSPost2010Prop42
 90
       50
102
RTVSPost2010PropOp42
 70
     1
102
RTVSPost2010Prop43
 90
        3
102
RTVSPost2010PropOp43
 70
     1
102
RTVSPost2010Prop44ColorIndex
 90
        5
102
RTVSPost2010Prop44ColorRGB
 90
      255
102
RTVSPost2010PropOp44
 70
     1
102
RTVSPost2010Prop45
280
     0
102
RTVSPost2010PropOp45
 70
     1
102
RTVSPost2010Prop46
 90
       50
102
RTVSPost2010PropOp46
 70
     1
102
RTVSPost2010Prop47
 90
       50
102
RTVSPost2010PropOp47
 70
     1
102
RTVSPost2010Prop48
 90
       50
102
RTVSPost2010PropOp48
 70
     1
102
RTVSPost2010Prop49
280
     0
102
RTVSPost2010PropOp49
 70
     1
102
RTVSPost2010Prop50
 90
       50
102
RTVSPost2010PropOp50
 70
     1
102
RTVSPost2010Prop51ColorIndex
 90
      256
102
RTVSPost2010Prop51ColorRGB
 90
-16777216
102
RTVSPost2010PropOp51
 70
     0
102
RTVSPost2010Prop52
140
1.0
102
RTVSPost2010PropOp52
 70
     0
102
RTVSPost2010Prop53
 90
        2
102
RTVSPost2010PropOp53
 70
     1
102
RTVSPost2010Prop54
  1
strokes_ogs.tif
102
RTVSPost2010PropOp54
 70
     1
102
RTVSPost2010Prop55
280
     0
102
RTVSPost2010PropOp55
 70
     1
102
RTVSPost2010Prop56
140
1.0
102
RTVSPost2010PropOp56
 70
     1
102
RTVSPost2010Prop57
140
1.0
102
RTVSPost2010PropOp57
 70
     1
102
RTVSPropertyOp0
 70
     1
102
RTVSPropertyOp1
 70
     1
102
RTVSPropertyOp2
 70
     1
102
RTVSPropertyOp3
 70
     1
102
RTVSPropertyOp4
 70
     1
102
RTVSPropertyOp5
 70
     1
102
RTVSPropertyOp6
 70
     1
102
RTVSPropertyOp7
 70
     1
102
RTVSPropertyOp8
 70
     1
102
RTVSPropertyOp9
 70
     1
102
RTVSPropertyOp10
 70
     1
102
RTVSPropertyOp11
 70
     1
102
RTVSPropertyOp12
 70
     1
102
RTVSPropertyOp13
 70
     1
102
RTVSPropertyOp14
 70
     1
102
RTVSPropertyOp15
 70
     1
102
RTVSPropertyOp16
 70
     1
102
RTVSPropertyOp17
 70
     1
102
RTVSPropertyOp18
 70
     1
102
RTVSPropertyOp19
 70
     1
102
RTVSPropertyOp20
 70
     1
102
RTVSPropertyOp21
 70
     1
102
RTVSPropertyOp22
 70
     1
102
RTVSPropertyOp23
 70
     1
102
RTVSPropertyOp24
 70
     1
102
RTVSPropertyOp25
 70
     1
102
RTVSPropertyOp26
 70
     1
102
RTVSPropertyOp27
 70
     1
102
RTVSPropertyOp28
 70
     1
102
RTVSPropertyOp29
 70
     1
102
RTVSPropertyOp30
 70
     1
102
RTVSPropertyOp31
 70
     1
102
RTVSPropertyOp32
 70
     1
102
RTVSPropertyOp33
 70
     1
102
RTVSPropertyOp34
 70
     1
102
RTVSPropertyOp35
 70
     1
102
RTVSPropertyOp36
 70
     1
102
RTVSPropertyOp37
 70
     1
102
RTVSPropertyOp38
 70
     1
102
RTVSPropertyOp39
 70
     1
102
RTVSPropertyOp40
 70
     1
102
RTVSPropertyOp41
 70
     1
102
RTVSPropertyOp42
 70
     1
102
RTVSPropertyOp43
 70
     1
102
RTVSPropertyOp44
 70
     1
102
RTVSPropertyOp45
 70
     1
102
RTVSPropertyOp46
 70
     1
102
RTVSPropertyOp47
 70
     1
102
RTVSPropertyOp48
 70
     1
102
RTVSPropertyOp49
 70
     1
102
RTVSPropertyOp50
 70
     1
102
RTVSPropertyOp51
 70
     0
102
RTVSPropertyOp52
 70
     0
102
RTVSPropertyOp53
 70
     1
102
RTVSPropertyOp54
 70
     1
102
RTVSPropertyOp55
 70
     1
102
RTVSPropertyOp56
 70
     1
102
RTVSPropertyOp57
 70
     1
102
RTVSPropertyOp58
 70
     1
102
RTVSPropertyOp59
 70
     1
102
RTVSPropertyOp60
 70
     1
102
RTVSPropertyOp61
 70
     1
102
RTVSPropertyOp62
 70
     1
  0
XRECORD
  5
6F4
102
{ACAD_REACTORS
330
6F3
102
}
330
6F3
100
AcDbXrecord
280
     1
102
RTVSPost2010Prop28
280
     0
102
RTVSPost2010PropOp28
 70
     1
102
RTVSPost2010Prop29
280
     1
102
RTVSPost2010PropOp29
 70
     1
102
RTVSPost2010Prop30
280
     1
102
RTVSPost2010PropOp30
 70
     1
102
RTVSPost2010Prop31
280
     0
102
RTVSPost2010PropOp31
 70
     1
102
RTVSPost2010Prop32
280
     0
102
RTVSPost2010PropOp32
 70
     1
102
RTVSPost2010Prop33
280
     0
102
RTVSPost2010PropOp33
 70
     1
102
RTVSPost2010Prop34
280
     0
102
RTVSPost2010PropOp34
 70
     1
102
RTVSPost2010Prop35
280
     0
102
RTVSPost2010PropOp35
 70
     1
102
RTVSPost2010Prop36
280
     0
102
RTVSPost2010PropOp36
 70
     1
102
RTVSPost2010Prop37
 90
       50
102
RTVSPost2010PropOp37
 70
     1
102
RTVSPost2010Prop38
140
0.0
102
RTVSPost2010PropOp38
 70
     1
102
RTVSPost2010Prop39
140
1.0
102
RTVSPost2010PropOp39
 70
     1
102
RTVSPost2010Prop40
 90
        0
102
RTVSPost2010PropOp40
 70
     1
102
RTVSPost2010Prop41ColorIndex
 90
       18
102
RTVSPost2010Prop41ColorRGB
 90
        0
102
RTVSPost2010PropOp41
 70
     1
102
RTVSPost2010Prop42
 90
       50
102
RTVSPost2010PropOp42
 70
     1
102
RTVSPost2010Prop43
 90
        3
102
RTVSPost2010PropOp43
 70
     1
102
RTVSPost2010Prop44ColorIndex
 90
        5
102
RTVSPost2010Prop44ColorRGB
 90
      255
102
RTVSPost2010PropOp44
 70
     1
102
RTVSPost2010Prop45
280
     0
102
RTVSPost2010PropOp45
 70
     1
102
RTVSPost2010Prop46
 90
       50
102
RTVSPost2010PropOp46
 70
     1
102
RTVSPost2010Prop47
 90
       50
102
RTVSPost2010PropOp47
 70
     1
102
RTVSPost2010Prop48
 90
       50
102
RTVSPost2010PropOp48
 70
     1
102
RTVSPost2010Prop49
280
     0
102
RTVSPost2010PropOp49
 70
     1
102
RTVSPost2010Prop50
 90
       50
102
RTVSPost2010PropOp50
 70
     1
102
RTVSPost2010Prop51ColorIndex
 90
      256
102
RTVSPost2010Prop51ColorRGB
 90
-16777216
102
RTVSPost2010PropOp51
 70
     0
102
RTVSPost2010Prop52
140
1.0
102
RTVSPost2010PropOp52
 70
     0
102
RTVSPost2010Prop53
 90
        2
102
RTVSPost2010PropOp53
 70
     1
102
RTVSPost2010Prop54
  1
strokes_ogs.tif
102
RTVSPost2010PropOp54
 70
     1
102
RTVSPost2010Prop55
280
     0
102
RTVSPost2010PropOp55
 70
     1
102
RTVSPost2010Prop56
140
1.0
102
RTVSPost2010PropOp56
 70
     1
102
RTVSPost2010Prop57
140
1.0
102
RTVSPost2010PropOp57
 70
     1
102
RTVSPropertyOp0
 70
     1
102
RTVSPropertyOp1
 70
     1
102
RTVSPropertyOp2
 70
     1
102
RTVSPropertyOp3
 70
     1
102
RTVSPropertyOp4
 70
     1
102
RTVSPropertyOp5
 70
     1
102
RTVSPropertyOp6
 70
     1
102
RTVSPropertyOp7
 70
     1
102
RTVSPropertyOp8
 70
     1
102
RTVSPropertyOp9
 70
     1
102
RTVSPropertyOp10
 70
     1
102
RTVSPropertyOp11
 70
     1
102
RTVSPropertyOp12
 70
     1
102
RTVSPropertyOp13
 70
     1
102
RTVSPropertyOp14
 70
     1
102
RTVSPropertyOp15
 70
     1
102
RTVSPropertyOp16
 70
     1
102
RTVSPropertyOp17
 70
     1
102
RTVSPropertyOp18
 70
     1
102
RTVSPropertyOp19
 70
     1
102
RTVSPropertyOp20
 70
     1
102
RTVSPropertyOp21
 70
     1
102
RTVSPropertyOp22
 70
     1
102
RTVSPropertyOp23
 70
     1
102
RTVSPropertyOp24
 70
     1
102
RTVSPropertyOp25
 70
     1
102
RTVSPropertyOp26
 70
     1
102
RTVSPropertyOp27
 70
     1
102
RTVSPropertyOp28
 70
     1
102
RTVSPropertyOp29
 70
     1
102
RTVSPropertyOp30
 70
     1
102
RTVSPropertyOp31
 70
     1
102
RTVSPropertyOp32
 70
     1
102
RTVSPropertyOp33
 70
     1
102
RTVSPropertyOp34
 70
     1
102
RTVSPropertyOp35
 70
     1
102
RTVSPropertyOp36
 70
     1
102
RTVSPropertyOp37
 70
     1
102
RTVSPropertyOp38
 70
     1
102
RTVSPropertyOp39
 70
     1
102
RTVSPropertyOp40
 70
     1
102
RTVSPropertyOp41
 70
     1
102
RTVSPropertyOp42
 70
     1
102
RTVSPropertyOp43
 70
     1
102
RTVSPropertyOp44
 70
     1
102
RTVSPropertyOp45
 70
     1
102
RTVSPropertyOp46
 70
     1
102
RTVSPropertyOp47
 70
     1
102
RTVSPropertyOp48
 70
     1
102
RTVSPropertyOp49
 70
     1
102
RTVSPropertyOp50
 70
     1
102
RTVSPropertyOp51
 70
     0
102
RTVSPropertyOp52
 70
     0
102
RTVSPropertyOp53
 70
     1
102
RTVSPropertyOp54
 70
     1
102
RTVSPropertyOp55
 70
     1
102
RTVSPropertyOp56
 70
     1
102
RTVSPropertyOp57
 70
     1
102
RTVSPropertyOp58
 70
     1
102
RTVSPropertyOp59
 70
     1
102
RTVSPropertyOp60
 70
     1
102
RTVSPropertyOp61
 70
     1
102
RTVSPropertyOp62
 70
     1
  0
XRECORD
  5
704
102
{ACAD_REACTORS
330
703
102
}
330
703
100
AcDbXrecord
280
     1
102
RTVSPost2010Prop28
280
     0
102
RTVSPost2010PropOp28
 70
     0
102
RTVSPost2010Prop29
280
     1
102
RTVSPost2010PropOp29
 70
     0
102
RTVSPost2010Prop30
280
     1
102
RTVSPost2010PropOp30
 70
     0
102
RTVSPost2010Prop31
280
     0
102
RTVSPost2010PropOp31
 70
     0
102
RTVSPost2010Prop32
280
     0
102
RTVSPost2010PropOp32
 70
     0
102
RTVSPost2010Prop33
280
     0
102
RTVSPost2010PropOp33
 70
     0
102
RTVSPost2010Prop34
280
     0
102
RTVSPost2010PropOp34
 70
     0
102
RTVSPost2010Prop35
280
     0
102
RTVSPost2010PropOp35
 70
     0
102
RTVSPost2010Prop36
280
     0
102
RTVSPost2010PropOp36
 70
     0
102
RTVSPost2010Prop37
 90
       50
102
RTVSPost2010PropOp37
 70
     0
102
RTVSPost2010Prop38
140
0.0
102
RTVSPost2010PropOp38
 70
     0
102
RTVSPost2010Prop39
140
1.0
102
RTVSPost2010PropOp39
 70
     0
102
RTVSPost2010Prop40
 90
        0
102
RTVSPost2010PropOp40
 70
     0
102
RTVSPost2010Prop41ColorIndex
 90
       18
102
RTVSPost2010Prop41ColorRGB
 90
        0
102
RTVSPost2010PropOp41
 70
     0
102
RTVSPost2010Prop42
 90
       50
102
RTVSPost2010PropOp42
 70
     0
102
RTVSPost2010Prop43
 90
        3
102
RTVSPost2010PropOp43
 70
     0
102
RTVSPost2010Prop44ColorIndex
 90
        5
102
RTVSPost2010Prop44ColorRGB
 90
      255
102
RTVSPost2010PropOp44
 70
     0
102
RTVSPost2010Prop45
280
     0
102
RTVSPost2010PropOp45
 70
     0
102
RTVSPost2010Prop46
 90
       50
102
RTVSPost2010PropOp46
 70
     0
102
RTVSPost2010Prop47
 90
       50
102
RTVSPost2010PropOp47
 70
     0
102
RTVSPost2010Prop48
 90
       50
102
RTVSPost2010PropOp48
 70
     0
102
RTVSPost2010Prop49
280
     0
102
RTVSPost2010PropOp49
 70
     0
102
RTVSPost2010Prop50
 90
       50
102
RTVSPost2010PropOp50
 70
     0
102
RTVSPost2010Prop51ColorIndex
 90
      256
102
RTVSPost2010Prop51ColorRGB
 90
-16777216
102
RTVSPost2010PropOp51
 70
     0
102
RTVSPost2010Prop52
140
1.0
102
RTVSPost2010PropOp52
 70
     0
102
RTVSPost2010Prop53
 90
        2
102
RTVSPost2010PropOp53
 70
     0
102
RTVSPost2010Prop54
  1
strokes_ogs.tif
102
RTVSPost2010PropOp54
 70
     0
102
RTVSPost2010Prop55
280
     0
102
RTVSPost2010PropOp55
 70
     0
102
RTVSPost2010Prop56
140
1.0
102
RTVSPost2010PropOp56
 70
     0
102
RTVSPost2010Prop57
140
1.0
102
RTVSPost2010PropOp57
 70
     0
102
RTVSPropertyOp0
 70
     0
102
RTVSPropertyOp1
 70
     0
102
RTVSPropertyOp2
 70
     0
102
RTVSPropertyOp3
 70
     0
102
RTVSPropertyOp4
 70
     0
102
RTVSPropertyOp5
 70
     0
102
RTVSPropertyOp6
 70
     0
102
RTVSPropertyOp7
 70
     0
102
RTVSPropertyOp8
 70
     0
102
RTVSPropertyOp9
 70
     0
102
RTVSPropertyOp10
 70
     0
102
RTVSPropertyOp11
 70
     0
102
RTVSPropertyOp12
 70
     0
102
RTVSPropertyOp13
 70
     0
102
RTVSPropertyOp14
 70
     2
102
RTVSPropertyOp15
 70
     0
102
RTVSPropertyOp16
 70
     0
102
RTVSPropertyOp17
 70
     0
102
RTVSPropertyOp18
 70
     0
102
RTVSPropertyOp19
 70
     0
102
RTVSPropertyOp20
 70
     0
102
RTVSPropertyOp21
 70
     0
102
RTVSPropertyOp22
 70
     0
102
RTVSPropertyOp23
 70
     0
102
RTVSPropertyOp24
 70
     0
102
RTVSPropertyOp25
 70
     0
102
RTVSPropertyOp26
 70
     0
102
RTVSPropertyOp27
 70
     0
102
RTVSPropertyOp28
 70
     0
102
RTVSPropertyOp29
 70
     0
102
RTVSPropertyOp30
 70
     0
102
RTVSPropertyOp31
 70
     0
102
RTVSPropertyOp32
 70
     0
102
RTVSPropertyOp33
 70
     0
102
RTVSPropertyOp34
 70
     0
102
RTVSPropertyOp35
 70
     0
102
RTVSPropertyOp36
 70
     0
102
RTVSPropertyOp37
 70
     0
102
RTVSPropertyOp38
 70
     0
102
RTVSPropertyOp39
 70
     0
102
RTVSPropertyOp40
 70
     0
102
RTVSPropertyOp41
 70
     0
102
RTVSPropertyOp42
 70
     0
102
RTVSPropertyOp43
 70
     0
102
RTVSPropertyOp44
 70
     0
102
RTVSPropertyOp45
 70
     0
102
RTVSPropertyOp46
 70
     0
102
RTVSPropertyOp47
 70
     0
102
RTVSPropertyOp48
 70
     0
102
RTVSPropertyOp49
 70
     0
102
RTVSPropertyOp50
 70
     0
102
RTVSPropertyOp51
 70
     0
102
RTVSPropertyOp52
 70
     0
102
RTVSPropertyOp53
 70
     0
102
RTVSPropertyOp54
 70
     0
102
RTVSPropertyOp55
 70
     0
102
RTVSPropertyOp56
 70
     0
102
RTVSPropertyOp57
 70
     0
102
RTVSPropertyOp58
 70
     1
102
RTVSPropertyOp59
 70
     1
102
RTVSPropertyOp60
 70
     1
102
RTVSPropertyOp61
 70
     1
102
RTVSPropertyOp62
 70
     1
  0
XRECORD
  5
6FC
102
{ACAD_REACTORS
330
6FB
102
}
330
6FB
100
AcDbXrecord
280
     1
102
RTVSPost2010Prop28
280
     0
102
RTVSPost2010PropOp28
 70
     1
102
RTVSPost2010Prop29
280
     1
102
RTVSPost2010PropOp29
 70
     1
102
RTVSPost2010Prop30
280
     1
102
RTVSPost2010PropOp30
 70
     1
102
RTVSPost2010Prop31
280
     0
102
RTVSPost2010PropOp31
 70
     1
102
RTVSPost2010Prop32
280
     0
102
RTVSPost2010PropOp32
 70
     1
102
RTVSPost2010Prop33
280
     0
102
RTVSPost2010PropOp33
 70
     1
102
RTVSPost2010Prop34
280
     0
102
RTVSPost2010PropOp34
 70
     1
102
RTVSPost2010Prop35
280
     0
102
RTVSPost2010PropOp35
 70
     1
102
RTVSPost2010Prop36
280
     0
102
RTVSPost2010PropOp36
 70
     1
102
RTVSPost2010Prop37
 90
       50
102
RTVSPost2010PropOp37
 70
     1
102
RTVSPost2010Prop38
140
0.0
102
RTVSPost2010PropOp38
 70
     1
102
RTVSPost2010Prop39
140
1.0
102
RTVSPost2010PropOp39
 70
     1
102
RTVSPost2010Prop40
 90
        0
102
RTVSPost2010PropOp40
 70
     1
102
RTVSPost2010Prop41ColorIndex
 90
       18
102
RTVSPost2010Prop41ColorRGB
 90
        0
102
RTVSPost2010PropOp41
 70
     1
102
RTVSPost2010Prop42
 90
       50
102
RTVSPost2010PropOp42
 70
     1
102
RTVSPost2010Prop43
 90
        3
102
RTVSPost2010PropOp43
 70
     1
102
RTVSPost2010Prop44ColorIndex
 90
        5
102
RTVSPost2010Prop44ColorRGB
 90
      255
102
RTVSPost2010PropOp44
 70
     1
102
RTVSPost2010Prop45
280
     0
102
RTVSPost2010PropOp45
 70
     1
102
RTVSPost2010Prop46
 90
       50
102
RTVSPost2010PropOp46
 70
     1
102
RTVSPost2010Prop47
 90
       50
102
RTVSPost2010PropOp47
 70
     1
102
RTVSPost2010Prop48
 90
       50
102
RTVSPost2010PropOp48
 70
     1
102
RTVSPost2010Prop49
280
     0
102
RTVSPost2010PropOp49
 70
     1
102
RTVSPost2010Prop50
 90
       50
102
RTVSPost2010PropOp50
 70
     1
102
RTVSPost2010Prop51ColorIndex
 90
      256
102
RTVSPost2010Prop51ColorRGB
 90
-16777216
102
RTVSPost2010PropOp51
 70
     0
102
RTVSPost2010Prop52
140
1.0
102
RTVSPost2010PropOp52
 70
     0
102
RTVSPost2010Prop53
 90
        2
102
RTVSPost2010PropOp53
 70
     1
102
RTVSPost2010Prop54
  1
strokes_ogs.tif
102
RTVSPost2010PropOp54
 70
     1
102
RTVSPost2010Prop55
280
     0
102
RTVSPost2010PropOp55
 70
     1
102
RTVSPost2010Prop56
140
1.0
102
RTVSPost2010PropOp56
 70
     1
102
RTVSPost2010Prop57
140
1.0
102
RTVSPost2010PropOp57
 70
     1
102
RTVSPropertyOp0
 70
     1
102
RTVSPropertyOp1
 70
     1
102
RTVSPropertyOp2
 70
     1
102
RTVSPropertyOp3
 70
     1
102
RTVSPropertyOp4
 70
     1
102
RTVSPropertyOp5
 70
     1
102
RTVSPropertyOp6
 70
     1
102
RTVSPropertyOp7
 70
     1
102
RTVSPropertyOp8
 70
     1
102
RTVSPropertyOp9
 70
     1
102
RTVSPropertyOp10
 70
     1
102
RTVSPropertyOp11
 70
     1
102
RTVSPropertyOp12
 70
     1
102
RTVSPropertyOp13
 70
     1
102
RTVSPropertyOp14
 70
     1
102
RTVSPropertyOp15
 70
     1
102
RTVSPropertyOp16
 70
     1
102
RTVSPropertyOp17
 70
     1
102
RTVSPropertyOp18
 70
     1
102
RTVSPropertyOp19
 70
     1
102
RTVSPropertyOp20
 70
     1
102
RTVSPropertyOp21
 70
     1
102
RTVSPropertyOp22
 70
     1
102
RTVSPropertyOp23
 70
     1
102
RTVSPropertyOp24
 70
     1
102
RTVSPropertyOp25
 70
     1
102
RTVSPropertyOp26
 70
     1
102
RTVSPropertyOp27
 70
     1
102
RTVSPropertyOp28
 70
     1
102
RTVSPropertyOp29
 70
     1
102
RTVSPropertyOp30
 70
     1
102
RTVSPropertyOp31
 70
     1
102
RTVSPropertyOp32
 70
     1
102
RTVSPropertyOp33
 70
     1
102
RTVSPropertyOp34
 70
     1
102
RTVSPropertyOp35
 70
     1
102
RTVSPropertyOp36
 70
     1
102
RTVSPropertyOp37
 70
     1
102
RTVSPropertyOp38
 70
     1
102
RTVSPropertyOp39
 70
     1
102
RTVSPropertyOp40
 70
     1
102
RTVSPropertyOp41
 70
     1
102
RTVSPropertyOp42
 70
     1
102
RTVSPropertyOp43
 70
     1
102
RTVSPropertyOp44
 70
     1
102
RTVSPropertyOp45
 70
     1
102
RTVSPropertyOp46
 70
     1
102
RTVSPropertyOp47
 70
     1
102
RTVSPropertyOp48
 70
     1
102
RTVSPropertyOp49
 70
     1
102
RTVSPropertyOp50
 70
     1
102
RTVSPropertyOp51
 70
     0
102
RTVSPropertyOp52
 70
     0
102
RTVSPropertyOp53
 70
     1
102
RTVSPropertyOp54
 70
     1
102
RTVSPropertyOp55
 70
     1
102
RTVSPropertyOp56
 70
     1
102
RTVSPropertyOp57
 70
     1
102
RTVSPropertyOp58
 70
     1
102
RTVSPropertyOp59
 70
     1
102
RTVSPropertyOp60
 70
     1
102
RTVSPropertyOp61
 70
     1
102
RTVSPropertyOp62
 70
     1
  0
XRECORD
  5
6E0
102
{ACAD_REACTORS
330
6DF
102
}
330
6DF
100
AcDbXrecord
280
     1
102
RTVSPost2010Prop28
280
     0
102
RTVSPost2010PropOp28
 70
     1
102
RTVSPost2010Prop29
280
     1
102
RTVSPost2010PropOp29
 70
     1
102
RTVSPost2010Prop30
280
     1
102
RTVSPost2010PropOp30
 70
     1
102
RTVSPost2010Prop31
280
     0
102
RTVSPost2010PropOp31
 70
     1
102
RTVSPost2010Prop32
280
     0
102
RTVSPost2010PropOp32
 70
     1
102
RTVSPost2010Prop33
280
     0
102
RTVSPost2010PropOp33
 70
     1
102
RTVSPost2010Prop34
280
     0
102
RTVSPost2010PropOp34
 70
     1
102
RTVSPost2010Prop35
280
     0
102
RTVSPost2010PropOp35
 70
     1
102
RTVSPost2010Prop36
280
     0
102
RTVSPost2010PropOp36
 70
     1
102
RTVSPost2010Prop37
 90
       50
102
RTVSPost2010PropOp37
 70
     1
102
RTVSPost2010Prop38
140
0.0
102
RTVSPost2010PropOp38
 70
     1
102
RTVSPost2010Prop39
140
1.0
102
RTVSPost2010PropOp39
 70
     1
102
RTVSPost2010Prop40
 90
        0
102
RTVSPost2010PropOp40
 70
     1
102
RTVSPost2010Prop41ColorIndex
 90
       18
102
RTVSPost2010Prop41ColorRGB
 90
        0
102
RTVSPost2010PropOp41
 70
     1
102
RTVSPost2010Prop42
 90
       50
102
RTVSPost2010PropOp42
 70
     1
102
RTVSPost2010Prop43
 90
        3
102
RTVSPost2010PropOp43
 70
     1
102
RTVSPost2010Prop44ColorIndex
 90
        5
102
RTVSPost2010Prop44ColorRGB
 90
      255
102
RTVSPost2010PropOp44
 70
     1
102
RTVSPost2010Prop45
280
     0
102
RTVSPost2010PropOp45
 70
     1
102
RTVSPost2010Prop46
 90
       50
102
RTVSPost2010PropOp46
 70
     1
102
RTVSPost2010Prop47
 90
       50
102
RTVSPost2010PropOp47
 70
     1
102
RTVSPost2010Prop48
 90
       50
102
RTVSPost2010PropOp48
 70
     1
102
RTVSPost2010Prop49
280
     0
102
RTVSPost2010PropOp49
 70
     1
102
RTVSPost2010Prop50
 90
       50
102
RTVSPost2010PropOp50
 70
     1
102
RTVSPost2010Prop51ColorIndex
 90
      256
102
RTVSPost2010Prop51ColorRGB
 90
-16777216
102
RTVSPost2010PropOp51
 70
     0
102
RTVSPost2010Prop52
140
1.0
102
RTVSPost2010PropOp52
 70
     0
102
RTVSPost2010Prop53
 90
        2
102
RTVSPost2010PropOp53
 70
     1
102
RTVSPost2010Prop54
  1
strokes_ogs.tif
102
RTVSPost2010PropOp54
 70
     1
102
RTVSPost2010Prop55
280
     0
102
RTVSPost2010PropOp55
 70
     1
102
RTVSPost2010Prop56
140
1.0
102
RTVSPost2010PropOp56
 70
     1
102
RTVSPost2010Prop57
140
1.0
102
RTVSPost2010PropOp57
 70
     1
102
RTVSPropertyOp0
 70
     1
102
RTVSPropertyOp1
 70
     1
102
RTVSPropertyOp2
 70
     1
102
RTVSPropertyOp3
 70
     1
102
RTVSPropertyOp4
 70
     1
102
RTVSPropertyOp5
 70
     1
102
RTVSPropertyOp6
 70
     1
102
RTVSPropertyOp7
 70
     1
102
RTVSPropertyOp8
 70
     1
102
RTVSPropertyOp9
 70
     1
102
RTVSPropertyOp10
 70
     1
102
RTVSPropertyOp11
 70
     1
102
RTVSPropertyOp12
 70
     1
102
RTVSPropertyOp13
 70
     1
102
RTVSPropertyOp14
 70
     1
102
RTVSPropertyOp15
 70
     1
102
RTVSPropertyOp16
 70
     1
102
RTVSPropertyOp17
 70
     1
102
RTVSPropertyOp18
 70
     1
102
RTVSPropertyOp19
 70
     1
102
RTVSPropertyOp20
 70
     1
102
RTVSPropertyOp21
 70
     1
102
RTVSPropertyOp22
 70
     1
102
RTVSPropertyOp23
 70
     1
102
RTVSPropertyOp24
 70
     1
102
RTVSPropertyOp25
 70
     1
102
RTVSPropertyOp26
 70
     1
102
RTVSPropertyOp27
 70
     1
102
RTVSPropertyOp28
 70
     1
102
RTVSPropertyOp29
 70
     1
102
RTVSPropertyOp30
 70
     1
102
RTVSPropertyOp31
 70
     1
102
RTVSPropertyOp32
 70
     1
102
RTVSPropertyOp33
 70
     1
102
RTVSPropertyOp34
 70
     1
102
RTVSPropertyOp35
 70
     1
102
RTVSPropertyOp36
 70
     1
102
RTVSPropertyOp37
 70
     1
102
RTVSPropertyOp38
 70
     1
102
RTVSPropertyOp39
 70
     1
102
RTVSPropertyOp40
 70
     1
102
RTVSPropertyOp41
 70
     1
102
RTVSPropertyOp42
 70
     1
102
RTVSPropertyOp43
 70
     1
102
RTVSPropertyOp44
 70
     1
102
RTVSPropertyOp45
 70
     1
102
RTVSPropertyOp46
 70
     1
102
RTVSPropertyOp47
 70
     1
102
RTVSPropertyOp48
 70
     1
102
RTVSPropertyOp49
 70
     1
102
RTVSPropertyOp50
 70
     1
102
RTVSPropertyOp51
 70
     0
102
RTVSPropertyOp52
 70
     0
102
RTVSPropertyOp53
 70
     1
102
RTVSPropertyOp54
 70
     1
102
RTVSPropertyOp55
 70
     1
102
RTVSPropertyOp56
 70
     1
102
RTVSPropertyOp57
 70
     1
102
RTVSPropertyOp58
 70
     1
102
RTVSPropertyOp59
 70
     1
102
RTVSPropertyOp60
 70
     1
102
RTVSPropertyOp61
 70
     1
102
RTVSPropertyOp62
 70
     1
  0
XRECORD
  5
6E2
102
{ACAD_REACTORS
330
6E1
102
}
330
6E1
100
AcDbXrecord
280
     1
102
RTVSPost2010Prop28
280
     0
102
RTVSPost2010PropOp28
 70
     1
102
RTVSPost2010Prop29
280
     1
102
RTVSPost2010PropOp29
 70
     1
102
RTVSPost2010Prop30
280
     1
102
RTVSPost2010PropOp30
 70
     1
102
RTVSPost2010Prop31
280
     0
102
RTVSPost2010PropOp31
 70
     1
102
RTVSPost2010Prop32
280
     0
102
RTVSPost2010PropOp32
 70
     1
102
RTVSPost2010Prop33
280
     0
102
RTVSPost2010PropOp33
 70
     1
102
RTVSPost2010Prop34
280
     0
102
RTVSPost2010PropOp34
 70
     1
102
RTVSPost2010Prop35
280
     0
102
RTVSPost2010PropOp35
 70
     1
102
RTVSPost2010Prop36
280
     0
102
RTVSPost2010PropOp36
 70
     1
102
RTVSPost2010Prop37
 90
       50
102
RTVSPost2010PropOp37
 70
     1
102
RTVSPost2010Prop38
140
0.0
102
RTVSPost2010PropOp38
 70
     1
102
RTVSPost2010Prop39
140
1.0
102
RTVSPost2010PropOp39
 70
     1
102
RTVSPost2010Prop40
 90
        0
102
RTVSPost2010PropOp40
 70
     1
102
RTVSPost2010Prop41ColorIndex
 90
       18
102
RTVSPost2010Prop41ColorRGB
 90
        0
102
RTVSPost2010PropOp41
 70
     1
102
RTVSPost2010Prop42
 90
       50
102
RTVSPost2010PropOp42
 70
     1
102
RTVSPost2010Prop43
 90
        3
102
RTVSPost2010PropOp43
 70
     1
102
RTVSPost2010Prop44ColorIndex
 90
        5
102
RTVSPost2010Prop44ColorRGB
 90
      255
102
RTVSPost2010PropOp44
 70
     1
102
RTVSPost2010Prop45
280
     0
102
RTVSPost2010PropOp45
 70
     1
102
RTVSPost2010Prop46
 90
       50
102
RTVSPost2010PropOp46
 70
     1
102
RTVSPost2010Prop47
 90
       50
102
RTVSPost2010PropOp47
 70
     1
102
RTVSPost2010Prop48
 90
       50
102
RTVSPost2010PropOp48
 70
     1
102
RTVSPost2010Prop49
280
     0
102
RTVSPost2010PropOp49
 70
     1
102
RTVSPost2010Prop50
 90
       50
102
RTVSPost2010PropOp50
 70
     1
102
RTVSPost2010Prop51ColorIndex
 90
      256
102
RTVSPost2010Prop51ColorRGB
 90
-16777216
102
RTVSPost2010PropOp51
 70
     0
102
RTVSPost2010Prop52
140
1.0
102
RTVSPost2010PropOp52
 70
     0
102
RTVSPost2010Prop53
 90
        2
102
RTVSPost2010PropOp53
 70
     1
102
RTVSPost2010Prop54
  1
strokes_ogs.tif
102
RTVSPost2010PropOp54
 70
     1
102
RTVSPost2010Prop55
280
     0
102
RTVSPost2010PropOp55
 70
     1
102
RTVSPost2010Prop56
140
1.0
102
RTVSPost2010PropOp56
 70
     1
102
RTVSPost2010Prop57
140
1.0
102
RTVSPost2010PropOp57
 70
     1
102
RTVSPropertyOp0
 70
     1
102
RTVSPropertyOp1
 70
     1
102
RTVSPropertyOp2
 70
     1
102
RTVSPropertyOp3
 70
     1
102
RTVSPropertyOp4
 70
     1
102
RTVSPropertyOp5
 70
     1
102
RTVSPropertyOp6
 70
     1
102
RTVSPropertyOp7
 70
     1
102
RTVSPropertyOp8
 70
     1
102
RTVSPropertyOp9
 70
     1
102
RTVSPropertyOp10
 70
     1
102
RTVSPropertyOp11
 70
     1
102
RTVSPropertyOp12
 70
     1
102
RTVSPropertyOp13
 70
     1
102
RTVSPropertyOp14
 70
     1
102
RTVSPropertyOp15
 70
     1
102
RTVSPropertyOp16
 70
     1
102
RTVSPropertyOp17
 70
     1
102
RTVSPropertyOp18
 70
     1
102
RTVSPropertyOp19
 70
     1
102
RTVSPropertyOp20
 70
     1
102
RTVSPropertyOp21
 70
     1
102
RTVSPropertyOp22
 70
     1
102
RTVSPropertyOp23
 70
     1
102
RTVSPropertyOp24
 70
     1
102
RTVSPropertyOp25
 70
     1
102
RTVSPropertyOp26
 70
     1
102
RTVSPropertyOp27
 70
     1
102
RTVSPropertyOp28
 70
     1
102
RTVSPropertyOp29
 70
     1
102
RTVSPropertyOp30
 70
     1
102
RTVSPropertyOp31
 70
     1
102
RTVSPropertyOp32
 70
     1
102
RTVSPropertyOp33
 70
     1
102
RTVSPropertyOp34
 70
     1
102
RTVSPropertyOp35
 70
     1
102
RTVSPropertyOp36
 70
     1
102
RTVSPropertyOp37
 70
     1
102
RTVSPropertyOp38
 70
     1
102
RTVSPropertyOp39
 70
     1
102
RTVSPropertyOp40
 70
     1
102
RTVSPropertyOp41
 70
     1
102
RTVSPropertyOp42
 70
     1
102
RTVSPropertyOp43
 70
     1
102
RTVSPropertyOp44
 70
     1
102
RTVSPropertyOp45
 70
     1
102
RTVSPropertyOp46
 70
     1
102
RTVSPropertyOp47
 70
     1
102
RTVSPropertyOp48
 70
     1
102
RTVSPropertyOp49
 70
     1
102
RTVSPropertyOp50
 70
     1
102
RTVSPropertyOp51
 70
     0
102
RTVSPropertyOp52
 70
     0
102
RTVSPropertyOp53
 70
     1
102
RTVSPropertyOp54
 70
     1
102
RTVSPropertyOp55
 70
     1
102
RTVSPropertyOp56
 70
     1
102
RTVSPropertyOp57
 70
     1
102
RTVSPropertyOp58
 70
     1
102
RTVSPropertyOp59
 70
     1
102
RTVSPropertyOp60
 70
     1
102
RTVSPropertyOp61
 70
     1
102
RTVSPropertyOp62
 70
     1
  0
XRECORD
  5
6E4
102
{ACAD_REACTORS
330
6E3
102
}
330
6E3
100
AcDbXrecord
280
     1
102
RTVSPost2010Prop28
280
     0
102
RTVSPost2010PropOp28
 70
     1
102
RTVSPost2010Prop29
280
     1
102
RTVSPost2010PropOp29
 70
     1
102
RTVSPost2010Prop30
280
     1
102
RTVSPost2010PropOp30
 70
     1
102
RTVSPost2010Prop31
280
     0
102
RTVSPost2010PropOp31
 70
     1
102
RTVSPost2010Prop32
280
     0
102
RTVSPost2010PropOp32
 70
     1
102
RTVSPost2010Prop33
280
     0
102
RTVSPost2010PropOp33
 70
     1
102
RTVSPost2010Prop34
280
     0
102
RTVSPost2010PropOp34
 70
     1
102
RTVSPost2010Prop35
280
     0
102
RTVSPost2010PropOp35
 70
     1
102
RTVSPost2010Prop36
280
     0
102
RTVSPost2010PropOp36
 70
     1
102
RTVSPost2010Prop37
 90
       50
102
RTVSPost2010PropOp37
 70
     1
102
RTVSPost2010Prop38
140
0.0
102
RTVSPost2010PropOp38
 70
     1
102
RTVSPost2010Prop39
140
1.0
102
RTVSPost2010PropOp39
 70
     1
102
RTVSPost2010Prop40
 90
        0
102
RTVSPost2010PropOp40
 70
     1
102
RTVSPost2010Prop41ColorIndex
 90
       18
102
RTVSPost2010Prop41ColorRGB
 90
        0
102
RTVSPost2010PropOp41
 70
     1
102
RTVSPost2010Prop42
 90
       50
102
RTVSPost2010PropOp42
 70
     1
102
RTVSPost2010Prop43
 90
        3
102
RTVSPost2010PropOp43
 70
     1
102
RTVSPost2010Prop44ColorIndex
 90
        5
102
RTVSPost2010Prop44ColorRGB
 90
      255
102
RTVSPost2010PropOp44
 70
     1
102
RTVSPost2010Prop45
280
     0
102
RTVSPost2010PropOp45
 70
     1
102
RTVSPost2010Prop46
 90
       50
102
RTVSPost2010PropOp46
 70
     1
102
RTVSPost2010Prop47
 90
       50
102
RTVSPost2010PropOp47
 70
     1
102
RTVSPost2010Prop48
 90
       50
102
RTVSPost2010PropOp48
 70
     1
102
RTVSPost2010Prop49
280
     0
102
RTVSPost2010PropOp49
 70
     1
102
RTVSPost2010Prop50
 90
       50
102
RTVSPost2010PropOp50
 70
     1
102
RTVSPost2010Prop51ColorIndex
 90
      256
102
RTVSPost2010Prop51ColorRGB
 90
-16777216
102
RTVSPost2010PropOp51
 70
     0
102
RTVSPost2010Prop52
140
1.0
102
RTVSPost2010PropOp52
 70
     0
102
RTVSPost2010Prop53
 90
        2
102
RTVSPost2010PropOp53
 70
     1
102
RTVSPost2010Prop54
  1
strokes_ogs.tif
102
RTVSPost2010PropOp54
 70
     1
102
RTVSPost2010Prop55
280
     0
102
RTVSPost2010PropOp55
 70
     1
102
RTVSPost2010Prop56
140
1.0
102
RTVSPost2010PropOp56
 70
     1
102
RTVSPost2010Prop57
140
1.0
102
RTVSPost2010PropOp57
 70
     1
102
RTVSPropertyOp0
 70
     1
102
RTVSPropertyOp1
 70
     1
102
RTVSPropertyOp2
 70
     1
102
RTVSPropertyOp3
 70
     1
102
RTVSPropertyOp4
 70
     1
102
RTVSPropertyOp5
 70
     1
102
RTVSPropertyOp6
 70
     1
102
RTVSPropertyOp7
 70
     1
102
RTVSPropertyOp8
 70
     1
102
RTVSPropertyOp9
 70
     1
102
RTVSPropertyOp10
 70
     1
102
RTVSPropertyOp11
 70
     1
102
RTVSPropertyOp12
 70
     1
102
RTVSPropertyOp13
 70
     1
102
RTVSPropertyOp14
 70
     1
102
RTVSPropertyOp15
 70
     1
102
RTVSPropertyOp16
 70
     1
102
RTVSPropertyOp17
 70
     1
102
RTVSPropertyOp18
 70
     1
102
RTVSPropertyOp19
 70
     1
102
RTVSPropertyOp20
 70
     1
102
RTVSPropertyOp21
 70
     1
102
RTVSPropertyOp22
 70
     1
102
RTVSPropertyOp23
 70
     1
102
RTVSPropertyOp24
 70
     1
102
RTVSPropertyOp25
 70
     1
102
RTVSPropertyOp26
 70
     1
102
RTVSPropertyOp27
 70
     1
102
RTVSPropertyOp28
 70
     1
102
RTVSPropertyOp29
 70
     1
102
RTVSPropertyOp30
 70
     1
102
RTVSPropertyOp31
 70
     1
102
RTVSPropertyOp32
 70
     1
102
RTVSPropertyOp33
 70
     1
102
RTVSPropertyOp34
 70
     1
102
RTVSPropertyOp35
 70
     1
102
RTVSPropertyOp36
 70
     1
102
RTVSPropertyOp37
 70
     1
102
RTVSPropertyOp38
 70
     1
102
RTVSPropertyOp39
 70
     1
102
RTVSPropertyOp40
 70
     1
102
RTVSPropertyOp41
 70
     1
102
RTVSPropertyOp42
 70
     1
102
RTVSPropertyOp43
 70
     1
102
RTVSPropertyOp44
 70
     1
102
RTVSPropertyOp45
 70
     1
102
RTVSPropertyOp46
 70
     1
102
RTVSPropertyOp47
 70
     1
102
RTVSPropertyOp48
 70
     1
102
RTVSPropertyOp49
 70
     1
102
RTVSPropertyOp50
 70
     1
102
RTVSPropertyOp51
 70
     0
102
RTVSPropertyOp52
 70
     0
102
RTVSPropertyOp53
 70
     1
102
RTVSPropertyOp54
 70
     1
102
RTVSPropertyOp55
 70
     1
102
RTVSPropertyOp56
 70
     1
102
RTVSPropertyOp57
 70
     1
102
RTVSPropertyOp58
 70
     1
102
RTVSPropertyOp59
 70
     1
102
RTVSPropertyOp60
 70
     1
102
RTVSPropertyOp61
 70
     1
102
RTVSPropertyOp62
 70
     1
  0
XRECORD
  5
6E6
102
{ACAD_REACTORS
330
6E5
102
}
330
6E5
100
AcDbXrecord
280
     1
102
RTVSPost2010Prop28
280
     0
102
RTVSPost2010PropOp28
 70
     1
102
RTVSPost2010Prop29
280
     1
102
RTVSPost2010PropOp29
 70
     1
102
RTVSPost2010Prop30
280
     1
102
RTVSPost2010PropOp30
 70
     1
102
RTVSPost2010Prop31
280
     0
102
RTVSPost2010PropOp31
 70
     1
102
RTVSPost2010Prop32
280
     0
102
RTVSPost2010PropOp32
 70
     1
102
RTVSPost2010Prop33
280
     0
102
RTVSPost2010PropOp33
 70
     1
102
RTVSPost2010Prop34
280
     0
102
RTVSPost2010PropOp34
 70
     1
102
RTVSPost2010Prop35
280
     0
102
RTVSPost2010PropOp35
 70
     1
102
RTVSPost2010Prop36
280
     0
102
RTVSPost2010PropOp36
 70
     1
102
RTVSPost2010Prop37
 90
       50
102
RTVSPost2010PropOp37
 70
     1
102
RTVSPost2010Prop38
140
0.0
102
RTVSPost2010PropOp38
 70
     1
102
RTVSPost2010Prop39
140
1.0
102
RTVSPost2010PropOp39
 70
     1
102
RTVSPost2010Prop40
 90
        0
102
RTVSPost2010PropOp40
 70
     1
102
RTVSPost2010Prop41ColorIndex
 90
       18
102
RTVSPost2010Prop41ColorRGB
 90
        0
102
RTVSPost2010PropOp41
 70
     1
102
RTVSPost2010Prop42
 90
       50
102
RTVSPost2010PropOp42
 70
     1
102
RTVSPost2010Prop43
 90
        3
102
RTVSPost2010PropOp43
 70
     1
102
RTVSPost2010Prop44ColorIndex
 90
        5
102
RTVSPost2010Prop44ColorRGB
 90
      255
102
RTVSPost2010PropOp44
 70
     1
102
RTVSPost2010Prop45
280
     0
102
RTVSPost2010PropOp45
 70
     1
102
RTVSPost2010Prop46
 90
       50
102
RTVSPost2010PropOp46
 70
     1
102
RTVSPost2010Prop47
 90
       50
102
RTVSPost2010PropOp47
 70
     1
102
RTVSPost2010Prop48
 90
       50
102
RTVSPost2010PropOp48
 70
     1
102
RTVSPost2010Prop49
280
     0
102
RTVSPost2010PropOp49
 70
     1
102
RTVSPost2010Prop50
 90
       50
102
RTVSPost2010PropOp50
 70
     1
102
RTVSPost2010Prop51ColorIndex
 90
      256
102
RTVSPost2010Prop51ColorRGB
 90
-16777216
102
RTVSPost2010PropOp51
 70
     0
102
RTVSPost2010Prop52
140
1.0
102
RTVSPost2010PropOp52
 70
     0
102
RTVSPost2010Prop53
 90
        2
102
RTVSPost2010PropOp53
 70
     1
102
RTVSPost2010Prop54
  1
strokes_ogs.tif
102
RTVSPost2010PropOp54
 70
     1
102
RTVSPost2010Prop55
280
     0
102
RTVSPost2010PropOp55
 70
     1
102
RTVSPost2010Prop56
140
1.0
102
RTVSPost2010PropOp56
 70
     1
102
RTVSPost2010Prop57
140
1.0
102
RTVSPost2010PropOp57
 70
     1
102
RTVSPropertyOp0
 70
     1
102
RTVSPropertyOp1
 70
     1
102
RTVSPropertyOp2
 70
     1
102
RTVSPropertyOp3
 70
     1
102
RTVSPropertyOp4
 70
     1
102
RTVSPropertyOp5
 70
     1
102
RTVSPropertyOp6
 70
     1
102
RTVSPropertyOp7
 70
     1
102
RTVSPropertyOp8
 70
     1
102
RTVSPropertyOp9
 70
     1
102
RTVSPropertyOp10
 70
     1
102
RTVSPropertyOp11
 70
     1
102
RTVSPropertyOp12
 70
     1
102
RTVSPropertyOp13
 70
     1
102
RTVSPropertyOp14
 70
     1
102
RTVSPropertyOp15
 70
     1
102
RTVSPropertyOp16
 70
     1
102
RTVSPropertyOp17
 70
     1
102
RTVSPropertyOp18
 70
     1
102
RTVSPropertyOp19
 70
     1
102
RTVSPropertyOp20
 70
     1
102
RTVSPropertyOp21
 70
     1
102
RTVSPropertyOp22
 70
     1
102
RTVSPropertyOp23
 70
     1
102
RTVSPropertyOp24
 70
     1
102
RTVSPropertyOp25
 70
     1
102
RTVSPropertyOp26
 70
     1
102
RTVSPropertyOp27
 70
     1
102
RTVSPropertyOp28
 70
     1
102
RTVSPropertyOp29
 70
     1
102
RTVSPropertyOp30
 70
     1
102
RTVSPropertyOp31
 70
     1
102
RTVSPropertyOp32
 70
     1
102
RTVSPropertyOp33
 70
     1
102
RTVSPropertyOp34
 70
     1
102
RTVSPropertyOp35
 70
     1
102
RTVSPropertyOp36
 70
     1
102
RTVSPropertyOp37
 70
     1
102
RTVSPropertyOp38
 70
     1
102
RTVSPropertyOp39
 70
     1
102
RTVSPropertyOp40
 70
     1
102
RTVSPropertyOp41
 70
     1
102
RTVSPropertyOp42
 70
     1
102
RTVSPropertyOp43
 70
     1
102
RTVSPropertyOp44
 70
     1
102
RTVSPropertyOp45
 70
     1
102
RTVSPropertyOp46
 70
     1
102
RTVSPropertyOp47
 70
     1
102
RTVSPropertyOp48
 70
     1
102
RTVSPropertyOp49
 70
     1
102
RTVSPropertyOp50
 70
     1
102
RTVSPropertyOp51
 70
     0
102
RTVSPropertyOp52
 70
     0
102
RTVSPropertyOp53
 70
     1
102
RTVSPropertyOp54
 70
     1
102
RTVSPropertyOp55
 70
     1
102
RTVSPropertyOp56
 70
     1
102
RTVSPropertyOp57
 70
     1
102
RTVSPropertyOp58
 70
     1
102
RTVSPropertyOp59
 70
     1
102
RTVSPropertyOp60
 70
     1
102
RTVSPropertyOp61
 70
     1
102
RTVSPropertyOp62
 70
     1
  0
XRECORD
  5
6EC
102
{ACAD_REACTORS
330
6EB
102
}
330
6EB
100
AcDbXrecord
280
     1
102
RTVSPost2010Prop28
280
     0
102
RTVSPost2010PropOp28
 70
     1
102
RTVSPost2010Prop29
280
     1
102
RTVSPost2010PropOp29
 70
     1
102
RTVSPost2010Prop30
280
     1
102
RTVSPost2010PropOp30
 70
     1
102
RTVSPost2010Prop31
280
     0
102
RTVSPost2010PropOp31
 70
     1
102
RTVSPost2010Prop32
280
     0
102
RTVSPost2010PropOp32
 70
     1
102
RTVSPost2010Prop33
280
     0
102
RTVSPost2010PropOp33
 70
     1
102
RTVSPost2010Prop34
280
     0
102
RTVSPost2010PropOp34
 70
     1
102
RTVSPost2010Prop35
280
     0
102
RTVSPost2010PropOp35
 70
     1
102
RTVSPost2010Prop36
280
     0
102
RTVSPost2010PropOp36
 70
     1
102
RTVSPost2010Prop37
 90
       50
102
RTVSPost2010PropOp37
 70
     1
102
RTVSPost2010Prop38
140
0.0
102
RTVSPost2010PropOp38
 70
     1
102
RTVSPost2010Prop39
140
1.0
102
RTVSPost2010PropOp39
 70
     1
102
RTVSPost2010Prop40
 90
        0
102
RTVSPost2010PropOp40
 70
     1
102
RTVSPost2010Prop41ColorIndex
 90
       18
102
RTVSPost2010Prop41ColorRGB
 90
        0
102
RTVSPost2010PropOp41
 70
     1
102
RTVSPost2010Prop42
 90
       50
102
RTVSPost2010PropOp42
 70
     1
102
RTVSPost2010Prop43
 90
        3
102
RTVSPost2010PropOp43
 70
     1
102
RTVSPost2010Prop44ColorIndex
 90
        5
102
RTVSPost2010Prop44ColorRGB
 90
      255
102
RTVSPost2010PropOp44
 70
     1
102
RTVSPost2010Prop45
280
     0
102
RTVSPost2010PropOp45
 70
     1
102
RTVSPost2010Prop46
 90
       50
102
RTVSPost2010PropOp46
 70
     1
102
RTVSPost2010Prop47
 90
       50
102
RTVSPost2010PropOp47
 70
     1
102
RTVSPost2010Prop48
 90
       50
102
RTVSPost2010PropOp48
 70
     1
102
RTVSPost2010Prop49
280
     0
102
RTVSPost2010PropOp49
 70
     1
102
RTVSPost2010Prop50
 90
       50
102
RTVSPost2010PropOp50
 70
     1
102
RTVSPost2010Prop51ColorIndex
 90
      256
102
RTVSPost2010Prop51ColorRGB
 90
-16777216
102
RTVSPost2010PropOp51
 70
     0
102
RTVSPost2010Prop52
140
1.0
102
RTVSPost2010PropOp52
 70
     0
102
RTVSPost2010Prop53
 90
        2
102
RTVSPost2010PropOp53
 70
     1
102
RTVSPost2010Prop54
  1
strokes_ogs.tif
102
RTVSPost2010PropOp54
 70
     1
102
RTVSPost2010Prop55
280
     0
102
RTVSPost2010PropOp55
 70
     1
102
RTVSPost2010Prop56
140
1.0
102
RTVSPost2010PropOp56
 70
     1
102
RTVSPost2010Prop57
140
1.0
102
RTVSPost2010PropOp57
 70
     1
102
RTVSPropertyOp0
 70
     1
102
RTVSPropertyOp1
 70
     1
102
RTVSPropertyOp2
 70
     1
102
RTVSPropertyOp3
 70
     1
102
RTVSPropertyOp4
 70
     1
102
RTVSPropertyOp5
 70
     1
102
RTVSPropertyOp6
 70
     1
102
RTVSPropertyOp7
 70
     1
102
RTVSPropertyOp8
 70
     1
102
RTVSPropertyOp9
 70
     1
102
RTVSPropertyOp10
 70
     1
102
RTVSPropertyOp11
 70
     1
102
RTVSPropertyOp12
 70
     1
102
RTVSPropertyOp13
 70
     1
102
RTVSPropertyOp14
 70
     1
102
RTVSPropertyOp15
 70
     1
102
RTVSPropertyOp16
 70
     1
102
RTVSPropertyOp17
 70
     1
102
RTVSPropertyOp18
 70
     1
102
RTVSPropertyOp19
 70
     1
102
RTVSPropertyOp20
 70
     1
102
RTVSPropertyOp21
 70
     1
102
RTVSPropertyOp22
 70
     1
102
RTVSPropertyOp23
 70
     1
102
RTVSPropertyOp24
 70
     1
102
RTVSPropertyOp25
 70
     1
102
RTVSPropertyOp26
 70
     1
102
RTVSPropertyOp27
 70
     1
102
RTVSPropertyOp28
 70
     1
102
RTVSPropertyOp29
 70
     1
102
RTVSPropertyOp30
 70
     1
102
RTVSPropertyOp31
 70
     1
102
RTVSPropertyOp32
 70
     1
102
RTVSPropertyOp33
 70
     1
102
RTVSPropertyOp34
 70
     1
102
RTVSPropertyOp35
 70
     1
102
RTVSPropertyOp36
 70
     1
102
RTVSPropertyOp37
 70
     1
102
RTVSPropertyOp38
 70
     1
102
RTVSPropertyOp39
 70
     1
102
RTVSPropertyOp40
 70
     1
102
RTVSPropertyOp41
 70
     1
102
RTVSPropertyOp42
 70
     1
102
RTVSPropertyOp43
 70
     1
102
RTVSPropertyOp44
 70
     1
102
RTVSPropertyOp45
 70
     1
102
RTVSPropertyOp46
 70
     1
102
RTVSPropertyOp47
 70
     1
102
RTVSPropertyOp48
 70
     1
102
RTVSPropertyOp49
 70
     1
102
RTVSPropertyOp50
 70
     1
102
RTVSPropertyOp51
 70
     0
102
RTVSPropertyOp52
 70
     0
102
RTVSPropertyOp53
 70
     1
102
RTVSPropertyOp54
 70
     1
102
RTVSPropertyOp55
 70
     1
102
RTVSPropertyOp56
 70
     1
102
RTVSPropertyOp57
 70
     1
102
RTVSPropertyOp58
 70
     1
102
RTVSPropertyOp59
 70
     1
102
RTVSPropertyOp60
 70
     1
102
RTVSPropertyOp61
 70
     1
102
RTVSPropertyOp62
 70
     1
  0
XRECORD
  5
700
102
{ACAD_REACTORS
330
6FF
102
}
330
6FF
100
AcDbXrecord
280
     1
102
RTVSPost2010Prop28
280
     0
102
RTVSPost2010PropOp28
 70
     0
102
RTVSPost2010Prop29
280
     1
102
RTVSPost2010PropOp29
 70
     0
102
RTVSPost2010Prop30
280
     1
102
RTVSPost2010PropOp30
 70
     0
102
RTVSPost2010Prop31
280
     0
102
RTVSPost2010PropOp31
 70
     0
102
RTVSPost2010Prop32
280
     0
102
RTVSPost2010PropOp32
 70
     0
102
RTVSPost2010Prop33
280
     0
102
RTVSPost2010PropOp33
 70
     0
102
RTVSPost2010Prop34
280
     0
102
RTVSPost2010PropOp34
 70
     0
102
RTVSPost2010Prop35
280
     0
102
RTVSPost2010PropOp35
 70
     0
102
RTVSPost2010Prop36
280
     0
102
RTVSPost2010PropOp36
 70
     0
102
RTVSPost2010Prop37
 90
       50
102
RTVSPost2010PropOp37
 70
     0
102
RTVSPost2010Prop38
140
0.0
102
RTVSPost2010PropOp38
 70
     0
102
RTVSPost2010Prop39
140
1.0
102
RTVSPost2010PropOp39
 70
     0
102
RTVSPost2010Prop40
 90
        0
102
RTVSPost2010PropOp40
 70
     0
102
RTVSPost2010Prop41ColorIndex
 90
       18
102
RTVSPost2010Prop41ColorRGB
 90
        0
102
RTVSPost2010PropOp41
 70
     0
102
RTVSPost2010Prop42
 90
       50
102
RTVSPost2010PropOp42
 70
     0
102
RTVSPost2010Prop43
 90
        3
102
RTVSPost2010PropOp43
 70
     0
102
RTVSPost2010Prop44ColorIndex
 90
        5
102
RTVSPost2010Prop44ColorRGB
 90
      255
102
RTVSPost2010PropOp44
 70
     0
102
RTVSPost2010Prop45
280
     0
102
RTVSPost2010PropOp45
 70
     0
102
RTVSPost2010Prop46
 90
       50
102
RTVSPost2010PropOp46
 70
     0
102
RTVSPost2010Prop47
 90
       50
102
RTVSPost2010PropOp47
 70
     0
102
RTVSPost2010Prop48
 90
       50
102
RTVSPost2010PropOp48
 70
     0
102
RTVSPost2010Prop49
280
     0
102
RTVSPost2010PropOp49
 70
     0
102
RTVSPost2010Prop50
 90
       50
102
RTVSPost2010PropOp50
 70
     0
102
RTVSPost2010Prop51ColorIndex
 90
      256
102
RTVSPost2010Prop51ColorRGB
 90
-16777216
102
RTVSPost2010PropOp51
 70
     0
102
RTVSPost2010Prop52
140
1.0
102
RTVSPost2010PropOp52
 70
     0
102
RTVSPost2010Prop53
 90
        2
102
RTVSPost2010PropOp53
 70
     0
102
RTVSPost2010Prop54
  1
strokes_ogs.tif
102
RTVSPost2010PropOp54
 70
     0
102
RTVSPost2010Prop55
280
     0
102
RTVSPost2010PropOp55
 70
     0
102
RTVSPost2010Prop56
140
1.0
102
RTVSPost2010PropOp56
 70
     0
102
RTVSPost2010Prop57
140
1.0
102
RTVSPost2010PropOp57
 70
     0
102
RTVSPropertyOp0
 70
     0
102
RTVSPropertyOp1
 70
     0
102
RTVSPropertyOp2
 70
     0
102
RTVSPropertyOp3
 70
     0
102
RTVSPropertyOp4
 70
     0
102
RTVSPropertyOp5
 70
     0
102
RTVSPropertyOp6
 70
     0
102
RTVSPropertyOp7
 70
     0
102
RTVSPropertyOp8
 70
     0
102
RTVSPropertyOp9
 70
     0
102
RTVSPropertyOp10
 70
     0
102
RTVSPropertyOp11
 70
     0
102
RTVSPropertyOp12
 70
     0
102
RTVSPropertyOp13
 70
     0
102
RTVSPropertyOp14
 70
     2
102
RTVSPropertyOp15
 70
     0
102
RTVSPropertyOp16
 70
     0
102
RTVSPropertyOp17
 70
     0
102
RTVSPropertyOp18
 70
     0
102
RTVSPropertyOp19
 70
     0
102
RTVSPropertyOp20
 70
     0
102
RTVSPropertyOp21
 70
     0
102
RTVSPropertyOp22
 70
     0
102
RTVSPropertyOp23
 70
     0
102
RTVSPropertyOp24
 70
     0
102
RTVSPropertyOp25
 70
     0
102
RTVSPropertyOp26
 70
     0
102
RTVSPropertyOp27
 70
     0
102
RTVSPropertyOp28
 70
     0
102
RTVSPropertyOp29
 70
     0
102
RTVSPropertyOp30
 70
     0
102
RTVSPropertyOp31
 70
     0
102
RTVSPropertyOp32
 70
     0
102
RTVSPropertyOp33
 70
     0
102
RTVSPropertyOp34
 70
     0
102
RTVSPropertyOp35
 70
     0
102
RTVSPropertyOp36
 70
     0
102
RTVSPropertyOp37
 70
     0
102
RTVSPropertyOp38
 70
     0
102
RTVSPropertyOp39
 70
     0
102
RTVSPropertyOp40
 70
     0
102
RTVSPropertyOp41
 70
     0
102
RTVSPropertyOp42
 70
     0
102
RTVSPropertyOp43
 70
     0
102
RTVSPropertyOp44
 70
     0
102
RTVSPropertyOp45
 70
     0
102
RTVSPropertyOp46
 70
     0
102
RTVSPropertyOp47
 70
     0
102
RTVSPropertyOp48
 70
     0
102
RTVSPropertyOp49
 70
     0
102
RTVSPropertyOp50
 70
     0
102
RTVSPropertyOp51
 70
     0
102
RTVSPropertyOp52
 70
     0
102
RTVSPropertyOp53
 70
     0
102
RTVSPropertyOp54
 70
     0
102
RTVSPropertyOp55
 70
     0
102
RTVSPropertyOp56
 70
     0
102
RTVSPropertyOp57
 70
     0
102
RTVSPropertyOp58
 70
     1
102
RTVSPropertyOp59
 70
     1
102
RTVSPropertyOp60
 70
     1
102
RTVSPropertyOp61
 70
     1
102
RTVSPropertyOp62
 70
     1
  0
XRECORD
  5
6FA
102
{ACAD_REACTORS
330
6F9
102
}
330
6F9
100
AcDbXrecord
280
     1
102
RTVSPost2010Prop28
280
     0
102
RTVSPost2010PropOp28
 70
     1
102
RTVSPost2010Prop29
280
     1
102
RTVSPost2010PropOp29
 70
     1
102
RTVSPost2010Prop30
280
     1
102
RTVSPost2010PropOp30
 70
     1
102
RTVSPost2010Prop31
280
     0
102
RTVSPost2010PropOp31
 70
     1
102
RTVSPost2010Prop32
280
     0
102
RTVSPost2010PropOp32
 70
     1
102
RTVSPost2010Prop33
280
     0
102
RTVSPost2010PropOp33
 70
     1
102
RTVSPost2010Prop34
280
     0
102
RTVSPost2010PropOp34
 70
     1
102
RTVSPost2010Prop35
280
     0
102
RTVSPost2010PropOp35
 70
     1
102
RTVSPost2010Prop36
280
     0
102
RTVSPost2010PropOp36
 70
     1
102
RTVSPost2010Prop37
 90
       50
102
RTVSPost2010PropOp37
 70
     1
102
RTVSPost2010Prop38
140
0.0
102
RTVSPost2010PropOp38
 70
     1
102
RTVSPost2010Prop39
140
1.0
102
RTVSPost2010PropOp39
 70
     1
102
RTVSPost2010Prop40
 90
        0
102
RTVSPost2010PropOp40
 70
     1
102
RTVSPost2010Prop41ColorIndex
 90
       18
102
RTVSPost2010Prop41ColorRGB
 90
        0
102
RTVSPost2010PropOp41
 70
     1
102
RTVSPost2010Prop42
 90
       50
102
RTVSPost2010PropOp42
 70
     1
102
RTVSPost2010Prop43
 90
        3
102
RTVSPost2010PropOp43
 70
     1
102
RTVSPost2010Prop44ColorIndex
 90
        5
102
RTVSPost2010Prop44ColorRGB
 90
      255
102
RTVSPost2010PropOp44
 70
     1
102
RTVSPost2010Prop45
280
     0
102
RTVSPost2010PropOp45
 70
     1
102
RTVSPost2010Prop46
 90
       50
102
RTVSPost2010PropOp46
 70
     1
102
RTVSPost2010Prop47
 90
       50
102
RTVSPost2010PropOp47
 70
     1
102
RTVSPost2010Prop48
 90
       50
102
RTVSPost2010PropOp48
 70
     1
102
RTVSPost2010Prop49
280
     0
102
RTVSPost2010PropOp49
 70
     1
102
RTVSPost2010Prop50
 90
       50
102
RTVSPost2010PropOp50
 70
     1
102
RTVSPost2010Prop51ColorIndex
 90
      256
102
RTVSPost2010Prop51ColorRGB
 90
-16777216
102
RTVSPost2010PropOp51
 70
     0
102
RTVSPost2010Prop52
140
1.0
102
RTVSPost2010PropOp52
 70
     0
102
RTVSPost2010Prop53
 90
        2
102
RTVSPost2010PropOp53
 70
     1
102
RTVSPost2010Prop54
  1
strokes_ogs.tif
102
RTVSPost2010PropOp54
 70
     1
102
RTVSPost2010Prop55
280
     0
102
RTVSPost2010PropOp55
 70
     1
102
RTVSPost2010Prop56
140
1.0
102
RTVSPost2010PropOp56
 70
     1
102
RTVSPost2010Prop57
140
1.0
102
RTVSPost2010PropOp57
 70
     1
102
RTVSPropertyOp0
 70
     1
102
RTVSPropertyOp1
 70
     1
102
RTVSPropertyOp2
 70
     1
102
RTVSPropertyOp3
 70
     1
102
RTVSPropertyOp4
 70
     1
102
RTVSPropertyOp5
 70
     1
102
RTVSPropertyOp6
 70
     1
102
RTVSPropertyOp7
 70
     1
102
RTVSPropertyOp8
 70
     1
102
RTVSPropertyOp9
 70
     1
102
RTVSPropertyOp10
 70
     1
102
RTVSPropertyOp11
 70
     1
102
RTVSPropertyOp12
 70
     1
102
RTVSPropertyOp13
 70
     1
102
RTVSPropertyOp14
 70
     1
102
RTVSPropertyOp15
 70
     1
102
RTVSPropertyOp16
 70
     1
102
RTVSPropertyOp17
 70
     1
102
RTVSPropertyOp18
 70
     1
102
RTVSPropertyOp19
 70
     1
102
RTVSPropertyOp20
 70
     1
102
RTVSPropertyOp21
 70
     1
102
RTVSPropertyOp22
 70
     1
102
RTVSPropertyOp23
 70
     1
102
RTVSPropertyOp24
 70
     1
102
RTVSPropertyOp25
 70
     1
102
RTVSPropertyOp26
 70
     1
102
RTVSPropertyOp27
 70
     1
102
RTVSPropertyOp28
 70
     1
102
RTVSPropertyOp29
 70
     1
102
RTVSPropertyOp30
 70
     1
102
RTVSPropertyOp31
 70
     1
102
RTVSPropertyOp32
 70
     1
102
RTVSPropertyOp33
 70
     1
102
RTVSPropertyOp34
 70
     1
102
RTVSPropertyOp35
 70
     1
102
RTVSPropertyOp36
 70
     1
102
RTVSPropertyOp37
 70
     1
102
RTVSPropertyOp38
 70
     1
102
RTVSPropertyOp39
 70
     1
102
RTVSPropertyOp40
 70
     1
102
RTVSPropertyOp41
 70
     1
102
RTVSPropertyOp42
 70
     1
102
RTVSPropertyOp43
 70
     1
102
RTVSPropertyOp44
 70
     1
102
RTVSPropertyOp45
 70
     1
102
RTVSPropertyOp46
 70
     1
102
RTVSPropertyOp47
 70
     1
102
RTVSPropertyOp48
 70
     1
102
RTVSPropertyOp49
 70
     1
102
RTVSPropertyOp50
 70
     1
102
RTVSPropertyOp51
 70
     0
102
RTVSPropertyOp52
 70
     0
102
RTVSPropertyOp53
 70
     1
102
RTVSPropertyOp54
 70
     1
102
RTVSPropertyOp55
 70
     1
102
RTVSPropertyOp56
 70
     1
102
RTVSPropertyOp57
 70
     1
102
RTVSPropertyOp58
 70
     1
102
RTVSPropertyOp59
 70
     1
102
RTVSPropertyOp60
 70
     1
102
RTVSPropertyOp61
 70
     1
102
RTVSPropertyOp62
 70
     1
  0
XRECORD
  5
702
102
{ACAD_REACTORS
330
701
102
}
330
701
100
AcDbXrecord
280
     1
102
RTVSPost2010Prop28
280
     0
102
RTVSPost2010PropOp28
 70
     0
102
RTVSPost2010Prop29
280
     1
102
RTVSPost2010PropOp29
 70
     0
102
RTVSPost2010Prop30
280
     1
102
RTVSPost2010PropOp30
 70
     0
102
RTVSPost2010Prop31
280
     0
102
RTVSPost2010PropOp31
 70
     0
102
RTVSPost2010Prop32
280
     0
102
RTVSPost2010PropOp32
 70
     0
102
RTVSPost2010Prop33
280
     0
102
RTVSPost2010PropOp33
 70
     0
102
RTVSPost2010Prop34
280
     0
102
RTVSPost2010PropOp34
 70
     0
102
RTVSPost2010Prop35
280
     0
102
RTVSPost2010PropOp35
 70
     0
102
RTVSPost2010Prop36
280
     0
102
RTVSPost2010PropOp36
 70
     0
102
RTVSPost2010Prop37
 90
       50
102
RTVSPost2010PropOp37
 70
     0
102
RTVSPost2010Prop38
140
0.0
102
RTVSPost2010PropOp38
 70
     0
102
RTVSPost2010Prop39
140
1.0
102
RTVSPost2010PropOp39
 70
     0
102
RTVSPost2010Prop40
 90
        0
102
RTVSPost2010PropOp40
 70
     0
102
RTVSPost2010Prop41ColorIndex
 90
       18
102
RTVSPost2010Prop41ColorRGB
 90
        0
102
RTVSPost2010PropOp41
 70
     0
102
RTVSPost2010Prop42
 90
       50
102
RTVSPost2010PropOp42
 70
     0
102
RTVSPost2010Prop43
 90
        3
102
RTVSPost2010PropOp43
 70
     0
102
RTVSPost2010Prop44ColorIndex
 90
        5
102
RTVSPost2010Prop44ColorRGB
 90
      255
102
RTVSPost2010PropOp44
 70
     0
102
RTVSPost2010Prop45
280
     0
102
RTVSPost2010PropOp45
 70
     0
102
RTVSPost2010Prop46
 90
       50
102
RTVSPost2010PropOp46
 70
     0
102
RTVSPost2010Prop47
 90
       50
102
RTVSPost2010PropOp47
 70
     0
102
RTVSPost2010Prop48
 90
       50
102
RTVSPost2010PropOp48
 70
     0
102
RTVSPost2010Prop49
280
     0
102
RTVSPost2010PropOp49
 70
     0
102
RTVSPost2010Prop50
 90
       50
102
RTVSPost2010PropOp50
 70
     0
102
RTVSPost2010Prop51ColorIndex
 90
      256
102
RTVSPost2010Prop51ColorRGB
 90
-16777216
102
RTVSPost2010PropOp51
 70
     0
102
RTVSPost2010Prop52
140
1.0
102
RTVSPost2010PropOp52
 70
     0
102
RTVSPost2010Prop53
 90
        2
102
RTVSPost2010PropOp53
 70
     0
102
RTVSPost2010Prop54
  1
strokes_ogs.tif
102
RTVSPost2010PropOp54
 70
     0
102
RTVSPost2010Prop55
280
     0
102
RTVSPost2010PropOp55
 70
     0
102
RTVSPost2010Prop56
140
1.0
102
RTVSPost2010PropOp56
 70
     0
102
RTVSPost2010Prop57
140
1.0
102
RTVSPost2010PropOp57
 70
     0
102
RTVSPropertyOp0
 70
     0
102
RTVSPropertyOp1
 70
     0
102
RTVSPropertyOp2
 70
     0
102
RTVSPropertyOp3
 70
     0
102
RTVSPropertyOp4
 70
     0
102
RTVSPropertyOp5
 70
     0
102
RTVSPropertyOp6
 70
     0
102
RTVSPropertyOp7
 70
     0
102
RTVSPropertyOp8
 70
     0
102
RTVSPropertyOp9
 70
     0
102
RTVSPropertyOp10
 70
     0
102
RTVSPropertyOp11
 70
     0
102
RTVSPropertyOp12
 70
     0
102
RTVSPropertyOp13
 70
     0
102
RTVSPropertyOp14
 70
     2
102
RTVSPropertyOp15
 70
     0
102
RTVSPropertyOp16
 70
     0
102
RTVSPropertyOp17
 70
     0
102
RTVSPropertyOp18
 70
     0
102
RTVSPropertyOp19
 70
     0
102
RTVSPropertyOp20
 70
     0
102
RTVSPropertyOp21
 70
     0
102
RTVSPropertyOp22
 70
     0
102
RTVSPropertyOp23
 70
     0
102
RTVSPropertyOp24
 70
     0
102
RTVSPropertyOp25
 70
     0
102
RTVSPropertyOp26
 70
     0
102
RTVSPropertyOp27
 70
     0
102
RTVSPropertyOp28
 70
     0
102
RTVSPropertyOp29
 70
     0
102
RTVSPropertyOp30
 70
     0
102
RTVSPropertyOp31
 70
     0
102
RTVSPropertyOp32
 70
     0
102
RTVSPropertyOp33
 70
     0
102
RTVSPropertyOp34
 70
     0
102
RTVSPropertyOp35
 70
     0
102
RTVSPropertyOp36
 70
     0
102
RTVSPropertyOp37
 70
     0
102
RTVSPropertyOp38
 70
     0
102
RTVSPropertyOp39
 70
     0
102
RTVSPropertyOp40
 70
     0
102
RTVSPropertyOp41
 70
     0
102
RTVSPropertyOp42
 70
     0
102
RTVSPropertyOp43
 70
     0
102
RTVSPropertyOp44
 70
     0
102
RTVSPropertyOp45
 70
     0
102
RTVSPropertyOp46
 70
     0
102
RTVSPropertyOp47
 70
     0
102
RTVSPropertyOp48
 70
     0
102
RTVSPropertyOp49
 70
     0
102
RTVSPropertyOp50
 70
     0
102
RTVSPropertyOp51
 70
     0
102
RTVSPropertyOp52
 70
     0
102
RTVSPropertyOp53
 70
     0
102
RTVSPropertyOp54
 70
     0
102
RTVSPropertyOp55
 70
     0
102
RTVSPropertyOp56
 70
     0
102
RTVSPropertyOp57
 70
     0
102
RTVSPropertyOp58
 70
     1
102
RTVSPropertyOp59
 70
     1
102
RTVSPropertyOp60
 70
     1
102
RTVSPropertyOp61
 70
     1
102
RTVSPropertyOp62
 70
     1
  0
XRECORD
  5
6F0
102
{ACAD_REACTORS
330
6EF
102
}
330
6EF
100
AcDbXrecord
280
     1
102
RTVSPost2010Prop28
280
     0
102
RTVSPost2010PropOp28
 70
     1
102
RTVSPost2010Prop29
280
     1
102
RTVSPost2010PropOp29
 70
     1
102
RTVSPost2010Prop30
280
     1
102
RTVSPost2010PropOp30
 70
     1
102
RTVSPost2010Prop31
280
     0
102
RTVSPost2010PropOp31
 70
     1
102
RTVSPost2010Prop32
280
     0
102
RTVSPost2010PropOp32
 70
     1
102
RTVSPost2010Prop33
280
     0
102
RTVSPost2010PropOp33
 70
     1
102
RTVSPost2010Prop34
280
     0
102
RTVSPost2010PropOp34
 70
     1
102
RTVSPost2010Prop35
280
     0
102
RTVSPost2010PropOp35
 70
     1
102
RTVSPost2010Prop36
280
     0
102
RTVSPost2010PropOp36
 70
     1
102
RTVSPost2010Prop37
 90
       50
102
RTVSPost2010PropOp37
 70
     1
102
RTVSPost2010Prop38
140
0.0
102
RTVSPost2010PropOp38
 70
     1
102
RTVSPost2010Prop39
140
1.0
102
RTVSPost2010PropOp39
 70
     1
102
RTVSPost2010Prop40
 90
        0
102
RTVSPost2010PropOp40
 70
     1
102
RTVSPost2010Prop41ColorIndex
 90
       18
102
RTVSPost2010Prop41ColorRGB
 90
        0
102
RTVSPost2010PropOp41
 70
     1
102
RTVSPost2010Prop42
 90
       50
102
RTVSPost2010PropOp42
 70
     1
102
RTVSPost2010Prop43
 90
        3
102
RTVSPost2010PropOp43
 70
     1
102
RTVSPost2010Prop44ColorIndex
 90
        5
102
RTVSPost2010Prop44ColorRGB
 90
      255
102
RTVSPost2010PropOp44
 70
     1
102
RTVSPost2010Prop45
280
     0
102
RTVSPost2010PropOp45
 70
     1
102
RTVSPost2010Prop46
 90
       50
102
RTVSPost2010PropOp46
 70
     1
102
RTVSPost2010Prop47
 90
       50
102
RTVSPost2010PropOp47
 70
     1
102
RTVSPost2010Prop48
 90
       50
102
RTVSPost2010PropOp48
 70
     1
102
RTVSPost2010Prop49
280
     0
102
RTVSPost2010PropOp49
 70
     1
102
RTVSPost2010Prop50
 90
       50
102
RTVSPost2010PropOp50
 70
     1
102
RTVSPost2010Prop51ColorIndex
 90
      256
102
RTVSPost2010Prop51ColorRGB
 90
-16777216
102
RTVSPost2010PropOp51
 70
     0
102
RTVSPost2010Prop52
140
1.0
102
RTVSPost2010PropOp52
 70
     0
102
RTVSPost2010Prop53
 90
        2
102
RTVSPost2010PropOp53
 70
     1
102
RTVSPost2010Prop54
  1
strokes_ogs.tif
102
RTVSPost2010PropOp54
 70
     1
102
RTVSPost2010Prop55
280
     0
102
RTVSPost2010PropOp55
 70
     1
102
RTVSPost2010Prop56
140
1.0
102
RTVSPost2010PropOp56
 70
     1
102
RTVSPost2010Prop57
140
1.0
102
RTVSPost2010PropOp57
 70
     1
102
RTVSPropertyOp0
 70
     1
102
RTVSPropertyOp1
 70
     1
102
RTVSPropertyOp2
 70
     1
102
RTVSPropertyOp3
 70
     1
102
RTVSPropertyOp4
 70
     1
102
RTVSPropertyOp5
 70
     1
102
RTVSPropertyOp6
 70
     1
102
RTVSPropertyOp7
 70
     1
102
RTVSPropertyOp8
 70
     1
102
RTVSPropertyOp9
 70
     1
102
RTVSPropertyOp10
 70
     1
102
RTVSPropertyOp11
 70
     1
102
RTVSPropertyOp12
 70
     1
102
RTVSPropertyOp13
 70
     1
102
RTVSPropertyOp14
 70
     1
102
RTVSPropertyOp15
 70
     1
102
RTVSPropertyOp16
 70
     1
102
RTVSPropertyOp17
 70
     1
102
RTVSPropertyOp18
 70
     1
102
RTVSPropertyOp19
 70
     1
102
RTVSPropertyOp20
 70
     1
102
RTVSPropertyOp21
 70
     1
102
RTVSPropertyOp22
 70
     1
102
RTVSPropertyOp23
 70
     1
102
RTVSPropertyOp24
 70
     1
102
RTVSPropertyOp25
 70
     1
102
RTVSPropertyOp26
 70
     1
102
RTVSPropertyOp27
 70
     1
102
RTVSPropertyOp28
 70
     1
102
RTVSPropertyOp29
 70
     1
102
RTVSPropertyOp30
 70
     1
102
RTVSPropertyOp31
 70
     1
102
RTVSPropertyOp32
 70
     1
102
RTVSPropertyOp33
 70
     1
102
RTVSPropertyOp34
 70
     1
102
RTVSPropertyOp35
 70
     1
102
RTVSPropertyOp36
 70
     1
102
RTVSPropertyOp37
 70
     1
102
RTVSPropertyOp38
 70
     1
102
RTVSPropertyOp39
 70
     1
102
RTVSPropertyOp40
 70
     1
102
RTVSPropertyOp41
 70
     1
102
RTVSPropertyOp42
 70
     1
102
RTVSPropertyOp43
 70
     1
102
RTVSPropertyOp44
 70
     1
102
RTVSPropertyOp45
 70
     1
102
RTVSPropertyOp46
 70
     1
102
RTVSPropertyOp47
 70
     1
102
RTVSPropertyOp48
 70
     1
102
RTVSPropertyOp49
 70
     1
102
RTVSPropertyOp50
 70
     1
102
RTVSPropertyOp51
 70
     0
102
RTVSPropertyOp52
 70
     0
102
RTVSPropertyOp53
 70
     1
102
RTVSPropertyOp54
 70
     1
102
RTVSPropertyOp55
 70
     1
102
RTVSPropertyOp56
 70
     1
102
RTVSPropertyOp57
 70
     1
102
RTVSPropertyOp58
 70
     1
102
RTVSPropertyOp59
 70
     1
102
RTVSPropertyOp60
 70
     1
102
RTVSPropertyOp61
 70
     1
102
RTVSPropertyOp62
 70
     1
  0
XRECORD
  5
70E
102
{ACAD_REACTORS
330
70D
102
}
330
70D
100
AcDbXrecord
280
     1
102
RTVSPost2010Prop28
280
     0
102
RTVSPost2010PropOp28
 70
     1
102
RTVSPost2010Prop29
280
     1
102
RTVSPost2010PropOp29
 70
     1
102
RTVSPost2010Prop30
280
     1
102
RTVSPost2010PropOp30
 70
     1
102
RTVSPost2010Prop31
280
     0
102
RTVSPost2010PropOp31
 70
     1
102
RTVSPost2010Prop32
280
     0
102
RTVSPost2010PropOp32
 70
     1
102
RTVSPost2010Prop33
280
     0
102
RTVSPost2010PropOp33
 70
     1
102
RTVSPost2010Prop34
280
     0
102
RTVSPost2010PropOp34
 70
     1
102
RTVSPost2010Prop35
280
     0
102
RTVSPost2010PropOp35
 70
     1
102
RTVSPost2010Prop36
280
     0
102
RTVSPost2010PropOp36
 70
     1
102
RTVSPost2010Prop37
 90
       50
102
RTVSPost2010PropOp37
 70
     1
102
RTVSPost2010Prop38
140
0.0
102
RTVSPost2010PropOp38
 70
     1
102
RTVSPost2010Prop39
140
1.0
102
RTVSPost2010PropOp39
 70
     1
102
RTVSPost2010Prop40
 90
        0
102
RTVSPost2010PropOp40
 70
     1
102
RTVSPost2010Prop41ColorIndex
 90
       18
102
RTVSPost2010Prop41ColorRGB
 90
        0
102
RTVSPost2010PropOp41
 70
     1
102
RTVSPost2010Prop42
 90
       50
102
RTVSPost2010PropOp42
 70
     1
102
RTVSPost2010Prop43
 90
        3
102
RTVSPost2010PropOp43
 70
     1
102
RTVSPost2010Prop44ColorIndex
 90
        5
102
RTVSPost2010Prop44ColorRGB
 90
      255
102
RTVSPost2010PropOp44
 70
     1
102
RTVSPost2010Prop45
280
     0
102
RTVSPost2010PropOp45
 70
     1
102
RTVSPost2010Prop46
 90
       50
102
RTVSPost2010PropOp46
 70
     1
102
RTVSPost2010Prop47
 90
       50
102
RTVSPost2010PropOp47
 70
     1
102
RTVSPost2010Prop48
 90
       50
102
RTVSPost2010PropOp48
 70
     1
102
RTVSPost2010Prop49
280
     0
102
RTVSPost2010PropOp49
 70
     1
102
RTVSPost2010Prop50
 90
       50
102
RTVSPost2010PropOp50
 70
     1
102
RTVSPost2010Prop51ColorIndex
 90
      256
102
RTVSPost2010Prop51ColorRGB
 90
-16777216
102
RTVSPost2010PropOp51
 70
     0
102
RTVSPost2010Prop52
140
1.0
102
RTVSPost2010PropOp52
 70
     0
102
RTVSPost2010Prop53
 90
        2
102
RTVSPost2010PropOp53
 70
     1
102
RTVSPost2010Prop54
  1
strokes_ogs.tif
102
RTVSPost2010PropOp54
 70
     1
102
RTVSPost2010Prop55
280
     0
102
RTVSPost2010PropOp55
 70
     1
102
RTVSPost2010Prop56
140
1.0
102
RTVSPost2010PropOp56
 70
     1
102
RTVSPost2010Prop57
140
1.0
102
RTVSPost2010PropOp57
 70
     1
102
RTVSPropertyOp0
 70
     1
102
RTVSPropertyOp1
 70
     1
102
RTVSPropertyOp2
 70
     1
102
RTVSPropertyOp3
 70
     1
102
RTVSPropertyOp4
 70
     1
102
RTVSPropertyOp5
 70
     1
102
RTVSPropertyOp6
 70
     1
102
RTVSPropertyOp7
 70
     1
102
RTVSPropertyOp8
 70
     1
102
RTVSPropertyOp9
 70
     1
102
RTVSPropertyOp10
 70
     1
102
RTVSPropertyOp11
 70
     1
102
RTVSPropertyOp12
 70
     1
102
RTVSPropertyOp13
 70
     1
102
RTVSPropertyOp14
 70
     1
102
RTVSPropertyOp15
 70
     1
102
RTVSPropertyOp16
 70
     1
102
RTVSPropertyOp17
 70
     1
102
RTVSPropertyOp18
 70
     1
102
RTVSPropertyOp19
 70
     1
102
RTVSPropertyOp20
 70
     1
102
RTVSPropertyOp21
 70
     1
102
RTVSPropertyOp22
 70
     1
102
RTVSPropertyOp23
 70
     1
102
RTVSPropertyOp24
 70
     1
102
RTVSPropertyOp25
 70
     1
102
RTVSPropertyOp26
 70
     1
102
RTVSPropertyOp27
 70
     1
102
RTVSPropertyOp28
 70
     1
102
RTVSPropertyOp29
 70
     1
102
RTVSPropertyOp30
 70
     1
102
RTVSPropertyOp31
 70
     1
102
RTVSPropertyOp32
 70
     1
102
RTVSPropertyOp33
 70
     1
102
RTVSPropertyOp34
 70
     1
102
RTVSPropertyOp35
 70
     1
102
RTVSPropertyOp36
 70
     1
102
RTVSPropertyOp37
 70
     1
102
RTVSPropertyOp38
 70
     1
102
RTVSPropertyOp39
 70
     1
102
RTVSPropertyOp40
 70
     1
102
RTVSPropertyOp41
 70
     1
102
RTVSPropertyOp42
 70
     1
102
RTVSPropertyOp43
 70
     1
102
RTVSPropertyOp44
 70
     1
102
RTVSPropertyOp45
 70
     1
102
RTVSPropertyOp46
 70
     1
102
RTVSPropertyOp47
 70
     1
102
RTVSPropertyOp48
 70
     1
102
RTVSPropertyOp49
 70
     1
102
RTVSPropertyOp50
 70
     1
102
RTVSPropertyOp51
 70
     0
102
RTVSPropertyOp52
 70
     0
102
RTVSPropertyOp53
 70
     1
102
RTVSPropertyOp54
 70
     1
102
RTVSPropertyOp55
 70
     1
102
RTVSPropertyOp56
 70
     1
102
RTVSPropertyOp57
 70
     1
102
RTVSPropertyOp58
 70
     1
102
RTVSPropertyOp59
 70
     1
102
RTVSPropertyOp60
 70
     1
102
RTVSPropertyOp61
 70
     1
102
RTVSPropertyOp62
 70
     1
  0
XRECORD
  5
70C
102
{ACAD_REACTORS
330
70B
102
}
330
70B
100
AcDbXrecord
280
     1
102
RTVSPost2010Prop28
280
     0
102
RTVSPost2010PropOp28
 70
     1
102
RTVSPost2010Prop29
280
     1
102
RTVSPost2010PropOp29
 70
     1
102
RTVSPost2010Prop30
280
     1
102
RTVSPost2010PropOp30
 70
     1
102
RTVSPost2010Prop31
280
     0
102
RTVSPost2010PropOp31
 70
     1
102
RTVSPost2010Prop32
280
     0
102
RTVSPost2010PropOp32
 70
     1
102
RTVSPost2010Prop33
280
     0
102
RTVSPost2010PropOp33
 70
     1
102
RTVSPost2010Prop34
280
     0
102
RTVSPost2010PropOp34
 70
     1
102
RTVSPost2010Prop35
280
     0
102
RTVSPost2010PropOp35
 70
     1
102
RTVSPost2010Prop36
280
     0
102
RTVSPost2010PropOp36
 70
     1
102
RTVSPost2010Prop37
 90
       50
102
RTVSPost2010PropOp37
 70
     1
102
RTVSPost2010Prop38
140
0.0
102
RTVSPost2010PropOp38
 70
     1
102
RTVSPost2010Prop39
140
1.0
102
RTVSPost2010PropOp39
 70
     1
102
RTVSPost2010Prop40
 90
        0
102
RTVSPost2010PropOp40
 70
     1
102
RTVSPost2010Prop41ColorIndex
 90
       18
102
RTVSPost2010Prop41ColorRGB
 90
        0
102
RTVSPost2010PropOp41
 70
     1
102
RTVSPost2010Prop42
 90
       50
102
RTVSPost2010PropOp42
 70
     1
102
RTVSPost2010Prop43
 90
        3
102
RTVSPost2010PropOp43
 70
     1
102
RTVSPost2010Prop44ColorIndex
 90
        5
102
RTVSPost2010Prop44ColorRGB
 90
      255
102
RTVSPost2010PropOp44
 70
     1
102
RTVSPost2010Prop45
280
     0
102
RTVSPost2010PropOp45
 70
     1
102
RTVSPost2010Prop46
 90
       50
102
RTVSPost2010PropOp46
 70
     1
102
RTVSPost2010Prop47
 90
       50
102
RTVSPost2010PropOp47
 70
     1
102
RTVSPost2010Prop48
 90
       50
102
RTVSPost2010PropOp48
 70
     1
102
RTVSPost2010Prop49
280
     0
102
RTVSPost2010PropOp49
 70
     1
102
RTVSPost2010Prop50
 90
       50
102
RTVSPost2010PropOp50
 70
     1
102
RTVSPost2010Prop51ColorIndex
 90
      256
102
RTVSPost2010Prop51ColorRGB
 90
-16777216
102
RTVSPost2010PropOp51
 70
     0
102
RTVSPost2010Prop52
140
1.0
102
RTVSPost2010PropOp52
 70
     0
102
RTVSPost2010Prop53
 90
        2
102
RTVSPost2010PropOp53
 70
     1
102
RTVSPost2010Prop54
  1
strokes_ogs.tif
102
RTVSPost2010PropOp54
 70
     1
102
RTVSPost2010Prop55
280
     0
102
RTVSPost2010PropOp55
 70
     1
102
RTVSPost2010Prop56
140
1.0
102
RTVSPost2010PropOp56
 70
     1
102
RTVSPost2010Prop57
140
1.0
102
RTVSPost2010PropOp57
 70
     1
102
RTVSPropertyOp0
 70
     1
102
RTVSPropertyOp1
 70
     1
102
RTVSPropertyOp2
 70
     1
102
RTVSPropertyOp3
 70
     1
102
RTVSPropertyOp4
 70
     1
102
RTVSPropertyOp5
 70
     1
102
RTVSPropertyOp6
 70
     1
102
RTVSPropertyOp7
 70
     1
102
RTVSPropertyOp8
 70
     1
102
RTVSPropertyOp9
 70
     1
102
RTVSPropertyOp10
 70
     1
102
RTVSPropertyOp11
 70
     1
102
RTVSPropertyOp12
 70
     1
102
RTVSPropertyOp13
 70
     1
102
RTVSPropertyOp14
 70
     1
102
RTVSPropertyOp15
 70
     1
102
RTVSPropertyOp16
 70
     1
102
RTVSPropertyOp17
 70
     1
102
RTVSPropertyOp18
 70
     1
102
RTVSPropertyOp19
 70
     1
102
RTVSPropertyOp20
 70
     1
102
RTVSPropertyOp21
 70
     1
102
RTVSPropertyOp22
 70
     1
102
RTVSPropertyOp23
 70
     1
102
RTVSPropertyOp24
 70
     1
102
RTVSPropertyOp25
 70
     1
102
RTVSPropertyOp26
 70
     1
102
RTVSPropertyOp27
 70
     1
102
RTVSPropertyOp28
 70
     1
102
RTVSPropertyOp29
 70
     1
102
RTVSPropertyOp30
 70
     1
102
RTVSPropertyOp31
 70
     1
102
RTVSPropertyOp32
 70
     1
102
RTVSPropertyOp33
 70
     1
102
RTVSPropertyOp34
 70
     1
102
RTVSPropertyOp35
 70
     1
102
RTVSPropertyOp36
 70
     1
102
RTVSPropertyOp37
 70
     1
102
RTVSPropertyOp38
 70
     1
102
RTVSPropertyOp39
 70
     1
102
RTVSPropertyOp40
 70
     1
102
RTVSPropertyOp41
 70
     1
102
RTVSPropertyOp42
 70
     1
102
RTVSPropertyOp43
 70
     1
102
RTVSPropertyOp44
 70
     1
102
RTVSPropertyOp45
 70
     1
102
RTVSPropertyOp46
 70
     1
102
RTVSPropertyOp47
 70
     1
102
RTVSPropertyOp48
 70
     1
102
RTVSPropertyOp49
 70
     1
102
RTVSPropertyOp50
 70
     1
102
RTVSPropertyOp51
 70
     0
102
RTVSPropertyOp52
 70
     0
102
RTVSPropertyOp53
 70
     1
102
RTVSPropertyOp54
 70
     1
102
RTVSPropertyOp55
 70
     1
102
RTVSPropertyOp56
 70
     1
102
RTVSPropertyOp57
 70
     1
102
RTVSPropertyOp58
 70
     1
102
RTVSPropertyOp59
 70
     1
102
RTVSPropertyOp60
 70
     1
102
RTVSPropertyOp61
 70
     1
102
RTVSPropertyOp62
 70
     1
  0
XRECORD
  5
706
102
{ACAD_REACTORS
330
705
102
}
330
705
100
AcDbXrecord
280
     1
102
RTVSPost2010Prop28
280
     0
102
RTVSPost2010PropOp28
 70
     1
102
RTVSPost2010Prop29
280
     1
102
RTVSPost2010PropOp29
 70
     1
102
RTVSPost2010Prop30
280
     1
102
RTVSPost2010PropOp30
 70
     1
102
RTVSPost2010Prop31
280
     0
102
RTVSPost2010PropOp31
 70
     1
102
RTVSPost2010Prop32
280
     0
102
RTVSPost2010PropOp32
 70
     1
102
RTVSPost2010Prop33
280
     0
102
RTVSPost2010PropOp33
 70
     1
102
RTVSPost2010Prop34
280
     0
102
RTVSPost2010PropOp34
 70
     1
102
RTVSPost2010Prop35
280
     0
102
RTVSPost2010PropOp35
 70
     1
102
RTVSPost2010Prop36
280
     0
102
RTVSPost2010PropOp36
 70
     1
102
RTVSPost2010Prop37
 90
       50
102
RTVSPost2010PropOp37
 70
     1
102
RTVSPost2010Prop38
140
0.0
102
RTVSPost2010PropOp38
 70
     1
102
RTVSPost2010Prop39
140
1.0
102
RTVSPost2010PropOp39
 70
     1
102
RTVSPost2010Prop40
 90
        0
102
RTVSPost2010PropOp40
 70
     1
102
RTVSPost2010Prop41ColorIndex
 90
       18
102
RTVSPost2010Prop41ColorRGB
 90
        0
102
RTVSPost2010PropOp41
 70
     1
102
RTVSPost2010Prop42
 90
       50
102
RTVSPost2010PropOp42
 70
     1
102
RTVSPost2010Prop43
 90
        3
102
RTVSPost2010PropOp43
 70
     1
102
RTVSPost2010Prop44ColorIndex
 90
        5
102
RTVSPost2010Prop44ColorRGB
 90
      255
102
RTVSPost2010PropOp44
 70
     1
102
RTVSPost2010Prop45
280
     0
102
RTVSPost2010PropOp45
 70
     1
102
RTVSPost2010Prop46
 90
       50
102
RTVSPost2010PropOp46
 70
     1
102
RTVSPost2010Prop47
 90
       50
102
RTVSPost2010PropOp47
 70
     1
102
RTVSPost2010Prop48
 90
       50
102
RTVSPost2010PropOp48
 70
     1
102
RTVSPost2010Prop49
280
     0
102
RTVSPost2010PropOp49
 70
     1
102
RTVSPost2010Prop50
 90
       50
102
RTVSPost2010PropOp50
 70
     1
102
RTVSPost2010Prop51ColorIndex
 90
      256
102
RTVSPost2010Prop51ColorRGB
 90
-16777216
102
RTVSPost2010PropOp51
 70
     0
102
RTVSPost2010Prop52
140
1.0
102
RTVSPost2010PropOp52
 70
     0
102
RTVSPost2010Prop53
 90
        2
102
RTVSPost2010PropOp53
 70
     1
102
RTVSPost2010Prop54
  1
strokes_ogs.tif
102
RTVSPost2010PropOp54
 70
     1
102
RTVSPost2010Prop55
280
     0
102
RTVSPost2010PropOp55
 70
     1
102
RTVSPost2010Prop56
140
1.0
102
RTVSPost2010PropOp56
 70
     1
102
RTVSPost2010Prop57
140
1.0
102
RTVSPost2010PropOp57
 70
     1
102
RTVSPropertyOp0
 70
     1
102
RTVSPropertyOp1
 70
     1
102
RTVSPropertyOp2
 70
     1
102
RTVSPropertyOp3
 70
     1
102
RTVSPropertyOp4
 70
     1
102
RTVSPropertyOp5
 70
     1
102
RTVSPropertyOp6
 70
     1
102
RTVSPropertyOp7
 70
     1
102
RTVSPropertyOp8
 70
     1
102
RTVSPropertyOp9
 70
     1
102
RTVSPropertyOp10
 70
     1
102
RTVSPropertyOp11
 70
     1
102
RTVSPropertyOp12
 70
     1
102
RTVSPropertyOp13
 70
     1
102
RTVSPropertyOp14
 70
     1
102
RTVSPropertyOp15
 70
     1
102
RTVSPropertyOp16
 70
     1
102
RTVSPropertyOp17
 70
     1
102
RTVSPropertyOp18
 70
     1
102
RTVSPropertyOp19
 70
     1
102
RTVSPropertyOp20
 70
     1
102
RTVSPropertyOp21
 70
     1
102
RTVSPropertyOp22
 70
     1
102
RTVSPropertyOp23
 70
     1
102
RTVSPropertyOp24
 70
     1
102
RTVSPropertyOp25
 70
     1
102
RTVSPropertyOp26
 70
     1
102
RTVSPropertyOp27
 70
     1
102
RTVSPropertyOp28
 70
     1
102
RTVSPropertyOp29
 70
     1
102
RTVSPropertyOp30
 70
     1
102
RTVSPropertyOp31
 70
     1
102
RTVSPropertyOp32
 70
     1
102
RTVSPropertyOp33
 70
     1
102
RTVSPropertyOp34
 70
     1
102
RTVSPropertyOp35
 70
     1
102
RTVSPropertyOp36
 70
     1
102
RTVSPropertyOp37
 70
     1
102
RTVSPropertyOp38
 70
     1
102
RTVSPropertyOp39
 70
     1
102
RTVSPropertyOp40
 70
     1
102
RTVSPropertyOp41
 70
     1
102
RTVSPropertyOp42
 70
     1
102
RTVSPropertyOp43
 70
     1
102
RTVSPropertyOp44
 70
     1
102
RTVSPropertyOp45
 70
     1
102
RTVSPropertyOp46
 70
     1
102
RTVSPropertyOp47
 70
     1
102
RTVSPropertyOp48
 70
     1
102
RTVSPropertyOp49
 70
     1
102
RTVSPropertyOp50
 70
     1
102
RTVSPropertyOp51
 70
     0
102
RTVSPropertyOp52
 70
     0
102
RTVSPropertyOp53
 70
     1
102
RTVSPropertyOp54
 70
     1
102
RTVSPropertyOp55
 70
     1
102
RTVSPropertyOp56
 70
     1
102
RTVSPropertyOp57
 70
     1
102
RTVSPropertyOp58
 70
     1
102
RTVSPropertyOp59
 70
     1
102
RTVSPropertyOp60
 70
     1
102
RTVSPropertyOp61
 70
     1
102
RTVSPropertyOp62
 70
     1
  0
XRECORD
  5
708
102
{ACAD_REACTORS
330
707
102
}
330
707
100
AcDbXrecord
280
     1
102
RTVSPost2010Prop28
280
     0
102
RTVSPost2010PropOp28
 70
     1
102
RTVSPost2010Prop29
280
     1
102
RTVSPost2010PropOp29
 70
     1
102
RTVSPost2010Prop30
280
     1
102
RTVSPost2010PropOp30
 70
     1
102
RTVSPost2010Prop31
280
     0
102
RTVSPost2010PropOp31
 70
     1
102
RTVSPost2010Prop32
280
     0
102
RTVSPost2010PropOp32
 70
     1
102
RTVSPost2010Prop33
280
     0
102
RTVSPost2010PropOp33
 70
     1
102
RTVSPost2010Prop34
280
     0
102
RTVSPost2010PropOp34
 70
     1
102
RTVSPost2010Prop35
280
     0
102
RTVSPost2010PropOp35
 70
     1
102
RTVSPost2010Prop36
280
     0
102
RTVSPost2010PropOp36
 70
     1
102
RTVSPost2010Prop37
 90
       50
102
RTVSPost2010PropOp37
 70
     1
102
RTVSPost2010Prop38
140
0.0
102
RTVSPost2010PropOp38
 70
     1
102
RTVSPost2010Prop39
140
1.0
102
RTVSPost2010PropOp39
 70
     1
102
RTVSPost2010Prop40
 90
        0
102
RTVSPost2010PropOp40
 70
     1
102
RTVSPost2010Prop41ColorIndex
 90
       18
102
RTVSPost2010Prop41ColorRGB
 90
        0
102
RTVSPost2010PropOp41
 70
     1
102
RTVSPost2010Prop42
 90
       50
102
RTVSPost2010PropOp42
 70
     1
102
RTVSPost2010Prop43
 90
        3
102
RTVSPost2010PropOp43
 70
     1
102
RTVSPost2010Prop44ColorIndex
 90
        5
102
RTVSPost2010Prop44ColorRGB
 90
      255
102
RTVSPost2010PropOp44
 70
     1
102
RTVSPost2010Prop45
280
     0
102
RTVSPost2010PropOp45
 70
     1
102
RTVSPost2010Prop46
 90
       50
102
RTVSPost2010PropOp46
 70
     1
102
RTVSPost2010Prop47
 90
       50
102
RTVSPost2010PropOp47
 70
     1
102
RTVSPost2010Prop48
 90
       50
102
RTVSPost2010PropOp48
 70
     1
102
RTVSPost2010Prop49
280
     0
102
RTVSPost2010PropOp49
 70
     1
102
RTVSPost2010Prop50
 90
       50
102
RTVSPost2010PropOp50
 70
     1
102
RTVSPost2010Prop51ColorIndex
 90
      256
102
RTVSPost2010Prop51ColorRGB
 90
-16777216
102
RTVSPost2010PropOp51
 70
     0
102
RTVSPost2010Prop52
140
1.0
102
RTVSPost2010PropOp52
 70
     0
102
RTVSPost2010Prop53
 90
        2
102
RTVSPost2010PropOp53
 70
     1
102
RTVSPost2010Prop54
  1
strokes_ogs.tif
102
RTVSPost2010PropOp54
 70
     1
102
RTVSPost2010Prop55
280
     0
102
RTVSPost2010PropOp55
 70
     1
102
RTVSPost2010Prop56
140
1.0
102
RTVSPost2010PropOp56
 70
     1
102
RTVSPost2010Prop57
140
1.0
102
RTVSPost2010PropOp57
 70
     1
102
RTVSPropertyOp0
 70
     1
102
RTVSPropertyOp1
 70
     1
102
RTVSPropertyOp2
 70
     1
102
RTVSPropertyOp3
 70
     1
102
RTVSPropertyOp4
 70
     1
102
RTVSPropertyOp5
 70
     1
102
RTVSPropertyOp6
 70
     1
102
RTVSPropertyOp7
 70
     1
102
RTVSPropertyOp8
 70
     1
102
RTVSPropertyOp9
 70
     1
102
RTVSPropertyOp10
 70
     1
102
RTVSPropertyOp11
 70
     1
102
RTVSPropertyOp12
 70
     1
102
RTVSPropertyOp13
 70
     1
102
RTVSPropertyOp14
 70
     1
102
RTVSPropertyOp15
 70
     1
102
RTVSPropertyOp16
 70
     1
102
RTVSPropertyOp17
 70
     1
102
RTVSPropertyOp18
 70
     1
102
RTVSPropertyOp19
 70
     1
102
RTVSPropertyOp20
 70
     1
102
RTVSPropertyOp21
 70
     1
102
RTVSPropertyOp22
 70
     1
102
RTVSPropertyOp23
 70
     1
102
RTVSPropertyOp24
 70
     1
102
RTVSPropertyOp25
 70
     1
102
RTVSPropertyOp26
 70
     1
102
RTVSPropertyOp27
 70
     1
102
RTVSPropertyOp28
 70
     1
102
RTVSPropertyOp29
 70
     1
102
RTVSPropertyOp30
 70
     1
102
RTVSPropertyOp31
 70
     1
102
RTVSPropertyOp32
 70
     1
102
RTVSPropertyOp33
 70
     1
102
RTVSPropertyOp34
 70
     1
102
RTVSPropertyOp35
 70
     1
102
RTVSPropertyOp36
 70
     1
102
RTVSPropertyOp37
 70
     1
102
RTVSPropertyOp38
 70
     1
102
RTVSPropertyOp39
 70
     1
102
RTVSPropertyOp40
 70
     1
102
RTVSPropertyOp41
 70
     1
102
RTVSPropertyOp42
 70
     1
102
RTVSPropertyOp43
 70
     1
102
RTVSPropertyOp44
 70
     1
102
RTVSPropertyOp45
 70
     1
102
RTVSPropertyOp46
 70
     1
102
RTVSPropertyOp47
 70
     1
102
RTVSPropertyOp48
 70
     1
102
RTVSPropertyOp49
 70
     1
102
RTVSPropertyOp50
 70
     1
102
RTVSPropertyOp51
 70
     0
102
RTVSPropertyOp52
 70
     0
102
RTVSPropertyOp53
 70
     1
102
RTVSPropertyOp54
 70
     1
102
RTVSPropertyOp55
 70
     1
102
RTVSPropertyOp56
 70
     1
102
RTVSPropertyOp57
 70
     1
102
RTVSPropertyOp58
 70
     1
102
RTVSPropertyOp59
 70
     1
102
RTVSPropertyOp60
 70
     1
102
RTVSPropertyOp61
 70
     1
102
RTVSPropertyOp62
 70
     1
  0
XRECORD
  5
6F8
102
{ACAD_REACTORS
330
6F7
102
}
330
6F7
100
AcDbXrecord
280
     1
102
RTVSPost2010Prop28
280
     0
102
RTVSPost2010PropOp28
 70
     1
102
RTVSPost2010Prop29
280
     1
102
RTVSPost2010PropOp29
 70
     1
102
RTVSPost2010Prop30
280
     1
102
RTVSPost2010PropOp30
 70
     1
102
RTVSPost2010Prop31
280
     0
102
RTVSPost2010PropOp31
 70
     1
102
RTVSPost2010Prop32
280
     0
102
RTVSPost2010PropOp32
 70
     1
102
RTVSPost2010Prop33
280
     0
102
RTVSPost2010PropOp33
 70
     1
102
RTVSPost2010Prop34
280
     0
102
RTVSPost2010PropOp34
 70
     1
102
RTVSPost2010Prop35
280
     0
102
RTVSPost2010PropOp35
 70
     1
102
RTVSPost2010Prop36
280
     0
102
RTVSPost2010PropOp36
 70
     1
102
RTVSPost2010Prop37
 90
       50
102
RTVSPost2010PropOp37
 70
     1
102
RTVSPost2010Prop38
140
0.0
102
RTVSPost2010PropOp38
 70
     1
102
RTVSPost2010Prop39
140
1.0
102
RTVSPost2010PropOp39
 70
     1
102
RTVSPost2010Prop40
 90
        0
102
RTVSPost2010PropOp40
 70
     1
102
RTVSPost2010Prop41ColorIndex
 90
       18
102
RTVSPost2010Prop41ColorRGB
 90
        0
102
RTVSPost2010PropOp41
 70
     1
102
RTVSPost2010Prop42
 90
       50
102
RTVSPost2010PropOp42
 70
     1
102
RTVSPost2010Prop43
 90
        3
102
RTVSPost2010PropOp43
 70
     1
102
RTVSPost2010Prop44ColorIndex
 90
        5
102
RTVSPost2010Prop44ColorRGB
 90
      255
102
RTVSPost2010PropOp44
 70
     1
102
RTVSPost2010Prop45
280
     0
102
RTVSPost2010PropOp45
 70
     1
102
RTVSPost2010Prop46
 90
       50
102
RTVSPost2010PropOp46
 70
     1
102
RTVSPost2010Prop47
 90
       50
102
RTVSPost2010PropOp47
 70
     1
102
RTVSPost2010Prop48
 90
       50
102
RTVSPost2010PropOp48
 70
     1
102
RTVSPost2010Prop49
280
     0
102
RTVSPost2010PropOp49
 70
     1
102
RTVSPost2010Prop50
 90
       50
102
RTVSPost2010PropOp50
 70
     1
102
RTVSPost2010Prop51ColorIndex
 90
      256
102
RTVSPost2010Prop51ColorRGB
 90
-16777216
102
RTVSPost2010PropOp51
 70
     0
102
RTVSPost2010Prop52
140
1.0
102
RTVSPost2010PropOp52
 70
     0
102
RTVSPost2010Prop53
 90
        2
102
RTVSPost2010PropOp53
 70
     1
102
RTVSPost2010Prop54
  1
strokes_ogs.tif
102
RTVSPost2010PropOp54
 70
     1
102
RTVSPost2010Prop55
280
     0
102
RTVSPost2010PropOp55
 70
     1
102
RTVSPost2010Prop56
140
1.0
102
RTVSPost2010PropOp56
 70
     1
102
RTVSPost2010Prop57
140
1.0
102
RTVSPost2010PropOp57
 70
     1
102
RTVSPropertyOp0
 70
     1
102
RTVSPropertyOp1
 70
     1
102
RTVSPropertyOp2
 70
     1
102
RTVSPropertyOp3
 70
     1
102
RTVSPropertyOp4
 70
     1
102
RTVSPropertyOp5
 70
     1
102
RTVSPropertyOp6
 70
     1
102
RTVSPropertyOp7
 70
     1
102
RTVSPropertyOp8
 70
     1
102
RTVSPropertyOp9
 70
     1
102
RTVSPropertyOp10
 70
     1
102
RTVSPropertyOp11
 70
     1
102
RTVSPropertyOp12
 70
     1
102
RTVSPropertyOp13
 70
     1
102
RTVSPropertyOp14
 70
     1
102
RTVSPropertyOp15
 70
     1
102
RTVSPropertyOp16
 70
     1
102
RTVSPropertyOp17
 70
     1
102
RTVSPropertyOp18
 70
     1
102
RTVSPropertyOp19
 70
     1
102
RTVSPropertyOp20
 70
     1
102
RTVSPropertyOp21
 70
     1
102
RTVSPropertyOp22
 70
     1
102
RTVSPropertyOp23
 70
     1
102
RTVSPropertyOp24
 70
     1
102
RTVSPropertyOp25
 70
     1
102
RTVSPropertyOp26
 70
     1
102
RTVSPropertyOp27
 70
     1
102
RTVSPropertyOp28
 70
     1
102
RTVSPropertyOp29
 70
     1
102
RTVSPropertyOp30
 70
     1
102
RTVSPropertyOp31
 70
     1
102
RTVSPropertyOp32
 70
     1
102
RTVSPropertyOp33
 70
     1
102
RTVSPropertyOp34
 70
     1
102
RTVSPropertyOp35
 70
     1
102
RTVSPropertyOp36
 70
     1
102
RTVSPropertyOp37
 70
     1
102
RTVSPropertyOp38
 70
     1
102
RTVSPropertyOp39
 70
     1
102
RTVSPropertyOp40
 70
     1
102
RTVSPropertyOp41
 70
     1
102
RTVSPropertyOp42
 70
     1
102
RTVSPropertyOp43
 70
     1
102
RTVSPropertyOp44
 70
     1
102
RTVSPropertyOp45
 70
     1
102
RTVSPropertyOp46
 70
     1
102
RTVSPropertyOp47
 70
     1
102
RTVSPropertyOp48
 70
     1
102
RTVSPropertyOp49
 70
     1
102
RTVSPropertyOp50
 70
     1
102
RTVSPropertyOp51
 70
     0
102
RTVSPropertyOp52
 70
     0
102
RTVSPropertyOp53
 70
     1
102
RTVSPropertyOp54
 70
     1
102
RTVSPropertyOp55
 70
     1
102
RTVSPropertyOp56
 70
     1
102
RTVSPropertyOp57
 70
     1
102
RTVSPropertyOp58
 70
     1
102
RTVSPropertyOp59
 70
     1
102
RTVSPropertyOp60
 70
     1
102
RTVSPropertyOp61
 70
     1
102
RTVSPropertyOp62
 70
     1
  0
XRECORD
  5
6EA
102
{ACAD_REACTORS
330
6E9
102
}
330
6E9
100
AcDbXrecord
280
     1
102
RTVSPost2010Prop28
280
     0
102
RTVSPost2010PropOp28
 70
     1
102
RTVSPost2010Prop29
280
     1
102
RTVSPost2010PropOp29
 70
     1
102
RTVSPost2010Prop30
280
     1
102
RTVSPost2010PropOp30
 70
     1
102
RTVSPost2010Prop31
280
     0
102
RTVSPost2010PropOp31
 70
     1
102
RTVSPost2010Prop32
280
     0
102
RTVSPost2010PropOp32
 70
     1
102
RTVSPost2010Prop33
280
     0
102
RTVSPost2010PropOp33
 70
     1
102
RTVSPost2010Prop34
280
     0
102
RTVSPost2010PropOp34
 70
     1
102
RTVSPost2010Prop35
280
     0
102
RTVSPost2010PropOp35
 70
     1
102
RTVSPost2010Prop36
280
     0
102
RTVSPost2010PropOp36
 70
     1
102
RTVSPost2010Prop37
 90
       50
102
RTVSPost2010PropOp37
 70
     1
102
RTVSPost2010Prop38
140
0.0
102
RTVSPost2010PropOp38
 70
     1
102
RTVSPost2010Prop39
140
1.0
102
RTVSPost2010PropOp39
 70
     1
102
RTVSPost2010Prop40
 90
        0
102
RTVSPost2010PropOp40
 70
     1
102
RTVSPost2010Prop41ColorIndex
 90
       18
102
RTVSPost2010Prop41ColorRGB
 90
        0
102
RTVSPost2010PropOp41
 70
     1
102
RTVSPost2010Prop42
 90
       50
102
RTVSPost2010PropOp42
 70
     1
102
RTVSPost2010Prop43
 90
        3
102
RTVSPost2010PropOp43
 70
     1
102
RTVSPost2010Prop44ColorIndex
 90
        5
102
RTVSPost2010Prop44ColorRGB
 90
      255
102
RTVSPost2010PropOp44
 70
     1
102
RTVSPost2010Prop45
280
     0
102
RTVSPost2010PropOp45
 70
     1
102
RTVSPost2010Prop46
 90
       50
102
RTVSPost2010PropOp46
 70
     1
102
RTVSPost2010Prop47
 90
       50
102
RTVSPost2010PropOp47
 70
     1
102
RTVSPost2010Prop48
 90
       50
102
RTVSPost2010PropOp48
 70
     1
102
RTVSPost2010Prop49
280
     0
102
RTVSPost2010PropOp49
 70
     1
102
RTVSPost2010Prop50
 90
       50
102
RTVSPost2010PropOp50
 70
     1
102
RTVSPost2010Prop51ColorIndex
 90
      256
102
RTVSPost2010Prop51ColorRGB
 90
-16777216
102
RTVSPost2010PropOp51
 70
     0
102
RTVSPost2010Prop52
140
1.0
102
RTVSPost2010PropOp52
 70
     0
102
RTVSPost2010Prop53
 90
        2
102
RTVSPost2010PropOp53
 70
     1
102
RTVSPost2010Prop54
  1
strokes_ogs.tif
102
RTVSPost2010PropOp54
 70
     1
102
RTVSPost2010Prop55
280
     0
102
RTVSPost2010PropOp55
 70
     1
102
RTVSPost2010Prop56
140
1.0
102
RTVSPost2010PropOp56
 70
     1
102
RTVSPost2010Prop57
140
1.0
102
RTVSPost2010PropOp57
 70
     1
102
RTVSPropertyOp0
 70
     1
102
RTVSPropertyOp1
 70
     1
102
RTVSPropertyOp2
 70
     1
102
RTVSPropertyOp3
 70
     1
102
RTVSPropertyOp4
 70
     1
102
RTVSPropertyOp5
 70
     1
102
RTVSPropertyOp6
 70
     1
102
RTVSPropertyOp7
 70
     1
102
RTVSPropertyOp8
 70
     1
102
RTVSPropertyOp9
 70
     1
102
RTVSPropertyOp10
 70
     1
102
RTVSPropertyOp11
 70
     1
102
RTVSPropertyOp12
 70
     1
102
RTVSPropertyOp13
 70
     1
102
RTVSPropertyOp14
 70
     1
102
RTVSPropertyOp15
 70
     1
102
RTVSPropertyOp16
 70
     1
102
RTVSPropertyOp17
 70
     1
102
RTVSPropertyOp18
 70
     1
102
RTVSPropertyOp19
 70
     1
102
RTVSPropertyOp20
 70
     1
102
RTVSPropertyOp21
 70
     1
102
RTVSPropertyOp22
 70
     1
102
RTVSPropertyOp23
 70
     1
102
RTVSPropertyOp24
 70
     1
102
RTVSPropertyOp25
 70
     1
102
RTVSPropertyOp26
 70
     1
102
RTVSPropertyOp27
 70
     1
102
RTVSPropertyOp28
 70
     1
102
RTVSPropertyOp29
 70
     1
102
RTVSPropertyOp30
 70
     1
102
RTVSPropertyOp31
 70
     1
102
RTVSPropertyOp32
 70
     1
102
RTVSPropertyOp33
 70
     1
102
RTVSPropertyOp34
 70
     1
102
RTVSPropertyOp35
 70
     1
102
RTVSPropertyOp36
 70
     1
102
RTVSPropertyOp37
 70
     1
102
RTVSPropertyOp38
 70
     1
102
RTVSPropertyOp39
 70
     1
102
RTVSPropertyOp40
 70
     1
102
RTVSPropertyOp41
 70
     1
102
RTVSPropertyOp42
 70
     1
102
RTVSPropertyOp43
 70
     1
102
RTVSPropertyOp44
 70
     1
102
RTVSPropertyOp45
 70
     1
102
RTVSPropertyOp46
 70
     1
102
RTVSPropertyOp47
 70
     1
102
RTVSPropertyOp48
 70
     1
102
RTVSPropertyOp49
 70
     1
102
RTVSPropertyOp50
 70
     1
102
RTVSPropertyOp51
 70
     0
102
RTVSPropertyOp52
 70
     0
102
RTVSPropertyOp53
 70
     1
102
RTVSPropertyOp54
 70
     1
102
RTVSPropertyOp55
 70
     1
102
RTVSPropertyOp56
 70
     1
102
RTVSPropertyOp57
 70
     1
102
RTVSPropertyOp58
 70
     1
102
RTVSPropertyOp59
 70
     1
102
RTVSPropertyOp60
 70
     1
102
RTVSPropertyOp61
 70
     1
102
RTVSPropertyOp62
 70
     1
  0
XRECORD
  5
70A
102
{ACAD_REACTORS
330
709
102
}
330
709
100
AcDbXrecord
280
     1
102
RTVSPost2010Prop28
280
     0
102
RTVSPost2010PropOp28
 70
     1
102
RTVSPost2010Prop29
280
     1
102
RTVSPost2010PropOp29
 70
     1
102
RTVSPost2010Prop30
280
     1
102
RTVSPost2010PropOp30
 70
     1
102
RTVSPost2010Prop31
280
     0
102
RTVSPost2010PropOp31
 70
     1
102
RTVSPost2010Prop32
280
     0
102
RTVSPost2010PropOp32
 70
     1
102
RTVSPost2010Prop33
280
     0
102
RTVSPost2010PropOp33
 70
     1
102
RTVSPost2010Prop34
280
     0
102
RTVSPost2010PropOp34
 70
     1
102
RTVSPost2010Prop35
280
     0
102
RTVSPost2010PropOp35
 70
     1
102
RTVSPost2010Prop36
280
     0
102
RTVSPost2010PropOp36
 70
     1
102
RTVSPost2010Prop37
 90
       50
102
RTVSPost2010PropOp37
 70
     1
102
RTVSPost2010Prop38
140
0.0
102
RTVSPost2010PropOp38
 70
     1
102
RTVSPost2010Prop39
140
1.0
102
RTVSPost2010PropOp39
 70
     1
102
RTVSPost2010Prop40
 90
        0
102
RTVSPost2010PropOp40
 70
     1
102
RTVSPost2010Prop41ColorIndex
 90
       18
102
RTVSPost2010Prop41ColorRGB
 90
        0
102
RTVSPost2010PropOp41
 70
     1
102
RTVSPost2010Prop42
 90
       50
102
RTVSPost2010PropOp42
 70
     1
102
RTVSPost2010Prop43
 90
        3
102
RTVSPost2010PropOp43
 70
     1
102
RTVSPost2010Prop44ColorIndex
 90
        5
102
RTVSPost2010Prop44ColorRGB
 90
      255
102
RTVSPost2010PropOp44
 70
     1
102
RTVSPost2010Prop45
280
     0
102
RTVSPost2010PropOp45
 70
     1
102
RTVSPost2010Prop46
 90
       50
102
RTVSPost2010PropOp46
 70
     1
102
RTVSPost2010Prop47
 90
       50
102
RTVSPost2010PropOp47
 70
     1
102
RTVSPost2010Prop48
 90
       50
102
RTVSPost2010PropOp48
 70
     1
102
RTVSPost2010Prop49
280
     0
102
RTVSPost2010PropOp49
 70
     1
102
RTVSPost2010Prop50
 90
       50
102
RTVSPost2010PropOp50
 70
     1
102
RTVSPost2010Prop51ColorIndex
 90
      256
102
RTVSPost2010Prop51ColorRGB
 90
-16777216
102
RTVSPost2010PropOp51
 70
     0
102
RTVSPost2010Prop52
140
1.0
102
RTVSPost2010PropOp52
 70
     0
102
RTVSPost2010Prop53
 90
        2
102
RTVSPost2010PropOp53
 70
     1
102
RTVSPost2010Prop54
  1
strokes_ogs.tif
102
RTVSPost2010PropOp54
 70
     1
102
RTVSPost2010Prop55
280
     0
102
RTVSPost2010PropOp55
 70
     1
102
RTVSPost2010Prop56
140
1.0
102
RTVSPost2010PropOp56
 70
     1
102
RTVSPost2010Prop57
140
1.0
102
RTVSPost2010PropOp57
 70
     1
102
RTVSPropertyOp0
 70
     1
102
RTVSPropertyOp1
 70
     1
102
RTVSPropertyOp2
 70
     1
102
RTVSPropertyOp3
 70
     1
102
RTVSPropertyOp4
 70
     1
102
RTVSPropertyOp5
 70
     1
102
RTVSPropertyOp6
 70
     1
102
RTVSPropertyOp7
 70
     1
102
RTVSPropertyOp8
 70
     1
102
RTVSPropertyOp9
 70
     1
102
RTVSPropertyOp10
 70
     1
102
RTVSPropertyOp11
 70
     1
102
RTVSPropertyOp12
 70
     1
102
RTVSPropertyOp13
 70
     1
102
RTVSPropertyOp14
 70
     1
102
RTVSPropertyOp15
 70
     1
102
RTVSPropertyOp16
 70
     1
102
RTVSPropertyOp17
 70
     1
102
RTVSPropertyOp18
 70
     1
102
RTVSPropertyOp19
 70
     1
102
RTVSPropertyOp20
 70
     1
102
RTVSPropertyOp21
 70
     1
102
RTVSPropertyOp22
 70
     1
102
RTVSPropertyOp23
 70
     1
102
RTVSPropertyOp24
 70
     1
102
RTVSPropertyOp25
 70
     1
102
RTVSPropertyOp26
 70
     1
102
RTVSPropertyOp27
 70
     1
102
RTVSPropertyOp28
 70
     1
102
RTVSPropertyOp29
 70
     1
102
RTVSPropertyOp30
 70
     1
102
RTVSPropertyOp31
 70
     1
102
RTVSPropertyOp32
 70
     1
102
RTVSPropertyOp33
 70
     1
102
RTVSPropertyOp34
 70
     1
102
RTVSPropertyOp35
 70
     1
102
RTVSPropertyOp36
 70
     1
102
RTVSPropertyOp37
 70
     1
102
RTVSPropertyOp38
 70
     1
102
RTVSPropertyOp39
 70
     1
102
RTVSPropertyOp40
 70
     1
102
RTVSPropertyOp41
 70
     1
102
RTVSPropertyOp42
 70
     1
102
RTVSPropertyOp43
 70
     1
102
RTVSPropertyOp44
 70
     1
102
RTVSPropertyOp45
 70
     1
102
RTVSPropertyOp46
 70
     1
102
RTVSPropertyOp47
 70
     1
102
RTVSPropertyOp48
 70
     1
102
RTVSPropertyOp49
 70
     1
102
RTVSPropertyOp50
 70
     1
102
RTVSPropertyOp51
 70
     0
102
RTVSPropertyOp52
 70
     0
102
RTVSPropertyOp53
 70
     1
102
RTVSPropertyOp54
 70
     1
102
RTVSPropertyOp55
 70
     1
102
RTVSPropertyOp56
 70
     1
102
RTVSPropertyOp57
 70
     1
102
RTVSPropertyOp58
 70
     1
102
RTVSPropertyOp59
 70
     1
102
RTVSPropertyOp60
 70
     1
102
RTVSPropertyOp61
 70
     1
102
RTVSPropertyOp62
 70
     1
  0
ENDSEC
  0
EOF
