  0
SECTION
  2
HEADER
  9
$ACADVER
  1
AC1015
  9
$ACADMAINTVER
 70
    20
  9
$DWGCODEPAGE
  3
ANSI_932
  9
$INSBASE
 10
0.0
 20
0.0
 30
0.0
  9
$EXTMIN
 10
51.02683350394625
 20
-32.57384795241796
 30
0.0
  9
$EXTMAX
 10
1725.256278887828
 20
1371.245449680321
 30
0.0
  9
$LIMMIN
 10
-582.1575927734373
 20
-758.2971954345703
  9
$LIMMAX
 10
1034.96918959663
 20
532.3938598632811
  9
$ORTHOMODE
 70
     0
  9
$REGENMODE
 70
     1
  9
$FILLMODE
 70
     1
  9
$QTEXTMODE
 70
     0
  9
$MIRRTEXT
 70
     1
  9
$LTSCALE
 40
0.1869844451664001
  9
$ATTMODE
 70
     1
  9
$TEXTSIZE
 40
2.5
  9
$TRACEWID
 40
1.0
  9
$TEXTSTYLE
  7
Standard
  9
$CLAYER
  8
0
  9
$CELTYPE
  6
ByLayer
  9
$CECOLOR
 62
   256
  9
$CELTSCALE
 40
1.0
  9
$DISPSILH
 70
     0
  9
$DIMSCALE
 40
1.0
  9
$DIMASZ
 40
2.5
  9
$DIMEXO
 40
0.625
  9
$DIMDLI
 40
3.75
  9
$DIMRND
 40
0.0
  9
$DIMDLE
 40
0.0
  9
$DIMEXE
 40
1.25
  9
$DIMTP
 40
0.0
  9
$DIMTM
 40
0.0
  9
$DIMTXT
 40
2.5
  9
$DIMCEN
 40
2.5
  9
$DIMTSZ
 40
0.0
  9
$DIMTOL
 70
     0
  9
$DIMLIM
 70
     0
  9
$DIMTIH
 70
     0
  9
$DIMTOH
 70
     0
  9
$DIMSE1
 70
     0
  9
$DIMSE2
 70
     0
  9
$DIMTAD
 70
     1
  9
$DIMZIN
 70
     0
  9
$DIMBLK
  1

  9
$DIMASO
 70
     1
  9
$DIMSHO
 70
     1
  9
$DIMPOST
  1

  9
$DIMAPOST
  1

  9
$DIMALT
 70
     0
  9
$DIMALTD
 70
     3
  9
$DIMALTF
 40
0.03937007874016
  9
$DIMLFAC
 40
1.0
  9
$DIMTOFL
 70
     1
  9
$DIMTVP
 40
0.0
  9
$DIMTIX
 70
     0
  9
$DIMSOXD
 70
     0
  9
$DIMSAH
 70
     0
  9
$DIMBLK1
  1

  9
$DIMBLK2
  1

  9
$DIMSTYLE
  2
Standard
  9
$DIMCLRD
 70
     0
  9
$DIMCLRE
 70
     0
  9
$DIMCLRT
 70
     0
  9
$DIMTFAC
 40
0.75
  9
$DIMGAP
 40
0.625
  9
$DIMJUST
 70
     0
  9
$DIMSD1
 70
     0
  9
$DIMSD2
 70
     0
  9
$DIMTOLJ
 70
     0
  9
$DIMTZIN
 70
     8
  9
$DIMALTZ
 70
     0
  9
$DIMALTTZ
 70
     0
  9
$DIMUPT
 70
     0
  9
$DIMDEC
 70
     2
  9
$DIMTDEC
 70
     2
  9
$DIMALTU
 70
     2
  9
$DIMALTTD
 70
     3
  9
$DIMTXSTY
  7
Standard
  9
$DIMAUNIT
 70
     0
  9
$DIMADEC
 70
     0
  9
$DIMALTRND
 40
0.0
  9
$DIMAZIN
 70
     0
  9
$DIMDSEP
 70
    46
  9
$DIMATFIT
 70
     3
  9
$DIMFRAC
 70
     0
  9
$DIMLDRBLK
  1

  9
$DIMLUNIT
 70
     2
  9
$DIMLWD
 70
    -2
  9
$DIMLWE
 70
    -2
  9
$DIMTMOVE
 70
     0
  9
$LUNITS
 70
     2
  9
$LUPREC
 70
     4
  9
$SKETCHINC
 40
1.0
  9
$FILLETRAD
 40
0.0
  9
$AUNITS
 70
     0
  9
$AUPREC
 70
     0
  9
$MENU
  1
.
  9
$ELEVATION
 40
0.0
  9
$PELEVATION
 40
0.0
  9
$THICKNESS
 40
0.0
  9
$LIMCHECK
 70
     0
  9
$CHAMFERA
 40
10.0
  9
$CHAMFERB
 40
10.0
  9
$CHAMFERC
 40
20.0
  9
$CHAMFERD
 40
0.0
  9
$SKPOLY
 70
     0
  9
$TDCREATE
 40
2455188.750000000
  9
$TDUCREATE
 40
2455188.375000000
  9
$TDUPDATE
 40
2459754.626378438
  9
$TDUUPDATE
 40
2459754.251378438
  9
$TDINDWG
 40
0.0093193403
  9
$TDUSRTIMER
 40
0.0093191551
  9
$USRTIMER
 70
     1
  9
$ANGBASE
 50
0.0
  9
$ANGDIR
 70
     0
  9
$PDMODE
 70
     0
  9
$PDSIZE
 40
0.0
  9
$PLINEWID
 40
0.0
  9
$SPLFRAME
 70
     0
  9
$SPLINETYPE
 70
     6
  9
$SPLINESEGS
 70
     8
  9
$HANDSEED
  5
7DE
  9
$SURFTAB1
 70
     6
  9
$SURFTAB2
 70
     6
  9
$SURFTYPE
 70
     6
  9
$SURFU
 70
     6
  9
$SURFV
 70
     6
  9
$UCSBASE
  2

  9
$UCSNAME
  2

  9
$UCSORG
 10
0.0
 20
0.0
 30
0.0
  9
$UCSXDIR
 10
1.0
 20
0.0
 30
0.0
  9
$UCSYDIR
 10
0.0
 20
1.0
 30
0.0
  9
$UCSORTHOREF
  2

  9
$UCSORTHOVIEW
 70
     0
  9
$UCSORGTOP
 10
0.0
 20
0.0
 30
0.0
  9
$UCSORGBOTTOM
 10
0.0
 20
0.0
 30
0.0
  9
$UCSORGLEFT
 10
0.0
 20
0.0
 30
0.0
  9
$UCSORGRIGHT
 10
0.0
 20
0.0
 30
0.0
  9
$UCSORGFRONT
 10
0.0
 20
0.0
 30
0.0
  9
$UCSORGBACK
 10
0.0
 20
0.0
 30
0.0
  9
$PUCSBASE
  2

  9
$PUCSNAME
  2

  9
$PUCSORG
 10
0.0
 20
0.0
 30
0.0
  9
$PUCSXDIR
 10
1.0
 20
0.0
 30
0.0
  9
$PUCSYDIR
 10
0.0
 20
1.0
 30
0.0
  9
$PUCSORTHOREF
  2

  9
$PUCSORTHOVIEW
 70
     0
  9
$PUCSORGTOP
 10
0.0
 20
0.0
 30
0.0
  9
$PUCSORGBOTTOM
 10
0.0
 20
0.0
 30
0.0
  9
$PUCSORGLEFT
 10
0.0
 20
0.0
 30
0.0
  9
$PUCSORGRIGHT
 10
0.0
 20
0.0
 30
0.0
  9
$PUCSORGFRONT
 10
0.0
 20
0.0
 30
0.0
  9
$PUCSORGBACK
 10
0.0
 20
0.0
 30
0.0
  9
$USERI1
 70
     0
  9
$USERI2
 70
     0
  9
$USERI3
 70
     0
  9
$USERI4
 70
     0
  9
$USERI5
 70
     0
  9
$USERR1
 40
0.0
  9
$USERR2
 40
0.0
  9
$USERR3
 40
0.0
  9
$USERR4
 40
0.0
  9
$USERR5
 40
0.0
  9
$WORLDVIEW
 70
     1
  9
$SHADEDGE
 70
     3
  9
$SHADEDIF
 70
    70
  9
$TILEMODE
 70
     1
  9
$MAXACTVP
 70
    64
  9
$PINSBASE
 10
0.0
 20
0.0
 30
0.0
  9
$PLIMCHECK
 70
     0
  9
$PEXTMIN
 10
1.000000000000000E+20
 20
1.000000000000000E+20
 30
1.000000000000000E+20
  9
$PEXTMAX
 10
-1.000000000000000E+20
 20
-1.000000000000000E+20
 30
-1.000000000000000E+20
  9
$PLIMMIN
 10
0.0
 20
0.0
  9
$PLIMMAX
 10
420.0
 20
297.0
  9
$UNITMODE
 70
     0
  9
$VISRETAIN
 70
     1
  9
$PLINEGEN
 70
     0
  9
$PSLTSCALE
 70
     1
  9
$TREEDEPTH
 70
  3020
  9
$CMLSTYLE
  2
Standard
  9
$CMLJUST
 70
     0
  9
$CMLSCALE
 40
20.0
  9
$PROXYGRAPHICS
 70
     1
  9
$MEASUREMENT
 70
     1
  9
$CELWEIGHT
370
    -1
  9
$ENDCAPS
280
     0
  9
$JOINSTYLE
280
     0
  9
$LWDISPLAY
290
     0
  9
$INSUNITS
 70
     4
  9
$HYPERLINKBASE
  1

  9
$STYLESHEET
  1

  9
$XEDIT
290
     1
  9
$CEPSNTYPE
380
     0
  9
$PSTYLEMODE
290
     1
  9
$FINGERPRINTGUID
  2
{752F2E38-44E0-4FDD-838A-2C4C7627E646}
  9
$VERSIONGUID
  2
{C6DFC893-1774-482F-B59F-40FDA8910F9D}
  9
$EXTNAMES
290
     1
  9
$PSVPSCALE
 40
0.0
  9
$OLESTARTUP
290
     0
  0
ENDSEC
  0
SECTION
  2
CLASSES
  0
CLASS
  1
ACDBDICTIONARYWDFLT
  2
AcDbDictionaryWithDefault
  3
ObjectDBX Classes
 90
        0
280
     0
281
     0
  0
CLASS
  1
VISUALSTYLE
  2
AcDbVisualStyle
  3
ObjectDBX Classes
 90
     4095
280
     0
281
     0
  0
CLASS
  1
MATERIAL
  2
AcDbMaterial
  3
ObjectDBX Classes
 90
     1153
280
     0
281
     0
  0
CLASS
  1
SCALE
  2
AcDbScale
  3
ObjectDBX Classes
 90
     1153
280
     0
281
     0
  0
CLASS
  1
TABLESTYLE
  2
AcDbTableStyle
  3
ObjectDBX Classes
 90
     4095
280
     0
281
     0
  0
CLASS
  1
MLEADERSTYLE
  2
AcDbMLeaderStyle
  3
ACDB_MLEADERSTYLE_CLASS
 90
     4095
280
     0
281
     0
  0
CLASS
  1
SUN
  2
AcDbSun
  3
SCENEOE
 90
    33921
280
     0
281
     0
  0
CLASS
  1
DICTIONARYVAR
  2
AcDbDictionaryVar
  3
ObjectDBX Classes
 90
        0
280
     0
281
     0
  0
CLASS
  1
ACDBSECTIONVIEWSTYLE
  2
AcDbSectionViewStyle
  3
ObjectDBX Classes
 90
     1025
280
     0
281
     0
  0
CLASS
  1
ACDBDETAILVIEWSTYLE
  2
AcDbDetailViewStyle
  3
ObjectDBX Classes
 90
     1025
280
     0
281
     0
  0
CLASS
  1
SORTENTSTABLE
  2
AcDbSortentsTable
  3
ObjectDBX Classes
 90
        0
280
     0
281
     0
  0
CLASS
  1
CELLSTYLEMAP
  2
AcDbCellStyleMap
  3
ObjectDBX Classes
 90
     1152
280
     0
281
     0
  0
CLASS
  1
ACDBPLACEHOLDER
  2
AcDbPlaceHolder
  3
ObjectDBX Classes
 90
        0
280
     0
281
     0
  0
CLASS
  1
LAYOUT
  2
AcDbLayout
  3
ObjectDBX Classes
 90
        0
280
     0
281
     0
  0
ENDSEC
  0
SECTION
  2
TABLES
  0
TABLE
  2
VPORT
  5
8
330
0
100
AcDbSymbolTable
 70
     1
  0
VPORT
  5
29
330
8
100
AcDbSymbolTableRecord
100
AcDbViewportTableRecord
  2
*Active
 70
     0
 10
0.0
 20
0.0
 11
1.0
 21
1.0
 12
1271.556424006086
 22
336.6615012125376
 13
0.0
 23
0.0
 14
10.0
 24
10.0
 15
10.0
 25
10.0
 16
0.0
 26
0.0
 36
1.0
 17
0.0
 27
0.0
 37
0.0
 40
2083.642369936135
 41
2.204301075268817
 42
50.0
 43
0.0
 44
0.0
 50
0.0
 51
0.0
 71
     0
 72
 20000
 73
     1
 74
     3
 75
     0
 76
     0
 77
     0
 78
     0
281
     0
 65
     1
110
0.0
120
0.0
130
0.0
111
1.0
121
0.0
131
0.0
112
0.0
122
1.0
132
0.0
 79
     0
146
0.0
1001
ACAD_NAV_VCDISPLAY
1070
     3
  0
ENDTAB
  0
TABLE
  2
LTYPE
  5
5
330
0
100
AcDbSymbolTable
 70
     2
  0
LTYPE
  5
14
330
5
100
AcDbSymbolTableRecord
100
AcDbLinetypeTableRecord
  2
ByBlock
 70
     0
  3

 72
    65
 73
     0
 40
0.0
  0
LTYPE
  5
15
330
5
100
AcDbSymbolTableRecord
100
AcDbLinetypeTableRecord
  2
ByLayer
 70
     0
  3

 72
    65
 73
     0
 40
0.0
  0
LTYPE
  5
16
330
5
100
AcDbSymbolTableRecord
100
AcDbLinetypeTableRecord
  2
Continuous
 70
     0
  3
Solid line
 72
    65
 73
     0
 40
0.0
  0
LTYPE
  5
23E
330
5
100
AcDbSymbolTableRecord
100
AcDbLinetypeTableRecord
  2
CENTER2
 70
     0
  3
Center (.5x) ___ _ ___ _ ___ _ ___ _ ___ _ ___
 72
    65
 73
     4
 40
28.575
 49
19.05
 74
     0
 49
-3.174999999999998
 74
     0
 49
3.174999999999998
 74
     0
 49
-3.174999999999998
 74
     0
  0
ENDTAB
  0
TABLE
  2
LAYER
  5
2
102
{ACAD_XDICTIONARY
360
244
102
}
330
0
100
AcDbSymbolTable
 70
     4
  0
LAYER
  5
10
102
{ACAD_XDICTIONARY
360
742
102
}
330
2
100
AcDbSymbolTableRecord
100
AcDbLayerTableRecord
  2
0
 70
     0
 62
     7
  6
Continuous
370
    -3
390
F
  0
LAYER
  5
66
330
2
100
AcDbSymbolTableRecord
100
AcDbLayerTableRecord
  2
Defpoints
 70
     0
 62
     7
  6
Continuous
290
     0
370
    -3
390
F
  0
LAYER
  5
23F
102
{ACAD_XDICTIONARY
360
240
102
}
330
2
100
AcDbSymbolTableRecord
100
AcDbLayerTableRecord
  2
中心線
 70
     0
 62
     3
  6
CENTER2
370
    -3
390
F
  0
LAYER
  5
241
102
{ACAD_XDICTIONARY
360
242
102
}
330
2
100
AcDbSymbolTableRecord
100
AcDbLayerTableRecord
  2
実線
 70
     0
 62
     7
  6
Continuous
370
    -3
390
F
  0
ENDTAB
  0
TABLE
  2
STYLE
  5
3
330
0
100
AcDbSymbolTable
 70
     1
  0
STYLE
  5
11
330
3
100
AcDbSymbolTableRecord
100
AcDbTextStyleTableRecord
  2
Standard
 70
     0
 40
0.0
 41
1.0
 50
0.0
 71
     0
 42
2.5
  3
txt
  4
extfont2
  0
ENDTAB
  0
TABLE
  2
VIEW
  5
6
330
0
100
AcDbSymbolTable
 70
     0
  0
ENDTAB
  0
TABLE
  2
UCS
  5
7
330
0
100
AcDbSymbolTable
 70
     0
  0
ENDTAB
  0
TABLE
  2
APPID
  5
9
330
0
100
AcDbSymbolTable
 70
     5
  0
APPID
  5
12
330
9
100
AcDbSymbolTableRecord
100
AcDbRegAppTableRecord
  2
ACAD
 70
     0
  0
APPID
  5
22E
330
9
100
AcDbSymbolTableRecord
100
AcDbRegAppTableRecord
  2
ACAD_MLEADERVER
 70
     0
  0
APPID
  5
243
330
9
100
AcDbSymbolTableRecord
100
AcDbRegAppTableRecord
  2
ACAD_NAV_VCDISPLAY
 70
     0
  0
APPID
  5
729
330
9
100
AcDbSymbolTableRecord
100
AcDbRegAppTableRecord
  2
ACAD_EXEMPT_FROM_CAD_STANDARDS
 70
     0
  0
APPID
  5
791
330
9
100
AcDbSymbolTableRecord
100
AcDbRegAppTableRecord
  2
ACAD_DSTYLE_DIMRADIAL_EXTENSION
 70
     0
  0
ENDTAB
  0
TABLE
  2
DIMSTYLE
  5
A
330
0
100
AcDbSymbolTable
 70
     1
100
AcDbDimStyleTable
 71
     1
340
27
  0
DIMSTYLE
105
27
330
A
100
AcDbSymbolTableRecord
100
AcDbDimStyleTableRecord
  2
Standard
 70
     0
 41
2.5
 42
0.625
 43
3.75
 44
1.25
 73
     0
 74
     0
 77
     1
140
2.5
141
2.5
143
0.03937007874016
146
0.75
147
0.625
171
     3
172
     1
271
     2
272
     2
274
     3
283
     0
284
     8
340
11
  0
ENDTAB
  0
TABLE
  2
BLOCK_RECORD
  5
1
330
0
100
AcDbSymbolTable
 70
     1
  0
BLOCK_RECORD
  5
1F
102
{ACAD_XDICTIONARY
360
5E8
102
}
330
1
100
AcDbSymbolTableRecord
100
AcDbBlockTableRecord
  2
*Model_Space
340
22
  0
BLOCK_RECORD
  5
1B
330
1
100
AcDbSymbolTableRecord
100
AcDbBlockTableRecord
  2
*Paper_Space
340
1E
  0
BLOCK_RECORD
  5
23
330
1
100
AcDbSymbolTableRecord
100
AcDbBlockTableRecord
  2
*Paper_Space0
340
238
  0
ENDTAB
  0
ENDSEC
  0
SECTION
  2
BLOCKS
  0
BLOCK
  5
20
330
1F
100
AcDbEntity
  8
0
100
AcDbBlockBegin
  2
*Model_Space
 70
     0
 10
0.0
 20
0.0
 30
0.0
  3
*Model_Space
  1

  0
ENDBLK
  5
21
330
1F
100
AcDbEntity
  8
0
100
AcDbBlockEnd
  0
BLOCK
  5
1C
330
1B
100
AcDbEntity
 67
     1
  8
0
100
AcDbBlockBegin
  2
*Paper_Space
 70
     0
 10
0.0
 20
0.0
 30
0.0
  3
*Paper_Space
  1

  0
ENDBLK
  5
1D
330
1B
100
AcDbEntity
 67
     1
  8
0
100
AcDbBlockEnd
  0
BLOCK
  5
24
330
23
100
AcDbEntity
 67
     1
  8
0
100
AcDbBlockBegin
  2
*Paper_Space0
 70
     0
 10
0.0
 20
0.0
 30
0.0
  3
*Paper_Space0
  1

  0
ENDBLK
  5
25
330
23
100
AcDbEntity
 67
     1
  8
0
100
AcDbBlockEnd
  0
ENDSEC
  0
SECTION
  2
ENTITIES
  0
ELLIPSE
  5
5BC
102
{ACAD_REACTORS
330
740
102
}
330
1F
100
AcDbEntity
  8
実線
100
AcDbEllipse
 10
381.6890955210688
 20
1119.885484929854
 30
0.0
 11
0.0000000000000036
 21
38.75
 31
0.0
210
0.0
220
0.0
230
1.0
 40
0.7071067811865475
 41
1.570796326794897
 42
3.141592653589792
  0
LINE
  5
5BD
102
{ACAD_REACTORS
330
740
102
}
330
1F
100
AcDbEntity
  8
実線
100
AcDbLine
 10
381.6890955210688
 20
1081.135484929854
 30
0.0
 11
384.1639692552218
 21
1081.135484929854
 31
0.0
  0
LINE
  5
5BE
102
{ACAD_REACTORS
330
740
102
}
330
1F
100
AcDbEntity
  8
実線
100
AcDbLine
 10
384.1639692552218
 20
1158.635484929854
 30
0.0
 11
381.6890955210688
 21
1158.635484929854
 31
0.0
  0
ELLIPSE
  5
5BF
102
{ACAD_REACTORS
330
740
102
}
330
1F
100
AcDbEntity
  8
実線
100
AcDbEllipse
 10
381.6890955210688
 20
1119.885484929854
 30
0.0
 11
0.0000000000000036
 21
38.75
 31
0.0
210
0.0
220
0.0
230
1.0
 40
0.7071067811865475
 41
0.0
 42
1.570796326794897
  0
ELLIPSE
  5
5C0
102
{ACAD_REACTORS
330
740
102
}
330
1F
100
AcDbEntity
  8
実線
100
AcDbEllipse
 10
384.1639692552218
 20
1119.885484929854
 30
0.0
 11
0.0000000000000036
 21
38.75
 31
0.0
210
0.0
220
0.0
230
1.0
 40
0.7071067811865475
 41
5.672673719580195
 42
6.283185307179584
  0
ELLIPSE
  5
5C1
102
{ACAD_REACTORS
330
740
102
}
330
1F
100
AcDbEntity
  8
実線
100
AcDbEllipse
 10
384.1639692552218
 20
1119.885484929854
 30
0.0
 11
0.0000000000000036
 21
38.75
 31
0.0
210
0.0
220
0.0
230
1.0
 40
0.7071067811865475
 41
3.141592653589792
 42
3.752104241189181
  0
ELLIPSE
  5
5C2
102
{ACAD_REACTORS
330
740
102
}
330
1F
100
AcDbEntity
  8
実線
100
AcDbEllipse
 10
384.1639692552218
 20
1119.885484929854
 30
0.0
 11
0.0000000000000036
 21
38.75
 31
0.0
210
0.0
220
0.0
230
1.0
 40
0.7071067811865475
 41
0.0
 42
1.570796326794897
  0
ELLIPSE
  5
5C3
102
{ACAD_REACTORS
330
740
102
}
330
1F
100
AcDbEntity
  8
実線
100
AcDbEllipse
 10
384.1639692552218
 20
1119.885484929854
 30
0.0
 11
0.0000000000000036
 21
38.75
 31
0.0
210
0.0
220
0.0
230
1.0
 40
0.7071067811865475
 41
1.570796326794897
 42
3.141592653589792
  0
ELLIPSE
  5
5C4
102
{ACAD_REACTORS
330
740
102
}
330
1F
100
AcDbEntity
  8
実線
100
AcDbEllipse
 10
386.3560002769001
 20
1119.885484929854
 30
0.0
 11
0.0
 21
31.75
 31
0.0
210
0.0
220
0.0
230
1.0
 40
0.7071067811865475
 41
1.570796326794897
 42
3.141592653589792
  0
LINE
  5
5C5
102
{ACAD_REACTORS
330
740
102
}
330
1F
100
AcDbEntity
  8
実線
100
AcDbLine
 10
386.3560002769001
 20
1088.135484929854
 30
0.0
 11
396.1847845353933
 21
1088.135484929854
 31
0.0
  0
LINE
  5
5C6
102
{ACAD_REACTORS
330
740
102
}
330
1F
100
AcDbEntity
  8
実線
100
AcDbLine
 10
396.1847845353933
 20
1151.635484929854
 30
0.0
 11
386.3560002769001
 21
1151.635484929854
 31
0.0
  0
ELLIPSE
  5
5C7
102
{ACAD_REACTORS
330
740
102
}
330
1F
100
AcDbEntity
  8
実線
100
AcDbEllipse
 10
386.3560002769001
 20
1119.885484929854
 30
0.0
 11
0.0
 21
31.75
 31
0.0
210
0.0
220
0.0
230
1.0
 40
0.7071067811865475
 41
0.0
 42
1.570796326794897
  0
ELLIPSE
  5
5C8
102
{ACAD_REACTORS
330
740
102
}
330
1F
100
AcDbEntity
  8
実線
100
AcDbEllipse
 10
396.1847845353933
 20
1119.885484929854
 30
0.0
 11
0.0
 21
31.75
 31
0.0
210
0.0
220
0.0
230
1.0
 40
0.7071067811865475
 41
0.0
 42
1.570796326794897
  0
ELLIPSE
  5
5C9
102
{ACAD_REACTORS
330
740
102
}
330
1F
100
AcDbEntity
  8
実線
100
AcDbEllipse
 10
396.1847845353933
 20
1119.885484929854
 30
0.0
 11
0.0
 21
31.75
 31
0.0
210
0.0
220
0.0
230
1.0
 40
0.7071067811865475
 41
1.570796326794897
 42
3.141592653589792
  0
ELLIPSE
  5
5CA
102
{ACAD_REACTORS
330
740
102
}
330
1F
100
AcDbEntity
  8
実線
100
AcDbEllipse
 10
396.1847845353931
 20
1119.885484929854
 30
0.0
 11
0.0
 21
31.75
 31
0.0
210
0.0
220
0.0
230
1.0
 40
0.7071067811865475
 41
0.0
 42
3.141592653589792
  0
LINE
  5
5CB
102
{ACAD_REACTORS
330
740
102
}
330
1F
100
AcDbEntity
  8
実線
100
AcDbLine
 10
415.1263062098109
 20
1151.635484929854
 30
0.0
 11
396.1847845353931
 21
1151.635484929854
 31
0.0
  0
LINE
  5
5CC
102
{ACAD_REACTORS
330
740
102
}
330
1F
100
AcDbEntity
  8
実線
100
AcDbLine
 10
446.8396754641664
 20
1151.635484929854
 30
0.0
 11
431.1992897163559
 21
1151.635484929854
 31
0.0
  0
LINE
  5
5CD
102
{ACAD_REACTORS
330
740
102
}
330
1F
100
AcDbEntity
  8
実線
100
AcDbLine
 10
431.1992897163559
 20
1088.135484929854
 30
0.0
 11
446.8396754641664
 21
1088.135484929854
 31
0.0
  0
LINE
  5
5CE
102
{ACAD_REACTORS
330
740
102
}
330
1F
100
AcDbEntity
  8
実線
100
AcDbLine
 10
396.1847845353931
 20
1088.135484929854
 30
0.0
 11
415.1263062098109
 21
1088.135484929854
 31
0.0
  0
LINE
  5
5CF
102
{ACAD_REACTORS
330
740
102
}
330
1F
100
AcDbEntity
  8
中心線
100
AcDbLine
 10
633.0341844176313
 20
1174.567245328189
 30
0.0
 11
633.0341844176313
 21
1145.567245328188
 31
0.0
  0
LINE
  5
5D0
102
{ACAD_REACTORS
330
740
102
}
330
1F
100
AcDbEntity
  8
中心線
100
AcDbLine
 10
618.5341844176313
 20
1160.067245328189
 30
0.0
 11
647.5341844176313
 21
1160.067245328189
 31
0.0
  0
CIRCLE
  5
5D1
102
{ACAD_REACTORS
330
740
102
}
330
1F
100
AcDbEntity
  8
実線
100
AcDbCircle
 10
633.0341844176313
 20
1160.067245328189
 30
0.0
 40
11.5
  0
LINE
  5
5D2
102
{ACAD_REACTORS
330
740
102
}
330
1F
100
AcDbEntity
  8
中心線
100
AcDbLine
 10
633.0341844176313
 20
1094.203724531519
 30
0.0
 11
633.0341844176313
 21
1065.20372453152
 31
0.0
  0
LINE
  5
5D3
102
{ACAD_REACTORS
330
740
102
}
330
1F
100
AcDbEntity
  8
中心線
100
AcDbLine
 10
618.5341844176313
 20
1079.703724531519
 30
0.0
 11
647.5341844176312
 21
1079.703724531519
 31
0.0
  0
CIRCLE
  5
5D4
102
{ACAD_REACTORS
330
740
102
}
330
1F
100
AcDbEntity
  8
実線
100
AcDbCircle
 10
633.0341844176313
 20
1079.703724531519
 30
0.0
 40
11.5
  0
LINE
  5
5D5
102
{ACAD_REACTORS
330
740
102
}
330
1F
100
AcDbEntity
  8
中心線
100
AcDbLine
 10
576.2085939022806
 20
1037.378134016169
 30
0.0
 11
576.2085939022806
 21
1008.378134016169
 31
0.0
  0
LINE
  5
5D6
102
{ACAD_REACTORS
330
740
102
}
330
1F
100
AcDbEntity
  8
中心線
100
AcDbLine
 10
561.7085939022809
 20
1022.878134016169
 30
0.0
 11
590.7085939022809
 21
1022.878134016169
 31
0.0
  0
CIRCLE
  5
5D7
102
{ACAD_REACTORS
330
740
102
}
330
1F
100
AcDbEntity
  8
実線
100
AcDbCircle
 10
576.2085939022806
 20
1022.878134016169
 30
0.0
 40
11.5
  0
LINE
  5
5D8
102
{ACAD_REACTORS
330
740
102
}
330
1F
100
AcDbEntity
  8
中心線
100
AcDbLine
 10
495.8450731056118
 20
1037.378134016169
 30
0.0
 11
495.8450731056118
 21
1008.378134016169
 31
0.0
  0
LINE
  5
5D9
102
{ACAD_REACTORS
330
740
102
}
330
1F
100
AcDbEntity
  8
中心線
100
AcDbLine
 10
481.3450731056118
 20
1022.878134016169
 30
0.0
 11
510.3450731056118
 21
1022.878134016169
 31
0.0
  0
CIRCLE
  5
5DA
102
{ACAD_REACTORS
330
740
102
}
330
1F
100
AcDbEntity
  8
実線
100
AcDbCircle
 10
495.8450731056118
 20
1022.878134016169
 30
0.0
 40
11.5
  0
LINE
  5
5DB
102
{ACAD_REACTORS
330
740
102
}
330
1F
100
AcDbEntity
  8
中心線
100
AcDbLine
 10
439.0194825902613
 20
1094.203724531519
 30
0.0
 11
439.0194825902613
 21
1065.20372453152
 31
0.0
  0
LINE
  5
5DC
102
{ACAD_REACTORS
330
740
102
}
330
1F
100
AcDbEntity
  8
中心線
100
AcDbLine
 10
424.5194825902613
 20
1079.703724531519
 30
0.0
 11
453.5194825902613
 21
1079.703724531519
 31
0.0
  0
CIRCLE
  5
5DD
102
{ACAD_REACTORS
330
740
102
}
330
1F
100
AcDbEntity
  8
実線
100
AcDbCircle
 10
439.0194825902613
 20
1079.703724531519
 30
0.0
 40
11.5
  0
LINE
  5
5DE
102
{ACAD_REACTORS
330
740
102
}
330
1F
100
AcDbEntity
  8
中心線
100
AcDbLine
 10
439.019482590261
 20
1174.567245328189
 30
0.0
 11
439.019482590261
 21
1145.567245328188
 31
0.0
  0
LINE
  5
5DF
102
{ACAD_REACTORS
330
740
102
}
330
1F
100
AcDbEntity
  8
中心線
100
AcDbLine
 10
424.519482590261
 20
1160.067245328189
 30
0.0
 11
453.5194825902613
 21
1160.067245328189
 31
0.0
  0
CIRCLE
  5
5E0
102
{ACAD_REACTORS
330
740
102
}
330
1F
100
AcDbEntity
  8
実線
100
AcDbCircle
 10
439.019482590261
 20
1160.067245328189
 30
0.0
 40
11.5
  0
LINE
  5
5E1
102
{ACAD_REACTORS
330
740
102
}
330
1F
100
AcDbEntity
  8
中心線
100
AcDbLine
 10
495.8450731056118
 20
1231.392835843539
 30
0.0
 11
495.8450731056118
 21
1202.392835843539
 31
0.0
  0
LINE
  5
5E2
102
{ACAD_REACTORS
330
740
102
}
330
1F
100
AcDbEntity
  8
中心線
100
AcDbLine
 10
481.3450731056118
 20
1216.892835843539
 30
0.0
 11
510.3450731056118
 21
1216.892835843539
 31
0.0
  0
CIRCLE
  5
5E3
102
{ACAD_REACTORS
330
740
102
}
330
1F
100
AcDbEntity
  8
実線
100
AcDbCircle
 10
495.8450731056118
 20
1216.892835843539
 30
0.0
 40
11.5
  0
LINE
  5
5E4
102
{ACAD_REACTORS
330
740
102
}
330
1F
100
AcDbEntity
  8
中心線
100
AcDbLine
 10
576.2085939022806
 20
1231.392835843539
 30
0.0
 11
576.2085939022806
 21
1202.392835843539
 31
0.0
  0
LINE
  5
5E5
102
{ACAD_REACTORS
330
740
102
}
330
1F
100
AcDbEntity
  8
中心線
100
AcDbLine
 10
561.7085939022809
 20
1216.892835843539
 30
0.0
 11
590.7085939022809
 21
1216.892835843539
 31
0.0
  0
CIRCLE
  5
5E6
102
{ACAD_REACTORS
330
740
102
}
330
1F
100
AcDbEntity
  8
実線
100
AcDbCircle
 10
576.2085939022806
 20
1216.892835843539
 30
0.0
 40
11.5
  0
CIRCLE
  5
5E7
102
{ACAD_REACTORS
330
740
102
}
330
1F
100
AcDbEntity
  8
実線
100
AcDbCircle
 10
536.0268335039463
 20
1119.885484929854
 30
0.0
 40
125.0
  0
LINE
  5
5EA
102
{ACAD_REACTORS
330
741
102
}
330
1F
100
AcDbEntity
  8
実線
100
AcDbLine
 10
470.8487121747761
 20
191.6354849298538
 30
0.0
 11
468.0268335039463
 21
191.6354849298538
 31
0.0
  0
LINE
  5
5EB
102
{ACAD_REACTORS
330
741
102
}
330
1F
100
AcDbEntity
  8
実線
100
AcDbLine
 10
468.0268335039463
 20
128.1354849298538
 30
0.0
 11
470.8487121747763
 21
128.1354849298538
 31
0.0
  0
LINE
  5
5EC
102
{ACAD_REACTORS
330
741
102
}
330
1F
100
AcDbEntity
  8
実線
100
AcDbLine
 10
468.0268335039463
 20
191.6354849298538
 30
0.0
 11
468.0268335039463
 21
185.0300668512143
 31
0.0
  0
ELLIPSE
  5
5ED
102
{ACAD_REACTORS
330
741
102
}
330
1F
100
AcDbEntity
  8
実線
100
AcDbEllipse
 10
396.1847845353933
 20
159.8854849298538
 30
0.0
 11
0.0
 21
31.75
 31
0.0
210
0.0
220
0.0
230
1.0
 40
0.7071067811865475
 41
3.332183988541407
 42
6.092593972227969
  0
ELLIPSE
  5
5EE
102
{ACAD_REACTORS
330
741
102
}
330
1F
100
AcDbEntity
  8
実線
100
AcDbEllipse
 10
381.6890955210688
 20
159.8854849298538
 30
0.0
 11
0.0000000000000036
 21
38.75
 31
0.0
210
0.0
220
0.0
230
1.0
 40
0.7071067811865475
 41
0.0
 42
1.570796326794897
  0
LINE
  5
5EF
102
{ACAD_REACTORS
330
741
102
}
330
1F
100
AcDbEntity
  8
実線
100
AcDbLine
 10
381.6890955210688
 20
121.1354849298538
 30
0.0
 11
384.1639692552218
 21
121.1354849298538
 31
0.0
  0
LINE
  5
5F0
102
{ACAD_REACTORS
330
741
102
}
330
1F
100
AcDbEntity
  8
実線
100
AcDbLine
 10
384.1639692552218
 20
198.6354849298538
 30
0.0
 11
381.6890955210688
 21
198.6354849298538
 31
0.0
  0
ELLIPSE
  5
5F1
102
{ACAD_REACTORS
330
741
102
}
330
1F
100
AcDbEntity
  8
実線
100
AcDbEllipse
 10
381.6890955210688
 20
159.8854849298538
 30
0.0
 11
0.0000000000000036
 21
38.75
 31
0.0
210
0.0
220
0.0
230
1.0
 40
0.7071067811865475
 41
3.141592653589792
 42
6.283185307179584
  0
ELLIPSE
  5
5F2
102
{ACAD_REACTORS
330
741
102
}
330
1F
100
AcDbEntity
  8
実線
100
AcDbEllipse
 10
381.6890955210688
 20
159.8854849298538
 30
0.0
 11
0.0000000000000036
 21
38.75
 31
0.0
210
0.0
220
0.0
230
1.0
 40
0.7071067811865475
 41
1.570796326794897
 42
3.141592653589792
  0
ELLIPSE
  5
5F3
102
{ACAD_REACTORS
330
741
102
}
330
1F
100
AcDbEntity
  8
実線
100
AcDbEllipse
 10
384.1639692552218
 20
159.8854849298538
 30
0.0
 11
0.0000000000000036
 21
38.75
 31
0.0
210
0.0
220
0.0
230
1.0
 40
0.7071067811865475
 41
3.141592653589792
 42
6.283185307179584
  0
LINE
  5
5F4
102
{ACAD_REACTORS
330
741
102
}
330
1F
100
AcDbEntity
  8
実線
100
AcDbLine
 10
399.8722473276267
 20
128.1354849298538
 30
0.0
 11
468.0268335039463
 21
128.1354849298538
 31
0.0
  0
LINE
  5
5F5
102
{ACAD_REACTORS
330
741
102
}
330
1F
100
AcDbEntity
  8
実線
100
AcDbLine
 10
468.0268335039463
 20
191.6354849298538
 30
0.0
 11
399.8722473276267
 21
191.6354849298538
 31
0.0
  0
ELLIPSE
  5
5F6
102
{ACAD_REACTORS
330
741
102
}
330
1F
100
AcDbEntity
  8
実線
100
AcDbEllipse
 10
396.1847845353931
 20
159.8854849298538
 30
0.0
 11
0.0
 21
31.75
 31
0.0
210
0.0
220
0.0
230
1.0
 40
0.7071067811865475
 41
3.332183988541411
 42
6.092593972227968
  0
LINE
  5
5F7
102
{ACAD_REACTORS
330
741
102
}
330
1F
100
AcDbEntity
  8
実線
100
AcDbLine
 10
468.0268335039463
 20
134.7409030084937
 30
0.0
 11
468.0268335039463
 21
128.1354849298538
 31
0.0
  0
CIRCLE
  5
5F8
102
{ACAD_REACTORS
330
741
102
}
330
1F
100
AcDbEntity
  8
実線
100
AcDbCircle
 10
536.0268335039463
 20
159.885484929854
 30
0.0
 40
46.0
  0
CIRCLE
  5
5F9
102
{ACAD_REACTORS
330
741
102
}
330
1F
100
AcDbEntity
  8
実線
100
AcDbCircle
 10
536.0268335039463
 20
159.885484929854
 30
0.0
 40
8.0
  0
ARC
  5
5FA
102
{ACAD_REACTORS
330
741
102
}
330
1F
100
AcDbEntity
  8
実線
100
AcDbCircle
 10
586.806522681785
 20
111.7043354312993
 30
0.0
 40
9.999999999999996
100
AcDbArc
 50
316.5041419820545
 51
34.99999999999753
  0
ARC
  5
5FB
102
{ACAD_REACTORS
330
741
102
}
330
1F
100
AcDbEntity
  8
実線
100
AcDbCircle
 10
586.806522681785
 20
208.0666344284088
 30
0.0
 40
9.999999999999591
100
AcDbArc
 50
325.0000000000024
 51
43.49585801794543
  0
LINE
  5
5FC
102
{ACAD_REACTORS
330
741
102
}
330
1F
100
AcDbEntity
  8
実線
100
AcDbLine
 10
594.9980431246748
 20
202.3308700648985
 30
0.0
 11
594.9019127277072
 21
202.1935816300822
 31
0.0
  0
LINE
  5
5FD
102
{ACAD_REACTORS
330
741
102
}
330
1F
100
AcDbEntity
  8
実線
100
AcDbLine
 10
594.9019127277076
 20
117.5773882296262
 30
0.0
 11
594.998043124675
 21
117.4400997948098
 31
0.0
  0
LINE
  5
5FE
102
{ACAD_REACTORS
330
741
102
}
330
1F
100
AcDbEntity
  8
実線
100
AcDbLine
 10
493.5814483689024
 20
218.8566945505831
 30
0.0
 11
493.7187368037188
 21
218.7605641536156
 31
0.0
  0
LINE
  5
5FF
102
{ACAD_REACTORS
330
741
102
}
330
1F
100
AcDbEntity
  8
実線
100
AcDbLine
 10
578.3349302041741
 20
218.7605641536153
 30
0.0
 11
578.4722186389903
 21
218.8566945505828
 31
0.0
  0
ARC
  5
600
102
{ACAD_REACTORS
330
741
102
}
330
1F
100
AcDbEntity
  8
実線
100
AcDbCircle
 10
584.2079830025008
 20
210.6651741076928
 30
0.0
 40
9.999999999999982
100
AcDbArc
 50
46.50414198205514
 51
124.9999999999972
  0
ARC
  5
601
102
{ACAD_REACTORS
330
741
102
}
330
1F
100
AcDbEntity
  8
実線
100
AcDbCircle
 10
536.026833503946
 20
159.8854849298642
 30
0.0
 40
79.99999999999268
100
AcDbArc
 50
43.49585801793608
 51
46.50414198205514
  0
ARC
  5
602
102
{ACAD_REACTORS
330
741
102
}
330
1F
100
AcDbEntity
  8
実線
100
AcDbCircle
 10
485.2471443261073
 20
111.7043354312993
 30
0.0
 40
9.999999999999976
100
AcDbArc
 50
145.0000000000025
 51
223.4958580179454
  0
ARC
  5
603
102
{ACAD_REACTORS
330
741
102
}
330
1F
100
AcDbEntity
  8
実線
100
AcDbCircle
 10
487.8456840053915
 20
210.6651741076928
 30
0.0
 40
10.00000000000038
100
AcDbArc
 50
55.00000000000287
 51
133.4958580179449
  0
ARC
  5
604
102
{ACAD_REACTORS
330
741
102
}
330
1F
100
AcDbEntity
  8
実線
100
AcDbCircle
 10
536.0268335039469
 20
159.8854849298642
 30
0.0
 40
79.99999999999343
100
AcDbArc
 50
133.4958580179449
 51
136.5041419820639
  0
ARC
  5
605
102
{ACAD_REACTORS
330
741
102
}
330
1F
100
AcDbEntity
  8
実線
100
AcDbCircle
 10
485.2471443261073
 20
208.0666344284086
 30
0.0
 40
10.0
100
AcDbArc
 50
136.5041419820545
 51
214.9999999999975
  0
LINE
  5
606
102
{ACAD_REACTORS
330
741
102
}
330
1F
100
AcDbEntity
  8
実線
100
AcDbLine
 10
477.1517542801849
 20
202.1935816300818
 30
0.0
 11
477.0556238832175
 21
202.3308700648982
 31
0.0
  0
LINE
  5
607
102
{ACAD_REACTORS
330
741
102
}
330
1F
100
AcDbEntity
  8
実線
100
AcDbLine
 10
477.0556238832177
 20
117.4400997948098
 30
0.0
 11
477.1517542801849
 21
117.5773882296262
 31
0.0
  0
ARC
  5
608
102
{ACAD_REACTORS
330
741
102
}
330
1F
100
AcDbEntity
  8
実線
100
AcDbCircle
 10
536.0268335039463
 20
159.8854849298538
 30
0.0
 40
79.99999999999984
100
AcDbArc
 50
223.4958580179454
 51
226.5041419820551
  0
ARC
  5
609
102
{ACAD_REACTORS
330
741
102
}
330
1F
100
AcDbEntity
  8
実線
100
AcDbCircle
 10
487.8456840053915
 20
109.1057957520151
 30
0.0
 40
9.999999999999991
100
AcDbArc
 50
226.5041419820551
 51
304.9999999999972
  0
LINE
  5
60A
102
{ACAD_REACTORS
330
741
102
}
330
1F
100
AcDbEntity
  8
実線
100
AcDbLine
 10
493.7187368037185
 20
101.0104057060927
 30
0.0
 11
493.581448368902
 21
100.9142753091252
 31
0.0
  0
LINE
  5
60B
102
{ACAD_REACTORS
330
741
102
}
330
1F
100
AcDbEntity
  8
実線
100
AcDbLine
 10
578.4722186389903
 20
100.9142753091252
 30
0.0
 11
578.3349302041741
 21
101.0104057060927
 31
0.0
  0
ARC
  5
60C
102
{ACAD_REACTORS
330
741
102
}
330
1F
100
AcDbEntity
  8
実線
100
AcDbCircle
 10
584.2079830025012
 20
109.1057957520152
 30
0.0
 40
10.00000000000002
100
AcDbArc
 50
235.0000000000028
 51
313.4958580179449
  0
ARC
  5
60D
102
{ACAD_REACTORS
330
741
102
}
330
1F
100
AcDbEntity
  8
実線
100
AcDbCircle
 10
536.0268335039463
 20
159.8854849298538
 30
0.0
 40
79.9999999999998
100
AcDbArc
 50
313.4958580179449
 51
316.5041419820545
  0
CIRCLE
  5
60E
102
{ACAD_REACTORS
330
741
102
}
330
1F
100
AcDbEntity
  8
実線
100
AcDbCircle
 10
536.0268335039463
 20
159.885484929854
 30
0.0
 40
72.5
  0
LINE
  5
60F
102
{ACAD_REACTORS
330
741
102
}
330
1F
100
AcDbEntity
  8
中心線
100
AcDbLine
 10
633.0341844176313
 20
134.2037245315194
 30
0.0
 11
633.0341844176313
 21
105.2037245315194
 31
0.0
  0
LINE
  5
610
102
{ACAD_REACTORS
330
741
102
}
330
1F
100
AcDbEntity
  8
中心線
100
AcDbLine
 10
618.5341844176313
 20
119.7037245315194
 30
0.0
 11
647.5341844176313
 21
119.7037245315194
 31
0.0
  0
CIRCLE
  5
611
102
{ACAD_REACTORS
330
741
102
}
330
1F
100
AcDbEntity
  8
実線
100
AcDbCircle
 10
633.0341844176313
 20
119.7037245315194
 30
0.0
 40
11.5
  0
LINE
  5
612
102
{ACAD_REACTORS
330
741
102
}
330
1F
100
AcDbEntity
  8
中心線
100
AcDbLine
 10
633.0341844176313
 20
214.5672453281882
 30
0.0
 11
633.0341844176313
 21
185.5672453281882
 31
0.0
  0
LINE
  5
613
102
{ACAD_REACTORS
330
741
102
}
330
1F
100
AcDbEntity
  8
中心線
100
AcDbLine
 10
618.5341844176313
 20
200.0672453281882
 30
0.0
 11
647.5341844176312
 21
200.0672453281882
 31
0.0
  0
CIRCLE
  5
614
102
{ACAD_REACTORS
330
741
102
}
330
1F
100
AcDbEntity
  8
実線
100
AcDbCircle
 10
633.0341844176313
 20
200.0672453281882
 30
0.0
 40
11.5
  0
LINE
  5
615
102
{ACAD_REACTORS
330
741
102
}
330
1F
100
AcDbEntity
  8
中心線
100
AcDbLine
 10
576.2085939022806
 20
271.392835843539
 30
0.0
 11
576.2085939022806
 21
242.392835843539
 31
0.0
  0
LINE
  5
616
102
{ACAD_REACTORS
330
741
102
}
330
1F
100
AcDbEntity
  8
中心線
100
AcDbLine
 10
561.7085939022809
 20
256.892835843539
 30
0.0
 11
590.7085939022809
 21
256.892835843539
 31
0.0
  0
CIRCLE
  5
617
102
{ACAD_REACTORS
330
741
102
}
330
1F
100
AcDbEntity
  8
実線
100
AcDbCircle
 10
576.2085939022806
 20
256.892835843539
 30
0.0
 40
11.5
  0
LINE
  5
618
102
{ACAD_REACTORS
330
741
102
}
330
1F
100
AcDbEntity
  8
中心線
100
AcDbLine
 10
495.8450731056118
 20
271.392835843539
 30
0.0
 11
495.8450731056118
 21
242.392835843539
 31
0.0
  0
LINE
  5
619
102
{ACAD_REACTORS
330
741
102
}
330
1F
100
AcDbEntity
  8
中心線
100
AcDbLine
 10
481.3450731056118
 20
256.892835843539
 30
0.0
 11
510.3450731056118
 21
256.892835843539
 31
0.0
  0
CIRCLE
  5
61A
102
{ACAD_REACTORS
330
741
102
}
330
1F
100
AcDbEntity
  8
実線
100
AcDbCircle
 10
495.8450731056118
 20
256.892835843539
 30
0.0
 40
11.5
  0
LINE
  5
61B
102
{ACAD_REACTORS
330
741
102
}
330
1F
100
AcDbEntity
  8
中心線
100
AcDbLine
 10
439.0194825902613
 20
214.5672453281882
 30
0.0
 11
439.0194825902613
 21
185.5672453281882
 31
0.0
  0
LINE
  5
61C
102
{ACAD_REACTORS
330
741
102
}
330
1F
100
AcDbEntity
  8
中心線
100
AcDbLine
 10
424.5194825902613
 20
200.0672453281882
 30
0.0
 11
453.5194825902613
 21
200.0672453281882
 31
0.0
  0
ARC
  5
61D
102
{ACAD_REACTORS
330
741
102
}
330
1F
100
AcDbEntity
  8
実線
100
AcDbCircle
 10
439.0194825902613
 20
200.0672453281882
 30
0.0
 40
11.5
100
AcDbArc
 50
312.8449536528898
 51
227.1550463471103
  0
LINE
  5
61E
102
{ACAD_REACTORS
330
741
102
}
330
1F
100
AcDbEntity
  8
中心線
100
AcDbLine
 10
439.019482590261
 20
134.2037245315194
 30
0.0
 11
439.019482590261
 21
105.2037245315194
 31
0.0
  0
LINE
  5
61F
102
{ACAD_REACTORS
330
741
102
}
330
1F
100
AcDbEntity
  8
中心線
100
AcDbLine
 10
424.519482590261
 20
119.7037245315194
 30
0.0
 11
453.5194825902613
 21
119.7037245315194
 31
0.0
  0
ARC
  5
620
102
{ACAD_REACTORS
330
741
102
}
330
1F
100
AcDbEntity
  8
実線
100
AcDbCircle
 10
439.019482590261
 20
119.7037245315194
 30
0.0
 40
11.5
100
AcDbArc
 50
132.8449536528896
 51
47.15504634711031
  0
LINE
  5
621
102
{ACAD_REACTORS
330
741
102
}
330
1F
100
AcDbEntity
  8
中心線
100
AcDbLine
 10
495.8450731056118
 20
77.3781340161688
 30
0.0
 11
495.8450731056118
 21
48.37813401616881
 31
0.0
  0
LINE
  5
622
102
{ACAD_REACTORS
330
741
102
}
330
1F
100
AcDbEntity
  8
中心線
100
AcDbLine
 10
481.3450731056118
 20
62.87813401616881
 30
0.0
 11
510.3450731056118
 21
62.87813401616881
 31
0.0
  0
CIRCLE
  5
623
102
{ACAD_REACTORS
330
741
102
}
330
1F
100
AcDbEntity
  8
実線
100
AcDbCircle
 10
495.8450731056118
 20
62.87813401616881
 30
0.0
 40
11.5
  0
LINE
  5
624
102
{ACAD_REACTORS
330
741
102
}
330
1F
100
AcDbEntity
  8
中心線
100
AcDbLine
 10
576.2085939022806
 20
77.3781340161688
 30
0.0
 11
576.2085939022806
 21
48.37813401616881
 31
0.0
  0
LINE
  5
625
102
{ACAD_REACTORS
330
741
102
}
330
1F
100
AcDbEntity
  8
中心線
100
AcDbLine
 10
561.7085939022809
 20
62.87813401616881
 30
0.0
 11
590.7085939022809
 21
62.87813401616881
 31
0.0
  0
CIRCLE
  5
626
102
{ACAD_REACTORS
330
741
102
}
330
1F
100
AcDbEntity
  8
実線
100
AcDbCircle
 10
576.2085939022806
 20
62.87813401616881
 30
0.0
 40
11.5
  0
ARC
  5
627
102
{ACAD_REACTORS
330
741
102
}
330
1F
100
AcDbEntity
  8
実線
100
AcDbCircle
 10
536.0268335039463
 20
159.8854849298538
 30
0.0
 40
125.0
100
AcDbArc
 50
194.714338541818
 51
165.2856614581819
  0
LINE
  5
628
102
{ACAD_REACTORS
330
73C
102
}
330
1F
100
AcDbEntity
  8
実線
100
AcDbLine
 10
1316.806522681785
 20
716.435484929854
 30
0.0
 11
1324.026833503946
 21
716.435484929854
 31
0.0
  0
LINE
  5
629
102
{ACAD_REACTORS
330
73C
102
}
330
1F
100
AcDbEntity
  8
実線
100
AcDbLine
 10
1324.026833503946
 20
779.9354849298542
 30
0.0
 11
1305.886736818433
 21
779.9354849298542
 31
0.0
  0
LINE
  5
62A
102
{ACAD_REACTORS
330
73C
102
}
330
1F
100
AcDbEntity
  8
実線
100
AcDbLine
 10
1428.148307033665
 20
731.0493899425873
 30
0.0
 11
1418.319522775172
 21
740.8781742010803
 31
0.0
  0
LINE
  5
62B
102
{ACAD_REACTORS
330
73C
102
}
330
1F
100
AcDbEntity
  8
実線
100
AcDbLine
 10
1373.418242169827
 20
695.9768935957344
 30
0.0
 11
1383.247026428319
 21
686.1481093372415
 31
0.0
  0
LINE
  5
62C
102
{ACAD_REACTORS
330
73C
102
}
330
1F
100
AcDbEntity
  8
実線
100
AcDbLine
 10
1418.319522775172
 20
740.87817420108
 30
0.0
 11
1373.418242169827
 21
695.9768935957343
 31
0.0
  0
LINE
  5
62D
102
{ACAD_REACTORS
330
73C
102
}
330
1F
100
AcDbEntity
  8
実線
100
AcDbLine
 10
1383.247026428319
 20
686.1481093372415
 30
0.0
 11
1380.489309981692
 21
679.0063308472573
 31
0.0
  0
LINE
  5
62E
102
{ACAD_REACTORS
330
73C
102
}
330
1F
100
AcDbEntity
  8
実線
100
AcDbLine
 10
1435.290085523649
 20
733.8071063892148
 30
0.0
 11
1428.148307033665
 21
731.0493899425873
 31
0.0
  0
LINE
  5
62F
102
{ACAD_REACTORS
330
73C
102
}
330
1F
100
AcDbEntity
  8
実線
100
AcDbLine
 10
1383.247026428319
 20
686.1481093372415
 30
0.0
 11
1428.148307033665
 21
731.0493899425873
 31
0.0
  0
LINE
  5
630
102
{ACAD_REACTORS
330
73C
102
}
330
1F
100
AcDbEntity
  8
実線
100
AcDbLine
 10
1437.764959257802
 20
731.3322326550618
 30
0.0
 11
1435.290085523649
 21
733.8071063892148
 31
0.0
  0
LINE
  5
631
102
{ACAD_REACTORS
330
73C
102
}
330
1F
100
AcDbEntity
  8
実線
100
AcDbLine
 10
1380.489309981692
 20
679.0063308472573
 30
0.0
 11
1382.964183715845
 21
676.5314571131042
 31
0.0
  0
LINE
  5
632
102
{ACAD_REACTORS
330
73C
102
}
330
1F
100
AcDbEntity
  8
実線
100
AcDbLine
 10
1437.764959257802
 20
731.3322326550618
 30
0.0
 11
1382.964183715845
 21
676.5314571131045
 31
0.0
  0
LINE
  5
633
102
{ACAD_REACTORS
330
73C
102
}
330
1F
100
AcDbEntity
  8
実線
100
AcDbLine
 10
1435.290085523649
 20
733.8071063892148
 30
0.0
 11
1380.489309981692
 21
679.0063308472573
 31
0.0
  0
LINE
  5
634
102
{ACAD_REACTORS
330
73C
102
}
330
1F
100
AcDbEntity
  8
実線
100
AcDbLine
 10
1305.026833503946
 20
790.8854849298539
 30
0.0
 11
1305.026833503946
 21
799.8854849298539
 31
0.0
  0
LINE
  5
635
102
{ACAD_REACTORS
330
73C
102
}
330
1F
100
AcDbEntity
  8
実線
100
AcDbLine
 10
1207.026833503946
 20
799.8854849298539
 30
0.0
 11
1207.026833503946
 21
790.8854849298539
 31
0.0
  0
LINE
  5
636
102
{ACAD_REACTORS
330
73C
102
}
330
1F
100
AcDbEntity
  8
実線
100
AcDbLine
 10
1214.026833503946
 20
784.185484929854
 30
0.0
 11
1298.026833503946
 21
784.185484929854
 31
0.0
  0
LINE
  5
637
102
{ACAD_REACTORS
330
73C
102
}
330
1F
100
AcDbEntity
  8
実線
100
AcDbLine
 10
1207.026833503946
 20
790.8854849298539
 30
0.0
 11
1305.026833503946
 21
790.8854849298539
 31
0.0
  0
LINE
  5
638
102
{ACAD_REACTORS
330
73C
102
}
330
1F
100
AcDbEntity
  8
実線
100
AcDbLine
 10
1298.026833503946
 20
784.185484929854
 30
0.0
 11
1305.026833503946
 21
790.8854849298539
 31
0.0
  0
LINE
  5
639
102
{ACAD_REACTORS
330
73C
102
}
330
1F
100
AcDbEntity
  8
実線
100
AcDbLine
 10
1207.026833503946
 20
790.8854849298539
 30
0.0
 11
1214.026833503946
 21
784.185484929854
 31
0.0
  0
LINE
  5
63A
102
{ACAD_REACTORS
330
73C
102
}
330
1F
100
AcDbEntity
  8
実線
100
AcDbLine
 10
1324.026833503946
 20
779.935484929854
 30
0.0
 11
1324.026833503946
 21
716.435484929854
 31
0.0
  0
ARC
  5
63B
102
{ACAD_REACTORS
330
73C
102
}
330
1F
100
AcDbEntity
  8
実線
100
AcDbCircle
 10
1324.026833503946
 20
646.585484929854
 30
0.0
 40
133.35
100
AcDbArc
 50
44.99999999999964
 51
90.0
  0
ARC
  5
63C
102
{ACAD_REACTORS
330
73C
102
}
330
1F
100
AcDbEntity
  8
実線
100
AcDbCircle
 10
1324.026833503946
 20
646.585484929854
 30
0.0
 40
69.84999999999999
100
AcDbArc
 50
44.99999999999964
 51
90.0
  0
LINE
  5
63D
102
{ACAD_REACTORS
330
73C
102
}
330
1F
100
AcDbEntity
  8
実線
100
AcDbLine
 10
1210.026833503946
 20
483.185484929854
 30
0.0
 11
1210.026833503946
 21
473.1854849298541
 31
0.0
  0
LINE
  5
63E
102
{ACAD_REACTORS
330
73C
102
}
330
1F
100
AcDbEntity
  8
実線
100
AcDbLine
 10
1302.026833503946
 20
473.1854849298541
 30
0.0
 11
1302.026833503946
 21
483.185484929854
 31
0.0
  0
LINE
  5
63F
102
{ACAD_REACTORS
330
73C
102
}
330
1F
100
AcDbEntity
  8
実線
100
AcDbLine
 10
1210.026833503946
 20
473.1854849298541
 30
0.0
 11
1302.026833503946
 21
473.1854849298541
 31
0.0
  0
LINE
  5
640
102
{ACAD_REACTORS
330
73C
102
}
330
1F
100
AcDbEntity
  8
実線
100
AcDbLine
 10
1248.026833503946
 20
473.1854849298541
 30
0.0
 11
1248.026833503946
 21
435.6854849298541
 31
0.0
  0
LINE
  5
641
102
{ACAD_REACTORS
330
73C
102
}
330
1F
100
AcDbEntity
  8
実線
100
AcDbLine
 10
1264.026833503946
 20
435.6854849298541
 30
0.0
 11
1264.026833503946
 21
473.1854849298541
 31
0.0
  0
LINE
  5
642
102
{ACAD_REACTORS
330
73C
102
}
330
1F
100
AcDbEntity
  8
実線
100
AcDbLine
 10
1248.026833503946
 20
435.6854849298541
 30
0.0
 11
1264.026833503946
 21
435.6854849298541
 31
0.0
  0
LINE
  5
643
102
{ACAD_REACTORS
330
73C
102
}
330
1F
100
AcDbEntity
  8
実線
100
AcDbLine
 10
1248.026833503946
 20
694.141388381256
 30
0.0
 11
1248.026833503946
 21
656.1854849298542
 31
0.0
  0
LINE
  5
644
102
{ACAD_REACTORS
330
73C
102
}
330
1F
100
AcDbEntity
  8
実線
100
AcDbLine
 10
1264.026833503946
 20
656.1854849298542
 30
0.0
 11
1264.026833503946
 21
694.1413883812558
 31
0.0
  0
LINE
  5
645
102
{ACAD_REACTORS
330
73C
102
}
330
1F
100
AcDbEntity
  8
実線
100
AcDbLine
 10
1188.526833503946
 20
591.1854849298539
 30
0.0
 11
1323.526833503946
 21
591.1854849298539
 31
0.0
  0
LINE
  5
646
102
{ACAD_REACTORS
330
73C
102
}
330
1F
100
AcDbEntity
  8
実線
100
AcDbLine
 10
1188.526833503946
 20
591.1854849298539
 30
0.0
 11
1188.526833503946
 21
589.185484929854
 31
0.0
  0
LINE
  5
647
102
{ACAD_REACTORS
330
73C
102
}
330
1F
100
AcDbEntity
  8
実線
100
AcDbLine
 10
1323.526833503946
 20
589.185484929854
 30
0.0
 11
1323.526833503946
 21
591.1854849298539
 31
0.0
  0
LINE
  5
648
102
{ACAD_REACTORS
330
73C
102
}
330
1F
100
AcDbEntity
  8
実線
100
AcDbLine
 10
1183.526833503946
 20
589.185484929854
 30
0.0
 11
1328.526833503946
 21
589.185484929854
 31
0.0
  0
LINE
  5
649
102
{ACAD_REACTORS
330
73C
102
}
330
1F
100
AcDbEntity
  8
実線
100
AcDbLine
 10
1183.526833503946
 20
589.185484929854
 30
0.0
 11
1183.526833503946
 21
488.1854849298541
 31
0.0
  0
LINE
  5
64A
102
{ACAD_REACTORS
330
73C
102
}
330
1F
100
AcDbEntity
  8
実線
100
AcDbLine
 10
1328.526833503946
 20
488.1854849298541
 30
0.0
 11
1328.526833503946
 21
589.185484929854
 31
0.0
  0
LINE
  5
64B
102
{ACAD_REACTORS
330
73C
102
}
330
1F
100
AcDbEntity
  8
実線
100
AcDbLine
 10
1183.526833503946
 20
488.1854849298541
 30
0.0
 11
1328.526833503946
 21
488.1854849298541
 31
0.0
  0
LINE
  5
64C
102
{ACAD_REACTORS
330
73C
102
}
330
1F
100
AcDbEntity
  8
実線
100
AcDbLine
 10
1316.806522681785
 20
707.6854849298542
 30
0.0
 11
1195.247144326107
 21
707.6854849298542
 31
0.0
  0
LINE
  5
64D
102
{ACAD_REACTORS
330
73C
102
}
330
1F
100
AcDbEntity
  8
実線
100
AcDbLine
 10
1316.806522681785
 20
694.1854849298542
 30
0.0
 11
1195.247144326107
 21
694.1854849298542
 31
0.0
  0
LINE
  5
64E
102
{ACAD_REACTORS
330
73C
102
}
330
1F
100
AcDbEntity
  8
実線
100
AcDbLine
 10
1195.247144326107
 20
707.6854849298542
 30
0.0
 11
1195.247144326107
 21
694.1854849298542
 31
0.0
  0
LINE
  5
64F
102
{ACAD_REACTORS
330
73C
102
}
330
1F
100
AcDbEntity
  8
実線
100
AcDbLine
 10
1316.806522681785
 20
694.1854849298542
 30
0.0
 11
1316.806522681785
 21
707.6854849298542
 31
0.0
  0
LINE
  5
650
102
{ACAD_REACTORS
330
73C
102
}
330
1F
100
AcDbEntity
  8
実線
100
AcDbLine
 10
1229.216861354005
 20
707.6854849298542
 30
0.0
 11
1229.216861354005
 21
694.1854849298542
 31
0.0
  0
LINE
  5
651
102
{ACAD_REACTORS
330
73C
102
}
330
1F
100
AcDbEntity
  8
実線
100
AcDbLine
 10
1282.836805653887
 20
707.6854849298542
 30
0.0
 11
1282.836805653887
 21
694.1854849298542
 31
0.0
  0
ARC
  5
652
102
{ACAD_REACTORS
330
73C
102
}
330
1F
100
AcDbEntity
  8
実線
100
AcDbCircle
 10
1295.026833503946
 20
768.185484929854
 30
0.0
 40
16.0
100
AcDbArc
 50
47.25443077534207
 51
90.0
  0
ARC
  5
653
102
{ACAD_REACTORS
330
73C
102
}
330
1F
100
AcDbEntity
  8
実線
100
AcDbCircle
 10
1217.026833503946
 20
768.185484929854
 30
0.0
 40
16.0
100
AcDbArc
 50
90.0
 51
180.0
  0
LINE
  5
654
102
{ACAD_REACTORS
330
73C
102
}
330
1F
100
AcDbEntity
  8
実線
100
AcDbLine
 10
1201.026833503946
 20
768.185484929854
 30
0.0
 11
1201.026833503946
 21
722.685484929854
 31
0.0
  0
LINE
  5
655
102
{ACAD_REACTORS
330
73C
102
}
330
1F
100
AcDbEntity
  8
実線
100
AcDbLine
 10
1316.806522681785
 20
722.6854849298542
 30
0.0
 11
1282.836805653887
 21
722.6854849298542
 31
0.0
  0
LINE
  5
656
102
{ACAD_REACTORS
330
73C
102
}
330
1F
100
AcDbEntity
  8
実線
100
AcDbLine
 10
1316.806522681785
 20
707.685484929854
 30
0.0
 11
1316.806522681785
 21
722.685484929854
 31
0.0
  0
LINE
  5
657
102
{ACAD_REACTORS
330
73C
102
}
330
1F
100
AcDbEntity
  8
実線
100
AcDbLine
 10
1195.247144326107
 20
722.6854849298542
 30
0.0
 11
1195.247144326107
 21
707.6854849298542
 31
0.0
  0
LINE
  5
658
102
{ACAD_REACTORS
330
73C
102
}
330
1F
100
AcDbEntity
  8
実線
100
AcDbLine
 10
1195.247144326107
 20
722.6854849298542
 30
0.0
 11
1229.216861354005
 21
722.6854849298542
 31
0.0
  0
LINE
  5
659
102
{ACAD_REACTORS
330
73C
102
}
330
1F
100
AcDbEntity
  8
実線
100
AcDbLine
 10
1282.836805653887
 20
722.6854849298542
 30
0.0
 11
1282.836805653887
 21
707.6854849298542
 31
0.0
  0
LINE
  5
65A
102
{ACAD_REACTORS
330
73C
102
}
330
1F
100
AcDbEntity
  8
実線
100
AcDbLine
 10
1229.216861354005
 20
722.6854849298542
 30
0.0
 11
1229.216861354005
 21
707.6854849298542
 31
0.0
  0
LINE
  5
65B
102
{ACAD_REACTORS
330
73C
102
}
330
1F
100
AcDbEntity
  8
実線
100
AcDbLine
 10
1325.526833503946
 20
483.185484929854
 30
0.0
 11
1186.526833504718
 21
483.185484929854
 31
0.0
  0
ARC
  5
65C
102
{ACAD_REACTORS
330
73C
102
}
330
1F
100
AcDbEntity
  8
実線
100
AcDbCircle
 10
1186.526833503946
 20
486.185484929854
 30
0.0
 40
3.0
100
AcDbArc
 50
180.0
 51
270.0
  0
ARC
  5
65D
102
{ACAD_REACTORS
330
73C
102
}
330
1F
100
AcDbEntity
  8
実線
100
AcDbCircle
 10
1325.526833503946
 20
486.185484929854
 30
0.0
 40
3.0
100
AcDbArc
 50
270.0
 51
0.0
  0
LINE
  5
65E
102
{ACAD_REACTORS
330
73C
102
}
330
1F
100
AcDbEntity
  8
実線
100
AcDbLine
 10
1183.526833503946
 20
488.185484929854
 30
0.0
 11
1183.526833503946
 21
486.185484929854
 31
0.0
  0
LINE
  5
65F
102
{ACAD_REACTORS
330
73C
102
}
330
1F
100
AcDbEntity
  8
実線
100
AcDbLine
 10
1328.526833503946
 20
486.185484929854
 30
0.0
 11
1328.526833503946
 21
488.185484929854
 31
0.0
  0
LINE
  5
660
102
{ACAD_REACTORS
330
73C
102
}
330
1F
100
AcDbEntity
  8
実線
100
AcDbLine
 10
1381.026833503946
 20
799.8854849298539
 30
0.0
 11
1131.026833503946
 21
799.8854849298539
 31
0.0
  0
LINE
  5
661
102
{ACAD_REACTORS
330
73C
102
}
330
1F
100
AcDbEntity
  8
実線
100
AcDbLine
 10
1381.026833503946
 20
799.8854849298539
 30
0.0
 11
1381.026833503946
 21
819.8854849298541
 31
0.0
  0
LINE
  5
662
102
{ACAD_REACTORS
330
73C
102
}
330
1F
100
AcDbEntity
  8
実線
100
AcDbLine
 10
1131.026833503946
 20
819.8854849298541
 30
0.0
 11
1131.026833503946
 21
799.8854849298539
 31
0.0
  0
LINE
  5
663
102
{ACAD_REACTORS
330
73C
102
}
330
1F
100
AcDbEntity
  8
実線
100
AcDbLine
 10
1381.026833503946
 20
819.8854849298541
 30
0.0
 11
1131.026833503946
 21
819.8854849298541
 31
0.0
  0
ARC
  5
664
102
{ACAD_REACTORS
330
73C
102
}
330
1F
100
AcDbEntity
  8
実線
100
AcDbCircle
 10
1251.326833503946
 20
642.685484929854
 30
0.0
 40
53.0
100
AcDbArc
 50
14.75681560633043
 51
76.33609100305424
  0
LINE
  5
665
102
{ACAD_REACTORS
330
73C
102
}
330
1F
100
AcDbEntity
  8
実線
100
AcDbLine
 10
1318.326833503946
 20
591.1854849298539
 30
0.0
 11
1318.326833503946
 21
642.685484929854
 31
0.0
  0
ARC
  5
666
102
{ACAD_REACTORS
330
73C
102
}
330
1F
100
AcDbEntity
  8
実線
100
AcDbCircle
 10
1251.326833503946
 20
642.6854849298542
 30
0.0
 40
66.99999999999993
100
AcDbArc
 50
0.0
 51
50.23341593083646
  0
ARC
  5
667
102
{ACAD_REACTORS
330
73C
102
}
330
1F
100
AcDbEntity
  8
実線
100
AcDbCircle
 10
1260.726833503946
 20
642.685484929854
 30
0.0
 40
53.0
100
AcDbArc
 50
103.6639089969457
 51
165.2431843936695
  0
ARC
  5
668
102
{ACAD_REACTORS
330
73C
102
}
330
1F
100
AcDbEntity
  8
実線
100
AcDbCircle
 10
1260.726833503946
 20
642.6854849298542
 30
0.0
 40
66.99999999999993
100
AcDbArc
 50
129.7665840691636
 51
180.0
  0
LINE
  5
669
102
{ACAD_REACTORS
330
73C
102
}
330
1F
100
AcDbEntity
  8
実線
100
AcDbLine
 10
1193.726833503946
 20
591.1854849298539
 30
0.0
 11
1193.726833503946
 21
642.685484929854
 31
0.0
  0
LINE
  5
66A
102
{ACAD_REACTORS
330
73C
102
}
330
1F
100
AcDbEntity
  8
実線
100
AcDbLine
 10
1304.169849612204
 20
656.1854849298542
 30
0.0
 11
1207.883817395688
 21
656.1854849298542
 31
0.0
  0
LINE
  5
66B
102
{ACAD_REACTORS
330
73C
102
}
330
1F
100
AcDbEntity
  8
実線
100
AcDbLine
 10
1304.169849612204
 20
656.1854849298542
 30
0.0
 11
1304.169849612204
 21
591.1854849298539
 31
0.0
  0
LINE
  5
66C
102
{ACAD_REACTORS
330
73C
102
}
330
1F
100
AcDbEntity
  8
実線
100
AcDbLine
 10
1207.883817395688
 20
591.1854849298542
 30
0.0
 11
1207.883817395688
 21
656.1854849298542
 31
0.0
  0
ELLIPSE
  5
66D
102
{ACAD_REACTORS
330
73D
102
}
330
1F
100
AcDbEntity
  8
実線
100
AcDbEllipse
 10
896.0268335039465
 20
703.9318448840831
 30
0.0
 11
38.75
 21
0.0
 31
0.0
210
0.0
220
0.0
230
1.0
 40
0.7071067811865476
 41
5.068238828558799
 42
5.919520722159436
  0
ELLIPSE
  5
66E
102
{ACAD_REACTORS
330
73D
102
}
330
1F
100
AcDbEntity
  8
実線
100
AcDbEllipse
 10
896.0268335039465
 20
703.9318448840831
 30
0.0
 11
38.75
 21
0.0
 31
0.0
210
0.0
220
0.0
230
1.0
 40
0.7071067811865476
 41
3.505257238609943
 42
4.356539132210568
  0
ELLIPSE
  5
66F
102
{ACAD_REACTORS
330
73D
102
}
330
1F
100
AcDbEntity
  8
実線
100
AcDbEllipse
 10
896.0268335039465
 20
706.4067186182358
 30
0.0
 11
38.75
 21
0.0
 31
0.0
210
0.0
220
0.0
230
1.0
 40
0.7071067811865476
 41
5.068238828558799
 42
5.820867137073771
  0
ELLIPSE
  5
670
102
{ACAD_REACTORS
330
73D
102
}
330
1F
100
AcDbEntity
  8
実線
100
AcDbEllipse
 10
896.0268335039465
 20
706.4067186182358
 30
0.0
 11
38.75
 21
0.0
 31
0.0
210
0.0
220
0.0
230
1.0
 40
0.7071067811865476
 41
3.603910823695607
 42
4.356539132210568
  0
ELLIPSE
  5
671
102
{ACAD_REACTORS
330
73D
102
}
330
1F
100
AcDbEntity
  8
実線
100
AcDbEllipse
 10
896.0268335039465
 20
708.5987496399143
 30
0.0
 11
31.75
 21
0.0
 31
0.0
210
0.0
220
0.0
230
1.0
 40
0.7071067811865476
 41
5.151568344885538
 42
5.58608400842248
  0
ELLIPSE
  5
672
102
{ACAD_REACTORS
330
73D
102
}
330
1F
100
AcDbEntity
  8
実線
100
AcDbEllipse
 10
896.0268335039465
 20
708.5987496399143
 30
0.0
 11
31.75
 21
0.0
 31
0.0
210
0.0
220
0.0
230
1.0
 40
0.7071067811865476
 41
3.838693952346897
 42
4.273209615883825
  0
LINE
  5
673
102
{ACAD_REACTORS
330
73D
102
}
330
1F
100
AcDbEntity
  8
実線
100
AcDbLine
 10
945.0268335039465
 20
790.8854849298539
 30
0.0
 11
945.0268335039465
 21
799.8854849298539
 31
0.0
  0
LINE
  5
674
102
{ACAD_REACTORS
330
73D
102
}
330
1F
100
AcDbEntity
  8
実線
100
AcDbLine
 10
847.0268335039465
 20
799.8854849298539
 30
0.0
 11
847.0268335039465
 21
790.8854849298539
 31
0.0
  0
LINE
  5
675
102
{ACAD_REACTORS
330
73D
102
}
330
1F
100
AcDbEntity
  8
実線
100
AcDbLine
 10
938.0268335039465
 20
784.185484929854
 30
0.0
 11
854.0268335039465
 21
784.185484929854
 31
0.0
  0
LINE
  5
676
102
{ACAD_REACTORS
330
73D
102
}
330
1F
100
AcDbEntity
  8
実線
100
AcDbLine
 10
945.0268335039465
 20
790.8854849298539
 30
0.0
 11
847.0268335039465
 21
790.8854849298539
 31
0.0
  0
LINE
  5
677
102
{ACAD_REACTORS
330
73D
102
}
330
1F
100
AcDbEntity
  8
実線
100
AcDbLine
 10
938.0268335039465
 20
784.185484929854
 30
0.0
 11
945.0268335039465
 21
790.8854849298539
 31
0.0
  0
LINE
  5
678
102
{ACAD_REACTORS
330
73D
102
}
330
1F
100
AcDbEntity
  8
実線
100
AcDbLine
 10
847.0268335039465
 20
790.8854849298539
 30
0.0
 11
854.0268335039465
 21
784.185484929854
 31
0.0
  0
LINE
  5
679
102
{ACAD_REACTORS
330
73D
102
}
330
1F
100
AcDbEntity
  8
実線
100
AcDbLine
 10
850.0268335039466
 20
473.1854849298541
 30
0.0
 11
942.0268335039454
 21
473.1854849298541
 31
0.0
  0
LINE
  5
67A
102
{ACAD_REACTORS
330
73D
102
}
330
1F
100
AcDbEntity
  8
実線
100
AcDbLine
 10
850.0268335039466
 20
483.185484929854
 30
0.0
 11
850.0268335039466
 21
473.1854849298541
 31
0.0
  0
LINE
  5
67B
102
{ACAD_REACTORS
330
73D
102
}
330
1F
100
AcDbEntity
  8
実線
100
AcDbLine
 10
942.0268335039454
 20
473.1854849298541
 30
0.0
 11
942.0268335039454
 21
483.185484929854
 31
0.0
  0
LINE
  5
67C
102
{ACAD_REACTORS
330
73D
102
}
330
1F
100
AcDbEntity
  8
実線
100
AcDbLine
 10
888.0268335039454
 20
435.6854849298541
 30
0.0
 11
904.0268335039455
 21
435.6854849298541
 31
0.0
  0
LINE
  5
67D
102
{ACAD_REACTORS
330
73D
102
}
330
1F
100
AcDbEntity
  8
実線
100
AcDbLine
 10
888.0268335039454
 20
473.1854849298541
 30
0.0
 11
888.0268335039454
 21
435.6854849298541
 31
0.0
  0
LINE
  5
67E
102
{ACAD_REACTORS
330
73D
102
}
330
1F
100
AcDbEntity
  8
実線
100
AcDbLine
 10
904.0268335039465
 20
435.6854849298541
 30
0.0
 11
904.0268335039465
 21
473.1854849298541
 31
0.0
  0
LINE
  5
67F
102
{ACAD_REACTORS
330
73D
102
}
330
1F
100
AcDbEntity
  8
実線
100
AcDbLine
 10
963.5268335039453
 20
591.1854849298539
 30
0.0
 11
828.5268335039454
 21
591.1854849298539
 31
0.0
  0
LINE
  5
680
102
{ACAD_REACTORS
330
73D
102
}
330
1F
100
AcDbEntity
  8
実線
100
AcDbLine
 10
828.5268335039454
 20
591.1854849298539
 30
0.0
 11
828.5268335039454
 21
589.185484929854
 31
0.0
  0
LINE
  5
681
102
{ACAD_REACTORS
330
73D
102
}
330
1F
100
AcDbEntity
  8
実線
100
AcDbLine
 10
963.5268335039453
 20
589.185484929854
 30
0.0
 11
963.5268335039453
 21
591.1854849298539
 31
0.0
  0
LINE
  5
682
102
{ACAD_REACTORS
330
73D
102
}
330
1F
100
AcDbEntity
  8
実線
100
AcDbLine
 10
968.5268335039465
 20
589.185484929854
 30
0.0
 11
823.5268335039455
 21
589.185484929854
 31
0.0
  0
LINE
  5
683
102
{ACAD_REACTORS
330
73D
102
}
330
1F
100
AcDbEntity
  8
実線
100
AcDbLine
 10
823.5268335039455
 20
488.1854849298541
 30
0.0
 11
968.5268335039465
 21
488.1854849298541
 31
0.0
  0
LINE
  5
684
102
{ACAD_REACTORS
330
73D
102
}
330
1F
100
AcDbEntity
  8
実線
100
AcDbLine
 10
823.5268335039455
 20
589.185484929854
 30
0.0
 11
823.5268335039455
 21
488.1854849298541
 31
0.0
  0
LINE
  5
685
102
{ACAD_REACTORS
330
73D
102
}
330
1F
100
AcDbEntity
  8
実線
100
AcDbLine
 10
968.5268335039465
 20
488.1854849298541
 30
0.0
 11
968.5268335039465
 21
589.185484929854
 31
0.0
  0
LINE
  5
686
102
{ACAD_REACTORS
330
73D
102
}
330
1F
100
AcDbEntity
  8
実線
100
AcDbLine
 10
956.8065226817843
 20
694.1854849298542
 30
0.0
 11
835.2471443261075
 21
694.1854849298542
 31
0.0
  0
LINE
  5
687
102
{ACAD_REACTORS
330
73D
102
}
330
1F
100
AcDbEntity
  8
実線
100
AcDbLine
 10
835.2471443261075
 20
707.6854849298542
 30
0.0
 11
835.2471443261075
 21
694.1854849298542
 31
0.0
  0
LINE
  5
688
102
{ACAD_REACTORS
330
73D
102
}
330
1F
100
AcDbEntity
  8
実線
100
AcDbLine
 10
956.8065226817843
 20
694.1854849298542
 30
0.0
 11
956.8065226817843
 21
707.6854849298542
 31
0.0
  0
LINE
  5
689
102
{ACAD_REACTORS
330
73D
102
}
330
1F
100
AcDbEntity
  8
実線
100
AcDbLine
 10
869.2168613540045
 20
707.6854849298542
 30
0.0
 11
869.2168613540045
 21
694.1854849298542
 31
0.0
  0
LINE
  5
68A
102
{ACAD_REACTORS
330
73D
102
}
330
1F
100
AcDbEntity
  8
実線
100
AcDbLine
 10
922.8368056538874
 20
707.6854849298542
 30
0.0
 11
922.8368056538874
 21
694.1854849298542
 31
0.0
  0
LINE
  5
68B
102
{ACAD_REACTORS
330
73D
102
}
330
1F
100
AcDbEntity
  8
実線
100
AcDbLine
 10
956.8065226817855
 20
707.685484929854
 30
0.0
 11
835.2471443261075
 21
707.685484929854
 31
0.0
  0
LINE
  5
68C
102
{ACAD_REACTORS
330
73D
102
}
330
1F
100
AcDbEntity
  8
実線
100
AcDbLine
 10
841.0268335039466
 20
768.185484929854
 30
0.0
 11
841.0268335039466
 21
722.685484929854
 31
0.0
  0
LINE
  5
68D
102
{ACAD_REACTORS
330
73D
102
}
330
1F
100
AcDbEntity
  8
実線
100
AcDbLine
 10
951.0268335039466
 20
722.6854849298542
 30
0.0
 11
951.0268335039466
 21
768.1854849298543
 31
0.0
  0
ARC
  5
68E
102
{ACAD_REACTORS
330
73D
102
}
330
1F
100
AcDbEntity
  8
実線
100
AcDbCircle
 10
935.0268335039466
 20
768.185484929854
 30
0.0
 40
16.0
100
AcDbArc
 50
0.0
 51
90.0
  0
ARC
  5
68F
102
{ACAD_REACTORS
330
73D
102
}
330
1F
100
AcDbEntity
  8
実線
100
AcDbCircle
 10
857.0268335039466
 20
768.185484929854
 30
0.0
 40
16.0
100
AcDbArc
 50
90.0
 51
180.0
  0
LINE
  5
690
102
{ACAD_REACTORS
330
73D
102
}
330
1F
100
AcDbEntity
  8
実線
100
AcDbLine
 10
835.2471443261075
 20
722.6854849298542
 30
0.0
 11
835.2471443261075
 21
707.6854849298542
 31
0.0
  0
LINE
  5
691
102
{ACAD_REACTORS
330
73D
102
}
330
1F
100
AcDbEntity
  8
実線
100
AcDbLine
 10
835.2471443261075
 20
722.6854849298542
 30
0.0
 11
869.2168613540054
 21
722.6854849298542
 31
0.0
  0
LINE
  5
692
102
{ACAD_REACTORS
330
73D
102
}
330
1F
100
AcDbEntity
  8
実線
100
AcDbLine
 10
956.8065226817855
 20
722.6854849298542
 30
0.0
 11
922.8368056538874
 21
722.6854849298542
 31
0.0
  0
LINE
  5
693
102
{ACAD_REACTORS
330
73D
102
}
330
1F
100
AcDbEntity
  8
実線
100
AcDbLine
 10
956.8065226817855
 20
707.685484929854
 30
0.0
 11
956.8065226817855
 21
722.685484929854
 31
0.0
  0
LINE
  5
694
102
{ACAD_REACTORS
330
73D
102
}
330
1F
100
AcDbEntity
  8
実線
100
AcDbLine
 10
869.2168613540054
 20
722.6854849298542
 30
0.0
 11
869.2168613540054
 21
707.6854849298542
 31
0.0
  0
LINE
  5
695
102
{ACAD_REACTORS
330
73D
102
}
330
1F
100
AcDbEntity
  8
実線
100
AcDbLine
 10
922.8368056538874
 20
722.6854849298542
 30
0.0
 11
922.8368056538874
 21
707.6854849298542
 31
0.0
  0
LINE
  5
696
102
{ACAD_REACTORS
330
73D
102
}
330
1F
100
AcDbEntity
  8
実線
100
AcDbLine
 10
965.5268335039455
 20
483.185484929854
 30
0.0
 11
826.5268335039454
 21
483.185484929854
 31
0.0
  0
ARC
  5
697
102
{ACAD_REACTORS
330
73D
102
}
330
1F
100
AcDbEntity
  8
実線
100
AcDbCircle
 10
826.5268335039454
 20
486.185484929854
 30
0.0
 40
3.0
100
AcDbArc
 50
180.0
 51
270.0
  0
ARC
  5
698
102
{ACAD_REACTORS
330
73D
102
}
330
1F
100
AcDbEntity
  8
実線
100
AcDbCircle
 10
965.5268335039455
 20
486.185484929854
 30
0.0
 40
3.0
100
AcDbArc
 50
270.0
 51
0.0
  0
LINE
  5
699
102
{ACAD_REACTORS
330
73D
102
}
330
1F
100
AcDbEntity
  8
実線
100
AcDbLine
 10
823.5268335039455
 20
488.185484929854
 30
0.0
 11
823.5268335039455
 21
486.185484929854
 31
0.0
  0
LINE
  5
69A
102
{ACAD_REACTORS
330
73D
102
}
330
1F
100
AcDbEntity
  8
実線
100
AcDbLine
 10
968.5268335039465
 20
486.185484929854
 30
0.0
 11
968.5268335039465
 21
488.185484929854
 31
0.0
  0
LINE
  5
69B
102
{ACAD_REACTORS
330
73D
102
}
330
1F
100
AcDbEntity
  8
実線
100
AcDbLine
 10
1021.026833503946
 20
799.8854849298539
 30
0.0
 11
1021.026833503946
 21
819.8854849298541
 31
0.0
  0
LINE
  5
69C
102
{ACAD_REACTORS
330
73D
102
}
330
1F
100
AcDbEntity
  8
実線
100
AcDbLine
 10
771.0268335039464
 20
819.8854849298541
 30
0.0
 11
771.0268335039464
 21
799.8854849298539
 31
0.0
  0
LINE
  5
69D
102
{ACAD_REACTORS
330
73D
102
}
330
1F
100
AcDbEntity
  8
実線
100
AcDbLine
 10
1021.026833503946
 20
819.8854849298541
 30
0.0
 11
771.0268335039464
 21
819.8854849298541
 31
0.0
  0
LINE
  5
69E
102
{ACAD_REACTORS
330
73D
102
}
330
1F
100
AcDbEntity
  8
実線
100
AcDbLine
 10
1021.026833503946
 20
799.8854849298539
 30
0.0
 11
771.0268335039464
 21
799.8854849298539
 31
0.0
  0
LINE
  5
69F
102
{ACAD_REACTORS
330
73D
102
}
330
1F
100
AcDbEntity
  8
実線
100
AcDbLine
 10
946.0268335039454
 20
591.1854849298542
 30
0.0
 11
946.0268335039454
 21
656.1854849298542
 31
0.0
  0
LINE
  5
6A0
102
{ACAD_REACTORS
330
73D
102
}
330
1F
100
AcDbEntity
  8
実線
100
AcDbLine
 10
946.0268335039454
 20
656.1854849298542
 30
0.0
 11
909.5268335039454
 21
656.1854849298542
 31
0.0
  0
LINE
  5
6A1
102
{ACAD_REACTORS
330
73D
102
}
330
1F
100
AcDbEntity
  8
実線
100
AcDbLine
 10
882.5268335039455
 20
656.1854849298542
 30
0.0
 11
846.0268335039454
 21
656.1854849298542
 31
0.0
  0
LINE
  5
6A2
102
{ACAD_REACTORS
330
73D
102
}
330
1F
100
AcDbEntity
  8
実線
100
AcDbLine
 10
846.0268335039454
 20
656.1854849298542
 30
0.0
 11
846.0268335039454
 21
591.1854849298542
 31
0.0
  0
LINE
  5
6A3
102
{ACAD_REACTORS
330
73D
102
}
330
1F
100
AcDbEntity
  8
実線
100
AcDbLine
 10
909.5268335039454
 20
694.1854849298539
 30
0.0
 11
909.5268335039454
 21
591.1854849298542
 31
0.0
  0
LINE
  5
6A4
102
{ACAD_REACTORS
330
73D
102
}
330
1F
100
AcDbEntity
  8
実線
100
AcDbLine
 10
882.5268335039455
 20
694.1854849298539
 30
0.0
 11
882.5268335039455
 21
591.1854849298542
 31
0.0
  0
ELLIPSE
  5
6A5
102
{ACAD_REACTORS
330
73F
102
}
330
1F
100
AcDbEntity
  8
実線
100
AcDbEllipse
 10
176.0268335039463
 20
718.4275338984073
 30
0.0
 11
31.75
 21
0.0
 31
0.0
210
0.0
220
0.0
230
1.0
 40
0.7071067811865476
 41
0.1905913349515993
 42
1.570796326794897
  0
ELLIPSE
  5
6A6
102
{ACAD_REACTORS
330
73F
102
}
330
1F
100
AcDbEntity
  8
実線
100
AcDbEllipse
 10
176.0268335039463
 20
718.4275338984073
 30
0.0
 11
31.75
 21
0.0
 31
0.0
210
0.0
220
0.0
230
1.0
 40
0.7071067811865476
 41
1.570796326794897
 42
2.951001318638193
  0
ELLIPSE
  5
6A7
102
{ACAD_REACTORS
330
73F
102
}
330
1F
100
AcDbEntity
  8
実線
100
AcDbEllipse
 10
176.0268335039463
 20
706.4067186182358
 30
0.0
 11
38.75
 21
0.0
 31
0.0
210
0.0
220
0.0
230
1.0
 40
0.7071067811865476
 41
0.0
 42
1.570796326794897
  0
LINE
  5
6A8
102
{ACAD_REACTORS
330
73F
102
}
330
1F
100
AcDbEntity
  8
実線
100
AcDbLine
 10
214.7768335039462
 20
703.9318448840831
 30
0.0
 11
214.7768335039462
 21
706.4067186182358
 31
0.0
  0
LINE
  5
6A9
102
{ACAD_REACTORS
330
73F
102
}
330
1F
100
AcDbEntity
  8
実線
100
AcDbLine
 10
137.2768335039462
 20
706.4067186182358
 30
0.0
 11
137.2768335039462
 21
703.9318448840831
 31
0.0
  0
ELLIPSE
  5
6AA
102
{ACAD_REACTORS
330
73F
102
}
330
1F
100
AcDbEntity
  8
実線
100
AcDbEllipse
 10
176.0268335039463
 20
703.9318448840831
 30
0.0
 11
38.75
 21
0.0
 31
0.0
210
0.0
220
0.0
230
1.0
 40
0.7071067811865476
 41
3.141592653589792
 42
6.283185307179584
  0
ELLIPSE
  5
6AB
102
{ACAD_REACTORS
330
73F
102
}
330
1F
100
AcDbEntity
  8
実線
100
AcDbEllipse
 10
176.0268335039463
 20
703.9318448840831
 30
0.0
 11
38.75
 21
0.0
 31
0.0
210
0.0
220
0.0
230
1.0
 40
0.7071067811865476
 41
1.570796326794897
 42
3.141592653589792
  0
ELLIPSE
  5
6AC
102
{ACAD_REACTORS
330
73F
102
}
330
1F
100
AcDbEntity
  8
実線
100
AcDbEllipse
 10
176.0268335039463
 20
706.4067186182358
 30
0.0
 11
38.75
 21
0.0
 31
0.0
210
0.0
220
0.0
230
1.0
 40
0.7071067811865476
 41
1.570796326794897
 42
3.141592653589792
  0
ELLIPSE
  5
6AD
102
{ACAD_REACTORS
330
73F
102
}
330
1F
100
AcDbEntity
  8
実線
100
AcDbEllipse
 10
176.0268335039463
 20
703.9318448840831
 30
0.0
 11
38.75
 21
0.0
 31
0.0
210
0.0
220
0.0
230
1.0
 40
0.7071067811865476
 41
0.0
 42
1.570796326794897
  0
LINE
  5
6AE
102
{ACAD_REACTORS
330
73F
102
}
330
1F
100
AcDbEntity
  8
実線
100
AcDbLine
 10
218.0268335039464
 20
784.185484929854
 30
0.0
 11
225.0268335039462
 21
790.8854849298539
 31
0.0
  0
LINE
  5
6AF
102
{ACAD_REACTORS
330
73F
102
}
330
1F
100
AcDbEntity
  8
実線
100
AcDbLine
 10
127.0268335039462
 20
790.8854849298539
 30
0.0
 11
134.0268335039462
 21
784.185484929854
 31
0.0
  0
LINE
  5
6B0
102
{ACAD_REACTORS
330
73F
102
}
330
1F
100
AcDbEntity
  8
実線
100
AcDbLine
 10
134.0268335039462
 20
784.185484929854
 30
0.0
 11
218.0268335039464
 21
784.185484929854
 31
0.0
  0
LINE
  5
6B1
102
{ACAD_REACTORS
330
73F
102
}
330
1F
100
AcDbEntity
  8
実線
100
AcDbLine
 10
225.0268335039462
 20
790.8854849298539
 30
0.0
 11
225.0268335039462
 21
799.8854849298539
 31
0.0
  0
LINE
  5
6B2
102
{ACAD_REACTORS
330
73F
102
}
330
1F
100
AcDbEntity
  8
実線
100
AcDbLine
 10
127.0268335039462
 20
799.8854849298539
 30
0.0
 11
127.0268335039462
 21
790.8854849298539
 31
0.0
  0
LINE
  5
6B3
102
{ACAD_REACTORS
330
73F
102
}
330
1F
100
AcDbEntity
  8
実線
100
AcDbLine
 10
127.0268335039462
 20
790.8854849298539
 30
0.0
 11
225.0268335039462
 21
790.8854849298539
 31
0.0
  0
ARC
  5
6B4
102
{ACAD_REACTORS
330
73F
102
}
330
1F
100
AcDbEntity
  8
実線
100
AcDbCircle
 10
176.0268335039463
 20
748.1854849298541
 30
0.0
 40
31.75
100
AcDbArc
 50
0.0
 51
180.0
  0
LINE
  5
6B5
102
{ACAD_REACTORS
330
73F
102
}
330
1F
100
AcDbEntity
  8
実線
100
AcDbLine
 10
144.2768335039462
 20
748.1854849298541
 30
0.0
 11
144.2768335039462
 21
722.1149966906408
 31
0.0
  0
LINE
  5
6B6
102
{ACAD_REACTORS
330
73F
102
}
330
1F
100
AcDbEntity
  8
実線
100
AcDbLine
 10
207.7768335039464
 20
722.114996690641
 30
0.0
 11
207.7768335039464
 21
748.1854849298541
 31
0.0
  0
ELLIPSE
  5
6B7
102
{ACAD_REACTORS
330
73F
102
}
330
1F
100
AcDbEntity
  8
実線
100
AcDbEllipse
 10
176.0268335039463
 20
718.4275338984073
 30
0.0
 11
31.75
 21
0.0
 31
0.0
210
0.0
220
0.0
230
1.0
 40
0.7071067811865476
 41
0.1905913349515993
 42
2.951001318638193
  0
LINE
  5
6B8
102
{ACAD_REACTORS
330
73F
102
}
330
1F
100
AcDbEntity
  8
実線
100
AcDbLine
 10
130.0268335039465
 20
483.185484929854
 30
0.0
 11
130.0268335039465
 21
473.1854849298541
 31
0.0
  0
LINE
  5
6B9
102
{ACAD_REACTORS
330
73F
102
}
330
1F
100
AcDbEntity
  8
実線
100
AcDbLine
 10
222.0268335039464
 20
473.1854849298541
 30
0.0
 11
222.0268335039464
 21
483.185484929854
 31
0.0
  0
LINE
  5
6BA
102
{ACAD_REACTORS
330
73F
102
}
330
1F
100
AcDbEntity
  8
実線
100
AcDbLine
 10
130.0268335039465
 20
473.1854849298541
 30
0.0
 11
222.0268335039465
 21
473.1854849298541
 31
0.0
  0
LINE
  5
6BB
102
{ACAD_REACTORS
330
73F
102
}
330
1F
100
AcDbEntity
  8
実線
100
AcDbLine
 10
168.0268335039466
 20
473.1854849298541
 30
0.0
 11
168.0268335039466
 21
435.6854849298541
 31
0.0
  0
LINE
  5
6BC
102
{ACAD_REACTORS
330
73F
102
}
330
1F
100
AcDbEntity
  8
実線
100
AcDbLine
 10
184.0268335039464
 20
435.6854849298541
 30
0.0
 11
184.0268335039464
 21
473.1854849298541
 31
0.0
  0
LINE
  5
6BD
102
{ACAD_REACTORS
330
73F
102
}
330
1F
100
AcDbEntity
  8
実線
100
AcDbLine
 10
168.0268335039466
 20
435.6854849298541
 30
0.0
 11
184.0268335039466
 21
435.6854849298541
 31
0.0
  0
LINE
  5
6BE
102
{ACAD_REACTORS
330
73F
102
}
330
1F
100
AcDbEntity
  8
実線
100
AcDbLine
 10
108.5268335039466
 20
591.1854849298539
 30
0.0
 11
108.5268335039466
 21
589.185484929854
 31
0.0
  0
LINE
  5
6BF
102
{ACAD_REACTORS
330
73F
102
}
330
1F
100
AcDbEntity
  8
実線
100
AcDbLine
 10
243.5268335039465
 20
589.185484929854
 30
0.0
 11
243.5268335039465
 21
591.1854849298539
 31
0.0
  0
LINE
  5
6C0
102
{ACAD_REACTORS
330
73F
102
}
330
1F
100
AcDbEntity
  8
実線
100
AcDbLine
 10
108.5268335039466
 20
591.1854849298539
 30
0.0
 11
243.5268335039465
 21
591.1854849298539
 31
0.0
  0
LINE
  5
6C1
102
{ACAD_REACTORS
330
73F
102
}
330
1F
100
AcDbEntity
  8
実線
100
AcDbLine
 10
103.5268335039466
 20
589.185484929854
 30
0.0
 11
103.5268335039466
 21
488.1854849298541
 31
0.0
  0
LINE
  5
6C2
102
{ACAD_REACTORS
330
73F
102
}
330
1F
100
AcDbEntity
  8
実線
100
AcDbLine
 10
248.5268335039465
 20
488.1854849298541
 30
0.0
 11
248.5268335039465
 21
589.185484929854
 31
0.0
  0
LINE
  5
6C3
102
{ACAD_REACTORS
330
73F
102
}
330
1F
100
AcDbEntity
  8
実線
100
AcDbLine
 10
103.5268335039466
 20
488.1854849298541
 30
0.0
 11
248.5268335039465
 21
488.1854849298541
 31
0.0
  0
LINE
  5
6C4
102
{ACAD_REACTORS
330
73F
102
}
330
1F
100
AcDbEntity
  8
実線
100
AcDbLine
 10
103.5268335039466
 20
589.185484929854
 30
0.0
 11
248.5268335039465
 21
589.185484929854
 31
0.0
  0
LINE
  5
6C5
102
{ACAD_REACTORS
330
73F
102
}
330
1F
100
AcDbEntity
  8
実線
100
AcDbLine
 10
115.2471443261075
 20
707.6854849298542
 30
0.0
 11
115.2471443261075
 21
694.1854849298542
 31
0.0
  0
LINE
  5
6C6
102
{ACAD_REACTORS
330
73F
102
}
330
1F
100
AcDbEntity
  8
実線
100
AcDbLine
 10
115.2471443261075
 20
694.1854849298542
 30
0.0
 11
139.8110988671174
 21
694.1854849298542
 31
0.0
  0
LINE
  5
6C7
102
{ACAD_REACTORS
330
73F
102
}
330
1F
100
AcDbEntity
  8
実線
100
AcDbLine
 10
236.8065226817857
 20
694.1854849298542
 30
0.0
 11
212.2425681407752
 21
694.1854849298542
 31
0.0
  0
LINE
  5
6C8
102
{ACAD_REACTORS
330
73F
102
}
330
1F
100
AcDbEntity
  8
実線
100
AcDbLine
 10
236.8065226817857
 20
707.6854849298542
 30
0.0
 11
214.7346106739226
 21
707.6854849298542
 31
0.0
  0
LINE
  5
6C9
102
{ACAD_REACTORS
330
73F
102
}
330
1F
100
AcDbEntity
  8
実線
100
AcDbLine
 10
236.8065226817857
 20
694.1854849298542
 30
0.0
 11
236.8065226817857
 21
707.6854849298542
 31
0.0
  0
LINE
  5
6CA
102
{ACAD_REACTORS
330
73F
102
}
330
1F
100
AcDbEntity
  8
実線
100
AcDbLine
 10
121.0268335039462
 20
768.185484929854
 30
0.0
 11
121.0268335039462
 21
722.685484929854
 31
0.0
  0
LINE
  5
6CB
102
{ACAD_REACTORS
330
73F
102
}
330
1F
100
AcDbEntity
  8
実線
100
AcDbLine
 10
231.0268335039463
 20
722.6854849298542
 30
0.0
 11
231.0268335039463
 21
768.1854849298543
 31
0.0
  0
ARC
  5
6CC
102
{ACAD_REACTORS
330
73F
102
}
330
1F
100
AcDbEntity
  8
実線
100
AcDbCircle
 10
215.0268335039462
 20
768.185484929854
 30
0.0
 40
16.0
100
AcDbArc
 50
0.0
 51
90.0
  0
ARC
  5
6CD
102
{ACAD_REACTORS
330
73F
102
}
330
1F
100
AcDbEntity
  8
実線
100
AcDbCircle
 10
137.0268335039462
 20
768.185484929854
 30
0.0
 40
16.0
100
AcDbArc
 50
90.0
 51
180.0
  0
LINE
  5
6CE
102
{ACAD_REACTORS
330
73F
102
}
330
1F
100
AcDbEntity
  8
実線
100
AcDbLine
 10
115.2471443261074
 20
722.6854849298542
 30
0.0
 11
115.2471443261074
 21
707.6854849298542
 31
0.0
  0
LINE
  5
6CF
102
{ACAD_REACTORS
330
73F
102
}
330
1F
100
AcDbEntity
  8
実線
100
AcDbLine
 10
115.2471443261074
 20
707.685484929854
 30
0.0
 11
137.3190563339699
 21
707.685484929854
 31
0.0
  0
LINE
  5
6D0
102
{ACAD_REACTORS
330
73F
102
}
330
1F
100
AcDbEntity
  8
実線
100
AcDbLine
 10
115.2471443261074
 20
722.6854849298542
 30
0.0
 11
144.2768335039462
 21
722.6854849298542
 31
0.0
  0
LINE
  5
6D1
102
{ACAD_REACTORS
330
73F
102
}
330
1F
100
AcDbEntity
  8
実線
100
AcDbLine
 10
236.8065226817852
 20
722.6854849298542
 30
0.0
 11
207.7768335039464
 21
722.6854849298542
 31
0.0
  0
LINE
  5
6D2
102
{ACAD_REACTORS
330
73F
102
}
330
1F
100
AcDbEntity
  8
実線
100
AcDbLine
 10
236.8065226817852
 20
707.685484929854
 30
0.0
 11
236.8065226817852
 21
722.685484929854
 31
0.0
  0
LINE
  5
6D3
102
{ACAD_REACTORS
330
73F
102
}
330
1F
100
AcDbEntity
  8
実線
100
AcDbLine
 10
106.5268335039466
 20
483.185484929854
 30
0.0
 11
245.5268335039465
 21
483.185484929854
 31
0.0
  0
ARC
  5
6D4
102
{ACAD_REACTORS
330
73F
102
}
330
1F
100
AcDbEntity
  8
実線
100
AcDbCircle
 10
106.5268335039466
 20
486.185484929854
 30
0.0
 40
3.0
100
AcDbArc
 50
180.0
 51
270.0
  0
ARC
  5
6D5
102
{ACAD_REACTORS
330
73F
102
}
330
1F
100
AcDbEntity
  8
実線
100
AcDbCircle
 10
245.5268335039465
 20
486.185484929854
 30
0.0
 40
3.0
100
AcDbArc
 50
270.0
 51
0.0
  0
LINE
  5
6D6
102
{ACAD_REACTORS
330
73F
102
}
330
1F
100
AcDbEntity
  8
実線
100
AcDbLine
 10
103.5268335039466
 20
488.185484929854
 30
0.0
 11
103.5268335039466
 21
486.185484929854
 31
0.0
  0
LINE
  5
6D7
102
{ACAD_REACTORS
330
73F
102
}
330
1F
100
AcDbEntity
  8
実線
100
AcDbLine
 10
248.5268335039465
 20
486.185484929854
 30
0.0
 11
248.5268335039465
 21
488.185484929854
 31
0.0
  0
LINE
  5
6D8
102
{ACAD_REACTORS
330
73F
102
}
330
1F
100
AcDbEntity
  8
実線
100
AcDbLine
 10
301.0268335039464
 20
819.8854849298541
 30
0.0
 11
51.02683350394625
 21
819.8854849298541
 31
0.0
  0
LINE
  5
6D9
102
{ACAD_REACTORS
330
73F
102
}
330
1F
100
AcDbEntity
  8
実線
100
AcDbLine
 10
51.02683350394625
 20
799.8854849298539
 30
0.0
 11
301.0268335039464
 21
799.8854849298539
 31
0.0
  0
LINE
  5
6DA
102
{ACAD_REACTORS
330
73F
102
}
330
1F
100
AcDbEntity
  8
実線
100
AcDbLine
 10
301.0268335039464
 20
799.8854849298539
 30
0.0
 11
301.0268335039464
 21
819.8854849298541
 31
0.0
  0
LINE
  5
6DB
102
{ACAD_REACTORS
330
73F
102
}
330
1F
100
AcDbEntity
  8
実線
100
AcDbLine
 10
51.02683350394625
 20
819.8854849298541
 30
0.0
 11
51.02683350394625
 21
799.8854849298539
 31
0.0
  0
LINE
  5
6DC
102
{ACAD_REACTORS
330
73F
102
}
330
1F
100
AcDbEntity
  8
実線
100
AcDbLine
 10
226.0268335039465
 20
591.1854849298542
 30
0.0
 11
226.0268335039465
 21
656.1854849298542
 31
0.0
  0
LINE
  5
6DD
102
{ACAD_REACTORS
330
73F
102
}
330
1F
100
AcDbEntity
  8
実線
100
AcDbLine
 10
189.5268335039466
 20
656.1854849298542
 30
0.0
 11
226.0268335039465
 21
656.1854849298542
 31
0.0
  0
LINE
  5
6DE
102
{ACAD_REACTORS
330
73F
102
}
330
1F
100
AcDbEntity
  8
実線
100
AcDbLine
 10
162.5268335039466
 20
656.1854849298542
 30
0.0
 11
126.0268335039465
 21
656.1854849298542
 31
0.0
  0
LINE
  5
6DF
102
{ACAD_REACTORS
330
73F
102
}
330
1F
100
AcDbEntity
  8
実線
100
AcDbLine
 10
126.0268335039465
 20
656.1854849298542
 30
0.0
 11
126.0268335039465
 21
591.1854849298542
 31
0.0
  0
LINE
  5
6E0
102
{ACAD_REACTORS
330
73F
102
}
330
1F
100
AcDbEntity
  8
実線
100
AcDbLine
 10
189.5268335039466
 20
678.2480708234044
 30
0.0
 11
189.5268335039466
 21
591.1854849298539
 31
0.0
  0
LINE
  5
6E1
102
{ACAD_REACTORS
330
73F
102
}
330
1F
100
AcDbEntity
  8
実線
100
AcDbLine
 10
162.5268335039466
 20
678.2480708234041
 30
0.0
 11
162.5268335039466
 21
591.1854849298539
 31
0.0
  0
LINE
  5
6E2
102
{ACAD_REACTORS
330
73E
102
}
330
1F
100
AcDbEntity
  8
実線
100
AcDbLine
 10
486.1669301894595
 20
779.9354849298542
 30
0.0
 11
468.0268335039463
 21
779.9354849298542
 31
0.0
  0
LINE
  5
6E3
102
{ACAD_REACTORS
330
73E
102
}
330
1F
100
AcDbEntity
  8
実線
100
AcDbLine
 10
468.0268335039463
 20
716.435484929854
 30
0.0
 11
475.2471443261078
 21
716.435484929854
 31
0.0
  0
LINE
  5
6E4
102
{ACAD_REACTORS
330
73E
102
}
330
1F
100
AcDbEntity
  8
実線
100
AcDbLine
 10
468.0268335039463
 20
779.935484929854
 30
0.0
 11
468.0268335039463
 21
716.435484929854
 31
0.0
  0
LINE
  5
6E5
102
{ACAD_REACTORS
330
73E
102
}
330
1F
100
AcDbEntity
  8
実線
100
AcDbLine
 10
373.7341442327203
 20
740.87817420108
 30
0.0
 11
418.6354248380659
 21
695.9768935957343
 31
0.0
  0
LINE
  5
6E6
102
{ACAD_REACTORS
330
73E
102
}
330
1F
100
AcDbEntity
  8
実線
100
AcDbLine
 10
408.8066405795729
 20
686.1481093372415
 30
0.0
 11
418.6354248380659
 21
695.9768935957344
 31
0.0
  0
LINE
  5
6E7
102
{ACAD_REACTORS
330
73E
102
}
330
1F
100
AcDbEntity
  8
実線
100
AcDbLine
 10
373.7341442327203
 20
740.87817420108
 30
0.0
 11
363.9053599742271
 21
731.0493899425873
 31
0.0
  0
LINE
  5
6E8
102
{ACAD_REACTORS
330
73E
102
}
330
1F
100
AcDbEntity
  8
実線
100
AcDbLine
 10
363.9053599742273
 20
731.0493899425873
 30
0.0
 11
408.8066405795729
 21
686.1481093372415
 31
0.0
  0
LINE
  5
6E9
102
{ACAD_REACTORS
330
73E
102
}
330
1F
100
AcDbEntity
  8
実線
100
AcDbLine
 10
363.9053599742271
 20
731.0493899425873
 30
0.0
 11
356.763581484243
 21
733.8071063892148
 31
0.0
  0
LINE
  5
6EA
102
{ACAD_REACTORS
330
73E
102
}
330
1F
100
AcDbEntity
  8
実線
100
AcDbLine
 10
411.5643570262003
 20
679.0063308472573
 30
0.0
 11
408.8066405795729
 21
686.1481093372415
 31
0.0
  0
LINE
  5
6EB
102
{ACAD_REACTORS
330
73E
102
}
330
1F
100
AcDbEntity
  8
実線
100
AcDbLine
 10
354.2887077500902
 20
731.3322326550618
 30
0.0
 11
409.0894832920474
 21
676.5314571131045
 31
0.0
  0
LINE
  5
6EC
102
{ACAD_REACTORS
330
73E
102
}
330
1F
100
AcDbEntity
  8
実線
100
AcDbLine
 10
356.763581484243
 20
733.8071063892148
 30
0.0
 11
411.5643570262003
 21
679.0063308472573
 31
0.0
  0
LINE
  5
6ED
102
{ACAD_REACTORS
330
73E
102
}
330
1F
100
AcDbEntity
  8
実線
100
AcDbLine
 10
409.0894832920474
 20
676.5314571131042
 30
0.0
 11
411.5643570262003
 21
679.0063308472573
 31
0.0
  0
LINE
  5
6EE
102
{ACAD_REACTORS
330
73E
102
}
330
1F
100
AcDbEntity
  8
実線
100
AcDbLine
 10
356.763581484243
 20
733.8071063892148
 30
0.0
 11
354.2887077500901
 21
731.3322326550617
 31
0.0
  0
LINE
  5
6EF
102
{ACAD_REACTORS
330
73E
102
}
330
1F
100
AcDbEntity
  8
実線
100
AcDbLine
 10
585.0268335039463
 20
790.8854849298539
 30
0.0
 11
585.0268335039463
 21
799.8854849298539
 31
0.0
  0
LINE
  5
6F0
102
{ACAD_REACTORS
330
73E
102
}
330
1F
100
AcDbEntity
  8
実線
100
AcDbLine
 10
487.0268335039463
 20
799.8854849298539
 30
0.0
 11
487.0268335039463
 21
790.8854849298539
 31
0.0
  0
LINE
  5
6F1
102
{ACAD_REACTORS
330
73E
102
}
330
1F
100
AcDbEntity
  8
実線
100
AcDbLine
 10
578.0268335039464
 20
784.185484929854
 30
0.0
 11
585.0268335039463
 21
790.8854849298539
 31
0.0
  0
LINE
  5
6F2
102
{ACAD_REACTORS
330
73E
102
}
330
1F
100
AcDbEntity
  8
実線
100
AcDbLine
 10
487.0268335039463
 20
790.8854849298539
 30
0.0
 11
494.0268335039463
 21
784.185484929854
 31
0.0
  0
LINE
  5
6F3
102
{ACAD_REACTORS
330
73E
102
}
330
1F
100
AcDbEntity
  8
実線
100
AcDbLine
 10
494.0268335039463
 20
784.185484929854
 30
0.0
 11
578.0268335039464
 21
784.185484929854
 31
0.0
  0
LINE
  5
6F4
102
{ACAD_REACTORS
330
73E
102
}
330
1F
100
AcDbEntity
  8
実線
100
AcDbLine
 10
487.0268335039463
 20
790.8854849298539
 30
0.0
 11
585.0268335039463
 21
790.8854849298539
 31
0.0
  0
ARC
  5
6F5
102
{ACAD_REACTORS
330
73E
102
}
330
1F
100
AcDbEntity
  8
実線
100
AcDbCircle
 10
468.0268335039463
 20
646.585484929854
 30
0.0
 40
133.35
100
AcDbArc
 50
90.0
 51
135.0000000000002
  0
ARC
  5
6F6
102
{ACAD_REACTORS
330
73E
102
}
330
1F
100
AcDbEntity
  8
実線
100
AcDbCircle
 10
468.0268335039463
 20
646.585484929854
 30
0.0
 40
69.84999999999999
100
AcDbArc
 50
90.0
 51
135.0000000000002
  0
LINE
  5
6F7
102
{ACAD_REACTORS
330
73E
102
}
330
1F
100
AcDbEntity
  8
実線
100
AcDbLine
 10
582.0268335039464
 20
473.1854849298541
 30
0.0
 11
490.0268335039463
 21
473.1854849298541
 31
0.0
  0
LINE
  5
6F8
102
{ACAD_REACTORS
330
73E
102
}
330
1F
100
AcDbEntity
  8
実線
100
AcDbLine
 10
490.0268335039463
 20
483.185484929854
 30
0.0
 11
490.0268335039463
 21
473.1854849298541
 31
0.0
  0
LINE
  5
6F9
102
{ACAD_REACTORS
330
73E
102
}
330
1F
100
AcDbEntity
  8
実線
100
AcDbLine
 10
582.0268335039464
 20
473.1854849298541
 30
0.0
 11
582.0268335039464
 21
483.185484929854
 31
0.0
  0
LINE
  5
6FA
102
{ACAD_REACTORS
330
73E
102
}
330
1F
100
AcDbEntity
  8
実線
100
AcDbLine
 10
544.0268335039463
 20
435.6854849298541
 30
0.0
 11
528.0268335039464
 21
435.6854849298541
 31
0.0
  0
LINE
  5
6FB
102
{ACAD_REACTORS
330
73E
102
}
330
1F
100
AcDbEntity
  8
実線
100
AcDbLine
 10
528.0268335039464
 20
473.1854849298541
 30
0.0
 11
528.0268335039464
 21
435.6854849298541
 31
0.0
  0
LINE
  5
6FC
102
{ACAD_REACTORS
330
73E
102
}
330
1F
100
AcDbEntity
  8
実線
100
AcDbLine
 10
544.0268335039463
 20
435.6854849298541
 30
0.0
 11
544.0268335039463
 21
473.1854849298541
 31
0.0
  0
LINE
  5
6FD
102
{ACAD_REACTORS
330
73E
102
}
330
1F
100
AcDbEntity
  8
実線
100
AcDbLine
 10
528.0268335039464
 20
694.141388381256
 30
0.0
 11
528.0268335039464
 21
656.1854849298542
 31
0.0
  0
LINE
  5
6FE
102
{ACAD_REACTORS
330
73E
102
}
330
1F
100
AcDbEntity
  8
実線
100
AcDbLine
 10
544.0268335039463
 20
656.1854849298542
 30
0.0
 11
544.0268335039463
 21
694.1413883812558
 31
0.0
  0
LINE
  5
6FF
102
{ACAD_REACTORS
330
73E
102
}
330
1F
100
AcDbEntity
  8
実線
100
AcDbLine
 10
468.5268335039463
 20
591.1854849298539
 30
0.0
 11
468.5268335039463
 21
589.185484929854
 31
0.0
  0
LINE
  5
700
102
{ACAD_REACTORS
330
73E
102
}
330
1F
100
AcDbEntity
  8
実線
100
AcDbLine
 10
603.5268335039464
 20
589.185484929854
 30
0.0
 11
603.5268335039464
 21
591.1854849298539
 31
0.0
  0
LINE
  5
701
102
{ACAD_REACTORS
330
73E
102
}
330
1F
100
AcDbEntity
  8
実線
100
AcDbLine
 10
468.5268335039463
 20
591.1854849298539
 30
0.0
 11
603.5268335039464
 21
591.1854849298539
 31
0.0
  0
LINE
  5
702
102
{ACAD_REACTORS
330
73E
102
}
330
1F
100
AcDbEntity
  8
実線
100
AcDbLine
 10
608.5268335039463
 20
488.1854849298541
 30
0.0
 11
463.5268335039463
 21
488.1854849298541
 31
0.0
  0
LINE
  5
703
102
{ACAD_REACTORS
330
73E
102
}
330
1F
100
AcDbEntity
  8
実線
100
AcDbLine
 10
463.5268335039463
 20
589.185484929854
 30
0.0
 11
463.5268335039463
 21
488.1854849298541
 31
0.0
  0
LINE
  5
704
102
{ACAD_REACTORS
330
73E
102
}
330
1F
100
AcDbEntity
  8
実線
100
AcDbLine
 10
608.5268335039463
 20
488.1854849298541
 30
0.0
 11
608.5268335039463
 21
589.185484929854
 31
0.0
  0
LINE
  5
705
102
{ACAD_REACTORS
330
73E
102
}
330
1F
100
AcDbEntity
  8
実線
100
AcDbLine
 10
463.5268335039463
 20
589.185484929854
 30
0.0
 11
608.5268335039463
 21
589.185484929854
 31
0.0
  0
LINE
  5
706
102
{ACAD_REACTORS
330
73E
102
}
330
1F
100
AcDbEntity
  8
実線
100
AcDbLine
 10
475.2471443261073
 20
694.1854849298542
 30
0.0
 11
596.8065226817848
 21
694.1854849298542
 31
0.0
  0
LINE
  5
707
102
{ACAD_REACTORS
330
73E
102
}
330
1F
100
AcDbEntity
  8
実線
100
AcDbLine
 10
596.8065226817848
 20
694.1854849298542
 30
0.0
 11
596.8065226817848
 21
707.6854849298542
 31
0.0
  0
LINE
  5
708
102
{ACAD_REACTORS
330
73E
102
}
330
1F
100
AcDbEntity
  8
実線
100
AcDbLine
 10
475.2471443261073
 20
707.6854849298542
 30
0.0
 11
475.2471443261073
 21
694.1854849298542
 31
0.0
  0
LINE
  5
709
102
{ACAD_REACTORS
330
73E
102
}
330
1F
100
AcDbEntity
  8
実線
100
AcDbLine
 10
562.8368056538873
 20
707.6854849298542
 30
0.0
 11
562.8368056538873
 21
694.1854849298542
 31
0.0
  0
LINE
  5
70A
102
{ACAD_REACTORS
330
73E
102
}
330
1F
100
AcDbEntity
  8
実線
100
AcDbLine
 10
509.2168613540051
 20
707.6854849298542
 30
0.0
 11
509.2168613540051
 21
694.1854849298542
 31
0.0
  0
LINE
  5
70B
102
{ACAD_REACTORS
330
73E
102
}
330
1F
100
AcDbEntity
  8
実線
100
AcDbLine
 10
596.806522681785
 20
707.685484929854
 30
0.0
 11
475.2471443261073
 21
707.685484929854
 31
0.0
  0
LINE
  5
70C
102
{ACAD_REACTORS
330
73E
102
}
330
1F
100
AcDbEntity
  8
実線
100
AcDbLine
 10
591.0268335039464
 20
722.6854849298542
 30
0.0
 11
591.0268335039464
 21
768.1854849298543
 31
0.0
  0
ARC
  5
70D
102
{ACAD_REACTORS
330
73E
102
}
330
1F
100
AcDbEntity
  8
実線
100
AcDbCircle
 10
575.0268335039463
 20
768.185484929854
 30
0.0
 40
16.0
100
AcDbArc
 50
0.0
 51
90.0
  0
ARC
  5
70E
102
{ACAD_REACTORS
330
73E
102
}
330
1F
100
AcDbEntity
  8
実線
100
AcDbCircle
 10
497.0268335039463
 20
768.185484929854
 30
0.0
 40
16.0
100
AcDbArc
 50
90.0
 51
132.745569224658
  0
LINE
  5
70F
102
{ACAD_REACTORS
330
73E
102
}
330
1F
100
AcDbEntity
  8
実線
100
AcDbLine
 10
475.2471443261073
 20
722.6854849298542
 30
0.0
 11
475.2471443261073
 21
707.6854849298542
 31
0.0
  0
LINE
  5
710
102
{ACAD_REACTORS
330
73E
102
}
330
1F
100
AcDbEntity
  8
実線
100
AcDbLine
 10
475.2471443261073
 20
722.6854849298542
 30
0.0
 11
509.2168613540051
 21
722.6854849298542
 31
0.0
  0
LINE
  5
711
102
{ACAD_REACTORS
330
73E
102
}
330
1F
100
AcDbEntity
  8
実線
100
AcDbLine
 10
596.806522681785
 20
722.6854849298542
 30
0.0
 11
562.8368056538873
 21
722.6854849298542
 31
0.0
  0
LINE
  5
712
102
{ACAD_REACTORS
330
73E
102
}
330
1F
100
AcDbEntity
  8
実線
100
AcDbLine
 10
596.806522681785
 20
707.685484929854
 30
0.0
 11
596.806522681785
 21
722.685484929854
 31
0.0
  0
LINE
  5
713
102
{ACAD_REACTORS
330
73E
102
}
330
1F
100
AcDbEntity
  8
実線
100
AcDbLine
 10
509.2168613540051
 20
722.6854849298542
 30
0.0
 11
509.2168613540051
 21
707.6854849298542
 31
0.0
  0
LINE
  5
714
102
{ACAD_REACTORS
330
73E
102
}
330
1F
100
AcDbEntity
  8
実線
100
AcDbLine
 10
562.8368056538873
 20
722.6854849298542
 30
0.0
 11
562.8368056538873
 21
707.6854849298542
 31
0.0
  0
LINE
  5
715
102
{ACAD_REACTORS
330
73E
102
}
330
1F
100
AcDbEntity
  8
実線
100
AcDbLine
 10
466.5268335039463
 20
483.185484929854
 30
0.0
 11
605.5268335039463
 21
483.185484929854
 31
0.0
  0
ARC
  5
716
102
{ACAD_REACTORS
330
73E
102
}
330
1F
100
AcDbEntity
  8
実線
100
AcDbCircle
 10
466.5268335039463
 20
486.185484929854
 30
0.0
 40
3.0
100
AcDbArc
 50
180.0
 51
270.0
  0
ARC
  5
717
102
{ACAD_REACTORS
330
73E
102
}
330
1F
100
AcDbEntity
  8
実線
100
AcDbCircle
 10
605.5268335039463
 20
486.185484929854
 30
0.0
 40
3.0
100
AcDbArc
 50
270.0
 51
0.0
  0
LINE
  5
718
102
{ACAD_REACTORS
330
73E
102
}
330
1F
100
AcDbEntity
  8
実線
100
AcDbLine
 10
463.5268335039463
 20
488.185484929854
 30
0.0
 11
463.5268335039463
 21
486.185484929854
 31
0.0
  0
LINE
  5
719
102
{ACAD_REACTORS
330
73E
102
}
330
1F
100
AcDbEntity
  8
実線
100
AcDbLine
 10
608.5268335039463
 20
486.185484929854
 30
0.0
 11
608.5268335039463
 21
488.185484929854
 31
0.0
  0
LINE
  5
71A
102
{ACAD_REACTORS
330
73E
102
}
330
1F
100
AcDbEntity
  8
実線
100
AcDbLine
 10
411.0268335039463
 20
819.8854849298541
 30
0.0
 11
661.0268335039464
 21
819.8854849298541
 31
0.0
  0
LINE
  5
71B
102
{ACAD_REACTORS
330
73E
102
}
330
1F
100
AcDbEntity
  8
実線
100
AcDbLine
 10
661.0268335039464
 20
799.8854849298539
 30
0.0
 11
661.0268335039464
 21
819.8854849298541
 31
0.0
  0
LINE
  5
71C
102
{ACAD_REACTORS
330
73E
102
}
330
1F
100
AcDbEntity
  8
実線
100
AcDbLine
 10
411.0268335039463
 20
819.8854849298541
 30
0.0
 11
411.0268335039463
 21
799.8854849298539
 31
0.0
  0
LINE
  5
71D
102
{ACAD_REACTORS
330
73E
102
}
330
1F
100
AcDbEntity
  8
実線
100
AcDbLine
 10
661.0268335039464
 20
799.8854849298539
 30
0.0
 11
411.0268335039463
 21
799.8854849298539
 31
0.0
  0
ARC
  5
71E
102
{ACAD_REACTORS
330
73E
102
}
330
1F
100
AcDbEntity
  8
実線
100
AcDbCircle
 10
540.7268335039463
 20
642.685484929854
 30
0.0
 40
53.0
100
AcDbArc
 50
103.6639089969508
 51
165.243184393676
  0
ARC
  5
71F
102
{ACAD_REACTORS
330
73E
102
}
330
1F
100
AcDbEntity
  8
実線
100
AcDbCircle
 10
540.7268335039462
 20
642.6854849298542
 30
0.0
 40
66.99999999999993
100
AcDbArc
 50
129.7665840691637
 51
180.0
  0
LINE
  5
720
102
{ACAD_REACTORS
330
73E
102
}
330
1F
100
AcDbEntity
  8
実線
100
AcDbLine
 10
473.7268335039463
 20
591.1854849298539
 30
0.0
 11
473.7268335039463
 21
642.685484929854
 31
0.0
  0
LINE
  5
721
102
{ACAD_REACTORS
330
73E
102
}
330
1F
100
AcDbEntity
  8
実線
100
AcDbLine
 10
598.3268335039463
 20
591.1854849298539
 30
0.0
 11
598.3268335039463
 21
642.685484929854
 31
0.0
  0
ARC
  5
722
102
{ACAD_REACTORS
330
73E
102
}
330
1F
100
AcDbEntity
  8
実線
100
AcDbCircle
 10
531.3268335039463
 20
642.6854849298542
 30
0.0
 40
66.99999999999993
100
AcDbArc
 50
0.0
 51
50.23341593083627
  0
ARC
  5
723
102
{ACAD_REACTORS
330
73E
102
}
330
1F
100
AcDbEntity
  8
実線
100
AcDbCircle
 10
531.3268335039463
 20
642.685484929854
 30
0.0
 40
53.0
100
AcDbArc
 50
14.75681560632401
 51
76.33609100304916
  0
LINE
  5
724
102
{ACAD_REACTORS
330
73E
102
}
330
1F
100
AcDbEntity
  8
実線
100
AcDbLine
 10
584.1698496122043
 20
656.1854849298542
 30
0.0
 11
487.8838173956883
 21
656.1854849298542
 31
0.0
  0
LINE
  5
725
102
{ACAD_REACTORS
330
73E
102
}
330
1F
100
AcDbEntity
  8
実線
100
AcDbLine
 10
487.8838173956883
 20
656.1854849298542
 30
0.0
 11
487.8838173956883
 21
591.1854849298542
 31
0.0
  0
LINE
  5
726
102
{ACAD_REACTORS
330
73E
102
}
330
1F
100
AcDbEntity
  8
実線
100
AcDbLine
 10
584.1698496122043
 20
591.1854849298542
 30
0.0
 11
584.1698496122043
 21
656.1854849298542
 31
0.0
  0
LINE
  5
727
102
{ACAD_REACTORS
330
741
102
}
330
1F
100
AcDbEntity
  8
中心線
100
AcDbLine
 10
351.0268335039464
 20
159.885484929854
 30
0.0
 11
721.0268335039463
 21
159.885484929854
 31
0.0
  0
LINE
  5
728
102
{ACAD_REACTORS
330
741
102
}
330
1F
100
AcDbEntity
  8
中心線
100
AcDbLine
 10
536.0268335039463
 20
24.8854849298541
 30
0.0
 11
536.0268335039463
 21
294.8854849298541
 31
0.0
  0
LINE
  5
730
102
{ACAD_REACTORS
330
740
102
}
330
1F
100
AcDbEntity
  8
中心線
100
AcDbLine
 10
351.0268335039464
 20
1119.885484929854
 30
0.0
 11
721.0268335039463
 21
1119.885484929854
 31
0.0
  0
LINE
  5
731
102
{ACAD_REACTORS
330
740
102
}
330
1F
100
AcDbEntity
  8
中心線
100
AcDbLine
 10
536.0268335039463
 20
984.8854849298541
 30
0.0
 11
536.0268335039463
 21
1254.885484929854
 31
0.0
  0
LINE
  5
732
102
{ACAD_REACTORS
330
73C
102
}
330
1F
100
AcDbEntity
  8
中心線
100
AcDbLine
 10
1145.942735566839
 20
748.1854849298541
 30
0.0
 11
1366.110931441053
 21
748.1854849298541
 31
0.0
  0
LINE
  5
733
102
{ACAD_REACTORS
330
73C
102
}
330
1F
100
AcDbEntity
  8
中心線
100
AcDbLine
 10
1256.026833503946
 20
417.1606516384016
 30
0.0
 11
1256.026833503946
 21
833.185484929854
 31
0.0
  0
LINE
  5
734
102
{ACAD_REACTORS
330
73C
102
}
330
1F
100
AcDbEntity
  8
中心線
100
AcDbLine
 10
1366.110931441053
 20
748.1854849298541
 30
0.0
 11
1411.778785049197
 21
702.51763132171
 31
0.0
  0
LINE
  5
735
102
{ACAD_REACTORS
330
73D
102
}
330
1F
100
AcDbEntity
  8
中心線
100
AcDbLine
 10
896.0268335039465
 20
428.1852329490193
 30
0.0
 11
896.0268335039465
 21
833.1854809070843
 31
0.0
  0
LINE
  5
736
102
{ACAD_REACTORS
330
73D
102
}
330
1F
100
AcDbEntity
  8
中心線
100
AcDbLine
 10
811.0529844278573
 20
748.1854849298541
 30
0.0
 11
981.0529844278574
 21
748.1854849298541
 31
0.0
  0
LINE
  5
737
102
{ACAD_REACTORS
330
73F
102
}
330
1F
100
AcDbEntity
  8
中心線
100
AcDbLine
 10
176.0268335039463
 20
428.1852329490193
 30
0.0
 11
176.0268335039463
 21
833.185484929854
 31
0.0
  0
LINE
  5
738
102
{ACAD_REACTORS
330
73F
102
}
330
1F
100
AcDbEntity
  8
中心線
100
AcDbLine
 10
91.02683350394636
 20
748.1854849298541
 30
0.0
 11
261.0268335039464
 21
748.1854849298541
 31
0.0
  0
LINE
  5
739
102
{ACAD_REACTORS
330
73E
102
}
330
1F
100
AcDbEntity
  8
中心線
100
AcDbLine
 10
646.1109314410533
 20
748.1854849298541
 30
0.0
 11
425.9427355668393
 21
748.1854849298541
 31
0.0
  0
LINE
  5
73A
102
{ACAD_REACTORS
330
73E
102
}
330
1F
100
AcDbEntity
  8
中心線
100
AcDbLine
 10
536.0268335039463
 20
428.1852329490193
 30
0.0
 11
536.0268335039463
 21
833.185484929854
 31
0.0
  0
LINE
  5
73B
102
{ACAD_REACTORS
330
73E
102
}
330
1F
100
AcDbEntity
  8
中心線
100
AcDbLine
 10
425.9427355668393
 20
748.1854849298541
 30
0.0
 11
380.2748819586959
 21
702.51763132171
 31
0.0
  0
ENDSEC
  0
SECTION
  2
OBJECTS
  0
DICTIONARY
  5
C
330
0
100
AcDbDictionary
281
     1
  3
ACAD_CIP_PREVIOUS_PRODUCT_INFO
350
23D
  3
ACAD_COLOR
350
233
  3
ACAD_DETAILVIEWSTYLE
350
236
  3
ACAD_GROUP
350
D
  3
ACAD_LAYOUT
350
1A
  3
ACAD_MATERIAL
350
43
  3
ACAD_MLEADERSTYLE
350
5B
  3
ACAD_MLINESTYLE
350
17
  3
ACAD_PLOTSETTINGS
350
19
  3
ACAD_PLOTSTYLENAME
350
E
  3
ACAD_SCALELIST
350
47
  3
ACAD_SECTIONVIEWSTYLE
350
234
  3
ACAD_TABLESTYLE
350
59
  3
ACAD_VISUALSTYLE
350
2A
  3
ACDB_RECOMPOSE_DATA
350
7A1
  3
AcDbVariableDictionary
350
1E8
  3
DWGPROPS
350
7A2
  0
DICTIONARY
  5
244
330
2
100
AcDbDictionary
280
     1
281
     1
  3
ACAD_LAYERSTATES
360
245
  0
DICTIONARY
  5
742
330
10
100
AcDbDictionary
280
     1
281
     1
  3
ADSK_XREC_LAYER_RECONCILED
360
743
  0
DICTIONARY
  5
240
330
23F
100
AcDbDictionary
280
     1
281
     1
  3
ADSK_XREC_LAYER_RECONCILED
360
744
  0
DICTIONARY
  5
242
330
241
100
AcDbDictionary
280
     1
281
     1
  3
ADSK_XREC_LAYER_RECONCILED
360
745
  0
DICTIONARY
  5
5E8
330
1F
100
AcDbDictionary
280
     1
281
     1
  3
ACAD_SORTENTS
360
5E9
  0
XRECORD
  5
23D
102
{ACAD_REACTORS
330
C
102
}
330
C
100
AcDbXrecord
280
     1
300
ACDLT
300
2016
300
ACDLT_F_S
  0
DICTIONARY
  5
233
102
{ACAD_REACTORS
330
C
102
}
330
C
100
AcDbDictionary
281
     1
  0
DICTIONARY
  5
236
102
{ACAD_REACTORS
330
C
102
}
330
C
100
AcDbDictionary
281
     1
  3
Metric50
350
237
  0
DICTIONARY
  5
D
102
{ACAD_REACTORS
330
C
102
}
330
C
100
AcDbDictionary
281
     1
  3
*A1
350
73C
  3
*A2
350
73D
  3
*A3
350
73E
  3
*A4
350
73F
  3
*A5
350
740
  3
*A6
350
741
  0
DICTIONARY
  5
1A
102
{ACAD_REACTORS
330
C
102
}
330
C
100
AcDbDictionary
281
     1
  3
Layout1
350
1E
  3
Model
350
22
  3
レイアウト1
350
238
  0
DICTIONARY
  5
43
102
{ACAD_REACTORS
330
C
102
}
330
C
100
AcDbDictionary
281
     1
  3
ByBlock
350
45
  3
ByLayer
350
44
  3
Global
350
46
  0
DICTIONARY
  5
5B
102
{ACAD_REACTORS
330
C
102
}
330
C
100
AcDbDictionary
281
     1
  3
Standard
350
5C
  0
DICTIONARY
  5
17
102
{ACAD_REACTORS
330
C
102
}
330
C
100
AcDbDictionary
281
     1
  3
Standard
350
18
  0
DICTIONARY
  5
19
102
{ACAD_REACTORS
330
C
102
}
330
C
100
AcDbDictionary
281
     1
  0
ACDBDICTIONARYWDFLT
  5
E
102
{ACAD_REACTORS
330
C
102
}
330
C
100
AcDbDictionary
281
     1
  3
Normal
350
F
100
AcDbDictionaryWithDefault
340
F
  0
DICTIONARY
  5
47
102
{ACAD_REACTORS
330
C
102
}
330
C
100
AcDbDictionary
281
     1
  3
A0
350
48
  3
A1
350
49
  3
A2
350
4A
  3
A3
350
4B
  3
A4
350
4C
  3
A5
350
4D
  3
A6
350
4E
  3
A7
350
4F
  3
A8
350
50
  3
A9
350
51
  3
B0
350
52
  3
B1
350
53
  3
B2
350
54
  3
B3
350
55
  3
B4
350
56
  3
B5
350
57
  3
B6
350
58
  0
DICTIONARY
  5
234
102
{ACAD_REACTORS
330
C
102
}
330
C
100
AcDbDictionary
281
     1
  3
Metric50
350
235
  0
DICTIONARY
  5
59
102
{ACAD_REACTORS
330
C
102
}
330
C
100
AcDbDictionary
281
     1
  3
Standard
350
5A
  0
DICTIONARY
  5
2A
102
{ACAD_REACTORS
330
C
102
}
330
C
100
AcDbDictionary
281
     1
  3
2dWireframe
350
2F
  3
Basic
350
32
  3
Brighten
350
36
  3
ColorChange
350
3A
  3
Conceptual
350
34
  3
Dim
350
35
  3
EdgeColorOff
350
3D
  3
Facepattern
350
39
  3
Flat
350
2B
  3
FlatWithEdges
350
2C
  3
Gouraud
350
2D
  3
GouraudWithEdges
350
2E
  3
Hidden
350
31
  3
JitterOff
350
3B
  3
Linepattern
350
38
  3
OverhangOff
350
3C
  3
Realistic
350
33
  3
Shaded
350
42
  3
Shaded with edges
350
41
  3
Shades of Gray
350
3E
  3
Sketchy
350
3F
  3
Thicken
350
37
  3
Wireframe
350
30
  3
X-Ray
350
40
  0
XRECORD
  5
7A1
102
{ACAD_REACTORS
330
C
102
}
330
C
100
AcDbXrecord
280
     1
 90
        1
330
5A
  0
DICTIONARY
  5
1E8
102
{ACAD_REACTORS
330
C
102
}
330
C
100
AcDbDictionary
281
     1
  3
CANNOSCALE
350
1F6
  3
CENTEREXE
350
1EF
  3
CENTERLTYPEFILE
350
1F0
  3
CMLEADERSTYLE
350
1EA
  3
CTABLESTYLE
350
1E9
  3
CVIEWDETAILSTYLE
350
746
  3
CVIEWSECTIONSTYLE
350
747
  3
DIMASSOC
350
1F1
  3
HIDETEXT
350
1F2
  3
INDEXCTL
350
799
  3
LAYEREVAL
350
749
  3
LAYERNOTIFY
350
74A
  3
LIGHTINGUNITS
350
748
  3
LOFTANG1
350
79C
  3
LOFTANG2
350
79D
  3
LONGITUDE
350
79E
  3
MSLTSCALE
350
1F7
  3
PSOLHEIGHT
350
79B
  3
PSOLWIDTH
350
79A
  3
SORTENTS
350
798
  3
XCLIPFRAME
350
79F
  0
XRECORD
  5
7A2
102
{ACAD_REACTORS
330
C
102
}
330
C
100
AcDbXrecord
280
     1
  1
DWGPROPS COOKIE
  2

  3

  4

  6
File was created by TR2_DExp
  7

  8
fujino
  9

300
=
301
=
302
=
303
=
304
=
305
=
306
=
307
=
308
=
309
=
 40
0.0093185416666667
 41
2455188.75
 42
2459754.626378438
  1

 90
        0
  0
DICTIONARY
  5
245
102
{ACAD_REACTORS
330
244
102
}
330
244
100
AcDbDictionary
281
     1
  0
XRECORD
  5
743
102
{ACAD_REACTORS
330
742
102
}
330
742
100
AcDbXrecord
280
     1
290
     1
  0
XRECORD
  5
744
102
{ACAD_REACTORS
330
240
102
}
330
240
100
AcDbXrecord
280
     1
290
     1
  0
XRECORD
  5
745
102
{ACAD_REACTORS
330
242
102
}
330
242
100
AcDbXrecord
280
     1
290
     1
  0
SORTENTSTABLE
  5
5E9
102
{ACAD_REACTORS
330
5E8
102
}
330
5E8
100
AcDbSortentsTable
330
1F
331
6E7
  5
409
331
677
  5
490
331
6E3
  5
405
331
6DF
  5
483
331
71E
  5
440
331
673
  5
48C
331
6DB
  5
47F
331
66F
  5
488
331
6AE
  5
452
331
71A
  5
43C
331
66B
  5
501
331
6AA
  5
44E
331
60C
  5
525
331
608
  5
521
331
63F
  5
4D5
331
604
  5
51D
331
63B
  5
4D1
331
600
  5
519
331
5D6
  5
55B
331
5D2
  5
557
331
6D7
  5
47B
331
716
  5
438
331
712
  5
434
331
6D3
  5
477
331
667
  5
4FD
331
6A6
  5
44A
331
6CF
  5
473
331
6A2
  5
4BB
331
70E
  5
430
331
663
  5
4F9
331
6CB
  5
46F
331
65F
  5
4F5
331
69E
  5
4B7
331
70A
  5
42C
331
637
  5
4CD
331
633
  5
4C9
331
65B
  5
4F1
331
69A
  5
4B3
331
5FC
  5
515
331
5F8
  5
511
331
62F
  5
4C5
331
5F4
  5
50D
331
62B
  5
4C1
331
5F0
  5
509
331
5CE
  5
553
331
5CA
  5
54F
331
5C6
  5
54B
331
5C2
  5
547
331
6C7
  5
46B
331
706
  5
428
331
702
  5
424
331
6C3
  5
467
331
657
  5
4ED
331
696
  5
4AF
331
6BF
  5
463
331
692
  5
4AB
331
6FE
  5
420
331
653
  5
4E9
331
6BB
  5
45F
331
64F
  5
4E5
331
68E
  5
4A7
331
6FA
  5
41C
331
73B
  5
73B
331
64B
  5
4E1
331
68A
  5
4A3
331
5E4
  5
569
331
5E0
  5
565
331
627
  5
540
331
5DC
  5
561
331
623
  5
53C
331
5D8
  5
55D
331
5BE
  5
543
331
735
  5
735
331
6B7
  5
45B
331
6F6
  5
418
331
731
  5
731
331
6F2
  5
414
331
6B3
  5
457
331
647
  5
4DD
331
686
  5
49F
331
682
  5
49B
331
6EE
  5
410
331
725
  5
447
331
643
  5
4D9
331
67E
  5
497
331
6EA
  5
40C
331
721
  5
443
331
61F
  5
538
331
61B
  5
534
331
67A
  5
493
331
617
  5
530
331
613
  5
52C
331
5EE
  5
507
331
5EA
  5
503
331
6E6
  5
408
331
676
  5
48F
331
6E2
  5
404
331
672
  5
48B
331
6DE
  5
482
331
71D
  5
43F
331
6DA
  5
47E
331
66E
  5
487
331
6AD
  5
451
331
719
  5
43B
331
60F
  5
528
331
60B
  5
524
331
66A
  5
500
331
6A9
  5
44D
331
607
  5
520
331
63E
  5
4D4
331
603
  5
51C
331
63A
  5
4D0
331
5D5
  5
55A
331
5D1
  5
556
331
6D6
  5
47A
331
715
  5
437
331
711
  5
433
331
6A5
  5
449
331
666
  5
4FC
331
6D2
  5
476
331
6CE
  5
472
331
6A1
  5
4BA
331
70D
  5
42F
331
662
  5
4F8
331
6CA
  5
46E
331
636
  5
4CC
331
65E
  5
4F4
331
69D
  5
4B6
331
709
  5
42B
331
5FF
  5
518
331
632
  5
4C8
331
65A
  5
4F0
331
699
  5
4B2
331
5FB
  5
514
331
5F7
  5
510
331
62E
  5
4C4
331
5F3
  5
50C
331
62A
  5
4C0
331
5CD
  5
552
331
5C9
  5
54E
331
5C5
  5
54A
331
5C1
  5
546
331
6C6
  5
46A
331
705
  5
427
331
701
  5
423
331
6C2
  5
466
331
656
  5
4EC
331
695
  5
4AE
331
6BE
  5
462
331
691
  5
4AA
331
6FD
  5
41F
331
652
  5
4E8
331
6BA
  5
45E
331
64E
  5
4E4
331
68D
  5
4A6
331
6F9
  5
41B
331
5E7
  5
56C
331
73A
  5
73A
331
64A
  5
4E0
331
689
  5
4A2
331
5E3
  5
568
331
5DF
  5
564
331
626
  5
53F
331
5DB
  5
560
331
622
  5
53B
331
5BD
  5
542
331
734
  5
734
331
6B6
  5
45A
331
6F5
  5
417
331
730
  5
730
331
6F1
  5
413
331
6B2
  5
456
331
646
  5
4DC
331
685
  5
49E
331
681
  5
49A
331
6ED
  5
40F
331
724
  5
446
331
642
  5
4D8
331
67D
  5
496
331
6E9
  5
40B
331
720
  5
442
331
61E
  5
537
331
61A
  5
533
331
679
  5
492
331
616
  5
52F
331
612
  5
52B
331
5ED
  5
506
331
6E5
  5
407
331
6E1
  5
485
331
675
  5
48E
331
671
  5
48A
331
6DD
  5
481
331
71C
  5
43E
331
6D9
  5
47D
331
66D
  5
486
331
6AC
  5
450
331
718
  5
43A
331
60E
  5
527
331
60A
  5
523
331
669
  5
4FF
331
6A8
  5
44C
331
606
  5
51F
331
63D
  5
4D3
331
602
  5
51B
331
639
  5
4CF
331
5D4
  5
559
331
5D0
  5
555
331
714
  5
436
331
6D5
  5
479
331
710
  5
432
331
6A4
  5
4BD
331
665
  5
4FB
331
6D1
  5
475
331
6CD
  5
471
331
661
  5
4F7
331
6A0
  5
4B9
331
70C
  5
42E
331
6C9
  5
46D
331
635
  5
4CB
331
65D
  5
4F3
331
69C
  5
4B5
331
708
  5
42A
331
5FE
  5
517
331
5FA
  5
513
331
631
  5
4C7
331
659
  5
4EF
331
698
  5
4B1
331
5F6
  5
50F
331
62D
  5
4C3
331
5F2
  5
50B
331
629
  5
4BF
331
5CC
  5
551
331
5C8
  5
54D
331
5C4
  5
549
331
5C0
  5
545
331
6C5
  5
469
331
704
  5
426
331
700
  5
422
331
694
  5
4AD
331
655
  5
4EB
331
6C1
  5
465
331
6BD
  5
461
331
690
  5
4A9
331
6FC
  5
41E
331
651
  5
4E7
331
6B9
  5
45D
331
64D
  5
4E3
331
68C
  5
4A5
331
6F8
  5
41A
331
5E6
  5
56B
331
739
  5
739
331
649
  5
4DF
331
688
  5
4A1
331
5E2
  5
567
331
5DE
  5
563
331
625
  5
53E
331
5DA
  5
55F
331
621
  5
53A
331
5BC
  5
541
331
737
  5
737
331
733
  5
733
331
6B5
  5
459
331
6F4
  5
416
331
727
  5
727
331
6F0
  5
412
331
6B1
  5
455
331
645
  5
4DB
331
684
  5
49D
331
680
  5
499
331
6EC
  5
40E
331
723
  5
445
331
641
  5
4D7
331
67C
  5
495
331
6E8
  5
40A
331
61D
  5
536
331
619
  5
532
331
678
  5
491
331
615
  5
52E
331
611
  5
52A
331
5EC
  5
505
331
6E4
  5
406
331
6E0
  5
484
331
71F
  5
441
331
674
  5
48D
331
6DC
  5
480
331
670
  5
489
331
6AF
  5
453
331
71B
  5
43D
331
6D8
  5
47C
331
66C
  5
502
331
6AB
  5
44F
331
60D
  5
526
331
609
  5
522
331
668
  5
4FE
331
605
  5
51E
331
63C
  5
4D2
331
601
  5
51A
331
638
  5
4CE
331
5D7
  5
55C
331
5D3
  5
558
331
717
  5
439
331
713
  5
435
331
6D4
  5
478
331
6A7
  5
44B
331
6D0
  5
474
331
6A3
  5
4BC
331
70F
  5
431
331
664
  5
4FA
331
6CC
  5
470
331
660
  5
4F6
331
69F
  5
4B8
331
70B
  5
42D
331
6C8
  5
46C
331
634
  5
4CA
331
65C
  5
4F2
331
69B
  5
4B4
331
5FD
  5
516
331
5F9
  5
512
331
630
  5
4C6
331
658
  5
4EE
331
5F5
  5
50E
331
62C
  5
4C2
331
5F1
  5
50A
331
628
  5
4BE
331
5CF
  5
554
331
5CB
  5
550
331
728
  5
728
331
5C7
  5
54C
331
5C3
  5
548
331
707
  5
429
331
703
  5
425
331
6C4
  5
468
331
697
  5
4B0
331
6FF
  5
421
331
693
  5
4AC
331
654
  5
4EA
331
6C0
  5
464
331
6BC
  5
460
331
650
  5
4E6
331
68F
  5
4A8
331
6FB
  5
41D
331
6B8
  5
45C
331
64C
  5
4E2
331
68B
  5
4A4
331
5E5
  5
56A
331
738
  5
738
331
5E1
  5
566
331
648
  5
4DE
331
5DD
  5
562
331
624
  5
53D
331
5D9
  5
55E
331
620
  5
539
331
5BF
  5
544
331
736
  5
736
331
6F7
  5
419
331
732
  5
732
331
6B4
  5
458
331
687
  5
4A0
331
6F3
  5
415
331
6EF
  5
411
331
726
  5
448
331
683
  5
49C
331
644
  5
4DA
331
6B0
  5
454
331
67F
  5
498
331
6EB
  5
40D
331
722
  5
444
331
640
  5
4D6
331
61C
  5
535
331
67B
  5
494
331
618
  5
531
331
614
  5
52D
331
610
  5
529
331
5EF
  5
508
331
5EB
  5
504
  0
ACDBDETAILVIEWSTYLE
  5
237
102
{ACAD_XDICTIONARY
360
7DA
102
}
102
{ACAD_REACTORS
330
236
102
}
330
236
100
AcDbModelDocViewStyle
 70
     0
  3
Metric50
290
     0
100
AcDbDetailViewStyle
 70
     0
 71
     0
 90
        3
 71
     1
340
11
 40
5.0
340
0
 40
5.0
300

 40
0.0
280
     1
 71
     2
340
16
 90
       25
 71
     3
340
11
 40
5.0
 90
        0
 40
15.0
 90
        1
300
%<\AcVar ViewDetailId>% (%<\AcVar ViewScale \f "%sn">%)
 71
     4
340
16
 90
       25
340
16
 90
       25
280
     0
  0
GROUP
  5
73C
102
{ACAD_REACTORS
330
D
102
}
330
D
100
AcDbGroup
300

 70
     1
 71
     1
340
734
340
733
340
732
340
66C
340
66B
340
66A
340
669
340
668
340
667
340
666
340
665
340
664
340
663
340
662
340
661
340
660
340
65F
340
65E
340
65D
340
65C
340
65B
340
65A
340
659
340
658
340
657
340
656
340
655
340
654
340
653
340
652
340
651
340
650
340
64F
340
64E
340
64D
340
64C
340
64B
340
64A
340
649
340
648
340
647
340
646
340
645
340
644
340
643
340
642
340
641
340
640
340
63F
340
63E
340
63D
340
63C
340
63B
340
63A
340
639
340
638
340
637
340
636
340
635
340
634
340
633
340
632
340
631
340
630
340
62F
340
62E
340
62D
340
62C
340
62B
340
62A
340
629
340
628
  0
GROUP
  5
73D
102
{ACAD_REACTORS
330
D
102
}
330
D
100
AcDbGroup
300

 70
     1
 71
     1
340
736
340
735
340
6A4
340
6A3
340
6A2
340
6A1
340
6A0
340
69F
340
69E
340
69D
340
69C
340
69B
340
69A
340
699
340
698
340
697
340
696
340
695
340
694
340
693
340
692
340
691
340
690
340
68F
340
68E
340
68D
340
68C
340
68B
340
68A
340
689
340
688
340
687
340
686
340
685
340
684
340
683
340
682
340
681
340
680
340
67F
340
67E
340
67D
340
67C
340
67B
340
67A
340
679
340
678
340
677
340
676
340
675
340
674
340
673
340
672
340
671
340
670
340
66F
340
66E
340
66D
  0
GROUP
  5
73E
102
{ACAD_REACTORS
330
D
102
}
330
D
100
AcDbGroup
300

 70
     1
 71
     1
340
73B
340
73A
340
739
340
726
340
725
340
724
340
723
340
722
340
721
340
720
340
71F
340
71E
340
71D
340
71C
340
71B
340
71A
340
719
340
718
340
717
340
716
340
715
340
714
340
713
340
712
340
711
340
710
340
70F
340
70E
340
70D
340
70C
340
70B
340
70A
340
709
340
708
340
707
340
706
340
705
340
704
340
703
340
702
340
701
340
700
340
6FF
340
6FE
340
6FD
340
6FC
340
6FB
340
6FA
340
6F9
340
6F8
340
6F7
340
6F6
340
6F5
340
6F4
340
6F3
340
6F2
340
6F1
340
6F0
340
6EF
340
6EE
340
6ED
340
6EC
340
6EB
340
6EA
340
6E9
340
6E8
340
6E7
340
6E6
340
6E5
340
6E4
340
6E3
340
6E2
  0
GROUP
  5
73F
102
{ACAD_REACTORS
330
D
102
}
330
D
100
AcDbGroup
300

 70
     1
 71
     1
340
738
340
737
340
6E1
340
6E0
340
6DF
340
6DE
340
6DD
340
6DC
340
6DB
340
6DA
340
6D9
340
6D8
340
6D7
340
6D6
340
6D5
340
6D4
340
6D3
340
6D2
340
6D1
340
6D0
340
6CF
340
6CE
340
6CD
340
6CC
340
6CB
340
6CA
340
6C9
340
6C8
340
6C7
340
6C6
340
6C5
340
6C4
340
6C3
340
6C2
340
6C1
340
6C0
340
6BF
340
6BE
340
6BD
340
6BC
340
6BB
340
6BA
340
6B9
340
6B8
340
6B7
340
6B6
340
6B5
340
6B4
340
6B3
340
6B2
340
6B1
340
6B0
340
6AF
340
6AE
340
6AD
340
6AC
340
6AB
340
6AA
340
6A9
340
6A8
340
6A7
340
6A6
340
6A5
  0
GROUP
  5
740
102
{ACAD_REACTORS
330
D
102
}
330
D
100
AcDbGroup
300

 70
     1
 71
     1
340
731
340
730
340
5E7
340
5E6
340
5E5
340
5E4
340
5E3
340
5E2
340
5E1
340
5E0
340
5DF
340
5DE
340
5DD
340
5DC
340
5DB
340
5DA
340
5D9
340
5D8
340
5D7
340
5D6
340
5D5
340
5D4
340
5D3
340
5D2
340
5D1
340
5D0
340
5CF
340
5CE
340
5CD
340
5CC
340
5CB
340
5CA
340
5C9
340
5C8
340
5C7
340
5C6
340
5C5
340
5C4
340
5C3
340
5C2
340
5C1
340
5C0
340
5BF
340
5BE
340
5BD
340
5BC
  0
GROUP
  5
741
102
{ACAD_REACTORS
330
D
102
}
330
D
100
AcDbGroup
300

 70
     1
 71
     1
340
728
340
727
340
627
340
626
340
625
340
624
340
623
340
622
340
621
340
620
340
61F
340
61E
340
61D
340
61C
340
61B
340
61A
340
619
340
618
340
617
340
616
340
615
340
614
340
613
340
612
340
611
340
610
340
60F
340
60E
340
60D
340
60C
340
60B
340
60A
340
609
340
608
340
607
340
606
340
605
340
604
340
603
340
602
340
601
340
600
340
5FF
340
5FE
340
5FD
340
5FC
340
5FB
340
5FA
340
5F9
340
5F8
340
5F7
340
5F6
340
5F5
340
5F4
340
5F3
340
5F2
340
5F1
340
5F0
340
5EF
340
5EE
340
5ED
340
5EC
340
5EB
340
5EA
  0
LAYOUT
  5
1E
102
{ACAD_XDICTIONARY
360
7A3
102
}
102
{ACAD_REACTORS
330
1A
102
}
330
1A
100
AcDbPlotSettings
  1

  2
none_device
  4

  6

 40
0.0
 41
0.0
 42
0.0
 43
0.0
 44
0.0
 45
0.0
 46
0.0
 47
0.0
 48
0.0
 49
0.0
140
0.0
141
0.0
142
1.0
143
1.0
 70
   688
 72
     1
 73
     0
 74
     5
  7

 75
    16
147
1.0
148
0.0
149
0.0
100
AcDbLayout
  1
Layout1
 70
     1
 71
     1
 10
0.0
 20
0.0
 11
420.0
 21
297.0
 12
0.0
 22
0.0
 32
0.0
 14
1.000000000000000E+20
 24
1.000000000000000E+20
 34
1.000000000000000E+20
 15
-1.000000000000000E+20
 25
-1.000000000000000E+20
 35
-1.000000000000000E+20
146
0.0
 13
0.0
 23
0.0
 33
0.0
 16
1.0
 26
0.0
 36
0.0
 17
0.0
 27
1.0
 37
0.0
 76
     0
330
1B
  0
LAYOUT
  5
22
102
{ACAD_XDICTIONARY
360
7A5
102
}
102
{ACAD_REACTORS
330
1A
102
}
330
1A
100
AcDbPlotSettings
  1

  2
none_device
  4
Letter_(8.50_x_11.00_Inches)
  6

 40
6.349999999999998
 41
6.349999999999998
 42
6.350005079999998
 43
6.350005079999998
 44
215.9
 45
279.4
 46
0.0
 47
0.0
 48
0.0
 49
0.0
140
0.0
141
0.0
142
1.0
143
1.0
 70
  1712
 72
     1
 73
     0
 74
     0
  7

 75
     0
147
1.0
148
0.0
149
0.0
100
AcDbLayout
  1
Model
 70
     1
 71
     0
 10
-582.1575927734373
 20
-758.2971954345703
 11
1034.96918959663
 21
532.3938598632811
 12
0.0
 22
0.0
 32
0.0
 14
-582.1575927734373
 24
-758.2971954345703
 34
0.0
 15
1034.96918959663
 25
532.3938598632811
 35
0.0
146
0.0
 13
0.0
 23
0.0
 33
0.0
 16
1.0
 26
0.0
 36
0.0
 17
0.0
 27
1.0
 37
0.0
 76
     0
330
1F
331
29
  0
LAYOUT
  5
238
102
{ACAD_XDICTIONARY
360
7DC
102
}
102
{ACAD_REACTORS
330
1A
102
}
330
1A
100
AcDbPlotSettings
  1

  2
青梅 FX DocuCentre-V C2275 T2
  4

  6

 40
0.0
 41
0.0
 42
0.0
 43
0.0
 44
0.0
 45
0.0
 46
0.0
 47
0.0
 48
0.0
 49
0.0
140
0.0
141
0.0
142
1.0
143
1.0
 70
   688
 72
     0
 73
     0
 74
     5
  7
AutoCAD_PEN.ctb
 75
    16
147
1.0
148
0.0
149
0.0
100
AcDbLayout
  1
レイアウト1
 70
     1
 71
     2
 10
0.0
 20
0.0
 11
12.0
 21
9.0
 12
0.0
 22
0.0
 32
0.0
 14
0.0
 24
0.0
 34
0.0
 15
0.0
 25
0.0
 35
0.0
146
0.0
 13
0.0
 23
0.0
 33
0.0
 16
1.0
 26
0.0
 36
0.0
 17
0.0
 27
1.0
 37
0.0
 76
     0
330
23
  0
MATERIAL
  5
45
102
{ACAD_XDICTIONARY
360
22A
102
}
102
{ACAD_REACTORS
330
43
102
}
330
43
100
AcDbMaterial
  1
ByBlock
  0
MATERIAL
  5
44
102
{ACAD_XDICTIONARY
360
228
102
}
102
{ACAD_REACTORS
330
43
102
}
330
43
100
AcDbMaterial
  1
ByLayer
  0
MATERIAL
  5
46
102
{ACAD_XDICTIONARY
360
22C
102
}
102
{ACAD_REACTORS
330
43
102
}
330
43
100
AcDbMaterial
  1
Global
  0
MLEADERSTYLE
  5
5C
102
{ACAD_REACTORS
330
5B
102
}
330
5B
100
AcDbMLeaderStyle
170
     2
171
     1
172
     0
 90
        2
 40
0.0
 41
0.0
173
     1
 91
-1056964608
340
14
 92
       -2
290
     1
 42
2.0
291
     1
 43
8.0
  3
Standard
 44
4.0
300

342
11
174
     1
178
     6
175
     1
176
     0
 93
-1056964608
 45
4.0
292
     0
297
     0
 46
4.0
 94
-1056964608
 47
1.0
 49
1.0
140
1.0
293
     1
141
0.0
294
     1
177
     0
142
1.0
295
     0
296
     0
143
3.75
1001
ACAD_MLEADERVER
1070
     2
  0
MLINESTYLE
  5
18
102
{ACAD_REACTORS
330
17
102
}
330
17
100
AcDbMlineStyle
  2
STANDARD
 70
     0
  3

 62
   256
 51
90.0
 52
90.0
 71
     2
 49
0.5
 62
   256
  6
BYLAYER
 49
-0.5
 62
   256
  6
BYLAYER
  0
ACDBPLACEHOLDER
  5
F
102
{ACAD_REACTORS
330
E
102
}
330
E
  0
SCALE
  5
48
102
{ACAD_REACTORS
330
47
102
}
330
47
100
AcDbScale
 70
     0
300
1:1
140
1.0
141
1.0
290
     1
  0
SCALE
  5
49
102
{ACAD_REACTORS
330
47
102
}
330
47
100
AcDbScale
 70
     0
300
1:2
140
1.0
141
2.0
290
     0
  0
SCALE
  5
4A
102
{ACAD_REACTORS
330
47
102
}
330
47
100
AcDbScale
 70
     0
300
1:4
140
1.0
141
4.0
290
     0
  0
SCALE
  5
4B
102
{ACAD_REACTORS
330
47
102
}
330
47
100
AcDbScale
 70
     0
300
1:5
140
1.0
141
5.0
290
     0
  0
SCALE
  5
4C
102
{ACAD_REACTORS
330
47
102
}
330
47
100
AcDbScale
 70
     0
300
1:8
140
1.0
141
8.0
290
     0
  0
SCALE
  5
4D
102
{ACAD_REACTORS
330
47
102
}
330
47
100
AcDbScale
 70
     0
300
1:10
140
1.0
141
10.0
290
     0
  0
SCALE
  5
4E
102
{ACAD_REACTORS
330
47
102
}
330
47
100
AcDbScale
 70
     0
300
1:16
140
1.0
141
16.0
290
     0
  0
SCALE
  5
4F
102
{ACAD_REACTORS
330
47
102
}
330
47
100
AcDbScale
 70
     0
300
1:20
140
1.0
141
20.0
290
     0
  0
SCALE
  5
50
102
{ACAD_REACTORS
330
47
102
}
330
47
100
AcDbScale
 70
     0
300
1:30
140
1.0
141
30.0
290
     0
  0
SCALE
  5
51
102
{ACAD_REACTORS
330
47
102
}
330
47
100
AcDbScale
 70
     0
300
1:40
140
1.0
141
40.0
290
     0
  0
SCALE
  5
52
102
{ACAD_REACTORS
330
47
102
}
330
47
100
AcDbScale
 70
     0
300
1:50
140
1.0
141
50.0
290
     0
  0
SCALE
  5
53
102
{ACAD_REACTORS
330
47
102
}
330
47
100
AcDbScale
 70
     0
300
1:100
140
1.0
141
100.0
290
     0
  0
SCALE
  5
54
102
{ACAD_REACTORS
330
47
102
}
330
47
100
AcDbScale
 70
     0
300
2:1
140
2.0
141
1.0
290
     0
  0
SCALE
  5
55
102
{ACAD_REACTORS
330
47
102
}
330
47
100
AcDbScale
 70
     0
300
4:1
140
4.0
141
1.0
290
     0
  0
SCALE
  5
56
102
{ACAD_REACTORS
330
47
102
}
330
47
100
AcDbScale
 70
     0
300
8:1
140
8.0
141
1.0
290
     0
  0
SCALE
  5
57
102
{ACAD_REACTORS
330
47
102
}
330
47
100
AcDbScale
 70
     0
300
10:1
140
10.0
141
1.0
290
     0
  0
SCALE
  5
58
102
{ACAD_REACTORS
330
47
102
}
330
47
100
AcDbScale
 70
     0
300
100:1
140
100.0
141
1.0
290
     0
  0
ACDBSECTIONVIEWSTYLE
  5
235
102
{ACAD_XDICTIONARY
360
7D8
102
}
102
{ACAD_REACTORS
330
234
102
}
330
234
100
AcDbModelDocViewStyle
 70
     0
  3
Metric50
290
     0
100
AcDbSectionViewStyle
 70
     0
 71
     0
 90
      102
 71
     1
340
11
 40
5.0
340
0
340
0
 40
5.0
300
I, O, Q, S, X, Z
 40
10.0
 90
        0
 40
2.5
 90
        0
 71
     2
340
16
 90
       25
340
16
 90
       50
 40
5.0
 40
2.5
 40
5.0
 71
     3
340
11
 40
5.0
 90
        0
 40
15.0
 90
        1
300
%<\AcVar ViewSectionStartId>%-%<\AcVar ViewSectionEndId>% (%<\AcVar ViewScale \f "%sn">%)
 71
     4
300
ANSI31
 40
1.0
 90
        0
290
     0
290
     0
 90
        6
 40
0.0
 40
1.570796326794896
 40
0.2617993877991494
 40
1.308996938995747
 40
-0.2617993877991494
 40
1.832595714594045
  0
TABLESTYLE
  5
5A
102
{ACAD_XDICTIONARY
360
74B
102
}
102
{ACAD_REACTORS
330
59
102
}
330
59
100
AcDbTableStyle
  3
Standard
 70
     0
 71
     0
 40
1.5
 41
1.5
280
     0
281
     0
  7
Standard
140
4.5
170
     2
 62
     0
 63
     7
283
     0
274
    -2
284
     1
 64
     0
275
    -2
285
     1
 65
     0
276
    -2
286
     1
 66
     0
277
    -2
287
     1
 67
     0
278
    -2
288
     1
 68
     0
279
    -2
289
     1
 69
     0
  7
Standard
140
6.0
170
     5
 62
     0
 63
     7
283
     0
274
    -2
284
     1
 64
     0
275
    -2
285
     1
 65
     0
276
    -2
286
     1
 66
     0
277
    -2
287
     1
 67
     0
278
    -2
288
     1
 68
     0
279
    -2
289
     1
 69
     0
  7
Standard
140
4.5
170
     5
 62
     0
 63
     7
283
     0
274
    -2
284
     1
 64
     0
275
    -2
285
     1
 65
     0
276
    -2
286
     1
 66
     0
277
    -2
287
     1
 67
     0
278
    -2
288
     1
 68
     0
279
    -2
289
     1
 69
     0
  0
VISUALSTYLE
  5
2F
102
{ACAD_XDICTIONARY
360
7AF
102
}
102
{ACAD_REACTORS
330
2A
102
}
330
2A
100
AcDbVisualStyle
  2

 70
     4
 71
     0
 72
     2
 73
     0
 90
        0
 40
-0.6
 41
-30.0
 62
     5
 63
     7
 74
     1
 91
        4
 64
     7
 65
   257
 75
     1
175
     1
 42
1.0
 92
        0
 66
   257
 43
1.0
 76
     1
 77
     6
 78
     2
 67
     7
 79
     5
170
     0
171
     0
290
     0
174
     0
 93
        1
 44
0.0
173
     0
291
     0
 45
0.0
1001
ACAD
1000
AcDbSavedByObjectVersion
1070
     0
  0
VISUALSTYLE
  5
32
102
{ACAD_XDICTIONARY
360
7B5
102
}
102
{ACAD_REACTORS
330
2A
102
}
330
2A
100
AcDbVisualStyle
  2

 70
     7
 71
     1
 72
     0
 73
     1
 90
        0
 40
-0.6
 41
-30.0
 62
     5
 63
     7
 74
     0
 91
        4
 64
     7
 65
   257
 75
     1
175
     1
 42
1.0
 92
        8
 66
     7
 43
1.0
 76
     1
 77
     6
 78
     2
 67
     7
 79
     5
170
     0
171
     0
290
     0
174
     0
 93
        1
 44
0.0
173
     0
291
     1
 45
0.0
1001
ACAD
1000
AcDbSavedByObjectVersion
1070
     0
  0
VISUALSTYLE
  5
36
102
{ACAD_XDICTIONARY
360
7BD
102
}
102
{ACAD_REACTORS
330
2A
102
}
330
2A
100
AcDbVisualStyle
  2

 70
    12
 71
     2
 72
     2
 73
     0
 90
        0
 40
-0.6
 41
-30.0
 62
     5
 63
     7
 74
     1
 91
        4
 64
     7
 65
   257
 75
     1
175
     1
 42
1.0
 92
        8
 66
     7
 43
1.0
 76
     1
 77
     6
 78
     2
 67
     7
 79
     5
170
     0
171
     0
290
     0
174
     0
 93
        1
 44
50.0
173
     0
291
     1
 45
0.0
1001
ACAD
1000
AcDbSavedByObjectVersion
1070
     0
  0
VISUALSTYLE
  5
3A
102
{ACAD_XDICTIONARY
360
7C5
102
}
102
{ACAD_REACTORS
330
2A
102
}
330
2A
100
AcDbVisualStyle
  2

 70
    16
 71
     2
 72
     2
 73
     3
 90
        0
 40
-0.6
 41
-30.0
 62
     5
 63
     8
 74
     1
 91
        4
 64
     7
 65
   257
 75
     1
175
     1
 42
1.0
 92
        8
 66
     8
 43
1.0
 76
     1
 77
     6
 78
     2
 67
     7
 79
     5
170
     0
171
     0
290
     0
174
     0
 93
        1
 44
0.0
173
     0
291
     1
 45
0.0
1001
ACAD
1000
AcDbSavedByObjectVersion
1070
     0
  0
VISUALSTYLE
  5
34
102
{ACAD_XDICTIONARY
360
7B9
102
}
102
{ACAD_REACTORS
330
2A
102
}
330
2A
100
AcDbVisualStyle
  2

 70
     9
 71
     3
 72
     2
 73
     0
 90
        0
 40
-0.6
 41
-30.0
 62
     5
 63
     7
 74
     2
 91
        2
 64
     7
 65
   257
 75
     1
175
     1
 42
179.0
 92
        8
 66
     7
 43
1.0
 76
     1
 77
     6
 78
     2
 67
     7
 79
     3
170
     0
171
     0
290
     0
174
     0
 93
        1
 44
0.0
173
     0
291
     0
 45
0.0
1001
ACAD
1000
AcDbSavedByObjectVersion
1070
     0
  0
VISUALSTYLE
  5
35
102
{ACAD_XDICTIONARY
360
7BB
102
}
102
{ACAD_REACTORS
330
2A
102
}
330
2A
100
AcDbVisualStyle
  2

 70
    11
 71
     2
 72
     2
 73
     0
 90
        0
 40
-0.6
 41
-30.0
 62
     5
 63
     7
 74
     1
 91
        4
 64
     7
 65
   257
 75
     1
175
     1
 42
1.0
 92
        8
 66
     7
 43
1.0
 76
     1
 77
     6
 78
     2
 67
     7
 79
     5
170
     0
171
     0
290
     0
174
     0
 93
        1
 44
-50.0
173
     0
291
     1
 45
0.0
1001
ACAD
1000
AcDbSavedByObjectVersion
1070
     0
  0
VISUALSTYLE
  5
3D
102
{ACAD_XDICTIONARY
360
7CB
102
}
102
{ACAD_REACTORS
330
2A
102
}
330
2A
100
AcDbVisualStyle
  2

 70
    22
 71
     2
 72
     2
 73
     0
 90
        0
 40
-0.6
 41
-30.0
 62
     5
 63
     7
 74
     1
 91
        4
 64
     7
 65
   257
 75
     1
175
     1
 42
1.0
 92
        8
 66
     7
 43
1.0
 76
     1
 77
     6
 78
     2
 67
     7
 79
     5
170
     0
171
     0
290
     0
174
     0
 93
        1
 44
0.0
173
     0
291
     1
 45
0.0
1001
ACAD
1000
AcDbSavedByObjectVersion
1070
     0
  0
VISUALSTYLE
  5
39
102
{ACAD_XDICTIONARY
360
7C3
102
}
102
{ACAD_REACTORS
330
2A
102
}
330
2A
100
AcDbVisualStyle
  2

 70
    15
 71
     2
 72
     2
 73
     0
 90
        0
 40
-0.6
 41
-30.0
 62
     5
 63
     7
 74
     1
 91
        4
 64
     7
 65
   257
 75
     1
175
     1
 42
1.0
 92
        8
 66
     7
 43
1.0
 76
     1
 77
     6
 78
     2
 67
     7
 79
     5
170
     0
171
     0
290
     0
174
     0
 93
        1
 44
0.0
173
     0
291
     1
 45
0.0
1001
ACAD
1000
AcDbSavedByObjectVersion
1070
     0
  0
VISUALSTYLE
  5
2B
102
{ACAD_XDICTIONARY
360
7A7
102
}
102
{ACAD_REACTORS
330
2A
102
}
330
2A
100
AcDbVisualStyle
  2

 70
     0
 71
     2
 72
     1
 73
     1
 90
        2
 40
-0.6
 41
30.0
 62
     5
 63
     7
 74
     0
 91
        0
 64
     7
 65
   257
 75
     1
175
     1
 42
1.0
 92
        8
 66
     7
 43
1.0
 76
     1
 77
     6
 78
     2
 67
     7
 79
     5
170
     0
171
     0
290
     0
174
     0
 93
       13
 44
0.0
173
     0
291
     1
 45
0.0
1001
ACAD
1000
AcDbSavedByObjectVersion
1070
     0
  0
VISUALSTYLE
  5
2C
102
{ACAD_XDICTIONARY
360
7A9
102
}
102
{ACAD_REACTORS
330
2A
102
}
330
2A
100
AcDbVisualStyle
  2

 70
     1
 71
     2
 72
     1
 73
     1
 90
        2
 40
-0.6
 41
30.0
 62
     5
 63
     7
 74
     1
 91
        0
 64
     7
 65
   257
 75
     1
175
     1
 42
1.0
 92
        0
 66
   257
 43
1.0
 76
     1
 77
     6
 78
     2
 67
     7
 79
     5
170
     0
171
     0
290
     0
174
     0
 93
       13
 44
0.0
173
     0
291
     1
 45
0.0
1001
ACAD
1000
AcDbSavedByObjectVersion
1070
     0
  0
VISUALSTYLE
  5
2D
102
{ACAD_XDICTIONARY
360
7AB
102
}
102
{ACAD_REACTORS
330
2A
102
}
330
2A
100
AcDbVisualStyle
  2

 70
     2
 71
     2
 72
     2
 73
     1
 90
        2
 40
-0.6
 41
30.0
 62
     5
 63
     7
 74
     0
 91
        0
 64
     7
 65
   257
 75
     1
175
     1
 42
1.0
 92
        0
 66
     7
 43
1.0
 76
     1
 77
     6
 78
     2
 67
     7
 79
     5
170
     0
171
     0
290
     0
174
     0
 93
       13
 44
0.0
173
     0
291
     1
 45
0.0
1001
ACAD
1000
AcDbSavedByObjectVersion
1070
     0
  0
VISUALSTYLE
  5
2E
102
{ACAD_XDICTIONARY
360
7AD
102
}
102
{ACAD_REACTORS
330
2A
102
}
330
2A
100
AcDbVisualStyle
  2

 70
     3
 71
     2
 72
     2
 73
     1
 90
        2
 40
-0.6
 41
30.0
 62
     5
 63
     7
 74
     1
 91
        0
 64
     7
 65
   257
 75
     1
175
     1
 42
1.0
 92
        0
 66
   257
 43
1.0
 76
     1
 77
     6
 78
     2
 67
     7
 79
     5
170
     0
171
     0
290
     0
174
     0
 93
       13
 44
0.0
173
     0
291
     1
 45
0.0
1001
ACAD
1000
AcDbSavedByObjectVersion
1070
     0
  0
VISUALSTYLE
  5
31
102
{ACAD_XDICTIONARY
360
7B3
102
}
102
{ACAD_REACTORS
330
2A
102
}
330
2A
100
AcDbVisualStyle
  2

 70
     6
 71
     1
 72
     2
 73
     2
 90
        0
 40
-0.6
 41
-30.0
 62
     5
 63
     7
 74
     2
 91
        2
 64
     7
 65
   257
 75
     2
175
     1
 42
40.0
 92
        0
 66
   257
 43
1.0
 76
     1
 77
     6
 78
     2
 67
     7
 79
     3
170
     0
171
     0
290
     0
174
     0
 93
        1
 44
0.0
173
     0
291
     0
 45
0.0
1001
ACAD
1000
AcDbSavedByObjectVersion
1070
     0
  0
VISUALSTYLE
  5
3B
102
{ACAD_XDICTIONARY
360
7C7
102
}
102
{ACAD_REACTORS
330
2A
102
}
330
2A
100
AcDbVisualStyle
  2

 70
    20
 71
     2
 72
     2
 73
     0
 90
        0
 40
-0.6
 41
-30.0
 62
     5
 63
     7
 74
     1
 91
        4
 64
     7
 65
   257
 75
     1
175
     1
 42
1.0
 92
       10
 66
     7
 43
1.0
 76
     1
 77
     6
 78
     2
 67
     7
 79
     5
170
     0
171
     0
290
     0
174
     0
 93
        1
 44
0.0
173
     0
291
     1
 45
0.0
1001
ACAD
1000
AcDbSavedByObjectVersion
1070
     0
  0
VISUALSTYLE
  5
38
102
{ACAD_XDICTIONARY
360
7C1
102
}
102
{ACAD_REACTORS
330
2A
102
}
330
2A
100
AcDbVisualStyle
  2

 70
    14
 71
     2
 72
     2
 73
     0
 90
        0
 40
-0.6
 41
-30.0
 62
     5
 63
     7
 74
     1
 91
        4
 64
     7
 65
   257
 75
     7
175
     7
 42
1.0
 92
        8
 66
     7
 43
1.0
 76
     1
 77
     6
 78
     2
 67
     7
 79
     5
170
     0
171
     0
290
     0
174
     0
 93
        1
 44
0.0
173
     0
291
     1
 45
0.0
1001
ACAD
1000
AcDbSavedByObjectVersion
1070
     0
  0
VISUALSTYLE
  5
3C
102
{ACAD_XDICTIONARY
360
7C9
102
}
102
{ACAD_REACTORS
330
2A
102
}
330
2A
100
AcDbVisualStyle
  2

 70
    21
 71
     2
 72
     2
 73
     0
 90
        0
 40
-0.6
 41
-30.0
 62
     5
 63
     7
 74
     1
 91
        4
 64
     7
 65
   257
 75
     1
175
     1
 42
1.0
 92
        9
 66
     7
 43
1.0
 76
     1
 77
     6
 78
     2
 67
     7
 79
     5
170
     0
171
     0
290
     0
174
     0
 93
        1
 44
0.0
173
     0
291
     1
 45
0.0
1001
ACAD
1000
AcDbSavedByObjectVersion
1070
     0
  0
VISUALSTYLE
  5
33
102
{ACAD_XDICTIONARY
360
7B7
102
}
102
{ACAD_REACTORS
330
2A
102
}
330
2A
100
AcDbVisualStyle
  2

 70
     8
 71
     2
 72
     3
 73
     0
 90
        2
 40
-0.6
 41
30.0
 62
     5
 63
     7
 74
     0
 91
        0
 64
     7
 65
   257
 75
     1
175
     1
 42
1.0
 92
        8
 66
   257
 43
1.0
 76
     1
 77
     6
 78
     2
 67
     7
 79
     3
170
     0
171
     0
290
     0
174
     0
 93
       13
 44
0.0
173
     0
291
     0
 45
0.0
1001
ACAD
1000
AcDbSavedByObjectVersion
1070
     0
  0
VISUALSTYLE
  5
42
102
{ACAD_XDICTIONARY
360
7D5
102
}
102
{ACAD_REACTORS
330
2A
102
}
330
2A
100
AcDbVisualStyle
  2

 70
    27
 71
     2
 72
     2
 73
     1
 90
        2
 40
-0.6
 41
30.0
 62
     5
 63
     7
 74
     0
 91
        4
 64
     7
 65
   257
 75
     1
175
     1
 42
1.0
 92
        8
 66
   257
 43
1.0
 76
     1
 77
     6
 78
     2
 67
     8
 79
     3
170
     0
171
     0
290
     0
174
     0
 93
        5
 44
0.0
173
     0
291
     0
 45
0.0
1001
ACAD
1000
AcDbSavedByObjectVersion
1070
     0
  0
VISUALSTYLE
  5
41
102
{ACAD_XDICTIONARY
360
7D3
102
}
102
{ACAD_REACTORS
330
2A
102
}
330
2A
100
AcDbVisualStyle
  2

 70
    26
 71
     2
 72
     2
 73
     1
 90
        2
 40
-0.6
 41
30.0
 62
     5
 63
     7
 74
     1
 91
       10
 64
     7
 65
   257
 75
     2
175
     1
 42
1.0
 92
        8
 66
   257
 43
1.0
 76
     1
 77
     6
 78
     2
 67
     7
 79
     3
170
     0
171
     0
290
     0
174
     0
 93
        5
 44
0.0
173
     0
291
     0
 45
0.0
1001
ACAD
1000
AcDbSavedByObjectVersion
1070
     0
  0
VISUALSTYLE
  5
3E
102
{ACAD_XDICTIONARY
360
7CD
102
}
102
{ACAD_REACTORS
330
2A
102
}
330
2A
100
AcDbVisualStyle
  2

 70
    23
 71
     2
 72
     2
 73
     3
 90
        0
 40
-0.6
 41
-30.0
 62
     5
 63
     7
 74
     2
 91
        2
 64
     7
 65
     7
 75
     1
175
     1
 42
40.0
 92
        8
 66
     7
 43
1.0
 76
     1
 77
     6
 78
     2
 67
     7
 79
     3
170
     0
171
     0
290
     0
174
     0
 93
        1
 44
0.0
173
     0
291
     0
 45
0.0
1001
ACAD
1000
AcDbSavedByObjectVersion
1070
     0
  0
VISUALSTYLE
  5
3F
102
{ACAD_XDICTIONARY
360
7CF
102
}
102
{ACAD_REACTORS
330
2A
102
}
330
2A
100
AcDbVisualStyle
  2

 70
    24
 71
     1
 72
     2
 73
     2
 90
        0
 40
-0.6
 41
-30.0
 62
     5
 63
     7
 74
     2
 91
        2
 64
     7
 65
     7
 75
     1
175
     1
 42
40.0
 92
       11
 66
     7
 43
1.0
 76
     1
 77
     6
 78
     2
 67
     7
 79
     6
170
     0
171
     0
290
     0
174
     0
 93
        1
 44
0.0
173
     0
291
     0
 45
0.0
1001
ACAD
1000
AcDbSavedByObjectVersion
1070
     0
  0
VISUALSTYLE
  5
37
102
{ACAD_XDICTIONARY
360
7BF
102
}
102
{ACAD_REACTORS
330
2A
102
}
330
2A
100
AcDbVisualStyle
  2

 70
    13
 71
     2
 72
     2
 73
     0
 90
        0
 40
-0.6
 41
-30.0
 62
     5
 63
     7
 74
     1
 91
        4
 64
     7
 65
   257
 75
     1
175
     1
 42
1.0
 92
       12
 66
     7
 43
1.0
 76
     1
 77
     6
 78
     2
 67
     7
 79
     5
170
     0
171
     0
290
     0
174
     0
 93
        1
 44
0.0
173
     0
291
     1
 45
0.0
1001
ACAD
1000
AcDbSavedByObjectVersion
1070
     0
  0
VISUALSTYLE
  5
30
102
{ACAD_XDICTIONARY
360
7B1
102
}
102
{ACAD_REACTORS
330
2A
102
}
330
2A
100
AcDbVisualStyle
  2

 70
     5
 71
     0
 72
     2
 73
     0
 90
        0
 40
-0.6
 41
-30.0
 62
     5
 63
     7
 74
     1
 91
        4
 64
     7
 65
   257
 75
     1
175
     1
 42
1.0
 92
        0
 66
   257
 43
1.0
 76
     1
 77
     6
 78
     2
 67
     7
 79
     3
170
     0
171
     0
290
     0
174
     0
 93
        1
 44
0.0
173
     0
291
     0
 45
0.0
1001
ACAD
1000
AcDbSavedByObjectVersion
1070
     0
  0
VISUALSTYLE
  5
40
102
{ACAD_XDICTIONARY
360
7D1
102
}
102
{ACAD_REACTORS
330
2A
102
}
330
2A
100
AcDbVisualStyle
  2

 70
    25
 71
     2
 72
     2
 73
     1
 90
        1
 40
0.5
 41
-30.0
 62
     5
 63
     7
 74
     1
 91
        0
 64
     7
 65
   257
 75
     1
175
     1
 42
1.0
 92
        8
 66
     7
 43
1.0
 76
     1
 77
     6
 78
     2
 67
     7
 79
     3
170
     0
171
     0
290
     0
174
     0
 93
       13
 44
0.0
173
     0
291
     0
 45
0.0
1001
ACAD
1000
AcDbSavedByObjectVersion
1070
     0
  0
DICTIONARYVAR
  5
1F6
102
{ACAD_REACTORS
330
1E8
102
}
330
1E8
100
DictionaryVariables
280
     0
  1
1:1
  0
DICTIONARYVAR
  5
1EF
102
{ACAD_REACTORS
330
1E8
102
}
330
1E8
100
DictionaryVariables
280
     0
  1
3.500000
  0
DICTIONARYVAR
  5
1F0
102
{ACAD_REACTORS
330
1E8
102
}
330
1E8
100
DictionaryVariables
280
     0
  1
acadiso.lin
  0
DICTIONARYVAR
  5
1EA
102
{ACAD_REACTORS
330
1E8
102
}
330
1E8
100
DictionaryVariables
280
     0
  1
STANDARD
  0
DICTIONARYVAR
  5
1E9
102
{ACAD_REACTORS
330
1E8
102
}
330
1E8
100
DictionaryVariables
280
     0
  1
STANDARD
  0
DICTIONARYVAR
  5
746
102
{ACAD_REACTORS
330
1E8
102
}
330
1E8
100
DictionaryVariables
280
     0
  1
Metric50
  0
DICTIONARYVAR
  5
747
102
{ACAD_REACTORS
330
1E8
102
}
330
1E8
100
DictionaryVariables
280
     0
  1
Metric50
  0
DICTIONARYVAR
  5
1F1
102
{ACAD_REACTORS
330
1E8
102
}
330
1E8
100
DictionaryVariables
280
     0
  1
2
  0
DICTIONARYVAR
  5
1F2
102
{ACAD_REACTORS
330
1E8
102
}
330
1E8
100
DictionaryVariables
280
     0
  1
1
  0
DICTIONARYVAR
  5
799
102
{ACAD_REACTORS
330
1E8
102
}
330
1E8
100
DictionaryVariables
280
     0
  1
0
  0
DICTIONARYVAR
  5
749
102
{ACAD_REACTORS
330
1E8
102
}
330
1E8
100
DictionaryVariables
280
     0
  1
1
  0
DICTIONARYVAR
  5
74A
102
{ACAD_REACTORS
330
1E8
102
}
330
1E8
100
DictionaryVariables
280
     0
  1
15
  0
DICTIONARYVAR
  5
748
102
{ACAD_REACTORS
330
1E8
102
}
330
1E8
100
DictionaryVariables
280
     0
  1
0
  0
DICTIONARYVAR
  5
79C
102
{ACAD_REACTORS
330
1E8
102
}
330
1E8
100
DictionaryVariables
280
     0
  1
1.570796
  0
DICTIONARYVAR
  5
79D
102
{ACAD_REACTORS
330
1E8
102
}
330
1E8
100
DictionaryVariables
280
     0
  1
1.570796
  0
DICTIONARYVAR
  5
79E
102
{ACAD_REACTORS
330
1E8
102
}
330
1E8
100
DictionaryVariables
280
     0
  1
-122.394000
  0
DICTIONARYVAR
  5
1F7
102
{ACAD_REACTORS
330
1E8
102
}
330
1E8
100
DictionaryVariables
280
     0
  1
1
  0
DICTIONARYVAR
  5
79B
102
{ACAD_REACTORS
330
1E8
102
}
330
1E8
100
DictionaryVariables
280
     0
  1
80.000000
  0
DICTIONARYVAR
  5
79A
102
{ACAD_REACTORS
330
1E8
102
}
330
1E8
100
DictionaryVariables
280
     0
  1
5.000000
  0
DICTIONARYVAR
  5
798
102
{ACAD_REACTORS
330
1E8
102
}
330
1E8
100
DictionaryVariables
280
     0
  1
127
  0
DICTIONARYVAR
  5
79F
102
{ACAD_REACTORS
330
1E8
102
}
330
1E8
100
DictionaryVariables
280
     0
  1
2
  0
DICTIONARY
  5
7DA
330
237
100
AcDbDictionary
280
     1
281
     1
  3
ACAD_XREC_ROUNDTRIP
360
7DB
  0
DICTIONARY
  5
7A3
330
1E
100
AcDbDictionary
280
     1
281
     1
  3
ACAD_XREC_ROUNDTRIP
360
7A4
  0
DICTIONARY
  5
7A5
330
22
100
AcDbDictionary
280
     1
281
     1
  3
ACAD_XREC_ROUNDTRIP
360
7A6
  0
DICTIONARY
  5
7DC
330
238
100
AcDbDictionary
280
     1
281
     1
  3
ACAD_XREC_ROUNDTRIP
360
7DD
  0
DICTIONARY
  5
22A
330
45
100
AcDbDictionary
280
     1
281
     1
  3
ACAD_XREC_ROUNDTRIP
360
22B
  0
DICTIONARY
  5
228
330
44
100
AcDbDictionary
280
     1
281
     1
  3
ACAD_XREC_ROUNDTRIP
360
229
  0
DICTIONARY
  5
22C
330
46
100
AcDbDictionary
280
     1
281
     1
  3
ACAD_XREC_ROUNDTRIP
360
22D
  0
DICTIONARY
  5
7D8
330
235
100
AcDbDictionary
280
     1
281
     1
  3
ACAD_XREC_ROUNDTRIP
360
7D9
  0
DICTIONARY
  5
74B
330
5A
100
AcDbDictionary
280
     1
281
     1
  3
ACAD_ROUNDTRIP_2008_TABLESTYLE_CELLSTYLEMAP
360
7A0
  3
ACAD_XREC_ROUNDTRIP
360
7D7
  0
DICTIONARY
  5
7AF
330
2F
100
AcDbDictionary
280
     1
281
     1
  3
ACAD_XREC_ROUNDTRIP
360
7B0
  0
DICTIONARY
  5
7B5
330
32
100
AcDbDictionary
280
     1
281
     1
  3
ACAD_XREC_ROUNDTRIP
360
7B6
  0
DICTIONARY
  5
7BD
330
36
100
AcDbDictionary
280
     1
281
     1
  3
ACAD_XREC_ROUNDTRIP
360
7BE
  0
DICTIONARY
  5
7C5
330
3A
100
AcDbDictionary
280
     1
281
     1
  3
ACAD_XREC_ROUNDTRIP
360
7C6
  0
DICTIONARY
  5
7B9
330
34
100
AcDbDictionary
280
     1
281
     1
  3
ACAD_XREC_ROUNDTRIP
360
7BA
  0
DICTIONARY
  5
7BB
330
35
100
AcDbDictionary
280
     1
281
     1
  3
ACAD_XREC_ROUNDTRIP
360
7BC
  0
DICTIONARY
  5
7CB
330
3D
100
AcDbDictionary
280
     1
281
     1
  3
ACAD_XREC_ROUNDTRIP
360
7CC
  0
DICTIONARY
  5
7C3
330
39
100
AcDbDictionary
280
     1
281
     1
  3
ACAD_XREC_ROUNDTRIP
360
7C4
  0
DICTIONARY
  5
7A7
330
2B
100
AcDbDictionary
280
     1
281
     1
  3
ACAD_XREC_ROUNDTRIP
360
7A8
  0
DICTIONARY
  5
7A9
330
2C
100
AcDbDictionary
280
     1
281
     1
  3
ACAD_XREC_ROUNDTRIP
360
7AA
  0
DICTIONARY
  5
7AB
330
2D
100
AcDbDictionary
280
     1
281
     1
  3
ACAD_XREC_ROUNDTRIP
360
7AC
  0
DICTIONARY
  5
7AD
330
2E
100
AcDbDictionary
280
     1
281
     1
  3
ACAD_XREC_ROUNDTRIP
360
7AE
  0
DICTIONARY
  5
7B3
330
31
100
AcDbDictionary
280
     1
281
     1
  3
ACAD_XREC_ROUNDTRIP
360
7B4
  0
DICTIONARY
  5
7C7
330
3B
100
AcDbDictionary
280
     1
281
     1
  3
ACAD_XREC_ROUNDTRIP
360
7C8
  0
DICTIONARY
  5
7C1
330
38
100
AcDbDictionary
280
     1
281
     1
  3
ACAD_XREC_ROUNDTRIP
360
7C2
  0
DICTIONARY
  5
7C9
330
3C
100
AcDbDictionary
280
     1
281
     1
  3
ACAD_XREC_ROUNDTRIP
360
7CA
  0
DICTIONARY
  5
7B7
330
33
100
AcDbDictionary
280
     1
281
     1
  3
ACAD_XREC_ROUNDTRIP
360
7B8
  0
DICTIONARY
  5
7D5
330
42
100
AcDbDictionary
280
     1
281
     1
  3
ACAD_XREC_ROUNDTRIP
360
7D6
  0
DICTIONARY
  5
7D3
330
41
100
AcDbDictionary
280
     1
281
     1
  3
ACAD_XREC_ROUNDTRIP
360
7D4
  0
DICTIONARY
  5
7CD
330
3E
100
AcDbDictionary
280
     1
281
     1
  3
ACAD_XREC_ROUNDTRIP
360
7CE
  0
DICTIONARY
  5
7CF
330
3F
100
AcDbDictionary
280
     1
281
     1
  3
ACAD_XREC_ROUNDTRIP
360
7D0
  0
DICTIONARY
  5
7BF
330
37
100
AcDbDictionary
280
     1
281
     1
  3
ACAD_XREC_ROUNDTRIP
360
7C0
  0
DICTIONARY
  5
7B1
330
30
100
AcDbDictionary
280
     1
281
     1
  3
ACAD_XREC_ROUNDTRIP
360
7B2
  0
DICTIONARY
  5
7D1
330
40
100
AcDbDictionary
280
     1
281
     1
  3
ACAD_XREC_ROUNDTRIP
360
7D2
  0
XRECORD
  5
7DB
102
{ACAD_REACTORS
330
7DA
102
}
330
7DA
100
AcDbXrecord
280
     1
102
DISPLAYNAME
  1
Metric50
102
FLAGS
 90
        0
  0
XRECORD
  5
7A4
102
{ACAD_REACTORS
330
7A3
102
}
330
7A3
100
AcDbXrecord
280
     1
102
SHADEPLOT
 70
     0
102
SHADEPLOTRESLEVEL
 70
     2
102
SHADEPLOTCUSTOMDPI
 70
   300
  0
XRECORD
  5
7A6
102
{ACAD_REACTORS
330
7A5
102
}
330
7A5
100
AcDbXrecord
280
     1
102
SHADEPLOT
 70
     0
102
SHADEPLOTRESLEVEL
 70
     2
102
SHADEPLOTCUSTOMDPI
 70
   300
  0
XRECORD
  5
7DD
102
{ACAD_REACTORS
330
7DC
102
}
330
7DC
100
AcDbXrecord
280
     1
102
SHADEPLOT
 70
     0
102
SHADEPLOTRESLEVEL
 70
     2
102
SHADEPLOTCUSTOMDPI
 70
   300
  0
XRECORD
  5
22B
102
{ACAD_REACTORS
330
22A
102
}
330
22A
100
AcDbXrecord
280
     1
102
MATERIAL
148
0.0
149
0.0
149
0.0
 93
        0
 94
      127
282
     0
 72
     1
 77
     1
171
     1
175
     1
179
     1
273
     0
  0
XRECORD
  5
229
102
{ACAD_REACTORS
330
228
102
}
330
228
100
AcDbXrecord
280
     1
102
MATERIAL
148
0.0
149
0.0
149
0.0
 93
        0
 94
      127
282
     0
 72
     1
 77
     1
171
     1
175
     1
179
     1
273
     0
  0
XRECORD
  5
22D
102
{ACAD_REACTORS
330
22C
102
}
330
22C
100
AcDbXrecord
280
     1
102
MATERIAL
148
0.0
149
0.0
149
0.0
 93
        0
 94
      127
282
     0
 72
     1
 77
     1
171
     1
175
     1
179
     1
273
     0
  0
XRECORD
  5
7D9
102
{ACAD_REACTORS
330
7D8
102
}
330
7D8
100
AcDbXrecord
280
     1
102
DISPLAYNAME
  1
Metric50
102
FLAGS
 90
        0
  0
CELLSTYLEMAP
  5
7A0
102
{ACAD_REACTORS
330
74B
102
}
330
74B
100
AcDbCellStyleMap
 90
        3
300
CELLSTYLE
  1
TABLEFORMAT_BEGIN
 90
        5
170
     1
 91
        0
 92
    32768
 62
   257
 93
        1
300
CONTENTFORMAT
  1
CONTENTFORMAT_BEGIN
 90
        0
 91
        0
 92
        4
 93
        0
300

 40
0.0
140
1.0
 94
        5
 62
     0
340
11
144
6.0
309
CONTENTFORMAT_END
171
     1
301
MARGIN
  1
CELLMARGIN_BEGIN
 40
1.5
 40
1.5
 40
1.5
 40
1.5
 40
0.18
 40
0.18
309
CELLMARGIN_END
 94
        6
 95
        1
302
GRIDFORMAT
  1
GRIDFORMAT_BEGIN
 90
        0
 91
        1
 62
     0
 92
       -2
340
0
 93
        0
 40
0.045
309
GRIDFORMAT_END
 95
        2
302
GRIDFORMAT
  1
GRIDFORMAT_BEGIN
 90
        0
 91
        1
 62
     0
 92
       -2
340
0
 93
        0
 40
0.045
309
GRIDFORMAT_END
 95
        4
302
GRIDFORMAT
  1
GRIDFORMAT_BEGIN
 90
        0
 91
        1
 62
     0
 92
       -2
340
0
 93
        0
 40
0.045
309
GRIDFORMAT_END
 95
        8
302
GRIDFORMAT
  1
GRIDFORMAT_BEGIN
 90
        0
 91
        1
 62
     0
 92
       -2
340
0
 93
        0
 40
0.045
309
GRIDFORMAT_END
 95
       16
302
GRIDFORMAT
  1
GRIDFORMAT_BEGIN
 90
        0
 91
        1
 62
     0
 92
       -2
340
0
 93
        0
 40
0.045
309
GRIDFORMAT_END
 95
       32
302
GRIDFORMAT
  1
GRIDFORMAT_BEGIN
 90
        0
 91
        1
 62
     0
 92
       -2
340
0
 93
        0
 40
0.045
309
GRIDFORMAT_END
309
TABLEFORMAT_END
  1
CELLSTYLE_BEGIN
 90
        1
 91
        1
300
_TITLE
309
CELLSTYLE_END
300
CELLSTYLE
  1
TABLEFORMAT_BEGIN
 90
        5
170
     1
 91
        0
 92
        0
 62
   257
 93
        1
300
CONTENTFORMAT
  1
CONTENTFORMAT_BEGIN
 90
        0
 91
        0
 92
        4
 93
        0
300

 40
0.0
140
1.0
 94
        5
 62
     0
340
11
144
4.5
309
CONTENTFORMAT_END
171
     1
301
MARGIN
  1
CELLMARGIN_BEGIN
 40
1.5
 40
1.5
 40
1.5
 40
1.5
 40
0.18
 40
0.18
309
CELLMARGIN_END
 94
        6
 95
        1
302
GRIDFORMAT
  1
GRIDFORMAT_BEGIN
 90
        0
 91
        1
 62
     0
 92
       -2
340
0
 93
        0
 40
0.045
309
GRIDFORMAT_END
 95
        2
302
GRIDFORMAT
  1
GRIDFORMAT_BEGIN
 90
        0
 91
        1
 62
     0
 92
       -2
340
0
 93
        0
 40
0.045
309
GRIDFORMAT_END
 95
        4
302
GRIDFORMAT
  1
GRIDFORMAT_BEGIN
 90
        0
 91
        1
 62
     0
 92
       -2
340
0
 93
        0
 40
0.045
309
GRIDFORMAT_END
 95
        8
302
GRIDFORMAT
  1
GRIDFORMAT_BEGIN
 90
        0
 91
        1
 62
     0
 92
       -2
340
0
 93
        0
 40
0.045
309
GRIDFORMAT_END
 95
       16
302
GRIDFORMAT
  1
GRIDFORMAT_BEGIN
 90
        0
 91
        1
 62
     0
 92
       -2
340
0
 93
        0
 40
0.045
309
GRIDFORMAT_END
 95
       32
302
GRIDFORMAT
  1
GRIDFORMAT_BEGIN
 90
        0
 91
        1
 62
     0
 92
       -2
340
0
 93
        0
 40
0.045
309
GRIDFORMAT_END
309
TABLEFORMAT_END
  1
CELLSTYLE_BEGIN
 90
        2
 91
        1
300
_HEADER
309
CELLSTYLE_END
300
CELLSTYLE
  1
TABLEFORMAT_BEGIN
 90
        5
170
     1
 91
        0
 92
        0
 62
   257
 93
        1
300
CONTENTFORMAT
  1
CONTENTFORMAT_BEGIN
 90
        0
 91
        0
 92
        4
 93
        0
300

 40
0.0
140
1.0
 94
        2
 62
     0
340
11
144
4.5
309
CONTENTFORMAT_END
171
     1
301
MARGIN
  1
CELLMARGIN_BEGIN
 40
1.5
 40
1.5
 40
1.5
 40
1.5
 40
0.18
 40
0.18
309
CELLMARGIN_END
 94
        6
 95
        1
302
GRIDFORMAT
  1
GRIDFORMAT_BEGIN
 90
        0
 91
        1
 62
     0
 92
       -2
340
0
 93
        0
 40
0.045
309
GRIDFORMAT_END
 95
        2
302
GRIDFORMAT
  1
GRIDFORMAT_BEGIN
 90
        0
 91
        1
 62
     0
 92
       -2
340
0
 93
        0
 40
0.045
309
GRIDFORMAT_END
 95
        4
302
GRIDFORMAT
  1
GRIDFORMAT_BEGIN
 90
        0
 91
        1
 62
     0
 92
       -2
340
0
 93
        0
 40
0.045
309
GRIDFORMAT_END
 95
        8
302
GRIDFORMAT
  1
GRIDFORMAT_BEGIN
 90
        0
 91
        1
 62
     0
 92
       -2
340
0
 93
        0
 40
0.045
309
GRIDFORMAT_END
 95
       16
302
GRIDFORMAT
  1
GRIDFORMAT_BEGIN
 90
        0
 91
        1
 62
     0
 92
       -2
340
0
 93
        0
 40
0.045
309
GRIDFORMAT_END
 95
       32
302
GRIDFORMAT
  1
GRIDFORMAT_BEGIN
 90
        0
 91
        1
 62
     0
 92
       -2
340
0
 93
        0
 40
0.045
309
GRIDFORMAT_END
309
TABLEFORMAT_END
  1
CELLSTYLE_BEGIN
 90
        3
 91
        2
300
_DATA
309
CELLSTYLE_END
  0
XRECORD
  5
7D7
102
{ACAD_REACTORS
330
74B
102
}
330
74B
100
AcDbXrecord
280
     1
102
ACAD_ROUNDTRIP_PRE2007_TABLESTYLE
 90
        4
 91
        0
  1

 92
        4
 93
        0
  2

 94
        4
 95
        0
  3

  0
XRECORD
  5
7B0
102
{ACAD_REACTORS
330
7AF
102
}
330
7AF
100
AcDbXrecord
280
     1
102
RTVSPost2010Prop28
280
     1
102
RTVSPost2010PropOp28
 70
     1
102
RTVSPost2010Prop29
280
     1
102
RTVSPost2010PropOp29
 70
     1
102
RTVSPost2010Prop30
280
     0
102
RTVSPost2010PropOp30
 70
     1
102
RTVSPost2010Prop31
280
     0
102
RTVSPost2010PropOp31
 70
     1
102
RTVSPost2010Prop32
280
     0
102
RTVSPost2010PropOp32
 70
     1
102
RTVSPost2010Prop33
280
     0
102
RTVSPost2010PropOp33
 70
     1
102
RTVSPost2010Prop34
280
     0
102
RTVSPost2010PropOp34
 70
     1
102
RTVSPost2010Prop35
280
     0
102
RTVSPost2010PropOp35
 70
     1
102
RTVSPost2010Prop36
280
     0
102
RTVSPost2010PropOp36
 70
     1
102
RTVSPost2010Prop37
 90
       50
102
RTVSPost2010PropOp37
 70
     1
102
RTVSPost2010Prop38
140
0.0
102
RTVSPost2010PropOp38
 70
     1
102
RTVSPost2010Prop39
140
1.0
102
RTVSPost2010PropOp39
 70
     1
102
RTVSPost2010Prop40
 90
        0
102
RTVSPost2010PropOp40
 70
     1
102
RTVSPost2010Prop41ColorIndex
 90
       18
102
RTVSPost2010Prop41ColorRGB
 90
        0
102
RTVSPost2010PropOp41
 70
     1
102
RTVSPost2010Prop42
 90
       50
102
RTVSPost2010PropOp42
 70
     1
102
RTVSPost2010Prop43
 90
        3
102
RTVSPost2010PropOp43
 70
     1
102
RTVSPost2010Prop44ColorIndex
 90
        5
102
RTVSPost2010Prop44ColorRGB
 90
      255
102
RTVSPost2010PropOp44
 70
     1
102
RTVSPost2010Prop45
280
     0
102
RTVSPost2010PropOp45
 70
     1
102
RTVSPost2010Prop46
 90
       50
102
RTVSPost2010PropOp46
 70
     1
102
RTVSPost2010Prop47
 90
       50
102
RTVSPost2010PropOp47
 70
     1
102
RTVSPost2010Prop48
 90
       50
102
RTVSPost2010PropOp48
 70
     1
102
RTVSPost2010Prop49
280
     0
102
RTVSPost2010PropOp49
 70
     1
102
RTVSPost2010Prop50
 90
       50
102
RTVSPost2010PropOp50
 70
     1
102
RTVSPost2010Prop51ColorIndex
 90
      256
102
RTVSPost2010Prop51ColorRGB
 90
-16777216
102
RTVSPost2010PropOp51
 70
     0
102
RTVSPost2010Prop52
140
1.0
102
RTVSPost2010PropOp52
 70
     0
102
RTVSPost2010Prop53
 90
        2
102
RTVSPost2010PropOp53
 70
     1
102
RTVSPost2010Prop54
  1
strokes_ogs.tif
102
RTVSPost2010PropOp54
 70
     1
102
RTVSPost2010Prop55
280
     0
102
RTVSPost2010PropOp55
 70
     1
102
RTVSPost2010Prop56
140
1.0
102
RTVSPost2010PropOp56
 70
     1
102
RTVSPost2010Prop57
140
1.0
102
RTVSPost2010PropOp57
 70
     1
102
RTVSPropertyOp0
 70
     1
102
RTVSPropertyOp1
 70
     1
102
RTVSPropertyOp2
 70
     1
102
RTVSPropertyOp3
 70
     1
102
RTVSPropertyOp4
 70
     1
102
RTVSPropertyOp5
 70
     1
102
RTVSPropertyOp6
 70
     1
102
RTVSPropertyOp7
 70
     1
102
RTVSPropertyOp8
 70
     1
102
RTVSPropertyOp9
 70
     1
102
RTVSPropertyOp10
 70
     1
102
RTVSPropertyOp11
 70
     1
102
RTVSPropertyOp12
 70
     1
102
RTVSPropertyOp13
 70
     1
102
RTVSPropertyOp14
 70
     1
102
RTVSPropertyOp15
 70
     1
102
RTVSPropertyOp16
 70
     1
102
RTVSPropertyOp17
 70
     1
102
RTVSPropertyOp18
 70
     1
102
RTVSPropertyOp19
 70
     1
102
RTVSPropertyOp20
 70
     1
102
RTVSPropertyOp21
 70
     1
102
RTVSPropertyOp22
 70
     1
102
RTVSPropertyOp23
 70
     1
102
RTVSPropertyOp24
 70
     1
102
RTVSPropertyOp25
 70
     1
102
RTVSPropertyOp26
 70
     1
102
RTVSPropertyOp27
 70
     1
102
RTVSPropertyOp28
 70
     1
102
RTVSPropertyOp29
 70
     1
102
RTVSPropertyOp30
 70
     1
102
RTVSPropertyOp31
 70
     1
102
RTVSPropertyOp32
 70
     1
102
RTVSPropertyOp33
 70
     1
102
RTVSPropertyOp34
 70
     1
102
RTVSPropertyOp35
 70
     1
102
RTVSPropertyOp36
 70
     1
102
RTVSPropertyOp37
 70
     1
102
RTVSPropertyOp38
 70
     1
102
RTVSPropertyOp39
 70
     1
102
RTVSPropertyOp40
 70
     1
102
RTVSPropertyOp41
 70
     1
102
RTVSPropertyOp42
 70
     1
102
RTVSPropertyOp43
 70
     1
102
RTVSPropertyOp44
 70
     1
102
RTVSPropertyOp45
 70
     1
102
RTVSPropertyOp46
 70
     1
102
RTVSPropertyOp47
 70
     1
102
RTVSPropertyOp48
 70
     1
102
RTVSPropertyOp49
 70
     1
102
RTVSPropertyOp50
 70
     1
102
RTVSPropertyOp51
 70
     0
102
RTVSPropertyOp52
 70
     0
102
RTVSPropertyOp53
 70
     1
102
RTVSPropertyOp54
 70
     1
102
RTVSPropertyOp55
 70
     1
102
RTVSPropertyOp56
 70
     1
102
RTVSPropertyOp57
 70
     1
102
RTVSPropertyOp58
 70
     1
102
RTVSPropertyOp59
 70
     1
102
RTVSPropertyOp60
 70
     1
102
RTVSPropertyOp61
 70
     1
102
RTVSPropertyOp62
 70
     1
  0
XRECORD
  5
7B6
102
{ACAD_REACTORS
330
7B5
102
}
330
7B5
100
AcDbXrecord
280
     1
102
RTVSPost2010Prop28
280
     0
102
RTVSPost2010PropOp28
 70
     1
102
RTVSPost2010Prop29
280
     1
102
RTVSPost2010PropOp29
 70
     1
102
RTVSPost2010Prop30
280
     1
102
RTVSPost2010PropOp30
 70
     1
102
RTVSPost2010Prop31
280
     0
102
RTVSPost2010PropOp31
 70
     1
102
RTVSPost2010Prop32
280
     0
102
RTVSPost2010PropOp32
 70
     1
102
RTVSPost2010Prop33
280
     0
102
RTVSPost2010PropOp33
 70
     1
102
RTVSPost2010Prop34
280
     0
102
RTVSPost2010PropOp34
 70
     1
102
RTVSPost2010Prop35
280
     0
102
RTVSPost2010PropOp35
 70
     1
102
RTVSPost2010Prop36
280
     0
102
RTVSPost2010PropOp36
 70
     1
102
RTVSPost2010Prop37
 90
       50
102
RTVSPost2010PropOp37
 70
     1
102
RTVSPost2010Prop38
140
0.0
102
RTVSPost2010PropOp38
 70
     1
102
RTVSPost2010Prop39
140
1.0
102
RTVSPost2010PropOp39
 70
     1
102
RTVSPost2010Prop40
 90
        0
102
RTVSPost2010PropOp40
 70
     1
102
RTVSPost2010Prop41ColorIndex
 90
       18
102
RTVSPost2010Prop41ColorRGB
 90
        0
102
RTVSPost2010PropOp41
 70
     1
102
RTVSPost2010Prop42
 90
       50
102
RTVSPost2010PropOp42
 70
     1
102
RTVSPost2010Prop43
 90
        3
102
RTVSPost2010PropOp43
 70
     1
102
RTVSPost2010Prop44ColorIndex
 90
        5
102
RTVSPost2010Prop44ColorRGB
 90
      255
102
RTVSPost2010PropOp44
 70
     1
102
RTVSPost2010Prop45
280
     0
102
RTVSPost2010PropOp45
 70
     1
102
RTVSPost2010Prop46
 90
       50
102
RTVSPost2010PropOp46
 70
     1
102
RTVSPost2010Prop47
 90
       50
102
RTVSPost2010PropOp47
 70
     1
102
RTVSPost2010Prop48
 90
       50
102
RTVSPost2010PropOp48
 70
     1
102
RTVSPost2010Prop49
280
     0
102
RTVSPost2010PropOp49
 70
     1
102
RTVSPost2010Prop50
 90
       50
102
RTVSPost2010PropOp50
 70
     1
102
RTVSPost2010Prop51ColorIndex
 90
      256
102
RTVSPost2010Prop51ColorRGB
 90
-16777216
102
RTVSPost2010PropOp51
 70
     0
102
RTVSPost2010Prop52
140
1.0
102
RTVSPost2010PropOp52
 70
     0
102
RTVSPost2010Prop53
 90
        2
102
RTVSPost2010PropOp53
 70
     1
102
RTVSPost2010Prop54
  1
strokes_ogs.tif
102
RTVSPost2010PropOp54
 70
     1
102
RTVSPost2010Prop55
280
     0
102
RTVSPost2010PropOp55
 70
     1
102
RTVSPost2010Prop56
140
1.0
102
RTVSPost2010PropOp56
 70
     1
102
RTVSPost2010Prop57
140
1.0
102
RTVSPost2010PropOp57
 70
     1
102
RTVSPropertyOp0
 70
     1
102
RTVSPropertyOp1
 70
     1
102
RTVSPropertyOp2
 70
     1
102
RTVSPropertyOp3
 70
     1
102
RTVSPropertyOp4
 70
     1
102
RTVSPropertyOp5
 70
     1
102
RTVSPropertyOp6
 70
     1
102
RTVSPropertyOp7
 70
     1
102
RTVSPropertyOp8
 70
     1
102
RTVSPropertyOp9
 70
     1
102
RTVSPropertyOp10
 70
     1
102
RTVSPropertyOp11
 70
     1
102
RTVSPropertyOp12
 70
     1
102
RTVSPropertyOp13
 70
     1
102
RTVSPropertyOp14
 70
     1
102
RTVSPropertyOp15
 70
     1
102
RTVSPropertyOp16
 70
     1
102
RTVSPropertyOp17
 70
     1
102
RTVSPropertyOp18
 70
     1
102
RTVSPropertyOp19
 70
     1
102
RTVSPropertyOp20
 70
     1
102
RTVSPropertyOp21
 70
     1
102
RTVSPropertyOp22
 70
     1
102
RTVSPropertyOp23
 70
     1
102
RTVSPropertyOp24
 70
     1
102
RTVSPropertyOp25
 70
     1
102
RTVSPropertyOp26
 70
     1
102
RTVSPropertyOp27
 70
     1
102
RTVSPropertyOp28
 70
     1
102
RTVSPropertyOp29
 70
     1
102
RTVSPropertyOp30
 70
     1
102
RTVSPropertyOp31
 70
     1
102
RTVSPropertyOp32
 70
     1
102
RTVSPropertyOp33
 70
     1
102
RTVSPropertyOp34
 70
     1
102
RTVSPropertyOp35
 70
     1
102
RTVSPropertyOp36
 70
     1
102
RTVSPropertyOp37
 70
     1
102
RTVSPropertyOp38
 70
     1
102
RTVSPropertyOp39
 70
     1
102
RTVSPropertyOp40
 70
     1
102
RTVSPropertyOp41
 70
     1
102
RTVSPropertyOp42
 70
     1
102
RTVSPropertyOp43
 70
     1
102
RTVSPropertyOp44
 70
     1
102
RTVSPropertyOp45
 70
     1
102
RTVSPropertyOp46
 70
     1
102
RTVSPropertyOp47
 70
     1
102
RTVSPropertyOp48
 70
     1
102
RTVSPropertyOp49
 70
     1
102
RTVSPropertyOp50
 70
     1
102
RTVSPropertyOp51
 70
     0
102
RTVSPropertyOp52
 70
     0
102
RTVSPropertyOp53
 70
     1
102
RTVSPropertyOp54
 70
     1
102
RTVSPropertyOp55
 70
     1
102
RTVSPropertyOp56
 70
     1
102
RTVSPropertyOp57
 70
     1
102
RTVSPropertyOp58
 70
     1
102
RTVSPropertyOp59
 70
     1
102
RTVSPropertyOp60
 70
     1
102
RTVSPropertyOp61
 70
     1
102
RTVSPropertyOp62
 70
     1
  0
XRECORD
  5
7BE
102
{ACAD_REACTORS
330
7BD
102
}
330
7BD
100
AcDbXrecord
280
     1
102
RTVSPost2010Prop28
280
     0
102
RTVSPost2010PropOp28
 70
     1
102
RTVSPost2010Prop29
280
     1
102
RTVSPost2010PropOp29
 70
     1
102
RTVSPost2010Prop30
280
     1
102
RTVSPost2010PropOp30
 70
     1
102
RTVSPost2010Prop31
280
     0
102
RTVSPost2010PropOp31
 70
     1
102
RTVSPost2010Prop32
280
     0
102
RTVSPost2010PropOp32
 70
     1
102
RTVSPost2010Prop33
280
     0
102
RTVSPost2010PropOp33
 70
     1
102
RTVSPost2010Prop34
280
     0
102
RTVSPost2010PropOp34
 70
     1
102
RTVSPost2010Prop35
280
     0
102
RTVSPost2010PropOp35
 70
     1
102
RTVSPost2010Prop36
280
     0
102
RTVSPost2010PropOp36
 70
     1
102
RTVSPost2010Prop37
 90
       50
102
RTVSPost2010PropOp37
 70
     1
102
RTVSPost2010Prop38
140
0.0
102
RTVSPost2010PropOp38
 70
     1
102
RTVSPost2010Prop39
140
1.0
102
RTVSPost2010PropOp39
 70
     1
102
RTVSPost2010Prop40
 90
        0
102
RTVSPost2010PropOp40
 70
     1
102
RTVSPost2010Prop41ColorIndex
 90
       18
102
RTVSPost2010Prop41ColorRGB
 90
        0
102
RTVSPost2010PropOp41
 70
     1
102
RTVSPost2010Prop42
 90
       50
102
RTVSPost2010PropOp42
 70
     1
102
RTVSPost2010Prop43
 90
        3
102
RTVSPost2010PropOp43
 70
     1
102
RTVSPost2010Prop44ColorIndex
 90
        5
102
RTVSPost2010Prop44ColorRGB
 90
      255
102
RTVSPost2010PropOp44
 70
     1
102
RTVSPost2010Prop45
280
     0
102
RTVSPost2010PropOp45
 70
     1
102
RTVSPost2010Prop46
 90
       50
102
RTVSPost2010PropOp46
 70
     1
102
RTVSPost2010Prop47
 90
       50
102
RTVSPost2010PropOp47
 70
     1
102
RTVSPost2010Prop48
 90
       50
102
RTVSPost2010PropOp48
 70
     1
102
RTVSPost2010Prop49
280
     0
102
RTVSPost2010PropOp49
 70
     1
102
RTVSPost2010Prop50
 90
       50
102
RTVSPost2010PropOp50
 70
     1
102
RTVSPost2010Prop51ColorIndex
 90
      256
102
RTVSPost2010Prop51ColorRGB
 90
-16777216
102
RTVSPost2010PropOp51
 70
     0
102
RTVSPost2010Prop52
140
1.0
102
RTVSPost2010PropOp52
 70
     0
102
RTVSPost2010Prop53
 90
        2
102
RTVSPost2010PropOp53
 70
     1
102
RTVSPost2010Prop54
  1
strokes_ogs.tif
102
RTVSPost2010PropOp54
 70
     1
102
RTVSPost2010Prop55
280
     0
102
RTVSPost2010PropOp55
 70
     1
102
RTVSPost2010Prop56
140
1.0
102
RTVSPost2010PropOp56
 70
     1
102
RTVSPost2010Prop57
140
1.0
102
RTVSPost2010PropOp57
 70
     1
102
RTVSPropertyOp0
 70
     1
102
RTVSPropertyOp1
 70
     1
102
RTVSPropertyOp2
 70
     1
102
RTVSPropertyOp3
 70
     1
102
RTVSPropertyOp4
 70
     1
102
RTVSPropertyOp5
 70
     1
102
RTVSPropertyOp6
 70
     1
102
RTVSPropertyOp7
 70
     1
102
RTVSPropertyOp8
 70
     1
102
RTVSPropertyOp9
 70
     1
102
RTVSPropertyOp10
 70
     1
102
RTVSPropertyOp11
 70
     1
102
RTVSPropertyOp12
 70
     1
102
RTVSPropertyOp13
 70
     1
102
RTVSPropertyOp14
 70
     1
102
RTVSPropertyOp15
 70
     1
102
RTVSPropertyOp16
 70
     1
102
RTVSPropertyOp17
 70
     1
102
RTVSPropertyOp18
 70
     1
102
RTVSPropertyOp19
 70
     1
102
RTVSPropertyOp20
 70
     1
102
RTVSPropertyOp21
 70
     1
102
RTVSPropertyOp22
 70
     1
102
RTVSPropertyOp23
 70
     1
102
RTVSPropertyOp24
 70
     1
102
RTVSPropertyOp25
 70
     1
102
RTVSPropertyOp26
 70
     1
102
RTVSPropertyOp27
 70
     1
102
RTVSPropertyOp28
 70
     1
102
RTVSPropertyOp29
 70
     1
102
RTVSPropertyOp30
 70
     1
102
RTVSPropertyOp31
 70
     1
102
RTVSPropertyOp32
 70
     1
102
RTVSPropertyOp33
 70
     1
102
RTVSPropertyOp34
 70
     1
102
RTVSPropertyOp35
 70
     1
102
RTVSPropertyOp36
 70
     1
102
RTVSPropertyOp37
 70
     1
102
RTVSPropertyOp38
 70
     1
102
RTVSPropertyOp39
 70
     1
102
RTVSPropertyOp40
 70
     1
102
RTVSPropertyOp41
 70
     1
102
RTVSPropertyOp42
 70
     1
102
RTVSPropertyOp43
 70
     1
102
RTVSPropertyOp44
 70
     1
102
RTVSPropertyOp45
 70
     1
102
RTVSPropertyOp46
 70
     1
102
RTVSPropertyOp47
 70
     1
102
RTVSPropertyOp48
 70
     1
102
RTVSPropertyOp49
 70
     1
102
RTVSPropertyOp50
 70
     1
102
RTVSPropertyOp51
 70
     0
102
RTVSPropertyOp52
 70
     0
102
RTVSPropertyOp53
 70
     1
102
RTVSPropertyOp54
 70
     1
102
RTVSPropertyOp55
 70
     1
102
RTVSPropertyOp56
 70
     1
102
RTVSPropertyOp57
 70
     1
102
RTVSPropertyOp58
 70
     1
102
RTVSPropertyOp59
 70
     1
102
RTVSPropertyOp60
 70
     1
102
RTVSPropertyOp61
 70
     1
102
RTVSPropertyOp62
 70
     1
  0
XRECORD
  5
7C6
102
{ACAD_REACTORS
330
7C5
102
}
330
7C5
100
AcDbXrecord
280
     1
102
RTVSPost2010Prop28
280
     0
102
RTVSPost2010PropOp28
 70
     1
102
RTVSPost2010Prop29
280
     1
102
RTVSPost2010PropOp29
 70
     1
102
RTVSPost2010Prop30
280
     1
102
RTVSPost2010PropOp30
 70
     1
102
RTVSPost2010Prop31
280
     0
102
RTVSPost2010PropOp31
 70
     1
102
RTVSPost2010Prop32
280
     0
102
RTVSPost2010PropOp32
 70
     1
102
RTVSPost2010Prop33
280
     0
102
RTVSPost2010PropOp33
 70
     1
102
RTVSPost2010Prop34
280
     0
102
RTVSPost2010PropOp34
 70
     1
102
RTVSPost2010Prop35
280
     0
102
RTVSPost2010PropOp35
 70
     1
102
RTVSPost2010Prop36
280
     0
102
RTVSPost2010PropOp36
 70
     1
102
RTVSPost2010Prop37
 90
       50
102
RTVSPost2010PropOp37
 70
     1
102
RTVSPost2010Prop38
140
0.0
102
RTVSPost2010PropOp38
 70
     1
102
RTVSPost2010Prop39
140
1.0
102
RTVSPost2010PropOp39
 70
     1
102
RTVSPost2010Prop40
 90
        0
102
RTVSPost2010PropOp40
 70
     1
102
RTVSPost2010Prop41ColorIndex
 90
       18
102
RTVSPost2010Prop41ColorRGB
 90
        0
102
RTVSPost2010PropOp41
 70
     1
102
RTVSPost2010Prop42
 90
       50
102
RTVSPost2010PropOp42
 70
     1
102
RTVSPost2010Prop43
 90
        3
102
RTVSPost2010PropOp43
 70
     1
102
RTVSPost2010Prop44ColorIndex
 90
        5
102
RTVSPost2010Prop44ColorRGB
 90
      255
102
RTVSPost2010PropOp44
 70
     1
102
RTVSPost2010Prop45
280
     0
102
RTVSPost2010PropOp45
 70
     1
102
RTVSPost2010Prop46
 90
       50
102
RTVSPost2010PropOp46
 70
     1
102
RTVSPost2010Prop47
 90
       50
102
RTVSPost2010PropOp47
 70
     1
102
RTVSPost2010Prop48
 90
       50
102
RTVSPost2010PropOp48
 70
     1
102
RTVSPost2010Prop49
280
     0
102
RTVSPost2010PropOp49
 70
     1
102
RTVSPost2010Prop50
 90
       50
102
RTVSPost2010PropOp50
 70
     1
102
RTVSPost2010Prop51ColorIndex
 90
      256
102
RTVSPost2010Prop51ColorRGB
 90
-16777216
102
RTVSPost2010PropOp51
 70
     0
102
RTVSPost2010Prop52
140
1.0
102
RTVSPost2010PropOp52
 70
     0
102
RTVSPost2010Prop53
 90
        2
102
RTVSPost2010PropOp53
 70
     1
102
RTVSPost2010Prop54
  1
strokes_ogs.tif
102
RTVSPost2010PropOp54
 70
     1
102
RTVSPost2010Prop55
280
     0
102
RTVSPost2010PropOp55
 70
     1
102
RTVSPost2010Prop56
140
1.0
102
RTVSPost2010PropOp56
 70
     1
102
RTVSPost2010Prop57
140
1.0
102
RTVSPost2010PropOp57
 70
     1
102
RTVSPropertyOp0
 70
     1
102
RTVSPropertyOp1
 70
     1
102
RTVSPropertyOp2
 70
     1
102
RTVSPropertyOp3
 70
     1
102
RTVSPropertyOp4
 70
     1
102
RTVSPropertyOp5
 70
     1
102
RTVSPropertyOp6
 70
     1
102
RTVSPropertyOp7
 70
     1
102
RTVSPropertyOp8
 70
     1
102
RTVSPropertyOp9
 70
     1
102
RTVSPropertyOp10
 70
     1
102
RTVSPropertyOp11
 70
     1
102
RTVSPropertyOp12
 70
     1
102
RTVSPropertyOp13
 70
     1
102
RTVSPropertyOp14
 70
     1
102
RTVSPropertyOp15
 70
     1
102
RTVSPropertyOp16
 70
     1
102
RTVSPropertyOp17
 70
     1
102
RTVSPropertyOp18
 70
     1
102
RTVSPropertyOp19
 70
     1
102
RTVSPropertyOp20
 70
     1
102
RTVSPropertyOp21
 70
     1
102
RTVSPropertyOp22
 70
     1
102
RTVSPropertyOp23
 70
     1
102
RTVSPropertyOp24
 70
     1
102
RTVSPropertyOp25
 70
     1
102
RTVSPropertyOp26
 70
     1
102
RTVSPropertyOp27
 70
     1
102
RTVSPropertyOp28
 70
     1
102
RTVSPropertyOp29
 70
     1
102
RTVSPropertyOp30
 70
     1
102
RTVSPropertyOp31
 70
     1
102
RTVSPropertyOp32
 70
     1
102
RTVSPropertyOp33
 70
     1
102
RTVSPropertyOp34
 70
     1
102
RTVSPropertyOp35
 70
     1
102
RTVSPropertyOp36
 70
     1
102
RTVSPropertyOp37
 70
     1
102
RTVSPropertyOp38
 70
     1
102
RTVSPropertyOp39
 70
     1
102
RTVSPropertyOp40
 70
     1
102
RTVSPropertyOp41
 70
     1
102
RTVSPropertyOp42
 70
     1
102
RTVSPropertyOp43
 70
     1
102
RTVSPropertyOp44
 70
     1
102
RTVSPropertyOp45
 70
     1
102
RTVSPropertyOp46
 70
     1
102
RTVSPropertyOp47
 70
     1
102
RTVSPropertyOp48
 70
     1
102
RTVSPropertyOp49
 70
     1
102
RTVSPropertyOp50
 70
     1
102
RTVSPropertyOp51
 70
     0
102
RTVSPropertyOp52
 70
     0
102
RTVSPropertyOp53
 70
     1
102
RTVSPropertyOp54
 70
     1
102
RTVSPropertyOp55
 70
     1
102
RTVSPropertyOp56
 70
     1
102
RTVSPropertyOp57
 70
     1
102
RTVSPropertyOp58
 70
     1
102
RTVSPropertyOp59
 70
     1
102
RTVSPropertyOp60
 70
     1
102
RTVSPropertyOp61
 70
     1
102
RTVSPropertyOp62
 70
     1
  0
XRECORD
  5
7BA
102
{ACAD_REACTORS
330
7B9
102
}
330
7B9
100
AcDbXrecord
280
     1
102
RTVSPost2010Prop28
280
     0
102
RTVSPost2010PropOp28
 70
     1
102
RTVSPost2010Prop29
280
     1
102
RTVSPost2010PropOp29
 70
     1
102
RTVSPost2010Prop30
280
     1
102
RTVSPost2010PropOp30
 70
     1
102
RTVSPost2010Prop31
280
     0
102
RTVSPost2010PropOp31
 70
     1
102
RTVSPost2010Prop32
280
     0
102
RTVSPost2010PropOp32
 70
     1
102
RTVSPost2010Prop33
280
     0
102
RTVSPost2010PropOp33
 70
     1
102
RTVSPost2010Prop34
280
     0
102
RTVSPost2010PropOp34
 70
     1
102
RTVSPost2010Prop35
280
     0
102
RTVSPost2010PropOp35
 70
     1
102
RTVSPost2010Prop36
280
     0
102
RTVSPost2010PropOp36
 70
     1
102
RTVSPost2010Prop37
 90
       50
102
RTVSPost2010PropOp37
 70
     1
102
RTVSPost2010Prop38
140
0.0
102
RTVSPost2010PropOp38
 70
     1
102
RTVSPost2010Prop39
140
1.0
102
RTVSPost2010PropOp39
 70
     1
102
RTVSPost2010Prop40
 90
        0
102
RTVSPost2010PropOp40
 70
     1
102
RTVSPost2010Prop41ColorIndex
 90
       18
102
RTVSPost2010Prop41ColorRGB
 90
        0
102
RTVSPost2010PropOp41
 70
     1
102
RTVSPost2010Prop42
 90
       50
102
RTVSPost2010PropOp42
 70
     1
102
RTVSPost2010Prop43
 90
        3
102
RTVSPost2010PropOp43
 70
     1
102
RTVSPost2010Prop44ColorIndex
 90
        5
102
RTVSPost2010Prop44ColorRGB
 90
      255
102
RTVSPost2010PropOp44
 70
     1
102
RTVSPost2010Prop45
280
     0
102
RTVSPost2010PropOp45
 70
     1
102
RTVSPost2010Prop46
 90
       50
102
RTVSPost2010PropOp46
 70
     1
102
RTVSPost2010Prop47
 90
       50
102
RTVSPost2010PropOp47
 70
     1
102
RTVSPost2010Prop48
 90
       50
102
RTVSPost2010PropOp48
 70
     1
102
RTVSPost2010Prop49
280
     0
102
RTVSPost2010PropOp49
 70
     1
102
RTVSPost2010Prop50
 90
       50
102
RTVSPost2010PropOp50
 70
     1
102
RTVSPost2010Prop51ColorIndex
 90
      256
102
RTVSPost2010Prop51ColorRGB
 90
-16777216
102
RTVSPost2010PropOp51
 70
     0
102
RTVSPost2010Prop52
140
1.0
102
RTVSPost2010PropOp52
 70
     0
102
RTVSPost2010Prop53
 90
        2
102
RTVSPost2010PropOp53
 70
     1
102
RTVSPost2010Prop54
  1
strokes_ogs.tif
102
RTVSPost2010PropOp54
 70
     1
102
RTVSPost2010Prop55
280
     0
102
RTVSPost2010PropOp55
 70
     1
102
RTVSPost2010Prop56
140
1.0
102
RTVSPost2010PropOp56
 70
     1
102
RTVSPost2010Prop57
140
1.0
102
RTVSPost2010PropOp57
 70
     1
102
RTVSPropertyOp0
 70
     1
102
RTVSPropertyOp1
 70
     1
102
RTVSPropertyOp2
 70
     1
102
RTVSPropertyOp3
 70
     1
102
RTVSPropertyOp4
 70
     1
102
RTVSPropertyOp5
 70
     1
102
RTVSPropertyOp6
 70
     1
102
RTVSPropertyOp7
 70
     1
102
RTVSPropertyOp8
 70
     1
102
RTVSPropertyOp9
 70
     1
102
RTVSPropertyOp10
 70
     1
102
RTVSPropertyOp11
 70
     1
102
RTVSPropertyOp12
 70
     1
102
RTVSPropertyOp13
 70
     1
102
RTVSPropertyOp14
 70
     1
102
RTVSPropertyOp15
 70
     1
102
RTVSPropertyOp16
 70
     1
102
RTVSPropertyOp17
 70
     1
102
RTVSPropertyOp18
 70
     1
102
RTVSPropertyOp19
 70
     1
102
RTVSPropertyOp20
 70
     1
102
RTVSPropertyOp21
 70
     1
102
RTVSPropertyOp22
 70
     1
102
RTVSPropertyOp23
 70
     1
102
RTVSPropertyOp24
 70
     1
102
RTVSPropertyOp25
 70
     1
102
RTVSPropertyOp26
 70
     1
102
RTVSPropertyOp27
 70
     1
102
RTVSPropertyOp28
 70
     1
102
RTVSPropertyOp29
 70
     1
102
RTVSPropertyOp30
 70
     1
102
RTVSPropertyOp31
 70
     1
102
RTVSPropertyOp32
 70
     1
102
RTVSPropertyOp33
 70
     1
102
RTVSPropertyOp34
 70
     1
102
RTVSPropertyOp35
 70
     1
102
RTVSPropertyOp36
 70
     1
102
RTVSPropertyOp37
 70
     1
102
RTVSPropertyOp38
 70
     1
102
RTVSPropertyOp39
 70
     1
102
RTVSPropertyOp40
 70
     1
102
RTVSPropertyOp41
 70
     1
102
RTVSPropertyOp42
 70
     1
102
RTVSPropertyOp43
 70
     1
102
RTVSPropertyOp44
 70
     1
102
RTVSPropertyOp45
 70
     1
102
RTVSPropertyOp46
 70
     1
102
RTVSPropertyOp47
 70
     1
102
RTVSPropertyOp48
 70
     1
102
RTVSPropertyOp49
 70
     1
102
RTVSPropertyOp50
 70
     1
102
RTVSPropertyOp51
 70
     0
102
RTVSPropertyOp52
 70
     0
102
RTVSPropertyOp53
 70
     1
102
RTVSPropertyOp54
 70
     1
102
RTVSPropertyOp55
 70
     1
102
RTVSPropertyOp56
 70
     1
102
RTVSPropertyOp57
 70
     1
102
RTVSPropertyOp58
 70
     1
102
RTVSPropertyOp59
 70
     1
102
RTVSPropertyOp60
 70
     1
102
RTVSPropertyOp61
 70
     1
102
RTVSPropertyOp62
 70
     1
  0
XRECORD
  5
7BC
102
{ACAD_REACTORS
330
7BB
102
}
330
7BB
100
AcDbXrecord
280
     1
102
RTVSPost2010Prop28
280
     0
102
RTVSPost2010PropOp28
 70
     1
102
RTVSPost2010Prop29
280
     1
102
RTVSPost2010PropOp29
 70
     1
102
RTVSPost2010Prop30
280
     1
102
RTVSPost2010PropOp30
 70
     1
102
RTVSPost2010Prop31
280
     0
102
RTVSPost2010PropOp31
 70
     1
102
RTVSPost2010Prop32
280
     0
102
RTVSPost2010PropOp32
 70
     1
102
RTVSPost2010Prop33
280
     0
102
RTVSPost2010PropOp33
 70
     1
102
RTVSPost2010Prop34
280
     0
102
RTVSPost2010PropOp34
 70
     1
102
RTVSPost2010Prop35
280
     0
102
RTVSPost2010PropOp35
 70
     1
102
RTVSPost2010Prop36
280
     0
102
RTVSPost2010PropOp36
 70
     1
102
RTVSPost2010Prop37
 90
       50
102
RTVSPost2010PropOp37
 70
     1
102
RTVSPost2010Prop38
140
0.0
102
RTVSPost2010PropOp38
 70
     1
102
RTVSPost2010Prop39
140
1.0
102
RTVSPost2010PropOp39
 70
     1
102
RTVSPost2010Prop40
 90
        0
102
RTVSPost2010PropOp40
 70
     1
102
RTVSPost2010Prop41ColorIndex
 90
       18
102
RTVSPost2010Prop41ColorRGB
 90
        0
102
RTVSPost2010PropOp41
 70
     1
102
RTVSPost2010Prop42
 90
       50
102
RTVSPost2010PropOp42
 70
     1
102
RTVSPost2010Prop43
 90
        3
102
RTVSPost2010PropOp43
 70
     1
102
RTVSPost2010Prop44ColorIndex
 90
        5
102
RTVSPost2010Prop44ColorRGB
 90
      255
102
RTVSPost2010PropOp44
 70
     1
102
RTVSPost2010Prop45
280
     0
102
RTVSPost2010PropOp45
 70
     1
102
RTVSPost2010Prop46
 90
       50
102
RTVSPost2010PropOp46
 70
     1
102
RTVSPost2010Prop47
 90
       50
102
RTVSPost2010PropOp47
 70
     1
102
RTVSPost2010Prop48
 90
       50
102
RTVSPost2010PropOp48
 70
     1
102
RTVSPost2010Prop49
280
     0
102
RTVSPost2010PropOp49
 70
     1
102
RTVSPost2010Prop50
 90
       50
102
RTVSPost2010PropOp50
 70
     1
102
RTVSPost2010Prop51ColorIndex
 90
      256
102
RTVSPost2010Prop51ColorRGB
 90
-16777216
102
RTVSPost2010PropOp51
 70
     0
102
RTVSPost2010Prop52
140
1.0
102
RTVSPost2010PropOp52
 70
     0
102
RTVSPost2010Prop53
 90
        2
102
RTVSPost2010PropOp53
 70
     1
102
RTVSPost2010Prop54
  1
strokes_ogs.tif
102
RTVSPost2010PropOp54
 70
     1
102
RTVSPost2010Prop55
280
     0
102
RTVSPost2010PropOp55
 70
     1
102
RTVSPost2010Prop56
140
1.0
102
RTVSPost2010PropOp56
 70
     1
102
RTVSPost2010Prop57
140
1.0
102
RTVSPost2010PropOp57
 70
     1
102
RTVSPropertyOp0
 70
     1
102
RTVSPropertyOp1
 70
     1
102
RTVSPropertyOp2
 70
     1
102
RTVSPropertyOp3
 70
     1
102
RTVSPropertyOp4
 70
     1
102
RTVSPropertyOp5
 70
     1
102
RTVSPropertyOp6
 70
     1
102
RTVSPropertyOp7
 70
     1
102
RTVSPropertyOp8
 70
     1
102
RTVSPropertyOp9
 70
     1
102
RTVSPropertyOp10
 70
     1
102
RTVSPropertyOp11
 70
     1
102
RTVSPropertyOp12
 70
     1
102
RTVSPropertyOp13
 70
     1
102
RTVSPropertyOp14
 70
     1
102
RTVSPropertyOp15
 70
     1
102
RTVSPropertyOp16
 70
     1
102
RTVSPropertyOp17
 70
     1
102
RTVSPropertyOp18
 70
     1
102
RTVSPropertyOp19
 70
     1
102
RTVSPropertyOp20
 70
     1
102
RTVSPropertyOp21
 70
     1
102
RTVSPropertyOp22
 70
     1
102
RTVSPropertyOp23
 70
     1
102
RTVSPropertyOp24
 70
     1
102
RTVSPropertyOp25
 70
     1
102
RTVSPropertyOp26
 70
     1
102
RTVSPropertyOp27
 70
     1
102
RTVSPropertyOp28
 70
     1
102
RTVSPropertyOp29
 70
     1
102
RTVSPropertyOp30
 70
     1
102
RTVSPropertyOp31
 70
     1
102
RTVSPropertyOp32
 70
     1
102
RTVSPropertyOp33
 70
     1
102
RTVSPropertyOp34
 70
     1
102
RTVSPropertyOp35
 70
     1
102
RTVSPropertyOp36
 70
     1
102
RTVSPropertyOp37
 70
     1
102
RTVSPropertyOp38
 70
     1
102
RTVSPropertyOp39
 70
     1
102
RTVSPropertyOp40
 70
     1
102
RTVSPropertyOp41
 70
     1
102
RTVSPropertyOp42
 70
     1
102
RTVSPropertyOp43
 70
     1
102
RTVSPropertyOp44
 70
     1
102
RTVSPropertyOp45
 70
     1
102
RTVSPropertyOp46
 70
     1
102
RTVSPropertyOp47
 70
     1
102
RTVSPropertyOp48
 70
     1
102
RTVSPropertyOp49
 70
     1
102
RTVSPropertyOp50
 70
     1
102
RTVSPropertyOp51
 70
     0
102
RTVSPropertyOp52
 70
     0
102
RTVSPropertyOp53
 70
     1
102
RTVSPropertyOp54
 70
     1
102
RTVSPropertyOp55
 70
     1
102
RTVSPropertyOp56
 70
     1
102
RTVSPropertyOp57
 70
     1
102
RTVSPropertyOp58
 70
     1
102
RTVSPropertyOp59
 70
     1
102
RTVSPropertyOp60
 70
     1
102
RTVSPropertyOp61
 70
     1
102
RTVSPropertyOp62
 70
     1
  0
XRECORD
  5
7CC
102
{ACAD_REACTORS
330
7CB
102
}
330
7CB
100
AcDbXrecord
280
     1
102
RTVSPost2010Prop28
280
     0
102
RTVSPost2010PropOp28
 70
     0
102
RTVSPost2010Prop29
280
     1
102
RTVSPost2010PropOp29
 70
     0
102
RTVSPost2010Prop30
280
     1
102
RTVSPost2010PropOp30
 70
     0
102
RTVSPost2010Prop31
280
     0
102
RTVSPost2010PropOp31
 70
     0
102
RTVSPost2010Prop32
280
     0
102
RTVSPost2010PropOp32
 70
     0
102
RTVSPost2010Prop33
280
     0
102
RTVSPost2010PropOp33
 70
     0
102
RTVSPost2010Prop34
280
     0
102
RTVSPost2010PropOp34
 70
     0
102
RTVSPost2010Prop35
280
     0
102
RTVSPost2010PropOp35
 70
     0
102
RTVSPost2010Prop36
280
     0
102
RTVSPost2010PropOp36
 70
     0
102
RTVSPost2010Prop37
 90
       50
102
RTVSPost2010PropOp37
 70
     0
102
RTVSPost2010Prop38
140
0.0
102
RTVSPost2010PropOp38
 70
     0
102
RTVSPost2010Prop39
140
1.0
102
RTVSPost2010PropOp39
 70
     0
102
RTVSPost2010Prop40
 90
        0
102
RTVSPost2010PropOp40
 70
     0
102
RTVSPost2010Prop41ColorIndex
 90
       18
102
RTVSPost2010Prop41ColorRGB
 90
        0
102
RTVSPost2010PropOp41
 70
     0
102
RTVSPost2010Prop42
 90
       50
102
RTVSPost2010PropOp42
 70
     0
102
RTVSPost2010Prop43
 90
        3
102
RTVSPost2010PropOp43
 70
     0
102
RTVSPost2010Prop44ColorIndex
 90
        5
102
RTVSPost2010Prop44ColorRGB
 90
      255
102
RTVSPost2010PropOp44
 70
     0
102
RTVSPost2010Prop45
280
     0
102
RTVSPost2010PropOp45
 70
     0
102
RTVSPost2010Prop46
 90
       50
102
RTVSPost2010PropOp46
 70
     0
102
RTVSPost2010Prop47
 90
       50
102
RTVSPost2010PropOp47
 70
     0
102
RTVSPost2010Prop48
 90
       50
102
RTVSPost2010PropOp48
 70
     0
102
RTVSPost2010Prop49
280
     0
102
RTVSPost2010PropOp49
 70
     0
102
RTVSPost2010Prop50
 90
       50
102
RTVSPost2010PropOp50
 70
     0
102
RTVSPost2010Prop51ColorIndex
 90
      256
102
RTVSPost2010Prop51ColorRGB
 90
-16777216
102
RTVSPost2010PropOp51
 70
     0
102
RTVSPost2010Prop52
140
1.0
102
RTVSPost2010PropOp52
 70
     0
102
RTVSPost2010Prop53
 90
        2
102
RTVSPost2010PropOp53
 70
     0
102
RTVSPost2010Prop54
  1
strokes_ogs.tif
102
RTVSPost2010PropOp54
 70
     0
102
RTVSPost2010Prop55
280
     0
102
RTVSPost2010PropOp55
 70
     0
102
RTVSPost2010Prop56
140
1.0
102
RTVSPost2010PropOp56
 70
     0
102
RTVSPost2010Prop57
140
1.0
102
RTVSPost2010PropOp57
 70
     0
102
RTVSPropertyOp0
 70
     0
102
RTVSPropertyOp1
 70
     0
102
RTVSPropertyOp2
 70
     0
102
RTVSPropertyOp3
 70
     0
102
RTVSPropertyOp4
 70
     0
102
RTVSPropertyOp5
 70
     0
102
RTVSPropertyOp6
 70
     0
102
RTVSPropertyOp7
 70
     0
102
RTVSPropertyOp8
 70
     0
102
RTVSPropertyOp9
 70
     0
102
RTVSPropertyOp10
 70
     0
102
RTVSPropertyOp11
 70
     0
102
RTVSPropertyOp12
 70
     0
102
RTVSPropertyOp13
 70
     0
102
RTVSPropertyOp14
 70
     2
102
RTVSPropertyOp15
 70
     0
102
RTVSPropertyOp16
 70
     0
102
RTVSPropertyOp17
 70
     0
102
RTVSPropertyOp18
 70
     0
102
RTVSPropertyOp19
 70
     0
102
RTVSPropertyOp20
 70
     0
102
RTVSPropertyOp21
 70
     0
102
RTVSPropertyOp22
 70
     0
102
RTVSPropertyOp23
 70
     0
102
RTVSPropertyOp24
 70
     0
102
RTVSPropertyOp25
 70
     0
102
RTVSPropertyOp26
 70
     0
102
RTVSPropertyOp27
 70
     0
102
RTVSPropertyOp28
 70
     0
102
RTVSPropertyOp29
 70
     0
102
RTVSPropertyOp30
 70
     0
102
RTVSPropertyOp31
 70
     0
102
RTVSPropertyOp32
 70
     0
102
RTVSPropertyOp33
 70
     0
102
RTVSPropertyOp34
 70
     0
102
RTVSPropertyOp35
 70
     0
102
RTVSPropertyOp36
 70
     0
102
RTVSPropertyOp37
 70
     0
102
RTVSPropertyOp38
 70
     0
102
RTVSPropertyOp39
 70
     0
102
RTVSPropertyOp40
 70
     0
102
RTVSPropertyOp41
 70
     0
102
RTVSPropertyOp42
 70
     0
102
RTVSPropertyOp43
 70
     0
102
RTVSPropertyOp44
 70
     0
102
RTVSPropertyOp45
 70
     0
102
RTVSPropertyOp46
 70
     0
102
RTVSPropertyOp47
 70
     0
102
RTVSPropertyOp48
 70
     0
102
RTVSPropertyOp49
 70
     0
102
RTVSPropertyOp50
 70
     0
102
RTVSPropertyOp51
 70
     0
102
RTVSPropertyOp52
 70
     0
102
RTVSPropertyOp53
 70
     0
102
RTVSPropertyOp54
 70
     0
102
RTVSPropertyOp55
 70
     0
102
RTVSPropertyOp56
 70
     0
102
RTVSPropertyOp57
 70
     0
102
RTVSPropertyOp58
 70
     1
102
RTVSPropertyOp59
 70
     1
102
RTVSPropertyOp60
 70
     1
102
RTVSPropertyOp61
 70
     1
102
RTVSPropertyOp62
 70
     1
  0
XRECORD
  5
7C4
102
{ACAD_REACTORS
330
7C3
102
}
330
7C3
100
AcDbXrecord
280
     1
102
RTVSPost2010Prop28
280
     0
102
RTVSPost2010PropOp28
 70
     1
102
RTVSPost2010Prop29
280
     1
102
RTVSPost2010PropOp29
 70
     1
102
RTVSPost2010Prop30
280
     1
102
RTVSPost2010PropOp30
 70
     1
102
RTVSPost2010Prop31
280
     0
102
RTVSPost2010PropOp31
 70
     1
102
RTVSPost2010Prop32
280
     0
102
RTVSPost2010PropOp32
 70
     1
102
RTVSPost2010Prop33
280
     0
102
RTVSPost2010PropOp33
 70
     1
102
RTVSPost2010Prop34
280
     0
102
RTVSPost2010PropOp34
 70
     1
102
RTVSPost2010Prop35
280
     0
102
RTVSPost2010PropOp35
 70
     1
102
RTVSPost2010Prop36
280
     0
102
RTVSPost2010PropOp36
 70
     1
102
RTVSPost2010Prop37
 90
       50
102
RTVSPost2010PropOp37
 70
     1
102
RTVSPost2010Prop38
140
0.0
102
RTVSPost2010PropOp38
 70
     1
102
RTVSPost2010Prop39
140
1.0
102
RTVSPost2010PropOp39
 70
     1
102
RTVSPost2010Prop40
 90
        0
102
RTVSPost2010PropOp40
 70
     1
102
RTVSPost2010Prop41ColorIndex
 90
       18
102
RTVSPost2010Prop41ColorRGB
 90
        0
102
RTVSPost2010PropOp41
 70
     1
102
RTVSPost2010Prop42
 90
       50
102
RTVSPost2010PropOp42
 70
     1
102
RTVSPost2010Prop43
 90
        3
102
RTVSPost2010PropOp43
 70
     1
102
RTVSPost2010Prop44ColorIndex
 90
        5
102
RTVSPost2010Prop44ColorRGB
 90
      255
102
RTVSPost2010PropOp44
 70
     1
102
RTVSPost2010Prop45
280
     0
102
RTVSPost2010PropOp45
 70
     1
102
RTVSPost2010Prop46
 90
       50
102
RTVSPost2010PropOp46
 70
     1
102
RTVSPost2010Prop47
 90
       50
102
RTVSPost2010PropOp47
 70
     1
102
RTVSPost2010Prop48
 90
       50
102
RTVSPost2010PropOp48
 70
     1
102
RTVSPost2010Prop49
280
     0
102
RTVSPost2010PropOp49
 70
     1
102
RTVSPost2010Prop50
 90
       50
102
RTVSPost2010PropOp50
 70
     1
102
RTVSPost2010Prop51ColorIndex
 90
      256
102
RTVSPost2010Prop51ColorRGB
 90
-16777216
102
RTVSPost2010PropOp51
 70
     0
102
RTVSPost2010Prop52
140
1.0
102
RTVSPost2010PropOp52
 70
     0
102
RTVSPost2010Prop53
 90
        2
102
RTVSPost2010PropOp53
 70
     1
102
RTVSPost2010Prop54
  1
strokes_ogs.tif
102
RTVSPost2010PropOp54
 70
     1
102
RTVSPost2010Prop55
280
     0
102
RTVSPost2010PropOp55
 70
     1
102
RTVSPost2010Prop56
140
1.0
102
RTVSPost2010PropOp56
 70
     1
102
RTVSPost2010Prop57
140
1.0
102
RTVSPost2010PropOp57
 70
     1
102
RTVSPropertyOp0
 70
     1
102
RTVSPropertyOp1
 70
     1
102
RTVSPropertyOp2
 70
     1
102
RTVSPropertyOp3
 70
     1
102
RTVSPropertyOp4
 70
     1
102
RTVSPropertyOp5
 70
     1
102
RTVSPropertyOp6
 70
     1
102
RTVSPropertyOp7
 70
     1
102
RTVSPropertyOp8
 70
     1
102
RTVSPropertyOp9
 70
     1
102
RTVSPropertyOp10
 70
     1
102
RTVSPropertyOp11
 70
     1
102
RTVSPropertyOp12
 70
     1
102
RTVSPropertyOp13
 70
     1
102
RTVSPropertyOp14
 70
     1
102
RTVSPropertyOp15
 70
     1
102
RTVSPropertyOp16
 70
     1
102
RTVSPropertyOp17
 70
     1
102
RTVSPropertyOp18
 70
     1
102
RTVSPropertyOp19
 70
     1
102
RTVSPropertyOp20
 70
     1
102
RTVSPropertyOp21
 70
     1
102
RTVSPropertyOp22
 70
     1
102
RTVSPropertyOp23
 70
     1
102
RTVSPropertyOp24
 70
     1
102
RTVSPropertyOp25
 70
     1
102
RTVSPropertyOp26
 70
     1
102
RTVSPropertyOp27
 70
     1
102
RTVSPropertyOp28
 70
     1
102
RTVSPropertyOp29
 70
     1
102
RTVSPropertyOp30
 70
     1
102
RTVSPropertyOp31
 70
     1
102
RTVSPropertyOp32
 70
     1
102
RTVSPropertyOp33
 70
     1
102
RTVSPropertyOp34
 70
     1
102
RTVSPropertyOp35
 70
     1
102
RTVSPropertyOp36
 70
     1
102
RTVSPropertyOp37
 70
     1
102
RTVSPropertyOp38
 70
     1
102
RTVSPropertyOp39
 70
     1
102
RTVSPropertyOp40
 70
     1
102
RTVSPropertyOp41
 70
     1
102
RTVSPropertyOp42
 70
     1
102
RTVSPropertyOp43
 70
     1
102
RTVSPropertyOp44
 70
     1
102
RTVSPropertyOp45
 70
     1
102
RTVSPropertyOp46
 70
     1
102
RTVSPropertyOp47
 70
     1
102
RTVSPropertyOp48
 70
     1
102
RTVSPropertyOp49
 70
     1
102
RTVSPropertyOp50
 70
     1
102
RTVSPropertyOp51
 70
     0
102
RTVSPropertyOp52
 70
     0
102
RTVSPropertyOp53
 70
     1
102
RTVSPropertyOp54
 70
     1
102
RTVSPropertyOp55
 70
     1
102
RTVSPropertyOp56
 70
     1
102
RTVSPropertyOp57
 70
     1
102
RTVSPropertyOp58
 70
     1
102
RTVSPropertyOp59
 70
     1
102
RTVSPropertyOp60
 70
     1
102
RTVSPropertyOp61
 70
     1
102
RTVSPropertyOp62
 70
     1
  0
XRECORD
  5
7A8
102
{ACAD_REACTORS
330
7A7
102
}
330
7A7
100
AcDbXrecord
280
     1
102
RTVSPost2010Prop28
280
     0
102
RTVSPost2010PropOp28
 70
     1
102
RTVSPost2010Prop29
280
     1
102
RTVSPost2010PropOp29
 70
     1
102
RTVSPost2010Prop30
280
     1
102
RTVSPost2010PropOp30
 70
     1
102
RTVSPost2010Prop31
280
     0
102
RTVSPost2010PropOp31
 70
     1
102
RTVSPost2010Prop32
280
     0
102
RTVSPost2010PropOp32
 70
     1
102
RTVSPost2010Prop33
280
     0
102
RTVSPost2010PropOp33
 70
     1
102
RTVSPost2010Prop34
280
     0
102
RTVSPost2010PropOp34
 70
     1
102
RTVSPost2010Prop35
280
     0
102
RTVSPost2010PropOp35
 70
     1
102
RTVSPost2010Prop36
280
     0
102
RTVSPost2010PropOp36
 70
     1
102
RTVSPost2010Prop37
 90
       50
102
RTVSPost2010PropOp37
 70
     1
102
RTVSPost2010Prop38
140
0.0
102
RTVSPost2010PropOp38
 70
     1
102
RTVSPost2010Prop39
140
1.0
102
RTVSPost2010PropOp39
 70
     1
102
RTVSPost2010Prop40
 90
        0
102
RTVSPost2010PropOp40
 70
     1
102
RTVSPost2010Prop41ColorIndex
 90
       18
102
RTVSPost2010Prop41ColorRGB
 90
        0
102
RTVSPost2010PropOp41
 70
     1
102
RTVSPost2010Prop42
 90
       50
102
RTVSPost2010PropOp42
 70
     1
102
RTVSPost2010Prop43
 90
        3
102
RTVSPost2010PropOp43
 70
     1
102
RTVSPost2010Prop44ColorIndex
 90
        5
102
RTVSPost2010Prop44ColorRGB
 90
      255
102
RTVSPost2010PropOp44
 70
     1
102
RTVSPost2010Prop45
280
     0
102
RTVSPost2010PropOp45
 70
     1
102
RTVSPost2010Prop46
 90
       50
102
RTVSPost2010PropOp46
 70
     1
102
RTVSPost2010Prop47
 90
       50
102
RTVSPost2010PropOp47
 70
     1
102
RTVSPost2010Prop48
 90
       50
102
RTVSPost2010PropOp48
 70
     1
102
RTVSPost2010Prop49
280
     0
102
RTVSPost2010PropOp49
 70
     1
102
RTVSPost2010Prop50
 90
       50
102
RTVSPost2010PropOp50
 70
     1
102
RTVSPost2010Prop51ColorIndex
 90
      256
102
RTVSPost2010Prop51ColorRGB
 90
-16777216
102
RTVSPost2010PropOp51
 70
     0
102
RTVSPost2010Prop52
140
1.0
102
RTVSPost2010PropOp52
 70
     0
102
RTVSPost2010Prop53
 90
        2
102
RTVSPost2010PropOp53
 70
     1
102
RTVSPost2010Prop54
  1
strokes_ogs.tif
102
RTVSPost2010PropOp54
 70
     1
102
RTVSPost2010Prop55
280
     0
102
RTVSPost2010PropOp55
 70
     1
102
RTVSPost2010Prop56
140
1.0
102
RTVSPost2010PropOp56
 70
     1
102
RTVSPost2010Prop57
140
1.0
102
RTVSPost2010PropOp57
 70
     1
102
RTVSPropertyOp0
 70
     1
102
RTVSPropertyOp1
 70
     1
102
RTVSPropertyOp2
 70
     1
102
RTVSPropertyOp3
 70
     1
102
RTVSPropertyOp4
 70
     1
102
RTVSPropertyOp5
 70
     1
102
RTVSPropertyOp6
 70
     1
102
RTVSPropertyOp7
 70
     1
102
RTVSPropertyOp8
 70
     1
102
RTVSPropertyOp9
 70
     1
102
RTVSPropertyOp10
 70
     1
102
RTVSPropertyOp11
 70
     1
102
RTVSPropertyOp12
 70
     1
102
RTVSPropertyOp13
 70
     1
102
RTVSPropertyOp14
 70
     1
102
RTVSPropertyOp15
 70
     1
102
RTVSPropertyOp16
 70
     1
102
RTVSPropertyOp17
 70
     1
102
RTVSPropertyOp18
 70
     1
102
RTVSPropertyOp19
 70
     1
102
RTVSPropertyOp20
 70
     1
102
RTVSPropertyOp21
 70
     1
102
RTVSPropertyOp22
 70
     1
102
RTVSPropertyOp23
 70
     1
102
RTVSPropertyOp24
 70
     1
102
RTVSPropertyOp25
 70
     1
102
RTVSPropertyOp26
 70
     1
102
RTVSPropertyOp27
 70
     1
102
RTVSPropertyOp28
 70
     1
102
RTVSPropertyOp29
 70
     1
102
RTVSPropertyOp30
 70
     1
102
RTVSPropertyOp31
 70
     1
102
RTVSPropertyOp32
 70
     1
102
RTVSPropertyOp33
 70
     1
102
RTVSPropertyOp34
 70
     1
102
RTVSPropertyOp35
 70
     1
102
RTVSPropertyOp36
 70
     1
102
RTVSPropertyOp37
 70
     1
102
RTVSPropertyOp38
 70
     1
102
RTVSPropertyOp39
 70
     1
102
RTVSPropertyOp40
 70
     1
102
RTVSPropertyOp41
 70
     1
102
RTVSPropertyOp42
 70
     1
102
RTVSPropertyOp43
 70
     1
102
RTVSPropertyOp44
 70
     1
102
RTVSPropertyOp45
 70
     1
102
RTVSPropertyOp46
 70
     1
102
RTVSPropertyOp47
 70
     1
102
RTVSPropertyOp48
 70
     1
102
RTVSPropertyOp49
 70
     1
102
RTVSPropertyOp50
 70
     1
102
RTVSPropertyOp51
 70
     0
102
RTVSPropertyOp52
 70
     0
102
RTVSPropertyOp53
 70
     1
102
RTVSPropertyOp54
 70
     1
102
RTVSPropertyOp55
 70
     1
102
RTVSPropertyOp56
 70
     1
102
RTVSPropertyOp57
 70
     1
102
RTVSPropertyOp58
 70
     1
102
RTVSPropertyOp59
 70
     1
102
RTVSPropertyOp60
 70
     1
102
RTVSPropertyOp61
 70
     1
102
RTVSPropertyOp62
 70
     1
  0
XRECORD
  5
7AA
102
{ACAD_REACTORS
330
7A9
102
}
330
7A9
100
AcDbXrecord
280
     1
102
RTVSPost2010Prop28
280
     0
102
RTVSPost2010PropOp28
 70
     1
102
RTVSPost2010Prop29
280
     1
102
RTVSPost2010PropOp29
 70
     1
102
RTVSPost2010Prop30
280
     1
102
RTVSPost2010PropOp30
 70
     1
102
RTVSPost2010Prop31
280
     0
102
RTVSPost2010PropOp31
 70
     1
102
RTVSPost2010Prop32
280
     0
102
RTVSPost2010PropOp32
 70
     1
102
RTVSPost2010Prop33
280
     0
102
RTVSPost2010PropOp33
 70
     1
102
RTVSPost2010Prop34
280
     0
102
RTVSPost2010PropOp34
 70
     1
102
RTVSPost2010Prop35
280
     0
102
RTVSPost2010PropOp35
 70
     1
102
RTVSPost2010Prop36
280
     0
102
RTVSPost2010PropOp36
 70
     1
102
RTVSPost2010Prop37
 90
       50
102
RTVSPost2010PropOp37
 70
     1
102
RTVSPost2010Prop38
140
0.0
102
RTVSPost2010PropOp38
 70
     1
102
RTVSPost2010Prop39
140
1.0
102
RTVSPost2010PropOp39
 70
     1
102
RTVSPost2010Prop40
 90
        0
102
RTVSPost2010PropOp40
 70
     1
102
RTVSPost2010Prop41ColorIndex
 90
       18
102
RTVSPost2010Prop41ColorRGB
 90
        0
102
RTVSPost2010PropOp41
 70
     1
102
RTVSPost2010Prop42
 90
       50
102
RTVSPost2010PropOp42
 70
     1
102
RTVSPost2010Prop43
 90
        3
102
RTVSPost2010PropOp43
 70
     1
102
RTVSPost2010Prop44ColorIndex
 90
        5
102
RTVSPost2010Prop44ColorRGB
 90
      255
102
RTVSPost2010PropOp44
 70
     1
102
RTVSPost2010Prop45
280
     0
102
RTVSPost2010PropOp45
 70
     1
102
RTVSPost2010Prop46
 90
       50
102
RTVSPost2010PropOp46
 70
     1
102
RTVSPost2010Prop47
 90
       50
102
RTVSPost2010PropOp47
 70
     1
102
RTVSPost2010Prop48
 90
       50
102
RTVSPost2010PropOp48
 70
     1
102
RTVSPost2010Prop49
280
     0
102
RTVSPost2010PropOp49
 70
     1
102
RTVSPost2010Prop50
 90
       50
102
RTVSPost2010PropOp50
 70
     1
102
RTVSPost2010Prop51ColorIndex
 90
      256
102
RTVSPost2010Prop51ColorRGB
 90
-16777216
102
RTVSPost2010PropOp51
 70
     0
102
RTVSPost2010Prop52
140
1.0
102
RTVSPost2010PropOp52
 70
     0
102
RTVSPost2010Prop53
 90
        2
102
RTVSPost2010PropOp53
 70
     1
102
RTVSPost2010Prop54
  1
strokes_ogs.tif
102
RTVSPost2010PropOp54
 70
     1
102
RTVSPost2010Prop55
280
     0
102
RTVSPost2010PropOp55
 70
     1
102
RTVSPost2010Prop56
140
1.0
102
RTVSPost2010PropOp56
 70
     1
102
RTVSPost2010Prop57
140
1.0
102
RTVSPost2010PropOp57
 70
     1
102
RTVSPropertyOp0
 70
     1
102
RTVSPropertyOp1
 70
     1
102
RTVSPropertyOp2
 70
     1
102
RTVSPropertyOp3
 70
     1
102
RTVSPropertyOp4
 70
     1
102
RTVSPropertyOp5
 70
     1
102
RTVSPropertyOp6
 70
     1
102
RTVSPropertyOp7
 70
     1
102
RTVSPropertyOp8
 70
     1
102
RTVSPropertyOp9
 70
     1
102
RTVSPropertyOp10
 70
     1
102
RTVSPropertyOp11
 70
     1
102
RTVSPropertyOp12
 70
     1
102
RTVSPropertyOp13
 70
     1
102
RTVSPropertyOp14
 70
     1
102
RTVSPropertyOp15
 70
     1
102
RTVSPropertyOp16
 70
     1
102
RTVSPropertyOp17
 70
     1
102
RTVSPropertyOp18
 70
     1
102
RTVSPropertyOp19
 70
     1
102
RTVSPropertyOp20
 70
     1
102
RTVSPropertyOp21
 70
     1
102
RTVSPropertyOp22
 70
     1
102
RTVSPropertyOp23
 70
     1
102
RTVSPropertyOp24
 70
     1
102
RTVSPropertyOp25
 70
     1
102
RTVSPropertyOp26
 70
     1
102
RTVSPropertyOp27
 70
     1
102
RTVSPropertyOp28
 70
     1
102
RTVSPropertyOp29
 70
     1
102
RTVSPropertyOp30
 70
     1
102
RTVSPropertyOp31
 70
     1
102
RTVSPropertyOp32
 70
     1
102
RTVSPropertyOp33
 70
     1
102
RTVSPropertyOp34
 70
     1
102
RTVSPropertyOp35
 70
     1
102
RTVSPropertyOp36
 70
     1
102
RTVSPropertyOp37
 70
     1
102
RTVSPropertyOp38
 70
     1
102
RTVSPropertyOp39
 70
     1
102
RTVSPropertyOp40
 70
     1
102
RTVSPropertyOp41
 70
     1
102
RTVSPropertyOp42
 70
     1
102
RTVSPropertyOp43
 70
     1
102
RTVSPropertyOp44
 70
     1
102
RTVSPropertyOp45
 70
     1
102
RTVSPropertyOp46
 70
     1
102
RTVSPropertyOp47
 70
     1
102
RTVSPropertyOp48
 70
     1
102
RTVSPropertyOp49
 70
     1
102
RTVSPropertyOp50
 70
     1
102
RTVSPropertyOp51
 70
     0
102
RTVSPropertyOp52
 70
     0
102
RTVSPropertyOp53
 70
     1
102
RTVSPropertyOp54
 70
     1
102
RTVSPropertyOp55
 70
     1
102
RTVSPropertyOp56
 70
     1
102
RTVSPropertyOp57
 70
     1
102
RTVSPropertyOp58
 70
     1
102
RTVSPropertyOp59
 70
     1
102
RTVSPropertyOp60
 70
     1
102
RTVSPropertyOp61
 70
     1
102
RTVSPropertyOp62
 70
     1
  0
XRECORD
  5
7AC
102
{ACAD_REACTORS
330
7AB
102
}
330
7AB
100
AcDbXrecord
280
     1
102
RTVSPost2010Prop28
280
     0
102
RTVSPost2010PropOp28
 70
     1
102
RTVSPost2010Prop29
280
     1
102
RTVSPost2010PropOp29
 70
     1
102
RTVSPost2010Prop30
280
     1
102
RTVSPost2010PropOp30
 70
     1
102
RTVSPost2010Prop31
280
     0
102
RTVSPost2010PropOp31
 70
     1
102
RTVSPost2010Prop32
280
     0
102
RTVSPost2010PropOp32
 70
     1
102
RTVSPost2010Prop33
280
     0
102
RTVSPost2010PropOp33
 70
     1
102
RTVSPost2010Prop34
280
     0
102
RTVSPost2010PropOp34
 70
     1
102
RTVSPost2010Prop35
280
     0
102
RTVSPost2010PropOp35
 70
     1
102
RTVSPost2010Prop36
280
     0
102
RTVSPost2010PropOp36
 70
     1
102
RTVSPost2010Prop37
 90
       50
102
RTVSPost2010PropOp37
 70
     1
102
RTVSPost2010Prop38
140
0.0
102
RTVSPost2010PropOp38
 70
     1
102
RTVSPost2010Prop39
140
1.0
102
RTVSPost2010PropOp39
 70
     1
102
RTVSPost2010Prop40
 90
        0
102
RTVSPost2010PropOp40
 70
     1
102
RTVSPost2010Prop41ColorIndex
 90
       18
102
RTVSPost2010Prop41ColorRGB
 90
        0
102
RTVSPost2010PropOp41
 70
     1
102
RTVSPost2010Prop42
 90
       50
102
RTVSPost2010PropOp42
 70
     1
102
RTVSPost2010Prop43
 90
        3
102
RTVSPost2010PropOp43
 70
     1
102
RTVSPost2010Prop44ColorIndex
 90
        5
102
RTVSPost2010Prop44ColorRGB
 90
      255
102
RTVSPost2010PropOp44
 70
     1
102
RTVSPost2010Prop45
280
     0
102
RTVSPost2010PropOp45
 70
     1
102
RTVSPost2010Prop46
 90
       50
102
RTVSPost2010PropOp46
 70
     1
102
RTVSPost2010Prop47
 90
       50
102
RTVSPost2010PropOp47
 70
     1
102
RTVSPost2010Prop48
 90
       50
102
RTVSPost2010PropOp48
 70
     1
102
RTVSPost2010Prop49
280
     0
102
RTVSPost2010PropOp49
 70
     1
102
RTVSPost2010Prop50
 90
       50
102
RTVSPost2010PropOp50
 70
     1
102
RTVSPost2010Prop51ColorIndex
 90
      256
102
RTVSPost2010Prop51ColorRGB
 90
-16777216
102
RTVSPost2010PropOp51
 70
     0
102
RTVSPost2010Prop52
140
1.0
102
RTVSPost2010PropOp52
 70
     0
102
RTVSPost2010Prop53
 90
        2
102
RTVSPost2010PropOp53
 70
     1
102
RTVSPost2010Prop54
  1
strokes_ogs.tif
102
RTVSPost2010PropOp54
 70
     1
102
RTVSPost2010Prop55
280
     0
102
RTVSPost2010PropOp55
 70
     1
102
RTVSPost2010Prop56
140
1.0
102
RTVSPost2010PropOp56
 70
     1
102
RTVSPost2010Prop57
140
1.0
102
RTVSPost2010PropOp57
 70
     1
102
RTVSPropertyOp0
 70
     1
102
RTVSPropertyOp1
 70
     1
102
RTVSPropertyOp2
 70
     1
102
RTVSPropertyOp3
 70
     1
102
RTVSPropertyOp4
 70
     1
102
RTVSPropertyOp5
 70
     1
102
RTVSPropertyOp6
 70
     1
102
RTVSPropertyOp7
 70
     1
102
RTVSPropertyOp8
 70
     1
102
RTVSPropertyOp9
 70
     1
102
RTVSPropertyOp10
 70
     1
102
RTVSPropertyOp11
 70
     1
102
RTVSPropertyOp12
 70
     1
102
RTVSPropertyOp13
 70
     1
102
RTVSPropertyOp14
 70
     1
102
RTVSPropertyOp15
 70
     1
102
RTVSPropertyOp16
 70
     1
102
RTVSPropertyOp17
 70
     1
102
RTVSPropertyOp18
 70
     1
102
RTVSPropertyOp19
 70
     1
102
RTVSPropertyOp20
 70
     1
102
RTVSPropertyOp21
 70
     1
102
RTVSPropertyOp22
 70
     1
102
RTVSPropertyOp23
 70
     1
102
RTVSPropertyOp24
 70
     1
102
RTVSPropertyOp25
 70
     1
102
RTVSPropertyOp26
 70
     1
102
RTVSPropertyOp27
 70
     1
102
RTVSPropertyOp28
 70
     1
102
RTVSPropertyOp29
 70
     1
102
RTVSPropertyOp30
 70
     1
102
RTVSPropertyOp31
 70
     1
102
RTVSPropertyOp32
 70
     1
102
RTVSPropertyOp33
 70
     1
102
RTVSPropertyOp34
 70
     1
102
RTVSPropertyOp35
 70
     1
102
RTVSPropertyOp36
 70
     1
102
RTVSPropertyOp37
 70
     1
102
RTVSPropertyOp38
 70
     1
102
RTVSPropertyOp39
 70
     1
102
RTVSPropertyOp40
 70
     1
102
RTVSPropertyOp41
 70
     1
102
RTVSPropertyOp42
 70
     1
102
RTVSPropertyOp43
 70
     1
102
RTVSPropertyOp44
 70
     1
102
RTVSPropertyOp45
 70
     1
102
RTVSPropertyOp46
 70
     1
102
RTVSPropertyOp47
 70
     1
102
RTVSPropertyOp48
 70
     1
102
RTVSPropertyOp49
 70
     1
102
RTVSPropertyOp50
 70
     1
102
RTVSPropertyOp51
 70
     0
102
RTVSPropertyOp52
 70
     0
102
RTVSPropertyOp53
 70
     1
102
RTVSPropertyOp54
 70
     1
102
RTVSPropertyOp55
 70
     1
102
RTVSPropertyOp56
 70
     1
102
RTVSPropertyOp57
 70
     1
102
RTVSPropertyOp58
 70
     1
102
RTVSPropertyOp59
 70
     1
102
RTVSPropertyOp60
 70
     1
102
RTVSPropertyOp61
 70
     1
102
RTVSPropertyOp62
 70
     1
  0
XRECORD
  5
7AE
102
{ACAD_REACTORS
330
7AD
102
}
330
7AD
100
AcDbXrecord
280
     1
102
RTVSPost2010Prop28
280
     0
102
RTVSPost2010PropOp28
 70
     1
102
RTVSPost2010Prop29
280
     1
102
RTVSPost2010PropOp29
 70
     1
102
RTVSPost2010Prop30
280
     1
102
RTVSPost2010PropOp30
 70
     1
102
RTVSPost2010Prop31
280
     0
102
RTVSPost2010PropOp31
 70
     1
102
RTVSPost2010Prop32
280
     0
102
RTVSPost2010PropOp32
 70
     1
102
RTVSPost2010Prop33
280
     0
102
RTVSPost2010PropOp33
 70
     1
102
RTVSPost2010Prop34
280
     0
102
RTVSPost2010PropOp34
 70
     1
102
RTVSPost2010Prop35
280
     0
102
RTVSPost2010PropOp35
 70
     1
102
RTVSPost2010Prop36
280
     0
102
RTVSPost2010PropOp36
 70
     1
102
RTVSPost2010Prop37
 90
       50
102
RTVSPost2010PropOp37
 70
     1
102
RTVSPost2010Prop38
140
0.0
102
RTVSPost2010PropOp38
 70
     1
102
RTVSPost2010Prop39
140
1.0
102
RTVSPost2010PropOp39
 70
     1
102
RTVSPost2010Prop40
 90
        0
102
RTVSPost2010PropOp40
 70
     1
102
RTVSPost2010Prop41ColorIndex
 90
       18
102
RTVSPost2010Prop41ColorRGB
 90
        0
102
RTVSPost2010PropOp41
 70
     1
102
RTVSPost2010Prop42
 90
       50
102
RTVSPost2010PropOp42
 70
     1
102
RTVSPost2010Prop43
 90
        3
102
RTVSPost2010PropOp43
 70
     1
102
RTVSPost2010Prop44ColorIndex
 90
        5
102
RTVSPost2010Prop44ColorRGB
 90
      255
102
RTVSPost2010PropOp44
 70
     1
102
RTVSPost2010Prop45
280
     0
102
RTVSPost2010PropOp45
 70
     1
102
RTVSPost2010Prop46
 90
       50
102
RTVSPost2010PropOp46
 70
     1
102
RTVSPost2010Prop47
 90
       50
102
RTVSPost2010PropOp47
 70
     1
102
RTVSPost2010Prop48
 90
       50
102
RTVSPost2010PropOp48
 70
     1
102
RTVSPost2010Prop49
280
     0
102
RTVSPost2010PropOp49
 70
     1
102
RTVSPost2010Prop50
 90
       50
102
RTVSPost2010PropOp50
 70
     1
102
RTVSPost2010Prop51ColorIndex
 90
      256
102
RTVSPost2010Prop51ColorRGB
 90
-16777216
102
RTVSPost2010PropOp51
 70
     0
102
RTVSPost2010Prop52
140
1.0
102
RTVSPost2010PropOp52
 70
     0
102
RTVSPost2010Prop53
 90
        2
102
RTVSPost2010PropOp53
 70
     1
102
RTVSPost2010Prop54
  1
strokes_ogs.tif
102
RTVSPost2010PropOp54
 70
     1
102
RTVSPost2010Prop55
280
     0
102
RTVSPost2010PropOp55
 70
     1
102
RTVSPost2010Prop56
140
1.0
102
RTVSPost2010PropOp56
 70
     1
102
RTVSPost2010Prop57
140
1.0
102
RTVSPost2010PropOp57
 70
     1
102
RTVSPropertyOp0
 70
     1
102
RTVSPropertyOp1
 70
     1
102
RTVSPropertyOp2
 70
     1
102
RTVSPropertyOp3
 70
     1
102
RTVSPropertyOp4
 70
     1
102
RTVSPropertyOp5
 70
     1
102
RTVSPropertyOp6
 70
     1
102
RTVSPropertyOp7
 70
     1
102
RTVSPropertyOp8
 70
     1
102
RTVSPropertyOp9
 70
     1
102
RTVSPropertyOp10
 70
     1
102
RTVSPropertyOp11
 70
     1
102
RTVSPropertyOp12
 70
     1
102
RTVSPropertyOp13
 70
     1
102
RTVSPropertyOp14
 70
     1
102
RTVSPropertyOp15
 70
     1
102
RTVSPropertyOp16
 70
     1
102
RTVSPropertyOp17
 70
     1
102
RTVSPropertyOp18
 70
     1
102
RTVSPropertyOp19
 70
     1
102
RTVSPropertyOp20
 70
     1
102
RTVSPropertyOp21
 70
     1
102
RTVSPropertyOp22
 70
     1
102
RTVSPropertyOp23
 70
     1
102
RTVSPropertyOp24
 70
     1
102
RTVSPropertyOp25
 70
     1
102
RTVSPropertyOp26
 70
     1
102
RTVSPropertyOp27
 70
     1
102
RTVSPropertyOp28
 70
     1
102
RTVSPropertyOp29
 70
     1
102
RTVSPropertyOp30
 70
     1
102
RTVSPropertyOp31
 70
     1
102
RTVSPropertyOp32
 70
     1
102
RTVSPropertyOp33
 70
     1
102
RTVSPropertyOp34
 70
     1
102
RTVSPropertyOp35
 70
     1
102
RTVSPropertyOp36
 70
     1
102
RTVSPropertyOp37
 70
     1
102
RTVSPropertyOp38
 70
     1
102
RTVSPropertyOp39
 70
     1
102
RTVSPropertyOp40
 70
     1
102
RTVSPropertyOp41
 70
     1
102
RTVSPropertyOp42
 70
     1
102
RTVSPropertyOp43
 70
     1
102
RTVSPropertyOp44
 70
     1
102
RTVSPropertyOp45
 70
     1
102
RTVSPropertyOp46
 70
     1
102
RTVSPropertyOp47
 70
     1
102
RTVSPropertyOp48
 70
     1
102
RTVSPropertyOp49
 70
     1
102
RTVSPropertyOp50
 70
     1
102
RTVSPropertyOp51
 70
     0
102
RTVSPropertyOp52
 70
     0
102
RTVSPropertyOp53
 70
     1
102
RTVSPropertyOp54
 70
     1
102
RTVSPropertyOp55
 70
     1
102
RTVSPropertyOp56
 70
     1
102
RTVSPropertyOp57
 70
     1
102
RTVSPropertyOp58
 70
     1
102
RTVSPropertyOp59
 70
     1
102
RTVSPropertyOp60
 70
     1
102
RTVSPropertyOp61
 70
     1
102
RTVSPropertyOp62
 70
     1
  0
XRECORD
  5
7B4
102
{ACAD_REACTORS
330
7B3
102
}
330
7B3
100
AcDbXrecord
280
     1
102
RTVSPost2010Prop28
280
     0
102
RTVSPost2010PropOp28
 70
     1
102
RTVSPost2010Prop29
280
     1
102
RTVSPost2010PropOp29
 70
     1
102
RTVSPost2010Prop30
280
     1
102
RTVSPost2010PropOp30
 70
     1
102
RTVSPost2010Prop31
280
     0
102
RTVSPost2010PropOp31
 70
     1
102
RTVSPost2010Prop32
280
     0
102
RTVSPost2010PropOp32
 70
     1
102
RTVSPost2010Prop33
280
     0
102
RTVSPost2010PropOp33
 70
     1
102
RTVSPost2010Prop34
280
     0
102
RTVSPost2010PropOp34
 70
     1
102
RTVSPost2010Prop35
280
     0
102
RTVSPost2010PropOp35
 70
     1
102
RTVSPost2010Prop36
280
     0
102
RTVSPost2010PropOp36
 70
     1
102
RTVSPost2010Prop37
 90
       50
102
RTVSPost2010PropOp37
 70
     1
102
RTVSPost2010Prop38
140
0.0
102
RTVSPost2010PropOp38
 70
     1
102
RTVSPost2010Prop39
140
1.0
102
RTVSPost2010PropOp39
 70
     1
102
RTVSPost2010Prop40
 90
        0
102
RTVSPost2010PropOp40
 70
     1
102
RTVSPost2010Prop41ColorIndex
 90
       18
102
RTVSPost2010Prop41ColorRGB
 90
        0
102
RTVSPost2010PropOp41
 70
     1
102
RTVSPost2010Prop42
 90
       50
102
RTVSPost2010PropOp42
 70
     1
102
RTVSPost2010Prop43
 90
        3
102
RTVSPost2010PropOp43
 70
     1
102
RTVSPost2010Prop44ColorIndex
 90
        5
102
RTVSPost2010Prop44ColorRGB
 90
      255
102
RTVSPost2010PropOp44
 70
     1
102
RTVSPost2010Prop45
280
     0
102
RTVSPost2010PropOp45
 70
     1
102
RTVSPost2010Prop46
 90
       50
102
RTVSPost2010PropOp46
 70
     1
102
RTVSPost2010Prop47
 90
       50
102
RTVSPost2010PropOp47
 70
     1
102
RTVSPost2010Prop48
 90
       50
102
RTVSPost2010PropOp48
 70
     1
102
RTVSPost2010Prop49
280
     0
102
RTVSPost2010PropOp49
 70
     1
102
RTVSPost2010Prop50
 90
       50
102
RTVSPost2010PropOp50
 70
     1
102
RTVSPost2010Prop51ColorIndex
 90
      256
102
RTVSPost2010Prop51ColorRGB
 90
-16777216
102
RTVSPost2010PropOp51
 70
     0
102
RTVSPost2010Prop52
140
1.0
102
RTVSPost2010PropOp52
 70
     0
102
RTVSPost2010Prop53
 90
        2
102
RTVSPost2010PropOp53
 70
     1
102
RTVSPost2010Prop54
  1
strokes_ogs.tif
102
RTVSPost2010PropOp54
 70
     1
102
RTVSPost2010Prop55
280
     0
102
RTVSPost2010PropOp55
 70
     1
102
RTVSPost2010Prop56
140
1.0
102
RTVSPost2010PropOp56
 70
     1
102
RTVSPost2010Prop57
140
1.0
102
RTVSPost2010PropOp57
 70
     1
102
RTVSPropertyOp0
 70
     1
102
RTVSPropertyOp1
 70
     1
102
RTVSPropertyOp2
 70
     1
102
RTVSPropertyOp3
 70
     1
102
RTVSPropertyOp4
 70
     1
102
RTVSPropertyOp5
 70
     1
102
RTVSPropertyOp6
 70
     1
102
RTVSPropertyOp7
 70
     1
102
RTVSPropertyOp8
 70
     1
102
RTVSPropertyOp9
 70
     1
102
RTVSPropertyOp10
 70
     1
102
RTVSPropertyOp11
 70
     1
102
RTVSPropertyOp12
 70
     1
102
RTVSPropertyOp13
 70
     1
102
RTVSPropertyOp14
 70
     1
102
RTVSPropertyOp15
 70
     1
102
RTVSPropertyOp16
 70
     1
102
RTVSPropertyOp17
 70
     1
102
RTVSPropertyOp18
 70
     1
102
RTVSPropertyOp19
 70
     1
102
RTVSPropertyOp20
 70
     1
102
RTVSPropertyOp21
 70
     1
102
RTVSPropertyOp22
 70
     1
102
RTVSPropertyOp23
 70
     1
102
RTVSPropertyOp24
 70
     1
102
RTVSPropertyOp25
 70
     1
102
RTVSPropertyOp26
 70
     1
102
RTVSPropertyOp27
 70
     1
102
RTVSPropertyOp28
 70
     1
102
RTVSPropertyOp29
 70
     1
102
RTVSPropertyOp30
 70
     1
102
RTVSPropertyOp31
 70
     1
102
RTVSPropertyOp32
 70
     1
102
RTVSPropertyOp33
 70
     1
102
RTVSPropertyOp34
 70
     1
102
RTVSPropertyOp35
 70
     1
102
RTVSPropertyOp36
 70
     1
102
RTVSPropertyOp37
 70
     1
102
RTVSPropertyOp38
 70
     1
102
RTVSPropertyOp39
 70
     1
102
RTVSPropertyOp40
 70
     1
102
RTVSPropertyOp41
 70
     1
102
RTVSPropertyOp42
 70
     1
102
RTVSPropertyOp43
 70
     1
102
RTVSPropertyOp44
 70
     1
102
RTVSPropertyOp45
 70
     1
102
RTVSPropertyOp46
 70
     1
102
RTVSPropertyOp47
 70
     1
102
RTVSPropertyOp48
 70
     1
102
RTVSPropertyOp49
 70
     1
102
RTVSPropertyOp50
 70
     1
102
RTVSPropertyOp51
 70
     0
102
RTVSPropertyOp52
 70
     0
102
RTVSPropertyOp53
 70
     1
102
RTVSPropertyOp54
 70
     1
102
RTVSPropertyOp55
 70
     1
102
RTVSPropertyOp56
 70
     1
102
RTVSPropertyOp57
 70
     1
102
RTVSPropertyOp58
 70
     1
102
RTVSPropertyOp59
 70
     1
102
RTVSPropertyOp60
 70
     1
102
RTVSPropertyOp61
 70
     1
102
RTVSPropertyOp62
 70
     1
  0
XRECORD
  5
7C8
102
{ACAD_REACTORS
330
7C7
102
}
330
7C7
100
AcDbXrecord
280
     1
102
RTVSPost2010Prop28
280
     0
102
RTVSPost2010PropOp28
 70
     0
102
RTVSPost2010Prop29
280
     1
102
RTVSPost2010PropOp29
 70
     0
102
RTVSPost2010Prop30
280
     1
102
RTVSPost2010PropOp30
 70
     0
102
RTVSPost2010Prop31
280
     0
102
RTVSPost2010PropOp31
 70
     0
102
RTVSPost2010Prop32
280
     0
102
RTVSPost2010PropOp32
 70
     0
102
RTVSPost2010Prop33
280
     0
102
RTVSPost2010PropOp33
 70
     0
102
RTVSPost2010Prop34
280
     0
102
RTVSPost2010PropOp34
 70
     0
102
RTVSPost2010Prop35
280
     0
102
RTVSPost2010PropOp35
 70
     0
102
RTVSPost2010Prop36
280
     0
102
RTVSPost2010PropOp36
 70
     0
102
RTVSPost2010Prop37
 90
       50
102
RTVSPost2010PropOp37
 70
     0
102
RTVSPost2010Prop38
140
0.0
102
RTVSPost2010PropOp38
 70
     0
102
RTVSPost2010Prop39
140
1.0
102
RTVSPost2010PropOp39
 70
     0
102
RTVSPost2010Prop40
 90
        0
102
RTVSPost2010PropOp40
 70
     0
102
RTVSPost2010Prop41ColorIndex
 90
       18
102
RTVSPost2010Prop41ColorRGB
 90
        0
102
RTVSPost2010PropOp41
 70
     0
102
RTVSPost2010Prop42
 90
       50
102
RTVSPost2010PropOp42
 70
     0
102
RTVSPost2010Prop43
 90
        3
102
RTVSPost2010PropOp43
 70
     0
102
RTVSPost2010Prop44ColorIndex
 90
        5
102
RTVSPost2010Prop44ColorRGB
 90
      255
102
RTVSPost2010PropOp44
 70
     0
102
RTVSPost2010Prop45
280
     0
102
RTVSPost2010PropOp45
 70
     0
102
RTVSPost2010Prop46
 90
       50
102
RTVSPost2010PropOp46
 70
     0
102
RTVSPost2010Prop47
 90
       50
102
RTVSPost2010PropOp47
 70
     0
102
RTVSPost2010Prop48
 90
       50
102
RTVSPost2010PropOp48
 70
     0
102
RTVSPost2010Prop49
280
     0
102
RTVSPost2010PropOp49
 70
     0
102
RTVSPost2010Prop50
 90
       50
102
RTVSPost2010PropOp50
 70
     0
102
RTVSPost2010Prop51ColorIndex
 90
      256
102
RTVSPost2010Prop51ColorRGB
 90
-16777216
102
RTVSPost2010PropOp51
 70
     0
102
RTVSPost2010Prop52
140
1.0
102
RTVSPost2010PropOp52
 70
     0
102
RTVSPost2010Prop53
 90
        2
102
RTVSPost2010PropOp53
 70
     0
102
RTVSPost2010Prop54
  1
strokes_ogs.tif
102
RTVSPost2010PropOp54
 70
     0
102
RTVSPost2010Prop55
280
     0
102
RTVSPost2010PropOp55
 70
     0
102
RTVSPost2010Prop56
140
1.0
102
RTVSPost2010PropOp56
 70
     0
102
RTVSPost2010Prop57
140
1.0
102
RTVSPost2010PropOp57
 70
     0
102
RTVSPropertyOp0
 70
     0
102
RTVSPropertyOp1
 70
     0
102
RTVSPropertyOp2
 70
     0
102
RTVSPropertyOp3
 70
     0
102
RTVSPropertyOp4
 70
     0
102
RTVSPropertyOp5
 70
     0
102
RTVSPropertyOp6
 70
     0
102
RTVSPropertyOp7
 70
     0
102
RTVSPropertyOp8
 70
     0
102
RTVSPropertyOp9
 70
     0
102
RTVSPropertyOp10
 70
     0
102
RTVSPropertyOp11
 70
     0
102
RTVSPropertyOp12
 70
     0
102
RTVSPropertyOp13
 70
     0
102
RTVSPropertyOp14
 70
     2
102
RTVSPropertyOp15
 70
     0
102
RTVSPropertyOp16
 70
     0
102
RTVSPropertyOp17
 70
     0
102
RTVSPropertyOp18
 70
     0
102
RTVSPropertyOp19
 70
     0
102
RTVSPropertyOp20
 70
     0
102
RTVSPropertyOp21
 70
     0
102
RTVSPropertyOp22
 70
     0
102
RTVSPropertyOp23
 70
     0
102
RTVSPropertyOp24
 70
     0
102
RTVSPropertyOp25
 70
     0
102
RTVSPropertyOp26
 70
     0
102
RTVSPropertyOp27
 70
     0
102
RTVSPropertyOp28
 70
     0
102
RTVSPropertyOp29
 70
     0
102
RTVSPropertyOp30
 70
     0
102
RTVSPropertyOp31
 70
     0
102
RTVSPropertyOp32
 70
     0
102
RTVSPropertyOp33
 70
     0
102
RTVSPropertyOp34
 70
     0
102
RTVSPropertyOp35
 70
     0
102
RTVSPropertyOp36
 70
     0
102
RTVSPropertyOp37
 70
     0
102
RTVSPropertyOp38
 70
     0
102
RTVSPropertyOp39
 70
     0
102
RTVSPropertyOp40
 70
     0
102
RTVSPropertyOp41
 70
     0
102
RTVSPropertyOp42
 70
     0
102
RTVSPropertyOp43
 70
     0
102
RTVSPropertyOp44
 70
     0
102
RTVSPropertyOp45
 70
     0
102
RTVSPropertyOp46
 70
     0
102
RTVSPropertyOp47
 70
     0
102
RTVSPropertyOp48
 70
     0
102
RTVSPropertyOp49
 70
     0
102
RTVSPropertyOp50
 70
     0
102
RTVSPropertyOp51
 70
     0
102
RTVSPropertyOp52
 70
     0
102
RTVSPropertyOp53
 70
     0
102
RTVSPropertyOp54
 70
     0
102
RTVSPropertyOp55
 70
     0
102
RTVSPropertyOp56
 70
     0
102
RTVSPropertyOp57
 70
     0
102
RTVSPropertyOp58
 70
     1
102
RTVSPropertyOp59
 70
     1
102
RTVSPropertyOp60
 70
     1
102
RTVSPropertyOp61
 70
     1
102
RTVSPropertyOp62
 70
     1
  0
XRECORD
  5
7C2
102
{ACAD_REACTORS
330
7C1
102
}
330
7C1
100
AcDbXrecord
280
     1
102
RTVSPost2010Prop28
280
     0
102
RTVSPost2010PropOp28
 70
     1
102
RTVSPost2010Prop29
280
     1
102
RTVSPost2010PropOp29
 70
     1
102
RTVSPost2010Prop30
280
     1
102
RTVSPost2010PropOp30
 70
     1
102
RTVSPost2010Prop31
280
     0
102
RTVSPost2010PropOp31
 70
     1
102
RTVSPost2010Prop32
280
     0
102
RTVSPost2010PropOp32
 70
     1
102
RTVSPost2010Prop33
280
     0
102
RTVSPost2010PropOp33
 70
     1
102
RTVSPost2010Prop34
280
     0
102
RTVSPost2010PropOp34
 70
     1
102
RTVSPost2010Prop35
280
     0
102
RTVSPost2010PropOp35
 70
     1
102
RTVSPost2010Prop36
280
     0
102
RTVSPost2010PropOp36
 70
     1
102
RTVSPost2010Prop37
 90
       50
102
RTVSPost2010PropOp37
 70
     1
102
RTVSPost2010Prop38
140
0.0
102
RTVSPost2010PropOp38
 70
     1
102
RTVSPost2010Prop39
140
1.0
102
RTVSPost2010PropOp39
 70
     1
102
RTVSPost2010Prop40
 90
        0
102
RTVSPost2010PropOp40
 70
     1
102
RTVSPost2010Prop41ColorIndex
 90
       18
102
RTVSPost2010Prop41ColorRGB
 90
        0
102
RTVSPost2010PropOp41
 70
     1
102
RTVSPost2010Prop42
 90
       50
102
RTVSPost2010PropOp42
 70
     1
102
RTVSPost2010Prop43
 90
        3
102
RTVSPost2010PropOp43
 70
     1
102
RTVSPost2010Prop44ColorIndex
 90
        5
102
RTVSPost2010Prop44ColorRGB
 90
      255
102
RTVSPost2010PropOp44
 70
     1
102
RTVSPost2010Prop45
280
     0
102
RTVSPost2010PropOp45
 70
     1
102
RTVSPost2010Prop46
 90
       50
102
RTVSPost2010PropOp46
 70
     1
102
RTVSPost2010Prop47
 90
       50
102
RTVSPost2010PropOp47
 70
     1
102
RTVSPost2010Prop48
 90
       50
102
RTVSPost2010PropOp48
 70
     1
102
RTVSPost2010Prop49
280
     0
102
RTVSPost2010PropOp49
 70
     1
102
RTVSPost2010Prop50
 90
       50
102
RTVSPost2010PropOp50
 70
     1
102
RTVSPost2010Prop51ColorIndex
 90
      256
102
RTVSPost2010Prop51ColorRGB
 90
-16777216
102
RTVSPost2010PropOp51
 70
     0
102
RTVSPost2010Prop52
140
1.0
102
RTVSPost2010PropOp52
 70
     0
102
RTVSPost2010Prop53
 90
        2
102
RTVSPost2010PropOp53
 70
     1
102
RTVSPost2010Prop54
  1
strokes_ogs.tif
102
RTVSPost2010PropOp54
 70
     1
102
RTVSPost2010Prop55
280
     0
102
RTVSPost2010PropOp55
 70
     1
102
RTVSPost2010Prop56
140
1.0
102
RTVSPost2010PropOp56
 70
     1
102
RTVSPost2010Prop57
140
1.0
102
RTVSPost2010PropOp57
 70
     1
102
RTVSPropertyOp0
 70
     1
102
RTVSPropertyOp1
 70
     1
102
RTVSPropertyOp2
 70
     1
102
RTVSPropertyOp3
 70
     1
102
RTVSPropertyOp4
 70
     1
102
RTVSPropertyOp5
 70
     1
102
RTVSPropertyOp6
 70
     1
102
RTVSPropertyOp7
 70
     1
102
RTVSPropertyOp8
 70
     1
102
RTVSPropertyOp9
 70
     1
102
RTVSPropertyOp10
 70
     1
102
RTVSPropertyOp11
 70
     1
102
RTVSPropertyOp12
 70
     1
102
RTVSPropertyOp13
 70
     1
102
RTVSPropertyOp14
 70
     1
102
RTVSPropertyOp15
 70
     1
102
RTVSPropertyOp16
 70
     1
102
RTVSPropertyOp17
 70
     1
102
RTVSPropertyOp18
 70
     1
102
RTVSPropertyOp19
 70
     1
102
RTVSPropertyOp20
 70
     1
102
RTVSPropertyOp21
 70
     1
102
RTVSPropertyOp22
 70
     1
102
RTVSPropertyOp23
 70
     1
102
RTVSPropertyOp24
 70
     1
102
RTVSPropertyOp25
 70
     1
102
RTVSPropertyOp26
 70
     1
102
RTVSPropertyOp27
 70
     1
102
RTVSPropertyOp28
 70
     1
102
RTVSPropertyOp29
 70
     1
102
RTVSPropertyOp30
 70
     1
102
RTVSPropertyOp31
 70
     1
102
RTVSPropertyOp32
 70
     1
102
RTVSPropertyOp33
 70
     1
102
RTVSPropertyOp34
 70
     1
102
RTVSPropertyOp35
 70
     1
102
RTVSPropertyOp36
 70
     1
102
RTVSPropertyOp37
 70
     1
102
RTVSPropertyOp38
 70
     1
102
RTVSPropertyOp39
 70
     1
102
RTVSPropertyOp40
 70
     1
102
RTVSPropertyOp41
 70
     1
102
RTVSPropertyOp42
 70
     1
102
RTVSPropertyOp43
 70
     1
102
RTVSPropertyOp44
 70
     1
102
RTVSPropertyOp45
 70
     1
102
RTVSPropertyOp46
 70
     1
102
RTVSPropertyOp47
 70
     1
102
RTVSPropertyOp48
 70
     1
102
RTVSPropertyOp49
 70
     1
102
RTVSPropertyOp50
 70
     1
102
RTVSPropertyOp51
 70
     0
102
RTVSPropertyOp52
 70
     0
102
RTVSPropertyOp53
 70
     1
102
RTVSPropertyOp54
 70
     1
102
RTVSPropertyOp55
 70
     1
102
RTVSPropertyOp56
 70
     1
102
RTVSPropertyOp57
 70
     1
102
RTVSPropertyOp58
 70
     1
102
RTVSPropertyOp59
 70
     1
102
RTVSPropertyOp60
 70
     1
102
RTVSPropertyOp61
 70
     1
102
RTVSPropertyOp62
 70
     1
  0
XRECORD
  5
7CA
102
{ACAD_REACTORS
330
7C9
102
}
330
7C9
100
AcDbXrecord
280
     1
102
RTVSPost2010Prop28
280
     0
102
RTVSPost2010PropOp28
 70
     0
102
RTVSPost2010Prop29
280
     1
102
RTVSPost2010PropOp29
 70
     0
102
RTVSPost2010Prop30
280
     1
102
RTVSPost2010PropOp30
 70
     0
102
RTVSPost2010Prop31
280
     0
102
RTVSPost2010PropOp31
 70
     0
102
RTVSPost2010Prop32
280
     0
102
RTVSPost2010PropOp32
 70
     0
102
RTVSPost2010Prop33
280
     0
102
RTVSPost2010PropOp33
 70
     0
102
RTVSPost2010Prop34
280
     0
102
RTVSPost2010PropOp34
 70
     0
102
RTVSPost2010Prop35
280
     0
102
RTVSPost2010PropOp35
 70
     0
102
RTVSPost2010Prop36
280
     0
102
RTVSPost2010PropOp36
 70
     0
102
RTVSPost2010Prop37
 90
       50
102
RTVSPost2010PropOp37
 70
     0
102
RTVSPost2010Prop38
140
0.0
102
RTVSPost2010PropOp38
 70
     0
102
RTVSPost2010Prop39
140
1.0
102
RTVSPost2010PropOp39
 70
     0
102
RTVSPost2010Prop40
 90
        0
102
RTVSPost2010PropOp40
 70
     0
102
RTVSPost2010Prop41ColorIndex
 90
       18
102
RTVSPost2010Prop41ColorRGB
 90
        0
102
RTVSPost2010PropOp41
 70
     0
102
RTVSPost2010Prop42
 90
       50
102
RTVSPost2010PropOp42
 70
     0
102
RTVSPost2010Prop43
 90
        3
102
RTVSPost2010PropOp43
 70
     0
102
RTVSPost2010Prop44ColorIndex
 90
        5
102
RTVSPost2010Prop44ColorRGB
 90
      255
102
RTVSPost2010PropOp44
 70
     0
102
RTVSPost2010Prop45
280
     0
102
RTVSPost2010PropOp45
 70
     0
102
RTVSPost2010Prop46
 90
       50
102
RTVSPost2010PropOp46
 70
     0
102
RTVSPost2010Prop47
 90
       50
102
RTVSPost2010PropOp47
 70
     0
102
RTVSPost2010Prop48
 90
       50
102
RTVSPost2010PropOp48
 70
     0
102
RTVSPost2010Prop49
280
     0
102
RTVSPost2010PropOp49
 70
     0
102
RTVSPost2010Prop50
 90
       50
102
RTVSPost2010PropOp50
 70
     0
102
RTVSPost2010Prop51ColorIndex
 90
      256
102
RTVSPost2010Prop51ColorRGB
 90
-16777216
102
RTVSPost2010PropOp51
 70
     0
102
RTVSPost2010Prop52
140
1.0
102
RTVSPost2010PropOp52
 70
     0
102
RTVSPost2010Prop53
 90
        2
102
RTVSPost2010PropOp53
 70
     0
102
RTVSPost2010Prop54
  1
strokes_ogs.tif
102
RTVSPost2010PropOp54
 70
     0
102
RTVSPost2010Prop55
280
     0
102
RTVSPost2010PropOp55
 70
     0
102
RTVSPost2010Prop56
140
1.0
102
RTVSPost2010PropOp56
 70
     0
102
RTVSPost2010Prop57
140
1.0
102
RTVSPost2010PropOp57
 70
     0
102
RTVSPropertyOp0
 70
     0
102
RTVSPropertyOp1
 70
     0
102
RTVSPropertyOp2
 70
     0
102
RTVSPropertyOp3
 70
     0
102
RTVSPropertyOp4
 70
     0
102
RTVSPropertyOp5
 70
     0
102
RTVSPropertyOp6
 70
     0
102
RTVSPropertyOp7
 70
     0
102
RTVSPropertyOp8
 70
     0
102
RTVSPropertyOp9
 70
     0
102
RTVSPropertyOp10
 70
     0
102
RTVSPropertyOp11
 70
     0
102
RTVSPropertyOp12
 70
     0
102
RTVSPropertyOp13
 70
     0
102
RTVSPropertyOp14
 70
     2
102
RTVSPropertyOp15
 70
     0
102
RTVSPropertyOp16
 70
     0
102
RTVSPropertyOp17
 70
     0
102
RTVSPropertyOp18
 70
     0
102
RTVSPropertyOp19
 70
     0
102
RTVSPropertyOp20
 70
     0
102
RTVSPropertyOp21
 70
     0
102
RTVSPropertyOp22
 70
     0
102
RTVSPropertyOp23
 70
     0
102
RTVSPropertyOp24
 70
     0
102
RTVSPropertyOp25
 70
     0
102
RTVSPropertyOp26
 70
     0
102
RTVSPropertyOp27
 70
     0
102
RTVSPropertyOp28
 70
     0
102
RTVSPropertyOp29
 70
     0
102
RTVSPropertyOp30
 70
     0
102
RTVSPropertyOp31
 70
     0
102
RTVSPropertyOp32
 70
     0
102
RTVSPropertyOp33
 70
     0
102
RTVSPropertyOp34
 70
     0
102
RTVSPropertyOp35
 70
     0
102
RTVSPropertyOp36
 70
     0
102
RTVSPropertyOp37
 70
     0
102
RTVSPropertyOp38
 70
     0
102
RTVSPropertyOp39
 70
     0
102
RTVSPropertyOp40
 70
     0
102
RTVSPropertyOp41
 70
     0
102
RTVSPropertyOp42
 70
     0
102
RTVSPropertyOp43
 70
     0
102
RTVSPropertyOp44
 70
     0
102
RTVSPropertyOp45
 70
     0
102
RTVSPropertyOp46
 70
     0
102
RTVSPropertyOp47
 70
     0
102
RTVSPropertyOp48
 70
     0
102
RTVSPropertyOp49
 70
     0
102
RTVSPropertyOp50
 70
     0
102
RTVSPropertyOp51
 70
     0
102
RTVSPropertyOp52
 70
     0
102
RTVSPropertyOp53
 70
     0
102
RTVSPropertyOp54
 70
     0
102
RTVSPropertyOp55
 70
     0
102
RTVSPropertyOp56
 70
     0
102
RTVSPropertyOp57
 70
     0
102
RTVSPropertyOp58
 70
     1
102
RTVSPropertyOp59
 70
     1
102
RTVSPropertyOp60
 70
     1
102
RTVSPropertyOp61
 70
     1
102
RTVSPropertyOp62
 70
     1
  0
XRECORD
  5
7B8
102
{ACAD_REACTORS
330
7B7
102
}
330
7B7
100
AcDbXrecord
280
     1
102
RTVSPost2010Prop28
280
     0
102
RTVSPost2010PropOp28
 70
     1
102
RTVSPost2010Prop29
280
     1
102
RTVSPost2010PropOp29
 70
     1
102
RTVSPost2010Prop30
280
     1
102
RTVSPost2010PropOp30
 70
     1
102
RTVSPost2010Prop31
280
     0
102
RTVSPost2010PropOp31
 70
     1
102
RTVSPost2010Prop32
280
     0
102
RTVSPost2010PropOp32
 70
     1
102
RTVSPost2010Prop33
280
     0
102
RTVSPost2010PropOp33
 70
     1
102
RTVSPost2010Prop34
280
     0
102
RTVSPost2010PropOp34
 70
     1
102
RTVSPost2010Prop35
280
     0
102
RTVSPost2010PropOp35
 70
     1
102
RTVSPost2010Prop36
280
     0
102
RTVSPost2010PropOp36
 70
     1
102
RTVSPost2010Prop37
 90
       50
102
RTVSPost2010PropOp37
 70
     1
102
RTVSPost2010Prop38
140
0.0
102
RTVSPost2010PropOp38
 70
     1
102
RTVSPost2010Prop39
140
1.0
102
RTVSPost2010PropOp39
 70
     1
102
RTVSPost2010Prop40
 90
        0
102
RTVSPost2010PropOp40
 70
     1
102
RTVSPost2010Prop41ColorIndex
 90
       18
102
RTVSPost2010Prop41ColorRGB
 90
        0
102
RTVSPost2010PropOp41
 70
     1
102
RTVSPost2010Prop42
 90
       50
102
RTVSPost2010PropOp42
 70
     1
102
RTVSPost2010Prop43
 90
        3
102
RTVSPost2010PropOp43
 70
     1
102
RTVSPost2010Prop44ColorIndex
 90
        5
102
RTVSPost2010Prop44ColorRGB
 90
      255
102
RTVSPost2010PropOp44
 70
     1
102
RTVSPost2010Prop45
280
     0
102
RTVSPost2010PropOp45
 70
     1
102
RTVSPost2010Prop46
 90
       50
102
RTVSPost2010PropOp46
 70
     1
102
RTVSPost2010Prop47
 90
       50
102
RTVSPost2010PropOp47
 70
     1
102
RTVSPost2010Prop48
 90
       50
102
RTVSPost2010PropOp48
 70
     1
102
RTVSPost2010Prop49
280
     0
102
RTVSPost2010PropOp49
 70
     1
102
RTVSPost2010Prop50
 90
       50
102
RTVSPost2010PropOp50
 70
     1
102
RTVSPost2010Prop51ColorIndex
 90
      256
102
RTVSPost2010Prop51ColorRGB
 90
-16777216
102
RTVSPost2010PropOp51
 70
     0
102
RTVSPost2010Prop52
140
1.0
102
RTVSPost2010PropOp52
 70
     0
102
RTVSPost2010Prop53
 90
        2
102
RTVSPost2010PropOp53
 70
     1
102
RTVSPost2010Prop54
  1
strokes_ogs.tif
102
RTVSPost2010PropOp54
 70
     1
102
RTVSPost2010Prop55
280
     0
102
RTVSPost2010PropOp55
 70
     1
102
RTVSPost2010Prop56
140
1.0
102
RTVSPost2010PropOp56
 70
     1
102
RTVSPost2010Prop57
140
1.0
102
RTVSPost2010PropOp57
 70
     1
102
RTVSPropertyOp0
 70
     1
102
RTVSPropertyOp1
 70
     1
102
RTVSPropertyOp2
 70
     1
102
RTVSPropertyOp3
 70
     1
102
RTVSPropertyOp4
 70
     1
102
RTVSPropertyOp5
 70
     1
102
RTVSPropertyOp6
 70
     1
102
RTVSPropertyOp7
 70
     1
102
RTVSPropertyOp8
 70
     1
102
RTVSPropertyOp9
 70
     1
102
RTVSPropertyOp10
 70
     1
102
RTVSPropertyOp11
 70
     1
102
RTVSPropertyOp12
 70
     1
102
RTVSPropertyOp13
 70
     1
102
RTVSPropertyOp14
 70
     1
102
RTVSPropertyOp15
 70
     1
102
RTVSPropertyOp16
 70
     1
102
RTVSPropertyOp17
 70
     1
102
RTVSPropertyOp18
 70
     1
102
RTVSPropertyOp19
 70
     1
102
RTVSPropertyOp20
 70
     1
102
RTVSPropertyOp21
 70
     1
102
RTVSPropertyOp22
 70
     1
102
RTVSPropertyOp23
 70
     1
102
RTVSPropertyOp24
 70
     1
102
RTVSPropertyOp25
 70
     1
102
RTVSPropertyOp26
 70
     1
102
RTVSPropertyOp27
 70
     1
102
RTVSPropertyOp28
 70
     1
102
RTVSPropertyOp29
 70
     1
102
RTVSPropertyOp30
 70
     1
102
RTVSPropertyOp31
 70
     1
102
RTVSPropertyOp32
 70
     1
102
RTVSPropertyOp33
 70
     1
102
RTVSPropertyOp34
 70
     1
102
RTVSPropertyOp35
 70
     1
102
RTVSPropertyOp36
 70
     1
102
RTVSPropertyOp37
 70
     1
102
RTVSPropertyOp38
 70
     1
102
RTVSPropertyOp39
 70
     1
102
RTVSPropertyOp40
 70
     1
102
RTVSPropertyOp41
 70
     1
102
RTVSPropertyOp42
 70
     1
102
RTVSPropertyOp43
 70
     1
102
RTVSPropertyOp44
 70
     1
102
RTVSPropertyOp45
 70
     1
102
RTVSPropertyOp46
 70
     1
102
RTVSPropertyOp47
 70
     1
102
RTVSPropertyOp48
 70
     1
102
RTVSPropertyOp49
 70
     1
102
RTVSPropertyOp50
 70
     1
102
RTVSPropertyOp51
 70
     0
102
RTVSPropertyOp52
 70
     0
102
RTVSPropertyOp53
 70
     1
102
RTVSPropertyOp54
 70
     1
102
RTVSPropertyOp55
 70
     1
102
RTVSPropertyOp56
 70
     1
102
RTVSPropertyOp57
 70
     1
102
RTVSPropertyOp58
 70
     1
102
RTVSPropertyOp59
 70
     1
102
RTVSPropertyOp60
 70
     1
102
RTVSPropertyOp61
 70
     1
102
RTVSPropertyOp62
 70
     1
  0
XRECORD
  5
7D6
102
{ACAD_REACTORS
330
7D5
102
}
330
7D5
100
AcDbXrecord
280
     1
102
RTVSPost2010Prop28
280
     0
102
RTVSPost2010PropOp28
 70
     1
102
RTVSPost2010Prop29
280
     1
102
RTVSPost2010PropOp29
 70
     1
102
RTVSPost2010Prop30
280
     1
102
RTVSPost2010PropOp30
 70
     1
102
RTVSPost2010Prop31
280
     0
102
RTVSPost2010PropOp31
 70
     1
102
RTVSPost2010Prop32
280
     0
102
RTVSPost2010PropOp32
 70
     1
102
RTVSPost2010Prop33
280
     0
102
RTVSPost2010PropOp33
 70
     1
102
RTVSPost2010Prop34
280
     0
102
RTVSPost2010PropOp34
 70
     1
102
RTVSPost2010Prop35
280
     0
102
RTVSPost2010PropOp35
 70
     1
102
RTVSPost2010Prop36
280
     0
102
RTVSPost2010PropOp36
 70
     1
102
RTVSPost2010Prop37
 90
       50
102
RTVSPost2010PropOp37
 70
     1
102
RTVSPost2010Prop38
140
0.0
102
RTVSPost2010PropOp38
 70
     1
102
RTVSPost2010Prop39
140
1.0
102
RTVSPost2010PropOp39
 70
     1
102
RTVSPost2010Prop40
 90
        0
102
RTVSPost2010PropOp40
 70
     1
102
RTVSPost2010Prop41ColorIndex
 90
       18
102
RTVSPost2010Prop41ColorRGB
 90
        0
102
RTVSPost2010PropOp41
 70
     1
102
RTVSPost2010Prop42
 90
       50
102
RTVSPost2010PropOp42
 70
     1
102
RTVSPost2010Prop43
 90
        3
102
RTVSPost2010PropOp43
 70
     1
102
RTVSPost2010Prop44ColorIndex
 90
        5
102
RTVSPost2010Prop44ColorRGB
 90
      255
102
RTVSPost2010PropOp44
 70
     1
102
RTVSPost2010Prop45
280
     0
102
RTVSPost2010PropOp45
 70
     1
102
RTVSPost2010Prop46
 90
       50
102
RTVSPost2010PropOp46
 70
     1
102
RTVSPost2010Prop47
 90
       50
102
RTVSPost2010PropOp47
 70
     1
102
RTVSPost2010Prop48
 90
       50
102
RTVSPost2010PropOp48
 70
     1
102
RTVSPost2010Prop49
280
     0
102
RTVSPost2010PropOp49
 70
     1
102
RTVSPost2010Prop50
 90
       50
102
RTVSPost2010PropOp50
 70
     1
102
RTVSPost2010Prop51ColorIndex
 90
      256
102
RTVSPost2010Prop51ColorRGB
 90
-16777216
102
RTVSPost2010PropOp51
 70
     0
102
RTVSPost2010Prop52
140
1.0
102
RTVSPost2010PropOp52
 70
     0
102
RTVSPost2010Prop53
 90
        2
102
RTVSPost2010PropOp53
 70
     1
102
RTVSPost2010Prop54
  1
strokes_ogs.tif
102
RTVSPost2010PropOp54
 70
     1
102
RTVSPost2010Prop55
280
     0
102
RTVSPost2010PropOp55
 70
     1
102
RTVSPost2010Prop56
140
1.0
102
RTVSPost2010PropOp56
 70
     1
102
RTVSPost2010Prop57
140
1.0
102
RTVSPost2010PropOp57
 70
     1
102
RTVSPropertyOp0
 70
     1
102
RTVSPropertyOp1
 70
     1
102
RTVSPropertyOp2
 70
     1
102
RTVSPropertyOp3
 70
     1
102
RTVSPropertyOp4
 70
     1
102
RTVSPropertyOp5
 70
     1
102
RTVSPropertyOp6
 70
     1
102
RTVSPropertyOp7
 70
     1
102
RTVSPropertyOp8
 70
     1
102
RTVSPropertyOp9
 70
     1
102
RTVSPropertyOp10
 70
     1
102
RTVSPropertyOp11
 70
     1
102
RTVSPropertyOp12
 70
     1
102
RTVSPropertyOp13
 70
     1
102
RTVSPropertyOp14
 70
     1
102
RTVSPropertyOp15
 70
     1
102
RTVSPropertyOp16
 70
     1
102
RTVSPropertyOp17
 70
     1
102
RTVSPropertyOp18
 70
     1
102
RTVSPropertyOp19
 70
     1
102
RTVSPropertyOp20
 70
     1
102
RTVSPropertyOp21
 70
     1
102
RTVSPropertyOp22
 70
     1
102
RTVSPropertyOp23
 70
     1
102
RTVSPropertyOp24
 70
     1
102
RTVSPropertyOp25
 70
     1
102
RTVSPropertyOp26
 70
     1
102
RTVSPropertyOp27
 70
     1
102
RTVSPropertyOp28
 70
     1
102
RTVSPropertyOp29
 70
     1
102
RTVSPropertyOp30
 70
     1
102
RTVSPropertyOp31
 70
     1
102
RTVSPropertyOp32
 70
     1
102
RTVSPropertyOp33
 70
     1
102
RTVSPropertyOp34
 70
     1
102
RTVSPropertyOp35
 70
     1
102
RTVSPropertyOp36
 70
     1
102
RTVSPropertyOp37
 70
     1
102
RTVSPropertyOp38
 70
     1
102
RTVSPropertyOp39
 70
     1
102
RTVSPropertyOp40
 70
     1
102
RTVSPropertyOp41
 70
     1
102
RTVSPropertyOp42
 70
     1
102
RTVSPropertyOp43
 70
     1
102
RTVSPropertyOp44
 70
     1
102
RTVSPropertyOp45
 70
     1
102
RTVSPropertyOp46
 70
     1
102
RTVSPropertyOp47
 70
     1
102
RTVSPropertyOp48
 70
     1
102
RTVSPropertyOp49
 70
     1
102
RTVSPropertyOp50
 70
     1
102
RTVSPropertyOp51
 70
     0
102
RTVSPropertyOp52
 70
     0
102
RTVSPropertyOp53
 70
     1
102
RTVSPropertyOp54
 70
     1
102
RTVSPropertyOp55
 70
     1
102
RTVSPropertyOp56
 70
     1
102
RTVSPropertyOp57
 70
     1
102
RTVSPropertyOp58
 70
     1
102
RTVSPropertyOp59
 70
     1
102
RTVSPropertyOp60
 70
     1
102
RTVSPropertyOp61
 70
     1
102
RTVSPropertyOp62
 70
     1
  0
XRECORD
  5
7D4
102
{ACAD_REACTORS
330
7D3
102
}
330
7D3
100
AcDbXrecord
280
     1
102
RTVSPost2010Prop28
280
     0
102
RTVSPost2010PropOp28
 70
     1
102
RTVSPost2010Prop29
280
     1
102
RTVSPost2010PropOp29
 70
     1
102
RTVSPost2010Prop30
280
     1
102
RTVSPost2010PropOp30
 70
     1
102
RTVSPost2010Prop31
280
     0
102
RTVSPost2010PropOp31
 70
     1
102
RTVSPost2010Prop32
280
     0
102
RTVSPost2010PropOp32
 70
     1
102
RTVSPost2010Prop33
280
     0
102
RTVSPost2010PropOp33
 70
     1
102
RTVSPost2010Prop34
280
     0
102
RTVSPost2010PropOp34
 70
     1
102
RTVSPost2010Prop35
280
     0
102
RTVSPost2010PropOp35
 70
     1
102
RTVSPost2010Prop36
280
     0
102
RTVSPost2010PropOp36
 70
     1
102
RTVSPost2010Prop37
 90
       50
102
RTVSPost2010PropOp37
 70
     1
102
RTVSPost2010Prop38
140
0.0
102
RTVSPost2010PropOp38
 70
     1
102
RTVSPost2010Prop39
140
1.0
102
RTVSPost2010PropOp39
 70
     1
102
RTVSPost2010Prop40
 90
        0
102
RTVSPost2010PropOp40
 70
     1
102
RTVSPost2010Prop41ColorIndex
 90
       18
102
RTVSPost2010Prop41ColorRGB
 90
        0
102
RTVSPost2010PropOp41
 70
     1
102
RTVSPost2010Prop42
 90
       50
102
RTVSPost2010PropOp42
 70
     1
102
RTVSPost2010Prop43
 90
        3
102
RTVSPost2010PropOp43
 70
     1
102
RTVSPost2010Prop44ColorIndex
 90
        5
102
RTVSPost2010Prop44ColorRGB
 90
      255
102
RTVSPost2010PropOp44
 70
     1
102
RTVSPost2010Prop45
280
     0
102
RTVSPost2010PropOp45
 70
     1
102
RTVSPost2010Prop46
 90
       50
102
RTVSPost2010PropOp46
 70
     1
102
RTVSPost2010Prop47
 90
       50
102
RTVSPost2010PropOp47
 70
     1
102
RTVSPost2010Prop48
 90
       50
102
RTVSPost2010PropOp48
 70
     1
102
RTVSPost2010Prop49
280
     0
102
RTVSPost2010PropOp49
 70
     1
102
RTVSPost2010Prop50
 90
       50
102
RTVSPost2010PropOp50
 70
     1
102
RTVSPost2010Prop51ColorIndex
 90
      256
102
RTVSPost2010Prop51ColorRGB
 90
-16777216
102
RTVSPost2010PropOp51
 70
     0
102
RTVSPost2010Prop52
140
1.0
102
RTVSPost2010PropOp52
 70
     0
102
RTVSPost2010Prop53
 90
        2
102
RTVSPost2010PropOp53
 70
     1
102
RTVSPost2010Prop54
  1
strokes_ogs.tif
102
RTVSPost2010PropOp54
 70
     1
102
RTVSPost2010Prop55
280
     0
102
RTVSPost2010PropOp55
 70
     1
102
RTVSPost2010Prop56
140
1.0
102
RTVSPost2010PropOp56
 70
     1
102
RTVSPost2010Prop57
140
1.0
102
RTVSPost2010PropOp57
 70
     1
102
RTVSPropertyOp0
 70
     1
102
RTVSPropertyOp1
 70
     1
102
RTVSPropertyOp2
 70
     1
102
RTVSPropertyOp3
 70
     1
102
RTVSPropertyOp4
 70
     1
102
RTVSPropertyOp5
 70
     1
102
RTVSPropertyOp6
 70
     1
102
RTVSPropertyOp7
 70
     1
102
RTVSPropertyOp8
 70
     1
102
RTVSPropertyOp9
 70
     1
102
RTVSPropertyOp10
 70
     1
102
RTVSPropertyOp11
 70
     1
102
RTVSPropertyOp12
 70
     1
102
RTVSPropertyOp13
 70
     1
102
RTVSPropertyOp14
 70
     1
102
RTVSPropertyOp15
 70
     1
102
RTVSPropertyOp16
 70
     1
102
RTVSPropertyOp17
 70
     1
102
RTVSPropertyOp18
 70
     1
102
RTVSPropertyOp19
 70
     1
102
RTVSPropertyOp20
 70
     1
102
RTVSPropertyOp21
 70
     1
102
RTVSPropertyOp22
 70
     1
102
RTVSPropertyOp23
 70
     1
102
RTVSPropertyOp24
 70
     1
102
RTVSPropertyOp25
 70
     1
102
RTVSPropertyOp26
 70
     1
102
RTVSPropertyOp27
 70
     1
102
RTVSPropertyOp28
 70
     1
102
RTVSPropertyOp29
 70
     1
102
RTVSPropertyOp30
 70
     1
102
RTVSPropertyOp31
 70
     1
102
RTVSPropertyOp32
 70
     1
102
RTVSPropertyOp33
 70
     1
102
RTVSPropertyOp34
 70
     1
102
RTVSPropertyOp35
 70
     1
102
RTVSPropertyOp36
 70
     1
102
RTVSPropertyOp37
 70
     1
102
RTVSPropertyOp38
 70
     1
102
RTVSPropertyOp39
 70
     1
102
RTVSPropertyOp40
 70
     1
102
RTVSPropertyOp41
 70
     1
102
RTVSPropertyOp42
 70
     1
102
RTVSPropertyOp43
 70
     1
102
RTVSPropertyOp44
 70
     1
102
RTVSPropertyOp45
 70
     1
102
RTVSPropertyOp46
 70
     1
102
RTVSPropertyOp47
 70
     1
102
RTVSPropertyOp48
 70
     1
102
RTVSPropertyOp49
 70
     1
102
RTVSPropertyOp50
 70
     1
102
RTVSPropertyOp51
 70
     0
102
RTVSPropertyOp52
 70
     0
102
RTVSPropertyOp53
 70
     1
102
RTVSPropertyOp54
 70
     1
102
RTVSPropertyOp55
 70
     1
102
RTVSPropertyOp56
 70
     1
102
RTVSPropertyOp57
 70
     1
102
RTVSPropertyOp58
 70
     1
102
RTVSPropertyOp59
 70
     1
102
RTVSPropertyOp60
 70
     1
102
RTVSPropertyOp61
 70
     1
102
RTVSPropertyOp62
 70
     1
  0
XRECORD
  5
7CE
102
{ACAD_REACTORS
330
7CD
102
}
330
7CD
100
AcDbXrecord
280
     1
102
RTVSPost2010Prop28
280
     0
102
RTVSPost2010PropOp28
 70
     1
102
RTVSPost2010Prop29
280
     1
102
RTVSPost2010PropOp29
 70
     1
102
RTVSPost2010Prop30
280
     1
102
RTVSPost2010PropOp30
 70
     1
102
RTVSPost2010Prop31
280
     0
102
RTVSPost2010PropOp31
 70
     1
102
RTVSPost2010Prop32
280
     0
102
RTVSPost2010PropOp32
 70
     1
102
RTVSPost2010Prop33
280
     0
102
RTVSPost2010PropOp33
 70
     1
102
RTVSPost2010Prop34
280
     0
102
RTVSPost2010PropOp34
 70
     1
102
RTVSPost2010Prop35
280
     0
102
RTVSPost2010PropOp35
 70
     1
102
RTVSPost2010Prop36
280
     0
102
RTVSPost2010PropOp36
 70
     1
102
RTVSPost2010Prop37
 90
       50
102
RTVSPost2010PropOp37
 70
     1
102
RTVSPost2010Prop38
140
0.0
102
RTVSPost2010PropOp38
 70
     1
102
RTVSPost2010Prop39
140
1.0
102
RTVSPost2010PropOp39
 70
     1
102
RTVSPost2010Prop40
 90
        0
102
RTVSPost2010PropOp40
 70
     1
102
RTVSPost2010Prop41ColorIndex
 90
       18
102
RTVSPost2010Prop41ColorRGB
 90
        0
102
RTVSPost2010PropOp41
 70
     1
102
RTVSPost2010Prop42
 90
       50
102
RTVSPost2010PropOp42
 70
     1
102
RTVSPost2010Prop43
 90
        3
102
RTVSPost2010PropOp43
 70
     1
102
RTVSPost2010Prop44ColorIndex
 90
        5
102
RTVSPost2010Prop44ColorRGB
 90
      255
102
RTVSPost2010PropOp44
 70
     1
102
RTVSPost2010Prop45
280
     0
102
RTVSPost2010PropOp45
 70
     1
102
RTVSPost2010Prop46
 90
       50
102
RTVSPost2010PropOp46
 70
     1
102
RTVSPost2010Prop47
 90
       50
102
RTVSPost2010PropOp47
 70
     1
102
RTVSPost2010Prop48
 90
       50
102
RTVSPost2010PropOp48
 70
     1
102
RTVSPost2010Prop49
280
     0
102
RTVSPost2010PropOp49
 70
     1
102
RTVSPost2010Prop50
 90
       50
102
RTVSPost2010PropOp50
 70
     1
102
RTVSPost2010Prop51ColorIndex
 90
      256
102
RTVSPost2010Prop51ColorRGB
 90
-16777216
102
RTVSPost2010PropOp51
 70
     0
102
RTVSPost2010Prop52
140
1.0
102
RTVSPost2010PropOp52
 70
     0
102
RTVSPost2010Prop53
 90
        2
102
RTVSPost2010PropOp53
 70
     1
102
RTVSPost2010Prop54
  1
strokes_ogs.tif
102
RTVSPost2010PropOp54
 70
     1
102
RTVSPost2010Prop55
280
     0
102
RTVSPost2010PropOp55
 70
     1
102
RTVSPost2010Prop56
140
1.0
102
RTVSPost2010PropOp56
 70
     1
102
RTVSPost2010Prop57
140
1.0
102
RTVSPost2010PropOp57
 70
     1
102
RTVSPropertyOp0
 70
     1
102
RTVSPropertyOp1
 70
     1
102
RTVSPropertyOp2
 70
     1
102
RTVSPropertyOp3
 70
     1
102
RTVSPropertyOp4
 70
     1
102
RTVSPropertyOp5
 70
     1
102
RTVSPropertyOp6
 70
     1
102
RTVSPropertyOp7
 70
     1
102
RTVSPropertyOp8
 70
     1
102
RTVSPropertyOp9
 70
     1
102
RTVSPropertyOp10
 70
     1
102
RTVSPropertyOp11
 70
     1
102
RTVSPropertyOp12
 70
     1
102
RTVSPropertyOp13
 70
     1
102
RTVSPropertyOp14
 70
     1
102
RTVSPropertyOp15
 70
     1
102
RTVSPropertyOp16
 70
     1
102
RTVSPropertyOp17
 70
     1
102
RTVSPropertyOp18
 70
     1
102
RTVSPropertyOp19
 70
     1
102
RTVSPropertyOp20
 70
     1
102
RTVSPropertyOp21
 70
     1
102
RTVSPropertyOp22
 70
     1
102
RTVSPropertyOp23
 70
     1
102
RTVSPropertyOp24
 70
     1
102
RTVSPropertyOp25
 70
     1
102
RTVSPropertyOp26
 70
     1
102
RTVSPropertyOp27
 70
     1
102
RTVSPropertyOp28
 70
     1
102
RTVSPropertyOp29
 70
     1
102
RTVSPropertyOp30
 70
     1
102
RTVSPropertyOp31
 70
     1
102
RTVSPropertyOp32
 70
     1
102
RTVSPropertyOp33
 70
     1
102
RTVSPropertyOp34
 70
     1
102
RTVSPropertyOp35
 70
     1
102
RTVSPropertyOp36
 70
     1
102
RTVSPropertyOp37
 70
     1
102
RTVSPropertyOp38
 70
     1
102
RTVSPropertyOp39
 70
     1
102
RTVSPropertyOp40
 70
     1
102
RTVSPropertyOp41
 70
     1
102
RTVSPropertyOp42
 70
     1
102
RTVSPropertyOp43
 70
     1
102
RTVSPropertyOp44
 70
     1
102
RTVSPropertyOp45
 70
     1
102
RTVSPropertyOp46
 70
     1
102
RTVSPropertyOp47
 70
     1
102
RTVSPropertyOp48
 70
     1
102
RTVSPropertyOp49
 70
     1
102
RTVSPropertyOp50
 70
     1
102
RTVSPropertyOp51
 70
     0
102
RTVSPropertyOp52
 70
     0
102
RTVSPropertyOp53
 70
     1
102
RTVSPropertyOp54
 70
     1
102
RTVSPropertyOp55
 70
     1
102
RTVSPropertyOp56
 70
     1
102
RTVSPropertyOp57
 70
     1
102
RTVSPropertyOp58
 70
     1
102
RTVSPropertyOp59
 70
     1
102
RTVSPropertyOp60
 70
     1
102
RTVSPropertyOp61
 70
     1
102
RTVSPropertyOp62
 70
     1
  0
XRECORD
  5
7D0
102
{ACAD_REACTORS
330
7CF
102
}
330
7CF
100
AcDbXrecord
280
     1
102
RTVSPost2010Prop28
280
     0
102
RTVSPost2010PropOp28
 70
     1
102
RTVSPost2010Prop29
280
     1
102
RTVSPost2010PropOp29
 70
     1
102
RTVSPost2010Prop30
280
     1
102
RTVSPost2010PropOp30
 70
     1
102
RTVSPost2010Prop31
280
     0
102
RTVSPost2010PropOp31
 70
     1
102
RTVSPost2010Prop32
280
     0
102
RTVSPost2010PropOp32
 70
     1
102
RTVSPost2010Prop33
280
     0
102
RTVSPost2010PropOp33
 70
     1
102
RTVSPost2010Prop34
280
     0
102
RTVSPost2010PropOp34
 70
     1
102
RTVSPost2010Prop35
280
     0
102
RTVSPost2010PropOp35
 70
     1
102
RTVSPost2010Prop36
280
     0
102
RTVSPost2010PropOp36
 70
     1
102
RTVSPost2010Prop37
 90
       50
102
RTVSPost2010PropOp37
 70
     1
102
RTVSPost2010Prop38
140
0.0
102
RTVSPost2010PropOp38
 70
     1
102
RTVSPost2010Prop39
140
1.0
102
RTVSPost2010PropOp39
 70
     1
102
RTVSPost2010Prop40
 90
        0
102
RTVSPost2010PropOp40
 70
     1
102
RTVSPost2010Prop41ColorIndex
 90
       18
102
RTVSPost2010Prop41ColorRGB
 90
        0
102
RTVSPost2010PropOp41
 70
     1
102
RTVSPost2010Prop42
 90
       50
102
RTVSPost2010PropOp42
 70
     1
102
RTVSPost2010Prop43
 90
        3
102
RTVSPost2010PropOp43
 70
     1
102
RTVSPost2010Prop44ColorIndex
 90
        5
102
RTVSPost2010Prop44ColorRGB
 90
      255
102
RTVSPost2010PropOp44
 70
     1
102
RTVSPost2010Prop45
280
     0
102
RTVSPost2010PropOp45
 70
     1
102
RTVSPost2010Prop46
 90
       50
102
RTVSPost2010PropOp46
 70
     1
102
RTVSPost2010Prop47
 90
       50
102
RTVSPost2010PropOp47
 70
     1
102
RTVSPost2010Prop48
 90
       50
102
RTVSPost2010PropOp48
 70
     1
102
RTVSPost2010Prop49
280
     0
102
RTVSPost2010PropOp49
 70
     1
102
RTVSPost2010Prop50
 90
       50
102
RTVSPost2010PropOp50
 70
     1
102
RTVSPost2010Prop51ColorIndex
 90
      256
102
RTVSPost2010Prop51ColorRGB
 90
-16777216
102
RTVSPost2010PropOp51
 70
     0
102
RTVSPost2010Prop52
140
1.0
102
RTVSPost2010PropOp52
 70
     0
102
RTVSPost2010Prop53
 90
        2
102
RTVSPost2010PropOp53
 70
     1
102
RTVSPost2010Prop54
  1
strokes_ogs.tif
102
RTVSPost2010PropOp54
 70
     1
102
RTVSPost2010Prop55
280
     0
102
RTVSPost2010PropOp55
 70
     1
102
RTVSPost2010Prop56
140
1.0
102
RTVSPost2010PropOp56
 70
     1
102
RTVSPost2010Prop57
140
1.0
102
RTVSPost2010PropOp57
 70
     1
102
RTVSPropertyOp0
 70
     1
102
RTVSPropertyOp1
 70
     1
102
RTVSPropertyOp2
 70
     1
102
RTVSPropertyOp3
 70
     1
102
RTVSPropertyOp4
 70
     1
102
RTVSPropertyOp5
 70
     1
102
RTVSPropertyOp6
 70
     1
102
RTVSPropertyOp7
 70
     1
102
RTVSPropertyOp8
 70
     1
102
RTVSPropertyOp9
 70
     1
102
RTVSPropertyOp10
 70
     1
102
RTVSPropertyOp11
 70
     1
102
RTVSPropertyOp12
 70
     1
102
RTVSPropertyOp13
 70
     1
102
RTVSPropertyOp14
 70
     1
102
RTVSPropertyOp15
 70
     1
102
RTVSPropertyOp16
 70
     1
102
RTVSPropertyOp17
 70
     1
102
RTVSPropertyOp18
 70
     1
102
RTVSPropertyOp19
 70
     1
102
RTVSPropertyOp20
 70
     1
102
RTVSPropertyOp21
 70
     1
102
RTVSPropertyOp22
 70
     1
102
RTVSPropertyOp23
 70
     1
102
RTVSPropertyOp24
 70
     1
102
RTVSPropertyOp25
 70
     1
102
RTVSPropertyOp26
 70
     1
102
RTVSPropertyOp27
 70
     1
102
RTVSPropertyOp28
 70
     1
102
RTVSPropertyOp29
 70
     1
102
RTVSPropertyOp30
 70
     1
102
RTVSPropertyOp31
 70
     1
102
RTVSPropertyOp32
 70
     1
102
RTVSPropertyOp33
 70
     1
102
RTVSPropertyOp34
 70
     1
102
RTVSPropertyOp35
 70
     1
102
RTVSPropertyOp36
 70
     1
102
RTVSPropertyOp37
 70
     1
102
RTVSPropertyOp38
 70
     1
102
RTVSPropertyOp39
 70
     1
102
RTVSPropertyOp40
 70
     1
102
RTVSPropertyOp41
 70
     1
102
RTVSPropertyOp42
 70
     1
102
RTVSPropertyOp43
 70
     1
102
RTVSPropertyOp44
 70
     1
102
RTVSPropertyOp45
 70
     1
102
RTVSPropertyOp46
 70
     1
102
RTVSPropertyOp47
 70
     1
102
RTVSPropertyOp48
 70
     1
102
RTVSPropertyOp49
 70
     1
102
RTVSPropertyOp50
 70
     1
102
RTVSPropertyOp51
 70
     0
102
RTVSPropertyOp52
 70
     0
102
RTVSPropertyOp53
 70
     1
102
RTVSPropertyOp54
 70
     1
102
RTVSPropertyOp55
 70
     1
102
RTVSPropertyOp56
 70
     1
102
RTVSPropertyOp57
 70
     1
102
RTVSPropertyOp58
 70
     1
102
RTVSPropertyOp59
 70
     1
102
RTVSPropertyOp60
 70
     1
102
RTVSPropertyOp61
 70
     1
102
RTVSPropertyOp62
 70
     1
  0
XRECORD
  5
7C0
102
{ACAD_REACTORS
330
7BF
102
}
330
7BF
100
AcDbXrecord
280
     1
102
RTVSPost2010Prop28
280
     0
102
RTVSPost2010PropOp28
 70
     1
102
RTVSPost2010Prop29
280
     1
102
RTVSPost2010PropOp29
 70
     1
102
RTVSPost2010Prop30
280
     1
102
RTVSPost2010PropOp30
 70
     1
102
RTVSPost2010Prop31
280
     0
102
RTVSPost2010PropOp31
 70
     1
102
RTVSPost2010Prop32
280
     0
102
RTVSPost2010PropOp32
 70
     1
102
RTVSPost2010Prop33
280
     0
102
RTVSPost2010PropOp33
 70
     1
102
RTVSPost2010Prop34
280
     0
102
RTVSPost2010PropOp34
 70
     1
102
RTVSPost2010Prop35
280
     0
102
RTVSPost2010PropOp35
 70
     1
102
RTVSPost2010Prop36
280
     0
102
RTVSPost2010PropOp36
 70
     1
102
RTVSPost2010Prop37
 90
       50
102
RTVSPost2010PropOp37
 70
     1
102
RTVSPost2010Prop38
140
0.0
102
RTVSPost2010PropOp38
 70
     1
102
RTVSPost2010Prop39
140
1.0
102
RTVSPost2010PropOp39
 70
     1
102
RTVSPost2010Prop40
 90
        0
102
RTVSPost2010PropOp40
 70
     1
102
RTVSPost2010Prop41ColorIndex
 90
       18
102
RTVSPost2010Prop41ColorRGB
 90
        0
102
RTVSPost2010PropOp41
 70
     1
102
RTVSPost2010Prop42
 90
       50
102
RTVSPost2010PropOp42
 70
     1
102
RTVSPost2010Prop43
 90
        3
102
RTVSPost2010PropOp43
 70
     1
102
RTVSPost2010Prop44ColorIndex
 90
        5
102
RTVSPost2010Prop44ColorRGB
 90
      255
102
RTVSPost2010PropOp44
 70
     1
102
RTVSPost2010Prop45
280
     0
102
RTVSPost2010PropOp45
 70
     1
102
RTVSPost2010Prop46
 90
       50
102
RTVSPost2010PropOp46
 70
     1
102
RTVSPost2010Prop47
 90
       50
102
RTVSPost2010PropOp47
 70
     1
102
RTVSPost2010Prop48
 90
       50
102
RTVSPost2010PropOp48
 70
     1
102
RTVSPost2010Prop49
280
     0
102
RTVSPost2010PropOp49
 70
     1
102
RTVSPost2010Prop50
 90
       50
102
RTVSPost2010PropOp50
 70
     1
102
RTVSPost2010Prop51ColorIndex
 90
      256
102
RTVSPost2010Prop51ColorRGB
 90
-16777216
102
RTVSPost2010PropOp51
 70
     0
102
RTVSPost2010Prop52
140
1.0
102
RTVSPost2010PropOp52
 70
     0
102
RTVSPost2010Prop53
 90
        2
102
RTVSPost2010PropOp53
 70
     1
102
RTVSPost2010Prop54
  1
strokes_ogs.tif
102
RTVSPost2010PropOp54
 70
     1
102
RTVSPost2010Prop55
280
     0
102
RTVSPost2010PropOp55
 70
     1
102
RTVSPost2010Prop56
140
1.0
102
RTVSPost2010PropOp56
 70
     1
102
RTVSPost2010Prop57
140
1.0
102
RTVSPost2010PropOp57
 70
     1
102
RTVSPropertyOp0
 70
     1
102
RTVSPropertyOp1
 70
     1
102
RTVSPropertyOp2
 70
     1
102
RTVSPropertyOp3
 70
     1
102
RTVSPropertyOp4
 70
     1
102
RTVSPropertyOp5
 70
     1
102
RTVSPropertyOp6
 70
     1
102
RTVSPropertyOp7
 70
     1
102
RTVSPropertyOp8
 70
     1
102
RTVSPropertyOp9
 70
     1
102
RTVSPropertyOp10
 70
     1
102
RTVSPropertyOp11
 70
     1
102
RTVSPropertyOp12
 70
     1
102
RTVSPropertyOp13
 70
     1
102
RTVSPropertyOp14
 70
     1
102
RTVSPropertyOp15
 70
     1
102
RTVSPropertyOp16
 70
     1
102
RTVSPropertyOp17
 70
     1
102
RTVSPropertyOp18
 70
     1
102
RTVSPropertyOp19
 70
     1
102
RTVSPropertyOp20
 70
     1
102
RTVSPropertyOp21
 70
     1
102
RTVSPropertyOp22
 70
     1
102
RTVSPropertyOp23
 70
     1
102
RTVSPropertyOp24
 70
     1
102
RTVSPropertyOp25
 70
     1
102
RTVSPropertyOp26
 70
     1
102
RTVSPropertyOp27
 70
     1
102
RTVSPropertyOp28
 70
     1
102
RTVSPropertyOp29
 70
     1
102
RTVSPropertyOp30
 70
     1
102
RTVSPropertyOp31
 70
     1
102
RTVSPropertyOp32
 70
     1
102
RTVSPropertyOp33
 70
     1
102
RTVSPropertyOp34
 70
     1
102
RTVSPropertyOp35
 70
     1
102
RTVSPropertyOp36
 70
     1
102
RTVSPropertyOp37
 70
     1
102
RTVSPropertyOp38
 70
     1
102
RTVSPropertyOp39
 70
     1
102
RTVSPropertyOp40
 70
     1
102
RTVSPropertyOp41
 70
     1
102
RTVSPropertyOp42
 70
     1
102
RTVSPropertyOp43
 70
     1
102
RTVSPropertyOp44
 70
     1
102
RTVSPropertyOp45
 70
     1
102
RTVSPropertyOp46
 70
     1
102
RTVSPropertyOp47
 70
     1
102
RTVSPropertyOp48
 70
     1
102
RTVSPropertyOp49
 70
     1
102
RTVSPropertyOp50
 70
     1
102
RTVSPropertyOp51
 70
     0
102
RTVSPropertyOp52
 70
     0
102
RTVSPropertyOp53
 70
     1
102
RTVSPropertyOp54
 70
     1
102
RTVSPropertyOp55
 70
     1
102
RTVSPropertyOp56
 70
     1
102
RTVSPropertyOp57
 70
     1
102
RTVSPropertyOp58
 70
     1
102
RTVSPropertyOp59
 70
     1
102
RTVSPropertyOp60
 70
     1
102
RTVSPropertyOp61
 70
     1
102
RTVSPropertyOp62
 70
     1
  0
XRECORD
  5
7B2
102
{ACAD_REACTORS
330
7B1
102
}
330
7B1
100
AcDbXrecord
280
     1
102
RTVSPost2010Prop28
280
     0
102
RTVSPost2010PropOp28
 70
     1
102
RTVSPost2010Prop29
280
     1
102
RTVSPost2010PropOp29
 70
     1
102
RTVSPost2010Prop30
280
     1
102
RTVSPost2010PropOp30
 70
     1
102
RTVSPost2010Prop31
280
     0
102
RTVSPost2010PropOp31
 70
     1
102
RTVSPost2010Prop32
280
     0
102
RTVSPost2010PropOp32
 70
     1
102
RTVSPost2010Prop33
280
     0
102
RTVSPost2010PropOp33
 70
     1
102
RTVSPost2010Prop34
280
     0
102
RTVSPost2010PropOp34
 70
     1
102
RTVSPost2010Prop35
280
     0
102
RTVSPost2010PropOp35
 70
     1
102
RTVSPost2010Prop36
280
     0
102
RTVSPost2010PropOp36
 70
     1
102
RTVSPost2010Prop37
 90
       50
102
RTVSPost2010PropOp37
 70
     1
102
RTVSPost2010Prop38
140
0.0
102
RTVSPost2010PropOp38
 70
     1
102
RTVSPost2010Prop39
140
1.0
102
RTVSPost2010PropOp39
 70
     1
102
RTVSPost2010Prop40
 90
        0
102
RTVSPost2010PropOp40
 70
     1
102
RTVSPost2010Prop41ColorIndex
 90
       18
102
RTVSPost2010Prop41ColorRGB
 90
        0
102
RTVSPost2010PropOp41
 70
     1
102
RTVSPost2010Prop42
 90
       50
102
RTVSPost2010PropOp42
 70
     1
102
RTVSPost2010Prop43
 90
        3
102
RTVSPost2010PropOp43
 70
     1
102
RTVSPost2010Prop44ColorIndex
 90
        5
102
RTVSPost2010Prop44ColorRGB
 90
      255
102
RTVSPost2010PropOp44
 70
     1
102
RTVSPost2010Prop45
280
     0
102
RTVSPost2010PropOp45
 70
     1
102
RTVSPost2010Prop46
 90
       50
102
RTVSPost2010PropOp46
 70
     1
102
RTVSPost2010Prop47
 90
       50
102
RTVSPost2010PropOp47
 70
     1
102
RTVSPost2010Prop48
 90
       50
102
RTVSPost2010PropOp48
 70
     1
102
RTVSPost2010Prop49
280
     0
102
RTVSPost2010PropOp49
 70
     1
102
RTVSPost2010Prop50
 90
       50
102
RTVSPost2010PropOp50
 70
     1
102
RTVSPost2010Prop51ColorIndex
 90
      256
102
RTVSPost2010Prop51ColorRGB
 90
-16777216
102
RTVSPost2010PropOp51
 70
     0
102
RTVSPost2010Prop52
140
1.0
102
RTVSPost2010PropOp52
 70
     0
102
RTVSPost2010Prop53
 90
        2
102
RTVSPost2010PropOp53
 70
     1
102
RTVSPost2010Prop54
  1
strokes_ogs.tif
102
RTVSPost2010PropOp54
 70
     1
102
RTVSPost2010Prop55
280
     0
102
RTVSPost2010PropOp55
 70
     1
102
RTVSPost2010Prop56
140
1.0
102
RTVSPost2010PropOp56
 70
     1
102
RTVSPost2010Prop57
140
1.0
102
RTVSPost2010PropOp57
 70
     1
102
RTVSPropertyOp0
 70
     1
102
RTVSPropertyOp1
 70
     1
102
RTVSPropertyOp2
 70
     1
102
RTVSPropertyOp3
 70
     1
102
RTVSPropertyOp4
 70
     1
102
RTVSPropertyOp5
 70
     1
102
RTVSPropertyOp6
 70
     1
102
RTVSPropertyOp7
 70
     1
102
RTVSPropertyOp8
 70
     1
102
RTVSPropertyOp9
 70
     1
102
RTVSPropertyOp10
 70
     1
102
RTVSPropertyOp11
 70
     1
102
RTVSPropertyOp12
 70
     1
102
RTVSPropertyOp13
 70
     1
102
RTVSPropertyOp14
 70
     1
102
RTVSPropertyOp15
 70
     1
102
RTVSPropertyOp16
 70
     1
102
RTVSPropertyOp17
 70
     1
102
RTVSPropertyOp18
 70
     1
102
RTVSPropertyOp19
 70
     1
102
RTVSPropertyOp20
 70
     1
102
RTVSPropertyOp21
 70
     1
102
RTVSPropertyOp22
 70
     1
102
RTVSPropertyOp23
 70
     1
102
RTVSPropertyOp24
 70
     1
102
RTVSPropertyOp25
 70
     1
102
RTVSPropertyOp26
 70
     1
102
RTVSPropertyOp27
 70
     1
102
RTVSPropertyOp28
 70
     1
102
RTVSPropertyOp29
 70
     1
102
RTVSPropertyOp30
 70
     1
102
RTVSPropertyOp31
 70
     1
102
RTVSPropertyOp32
 70
     1
102
RTVSPropertyOp33
 70
     1
102
RTVSPropertyOp34
 70
     1
102
RTVSPropertyOp35
 70
     1
102
RTVSPropertyOp36
 70
     1
102
RTVSPropertyOp37
 70
     1
102
RTVSPropertyOp38
 70
     1
102
RTVSPropertyOp39
 70
     1
102
RTVSPropertyOp40
 70
     1
102
RTVSPropertyOp41
 70
     1
102
RTVSPropertyOp42
 70
     1
102
RTVSPropertyOp43
 70
     1
102
RTVSPropertyOp44
 70
     1
102
RTVSPropertyOp45
 70
     1
102
RTVSPropertyOp46
 70
     1
102
RTVSPropertyOp47
 70
     1
102
RTVSPropertyOp48
 70
     1
102
RTVSPropertyOp49
 70
     1
102
RTVSPropertyOp50
 70
     1
102
RTVSPropertyOp51
 70
     0
102
RTVSPropertyOp52
 70
     0
102
RTVSPropertyOp53
 70
     1
102
RTVSPropertyOp54
 70
     1
102
RTVSPropertyOp55
 70
     1
102
RTVSPropertyOp56
 70
     1
102
RTVSPropertyOp57
 70
     1
102
RTVSPropertyOp58
 70
     1
102
RTVSPropertyOp59
 70
     1
102
RTVSPropertyOp60
 70
     1
102
RTVSPropertyOp61
 70
     1
102
RTVSPropertyOp62
 70
     1
  0
XRECORD
  5
7D2
102
{ACAD_REACTORS
330
7D1
102
}
330
7D1
100
AcDbXrecord
280
     1
102
RTVSPost2010Prop28
280
     0
102
RTVSPost2010PropOp28
 70
     1
102
RTVSPost2010Prop29
280
     1
102
RTVSPost2010PropOp29
 70
     1
102
RTVSPost2010Prop30
280
     1
102
RTVSPost2010PropOp30
 70
     1
102
RTVSPost2010Prop31
280
     0
102
RTVSPost2010PropOp31
 70
     1
102
RTVSPost2010Prop32
280
     0
102
RTVSPost2010PropOp32
 70
     1
102
RTVSPost2010Prop33
280
     0
102
RTVSPost2010PropOp33
 70
     1
102
RTVSPost2010Prop34
280
     0
102
RTVSPost2010PropOp34
 70
     1
102
RTVSPost2010Prop35
280
     0
102
RTVSPost2010PropOp35
 70
     1
102
RTVSPost2010Prop36
280
     0
102
RTVSPost2010PropOp36
 70
     1
102
RTVSPost2010Prop37
 90
       50
102
RTVSPost2010PropOp37
 70
     1
102
RTVSPost2010Prop38
140
0.0
102
RTVSPost2010PropOp38
 70
     1
102
RTVSPost2010Prop39
140
1.0
102
RTVSPost2010PropOp39
 70
     1
102
RTVSPost2010Prop40
 90
        0
102
RTVSPost2010PropOp40
 70
     1
102
RTVSPost2010Prop41ColorIndex
 90
       18
102
RTVSPost2010Prop41ColorRGB
 90
        0
102
RTVSPost2010PropOp41
 70
     1
102
RTVSPost2010Prop42
 90
       50
102
RTVSPost2010PropOp42
 70
     1
102
RTVSPost2010Prop43
 90
        3
102
RTVSPost2010PropOp43
 70
     1
102
RTVSPost2010Prop44ColorIndex
 90
        5
102
RTVSPost2010Prop44ColorRGB
 90
      255
102
RTVSPost2010PropOp44
 70
     1
102
RTVSPost2010Prop45
280
     0
102
RTVSPost2010PropOp45
 70
     1
102
RTVSPost2010Prop46
 90
       50
102
RTVSPost2010PropOp46
 70
     1
102
RTVSPost2010Prop47
 90
       50
102
RTVSPost2010PropOp47
 70
     1
102
RTVSPost2010Prop48
 90
       50
102
RTVSPost2010PropOp48
 70
     1
102
RTVSPost2010Prop49
280
     0
102
RTVSPost2010PropOp49
 70
     1
102
RTVSPost2010Prop50
 90
       50
102
RTVSPost2010PropOp50
 70
     1
102
RTVSPost2010Prop51ColorIndex
 90
      256
102
RTVSPost2010Prop51ColorRGB
 90
-16777216
102
RTVSPost2010PropOp51
 70
     0
102
RTVSPost2010Prop52
140
1.0
102
RTVSPost2010PropOp52
 70
     0
102
RTVSPost2010Prop53
 90
        2
102
RTVSPost2010PropOp53
 70
     1
102
RTVSPost2010Prop54
  1
strokes_ogs.tif
102
RTVSPost2010PropOp54
 70
     1
102
RTVSPost2010Prop55
280
     0
102
RTVSPost2010PropOp55
 70
     1
102
RTVSPost2010Prop56
140
1.0
102
RTVSPost2010PropOp56
 70
     1
102
RTVSPost2010Prop57
140
1.0
102
RTVSPost2010PropOp57
 70
     1
102
RTVSPropertyOp0
 70
     1
102
RTVSPropertyOp1
 70
     1
102
RTVSPropertyOp2
 70
     1
102
RTVSPropertyOp3
 70
     1
102
RTVSPropertyOp4
 70
     1
102
RTVSPropertyOp5
 70
     1
102
RTVSPropertyOp6
 70
     1
102
RTVSPropertyOp7
 70
     1
102
RTVSPropertyOp8
 70
     1
102
RTVSPropertyOp9
 70
     1
102
RTVSPropertyOp10
 70
     1
102
RTVSPropertyOp11
 70
     1
102
RTVSPropertyOp12
 70
     1
102
RTVSPropertyOp13
 70
     1
102
RTVSPropertyOp14
 70
     1
102
RTVSPropertyOp15
 70
     1
102
RTVSPropertyOp16
 70
     1
102
RTVSPropertyOp17
 70
     1
102
RTVSPropertyOp18
 70
     1
102
RTVSPropertyOp19
 70
     1
102
RTVSPropertyOp20
 70
     1
102
RTVSPropertyOp21
 70
     1
102
RTVSPropertyOp22
 70
     1
102
RTVSPropertyOp23
 70
     1
102
RTVSPropertyOp24
 70
     1
102
RTVSPropertyOp25
 70
     1
102
RTVSPropertyOp26
 70
     1
102
RTVSPropertyOp27
 70
     1
102
RTVSPropertyOp28
 70
     1
102
RTVSPropertyOp29
 70
     1
102
RTVSPropertyOp30
 70
     1
102
RTVSPropertyOp31
 70
     1
102
RTVSPropertyOp32
 70
     1
102
RTVSPropertyOp33
 70
     1
102
RTVSPropertyOp34
 70
     1
102
RTVSPropertyOp35
 70
     1
102
RTVSPropertyOp36
 70
     1
102
RTVSPropertyOp37
 70
     1
102
RTVSPropertyOp38
 70
     1
102
RTVSPropertyOp39
 70
     1
102
RTVSPropertyOp40
 70
     1
102
RTVSPropertyOp41
 70
     1
102
RTVSPropertyOp42
 70
     1
102
RTVSPropertyOp43
 70
     1
102
RTVSPropertyOp44
 70
     1
102
RTVSPropertyOp45
 70
     1
102
RTVSPropertyOp46
 70
     1
102
RTVSPropertyOp47
 70
     1
102
RTVSPropertyOp48
 70
     1
102
RTVSPropertyOp49
 70
     1
102
RTVSPropertyOp50
 70
     1
102
RTVSPropertyOp51
 70
     0
102
RTVSPropertyOp52
 70
     0
102
RTVSPropertyOp53
 70
     1
102
RTVSPropertyOp54
 70
     1
102
RTVSPropertyOp55
 70
     1
102
RTVSPropertyOp56
 70
     1
102
RTVSPropertyOp57
 70
     1
102
RTVSPropertyOp58
 70
     1
102
RTVSPropertyOp59
 70
     1
102
RTVSPropertyOp60
 70
     1
102
RTVSPropertyOp61
 70
     1
102
RTVSPropertyOp62
 70
     1
  0
ENDSEC
  0
EOF
