  0
SECTION
  2
HEADER
  9
$ACADVER
  1
AC1015
  9
$ACADMAINTVER
 70
    20
  9
$DWGCODEPAGE
  3
ANSI_932
  9
$INSBASE
 10
0.0
 20
0.0
 30
0.0
  9
$EXTMIN
 10
59.56477862074819
 20
26.94261443398477
 30
0.0
  9
$EXTMAX
 10
1929.243422635765
 20
1585.969922164682
 30
0.0
  9
$LIMMIN
 10
-584.6227951049804
 20
-796.9091033935547
  9
$LIMMAX
 10
1114.923268270946
 20
469.6175231933593
  9
$ORTHOMODE
 70
     0
  9
$REGENMODE
 70
     1
  9
$FILLMODE
 70
     1
  9
$QTEXTMODE
 70
     0
  9
$MIRRTEXT
 70
     1
  9
$LTSCALE
 40
0.2102484875776636
  9
$ATTMODE
 70
     1
  9
$TEXTSIZE
 40
2.5
  9
$TRACEWID
 40
1.0
  9
$TEXTSTYLE
  7
Standard
  9
$CLAYER
  8
0
  9
$CELTYPE
  6
ByLayer
  9
$CECOLOR
 62
   256
  9
$CELTSCALE
 40
1.0
  9
$DISPSILH
 70
     0
  9
$DIMSCALE
 40
1.0
  9
$DIMASZ
 40
2.5
  9
$DIMEXO
 40
0.625
  9
$DIMDLI
 40
3.75
  9
$DIMRND
 40
0.0
  9
$DIMDLE
 40
0.0
  9
$DIMEXE
 40
1.25
  9
$DIMTP
 40
0.0
  9
$DIMTM
 40
0.0
  9
$DIMTXT
 40
2.5
  9
$DIMCEN
 40
2.5
  9
$DIMTSZ
 40
0.0
  9
$DIMTOL
 70
     0
  9
$DIMLIM
 70
     0
  9
$DIMTIH
 70
     0
  9
$DIMTOH
 70
     0
  9
$DIMSE1
 70
     0
  9
$DIMSE2
 70
     0
  9
$DIMTAD
 70
     1
  9
$DIMZIN
 70
     0
  9
$DIMBLK
  1

  9
$DIMASO
 70
     1
  9
$DIMSHO
 70
     1
  9
$DIMPOST
  1

  9
$DIMAPOST
  1

  9
$DIMALT
 70
     0
  9
$DIMALTD
 70
     3
  9
$DIMALTF
 40
0.03937007874016
  9
$DIMLFAC
 40
1.0
  9
$DIMTOFL
 70
     1
  9
$DIMTVP
 40
0.0
  9
$DIMTIX
 70
     0
  9
$DIMSOXD
 70
     0
  9
$DIMSAH
 70
     0
  9
$DIMBLK1
  1

  9
$DIMBLK2
  1

  9
$DIMSTYLE
  2
Standard
  9
$DIMCLRD
 70
     0
  9
$DIMCLRE
 70
     0
  9
$DIMCLRT
 70
     0
  9
$DIMTFAC
 40
0.75
  9
$DIMGAP
 40
0.625
  9
$DIMJUST
 70
     0
  9
$DIMSD1
 70
     0
  9
$DIMSD2
 70
     0
  9
$DIMTOLJ
 70
     0
  9
$DIMTZIN
 70
     8
  9
$DIMALTZ
 70
     0
  9
$DIMALTTZ
 70
     0
  9
$DIMUPT
 70
     0
  9
$DIMDEC
 70
     2
  9
$DIMTDEC
 70
     2
  9
$DIMALTU
 70
     2
  9
$DIMALTTD
 70
     3
  9
$DIMTXSTY
  7
Standard
  9
$DIMAUNIT
 70
     0
  9
$DIMADEC
 70
     0
  9
$DIMALTRND
 40
0.0
  9
$DIMAZIN
 70
     0
  9
$DIMDSEP
 70
    46
  9
$DIMATFIT
 70
     3
  9
$DIMFRAC
 70
     0
  9
$DIMLDRBLK
  1

  9
$DIMLUNIT
 70
     2
  9
$DIMLWD
 70
    -2
  9
$DIMLWE
 70
    -2
  9
$DIMTMOVE
 70
     0
  9
$LUNITS
 70
     2
  9
$LUPREC
 70
     4
  9
$SKETCHINC
 40
1.0
  9
$FILLETRAD
 40
0.0
  9
$AUNITS
 70
     0
  9
$AUPREC
 70
     0
  9
$MENU
  1
.
  9
$ELEVATION
 40
0.0
  9
$PELEVATION
 40
0.0
  9
$THICKNESS
 40
0.0
  9
$LIMCHECK
 70
     0
  9
$CHAMFERA
 40
10.0
  9
$CHAMFERB
 40
10.0
  9
$CHAMFERC
 40
20.0
  9
$CHAMFERD
 40
0.0
  9
$SKPOLY
 70
     0
  9
$TDCREATE
 40
2455188.750000000
  9
$TDUCREATE
 40
2455188.375000000
  9
$TDUPDATE
 40
2459754.633179896
  9
$TDUUPDATE
 40
2459754.258179896
  9
$TDINDWG
 40
0.0093854282
  9
$TDUSRTIMER
 40
0.0093852778
  9
$USRTIMER
 70
     1
  9
$ANGBASE
 50
0.0
  9
$ANGDIR
 70
     0
  9
$PDMODE
 70
     0
  9
$PDSIZE
 40
0.0
  9
$PLINEWID
 40
0.0
  9
$SPLFRAME
 70
     0
  9
$SPLINETYPE
 70
     6
  9
$SPLINESEGS
 70
     8
  9
$HANDSEED
  5
8E1
  9
$SURFTAB1
 70
     6
  9
$SURFTAB2
 70
     6
  9
$SURFTYPE
 70
     6
  9
$SURFU
 70
     6
  9
$SURFV
 70
     6
  9
$UCSBASE
  2

  9
$UCSNAME
  2

  9
$UCSORG
 10
0.0
 20
0.0
 30
0.0
  9
$UCSXDIR
 10
1.0
 20
0.0
 30
0.0
  9
$UCSYDIR
 10
0.0
 20
1.0
 30
0.0
  9
$UCSORTHOREF
  2

  9
$UCSORTHOVIEW
 70
     0
  9
$UCSORGTOP
 10
0.0
 20
0.0
 30
0.0
  9
$UCSORGBOTTOM
 10
0.0
 20
0.0
 30
0.0
  9
$UCSORGLEFT
 10
0.0
 20
0.0
 30
0.0
  9
$UCSORGRIGHT
 10
0.0
 20
0.0
 30
0.0
  9
$UCSORGFRONT
 10
0.0
 20
0.0
 30
0.0
  9
$UCSORGBACK
 10
0.0
 20
0.0
 30
0.0
  9
$PUCSBASE
  2

  9
$PUCSNAME
  2

  9
$PUCSORG
 10
0.0
 20
0.0
 30
0.0
  9
$PUCSXDIR
 10
1.0
 20
0.0
 30
0.0
  9
$PUCSYDIR
 10
0.0
 20
1.0
 30
0.0
  9
$PUCSORTHOREF
  2

  9
$PUCSORTHOVIEW
 70
     0
  9
$PUCSORGTOP
 10
0.0
 20
0.0
 30
0.0
  9
$PUCSORGBOTTOM
 10
0.0
 20
0.0
 30
0.0
  9
$PUCSORGLEFT
 10
0.0
 20
0.0
 30
0.0
  9
$PUCSORGRIGHT
 10
0.0
 20
0.0
 30
0.0
  9
$PUCSORGFRONT
 10
0.0
 20
0.0
 30
0.0
  9
$PUCSORGBACK
 10
0.0
 20
0.0
 30
0.0
  9
$USERI1
 70
     0
  9
$USERI2
 70
     0
  9
$USERI3
 70
     0
  9
$USERI4
 70
     0
  9
$USERI5
 70
     0
  9
$USERR1
 40
0.0
  9
$USERR2
 40
0.0
  9
$USERR3
 40
0.0
  9
$USERR4
 40
0.0
  9
$USERR5
 40
0.0
  9
$WORLDVIEW
 70
     1
  9
$SHADEDGE
 70
     3
  9
$SHADEDIF
 70
    70
  9
$TILEMODE
 70
     1
  9
$MAXACTVP
 70
    64
  9
$PINSBASE
 10
0.0
 20
0.0
 30
0.0
  9
$PLIMCHECK
 70
     0
  9
$PEXTMIN
 10
1.000000000000000E+20
 20
1.000000000000000E+20
 30
1.000000000000000E+20
  9
$PEXTMAX
 10
-1.000000000000000E+20
 20
-1.000000000000000E+20
 30
-1.000000000000000E+20
  9
$PLIMMIN
 10
0.0
 20
0.0
  9
$PLIMMAX
 10
420.0
 20
297.0
  9
$UNITMODE
 70
     0
  9
$VISRETAIN
 70
     1
  9
$PLINEGEN
 70
     0
  9
$PSLTSCALE
 70
     1
  9
$TREEDEPTH
 70
  3020
  9
$CMLSTYLE
  2
Standard
  9
$CMLJUST
 70
     0
  9
$CMLSCALE
 40
20.0
  9
$PROXYGRAPHICS
 70
     1
  9
$MEASUREMENT
 70
     1
  9
$CELWEIGHT
370
    -1
  9
$ENDCAPS
280
     0
  9
$JOINSTYLE
280
     0
  9
$LWDISPLAY
290
     0
  9
$INSUNITS
 70
     4
  9
$HYPERLINKBASE
  1

  9
$STYLESHEET
  1

  9
$XEDIT
290
     1
  9
$CEPSNTYPE
380
     0
  9
$PSTYLEMODE
290
     1
  9
$FINGERPRINTGUID
  2
{83EBBC25-F767-49EC-B758-92C1300D17A1}
  9
$VERSIONGUID
  2
{6471291F-27B9-42CB-A80C-8D8ECB13456A}
  9
$EXTNAMES
290
     1
  9
$PSVPSCALE
 40
0.0
  9
$OLESTARTUP
290
     0
  0
ENDSEC
  0
SECTION
  2
CLASSES
  0
CLASS
  1
ACDBDICTIONARYWDFLT
  2
AcDbDictionaryWithDefault
  3
ObjectDBX Classes
 90
        0
280
     0
281
     0
  0
CLASS
  1
VISUALSTYLE
  2
AcDbVisualStyle
  3
ObjectDBX Classes
 90
     4095
280
     0
281
     0
  0
CLASS
  1
MATERIAL
  2
AcDbMaterial
  3
ObjectDBX Classes
 90
     1153
280
     0
281
     0
  0
CLASS
  1
SCALE
  2
AcDbScale
  3
ObjectDBX Classes
 90
     1153
280
     0
281
     0
  0
CLASS
  1
TABLESTYLE
  2
AcDbTableStyle
  3
ObjectDBX Classes
 90
     4095
280
     0
281
     0
  0
CLASS
  1
MLEADERSTYLE
  2
AcDbMLeaderStyle
  3
ACDB_MLEADERSTYLE_CLASS
 90
     4095
280
     0
281
     0
  0
CLASS
  1
SUN
  2
AcDbSun
  3
SCENEOE
 90
    33921
280
     0
281
     0
  0
CLASS
  1
DICTIONARYVAR
  2
AcDbDictionaryVar
  3
ObjectDBX Classes
 90
        0
280
     0
281
     0
  0
CLASS
  1
ACDBSECTIONVIEWSTYLE
  2
AcDbSectionViewStyle
  3
ObjectDBX Classes
 90
     1025
280
     0
281
     0
  0
CLASS
  1
ACDBDETAILVIEWSTYLE
  2
AcDbDetailViewStyle
  3
ObjectDBX Classes
 90
     1025
280
     0
281
     0
  0
CLASS
  1
SORTENTSTABLE
  2
AcDbSortentsTable
  3
ObjectDBX Classes
 90
        0
280
     0
281
     0
  0
CLASS
  1
CELLSTYLEMAP
  2
AcDbCellStyleMap
  3
ObjectDBX Classes
 90
     1152
280
     0
281
     0
  0
CLASS
  1
ACDBPLACEHOLDER
  2
AcDbPlaceHolder
  3
ObjectDBX Classes
 90
        0
280
     0
281
     0
  0
CLASS
  1
LAYOUT
  2
AcDbLayout
  3
ObjectDBX Classes
 90
        0
280
     0
281
     0
  0
ENDSEC
  0
SECTION
  2
TABLES
  0
TABLE
  2
VPORT
  5
8
330
0
100
AcDbSymbolTable
 70
     1
  0
VPORT
  5
29
330
8
100
AcDbSymbolTableRecord
100
AcDbViewportTableRecord
  2
*Active
 70
     0
 10
0.0
 20
0.0
 11
1.0
 21
1.0
 12
1518.589486560618
 22
434.0092056162547
 13
0.0
 23
0.0
 14
10.0
 24
10.0
 15
10.0
 25
10.0
 16
0.0
 26
0.0
 36
1.0
 17
0.0
 27
0.0
 37
0.0
 40
1719.937553868054
 41
2.204301075268817
 42
50.0
 43
0.0
 44
0.0
 50
0.0
 51
0.0
 71
     0
 72
 20000
 73
     1
 74
     3
 75
     0
 76
     0
 77
     0
 78
     0
281
     0
 65
     1
110
0.0
120
0.0
130
0.0
111
1.0
121
0.0
131
0.0
112
0.0
122
1.0
132
0.0
 79
     0
146
0.0
1001
ACAD_NAV_VCDISPLAY
1070
     3
  0
ENDTAB
  0
TABLE
  2
LTYPE
  5
5
330
0
100
AcDbSymbolTable
 70
     2
  0
LTYPE
  5
14
330
5
100
AcDbSymbolTableRecord
100
AcDbLinetypeTableRecord
  2
ByBlock
 70
     0
  3

 72
    65
 73
     0
 40
0.0
  0
LTYPE
  5
15
330
5
100
AcDbSymbolTableRecord
100
AcDbLinetypeTableRecord
  2
ByLayer
 70
     0
  3

 72
    65
 73
     0
 40
0.0
  0
LTYPE
  5
16
330
5
100
AcDbSymbolTableRecord
100
AcDbLinetypeTableRecord
  2
Continuous
 70
     0
  3
Solid line
 72
    65
 73
     0
 40
0.0
  0
LTYPE
  5
2B6
330
5
100
AcDbSymbolTableRecord
100
AcDbLinetypeTableRecord
  2
CENTER2
 70
     0
  3
Center (.5x) ___ _ ___ _ ___ _ ___ _ ___ _ ___
 72
    65
 73
     4
 40
28.575
 49
19.05
 74
     0
 49
-3.174999999999998
 74
     0
 49
3.174999999999998
 74
     0
 49
-3.174999999999998
 74
     0
  0
ENDTAB
  0
TABLE
  2
LAYER
  5
2
102
{ACAD_XDICTIONARY
360
2BC
102
}
330
0
100
AcDbSymbolTable
 70
     4
  0
LAYER
  5
10
102
{ACAD_XDICTIONARY
360
7C9
102
}
330
2
100
AcDbSymbolTableRecord
100
AcDbLayerTableRecord
  2
0
 70
     0
 62
     7
  6
Continuous
370
    -3
390
F
  0
LAYER
  5
66
330
2
100
AcDbSymbolTableRecord
100
AcDbLayerTableRecord
  2
Defpoints
 70
     0
 62
     7
  6
Continuous
290
     0
370
    -3
390
F
  0
LAYER
  5
2B7
102
{ACAD_XDICTIONARY
360
2B8
102
}
330
2
100
AcDbSymbolTableRecord
100
AcDbLayerTableRecord
  2
中心線
 70
     0
 62
     3
  6
CENTER2
370
    -3
390
F
  0
LAYER
  5
2B9
102
{ACAD_XDICTIONARY
360
2BA
102
}
330
2
100
AcDbSymbolTableRecord
100
AcDbLayerTableRecord
  2
実線
 70
     0
 62
     7
  6
Continuous
370
    -3
390
F
  0
ENDTAB
  0
TABLE
  2
STYLE
  5
3
330
0
100
AcDbSymbolTable
 70
     1
  0
STYLE
  5
11
330
3
100
AcDbSymbolTableRecord
100
AcDbTextStyleTableRecord
  2
Standard
 70
     0
 40
0.0
 41
1.0
 50
0.0
 71
     0
 42
2.5
  3
txt
  4
extfont2
  0
ENDTAB
  0
TABLE
  2
VIEW
  5
6
330
0
100
AcDbSymbolTable
 70
     0
  0
ENDTAB
  0
TABLE
  2
UCS
  5
7
330
0
100
AcDbSymbolTable
 70
     0
  0
ENDTAB
  0
TABLE
  2
APPID
  5
9
330
0
100
AcDbSymbolTable
 70
     3
  0
APPID
  5
12
330
9
100
AcDbSymbolTableRecord
100
AcDbRegAppTableRecord
  2
ACAD
 70
     0
  0
APPID
  5
2A6
330
9
100
AcDbSymbolTableRecord
100
AcDbRegAppTableRecord
  2
ACAD_MLEADERVER
 70
     0
  0
APPID
  5
2BB
330
9
100
AcDbSymbolTableRecord
100
AcDbRegAppTableRecord
  2
ACAD_NAV_VCDISPLAY
 70
     0
  0
ENDTAB
  0
TABLE
  2
DIMSTYLE
  5
A
330
0
100
AcDbSymbolTable
 70
     1
100
AcDbDimStyleTable
 71
     1
340
27
  0
DIMSTYLE
105
27
330
A
100
AcDbSymbolTableRecord
100
AcDbDimStyleTableRecord
  2
Standard
 70
     0
 41
2.5
 42
0.625
 43
3.75
 44
1.25
 73
     0
 74
     0
 77
     1
140
2.5
141
2.5
143
0.03937007874016
146
0.75
147
0.625
171
     3
172
     1
271
     2
272
     2
274
     3
283
     0
284
     8
340
11
  0
ENDTAB
  0
TABLE
  2
BLOCK_RECORD
  5
1
330
0
100
AcDbSymbolTable
 70
     1
  0
BLOCK_RECORD
  5
1F
102
{ACAD_XDICTIONARY
360
5DE
102
}
330
1
100
AcDbSymbolTableRecord
100
AcDbBlockTableRecord
  2
*Model_Space
340
22
  0
BLOCK_RECORD
  5
1B
330
1
100
AcDbSymbolTableRecord
100
AcDbBlockTableRecord
  2
*Paper_Space
340
1E
  0
BLOCK_RECORD
  5
23
330
1
100
AcDbSymbolTableRecord
100
AcDbBlockTableRecord
  2
*Paper_Space0
340
2B0
  0
ENDTAB
  0
ENDSEC
  0
SECTION
  2
BLOCKS
  0
BLOCK
  5
20
330
1F
100
AcDbEntity
  8
0
100
AcDbBlockBegin
  2
*Model_Space
 70
     0
 10
0.0
 20
0.0
 30
0.0
  3
*Model_Space
  1

  0
ENDBLK
  5
21
330
1F
100
AcDbEntity
  8
0
100
AcDbBlockEnd
  0
BLOCK
  5
1C
330
1B
100
AcDbEntity
 67
     1
  8
0
100
AcDbBlockBegin
  2
*Paper_Space
 70
     0
 10
0.0
 20
0.0
 30
0.0
  3
*Paper_Space
  1

  0
ENDBLK
  5
1D
330
1B
100
AcDbEntity
 67
     1
  8
0
100
AcDbBlockEnd
  0
BLOCK
  5
24
330
23
100
AcDbEntity
 67
     1
  8
0
100
AcDbBlockBegin
  2
*Paper_Space0
 70
     0
 10
0.0
 20
0.0
 30
0.0
  3
*Paper_Space0
  1

  0
ENDBLK
  5
25
330
23
100
AcDbEntity
 67
     1
  8
0
100
AcDbBlockEnd
  0
ENDSEC
  0
SECTION
  2
ENTITIES
  0
ELLIPSE
  5
5B2
102
{ACAD_REACTORS
330
7C8
102
}
330
1F
100
AcDbEntity
  8
実線
100
AcDbEllipse
 10
404.7227296521948
 20
1121.942614433985
 30
0.0
 11
0.0
 21
31.75
 31
0.0
210
0.0
220
0.0
230
1.0
 40
0.7071067811865475
 41
0.0
 42
3.141592653589792
  0
LINE
  5
5B3
102
{ACAD_REACTORS
330
7C8
102
}
330
1F
100
AcDbEntity
  8
実線
100
AcDbLine
 10
423.6642513266128
 20
1153.692614433984
 30
0.0
 11
404.7227296521948
 21
1153.692614433984
 31
0.0
  0
LINE
  5
5B4
102
{ACAD_REACTORS
330
7C8
102
}
330
1F
100
AcDbEntity
  8
実線
100
AcDbLine
 10
455.3776205809684
 20
1153.692614433984
 30
0.0
 11
439.7372348331576
 21
1153.692614433984
 31
0.0
  0
LINE
  5
5B5
102
{ACAD_REACTORS
330
7C8
102
}
330
1F
100
AcDbEntity
  8
実線
100
AcDbLine
 10
439.7372348331576
 20
1090.192614433985
 30
0.0
 11
455.3776205809682
 21
1090.192614433985
 31
0.0
  0
LINE
  5
5B6
102
{ACAD_REACTORS
330
7C8
102
}
330
1F
100
AcDbEntity
  8
実線
100
AcDbLine
 10
404.7227296521948
 20
1090.192614433985
 30
0.0
 11
423.6642513266128
 21
1090.192614433985
 31
0.0
  0
ELLIPSE
  5
5B7
102
{ACAD_REACTORS
330
7C8
102
}
330
1F
100
AcDbEntity
  8
実線
100
AcDbEllipse
 10
390.2270406378708
 20
1121.942614433985
 30
0.0
 11
0.0000000000000036
 21
38.75
 31
0.0
210
0.0
220
0.0
230
1.0
 40
0.7071067811865475
 41
1.570796326794897
 42
3.141592653589792
  0
LINE
  5
5B8
102
{ACAD_REACTORS
330
7C8
102
}
330
1F
100
AcDbEntity
  8
実線
100
AcDbLine
 10
390.2270406378708
 20
1083.192614433984
 30
0.0
 11
392.7019143720236
 21
1083.192614433984
 31
0.0
  0
LINE
  5
5B9
102
{ACAD_REACTORS
330
7C8
102
}
330
1F
100
AcDbEntity
  8
実線
100
AcDbLine
 10
392.7019143720236
 20
1160.692614433985
 30
0.0
 11
390.2270406378708
 21
1160.692614433985
 31
0.0
  0
ELLIPSE
  5
5BA
102
{ACAD_REACTORS
330
7C8
102
}
330
1F
100
AcDbEntity
  8
実線
100
AcDbEllipse
 10
390.2270406378708
 20
1121.942614433985
 30
0.0
 11
0.0000000000000036
 21
38.75
 31
0.0
210
0.0
220
0.0
230
1.0
 40
0.7071067811865475
 41
0.0
 42
1.570796326794897
  0
ELLIPSE
  5
5BB
102
{ACAD_REACTORS
330
7C8
102
}
330
1F
100
AcDbEntity
  8
実線
100
AcDbEllipse
 10
392.7019143720236
 20
1121.942614433985
 30
0.0
 11
0.0000000000000036
 21
38.75
 31
0.0
210
0.0
220
0.0
230
1.0
 40
0.7071067811865475
 41
5.672673719580195
 42
6.283185307179584
  0
ELLIPSE
  5
5BC
102
{ACAD_REACTORS
330
7C8
102
}
330
1F
100
AcDbEntity
  8
実線
100
AcDbEllipse
 10
392.7019143720236
 20
1121.942614433985
 30
0.0
 11
0.0000000000000036
 21
38.75
 31
0.0
210
0.0
220
0.0
230
1.0
 40
0.7071067811865475
 41
3.141592653589792
 42
3.752104241189181
  0
ELLIPSE
  5
5BD
102
{ACAD_REACTORS
330
7C8
102
}
330
1F
100
AcDbEntity
  8
実線
100
AcDbEllipse
 10
392.7019143720236
 20
1121.942614433985
 30
0.0
 11
0.0000000000000036
 21
38.75
 31
0.0
210
0.0
220
0.0
230
1.0
 40
0.7071067811865475
 41
0.0
 42
1.570796326794897
  0
ELLIPSE
  5
5BE
102
{ACAD_REACTORS
330
7C8
102
}
330
1F
100
AcDbEntity
  8
実線
100
AcDbEllipse
 10
392.7019143720236
 20
1121.942614433985
 30
0.0
 11
0.0000000000000036
 21
38.75
 31
0.0
210
0.0
220
0.0
230
1.0
 40
0.7071067811865475
 41
1.570796326794897
 42
3.141592653589792
  0
ELLIPSE
  5
5BF
102
{ACAD_REACTORS
330
7C8
102
}
330
1F
100
AcDbEntity
  8
実線
100
AcDbEllipse
 10
394.8939453937019
 20
1121.942614433985
 30
0.0
 11
0.0
 21
31.75
 31
0.0
210
0.0
220
0.0
230
1.0
 40
0.7071067811865475
 41
1.570796326794897
 42
3.141592653589792
  0
LINE
  5
5C0
102
{ACAD_REACTORS
330
7C8
102
}
330
1F
100
AcDbEntity
  8
実線
100
AcDbLine
 10
394.8939453937019
 20
1090.192614433985
 30
0.0
 11
404.7227296521951
 21
1090.192614433985
 31
0.0
  0
LINE
  5
5C1
102
{ACAD_REACTORS
330
7C8
102
}
330
1F
100
AcDbEntity
  8
実線
100
AcDbLine
 10
404.7227296521951
 20
1153.692614433984
 30
0.0
 11
394.8939453937019
 21
1153.692614433984
 31
0.0
  0
ELLIPSE
  5
5C2
102
{ACAD_REACTORS
330
7C8
102
}
330
1F
100
AcDbEntity
  8
実線
100
AcDbEllipse
 10
394.8939453937019
 20
1121.942614433985
 30
0.0
 11
0.0
 21
31.75
 31
0.0
210
0.0
220
0.0
230
1.0
 40
0.7071067811865475
 41
0.0
 42
1.570796326794897
  0
ELLIPSE
  5
5C3
102
{ACAD_REACTORS
330
7C8
102
}
330
1F
100
AcDbEntity
  8
実線
100
AcDbEllipse
 10
404.7227296521951
 20
1121.942614433985
 30
0.0
 11
0.0
 21
31.75
 31
0.0
210
0.0
220
0.0
230
1.0
 40
0.7071067811865475
 41
0.0
 42
1.570796326794897
  0
ELLIPSE
  5
5C4
102
{ACAD_REACTORS
330
7C8
102
}
330
1F
100
AcDbEntity
  8
実線
100
AcDbEllipse
 10
404.7227296521951
 20
1121.942614433985
 30
0.0
 11
0.0
 21
31.75
 31
0.0
210
0.0
220
0.0
230
1.0
 40
0.7071067811865475
 41
1.570796326794897
 42
3.141592653589792
  0
LINE
  5
5C5
102
{ACAD_REACTORS
330
7C8
102
}
330
1F
100
AcDbEntity
  8
実線
100
AcDbLine
 10
641.5721295344333
 20
1176.624374832319
 30
0.0
 11
641.5721295344333
 21
1147.62437483232
 31
0.0
  0
LINE
  5
5C6
102
{ACAD_REACTORS
330
7C8
102
}
330
1F
100
AcDbEntity
  8
実線
100
AcDbLine
 10
627.0721295344332
 20
1162.12437483232
 30
0.0
 11
656.0721295344333
 21
1162.12437483232
 31
0.0
  0
CIRCLE
  5
5C7
102
{ACAD_REACTORS
330
7C8
102
}
330
1F
100
AcDbEntity
  8
実線
100
AcDbCircle
 10
641.5721295344333
 20
1162.12437483232
 30
0.0
 40
11.5
  0
LINE
  5
5C8
102
{ACAD_REACTORS
330
7C8
102
}
330
1F
100
AcDbEntity
  8
実線
100
AcDbLine
 10
641.5721295344333
 20
1096.260854035651
 30
0.0
 11
641.5721295344333
 21
1067.26085403565
 31
0.0
  0
LINE
  5
5C9
102
{ACAD_REACTORS
330
7C8
102
}
330
1F
100
AcDbEntity
  8
実線
100
AcDbLine
 10
627.0721295344332
 20
1081.76085403565
 30
0.0
 11
656.0721295344331
 21
1081.76085403565
 31
0.0
  0
CIRCLE
  5
5CA
102
{ACAD_REACTORS
330
7C8
102
}
330
1F
100
AcDbEntity
  8
実線
100
AcDbCircle
 10
641.5721295344333
 20
1081.76085403565
 30
0.0
 40
11.5
  0
LINE
  5
5CB
102
{ACAD_REACTORS
330
7C8
102
}
330
1F
100
AcDbEntity
  8
実線
100
AcDbLine
 10
584.7465390190826
 20
1039.4352635203
 30
0.0
 11
584.7465390190826
 21
1010.4352635203
 31
0.0
  0
LINE
  5
5CC
102
{ACAD_REACTORS
330
7C8
102
}
330
1F
100
AcDbEntity
  8
実線
100
AcDbLine
 10
570.2465390190825
 20
1024.9352635203
 30
0.0
 11
599.2465390190826
 21
1024.9352635203
 31
0.0
  0
CIRCLE
  5
5CD
102
{ACAD_REACTORS
330
7C8
102
}
330
1F
100
AcDbEntity
  8
実線
100
AcDbCircle
 10
584.7465390190826
 20
1024.9352635203
 30
0.0
 40
11.5
  0
LINE
  5
5CE
102
{ACAD_REACTORS
330
7C8
102
}
330
1F
100
AcDbEntity
  8
実線
100
AcDbLine
 10
504.3830182224137
 20
1039.4352635203
 30
0.0
 11
504.3830182224137
 21
1010.4352635203
 31
0.0
  0
LINE
  5
5CF
102
{ACAD_REACTORS
330
7C8
102
}
330
1F
100
AcDbEntity
  8
実線
100
AcDbLine
 10
489.8830182224137
 20
1024.9352635203
 30
0.0
 11
518.8830182224137
 21
1024.9352635203
 31
0.0
  0
CIRCLE
  5
5D0
102
{ACAD_REACTORS
330
7C8
102
}
330
1F
100
AcDbEntity
  8
実線
100
AcDbCircle
 10
504.3830182224137
 20
1024.9352635203
 30
0.0
 40
11.5
  0
LINE
  5
5D1
102
{ACAD_REACTORS
330
7C8
102
}
330
1F
100
AcDbEntity
  8
実線
100
AcDbLine
 10
447.5574277070632
 20
1096.260854035651
 30
0.0
 11
447.5574277070632
 21
1067.26085403565
 31
0.0
  0
LINE
  5
5D2
102
{ACAD_REACTORS
330
7C8
102
}
330
1F
100
AcDbEntity
  8
実線
100
AcDbLine
 10
433.0574277070631
 20
1081.76085403565
 30
0.0
 11
462.0574277070631
 21
1081.76085403565
 31
0.0
  0
CIRCLE
  5
5D3
102
{ACAD_REACTORS
330
7C8
102
}
330
1F
100
AcDbEntity
  8
実線
100
AcDbCircle
 10
447.5574277070632
 20
1081.76085403565
 30
0.0
 40
11.5
  0
LINE
  5
5D4
102
{ACAD_REACTORS
330
7C8
102
}
330
1F
100
AcDbEntity
  8
実線
100
AcDbLine
 10
447.5574277070631
 20
1176.624374832319
 30
0.0
 11
447.5574277070631
 21
1147.62437483232
 31
0.0
  0
LINE
  5
5D5
102
{ACAD_REACTORS
330
7C8
102
}
330
1F
100
AcDbEntity
  8
実線
100
AcDbLine
 10
433.0574277070631
 20
1162.12437483232
 30
0.0
 11
462.0574277070631
 21
1162.12437483232
 31
0.0
  0
CIRCLE
  5
5D6
102
{ACAD_REACTORS
330
7C8
102
}
330
1F
100
AcDbEntity
  8
実線
100
AcDbCircle
 10
447.5574277070631
 20
1162.12437483232
 30
0.0
 40
11.5
  0
LINE
  5
5D7
102
{ACAD_REACTORS
330
7C8
102
}
330
1F
100
AcDbEntity
  8
実線
100
AcDbLine
 10
504.3830182224137
 20
1233.44996534767
 30
0.0
 11
504.3830182224137
 21
1204.44996534767
 31
0.0
  0
LINE
  5
5D8
102
{ACAD_REACTORS
330
7C8
102
}
330
1F
100
AcDbEntity
  8
実線
100
AcDbLine
 10
489.8830182224137
 20
1218.94996534767
 30
0.0
 11
518.8830182224137
 21
1218.94996534767
 31
0.0
  0
CIRCLE
  5
5D9
102
{ACAD_REACTORS
330
7C8
102
}
330
1F
100
AcDbEntity
  8
実線
100
AcDbCircle
 10
504.3830182224137
 20
1218.94996534767
 30
0.0
 40
11.5
  0
LINE
  5
5DA
102
{ACAD_REACTORS
330
7C8
102
}
330
1F
100
AcDbEntity
  8
実線
100
AcDbLine
 10
584.7465390190826
 20
1233.44996534767
 30
0.0
 11
584.7465390190826
 21
1204.44996534767
 31
0.0
  0
LINE
  5
5DB
102
{ACAD_REACTORS
330
7C8
102
}
330
1F
100
AcDbEntity
  8
実線
100
AcDbLine
 10
570.2465390190825
 20
1218.94996534767
 30
0.0
 11
599.2465390190826
 21
1218.94996534767
 31
0.0
  0
CIRCLE
  5
5DC
102
{ACAD_REACTORS
330
7C8
102
}
330
1F
100
AcDbEntity
  8
実線
100
AcDbCircle
 10
584.7465390190826
 20
1218.94996534767
 30
0.0
 40
11.5
  0
CIRCLE
  5
5DD
102
{ACAD_REACTORS
330
7C8
102
}
330
1F
100
AcDbEntity
  8
実線
100
AcDbCircle
 10
544.5647786207481
 20
1121.942614433985
 30
0.0
 40
125.0
  0
CIRCLE
  5
5E0
102
{ACAD_REACTORS
330
7C3
102
}
330
1F
100
AcDbEntity
  8
実線
100
AcDbCircle
 10
544.5647786207482
 20
161.9426144339847
 30
0.0
 40
46.0
  0
LINE
  5
5E1
102
{ACAD_REACTORS
330
7C3
102
}
330
1F
100
AcDbEntity
  8
実線
100
AcDbLine
 10
539.5647786207482
 20
148.8426144339847
 30
0.0
 11
539.5647786207482
 21
140.9426144339849
 31
0.0
  0
LINE
  5
5E2
102
{ACAD_REACTORS
330
7C3
102
}
330
1F
100
AcDbEntity
  8
実線
100
AcDbLine
 10
539.5647786207482
 20
148.8426144339847
 30
0.0
 11
564.5647786207482
 21
148.8426144339847
 31
0.0
  0
LINE
  5
5E3
102
{ACAD_REACTORS
330
7C3
102
}
330
1F
100
AcDbEntity
  8
実線
100
AcDbLine
 10
564.5647786207482
 20
140.9426144339849
 30
0.0
 11
564.5647786207482
 21
148.8426144339847
 31
0.0
  0
LINE
  5
5E4
102
{ACAD_REACTORS
330
7C3
102
}
330
1F
100
AcDbEntity
  8
実線
100
AcDbLine
 10
559.5647786207482
 20
140.9426144339849
 30
0.0
 11
564.5647786207482
 21
140.9426144339849
 31
0.0
  0
ARC
  5
5E5
102
{ACAD_REACTORS
330
7C3
102
}
330
1F
100
AcDbEntity
  8
実線
100
AcDbCircle
 10
544.5647786207482
 20
161.9426144339847
 30
0.0
 40
25.0
100
AcDbArc
 50
233.1301023541533
 51
293.0739180656323
  0
LINE
  5
5E6
102
{ACAD_REACTORS
330
7C3
102
}
330
1F
100
AcDbEntity
  8
実線
100
AcDbLine
 10
564.5647786207482
 20
143.3926144339849
 30
0.0
 11
571.0647786207482
 21
143.3926144339849
 31
0.0
  0
LINE
  5
5E7
102
{ACAD_REACTORS
330
7C3
102
}
330
1F
100
AcDbEntity
  8
実線
100
AcDbLine
 10
571.0647786207482
 20
146.3926144339847
 30
0.0
 11
564.5647786207482
 21
146.3926144339847
 31
0.0
  0
LINE
  5
5E8
102
{ACAD_REACTORS
330
7C3
102
}
330
1F
100
AcDbEntity
  8
実線
100
AcDbLine
 10
571.0647786207482
 20
143.3926144339849
 30
0.0
 11
571.0647786207482
 21
146.3926144339847
 31
0.0
  0
CIRCLE
  5
5E9
102
{ACAD_REACTORS
330
7C3
102
}
330
1F
100
AcDbEntity
  8
実線
100
AcDbCircle
 10
544.5647786207482
 20
161.9426144339847
 30
0.0
 40
12.5
  0
CIRCLE
  5
5EA
102
{ACAD_REACTORS
330
7C3
102
}
330
1F
100
AcDbEntity
  8
実線
100
AcDbCircle
 10
544.5647786207482
 20
161.9426144339847
 30
0.0
 40
7.5
  0
LINE
  5
5EB
102
{ACAD_REACTORS
330
7C3
102
}
330
1F
100
AcDbEntity
  8
実線
100
AcDbLine
 10
408.4101924444288
 20
130.1926144339847
 30
0.0
 11
476.5647786207482
 21
130.1926144339847
 31
0.0
  0
LINE
  5
5EC
102
{ACAD_REACTORS
330
7C3
102
}
330
1F
100
AcDbEntity
  8
実線
100
AcDbLine
 10
476.5647786207482
 20
193.6926144339847
 30
0.0
 11
408.4101924444288
 21
193.6926144339847
 31
0.0
  0
ELLIPSE
  5
5ED
102
{ACAD_REACTORS
330
7C3
102
}
330
1F
100
AcDbEntity
  8
実線
100
AcDbEllipse
 10
404.7227296521949
 20
161.9426144339846
 30
0.0
 11
0.0
 21
31.75
 31
0.0
210
0.0
220
0.0
230
1.0
 40
0.7071067811865475
 41
3.332183988541411
 42
6.092593972227968
  0
LINE
  5
5EE
102
{ACAD_REACTORS
330
7C3
102
}
330
1F
100
AcDbEntity
  8
実線
100
AcDbLine
 10
476.5647786207482
 20
136.7980325126246
 30
0.0
 11
476.5647786207482
 21
130.1926144339847
 31
0.0
  0
ELLIPSE
  5
5EF
102
{ACAD_REACTORS
330
7C3
102
}
330
1F
100
AcDbEntity
  8
実線
100
AcDbEllipse
 10
404.7227296521952
 20
161.9426144339846
 30
0.0
 11
0.0
 21
31.75
 31
0.0
210
0.0
220
0.0
230
1.0
 40
0.7071067811865475
 41
3.332183988541407
 42
6.092593972227969
  0
LINE
  5
5F0
102
{ACAD_REACTORS
330
7C3
102
}
330
1F
100
AcDbEntity
  8
実線
100
AcDbLine
 10
390.2270406378709
 20
123.1926144339846
 30
0.0
 11
392.7019143720237
 21
123.1926144339846
 31
0.0
  0
LINE
  5
5F1
102
{ACAD_REACTORS
330
7C3
102
}
330
1F
100
AcDbEntity
  8
実線
100
AcDbLine
 10
392.7019143720237
 20
200.6926144339845
 30
0.0
 11
390.2270406378709
 21
200.6926144339845
 31
0.0
  0
ELLIPSE
  5
5F2
102
{ACAD_REACTORS
330
7C3
102
}
330
1F
100
AcDbEntity
  8
実線
100
AcDbEllipse
 10
390.2270406378709
 20
161.9426144339846
 30
0.0
 11
0.0000000000000036
 21
38.75
 31
0.0
210
0.0
220
0.0
230
1.0
 40
0.7071067811865475
 41
3.141592653589792
 42
6.283185307179584
  0
ELLIPSE
  5
5F3
102
{ACAD_REACTORS
330
7C3
102
}
330
1F
100
AcDbEntity
  8
実線
100
AcDbEllipse
 10
390.2270406378709
 20
161.9426144339846
 30
0.0
 11
0.0000000000000036
 21
38.75
 31
0.0
210
0.0
220
0.0
230
1.0
 40
0.7071067811865475
 41
1.570796326794897
 42
3.141592653589792
  0
ELLIPSE
  5
5F4
102
{ACAD_REACTORS
330
7C3
102
}
330
1F
100
AcDbEntity
  8
実線
100
AcDbEllipse
 10
392.7019143720237
 20
161.9426144339846
 30
0.0
 11
0.0000000000000036
 21
38.75
 31
0.0
210
0.0
220
0.0
230
1.0
 40
0.7071067811865475
 41
3.141592653589792
 42
6.283185307179584
  0
ELLIPSE
  5
5F5
102
{ACAD_REACTORS
330
7C3
102
}
330
1F
100
AcDbEntity
  8
実線
100
AcDbEllipse
 10
390.2270406378709
 20
161.9426144339846
 30
0.0
 11
0.0000000000000036
 21
38.75
 31
0.0
210
0.0
220
0.0
230
1.0
 40
0.7071067811865475
 41
0.0
 42
1.570796326794897
  0
LINE
  5
5F6
102
{ACAD_REACTORS
330
7C3
102
}
330
1F
100
AcDbEntity
  8
実線
100
AcDbLine
 10
479.3866572915781
 20
193.6926144339847
 30
0.0
 11
476.5647786207482
 21
193.6926144339847
 31
0.0
  0
LINE
  5
5F7
102
{ACAD_REACTORS
330
7C3
102
}
330
1F
100
AcDbEntity
  8
実線
100
AcDbLine
 10
476.5647786207482
 20
130.1926144339847
 30
0.0
 11
479.3866572915783
 21
130.1926144339847
 31
0.0
  0
LINE
  5
5F8
102
{ACAD_REACTORS
330
7C3
102
}
330
1F
100
AcDbEntity
  8
実線
100
AcDbLine
 10
476.5647786207482
 20
193.6926144339847
 30
0.0
 11
476.5647786207482
 21
187.0871963553451
 31
0.0
  0
LINE
  5
5F9
102
{ACAD_REACTORS
330
7C3
102
}
330
1F
100
AcDbEntity
  8
実線
100
AcDbLine
 10
587.0101637557925
 20
102.9714048132561
 30
0.0
 11
586.8728753209762
 21
103.0675352102236
 31
0.0
  0
ARC
  5
5FA
102
{ACAD_REACTORS
330
7C3
102
}
330
1F
100
AcDbEntity
  8
実線
100
AcDbCircle
 10
493.7850894429094
 20
210.1237639325394
 30
0.0
 40
10.0
100
AcDbArc
 50
136.5041419820548
 51
214.9999999999974
  0
LINE
  5
5FB
102
{ACAD_REACTORS
330
7C3
102
}
330
1F
100
AcDbEntity
  8
実線
100
AcDbLine
 10
502.2566819205204
 20
103.0675352102236
 30
0.0
 11
502.119393485704
 21
102.9714048132561
 31
0.0
  0
ARC
  5
5FC
102
{ACAD_REACTORS
330
7C3
102
}
330
1F
100
AcDbEntity
  8
実線
100
AcDbCircle
 10
496.3836291221936
 20
212.7223036118236
 30
0.0
 40
10.00000000000038
100
AcDbArc
 50
55.00000000000264
 51
133.4958580179405
  0
LINE
  5
5FD
102
{ACAD_REACTORS
330
7C3
102
}
330
1F
100
AcDbEntity
  8
実線
100
AcDbLine
 10
502.1193934857043
 20
220.9138240547138
 30
0.0
 11
502.2566819205207
 21
220.8176936577463
 31
0.0
  0
ARC
  5
5FE
102
{ACAD_REACTORS
330
7C3
102
}
330
1F
100
AcDbEntity
  8
実線
100
AcDbCircle
 10
592.7459281193031
 20
111.1629252561461
 30
0.0
 40
10.00000000000002
100
AcDbArc
 50
235.0000000000026
 51
313.4958580179406
  0
LINE
  5
5FF
102
{ACAD_REACTORS
330
7C3
102
}
330
1F
100
AcDbEntity
  8
実線
100
AcDbLine
 10
586.8728753209762
 20
220.8176936577462
 30
0.0
 11
587.0101637557925
 21
220.9138240547135
 31
0.0
  0
ARC
  5
600
102
{ACAD_REACTORS
330
7C3
102
}
330
1F
100
AcDbEntity
  8
実線
100
AcDbCircle
 10
496.3836291221936
 20
111.1629252561459
 30
0.0
 40
9.999999999999991
100
AcDbArc
 50
226.5041419820594
 51
304.9999999999974
  0
ARC
  5
601
102
{ACAD_REACTORS
330
7C3
102
}
330
1F
100
AcDbEntity
  8
実線
100
AcDbCircle
 10
544.5647786207482
 20
161.9426144339846
 30
0.0
 40
79.99999999999984
100
AcDbArc
 50
223.4958580179451
 51
226.5041419820594
  0
ARC
  5
602
102
{ACAD_REACTORS
330
7C3
102
}
330
1F
100
AcDbEntity
  8
実線
100
AcDbCircle
 10
493.7850894429094
 20
113.76146493543
 30
0.0
 40
9.999999999999976
100
AcDbArc
 50
145.0000000000026
 51
223.4958580179451
  0
LINE
  5
603
102
{ACAD_REACTORS
330
7C3
102
}
330
1F
100
AcDbEntity
  8
実線
100
AcDbLine
 10
485.5935690000197
 20
119.4972292989405
 30
0.0
 11
485.689699396987
 21
119.6345177337569
 31
0.0
  0
LINE
  5
604
102
{ACAD_REACTORS
330
7C3
102
}
330
1F
100
AcDbEntity
  8
実線
100
AcDbLine
 10
485.689699396987
 20
204.2507111342126
 30
0.0
 11
485.5935690000195
 21
204.3879995690289
 31
0.0
  0
ARC
  5
605
102
{ACAD_REACTORS
330
7C3
102
}
330
1F
100
AcDbEntity
  8
実線
100
AcDbCircle
 10
595.3444677985872
 20
210.1237639325396
 30
0.0
 40
9.999999999999591
100
AcDbArc
 50
325.0000000000026
 51
43.49585801794513
  0
ARC
  5
606
102
{ACAD_REACTORS
330
7C3
102
}
330
1F
100
AcDbEntity
  8
実線
100
AcDbCircle
 10
544.564778620749
 20
161.942614433995
 30
0.0
 40
79.99999999999343
100
AcDbArc
 50
133.4958580179497
 51
136.5041419820594
  0
LINE
  5
607
102
{ACAD_REACTORS
330
7C3
102
}
330
1F
100
AcDbEntity
  8
実線
100
AcDbLine
 10
603.4398578445095
 20
119.6345177337569
 30
0.0
 11
603.5359882414771
 21
119.4972292989405
 31
0.0
  0
ARC
  5
608
102
{ACAD_REACTORS
330
7C3
102
}
330
1F
100
AcDbEntity
  8
実線
100
AcDbCircle
 10
595.3444677985872
 20
113.76146493543
 30
0.0
 40
9.999999999999996
100
AcDbArc
 50
316.5041419820549
 51
34.99999999999737
  0
ARC
  5
609
102
{ACAD_REACTORS
330
7C3
102
}
330
1F
100
AcDbEntity
  8
実線
100
AcDbCircle
 10
544.5647786207485
 20
161.9426144339846
 30
0.0
 40
79.9999999999998
100
AcDbArc
 50
313.4958580179406
 51
316.5041419820549
  0
ARC
  5
60A
102
{ACAD_REACTORS
330
7C3
102
}
330
1F
100
AcDbEntity
  8
実線
100
AcDbCircle
 10
544.5647786207481
 20
161.942614433995
 30
0.0
 40
79.99999999999268
100
AcDbArc
 50
43.49585801794053
 51
46.50414198205026
  0
LINE
  5
60B
102
{ACAD_REACTORS
330
7C3
102
}
330
1F
100
AcDbEntity
  8
実線
100
AcDbLine
 10
603.5359882414767
 20
204.3879995690293
 30
0.0
 11
603.4398578445094
 21
204.250711134213
 31
0.0
  0
ARC
  5
60C
102
{ACAD_REACTORS
330
7C3
102
}
330
1F
100
AcDbEntity
  8
実線
100
AcDbCircle
 10
592.7459281193027
 20
212.7223036118236
 30
0.0
 40
9.999999999999982
100
AcDbArc
 50
46.50414198205946
 51
124.9999999999974
  0
ARC
  5
60D
102
{ACAD_REACTORS
330
7C3
102
}
330
1F
100
AcDbEntity
  8
実線
100
AcDbCircle
 10
544.5647786207482
 20
161.9426144339847
 30
0.0
 40
25.0
100
AcDbArc
 50
323.1301023541579
 51
233.1301023541533
  0
LINE
  5
60E
102
{ACAD_REACTORS
330
7C3
102
}
330
1F
100
AcDbEntity
  8
実線
100
AcDbLine
 10
529.5647786207482
 20
141.9426144339849
 30
0.0
 11
539.5647786207482
 21
141.9426144339849
 31
0.0
  0
LINE
  5
60F
102
{ACAD_REACTORS
330
7C3
102
}
330
1F
100
AcDbEntity
  8
実線
100
AcDbLine
 10
539.5647786207482
 20
138.9426144339849
 30
0.0
 11
539.5647786207482
 21
140.9426144339849
 31
0.0
  0
LINE
  5
610
102
{ACAD_REACTORS
330
7C3
102
}
330
1F
100
AcDbEntity
  8
実線
100
AcDbLine
 10
559.5647786207482
 20
138.9426144339849
 30
0.0
 11
539.5647786207482
 21
138.9426144339849
 31
0.0
  0
LINE
  5
611
102
{ACAD_REACTORS
330
7C3
102
}
330
1F
100
AcDbEntity
  8
実線
100
AcDbLine
 10
559.5647786207482
 20
140.9426144339849
 30
0.0
 11
559.5647786207482
 21
138.9426144339849
 31
0.0
  0
LINE
  5
612
102
{ACAD_REACTORS
330
7C3
102
}
330
1F
100
AcDbEntity
  8
実線
100
AcDbLine
 10
539.5647786207482
 20
140.9426144339849
 30
0.0
 11
559.5647786207482
 21
140.9426144339849
 31
0.0
  0
LINE
  5
613
102
{ACAD_REACTORS
330
7C3
102
}
330
1F
100
AcDbEntity
  8
実線
100
AcDbLine
 10
447.5574277070633
 20
216.6243748323189
 30
0.0
 11
447.5574277070633
 21
187.6243748323189
 31
0.0
  0
LINE
  5
614
102
{ACAD_REACTORS
330
7C3
102
}
330
1F
100
AcDbEntity
  8
実線
100
AcDbLine
 10
433.0574277070633
 20
202.1243748323189
 30
0.0
 11
462.0574277070633
 21
202.1243748323189
 31
0.0
  0
ARC
  5
615
102
{ACAD_REACTORS
330
7C3
102
}
330
1F
100
AcDbEntity
  8
実線
100
AcDbCircle
 10
447.5574277070633
 20
202.1243748323189
 30
0.0
 40
11.5
100
AcDbArc
 50
312.8449536528919
 51
227.155046347108
  0
LINE
  5
616
102
{ACAD_REACTORS
330
7C3
102
}
330
1F
100
AcDbEntity
  8
実線
100
AcDbLine
 10
641.5721295344334
 20
136.2608540356502
 30
0.0
 11
641.5721295344334
 21
107.2608540356502
 31
0.0
  0
LINE
  5
617
102
{ACAD_REACTORS
330
7C3
102
}
330
1F
100
AcDbEntity
  8
実線
100
AcDbLine
 10
627.0721295344334
 20
121.7608540356502
 30
0.0
 11
656.0721295344334
 21
121.7608540356502
 31
0.0
  0
CIRCLE
  5
618
102
{ACAD_REACTORS
330
7C3
102
}
330
1F
100
AcDbEntity
  8
実線
100
AcDbCircle
 10
641.5721295344334
 20
121.7608540356502
 30
0.0
 40
11.5
  0
LINE
  5
619
102
{ACAD_REACTORS
330
7C3
102
}
330
1F
100
AcDbEntity
  8
実線
100
AcDbLine
 10
641.5721295344334
 20
216.6243748323189
 30
0.0
 11
641.5721295344334
 21
187.6243748323189
 31
0.0
  0
LINE
  5
61A
102
{ACAD_REACTORS
330
7C3
102
}
330
1F
100
AcDbEntity
  8
実線
100
AcDbLine
 10
627.0721295344334
 20
202.1243748323189
 30
0.0
 11
656.0721295344332
 21
202.1243748323189
 31
0.0
  0
CIRCLE
  5
61B
102
{ACAD_REACTORS
330
7C3
102
}
330
1F
100
AcDbEntity
  8
実線
100
AcDbCircle
 10
641.5721295344334
 20
202.1243748323189
 30
0.0
 40
11.5
  0
LINE
  5
61C
102
{ACAD_REACTORS
330
7C3
102
}
330
1F
100
AcDbEntity
  8
実線
100
AcDbLine
 10
584.7465390190827
 20
273.4499653476696
 30
0.0
 11
584.7465390190827
 21
244.4499653476696
 31
0.0
  0
LINE
  5
61D
102
{ACAD_REACTORS
330
7C3
102
}
330
1F
100
AcDbEntity
  8
実線
100
AcDbLine
 10
570.2465390190826
 20
258.9499653476697
 30
0.0
 11
599.2465390190828
 21
258.9499653476697
 31
0.0
  0
CIRCLE
  5
61E
102
{ACAD_REACTORS
330
7C3
102
}
330
1F
100
AcDbEntity
  8
実線
100
AcDbCircle
 10
584.7465390190827
 20
258.9499653476697
 30
0.0
 40
11.5
  0
LINE
  5
61F
102
{ACAD_REACTORS
330
7C3
102
}
330
1F
100
AcDbEntity
  8
実線
100
AcDbLine
 10
504.3830182224138
 20
273.4499653476696
 30
0.0
 11
504.3830182224138
 21
244.4499653476696
 31
0.0
  0
LINE
  5
620
102
{ACAD_REACTORS
330
7C3
102
}
330
1F
100
AcDbEntity
  8
実線
100
AcDbLine
 10
489.8830182224138
 20
258.9499653476697
 30
0.0
 11
518.8830182224138
 21
258.9499653476697
 31
0.0
  0
CIRCLE
  5
621
102
{ACAD_REACTORS
330
7C3
102
}
330
1F
100
AcDbEntity
  8
実線
100
AcDbCircle
 10
504.3830182224138
 20
258.9499653476697
 30
0.0
 40
11.5
  0
LINE
  5
622
102
{ACAD_REACTORS
330
7C3
102
}
330
1F
100
AcDbEntity
  8
実線
100
AcDbLine
 10
447.5574277070632
 20
136.2608540356502
 30
0.0
 11
447.5574277070632
 21
107.2608540356502
 31
0.0
  0
LINE
  5
623
102
{ACAD_REACTORS
330
7C3
102
}
330
1F
100
AcDbEntity
  8
実線
100
AcDbLine
 10
433.0574277070633
 20
121.7608540356502
 30
0.0
 11
462.0574277070633
 21
121.7608540356502
 31
0.0
  0
ARC
  5
624
102
{ACAD_REACTORS
330
7C3
102
}
330
1F
100
AcDbEntity
  8
実線
100
AcDbCircle
 10
447.5574277070632
 20
121.7608540356502
 30
0.0
 40
11.5
100
AcDbArc
 50
132.8449536528897
 51
47.15504634710803
  0
LINE
  5
625
102
{ACAD_REACTORS
330
7C3
102
}
330
1F
100
AcDbEntity
  8
実線
100
AcDbLine
 10
504.3830182224138
 20
79.4352635202996
 30
0.0
 11
504.3830182224138
 21
50.4352635202996
 31
0.0
  0
LINE
  5
626
102
{ACAD_REACTORS
330
7C3
102
}
330
1F
100
AcDbEntity
  8
実線
100
AcDbLine
 10
489.8830182224138
 20
64.93526352029959
 30
0.0
 11
518.8830182224138
 21
64.93526352029959
 31
0.0
  0
CIRCLE
  5
627
102
{ACAD_REACTORS
330
7C3
102
}
330
1F
100
AcDbEntity
  8
実線
100
AcDbCircle
 10
504.3830182224138
 20
64.93526352029959
 30
0.0
 40
11.5
  0
LINE
  5
628
102
{ACAD_REACTORS
330
7C3
102
}
330
1F
100
AcDbEntity
  8
実線
100
AcDbLine
 10
584.7465390190827
 20
79.4352635202996
 30
0.0
 11
584.7465390190827
 21
50.4352635202996
 31
0.0
  0
LINE
  5
629
102
{ACAD_REACTORS
330
7C3
102
}
330
1F
100
AcDbEntity
  8
実線
100
AcDbLine
 10
570.2465390190826
 20
64.93526352029959
 30
0.0
 11
599.2465390190828
 21
64.93526352029959
 31
0.0
  0
CIRCLE
  5
62A
102
{ACAD_REACTORS
330
7C3
102
}
330
1F
100
AcDbEntity
  8
実線
100
AcDbCircle
 10
584.7465390190827
 20
64.93526352029959
 30
0.0
 40
11.5
  0
ARC
  5
62B
102
{ACAD_REACTORS
330
7C3
102
}
330
1F
100
AcDbEntity
  8
実線
100
AcDbCircle
 10
544.5647786207482
 20
161.9426144339846
 30
0.0
 40
125.0
100
AcDbArc
 50
194.7143385418119
 51
165.2856614581881
  0
CIRCLE
  5
62C
102
{ACAD_REACTORS
330
7C3
102
}
330
1F
100
AcDbEntity
  8
実線
100
AcDbCircle
 10
544.5647786207482
 20
161.9426144339847
 30
0.0
 40
72.5
  0
LINE
  5
62D
102
{ACAD_REACTORS
330
7C4
102
}
330
1F
100
AcDbEntity
  8
実線
100
AcDbLine
 10
1218.564778620748
 20
485.2426144339854
 30
0.0
 11
1218.564778620748
 21
475.2426144339856
 31
0.0
  0
LINE
  5
62E
102
{ACAD_REACTORS
330
7C4
102
}
330
1F
100
AcDbEntity
  8
実線
100
AcDbLine
 10
1310.564778620748
 20
475.2426144339856
 30
0.0
 11
1310.564778620748
 21
485.2426144339854
 31
0.0
  0
LINE
  5
62F
102
{ACAD_REACTORS
330
7C4
102
}
330
1F
100
AcDbEntity
  8
実線
100
AcDbLine
 10
1218.564778620748
 20
475.2426144339856
 30
0.0
 11
1310.564778620748
 21
475.2426144339856
 31
0.0
  0
LINE
  5
630
102
{ACAD_REACTORS
330
7C4
102
}
330
1F
100
AcDbEntity
  8
実線
100
AcDbLine
 10
1272.564778620748
 20
437.7426144339856
 30
0.0
 11
1272.564778620748
 21
468.2426144339854
 31
0.0
  0
LINE
  5
631
102
{ACAD_REACTORS
330
7C4
102
}
330
1F
100
AcDbEntity
  8
実線
100
AcDbLine
 10
1249.564778620748
 20
439.1926144339855
 30
0.0
 11
1244.564778620748
 21
439.1926144339855
 31
0.0
  0
LINE
  5
632
102
{ACAD_REACTORS
330
7C4
102
}
330
1F
100
AcDbEntity
  8
実線
100
AcDbLine
 10
1244.564778620748
 20
439.1926144339855
 30
0.0
 11
1244.564778620748
 21
431.2926144339854
 31
0.0
  0
LINE
  5
633
102
{ACAD_REACTORS
330
7C4
102
}
330
1F
100
AcDbEntity
  8
実線
100
AcDbLine
 10
1249.564778620748
 20
431.2926144339854
 30
0.0
 11
1244.564778620748
 21
431.2926144339854
 31
0.0
  0
LINE
  5
634
102
{ACAD_REACTORS
330
7C4
102
}
330
1F
100
AcDbEntity
  8
実線
100
AcDbLine
 10
1239.564778620748
 20
475.2426144339856
 30
0.0
 11
1239.564778620748
 21
470.2426144339856
 31
0.0
  0
LINE
  5
635
102
{ACAD_REACTORS
330
7C4
102
}
330
1F
100
AcDbEntity
  8
実線
100
AcDbLine
 10
1289.564778620748
 20
470.2426144339856
 30
0.0
 11
1289.564778620748
 21
475.2426144339856
 31
0.0
  0
LINE
  5
636
102
{ACAD_REACTORS
330
7C4
102
}
330
1F
100
AcDbEntity
  8
実線
100
AcDbLine
 10
1289.564778620748
 20
470.2426144339856
 30
0.0
 11
1254.766819649615
 21
470.2426144339856
 31
0.0
  0
LINE
  5
637
102
{ACAD_REACTORS
330
7C4
102
}
330
1F
100
AcDbEntity
  8
実線
100
AcDbLine
 10
1244.564778620748
 20
436.7426144339856
 30
0.0
 11
1238.064778620748
 21
436.7426144339856
 31
0.0
  0
LINE
  5
638
102
{ACAD_REACTORS
330
7C4
102
}
330
1F
100
AcDbEntity
  8
実線
100
AcDbLine
 10
1238.064778620748
 20
433.7426144339856
 30
0.0
 11
1244.564778620748
 21
433.7426144339856
 31
0.0
  0
LINE
  5
639
102
{ACAD_REACTORS
330
7C4
102
}
330
1F
100
AcDbEntity
  8
実線
100
AcDbLine
 10
1238.064778620748
 20
436.7426144339856
 30
0.0
 11
1238.064778620748
 21
433.7426144339856
 31
0.0
  0
LINE
  5
63A
102
{ACAD_REACTORS
330
7C4
102
}
330
1F
100
AcDbEntity
  8
実線
100
AcDbLine
 10
1249.564778620748
 20
447.2926144339854
 30
0.0
 11
1244.564778620748
 21
447.2926144339854
 31
0.0
  0
LINE
  5
63B
102
{ACAD_REACTORS
330
7C4
102
}
330
1F
100
AcDbEntity
  8
実線
100
AcDbLine
 10
1249.564778620748
 20
455.1926144339855
 30
0.0
 11
1244.564778620748
 21
455.1926144339855
 31
0.0
  0
LINE
  5
63C
102
{ACAD_REACTORS
330
7C4
102
}
330
1F
100
AcDbEntity
  8
実線
100
AcDbLine
 10
1244.564778620748
 20
455.1926144339855
 30
0.0
 11
1244.564778620748
 21
447.2926144339854
 31
0.0
  0
LINE
  5
63D
102
{ACAD_REACTORS
330
7C4
102
}
330
1F
100
AcDbEntity
  8
実線
100
AcDbLine
 10
1244.564778620748
 20
452.7426144339856
 30
0.0
 11
1238.064778620748
 21
452.7426144339856
 31
0.0
  0
LINE
  5
63E
102
{ACAD_REACTORS
330
7C4
102
}
330
1F
100
AcDbEntity
  8
実線
100
AcDbLine
 10
1238.064778620748
 20
449.7426144339856
 30
0.0
 11
1244.564778620748
 21
449.7426144339856
 31
0.0
  0
LINE
  5
63F
102
{ACAD_REACTORS
330
7C4
102
}
330
1F
100
AcDbEntity
  8
実線
100
AcDbLine
 10
1238.064778620748
 20
452.7426144339856
 30
0.0
 11
1238.064778620748
 21
449.7426144339856
 31
0.0
  0
LINE
  5
640
102
{ACAD_REACTORS
330
7C4
102
}
330
1F
100
AcDbEntity
  8
実線
100
AcDbLine
 10
1277.064778620748
 20
432.7426144339856
 30
0.0
 11
1277.064778620748
 21
437.7426144339856
 31
0.0
  0
LINE
  5
641
102
{ACAD_REACTORS
330
7C4
102
}
330
1F
100
AcDbEntity
  8
実線
100
AcDbLine
 10
1269.564778620748
 20
432.7426144339856
 30
0.0
 11
1277.064778620748
 21
432.7426144339856
 31
0.0
  0
LINE
  5
642
102
{ACAD_REACTORS
330
7C4
102
}
330
1F
100
AcDbEntity
  8
実線
100
AcDbLine
 10
1269.564778620748
 20
437.7426144339856
 30
0.0
 11
1277.064778620748
 21
437.7426144339856
 31
0.0
  0
LINE
  5
643
102
{ACAD_REACTORS
330
7C4
102
}
330
1F
100
AcDbEntity
  8
実線
100
AcDbLine
 10
1257.064778620748
 20
430.2426144339854
 30
0.0
 11
1257.064778620748
 21
427.4426144339855
 31
0.0
  0
LINE
  5
644
102
{ACAD_REACTORS
330
7C4
102
}
330
1F
100
AcDbEntity
  8
実線
100
AcDbLine
 10
1272.064778620748
 20
427.4426144339855
 30
0.0
 11
1272.064778620748
 21
432.7426144339856
 31
0.0
  0
LINE
  5
645
102
{ACAD_REACTORS
330
7C4
102
}
330
1F
100
AcDbEntity
  8
実線
100
AcDbLine
 10
1257.064778620748
 20
427.4426144339855
 30
0.0
 11
1272.064778620748
 21
427.4426144339855
 31
0.0
  0
LINE
  5
646
102
{ACAD_REACTORS
330
7C4
102
}
330
1F
100
AcDbEntity
  8
実線
100
AcDbLine
 10
1197.064778620748
 20
593.2426144339854
 30
0.0
 11
1332.064778620748
 21
593.2426144339854
 31
0.0
  0
LINE
  5
647
102
{ACAD_REACTORS
330
7C4
102
}
330
1F
100
AcDbEntity
  8
実線
100
AcDbLine
 10
1197.064778620748
 20
593.2426144339854
 30
0.0
 11
1197.064778620748
 21
591.2426144339856
 31
0.0
  0
LINE
  5
648
102
{ACAD_REACTORS
330
7C4
102
}
330
1F
100
AcDbEntity
  8
実線
100
AcDbLine
 10
1332.064778620748
 20
591.2426144339856
 30
0.0
 11
1332.064778620748
 21
593.2426144339854
 31
0.0
  0
LINE
  5
649
102
{ACAD_REACTORS
330
7C4
102
}
330
1F
100
AcDbEntity
  8
実線
100
AcDbLine
 10
1256.564778620748
 20
696.1985178853872
 30
0.0
 11
1256.564778620748
 21
658.2426144339856
 31
0.0
  0
LINE
  5
64A
102
{ACAD_REACTORS
330
7C4
102
}
330
1F
100
AcDbEntity
  8
実線
100
AcDbLine
 10
1272.564778620748
 20
658.2426144339856
 30
0.0
 11
1272.564778620748
 21
696.1985178853872
 31
0.0
  0
LINE
  5
64B
102
{ACAD_REACTORS
330
7C4
102
}
330
1F
100
AcDbEntity
  8
実線
100
AcDbLine
 10
1332.564778620748
 20
781.9926144339856
 30
0.0
 11
1332.564778620748
 21
718.4926144339854
 31
0.0
  0
ARC
  5
64C
102
{ACAD_REACTORS
330
7C4
102
}
330
1F
100
AcDbEntity
  8
実線
100
AcDbCircle
 10
1332.564778620748
 20
648.6426144339856
 30
0.0
 40
133.35
100
AcDbArc
 50
44.99999999999539
 51
90.0
  0
ARC
  5
64D
102
{ACAD_REACTORS
330
7C4
102
}
330
1F
100
AcDbEntity
  8
実線
100
AcDbCircle
 10
1332.564778620748
 20
648.6426144339856
 30
0.0
 40
69.84999999999999
100
AcDbArc
 50
44.99999999999539
 51
90.0
  0
LINE
  5
64E
102
{ACAD_REACTORS
330
7C4
102
}
330
1F
100
AcDbEntity
  8
実線
100
AcDbLine
 10
1313.564778620748
 20
792.942614433985
 30
0.0
 11
1313.564778620748
 21
801.9426144339849
 31
0.0
  0
LINE
  5
64F
102
{ACAD_REACTORS
330
7C4
102
}
330
1F
100
AcDbEntity
  8
実線
100
AcDbLine
 10
1215.564778620748
 20
801.9426144339858
 30
0.0
 11
1215.564778620748
 21
792.9426144339859
 31
0.0
  0
LINE
  5
650
102
{ACAD_REACTORS
330
7C4
102
}
330
1F
100
AcDbEntity
  8
実線
100
AcDbLine
 10
1222.564778620748
 20
786.2426144339847
 30
0.0
 11
1306.564778620748
 21
786.2426144339847
 31
0.0
  0
LINE
  5
651
102
{ACAD_REACTORS
330
7C4
102
}
330
1F
100
AcDbEntity
  8
実線
100
AcDbLine
 10
1215.564778620748
 20
792.942614433985
 30
0.0
 11
1313.564778620748
 21
792.942614433985
 31
0.0
  0
LINE
  5
652
102
{ACAD_REACTORS
330
7C4
102
}
330
1F
100
AcDbEntity
  8
実線
100
AcDbLine
 10
1306.564778620748
 20
786.2426144339847
 30
0.0
 11
1313.564778620748
 21
792.942614433985
 31
0.0
  0
LINE
  5
653
102
{ACAD_REACTORS
330
7C4
102
}
330
1F
100
AcDbEntity
  8
実線
100
AcDbLine
 10
1215.564778620748
 20
792.942614433985
 30
0.0
 11
1222.564778620748
 21
786.2426144339847
 31
0.0
  0
LINE
  5
654
102
{ACAD_REACTORS
330
7C4
102
}
330
1F
100
AcDbEntity
  8
実線
100
AcDbLine
 10
1436.686252150467
 20
733.1065194467186
 30
0.0
 11
1426.857467891974
 21
742.9353037052118
 31
0.0
  0
LINE
  5
655
102
{ACAD_REACTORS
330
7C4
102
}
330
1F
100
AcDbEntity
  8
実線
100
AcDbLine
 10
1381.956187286628
 20
698.0340230998661
 30
0.0
 11
1391.784971545121
 21
688.2052388413728
 31
0.0
  0
LINE
  5
656
102
{ACAD_REACTORS
330
7C4
102
}
330
1F
100
AcDbEntity
  8
実線
100
AcDbLine
 10
1426.857467891974
 20
742.9353037052118
 30
0.0
 11
1381.956187286628
 21
698.0340230998658
 31
0.0
  0
LINE
  5
657
102
{ACAD_REACTORS
330
7C4
102
}
330
1F
100
AcDbEntity
  8
実線
100
AcDbLine
 10
1446.302904374604
 20
733.3893621591928
 30
0.0
 11
1443.828030640451
 21
735.8642358933458
 31
0.0
  0
LINE
  5
658
102
{ACAD_REACTORS
330
7C4
102
}
330
1F
100
AcDbEntity
  8
実線
100
AcDbLine
 10
1389.027255098494
 20
681.0634603513888
 30
0.0
 11
1391.502128832647
 21
678.5885866172359
 31
0.0
  0
LINE
  5
659
102
{ACAD_REACTORS
330
7C4
102
}
330
1F
100
AcDbEntity
  8
実線
100
AcDbLine
 10
1446.302904374604
 20
733.3893621591928
 30
0.0
 11
1391.502128832647
 21
678.5885866172359
 31
0.0
  0
LINE
  5
65A
102
{ACAD_REACTORS
330
7C4
102
}
330
1F
100
AcDbEntity
  8
実線
100
AcDbLine
 10
1391.784971545121
 20
688.2052388413728
 30
0.0
 11
1389.027255098494
 21
681.0634603513888
 31
0.0
  0
LINE
  5
65B
102
{ACAD_REACTORS
330
7C4
102
}
330
1F
100
AcDbEntity
  8
実線
100
AcDbLine
 10
1443.828030640451
 20
735.8642358933458
 30
0.0
 11
1436.686252150467
 21
733.1065194467186
 31
0.0
  0
LINE
  5
65C
102
{ACAD_REACTORS
330
7C4
102
}
330
1F
100
AcDbEntity
  8
実線
100
AcDbLine
 10
1389.027255098494
 20
681.0634603513888
 30
0.0
 11
1443.828030640451
 21
735.8642358933458
 31
0.0
  0
LINE
  5
65D
102
{ACAD_REACTORS
330
7C4
102
}
330
1F
100
AcDbEntity
  8
実線
100
AcDbLine
 10
1391.784971545121
 20
688.2052388413728
 30
0.0
 11
1436.686252150467
 21
733.1065194467186
 31
0.0
  0
LINE
  5
65E
102
{ACAD_REACTORS
330
7C4
102
}
330
1F
100
AcDbEntity
  8
実線
100
AcDbLine
 10
1325.344467798587
 20
718.4926144339854
 30
0.0
 11
1332.564778620748
 21
718.4926144339854
 31
0.0
  0
LINE
  5
65F
102
{ACAD_REACTORS
330
7C4
102
}
330
1F
100
AcDbEntity
  8
実線
100
AcDbLine
 10
1332.564778620748
 20
781.9926144339856
 30
0.0
 11
1314.424681935234
 21
781.9926144339856
 31
0.0
  0
LINE
  5
660
102
{ACAD_REACTORS
330
7C4
102
}
330
1F
100
AcDbEntity
  8
実線
100
AcDbLine
 10
1192.064778620748
 20
591.2426144339856
 30
0.0
 11
1337.064778620748
 21
591.2426144339856
 31
0.0
  0
LINE
  5
661
102
{ACAD_REACTORS
330
7C4
102
}
330
1F
100
AcDbEntity
  8
実線
100
AcDbLine
 10
1192.064778620748
 20
591.2426144339856
 30
0.0
 11
1192.064778620748
 21
490.2426144339856
 31
0.0
  0
LINE
  5
662
102
{ACAD_REACTORS
330
7C4
102
}
330
1F
100
AcDbEntity
  8
実線
100
AcDbLine
 10
1337.064778620748
 20
490.2426144339856
 30
0.0
 11
1337.064778620748
 21
591.2426144339856
 31
0.0
  0
LINE
  5
663
102
{ACAD_REACTORS
330
7C4
102
}
330
1F
100
AcDbEntity
  8
実線
100
AcDbLine
 10
1192.064778620748
 20
490.2426144339856
 30
0.0
 11
1337.064778620748
 21
490.2426144339856
 31
0.0
  0
LINE
  5
664
102
{ACAD_REACTORS
330
7C4
102
}
330
1F
100
AcDbEntity
  8
実線
100
AcDbLine
 10
1325.344467798587
 20
696.2426144339856
 30
0.0
 11
1203.785089442909
 21
696.2426144339856
 31
0.0
  0
LINE
  5
665
102
{ACAD_REACTORS
330
7C4
102
}
330
1F
100
AcDbEntity
  8
実線
100
AcDbLine
 10
1325.344467798587
 20
709.7426144339856
 30
0.0
 11
1203.785089442909
 21
709.7426144339856
 31
0.0
  0
LINE
  5
666
102
{ACAD_REACTORS
330
7C4
102
}
330
1F
100
AcDbEntity
  8
実線
100
AcDbLine
 10
1203.785089442909
 20
709.7426144339856
 30
0.0
 11
1203.785089442909
 21
696.2426144339856
 31
0.0
  0
LINE
  5
667
102
{ACAD_REACTORS
330
7C4
102
}
330
1F
100
AcDbEntity
  8
実線
100
AcDbLine
 10
1325.344467798587
 20
696.2426144339856
 30
0.0
 11
1325.344467798587
 21
709.7426144339856
 31
0.0
  0
LINE
  5
668
102
{ACAD_REACTORS
330
7C4
102
}
330
1F
100
AcDbEntity
  8
実線
100
AcDbLine
 10
1237.754806470807
 20
709.7426144339856
 30
0.0
 11
1237.754806470807
 21
696.2426144339856
 31
0.0
  0
LINE
  5
669
102
{ACAD_REACTORS
330
7C4
102
}
330
1F
100
AcDbEntity
  8
実線
100
AcDbLine
 10
1291.374750770689
 20
709.7426144339856
 30
0.0
 11
1291.374750770689
 21
696.2426144339856
 31
0.0
  0
LINE
  5
66A
102
{ACAD_REACTORS
330
7C4
102
}
330
1F
100
AcDbEntity
  8
実線
100
AcDbLine
 10
1269.564778620748
 20
468.2426144339854
 30
0.0
 11
1289.564778620748
 21
468.2426144339854
 31
0.0
  0
LINE
  5
66B
102
{ACAD_REACTORS
330
7C4
102
}
330
1F
100
AcDbEntity
  8
実線
100
AcDbLine
 10
1239.564778620748
 20
470.2426144339856
 30
0.0
 11
1254.766819649615
 21
470.2426144339856
 31
0.0
  0
LINE
  5
66C
102
{ACAD_REACTORS
330
7C4
102
}
330
1F
100
AcDbEntity
  8
実線
100
AcDbLine
 10
1279.564778620748
 20
468.2426144339854
 30
0.0
 11
1279.564778620748
 21
470.2426144339856
 31
0.0
  0
LINE
  5
66D
102
{ACAD_REACTORS
330
7C4
102
}
330
1F
100
AcDbEntity
  8
実線
100
AcDbLine
 10
1239.564778620748
 20
470.2426144339856
 30
0.0
 11
1239.564778620748
 21
468.2426144339854
 31
0.0
  0
LINE
  5
66E
102
{ACAD_REACTORS
330
7C4
102
}
330
1F
100
AcDbEntity
  8
実線
100
AcDbLine
 10
1289.564778620748
 20
468.2426144339854
 30
0.0
 11
1289.564778620748
 21
470.2426144339856
 31
0.0
  0
LINE
  5
66F
102
{ACAD_REACTORS
330
7C4
102
}
330
1F
100
AcDbEntity
  8
実線
100
AcDbLine
 10
1239.564778620748
 20
468.2426144339854
 30
0.0
 11
1249.564778620748
 21
468.2426144340326
 31
0.0
  0
LINE
  5
670
102
{ACAD_REACTORS
330
7C4
102
}
330
1F
100
AcDbEntity
  8
実線
100
AcDbLine
 10
1249.564778620748
 20
430.2426144339854
 30
0.0
 11
1269.564778620748
 21
430.2426144339854
 31
0.0
  0
LINE
  5
671
102
{ACAD_REACTORS
330
7C4
102
}
330
1F
100
AcDbEntity
  8
実線
100
AcDbLine
 10
1269.564778620748
 20
470.2426144339856
 30
0.0
 11
1269.564778620748
 21
430.2426144339854
 31
0.0
  0
LINE
  5
672
102
{ACAD_REACTORS
330
7C4
102
}
330
1F
100
AcDbEntity
  8
実線
100
AcDbLine
 10
1249.564778620748
 20
470.2426144339856
 30
0.0
 11
1249.564778620748
 21
430.2426144339854
 31
0.0
  0
ARC
  5
673
102
{ACAD_REACTORS
330
7C4
102
}
330
1F
100
AcDbEntity
  8
実線
100
AcDbCircle
 10
1269.264778620748
 20
644.7426144339856
 30
0.0
 40
53.0
100
AcDbArc
 50
103.663908996946
 51
165.2431843936698
  0
ARC
  5
674
102
{ACAD_REACTORS
330
7C4
102
}
330
1F
100
AcDbEntity
  8
実線
100
AcDbCircle
 10
1269.264778620748
 20
644.7426144339856
 30
0.0
 40
66.99999999999993
100
AcDbArc
 50
129.7665840691688
 51
180.0
  0
LINE
  5
675
102
{ACAD_REACTORS
330
7C4
102
}
330
1F
100
AcDbEntity
  8
実線
100
AcDbLine
 10
1202.264778620748
 20
593.2426144339854
 30
0.0
 11
1202.264778620748
 21
644.7426144339856
 31
0.0
  0
ARC
  5
676
102
{ACAD_REACTORS
330
7C4
102
}
330
1F
100
AcDbEntity
  8
実線
100
AcDbCircle
 10
1259.864778620748
 20
644.7426144339856
 30
0.0
 40
53.0
100
AcDbArc
 50
14.75681560633013
 51
76.33609100305395
  0
LINE
  5
677
102
{ACAD_REACTORS
330
7C4
102
}
330
1F
100
AcDbEntity
  8
実線
100
AcDbLine
 10
1326.864778620748
 20
593.2426144339854
 30
0.0
 11
1326.864778620748
 21
644.7426144339856
 31
0.0
  0
ARC
  5
678
102
{ACAD_REACTORS
330
7C4
102
}
330
1F
100
AcDbEntity
  8
実線
100
AcDbCircle
 10
1259.864778620748
 20
644.7426144339856
 30
0.0
 40
66.99999999999993
100
AcDbArc
 50
0.0
 51
50.23341593083122
  0
LINE
  5
679
102
{ACAD_REACTORS
330
7C4
102
}
330
1F
100
AcDbEntity
  8
実線
100
AcDbLine
 10
1312.707794729006
 20
658.2426144339856
 30
0.0
 11
1216.42176251249
 21
658.2426144339856
 31
0.0
  0
LINE
  5
67A
102
{ACAD_REACTORS
330
7C4
102
}
330
1F
100
AcDbEntity
  8
実線
100
AcDbLine
 10
1312.707794729006
 20
658.2426144339856
 30
0.0
 11
1312.707794729006
 21
593.2426144339854
 31
0.0
  0
LINE
  5
67B
102
{ACAD_REACTORS
330
7C4
102
}
330
1F
100
AcDbEntity
  8
実線
100
AcDbLine
 10
1216.42176251249
 20
593.2426144339854
 30
0.0
 11
1216.42176251249
 21
658.2426144339856
 31
0.0
  0
ARC
  5
67C
102
{ACAD_REACTORS
330
7C4
102
}
330
1F
100
AcDbEntity
  8
実線
100
AcDbCircle
 10
1303.564778620748
 20
770.2426144339847
 30
0.0
 40
16.0
100
AcDbArc
 50
47.2544307753415
 51
90.0
  0
ARC
  5
67D
102
{ACAD_REACTORS
330
7C4
102
}
330
1F
100
AcDbEntity
  8
実線
100
AcDbCircle
 10
1225.564778620748
 20
770.2426144339847
 30
0.0
 40
16.0
100
AcDbArc
 50
90.0
 51
180.0
  0
LINE
  5
67E
102
{ACAD_REACTORS
330
7C4
102
}
330
1F
100
AcDbEntity
  8
実線
100
AcDbLine
 10
1209.564778620748
 20
770.2426144339847
 30
0.0
 11
1209.564778620748
 21
724.7426144339854
 31
0.0
  0
LINE
  5
67F
102
{ACAD_REACTORS
330
7C4
102
}
330
1F
100
AcDbEntity
  8
実線
100
AcDbLine
 10
1325.344467798586
 20
724.7426144339854
 30
0.0
 11
1291.374750770689
 21
724.7426144339854
 31
0.0
  0
LINE
  5
680
102
{ACAD_REACTORS
330
7C4
102
}
330
1F
100
AcDbEntity
  8
実線
100
AcDbLine
 10
1325.344467798586
 20
709.7426144339856
 30
0.0
 11
1325.344467798586
 21
724.7426144339854
 31
0.0
  0
LINE
  5
681
102
{ACAD_REACTORS
330
7C4
102
}
330
1F
100
AcDbEntity
  8
実線
100
AcDbLine
 10
1203.785089442909
 20
724.7426144339854
 30
0.0
 11
1203.785089442909
 21
709.7426144339856
 31
0.0
  0
LINE
  5
682
102
{ACAD_REACTORS
330
7C4
102
}
330
1F
100
AcDbEntity
  8
実線
100
AcDbLine
 10
1203.785089442909
 20
724.7426144339854
 30
0.0
 11
1237.754806470807
 21
724.7426144339854
 31
0.0
  0
LINE
  5
683
102
{ACAD_REACTORS
330
7C4
102
}
330
1F
100
AcDbEntity
  8
実線
100
AcDbLine
 10
1291.374750770689
 20
724.7426144339854
 30
0.0
 11
1291.374750770689
 21
709.7426144339856
 31
0.0
  0
LINE
  5
684
102
{ACAD_REACTORS
330
7C4
102
}
330
1F
100
AcDbEntity
  8
実線
100
AcDbLine
 10
1237.754806470807
 20
724.7426144339854
 30
0.0
 11
1237.754806470807
 21
709.7426144339856
 31
0.0
  0
LINE
  5
685
102
{ACAD_REACTORS
330
7C4
102
}
330
1F
100
AcDbEntity
  8
実線
100
AcDbLine
 10
1389.564778620748
 20
801.9426144339858
 30
0.0
 11
1139.564778620748
 21
801.9426144339858
 31
0.0
  0
LINE
  5
686
102
{ACAD_REACTORS
330
7C4
102
}
330
1F
100
AcDbEntity
  8
実線
100
AcDbLine
 10
1389.564778620748
 20
801.9426144339858
 30
0.0
 11
1389.564778620748
 21
821.942614433985
 31
0.0
  0
LINE
  5
687
102
{ACAD_REACTORS
330
7C4
102
}
330
1F
100
AcDbEntity
  8
実線
100
AcDbLine
 10
1139.564778620748
 20
821.942614433985
 30
0.0
 11
1139.564778620748
 21
801.9426144339858
 31
0.0
  0
LINE
  5
688
102
{ACAD_REACTORS
330
7C4
102
}
330
1F
100
AcDbEntity
  8
実線
100
AcDbLine
 10
1389.564778620748
 20
821.942614433985
 30
0.0
 11
1139.564778620748
 21
821.942614433985
 31
0.0
  0
LINE
  5
689
102
{ACAD_REACTORS
330
7C4
102
}
330
1F
100
AcDbEntity
  8
実線
100
AcDbLine
 10
1195.064778620748
 20
485.2426144339854
 30
0.0
 11
1334.064778620748
 21
485.2426144339854
 31
0.0
  0
ARC
  5
68A
102
{ACAD_REACTORS
330
7C4
102
}
330
1F
100
AcDbEntity
  8
実線
100
AcDbCircle
 10
1195.064778620748
 20
488.2426144339856
 30
0.0
 40
3.0
100
AcDbArc
 50
180.0
 51
270.0
  0
ARC
  5
68B
102
{ACAD_REACTORS
330
7C4
102
}
330
1F
100
AcDbEntity
  8
実線
100
AcDbCircle
 10
1334.064778620748
 20
488.2426144339856
 30
0.0
 40
3.0
100
AcDbArc
 50
270.0
 51
0.0
  0
LINE
  5
68C
102
{ACAD_REACTORS
330
7C4
102
}
330
1F
100
AcDbEntity
  8
実線
100
AcDbLine
 10
1192.064778620748
 20
490.2426144339856
 30
0.0
 11
1192.064778620748
 21
488.2426144339856
 31
0.0
  0
LINE
  5
68D
102
{ACAD_REACTORS
330
7C4
102
}
330
1F
100
AcDbEntity
  8
実線
100
AcDbLine
 10
1337.064778620748
 20
488.2426144339856
 30
0.0
 11
1337.064778620748
 21
490.2426144339856
 31
0.0
  0
LINE
  5
68E
102
{ACAD_REACTORS
330
7C5
102
}
330
1F
100
AcDbEntity
  8
実線
100
AcDbLine
 10
858.5647786207482
 20
475.2426144339855
 30
0.0
 11
950.5647786207482
 21
475.2426144339855
 31
0.0
  0
LINE
  5
68F
102
{ACAD_REACTORS
330
7C5
102
}
330
1F
100
AcDbEntity
  8
実線
100
AcDbLine
 10
858.5647786207482
 20
485.2426144339853
 30
0.0
 11
858.5647786207482
 21
475.2426144339855
 31
0.0
  0
LINE
  5
690
102
{ACAD_REACTORS
330
7C5
102
}
330
1F
100
AcDbEntity
  8
実線
100
AcDbLine
 10
950.5647786207482
 20
475.2426144339855
 30
0.0
 11
950.5647786207482
 21
485.2426144339853
 31
0.0
  0
LINE
  5
691
102
{ACAD_REACTORS
330
7C5
102
}
330
1F
100
AcDbEntity
  8
実線
100
AcDbLine
 10
896.5647786207481
 20
468.2426144339853
 30
0.0
 11
896.5647786207481
 21
437.7426144339855
 31
0.0
  0
LINE
  5
692
102
{ACAD_REACTORS
330
7C5
102
}
330
1F
100
AcDbEntity
  8
実線
100
AcDbLine
 10
912.5647786207482
 20
437.7426144339855
 30
0.0
 11
912.5647786207482
 21
468.2426144339853
 31
0.0
  0
LINE
  5
693
102
{ACAD_REACTORS
330
7C5
102
}
330
1F
100
AcDbEntity
  8
実線
100
AcDbLine
 10
925.5647786207482
 20
439.1926144339854
 30
0.0
 11
925.5647786207482
 21
431.2926144339853
 31
0.0
  0
LINE
  5
694
102
{ACAD_REACTORS
330
7C5
102
}
330
1F
100
AcDbEntity
  8
実線
100
AcDbLine
 10
917.6647786207482
 20
431.2926144339853
 30
0.0
 11
917.6647786207482
 21
439.1926144339854
 31
0.0
  0
LINE
  5
695
102
{ACAD_REACTORS
330
7C5
102
}
330
1F
100
AcDbEntity
  8
実線
100
AcDbLine
 10
925.5647786207482
 20
431.2926144339853
 30
0.0
 11
917.6647786207482
 21
431.2926144339853
 31
0.0
  0
LINE
  5
696
102
{ACAD_REACTORS
330
7C5
102
}
330
1F
100
AcDbEntity
  8
実線
100
AcDbLine
 10
917.6647786207482
 20
439.1926144339854
 30
0.0
 11
925.5647786207482
 21
439.1926144339854
 31
0.0
  0
LINE
  5
697
102
{ACAD_REACTORS
330
7C5
102
}
330
1F
100
AcDbEntity
  8
実線
100
AcDbLine
 10
927.5647786207482
 20
470.2426144339855
 30
0.0
 11
929.5647786207481
 21
470.2426144339855
 31
0.0
  0
LINE
  5
698
102
{ACAD_REACTORS
330
7C5
102
}
330
1F
100
AcDbEntity
  8
実線
100
AcDbLine
 10
879.5647786207481
 20
475.2426144339855
 30
0.0
 11
879.5647786207481
 21
470.2426144339855
 31
0.0
  0
LINE
  5
699
102
{ACAD_REACTORS
330
7C5
102
}
330
1F
100
AcDbEntity
  8
実線
100
AcDbLine
 10
929.5647786207481
 20
470.2426144339855
 30
0.0
 11
929.5647786207481
 21
475.2426144339855
 31
0.0
  0
CIRCLE
  5
69A
102
{ACAD_REACTORS
330
7C5
102
}
330
1F
100
AcDbEntity
  8
実線
100
AcDbCircle
 10
921.6147786207482
 20
435.2426144339853
 30
0.0
 40
1.5
  0
LINE
  5
69B
102
{ACAD_REACTORS
330
7C5
102
}
330
1F
100
AcDbEntity
  8
実線
100
AcDbLine
 10
917.6647786207482
 20
455.1926144339854
 30
0.0
 11
925.5647786207482
 21
455.1926144339854
 31
0.0
  0
LINE
  5
69C
102
{ACAD_REACTORS
330
7C5
102
}
330
1F
100
AcDbEntity
  8
実線
100
AcDbLine
 10
925.5647786207482
 20
447.2926144339854
 30
0.0
 11
917.6647786207482
 21
447.2926144339854
 31
0.0
  0
LINE
  5
69D
102
{ACAD_REACTORS
330
7C5
102
}
330
1F
100
AcDbEntity
  8
実線
100
AcDbLine
 10
925.5647786207482
 20
455.1926144339854
 30
0.0
 11
925.5647786207482
 21
447.2926144339854
 31
0.0
  0
LINE
  5
69E
102
{ACAD_REACTORS
330
7C5
102
}
330
1F
100
AcDbEntity
  8
実線
100
AcDbLine
 10
917.6647786207482
 20
447.2926144339854
 30
0.0
 11
917.6647786207482
 21
455.1926144339854
 31
0.0
  0
CIRCLE
  5
69F
102
{ACAD_REACTORS
330
7C5
102
}
330
1F
100
AcDbEntity
  8
実線
100
AcDbCircle
 10
921.6147786207482
 20
451.2426144339853
 30
0.0
 40
1.5
  0
LINE
  5
6A0
102
{ACAD_REACTORS
330
7C5
102
}
330
1F
100
AcDbEntity
  8
実線
100
AcDbLine
 10
892.0647786207481
 20
432.7426144339855
 30
0.0
 11
917.0647786207481
 21
432.7426144339855
 31
0.0
  0
LINE
  5
6A1
102
{ACAD_REACTORS
330
7C5
102
}
330
1F
100
AcDbEntity
  8
実線
100
AcDbLine
 10
917.0647786207481
 20
437.7426144339855
 30
0.0
 11
892.0647786207481
 21
437.7426144339855
 31
0.0
  0
LINE
  5
6A2
102
{ACAD_REACTORS
330
7C5
102
}
330
1F
100
AcDbEntity
  8
実線
100
AcDbLine
 10
892.0647786207481
 20
437.7426144339855
 30
0.0
 11
892.0647786207481
 21
432.7426144339855
 31
0.0
  0
LINE
  5
6A3
102
{ACAD_REACTORS
330
7C5
102
}
330
1F
100
AcDbEntity
  8
実線
100
AcDbLine
 10
917.0647786207481
 20
432.7426144339855
 30
0.0
 11
917.0647786207481
 21
437.7426144339855
 31
0.0
  0
LINE
  5
6A4
102
{ACAD_REACTORS
330
7C5
102
}
330
1F
100
AcDbEntity
  8
実線
100
AcDbLine
 10
897.0647786207482
 20
427.4426144339854
 30
0.0
 11
912.0647786207483
 21
427.4426144339854
 31
0.0
  0
LINE
  5
6A5
102
{ACAD_REACTORS
330
7C5
102
}
330
1F
100
AcDbEntity
  8
実線
100
AcDbLine
 10
897.0647786207482
 20
432.7426144339855
 30
0.0
 11
897.0647786207482
 21
427.4426144339854
 31
0.0
  0
LINE
  5
6A6
102
{ACAD_REACTORS
330
7C5
102
}
330
1F
100
AcDbEntity
  8
実線
100
AcDbLine
 10
912.0647786207483
 20
427.4426144339854
 30
0.0
 11
912.0647786207483
 21
432.7426144339855
 31
0.0
  0
LINE
  5
6A7
102
{ACAD_REACTORS
330
7C5
102
}
330
1F
100
AcDbEntity
  8
実線
100
AcDbLine
 10
972.0647786207482
 20
593.2426144339853
 30
0.0
 11
837.0647786207483
 21
593.2426144339853
 31
0.0
  0
LINE
  5
6A8
102
{ACAD_REACTORS
330
7C5
102
}
330
1F
100
AcDbEntity
  8
実線
100
AcDbLine
 10
837.0647786207483
 20
593.2426144339853
 30
0.0
 11
837.0647786207483
 21
591.2426144339855
 31
0.0
  0
LINE
  5
6A9
102
{ACAD_REACTORS
330
7C5
102
}
330
1F
100
AcDbEntity
  8
実線
100
AcDbLine
 10
972.0647786207482
 20
591.2426144339855
 30
0.0
 11
972.0647786207482
 21
593.2426144339853
 31
0.0
  0
LINE
  5
6AA
102
{ACAD_REACTORS
330
7C5
102
}
330
1F
100
AcDbEntity
  8
実線
100
AcDbLine
 10
953.5647786207482
 20
792.9426144339847
 30
0.0
 11
953.5647786207482
 21
801.9426144339847
 31
0.0
  0
LINE
  5
6AB
102
{ACAD_REACTORS
330
7C5
102
}
330
1F
100
AcDbEntity
  8
実線
100
AcDbLine
 10
855.5647786207483
 20
801.9426144339856
 30
0.0
 11
855.5647786207483
 21
792.9426144339856
 31
0.0
  0
LINE
  5
6AC
102
{ACAD_REACTORS
330
7C5
102
}
330
1F
100
AcDbEntity
  8
実線
100
AcDbLine
 10
946.5647786207481
 20
786.2426144339847
 30
0.0
 11
862.5647786207482
 21
786.2426144339847
 31
0.0
  0
LINE
  5
6AD
102
{ACAD_REACTORS
330
7C5
102
}
330
1F
100
AcDbEntity
  8
実線
100
AcDbLine
 10
953.5647786207482
 20
792.9426144339847
 30
0.0
 11
855.5647786207483
 21
792.9426144339847
 31
0.0
  0
LINE
  5
6AE
102
{ACAD_REACTORS
330
7C5
102
}
330
1F
100
AcDbEntity
  8
実線
100
AcDbLine
 10
946.5647786207481
 20
786.2426144339847
 30
0.0
 11
953.5647786207482
 21
792.9426144339847
 31
0.0
  0
LINE
  5
6AF
102
{ACAD_REACTORS
330
7C5
102
}
330
1F
100
AcDbEntity
  8
実線
100
AcDbLine
 10
855.5647786207483
 20
792.9426144339847
 30
0.0
 11
862.5647786207482
 21
786.2426144339847
 31
0.0
  0
ELLIPSE
  5
6B0
102
{ACAD_REACTORS
330
7C5
102
}
330
1F
100
AcDbEntity
  8
実線
100
AcDbEllipse
 10
904.5647786207481
 20
705.9889743882145
 30
0.0
 11
38.75
 21
0.0
 31
0.0
210
0.0
220
0.0
230
1.0
 40
0.7071067811865476
 41
5.068238828558799
 42
5.919520722159436
  0
ELLIPSE
  5
6B1
102
{ACAD_REACTORS
330
7C5
102
}
330
1F
100
AcDbEntity
  8
実線
100
AcDbEllipse
 10
904.5647786207481
 20
705.9889743882145
 30
0.0
 11
38.75
 21
0.0
 31
0.0
210
0.0
220
0.0
230
1.0
 40
0.7071067811865476
 41
3.505257238609943
 42
4.356539132210568
  0
ELLIPSE
  5
6B2
102
{ACAD_REACTORS
330
7C5
102
}
330
1F
100
AcDbEntity
  8
実線
100
AcDbEllipse
 10
904.5647786207481
 20
708.4638481223675
 30
0.0
 11
38.75
 21
0.0
 31
0.0
210
0.0
220
0.0
230
1.0
 40
0.7071067811865476
 41
5.068238828558799
 42
5.820867137073771
  0
ELLIPSE
  5
6B3
102
{ACAD_REACTORS
330
7C5
102
}
330
1F
100
AcDbEntity
  8
実線
100
AcDbEllipse
 10
904.5647786207481
 20
708.4638481223675
 30
0.0
 11
38.75
 21
0.0
 31
0.0
210
0.0
220
0.0
230
1.0
 40
0.7071067811865476
 41
3.603910823695607
 42
4.356539132210568
  0
ELLIPSE
  5
6B4
102
{ACAD_REACTORS
330
7C5
102
}
330
1F
100
AcDbEntity
  8
実線
100
AcDbEllipse
 10
904.5647786207481
 20
710.6558791440455
 30
0.0
 11
31.75
 21
0.0
 31
0.0
210
0.0
220
0.0
230
1.0
 40
0.7071067811865476
 41
5.151568344885538
 42
5.58608400842248
  0
ELLIPSE
  5
6B5
102
{ACAD_REACTORS
330
7C5
102
}
330
1F
100
AcDbEntity
  8
実線
100
AcDbEllipse
 10
904.5647786207481
 20
710.6558791440455
 30
0.0
 11
31.75
 21
0.0
 31
0.0
210
0.0
220
0.0
230
1.0
 40
0.7071067811865476
 41
3.838693952346897
 42
4.273209615883825
  0
LINE
  5
6B6
102
{ACAD_REACTORS
330
7C5
102
}
330
1F
100
AcDbEntity
  8
実線
100
AcDbLine
 10
832.0647786207482
 20
490.2426144339854
 30
0.0
 11
977.0647786207483
 21
490.2426144339854
 31
0.0
  0
LINE
  5
6B7
102
{ACAD_REACTORS
330
7C5
102
}
330
1F
100
AcDbEntity
  8
実線
100
AcDbLine
 10
977.0647786207483
 20
591.2426144339855
 30
0.0
 11
832.0647786207482
 21
591.2426144339855
 31
0.0
  0
LINE
  5
6B8
102
{ACAD_REACTORS
330
7C5
102
}
330
1F
100
AcDbEntity
  8
実線
100
AcDbLine
 10
832.0647786207482
 20
591.2426144339855
 30
0.0
 11
832.0647786207482
 21
490.2426144339854
 31
0.0
  0
LINE
  5
6B9
102
{ACAD_REACTORS
330
7C5
102
}
330
1F
100
AcDbEntity
  8
実線
100
AcDbLine
 10
977.0647786207483
 20
490.2426144339854
 30
0.0
 11
977.0647786207483
 21
591.2426144339855
 31
0.0
  0
LINE
  5
6BA
102
{ACAD_REACTORS
330
7C5
102
}
330
1F
100
AcDbEntity
  8
実線
100
AcDbLine
 10
965.3444677985872
 20
696.2426144339855
 30
0.0
 11
843.7850894429093
 21
696.2426144339855
 31
0.0
  0
LINE
  5
6BB
102
{ACAD_REACTORS
330
7C5
102
}
330
1F
100
AcDbEntity
  8
実線
100
AcDbLine
 10
843.7850894429093
 20
709.7426144339855
 30
0.0
 11
843.7850894429093
 21
696.2426144339855
 31
0.0
  0
LINE
  5
6BC
102
{ACAD_REACTORS
330
7C5
102
}
330
1F
100
AcDbEntity
  8
実線
100
AcDbLine
 10
965.3444677985872
 20
696.2426144339855
 30
0.0
 11
965.3444677985872
 21
709.7426144339855
 31
0.0
  0
LINE
  5
6BD
102
{ACAD_REACTORS
330
7C5
102
}
330
1F
100
AcDbEntity
  8
実線
100
AcDbLine
 10
877.7548064708073
 20
709.7426144339855
 30
0.0
 11
877.7548064708073
 21
696.2426144339855
 31
0.0
  0
LINE
  5
6BE
102
{ACAD_REACTORS
330
7C5
102
}
330
1F
100
AcDbEntity
  8
実線
100
AcDbLine
 10
931.3747507706894
 20
709.7426144339855
 30
0.0
 11
931.3747507706894
 21
696.2426144339855
 31
0.0
  0
LINE
  5
6BF
102
{ACAD_REACTORS
330
7C5
102
}
330
1F
100
AcDbEntity
  8
実線
100
AcDbLine
 10
927.5647786207482
 20
470.2426144339855
 30
0.0
 11
879.5647786207481
 21
470.2426144339855
 31
0.0
  0
LINE
  5
6C0
102
{ACAD_REACTORS
330
7C5
102
}
330
1F
100
AcDbEntity
  8
実線
100
AcDbLine
 10
925.5647786207482
 20
468.2426144340325
 30
0.0
 11
879.5647786207481
 21
468.2426144340325
 31
0.0
  0
LINE
  5
6C1
102
{ACAD_REACTORS
330
7C5
102
}
330
1F
100
AcDbEntity
  8
実線
100
AcDbLine
 10
925.5647786207482
 20
431.2926144339853
 30
0.0
 11
925.5647786207482
 21
430.2426144339853
 31
0.0
  0
LINE
  5
6C2
102
{ACAD_REACTORS
330
7C5
102
}
330
1F
100
AcDbEntity
  8
実線
100
AcDbLine
 10
925.5647786207482
 20
447.2926144339854
 30
0.0
 11
925.5647786207482
 21
439.1926144339854
 31
0.0
  0
LINE
  5
6C3
102
{ACAD_REACTORS
330
7C5
102
}
330
1F
100
AcDbEntity
  8
実線
100
AcDbLine
 10
925.5647786207482
 20
468.2426144340325
 30
0.0
 11
925.5647786207482
 21
455.1926144339854
 31
0.0
  0
LINE
  5
6C4
102
{ACAD_REACTORS
330
7C5
102
}
330
1F
100
AcDbEntity
  8
実線
100
AcDbLine
 10
925.5647786207482
 20
430.2426144339853
 30
0.0
 11
927.5647786207482
 21
430.2426144339853
 31
0.0
  0
LINE
  5
6C5
102
{ACAD_REACTORS
330
7C5
102
}
330
1F
100
AcDbEntity
  8
実線
100
AcDbLine
 10
927.5647786207482
 20
470.2426144339855
 30
0.0
 11
927.5647786207482
 21
430.2426144339853
 31
0.0
  0
LINE
  5
6C6
102
{ACAD_REACTORS
330
7C5
102
}
330
1F
100
AcDbEntity
  8
実線
100
AcDbLine
 10
924.5647786207294
 20
470.2426144339855
 30
0.0
 11
924.5647786207294
 21
468.2426144340325
 31
0.0
  0
LINE
  5
6C7
102
{ACAD_REACTORS
330
7C5
102
}
330
1F
100
AcDbEntity
  8
実線
100
AcDbLine
 10
879.5647786207481
 20
470.2426144339855
 30
0.0
 11
879.5647786207481
 21
468.2426144339853
 31
0.0
  0
LINE
  5
6C8
102
{ACAD_REACTORS
330
7C5
102
}
330
1F
100
AcDbEntity
  8
実線
100
AcDbLine
 10
891.0647786207482
 20
658.2426144339855
 30
0.0
 11
854.5647786207481
 21
658.2426144339855
 31
0.0
  0
LINE
  5
6C9
102
{ACAD_REACTORS
330
7C5
102
}
330
1F
100
AcDbEntity
  8
実線
100
AcDbLine
 10
854.5647786207481
 20
658.2426144339855
 30
0.0
 11
854.5647786207481
 21
593.2426144339853
 31
0.0
  0
LINE
  5
6CA
102
{ACAD_REACTORS
330
7C5
102
}
330
1F
100
AcDbEntity
  8
実線
100
AcDbLine
 10
954.5647786207481
 20
593.2426144339853
 30
0.0
 11
954.5647786207481
 21
658.2426144339855
 31
0.0
  0
LINE
  5
6CB
102
{ACAD_REACTORS
330
7C5
102
}
330
1F
100
AcDbEntity
  8
実線
100
AcDbLine
 10
954.5647786207481
 20
658.2426144339855
 30
0.0
 11
918.0647786207483
 21
658.2426144339855
 31
0.0
  0
LINE
  5
6CC
102
{ACAD_REACTORS
330
7C5
102
}
330
1F
100
AcDbEntity
  8
実線
100
AcDbLine
 10
918.0647786207483
 20
696.2426144339855
 30
0.0
 11
918.0647786207483
 21
593.2426144339853
 31
0.0
  0
LINE
  5
6CD
102
{ACAD_REACTORS
330
7C5
102
}
330
1F
100
AcDbEntity
  8
実線
100
AcDbLine
 10
891.0647786207482
 20
696.2426144339855
 30
0.0
 11
891.0647786207482
 21
593.2426144339853
 31
0.0
  0
ARC
  5
6CE
102
{ACAD_REACTORS
330
7C5
102
}
330
1F
100
AcDbEntity
  8
実線
100
AcDbCircle
 10
943.5647786207482
 20
770.2426144339847
 30
0.0
 40
16.0
100
AcDbArc
 50
0.0
 51
90.0
  0
ARC
  5
6CF
102
{ACAD_REACTORS
330
7C5
102
}
330
1F
100
AcDbEntity
  8
実線
100
AcDbCircle
 10
865.5647786207483
 20
770.2426144339847
 30
0.0
 40
16.0
100
AcDbArc
 50
90.0
 51
180.0
  0
LINE
  5
6D0
102
{ACAD_REACTORS
330
7C5
102
}
330
1F
100
AcDbEntity
  8
実線
100
AcDbLine
 10
965.3444677985872
 20
709.7426144339855
 30
0.0
 11
843.7850894429093
 21
709.7426144339855
 31
0.0
  0
LINE
  5
6D1
102
{ACAD_REACTORS
330
7C5
102
}
330
1F
100
AcDbEntity
  8
実線
100
AcDbLine
 10
849.5647786207483
 20
770.2426144339847
 30
0.0
 11
849.5647786207483
 21
724.7426144339852
 31
0.0
  0
LINE
  5
6D2
102
{ACAD_REACTORS
330
7C5
102
}
330
1F
100
AcDbEntity
  8
実線
100
AcDbLine
 10
959.5647786207482
 20
724.7426144339852
 30
0.0
 11
959.5647786207482
 21
770.2426144339847
 31
0.0
  0
LINE
  5
6D3
102
{ACAD_REACTORS
330
7C5
102
}
330
1F
100
AcDbEntity
  8
実線
100
AcDbLine
 10
843.7850894429093
 20
724.7426144339852
 30
0.0
 11
843.7850894429093
 21
709.7426144339855
 31
0.0
  0
LINE
  5
6D4
102
{ACAD_REACTORS
330
7C5
102
}
330
1F
100
AcDbEntity
  8
実線
100
AcDbLine
 10
843.7850894429093
 20
724.7426144339852
 30
0.0
 11
877.7548064708073
 21
724.7426144339852
 31
0.0
  0
LINE
  5
6D5
102
{ACAD_REACTORS
330
7C5
102
}
330
1F
100
AcDbEntity
  8
実線
100
AcDbLine
 10
965.3444677985872
 20
724.7426144339852
 30
0.0
 11
931.3747507706894
 21
724.7426144339852
 31
0.0
  0
LINE
  5
6D6
102
{ACAD_REACTORS
330
7C5
102
}
330
1F
100
AcDbEntity
  8
実線
100
AcDbLine
 10
965.3444677985872
 20
709.7426144339855
 30
0.0
 11
965.3444677985872
 21
724.7426144339852
 31
0.0
  0
LINE
  5
6D7
102
{ACAD_REACTORS
330
7C5
102
}
330
1F
100
AcDbEntity
  8
実線
100
AcDbLine
 10
877.7548064708073
 20
724.7426144339852
 30
0.0
 11
877.7548064708073
 21
709.7426144339855
 31
0.0
  0
LINE
  5
6D8
102
{ACAD_REACTORS
330
7C5
102
}
330
1F
100
AcDbEntity
  8
実線
100
AcDbLine
 10
931.3747507706894
 20
724.7426144339852
 30
0.0
 11
931.3747507706894
 21
709.7426144339855
 31
0.0
  0
LINE
  5
6D9
102
{ACAD_REACTORS
330
7C5
102
}
330
1F
100
AcDbEntity
  8
実線
100
AcDbLine
 10
1029.564778620748
 20
801.9426144339856
 30
0.0
 11
1029.564778620748
 21
821.9426144339847
 31
0.0
  0
LINE
  5
6DA
102
{ACAD_REACTORS
330
7C5
102
}
330
1F
100
AcDbEntity
  8
実線
100
AcDbLine
 10
779.5647786207482
 20
821.9426144339847
 30
0.0
 11
779.5647786207482
 21
801.9426144339856
 31
0.0
  0
LINE
  5
6DB
102
{ACAD_REACTORS
330
7C5
102
}
330
1F
100
AcDbEntity
  8
実線
100
AcDbLine
 10
1029.564778620748
 20
821.9426144339847
 30
0.0
 11
779.5647786207482
 21
821.9426144339847
 31
0.0
  0
LINE
  5
6DC
102
{ACAD_REACTORS
330
7C5
102
}
330
1F
100
AcDbEntity
  8
実線
100
AcDbLine
 10
1029.564778620748
 20
801.9426144339856
 30
0.0
 11
779.5647786207482
 21
801.9426144339856
 31
0.0
  0
LINE
  5
6DD
102
{ACAD_REACTORS
330
7C5
102
}
330
1F
100
AcDbEntity
  8
実線
100
AcDbLine
 10
832.0647786207482
 20
490.2426144339854
 30
0.0
 11
832.0647786207482
 21
488.2426144339855
 31
0.0
  0
LINE
  5
6DE
102
{ACAD_REACTORS
330
7C5
102
}
330
1F
100
AcDbEntity
  8
実線
100
AcDbLine
 10
977.0647786207483
 20
488.2426144339855
 30
0.0
 11
977.0647786207483
 21
490.2426144339854
 31
0.0
  0
LINE
  5
6DF
102
{ACAD_REACTORS
330
7C5
102
}
330
1F
100
AcDbEntity
  8
実線
100
AcDbLine
 10
835.0647786207483
 20
485.2426144339853
 30
0.0
 11
974.0647786207482
 21
485.2426144339853
 31
0.0
  0
ARC
  5
6E0
102
{ACAD_REACTORS
330
7C5
102
}
330
1F
100
AcDbEntity
  8
実線
100
AcDbCircle
 10
835.0647786207483
 20
488.2426144339855
 30
0.0
 40
3.0
100
AcDbArc
 50
180.0
 51
270.0
  0
ARC
  5
6E1
102
{ACAD_REACTORS
330
7C5
102
}
330
1F
100
AcDbEntity
  8
実線
100
AcDbCircle
 10
974.0647786207482
 20
488.2426144339855
 30
0.0
 40
3.0
100
AcDbArc
 50
270.0
 51
0.0
  0
LINE
  5
6E2
102
{ACAD_REACTORS
330
7C7
102
}
330
1F
100
AcDbEntity
  8
実線
100
AcDbLine
 10
138.5647786207483
 20
485.2426144339853
 30
0.0
 11
138.5647786207483
 21
475.2426144339855
 31
0.0
  0
LINE
  5
6E3
102
{ACAD_REACTORS
330
7C7
102
}
330
1F
100
AcDbEntity
  8
実線
100
AcDbLine
 10
230.5647786207484
 20
475.2426144339855
 30
0.0
 11
230.5647786207484
 21
485.2426144339853
 31
0.0
  0
LINE
  5
6E4
102
{ACAD_REACTORS
330
7C7
102
}
330
1F
100
AcDbEntity
  8
実線
100
AcDbLine
 10
138.5647786207483
 20
475.2426144339855
 30
0.0
 11
230.5647786207484
 21
475.2426144339855
 31
0.0
  0
LINE
  5
6E5
102
{ACAD_REACTORS
330
7C7
102
}
330
1F
100
AcDbEntity
  8
実線
100
AcDbLine
 10
176.5647786207483
 20
468.2426144339853
 30
0.0
 11
176.5647786207483
 21
437.7426144339855
 31
0.0
  0
LINE
  5
6E6
102
{ACAD_REACTORS
330
7C7
102
}
330
1F
100
AcDbEntity
  8
実線
100
AcDbLine
 10
192.5647786207483
 20
437.7426144339855
 30
0.0
 11
192.5647786207483
 21
468.2426144339853
 31
0.0
  0
LINE
  5
6E7
102
{ACAD_REACTORS
330
7C7
102
}
330
1F
100
AcDbEntity
  8
実線
100
AcDbLine
 10
171.4647786207483
 20
431.2926144339853
 30
0.0
 11
163.5647786207483
 21
431.2926144339853
 31
0.0
  0
LINE
  5
6E8
102
{ACAD_REACTORS
330
7C7
102
}
330
1F
100
AcDbEntity
  8
実線
100
AcDbLine
 10
163.5647786207483
 20
439.1926144339854
 30
0.0
 11
171.4647786207483
 21
439.1926144339854
 31
0.0
  0
LINE
  5
6E9
102
{ACAD_REACTORS
330
7C7
102
}
330
1F
100
AcDbEntity
  8
実線
100
AcDbLine
 10
171.4647786207483
 20
439.1926144339854
 30
0.0
 11
171.4647786207483
 21
431.2926144339853
 31
0.0
  0
LINE
  5
6EA
102
{ACAD_REACTORS
330
7C7
102
}
330
1F
100
AcDbEntity
  8
実線
100
AcDbLine
 10
159.5647786207484
 20
475.2426144339855
 30
0.0
 11
159.5647786207484
 21
470.2426144339855
 31
0.0
  0
LINE
  5
6EB
102
{ACAD_REACTORS
330
7C7
102
}
330
1F
100
AcDbEntity
  8
実線
100
AcDbLine
 10
209.5647786207484
 20
470.2426144339855
 30
0.0
 11
209.5647786207484
 21
475.2426144339855
 31
0.0
  0
LINE
  5
6EC
102
{ACAD_REACTORS
330
7C7
102
}
330
1F
100
AcDbEntity
  8
実線
100
AcDbLine
 10
209.5647786207484
 20
470.2426144339855
 30
0.0
 11
159.5647786207484
 21
470.2426144339855
 31
0.0
  0
LINE
  5
6ED
102
{ACAD_REACTORS
330
7C7
102
}
330
1F
100
AcDbEntity
  8
実線
100
AcDbLine
 10
171.4647786207483
 20
447.2926144339854
 30
0.0
 11
163.5647786207483
 21
447.2926144339854
 31
0.0
  0
LINE
  5
6EE
102
{ACAD_REACTORS
330
7C7
102
}
330
1F
100
AcDbEntity
  8
実線
100
AcDbLine
 10
163.5647786207483
 20
455.1926144339854
 30
0.0
 11
171.4647786207483
 21
455.1926144339854
 31
0.0
  0
LINE
  5
6EF
102
{ACAD_REACTORS
330
7C7
102
}
330
1F
100
AcDbEntity
  8
実線
100
AcDbLine
 10
171.4647786207483
 20
455.1926144339854
 30
0.0
 11
171.4647786207483
 21
447.2926144339854
 31
0.0
  0
LINE
  5
6F0
102
{ACAD_REACTORS
330
7C7
102
}
330
1F
100
AcDbEntity
  8
実線
100
AcDbLine
 10
172.0647786207484
 20
437.7426144339855
 30
0.0
 11
172.0647786207484
 21
432.7426144339855
 31
0.0
  0
LINE
  5
6F1
102
{ACAD_REACTORS
330
7C7
102
}
330
1F
100
AcDbEntity
  8
実線
100
AcDbLine
 10
197.0647786207484
 20
432.7426144339855
 30
0.0
 11
197.0647786207484
 21
437.7426144339855
 31
0.0
  0
LINE
  5
6F2
102
{ACAD_REACTORS
330
7C7
102
}
330
1F
100
AcDbEntity
  8
実線
100
AcDbLine
 10
172.0647786207484
 20
432.7426144339855
 30
0.0
 11
197.0647786207484
 21
432.7426144339855
 31
0.0
  0
LINE
  5
6F3
102
{ACAD_REACTORS
330
7C7
102
}
330
1F
100
AcDbEntity
  8
実線
100
AcDbLine
 10
172.0647786207484
 20
437.7426144339855
 30
0.0
 11
197.0647786207484
 21
437.7426144339855
 31
0.0
  0
LINE
  5
6F4
102
{ACAD_REACTORS
330
7C7
102
}
330
1F
100
AcDbEntity
  8
実線
100
AcDbLine
 10
177.0647786207483
 20
432.7426144339855
 30
0.0
 11
177.0647786207483
 21
427.4426144339854
 31
0.0
  0
LINE
  5
6F5
102
{ACAD_REACTORS
330
7C7
102
}
330
1F
100
AcDbEntity
  8
実線
100
AcDbLine
 10
192.0647786207483
 20
427.4426144339854
 30
0.0
 11
192.0647786207483
 21
432.7426144339855
 31
0.0
  0
LINE
  5
6F6
102
{ACAD_REACTORS
330
7C7
102
}
330
1F
100
AcDbEntity
  8
実線
100
AcDbLine
 10
177.0647786207483
 20
427.4426144339854
 30
0.0
 11
192.0647786207483
 21
427.4426144339854
 31
0.0
  0
LINE
  5
6F7
102
{ACAD_REACTORS
330
7C7
102
}
330
1F
100
AcDbEntity
  8
実線
100
AcDbLine
 10
117.0647786207483
 20
593.2426144339853
 30
0.0
 11
117.0647786207483
 21
591.2426144339855
 31
0.0
  0
LINE
  5
6F8
102
{ACAD_REACTORS
330
7C7
102
}
330
1F
100
AcDbEntity
  8
実線
100
AcDbLine
 10
252.0647786207484
 20
591.2426144339855
 30
0.0
 11
252.0647786207484
 21
593.2426144339853
 31
0.0
  0
LINE
  5
6F9
102
{ACAD_REACTORS
330
7C7
102
}
330
1F
100
AcDbEntity
  8
実線
100
AcDbLine
 10
117.0647786207483
 20
593.2426144339853
 30
0.0
 11
252.0647786207484
 21
593.2426144339853
 31
0.0
  0
ARC
  5
6FA
102
{ACAD_REACTORS
330
7C7
102
}
330
1F
100
AcDbEntity
  8
実線
100
AcDbCircle
 10
184.5647786207481
 20
750.2426144339856
 30
0.0
 40
31.75
100
AcDbArc
 50
0.0
 51
180.0
  0
LINE
  5
6FB
102
{ACAD_REACTORS
330
7C7
102
}
330
1F
100
AcDbEntity
  8
実線
100
AcDbLine
 10
152.814778620748
 20
750.2426144339856
 30
0.0
 11
152.814778620748
 21
724.1721261947724
 31
0.0
  0
LINE
  5
6FC
102
{ACAD_REACTORS
330
7C7
102
}
330
1F
100
AcDbEntity
  8
実線
100
AcDbLine
 10
216.3147786207481
 20
724.1721261947724
 30
0.0
 11
216.3147786207481
 21
750.2426144339856
 31
0.0
  0
ELLIPSE
  5
6FD
102
{ACAD_REACTORS
330
7C7
102
}
330
1F
100
AcDbEntity
  8
実線
100
AcDbEllipse
 10
184.5647786207481
 20
720.4846634025386
 30
0.0
 11
31.75
 21
0.0
 31
0.0
210
0.0
220
0.0
230
1.0
 40
0.7071067811865476
 41
0.1905913349515993
 42
2.951001318638193
  0
LINE
  5
6FE
102
{ACAD_REACTORS
330
7C7
102
}
330
1F
100
AcDbEntity
  8
実線
100
AcDbLine
 10
226.5647786207481
 20
786.2426144339847
 30
0.0
 11
233.5647786207481
 21
792.9426144339847
 31
0.0
  0
LINE
  5
6FF
102
{ACAD_REACTORS
330
7C7
102
}
330
1F
100
AcDbEntity
  8
実線
100
AcDbLine
 10
135.5647786207482
 20
792.9426144339847
 30
0.0
 11
142.5647786207482
 21
786.2426144339847
 31
0.0
  0
LINE
  5
700
102
{ACAD_REACTORS
330
7C7
102
}
330
1F
100
AcDbEntity
  8
実線
100
AcDbLine
 10
142.5647786207482
 20
786.2426144339847
 30
0.0
 11
226.5647786207481
 21
786.2426144339847
 31
0.0
  0
LINE
  5
701
102
{ACAD_REACTORS
330
7C7
102
}
330
1F
100
AcDbEntity
  8
実線
100
AcDbLine
 10
233.5647786207481
 20
792.9426144339847
 30
0.0
 11
233.5647786207481
 21
801.9426144339847
 31
0.0
  0
LINE
  5
702
102
{ACAD_REACTORS
330
7C7
102
}
330
1F
100
AcDbEntity
  8
実線
100
AcDbLine
 10
135.5647786207482
 20
801.9426144339856
 30
0.0
 11
135.5647786207482
 21
792.9426144339856
 31
0.0
  0
LINE
  5
703
102
{ACAD_REACTORS
330
7C7
102
}
330
1F
100
AcDbEntity
  8
実線
100
AcDbLine
 10
135.5647786207482
 20
792.9426144339847
 30
0.0
 11
233.5647786207481
 21
792.9426144339847
 31
0.0
  0
ELLIPSE
  5
704
102
{ACAD_REACTORS
330
7C7
102
}
330
1F
100
AcDbEntity
  8
実線
100
AcDbEllipse
 10
184.5647786207481
 20
720.4846634025386
 30
0.0
 11
31.75
 21
0.0
 31
0.0
210
0.0
220
0.0
230
1.0
 40
0.7071067811865476
 41
0.1905913349515993
 42
1.570796326794897
  0
ELLIPSE
  5
705
102
{ACAD_REACTORS
330
7C7
102
}
330
1F
100
AcDbEntity
  8
実線
100
AcDbEllipse
 10
184.5647786207481
 20
720.4846634025386
 30
0.0
 11
31.75
 21
0.0
 31
0.0
210
0.0
220
0.0
230
1.0
 40
0.7071067811865476
 41
1.570796326794897
 42
2.951001318638193
  0
ELLIPSE
  5
706
102
{ACAD_REACTORS
330
7C7
102
}
330
1F
100
AcDbEntity
  8
実線
100
AcDbEllipse
 10
184.5647786207481
 20
705.9889743882145
 30
0.0
 11
38.75
 21
0.0
 31
0.0
210
0.0
220
0.0
230
1.0
 40
0.7071067811865476
 41
0.0
 42
1.570796326794897
  0
ELLIPSE
  5
707
102
{ACAD_REACTORS
330
7C7
102
}
330
1F
100
AcDbEntity
  8
実線
100
AcDbEllipse
 10
184.5647786207481
 20
708.4638481223675
 30
0.0
 11
38.75
 21
0.0
 31
0.0
210
0.0
220
0.0
230
1.0
 40
0.7071067811865476
 41
0.0
 42
1.570796326794897
  0
LINE
  5
708
102
{ACAD_REACTORS
330
7C7
102
}
330
1F
100
AcDbEntity
  8
実線
100
AcDbLine
 10
223.3147786207481
 20
705.9889743882145
 30
0.0
 11
223.3147786207481
 21
708.4638481223675
 31
0.0
  0
LINE
  5
709
102
{ACAD_REACTORS
330
7C7
102
}
330
1F
100
AcDbEntity
  8
実線
100
AcDbLine
 10
145.814778620748
 20
708.4638481223675
 30
0.0
 11
145.814778620748
 21
705.9889743882145
 31
0.0
  0
ELLIPSE
  5
70A
102
{ACAD_REACTORS
330
7C7
102
}
330
1F
100
AcDbEntity
  8
実線
100
AcDbEllipse
 10
184.5647786207481
 20
705.9889743882145
 30
0.0
 11
38.75
 21
0.0
 31
0.0
210
0.0
220
0.0
230
1.0
 40
0.7071067811865476
 41
3.141592653589792
 42
6.283185307179584
  0
ELLIPSE
  5
70B
102
{ACAD_REACTORS
330
7C7
102
}
330
1F
100
AcDbEntity
  8
実線
100
AcDbEllipse
 10
184.5647786207481
 20
705.9889743882145
 30
0.0
 11
38.75
 21
0.0
 31
0.0
210
0.0
220
0.0
230
1.0
 40
0.7071067811865476
 41
1.570796326794897
 42
3.141592653589792
  0
ELLIPSE
  5
70C
102
{ACAD_REACTORS
330
7C7
102
}
330
1F
100
AcDbEntity
  8
実線
100
AcDbEllipse
 10
184.5647786207481
 20
708.4638481223675
 30
0.0
 11
38.75
 21
0.0
 31
0.0
210
0.0
220
0.0
230
1.0
 40
0.7071067811865476
 41
1.570796326794897
 42
3.141592653589792
  0
LINE
  5
70D
102
{ACAD_REACTORS
330
7C7
102
}
330
1F
100
AcDbEntity
  8
実線
100
AcDbLine
 10
112.0647786207483
 20
591.2426144339855
 30
0.0
 11
112.0647786207483
 21
490.2426144339854
 31
0.0
  0
LINE
  5
70E
102
{ACAD_REACTORS
330
7C7
102
}
330
1F
100
AcDbEntity
  8
実線
100
AcDbLine
 10
257.0647786207483
 20
490.2426144339854
 30
0.0
 11
257.0647786207483
 21
591.2426144339855
 31
0.0
  0
LINE
  5
70F
102
{ACAD_REACTORS
330
7C7
102
}
330
1F
100
AcDbEntity
  8
実線
100
AcDbLine
 10
112.0647786207483
 20
490.2426144339854
 30
0.0
 11
257.0647786207483
 21
490.2426144339854
 31
0.0
  0
LINE
  5
710
102
{ACAD_REACTORS
330
7C7
102
}
330
1F
100
AcDbEntity
  8
実線
100
AcDbLine
 10
112.0647786207483
 20
591.2426144339855
 30
0.0
 11
257.0647786207483
 21
591.2426144339855
 31
0.0
  0
LINE
  5
711
102
{ACAD_REACTORS
330
7C7
102
}
330
1F
100
AcDbEntity
  8
実線
100
AcDbLine
 10
123.7850894429095
 20
709.7426144339855
 30
0.0
 11
123.7850894429095
 21
696.2426144339855
 31
0.0
  0
LINE
  5
712
102
{ACAD_REACTORS
330
7C7
102
}
330
1F
100
AcDbEntity
  8
実線
100
AcDbLine
 10
123.7850894429095
 20
696.2426144339855
 30
0.0
 11
148.3490439839192
 21
696.2426144339855
 31
0.0
  0
LINE
  5
713
102
{ACAD_REACTORS
330
7C7
102
}
330
1F
100
AcDbEntity
  8
実線
100
AcDbLine
 10
245.3444677985875
 20
696.2426144339855
 30
0.0
 11
220.780513257577
 21
696.2426144339855
 31
0.0
  0
LINE
  5
714
102
{ACAD_REACTORS
330
7C7
102
}
330
1F
100
AcDbEntity
  8
実線
100
AcDbLine
 10
245.3444677985875
 20
709.7426144339855
 30
0.0
 11
223.2725557907245
 21
709.7426144339855
 31
0.0
  0
LINE
  5
715
102
{ACAD_REACTORS
330
7C7
102
}
330
1F
100
AcDbEntity
  8
実線
100
AcDbLine
 10
245.3444677985875
 20
696.2426144339855
 30
0.0
 11
245.3444677985875
 21
709.7426144339855
 31
0.0
  0
LINE
  5
716
102
{ACAD_REACTORS
330
7C7
102
}
330
1F
100
AcDbEntity
  8
実線
100
AcDbLine
 10
163.5647786207483
 20
468.2426144340325
 30
0.0
 11
209.5647786207484
 21
468.2426144340325
 31
0.0
  0
LINE
  5
717
102
{ACAD_REACTORS
330
7C7
102
}
330
1F
100
AcDbEntity
  8
実線
100
AcDbLine
 10
161.5647786207484
 20
470.2426144339855
 30
0.0
 11
161.5647786207484
 21
430.2426144339853
 31
0.0
  0
LINE
  5
718
102
{ACAD_REACTORS
330
7C7
102
}
330
1F
100
AcDbEntity
  8
実線
100
AcDbLine
 10
161.5647786207484
 20
430.2426144339853
 30
0.0
 11
163.5647786207483
 21
430.2426144339853
 31
0.0
  0
LINE
  5
719
102
{ACAD_REACTORS
330
7C7
102
}
330
1F
100
AcDbEntity
  8
実線
100
AcDbLine
 10
163.5647786207483
 20
430.2426144339853
 30
0.0
 11
163.5647786207483
 21
468.2426144340325
 31
0.0
  0
LINE
  5
71A
102
{ACAD_REACTORS
330
7C7
102
}
330
1F
100
AcDbEntity
  8
実線
100
AcDbLine
 10
164.5647786207483
 20
468.2426144339853
 30
0.0
 11
164.5647786207483
 21
470.2426144339855
 31
0.0
  0
LINE
  5
71B
102
{ACAD_REACTORS
330
7C7
102
}
330
1F
100
AcDbEntity
  8
実線
100
AcDbLine
 10
209.5647786207484
 20
468.2426144339853
 30
0.0
 11
209.5647786207484
 21
470.2426144339855
 31
0.0
  0
LINE
  5
71C
102
{ACAD_REACTORS
330
7C7
102
}
330
1F
100
AcDbEntity
  8
実線
100
AcDbLine
 10
171.0647786207483
 20
658.2426144339855
 30
0.0
 11
134.5647786207482
 21
658.2426144339855
 31
0.0
  0
LINE
  5
71D
102
{ACAD_REACTORS
330
7C7
102
}
330
1F
100
AcDbEntity
  8
実線
100
AcDbLine
 10
134.5647786207482
 20
658.2426144339855
 30
0.0
 11
134.5647786207482
 21
593.2426144339853
 31
0.0
  0
LINE
  5
71E
102
{ACAD_REACTORS
330
7C7
102
}
330
1F
100
AcDbEntity
  8
実線
100
AcDbLine
 10
234.5647786207484
 20
593.2426144339853
 30
0.0
 11
234.5647786207484
 21
658.2426144339855
 31
0.0
  0
LINE
  5
71F
102
{ACAD_REACTORS
330
7C7
102
}
330
1F
100
AcDbEntity
  8
実線
100
AcDbLine
 10
198.0647786207484
 20
658.2426144339855
 30
0.0
 11
234.5647786207484
 21
658.2426144339855
 31
0.0
  0
LINE
  5
720
102
{ACAD_REACTORS
330
7C7
102
}
330
1F
100
AcDbEntity
  8
実線
100
AcDbLine
 10
198.0647786207484
 20
680.3052003275354
 30
0.0
 11
198.0647786207484
 21
593.2426144339853
 31
0.0
  0
LINE
  5
721
102
{ACAD_REACTORS
330
7C7
102
}
330
1F
100
AcDbEntity
  8
実線
100
AcDbLine
 10
171.0647786207483
 20
680.3052003275354
 30
0.0
 11
171.0647786207483
 21
593.2426144339853
 31
0.0
  0
LINE
  5
722
102
{ACAD_REACTORS
330
7C7
102
}
330
1F
100
AcDbEntity
  8
実線
100
AcDbLine
 10
129.5647786207482
 20
770.2426144339847
 30
0.0
 11
129.5647786207482
 21
724.7426144339852
 31
0.0
  0
LINE
  5
723
102
{ACAD_REACTORS
330
7C7
102
}
330
1F
100
AcDbEntity
  8
実線
100
AcDbLine
 10
239.5647786207481
 20
724.7426144339852
 30
0.0
 11
239.5647786207481
 21
770.2426144339847
 31
0.0
  0
ARC
  5
724
102
{ACAD_REACTORS
330
7C7
102
}
330
1F
100
AcDbEntity
  8
実線
100
AcDbCircle
 10
223.5647786207481
 20
770.2426144339847
 30
0.0
 40
16.0
100
AcDbArc
 50
0.0
 51
90.0
  0
ARC
  5
725
102
{ACAD_REACTORS
330
7C7
102
}
330
1F
100
AcDbEntity
  8
実線
100
AcDbCircle
 10
145.5647786207482
 20
770.2426144339847
 30
0.0
 40
16.0
100
AcDbArc
 50
90.0
 51
180.0
  0
LINE
  5
726
102
{ACAD_REACTORS
330
7C7
102
}
330
1F
100
AcDbEntity
  8
実線
100
AcDbLine
 10
123.7850894429094
 20
724.7426144339852
 30
0.0
 11
123.7850894429094
 21
709.7426144339855
 31
0.0
  0
LINE
  5
727
102
{ACAD_REACTORS
330
7C7
102
}
330
1F
100
AcDbEntity
  8
実線
100
AcDbLine
 10
123.7850894429094
 20
709.7426144339855
 30
0.0
 11
145.8570014507717
 21
709.7426144339855
 31
0.0
  0
LINE
  5
728
102
{ACAD_REACTORS
330
7C7
102
}
330
1F
100
AcDbEntity
  8
実線
100
AcDbLine
 10
123.7850894429094
 20
724.7426144339852
 30
0.0
 11
152.814778620748
 21
724.7426144339852
 31
0.0
  0
LINE
  5
729
102
{ACAD_REACTORS
330
7C7
102
}
330
1F
100
AcDbEntity
  8
実線
100
AcDbLine
 10
245.3444677985869
 20
724.7426144339852
 30
0.0
 11
216.3147786207481
 21
724.7426144339852
 31
0.0
  0
LINE
  5
72A
102
{ACAD_REACTORS
330
7C7
102
}
330
1F
100
AcDbEntity
  8
実線
100
AcDbLine
 10
245.3444677985869
 20
709.7426144339855
 30
0.0
 11
245.3444677985869
 21
724.7426144339852
 31
0.0
  0
LINE
  5
72B
102
{ACAD_REACTORS
330
7C7
102
}
330
1F
100
AcDbEntity
  8
実線
100
AcDbLine
 10
309.564778620748
 20
821.9426144339847
 30
0.0
 11
59.56477862074819
 21
821.9426144339847
 31
0.0
  0
LINE
  5
72C
102
{ACAD_REACTORS
330
7C7
102
}
330
1F
100
AcDbEntity
  8
実線
100
AcDbLine
 10
59.56477862074819
 20
801.9426144339856
 30
0.0
 11
309.564778620748
 21
801.9426144339856
 31
0.0
  0
LINE
  5
72D
102
{ACAD_REACTORS
330
7C7
102
}
330
1F
100
AcDbEntity
  8
実線
100
AcDbLine
 10
309.564778620748
 20
801.9426144339856
 30
0.0
 11
309.564778620748
 21
821.9426144339847
 31
0.0
  0
LINE
  5
72E
102
{ACAD_REACTORS
330
7C7
102
}
330
1F
100
AcDbEntity
  8
実線
100
AcDbLine
 10
59.56477862074819
 20
821.9426144339847
 30
0.0
 11
59.56477862074819
 21
801.9426144339856
 31
0.0
  0
LINE
  5
72F
102
{ACAD_REACTORS
330
7C7
102
}
330
1F
100
AcDbEntity
  8
実線
100
AcDbLine
 10
112.0647786207483
 20
490.2426144339854
 30
0.0
 11
112.0647786207483
 21
488.2426144339855
 31
0.0
  0
LINE
  5
730
102
{ACAD_REACTORS
330
7C7
102
}
330
1F
100
AcDbEntity
  8
実線
100
AcDbLine
 10
257.0647786207483
 20
488.2426144339855
 30
0.0
 11
257.0647786207483
 21
490.2426144339854
 31
0.0
  0
LINE
  5
731
102
{ACAD_REACTORS
330
7C7
102
}
330
1F
100
AcDbEntity
  8
実線
100
AcDbLine
 10
254.0647786207482
 20
485.2426144339853
 30
0.0
 11
115.0647786207483
 21
485.2426144339853
 31
0.0
  0
ARC
  5
732
102
{ACAD_REACTORS
330
7C7
102
}
330
1F
100
AcDbEntity
  8
実線
100
AcDbCircle
 10
115.0647786207483
 20
488.2426144339855
 30
0.0
 40
3.0
100
AcDbArc
 50
180.0
 51
270.0
  0
ARC
  5
733
102
{ACAD_REACTORS
330
7C7
102
}
330
1F
100
AcDbEntity
  8
実線
100
AcDbCircle
 10
254.0647786207482
 20
488.2426144339855
 30
0.0
 40
3.0
100
AcDbArc
 50
270.0
 51
0.0
  0
LINE
  5
734
102
{ACAD_REACTORS
330
7C6
102
}
330
1F
100
AcDbEntity
  8
実線
100
AcDbLine
 10
590.5647786207481
 20
475.2426144339855
 30
0.0
 11
498.5647786207481
 21
475.2426144339855
 31
0.0
  0
LINE
  5
735
102
{ACAD_REACTORS
330
7C6
102
}
330
1F
100
AcDbEntity
  8
実線
100
AcDbLine
 10
498.5647786207481
 20
485.2426144339853
 30
0.0
 11
498.5647786207481
 21
475.2426144339855
 31
0.0
  0
LINE
  5
736
102
{ACAD_REACTORS
330
7C6
102
}
330
1F
100
AcDbEntity
  8
実線
100
AcDbLine
 10
590.5647786207481
 20
475.2426144339855
 30
0.0
 11
590.5647786207481
 21
485.2426144339853
 31
0.0
  0
LINE
  5
737
102
{ACAD_REACTORS
330
7C6
102
}
330
1F
100
AcDbEntity
  8
実線
100
AcDbLine
 10
536.5647786207481
 20
468.2426144339853
 30
0.0
 11
536.5647786207481
 21
437.7426144339855
 31
0.0
  0
LINE
  5
738
102
{ACAD_REACTORS
330
7C6
102
}
330
1F
100
AcDbEntity
  8
実線
100
AcDbLine
 10
552.5647786207481
 20
437.7426144339855
 30
0.0
 11
552.5647786207481
 21
468.2426144339853
 31
0.0
  0
LINE
  5
739
102
{ACAD_REACTORS
330
7C6
102
}
330
1F
100
AcDbEntity
  8
実線
100
AcDbLine
 10
552.0647786207481
 20
431.2926144339853
 30
0.0
 11
564.5647786207481
 21
431.2926144339853
 31
0.0
  0
LINE
  5
73A
102
{ACAD_REACTORS
330
7C6
102
}
330
1F
100
AcDbEntity
  8
実線
100
AcDbLine
 10
552.5647786207481
 20
439.1926144339854
 30
0.0
 11
564.5647786207481
 21
439.1926144339854
 31
0.0
  0
LINE
  5
73B
102
{ACAD_REACTORS
330
7C6
102
}
330
1F
100
AcDbEntity
  8
実線
100
AcDbLine
 10
564.5647786207481
 20
431.2926144339853
 30
0.0
 11
564.5647786207481
 21
439.1926144339854
 31
0.0
  0
LINE
  5
73C
102
{ACAD_REACTORS
330
7C6
102
}
330
1F
100
AcDbEntity
  8
実線
100
AcDbLine
 10
519.5647786207481
 20
475.2426144339855
 30
0.0
 11
519.5647786207481
 21
470.2426144339855
 31
0.0
  0
LINE
  5
73D
102
{ACAD_REACTORS
330
7C6
102
}
330
1F
100
AcDbEntity
  8
実線
100
AcDbLine
 10
569.5647786207481
 20
470.2426144339855
 30
0.0
 11
569.5647786207481
 21
475.2426144339855
 31
0.0
  0
LINE
  5
73E
102
{ACAD_REACTORS
330
7C6
102
}
330
1F
100
AcDbEntity
  8
実線
100
AcDbLine
 10
571.0647786207481
 20
436.7426144339855
 30
0.0
 11
571.0647786207481
 21
433.7426144339855
 31
0.0
  0
LINE
  5
73F
102
{ACAD_REACTORS
330
7C6
102
}
330
1F
100
AcDbEntity
  8
実線
100
AcDbLine
 10
564.5647786207481
 20
433.7426144339855
 30
0.0
 11
571.0647786207481
 21
433.7426144339855
 31
0.0
  0
LINE
  5
740
102
{ACAD_REACTORS
330
7C6
102
}
330
1F
100
AcDbEntity
  8
実線
100
AcDbLine
 10
571.0647786207481
 20
436.7426144339855
 30
0.0
 11
564.5647786207481
 21
436.7426144339855
 31
0.0
  0
LINE
  5
741
102
{ACAD_REACTORS
330
7C6
102
}
330
1F
100
AcDbEntity
  8
実線
100
AcDbLine
 10
552.5647786207481
 20
447.2926144339854
 30
0.0
 11
564.5647786207481
 21
447.2926144339854
 31
0.0
  0
LINE
  5
742
102
{ACAD_REACTORS
330
7C6
102
}
330
1F
100
AcDbEntity
  8
実線
100
AcDbLine
 10
564.5647786207481
 20
447.2926144339854
 30
0.0
 11
564.5647786207481
 21
455.1926144339854
 31
0.0
  0
LINE
  5
743
102
{ACAD_REACTORS
330
7C6
102
}
330
1F
100
AcDbEntity
  8
実線
100
AcDbLine
 10
552.5647786207481
 20
455.1926144339854
 30
0.0
 11
564.5647786207481
 21
455.1926144339854
 31
0.0
  0
LINE
  5
744
102
{ACAD_REACTORS
330
7C6
102
}
330
1F
100
AcDbEntity
  8
実線
100
AcDbLine
 10
571.0647786207481
 20
452.7426144339854
 30
0.0
 11
571.0647786207481
 21
449.7426144339855
 31
0.0
  0
LINE
  5
745
102
{ACAD_REACTORS
330
7C6
102
}
330
1F
100
AcDbEntity
  8
実線
100
AcDbLine
 10
564.5647786207481
 20
449.7426144339855
 30
0.0
 11
571.0647786207481
 21
449.7426144339855
 31
0.0
  0
LINE
  5
746
102
{ACAD_REACTORS
330
7C6
102
}
330
1F
100
AcDbEntity
  8
実線
100
AcDbLine
 10
571.0647786207481
 20
452.7426144339854
 30
0.0
 11
564.5647786207481
 21
452.7426144339854
 31
0.0
  0
LINE
  5
747
102
{ACAD_REACTORS
330
7C6
102
}
330
1F
100
AcDbEntity
  8
実線
100
AcDbLine
 10
557.0647786207481
 20
432.7426144339855
 30
0.0
 11
532.0647786207481
 21
432.7426144339855
 31
0.0
  0
LINE
  5
748
102
{ACAD_REACTORS
330
7C6
102
}
330
1F
100
AcDbEntity
  8
実線
100
AcDbLine
 10
532.0647786207481
 20
437.7426144339855
 30
0.0
 11
532.0647786207481
 21
432.7426144339855
 31
0.0
  0
LINE
  5
749
102
{ACAD_REACTORS
330
7C6
102
}
330
1F
100
AcDbEntity
  8
実線
100
AcDbLine
 10
557.0647786207481
 20
432.7426144339855
 30
0.0
 11
557.0647786207481
 21
437.7426144339855
 31
0.0
  0
LINE
  5
74A
102
{ACAD_REACTORS
330
7C6
102
}
330
1F
100
AcDbEntity
  8
実線
100
AcDbLine
 10
532.0647786207481
 20
437.7426144339855
 30
0.0
 11
557.0647786207481
 21
437.7426144339855
 31
0.0
  0
LINE
  5
74B
102
{ACAD_REACTORS
330
7C6
102
}
330
1F
100
AcDbEntity
  8
実線
100
AcDbLine
 10
552.0647786207481
 20
427.4426144339854
 30
0.0
 11
537.0647786207481
 21
427.4426144339854
 31
0.0
  0
LINE
  5
74C
102
{ACAD_REACTORS
330
7C6
102
}
330
1F
100
AcDbEntity
  8
実線
100
AcDbLine
 10
537.0647786207481
 20
432.7426144339855
 30
0.0
 11
537.0647786207481
 21
427.4426144339854
 31
0.0
  0
LINE
  5
74D
102
{ACAD_REACTORS
330
7C6
102
}
330
1F
100
AcDbEntity
  8
実線
100
AcDbLine
 10
552.0647786207481
 20
427.4426144339854
 30
0.0
 11
552.0647786207481
 21
432.7426144339855
 31
0.0
  0
LINE
  5
74E
102
{ACAD_REACTORS
330
7C6
102
}
330
1F
100
AcDbEntity
  8
実線
100
AcDbLine
 10
477.0647786207481
 20
593.2426144339853
 30
0.0
 11
477.0647786207481
 21
591.2426144339855
 31
0.0
  0
LINE
  5
74F
102
{ACAD_REACTORS
330
7C6
102
}
330
1F
100
AcDbEntity
  8
実線
100
AcDbLine
 10
612.0647786207481
 20
591.2426144339855
 30
0.0
 11
612.0647786207481
 21
593.2426144339853
 31
0.0
  0
LINE
  5
750
102
{ACAD_REACTORS
330
7C6
102
}
330
1F
100
AcDbEntity
  8
実線
100
AcDbLine
 10
477.0647786207481
 20
593.2426144339853
 30
0.0
 11
612.0647786207481
 21
593.2426144339853
 31
0.0
  0
LINE
  5
751
102
{ACAD_REACTORS
330
7C6
102
}
330
1F
100
AcDbEntity
  8
実線
100
AcDbLine
 10
536.5647786207481
 20
696.1985178853871
 30
0.0
 11
536.5647786207481
 21
658.2426144339855
 31
0.0
  0
LINE
  5
752
102
{ACAD_REACTORS
330
7C6
102
}
330
1F
100
AcDbEntity
  8
実線
100
AcDbLine
 10
552.5647786207481
 20
658.2426144339855
 30
0.0
 11
552.5647786207481
 21
696.1985178853871
 31
0.0
  0
ARC
  5
753
102
{ACAD_REACTORS
330
7C6
102
}
330
1F
100
AcDbEntity
  8
実線
100
AcDbCircle
 10
476.5647786207481
 20
648.6426144339855
 30
0.0
 40
133.35
100
AcDbArc
 50
90.0
 51
135.0000000000046
  0
ARC
  5
754
102
{ACAD_REACTORS
330
7C6
102
}
330
1F
100
AcDbEntity
  8
実線
100
AcDbCircle
 10
476.5647786207481
 20
648.6426144339855
 30
0.0
 40
69.84999999999999
100
AcDbArc
 50
90.0
 51
135.0000000000046
  0
LINE
  5
755
102
{ACAD_REACTORS
330
7C6
102
}
330
1F
100
AcDbEntity
  8
実線
100
AcDbLine
 10
586.5647786207481
 20
786.2426144339847
 30
0.0
 11
593.5647786207481
 21
792.9426144339847
 31
0.0
  0
LINE
  5
756
102
{ACAD_REACTORS
330
7C6
102
}
330
1F
100
AcDbEntity
  8
実線
100
AcDbLine
 10
495.5647786207481
 20
792.9426144339847
 30
0.0
 11
502.5647786207481
 21
786.2426144339847
 31
0.0
  0
LINE
  5
757
102
{ACAD_REACTORS
330
7C6
102
}
330
1F
100
AcDbEntity
  8
実線
100
AcDbLine
 10
502.5647786207481
 20
786.2426144339847
 30
0.0
 11
586.5647786207481
 21
786.2426144339847
 31
0.0
  0
LINE
  5
758
102
{ACAD_REACTORS
330
7C6
102
}
330
1F
100
AcDbEntity
  8
実線
100
AcDbLine
 10
593.5647786207481
 20
792.9426144339847
 30
0.0
 11
593.5647786207481
 21
801.9426144339847
 31
0.0
  0
LINE
  5
759
102
{ACAD_REACTORS
330
7C6
102
}
330
1F
100
AcDbEntity
  8
実線
100
AcDbLine
 10
495.5647786207481
 20
801.9426144339856
 30
0.0
 11
495.5647786207481
 21
792.9426144339856
 31
0.0
  0
LINE
  5
75A
102
{ACAD_REACTORS
330
7C6
102
}
330
1F
100
AcDbEntity
  8
実線
100
AcDbLine
 10
593.5647786207481
 20
792.9426144339847
 30
0.0
 11
495.5647786207481
 21
792.9426144339847
 31
0.0
  0
LINE
  5
75B
102
{ACAD_REACTORS
330
7C6
102
}
330
1F
100
AcDbEntity
  8
実線
100
AcDbLine
 10
382.2720893495222
 20
742.9353037052116
 30
0.0
 11
427.1733699548678
 21
698.0340230998657
 31
0.0
  0
LINE
  5
75C
102
{ACAD_REACTORS
330
7C6
102
}
330
1F
100
AcDbEntity
  8
実線
100
AcDbLine
 10
417.3445856963748
 20
688.2052388413727
 30
0.0
 11
427.1733699548678
 21
698.0340230998657
 31
0.0
  0
LINE
  5
75D
102
{ACAD_REACTORS
330
7C6
102
}
330
1F
100
AcDbEntity
  8
実線
100
AcDbLine
 10
382.2720893495222
 20
742.9353037052116
 30
0.0
 11
372.443305091029
 21
733.1065194467186
 31
0.0
  0
LINE
  5
75E
102
{ACAD_REACTORS
330
7C6
102
}
330
1F
100
AcDbEntity
  8
実線
100
AcDbLine
 10
372.443305091029
 20
733.1065194467186
 30
0.0
 11
417.3445856963748
 21
688.2052388413727
 31
0.0
  0
LINE
  5
75F
102
{ACAD_REACTORS
330
7C6
102
}
330
1F
100
AcDbEntity
  8
実線
100
AcDbLine
 10
372.443305091029
 20
733.1065194467186
 30
0.0
 11
365.301526601045
 21
735.8642358933457
 31
0.0
  0
LINE
  5
760
102
{ACAD_REACTORS
330
7C6
102
}
330
1F
100
AcDbEntity
  8
実線
100
AcDbLine
 10
420.1023021430022
 20
681.0634603513887
 30
0.0
 11
417.3445856963748
 21
688.2052388413727
 31
0.0
  0
LINE
  5
761
102
{ACAD_REACTORS
330
7C6
102
}
330
1F
100
AcDbEntity
  8
実線
100
AcDbLine
 10
362.8266528668921
 20
733.3893621591927
 30
0.0
 11
417.6274284088493
 21
678.5885866172358
 31
0.0
  0
LINE
  5
762
102
{ACAD_REACTORS
330
7C6
102
}
330
1F
100
AcDbEntity
  8
実線
100
AcDbLine
 10
365.301526601045
 20
735.8642358933457
 30
0.0
 11
420.1023021430022
 21
681.0634603513887
 31
0.0
  0
LINE
  5
763
102
{ACAD_REACTORS
330
7C6
102
}
330
1F
100
AcDbEntity
  8
実線
100
AcDbLine
 10
417.6274284088493
 20
678.5885866172358
 30
0.0
 11
420.1023021430022
 21
681.0634603513887
 31
0.0
  0
LINE
  5
764
102
{ACAD_REACTORS
330
7C6
102
}
330
1F
100
AcDbEntity
  8
実線
100
AcDbLine
 10
365.301526601045
 20
735.8642358933457
 30
0.0
 11
362.8266528668921
 21
733.3893621591927
 31
0.0
  0
LINE
  5
765
102
{ACAD_REACTORS
330
7C6
102
}
330
1F
100
AcDbEntity
  8
実線
100
AcDbLine
 10
494.7048753062613
 20
781.9926144339856
 30
0.0
 11
476.5647786207481
 21
781.9926144339856
 31
0.0
  0
LINE
  5
766
102
{ACAD_REACTORS
330
7C6
102
}
330
1F
100
AcDbEntity
  8
実線
100
AcDbLine
 10
476.5647786207481
 20
718.4926144339852
 30
0.0
 11
483.7850894429098
 21
718.4926144339852
 31
0.0
  0
LINE
  5
767
102
{ACAD_REACTORS
330
7C6
102
}
330
1F
100
AcDbEntity
  8
実線
100
AcDbLine
 10
476.5647786207481
 20
781.9926144339856
 30
0.0
 11
476.5647786207481
 21
718.4926144339852
 31
0.0
  0
LINE
  5
768
102
{ACAD_REACTORS
330
7C6
102
}
330
1F
100
AcDbEntity
  8
実線
100
AcDbLine
 10
617.0647786207481
 20
490.2426144339854
 30
0.0
 11
472.0647786207481
 21
490.2426144339854
 31
0.0
  0
LINE
  5
769
102
{ACAD_REACTORS
330
7C6
102
}
330
1F
100
AcDbEntity
  8
実線
100
AcDbLine
 10
472.0647786207481
 20
591.2426144339855
 30
0.0
 11
472.0647786207481
 21
490.2426144339854
 31
0.0
  0
LINE
  5
76A
102
{ACAD_REACTORS
330
7C6
102
}
330
1F
100
AcDbEntity
  8
実線
100
AcDbLine
 10
617.0647786207481
 20
490.2426144339854
 30
0.0
 11
617.0647786207481
 21
591.2426144339855
 31
0.0
  0
LINE
  5
76B
102
{ACAD_REACTORS
330
7C6
102
}
330
1F
100
AcDbEntity
  8
実線
100
AcDbLine
 10
472.0647786207481
 20
591.2426144339855
 30
0.0
 11
617.0647786207481
 21
591.2426144339855
 31
0.0
  0
LINE
  5
76C
102
{ACAD_REACTORS
330
7C6
102
}
330
1F
100
AcDbEntity
  8
実線
100
AcDbLine
 10
483.7850894429093
 20
696.2426144339855
 30
0.0
 11
605.3444677985868
 21
696.2426144339855
 31
0.0
  0
LINE
  5
76D
102
{ACAD_REACTORS
330
7C6
102
}
330
1F
100
AcDbEntity
  8
実線
100
AcDbLine
 10
605.3444677985868
 20
696.2426144339855
 30
0.0
 11
605.3444677985868
 21
709.7426144339855
 31
0.0
  0
LINE
  5
76E
102
{ACAD_REACTORS
330
7C6
102
}
330
1F
100
AcDbEntity
  8
実線
100
AcDbLine
 10
483.7850894429093
 20
709.7426144339855
 30
0.0
 11
483.7850894429093
 21
696.2426144339855
 31
0.0
  0
LINE
  5
76F
102
{ACAD_REACTORS
330
7C6
102
}
330
1F
100
AcDbEntity
  8
実線
100
AcDbLine
 10
571.3747507706893
 20
709.7426144339855
 30
0.0
 11
571.3747507706893
 21
696.2426144339855
 31
0.0
  0
LINE
  5
770
102
{ACAD_REACTORS
330
7C6
102
}
330
1F
100
AcDbEntity
  8
実線
100
AcDbLine
 10
517.7548064708068
 20
709.7426144339855
 30
0.0
 11
517.7548064708068
 21
696.2426144339855
 31
0.0
  0
LINE
  5
771
102
{ACAD_REACTORS
330
7C6
102
}
330
1F
100
AcDbEntity
  8
実線
100
AcDbLine
 10
559.5647786207481
 20
431.2926144339853
 30
0.0
 11
559.5647786207481
 21
430.2426144339853
 31
0.0
  0
LINE
  5
772
102
{ACAD_REACTORS
330
7C6
102
}
330
1F
100
AcDbEntity
  8
実線
100
AcDbLine
 10
559.5647786207481
 20
447.2926144339854
 30
0.0
 11
559.5647786207481
 21
439.1926144339854
 31
0.0
  0
LINE
  5
773
102
{ACAD_REACTORS
330
7C6
102
}
330
1F
100
AcDbEntity
  8
実線
100
AcDbLine
 10
559.5647786207481
 20
468.2426144340325
 30
0.0
 11
559.5647786207481
 21
455.1926144339854
 31
0.0
  0
LINE
  5
774
102
{ACAD_REACTORS
330
7C6
102
}
330
1F
100
AcDbEntity
  8
実線
100
AcDbLine
 10
552.0647786207481
 20
430.2426144339853
 30
0.0
 11
559.5647786207481
 21
430.2426144339853
 31
0.0
  0
LINE
  5
775
102
{ACAD_REACTORS
330
7C6
102
}
330
1F
100
AcDbEntity
  8
実線
100
AcDbLine
 10
519.5647786207481
 20
470.2426144339855
 30
0.0
 11
519.5647786207481
 21
468.2426144339853
 31
0.0
  0
LINE
  5
776
102
{ACAD_REACTORS
330
7C6
102
}
330
1F
100
AcDbEntity
  8
実線
100
AcDbLine
 10
569.5647786207481
 20
468.2426144339853
 30
0.0
 11
569.5647786207481
 21
470.2426144339855
 31
0.0
  0
LINE
  5
777
102
{ACAD_REACTORS
330
7C6
102
}
330
1F
100
AcDbEntity
  8
実線
100
AcDbLine
 10
519.5647786207481
 20
468.2426144339853
 30
0.0
 11
569.5647786207481
 21
468.2426144339853
 31
0.0
  0
LINE
  5
778
102
{ACAD_REACTORS
330
7C6
102
}
330
1F
100
AcDbEntity
  8
実線
100
AcDbLine
 10
519.5647786207481
 20
470.2426144339855
 30
0.0
 11
569.5647786207481
 21
470.2426144339855
 31
0.0
  0
ARC
  5
779
102
{ACAD_REACTORS
330
7C6
102
}
330
1F
100
AcDbEntity
  8
実線
100
AcDbCircle
 10
549.2647786207482
 20
644.7426144339855
 30
0.0
 40
53.0
100
AcDbArc
 50
103.6639089969524
 51
165.2431843936698
  0
LINE
  5
77A
102
{ACAD_REACTORS
330
7C6
102
}
330
1F
100
AcDbEntity
  8
実線
100
AcDbLine
 10
482.2647786207482
 20
593.2426144339853
 30
0.0
 11
482.2647786207482
 21
644.7426144339855
 31
0.0
  0
ARC
  5
77B
102
{ACAD_REACTORS
330
7C6
102
}
330
1F
100
AcDbEntity
  8
実線
100
AcDbCircle
 10
549.2647786207482
 20
644.7426144339855
 30
0.0
 40
66.99999999999993
100
AcDbArc
 50
129.7665840691688
 51
180.0
  0
LINE
  5
77C
102
{ACAD_REACTORS
330
7C6
102
}
330
1F
100
AcDbEntity
  8
実線
100
AcDbLine
 10
606.8647786207482
 20
593.2426144339853
 30
0.0
 11
606.8647786207482
 21
644.7426144339855
 31
0.0
  0
ARC
  5
77D
102
{ACAD_REACTORS
330
7C6
102
}
330
1F
100
AcDbEntity
  8
実線
100
AcDbCircle
 10
539.8647786207482
 20
644.7426144339855
 30
0.0
 40
66.99999999999993
100
AcDbArc
 50
0.0
 51
50.23341593083122
  0
ARC
  5
77E
102
{ACAD_REACTORS
330
7C6
102
}
330
1F
100
AcDbEntity
  8
実線
100
AcDbCircle
 10
539.8647786207482
 20
644.7426144339855
 30
0.0
 40
53.0
100
AcDbArc
 50
14.75681560633013
 51
76.33609100304761
  0
LINE
  5
77F
102
{ACAD_REACTORS
330
7C6
102
}
330
1F
100
AcDbEntity
  8
実線
100
AcDbLine
 10
592.7077947290062
 20
658.2426144339855
 30
0.0
 11
496.42176251249
 21
658.2426144339855
 31
0.0
  0
LINE
  5
780
102
{ACAD_REACTORS
330
7C6
102
}
330
1F
100
AcDbEntity
  8
実線
100
AcDbLine
 10
496.42176251249
 20
658.2426144339855
 30
0.0
 11
496.42176251249
 21
593.2426144339853
 31
0.0
  0
LINE
  5
781
102
{ACAD_REACTORS
330
7C6
102
}
330
1F
100
AcDbEntity
  8
実線
100
AcDbLine
 10
592.7077947290062
 20
593.2426144339853
 30
0.0
 11
592.7077947290062
 21
658.2426144339855
 31
0.0
  0
LINE
  5
782
102
{ACAD_REACTORS
330
7C6
102
}
330
1F
100
AcDbEntity
  8
実線
100
AcDbLine
 10
605.344467798587
 20
709.7426144339855
 30
0.0
 11
483.7850894429093
 21
709.7426144339855
 31
0.0
  0
LINE
  5
783
102
{ACAD_REACTORS
330
7C6
102
}
330
1F
100
AcDbEntity
  8
実線
100
AcDbLine
 10
599.5647786207481
 20
724.7426144339852
 30
0.0
 11
599.5647786207481
 21
770.2426144339847
 31
0.0
  0
ARC
  5
784
102
{ACAD_REACTORS
330
7C6
102
}
330
1F
100
AcDbEntity
  8
実線
100
AcDbCircle
 10
583.5647786207481
 20
770.2426144339847
 30
0.0
 40
16.0
100
AcDbArc
 50
0.0
 51
90.0
  0
ARC
  5
785
102
{ACAD_REACTORS
330
7C6
102
}
330
1F
100
AcDbEntity
  8
実線
100
AcDbCircle
 10
505.5647786207481
 20
770.2426144339847
 30
0.0
 40
16.0
100
AcDbArc
 50
90.0
 51
132.7455692246585
  0
LINE
  5
786
102
{ACAD_REACTORS
330
7C6
102
}
330
1F
100
AcDbEntity
  8
実線
100
AcDbLine
 10
483.7850894429093
 20
724.7426144339852
 30
0.0
 11
483.7850894429093
 21
709.7426144339855
 31
0.0
  0
LINE
  5
787
102
{ACAD_REACTORS
330
7C6
102
}
330
1F
100
AcDbEntity
  8
実線
100
AcDbLine
 10
483.7850894429093
 20
724.7426144339852
 30
0.0
 11
517.7548064708068
 21
724.7426144339852
 31
0.0
  0
LINE
  5
788
102
{ACAD_REACTORS
330
7C6
102
}
330
1F
100
AcDbEntity
  8
実線
100
AcDbLine
 10
605.344467798587
 20
724.7426144339852
 30
0.0
 11
571.3747507706893
 21
724.7426144339852
 31
0.0
  0
LINE
  5
789
102
{ACAD_REACTORS
330
7C6
102
}
330
1F
100
AcDbEntity
  8
実線
100
AcDbLine
 10
605.344467798587
 20
709.7426144339855
 30
0.0
 11
605.344467798587
 21
724.7426144339852
 31
0.0
  0
LINE
  5
78A
102
{ACAD_REACTORS
330
7C6
102
}
330
1F
100
AcDbEntity
  8
実線
100
AcDbLine
 10
517.7548064708068
 20
724.7426144339852
 30
0.0
 11
517.7548064708068
 21
709.7426144339855
 31
0.0
  0
LINE
  5
78B
102
{ACAD_REACTORS
330
7C6
102
}
330
1F
100
AcDbEntity
  8
実線
100
AcDbLine
 10
571.3747507706893
 20
724.7426144339852
 30
0.0
 11
571.3747507706893
 21
709.7426144339855
 31
0.0
  0
LINE
  5
78C
102
{ACAD_REACTORS
330
7C6
102
}
330
1F
100
AcDbEntity
  8
実線
100
AcDbLine
 10
419.5647786207481
 20
821.9426144339847
 30
0.0
 11
669.5647786207481
 21
821.9426144339847
 31
0.0
  0
LINE
  5
78D
102
{ACAD_REACTORS
330
7C6
102
}
330
1F
100
AcDbEntity
  8
実線
100
AcDbLine
 10
669.5647786207481
 20
801.9426144339856
 30
0.0
 11
669.5647786207481
 21
821.9426144339847
 31
0.0
  0
LINE
  5
78E
102
{ACAD_REACTORS
330
7C6
102
}
330
1F
100
AcDbEntity
  8
実線
100
AcDbLine
 10
419.5647786207481
 20
821.9426144339847
 30
0.0
 11
419.5647786207481
 21
801.9426144339856
 31
0.0
  0
LINE
  5
78F
102
{ACAD_REACTORS
330
7C6
102
}
330
1F
100
AcDbEntity
  8
実線
100
AcDbLine
 10
669.5647786207481
 20
801.9426144339856
 30
0.0
 11
419.5647786207481
 21
801.9426144339856
 31
0.0
  0
LINE
  5
790
102
{ACAD_REACTORS
330
7C6
102
}
330
1F
100
AcDbEntity
  8
実線
100
AcDbLine
 10
472.0647786207481
 20
490.2426144339854
 30
0.0
 11
472.0647786207481
 21
488.2426144339855
 31
0.0
  0
LINE
  5
791
102
{ACAD_REACTORS
330
7C6
102
}
330
1F
100
AcDbEntity
  8
実線
100
AcDbLine
 10
617.0647786207481
 20
488.2426144339855
 30
0.0
 11
617.0647786207481
 21
490.2426144339854
 31
0.0
  0
LINE
  5
792
102
{ACAD_REACTORS
330
7C6
102
}
330
1F
100
AcDbEntity
  8
実線
100
AcDbLine
 10
614.0647786207481
 20
485.2426144339853
 30
0.0
 11
475.0647786215203
 21
485.2426144339853
 31
0.0
  0
ARC
  5
793
102
{ACAD_REACTORS
330
7C6
102
}
330
1F
100
AcDbEntity
  8
実線
100
AcDbCircle
 10
475.0647786207481
 20
488.2426144339855
 30
0.0
 40
3.0
100
AcDbArc
 50
180.0
 51
270.0
  0
ARC
  5
794
102
{ACAD_REACTORS
330
7C6
102
}
330
1F
100
AcDbEntity
  8
実線
100
AcDbCircle
 10
614.0647786207481
 20
488.2426144339855
 30
0.0
 40
3.0
100
AcDbArc
 50
270.0
 51
0.0
  0
LINE
  5
795
102
{ACAD_REACTORS
330
7C3
102
}
330
1F
100
AcDbEntity
  8
中心線
100
AcDbLine
 10
641.5721295344334
 20
136.2608540356502
 30
0.0
 11
641.5721295344334
 21
107.2608540356502
 31
0.0
  0
LINE
  5
796
102
{ACAD_REACTORS
330
7C3
102
}
330
1F
100
AcDbEntity
  8
中心線
100
AcDbLine
 10
627.0721295344334
 20
121.7608540356502
 30
0.0
 11
656.0721295344334
 21
121.7608540356502
 31
0.0
  0
LINE
  5
797
102
{ACAD_REACTORS
330
7C3
102
}
330
1F
100
AcDbEntity
  8
中心線
100
AcDbLine
 10
641.5721295344334
 20
216.6243748323189
 30
0.0
 11
641.5721295344334
 21
187.6243748323189
 31
0.0
  0
LINE
  5
798
102
{ACAD_REACTORS
330
7C3
102
}
330
1F
100
AcDbEntity
  8
中心線
100
AcDbLine
 10
627.0721295344334
 20
202.1243748323189
 30
0.0
 11
656.0721295344334
 21
202.1243748323189
 31
0.0
  0
LINE
  5
799
102
{ACAD_REACTORS
330
7C3
102
}
330
1F
100
AcDbEntity
  8
中心線
100
AcDbLine
 10
584.7465390190827
 20
273.4499653476696
 30
0.0
 11
584.7465390190827
 21
244.4499653476696
 31
0.0
  0
LINE
  5
79A
102
{ACAD_REACTORS
330
7C3
102
}
330
1F
100
AcDbEntity
  8
中心線
100
AcDbLine
 10
570.2465390190828
 20
258.9499653476697
 30
0.0
 11
599.2465390190828
 21
258.9499653476697
 31
0.0
  0
LINE
  5
79B
102
{ACAD_REACTORS
330
7C3
102
}
330
1F
100
AcDbEntity
  8
中心線
100
AcDbLine
 10
504.3830182224138
 20
273.4499653476696
 30
0.0
 11
504.3830182224138
 21
244.4499653476696
 31
0.0
  0
LINE
  5
79C
102
{ACAD_REACTORS
330
7C3
102
}
330
1F
100
AcDbEntity
  8
中心線
100
AcDbLine
 10
489.8830182224138
 20
258.9499653476697
 30
0.0
 11
518.8830182224138
 21
258.9499653476697
 31
0.0
  0
LINE
  5
79D
102
{ACAD_REACTORS
330
7C3
102
}
330
1F
100
AcDbEntity
  8
中心線
100
AcDbLine
 10
447.5574277070633
 20
216.6243748323189
 30
0.0
 11
447.5574277070633
 21
187.6243748323189
 31
0.0
  0
LINE
  5
79E
102
{ACAD_REACTORS
330
7C3
102
}
330
1F
100
AcDbEntity
  8
中心線
100
AcDbLine
 10
433.0574277070633
 20
202.1243748323189
 30
0.0
 11
462.0574277070633
 21
202.1243748323189
 31
0.0
  0
LINE
  5
79F
102
{ACAD_REACTORS
330
7C3
102
}
330
1F
100
AcDbEntity
  8
中心線
100
AcDbLine
 10
447.5574277070633
 20
136.2608540356502
 30
0.0
 11
447.5574277070633
 21
107.2608540356502
 31
0.0
  0
LINE
  5
7A0
102
{ACAD_REACTORS
330
7C3
102
}
330
1F
100
AcDbEntity
  8
中心線
100
AcDbLine
 10
433.0574277070633
 20
121.7608540356502
 30
0.0
 11
462.0574277070633
 21
121.7608540356502
 31
0.0
  0
LINE
  5
7A1
102
{ACAD_REACTORS
330
7C3
102
}
330
1F
100
AcDbEntity
  8
中心線
100
AcDbLine
 10
504.3830182224138
 20
79.4352635202996
 30
0.0
 11
504.3830182224138
 21
50.4352635202996
 31
0.0
  0
LINE
  5
7A2
102
{ACAD_REACTORS
330
7C3
102
}
330
1F
100
AcDbEntity
  8
中心線
100
AcDbLine
 10
489.8830182224138
 20
64.93526352029959
 30
0.0
 11
518.8830182224138
 21
64.93526352029959
 31
0.0
  0
LINE
  5
7A3
102
{ACAD_REACTORS
330
7C3
102
}
330
1F
100
AcDbEntity
  8
中心線
100
AcDbLine
 10
584.7465390190827
 20
79.4352635202996
 30
0.0
 11
584.7465390190827
 21
50.4352635202996
 31
0.0
  0
LINE
  5
7A4
102
{ACAD_REACTORS
330
7C3
102
}
330
1F
100
AcDbEntity
  8
中心線
100
AcDbLine
 10
570.2465390190828
 20
64.93526352029959
 30
0.0
 11
599.2465390190828
 21
64.93526352029959
 31
0.0
  0
LINE
  5
7A5
102
{ACAD_REACTORS
330
7C3
102
}
330
1F
100
AcDbEntity
  8
中心線
100
AcDbLine
 10
359.5647786207481
 20
161.9426144339847
 30
0.0
 11
729.5647786207481
 21
161.9426144339847
 31
0.0
  0
LINE
  5
7A6
102
{ACAD_REACTORS
330
7C3
102
}
330
1F
100
AcDbEntity
  8
中心線
100
AcDbLine
 10
544.5647786207482
 20
26.94261443398477
 30
0.0
 11
544.5647786207482
 21
296.9426144339848
 31
0.0
  0
LINE
  5
7A7
102
{ACAD_REACTORS
330
7C8
102
}
330
1F
100
AcDbEntity
  8
中心線
100
AcDbLine
 10
641.5721295344333
 20
1176.624374832319
 30
0.0
 11
641.5721295344333
 21
1147.624374832319
 31
0.0
  0
LINE
  5
7A8
102
{ACAD_REACTORS
330
7C8
102
}
330
1F
100
AcDbEntity
  8
中心線
100
AcDbLine
 10
627.0721295344332
 20
1162.124374832319
 30
0.0
 11
656.0721295344333
 21
1162.124374832319
 31
0.0
  0
LINE
  5
7A9
102
{ACAD_REACTORS
330
7C8
102
}
330
1F
100
AcDbEntity
  8
中心線
100
AcDbLine
 10
641.5721295344333
 20
1096.260854035651
 30
0.0
 11
641.5721295344333
 21
1067.26085403565
 31
0.0
  0
LINE
  5
7AA
102
{ACAD_REACTORS
330
7C8
102
}
330
1F
100
AcDbEntity
  8
中心線
100
AcDbLine
 10
627.0721295344332
 20
1081.76085403565
 30
0.0
 11
656.0721295344333
 21
1081.76085403565
 31
0.0
  0
LINE
  5
7AB
102
{ACAD_REACTORS
330
7C8
102
}
330
1F
100
AcDbEntity
  8
中心線
100
AcDbLine
 10
584.7465390190826
 20
1039.4352635203
 30
0.0
 11
584.7465390190826
 21
1010.4352635203
 31
0.0
  0
LINE
  5
7AC
102
{ACAD_REACTORS
330
7C8
102
}
330
1F
100
AcDbEntity
  8
中心線
100
AcDbLine
 10
570.2465390190826
 20
1024.9352635203
 30
0.0
 11
599.2465390190826
 21
1024.9352635203
 31
0.0
  0
LINE
  5
7AD
102
{ACAD_REACTORS
330
7C8
102
}
330
1F
100
AcDbEntity
  8
中心線
100
AcDbLine
 10
504.3830182224137
 20
1039.4352635203
 30
0.0
 11
504.3830182224137
 21
1010.4352635203
 31
0.0
  0
LINE
  5
7AE
102
{ACAD_REACTORS
330
7C8
102
}
330
1F
100
AcDbEntity
  8
中心線
100
AcDbLine
 10
489.8830182224137
 20
1024.9352635203
 30
0.0
 11
518.8830182224137
 21
1024.9352635203
 31
0.0
  0
LINE
  5
7AF
102
{ACAD_REACTORS
330
7C8
102
}
330
1F
100
AcDbEntity
  8
中心線
100
AcDbLine
 10
447.5574277070632
 20
1096.260854035651
 30
0.0
 11
447.5574277070632
 21
1067.26085403565
 31
0.0
  0
LINE
  5
7B0
102
{ACAD_REACTORS
330
7C8
102
}
330
1F
100
AcDbEntity
  8
中心線
100
AcDbLine
 10
433.0574277070631
 20
1081.76085403565
 30
0.0
 11
462.0574277070631
 21
1081.76085403565
 31
0.0
  0
LINE
  5
7B1
102
{ACAD_REACTORS
330
7C8
102
}
330
1F
100
AcDbEntity
  8
中心線
100
AcDbLine
 10
447.5574277070632
 20
1176.624374832319
 30
0.0
 11
447.5574277070632
 21
1147.624374832319
 31
0.0
  0
LINE
  5
7B2
102
{ACAD_REACTORS
330
7C8
102
}
330
1F
100
AcDbEntity
  8
中心線
100
AcDbLine
 10
433.0574277070631
 20
1162.124374832319
 30
0.0
 11
462.0574277070631
 21
1162.124374832319
 31
0.0
  0
LINE
  5
7B3
102
{ACAD_REACTORS
330
7C8
102
}
330
1F
100
AcDbEntity
  8
中心線
100
AcDbLine
 10
504.3830182224137
 20
1233.44996534767
 30
0.0
 11
504.3830182224137
 21
1204.44996534767
 31
0.0
  0
LINE
  5
7B4
102
{ACAD_REACTORS
330
7C8
102
}
330
1F
100
AcDbEntity
  8
中心線
100
AcDbLine
 10
489.8830182224137
 20
1218.94996534767
 30
0.0
 11
518.8830182224137
 21
1218.94996534767
 31
0.0
  0
LINE
  5
7B5
102
{ACAD_REACTORS
330
7C8
102
}
330
1F
100
AcDbEntity
  8
中心線
100
AcDbLine
 10
584.7465390190826
 20
1233.44996534767
 30
0.0
 11
584.7465390190826
 21
1204.44996534767
 31
0.0
  0
LINE
  5
7B6
102
{ACAD_REACTORS
330
7C8
102
}
330
1F
100
AcDbEntity
  8
中心線
100
AcDbLine
 10
570.2465390190826
 20
1218.94996534767
 30
0.0
 11
599.2465390190826
 21
1218.94996534767
 31
0.0
  0
LINE
  5
7B7
102
{ACAD_REACTORS
330
7C8
102
}
330
1F
100
AcDbEntity
  8
中心線
100
AcDbLine
 10
359.5647786207481
 20
1121.942614433985
 30
0.0
 11
729.5647786207481
 21
1121.942614433985
 31
0.0
  0
LINE
  5
7B8
102
{ACAD_REACTORS
330
7C8
102
}
330
1F
100
AcDbEntity
  8
中心線
100
AcDbLine
 10
544.5647786207481
 20
986.9426144339847
 30
0.0
 11
544.5647786207481
 21
1256.942614433985
 31
0.0
  0
LINE
  5
7B9
102
{ACAD_REACTORS
330
7C4
102
}
330
1F
100
AcDbEntity
  8
中心線
100
AcDbLine
 10
1154.480680683641
 20
750.2426144339857
 30
0.0
 11
1374.648876557855
 21
750.2426144339857
 31
0.0
  0
LINE
  5
7BA
102
{ACAD_REACTORS
330
7C4
102
}
330
1F
100
AcDbEntity
  8
中心線
100
AcDbLine
 10
1264.564778620748
 20
419.2177811425331
 30
0.0
 11
1264.564778620748
 21
835.2426144339856
 31
0.0
  0
LINE
  5
7BB
102
{ACAD_REACTORS
330
7C4
102
}
330
1F
100
AcDbEntity
  8
中心線
100
AcDbLine
 10
1374.648876557855
 20
750.2426144339857
 30
0.0
 11
1420.316730165999
 21
704.5747608258412
 31
0.0
  0
LINE
  5
7BC
102
{ACAD_REACTORS
330
7C6
102
}
330
1F
100
AcDbEntity
  8
中心線
100
AcDbLine
 10
654.6488765578551
 20
750.2426144339856
 30
0.0
 11
434.4806806836413
 21
750.2426144339856
 31
0.0
  0
LINE
  5
7BD
102
{ACAD_REACTORS
330
7C6
102
}
330
1F
100
AcDbEntity
  8
中心線
100
AcDbLine
 10
544.5647786207481
 20
419.2177811425329
 30
0.0
 11
544.5647786207482
 21
835.2426144339855
 31
0.0
  0
LINE
  5
7BE
102
{ACAD_REACTORS
330
7C6
102
}
330
1F
100
AcDbEntity
  8
中心線
100
AcDbLine
 10
434.4806806836413
 20
750.2426144339856
 30
0.0
 11
388.8128270754975
 21
704.5747608258412
 31
0.0
  0
LINE
  5
7BF
102
{ACAD_REACTORS
330
7C5
102
}
330
1F
100
AcDbEntity
  8
中心線
100
AcDbLine
 10
904.5647786207481
 20
419.2177811425331
 30
0.0
 11
904.5647786207481
 21
835.2426144339856
 31
0.0
  0
LINE
  5
7C0
102
{ACAD_REACTORS
330
7C5
102
}
330
1F
100
AcDbEntity
  8
中心線
100
AcDbLine
 10
819.5647786207482
 20
750.2426144339856
 30
0.0
 11
989.5647786207483
 21
750.2426144339856
 31
0.0
  0
LINE
  5
7C1
102
{ACAD_REACTORS
330
7C7
102
}
330
1F
100
AcDbEntity
  8
中心線
100
AcDbLine
 10
184.5647786207481
 20
419.2177811425331
 30
0.0
 11
184.5647786207481
 21
835.2426144339856
 31
0.0
  0
LINE
  5
7C2
102
{ACAD_REACTORS
330
7C7
102
}
330
1F
100
AcDbEntity
  8
中心線
100
AcDbLine
 10
99.56477862074814
 20
750.2426144339856
 30
0.0
 11
269.5647786207481
 21
750.2426144339856
 31
0.0
  0
ENDSEC
  0
SECTION
  2
OBJECTS
  0
DICTIONARY
  5
C
330
0
100
AcDbDictionary
281
     1
  3
ACAD_CIP_PREVIOUS_PRODUCT_INFO
350
2B5
  3
ACAD_COLOR
350
2AB
  3
ACAD_DETAILVIEWSTYLE
350
2AE
  3
ACAD_GROUP
350
D
  3
ACAD_LAYOUT
350
1A
  3
ACAD_MATERIAL
350
43
  3
ACAD_MLEADERSTYLE
350
5B
  3
ACAD_MLINESTYLE
350
17
  3
ACAD_PLOTSETTINGS
350
19
  3
ACAD_PLOTSTYLENAME
350
E
  3
ACAD_SCALELIST
350
47
  3
ACAD_SECTIONVIEWSTYLE
350
2AC
  3
ACAD_TABLESTYLE
350
59
  3
ACAD_VISUALSTYLE
350
2A
  3
ACDB_RECOMPOSE_DATA
350
8A4
  3
AcDbVariableDictionary
350
260
  3
DWGPROPS
350
8A5
  0
DICTIONARY
  5
2BC
330
2
100
AcDbDictionary
280
     1
281
     1
  3
ACAD_LAYERSTATES
360
2BD
  0
DICTIONARY
  5
7C9
330
10
100
AcDbDictionary
280
     1
281
     1
  3
ADSK_XREC_LAYER_RECONCILED
360
7CA
  0
DICTIONARY
  5
2B8
330
2B7
100
AcDbDictionary
280
     1
281
     1
  3
ADSK_XREC_LAYER_RECONCILED
360
7CB
  0
DICTIONARY
  5
2BA
330
2B9
100
AcDbDictionary
280
     1
281
     1
  3
ADSK_XREC_LAYER_RECONCILED
360
7CC
  0
DICTIONARY
  5
5DE
330
1F
100
AcDbDictionary
280
     1
281
     1
  3
ACAD_SORTENTS
360
5DF
  0
XRECORD
  5
2B5
102
{ACAD_REACTORS
330
C
102
}
330
C
100
AcDbXrecord
280
     1
300
ACDLT
300
2016
300
ACDLT_F_S
  0
DICTIONARY
  5
2AB
102
{ACAD_REACTORS
330
C
102
}
330
C
100
AcDbDictionary
281
     1
  0
DICTIONARY
  5
2AE
102
{ACAD_REACTORS
330
C
102
}
330
C
100
AcDbDictionary
281
     1
  3
Metric50
350
2AF
  0
DICTIONARY
  5
D
102
{ACAD_REACTORS
330
C
102
}
330
C
100
AcDbDictionary
281
     1
  3
*A1
350
7C3
  3
*A2
350
7C4
  3
*A3
350
7C5
  3
*A4
350
7C6
  3
*A5
350
7C7
  3
*A6
350
7C8
  0
DICTIONARY
  5
1A
102
{ACAD_REACTORS
330
C
102
}
330
C
100
AcDbDictionary
281
     1
  3
Layout1
350
1E
  3
Model
350
22
  3
レイアウト1
350
2B0
  0
DICTIONARY
  5
43
102
{ACAD_REACTORS
330
C
102
}
330
C
100
AcDbDictionary
281
     1
  3
ByBlock
350
45
  3
ByLayer
350
44
  3
Global
350
46
  0
DICTIONARY
  5
5B
102
{ACAD_REACTORS
330
C
102
}
330
C
100
AcDbDictionary
281
     1
  3
Standard
350
5C
  0
DICTIONARY
  5
17
102
{ACAD_REACTORS
330
C
102
}
330
C
100
AcDbDictionary
281
     1
  3
Standard
350
18
  0
DICTIONARY
  5
19
102
{ACAD_REACTORS
330
C
102
}
330
C
100
AcDbDictionary
281
     1
  0
ACDBDICTIONARYWDFLT
  5
E
102
{ACAD_REACTORS
330
C
102
}
330
C
100
AcDbDictionary
281
     1
  3
Normal
350
F
100
AcDbDictionaryWithDefault
340
F
  0
DICTIONARY
  5
47
102
{ACAD_REACTORS
330
C
102
}
330
C
100
AcDbDictionary
281
     1
  3
A0
350
48
  3
A1
350
49
  3
A2
350
4A
  3
A3
350
4B
  3
A4
350
4C
  3
A5
350
4D
  3
A6
350
4E
  3
A7
350
4F
  3
A8
350
50
  3
A9
350
51
  3
B0
350
52
  3
B1
350
53
  3
B2
350
54
  3
B3
350
55
  3
B4
350
56
  3
B5
350
57
  3
B6
350
58
  0
DICTIONARY
  5
2AC
102
{ACAD_REACTORS
330
C
102
}
330
C
100
AcDbDictionary
281
     1
  3
Metric50
350
2AD
  0
DICTIONARY
  5
59
102
{ACAD_REACTORS
330
C
102
}
330
C
100
AcDbDictionary
281
     1
  3
Standard
350
5A
  0
DICTIONARY
  5
2A
102
{ACAD_REACTORS
330
C
102
}
330
C
100
AcDbDictionary
281
     1
  3
2dWireframe
350
2F
  3
Basic
350
32
  3
Brighten
350
36
  3
ColorChange
350
3A
  3
Conceptual
350
34
  3
Dim
350
35
  3
EdgeColorOff
350
3D
  3
Facepattern
350
39
  3
Flat
350
2B
  3
FlatWithEdges
350
2C
  3
Gouraud
350
2D
  3
GouraudWithEdges
350
2E
  3
Hidden
350
31
  3
JitterOff
350
3B
  3
Linepattern
350
38
  3
OverhangOff
350
3C
  3
Realistic
350
33
  3
Shaded
350
42
  3
Shaded with edges
350
41
  3
Shades of Gray
350
3E
  3
Sketchy
350
3F
  3
Thicken
350
37
  3
Wireframe
350
30
  3
X-Ray
350
40
  0
XRECORD
  5
8A4
102
{ACAD_REACTORS
330
C
102
}
330
C
100
AcDbXrecord
280
     1
 90
        1
330
5A
  0
DICTIONARY
  5
260
102
{ACAD_REACTORS
330
C
102
}
330
C
100
AcDbDictionary
281
     1
  3
CANNOSCALE
350
26E
  3
CENTEREXE
350
267
  3
CENTERLTYPEFILE
350
268
  3
CMLEADERSTYLE
350
262
  3
CTABLESTYLE
350
261
  3
CVIEWDETAILSTYLE
350
7CD
  3
CVIEWSECTIONSTYLE
350
7CE
  3
DIMASSOC
350
269
  3
HIDETEXT
350
26A
  3
INDEXCTL
350
820
  3
LAYEREVAL
350
7D0
  3
LAYERNOTIFY
350
7D1
  3
LIGHTINGUNITS
350
7CF
  3
LOFTANG1
350
823
  3
LOFTANG2
350
824
  3
LONGITUDE
350
825
  3
MSLTSCALE
350
26F
  3
PSOLHEIGHT
350
822
  3
PSOLWIDTH
350
821
  3
SORTENTS
350
81F
  3
XCLIPFRAME
350
826
  0
XRECORD
  5
8A5
102
{ACAD_REACTORS
330
C
102
}
330
C
100
AcDbXrecord
280
     1
  1
DWGPROPS COOKIE
  2

  3

  4

  6
File was created by TR2_DExp
  7

  8
fujino
  9

300
=
301
=
302
=
303
=
304
=
305
=
306
=
307
=
308
=
309
=
 40
0.0093845486111111
 41
2455188.75
 42
2459754.633179896
  1

 90
        0
  0
DICTIONARY
  5
2BD
102
{ACAD_REACTORS
330
2BC
102
}
330
2BC
100
AcDbDictionary
281
     1
  0
XRECORD
  5
7CA
102
{ACAD_REACTORS
330
7C9
102
}
330
7C9
100
AcDbXrecord
280
     1
290
     1
  0
XRECORD
  5
7CB
102
{ACAD_REACTORS
330
2B8
102
}
330
2B8
100
AcDbXrecord
280
     1
290
     1
  0
XRECORD
  5
7CC
102
{ACAD_REACTORS
330
2BA
102
}
330
2BA
100
AcDbXrecord
280
     1
290
     1
  0
SORTENTSTABLE
  5
5DF
102
{ACAD_REACTORS
330
5DE
102
}
330
5DE
100
AcDbSortentsTable
330
1F
331
5D8
  5
618
331
75D
  5
464
331
759
  5
460
331
794
  5
49B
331
755
  5
45C
331
751
  5
458
331
790
  5
497
331
6E6
  5
4A0
331
6E2
  5
49C
331
604
  5
5C7
331
6DE
  5
53E
331
71D
  5
4D7
331
600
  5
5C3
331
676
  5
58B
331
63F
  5
554
331
63B
  5
550
331
6DA
  5
53A
331
719
  5
4D3
331
672
  5
587
331
5FC
  5
5BF
331
5F8
  5
5BB
331
66E
  5
583
331
6AD
  5
50D
331
5D7
  5
617
331
66A
  5
57F
331
6A9
  5
509
331
5D3
  5
613
331
74D
  5
454
331
78C
  5
493
331
749
  5
450
331
788
  5
48F
331
784
  5
48B
331
745
  5
44C
331
780
  5
487
331
741
  5
448
331
7BE
  5
7BE
331
7BA
  5
7BA
331
715
  5
4CF
331
637
  5
54C
331
6D6
  5
536
331
711
  5
4CB
331
5F4
  5
5B7
331
633
  5
548
331
6D2
  5
532
331
6CE
  5
52E
331
70D
  5
4C7
331
6A5
  5
505
331
5F0
  5
5B3
331
666
  5
57B
331
62F
  5
544
331
62B
  5
5F0
331
6CA
  5
52A
331
709
  5
4C3
331
662
  5
577
331
6A1
  5
501
331
5CF
  5
60F
331
5EC
  5
5AF
331
5E8
  5
5AB
331
65E
  5
573
331
69D
  5
4FD
331
5CB
  5
60B
331
5C7
  5
607
331
65A
  5
56F
331
699
  5
4F9
331
5C3
  5
603
331
73D
  5
444
331
77C
  5
483
331
739
  5
440
331
778
  5
47F
331
7B6
  5
7B6
331
735
  5
43C
331
774
  5
47B
331
770
  5
477
331
7B2
  5
7B2
331
731
  5
4EB
331
7AE
  5
7AE
331
7AA
  5
7AA
331
627
  5
5EC
331
6C6
  5
526
331
705
  5
4BF
331
701
  5
4BB
331
5E4
  5
5A7
331
623
  5
5E8
331
6C2
  5
522
331
6BE
  5
51E
331
6FD
  5
4B7
331
695
  5
4F5
331
5E0
  5
5A3
331
656
  5
56B
331
61F
  5
5E4
331
61B
  5
5E0
331
652
  5
567
331
691
  5
4F1
331
6BA
  5
51A
331
5BF
  5
5FF
331
6F9
  5
4B3
331
7C0
  5
7C0
331
64E
  5
563
331
68D
  5
5A2
331
5BB
  5
5FB
331
5B7
  5
5F7
331
64A
  5
55F
331
689
  5
59E
331
5B3
  5
5F3
331
72D
  5
4E7
331
76C
  5
473
331
729
  5
4E3
331
768
  5
46F
331
7A6
  5
7A6
331
725
  5
4DF
331
764
  5
46B
331
760
  5
467
331
7A2
  5
7A2
331
721
  5
4DB
331
79E
  5
79E
331
79A
  5
79A
331
617
  5
5DA
331
6B6
  5
516
331
6F5
  5
4AF
331
6F1
  5
4AB
331
613
  5
5D6
331
6B2
  5
512
331
6ED
  5
4A7
331
685
  5
59A
331
646
  5
55B
331
60F
  5
5D2
331
60B
  5
5CE
331
681
  5
596
331
6E9
  5
4A3
331
642
  5
557
331
67D
  5
592
331
679
  5
58E
331
5DB
  5
61B
331
75C
  5
463
331
797
  5
797
331
758
  5
45F
331
793
  5
49A
331
754
  5
45B
331
750
  5
457
331
607
  5
5CA
331
6E5
  5
49F
331
6E1
  5
541
331
603
  5
5C6
331
63E
  5
553
331
6DD
  5
53D
331
71C
  5
4D6
331
5FF
  5
5C2
331
675
  5
58A
331
63A
  5
54F
331
6D9
  5
539
331
718
  5
4D2
331
671
  5
586
331
5FB
  5
5BE
331
66D
  5
582
331
6AC
  5
50C
331
5D6
  5
616
331
669
  5
57E
331
6A8
  5
508
331
5D2
  5
612
331
78F
  5
496
331
74C
  5
453
331
78B
  5
492
331
748
  5
44F
331
787
  5
48E
331
783
  5
48A
331
744
  5
44B
331
740
  5
447
331
7BD
  5
7BD
331
7B9
  5
7B9
331
714
  5
4CE
331
5F7
  5
5BA
331
636
  5
54B
331
6D5
  5
535
331
6D1
  5
531
331
710
  5
4CA
331
5F3
  5
5B6
331
632
  5
547
331
6CD
  5
52D
331
70C
  5
4C6
331
6A4
  5
504
331
5EF
  5
5B2
331
665
  5
57A
331
62E
  5
543
331
62A
  5
5EF
331
6C9
  5
529
331
708
  5
4C2
331
661
  5
576
331
6A0
  5
500
331
5CE
  5
60E
331
5EB
  5
5AE
331
65D
  5
572
331
69C
  5
4FC
331
5CA
  5
60A
331
5C6
  5
606
331
659
  5
56E
331
698
  5
4F8
331
5C2
  5
602
331
77F
  5
486
331
73C
  5
443
331
77B
  5
482
331
738
  5
43F
331
777
  5
47E
331
773
  5
47A
331
7B5
  5
7B5
331
734
  5
43B
331
7B1
  5
7B1
331
730
  5
4EA
331
7AD
  5
7AD
331
7A9
  5
7A9
331
704
  5
4BE
331
5E7
  5
5AA
331
626
  5
5EB
331
6C5
  5
525
331
700
  5
4BA
331
5E3
  5
5A6
331
622
  5
5E7
331
6C1
  5
521
331
6BD
  5
51D
331
6FC
  5
4B6
331
694
  5
4F4
331
655
  5
56A
331
61E
  5
5E3
331
61A
  5
5DD
331
651
  5
566
331
690
  5
4F0
331
6B9
  5
519
331
5BE
  5
5FE
331
6F8
  5
4B2
331
64D
  5
562
331
68C
  5
5A1
331
5BA
  5
5FA
331
5B6
  5
5F6
331
649
  5
55E
331
688
  5
59D
331
5B2
  5
5F2
331
76F
  5
476
331
72C
  5
4E6
331
76B
  5
472
331
728
  5
4E2
331
767
  5
46E
331
7A5
  5
7A5
331
724
  5
4DE
331
763
  5
46A
331
7A1
  5
7A1
331
720
  5
4DA
331
79D
  5
79D
331
799
  5
799
331
616
  5
5D9
331
6B5
  5
515
331
6F4
  5
4AE
331
6F0
  5
4AA
331
612
  5
5D5
331
6B1
  5
511
331
6EC
  5
4A6
331
684
  5
599
331
645
  5
55A
331
60E
  5
5D1
331
60A
  5
5CD
331
641
  5
556
331
680
  5
595
331
6E8
  5
4A2
331
67C
  5
591
331
678
  5
58D
331
5DA
  5
61A
331
75F
  5
466
331
75B
  5
462
331
796
  5
796
331
757
  5
45E
331
792
  5
499
331
753
  5
45A
331
606
  5
5C9
331
6E4
  5
49E
331
6E0
  5
540
331
71F
  5
4D9
331
602
  5
5C5
331
63D
  5
552
331
6DC
  5
53C
331
71B
  5
4D5
331
674
  5
589
331
5FE
  5
5C1
331
5FA
  5
5BD
331
639
  5
54E
331
670
  5
585
331
6AF
  5
50F
331
6D8
  5
538
331
66C
  5
581
331
6AB
  5
50B
331
5D5
  5
615
331
668
  5
57D
331
5D1
  5
611
331
74F
  5
456
331
78E
  5
495
331
74B
  5
452
331
78A
  5
491
331
747
  5
44E
331
786
  5
48D
331
782
  5
489
331
743
  5
44A
331
7BC
  5
7BC
331
7B8
  5
7B8
331
717
  5
4D1
331
713
  5
4CD
331
5F6
  5
5B9
331
635
  5
54A
331
6D4
  5
534
331
6D0
  5
530
331
70F
  5
4C9
331
6A7
  5
507
331
5F2
  5
5B5
331
631
  5
546
331
62D
  5
542
331
6CC
  5
52C
331
70B
  5
4C5
331
6A3
  5
503
331
5EE
  5
5B1
331
664
  5
579
331
629
  5
5EE
331
6C8
  5
528
331
660
  5
575
331
69F
  5
4FF
331
5CD
  5
60D
331
5EA
  5
5AD
331
65C
  5
571
331
69B
  5
4FB
331
5C9
  5
609
331
5C5
  5
605
331
658
  5
56D
331
5C1
  5
601
331
73F
  5
446
331
77E
  5
485
331
73B
  5
442
331
77A
  5
481
331
737
  5
43E
331
776
  5
47D
331
772
  5
479
331
7B4
  5
7B4
331
733
  5
4ED
331
7B0
  5
7B0
331
7AC
  5
7AC
331
7A8
  5
7A8
331
707
  5
4C1
331
703
  5
4BD
331
5E6
  5
5A9
331
625
  5
5EA
331
6C4
  5
524
331
6C0
  5
520
331
6FF
  5
4B9
331
5E2
  5
5A5
331
621
  5
5E6
331
697
  5
4F7
331
6BC
  5
51C
331
6FB
  5
4B5
331
693
  5
4F3
331
654
  5
569
331
61D
  5
5E2
331
7C2
  5
7C2
331
619
  5
5DC
331
650
  5
565
331
68F
  5
4EF
331
6B8
  5
518
331
5BD
  5
5FD
331
64C
  5
561
331
68B
  5
5A0
331
5B9
  5
5F9
331
5B5
  5
5F5
331
648
  5
55D
331
72F
  5
4E9
331
76E
  5
475
331
72B
  5
4E5
331
76A
  5
471
331
727
  5
4E1
331
766
  5
46D
331
762
  5
469
331
7A4
  5
7A4
331
723
  5
4DD
331
7A0
  5
7A0
331
79C
  5
79C
331
798
  5
798
331
6F7
  5
4B1
331
6F3
  5
4AD
331
615
  5
5D8
331
6B4
  5
514
331
6EF
  5
4A9
331
611
  5
5D4
331
687
  5
59C
331
6B0
  5
510
331
6EB
  5
4A5
331
683
  5
598
331
644
  5
559
331
60D
  5
5D0
331
609
  5
5CC
331
640
  5
555
331
67F
  5
594
331
67B
  5
590
331
5DD
  5
61D
331
5D9
  5
619
331
75E
  5
465
331
75A
  5
461
331
795
  5
795
331
756
  5
45D
331
791
  5
498
331
752
  5
459
331
6E7
  5
4A1
331
605
  5
5C8
331
6E3
  5
49D
331
6DF
  5
53F
331
71E
  5
4D8
331
601
  5
5C4
331
677
  5
58C
331
63C
  5
551
331
6DB
  5
53B
331
71A
  5
4D4
331
673
  5
588
331
5FD
  5
5C0
331
5F9
  5
5BC
331
638
  5
54D
331
66F
  5
584
331
6AE
  5
50E
331
66B
  5
580
331
6AA
  5
50A
331
5D4
  5
614
331
5D0
  5
610
331
74E
  5
455
331
78D
  5
494
331
74A
  5
451
331
789
  5
490
331
746
  5
44D
331
785
  5
48C
331
781
  5
488
331
742
  5
449
331
7BF
  5
7BF
331
7BB
  5
7BB
331
6D7
  5
537
331
716
  5
4D0
331
712
  5
4CC
331
5F5
  5
5B8
331
634
  5
549
331
6D3
  5
533
331
6CF
  5
52F
331
70E
  5
4C8
331
6A6
  5
506
331
5F1
  5
5B4
331
667
  5
57C
331
630
  5
545
331
62C
  5
5F1
331
6CB
  5
52B
331
70A
  5
4C4
331
663
  5
578
331
6A2
  5
502
331
5ED
  5
5B0
331
5E9
  5
5AC
331
628
  5
5ED
331
65F
  5
574
331
69E
  5
4FE
331
5CC
  5
60C
331
5C8
  5
608
331
65B
  5
570
331
69A
  5
4FA
331
5C4
  5
604
331
5C0
  5
600
331
73E
  5
445
331
77D
  5
484
331
73A
  5
441
331
779
  5
480
331
7B7
  5
7B7
331
736
  5
43D
331
775
  5
47C
331
771
  5
478
331
7B3
  5
7B3
331
732
  5
4EC
331
7AF
  5
7AF
331
7AB
  5
7AB
331
6C7
  5
527
331
706
  5
4C0
331
702
  5
4BC
331
5E5
  5
5A8
331
624
  5
5E9
331
6C3
  5
523
331
6BF
  5
51F
331
6FE
  5
4B8
331
696
  5
4F6
331
5E1
  5
5A4
331
657
  5
56C
331
620
  5
5E5
331
61C
  5
5E1
331
692
  5
4F2
331
6BB
  5
51B
331
6FA
  5
4B4
331
653
  5
568
331
7C1
  5
7C1
331
618
  5
5DB
331
64F
  5
564
331
68E
  5
4EE
331
5BC
  5
5FC
331
64B
  5
560
331
68A
  5
59F
331
5B8
  5
5F8
331
5B4
  5
5F4
331
72E
  5
4E8
331
76D
  5
474
331
72A
  5
4E4
331
769
  5
470
331
7A7
  5
7A7
331
726
  5
4E0
331
765
  5
46C
331
761
  5
468
331
7A3
  5
7A3
331
722
  5
4DC
331
79F
  5
79F
331
79B
  5
79B
331
6B7
  5
517
331
6F6
  5
4B0
331
6F2
  5
4AC
331
614
  5
5D7
331
6B3
  5
513
331
6EE
  5
4A8
331
610
  5
5D3
331
647
  5
55C
331
686
  5
59B
331
6EA
  5
4A4
331
682
  5
597
331
643
  5
558
331
60C
  5
5CF
331
608
  5
5CB
331
67E
  5
593
331
67A
  5
58F
331
5DC
  5
61C
  0
ACDBDETAILVIEWSTYLE
  5
2AF
102
{ACAD_XDICTIONARY
360
8DD
102
}
102
{ACAD_REACTORS
330
2AE
102
}
330
2AE
100
AcDbModelDocViewStyle
 70
     0
  3
Metric50
290
     0
100
AcDbDetailViewStyle
 70
     0
 71
     0
 90
        3
 71
     1
340
11
 40
5.0
340
0
 40
5.0
300

 40
0.0
280
     1
 71
     2
340
16
 90
       25
 71
     3
340
11
 40
5.0
 90
        0
 40
15.0
 90
        1
300
%<\AcVar ViewDetailId>% (%<\AcVar ViewScale \f "%sn">%)
 71
     4
340
16
 90
       25
340
16
 90
       25
280
     0
  0
GROUP
  5
7C3
102
{ACAD_REACTORS
330
D
102
}
330
D
100
AcDbGroup
300

 70
     1
 71
     1
340
7A6
340
7A5
340
7A4
340
7A3
340
7A2
340
7A1
340
7A0
340
79F
340
79E
340
79D
340
79C
340
79B
340
79A
340
799
340
798
340
797
340
796
340
795
340
62C
340
62B
340
62A
340
629
340
628
340
627
340
626
340
625
340
624
340
623
340
622
340
621
340
620
340
61F
340
61E
340
61D
340
61C
340
61B
340
61A
340
619
340
618
340
617
340
616
340
615
340
614
340
613
340
612
340
611
340
610
340
60F
340
60E
340
60D
340
60C
340
60B
340
60A
340
609
340
608
340
607
340
606
340
605
340
604
340
603
340
602
340
601
340
600
340
5FF
340
5FE
340
5FD
340
5FC
340
5FB
340
5FA
340
5F9
340
5F8
340
5F7
340
5F6
340
5F5
340
5F4
340
5F3
340
5F2
340
5F1
340
5F0
340
5EF
340
5EE
340
5ED
340
5EC
340
5EB
340
5EA
340
5E9
340
5E8
340
5E7
340
5E6
340
5E5
340
5E4
340
5E3
340
5E2
340
5E1
340
5E0
  0
GROUP
  5
7C4
102
{ACAD_REACTORS
330
D
102
}
330
D
100
AcDbGroup
300

 70
     1
 71
     1
340
7BB
340
7BA
340
7B9
340
68D
340
68C
340
68B
340
68A
340
689
340
688
340
687
340
686
340
685
340
684
340
683
340
682
340
681
340
680
340
67F
340
67E
340
67D
340
67C
340
67B
340
67A
340
679
340
678
340
677
340
676
340
675
340
674
340
673
340
672
340
671
340
670
340
66F
340
66E
340
66D
340
66C
340
66B
340
66A
340
669
340
668
340
667
340
666
340
665
340
664
340
663
340
662
340
661
340
660
340
65F
340
65E
340
65D
340
65C
340
65B
340
65A
340
659
340
658
340
657
340
656
340
655
340
654
340
653
340
652
340
651
340
650
340
64F
340
64E
340
64D
340
64C
340
64B
340
64A
340
649
340
648
340
647
340
646
340
645
340
644
340
643
340
642
340
641
340
640
340
63F
340
63E
340
63D
340
63C
340
63B
340
63A
340
639
340
638
340
637
340
636
340
635
340
634
340
633
340
632
340
631
340
630
340
62F
340
62E
340
62D
  0
GROUP
  5
7C5
102
{ACAD_REACTORS
330
D
102
}
330
D
100
AcDbGroup
300

 70
     1
 71
     1
340
7C0
340
7BF
340
6E1
340
6E0
340
6DF
340
6DE
340
6DD
340
6DC
340
6DB
340
6DA
340
6D9
340
6D8
340
6D7
340
6D6
340
6D5
340
6D4
340
6D3
340
6D2
340
6D1
340
6D0
340
6CF
340
6CE
340
6CD
340
6CC
340
6CB
340
6CA
340
6C9
340
6C8
340
6C7
340
6C6
340
6C5
340
6C4
340
6C3
340
6C2
340
6C1
340
6C0
340
6BF
340
6BE
340
6BD
340
6BC
340
6BB
340
6BA
340
6B9
340
6B8
340
6B7
340
6B6
340
6B5
340
6B4
340
6B3
340
6B2
340
6B1
340
6B0
340
6AF
340
6AE
340
6AD
340
6AC
340
6AB
340
6AA
340
6A9
340
6A8
340
6A7
340
6A6
340
6A5
340
6A4
340
6A3
340
6A2
340
6A1
340
6A0
340
69F
340
69E
340
69D
340
69C
340
69B
340
69A
340
699
340
698
340
697
340
696
340
695
340
694
340
693
340
692
340
691
340
690
340
68F
340
68E
  0
GROUP
  5
7C6
102
{ACAD_REACTORS
330
D
102
}
330
D
100
AcDbGroup
300

 70
     1
 71
     1
340
7BE
340
7BD
340
7BC
340
794
340
793
340
792
340
791
340
790
340
78F
340
78E
340
78D
340
78C
340
78B
340
78A
340
789
340
788
340
787
340
786
340
785
340
784
340
783
340
782
340
781
340
780
340
77F
340
77E
340
77D
340
77C
340
77B
340
77A
340
779
340
778
340
777
340
776
340
775
340
774
340
773
340
772
340
771
340
770
340
76F
340
76E
340
76D
340
76C
340
76B
340
76A
340
769
340
768
340
767
340
766
340
765
340
764
340
763
340
762
340
761
340
760
340
75F
340
75E
340
75D
340
75C
340
75B
340
75A
340
759
340
758
340
757
340
756
340
755
340
754
340
753
340
752
340
751
340
750
340
74F
340
74E
340
74D
340
74C
340
74B
340
74A
340
749
340
748
340
747
340
746
340
745
340
744
340
743
340
742
340
741
340
740
340
73F
340
73E
340
73D
340
73C
340
73B
340
73A
340
739
340
738
340
737
340
736
340
735
340
734
  0
GROUP
  5
7C7
102
{ACAD_REACTORS
330
D
102
}
330
D
100
AcDbGroup
300

 70
     1
 71
     1
340
7C2
340
7C1
340
733
340
732
340
731
340
730
340
72F
340
72E
340
72D
340
72C
340
72B
340
72A
340
729
340
728
340
727
340
726
340
725
340
724
340
723
340
722
340
721
340
720
340
71F
340
71E
340
71D
340
71C
340
71B
340
71A
340
719
340
718
340
717
340
716
340
715
340
714
340
713
340
712
340
711
340
710
340
70F
340
70E
340
70D
340
70C
340
70B
340
70A
340
709
340
708
340
707
340
706
340
705
340
704
340
703
340
702
340
701
340
700
340
6FF
340
6FE
340
6FD
340
6FC
340
6FB
340
6FA
340
6F9
340
6F8
340
6F7
340
6F6
340
6F5
340
6F4
340
6F3
340
6F2
340
6F1
340
6F0
340
6EF
340
6EE
340
6ED
340
6EC
340
6EB
340
6EA
340
6E9
340
6E8
340
6E7
340
6E6
340
6E5
340
6E4
340
6E3
340
6E2
  0
GROUP
  5
7C8
102
{ACAD_REACTORS
330
D
102
}
330
D
100
AcDbGroup
300

 70
     1
 71
     1
340
7B8
340
7B7
340
7B6
340
7B5
340
7B4
340
7B3
340
7B2
340
7B1
340
7B0
340
7AF
340
7AE
340
7AD
340
7AC
340
7AB
340
7AA
340
7A9
340
7A8
340
7A7
340
5DD
340
5DC
340
5DB
340
5DA
340
5D9
340
5D8
340
5D7
340
5D6
340
5D5
340
5D4
340
5D3
340
5D2
340
5D1
340
5D0
340
5CF
340
5CE
340
5CD
340
5CC
340
5CB
340
5CA
340
5C9
340
5C8
340
5C7
340
5C6
340
5C5
340
5C4
340
5C3
340
5C2
340
5C1
340
5C0
340
5BF
340
5BE
340
5BD
340
5BC
340
5BB
340
5BA
340
5B9
340
5B8
340
5B7
340
5B6
340
5B5
340
5B4
340
5B3
340
5B2
  0
LAYOUT
  5
1E
102
{ACAD_XDICTIONARY
360
8A6
102
}
102
{ACAD_REACTORS
330
1A
102
}
330
1A
100
AcDbPlotSettings
  1

  2
none_device
  4

  6

 40
0.0
 41
0.0
 42
0.0
 43
0.0
 44
0.0
 45
0.0
 46
0.0
 47
0.0
 48
0.0
 49
0.0
140
0.0
141
0.0
142
1.0
143
1.0
 70
   688
 72
     1
 73
     0
 74
     5
  7

 75
    16
147
1.0
148
0.0
149
0.0
100
AcDbLayout
  1
Layout1
 70
     1
 71
     1
 10
0.0
 20
0.0
 11
420.0
 21
297.0
 12
0.0
 22
0.0
 32
0.0
 14
1.000000000000000E+20
 24
1.000000000000000E+20
 34
1.000000000000000E+20
 15
-1.000000000000000E+20
 25
-1.000000000000000E+20
 35
-1.000000000000000E+20
146
0.0
 13
0.0
 23
0.0
 33
0.0
 16
1.0
 26
0.0
 36
0.0
 17
0.0
 27
1.0
 37
0.0
 76
     0
330
1B
  0
LAYOUT
  5
22
102
{ACAD_XDICTIONARY
360
8A8
102
}
102
{ACAD_REACTORS
330
1A
102
}
330
1A
100
AcDbPlotSettings
  1

  2
none_device
  4
Letter_(8.50_x_11.00_Inches)
  6

 40
6.349999999999998
 41
6.349999999999998
 42
6.350005079999998
 43
6.350005079999998
 44
215.9
 45
279.4
 46
0.0
 47
0.0
 48
0.0
 49
0.0
140
0.0
141
0.0
142
1.0
143
1.0
 70
  1712
 72
     1
 73
     0
 74
     0
  7

 75
     0
147
1.0
148
0.0
149
0.0
100
AcDbLayout
  1
Model
 70
     1
 71
     0
 10
-584.6227951049804
 20
-796.9091033935547
 11
1114.923268270946
 21
469.6175231933593
 12
0.0
 22
0.0
 32
0.0
 14
-584.6227951049804
 24
-796.9091033935547
 34
0.0
 15
1114.923268270946
 25
469.6175231933593
 35
0.0
146
0.0
 13
0.0
 23
0.0
 33
0.0
 16
1.0
 26
0.0
 36
0.0
 17
0.0
 27
1.0
 37
0.0
 76
     0
330
1F
331
29
  0
LAYOUT
  5
2B0
102
{ACAD_XDICTIONARY
360
8DF
102
}
102
{ACAD_REACTORS
330
1A
102
}
330
1A
100
AcDbPlotSettings
  1

  2
青梅 FX DocuCentre-V C2275 T2
  4

  6

 40
0.0
 41
0.0
 42
0.0
 43
0.0
 44
0.0
 45
0.0
 46
0.0
 47
0.0
 48
0.0
 49
0.0
140
0.0
141
0.0
142
1.0
143
1.0
 70
   688
 72
     0
 73
     0
 74
     5
  7
AutoCAD_PEN.ctb
 75
    16
147
1.0
148
0.0
149
0.0
100
AcDbLayout
  1
レイアウト1
 70
     1
 71
     2
 10
0.0
 20
0.0
 11
12.0
 21
9.0
 12
0.0
 22
0.0
 32
0.0
 14
0.0
 24
0.0
 34
0.0
 15
0.0
 25
0.0
 35
0.0
146
0.0
 13
0.0
 23
0.0
 33
0.0
 16
1.0
 26
0.0
 36
0.0
 17
0.0
 27
1.0
 37
0.0
 76
     0
330
23
  0
MATERIAL
  5
45
102
{ACAD_XDICTIONARY
360
2A2
102
}
102
{ACAD_REACTORS
330
43
102
}
330
43
100
AcDbMaterial
  1
ByBlock
  0
MATERIAL
  5
44
102
{ACAD_XDICTIONARY
360
2A0
102
}
102
{ACAD_REACTORS
330
43
102
}
330
43
100
AcDbMaterial
  1
ByLayer
  0
MATERIAL
  5
46
102
{ACAD_XDICTIONARY
360
2A4
102
}
102
{ACAD_REACTORS
330
43
102
}
330
43
100
AcDbMaterial
  1
Global
  0
MLEADERSTYLE
  5
5C
102
{ACAD_REACTORS
330
5B
102
}
330
5B
100
AcDbMLeaderStyle
170
     2
171
     1
172
     0
 90
        2
 40
0.0
 41
0.0
173
     1
 91
-1056964608
340
14
 92
       -2
290
     1
 42
2.0
291
     1
 43
8.0
  3
Standard
 44
4.0
300

342
11
174
     1
178
     6
175
     1
176
     0
 93
-1056964608
 45
4.0
292
     0
297
     0
 46
4.0
 94
-1056964608
 47
1.0
 49
1.0
140
1.0
293
     1
141
0.0
294
     1
177
     0
142
1.0
295
     0
296
     0
143
3.75
1001
ACAD_MLEADERVER
1070
     2
  0
MLINESTYLE
  5
18
102
{ACAD_REACTORS
330
17
102
}
330
17
100
AcDbMlineStyle
  2
STANDARD
 70
     0
  3

 62
   256
 51
90.0
 52
90.0
 71
     2
 49
0.5
 62
   256
  6
BYLAYER
 49
-0.5
 62
   256
  6
BYLAYER
  0
ACDBPLACEHOLDER
  5
F
102
{ACAD_REACTORS
330
E
102
}
330
E
  0
SCALE
  5
48
102
{ACAD_REACTORS
330
47
102
}
330
47
100
AcDbScale
 70
     0
300
1:1
140
1.0
141
1.0
290
     1
  0
SCALE
  5
49
102
{ACAD_REACTORS
330
47
102
}
330
47
100
AcDbScale
 70
     0
300
1:2
140
1.0
141
2.0
290
     0
  0
SCALE
  5
4A
102
{ACAD_REACTORS
330
47
102
}
330
47
100
AcDbScale
 70
     0
300
1:4
140
1.0
141
4.0
290
     0
  0
SCALE
  5
4B
102
{ACAD_REACTORS
330
47
102
}
330
47
100
AcDbScale
 70
     0
300
1:5
140
1.0
141
5.0
290
     0
  0
SCALE
  5
4C
102
{ACAD_REACTORS
330
47
102
}
330
47
100
AcDbScale
 70
     0
300
1:8
140
1.0
141
8.0
290
     0
  0
SCALE
  5
4D
102
{ACAD_REACTORS
330
47
102
}
330
47
100
AcDbScale
 70
     0
300
1:10
140
1.0
141
10.0
290
     0
  0
SCALE
  5
4E
102
{ACAD_REACTORS
330
47
102
}
330
47
100
AcDbScale
 70
     0
300
1:16
140
1.0
141
16.0
290
     0
  0
SCALE
  5
4F
102
{ACAD_REACTORS
330
47
102
}
330
47
100
AcDbScale
 70
     0
300
1:20
140
1.0
141
20.0
290
     0
  0
SCALE
  5
50
102
{ACAD_REACTORS
330
47
102
}
330
47
100
AcDbScale
 70
     0
300
1:30
140
1.0
141
30.0
290
     0
  0
SCALE
  5
51
102
{ACAD_REACTORS
330
47
102
}
330
47
100
AcDbScale
 70
     0
300
1:40
140
1.0
141
40.0
290
     0
  0
SCALE
  5
52
102
{ACAD_REACTORS
330
47
102
}
330
47
100
AcDbScale
 70
     0
300
1:50
140
1.0
141
50.0
290
     0
  0
SCALE
  5
53
102
{ACAD_REACTORS
330
47
102
}
330
47
100
AcDbScale
 70
     0
300
1:100
140
1.0
141
100.0
290
     0
  0
SCALE
  5
54
102
{ACAD_REACTORS
330
47
102
}
330
47
100
AcDbScale
 70
     0
300
2:1
140
2.0
141
1.0
290
     0
  0
SCALE
  5
55
102
{ACAD_REACTORS
330
47
102
}
330
47
100
AcDbScale
 70
     0
300
4:1
140
4.0
141
1.0
290
     0
  0
SCALE
  5
56
102
{ACAD_REACTORS
330
47
102
}
330
47
100
AcDbScale
 70
     0
300
8:1
140
8.0
141
1.0
290
     0
  0
SCALE
  5
57
102
{ACAD_REACTORS
330
47
102
}
330
47
100
AcDbScale
 70
     0
300
10:1
140
10.0
141
1.0
290
     0
  0
SCALE
  5
58
102
{ACAD_REACTORS
330
47
102
}
330
47
100
AcDbScale
 70
     0
300
100:1
140
100.0
141
1.0
290
     0
  0
ACDBSECTIONVIEWSTYLE
  5
2AD
102
{ACAD_XDICTIONARY
360
8DB
102
}
102
{ACAD_REACTORS
330
2AC
102
}
330
2AC
100
AcDbModelDocViewStyle
 70
     0
  3
Metric50
290
     0
100
AcDbSectionViewStyle
 70
     0
 71
     0
 90
      102
 71
     1
340
11
 40
5.0
340
0
340
0
 40
5.0
300
I, O, Q, S, X, Z
 40
10.0
 90
        0
 40
2.5
 90
        0
 71
     2
340
16
 90
       25
340
16
 90
       50
 40
5.0
 40
2.5
 40
5.0
 71
     3
340
11
 40
5.0
 90
        0
 40
15.0
 90
        1
300
%<\AcVar ViewSectionStartId>%-%<\AcVar ViewSectionEndId>% (%<\AcVar ViewScale \f "%sn">%)
 71
     4
300
ANSI31
 40
1.0
 90
        0
290
     0
290
     0
 90
        6
 40
0.0
 40
1.570796326794896
 40
0.2617993877991494
 40
1.308996938995747
 40
-0.2617993877991494
 40
1.832595714594045
  0
TABLESTYLE
  5
5A
102
{ACAD_XDICTIONARY
360
7D2
102
}
102
{ACAD_REACTORS
330
59
102
}
330
59
100
AcDbTableStyle
  3
Standard
 70
     0
 71
     0
 40
1.5
 41
1.5
280
     0
281
     0
  7
Standard
140
4.5
170
     2
 62
     0
 63
     7
283
     0
274
    -2
284
     1
 64
     0
275
    -2
285
     1
 65
     0
276
    -2
286
     1
 66
     0
277
    -2
287
     1
 67
     0
278
    -2
288
     1
 68
     0
279
    -2
289
     1
 69
     0
  7
Standard
140
6.0
170
     5
 62
     0
 63
     7
283
     0
274
    -2
284
     1
 64
     0
275
    -2
285
     1
 65
     0
276
    -2
286
     1
 66
     0
277
    -2
287
     1
 67
     0
278
    -2
288
     1
 68
     0
279
    -2
289
     1
 69
     0
  7
Standard
140
4.5
170
     5
 62
     0
 63
     7
283
     0
274
    -2
284
     1
 64
     0
275
    -2
285
     1
 65
     0
276
    -2
286
     1
 66
     0
277
    -2
287
     1
 67
     0
278
    -2
288
     1
 68
     0
279
    -2
289
     1
 69
     0
  0
VISUALSTYLE
  5
2F
102
{ACAD_XDICTIONARY
360
8B2
102
}
102
{ACAD_REACTORS
330
2A
102
}
330
2A
100
AcDbVisualStyle
  2

 70
     4
 71
     0
 72
     2
 73
     0
 90
        0
 40
-0.6
 41
-30.0
 62
     5
 63
     7
 74
     1
 91
        4
 64
     7
 65
   257
 75
     1
175
     1
 42
1.0
 92
        0
 66
   257
 43
1.0
 76
     1
 77
     6
 78
     2
 67
     7
 79
     5
170
     0
171
     0
290
     0
174
     0
 93
        1
 44
0.0
173
     0
291
     0
 45
0.0
1001
ACAD
1000
AcDbSavedByObjectVersion
1070
     0
  0
VISUALSTYLE
  5
32
102
{ACAD_XDICTIONARY
360
8B8
102
}
102
{ACAD_REACTORS
330
2A
102
}
330
2A
100
AcDbVisualStyle
  2

 70
     7
 71
     1
 72
     0
 73
     1
 90
        0
 40
-0.6
 41
-30.0
 62
     5
 63
     7
 74
     0
 91
        4
 64
     7
 65
   257
 75
     1
175
     1
 42
1.0
 92
        8
 66
     7
 43
1.0
 76
     1
 77
     6
 78
     2
 67
     7
 79
     5
170
     0
171
     0
290
     0
174
     0
 93
        1
 44
0.0
173
     0
291
     1
 45
0.0
1001
ACAD
1000
AcDbSavedByObjectVersion
1070
     0
  0
VISUALSTYLE
  5
36
102
{ACAD_XDICTIONARY
360
8C0
102
}
102
{ACAD_REACTORS
330
2A
102
}
330
2A
100
AcDbVisualStyle
  2

 70
    12
 71
     2
 72
     2
 73
     0
 90
        0
 40
-0.6
 41
-30.0
 62
     5
 63
     7
 74
     1
 91
        4
 64
     7
 65
   257
 75
     1
175
     1
 42
1.0
 92
        8
 66
     7
 43
1.0
 76
     1
 77
     6
 78
     2
 67
     7
 79
     5
170
     0
171
     0
290
     0
174
     0
 93
        1
 44
50.0
173
     0
291
     1
 45
0.0
1001
ACAD
1000
AcDbSavedByObjectVersion
1070
     0
  0
VISUALSTYLE
  5
3A
102
{ACAD_XDICTIONARY
360
8C8
102
}
102
{ACAD_REACTORS
330
2A
102
}
330
2A
100
AcDbVisualStyle
  2

 70
    16
 71
     2
 72
     2
 73
     3
 90
        0
 40
-0.6
 41
-30.0
 62
     5
 63
     8
 74
     1
 91
        4
 64
     7
 65
   257
 75
     1
175
     1
 42
1.0
 92
        8
 66
     8
 43
1.0
 76
     1
 77
     6
 78
     2
 67
     7
 79
     5
170
     0
171
     0
290
     0
174
     0
 93
        1
 44
0.0
173
     0
291
     1
 45
0.0
1001
ACAD
1000
AcDbSavedByObjectVersion
1070
     0
  0
VISUALSTYLE
  5
34
102
{ACAD_XDICTIONARY
360
8BC
102
}
102
{ACAD_REACTORS
330
2A
102
}
330
2A
100
AcDbVisualStyle
  2

 70
     9
 71
     3
 72
     2
 73
     0
 90
        0
 40
-0.6
 41
-30.0
 62
     5
 63
     7
 74
     2
 91
        2
 64
     7
 65
   257
 75
     1
175
     1
 42
179.0
 92
        8
 66
     7
 43
1.0
 76
     1
 77
     6
 78
     2
 67
     7
 79
     3
170
     0
171
     0
290
     0
174
     0
 93
        1
 44
0.0
173
     0
291
     0
 45
0.0
1001
ACAD
1000
AcDbSavedByObjectVersion
1070
     0
  0
VISUALSTYLE
  5
35
102
{ACAD_XDICTIONARY
360
8BE
102
}
102
{ACAD_REACTORS
330
2A
102
}
330
2A
100
AcDbVisualStyle
  2

 70
    11
 71
     2
 72
     2
 73
     0
 90
        0
 40
-0.6
 41
-30.0
 62
     5
 63
     7
 74
     1
 91
        4
 64
     7
 65
   257
 75
     1
175
     1
 42
1.0
 92
        8
 66
     7
 43
1.0
 76
     1
 77
     6
 78
     2
 67
     7
 79
     5
170
     0
171
     0
290
     0
174
     0
 93
        1
 44
-50.0
173
     0
291
     1
 45
0.0
1001
ACAD
1000
AcDbSavedByObjectVersion
1070
     0
  0
VISUALSTYLE
  5
3D
102
{ACAD_XDICTIONARY
360
8CE
102
}
102
{ACAD_REACTORS
330
2A
102
}
330
2A
100
AcDbVisualStyle
  2

 70
    22
 71
     2
 72
     2
 73
     0
 90
        0
 40
-0.6
 41
-30.0
 62
     5
 63
     7
 74
     1
 91
        4
 64
     7
 65
   257
 75
     1
175
     1
 42
1.0
 92
        8
 66
     7
 43
1.0
 76
     1
 77
     6
 78
     2
 67
     7
 79
     5
170
     0
171
     0
290
     0
174
     0
 93
        1
 44
0.0
173
     0
291
     1
 45
0.0
1001
ACAD
1000
AcDbSavedByObjectVersion
1070
     0
  0
VISUALSTYLE
  5
39
102
{ACAD_XDICTIONARY
360
8C6
102
}
102
{ACAD_REACTORS
330
2A
102
}
330
2A
100
AcDbVisualStyle
  2

 70
    15
 71
     2
 72
     2
 73
     0
 90
        0
 40
-0.6
 41
-30.0
 62
     5
 63
     7
 74
     1
 91
        4
 64
     7
 65
   257
 75
     1
175
     1
 42
1.0
 92
        8
 66
     7
 43
1.0
 76
     1
 77
     6
 78
     2
 67
     7
 79
     5
170
     0
171
     0
290
     0
174
     0
 93
        1
 44
0.0
173
     0
291
     1
 45
0.0
1001
ACAD
1000
AcDbSavedByObjectVersion
1070
     0
  0
VISUALSTYLE
  5
2B
102
{ACAD_XDICTIONARY
360
8AA
102
}
102
{ACAD_REACTORS
330
2A
102
}
330
2A
100
AcDbVisualStyle
  2

 70
     0
 71
     2
 72
     1
 73
     1
 90
        2
 40
-0.6
 41
30.0
 62
     5
 63
     7
 74
     0
 91
        0
 64
     7
 65
   257
 75
     1
175
     1
 42
1.0
 92
        8
 66
     7
 43
1.0
 76
     1
 77
     6
 78
     2
 67
     7
 79
     5
170
     0
171
     0
290
     0
174
     0
 93
       13
 44
0.0
173
     0
291
     1
 45
0.0
1001
ACAD
1000
AcDbSavedByObjectVersion
1070
     0
  0
VISUALSTYLE
  5
2C
102
{ACAD_XDICTIONARY
360
8AC
102
}
102
{ACAD_REACTORS
330
2A
102
}
330
2A
100
AcDbVisualStyle
  2

 70
     1
 71
     2
 72
     1
 73
     1
 90
        2
 40
-0.6
 41
30.0
 62
     5
 63
     7
 74
     1
 91
        0
 64
     7
 65
   257
 75
     1
175
     1
 42
1.0
 92
        0
 66
   257
 43
1.0
 76
     1
 77
     6
 78
     2
 67
     7
 79
     5
170
     0
171
     0
290
     0
174
     0
 93
       13
 44
0.0
173
     0
291
     1
 45
0.0
1001
ACAD
1000
AcDbSavedByObjectVersion
1070
     0
  0
VISUALSTYLE
  5
2D
102
{ACAD_XDICTIONARY
360
8AE
102
}
102
{ACAD_REACTORS
330
2A
102
}
330
2A
100
AcDbVisualStyle
  2

 70
     2
 71
     2
 72
     2
 73
     1
 90
        2
 40
-0.6
 41
30.0
 62
     5
 63
     7
 74
     0
 91
        0
 64
     7
 65
   257
 75
     1
175
     1
 42
1.0
 92
        0
 66
     7
 43
1.0
 76
     1
 77
     6
 78
     2
 67
     7
 79
     5
170
     0
171
     0
290
     0
174
     0
 93
       13
 44
0.0
173
     0
291
     1
 45
0.0
1001
ACAD
1000
AcDbSavedByObjectVersion
1070
     0
  0
VISUALSTYLE
  5
2E
102
{ACAD_XDICTIONARY
360
8B0
102
}
102
{ACAD_REACTORS
330
2A
102
}
330
2A
100
AcDbVisualStyle
  2

 70
     3
 71
     2
 72
     2
 73
     1
 90
        2
 40
-0.6
 41
30.0
 62
     5
 63
     7
 74
     1
 91
        0
 64
     7
 65
   257
 75
     1
175
     1
 42
1.0
 92
        0
 66
   257
 43
1.0
 76
     1
 77
     6
 78
     2
 67
     7
 79
     5
170
     0
171
     0
290
     0
174
     0
 93
       13
 44
0.0
173
     0
291
     1
 45
0.0
1001
ACAD
1000
AcDbSavedByObjectVersion
1070
     0
  0
VISUALSTYLE
  5
31
102
{ACAD_XDICTIONARY
360
8B6
102
}
102
{ACAD_REACTORS
330
2A
102
}
330
2A
100
AcDbVisualStyle
  2

 70
     6
 71
     1
 72
     2
 73
     2
 90
        0
 40
-0.6
 41
-30.0
 62
     5
 63
     7
 74
     2
 91
        2
 64
     7
 65
   257
 75
     2
175
     1
 42
40.0
 92
        0
 66
   257
 43
1.0
 76
     1
 77
     6
 78
     2
 67
     7
 79
     3
170
     0
171
     0
290
     0
174
     0
 93
        1
 44
0.0
173
     0
291
     0
 45
0.0
1001
ACAD
1000
AcDbSavedByObjectVersion
1070
     0
  0
VISUALSTYLE
  5
3B
102
{ACAD_XDICTIONARY
360
8CA
102
}
102
{ACAD_REACTORS
330
2A
102
}
330
2A
100
AcDbVisualStyle
  2

 70
    20
 71
     2
 72
     2
 73
     0
 90
        0
 40
-0.6
 41
-30.0
 62
     5
 63
     7
 74
     1
 91
        4
 64
     7
 65
   257
 75
     1
175
     1
 42
1.0
 92
       10
 66
     7
 43
1.0
 76
     1
 77
     6
 78
     2
 67
     7
 79
     5
170
     0
171
     0
290
     0
174
     0
 93
        1
 44
0.0
173
     0
291
     1
 45
0.0
1001
ACAD
1000
AcDbSavedByObjectVersion
1070
     0
  0
VISUALSTYLE
  5
38
102
{ACAD_XDICTIONARY
360
8C4
102
}
102
{ACAD_REACTORS
330
2A
102
}
330
2A
100
AcDbVisualStyle
  2

 70
    14
 71
     2
 72
     2
 73
     0
 90
        0
 40
-0.6
 41
-30.0
 62
     5
 63
     7
 74
     1
 91
        4
 64
     7
 65
   257
 75
     7
175
     7
 42
1.0
 92
        8
 66
     7
 43
1.0
 76
     1
 77
     6
 78
     2
 67
     7
 79
     5
170
     0
171
     0
290
     0
174
     0
 93
        1
 44
0.0
173
     0
291
     1
 45
0.0
1001
ACAD
1000
AcDbSavedByObjectVersion
1070
     0
  0
VISUALSTYLE
  5
3C
102
{ACAD_XDICTIONARY
360
8CC
102
}
102
{ACAD_REACTORS
330
2A
102
}
330
2A
100
AcDbVisualStyle
  2

 70
    21
 71
     2
 72
     2
 73
     0
 90
        0
 40
-0.6
 41
-30.0
 62
     5
 63
     7
 74
     1
 91
        4
 64
     7
 65
   257
 75
     1
175
     1
 42
1.0
 92
        9
 66
     7
 43
1.0
 76
     1
 77
     6
 78
     2
 67
     7
 79
     5
170
     0
171
     0
290
     0
174
     0
 93
        1
 44
0.0
173
     0
291
     1
 45
0.0
1001
ACAD
1000
AcDbSavedByObjectVersion
1070
     0
  0
VISUALSTYLE
  5
33
102
{ACAD_XDICTIONARY
360
8BA
102
}
102
{ACAD_REACTORS
330
2A
102
}
330
2A
100
AcDbVisualStyle
  2

 70
     8
 71
     2
 72
     3
 73
     0
 90
        2
 40
-0.6
 41
30.0
 62
     5
 63
     7
 74
     0
 91
        0
 64
     7
 65
   257
 75
     1
175
     1
 42
1.0
 92
        8
 66
   257
 43
1.0
 76
     1
 77
     6
 78
     2
 67
     7
 79
     3
170
     0
171
     0
290
     0
174
     0
 93
       13
 44
0.0
173
     0
291
     0
 45
0.0
1001
ACAD
1000
AcDbSavedByObjectVersion
1070
     0
  0
VISUALSTYLE
  5
42
102
{ACAD_XDICTIONARY
360
8D8
102
}
102
{ACAD_REACTORS
330
2A
102
}
330
2A
100
AcDbVisualStyle
  2

 70
    27
 71
     2
 72
     2
 73
     1
 90
        2
 40
-0.6
 41
30.0
 62
     5
 63
     7
 74
     0
 91
        4
 64
     7
 65
   257
 75
     1
175
     1
 42
1.0
 92
        8
 66
   257
 43
1.0
 76
     1
 77
     6
 78
     2
 67
     8
 79
     3
170
     0
171
     0
290
     0
174
     0
 93
        5
 44
0.0
173
     0
291
     0
 45
0.0
1001
ACAD
1000
AcDbSavedByObjectVersion
1070
     0
  0
VISUALSTYLE
  5
41
102
{ACAD_XDICTIONARY
360
8D6
102
}
102
{ACAD_REACTORS
330
2A
102
}
330
2A
100
AcDbVisualStyle
  2

 70
    26
 71
     2
 72
     2
 73
     1
 90
        2
 40
-0.6
 41
30.0
 62
     5
 63
     7
 74
     1
 91
       10
 64
     7
 65
   257
 75
     2
175
     1
 42
1.0
 92
        8
 66
   257
 43
1.0
 76
     1
 77
     6
 78
     2
 67
     7
 79
     3
170
     0
171
     0
290
     0
174
     0
 93
        5
 44
0.0
173
     0
291
     0
 45
0.0
1001
ACAD
1000
AcDbSavedByObjectVersion
1070
     0
  0
VISUALSTYLE
  5
3E
102
{ACAD_XDICTIONARY
360
8D0
102
}
102
{ACAD_REACTORS
330
2A
102
}
330
2A
100
AcDbVisualStyle
  2

 70
    23
 71
     2
 72
     2
 73
     3
 90
        0
 40
-0.6
 41
-30.0
 62
     5
 63
     7
 74
     2
 91
        2
 64
     7
 65
     7
 75
     1
175
     1
 42
40.0
 92
        8
 66
     7
 43
1.0
 76
     1
 77
     6
 78
     2
 67
     7
 79
     3
170
     0
171
     0
290
     0
174
     0
 93
        1
 44
0.0
173
     0
291
     0
 45
0.0
1001
ACAD
1000
AcDbSavedByObjectVersion
1070
     0
  0
VISUALSTYLE
  5
3F
102
{ACAD_XDICTIONARY
360
8D2
102
}
102
{ACAD_REACTORS
330
2A
102
}
330
2A
100
AcDbVisualStyle
  2

 70
    24
 71
     1
 72
     2
 73
     2
 90
        0
 40
-0.6
 41
-30.0
 62
     5
 63
     7
 74
     2
 91
        2
 64
     7
 65
     7
 75
     1
175
     1
 42
40.0
 92
       11
 66
     7
 43
1.0
 76
     1
 77
     6
 78
     2
 67
     7
 79
     6
170
     0
171
     0
290
     0
174
     0
 93
        1
 44
0.0
173
     0
291
     0
 45
0.0
1001
ACAD
1000
AcDbSavedByObjectVersion
1070
     0
  0
VISUALSTYLE
  5
37
102
{ACAD_XDICTIONARY
360
8C2
102
}
102
{ACAD_REACTORS
330
2A
102
}
330
2A
100
AcDbVisualStyle
  2

 70
    13
 71
     2
 72
     2
 73
     0
 90
        0
 40
-0.6
 41
-30.0
 62
     5
 63
     7
 74
     1
 91
        4
 64
     7
 65
   257
 75
     1
175
     1
 42
1.0
 92
       12
 66
     7
 43
1.0
 76
     1
 77
     6
 78
     2
 67
     7
 79
     5
170
     0
171
     0
290
     0
174
     0
 93
        1
 44
0.0
173
     0
291
     1
 45
0.0
1001
ACAD
1000
AcDbSavedByObjectVersion
1070
     0
  0
VISUALSTYLE
  5
30
102
{ACAD_XDICTIONARY
360
8B4
102
}
102
{ACAD_REACTORS
330
2A
102
}
330
2A
100
AcDbVisualStyle
  2

 70
     5
 71
     0
 72
     2
 73
     0
 90
        0
 40
-0.6
 41
-30.0
 62
     5
 63
     7
 74
     1
 91
        4
 64
     7
 65
   257
 75
     1
175
     1
 42
1.0
 92
        0
 66
   257
 43
1.0
 76
     1
 77
     6
 78
     2
 67
     7
 79
     3
170
     0
171
     0
290
     0
174
     0
 93
        1
 44
0.0
173
     0
291
     0
 45
0.0
1001
ACAD
1000
AcDbSavedByObjectVersion
1070
     0
  0
VISUALSTYLE
  5
40
102
{ACAD_XDICTIONARY
360
8D4
102
}
102
{ACAD_REACTORS
330
2A
102
}
330
2A
100
AcDbVisualStyle
  2

 70
    25
 71
     2
 72
     2
 73
     1
 90
        1
 40
0.5
 41
-30.0
 62
     5
 63
     7
 74
     1
 91
        0
 64
     7
 65
   257
 75
     1
175
     1
 42
1.0
 92
        8
 66
     7
 43
1.0
 76
     1
 77
     6
 78
     2
 67
     7
 79
     3
170
     0
171
     0
290
     0
174
     0
 93
       13
 44
0.0
173
     0
291
     0
 45
0.0
1001
ACAD
1000
AcDbSavedByObjectVersion
1070
     0
  0
DICTIONARYVAR
  5
26E
102
{ACAD_REACTORS
330
260
102
}
330
260
100
DictionaryVariables
280
     0
  1
1:1
  0
DICTIONARYVAR
  5
267
102
{ACAD_REACTORS
330
260
102
}
330
260
100
DictionaryVariables
280
     0
  1
3.500000
  0
DICTIONARYVAR
  5
268
102
{ACAD_REACTORS
330
260
102
}
330
260
100
DictionaryVariables
280
     0
  1
acadiso.lin
  0
DICTIONARYVAR
  5
262
102
{ACAD_REACTORS
330
260
102
}
330
260
100
DictionaryVariables
280
     0
  1
STANDARD
  0
DICTIONARYVAR
  5
261
102
{ACAD_REACTORS
330
260
102
}
330
260
100
DictionaryVariables
280
     0
  1
STANDARD
  0
DICTIONARYVAR
  5
7CD
102
{ACAD_REACTORS
330
260
102
}
330
260
100
DictionaryVariables
280
     0
  1
Metric50
  0
DICTIONARYVAR
  5
7CE
102
{ACAD_REACTORS
330
260
102
}
330
260
100
DictionaryVariables
280
     0
  1
Metric50
  0
DICTIONARYVAR
  5
269
102
{ACAD_REACTORS
330
260
102
}
330
260
100
DictionaryVariables
280
     0
  1
2
  0
DICTIONARYVAR
  5
26A
102
{ACAD_REACTORS
330
260
102
}
330
260
100
DictionaryVariables
280
     0
  1
1
  0
DICTIONARYVAR
  5
820
102
{ACAD_REACTORS
330
260
102
}
330
260
100
DictionaryVariables
280
     0
  1
0
  0
DICTIONARYVAR
  5
7D0
102
{ACAD_REACTORS
330
260
102
}
330
260
100
DictionaryVariables
280
     0
  1
1
  0
DICTIONARYVAR
  5
7D1
102
{ACAD_REACTORS
330
260
102
}
330
260
100
DictionaryVariables
280
     0
  1
15
  0
DICTIONARYVAR
  5
7CF
102
{ACAD_REACTORS
330
260
102
}
330
260
100
DictionaryVariables
280
     0
  1
0
  0
DICTIONARYVAR
  5
823
102
{ACAD_REACTORS
330
260
102
}
330
260
100
DictionaryVariables
280
     0
  1
1.570796
  0
DICTIONARYVAR
  5
824
102
{ACAD_REACTORS
330
260
102
}
330
260
100
DictionaryVariables
280
     0
  1
1.570796
  0
DICTIONARYVAR
  5
825
102
{ACAD_REACTORS
330
260
102
}
330
260
100
DictionaryVariables
280
     0
  1
-122.394000
  0
DICTIONARYVAR
  5
26F
102
{ACAD_REACTORS
330
260
102
}
330
260
100
DictionaryVariables
280
     0
  1
1
  0
DICTIONARYVAR
  5
822
102
{ACAD_REACTORS
330
260
102
}
330
260
100
DictionaryVariables
280
     0
  1
80.000000
  0
DICTIONARYVAR
  5
821
102
{ACAD_REACTORS
330
260
102
}
330
260
100
DictionaryVariables
280
     0
  1
5.000000
  0
DICTIONARYVAR
  5
81F
102
{ACAD_REACTORS
330
260
102
}
330
260
100
DictionaryVariables
280
     0
  1
127
  0
DICTIONARYVAR
  5
826
102
{ACAD_REACTORS
330
260
102
}
330
260
100
DictionaryVariables
280
     0
  1
2
  0
DICTIONARY
  5
8DD
330
2AF
100
AcDbDictionary
280
     1
281
     1
  3
ACAD_XREC_ROUNDTRIP
360
8DE
  0
DICTIONARY
  5
8A6
330
1E
100
AcDbDictionary
280
     1
281
     1
  3
ACAD_XREC_ROUNDTRIP
360
8A7
  0
DICTIONARY
  5
8A8
330
22
100
AcDbDictionary
280
     1
281
     1
  3
ACAD_XREC_ROUNDTRIP
360
8A9
  0
DICTIONARY
  5
8DF
330
2B0
100
AcDbDictionary
280
     1
281
     1
  3
ACAD_XREC_ROUNDTRIP
360
8E0
  0
DICTIONARY
  5
2A2
330
45
100
AcDbDictionary
280
     1
281
     1
  3
ACAD_XREC_ROUNDTRIP
360
2A3
  0
DICTIONARY
  5
2A0
330
44
100
AcDbDictionary
280
     1
281
     1
  3
ACAD_XREC_ROUNDTRIP
360
2A1
  0
DICTIONARY
  5
2A4
330
46
100
AcDbDictionary
280
     1
281
     1
  3
ACAD_XREC_ROUNDTRIP
360
2A5
  0
DICTIONARY
  5
8DB
330
2AD
100
AcDbDictionary
280
     1
281
     1
  3
ACAD_XREC_ROUNDTRIP
360
8DC
  0
DICTIONARY
  5
7D2
330
5A
100
AcDbDictionary
280
     1
281
     1
  3
ACAD_ROUNDTRIP_2008_TABLESTYLE_CELLSTYLEMAP
360
8A3
  3
ACAD_XREC_ROUNDTRIP
360
8DA
  0
DICTIONARY
  5
8B2
330
2F
100
AcDbDictionary
280
     1
281
     1
  3
ACAD_XREC_ROUNDTRIP
360
8B3
  0
DICTIONARY
  5
8B8
330
32
100
AcDbDictionary
280
     1
281
     1
  3
ACAD_XREC_ROUNDTRIP
360
8B9
  0
DICTIONARY
  5
8C0
330
36
100
AcDbDictionary
280
     1
281
     1
  3
ACAD_XREC_ROUNDTRIP
360
8C1
  0
DICTIONARY
  5
8C8
330
3A
100
AcDbDictionary
280
     1
281
     1
  3
ACAD_XREC_ROUNDTRIP
360
8C9
  0
DICTIONARY
  5
8BC
330
34
100
AcDbDictionary
280
     1
281
     1
  3
ACAD_XREC_ROUNDTRIP
360
8BD
  0
DICTIONARY
  5
8BE
330
35
100
AcDbDictionary
280
     1
281
     1
  3
ACAD_XREC_ROUNDTRIP
360
8BF
  0
DICTIONARY
  5
8CE
330
3D
100
AcDbDictionary
280
     1
281
     1
  3
ACAD_XREC_ROUNDTRIP
360
8CF
  0
DICTIONARY
  5
8C6
330
39
100
AcDbDictionary
280
     1
281
     1
  3
ACAD_XREC_ROUNDTRIP
360
8C7
  0
DICTIONARY
  5
8AA
330
2B
100
AcDbDictionary
280
     1
281
     1
  3
ACAD_XREC_ROUNDTRIP
360
8AB
  0
DICTIONARY
  5
8AC
330
2C
100
AcDbDictionary
280
     1
281
     1
  3
ACAD_XREC_ROUNDTRIP
360
8AD
  0
DICTIONARY
  5
8AE
330
2D
100
AcDbDictionary
280
     1
281
     1
  3
ACAD_XREC_ROUNDTRIP
360
8AF
  0
DICTIONARY
  5
8B0
330
2E
100
AcDbDictionary
280
     1
281
     1
  3
ACAD_XREC_ROUNDTRIP
360
8B1
  0
DICTIONARY
  5
8B6
330
31
100
AcDbDictionary
280
     1
281
     1
  3
ACAD_XREC_ROUNDTRIP
360
8B7
  0
DICTIONARY
  5
8CA
330
3B
100
AcDbDictionary
280
     1
281
     1
  3
ACAD_XREC_ROUNDTRIP
360
8CB
  0
DICTIONARY
  5
8C4
330
38
100
AcDbDictionary
280
     1
281
     1
  3
ACAD_XREC_ROUNDTRIP
360
8C5
  0
DICTIONARY
  5
8CC
330
3C
100
AcDbDictionary
280
     1
281
     1
  3
ACAD_XREC_ROUNDTRIP
360
8CD
  0
DICTIONARY
  5
8BA
330
33
100
AcDbDictionary
280
     1
281
     1
  3
ACAD_XREC_ROUNDTRIP
360
8BB
  0
DICTIONARY
  5
8D8
330
42
100
AcDbDictionary
280
     1
281
     1
  3
ACAD_XREC_ROUNDTRIP
360
8D9
  0
DICTIONARY
  5
8D6
330
41
100
AcDbDictionary
280
     1
281
     1
  3
ACAD_XREC_ROUNDTRIP
360
8D7
  0
DICTIONARY
  5
8D0
330
3E
100
AcDbDictionary
280
     1
281
     1
  3
ACAD_XREC_ROUNDTRIP
360
8D1
  0
DICTIONARY
  5
8D2
330
3F
100
AcDbDictionary
280
     1
281
     1
  3
ACAD_XREC_ROUNDTRIP
360
8D3
  0
DICTIONARY
  5
8C2
330
37
100
AcDbDictionary
280
     1
281
     1
  3
ACAD_XREC_ROUNDTRIP
360
8C3
  0
DICTIONARY
  5
8B4
330
30
100
AcDbDictionary
280
     1
281
     1
  3
ACAD_XREC_ROUNDTRIP
360
8B5
  0
DICTIONARY
  5
8D4
330
40
100
AcDbDictionary
280
     1
281
     1
  3
ACAD_XREC_ROUNDTRIP
360
8D5
  0
XRECORD
  5
8DE
102
{ACAD_REACTORS
330
8DD
102
}
330
8DD
100
AcDbXrecord
280
     1
102
DISPLAYNAME
  1
Metric50
102
FLAGS
 90
        0
  0
XRECORD
  5
8A7
102
{ACAD_REACTORS
330
8A6
102
}
330
8A6
100
AcDbXrecord
280
     1
102
SHADEPLOT
 70
     0
102
SHADEPLOTRESLEVEL
 70
     2
102
SHADEPLOTCUSTOMDPI
 70
   300
  0
XRECORD
  5
8A9
102
{ACAD_REACTORS
330
8A8
102
}
330
8A8
100
AcDbXrecord
280
     1
102
SHADEPLOT
 70
     0
102
SHADEPLOTRESLEVEL
 70
     2
102
SHADEPLOTCUSTOMDPI
 70
   300
  0
XRECORD
  5
8E0
102
{ACAD_REACTORS
330
8DF
102
}
330
8DF
100
AcDbXrecord
280
     1
102
SHADEPLOT
 70
     0
102
SHADEPLOTRESLEVEL
 70
     2
102
SHADEPLOTCUSTOMDPI
 70
   300
  0
XRECORD
  5
2A3
102
{ACAD_REACTORS
330
2A2
102
}
330
2A2
100
AcDbXrecord
280
     1
102
MATERIAL
148
0.0
149
0.0
149
0.0
 93
        0
 94
      127
282
     0
 72
     1
 77
     1
171
     1
175
     1
179
     1
273
     0
  0
XRECORD
  5
2A1
102
{ACAD_REACTORS
330
2A0
102
}
330
2A0
100
AcDbXrecord
280
     1
102
MATERIAL
148
0.0
149
0.0
149
0.0
 93
        0
 94
      127
282
     0
 72
     1
 77
     1
171
     1
175
     1
179
     1
273
     0
  0
XRECORD
  5
2A5
102
{ACAD_REACTORS
330
2A4
102
}
330
2A4
100
AcDbXrecord
280
     1
102
MATERIAL
148
0.0
149
0.0
149
0.0
 93
        0
 94
      127
282
     0
 72
     1
 77
     1
171
     1
175
     1
179
     1
273
     0
  0
XRECORD
  5
8DC
102
{ACAD_REACTORS
330
8DB
102
}
330
8DB
100
AcDbXrecord
280
     1
102
DISPLAYNAME
  1
Metric50
102
FLAGS
 90
        0
  0
CELLSTYLEMAP
  5
8A3
102
{ACAD_REACTORS
330
7D2
102
}
330
7D2
100
AcDbCellStyleMap
 90
        3
300
CELLSTYLE
  1
TABLEFORMAT_BEGIN
 90
        5
170
     1
 91
        0
 92
    32768
 62
   257
 93
        1
300
CONTENTFORMAT
  1
CONTENTFORMAT_BEGIN
 90
        0
 91
        0
 92
        4
 93
        0
300

 40
0.0
140
1.0
 94
        5
 62
     0
340
11
144
6.0
309
CONTENTFORMAT_END
171
     1
301
MARGIN
  1
CELLMARGIN_BEGIN
 40
1.5
 40
1.5
 40
1.5
 40
1.5
 40
0.18
 40
0.18
309
CELLMARGIN_END
 94
        6
 95
        1
302
GRIDFORMAT
  1
GRIDFORMAT_BEGIN
 90
        0
 91
        1
 62
     0
 92
       -2
340
0
 93
        0
 40
0.045
309
GRIDFORMAT_END
 95
        2
302
GRIDFORMAT
  1
GRIDFORMAT_BEGIN
 90
        0
 91
        1
 62
     0
 92
       -2
340
0
 93
        0
 40
0.045
309
GRIDFORMAT_END
 95
        4
302
GRIDFORMAT
  1
GRIDFORMAT_BEGIN
 90
        0
 91
        1
 62
     0
 92
       -2
340
0
 93
        0
 40
0.045
309
GRIDFORMAT_END
 95
        8
302
GRIDFORMAT
  1
GRIDFORMAT_BEGIN
 90
        0
 91
        1
 62
     0
 92
       -2
340
0
 93
        0
 40
0.045
309
GRIDFORMAT_END
 95
       16
302
GRIDFORMAT
  1
GRIDFORMAT_BEGIN
 90
        0
 91
        1
 62
     0
 92
       -2
340
0
 93
        0
 40
0.045
309
GRIDFORMAT_END
 95
       32
302
GRIDFORMAT
  1
GRIDFORMAT_BEGIN
 90
        0
 91
        1
 62
     0
 92
       -2
340
0
 93
        0
 40
0.045
309
GRIDFORMAT_END
309
TABLEFORMAT_END
  1
CELLSTYLE_BEGIN
 90
        1
 91
        1
300
_TITLE
309
CELLSTYLE_END
300
CELLSTYLE
  1
TABLEFORMAT_BEGIN
 90
        5
170
     1
 91
        0
 92
        0
 62
   257
 93
        1
300
CONTENTFORMAT
  1
CONTENTFORMAT_BEGIN
 90
        0
 91
        0
 92
        4
 93
        0
300

 40
0.0
140
1.0
 94
        5
 62
     0
340
11
144
4.5
309
CONTENTFORMAT_END
171
     1
301
MARGIN
  1
CELLMARGIN_BEGIN
 40
1.5
 40
1.5
 40
1.5
 40
1.5
 40
0.18
 40
0.18
309
CELLMARGIN_END
 94
        6
 95
        1
302
GRIDFORMAT
  1
GRIDFORMAT_BEGIN
 90
        0
 91
        1
 62
     0
 92
       -2
340
0
 93
        0
 40
0.045
309
GRIDFORMAT_END
 95
        2
302
GRIDFORMAT
  1
GRIDFORMAT_BEGIN
 90
        0
 91
        1
 62
     0
 92
       -2
340
0
 93
        0
 40
0.045
309
GRIDFORMAT_END
 95
        4
302
GRIDFORMAT
  1
GRIDFORMAT_BEGIN
 90
        0
 91
        1
 62
     0
 92
       -2
340
0
 93
        0
 40
0.045
309
GRIDFORMAT_END
 95
        8
302
GRIDFORMAT
  1
GRIDFORMAT_BEGIN
 90
        0
 91
        1
 62
     0
 92
       -2
340
0
 93
        0
 40
0.045
309
GRIDFORMAT_END
 95
       16
302
GRIDFORMAT
  1
GRIDFORMAT_BEGIN
 90
        0
 91
        1
 62
     0
 92
       -2
340
0
 93
        0
 40
0.045
309
GRIDFORMAT_END
 95
       32
302
GRIDFORMAT
  1
GRIDFORMAT_BEGIN
 90
        0
 91
        1
 62
     0
 92
       -2
340
0
 93
        0
 40
0.045
309
GRIDFORMAT_END
309
TABLEFORMAT_END
  1
CELLSTYLE_BEGIN
 90
        2
 91
        1
300
_HEADER
309
CELLSTYLE_END
300
CELLSTYLE
  1
TABLEFORMAT_BEGIN
 90
        5
170
     1
 91
        0
 92
        0
 62
   257
 93
        1
300
CONTENTFORMAT
  1
CONTENTFORMAT_BEGIN
 90
        0
 91
        0
 92
        4
 93
        0
300

 40
0.0
140
1.0
 94
        2
 62
     0
340
11
144
4.5
309
CONTENTFORMAT_END
171
     1
301
MARGIN
  1
CELLMARGIN_BEGIN
 40
1.5
 40
1.5
 40
1.5
 40
1.5
 40
0.18
 40
0.18
309
CELLMARGIN_END
 94
        6
 95
        1
302
GRIDFORMAT
  1
GRIDFORMAT_BEGIN
 90
        0
 91
        1
 62
     0
 92
       -2
340
0
 93
        0
 40
0.045
309
GRIDFORMAT_END
 95
        2
302
GRIDFORMAT
  1
GRIDFORMAT_BEGIN
 90
        0
 91
        1
 62
     0
 92
       -2
340
0
 93
        0
 40
0.045
309
GRIDFORMAT_END
 95
        4
302
GRIDFORMAT
  1
GRIDFORMAT_BEGIN
 90
        0
 91
        1
 62
     0
 92
       -2
340
0
 93
        0
 40
0.045
309
GRIDFORMAT_END
 95
        8
302
GRIDFORMAT
  1
GRIDFORMAT_BEGIN
 90
        0
 91
        1
 62
     0
 92
       -2
340
0
 93
        0
 40
0.045
309
GRIDFORMAT_END
 95
       16
302
GRIDFORMAT
  1
GRIDFORMAT_BEGIN
 90
        0
 91
        1
 62
     0
 92
       -2
340
0
 93
        0
 40
0.045
309
GRIDFORMAT_END
 95
       32
302
GRIDFORMAT
  1
GRIDFORMAT_BEGIN
 90
        0
 91
        1
 62
     0
 92
       -2
340
0
 93
        0
 40
0.045
309
GRIDFORMAT_END
309
TABLEFORMAT_END
  1
CELLSTYLE_BEGIN
 90
        3
 91
        2
300
_DATA
309
CELLSTYLE_END
  0
XRECORD
  5
8DA
102
{ACAD_REACTORS
330
7D2
102
}
330
7D2
100
AcDbXrecord
280
     1
102
ACAD_ROUNDTRIP_PRE2007_TABLESTYLE
 90
        4
 91
        0
  1

 92
        4
 93
        0
  2

 94
        4
 95
        0
  3

  0
XRECORD
  5
8B3
102
{ACAD_REACTORS
330
8B2
102
}
330
8B2
100
AcDbXrecord
280
     1
102
RTVSPost2010Prop28
280
     1
102
RTVSPost2010PropOp28
 70
     1
102
RTVSPost2010Prop29
280
     1
102
RTVSPost2010PropOp29
 70
     1
102
RTVSPost2010Prop30
280
     0
102
RTVSPost2010PropOp30
 70
     1
102
RTVSPost2010Prop31
280
     0
102
RTVSPost2010PropOp31
 70
     1
102
RTVSPost2010Prop32
280
     0
102
RTVSPost2010PropOp32
 70
     1
102
RTVSPost2010Prop33
280
     0
102
RTVSPost2010PropOp33
 70
     1
102
RTVSPost2010Prop34
280
     0
102
RTVSPost2010PropOp34
 70
     1
102
RTVSPost2010Prop35
280
     0
102
RTVSPost2010PropOp35
 70
     1
102
RTVSPost2010Prop36
280
     0
102
RTVSPost2010PropOp36
 70
     1
102
RTVSPost2010Prop37
 90
       50
102
RTVSPost2010PropOp37
 70
     1
102
RTVSPost2010Prop38
140
0.0
102
RTVSPost2010PropOp38
 70
     1
102
RTVSPost2010Prop39
140
1.0
102
RTVSPost2010PropOp39
 70
     1
102
RTVSPost2010Prop40
 90
        0
102
RTVSPost2010PropOp40
 70
     1
102
RTVSPost2010Prop41ColorIndex
 90
       18
102
RTVSPost2010Prop41ColorRGB
 90
        0
102
RTVSPost2010PropOp41
 70
     1
102
RTVSPost2010Prop42
 90
       50
102
RTVSPost2010PropOp42
 70
     1
102
RTVSPost2010Prop43
 90
        3
102
RTVSPost2010PropOp43
 70
     1
102
RTVSPost2010Prop44ColorIndex
 90
        5
102
RTVSPost2010Prop44ColorRGB
 90
      255
102
RTVSPost2010PropOp44
 70
     1
102
RTVSPost2010Prop45
280
     0
102
RTVSPost2010PropOp45
 70
     1
102
RTVSPost2010Prop46
 90
       50
102
RTVSPost2010PropOp46
 70
     1
102
RTVSPost2010Prop47
 90
       50
102
RTVSPost2010PropOp47
 70
     1
102
RTVSPost2010Prop48
 90
       50
102
RTVSPost2010PropOp48
 70
     1
102
RTVSPost2010Prop49
280
     0
102
RTVSPost2010PropOp49
 70
     1
102
RTVSPost2010Prop50
 90
       50
102
RTVSPost2010PropOp50
 70
     1
102
RTVSPost2010Prop51ColorIndex
 90
      256
102
RTVSPost2010Prop51ColorRGB
 90
-16777216
102
RTVSPost2010PropOp51
 70
     0
102
RTVSPost2010Prop52
140
1.0
102
RTVSPost2010PropOp52
 70
     0
102
RTVSPost2010Prop53
 90
        2
102
RTVSPost2010PropOp53
 70
     1
102
RTVSPost2010Prop54
  1
strokes_ogs.tif
102
RTVSPost2010PropOp54
 70
     1
102
RTVSPost2010Prop55
280
     0
102
RTVSPost2010PropOp55
 70
     1
102
RTVSPost2010Prop56
140
1.0
102
RTVSPost2010PropOp56
 70
     1
102
RTVSPost2010Prop57
140
1.0
102
RTVSPost2010PropOp57
 70
     1
102
RTVSPropertyOp0
 70
     1
102
RTVSPropertyOp1
 70
     1
102
RTVSPropertyOp2
 70
     1
102
RTVSPropertyOp3
 70
     1
102
RTVSPropertyOp4
 70
     1
102
RTVSPropertyOp5
 70
     1
102
RTVSPropertyOp6
 70
     1
102
RTVSPropertyOp7
 70
     1
102
RTVSPropertyOp8
 70
     1
102
RTVSPropertyOp9
 70
     1
102
RTVSPropertyOp10
 70
     1
102
RTVSPropertyOp11
 70
     1
102
RTVSPropertyOp12
 70
     1
102
RTVSPropertyOp13
 70
     1
102
RTVSPropertyOp14
 70
     1
102
RTVSPropertyOp15
 70
     1
102
RTVSPropertyOp16
 70
     1
102
RTVSPropertyOp17
 70
     1
102
RTVSPropertyOp18
 70
     1
102
RTVSPropertyOp19
 70
     1
102
RTVSPropertyOp20
 70
     1
102
RTVSPropertyOp21
 70
     1
102
RTVSPropertyOp22
 70
     1
102
RTVSPropertyOp23
 70
     1
102
RTVSPropertyOp24
 70
     1
102
RTVSPropertyOp25
 70
     1
102
RTVSPropertyOp26
 70
     1
102
RTVSPropertyOp27
 70
     1
102
RTVSPropertyOp28
 70
     1
102
RTVSPropertyOp29
 70
     1
102
RTVSPropertyOp30
 70
     1
102
RTVSPropertyOp31
 70
     1
102
RTVSPropertyOp32
 70
     1
102
RTVSPropertyOp33
 70
     1
102
RTVSPropertyOp34
 70
     1
102
RTVSPropertyOp35
 70
     1
102
RTVSPropertyOp36
 70
     1
102
RTVSPropertyOp37
 70
     1
102
RTVSPropertyOp38
 70
     1
102
RTVSPropertyOp39
 70
     1
102
RTVSPropertyOp40
 70
     1
102
RTVSPropertyOp41
 70
     1
102
RTVSPropertyOp42
 70
     1
102
RTVSPropertyOp43
 70
     1
102
RTVSPropertyOp44
 70
     1
102
RTVSPropertyOp45
 70
     1
102
RTVSPropertyOp46
 70
     1
102
RTVSPropertyOp47
 70
     1
102
RTVSPropertyOp48
 70
     1
102
RTVSPropertyOp49
 70
     1
102
RTVSPropertyOp50
 70
     1
102
RTVSPropertyOp51
 70
     0
102
RTVSPropertyOp52
 70
     0
102
RTVSPropertyOp53
 70
     1
102
RTVSPropertyOp54
 70
     1
102
RTVSPropertyOp55
 70
     1
102
RTVSPropertyOp56
 70
     1
102
RTVSPropertyOp57
 70
     1
102
RTVSPropertyOp58
 70
     1
102
RTVSPropertyOp59
 70
     1
102
RTVSPropertyOp60
 70
     1
102
RTVSPropertyOp61
 70
     1
102
RTVSPropertyOp62
 70
     1
  0
XRECORD
  5
8B9
102
{ACAD_REACTORS
330
8B8
102
}
330
8B8
100
AcDbXrecord
280
     1
102
RTVSPost2010Prop28
280
     0
102
RTVSPost2010PropOp28
 70
     1
102
RTVSPost2010Prop29
280
     1
102
RTVSPost2010PropOp29
 70
     1
102
RTVSPost2010Prop30
280
     1
102
RTVSPost2010PropOp30
 70
     1
102
RTVSPost2010Prop31
280
     0
102
RTVSPost2010PropOp31
 70
     1
102
RTVSPost2010Prop32
280
     0
102
RTVSPost2010PropOp32
 70
     1
102
RTVSPost2010Prop33
280
     0
102
RTVSPost2010PropOp33
 70
     1
102
RTVSPost2010Prop34
280
     0
102
RTVSPost2010PropOp34
 70
     1
102
RTVSPost2010Prop35
280
     0
102
RTVSPost2010PropOp35
 70
     1
102
RTVSPost2010Prop36
280
     0
102
RTVSPost2010PropOp36
 70
     1
102
RTVSPost2010Prop37
 90
       50
102
RTVSPost2010PropOp37
 70
     1
102
RTVSPost2010Prop38
140
0.0
102
RTVSPost2010PropOp38
 70
     1
102
RTVSPost2010Prop39
140
1.0
102
RTVSPost2010PropOp39
 70
     1
102
RTVSPost2010Prop40
 90
        0
102
RTVSPost2010PropOp40
 70
     1
102
RTVSPost2010Prop41ColorIndex
 90
       18
102
RTVSPost2010Prop41ColorRGB
 90
        0
102
RTVSPost2010PropOp41
 70
     1
102
RTVSPost2010Prop42
 90
       50
102
RTVSPost2010PropOp42
 70
     1
102
RTVSPost2010Prop43
 90
        3
102
RTVSPost2010PropOp43
 70
     1
102
RTVSPost2010Prop44ColorIndex
 90
        5
102
RTVSPost2010Prop44ColorRGB
 90
      255
102
RTVSPost2010PropOp44
 70
     1
102
RTVSPost2010Prop45
280
     0
102
RTVSPost2010PropOp45
 70
     1
102
RTVSPost2010Prop46
 90
       50
102
RTVSPost2010PropOp46
 70
     1
102
RTVSPost2010Prop47
 90
       50
102
RTVSPost2010PropOp47
 70
     1
102
RTVSPost2010Prop48
 90
       50
102
RTVSPost2010PropOp48
 70
     1
102
RTVSPost2010Prop49
280
     0
102
RTVSPost2010PropOp49
 70
     1
102
RTVSPost2010Prop50
 90
       50
102
RTVSPost2010PropOp50
 70
     1
102
RTVSPost2010Prop51ColorIndex
 90
      256
102
RTVSPost2010Prop51ColorRGB
 90
-16777216
102
RTVSPost2010PropOp51
 70
     0
102
RTVSPost2010Prop52
140
1.0
102
RTVSPost2010PropOp52
 70
     0
102
RTVSPost2010Prop53
 90
        2
102
RTVSPost2010PropOp53
 70
     1
102
RTVSPost2010Prop54
  1
strokes_ogs.tif
102
RTVSPost2010PropOp54
 70
     1
102
RTVSPost2010Prop55
280
     0
102
RTVSPost2010PropOp55
 70
     1
102
RTVSPost2010Prop56
140
1.0
102
RTVSPost2010PropOp56
 70
     1
102
RTVSPost2010Prop57
140
1.0
102
RTVSPost2010PropOp57
 70
     1
102
RTVSPropertyOp0
 70
     1
102
RTVSPropertyOp1
 70
     1
102
RTVSPropertyOp2
 70
     1
102
RTVSPropertyOp3
 70
     1
102
RTVSPropertyOp4
 70
     1
102
RTVSPropertyOp5
 70
     1
102
RTVSPropertyOp6
 70
     1
102
RTVSPropertyOp7
 70
     1
102
RTVSPropertyOp8
 70
     1
102
RTVSPropertyOp9
 70
     1
102
RTVSPropertyOp10
 70
     1
102
RTVSPropertyOp11
 70
     1
102
RTVSPropertyOp12
 70
     1
102
RTVSPropertyOp13
 70
     1
102
RTVSPropertyOp14
 70
     1
102
RTVSPropertyOp15
 70
     1
102
RTVSPropertyOp16
 70
     1
102
RTVSPropertyOp17
 70
     1
102
RTVSPropertyOp18
 70
     1
102
RTVSPropertyOp19
 70
     1
102
RTVSPropertyOp20
 70
     1
102
RTVSPropertyOp21
 70
     1
102
RTVSPropertyOp22
 70
     1
102
RTVSPropertyOp23
 70
     1
102
RTVSPropertyOp24
 70
     1
102
RTVSPropertyOp25
 70
     1
102
RTVSPropertyOp26
 70
     1
102
RTVSPropertyOp27
 70
     1
102
RTVSPropertyOp28
 70
     1
102
RTVSPropertyOp29
 70
     1
102
RTVSPropertyOp30
 70
     1
102
RTVSPropertyOp31
 70
     1
102
RTVSPropertyOp32
 70
     1
102
RTVSPropertyOp33
 70
     1
102
RTVSPropertyOp34
 70
     1
102
RTVSPropertyOp35
 70
     1
102
RTVSPropertyOp36
 70
     1
102
RTVSPropertyOp37
 70
     1
102
RTVSPropertyOp38
 70
     1
102
RTVSPropertyOp39
 70
     1
102
RTVSPropertyOp40
 70
     1
102
RTVSPropertyOp41
 70
     1
102
RTVSPropertyOp42
 70
     1
102
RTVSPropertyOp43
 70
     1
102
RTVSPropertyOp44
 70
     1
102
RTVSPropertyOp45
 70
     1
102
RTVSPropertyOp46
 70
     1
102
RTVSPropertyOp47
 70
     1
102
RTVSPropertyOp48
 70
     1
102
RTVSPropertyOp49
 70
     1
102
RTVSPropertyOp50
 70
     1
102
RTVSPropertyOp51
 70
     0
102
RTVSPropertyOp52
 70
     0
102
RTVSPropertyOp53
 70
     1
102
RTVSPropertyOp54
 70
     1
102
RTVSPropertyOp55
 70
     1
102
RTVSPropertyOp56
 70
     1
102
RTVSPropertyOp57
 70
     1
102
RTVSPropertyOp58
 70
     1
102
RTVSPropertyOp59
 70
     1
102
RTVSPropertyOp60
 70
     1
102
RTVSPropertyOp61
 70
     1
102
RTVSPropertyOp62
 70
     1
  0
XRECORD
  5
8C1
102
{ACAD_REACTORS
330
8C0
102
}
330
8C0
100
AcDbXrecord
280
     1
102
RTVSPost2010Prop28
280
     0
102
RTVSPost2010PropOp28
 70
     1
102
RTVSPost2010Prop29
280
     1
102
RTVSPost2010PropOp29
 70
     1
102
RTVSPost2010Prop30
280
     1
102
RTVSPost2010PropOp30
 70
     1
102
RTVSPost2010Prop31
280
     0
102
RTVSPost2010PropOp31
 70
     1
102
RTVSPost2010Prop32
280
     0
102
RTVSPost2010PropOp32
 70
     1
102
RTVSPost2010Prop33
280
     0
102
RTVSPost2010PropOp33
 70
     1
102
RTVSPost2010Prop34
280
     0
102
RTVSPost2010PropOp34
 70
     1
102
RTVSPost2010Prop35
280
     0
102
RTVSPost2010PropOp35
 70
     1
102
RTVSPost2010Prop36
280
     0
102
RTVSPost2010PropOp36
 70
     1
102
RTVSPost2010Prop37
 90
       50
102
RTVSPost2010PropOp37
 70
     1
102
RTVSPost2010Prop38
140
0.0
102
RTVSPost2010PropOp38
 70
     1
102
RTVSPost2010Prop39
140
1.0
102
RTVSPost2010PropOp39
 70
     1
102
RTVSPost2010Prop40
 90
        0
102
RTVSPost2010PropOp40
 70
     1
102
RTVSPost2010Prop41ColorIndex
 90
       18
102
RTVSPost2010Prop41ColorRGB
 90
        0
102
RTVSPost2010PropOp41
 70
     1
102
RTVSPost2010Prop42
 90
       50
102
RTVSPost2010PropOp42
 70
     1
102
RTVSPost2010Prop43
 90
        3
102
RTVSPost2010PropOp43
 70
     1
102
RTVSPost2010Prop44ColorIndex
 90
        5
102
RTVSPost2010Prop44ColorRGB
 90
      255
102
RTVSPost2010PropOp44
 70
     1
102
RTVSPost2010Prop45
280
     0
102
RTVSPost2010PropOp45
 70
     1
102
RTVSPost2010Prop46
 90
       50
102
RTVSPost2010PropOp46
 70
     1
102
RTVSPost2010Prop47
 90
       50
102
RTVSPost2010PropOp47
 70
     1
102
RTVSPost2010Prop48
 90
       50
102
RTVSPost2010PropOp48
 70
     1
102
RTVSPost2010Prop49
280
     0
102
RTVSPost2010PropOp49
 70
     1
102
RTVSPost2010Prop50
 90
       50
102
RTVSPost2010PropOp50
 70
     1
102
RTVSPost2010Prop51ColorIndex
 90
      256
102
RTVSPost2010Prop51ColorRGB
 90
-16777216
102
RTVSPost2010PropOp51
 70
     0
102
RTVSPost2010Prop52
140
1.0
102
RTVSPost2010PropOp52
 70
     0
102
RTVSPost2010Prop53
 90
        2
102
RTVSPost2010PropOp53
 70
     1
102
RTVSPost2010Prop54
  1
strokes_ogs.tif
102
RTVSPost2010PropOp54
 70
     1
102
RTVSPost2010Prop55
280
     0
102
RTVSPost2010PropOp55
 70
     1
102
RTVSPost2010Prop56
140
1.0
102
RTVSPost2010PropOp56
 70
     1
102
RTVSPost2010Prop57
140
1.0
102
RTVSPost2010PropOp57
 70
     1
102
RTVSPropertyOp0
 70
     1
102
RTVSPropertyOp1
 70
     1
102
RTVSPropertyOp2
 70
     1
102
RTVSPropertyOp3
 70
     1
102
RTVSPropertyOp4
 70
     1
102
RTVSPropertyOp5
 70
     1
102
RTVSPropertyOp6
 70
     1
102
RTVSPropertyOp7
 70
     1
102
RTVSPropertyOp8
 70
     1
102
RTVSPropertyOp9
 70
     1
102
RTVSPropertyOp10
 70
     1
102
RTVSPropertyOp11
 70
     1
102
RTVSPropertyOp12
 70
     1
102
RTVSPropertyOp13
 70
     1
102
RTVSPropertyOp14
 70
     1
102
RTVSPropertyOp15
 70
     1
102
RTVSPropertyOp16
 70
     1
102
RTVSPropertyOp17
 70
     1
102
RTVSPropertyOp18
 70
     1
102
RTVSPropertyOp19
 70
     1
102
RTVSPropertyOp20
 70
     1
102
RTVSPropertyOp21
 70
     1
102
RTVSPropertyOp22
 70
     1
102
RTVSPropertyOp23
 70
     1
102
RTVSPropertyOp24
 70
     1
102
RTVSPropertyOp25
 70
     1
102
RTVSPropertyOp26
 70
     1
102
RTVSPropertyOp27
 70
     1
102
RTVSPropertyOp28
 70
     1
102
RTVSPropertyOp29
 70
     1
102
RTVSPropertyOp30
 70
     1
102
RTVSPropertyOp31
 70
     1
102
RTVSPropertyOp32
 70
     1
102
RTVSPropertyOp33
 70
     1
102
RTVSPropertyOp34
 70
     1
102
RTVSPropertyOp35
 70
     1
102
RTVSPropertyOp36
 70
     1
102
RTVSPropertyOp37
 70
     1
102
RTVSPropertyOp38
 70
     1
102
RTVSPropertyOp39
 70
     1
102
RTVSPropertyOp40
 70
     1
102
RTVSPropertyOp41
 70
     1
102
RTVSPropertyOp42
 70
     1
102
RTVSPropertyOp43
 70
     1
102
RTVSPropertyOp44
 70
     1
102
RTVSPropertyOp45
 70
     1
102
RTVSPropertyOp46
 70
     1
102
RTVSPropertyOp47
 70
     1
102
RTVSPropertyOp48
 70
     1
102
RTVSPropertyOp49
 70
     1
102
RTVSPropertyOp50
 70
     1
102
RTVSPropertyOp51
 70
     0
102
RTVSPropertyOp52
 70
     0
102
RTVSPropertyOp53
 70
     1
102
RTVSPropertyOp54
 70
     1
102
RTVSPropertyOp55
 70
     1
102
RTVSPropertyOp56
 70
     1
102
RTVSPropertyOp57
 70
     1
102
RTVSPropertyOp58
 70
     1
102
RTVSPropertyOp59
 70
     1
102
RTVSPropertyOp60
 70
     1
102
RTVSPropertyOp61
 70
     1
102
RTVSPropertyOp62
 70
     1
  0
XRECORD
  5
8C9
102
{ACAD_REACTORS
330
8C8
102
}
330
8C8
100
AcDbXrecord
280
     1
102
RTVSPost2010Prop28
280
     0
102
RTVSPost2010PropOp28
 70
     1
102
RTVSPost2010Prop29
280
     1
102
RTVSPost2010PropOp29
 70
     1
102
RTVSPost2010Prop30
280
     1
102
RTVSPost2010PropOp30
 70
     1
102
RTVSPost2010Prop31
280
     0
102
RTVSPost2010PropOp31
 70
     1
102
RTVSPost2010Prop32
280
     0
102
RTVSPost2010PropOp32
 70
     1
102
RTVSPost2010Prop33
280
     0
102
RTVSPost2010PropOp33
 70
     1
102
RTVSPost2010Prop34
280
     0
102
RTVSPost2010PropOp34
 70
     1
102
RTVSPost2010Prop35
280
     0
102
RTVSPost2010PropOp35
 70
     1
102
RTVSPost2010Prop36
280
     0
102
RTVSPost2010PropOp36
 70
     1
102
RTVSPost2010Prop37
 90
       50
102
RTVSPost2010PropOp37
 70
     1
102
RTVSPost2010Prop38
140
0.0
102
RTVSPost2010PropOp38
 70
     1
102
RTVSPost2010Prop39
140
1.0
102
RTVSPost2010PropOp39
 70
     1
102
RTVSPost2010Prop40
 90
        0
102
RTVSPost2010PropOp40
 70
     1
102
RTVSPost2010Prop41ColorIndex
 90
       18
102
RTVSPost2010Prop41ColorRGB
 90
        0
102
RTVSPost2010PropOp41
 70
     1
102
RTVSPost2010Prop42
 90
       50
102
RTVSPost2010PropOp42
 70
     1
102
RTVSPost2010Prop43
 90
        3
102
RTVSPost2010PropOp43
 70
     1
102
RTVSPost2010Prop44ColorIndex
 90
        5
102
RTVSPost2010Prop44ColorRGB
 90
      255
102
RTVSPost2010PropOp44
 70
     1
102
RTVSPost2010Prop45
280
     0
102
RTVSPost2010PropOp45
 70
     1
102
RTVSPost2010Prop46
 90
       50
102
RTVSPost2010PropOp46
 70
     1
102
RTVSPost2010Prop47
 90
       50
102
RTVSPost2010PropOp47
 70
     1
102
RTVSPost2010Prop48
 90
       50
102
RTVSPost2010PropOp48
 70
     1
102
RTVSPost2010Prop49
280
     0
102
RTVSPost2010PropOp49
 70
     1
102
RTVSPost2010Prop50
 90
       50
102
RTVSPost2010PropOp50
 70
     1
102
RTVSPost2010Prop51ColorIndex
 90
      256
102
RTVSPost2010Prop51ColorRGB
 90
-16777216
102
RTVSPost2010PropOp51
 70
     0
102
RTVSPost2010Prop52
140
1.0
102
RTVSPost2010PropOp52
 70
     0
102
RTVSPost2010Prop53
 90
        2
102
RTVSPost2010PropOp53
 70
     1
102
RTVSPost2010Prop54
  1
strokes_ogs.tif
102
RTVSPost2010PropOp54
 70
     1
102
RTVSPost2010Prop55
280
     0
102
RTVSPost2010PropOp55
 70
     1
102
RTVSPost2010Prop56
140
1.0
102
RTVSPost2010PropOp56
 70
     1
102
RTVSPost2010Prop57
140
1.0
102
RTVSPost2010PropOp57
 70
     1
102
RTVSPropertyOp0
 70
     1
102
RTVSPropertyOp1
 70
     1
102
RTVSPropertyOp2
 70
     1
102
RTVSPropertyOp3
 70
     1
102
RTVSPropertyOp4
 70
     1
102
RTVSPropertyOp5
 70
     1
102
RTVSPropertyOp6
 70
     1
102
RTVSPropertyOp7
 70
     1
102
RTVSPropertyOp8
 70
     1
102
RTVSPropertyOp9
 70
     1
102
RTVSPropertyOp10
 70
     1
102
RTVSPropertyOp11
 70
     1
102
RTVSPropertyOp12
 70
     1
102
RTVSPropertyOp13
 70
     1
102
RTVSPropertyOp14
 70
     1
102
RTVSPropertyOp15
 70
     1
102
RTVSPropertyOp16
 70
     1
102
RTVSPropertyOp17
 70
     1
102
RTVSPropertyOp18
 70
     1
102
RTVSPropertyOp19
 70
     1
102
RTVSPropertyOp20
 70
     1
102
RTVSPropertyOp21
 70
     1
102
RTVSPropertyOp22
 70
     1
102
RTVSPropertyOp23
 70
     1
102
RTVSPropertyOp24
 70
     1
102
RTVSPropertyOp25
 70
     1
102
RTVSPropertyOp26
 70
     1
102
RTVSPropertyOp27
 70
     1
102
RTVSPropertyOp28
 70
     1
102
RTVSPropertyOp29
 70
     1
102
RTVSPropertyOp30
 70
     1
102
RTVSPropertyOp31
 70
     1
102
RTVSPropertyOp32
 70
     1
102
RTVSPropertyOp33
 70
     1
102
RTVSPropertyOp34
 70
     1
102
RTVSPropertyOp35
 70
     1
102
RTVSPropertyOp36
 70
     1
102
RTVSPropertyOp37
 70
     1
102
RTVSPropertyOp38
 70
     1
102
RTVSPropertyOp39
 70
     1
102
RTVSPropertyOp40
 70
     1
102
RTVSPropertyOp41
 70
     1
102
RTVSPropertyOp42
 70
     1
102
RTVSPropertyOp43
 70
     1
102
RTVSPropertyOp44
 70
     1
102
RTVSPropertyOp45
 70
     1
102
RTVSPropertyOp46
 70
     1
102
RTVSPropertyOp47
 70
     1
102
RTVSPropertyOp48
 70
     1
102
RTVSPropertyOp49
 70
     1
102
RTVSPropertyOp50
 70
     1
102
RTVSPropertyOp51
 70
     0
102
RTVSPropertyOp52
 70
     0
102
RTVSPropertyOp53
 70
     1
102
RTVSPropertyOp54
 70
     1
102
RTVSPropertyOp55
 70
     1
102
RTVSPropertyOp56
 70
     1
102
RTVSPropertyOp57
 70
     1
102
RTVSPropertyOp58
 70
     1
102
RTVSPropertyOp59
 70
     1
102
RTVSPropertyOp60
 70
     1
102
RTVSPropertyOp61
 70
     1
102
RTVSPropertyOp62
 70
     1
  0
XRECORD
  5
8BD
102
{ACAD_REACTORS
330
8BC
102
}
330
8BC
100
AcDbXrecord
280
     1
102
RTVSPost2010Prop28
280
     0
102
RTVSPost2010PropOp28
 70
     1
102
RTVSPost2010Prop29
280
     1
102
RTVSPost2010PropOp29
 70
     1
102
RTVSPost2010Prop30
280
     1
102
RTVSPost2010PropOp30
 70
     1
102
RTVSPost2010Prop31
280
     0
102
RTVSPost2010PropOp31
 70
     1
102
RTVSPost2010Prop32
280
     0
102
RTVSPost2010PropOp32
 70
     1
102
RTVSPost2010Prop33
280
     0
102
RTVSPost2010PropOp33
 70
     1
102
RTVSPost2010Prop34
280
     0
102
RTVSPost2010PropOp34
 70
     1
102
RTVSPost2010Prop35
280
     0
102
RTVSPost2010PropOp35
 70
     1
102
RTVSPost2010Prop36
280
     0
102
RTVSPost2010PropOp36
 70
     1
102
RTVSPost2010Prop37
 90
       50
102
RTVSPost2010PropOp37
 70
     1
102
RTVSPost2010Prop38
140
0.0
102
RTVSPost2010PropOp38
 70
     1
102
RTVSPost2010Prop39
140
1.0
102
RTVSPost2010PropOp39
 70
     1
102
RTVSPost2010Prop40
 90
        0
102
RTVSPost2010PropOp40
 70
     1
102
RTVSPost2010Prop41ColorIndex
 90
       18
102
RTVSPost2010Prop41ColorRGB
 90
        0
102
RTVSPost2010PropOp41
 70
     1
102
RTVSPost2010Prop42
 90
       50
102
RTVSPost2010PropOp42
 70
     1
102
RTVSPost2010Prop43
 90
        3
102
RTVSPost2010PropOp43
 70
     1
102
RTVSPost2010Prop44ColorIndex
 90
        5
102
RTVSPost2010Prop44ColorRGB
 90
      255
102
RTVSPost2010PropOp44
 70
     1
102
RTVSPost2010Prop45
280
     0
102
RTVSPost2010PropOp45
 70
     1
102
RTVSPost2010Prop46
 90
       50
102
RTVSPost2010PropOp46
 70
     1
102
RTVSPost2010Prop47
 90
       50
102
RTVSPost2010PropOp47
 70
     1
102
RTVSPost2010Prop48
 90
       50
102
RTVSPost2010PropOp48
 70
     1
102
RTVSPost2010Prop49
280
     0
102
RTVSPost2010PropOp49
 70
     1
102
RTVSPost2010Prop50
 90
       50
102
RTVSPost2010PropOp50
 70
     1
102
RTVSPost2010Prop51ColorIndex
 90
      256
102
RTVSPost2010Prop51ColorRGB
 90
-16777216
102
RTVSPost2010PropOp51
 70
     0
102
RTVSPost2010Prop52
140
1.0
102
RTVSPost2010PropOp52
 70
     0
102
RTVSPost2010Prop53
 90
        2
102
RTVSPost2010PropOp53
 70
     1
102
RTVSPost2010Prop54
  1
strokes_ogs.tif
102
RTVSPost2010PropOp54
 70
     1
102
RTVSPost2010Prop55
280
     0
102
RTVSPost2010PropOp55
 70
     1
102
RTVSPost2010Prop56
140
1.0
102
RTVSPost2010PropOp56
 70
     1
102
RTVSPost2010Prop57
140
1.0
102
RTVSPost2010PropOp57
 70
     1
102
RTVSPropertyOp0
 70
     1
102
RTVSPropertyOp1
 70
     1
102
RTVSPropertyOp2
 70
     1
102
RTVSPropertyOp3
 70
     1
102
RTVSPropertyOp4
 70
     1
102
RTVSPropertyOp5
 70
     1
102
RTVSPropertyOp6
 70
     1
102
RTVSPropertyOp7
 70
     1
102
RTVSPropertyOp8
 70
     1
102
RTVSPropertyOp9
 70
     1
102
RTVSPropertyOp10
 70
     1
102
RTVSPropertyOp11
 70
     1
102
RTVSPropertyOp12
 70
     1
102
RTVSPropertyOp13
 70
     1
102
RTVSPropertyOp14
 70
     1
102
RTVSPropertyOp15
 70
     1
102
RTVSPropertyOp16
 70
     1
102
RTVSPropertyOp17
 70
     1
102
RTVSPropertyOp18
 70
     1
102
RTVSPropertyOp19
 70
     1
102
RTVSPropertyOp20
 70
     1
102
RTVSPropertyOp21
 70
     1
102
RTVSPropertyOp22
 70
     1
102
RTVSPropertyOp23
 70
     1
102
RTVSPropertyOp24
 70
     1
102
RTVSPropertyOp25
 70
     1
102
RTVSPropertyOp26
 70
     1
102
RTVSPropertyOp27
 70
     1
102
RTVSPropertyOp28
 70
     1
102
RTVSPropertyOp29
 70
     1
102
RTVSPropertyOp30
 70
     1
102
RTVSPropertyOp31
 70
     1
102
RTVSPropertyOp32
 70
     1
102
RTVSPropertyOp33
 70
     1
102
RTVSPropertyOp34
 70
     1
102
RTVSPropertyOp35
 70
     1
102
RTVSPropertyOp36
 70
     1
102
RTVSPropertyOp37
 70
     1
102
RTVSPropertyOp38
 70
     1
102
RTVSPropertyOp39
 70
     1
102
RTVSPropertyOp40
 70
     1
102
RTVSPropertyOp41
 70
     1
102
RTVSPropertyOp42
 70
     1
102
RTVSPropertyOp43
 70
     1
102
RTVSPropertyOp44
 70
     1
102
RTVSPropertyOp45
 70
     1
102
RTVSPropertyOp46
 70
     1
102
RTVSPropertyOp47
 70
     1
102
RTVSPropertyOp48
 70
     1
102
RTVSPropertyOp49
 70
     1
102
RTVSPropertyOp50
 70
     1
102
RTVSPropertyOp51
 70
     0
102
RTVSPropertyOp52
 70
     0
102
RTVSPropertyOp53
 70
     1
102
RTVSPropertyOp54
 70
     1
102
RTVSPropertyOp55
 70
     1
102
RTVSPropertyOp56
 70
     1
102
RTVSPropertyOp57
 70
     1
102
RTVSPropertyOp58
 70
     1
102
RTVSPropertyOp59
 70
     1
102
RTVSPropertyOp60
 70
     1
102
RTVSPropertyOp61
 70
     1
102
RTVSPropertyOp62
 70
     1
  0
XRECORD
  5
8BF
102
{ACAD_REACTORS
330
8BE
102
}
330
8BE
100
AcDbXrecord
280
     1
102
RTVSPost2010Prop28
280
     0
102
RTVSPost2010PropOp28
 70
     1
102
RTVSPost2010Prop29
280
     1
102
RTVSPost2010PropOp29
 70
     1
102
RTVSPost2010Prop30
280
     1
102
RTVSPost2010PropOp30
 70
     1
102
RTVSPost2010Prop31
280
     0
102
RTVSPost2010PropOp31
 70
     1
102
RTVSPost2010Prop32
280
     0
102
RTVSPost2010PropOp32
 70
     1
102
RTVSPost2010Prop33
280
     0
102
RTVSPost2010PropOp33
 70
     1
102
RTVSPost2010Prop34
280
     0
102
RTVSPost2010PropOp34
 70
     1
102
RTVSPost2010Prop35
280
     0
102
RTVSPost2010PropOp35
 70
     1
102
RTVSPost2010Prop36
280
     0
102
RTVSPost2010PropOp36
 70
     1
102
RTVSPost2010Prop37
 90
       50
102
RTVSPost2010PropOp37
 70
     1
102
RTVSPost2010Prop38
140
0.0
102
RTVSPost2010PropOp38
 70
     1
102
RTVSPost2010Prop39
140
1.0
102
RTVSPost2010PropOp39
 70
     1
102
RTVSPost2010Prop40
 90
        0
102
RTVSPost2010PropOp40
 70
     1
102
RTVSPost2010Prop41ColorIndex
 90
       18
102
RTVSPost2010Prop41ColorRGB
 90
        0
102
RTVSPost2010PropOp41
 70
     1
102
RTVSPost2010Prop42
 90
       50
102
RTVSPost2010PropOp42
 70
     1
102
RTVSPost2010Prop43
 90
        3
102
RTVSPost2010PropOp43
 70
     1
102
RTVSPost2010Prop44ColorIndex
 90
        5
102
RTVSPost2010Prop44ColorRGB
 90
      255
102
RTVSPost2010PropOp44
 70
     1
102
RTVSPost2010Prop45
280
     0
102
RTVSPost2010PropOp45
 70
     1
102
RTVSPost2010Prop46
 90
       50
102
RTVSPost2010PropOp46
 70
     1
102
RTVSPost2010Prop47
 90
       50
102
RTVSPost2010PropOp47
 70
     1
102
RTVSPost2010Prop48
 90
       50
102
RTVSPost2010PropOp48
 70
     1
102
RTVSPost2010Prop49
280
     0
102
RTVSPost2010PropOp49
 70
     1
102
RTVSPost2010Prop50
 90
       50
102
RTVSPost2010PropOp50
 70
     1
102
RTVSPost2010Prop51ColorIndex
 90
      256
102
RTVSPost2010Prop51ColorRGB
 90
-16777216
102
RTVSPost2010PropOp51
 70
     0
102
RTVSPost2010Prop52
140
1.0
102
RTVSPost2010PropOp52
 70
     0
102
RTVSPost2010Prop53
 90
        2
102
RTVSPost2010PropOp53
 70
     1
102
RTVSPost2010Prop54
  1
strokes_ogs.tif
102
RTVSPost2010PropOp54
 70
     1
102
RTVSPost2010Prop55
280
     0
102
RTVSPost2010PropOp55
 70
     1
102
RTVSPost2010Prop56
140
1.0
102
RTVSPost2010PropOp56
 70
     1
102
RTVSPost2010Prop57
140
1.0
102
RTVSPost2010PropOp57
 70
     1
102
RTVSPropertyOp0
 70
     1
102
RTVSPropertyOp1
 70
     1
102
RTVSPropertyOp2
 70
     1
102
RTVSPropertyOp3
 70
     1
102
RTVSPropertyOp4
 70
     1
102
RTVSPropertyOp5
 70
     1
102
RTVSPropertyOp6
 70
     1
102
RTVSPropertyOp7
 70
     1
102
RTVSPropertyOp8
 70
     1
102
RTVSPropertyOp9
 70
     1
102
RTVSPropertyOp10
 70
     1
102
RTVSPropertyOp11
 70
     1
102
RTVSPropertyOp12
 70
     1
102
RTVSPropertyOp13
 70
     1
102
RTVSPropertyOp14
 70
     1
102
RTVSPropertyOp15
 70
     1
102
RTVSPropertyOp16
 70
     1
102
RTVSPropertyOp17
 70
     1
102
RTVSPropertyOp18
 70
     1
102
RTVSPropertyOp19
 70
     1
102
RTVSPropertyOp20
 70
     1
102
RTVSPropertyOp21
 70
     1
102
RTVSPropertyOp22
 70
     1
102
RTVSPropertyOp23
 70
     1
102
RTVSPropertyOp24
 70
     1
102
RTVSPropertyOp25
 70
     1
102
RTVSPropertyOp26
 70
     1
102
RTVSPropertyOp27
 70
     1
102
RTVSPropertyOp28
 70
     1
102
RTVSPropertyOp29
 70
     1
102
RTVSPropertyOp30
 70
     1
102
RTVSPropertyOp31
 70
     1
102
RTVSPropertyOp32
 70
     1
102
RTVSPropertyOp33
 70
     1
102
RTVSPropertyOp34
 70
     1
102
RTVSPropertyOp35
 70
     1
102
RTVSPropertyOp36
 70
     1
102
RTVSPropertyOp37
 70
     1
102
RTVSPropertyOp38
 70
     1
102
RTVSPropertyOp39
 70
     1
102
RTVSPropertyOp40
 70
     1
102
RTVSPropertyOp41
 70
     1
102
RTVSPropertyOp42
 70
     1
102
RTVSPropertyOp43
 70
     1
102
RTVSPropertyOp44
 70
     1
102
RTVSPropertyOp45
 70
     1
102
RTVSPropertyOp46
 70
     1
102
RTVSPropertyOp47
 70
     1
102
RTVSPropertyOp48
 70
     1
102
RTVSPropertyOp49
 70
     1
102
RTVSPropertyOp50
 70
     1
102
RTVSPropertyOp51
 70
     0
102
RTVSPropertyOp52
 70
     0
102
RTVSPropertyOp53
 70
     1
102
RTVSPropertyOp54
 70
     1
102
RTVSPropertyOp55
 70
     1
102
RTVSPropertyOp56
 70
     1
102
RTVSPropertyOp57
 70
     1
102
RTVSPropertyOp58
 70
     1
102
RTVSPropertyOp59
 70
     1
102
RTVSPropertyOp60
 70
     1
102
RTVSPropertyOp61
 70
     1
102
RTVSPropertyOp62
 70
     1
  0
XRECORD
  5
8CF
102
{ACAD_REACTORS
330
8CE
102
}
330
8CE
100
AcDbXrecord
280
     1
102
RTVSPost2010Prop28
280
     0
102
RTVSPost2010PropOp28
 70
     0
102
RTVSPost2010Prop29
280
     1
102
RTVSPost2010PropOp29
 70
     0
102
RTVSPost2010Prop30
280
     1
102
RTVSPost2010PropOp30
 70
     0
102
RTVSPost2010Prop31
280
     0
102
RTVSPost2010PropOp31
 70
     0
102
RTVSPost2010Prop32
280
     0
102
RTVSPost2010PropOp32
 70
     0
102
RTVSPost2010Prop33
280
     0
102
RTVSPost2010PropOp33
 70
     0
102
RTVSPost2010Prop34
280
     0
102
RTVSPost2010PropOp34
 70
     0
102
RTVSPost2010Prop35
280
     0
102
RTVSPost2010PropOp35
 70
     0
102
RTVSPost2010Prop36
280
     0
102
RTVSPost2010PropOp36
 70
     0
102
RTVSPost2010Prop37
 90
       50
102
RTVSPost2010PropOp37
 70
     0
102
RTVSPost2010Prop38
140
0.0
102
RTVSPost2010PropOp38
 70
     0
102
RTVSPost2010Prop39
140
1.0
102
RTVSPost2010PropOp39
 70
     0
102
RTVSPost2010Prop40
 90
        0
102
RTVSPost2010PropOp40
 70
     0
102
RTVSPost2010Prop41ColorIndex
 90
       18
102
RTVSPost2010Prop41ColorRGB
 90
        0
102
RTVSPost2010PropOp41
 70
     0
102
RTVSPost2010Prop42
 90
       50
102
RTVSPost2010PropOp42
 70
     0
102
RTVSPost2010Prop43
 90
        3
102
RTVSPost2010PropOp43
 70
     0
102
RTVSPost2010Prop44ColorIndex
 90
        5
102
RTVSPost2010Prop44ColorRGB
 90
      255
102
RTVSPost2010PropOp44
 70
     0
102
RTVSPost2010Prop45
280
     0
102
RTVSPost2010PropOp45
 70
     0
102
RTVSPost2010Prop46
 90
       50
102
RTVSPost2010PropOp46
 70
     0
102
RTVSPost2010Prop47
 90
       50
102
RTVSPost2010PropOp47
 70
     0
102
RTVSPost2010Prop48
 90
       50
102
RTVSPost2010PropOp48
 70
     0
102
RTVSPost2010Prop49
280
     0
102
RTVSPost2010PropOp49
 70
     0
102
RTVSPost2010Prop50
 90
       50
102
RTVSPost2010PropOp50
 70
     0
102
RTVSPost2010Prop51ColorIndex
 90
      256
102
RTVSPost2010Prop51ColorRGB
 90
-16777216
102
RTVSPost2010PropOp51
 70
     0
102
RTVSPost2010Prop52
140
1.0
102
RTVSPost2010PropOp52
 70
     0
102
RTVSPost2010Prop53
 90
        2
102
RTVSPost2010PropOp53
 70
     0
102
RTVSPost2010Prop54
  1
strokes_ogs.tif
102
RTVSPost2010PropOp54
 70
     0
102
RTVSPost2010Prop55
280
     0
102
RTVSPost2010PropOp55
 70
     0
102
RTVSPost2010Prop56
140
1.0
102
RTVSPost2010PropOp56
 70
     0
102
RTVSPost2010Prop57
140
1.0
102
RTVSPost2010PropOp57
 70
     0
102
RTVSPropertyOp0
 70
     0
102
RTVSPropertyOp1
 70
     0
102
RTVSPropertyOp2
 70
     0
102
RTVSPropertyOp3
 70
     0
102
RTVSPropertyOp4
 70
     0
102
RTVSPropertyOp5
 70
     0
102
RTVSPropertyOp6
 70
     0
102
RTVSPropertyOp7
 70
     0
102
RTVSPropertyOp8
 70
     0
102
RTVSPropertyOp9
 70
     0
102
RTVSPropertyOp10
 70
     0
102
RTVSPropertyOp11
 70
     0
102
RTVSPropertyOp12
 70
     0
102
RTVSPropertyOp13
 70
     0
102
RTVSPropertyOp14
 70
     2
102
RTVSPropertyOp15
 70
     0
102
RTVSPropertyOp16
 70
     0
102
RTVSPropertyOp17
 70
     0
102
RTVSPropertyOp18
 70
     0
102
RTVSPropertyOp19
 70
     0
102
RTVSPropertyOp20
 70
     0
102
RTVSPropertyOp21
 70
     0
102
RTVSPropertyOp22
 70
     0
102
RTVSPropertyOp23
 70
     0
102
RTVSPropertyOp24
 70
     0
102
RTVSPropertyOp25
 70
     0
102
RTVSPropertyOp26
 70
     0
102
RTVSPropertyOp27
 70
     0
102
RTVSPropertyOp28
 70
     0
102
RTVSPropertyOp29
 70
     0
102
RTVSPropertyOp30
 70
     0
102
RTVSPropertyOp31
 70
     0
102
RTVSPropertyOp32
 70
     0
102
RTVSPropertyOp33
 70
     0
102
RTVSPropertyOp34
 70
     0
102
RTVSPropertyOp35
 70
     0
102
RTVSPropertyOp36
 70
     0
102
RTVSPropertyOp37
 70
     0
102
RTVSPropertyOp38
 70
     0
102
RTVSPropertyOp39
 70
     0
102
RTVSPropertyOp40
 70
     0
102
RTVSPropertyOp41
 70
     0
102
RTVSPropertyOp42
 70
     0
102
RTVSPropertyOp43
 70
     0
102
RTVSPropertyOp44
 70
     0
102
RTVSPropertyOp45
 70
     0
102
RTVSPropertyOp46
 70
     0
102
RTVSPropertyOp47
 70
     0
102
RTVSPropertyOp48
 70
     0
102
RTVSPropertyOp49
 70
     0
102
RTVSPropertyOp50
 70
     0
102
RTVSPropertyOp51
 70
     0
102
RTVSPropertyOp52
 70
     0
102
RTVSPropertyOp53
 70
     0
102
RTVSPropertyOp54
 70
     0
102
RTVSPropertyOp55
 70
     0
102
RTVSPropertyOp56
 70
     0
102
RTVSPropertyOp57
 70
     0
102
RTVSPropertyOp58
 70
     1
102
RTVSPropertyOp59
 70
     1
102
RTVSPropertyOp60
 70
     1
102
RTVSPropertyOp61
 70
     1
102
RTVSPropertyOp62
 70
     1
  0
XRECORD
  5
8C7
102
{ACAD_REACTORS
330
8C6
102
}
330
8C6
100
AcDbXrecord
280
     1
102
RTVSPost2010Prop28
280
     0
102
RTVSPost2010PropOp28
 70
     1
102
RTVSPost2010Prop29
280
     1
102
RTVSPost2010PropOp29
 70
     1
102
RTVSPost2010Prop30
280
     1
102
RTVSPost2010PropOp30
 70
     1
102
RTVSPost2010Prop31
280
     0
102
RTVSPost2010PropOp31
 70
     1
102
RTVSPost2010Prop32
280
     0
102
RTVSPost2010PropOp32
 70
     1
102
RTVSPost2010Prop33
280
     0
102
RTVSPost2010PropOp33
 70
     1
102
RTVSPost2010Prop34
280
     0
102
RTVSPost2010PropOp34
 70
     1
102
RTVSPost2010Prop35
280
     0
102
RTVSPost2010PropOp35
 70
     1
102
RTVSPost2010Prop36
280
     0
102
RTVSPost2010PropOp36
 70
     1
102
RTVSPost2010Prop37
 90
       50
102
RTVSPost2010PropOp37
 70
     1
102
RTVSPost2010Prop38
140
0.0
102
RTVSPost2010PropOp38
 70
     1
102
RTVSPost2010Prop39
140
1.0
102
RTVSPost2010PropOp39
 70
     1
102
RTVSPost2010Prop40
 90
        0
102
RTVSPost2010PropOp40
 70
     1
102
RTVSPost2010Prop41ColorIndex
 90
       18
102
RTVSPost2010Prop41ColorRGB
 90
        0
102
RTVSPost2010PropOp41
 70
     1
102
RTVSPost2010Prop42
 90
       50
102
RTVSPost2010PropOp42
 70
     1
102
RTVSPost2010Prop43
 90
        3
102
RTVSPost2010PropOp43
 70
     1
102
RTVSPost2010Prop44ColorIndex
 90
        5
102
RTVSPost2010Prop44ColorRGB
 90
      255
102
RTVSPost2010PropOp44
 70
     1
102
RTVSPost2010Prop45
280
     0
102
RTVSPost2010PropOp45
 70
     1
102
RTVSPost2010Prop46
 90
       50
102
RTVSPost2010PropOp46
 70
     1
102
RTVSPost2010Prop47
 90
       50
102
RTVSPost2010PropOp47
 70
     1
102
RTVSPost2010Prop48
 90
       50
102
RTVSPost2010PropOp48
 70
     1
102
RTVSPost2010Prop49
280
     0
102
RTVSPost2010PropOp49
 70
     1
102
RTVSPost2010Prop50
 90
       50
102
RTVSPost2010PropOp50
 70
     1
102
RTVSPost2010Prop51ColorIndex
 90
      256
102
RTVSPost2010Prop51ColorRGB
 90
-16777216
102
RTVSPost2010PropOp51
 70
     0
102
RTVSPost2010Prop52
140
1.0
102
RTVSPost2010PropOp52
 70
     0
102
RTVSPost2010Prop53
 90
        2
102
RTVSPost2010PropOp53
 70
     1
102
RTVSPost2010Prop54
  1
strokes_ogs.tif
102
RTVSPost2010PropOp54
 70
     1
102
RTVSPost2010Prop55
280
     0
102
RTVSPost2010PropOp55
 70
     1
102
RTVSPost2010Prop56
140
1.0
102
RTVSPost2010PropOp56
 70
     1
102
RTVSPost2010Prop57
140
1.0
102
RTVSPost2010PropOp57
 70
     1
102
RTVSPropertyOp0
 70
     1
102
RTVSPropertyOp1
 70
     1
102
RTVSPropertyOp2
 70
     1
102
RTVSPropertyOp3
 70
     1
102
RTVSPropertyOp4
 70
     1
102
RTVSPropertyOp5
 70
     1
102
RTVSPropertyOp6
 70
     1
102
RTVSPropertyOp7
 70
     1
102
RTVSPropertyOp8
 70
     1
102
RTVSPropertyOp9
 70
     1
102
RTVSPropertyOp10
 70
     1
102
RTVSPropertyOp11
 70
     1
102
RTVSPropertyOp12
 70
     1
102
RTVSPropertyOp13
 70
     1
102
RTVSPropertyOp14
 70
     1
102
RTVSPropertyOp15
 70
     1
102
RTVSPropertyOp16
 70
     1
102
RTVSPropertyOp17
 70
     1
102
RTVSPropertyOp18
 70
     1
102
RTVSPropertyOp19
 70
     1
102
RTVSPropertyOp20
 70
     1
102
RTVSPropertyOp21
 70
     1
102
RTVSPropertyOp22
 70
     1
102
RTVSPropertyOp23
 70
     1
102
RTVSPropertyOp24
 70
     1
102
RTVSPropertyOp25
 70
     1
102
RTVSPropertyOp26
 70
     1
102
RTVSPropertyOp27
 70
     1
102
RTVSPropertyOp28
 70
     1
102
RTVSPropertyOp29
 70
     1
102
RTVSPropertyOp30
 70
     1
102
RTVSPropertyOp31
 70
     1
102
RTVSPropertyOp32
 70
     1
102
RTVSPropertyOp33
 70
     1
102
RTVSPropertyOp34
 70
     1
102
RTVSPropertyOp35
 70
     1
102
RTVSPropertyOp36
 70
     1
102
RTVSPropertyOp37
 70
     1
102
RTVSPropertyOp38
 70
     1
102
RTVSPropertyOp39
 70
     1
102
RTVSPropertyOp40
 70
     1
102
RTVSPropertyOp41
 70
     1
102
RTVSPropertyOp42
 70
     1
102
RTVSPropertyOp43
 70
     1
102
RTVSPropertyOp44
 70
     1
102
RTVSPropertyOp45
 70
     1
102
RTVSPropertyOp46
 70
     1
102
RTVSPropertyOp47
 70
     1
102
RTVSPropertyOp48
 70
     1
102
RTVSPropertyOp49
 70
     1
102
RTVSPropertyOp50
 70
     1
102
RTVSPropertyOp51
 70
     0
102
RTVSPropertyOp52
 70
     0
102
RTVSPropertyOp53
 70
     1
102
RTVSPropertyOp54
 70
     1
102
RTVSPropertyOp55
 70
     1
102
RTVSPropertyOp56
 70
     1
102
RTVSPropertyOp57
 70
     1
102
RTVSPropertyOp58
 70
     1
102
RTVSPropertyOp59
 70
     1
102
RTVSPropertyOp60
 70
     1
102
RTVSPropertyOp61
 70
     1
102
RTVSPropertyOp62
 70
     1
  0
XRECORD
  5
8AB
102
{ACAD_REACTORS
330
8AA
102
}
330
8AA
100
AcDbXrecord
280
     1
102
RTVSPost2010Prop28
280
     0
102
RTVSPost2010PropOp28
 70
     1
102
RTVSPost2010Prop29
280
     1
102
RTVSPost2010PropOp29
 70
     1
102
RTVSPost2010Prop30
280
     1
102
RTVSPost2010PropOp30
 70
     1
102
RTVSPost2010Prop31
280
     0
102
RTVSPost2010PropOp31
 70
     1
102
RTVSPost2010Prop32
280
     0
102
RTVSPost2010PropOp32
 70
     1
102
RTVSPost2010Prop33
280
     0
102
RTVSPost2010PropOp33
 70
     1
102
RTVSPost2010Prop34
280
     0
102
RTVSPost2010PropOp34
 70
     1
102
RTVSPost2010Prop35
280
     0
102
RTVSPost2010PropOp35
 70
     1
102
RTVSPost2010Prop36
280
     0
102
RTVSPost2010PropOp36
 70
     1
102
RTVSPost2010Prop37
 90
       50
102
RTVSPost2010PropOp37
 70
     1
102
RTVSPost2010Prop38
140
0.0
102
RTVSPost2010PropOp38
 70
     1
102
RTVSPost2010Prop39
140
1.0
102
RTVSPost2010PropOp39
 70
     1
102
RTVSPost2010Prop40
 90
        0
102
RTVSPost2010PropOp40
 70
     1
102
RTVSPost2010Prop41ColorIndex
 90
       18
102
RTVSPost2010Prop41ColorRGB
 90
        0
102
RTVSPost2010PropOp41
 70
     1
102
RTVSPost2010Prop42
 90
       50
102
RTVSPost2010PropOp42
 70
     1
102
RTVSPost2010Prop43
 90
        3
102
RTVSPost2010PropOp43
 70
     1
102
RTVSPost2010Prop44ColorIndex
 90
        5
102
RTVSPost2010Prop44ColorRGB
 90
      255
102
RTVSPost2010PropOp44
 70
     1
102
RTVSPost2010Prop45
280
     0
102
RTVSPost2010PropOp45
 70
     1
102
RTVSPost2010Prop46
 90
       50
102
RTVSPost2010PropOp46
 70
     1
102
RTVSPost2010Prop47
 90
       50
102
RTVSPost2010PropOp47
 70
     1
102
RTVSPost2010Prop48
 90
       50
102
RTVSPost2010PropOp48
 70
     1
102
RTVSPost2010Prop49
280
     0
102
RTVSPost2010PropOp49
 70
     1
102
RTVSPost2010Prop50
 90
       50
102
RTVSPost2010PropOp50
 70
     1
102
RTVSPost2010Prop51ColorIndex
 90
      256
102
RTVSPost2010Prop51ColorRGB
 90
-16777216
102
RTVSPost2010PropOp51
 70
     0
102
RTVSPost2010Prop52
140
1.0
102
RTVSPost2010PropOp52
 70
     0
102
RTVSPost2010Prop53
 90
        2
102
RTVSPost2010PropOp53
 70
     1
102
RTVSPost2010Prop54
  1
strokes_ogs.tif
102
RTVSPost2010PropOp54
 70
     1
102
RTVSPost2010Prop55
280
     0
102
RTVSPost2010PropOp55
 70
     1
102
RTVSPost2010Prop56
140
1.0
102
RTVSPost2010PropOp56
 70
     1
102
RTVSPost2010Prop57
140
1.0
102
RTVSPost2010PropOp57
 70
     1
102
RTVSPropertyOp0
 70
     1
102
RTVSPropertyOp1
 70
     1
102
RTVSPropertyOp2
 70
     1
102
RTVSPropertyOp3
 70
     1
102
RTVSPropertyOp4
 70
     1
102
RTVSPropertyOp5
 70
     1
102
RTVSPropertyOp6
 70
     1
102
RTVSPropertyOp7
 70
     1
102
RTVSPropertyOp8
 70
     1
102
RTVSPropertyOp9
 70
     1
102
RTVSPropertyOp10
 70
     1
102
RTVSPropertyOp11
 70
     1
102
RTVSPropertyOp12
 70
     1
102
RTVSPropertyOp13
 70
     1
102
RTVSPropertyOp14
 70
     1
102
RTVSPropertyOp15
 70
     1
102
RTVSPropertyOp16
 70
     1
102
RTVSPropertyOp17
 70
     1
102
RTVSPropertyOp18
 70
     1
102
RTVSPropertyOp19
 70
     1
102
RTVSPropertyOp20
 70
     1
102
RTVSPropertyOp21
 70
     1
102
RTVSPropertyOp22
 70
     1
102
RTVSPropertyOp23
 70
     1
102
RTVSPropertyOp24
 70
     1
102
RTVSPropertyOp25
 70
     1
102
RTVSPropertyOp26
 70
     1
102
RTVSPropertyOp27
 70
     1
102
RTVSPropertyOp28
 70
     1
102
RTVSPropertyOp29
 70
     1
102
RTVSPropertyOp30
 70
     1
102
RTVSPropertyOp31
 70
     1
102
RTVSPropertyOp32
 70
     1
102
RTVSPropertyOp33
 70
     1
102
RTVSPropertyOp34
 70
     1
102
RTVSPropertyOp35
 70
     1
102
RTVSPropertyOp36
 70
     1
102
RTVSPropertyOp37
 70
     1
102
RTVSPropertyOp38
 70
     1
102
RTVSPropertyOp39
 70
     1
102
RTVSPropertyOp40
 70
     1
102
RTVSPropertyOp41
 70
     1
102
RTVSPropertyOp42
 70
     1
102
RTVSPropertyOp43
 70
     1
102
RTVSPropertyOp44
 70
     1
102
RTVSPropertyOp45
 70
     1
102
RTVSPropertyOp46
 70
     1
102
RTVSPropertyOp47
 70
     1
102
RTVSPropertyOp48
 70
     1
102
RTVSPropertyOp49
 70
     1
102
RTVSPropertyOp50
 70
     1
102
RTVSPropertyOp51
 70
     0
102
RTVSPropertyOp52
 70
     0
102
RTVSPropertyOp53
 70
     1
102
RTVSPropertyOp54
 70
     1
102
RTVSPropertyOp55
 70
     1
102
RTVSPropertyOp56
 70
     1
102
RTVSPropertyOp57
 70
     1
102
RTVSPropertyOp58
 70
     1
102
RTVSPropertyOp59
 70
     1
102
RTVSPropertyOp60
 70
     1
102
RTVSPropertyOp61
 70
     1
102
RTVSPropertyOp62
 70
     1
  0
XRECORD
  5
8AD
102
{ACAD_REACTORS
330
8AC
102
}
330
8AC
100
AcDbXrecord
280
     1
102
RTVSPost2010Prop28
280
     0
102
RTVSPost2010PropOp28
 70
     1
102
RTVSPost2010Prop29
280
     1
102
RTVSPost2010PropOp29
 70
     1
102
RTVSPost2010Prop30
280
     1
102
RTVSPost2010PropOp30
 70
     1
102
RTVSPost2010Prop31
280
     0
102
RTVSPost2010PropOp31
 70
     1
102
RTVSPost2010Prop32
280
     0
102
RTVSPost2010PropOp32
 70
     1
102
RTVSPost2010Prop33
280
     0
102
RTVSPost2010PropOp33
 70
     1
102
RTVSPost2010Prop34
280
     0
102
RTVSPost2010PropOp34
 70
     1
102
RTVSPost2010Prop35
280
     0
102
RTVSPost2010PropOp35
 70
     1
102
RTVSPost2010Prop36
280
     0
102
RTVSPost2010PropOp36
 70
     1
102
RTVSPost2010Prop37
 90
       50
102
RTVSPost2010PropOp37
 70
     1
102
RTVSPost2010Prop38
140
0.0
102
RTVSPost2010PropOp38
 70
     1
102
RTVSPost2010Prop39
140
1.0
102
RTVSPost2010PropOp39
 70
     1
102
RTVSPost2010Prop40
 90
        0
102
RTVSPost2010PropOp40
 70
     1
102
RTVSPost2010Prop41ColorIndex
 90
       18
102
RTVSPost2010Prop41ColorRGB
 90
        0
102
RTVSPost2010PropOp41
 70
     1
102
RTVSPost2010Prop42
 90
       50
102
RTVSPost2010PropOp42
 70
     1
102
RTVSPost2010Prop43
 90
        3
102
RTVSPost2010PropOp43
 70
     1
102
RTVSPost2010Prop44ColorIndex
 90
        5
102
RTVSPost2010Prop44ColorRGB
 90
      255
102
RTVSPost2010PropOp44
 70
     1
102
RTVSPost2010Prop45
280
     0
102
RTVSPost2010PropOp45
 70
     1
102
RTVSPost2010Prop46
 90
       50
102
RTVSPost2010PropOp46
 70
     1
102
RTVSPost2010Prop47
 90
       50
102
RTVSPost2010PropOp47
 70
     1
102
RTVSPost2010Prop48
 90
       50
102
RTVSPost2010PropOp48
 70
     1
102
RTVSPost2010Prop49
280
     0
102
RTVSPost2010PropOp49
 70
     1
102
RTVSPost2010Prop50
 90
       50
102
RTVSPost2010PropOp50
 70
     1
102
RTVSPost2010Prop51ColorIndex
 90
      256
102
RTVSPost2010Prop51ColorRGB
 90
-16777216
102
RTVSPost2010PropOp51
 70
     0
102
RTVSPost2010Prop52
140
1.0
102
RTVSPost2010PropOp52
 70
     0
102
RTVSPost2010Prop53
 90
        2
102
RTVSPost2010PropOp53
 70
     1
102
RTVSPost2010Prop54
  1
strokes_ogs.tif
102
RTVSPost2010PropOp54
 70
     1
102
RTVSPost2010Prop55
280
     0
102
RTVSPost2010PropOp55
 70
     1
102
RTVSPost2010Prop56
140
1.0
102
RTVSPost2010PropOp56
 70
     1
102
RTVSPost2010Prop57
140
1.0
102
RTVSPost2010PropOp57
 70
     1
102
RTVSPropertyOp0
 70
     1
102
RTVSPropertyOp1
 70
     1
102
RTVSPropertyOp2
 70
     1
102
RTVSPropertyOp3
 70
     1
102
RTVSPropertyOp4
 70
     1
102
RTVSPropertyOp5
 70
     1
102
RTVSPropertyOp6
 70
     1
102
RTVSPropertyOp7
 70
     1
102
RTVSPropertyOp8
 70
     1
102
RTVSPropertyOp9
 70
     1
102
RTVSPropertyOp10
 70
     1
102
RTVSPropertyOp11
 70
     1
102
RTVSPropertyOp12
 70
     1
102
RTVSPropertyOp13
 70
     1
102
RTVSPropertyOp14
 70
     1
102
RTVSPropertyOp15
 70
     1
102
RTVSPropertyOp16
 70
     1
102
RTVSPropertyOp17
 70
     1
102
RTVSPropertyOp18
 70
     1
102
RTVSPropertyOp19
 70
     1
102
RTVSPropertyOp20
 70
     1
102
RTVSPropertyOp21
 70
     1
102
RTVSPropertyOp22
 70
     1
102
RTVSPropertyOp23
 70
     1
102
RTVSPropertyOp24
 70
     1
102
RTVSPropertyOp25
 70
     1
102
RTVSPropertyOp26
 70
     1
102
RTVSPropertyOp27
 70
     1
102
RTVSPropertyOp28
 70
     1
102
RTVSPropertyOp29
 70
     1
102
RTVSPropertyOp30
 70
     1
102
RTVSPropertyOp31
 70
     1
102
RTVSPropertyOp32
 70
     1
102
RTVSPropertyOp33
 70
     1
102
RTVSPropertyOp34
 70
     1
102
RTVSPropertyOp35
 70
     1
102
RTVSPropertyOp36
 70
     1
102
RTVSPropertyOp37
 70
     1
102
RTVSPropertyOp38
 70
     1
102
RTVSPropertyOp39
 70
     1
102
RTVSPropertyOp40
 70
     1
102
RTVSPropertyOp41
 70
     1
102
RTVSPropertyOp42
 70
     1
102
RTVSPropertyOp43
 70
     1
102
RTVSPropertyOp44
 70
     1
102
RTVSPropertyOp45
 70
     1
102
RTVSPropertyOp46
 70
     1
102
RTVSPropertyOp47
 70
     1
102
RTVSPropertyOp48
 70
     1
102
RTVSPropertyOp49
 70
     1
102
RTVSPropertyOp50
 70
     1
102
RTVSPropertyOp51
 70
     0
102
RTVSPropertyOp52
 70
     0
102
RTVSPropertyOp53
 70
     1
102
RTVSPropertyOp54
 70
     1
102
RTVSPropertyOp55
 70
     1
102
RTVSPropertyOp56
 70
     1
102
RTVSPropertyOp57
 70
     1
102
RTVSPropertyOp58
 70
     1
102
RTVSPropertyOp59
 70
     1
102
RTVSPropertyOp60
 70
     1
102
RTVSPropertyOp61
 70
     1
102
RTVSPropertyOp62
 70
     1
  0
XRECORD
  5
8AF
102
{ACAD_REACTORS
330
8AE
102
}
330
8AE
100
AcDbXrecord
280
     1
102
RTVSPost2010Prop28
280
     0
102
RTVSPost2010PropOp28
 70
     1
102
RTVSPost2010Prop29
280
     1
102
RTVSPost2010PropOp29
 70
     1
102
RTVSPost2010Prop30
280
     1
102
RTVSPost2010PropOp30
 70
     1
102
RTVSPost2010Prop31
280
     0
102
RTVSPost2010PropOp31
 70
     1
102
RTVSPost2010Prop32
280
     0
102
RTVSPost2010PropOp32
 70
     1
102
RTVSPost2010Prop33
280
     0
102
RTVSPost2010PropOp33
 70
     1
102
RTVSPost2010Prop34
280
     0
102
RTVSPost2010PropOp34
 70
     1
102
RTVSPost2010Prop35
280
     0
102
RTVSPost2010PropOp35
 70
     1
102
RTVSPost2010Prop36
280
     0
102
RTVSPost2010PropOp36
 70
     1
102
RTVSPost2010Prop37
 90
       50
102
RTVSPost2010PropOp37
 70
     1
102
RTVSPost2010Prop38
140
0.0
102
RTVSPost2010PropOp38
 70
     1
102
RTVSPost2010Prop39
140
1.0
102
RTVSPost2010PropOp39
 70
     1
102
RTVSPost2010Prop40
 90
        0
102
RTVSPost2010PropOp40
 70
     1
102
RTVSPost2010Prop41ColorIndex
 90
       18
102
RTVSPost2010Prop41ColorRGB
 90
        0
102
RTVSPost2010PropOp41
 70
     1
102
RTVSPost2010Prop42
 90
       50
102
RTVSPost2010PropOp42
 70
     1
102
RTVSPost2010Prop43
 90
        3
102
RTVSPost2010PropOp43
 70
     1
102
RTVSPost2010Prop44ColorIndex
 90
        5
102
RTVSPost2010Prop44ColorRGB
 90
      255
102
RTVSPost2010PropOp44
 70
     1
102
RTVSPost2010Prop45
280
     0
102
RTVSPost2010PropOp45
 70
     1
102
RTVSPost2010Prop46
 90
       50
102
RTVSPost2010PropOp46
 70
     1
102
RTVSPost2010Prop47
 90
       50
102
RTVSPost2010PropOp47
 70
     1
102
RTVSPost2010Prop48
 90
       50
102
RTVSPost2010PropOp48
 70
     1
102
RTVSPost2010Prop49
280
     0
102
RTVSPost2010PropOp49
 70
     1
102
RTVSPost2010Prop50
 90
       50
102
RTVSPost2010PropOp50
 70
     1
102
RTVSPost2010Prop51ColorIndex
 90
      256
102
RTVSPost2010Prop51ColorRGB
 90
-16777216
102
RTVSPost2010PropOp51
 70
     0
102
RTVSPost2010Prop52
140
1.0
102
RTVSPost2010PropOp52
 70
     0
102
RTVSPost2010Prop53
 90
        2
102
RTVSPost2010PropOp53
 70
     1
102
RTVSPost2010Prop54
  1
strokes_ogs.tif
102
RTVSPost2010PropOp54
 70
     1
102
RTVSPost2010Prop55
280
     0
102
RTVSPost2010PropOp55
 70
     1
102
RTVSPost2010Prop56
140
1.0
102
RTVSPost2010PropOp56
 70
     1
102
RTVSPost2010Prop57
140
1.0
102
RTVSPost2010PropOp57
 70
     1
102
RTVSPropertyOp0
 70
     1
102
RTVSPropertyOp1
 70
     1
102
RTVSPropertyOp2
 70
     1
102
RTVSPropertyOp3
 70
     1
102
RTVSPropertyOp4
 70
     1
102
RTVSPropertyOp5
 70
     1
102
RTVSPropertyOp6
 70
     1
102
RTVSPropertyOp7
 70
     1
102
RTVSPropertyOp8
 70
     1
102
RTVSPropertyOp9
 70
     1
102
RTVSPropertyOp10
 70
     1
102
RTVSPropertyOp11
 70
     1
102
RTVSPropertyOp12
 70
     1
102
RTVSPropertyOp13
 70
     1
102
RTVSPropertyOp14
 70
     1
102
RTVSPropertyOp15
 70
     1
102
RTVSPropertyOp16
 70
     1
102
RTVSPropertyOp17
 70
     1
102
RTVSPropertyOp18
 70
     1
102
RTVSPropertyOp19
 70
     1
102
RTVSPropertyOp20
 70
     1
102
RTVSPropertyOp21
 70
     1
102
RTVSPropertyOp22
 70
     1
102
RTVSPropertyOp23
 70
     1
102
RTVSPropertyOp24
 70
     1
102
RTVSPropertyOp25
 70
     1
102
RTVSPropertyOp26
 70
     1
102
RTVSPropertyOp27
 70
     1
102
RTVSPropertyOp28
 70
     1
102
RTVSPropertyOp29
 70
     1
102
RTVSPropertyOp30
 70
     1
102
RTVSPropertyOp31
 70
     1
102
RTVSPropertyOp32
 70
     1
102
RTVSPropertyOp33
 70
     1
102
RTVSPropertyOp34
 70
     1
102
RTVSPropertyOp35
 70
     1
102
RTVSPropertyOp36
 70
     1
102
RTVSPropertyOp37
 70
     1
102
RTVSPropertyOp38
 70
     1
102
RTVSPropertyOp39
 70
     1
102
RTVSPropertyOp40
 70
     1
102
RTVSPropertyOp41
 70
     1
102
RTVSPropertyOp42
 70
     1
102
RTVSPropertyOp43
 70
     1
102
RTVSPropertyOp44
 70
     1
102
RTVSPropertyOp45
 70
     1
102
RTVSPropertyOp46
 70
     1
102
RTVSPropertyOp47
 70
     1
102
RTVSPropertyOp48
 70
     1
102
RTVSPropertyOp49
 70
     1
102
RTVSPropertyOp50
 70
     1
102
RTVSPropertyOp51
 70
     0
102
RTVSPropertyOp52
 70
     0
102
RTVSPropertyOp53
 70
     1
102
RTVSPropertyOp54
 70
     1
102
RTVSPropertyOp55
 70
     1
102
RTVSPropertyOp56
 70
     1
102
RTVSPropertyOp57
 70
     1
102
RTVSPropertyOp58
 70
     1
102
RTVSPropertyOp59
 70
     1
102
RTVSPropertyOp60
 70
     1
102
RTVSPropertyOp61
 70
     1
102
RTVSPropertyOp62
 70
     1
  0
XRECORD
  5
8B1
102
{ACAD_REACTORS
330
8B0
102
}
330
8B0
100
AcDbXrecord
280
     1
102
RTVSPost2010Prop28
280
     0
102
RTVSPost2010PropOp28
 70
     1
102
RTVSPost2010Prop29
280
     1
102
RTVSPost2010PropOp29
 70
     1
102
RTVSPost2010Prop30
280
     1
102
RTVSPost2010PropOp30
 70
     1
102
RTVSPost2010Prop31
280
     0
102
RTVSPost2010PropOp31
 70
     1
102
RTVSPost2010Prop32
280
     0
102
RTVSPost2010PropOp32
 70
     1
102
RTVSPost2010Prop33
280
     0
102
RTVSPost2010PropOp33
 70
     1
102
RTVSPost2010Prop34
280
     0
102
RTVSPost2010PropOp34
 70
     1
102
RTVSPost2010Prop35
280
     0
102
RTVSPost2010PropOp35
 70
     1
102
RTVSPost2010Prop36
280
     0
102
RTVSPost2010PropOp36
 70
     1
102
RTVSPost2010Prop37
 90
       50
102
RTVSPost2010PropOp37
 70
     1
102
RTVSPost2010Prop38
140
0.0
102
RTVSPost2010PropOp38
 70
     1
102
RTVSPost2010Prop39
140
1.0
102
RTVSPost2010PropOp39
 70
     1
102
RTVSPost2010Prop40
 90
        0
102
RTVSPost2010PropOp40
 70
     1
102
RTVSPost2010Prop41ColorIndex
 90
       18
102
RTVSPost2010Prop41ColorRGB
 90
        0
102
RTVSPost2010PropOp41
 70
     1
102
RTVSPost2010Prop42
 90
       50
102
RTVSPost2010PropOp42
 70
     1
102
RTVSPost2010Prop43
 90
        3
102
RTVSPost2010PropOp43
 70
     1
102
RTVSPost2010Prop44ColorIndex
 90
        5
102
RTVSPost2010Prop44ColorRGB
 90
      255
102
RTVSPost2010PropOp44
 70
     1
102
RTVSPost2010Prop45
280
     0
102
RTVSPost2010PropOp45
 70
     1
102
RTVSPost2010Prop46
 90
       50
102
RTVSPost2010PropOp46
 70
     1
102
RTVSPost2010Prop47
 90
       50
102
RTVSPost2010PropOp47
 70
     1
102
RTVSPost2010Prop48
 90
       50
102
RTVSPost2010PropOp48
 70
     1
102
RTVSPost2010Prop49
280
     0
102
RTVSPost2010PropOp49
 70
     1
102
RTVSPost2010Prop50
 90
       50
102
RTVSPost2010PropOp50
 70
     1
102
RTVSPost2010Prop51ColorIndex
 90
      256
102
RTVSPost2010Prop51ColorRGB
 90
-16777216
102
RTVSPost2010PropOp51
 70
     0
102
RTVSPost2010Prop52
140
1.0
102
RTVSPost2010PropOp52
 70
     0
102
RTVSPost2010Prop53
 90
        2
102
RTVSPost2010PropOp53
 70
     1
102
RTVSPost2010Prop54
  1
strokes_ogs.tif
102
RTVSPost2010PropOp54
 70
     1
102
RTVSPost2010Prop55
280
     0
102
RTVSPost2010PropOp55
 70
     1
102
RTVSPost2010Prop56
140
1.0
102
RTVSPost2010PropOp56
 70
     1
102
RTVSPost2010Prop57
140
1.0
102
RTVSPost2010PropOp57
 70
     1
102
RTVSPropertyOp0
 70
     1
102
RTVSPropertyOp1
 70
     1
102
RTVSPropertyOp2
 70
     1
102
RTVSPropertyOp3
 70
     1
102
RTVSPropertyOp4
 70
     1
102
RTVSPropertyOp5
 70
     1
102
RTVSPropertyOp6
 70
     1
102
RTVSPropertyOp7
 70
     1
102
RTVSPropertyOp8
 70
     1
102
RTVSPropertyOp9
 70
     1
102
RTVSPropertyOp10
 70
     1
102
RTVSPropertyOp11
 70
     1
102
RTVSPropertyOp12
 70
     1
102
RTVSPropertyOp13
 70
     1
102
RTVSPropertyOp14
 70
     1
102
RTVSPropertyOp15
 70
     1
102
RTVSPropertyOp16
 70
     1
102
RTVSPropertyOp17
 70
     1
102
RTVSPropertyOp18
 70
     1
102
RTVSPropertyOp19
 70
     1
102
RTVSPropertyOp20
 70
     1
102
RTVSPropertyOp21
 70
     1
102
RTVSPropertyOp22
 70
     1
102
RTVSPropertyOp23
 70
     1
102
RTVSPropertyOp24
 70
     1
102
RTVSPropertyOp25
 70
     1
102
RTVSPropertyOp26
 70
     1
102
RTVSPropertyOp27
 70
     1
102
RTVSPropertyOp28
 70
     1
102
RTVSPropertyOp29
 70
     1
102
RTVSPropertyOp30
 70
     1
102
RTVSPropertyOp31
 70
     1
102
RTVSPropertyOp32
 70
     1
102
RTVSPropertyOp33
 70
     1
102
RTVSPropertyOp34
 70
     1
102
RTVSPropertyOp35
 70
     1
102
RTVSPropertyOp36
 70
     1
102
RTVSPropertyOp37
 70
     1
102
RTVSPropertyOp38
 70
     1
102
RTVSPropertyOp39
 70
     1
102
RTVSPropertyOp40
 70
     1
102
RTVSPropertyOp41
 70
     1
102
RTVSPropertyOp42
 70
     1
102
RTVSPropertyOp43
 70
     1
102
RTVSPropertyOp44
 70
     1
102
RTVSPropertyOp45
 70
     1
102
RTVSPropertyOp46
 70
     1
102
RTVSPropertyOp47
 70
     1
102
RTVSPropertyOp48
 70
     1
102
RTVSPropertyOp49
 70
     1
102
RTVSPropertyOp50
 70
     1
102
RTVSPropertyOp51
 70
     0
102
RTVSPropertyOp52
 70
     0
102
RTVSPropertyOp53
 70
     1
102
RTVSPropertyOp54
 70
     1
102
RTVSPropertyOp55
 70
     1
102
RTVSPropertyOp56
 70
     1
102
RTVSPropertyOp57
 70
     1
102
RTVSPropertyOp58
 70
     1
102
RTVSPropertyOp59
 70
     1
102
RTVSPropertyOp60
 70
     1
102
RTVSPropertyOp61
 70
     1
102
RTVSPropertyOp62
 70
     1
  0
XRECORD
  5
8B7
102
{ACAD_REACTORS
330
8B6
102
}
330
8B6
100
AcDbXrecord
280
     1
102
RTVSPost2010Prop28
280
     0
102
RTVSPost2010PropOp28
 70
     1
102
RTVSPost2010Prop29
280
     1
102
RTVSPost2010PropOp29
 70
     1
102
RTVSPost2010Prop30
280
     1
102
RTVSPost2010PropOp30
 70
     1
102
RTVSPost2010Prop31
280
     0
102
RTVSPost2010PropOp31
 70
     1
102
RTVSPost2010Prop32
280
     0
102
RTVSPost2010PropOp32
 70
     1
102
RTVSPost2010Prop33
280
     0
102
RTVSPost2010PropOp33
 70
     1
102
RTVSPost2010Prop34
280
     0
102
RTVSPost2010PropOp34
 70
     1
102
RTVSPost2010Prop35
280
     0
102
RTVSPost2010PropOp35
 70
     1
102
RTVSPost2010Prop36
280
     0
102
RTVSPost2010PropOp36
 70
     1
102
RTVSPost2010Prop37
 90
       50
102
RTVSPost2010PropOp37
 70
     1
102
RTVSPost2010Prop38
140
0.0
102
RTVSPost2010PropOp38
 70
     1
102
RTVSPost2010Prop39
140
1.0
102
RTVSPost2010PropOp39
 70
     1
102
RTVSPost2010Prop40
 90
        0
102
RTVSPost2010PropOp40
 70
     1
102
RTVSPost2010Prop41ColorIndex
 90
       18
102
RTVSPost2010Prop41ColorRGB
 90
        0
102
RTVSPost2010PropOp41
 70
     1
102
RTVSPost2010Prop42
 90
       50
102
RTVSPost2010PropOp42
 70
     1
102
RTVSPost2010Prop43
 90
        3
102
RTVSPost2010PropOp43
 70
     1
102
RTVSPost2010Prop44ColorIndex
 90
        5
102
RTVSPost2010Prop44ColorRGB
 90
      255
102
RTVSPost2010PropOp44
 70
     1
102
RTVSPost2010Prop45
280
     0
102
RTVSPost2010PropOp45
 70
     1
102
RTVSPost2010Prop46
 90
       50
102
RTVSPost2010PropOp46
 70
     1
102
RTVSPost2010Prop47
 90
       50
102
RTVSPost2010PropOp47
 70
     1
102
RTVSPost2010Prop48
 90
       50
102
RTVSPost2010PropOp48
 70
     1
102
RTVSPost2010Prop49
280
     0
102
RTVSPost2010PropOp49
 70
     1
102
RTVSPost2010Prop50
 90
       50
102
RTVSPost2010PropOp50
 70
     1
102
RTVSPost2010Prop51ColorIndex
 90
      256
102
RTVSPost2010Prop51ColorRGB
 90
-16777216
102
RTVSPost2010PropOp51
 70
     0
102
RTVSPost2010Prop52
140
1.0
102
RTVSPost2010PropOp52
 70
     0
102
RTVSPost2010Prop53
 90
        2
102
RTVSPost2010PropOp53
 70
     1
102
RTVSPost2010Prop54
  1
strokes_ogs.tif
102
RTVSPost2010PropOp54
 70
     1
102
RTVSPost2010Prop55
280
     0
102
RTVSPost2010PropOp55
 70
     1
102
RTVSPost2010Prop56
140
1.0
102
RTVSPost2010PropOp56
 70
     1
102
RTVSPost2010Prop57
140
1.0
102
RTVSPost2010PropOp57
 70
     1
102
RTVSPropertyOp0
 70
     1
102
RTVSPropertyOp1
 70
     1
102
RTVSPropertyOp2
 70
     1
102
RTVSPropertyOp3
 70
     1
102
RTVSPropertyOp4
 70
     1
102
RTVSPropertyOp5
 70
     1
102
RTVSPropertyOp6
 70
     1
102
RTVSPropertyOp7
 70
     1
102
RTVSPropertyOp8
 70
     1
102
RTVSPropertyOp9
 70
     1
102
RTVSPropertyOp10
 70
     1
102
RTVSPropertyOp11
 70
     1
102
RTVSPropertyOp12
 70
     1
102
RTVSPropertyOp13
 70
     1
102
RTVSPropertyOp14
 70
     1
102
RTVSPropertyOp15
 70
     1
102
RTVSPropertyOp16
 70
     1
102
RTVSPropertyOp17
 70
     1
102
RTVSPropertyOp18
 70
     1
102
RTVSPropertyOp19
 70
     1
102
RTVSPropertyOp20
 70
     1
102
RTVSPropertyOp21
 70
     1
102
RTVSPropertyOp22
 70
     1
102
RTVSPropertyOp23
 70
     1
102
RTVSPropertyOp24
 70
     1
102
RTVSPropertyOp25
 70
     1
102
RTVSPropertyOp26
 70
     1
102
RTVSPropertyOp27
 70
     1
102
RTVSPropertyOp28
 70
     1
102
RTVSPropertyOp29
 70
     1
102
RTVSPropertyOp30
 70
     1
102
RTVSPropertyOp31
 70
     1
102
RTVSPropertyOp32
 70
     1
102
RTVSPropertyOp33
 70
     1
102
RTVSPropertyOp34
 70
     1
102
RTVSPropertyOp35
 70
     1
102
RTVSPropertyOp36
 70
     1
102
RTVSPropertyOp37
 70
     1
102
RTVSPropertyOp38
 70
     1
102
RTVSPropertyOp39
 70
     1
102
RTVSPropertyOp40
 70
     1
102
RTVSPropertyOp41
 70
     1
102
RTVSPropertyOp42
 70
     1
102
RTVSPropertyOp43
 70
     1
102
RTVSPropertyOp44
 70
     1
102
RTVSPropertyOp45
 70
     1
102
RTVSPropertyOp46
 70
     1
102
RTVSPropertyOp47
 70
     1
102
RTVSPropertyOp48
 70
     1
102
RTVSPropertyOp49
 70
     1
102
RTVSPropertyOp50
 70
     1
102
RTVSPropertyOp51
 70
     0
102
RTVSPropertyOp52
 70
     0
102
RTVSPropertyOp53
 70
     1
102
RTVSPropertyOp54
 70
     1
102
RTVSPropertyOp55
 70
     1
102
RTVSPropertyOp56
 70
     1
102
RTVSPropertyOp57
 70
     1
102
RTVSPropertyOp58
 70
     1
102
RTVSPropertyOp59
 70
     1
102
RTVSPropertyOp60
 70
     1
102
RTVSPropertyOp61
 70
     1
102
RTVSPropertyOp62
 70
     1
  0
XRECORD
  5
8CB
102
{ACAD_REACTORS
330
8CA
102
}
330
8CA
100
AcDbXrecord
280
     1
102
RTVSPost2010Prop28
280
     0
102
RTVSPost2010PropOp28
 70
     0
102
RTVSPost2010Prop29
280
     1
102
RTVSPost2010PropOp29
 70
     0
102
RTVSPost2010Prop30
280
     1
102
RTVSPost2010PropOp30
 70
     0
102
RTVSPost2010Prop31
280
     0
102
RTVSPost2010PropOp31
 70
     0
102
RTVSPost2010Prop32
280
     0
102
RTVSPost2010PropOp32
 70
     0
102
RTVSPost2010Prop33
280
     0
102
RTVSPost2010PropOp33
 70
     0
102
RTVSPost2010Prop34
280
     0
102
RTVSPost2010PropOp34
 70
     0
102
RTVSPost2010Prop35
280
     0
102
RTVSPost2010PropOp35
 70
     0
102
RTVSPost2010Prop36
280
     0
102
RTVSPost2010PropOp36
 70
     0
102
RTVSPost2010Prop37
 90
       50
102
RTVSPost2010PropOp37
 70
     0
102
RTVSPost2010Prop38
140
0.0
102
RTVSPost2010PropOp38
 70
     0
102
RTVSPost2010Prop39
140
1.0
102
RTVSPost2010PropOp39
 70
     0
102
RTVSPost2010Prop40
 90
        0
102
RTVSPost2010PropOp40
 70
     0
102
RTVSPost2010Prop41ColorIndex
 90
       18
102
RTVSPost2010Prop41ColorRGB
 90
        0
102
RTVSPost2010PropOp41
 70
     0
102
RTVSPost2010Prop42
 90
       50
102
RTVSPost2010PropOp42
 70
     0
102
RTVSPost2010Prop43
 90
        3
102
RTVSPost2010PropOp43
 70
     0
102
RTVSPost2010Prop44ColorIndex
 90
        5
102
RTVSPost2010Prop44ColorRGB
 90
      255
102
RTVSPost2010PropOp44
 70
     0
102
RTVSPost2010Prop45
280
     0
102
RTVSPost2010PropOp45
 70
     0
102
RTVSPost2010Prop46
 90
       50
102
RTVSPost2010PropOp46
 70
     0
102
RTVSPost2010Prop47
 90
       50
102
RTVSPost2010PropOp47
 70
     0
102
RTVSPost2010Prop48
 90
       50
102
RTVSPost2010PropOp48
 70
     0
102
RTVSPost2010Prop49
280
     0
102
RTVSPost2010PropOp49
 70
     0
102
RTVSPost2010Prop50
 90
       50
102
RTVSPost2010PropOp50
 70
     0
102
RTVSPost2010Prop51ColorIndex
 90
      256
102
RTVSPost2010Prop51ColorRGB
 90
-16777216
102
RTVSPost2010PropOp51
 70
     0
102
RTVSPost2010Prop52
140
1.0
102
RTVSPost2010PropOp52
 70
     0
102
RTVSPost2010Prop53
 90
        2
102
RTVSPost2010PropOp53
 70
     0
102
RTVSPost2010Prop54
  1
strokes_ogs.tif
102
RTVSPost2010PropOp54
 70
     0
102
RTVSPost2010Prop55
280
     0
102
RTVSPost2010PropOp55
 70
     0
102
RTVSPost2010Prop56
140
1.0
102
RTVSPost2010PropOp56
 70
     0
102
RTVSPost2010Prop57
140
1.0
102
RTVSPost2010PropOp57
 70
     0
102
RTVSPropertyOp0
 70
     0
102
RTVSPropertyOp1
 70
     0
102
RTVSPropertyOp2
 70
     0
102
RTVSPropertyOp3
 70
     0
102
RTVSPropertyOp4
 70
     0
102
RTVSPropertyOp5
 70
     0
102
RTVSPropertyOp6
 70
     0
102
RTVSPropertyOp7
 70
     0
102
RTVSPropertyOp8
 70
     0
102
RTVSPropertyOp9
 70
     0
102
RTVSPropertyOp10
 70
     0
102
RTVSPropertyOp11
 70
     0
102
RTVSPropertyOp12
 70
     0
102
RTVSPropertyOp13
 70
     0
102
RTVSPropertyOp14
 70
     2
102
RTVSPropertyOp15
 70
     0
102
RTVSPropertyOp16
 70
     0
102
RTVSPropertyOp17
 70
     0
102
RTVSPropertyOp18
 70
     0
102
RTVSPropertyOp19
 70
     0
102
RTVSPropertyOp20
 70
     0
102
RTVSPropertyOp21
 70
     0
102
RTVSPropertyOp22
 70
     0
102
RTVSPropertyOp23
 70
     0
102
RTVSPropertyOp24
 70
     0
102
RTVSPropertyOp25
 70
     0
102
RTVSPropertyOp26
 70
     0
102
RTVSPropertyOp27
 70
     0
102
RTVSPropertyOp28
 70
     0
102
RTVSPropertyOp29
 70
     0
102
RTVSPropertyOp30
 70
     0
102
RTVSPropertyOp31
 70
     0
102
RTVSPropertyOp32
 70
     0
102
RTVSPropertyOp33
 70
     0
102
RTVSPropertyOp34
 70
     0
102
RTVSPropertyOp35
 70
     0
102
RTVSPropertyOp36
 70
     0
102
RTVSPropertyOp37
 70
     0
102
RTVSPropertyOp38
 70
     0
102
RTVSPropertyOp39
 70
     0
102
RTVSPropertyOp40
 70
     0
102
RTVSPropertyOp41
 70
     0
102
RTVSPropertyOp42
 70
     0
102
RTVSPropertyOp43
 70
     0
102
RTVSPropertyOp44
 70
     0
102
RTVSPropertyOp45
 70
     0
102
RTVSPropertyOp46
 70
     0
102
RTVSPropertyOp47
 70
     0
102
RTVSPropertyOp48
 70
     0
102
RTVSPropertyOp49
 70
     0
102
RTVSPropertyOp50
 70
     0
102
RTVSPropertyOp51
 70
     0
102
RTVSPropertyOp52
 70
     0
102
RTVSPropertyOp53
 70
     0
102
RTVSPropertyOp54
 70
     0
102
RTVSPropertyOp55
 70
     0
102
RTVSPropertyOp56
 70
     0
102
RTVSPropertyOp57
 70
     0
102
RTVSPropertyOp58
 70
     1
102
RTVSPropertyOp59
 70
     1
102
RTVSPropertyOp60
 70
     1
102
RTVSPropertyOp61
 70
     1
102
RTVSPropertyOp62
 70
     1
  0
XRECORD
  5
8C5
102
{ACAD_REACTORS
330
8C4
102
}
330
8C4
100
AcDbXrecord
280
     1
102
RTVSPost2010Prop28
280
     0
102
RTVSPost2010PropOp28
 70
     1
102
RTVSPost2010Prop29
280
     1
102
RTVSPost2010PropOp29
 70
     1
102
RTVSPost2010Prop30
280
     1
102
RTVSPost2010PropOp30
 70
     1
102
RTVSPost2010Prop31
280
     0
102
RTVSPost2010PropOp31
 70
     1
102
RTVSPost2010Prop32
280
     0
102
RTVSPost2010PropOp32
 70
     1
102
RTVSPost2010Prop33
280
     0
102
RTVSPost2010PropOp33
 70
     1
102
RTVSPost2010Prop34
280
     0
102
RTVSPost2010PropOp34
 70
     1
102
RTVSPost2010Prop35
280
     0
102
RTVSPost2010PropOp35
 70
     1
102
RTVSPost2010Prop36
280
     0
102
RTVSPost2010PropOp36
 70
     1
102
RTVSPost2010Prop37
 90
       50
102
RTVSPost2010PropOp37
 70
     1
102
RTVSPost2010Prop38
140
0.0
102
RTVSPost2010PropOp38
 70
     1
102
RTVSPost2010Prop39
140
1.0
102
RTVSPost2010PropOp39
 70
     1
102
RTVSPost2010Prop40
 90
        0
102
RTVSPost2010PropOp40
 70
     1
102
RTVSPost2010Prop41ColorIndex
 90
       18
102
RTVSPost2010Prop41ColorRGB
 90
        0
102
RTVSPost2010PropOp41
 70
     1
102
RTVSPost2010Prop42
 90
       50
102
RTVSPost2010PropOp42
 70
     1
102
RTVSPost2010Prop43
 90
        3
102
RTVSPost2010PropOp43
 70
     1
102
RTVSPost2010Prop44ColorIndex
 90
        5
102
RTVSPost2010Prop44ColorRGB
 90
      255
102
RTVSPost2010PropOp44
 70
     1
102
RTVSPost2010Prop45
280
     0
102
RTVSPost2010PropOp45
 70
     1
102
RTVSPost2010Prop46
 90
       50
102
RTVSPost2010PropOp46
 70
     1
102
RTVSPost2010Prop47
 90
       50
102
RTVSPost2010PropOp47
 70
     1
102
RTVSPost2010Prop48
 90
       50
102
RTVSPost2010PropOp48
 70
     1
102
RTVSPost2010Prop49
280
     0
102
RTVSPost2010PropOp49
 70
     1
102
RTVSPost2010Prop50
 90
       50
102
RTVSPost2010PropOp50
 70
     1
102
RTVSPost2010Prop51ColorIndex
 90
      256
102
RTVSPost2010Prop51ColorRGB
 90
-16777216
102
RTVSPost2010PropOp51
 70
     0
102
RTVSPost2010Prop52
140
1.0
102
RTVSPost2010PropOp52
 70
     0
102
RTVSPost2010Prop53
 90
        2
102
RTVSPost2010PropOp53
 70
     1
102
RTVSPost2010Prop54
  1
strokes_ogs.tif
102
RTVSPost2010PropOp54
 70
     1
102
RTVSPost2010Prop55
280
     0
102
RTVSPost2010PropOp55
 70
     1
102
RTVSPost2010Prop56
140
1.0
102
RTVSPost2010PropOp56
 70
     1
102
RTVSPost2010Prop57
140
1.0
102
RTVSPost2010PropOp57
 70
     1
102
RTVSPropertyOp0
 70
     1
102
RTVSPropertyOp1
 70
     1
102
RTVSPropertyOp2
 70
     1
102
RTVSPropertyOp3
 70
     1
102
RTVSPropertyOp4
 70
     1
102
RTVSPropertyOp5
 70
     1
102
RTVSPropertyOp6
 70
     1
102
RTVSPropertyOp7
 70
     1
102
RTVSPropertyOp8
 70
     1
102
RTVSPropertyOp9
 70
     1
102
RTVSPropertyOp10
 70
     1
102
RTVSPropertyOp11
 70
     1
102
RTVSPropertyOp12
 70
     1
102
RTVSPropertyOp13
 70
     1
102
RTVSPropertyOp14
 70
     1
102
RTVSPropertyOp15
 70
     1
102
RTVSPropertyOp16
 70
     1
102
RTVSPropertyOp17
 70
     1
102
RTVSPropertyOp18
 70
     1
102
RTVSPropertyOp19
 70
     1
102
RTVSPropertyOp20
 70
     1
102
RTVSPropertyOp21
 70
     1
102
RTVSPropertyOp22
 70
     1
102
RTVSPropertyOp23
 70
     1
102
RTVSPropertyOp24
 70
     1
102
RTVSPropertyOp25
 70
     1
102
RTVSPropertyOp26
 70
     1
102
RTVSPropertyOp27
 70
     1
102
RTVSPropertyOp28
 70
     1
102
RTVSPropertyOp29
 70
     1
102
RTVSPropertyOp30
 70
     1
102
RTVSPropertyOp31
 70
     1
102
RTVSPropertyOp32
 70
     1
102
RTVSPropertyOp33
 70
     1
102
RTVSPropertyOp34
 70
     1
102
RTVSPropertyOp35
 70
     1
102
RTVSPropertyOp36
 70
     1
102
RTVSPropertyOp37
 70
     1
102
RTVSPropertyOp38
 70
     1
102
RTVSPropertyOp39
 70
     1
102
RTVSPropertyOp40
 70
     1
102
RTVSPropertyOp41
 70
     1
102
RTVSPropertyOp42
 70
     1
102
RTVSPropertyOp43
 70
     1
102
RTVSPropertyOp44
 70
     1
102
RTVSPropertyOp45
 70
     1
102
RTVSPropertyOp46
 70
     1
102
RTVSPropertyOp47
 70
     1
102
RTVSPropertyOp48
 70
     1
102
RTVSPropertyOp49
 70
     1
102
RTVSPropertyOp50
 70
     1
102
RTVSPropertyOp51
 70
     0
102
RTVSPropertyOp52
 70
     0
102
RTVSPropertyOp53
 70
     1
102
RTVSPropertyOp54
 70
     1
102
RTVSPropertyOp55
 70
     1
102
RTVSPropertyOp56
 70
     1
102
RTVSPropertyOp57
 70
     1
102
RTVSPropertyOp58
 70
     1
102
RTVSPropertyOp59
 70
     1
102
RTVSPropertyOp60
 70
     1
102
RTVSPropertyOp61
 70
     1
102
RTVSPropertyOp62
 70
     1
  0
XRECORD
  5
8CD
102
{ACAD_REACTORS
330
8CC
102
}
330
8CC
100
AcDbXrecord
280
     1
102
RTVSPost2010Prop28
280
     0
102
RTVSPost2010PropOp28
 70
     0
102
RTVSPost2010Prop29
280
     1
102
RTVSPost2010PropOp29
 70
     0
102
RTVSPost2010Prop30
280
     1
102
RTVSPost2010PropOp30
 70
     0
102
RTVSPost2010Prop31
280
     0
102
RTVSPost2010PropOp31
 70
     0
102
RTVSPost2010Prop32
280
     0
102
RTVSPost2010PropOp32
 70
     0
102
RTVSPost2010Prop33
280
     0
102
RTVSPost2010PropOp33
 70
     0
102
RTVSPost2010Prop34
280
     0
102
RTVSPost2010PropOp34
 70
     0
102
RTVSPost2010Prop35
280
     0
102
RTVSPost2010PropOp35
 70
     0
102
RTVSPost2010Prop36
280
     0
102
RTVSPost2010PropOp36
 70
     0
102
RTVSPost2010Prop37
 90
       50
102
RTVSPost2010PropOp37
 70
     0
102
RTVSPost2010Prop38
140
0.0
102
RTVSPost2010PropOp38
 70
     0
102
RTVSPost2010Prop39
140
1.0
102
RTVSPost2010PropOp39
 70
     0
102
RTVSPost2010Prop40
 90
        0
102
RTVSPost2010PropOp40
 70
     0
102
RTVSPost2010Prop41ColorIndex
 90
       18
102
RTVSPost2010Prop41ColorRGB
 90
        0
102
RTVSPost2010PropOp41
 70
     0
102
RTVSPost2010Prop42
 90
       50
102
RTVSPost2010PropOp42
 70
     0
102
RTVSPost2010Prop43
 90
        3
102
RTVSPost2010PropOp43
 70
     0
102
RTVSPost2010Prop44ColorIndex
 90
        5
102
RTVSPost2010Prop44ColorRGB
 90
      255
102
RTVSPost2010PropOp44
 70
     0
102
RTVSPost2010Prop45
280
     0
102
RTVSPost2010PropOp45
 70
     0
102
RTVSPost2010Prop46
 90
       50
102
RTVSPost2010PropOp46
 70
     0
102
RTVSPost2010Prop47
 90
       50
102
RTVSPost2010PropOp47
 70
     0
102
RTVSPost2010Prop48
 90
       50
102
RTVSPost2010PropOp48
 70
     0
102
RTVSPost2010Prop49
280
     0
102
RTVSPost2010PropOp49
 70
     0
102
RTVSPost2010Prop50
 90
       50
102
RTVSPost2010PropOp50
 70
     0
102
RTVSPost2010Prop51ColorIndex
 90
      256
102
RTVSPost2010Prop51ColorRGB
 90
-16777216
102
RTVSPost2010PropOp51
 70
     0
102
RTVSPost2010Prop52
140
1.0
102
RTVSPost2010PropOp52
 70
     0
102
RTVSPost2010Prop53
 90
        2
102
RTVSPost2010PropOp53
 70
     0
102
RTVSPost2010Prop54
  1
strokes_ogs.tif
102
RTVSPost2010PropOp54
 70
     0
102
RTVSPost2010Prop55
280
     0
102
RTVSPost2010PropOp55
 70
     0
102
RTVSPost2010Prop56
140
1.0
102
RTVSPost2010PropOp56
 70
     0
102
RTVSPost2010Prop57
140
1.0
102
RTVSPost2010PropOp57
 70
     0
102
RTVSPropertyOp0
 70
     0
102
RTVSPropertyOp1
 70
     0
102
RTVSPropertyOp2
 70
     0
102
RTVSPropertyOp3
 70
     0
102
RTVSPropertyOp4
 70
     0
102
RTVSPropertyOp5
 70
     0
102
RTVSPropertyOp6
 70
     0
102
RTVSPropertyOp7
 70
     0
102
RTVSPropertyOp8
 70
     0
102
RTVSPropertyOp9
 70
     0
102
RTVSPropertyOp10
 70
     0
102
RTVSPropertyOp11
 70
     0
102
RTVSPropertyOp12
 70
     0
102
RTVSPropertyOp13
 70
     0
102
RTVSPropertyOp14
 70
     2
102
RTVSPropertyOp15
 70
     0
102
RTVSPropertyOp16
 70
     0
102
RTVSPropertyOp17
 70
     0
102
RTVSPropertyOp18
 70
     0
102
RTVSPropertyOp19
 70
     0
102
RTVSPropertyOp20
 70
     0
102
RTVSPropertyOp21
 70
     0
102
RTVSPropertyOp22
 70
     0
102
RTVSPropertyOp23
 70
     0
102
RTVSPropertyOp24
 70
     0
102
RTVSPropertyOp25
 70
     0
102
RTVSPropertyOp26
 70
     0
102
RTVSPropertyOp27
 70
     0
102
RTVSPropertyOp28
 70
     0
102
RTVSPropertyOp29
 70
     0
102
RTVSPropertyOp30
 70
     0
102
RTVSPropertyOp31
 70
     0
102
RTVSPropertyOp32
 70
     0
102
RTVSPropertyOp33
 70
     0
102
RTVSPropertyOp34
 70
     0
102
RTVSPropertyOp35
 70
     0
102
RTVSPropertyOp36
 70
     0
102
RTVSPropertyOp37
 70
     0
102
RTVSPropertyOp38
 70
     0
102
RTVSPropertyOp39
 70
     0
102
RTVSPropertyOp40
 70
     0
102
RTVSPropertyOp41
 70
     0
102
RTVSPropertyOp42
 70
     0
102
RTVSPropertyOp43
 70
     0
102
RTVSPropertyOp44
 70
     0
102
RTVSPropertyOp45
 70
     0
102
RTVSPropertyOp46
 70
     0
102
RTVSPropertyOp47
 70
     0
102
RTVSPropertyOp48
 70
     0
102
RTVSPropertyOp49
 70
     0
102
RTVSPropertyOp50
 70
     0
102
RTVSPropertyOp51
 70
     0
102
RTVSPropertyOp52
 70
     0
102
RTVSPropertyOp53
 70
     0
102
RTVSPropertyOp54
 70
     0
102
RTVSPropertyOp55
 70
     0
102
RTVSPropertyOp56
 70
     0
102
RTVSPropertyOp57
 70
     0
102
RTVSPropertyOp58
 70
     1
102
RTVSPropertyOp59
 70
     1
102
RTVSPropertyOp60
 70
     1
102
RTVSPropertyOp61
 70
     1
102
RTVSPropertyOp62
 70
     1
  0
XRECORD
  5
8BB
102
{ACAD_REACTORS
330
8BA
102
}
330
8BA
100
AcDbXrecord
280
     1
102
RTVSPost2010Prop28
280
     0
102
RTVSPost2010PropOp28
 70
     1
102
RTVSPost2010Prop29
280
     1
102
RTVSPost2010PropOp29
 70
     1
102
RTVSPost2010Prop30
280
     1
102
RTVSPost2010PropOp30
 70
     1
102
RTVSPost2010Prop31
280
     0
102
RTVSPost2010PropOp31
 70
     1
102
RTVSPost2010Prop32
280
     0
102
RTVSPost2010PropOp32
 70
     1
102
RTVSPost2010Prop33
280
     0
102
RTVSPost2010PropOp33
 70
     1
102
RTVSPost2010Prop34
280
     0
102
RTVSPost2010PropOp34
 70
     1
102
RTVSPost2010Prop35
280
     0
102
RTVSPost2010PropOp35
 70
     1
102
RTVSPost2010Prop36
280
     0
102
RTVSPost2010PropOp36
 70
     1
102
RTVSPost2010Prop37
 90
       50
102
RTVSPost2010PropOp37
 70
     1
102
RTVSPost2010Prop38
140
0.0
102
RTVSPost2010PropOp38
 70
     1
102
RTVSPost2010Prop39
140
1.0
102
RTVSPost2010PropOp39
 70
     1
102
RTVSPost2010Prop40
 90
        0
102
RTVSPost2010PropOp40
 70
     1
102
RTVSPost2010Prop41ColorIndex
 90
       18
102
RTVSPost2010Prop41ColorRGB
 90
        0
102
RTVSPost2010PropOp41
 70
     1
102
RTVSPost2010Prop42
 90
       50
102
RTVSPost2010PropOp42
 70
     1
102
RTVSPost2010Prop43
 90
        3
102
RTVSPost2010PropOp43
 70
     1
102
RTVSPost2010Prop44ColorIndex
 90
        5
102
RTVSPost2010Prop44ColorRGB
 90
      255
102
RTVSPost2010PropOp44
 70
     1
102
RTVSPost2010Prop45
280
     0
102
RTVSPost2010PropOp45
 70
     1
102
RTVSPost2010Prop46
 90
       50
102
RTVSPost2010PropOp46
 70
     1
102
RTVSPost2010Prop47
 90
       50
102
RTVSPost2010PropOp47
 70
     1
102
RTVSPost2010Prop48
 90
       50
102
RTVSPost2010PropOp48
 70
     1
102
RTVSPost2010Prop49
280
     0
102
RTVSPost2010PropOp49
 70
     1
102
RTVSPost2010Prop50
 90
       50
102
RTVSPost2010PropOp50
 70
     1
102
RTVSPost2010Prop51ColorIndex
 90
      256
102
RTVSPost2010Prop51ColorRGB
 90
-16777216
102
RTVSPost2010PropOp51
 70
     0
102
RTVSPost2010Prop52
140
1.0
102
RTVSPost2010PropOp52
 70
     0
102
RTVSPost2010Prop53
 90
        2
102
RTVSPost2010PropOp53
 70
     1
102
RTVSPost2010Prop54
  1
strokes_ogs.tif
102
RTVSPost2010PropOp54
 70
     1
102
RTVSPost2010Prop55
280
     0
102
RTVSPost2010PropOp55
 70
     1
102
RTVSPost2010Prop56
140
1.0
102
RTVSPost2010PropOp56
 70
     1
102
RTVSPost2010Prop57
140
1.0
102
RTVSPost2010PropOp57
 70
     1
102
RTVSPropertyOp0
 70
     1
102
RTVSPropertyOp1
 70
     1
102
RTVSPropertyOp2
 70
     1
102
RTVSPropertyOp3
 70
     1
102
RTVSPropertyOp4
 70
     1
102
RTVSPropertyOp5
 70
     1
102
RTVSPropertyOp6
 70
     1
102
RTVSPropertyOp7
 70
     1
102
RTVSPropertyOp8
 70
     1
102
RTVSPropertyOp9
 70
     1
102
RTVSPropertyOp10
 70
     1
102
RTVSPropertyOp11
 70
     1
102
RTVSPropertyOp12
 70
     1
102
RTVSPropertyOp13
 70
     1
102
RTVSPropertyOp14
 70
     1
102
RTVSPropertyOp15
 70
     1
102
RTVSPropertyOp16
 70
     1
102
RTVSPropertyOp17
 70
     1
102
RTVSPropertyOp18
 70
     1
102
RTVSPropertyOp19
 70
     1
102
RTVSPropertyOp20
 70
     1
102
RTVSPropertyOp21
 70
     1
102
RTVSPropertyOp22
 70
     1
102
RTVSPropertyOp23
 70
     1
102
RTVSPropertyOp24
 70
     1
102
RTVSPropertyOp25
 70
     1
102
RTVSPropertyOp26
 70
     1
102
RTVSPropertyOp27
 70
     1
102
RTVSPropertyOp28
 70
     1
102
RTVSPropertyOp29
 70
     1
102
RTVSPropertyOp30
 70
     1
102
RTVSPropertyOp31
 70
     1
102
RTVSPropertyOp32
 70
     1
102
RTVSPropertyOp33
 70
     1
102
RTVSPropertyOp34
 70
     1
102
RTVSPropertyOp35
 70
     1
102
RTVSPropertyOp36
 70
     1
102
RTVSPropertyOp37
 70
     1
102
RTVSPropertyOp38
 70
     1
102
RTVSPropertyOp39
 70
     1
102
RTVSPropertyOp40
 70
     1
102
RTVSPropertyOp41
 70
     1
102
RTVSPropertyOp42
 70
     1
102
RTVSPropertyOp43
 70
     1
102
RTVSPropertyOp44
 70
     1
102
RTVSPropertyOp45
 70
     1
102
RTVSPropertyOp46
 70
     1
102
RTVSPropertyOp47
 70
     1
102
RTVSPropertyOp48
 70
     1
102
RTVSPropertyOp49
 70
     1
102
RTVSPropertyOp50
 70
     1
102
RTVSPropertyOp51
 70
     0
102
RTVSPropertyOp52
 70
     0
102
RTVSPropertyOp53
 70
     1
102
RTVSPropertyOp54
 70
     1
102
RTVSPropertyOp55
 70
     1
102
RTVSPropertyOp56
 70
     1
102
RTVSPropertyOp57
 70
     1
102
RTVSPropertyOp58
 70
     1
102
RTVSPropertyOp59
 70
     1
102
RTVSPropertyOp60
 70
     1
102
RTVSPropertyOp61
 70
     1
102
RTVSPropertyOp62
 70
     1
  0
XRECORD
  5
8D9
102
{ACAD_REACTORS
330
8D8
102
}
330
8D8
100
AcDbXrecord
280
     1
102
RTVSPost2010Prop28
280
     0
102
RTVSPost2010PropOp28
 70
     1
102
RTVSPost2010Prop29
280
     1
102
RTVSPost2010PropOp29
 70
     1
102
RTVSPost2010Prop30
280
     1
102
RTVSPost2010PropOp30
 70
     1
102
RTVSPost2010Prop31
280
     0
102
RTVSPost2010PropOp31
 70
     1
102
RTVSPost2010Prop32
280
     0
102
RTVSPost2010PropOp32
 70
     1
102
RTVSPost2010Prop33
280
     0
102
RTVSPost2010PropOp33
 70
     1
102
RTVSPost2010Prop34
280
     0
102
RTVSPost2010PropOp34
 70
     1
102
RTVSPost2010Prop35
280
     0
102
RTVSPost2010PropOp35
 70
     1
102
RTVSPost2010Prop36
280
     0
102
RTVSPost2010PropOp36
 70
     1
102
RTVSPost2010Prop37
 90
       50
102
RTVSPost2010PropOp37
 70
     1
102
RTVSPost2010Prop38
140
0.0
102
RTVSPost2010PropOp38
 70
     1
102
RTVSPost2010Prop39
140
1.0
102
RTVSPost2010PropOp39
 70
     1
102
RTVSPost2010Prop40
 90
        0
102
RTVSPost2010PropOp40
 70
     1
102
RTVSPost2010Prop41ColorIndex
 90
       18
102
RTVSPost2010Prop41ColorRGB
 90
        0
102
RTVSPost2010PropOp41
 70
     1
102
RTVSPost2010Prop42
 90
       50
102
RTVSPost2010PropOp42
 70
     1
102
RTVSPost2010Prop43
 90
        3
102
RTVSPost2010PropOp43
 70
     1
102
RTVSPost2010Prop44ColorIndex
 90
        5
102
RTVSPost2010Prop44ColorRGB
 90
      255
102
RTVSPost2010PropOp44
 70
     1
102
RTVSPost2010Prop45
280
     0
102
RTVSPost2010PropOp45
 70
     1
102
RTVSPost2010Prop46
 90
       50
102
RTVSPost2010PropOp46
 70
     1
102
RTVSPost2010Prop47
 90
       50
102
RTVSPost2010PropOp47
 70
     1
102
RTVSPost2010Prop48
 90
       50
102
RTVSPost2010PropOp48
 70
     1
102
RTVSPost2010Prop49
280
     0
102
RTVSPost2010PropOp49
 70
     1
102
RTVSPost2010Prop50
 90
       50
102
RTVSPost2010PropOp50
 70
     1
102
RTVSPost2010Prop51ColorIndex
 90
      256
102
RTVSPost2010Prop51ColorRGB
 90
-16777216
102
RTVSPost2010PropOp51
 70
     0
102
RTVSPost2010Prop52
140
1.0
102
RTVSPost2010PropOp52
 70
     0
102
RTVSPost2010Prop53
 90
        2
102
RTVSPost2010PropOp53
 70
     1
102
RTVSPost2010Prop54
  1
strokes_ogs.tif
102
RTVSPost2010PropOp54
 70
     1
102
RTVSPost2010Prop55
280
     0
102
RTVSPost2010PropOp55
 70
     1
102
RTVSPost2010Prop56
140
1.0
102
RTVSPost2010PropOp56
 70
     1
102
RTVSPost2010Prop57
140
1.0
102
RTVSPost2010PropOp57
 70
     1
102
RTVSPropertyOp0
 70
     1
102
RTVSPropertyOp1
 70
     1
102
RTVSPropertyOp2
 70
     1
102
RTVSPropertyOp3
 70
     1
102
RTVSPropertyOp4
 70
     1
102
RTVSPropertyOp5
 70
     1
102
RTVSPropertyOp6
 70
     1
102
RTVSPropertyOp7
 70
     1
102
RTVSPropertyOp8
 70
     1
102
RTVSPropertyOp9
 70
     1
102
RTVSPropertyOp10
 70
     1
102
RTVSPropertyOp11
 70
     1
102
RTVSPropertyOp12
 70
     1
102
RTVSPropertyOp13
 70
     1
102
RTVSPropertyOp14
 70
     1
102
RTVSPropertyOp15
 70
     1
102
RTVSPropertyOp16
 70
     1
102
RTVSPropertyOp17
 70
     1
102
RTVSPropertyOp18
 70
     1
102
RTVSPropertyOp19
 70
     1
102
RTVSPropertyOp20
 70
     1
102
RTVSPropertyOp21
 70
     1
102
RTVSPropertyOp22
 70
     1
102
RTVSPropertyOp23
 70
     1
102
RTVSPropertyOp24
 70
     1
102
RTVSPropertyOp25
 70
     1
102
RTVSPropertyOp26
 70
     1
102
RTVSPropertyOp27
 70
     1
102
RTVSPropertyOp28
 70
     1
102
RTVSPropertyOp29
 70
     1
102
RTVSPropertyOp30
 70
     1
102
RTVSPropertyOp31
 70
     1
102
RTVSPropertyOp32
 70
     1
102
RTVSPropertyOp33
 70
     1
102
RTVSPropertyOp34
 70
     1
102
RTVSPropertyOp35
 70
     1
102
RTVSPropertyOp36
 70
     1
102
RTVSPropertyOp37
 70
     1
102
RTVSPropertyOp38
 70
     1
102
RTVSPropertyOp39
 70
     1
102
RTVSPropertyOp40
 70
     1
102
RTVSPropertyOp41
 70
     1
102
RTVSPropertyOp42
 70
     1
102
RTVSPropertyOp43
 70
     1
102
RTVSPropertyOp44
 70
     1
102
RTVSPropertyOp45
 70
     1
102
RTVSPropertyOp46
 70
     1
102
RTVSPropertyOp47
 70
     1
102
RTVSPropertyOp48
 70
     1
102
RTVSPropertyOp49
 70
     1
102
RTVSPropertyOp50
 70
     1
102
RTVSPropertyOp51
 70
     0
102
RTVSPropertyOp52
 70
     0
102
RTVSPropertyOp53
 70
     1
102
RTVSPropertyOp54
 70
     1
102
RTVSPropertyOp55
 70
     1
102
RTVSPropertyOp56
 70
     1
102
RTVSPropertyOp57
 70
     1
102
RTVSPropertyOp58
 70
     1
102
RTVSPropertyOp59
 70
     1
102
RTVSPropertyOp60
 70
     1
102
RTVSPropertyOp61
 70
     1
102
RTVSPropertyOp62
 70
     1
  0
XRECORD
  5
8D7
102
{ACAD_REACTORS
330
8D6
102
}
330
8D6
100
AcDbXrecord
280
     1
102
RTVSPost2010Prop28
280
     0
102
RTVSPost2010PropOp28
 70
     1
102
RTVSPost2010Prop29
280
     1
102
RTVSPost2010PropOp29
 70
     1
102
RTVSPost2010Prop30
280
     1
102
RTVSPost2010PropOp30
 70
     1
102
RTVSPost2010Prop31
280
     0
102
RTVSPost2010PropOp31
 70
     1
102
RTVSPost2010Prop32
280
     0
102
RTVSPost2010PropOp32
 70
     1
102
RTVSPost2010Prop33
280
     0
102
RTVSPost2010PropOp33
 70
     1
102
RTVSPost2010Prop34
280
     0
102
RTVSPost2010PropOp34
 70
     1
102
RTVSPost2010Prop35
280
     0
102
RTVSPost2010PropOp35
 70
     1
102
RTVSPost2010Prop36
280
     0
102
RTVSPost2010PropOp36
 70
     1
102
RTVSPost2010Prop37
 90
       50
102
RTVSPost2010PropOp37
 70
     1
102
RTVSPost2010Prop38
140
0.0
102
RTVSPost2010PropOp38
 70
     1
102
RTVSPost2010Prop39
140
1.0
102
RTVSPost2010PropOp39
 70
     1
102
RTVSPost2010Prop40
 90
        0
102
RTVSPost2010PropOp40
 70
     1
102
RTVSPost2010Prop41ColorIndex
 90
       18
102
RTVSPost2010Prop41ColorRGB
 90
        0
102
RTVSPost2010PropOp41
 70
     1
102
RTVSPost2010Prop42
 90
       50
102
RTVSPost2010PropOp42
 70
     1
102
RTVSPost2010Prop43
 90
        3
102
RTVSPost2010PropOp43
 70
     1
102
RTVSPost2010Prop44ColorIndex
 90
        5
102
RTVSPost2010Prop44ColorRGB
 90
      255
102
RTVSPost2010PropOp44
 70
     1
102
RTVSPost2010Prop45
280
     0
102
RTVSPost2010PropOp45
 70
     1
102
RTVSPost2010Prop46
 90
       50
102
RTVSPost2010PropOp46
 70
     1
102
RTVSPost2010Prop47
 90
       50
102
RTVSPost2010PropOp47
 70
     1
102
RTVSPost2010Prop48
 90
       50
102
RTVSPost2010PropOp48
 70
     1
102
RTVSPost2010Prop49
280
     0
102
RTVSPost2010PropOp49
 70
     1
102
RTVSPost2010Prop50
 90
       50
102
RTVSPost2010PropOp50
 70
     1
102
RTVSPost2010Prop51ColorIndex
 90
      256
102
RTVSPost2010Prop51ColorRGB
 90
-16777216
102
RTVSPost2010PropOp51
 70
     0
102
RTVSPost2010Prop52
140
1.0
102
RTVSPost2010PropOp52
 70
     0
102
RTVSPost2010Prop53
 90
        2
102
RTVSPost2010PropOp53
 70
     1
102
RTVSPost2010Prop54
  1
strokes_ogs.tif
102
RTVSPost2010PropOp54
 70
     1
102
RTVSPost2010Prop55
280
     0
102
RTVSPost2010PropOp55
 70
     1
102
RTVSPost2010Prop56
140
1.0
102
RTVSPost2010PropOp56
 70
     1
102
RTVSPost2010Prop57
140
1.0
102
RTVSPost2010PropOp57
 70
     1
102
RTVSPropertyOp0
 70
     1
102
RTVSPropertyOp1
 70
     1
102
RTVSPropertyOp2
 70
     1
102
RTVSPropertyOp3
 70
     1
102
RTVSPropertyOp4
 70
     1
102
RTVSPropertyOp5
 70
     1
102
RTVSPropertyOp6
 70
     1
102
RTVSPropertyOp7
 70
     1
102
RTVSPropertyOp8
 70
     1
102
RTVSPropertyOp9
 70
     1
102
RTVSPropertyOp10
 70
     1
102
RTVSPropertyOp11
 70
     1
102
RTVSPropertyOp12
 70
     1
102
RTVSPropertyOp13
 70
     1
102
RTVSPropertyOp14
 70
     1
102
RTVSPropertyOp15
 70
     1
102
RTVSPropertyOp16
 70
     1
102
RTVSPropertyOp17
 70
     1
102
RTVSPropertyOp18
 70
     1
102
RTVSPropertyOp19
 70
     1
102
RTVSPropertyOp20
 70
     1
102
RTVSPropertyOp21
 70
     1
102
RTVSPropertyOp22
 70
     1
102
RTVSPropertyOp23
 70
     1
102
RTVSPropertyOp24
 70
     1
102
RTVSPropertyOp25
 70
     1
102
RTVSPropertyOp26
 70
     1
102
RTVSPropertyOp27
 70
     1
102
RTVSPropertyOp28
 70
     1
102
RTVSPropertyOp29
 70
     1
102
RTVSPropertyOp30
 70
     1
102
RTVSPropertyOp31
 70
     1
102
RTVSPropertyOp32
 70
     1
102
RTVSPropertyOp33
 70
     1
102
RTVSPropertyOp34
 70
     1
102
RTVSPropertyOp35
 70
     1
102
RTVSPropertyOp36
 70
     1
102
RTVSPropertyOp37
 70
     1
102
RTVSPropertyOp38
 70
     1
102
RTVSPropertyOp39
 70
     1
102
RTVSPropertyOp40
 70
     1
102
RTVSPropertyOp41
 70
     1
102
RTVSPropertyOp42
 70
     1
102
RTVSPropertyOp43
 70
     1
102
RTVSPropertyOp44
 70
     1
102
RTVSPropertyOp45
 70
     1
102
RTVSPropertyOp46
 70
     1
102
RTVSPropertyOp47
 70
     1
102
RTVSPropertyOp48
 70
     1
102
RTVSPropertyOp49
 70
     1
102
RTVSPropertyOp50
 70
     1
102
RTVSPropertyOp51
 70
     0
102
RTVSPropertyOp52
 70
     0
102
RTVSPropertyOp53
 70
     1
102
RTVSPropertyOp54
 70
     1
102
RTVSPropertyOp55
 70
     1
102
RTVSPropertyOp56
 70
     1
102
RTVSPropertyOp57
 70
     1
102
RTVSPropertyOp58
 70
     1
102
RTVSPropertyOp59
 70
     1
102
RTVSPropertyOp60
 70
     1
102
RTVSPropertyOp61
 70
     1
102
RTVSPropertyOp62
 70
     1
  0
XRECORD
  5
8D1
102
{ACAD_REACTORS
330
8D0
102
}
330
8D0
100
AcDbXrecord
280
     1
102
RTVSPost2010Prop28
280
     0
102
RTVSPost2010PropOp28
 70
     1
102
RTVSPost2010Prop29
280
     1
102
RTVSPost2010PropOp29
 70
     1
102
RTVSPost2010Prop30
280
     1
102
RTVSPost2010PropOp30
 70
     1
102
RTVSPost2010Prop31
280
     0
102
RTVSPost2010PropOp31
 70
     1
102
RTVSPost2010Prop32
280
     0
102
RTVSPost2010PropOp32
 70
     1
102
RTVSPost2010Prop33
280
     0
102
RTVSPost2010PropOp33
 70
     1
102
RTVSPost2010Prop34
280
     0
102
RTVSPost2010PropOp34
 70
     1
102
RTVSPost2010Prop35
280
     0
102
RTVSPost2010PropOp35
 70
     1
102
RTVSPost2010Prop36
280
     0
102
RTVSPost2010PropOp36
 70
     1
102
RTVSPost2010Prop37
 90
       50
102
RTVSPost2010PropOp37
 70
     1
102
RTVSPost2010Prop38
140
0.0
102
RTVSPost2010PropOp38
 70
     1
102
RTVSPost2010Prop39
140
1.0
102
RTVSPost2010PropOp39
 70
     1
102
RTVSPost2010Prop40
 90
        0
102
RTVSPost2010PropOp40
 70
     1
102
RTVSPost2010Prop41ColorIndex
 90
       18
102
RTVSPost2010Prop41ColorRGB
 90
        0
102
RTVSPost2010PropOp41
 70
     1
102
RTVSPost2010Prop42
 90
       50
102
RTVSPost2010PropOp42
 70
     1
102
RTVSPost2010Prop43
 90
        3
102
RTVSPost2010PropOp43
 70
     1
102
RTVSPost2010Prop44ColorIndex
 90
        5
102
RTVSPost2010Prop44ColorRGB
 90
      255
102
RTVSPost2010PropOp44
 70
     1
102
RTVSPost2010Prop45
280
     0
102
RTVSPost2010PropOp45
 70
     1
102
RTVSPost2010Prop46
 90
       50
102
RTVSPost2010PropOp46
 70
     1
102
RTVSPost2010Prop47
 90
       50
102
RTVSPost2010PropOp47
 70
     1
102
RTVSPost2010Prop48
 90
       50
102
RTVSPost2010PropOp48
 70
     1
102
RTVSPost2010Prop49
280
     0
102
RTVSPost2010PropOp49
 70
     1
102
RTVSPost2010Prop50
 90
       50
102
RTVSPost2010PropOp50
 70
     1
102
RTVSPost2010Prop51ColorIndex
 90
      256
102
RTVSPost2010Prop51ColorRGB
 90
-16777216
102
RTVSPost2010PropOp51
 70
     0
102
RTVSPost2010Prop52
140
1.0
102
RTVSPost2010PropOp52
 70
     0
102
RTVSPost2010Prop53
 90
        2
102
RTVSPost2010PropOp53
 70
     1
102
RTVSPost2010Prop54
  1
strokes_ogs.tif
102
RTVSPost2010PropOp54
 70
     1
102
RTVSPost2010Prop55
280
     0
102
RTVSPost2010PropOp55
 70
     1
102
RTVSPost2010Prop56
140
1.0
102
RTVSPost2010PropOp56
 70
     1
102
RTVSPost2010Prop57
140
1.0
102
RTVSPost2010PropOp57
 70
     1
102
RTVSPropertyOp0
 70
     1
102
RTVSPropertyOp1
 70
     1
102
RTVSPropertyOp2
 70
     1
102
RTVSPropertyOp3
 70
     1
102
RTVSPropertyOp4
 70
     1
102
RTVSPropertyOp5
 70
     1
102
RTVSPropertyOp6
 70
     1
102
RTVSPropertyOp7
 70
     1
102
RTVSPropertyOp8
 70
     1
102
RTVSPropertyOp9
 70
     1
102
RTVSPropertyOp10
 70
     1
102
RTVSPropertyOp11
 70
     1
102
RTVSPropertyOp12
 70
     1
102
RTVSPropertyOp13
 70
     1
102
RTVSPropertyOp14
 70
     1
102
RTVSPropertyOp15
 70
     1
102
RTVSPropertyOp16
 70
     1
102
RTVSPropertyOp17
 70
     1
102
RTVSPropertyOp18
 70
     1
102
RTVSPropertyOp19
 70
     1
102
RTVSPropertyOp20
 70
     1
102
RTVSPropertyOp21
 70
     1
102
RTVSPropertyOp22
 70
     1
102
RTVSPropertyOp23
 70
     1
102
RTVSPropertyOp24
 70
     1
102
RTVSPropertyOp25
 70
     1
102
RTVSPropertyOp26
 70
     1
102
RTVSPropertyOp27
 70
     1
102
RTVSPropertyOp28
 70
     1
102
RTVSPropertyOp29
 70
     1
102
RTVSPropertyOp30
 70
     1
102
RTVSPropertyOp31
 70
     1
102
RTVSPropertyOp32
 70
     1
102
RTVSPropertyOp33
 70
     1
102
RTVSPropertyOp34
 70
     1
102
RTVSPropertyOp35
 70
     1
102
RTVSPropertyOp36
 70
     1
102
RTVSPropertyOp37
 70
     1
102
RTVSPropertyOp38
 70
     1
102
RTVSPropertyOp39
 70
     1
102
RTVSPropertyOp40
 70
     1
102
RTVSPropertyOp41
 70
     1
102
RTVSPropertyOp42
 70
     1
102
RTVSPropertyOp43
 70
     1
102
RTVSPropertyOp44
 70
     1
102
RTVSPropertyOp45
 70
     1
102
RTVSPropertyOp46
 70
     1
102
RTVSPropertyOp47
 70
     1
102
RTVSPropertyOp48
 70
     1
102
RTVSPropertyOp49
 70
     1
102
RTVSPropertyOp50
 70
     1
102
RTVSPropertyOp51
 70
     0
102
RTVSPropertyOp52
 70
     0
102
RTVSPropertyOp53
 70
     1
102
RTVSPropertyOp54
 70
     1
102
RTVSPropertyOp55
 70
     1
102
RTVSPropertyOp56
 70
     1
102
RTVSPropertyOp57
 70
     1
102
RTVSPropertyOp58
 70
     1
102
RTVSPropertyOp59
 70
     1
102
RTVSPropertyOp60
 70
     1
102
RTVSPropertyOp61
 70
     1
102
RTVSPropertyOp62
 70
     1
  0
XRECORD
  5
8D3
102
{ACAD_REACTORS
330
8D2
102
}
330
8D2
100
AcDbXrecord
280
     1
102
RTVSPost2010Prop28
280
     0
102
RTVSPost2010PropOp28
 70
     1
102
RTVSPost2010Prop29
280
     1
102
RTVSPost2010PropOp29
 70
     1
102
RTVSPost2010Prop30
280
     1
102
RTVSPost2010PropOp30
 70
     1
102
RTVSPost2010Prop31
280
     0
102
RTVSPost2010PropOp31
 70
     1
102
RTVSPost2010Prop32
280
     0
102
RTVSPost2010PropOp32
 70
     1
102
RTVSPost2010Prop33
280
     0
102
RTVSPost2010PropOp33
 70
     1
102
RTVSPost2010Prop34
280
     0
102
RTVSPost2010PropOp34
 70
     1
102
RTVSPost2010Prop35
280
     0
102
RTVSPost2010PropOp35
 70
     1
102
RTVSPost2010Prop36
280
     0
102
RTVSPost2010PropOp36
 70
     1
102
RTVSPost2010Prop37
 90
       50
102
RTVSPost2010PropOp37
 70
     1
102
RTVSPost2010Prop38
140
0.0
102
RTVSPost2010PropOp38
 70
     1
102
RTVSPost2010Prop39
140
1.0
102
RTVSPost2010PropOp39
 70
     1
102
RTVSPost2010Prop40
 90
        0
102
RTVSPost2010PropOp40
 70
     1
102
RTVSPost2010Prop41ColorIndex
 90
       18
102
RTVSPost2010Prop41ColorRGB
 90
        0
102
RTVSPost2010PropOp41
 70
     1
102
RTVSPost2010Prop42
 90
       50
102
RTVSPost2010PropOp42
 70
     1
102
RTVSPost2010Prop43
 90
        3
102
RTVSPost2010PropOp43
 70
     1
102
RTVSPost2010Prop44ColorIndex
 90
        5
102
RTVSPost2010Prop44ColorRGB
 90
      255
102
RTVSPost2010PropOp44
 70
     1
102
RTVSPost2010Prop45
280
     0
102
RTVSPost2010PropOp45
 70
     1
102
RTVSPost2010Prop46
 90
       50
102
RTVSPost2010PropOp46
 70
     1
102
RTVSPost2010Prop47
 90
       50
102
RTVSPost2010PropOp47
 70
     1
102
RTVSPost2010Prop48
 90
       50
102
RTVSPost2010PropOp48
 70
     1
102
RTVSPost2010Prop49
280
     0
102
RTVSPost2010PropOp49
 70
     1
102
RTVSPost2010Prop50
 90
       50
102
RTVSPost2010PropOp50
 70
     1
102
RTVSPost2010Prop51ColorIndex
 90
      256
102
RTVSPost2010Prop51ColorRGB
 90
-16777216
102
RTVSPost2010PropOp51
 70
     0
102
RTVSPost2010Prop52
140
1.0
102
RTVSPost2010PropOp52
 70
     0
102
RTVSPost2010Prop53
 90
        2
102
RTVSPost2010PropOp53
 70
     1
102
RTVSPost2010Prop54
  1
strokes_ogs.tif
102
RTVSPost2010PropOp54
 70
     1
102
RTVSPost2010Prop55
280
     0
102
RTVSPost2010PropOp55
 70
     1
102
RTVSPost2010Prop56
140
1.0
102
RTVSPost2010PropOp56
 70
     1
102
RTVSPost2010Prop57
140
1.0
102
RTVSPost2010PropOp57
 70
     1
102
RTVSPropertyOp0
 70
     1
102
RTVSPropertyOp1
 70
     1
102
RTVSPropertyOp2
 70
     1
102
RTVSPropertyOp3
 70
     1
102
RTVSPropertyOp4
 70
     1
102
RTVSPropertyOp5
 70
     1
102
RTVSPropertyOp6
 70
     1
102
RTVSPropertyOp7
 70
     1
102
RTVSPropertyOp8
 70
     1
102
RTVSPropertyOp9
 70
     1
102
RTVSPropertyOp10
 70
     1
102
RTVSPropertyOp11
 70
     1
102
RTVSPropertyOp12
 70
     1
102
RTVSPropertyOp13
 70
     1
102
RTVSPropertyOp14
 70
     1
102
RTVSPropertyOp15
 70
     1
102
RTVSPropertyOp16
 70
     1
102
RTVSPropertyOp17
 70
     1
102
RTVSPropertyOp18
 70
     1
102
RTVSPropertyOp19
 70
     1
102
RTVSPropertyOp20
 70
     1
102
RTVSPropertyOp21
 70
     1
102
RTVSPropertyOp22
 70
     1
102
RTVSPropertyOp23
 70
     1
102
RTVSPropertyOp24
 70
     1
102
RTVSPropertyOp25
 70
     1
102
RTVSPropertyOp26
 70
     1
102
RTVSPropertyOp27
 70
     1
102
RTVSPropertyOp28
 70
     1
102
RTVSPropertyOp29
 70
     1
102
RTVSPropertyOp30
 70
     1
102
RTVSPropertyOp31
 70
     1
102
RTVSPropertyOp32
 70
     1
102
RTVSPropertyOp33
 70
     1
102
RTVSPropertyOp34
 70
     1
102
RTVSPropertyOp35
 70
     1
102
RTVSPropertyOp36
 70
     1
102
RTVSPropertyOp37
 70
     1
102
RTVSPropertyOp38
 70
     1
102
RTVSPropertyOp39
 70
     1
102
RTVSPropertyOp40
 70
     1
102
RTVSPropertyOp41
 70
     1
102
RTVSPropertyOp42
 70
     1
102
RTVSPropertyOp43
 70
     1
102
RTVSPropertyOp44
 70
     1
102
RTVSPropertyOp45
 70
     1
102
RTVSPropertyOp46
 70
     1
102
RTVSPropertyOp47
 70
     1
102
RTVSPropertyOp48
 70
     1
102
RTVSPropertyOp49
 70
     1
102
RTVSPropertyOp50
 70
     1
102
RTVSPropertyOp51
 70
     0
102
RTVSPropertyOp52
 70
     0
102
RTVSPropertyOp53
 70
     1
102
RTVSPropertyOp54
 70
     1
102
RTVSPropertyOp55
 70
     1
102
RTVSPropertyOp56
 70
     1
102
RTVSPropertyOp57
 70
     1
102
RTVSPropertyOp58
 70
     1
102
RTVSPropertyOp59
 70
     1
102
RTVSPropertyOp60
 70
     1
102
RTVSPropertyOp61
 70
     1
102
RTVSPropertyOp62
 70
     1
  0
XRECORD
  5
8C3
102
{ACAD_REACTORS
330
8C2
102
}
330
8C2
100
AcDbXrecord
280
     1
102
RTVSPost2010Prop28
280
     0
102
RTVSPost2010PropOp28
 70
     1
102
RTVSPost2010Prop29
280
     1
102
RTVSPost2010PropOp29
 70
     1
102
RTVSPost2010Prop30
280
     1
102
RTVSPost2010PropOp30
 70
     1
102
RTVSPost2010Prop31
280
     0
102
RTVSPost2010PropOp31
 70
     1
102
RTVSPost2010Prop32
280
     0
102
RTVSPost2010PropOp32
 70
     1
102
RTVSPost2010Prop33
280
     0
102
RTVSPost2010PropOp33
 70
     1
102
RTVSPost2010Prop34
280
     0
102
RTVSPost2010PropOp34
 70
     1
102
RTVSPost2010Prop35
280
     0
102
RTVSPost2010PropOp35
 70
     1
102
RTVSPost2010Prop36
280
     0
102
RTVSPost2010PropOp36
 70
     1
102
RTVSPost2010Prop37
 90
       50
102
RTVSPost2010PropOp37
 70
     1
102
RTVSPost2010Prop38
140
0.0
102
RTVSPost2010PropOp38
 70
     1
102
RTVSPost2010Prop39
140
1.0
102
RTVSPost2010PropOp39
 70
     1
102
RTVSPost2010Prop40
 90
        0
102
RTVSPost2010PropOp40
 70
     1
102
RTVSPost2010Prop41ColorIndex
 90
       18
102
RTVSPost2010Prop41ColorRGB
 90
        0
102
RTVSPost2010PropOp41
 70
     1
102
RTVSPost2010Prop42
 90
       50
102
RTVSPost2010PropOp42
 70
     1
102
RTVSPost2010Prop43
 90
        3
102
RTVSPost2010PropOp43
 70
     1
102
RTVSPost2010Prop44ColorIndex
 90
        5
102
RTVSPost2010Prop44ColorRGB
 90
      255
102
RTVSPost2010PropOp44
 70
     1
102
RTVSPost2010Prop45
280
     0
102
RTVSPost2010PropOp45
 70
     1
102
RTVSPost2010Prop46
 90
       50
102
RTVSPost2010PropOp46
 70
     1
102
RTVSPost2010Prop47
 90
       50
102
RTVSPost2010PropOp47
 70
     1
102
RTVSPost2010Prop48
 90
       50
102
RTVSPost2010PropOp48
 70
     1
102
RTVSPost2010Prop49
280
     0
102
RTVSPost2010PropOp49
 70
     1
102
RTVSPost2010Prop50
 90
       50
102
RTVSPost2010PropOp50
 70
     1
102
RTVSPost2010Prop51ColorIndex
 90
      256
102
RTVSPost2010Prop51ColorRGB
 90
-16777216
102
RTVSPost2010PropOp51
 70
     0
102
RTVSPost2010Prop52
140
1.0
102
RTVSPost2010PropOp52
 70
     0
102
RTVSPost2010Prop53
 90
        2
102
RTVSPost2010PropOp53
 70
     1
102
RTVSPost2010Prop54
  1
strokes_ogs.tif
102
RTVSPost2010PropOp54
 70
     1
102
RTVSPost2010Prop55
280
     0
102
RTVSPost2010PropOp55
 70
     1
102
RTVSPost2010Prop56
140
1.0
102
RTVSPost2010PropOp56
 70
     1
102
RTVSPost2010Prop57
140
1.0
102
RTVSPost2010PropOp57
 70
     1
102
RTVSPropertyOp0
 70
     1
102
RTVSPropertyOp1
 70
     1
102
RTVSPropertyOp2
 70
     1
102
RTVSPropertyOp3
 70
     1
102
RTVSPropertyOp4
 70
     1
102
RTVSPropertyOp5
 70
     1
102
RTVSPropertyOp6
 70
     1
102
RTVSPropertyOp7
 70
     1
102
RTVSPropertyOp8
 70
     1
102
RTVSPropertyOp9
 70
     1
102
RTVSPropertyOp10
 70
     1
102
RTVSPropertyOp11
 70
     1
102
RTVSPropertyOp12
 70
     1
102
RTVSPropertyOp13
 70
     1
102
RTVSPropertyOp14
 70
     1
102
RTVSPropertyOp15
 70
     1
102
RTVSPropertyOp16
 70
     1
102
RTVSPropertyOp17
 70
     1
102
RTVSPropertyOp18
 70
     1
102
RTVSPropertyOp19
 70
     1
102
RTVSPropertyOp20
 70
     1
102
RTVSPropertyOp21
 70
     1
102
RTVSPropertyOp22
 70
     1
102
RTVSPropertyOp23
 70
     1
102
RTVSPropertyOp24
 70
     1
102
RTVSPropertyOp25
 70
     1
102
RTVSPropertyOp26
 70
     1
102
RTVSPropertyOp27
 70
     1
102
RTVSPropertyOp28
 70
     1
102
RTVSPropertyOp29
 70
     1
102
RTVSPropertyOp30
 70
     1
102
RTVSPropertyOp31
 70
     1
102
RTVSPropertyOp32
 70
     1
102
RTVSPropertyOp33
 70
     1
102
RTVSPropertyOp34
 70
     1
102
RTVSPropertyOp35
 70
     1
102
RTVSPropertyOp36
 70
     1
102
RTVSPropertyOp37
 70
     1
102
RTVSPropertyOp38
 70
     1
102
RTVSPropertyOp39
 70
     1
102
RTVSPropertyOp40
 70
     1
102
RTVSPropertyOp41
 70
     1
102
RTVSPropertyOp42
 70
     1
102
RTVSPropertyOp43
 70
     1
102
RTVSPropertyOp44
 70
     1
102
RTVSPropertyOp45
 70
     1
102
RTVSPropertyOp46
 70
     1
102
RTVSPropertyOp47
 70
     1
102
RTVSPropertyOp48
 70
     1
102
RTVSPropertyOp49
 70
     1
102
RTVSPropertyOp50
 70
     1
102
RTVSPropertyOp51
 70
     0
102
RTVSPropertyOp52
 70
     0
102
RTVSPropertyOp53
 70
     1
102
RTVSPropertyOp54
 70
     1
102
RTVSPropertyOp55
 70
     1
102
RTVSPropertyOp56
 70
     1
102
RTVSPropertyOp57
 70
     1
102
RTVSPropertyOp58
 70
     1
102
RTVSPropertyOp59
 70
     1
102
RTVSPropertyOp60
 70
     1
102
RTVSPropertyOp61
 70
     1
102
RTVSPropertyOp62
 70
     1
  0
XRECORD
  5
8B5
102
{ACAD_REACTORS
330
8B4
102
}
330
8B4
100
AcDbXrecord
280
     1
102
RTVSPost2010Prop28
280
     0
102
RTVSPost2010PropOp28
 70
     1
102
RTVSPost2010Prop29
280
     1
102
RTVSPost2010PropOp29
 70
     1
102
RTVSPost2010Prop30
280
     1
102
RTVSPost2010PropOp30
 70
     1
102
RTVSPost2010Prop31
280
     0
102
RTVSPost2010PropOp31
 70
     1
102
RTVSPost2010Prop32
280
     0
102
RTVSPost2010PropOp32
 70
     1
102
RTVSPost2010Prop33
280
     0
102
RTVSPost2010PropOp33
 70
     1
102
RTVSPost2010Prop34
280
     0
102
RTVSPost2010PropOp34
 70
     1
102
RTVSPost2010Prop35
280
     0
102
RTVSPost2010PropOp35
 70
     1
102
RTVSPost2010Prop36
280
     0
102
RTVSPost2010PropOp36
 70
     1
102
RTVSPost2010Prop37
 90
       50
102
RTVSPost2010PropOp37
 70
     1
102
RTVSPost2010Prop38
140
0.0
102
RTVSPost2010PropOp38
 70
     1
102
RTVSPost2010Prop39
140
1.0
102
RTVSPost2010PropOp39
 70
     1
102
RTVSPost2010Prop40
 90
        0
102
RTVSPost2010PropOp40
 70
     1
102
RTVSPost2010Prop41ColorIndex
 90
       18
102
RTVSPost2010Prop41ColorRGB
 90
        0
102
RTVSPost2010PropOp41
 70
     1
102
RTVSPost2010Prop42
 90
       50
102
RTVSPost2010PropOp42
 70
     1
102
RTVSPost2010Prop43
 90
        3
102
RTVSPost2010PropOp43
 70
     1
102
RTVSPost2010Prop44ColorIndex
 90
        5
102
RTVSPost2010Prop44ColorRGB
 90
      255
102
RTVSPost2010PropOp44
 70
     1
102
RTVSPost2010Prop45
280
     0
102
RTVSPost2010PropOp45
 70
     1
102
RTVSPost2010Prop46
 90
       50
102
RTVSPost2010PropOp46
 70
     1
102
RTVSPost2010Prop47
 90
       50
102
RTVSPost2010PropOp47
 70
     1
102
RTVSPost2010Prop48
 90
       50
102
RTVSPost2010PropOp48
 70
     1
102
RTVSPost2010Prop49
280
     0
102
RTVSPost2010PropOp49
 70
     1
102
RTVSPost2010Prop50
 90
       50
102
RTVSPost2010PropOp50
 70
     1
102
RTVSPost2010Prop51ColorIndex
 90
      256
102
RTVSPost2010Prop51ColorRGB
 90
-16777216
102
RTVSPost2010PropOp51
 70
     0
102
RTVSPost2010Prop52
140
1.0
102
RTVSPost2010PropOp52
 70
     0
102
RTVSPost2010Prop53
 90
        2
102
RTVSPost2010PropOp53
 70
     1
102
RTVSPost2010Prop54
  1
strokes_ogs.tif
102
RTVSPost2010PropOp54
 70
     1
102
RTVSPost2010Prop55
280
     0
102
RTVSPost2010PropOp55
 70
     1
102
RTVSPost2010Prop56
140
1.0
102
RTVSPost2010PropOp56
 70
     1
102
RTVSPost2010Prop57
140
1.0
102
RTVSPost2010PropOp57
 70
     1
102
RTVSPropertyOp0
 70
     1
102
RTVSPropertyOp1
 70
     1
102
RTVSPropertyOp2
 70
     1
102
RTVSPropertyOp3
 70
     1
102
RTVSPropertyOp4
 70
     1
102
RTVSPropertyOp5
 70
     1
102
RTVSPropertyOp6
 70
     1
102
RTVSPropertyOp7
 70
     1
102
RTVSPropertyOp8
 70
     1
102
RTVSPropertyOp9
 70
     1
102
RTVSPropertyOp10
 70
     1
102
RTVSPropertyOp11
 70
     1
102
RTVSPropertyOp12
 70
     1
102
RTVSPropertyOp13
 70
     1
102
RTVSPropertyOp14
 70
     1
102
RTVSPropertyOp15
 70
     1
102
RTVSPropertyOp16
 70
     1
102
RTVSPropertyOp17
 70
     1
102
RTVSPropertyOp18
 70
     1
102
RTVSPropertyOp19
 70
     1
102
RTVSPropertyOp20
 70
     1
102
RTVSPropertyOp21
 70
     1
102
RTVSPropertyOp22
 70
     1
102
RTVSPropertyOp23
 70
     1
102
RTVSPropertyOp24
 70
     1
102
RTVSPropertyOp25
 70
     1
102
RTVSPropertyOp26
 70
     1
102
RTVSPropertyOp27
 70
     1
102
RTVSPropertyOp28
 70
     1
102
RTVSPropertyOp29
 70
     1
102
RTVSPropertyOp30
 70
     1
102
RTVSPropertyOp31
 70
     1
102
RTVSPropertyOp32
 70
     1
102
RTVSPropertyOp33
 70
     1
102
RTVSPropertyOp34
 70
     1
102
RTVSPropertyOp35
 70
     1
102
RTVSPropertyOp36
 70
     1
102
RTVSPropertyOp37
 70
     1
102
RTVSPropertyOp38
 70
     1
102
RTVSPropertyOp39
 70
     1
102
RTVSPropertyOp40
 70
     1
102
RTVSPropertyOp41
 70
     1
102
RTVSPropertyOp42
 70
     1
102
RTVSPropertyOp43
 70
     1
102
RTVSPropertyOp44
 70
     1
102
RTVSPropertyOp45
 70
     1
102
RTVSPropertyOp46
 70
     1
102
RTVSPropertyOp47
 70
     1
102
RTVSPropertyOp48
 70
     1
102
RTVSPropertyOp49
 70
     1
102
RTVSPropertyOp50
 70
     1
102
RTVSPropertyOp51
 70
     0
102
RTVSPropertyOp52
 70
     0
102
RTVSPropertyOp53
 70
     1
102
RTVSPropertyOp54
 70
     1
102
RTVSPropertyOp55
 70
     1
102
RTVSPropertyOp56
 70
     1
102
RTVSPropertyOp57
 70
     1
102
RTVSPropertyOp58
 70
     1
102
RTVSPropertyOp59
 70
     1
102
RTVSPropertyOp60
 70
     1
102
RTVSPropertyOp61
 70
     1
102
RTVSPropertyOp62
 70
     1
  0
XRECORD
  5
8D5
102
{ACAD_REACTORS
330
8D4
102
}
330
8D4
100
AcDbXrecord
280
     1
102
RTVSPost2010Prop28
280
     0
102
RTVSPost2010PropOp28
 70
     1
102
RTVSPost2010Prop29
280
     1
102
RTVSPost2010PropOp29
 70
     1
102
RTVSPost2010Prop30
280
     1
102
RTVSPost2010PropOp30
 70
     1
102
RTVSPost2010Prop31
280
     0
102
RTVSPost2010PropOp31
 70
     1
102
RTVSPost2010Prop32
280
     0
102
RTVSPost2010PropOp32
 70
     1
102
RTVSPost2010Prop33
280
     0
102
RTVSPost2010PropOp33
 70
     1
102
RTVSPost2010Prop34
280
     0
102
RTVSPost2010PropOp34
 70
     1
102
RTVSPost2010Prop35
280
     0
102
RTVSPost2010PropOp35
 70
     1
102
RTVSPost2010Prop36
280
     0
102
RTVSPost2010PropOp36
 70
     1
102
RTVSPost2010Prop37
 90
       50
102
RTVSPost2010PropOp37
 70
     1
102
RTVSPost2010Prop38
140
0.0
102
RTVSPost2010PropOp38
 70
     1
102
RTVSPost2010Prop39
140
1.0
102
RTVSPost2010PropOp39
 70
     1
102
RTVSPost2010Prop40
 90
        0
102
RTVSPost2010PropOp40
 70
     1
102
RTVSPost2010Prop41ColorIndex
 90
       18
102
RTVSPost2010Prop41ColorRGB
 90
        0
102
RTVSPost2010PropOp41
 70
     1
102
RTVSPost2010Prop42
 90
       50
102
RTVSPost2010PropOp42
 70
     1
102
RTVSPost2010Prop43
 90
        3
102
RTVSPost2010PropOp43
 70
     1
102
RTVSPost2010Prop44ColorIndex
 90
        5
102
RTVSPost2010Prop44ColorRGB
 90
      255
102
RTVSPost2010PropOp44
 70
     1
102
RTVSPost2010Prop45
280
     0
102
RTVSPost2010PropOp45
 70
     1
102
RTVSPost2010Prop46
 90
       50
102
RTVSPost2010PropOp46
 70
     1
102
RTVSPost2010Prop47
 90
       50
102
RTVSPost2010PropOp47
 70
     1
102
RTVSPost2010Prop48
 90
       50
102
RTVSPost2010PropOp48
 70
     1
102
RTVSPost2010Prop49
280
     0
102
RTVSPost2010PropOp49
 70
     1
102
RTVSPost2010Prop50
 90
       50
102
RTVSPost2010PropOp50
 70
     1
102
RTVSPost2010Prop51ColorIndex
 90
      256
102
RTVSPost2010Prop51ColorRGB
 90
-16777216
102
RTVSPost2010PropOp51
 70
     0
102
RTVSPost2010Prop52
140
1.0
102
RTVSPost2010PropOp52
 70
     0
102
RTVSPost2010Prop53
 90
        2
102
RTVSPost2010PropOp53
 70
     1
102
RTVSPost2010Prop54
  1
strokes_ogs.tif
102
RTVSPost2010PropOp54
 70
     1
102
RTVSPost2010Prop55
280
     0
102
RTVSPost2010PropOp55
 70
     1
102
RTVSPost2010Prop56
140
1.0
102
RTVSPost2010PropOp56
 70
     1
102
RTVSPost2010Prop57
140
1.0
102
RTVSPost2010PropOp57
 70
     1
102
RTVSPropertyOp0
 70
     1
102
RTVSPropertyOp1
 70
     1
102
RTVSPropertyOp2
 70
     1
102
RTVSPropertyOp3
 70
     1
102
RTVSPropertyOp4
 70
     1
102
RTVSPropertyOp5
 70
     1
102
RTVSPropertyOp6
 70
     1
102
RTVSPropertyOp7
 70
     1
102
RTVSPropertyOp8
 70
     1
102
RTVSPropertyOp9
 70
     1
102
RTVSPropertyOp10
 70
     1
102
RTVSPropertyOp11
 70
     1
102
RTVSPropertyOp12
 70
     1
102
RTVSPropertyOp13
 70
     1
102
RTVSPropertyOp14
 70
     1
102
RTVSPropertyOp15
 70
     1
102
RTVSPropertyOp16
 70
     1
102
RTVSPropertyOp17
 70
     1
102
RTVSPropertyOp18
 70
     1
102
RTVSPropertyOp19
 70
     1
102
RTVSPropertyOp20
 70
     1
102
RTVSPropertyOp21
 70
     1
102
RTVSPropertyOp22
 70
     1
102
RTVSPropertyOp23
 70
     1
102
RTVSPropertyOp24
 70
     1
102
RTVSPropertyOp25
 70
     1
102
RTVSPropertyOp26
 70
     1
102
RTVSPropertyOp27
 70
     1
102
RTVSPropertyOp28
 70
     1
102
RTVSPropertyOp29
 70
     1
102
RTVSPropertyOp30
 70
     1
102
RTVSPropertyOp31
 70
     1
102
RTVSPropertyOp32
 70
     1
102
RTVSPropertyOp33
 70
     1
102
RTVSPropertyOp34
 70
     1
102
RTVSPropertyOp35
 70
     1
102
RTVSPropertyOp36
 70
     1
102
RTVSPropertyOp37
 70
     1
102
RTVSPropertyOp38
 70
     1
102
RTVSPropertyOp39
 70
     1
102
RTVSPropertyOp40
 70
     1
102
RTVSPropertyOp41
 70
     1
102
RTVSPropertyOp42
 70
     1
102
RTVSPropertyOp43
 70
     1
102
RTVSPropertyOp44
 70
     1
102
RTVSPropertyOp45
 70
     1
102
RTVSPropertyOp46
 70
     1
102
RTVSPropertyOp47
 70
     1
102
RTVSPropertyOp48
 70
     1
102
RTVSPropertyOp49
 70
     1
102
RTVSPropertyOp50
 70
     1
102
RTVSPropertyOp51
 70
     0
102
RTVSPropertyOp52
 70
     0
102
RTVSPropertyOp53
 70
     1
102
RTVSPropertyOp54
 70
     1
102
RTVSPropertyOp55
 70
     1
102
RTVSPropertyOp56
 70
     1
102
RTVSPropertyOp57
 70
     1
102
RTVSPropertyOp58
 70
     1
102
RTVSPropertyOp59
 70
     1
102
RTVSPropertyOp60
 70
     1
102
RTVSPropertyOp61
 70
     1
102
RTVSPropertyOp62
 70
     1
  0
ENDSEC
  0
EOF
