  0
SECTION
  2
HEADER
  9
$ACADVER
  1
AC1015
  9
$ACADMAINTVER
 70
    20
  9
$DWGCODEPAGE
  3
ANSI_932
  9
$INSBASE
 10
0.0
 20
0.0
 30
0.0
  9
$EXTMIN
 10
66.68333647880354
 20
41.93718581623477
 30
0.0
  9
$EXTMAX
 10
2258.953433631901
 20
1575.161208386416
 30
0.0
  9
$LIMMIN
 10
-781.15673828125
 20
-967.4233818054201
  9
$LIMMAX
 10
1347.014401388622
 20
512.4877166748047
  9
$ORTHOMODE
 70
     1
  9
$REGENMODE
 70
     1
  9
$FILLMODE
 70
     1
  9
$QTEXTMODE
 70
     0
  9
$MIRRTEXT
 70
     1
  9
$LTSCALE
 40
0.3160807752233791
  9
$ATTMODE
 70
     1
  9
$TEXTSIZE
 40
2.5
  9
$TRACEWID
 40
1.0
  9
$TEXTSTYLE
  7
Standard
  9
$CLAYER
  8
0
  9
$CELTYPE
  6
ByLayer
  9
$CECOLOR
 62
   256
  9
$CELTSCALE
 40
1.0
  9
$DISPSILH
 70
     0
  9
$DIMSCALE
 40
1.0
  9
$DIMASZ
 40
2.5
  9
$DIMEXO
 40
0.625
  9
$DIMDLI
 40
3.75
  9
$DIMRND
 40
0.0
  9
$DIMDLE
 40
0.0
  9
$DIMEXE
 40
1.25
  9
$DIMTP
 40
0.0
  9
$DIMTM
 40
0.0
  9
$DIMTXT
 40
2.5
  9
$DIMCEN
 40
2.5
  9
$DIMTSZ
 40
0.0
  9
$DIMTOL
 70
     0
  9
$DIMLIM
 70
     0
  9
$DIMTIH
 70
     0
  9
$DIMTOH
 70
     0
  9
$DIMSE1
 70
     0
  9
$DIMSE2
 70
     0
  9
$DIMTAD
 70
     1
  9
$DIMZIN
 70
     0
  9
$DIMBLK
  1

  9
$DIMASO
 70
     1
  9
$DIMSHO
 70
     1
  9
$DIMPOST
  1

  9
$DIMAPOST
  1

  9
$DIMALT
 70
     0
  9
$DIMALTD
 70
     3
  9
$DIMALTF
 40
0.03937007874016
  9
$DIMLFAC
 40
1.0
  9
$DIMTOFL
 70
     1
  9
$DIMTVP
 40
0.0
  9
$DIMTIX
 70
     0
  9
$DIMSOXD
 70
     0
  9
$DIMSAH
 70
     0
  9
$DIMBLK1
  1

  9
$DIMBLK2
  1

  9
$DIMSTYLE
  2
Standard
  9
$DIMCLRD
 70
     0
  9
$DIMCLRE
 70
     0
  9
$DIMCLRT
 70
     0
  9
$DIMTFAC
 40
0.75
  9
$DIMGAP
 40
0.625
  9
$DIMJUST
 70
     0
  9
$DIMSD1
 70
     0
  9
$DIMSD2
 70
     0
  9
$DIMTOLJ
 70
     0
  9
$DIMTZIN
 70
     8
  9
$DIMALTZ
 70
     0
  9
$DIMALTTZ
 70
     0
  9
$DIMUPT
 70
     0
  9
$DIMDEC
 70
     2
  9
$DIMTDEC
 70
     2
  9
$DIMALTU
 70
     2
  9
$DIMALTTD
 70
     3
  9
$DIMTXSTY
  7
Standard
  9
$DIMAUNIT
 70
     0
  9
$DIMADEC
 70
     0
  9
$DIMALTRND
 40
0.0
  9
$DIMAZIN
 70
     0
  9
$DIMDSEP
 70
    46
  9
$DIMATFIT
 70
     3
  9
$DIMFRAC
 70
     0
  9
$DIMLDRBLK
  1

  9
$DIMLUNIT
 70
     2
  9
$DIMLWD
 70
    -2
  9
$DIMLWE
 70
    -2
  9
$DIMTMOVE
 70
     0
  9
$LUNITS
 70
     2
  9
$LUPREC
 70
     4
  9
$SKETCHINC
 40
1.0
  9
$FILLETRAD
 40
0.0
  9
$AUNITS
 70
     0
  9
$AUPREC
 70
     0
  9
$MENU
  1
.
  9
$ELEVATION
 40
0.0
  9
$PELEVATION
 40
0.0
  9
$THICKNESS
 40
0.0
  9
$LIMCHECK
 70
     0
  9
$CHAMFERA
 40
10.0
  9
$CHAMFERB
 40
10.0
  9
$CHAMFERC
 40
20.0
  9
$CHAMFERD
 40
0.0
  9
$SKPOLY
 70
     0
  9
$TDCREATE
 40
2455188.750000000
  9
$TDUCREATE
 40
2455188.375000000
  9
$TDUPDATE
 40
2459754.638237489
  9
$TDUUPDATE
 40
2459754.263237488
  9
$TDINDWG
 40
0.0658309375
  9
$TDUSRTIMER
 40
0.0658307639
  9
$USRTIMER
 70
     1
  9
$ANGBASE
 50
0.0
  9
$ANGDIR
 70
     0
  9
$PDMODE
 70
     0
  9
$PDSIZE
 40
0.0
  9
$PLINEWID
 40
0.0
  9
$SPLFRAME
 70
     0
  9
$SPLINETYPE
 70
     6
  9
$SPLINESEGS
 70
     8
  9
$HANDSEED
  5
800
  9
$SURFTAB1
 70
     6
  9
$SURFTAB2
 70
     6
  9
$SURFTYPE
 70
     6
  9
$SURFU
 70
     6
  9
$SURFV
 70
     6
  9
$UCSBASE
  2

  9
$UCSNAME
  2

  9
$UCSORG
 10
0.0
 20
0.0
 30
0.0
  9
$UCSXDIR
 10
1.0
 20
0.0
 30
0.0
  9
$UCSYDIR
 10
0.0
 20
1.0
 30
0.0
  9
$UCSORTHOREF
  2

  9
$UCSORTHOVIEW
 70
     0
  9
$UCSORGTOP
 10
0.0
 20
0.0
 30
0.0
  9
$UCSORGBOTTOM
 10
0.0
 20
0.0
 30
0.0
  9
$UCSORGLEFT
 10
0.0
 20
0.0
 30
0.0
  9
$UCSORGRIGHT
 10
0.0
 20
0.0
 30
0.0
  9
$UCSORGFRONT
 10
0.0
 20
0.0
 30
0.0
  9
$UCSORGBACK
 10
0.0
 20
0.0
 30
0.0
  9
$PUCSBASE
  2

  9
$PUCSNAME
  2

  9
$PUCSORG
 10
0.0
 20
0.0
 30
0.0
  9
$PUCSXDIR
 10
1.0
 20
0.0
 30
0.0
  9
$PUCSYDIR
 10
0.0
 20
1.0
 30
0.0
  9
$PUCSORTHOREF
  2

  9
$PUCSORTHOVIEW
 70
     0
  9
$PUCSORGTOP
 10
0.0
 20
0.0
 30
0.0
  9
$PUCSORGBOTTOM
 10
0.0
 20
0.0
 30
0.0
  9
$PUCSORGLEFT
 10
0.0
 20
0.0
 30
0.0
  9
$PUCSORGRIGHT
 10
0.0
 20
0.0
 30
0.0
  9
$PUCSORGFRONT
 10
0.0
 20
0.0
 30
0.0
  9
$PUCSORGBACK
 10
0.0
 20
0.0
 30
0.0
  9
$USERI1
 70
     0
  9
$USERI2
 70
     0
  9
$USERI3
 70
     0
  9
$USERI4
 70
     0
  9
$USERI5
 70
     0
  9
$USERR1
 40
0.0
  9
$USERR2
 40
0.0
  9
$USERR3
 40
0.0
  9
$USERR4
 40
0.0
  9
$USERR5
 40
0.0
  9
$WORLDVIEW
 70
     1
  9
$SHADEDGE
 70
     3
  9
$SHADEDIF
 70
    70
  9
$TILEMODE
 70
     1
  9
$MAXACTVP
 70
    64
  9
$PINSBASE
 10
0.0
 20
0.0
 30
0.0
  9
$PLIMCHECK
 70
     0
  9
$PEXTMIN
 10
1.000000000000000E+20
 20
1.000000000000000E+20
 30
1.000000000000000E+20
  9
$PEXTMAX
 10
-1.000000000000000E+20
 20
-1.000000000000000E+20
 30
-1.000000000000000E+20
  9
$PLIMMIN
 10
0.0
 20
0.0
  9
$PLIMMAX
 10
420.0
 20
297.0
  9
$UNITMODE
 70
     0
  9
$VISRETAIN
 70
     1
  9
$PLINEGEN
 70
     0
  9
$PSLTSCALE
 70
     1
  9
$TREEDEPTH
 70
  3020
  9
$CMLSTYLE
  2
Standard
  9
$CMLJUST
 70
     0
  9
$CMLSCALE
 40
20.0
  9
$PROXYGRAPHICS
 70
     1
  9
$MEASUREMENT
 70
     1
  9
$CELWEIGHT
370
    -1
  9
$ENDCAPS
280
     0
  9
$JOINSTYLE
280
     0
  9
$LWDISPLAY
290
     0
  9
$INSUNITS
 70
     4
  9
$HYPERLINKBASE
  1

  9
$STYLESHEET
  1

  9
$XEDIT
290
     1
  9
$CEPSNTYPE
380
     0
  9
$PSTYLEMODE
290
     1
  9
$FINGERPRINTGUID
  2
{B54594B2-B540-4D08-A1C9-60E924EC6FBD}
  9
$VERSIONGUID
  2
{E96A637B-3090-46FD-A87D-433CE0F4D325}
  9
$EXTNAMES
290
     1
  9
$PSVPSCALE
 40
0.0
  9
$OLESTARTUP
290
     0
  0
ENDSEC
  0
SECTION
  2
CLASSES
  0
CLASS
  1
ACDBDICTIONARYWDFLT
  2
AcDbDictionaryWithDefault
  3
ObjectDBX Classes
 90
        0
280
     0
281
     0
  0
CLASS
  1
VISUALSTYLE
  2
AcDbVisualStyle
  3
ObjectDBX Classes
 90
     4095
280
     0
281
     0
  0
CLASS
  1
MATERIAL
  2
AcDbMaterial
  3
ObjectDBX Classes
 90
     1153
280
     0
281
     0
  0
CLASS
  1
SCALE
  2
AcDbScale
  3
ObjectDBX Classes
 90
     1153
280
     0
281
     0
  0
CLASS
  1
TABLESTYLE
  2
AcDbTableStyle
  3
ObjectDBX Classes
 90
     4095
280
     0
281
     0
  0
CLASS
  1
MLEADERSTYLE
  2
AcDbMLeaderStyle
  3
ACDB_MLEADERSTYLE_CLASS
 90
     4095
280
     0
281
     0
  0
CLASS
  1
SUN
  2
AcDbSun
  3
SCENEOE
 90
    33921
280
     0
281
     0
  0
CLASS
  1
DICTIONARYVAR
  2
AcDbDictionaryVar
  3
ObjectDBX Classes
 90
        0
280
     0
281
     0
  0
CLASS
  1
ACDBSECTIONVIEWSTYLE
  2
AcDbSectionViewStyle
  3
ObjectDBX Classes
 90
     1025
280
     0
281
     0
  0
CLASS
  1
ACDBDETAILVIEWSTYLE
  2
AcDbDetailViewStyle
  3
ObjectDBX Classes
 90
     1025
280
     0
281
     0
  0
CLASS
  1
SORTENTSTABLE
  2
AcDbSortentsTable
  3
ObjectDBX Classes
 90
        0
280
     0
281
     0
  0
CLASS
  1
CELLSTYLEMAP
  2
AcDbCellStyleMap
  3
ObjectDBX Classes
 90
     1152
280
     0
281
     0
  0
CLASS
  1
ACDBPLACEHOLDER
  2
AcDbPlaceHolder
  3
ObjectDBX Classes
 90
        0
280
     0
281
     0
  0
CLASS
  1
LAYOUT
  2
AcDbLayout
  3
ObjectDBX Classes
 90
        0
280
     0
281
     0
  0
ENDSEC
  0
SECTION
  2
TABLES
  0
TABLE
  2
VPORT
  5
8
330
0
100
AcDbSymbolTable
 70
     1
  0
VPORT
  5
29
330
8
100
AcDbSymbolTableRecord
100
AcDbViewportTableRecord
  2
*Active
 70
     0
 10
0.0
 20
0.0
 11
1.0
 21
1.0
 12
1015.326700947889
 22
665.1236452896464
 13
0.0
 23
0.0
 14
10.0
 24
10.0
 15
10.0
 25
10.0
 16
0.0
 26
0.0
 36
1.0
 17
0.0
 27
0.0
 37
0.0
 40
1685.258072100678
 41
2.204301075268817
 42
50.0
 43
0.0
 44
0.0
 50
0.0
 51
0.0
 71
     0
 72
 20000
 73
     1
 74
     3
 75
     0
 76
     0
 77
     0
 78
     0
281
     0
 65
     1
110
0.0
120
0.0
130
0.0
111
1.0
121
0.0
131
0.0
112
0.0
122
1.0
132
0.0
 79
     0
146
0.0
1001
ACAD_NAV_VCDISPLAY
1070
     3
  0
ENDTAB
  0
TABLE
  2
LTYPE
  5
5
330
0
100
AcDbSymbolTable
 70
     2
  0
LTYPE
  5
14
330
5
100
AcDbSymbolTableRecord
100
AcDbLinetypeTableRecord
  2
ByBlock
 70
     0
  3

 72
    65
 73
     0
 40
0.0
  0
LTYPE
  5
15
330
5
100
AcDbSymbolTableRecord
100
AcDbLinetypeTableRecord
  2
ByLayer
 70
     0
  3

 72
    65
 73
     0
 40
0.0
  0
LTYPE
  5
16
330
5
100
AcDbSymbolTableRecord
100
AcDbLinetypeTableRecord
  2
Continuous
 70
     0
  3
Solid line
 72
    65
 73
     0
 40
0.0
  0
LTYPE
  5
271
330
5
100
AcDbSymbolTableRecord
100
AcDbLinetypeTableRecord
  2
CENTER2
 70
     0
  3
Center (.5x) ___ _ ___ _ ___ _ ___ _ ___ _ ___
 72
    65
 73
     4
 40
28.575
 49
19.05
 74
     0
 49
-3.174999999999998
 74
     0
 49
3.174999999999998
 74
     0
 49
-3.174999999999998
 74
     0
  0
ENDTAB
  0
TABLE
  2
LAYER
  5
2
102
{ACAD_XDICTIONARY
360
277
102
}
330
0
100
AcDbSymbolTable
 70
     4
  0
LAYER
  5
10
102
{ACAD_XDICTIONARY
360
767
102
}
330
2
100
AcDbSymbolTableRecord
100
AcDbLayerTableRecord
  2
0
 70
     0
 62
     7
  6
Continuous
370
    -3
390
F
  0
LAYER
  5
66
330
2
100
AcDbSymbolTableRecord
100
AcDbLayerTableRecord
  2
Defpoints
 70
     0
 62
     7
  6
Continuous
290
     0
370
    -3
390
F
  0
LAYER
  5
272
102
{ACAD_XDICTIONARY
360
273
102
}
330
2
100
AcDbSymbolTableRecord
100
AcDbLayerTableRecord
  2
中心線
 70
     0
 62
     3
  6
CENTER2
370
    -3
390
F
  0
LAYER
  5
274
102
{ACAD_XDICTIONARY
360
275
102
}
330
2
100
AcDbSymbolTableRecord
100
AcDbLayerTableRecord
  2
実線
 70
     0
 62
     7
  6
Continuous
370
    -3
390
F
  0
ENDTAB
  0
TABLE
  2
STYLE
  5
3
330
0
100
AcDbSymbolTable
 70
     1
  0
STYLE
  5
11
330
3
100
AcDbSymbolTableRecord
100
AcDbTextStyleTableRecord
  2
Standard
 70
     0
 40
0.0
 41
1.0
 50
0.0
 71
     0
 42
2.5
  3
txt
  4
extfont2
  0
ENDTAB
  0
TABLE
  2
VIEW
  5
6
330
0
100
AcDbSymbolTable
 70
     0
  0
ENDTAB
  0
TABLE
  2
UCS
  5
7
330
0
100
AcDbSymbolTable
 70
     0
  0
ENDTAB
  0
TABLE
  2
APPID
  5
9
330
0
100
AcDbSymbolTable
 70
     4
  0
APPID
  5
12
330
9
100
AcDbSymbolTableRecord
100
AcDbRegAppTableRecord
  2
ACAD
 70
     0
  0
APPID
  5
261
330
9
100
AcDbSymbolTableRecord
100
AcDbRegAppTableRecord
  2
ACAD_MLEADERVER
 70
     0
  0
APPID
  5
276
330
9
100
AcDbSymbolTableRecord
100
AcDbRegAppTableRecord
  2
ACAD_NAV_VCDISPLAY
 70
     0
  0
APPID
  5
73C
330
9
100
AcDbSymbolTableRecord
100
AcDbRegAppTableRecord
  2
ACAD_EXEMPT_FROM_CAD_STANDARDS
 70
     0
  0
ENDTAB
  0
TABLE
  2
DIMSTYLE
  5
A
330
0
100
AcDbSymbolTable
 70
     1
100
AcDbDimStyleTable
 71
     1
340
27
  0
DIMSTYLE
105
27
330
A
100
AcDbSymbolTableRecord
100
AcDbDimStyleTableRecord
  2
Standard
 70
     0
 41
2.5
 42
0.625
 43
3.75
 44
1.25
 73
     0
 74
     0
 77
     1
140
2.5
141
2.5
143
0.03937007874016
146
0.75
147
0.625
171
     3
172
     1
271
     2
272
     2
274
     3
283
     0
284
     8
340
11
  0
ENDTAB
  0
TABLE
  2
BLOCK_RECORD
  5
1
330
0
100
AcDbSymbolTable
 70
     1
  0
BLOCK_RECORD
  5
1F
102
{ACAD_XDICTIONARY
360
5AE
102
}
330
1
100
AcDbSymbolTableRecord
100
AcDbBlockTableRecord
  2
*Model_Space
340
22
  0
BLOCK_RECORD
  5
1B
330
1
100
AcDbSymbolTableRecord
100
AcDbBlockTableRecord
  2
*Paper_Space
340
1E
  0
BLOCK_RECORD
  5
23
330
1
100
AcDbSymbolTableRecord
100
AcDbBlockTableRecord
  2
*Paper_Space0
340
26B
  0
ENDTAB
  0
ENDSEC
  0
SECTION
  2
BLOCKS
  0
BLOCK
  5
20
330
1F
100
AcDbEntity
  8
0
100
AcDbBlockBegin
  2
*Model_Space
 70
     0
 10
0.0
 20
0.0
 30
0.0
  3
*Model_Space
  1

  0
ENDBLK
  5
21
330
1F
100
AcDbEntity
  8
0
100
AcDbBlockEnd
  0
BLOCK
  5
1C
330
1B
100
AcDbEntity
 67
     1
  8
0
100
AcDbBlockBegin
  2
*Paper_Space
 70
     0
 10
0.0
 20
0.0
 30
0.0
  3
*Paper_Space
  1

  0
ENDBLK
  5
1D
330
1B
100
AcDbEntity
 67
     1
  8
0
100
AcDbBlockEnd
  0
BLOCK
  5
24
330
23
100
AcDbEntity
 67
     1
  8
0
100
AcDbBlockBegin
  2
*Paper_Space0
 70
     0
 10
0.0
 20
0.0
 30
0.0
  3
*Paper_Space0
  1

  0
ENDBLK
  5
25
330
23
100
AcDbEntity
 67
     1
  8
0
100
AcDbBlockEnd
  0
ENDSEC
  0
SECTION
  2
ENTITIES
  0
ARC
  5
56D
102
{ACAD_REACTORS
330
75A
102
}
330
1F
100
AcDbEntity
  8
実線
100
AcDbCircle
 10
599.8644859773587
 20
126.1574966383959
 30
0.0
 40
10.00000000000002
100
AcDbArc
 50
235.0000000000025
 51
313.4958580179407
  0
LINE
  5
56E
102
{ACAD_REACTORS
330
75A
102
}
330
1F
100
AcDbEntity
  8
実線
100
AcDbLine
 10
509.3752397785762
 20
118.0621065924734
 30
0.0
 11
509.2379513437599
 21
117.965976195506
 31
0.0
  0
LINE
  5
56F
102
{ACAD_REACTORS
330
75A
102
}
330
1F
100
AcDbEntity
  8
実線
100
AcDbLine
 10
610.5584157025653
 20
134.6290891160068
 30
0.0
 11
610.6545460995329
 21
134.4918006811906
 31
0.0
  0
ARC
  5
570
102
{ACAD_REACTORS
330
75A
102
}
330
1F
100
AcDbEntity
  8
実線
100
AcDbCircle
 10
602.4630256566431
 20
128.7560363176801
 30
0.0
 40
9.999999999999996
100
AcDbArc
 50
316.504141982055
 51
34.99999999999719
  0
ARC
  5
571
102
{ACAD_REACTORS
330
75A
102
}
330
1F
100
AcDbEntity
  8
実線
100
AcDbCircle
 10
551.6833364788042
 20
176.9371858162346
 30
0.0
 40
79.9999999999998
100
AcDbArc
 50
313.4958580179407
 51
316.504141982055
  0
LINE
  5
572
102
{ACAD_REACTORS
330
75A
102
}
330
1F
100
AcDbEntity
  8
実線
100
AcDbLine
 10
594.1287216138483
 20
117.965976195506
 30
0.0
 11
593.9914331790317
 21
118.0621065924734
 31
0.0
  0
ARC
  5
573
102
{ACAD_REACTORS
330
75A
102
}
330
1F
100
AcDbEntity
  8
実線
100
AcDbCircle
 10
503.5021869802492
 20
227.7168749940735
 30
0.0
 40
10.00000000000038
100
AcDbArc
 50
55.00000000000254
 51
133.4958580179407
  0
LINE
  5
574
102
{ACAD_REACTORS
330
75A
102
}
330
1F
100
AcDbEntity
  8
実線
100
AcDbLine
 10
509.2379513437601
 20
235.9083954369639
 30
0.0
 11
509.3752397785766
 21
235.8122650399964
 31
0.0
  0
ARC
  5
575
102
{ACAD_REACTORS
330
75A
102
}
330
1F
100
AcDbEntity
  8
実線
100
AcDbCircle
 10
503.5021869802492
 20
126.1574966383959
 30
0.0
 40
9.999999999999991
100
AcDbArc
 50
226.5041419820593
 51
304.9999999999974
  0
ARC
  5
576
102
{ACAD_REACTORS
330
75A
102
}
330
1F
100
AcDbEntity
  8
実線
100
AcDbCircle
 10
551.6833364788042
 20
176.9371858162346
 30
0.0
 40
79.99999999999984
100
AcDbArc
 50
223.4958580179449
 51
226.5041419820593
  0
ARC
  5
577
102
{ACAD_REACTORS
330
75A
102
}
330
1F
100
AcDbEntity
  8
実線
100
AcDbCircle
 10
500.9036473009654
 20
128.7560363176801
 30
0.0
 40
9.999999999999976
100
AcDbArc
 50
145.0000000000028
 51
223.4958580179449
  0
LINE
  5
578
102
{ACAD_REACTORS
330
75A
102
}
330
1F
100
AcDbEntity
  8
実線
100
AcDbLine
 10
492.7121268580752
 20
134.4918006811905
 30
0.0
 11
492.8082572550428
 21
134.6290891160068
 31
0.0
  0
LINE
  5
579
102
{ACAD_REACTORS
330
75A
102
}
330
1F
100
AcDbEntity
  8
実線
100
AcDbLine
 10
492.8082572550428
 20
219.2452825164626
 30
0.0
 11
492.7121268580752
 21
219.382570951279
 31
0.0
  0
ARC
  5
57A
102
{ACAD_REACTORS
330
75A
102
}
330
1F
100
AcDbEntity
  8
実線
100
AcDbCircle
 10
500.9036473009651
 20
225.1183353147894
 30
0.0
 40
10.0
100
AcDbArc
 50
136.504141982055
 51
214.9999999999972
  0
ARC
  5
57B
102
{ACAD_REACTORS
330
75A
102
}
330
1F
100
AcDbEntity
  8
実線
100
AcDbCircle
 10
599.8644859773587
 20
227.7168749940735
 30
0.0
 40
9.999999999999982
100
AcDbArc
 50
46.50414198205931
 51
124.9999999999974
  0
ARC
  5
57C
102
{ACAD_REACTORS
330
75A
102
}
330
1F
100
AcDbEntity
  8
実線
100
AcDbCircle
 10
551.6833364788048
 20
176.9371858162449
 30
0.0
 40
79.99999999999343
100
AcDbArc
 50
133.4958580179498
 51
136.5041419820596
  0
LINE
  5
57D
102
{ACAD_REACTORS
330
75A
102
}
330
1F
100
AcDbEntity
  8
実線
100
AcDbLine
 10
610.6545460995329
 20
219.3825709512793
 30
0.0
 11
610.5584157025653
 21
219.245282516463
 31
0.0
  0
LINE
  5
57E
102
{ACAD_REACTORS
330
75A
102
}
330
1F
100
AcDbEntity
  8
実線
100
AcDbLine
 10
593.9914331790317
 20
235.8122650399962
 30
0.0
 11
594.1287216138483
 21
235.9083954369635
 31
0.0
  0
ARC
  5
57F
102
{ACAD_REACTORS
330
75A
102
}
330
1F
100
AcDbEntity
  8
実線
100
AcDbCircle
 10
602.4630256566427
 20
225.1183353147895
 30
0.0
 40
9.999999999999591
100
AcDbArc
 50
325.0000000000028
 51
43.49585801794494
  0
ARC
  5
580
102
{ACAD_REACTORS
330
75A
102
}
330
1F
100
AcDbEntity
  8
実線
100
AcDbCircle
 10
551.6833364788039
 20
176.9371858162449
 30
0.0
 40
79.99999999999268
100
AcDbArc
 50
43.49585801794039
 51
46.50414198205019
  0
CIRCLE
  5
581
102
{ACAD_REACTORS
330
75A
102
}
330
1F
100
AcDbEntity
  8
実線
100
AcDbCircle
 10
551.6833364788042
 20
176.9371858162348
 30
0.0
 40
42.5
  0
CIRCLE
  5
582
102
{ACAD_REACTORS
330
75A
102
}
330
1F
100
AcDbEntity
  8
実線
100
AcDbCircle
 10
551.6833364788042
 20
176.9371858162348
 30
0.0
 40
16.5
  0
CIRCLE
  5
583
102
{ACAD_REACTORS
330
75A
102
}
330
1F
100
AcDbEntity
  8
実線
100
AcDbCircle
 10
551.6833364788042
 20
176.9371858162348
 30
0.0
 40
46.0
  0
LINE
  5
584
102
{ACAD_REACTORS
330
75A
102
}
330
1F
100
AcDbEntity
  8
実線
100
AcDbLine
 10
486.5052151496292
 20
208.6871858162246
 30
0.0
 11
483.6833364788035
 21
208.6871858162246
 31
0.0
  0
LINE
  5
585
102
{ACAD_REACTORS
330
75A
102
}
330
1F
100
AcDbEntity
  8
実線
100
AcDbLine
 10
483.6833364788035
 20
145.1871858162245
 30
0.0
 11
486.5052151496394
 21
145.1871858162245
 31
0.0
  0
LINE
  5
586
102
{ACAD_REACTORS
330
75A
102
}
330
1F
100
AcDbEntity
  8
実線
100
AcDbLine
 10
483.6833364788035
 20
208.6871858162246
 30
0.0
 11
483.6833364788035
 21
202.0817677375935
 31
0.0
  0
ELLIPSE
  5
587
102
{ACAD_REACTORS
330
75A
102
}
330
1F
100
AcDbEntity
  8
実線
100
AcDbEllipse
 10
411.8412875102503
 20
176.9371858162245
 30
0.0
 11
0.0
 21
31.75
 31
0.0
210
0.0
220
0.0
230
1.0
 40
0.7071067811865475
 41
3.332183988541407
 42
6.092593972227969
  0
LINE
  5
588
102
{ACAD_REACTORS
330
75A
102
}
330
1F
100
AcDbEntity
  8
実線
100
AcDbLine
 10
397.345598495926
 20
138.1871858162245
 30
0.0
 11
399.820472230079
 21
138.1871858162245
 31
0.0
  0
LINE
  5
589
102
{ACAD_REACTORS
330
75A
102
}
330
1F
100
AcDbEntity
  8
実線
100
AcDbLine
 10
399.820472230079
 20
215.6871858162245
 30
0.0
 11
397.345598495926
 21
215.6871858162245
 31
0.0
  0
ELLIPSE
  5
58A
102
{ACAD_REACTORS
330
75A
102
}
330
1F
100
AcDbEntity
  8
実線
100
AcDbEllipse
 10
397.345598495926
 20
176.9371858162245
 30
0.0
 11
0.0000000000000036
 21
38.75
 31
0.0
210
0.0
220
0.0
230
1.0
 40
0.7071067811865475
 41
3.141592653589792
 42
6.283185307179584
  0
ELLIPSE
  5
58B
102
{ACAD_REACTORS
330
75A
102
}
330
1F
100
AcDbEntity
  8
実線
100
AcDbEllipse
 10
397.345598495926
 20
176.9371858162245
 30
0.0
 11
0.0000000000000036
 21
38.75
 31
0.0
210
0.0
220
0.0
230
1.0
 40
0.7071067811865475
 41
1.570796326794897
 42
3.141592653589792
  0
ELLIPSE
  5
58C
102
{ACAD_REACTORS
330
75A
102
}
330
1F
100
AcDbEntity
  8
実線
100
AcDbEllipse
 10
399.820472230079
 20
176.9371858162245
 30
0.0
 11
0.0000000000000036
 21
38.75
 31
0.0
210
0.0
220
0.0
230
1.0
 40
0.7071067811865475
 41
3.141592653589792
 42
6.283185307179584
  0
ELLIPSE
  5
58D
102
{ACAD_REACTORS
330
75A
102
}
330
1F
100
AcDbEntity
  8
実線
100
AcDbEllipse
 10
397.345598495926
 20
176.9371858162245
 30
0.0
 11
0.0000000000000036
 21
38.75
 31
0.0
210
0.0
220
0.0
230
1.0
 40
0.7071067811865475
 41
0.0
 42
1.570796326794897
  0
LINE
  5
58E
102
{ACAD_REACTORS
330
75A
102
}
330
1F
100
AcDbEntity
  8
実線
100
AcDbLine
 10
415.5287503024839
 20
145.1871858162245
 30
0.0
 11
483.6833364788035
 21
145.1871858162245
 31
0.0
  0
LINE
  5
58F
102
{ACAD_REACTORS
330
75A
102
}
330
1F
100
AcDbEntity
  8
実線
100
AcDbLine
 10
483.6833364788035
 20
208.6871858162246
 30
0.0
 11
415.5287503024839
 21
208.6871858162246
 31
0.0
  0
ELLIPSE
  5
590
102
{ACAD_REACTORS
330
75A
102
}
330
1F
100
AcDbEntity
  8
実線
100
AcDbEllipse
 10
411.8412875102501
 20
176.9371858162245
 30
0.0
 11
0.0
 21
31.75
 31
0.0
210
0.0
220
0.0
230
1.0
 40
0.7071067811865475
 41
3.332183988541411
 42
6.092593972227968
  0
LINE
  5
591
102
{ACAD_REACTORS
330
75A
102
}
330
1F
100
AcDbEntity
  8
実線
100
AcDbLine
 10
483.6833364788035
 20
151.7926038948762
 30
0.0
 11
483.6833364788035
 21
145.1871858162245
 31
0.0
  0
CIRCLE
  5
592
102
{ACAD_REACTORS
330
75A
102
}
330
1F
100
AcDbEntity
  8
実線
100
AcDbCircle
 10
551.6833364788042
 20
176.9371858162348
 30
0.0
 40
44.0
  0
CIRCLE
  5
593
102
{ACAD_REACTORS
330
75A
102
}
330
1F
100
AcDbEntity
  8
実線
100
AcDbCircle
 10
551.6833364788042
 20
176.9371858162348
 30
0.0
 40
43.3
  0
CIRCLE
  5
594
102
{ACAD_REACTORS
330
75A
102
}
330
1F
100
AcDbEntity
  8
実線
100
AcDbCircle
 10
551.6833364788042
 20
176.9371858162348
 30
0.0
 40
72.5
  0
CIRCLE
  5
597
102
{ACAD_REACTORS
330
75A
102
}
330
1F
100
AcDbEntity
  8
実線
100
AcDbCircle
 10
648.6906873924884
 20
136.7554254178901
 30
0.0
 40
11.5
  0
CIRCLE
  5
59A
102
{ACAD_REACTORS
330
75A
102
}
330
1F
100
AcDbEntity
  8
実線
100
AcDbCircle
 10
648.6906873924884
 20
217.1189462145589
 30
0.0
 40
11.5
  0
CIRCLE
  5
59D
102
{ACAD_REACTORS
330
75A
102
}
330
1F
100
AcDbEntity
  8
実線
100
AcDbCircle
 10
591.865096877138
 20
273.9445367299097
 30
0.0
 40
11.5
  0
CIRCLE
  5
5A0
102
{ACAD_REACTORS
330
75A
102
}
330
1F
100
AcDbEntity
  8
実線
100
AcDbCircle
 10
511.501576080469
 20
273.9445367299097
 30
0.0
 40
11.5
  0
ARC
  5
5A3
102
{ACAD_REACTORS
330
75A
102
}
330
1F
100
AcDbEntity
  8
実線
100
AcDbCircle
 10
454.6759855651185
 20
217.1189462145589
 30
0.0
 40
11.5
100
AcDbArc
 50
312.8449536528904
 51
227.1550463471096
  0
ARC
  5
5A6
102
{ACAD_REACTORS
330
75A
102
}
330
1F
100
AcDbEntity
  8
実線
100
AcDbCircle
 10
454.6759855651183
 20
136.7554254178901
 30
0.0
 40
11.5
100
AcDbArc
 50
132.8449536528903
 51
47.15504634710963
  0
CIRCLE
  5
5A9
102
{ACAD_REACTORS
330
75A
102
}
330
1F
100
AcDbEntity
  8
実線
100
AcDbCircle
 10
511.501576080469
 20
79.92983490253948
 30
0.0
 40
11.5
  0
CIRCLE
  5
5AC
102
{ACAD_REACTORS
330
75A
102
}
330
1F
100
AcDbEntity
  8
実線
100
AcDbCircle
 10
591.865096877138
 20
79.92983490253948
 30
0.0
 40
11.5
  0
ARC
  5
5AD
102
{ACAD_REACTORS
330
75A
102
}
330
1F
100
AcDbEntity
  8
実線
100
AcDbCircle
 10
551.6833364788035
 20
176.9371858162245
 30
0.0
 40
125.0
100
AcDbArc
 50
194.714338541812
 51
165.2856614581879
  0
ELLIPSE
  5
5B0
102
{ACAD_REACTORS
330
766
102
}
330
1F
100
AcDbEntity
  8
実線
100
AcDbEllipse
 10
397.345598495926
 20
1196.937185816235
 30
0.0
 11
0.0000000000000036
 21
38.75
 31
0.0
210
0.0
220
0.0
230
1.0
 40
0.7071067811865475
 41
1.570796326794897
 42
3.141592653589792
  0
LINE
  5
5B1
102
{ACAD_REACTORS
330
766
102
}
330
1F
100
AcDbEntity
  8
実線
100
AcDbLine
 10
397.345598495926
 20
1158.187185816235
 30
0.0
 11
399.820472230079
 21
1158.187185816235
 31
0.0
  0
LINE
  5
5B2
102
{ACAD_REACTORS
330
766
102
}
330
1F
100
AcDbEntity
  8
実線
100
AcDbLine
 10
399.820472230079
 20
1235.687185816236
 30
0.0
 11
397.345598495926
 21
1235.687185816236
 31
0.0
  0
ELLIPSE
  5
5B3
102
{ACAD_REACTORS
330
766
102
}
330
1F
100
AcDbEntity
  8
実線
100
AcDbEllipse
 10
397.345598495926
 20
1196.937185816235
 30
0.0
 11
0.0000000000000036
 21
38.75
 31
0.0
210
0.0
220
0.0
230
1.0
 40
0.7071067811865475
 41
0.0
 42
1.570796326794897
  0
ELLIPSE
  5
5B4
102
{ACAD_REACTORS
330
766
102
}
330
1F
100
AcDbEntity
  8
実線
100
AcDbEllipse
 10
399.820472230079
 20
1196.937185816235
 30
0.0
 11
0.0000000000000036
 21
38.75
 31
0.0
210
0.0
220
0.0
230
1.0
 40
0.7071067811865475
 41
5.672673719580195
 42
6.283185307179584
  0
ELLIPSE
  5
5B5
102
{ACAD_REACTORS
330
766
102
}
330
1F
100
AcDbEntity
  8
実線
100
AcDbEllipse
 10
399.820472230079
 20
1196.937185816235
 30
0.0
 11
0.0000000000000036
 21
38.75
 31
0.0
210
0.0
220
0.0
230
1.0
 40
0.7071067811865475
 41
3.141592653589792
 42
3.752104241189181
  0
ELLIPSE
  5
5B6
102
{ACAD_REACTORS
330
766
102
}
330
1F
100
AcDbEntity
  8
実線
100
AcDbEllipse
 10
399.820472230079
 20
1196.937185816235
 30
0.0
 11
0.0000000000000036
 21
38.75
 31
0.0
210
0.0
220
0.0
230
1.0
 40
0.7071067811865475
 41
0.0
 42
1.570796326794897
  0
ELLIPSE
  5
5B7
102
{ACAD_REACTORS
330
766
102
}
330
1F
100
AcDbEntity
  8
実線
100
AcDbEllipse
 10
399.820472230079
 20
1196.937185816235
 30
0.0
 11
0.0000000000000036
 21
38.75
 31
0.0
210
0.0
220
0.0
230
1.0
 40
0.7071067811865475
 41
1.570796326794897
 42
3.141592653589792
  0
ELLIPSE
  5
5B8
102
{ACAD_REACTORS
330
766
102
}
330
1F
100
AcDbEntity
  8
実線
100
AcDbEllipse
 10
402.0125032517572
 20
1196.937185816235
 30
0.0
 11
0.0
 21
31.75
 31
0.0
210
0.0
220
0.0
230
1.0
 40
0.7071067811865475
 41
1.570796326794897
 42
3.141592653589792
  0
LINE
  5
5B9
102
{ACAD_REACTORS
330
766
102
}
330
1F
100
AcDbEntity
  8
実線
100
AcDbLine
 10
402.0125032517572
 20
1165.187185816236
 30
0.0
 11
411.8412875102503
 21
1165.187185816236
 31
0.0
  0
LINE
  5
5BA
102
{ACAD_REACTORS
330
766
102
}
330
1F
100
AcDbEntity
  8
実線
100
AcDbLine
 10
411.8412875102503
 20
1228.687185816235
 30
0.0
 11
402.0125032517572
 21
1228.687185816235
 31
0.0
  0
ELLIPSE
  5
5BB
102
{ACAD_REACTORS
330
766
102
}
330
1F
100
AcDbEntity
  8
実線
100
AcDbEllipse
 10
402.0125032517572
 20
1196.937185816235
 30
0.0
 11
0.0
 21
31.75
 31
0.0
210
0.0
220
0.0
230
1.0
 40
0.7071067811865475
 41
0.0
 42
1.570796326794897
  0
ELLIPSE
  5
5BC
102
{ACAD_REACTORS
330
766
102
}
330
1F
100
AcDbEntity
  8
実線
100
AcDbEllipse
 10
411.8412875102503
 20
1196.937185816235
 30
0.0
 11
0.0
 21
31.75
 31
0.0
210
0.0
220
0.0
230
1.0
 40
0.7071067811865475
 41
0.0
 42
1.570796326794897
  0
ELLIPSE
  5
5BD
102
{ACAD_REACTORS
330
766
102
}
330
1F
100
AcDbEntity
  8
実線
100
AcDbEllipse
 10
411.8412875102503
 20
1196.937185816235
 30
0.0
 11
0.0
 21
31.75
 31
0.0
210
0.0
220
0.0
230
1.0
 40
0.7071067811865475
 41
1.570796326794897
 42
3.141592653589792
  0
ELLIPSE
  5
5BE
102
{ACAD_REACTORS
330
766
102
}
330
1F
100
AcDbEntity
  8
実線
100
AcDbEllipse
 10
411.8412875102501
 20
1196.937185816235
 30
0.0
 11
0.0
 21
31.75
 31
0.0
210
0.0
220
0.0
230
1.0
 40
0.7071067811865475
 41
0.0
 42
3.141592653589792
  0
LINE
  5
5BF
102
{ACAD_REACTORS
330
766
102
}
330
1F
100
AcDbEntity
  8
実線
100
AcDbLine
 10
430.782809184668
 20
1228.687185816235
 30
0.0
 11
411.8412875102501
 21
1228.687185816235
 31
0.0
  0
LINE
  5
5C0
102
{ACAD_REACTORS
330
766
102
}
330
1F
100
AcDbEntity
  8
実線
100
AcDbLine
 10
462.4961784390238
 20
1228.687185816235
 30
0.0
 11
446.8557926912129
 21
1228.687185816235
 31
0.0
  0
LINE
  5
5C1
102
{ACAD_REACTORS
330
766
102
}
330
1F
100
AcDbEntity
  8
実線
100
AcDbLine
 10
446.8557926912129
 20
1165.187185816236
 30
0.0
 11
462.4961784390235
 21
1165.187185816236
 31
0.0
  0
LINE
  5
5C2
102
{ACAD_REACTORS
330
766
102
}
330
1F
100
AcDbEntity
  8
実線
100
AcDbLine
 10
411.8412875102501
 20
1165.187185816236
 30
0.0
 11
430.782809184668
 21
1165.187185816236
 31
0.0
  0
CIRCLE
  5
5C5
102
{ACAD_REACTORS
330
766
102
}
330
1F
100
AcDbEntity
  8
実線
100
AcDbCircle
 10
648.6906873924884
 20
1237.11894621457
 30
0.0
 40
11.5
  0
CIRCLE
  5
5C8
102
{ACAD_REACTORS
330
766
102
}
330
1F
100
AcDbEntity
  8
実線
100
AcDbCircle
 10
648.6906873924884
 20
1156.755425417901
 30
0.0
 40
11.5
  0
CIRCLE
  5
5CB
102
{ACAD_REACTORS
330
766
102
}
330
1F
100
AcDbEntity
  8
実線
100
AcDbCircle
 10
591.865096877138
 20
1099.92983490255
 30
0.0
 40
11.5
  0
CIRCLE
  5
5CE
102
{ACAD_REACTORS
330
766
102
}
330
1F
100
AcDbEntity
  8
実線
100
AcDbCircle
 10
511.501576080469
 20
1099.92983490255
 30
0.0
 40
11.5
  0
CIRCLE
  5
5D1
102
{ACAD_REACTORS
330
766
102
}
330
1F
100
AcDbEntity
  8
実線
100
AcDbCircle
 10
454.6759855651185
 20
1156.755425417901
 30
0.0
 40
11.5
  0
CIRCLE
  5
5D4
102
{ACAD_REACTORS
330
766
102
}
330
1F
100
AcDbEntity
  8
実線
100
AcDbCircle
 10
454.6759855651183
 20
1237.11894621457
 30
0.0
 40
11.5
  0
CIRCLE
  5
5D7
102
{ACAD_REACTORS
330
766
102
}
330
1F
100
AcDbEntity
  8
実線
100
AcDbCircle
 10
511.501576080469
 20
1293.944536729921
 30
0.0
 40
11.5
  0
CIRCLE
  5
5DA
102
{ACAD_REACTORS
330
766
102
}
330
1F
100
AcDbEntity
  8
実線
100
AcDbCircle
 10
591.865096877138
 20
1293.944536729921
 30
0.0
 40
11.5
  0
CIRCLE
  5
5DB
102
{ACAD_REACTORS
330
766
102
}
330
1F
100
AcDbEntity
  8
実線
100
AcDbCircle
 10
551.6833364788035
 20
1196.937185816235
 30
0.0
 40
125.0
  0
LINE
  5
5DC
102
{ACAD_REACTORS
330
757
102
}
330
1F
100
AcDbEntity
  8
実線
100
AcDbLine
 10
1263.683336478802
 20
771.1930892676366
 30
0.0
 11
1263.683336478802
 21
733.2371858162346
 31
0.0
  0
LINE
  5
5DD
102
{ACAD_REACTORS
330
757
102
}
330
1F
100
AcDbEntity
  8
実線
100
AcDbLine
 10
1279.683336478802
 20
733.2371858162346
 30
0.0
 11
1279.683336478802
 21
771.1930892676366
 31
0.0
  0
LINE
  5
5DE
102
{ACAD_REACTORS
330
757
102
}
330
1F
100
AcDbEntity
  8
実線
100
AcDbLine
 10
1204.183336478802
 20
668.2371858162346
 30
0.0
 11
1339.183336478802
 21
668.2371858162346
 31
0.0
  0
LINE
  5
5DF
102
{ACAD_REACTORS
330
757
102
}
330
1F
100
AcDbEntity
  8
実線
100
AcDbLine
 10
1204.183336478802
 20
668.2371858162346
 30
0.0
 11
1204.183336478802
 21
666.2371858162345
 31
0.0
  0
LINE
  5
5E0
102
{ACAD_REACTORS
330
757
102
}
330
1F
100
AcDbEntity
  8
実線
100
AcDbLine
 10
1339.183336478802
 20
666.2371858162345
 30
0.0
 11
1339.183336478802
 21
668.2371858162346
 31
0.0
  0
LINE
  5
5E1
102
{ACAD_REACTORS
330
757
102
}
330
1F
100
AcDbEntity
  8
実線
100
AcDbLine
 10
1199.183336478802
 20
666.2371858162345
 30
0.0
 11
1344.183336478802
 21
666.2371858162345
 31
0.0
  0
LINE
  5
5E2
102
{ACAD_REACTORS
330
757
102
}
330
1F
100
AcDbEntity
  8
実線
100
AcDbLine
 10
1199.183336478802
 20
666.2371858162345
 30
0.0
 11
1199.183336478802
 21
565.2371858162346
 31
0.0
  0
LINE
  5
5E3
102
{ACAD_REACTORS
330
757
102
}
330
1F
100
AcDbEntity
  8
実線
100
AcDbLine
 10
1344.183336478802
 20
565.2371858162346
 30
0.0
 11
1344.183336478802
 21
666.2371858162345
 31
0.0
  0
LINE
  5
5E4
102
{ACAD_REACTORS
330
757
102
}
330
1F
100
AcDbEntity
  8
実線
100
AcDbLine
 10
1199.183336478802
 20
565.2371858162346
 30
0.0
 11
1344.183336478802
 21
565.2371858162346
 31
0.0
  0
LINE
  5
5E5
102
{ACAD_REACTORS
330
757
102
}
330
1F
100
AcDbEntity
  8
実線
100
AcDbLine
 10
1332.463025656641
 20
784.7371858162346
 30
0.0
 11
1210.903647300964
 21
784.7371858162346
 31
0.0
  0
LINE
  5
5E6
102
{ACAD_REACTORS
330
757
102
}
330
1F
100
AcDbEntity
  8
実線
100
AcDbLine
 10
1332.463025656641
 20
771.2371858162346
 30
0.0
 11
1210.903647300964
 21
771.2371858162346
 31
0.0
  0
LINE
  5
5E7
102
{ACAD_REACTORS
330
757
102
}
330
1F
100
AcDbEntity
  8
実線
100
AcDbLine
 10
1210.903647300964
 20
784.7371858162346
 30
0.0
 11
1210.903647300964
 21
771.2371858162346
 31
0.0
  0
LINE
  5
5E8
102
{ACAD_REACTORS
330
757
102
}
330
1F
100
AcDbEntity
  8
実線
100
AcDbLine
 10
1332.463025656641
 20
771.2371858162346
 30
0.0
 11
1332.463025656641
 21
784.7371858162346
 31
0.0
  0
LINE
  5
5E9
102
{ACAD_REACTORS
330
757
102
}
330
1F
100
AcDbEntity
  8
実線
100
AcDbLine
 10
1244.873364328861
 20
784.7371858162346
 30
0.0
 11
1244.873364328861
 21
771.2371858162346
 31
0.0
  0
LINE
  5
5EA
102
{ACAD_REACTORS
330
757
102
}
330
1F
100
AcDbEntity
  8
実線
100
AcDbLine
 10
1298.493308628744
 20
784.7371858162346
 30
0.0
 11
1298.493308628744
 21
771.2371858162346
 31
0.0
  0
LINE
  5
5EB
102
{ACAD_REACTORS
330
757
102
}
330
1F
100
AcDbEntity
  8
実線
100
AcDbLine
 10
1229.183336478802
 20
425.5371858162346
 30
0.0
 11
1314.183336478803
 21
425.5371858162346
 31
0.0
  0
LINE
  5
5EC
102
{ACAD_REACTORS
330
757
102
}
330
1F
100
AcDbEntity
  8
実線
100
AcDbLine
 10
1288.183336478802
 20
416.3371858162348
 30
0.0
 11
1314.183336478803
 21
425.5371858162346
 31
0.0
  0
LINE
  5
5ED
102
{ACAD_REACTORS
330
757
102
}
330
1F
100
AcDbEntity
  8
実線
100
AcDbLine
 10
1229.183336478802
 20
425.5371858162346
 30
0.0
 11
1255.183336478802
 21
416.3371858162348
 31
0.0
  0
LINE
  5
5EE
102
{ACAD_REACTORS
330
757
102
}
330
1F
100
AcDbEntity
  8
実線
100
AcDbLine
 10
1255.183336478802
 20
416.3371858162348
 30
0.0
 11
1288.183336478802
 21
416.3371858162348
 31
0.0
  0
LINE
  5
5EF
102
{ACAD_REACTORS
330
757
102
}
330
1F
100
AcDbEntity
  8
実線
100
AcDbLine
 10
1229.183336478802
 20
502.5371858162348
 30
0.0
 11
1229.183336478802
 21
425.5371858162346
 31
0.0
  0
LINE
  5
5F0
102
{ACAD_REACTORS
330
757
102
}
330
1F
100
AcDbEntity
  8
実線
100
AcDbLine
 10
1314.183336478802
 20
425.5371858162346
 30
0.0
 11
1314.183336478802
 21
502.5371858162348
 31
0.0
  0
LINE
  5
5F1
102
{ACAD_REACTORS
330
757
102
}
330
1F
100
AcDbEntity
  8
実線
100
AcDbLine
 10
1254.683336478802
 20
549.2371858162345
 30
0.0
 11
1254.683336478802
 21
542.2371858162347
 31
0.0
  0
LINE
  5
5F2
102
{ACAD_REACTORS
330
757
102
}
330
1F
100
AcDbEntity
  8
実線
100
AcDbLine
 10
1288.683336478802
 20
542.2371858162347
 30
0.0
 11
1288.683336478802
 21
549.2371858162345
 31
0.0
  0
LINE
  5
5F3
102
{ACAD_REACTORS
330
757
102
}
330
1F
100
AcDbEntity
  8
実線
100
AcDbLine
 10
1225.683336478802
 20
560.2371858162346
 30
0.0
 11
1225.683336478802
 21
549.2371858162345
 31
0.0
  0
LINE
  5
5F4
102
{ACAD_REACTORS
330
757
102
}
330
1F
100
AcDbEntity
  8
実線
100
AcDbLine
 10
1317.683336478802
 20
549.2371858162345
 30
0.0
 11
1317.683336478802
 21
560.2371858162346
 31
0.0
  0
LINE
  5
5F5
102
{ACAD_REACTORS
330
757
102
}
330
1F
100
AcDbEntity
  8
実線
100
AcDbLine
 10
1225.683336478802
 20
549.2371858162345
 30
0.0
 11
1317.683336478802
 21
549.2371858162345
 31
0.0
  0
LINE
  5
5F6
102
{ACAD_REACTORS
330
757
102
}
330
1F
100
AcDbEntity
  8
実線
100
AcDbLine
 10
1339.683336478803
 20
856.9871858162345
 30
0.0
 11
1339.683336478803
 21
793.4871858162346
 31
0.0
  0
LINE
  5
5F7
102
{ACAD_REACTORS
330
757
102
}
330
1F
100
AcDbEntity
  8
実線
100
AcDbLine
 10
1332.463025656642
 20
793.4871858162346
 30
0.0
 11
1339.683336478803
 21
793.4871858162346
 31
0.0
  0
LINE
  5
5F8
102
{ACAD_REACTORS
330
757
102
}
330
1F
100
AcDbEntity
  8
実線
100
AcDbLine
 10
1339.683336478803
 20
856.9871858162345
 30
0.0
 11
1321.543239793289
 21
856.9871858162345
 31
0.0
  0
LINE
  5
5F9
102
{ACAD_REACTORS
330
757
102
}
330
1F
100
AcDbEntity
  8
実線
100
AcDbLine
 10
1443.804810008522
 20
808.1010908289679
 30
0.0
 11
1433.976025750029
 21
817.9298750874611
 31
0.0
  0
LINE
  5
5FA
102
{ACAD_REACTORS
330
757
102
}
330
1F
100
AcDbEntity
  8
実線
100
AcDbLine
 10
1389.074745144683
 20
773.0285944821152
 30
0.0
 11
1398.903529403177
 21
763.1998102236222
 31
0.0
  0
LINE
  5
5FB
102
{ACAD_REACTORS
330
757
102
}
330
1F
100
AcDbEntity
  8
実線
100
AcDbLine
 10
1433.976025750029
 20
817.9298750874606
 30
0.0
 11
1389.074745144683
 21
773.0285944821152
 31
0.0
  0
LINE
  5
5FC
102
{ACAD_REACTORS
330
757
102
}
330
1F
100
AcDbEntity
  8
実線
100
AcDbLine
 10
1398.903529403177
 20
763.1998102236218
 30
0.0
 11
1396.145812956549
 21
756.0580317336376
 31
0.0
  0
LINE
  5
5FD
102
{ACAD_REACTORS
330
757
102
}
330
1F
100
AcDbEntity
  8
実線
100
AcDbLine
 10
1450.946588498506
 20
810.8588072755956
 30
0.0
 11
1443.804810008522
 21
808.1010908289679
 31
0.0
  0
LINE
  5
5FE
102
{ACAD_REACTORS
330
757
102
}
330
1F
100
AcDbEntity
  8
実線
100
AcDbLine
 10
1398.903529403177
 20
763.1998102236218
 30
0.0
 11
1443.804810008522
 21
808.1010908289679
 31
0.0
  0
LINE
  5
5FF
102
{ACAD_REACTORS
330
757
102
}
330
1F
100
AcDbEntity
  8
実線
100
AcDbLine
 10
1453.421462232659
 20
808.3839335414426
 30
0.0
 11
1450.946588498506
 21
810.8588072755956
 31
0.0
  0
LINE
  5
600
102
{ACAD_REACTORS
330
757
102
}
330
1F
100
AcDbEntity
  8
実線
100
AcDbLine
 10
1396.145812956549
 20
756.0580317336376
 30
0.0
 11
1398.620686690701
 21
753.5831579994849
 31
0.0
  0
LINE
  5
601
102
{ACAD_REACTORS
330
757
102
}
330
1F
100
AcDbEntity
  8
実線
100
AcDbLine
 10
1453.421462232659
 20
808.3839335414426
 30
0.0
 11
1398.620686690701
 21
753.5831579994849
 31
0.0
  0
LINE
  5
602
102
{ACAD_REACTORS
330
757
102
}
330
1F
100
AcDbEntity
  8
実線
100
AcDbLine
 10
1450.946588498506
 20
810.8588072755956
 30
0.0
 11
1396.145812956549
 21
756.0580317336376
 31
0.0
  0
LINE
  5
603
102
{ACAD_REACTORS
330
757
102
}
330
1F
100
AcDbEntity
  8
実線
100
AcDbLine
 10
1320.683336478802
 20
867.9371858162349
 30
0.0
 11
1320.683336478802
 21
876.9371858162349
 31
0.0
  0
LINE
  5
604
102
{ACAD_REACTORS
330
757
102
}
330
1F
100
AcDbEntity
  8
実線
100
AcDbLine
 10
1222.683336478803
 20
876.9371858162349
 30
0.0
 11
1222.683336478803
 21
867.9371858162349
 31
0.0
  0
LINE
  5
605
102
{ACAD_REACTORS
330
757
102
}
330
1F
100
AcDbEntity
  8
実線
100
AcDbLine
 10
1229.683336478803
 20
861.2371858162349
 30
0.0
 11
1313.683336478802
 21
861.2371858162349
 31
0.0
  0
LINE
  5
606
102
{ACAD_REACTORS
330
757
102
}
330
1F
100
AcDbEntity
  8
実線
100
AcDbLine
 10
1222.683336478803
 20
867.9371858162349
 30
0.0
 11
1320.683336478802
 21
867.9371858162349
 31
0.0
  0
LINE
  5
607
102
{ACAD_REACTORS
330
757
102
}
330
1F
100
AcDbEntity
  8
実線
100
AcDbLine
 10
1313.683336478802
 20
861.2371858162349
 30
0.0
 11
1320.683336478802
 21
867.9371858162349
 31
0.0
  0
LINE
  5
608
102
{ACAD_REACTORS
330
757
102
}
330
1F
100
AcDbEntity
  8
実線
100
AcDbLine
 10
1222.683336478803
 20
867.9371858162349
 30
0.0
 11
1229.683336478803
 21
861.2371858162349
 31
0.0
  0
ARC
  5
609
102
{ACAD_REACTORS
330
757
102
}
330
1F
100
AcDbEntity
  8
実線
100
AcDbCircle
 10
1339.683336478803
 20
723.6371858162345
 30
0.0
 40
133.35
100
AcDbArc
 50
45.00000000000927
 51
90.0
  0
ARC
  5
60A
102
{ACAD_REACTORS
330
757
102
}
330
1F
100
AcDbEntity
  8
実線
100
AcDbCircle
 10
1339.683336478803
 20
723.6371858162345
 30
0.0
 40
69.84999999999999
100
AcDbArc
 50
45.00000000000927
 51
90.0
  0
LINE
  5
60B
102
{ACAD_REACTORS
330
757
102
}
330
1F
100
AcDbEntity
  8
実線
100
AcDbLine
 10
1227.683336478802
 20
542.2371858162347
 30
0.0
 11
1315.683336478802
 21
542.2371858162347
 31
0.0
  0
LINE
  5
60C
102
{ACAD_REACTORS
330
757
102
}
330
1F
100
AcDbEntity
  8
実線
100
AcDbLine
 10
1314.983336478803
 20
538.5371858162346
 30
0.0
 11
1315.683336478802
 21
542.2371858162347
 31
0.0
  0
LINE
  5
60D
102
{ACAD_REACTORS
330
757
102
}
330
1F
100
AcDbEntity
  8
実線
100
AcDbLine
 10
1227.683336478802
 20
542.2371858162347
 30
0.0
 11
1228.383336478802
 21
538.5371858162346
 31
0.0
  0
LINE
  5
60E
102
{ACAD_REACTORS
330
757
102
}
330
1F
100
AcDbEntity
  8
実線
100
AcDbLine
 10
1228.383336478802
 20
538.5371858162346
 30
0.0
 11
1314.983336478803
 21
538.5371858162346
 31
0.0
  0
LINE
  5
60F
102
{ACAD_REACTORS
330
757
102
}
330
1F
100
AcDbEntity
  8
実線
100
AcDbLine
 10
1228.383336478802
 20
538.5371858162346
 30
0.0
 11
1228.383336478802
 21
502.5371858162348
 31
0.0
  0
LINE
  5
610
102
{ACAD_REACTORS
330
757
102
}
330
1F
100
AcDbEntity
  8
実線
100
AcDbLine
 10
1314.983336478803
 20
502.5371858162348
 30
0.0
 11
1314.983336478803
 21
538.5371858162346
 31
0.0
  0
LINE
  5
611
102
{ACAD_REACTORS
330
757
102
}
330
1F
100
AcDbEntity
  8
実線
100
AcDbLine
 10
1228.383336478802
 20
502.5371858162348
 30
0.0
 11
1314.983336478803
 21
502.5371858162348
 31
0.0
  0
ARC
  5
612
102
{ACAD_REACTORS
330
757
102
}
330
1F
100
AcDbEntity
  8
実線
100
AcDbCircle
 10
1266.983336478803
 20
719.7371858162347
 30
0.0
 40
66.99999999999993
100
AcDbArc
 50
0.0
 51
50.23341593083031
  0
LINE
  5
613
102
{ACAD_REACTORS
330
757
102
}
330
1F
100
AcDbEntity
  8
実線
100
AcDbLine
 10
1333.983336478803
 20
668.2371858162346
 30
0.0
 11
1333.983336478803
 21
719.7371858162347
 31
0.0
  0
ARC
  5
614
102
{ACAD_REACTORS
330
757
102
}
330
1F
100
AcDbEntity
  8
実線
100
AcDbCircle
 10
1266.983336478803
 20
719.7371858162347
 30
0.0
 40
53.0
100
AcDbArc
 50
14.75681560632998
 51
76.33609100305434
  0
LINE
  5
615
102
{ACAD_REACTORS
330
757
102
}
330
1F
100
AcDbEntity
  8
実線
100
AcDbLine
 10
1209.383336478802
 20
668.2371858162346
 30
0.0
 11
1209.383336478802
 21
719.7371858162347
 31
0.0
  0
ARC
  5
616
102
{ACAD_REACTORS
330
757
102
}
330
1F
100
AcDbEntity
  8
実線
100
AcDbCircle
 10
1276.383336478802
 20
719.7371858162347
 30
0.0
 40
66.99999999999993
100
AcDbArc
 50
129.7665840691696
 51
180.0
  0
ARC
  5
617
102
{ACAD_REACTORS
330
757
102
}
330
1F
100
AcDbEntity
  8
実線
100
AcDbCircle
 10
1276.383336478802
 20
719.7371858162347
 30
0.0
 40
53.0
100
AcDbArc
 50
103.6639089969457
 51
165.24318439367
  0
LINE
  5
618
102
{ACAD_REACTORS
330
757
102
}
330
1F
100
AcDbEntity
  8
実線
100
AcDbLine
 10
1319.82635258706
 20
733.2371858162346
 30
0.0
 11
1223.540320370544
 21
733.2371858162346
 31
0.0
  0
LINE
  5
619
102
{ACAD_REACTORS
330
757
102
}
330
1F
100
AcDbEntity
  8
実線
100
AcDbLine
 10
1319.82635258706
 20
733.2371858162346
 30
0.0
 11
1319.82635258706
 21
668.2371858162346
 31
0.0
  0
LINE
  5
61A
102
{ACAD_REACTORS
330
757
102
}
330
1F
100
AcDbEntity
  8
実線
100
AcDbLine
 10
1223.540320370544
 20
668.2371858162346
 30
0.0
 11
1223.540320370544
 21
733.2371858162346
 31
0.0
  0
LINE
  5
61B
102
{ACAD_REACTORS
330
757
102
}
330
1F
100
AcDbEntity
  8
実線
100
AcDbLine
 10
1216.683336478803
 20
845.2371858162345
 30
0.0
 11
1216.683336478803
 21
799.7371858162346
 31
0.0
  0
ARC
  5
61C
102
{ACAD_REACTORS
330
757
102
}
330
1F
100
AcDbEntity
  8
実線
100
AcDbCircle
 10
1310.683336478803
 20
845.2371858162345
 30
0.0
 40
16.0
100
AcDbArc
 50
47.2544307753452
 51
90.0
  0
ARC
  5
61D
102
{ACAD_REACTORS
330
757
102
}
330
1F
100
AcDbEntity
  8
実線
100
AcDbCircle
 10
1232.683336478803
 20
845.2371858162345
 30
0.0
 40
16.0
100
AcDbArc
 50
90.0
 51
180.0
  0
LINE
  5
61E
102
{ACAD_REACTORS
330
757
102
}
330
1F
100
AcDbEntity
  8
実線
100
AcDbLine
 10
1332.463025656642
 20
799.7371858162346
 30
0.0
 11
1298.493308628744
 21
799.7371858162346
 31
0.0
  0
LINE
  5
61F
102
{ACAD_REACTORS
330
757
102
}
330
1F
100
AcDbEntity
  8
実線
100
AcDbLine
 10
1332.463025656642
 20
784.7371858162346
 30
0.0
 11
1332.463025656642
 21
799.7371858162346
 31
0.0
  0
LINE
  5
620
102
{ACAD_REACTORS
330
757
102
}
330
1F
100
AcDbEntity
  8
実線
100
AcDbLine
 10
1210.903647300964
 20
799.7371858162346
 30
0.0
 11
1210.903647300964
 21
784.7371858162346
 31
0.0
  0
LINE
  5
621
102
{ACAD_REACTORS
330
757
102
}
330
1F
100
AcDbEntity
  8
実線
100
AcDbLine
 10
1210.903647300964
 20
799.7371858162346
 30
0.0
 11
1244.873364328861
 21
799.7371858162346
 31
0.0
  0
LINE
  5
622
102
{ACAD_REACTORS
330
757
102
}
330
1F
100
AcDbEntity
  8
実線
100
AcDbLine
 10
1298.493308628744
 20
799.7371858162346
 30
0.0
 11
1298.493308628744
 21
784.7371858162346
 31
0.0
  0
LINE
  5
623
102
{ACAD_REACTORS
330
757
102
}
330
1F
100
AcDbEntity
  8
実線
100
AcDbLine
 10
1244.873364328861
 20
799.7371858162346
 30
0.0
 11
1244.873364328861
 21
784.7371858162346
 31
0.0
  0
LINE
  5
624
102
{ACAD_REACTORS
330
757
102
}
330
1F
100
AcDbEntity
  8
実線
100
AcDbLine
 10
1341.183336478802
 20
560.2371858162346
 30
0.0
 11
1202.183336479574
 21
560.2371858162346
 31
0.0
  0
ARC
  5
625
102
{ACAD_REACTORS
330
757
102
}
330
1F
100
AcDbEntity
  8
実線
100
AcDbCircle
 10
1202.183336478802
 20
563.2371858162346
 30
0.0
 40
3.0
100
AcDbArc
 50
180.0
 51
270.0
  0
ARC
  5
626
102
{ACAD_REACTORS
330
757
102
}
330
1F
100
AcDbEntity
  8
実線
100
AcDbCircle
 10
1341.183336478802
 20
563.2371858162346
 30
0.0
 40
3.0
100
AcDbArc
 50
270.0
 51
0.0
  0
LINE
  5
627
102
{ACAD_REACTORS
330
757
102
}
330
1F
100
AcDbEntity
  8
実線
100
AcDbLine
 10
1199.183336478802
 20
565.2371858162346
 30
0.0
 11
1199.183336478802
 21
563.2371858162346
 31
0.0
  0
LINE
  5
628
102
{ACAD_REACTORS
330
757
102
}
330
1F
100
AcDbEntity
  8
実線
100
AcDbLine
 10
1344.183336478802
 20
563.2371858162346
 30
0.0
 11
1344.183336478802
 21
565.2371858162346
 31
0.0
  0
LINE
  5
629
102
{ACAD_REACTORS
330
757
102
}
330
1F
100
AcDbEntity
  8
実線
100
AcDbLine
 10
1396.683336478803
 20
876.9371858162349
 30
0.0
 11
1146.683336478803
 21
876.9371858162349
 31
0.0
  0
LINE
  5
62A
102
{ACAD_REACTORS
330
757
102
}
330
1F
100
AcDbEntity
  8
実線
100
AcDbLine
 10
1396.683336478803
 20
876.9371858162349
 30
0.0
 11
1396.683336478803
 21
896.9371858162348
 31
0.0
  0
LINE
  5
62B
102
{ACAD_REACTORS
330
757
102
}
330
1F
100
AcDbEntity
  8
実線
100
AcDbLine
 10
1146.683336478803
 20
896.9371858162348
 30
0.0
 11
1146.683336478803
 21
876.9371858162349
 31
0.0
  0
LINE
  5
62C
102
{ACAD_REACTORS
330
757
102
}
330
1F
100
AcDbEntity
  8
実線
100
AcDbLine
 10
1396.683336478803
 20
896.9371858162348
 30
0.0
 11
1146.683336478803
 21
896.9371858162348
 31
0.0
  0
LINE
  5
62D
102
{ACAD_REACTORS
330
758
102
}
330
1F
100
AcDbEntity
  8
実線
100
AcDbLine
 10
979.1833364787935
 20
668.2371858162346
 30
0.0
 11
844.1833364787935
 21
668.2371858162346
 31
0.0
  0
LINE
  5
62E
102
{ACAD_REACTORS
330
758
102
}
330
1F
100
AcDbEntity
  8
実線
100
AcDbLine
 10
844.1833364787935
 20
668.2371858162346
 30
0.0
 11
844.1833364787935
 21
666.2371858162345
 31
0.0
  0
LINE
  5
62F
102
{ACAD_REACTORS
330
758
102
}
330
1F
100
AcDbEntity
  8
実線
100
AcDbLine
 10
979.1833364787935
 20
666.2371858162345
 30
0.0
 11
979.1833364787935
 21
668.2371858162346
 31
0.0
  0
LINE
  5
630
102
{ACAD_REACTORS
330
758
102
}
330
1F
100
AcDbEntity
  8
実線
100
AcDbLine
 10
984.1833364787936
 20
666.2371858162345
 30
0.0
 11
839.1833364787935
 21
666.2371858162345
 31
0.0
  0
LINE
  5
631
102
{ACAD_REACTORS
330
758
102
}
330
1F
100
AcDbEntity
  8
実線
100
AcDbLine
 10
839.1833364787935
 20
565.2371858162346
 30
0.0
 11
984.1833364787936
 21
565.2371858162346
 31
0.0
  0
LINE
  5
632
102
{ACAD_REACTORS
330
758
102
}
330
1F
100
AcDbEntity
  8
実線
100
AcDbLine
 10
839.1833364787935
 20
666.2371858162345
 30
0.0
 11
839.1833364787935
 21
565.2371858162346
 31
0.0
  0
LINE
  5
633
102
{ACAD_REACTORS
330
758
102
}
330
1F
100
AcDbEntity
  8
実線
100
AcDbLine
 10
984.1833364787936
 20
565.2371858162346
 30
0.0
 11
984.1833364787936
 21
666.2371858162345
 31
0.0
  0
LINE
  5
634
102
{ACAD_REACTORS
330
758
102
}
330
1F
100
AcDbEntity
  8
実線
100
AcDbLine
 10
972.4630256566326
 20
771.2371858162346
 30
0.0
 11
850.9036473009546
 21
771.2371858162346
 31
0.0
  0
LINE
  5
635
102
{ACAD_REACTORS
330
758
102
}
330
1F
100
AcDbEntity
  8
実線
100
AcDbLine
 10
850.9036473009546
 20
784.7371858162346
 30
0.0
 11
850.9036473009546
 21
771.2371858162346
 31
0.0
  0
LINE
  5
636
102
{ACAD_REACTORS
330
758
102
}
330
1F
100
AcDbEntity
  8
実線
100
AcDbLine
 10
972.4630256566326
 20
771.2371858162346
 30
0.0
 11
972.4630256566326
 21
784.7371858162346
 31
0.0
  0
LINE
  5
637
102
{ACAD_REACTORS
330
758
102
}
330
1F
100
AcDbEntity
  8
実線
100
AcDbLine
 10
884.8733643288529
 20
784.7371858162346
 30
0.0
 11
884.8733643288529
 21
771.2371858162346
 31
0.0
  0
LINE
  5
638
102
{ACAD_REACTORS
330
758
102
}
330
1F
100
AcDbEntity
  8
実線
100
AcDbLine
 10
938.4933086287356
 20
784.7371858162346
 30
0.0
 11
938.4933086287356
 21
771.2371858162346
 31
0.0
  0
LINE
  5
639
102
{ACAD_REACTORS
330
758
102
}
330
1F
100
AcDbEntity
  8
実線
100
AcDbLine
 10
954.1833364787935
 20
425.5371858162346
 30
0.0
 11
869.1833364787935
 21
425.5371858162346
 31
0.0
  0
LINE
  5
63A
102
{ACAD_REACTORS
330
758
102
}
330
1F
100
AcDbEntity
  8
実線
100
AcDbLine
 10
895.1833364787935
 20
416.3371858162348
 30
0.0
 11
928.1833364787935
 21
416.3371858162348
 31
0.0
  0
LINE
  5
63B
102
{ACAD_REACTORS
330
758
102
}
330
1F
100
AcDbEntity
  8
実線
100
AcDbLine
 10
928.1833364787935
 20
416.3371858162348
 30
0.0
 11
954.1833364787935
 21
425.5371858162346
 31
0.0
  0
LINE
  5
63C
102
{ACAD_REACTORS
330
758
102
}
330
1F
100
AcDbEntity
  8
実線
100
AcDbLine
 10
869.1833364787935
 20
425.5371858162346
 30
0.0
 11
895.1833364787935
 21
416.3371858162348
 31
0.0
  0
LINE
  5
63D
102
{ACAD_REACTORS
330
758
102
}
330
1F
100
AcDbEntity
  8
実線
100
AcDbLine
 10
869.1833364787935
 20
502.5371858162348
 30
0.0
 11
869.1833364787935
 21
425.5371858162346
 31
0.0
  0
LINE
  5
63E
102
{ACAD_REACTORS
330
758
102
}
330
1F
100
AcDbEntity
  8
実線
100
AcDbLine
 10
954.1833364787935
 20
425.5371858162346
 30
0.0
 11
954.1833364787935
 21
502.5371858162348
 31
0.0
  0
LINE
  5
63F
102
{ACAD_REACTORS
330
758
102
}
330
1F
100
AcDbEntity
  8
実線
100
AcDbLine
 10
894.6833364787934
 20
549.2371858162345
 30
0.0
 11
894.6833364787934
 21
542.2371858162347
 31
0.0
  0
LINE
  5
640
102
{ACAD_REACTORS
330
758
102
}
330
1F
100
AcDbEntity
  8
実線
100
AcDbLine
 10
928.6833364787936
 20
542.2371858162347
 30
0.0
 11
928.6833364787936
 21
549.2371858162345
 31
0.0
  0
LINE
  5
641
102
{ACAD_REACTORS
330
758
102
}
330
1F
100
AcDbEntity
  8
実線
100
AcDbLine
 10
865.6833364787935
 20
549.2371858162345
 30
0.0
 11
957.6833364787935
 21
549.2371858162345
 31
0.0
  0
LINE
  5
642
102
{ACAD_REACTORS
330
758
102
}
330
1F
100
AcDbEntity
  8
実線
100
AcDbLine
 10
865.6833364787935
 20
560.2371858162346
 30
0.0
 11
865.6833364787935
 21
549.2371858162345
 31
0.0
  0
LINE
  5
643
102
{ACAD_REACTORS
330
758
102
}
330
1F
100
AcDbEntity
  8
実線
100
AcDbLine
 10
957.6833364787935
 20
549.2371858162345
 30
0.0
 11
957.6833364787935
 21
560.2371858162346
 31
0.0
  0
ELLIPSE
  5
644
102
{ACAD_REACTORS
330
758
102
}
330
1F
100
AcDbEntity
  8
実線
100
AcDbEllipse
 10
911.6833364788035
 20
780.9835457704636
 30
0.0
 11
38.75
 21
0.0
 31
0.0
210
0.0
220
0.0
230
1.0
 40
0.7071067811865476
 41
5.068238828558518
 42
5.919520722159436
  0
ELLIPSE
  5
645
102
{ACAD_REACTORS
330
758
102
}
330
1F
100
AcDbEntity
  8
実線
100
AcDbEllipse
 10
911.6833364788035
 20
780.9835457704636
 30
0.0
 11
38.75
 21
0.0
 31
0.0
210
0.0
220
0.0
230
1.0
 40
0.7071067811865476
 41
3.505257238609943
 42
4.356539132210288
  0
ELLIPSE
  5
646
102
{ACAD_REACTORS
330
758
102
}
330
1F
100
AcDbEntity
  8
実線
100
AcDbEllipse
 10
911.6833364788035
 20
783.4584195046167
 30
0.0
 11
38.75
 21
0.0
 31
0.0
210
0.0
220
0.0
230
1.0
 40
0.7071067811865476
 41
5.068238828558518
 42
5.820867137073771
  0
ELLIPSE
  5
647
102
{ACAD_REACTORS
330
758
102
}
330
1F
100
AcDbEntity
  8
実線
100
AcDbEllipse
 10
911.6833364788035
 20
783.4584195046167
 30
0.0
 11
38.75
 21
0.0
 31
0.0
210
0.0
220
0.0
230
1.0
 40
0.7071067811865476
 41
3.603910823695607
 42
4.356539132210288
  0
ELLIPSE
  5
648
102
{ACAD_REACTORS
330
758
102
}
330
1F
100
AcDbEntity
  8
実線
100
AcDbEllipse
 10
911.6833364788035
 20
785.6504505262952
 30
0.0
 11
31.75
 21
0.0
 31
0.0
210
0.0
220
0.0
230
1.0
 40
0.7071067811865476
 41
5.151568344885186
 42
5.58608400842248
  0
ELLIPSE
  5
649
102
{ACAD_REACTORS
330
758
102
}
330
1F
100
AcDbEntity
  8
実線
100
AcDbEllipse
 10
911.6833364788035
 20
785.6504505262952
 30
0.0
 11
31.75
 21
0.0
 31
0.0
210
0.0
220
0.0
230
1.0
 40
0.7071067811865476
 41
3.838693952346897
 42
4.273209615883473
  0
LINE
  5
64A
102
{ACAD_REACTORS
330
758
102
}
330
1F
100
AcDbEntity
  8
実線
100
AcDbLine
 10
953.6833364788044
 20
861.2371858162349
 30
0.0
 11
869.6833364788044
 21
861.2371858162349
 31
0.0
  0
LINE
  5
64B
102
{ACAD_REACTORS
330
758
102
}
330
1F
100
AcDbEntity
  8
実線
100
AcDbLine
 10
953.6833364788044
 20
861.2371858162349
 30
0.0
 11
960.6833364788045
 21
867.9371858162349
 31
0.0
  0
LINE
  5
64C
102
{ACAD_REACTORS
330
758
102
}
330
1F
100
AcDbEntity
  8
実線
100
AcDbLine
 10
862.6833364788044
 20
867.9371858162349
 30
0.0
 11
869.6833364788044
 21
861.2371858162349
 31
0.0
  0
LINE
  5
64D
102
{ACAD_REACTORS
330
758
102
}
330
1F
100
AcDbEntity
  8
実線
100
AcDbLine
 10
960.6833364788045
 20
867.9371858162349
 30
0.0
 11
862.6833364788044
 21
867.9371858162349
 31
0.0
  0
LINE
  5
64E
102
{ACAD_REACTORS
330
758
102
}
330
1F
100
AcDbEntity
  8
実線
100
AcDbLine
 10
960.6833364788045
 20
867.9371858162349
 30
0.0
 11
960.6833364788045
 21
876.9371858162349
 31
0.0
  0
LINE
  5
64F
102
{ACAD_REACTORS
330
758
102
}
330
1F
100
AcDbEntity
  8
実線
100
AcDbLine
 10
862.6833364788044
 20
876.9371858162349
 30
0.0
 11
862.6833364788044
 21
867.9371858162349
 31
0.0
  0
LINE
  5
650
102
{ACAD_REACTORS
330
758
102
}
330
1F
100
AcDbEntity
  8
実線
100
AcDbLine
 10
955.6833364787935
 20
542.2371858162347
 30
0.0
 11
867.6833364787935
 21
542.2371858162347
 31
0.0
  0
LINE
  5
651
102
{ACAD_REACTORS
330
758
102
}
330
1F
100
AcDbEntity
  8
実線
100
AcDbLine
 10
954.9833364787934
 20
538.5371858162346
 30
0.0
 11
955.6833364787935
 21
542.2371858162347
 31
0.0
  0
LINE
  5
652
102
{ACAD_REACTORS
330
758
102
}
330
1F
100
AcDbEntity
  8
実線
100
AcDbLine
 10
867.6833364787935
 20
542.2371858162347
 30
0.0
 11
868.3833364787936
 21
538.5371858162346
 31
0.0
  0
LINE
  5
653
102
{ACAD_REACTORS
330
758
102
}
330
1F
100
AcDbEntity
  8
実線
100
AcDbLine
 10
868.3833364787936
 20
502.5371858162348
 30
0.0
 11
954.9833364787934
 21
502.5371858162348
 31
0.0
  0
LINE
  5
654
102
{ACAD_REACTORS
330
758
102
}
330
1F
100
AcDbEntity
  8
実線
100
AcDbLine
 10
954.9833364787934
 20
538.5371858162346
 30
0.0
 11
868.3833364787936
 21
538.5371858162346
 31
0.0
  0
LINE
  5
655
102
{ACAD_REACTORS
330
758
102
}
330
1F
100
AcDbEntity
  8
実線
100
AcDbLine
 10
868.3833364787936
 20
538.5371858162346
 30
0.0
 11
868.3833364787936
 21
502.5371858162348
 31
0.0
  0
LINE
  5
656
102
{ACAD_REACTORS
330
758
102
}
330
1F
100
AcDbEntity
  8
実線
100
AcDbLine
 10
954.9833364787934
 20
502.5371858162348
 30
0.0
 11
954.9833364787934
 21
538.5371858162346
 31
0.0
  0
LINE
  5
657
102
{ACAD_REACTORS
330
758
102
}
330
1F
100
AcDbEntity
  8
実線
100
AcDbLine
 10
898.1833364787934
 20
733.2371858162346
 30
0.0
 11
861.6833364787934
 21
733.2371858162346
 31
0.0
  0
LINE
  5
658
102
{ACAD_REACTORS
330
758
102
}
330
1F
100
AcDbEntity
  8
実線
100
AcDbLine
 10
861.6833364787934
 20
733.2371858162346
 30
0.0
 11
861.6833364787934
 21
668.2371858162346
 31
0.0
  0
LINE
  5
659
102
{ACAD_REACTORS
330
758
102
}
330
1F
100
AcDbEntity
  8
実線
100
AcDbLine
 10
961.6833364787934
 20
668.2371858162346
 30
0.0
 11
961.6833364787934
 21
733.2371858162346
 31
0.0
  0
LINE
  5
65A
102
{ACAD_REACTORS
330
758
102
}
330
1F
100
AcDbEntity
  8
実線
100
AcDbLine
 10
961.6833364787934
 20
733.2371858162346
 30
0.0
 11
925.1833364787936
 21
733.2371858162346
 31
0.0
  0
LINE
  5
65B
102
{ACAD_REACTORS
330
758
102
}
330
1F
100
AcDbEntity
  8
実線
100
AcDbLine
 10
925.1833364787936
 20
771.2371858162346
 30
0.0
 11
925.1833364787936
 21
668.2371858162346
 31
0.0
  0
LINE
  5
65C
102
{ACAD_REACTORS
330
758
102
}
330
1F
100
AcDbEntity
  8
実線
100
AcDbLine
 10
898.1833364787934
 20
771.2371858162346
 30
0.0
 11
898.1833364787934
 21
668.2371858162346
 31
0.0
  0
LINE
  5
65D
102
{ACAD_REACTORS
330
758
102
}
330
1F
100
AcDbEntity
  8
実線
100
AcDbLine
 10
972.4630256566436
 20
784.7371858162346
 30
0.0
 11
850.9036473009658
 21
784.7371858162346
 31
0.0
  0
LINE
  5
65E
102
{ACAD_REACTORS
330
758
102
}
330
1F
100
AcDbEntity
  8
実線
100
AcDbLine
 10
856.6833364788044
 20
845.2371858162345
 30
0.0
 11
856.6833364788044
 21
799.7371858162346
 31
0.0
  0
LINE
  5
65F
102
{ACAD_REACTORS
330
758
102
}
330
1F
100
AcDbEntity
  8
実線
100
AcDbLine
 10
966.6833364788045
 20
799.7371858162346
 30
0.0
 11
966.6833364788045
 21
845.2371858162345
 31
0.0
  0
ARC
  5
660
102
{ACAD_REACTORS
330
758
102
}
330
1F
100
AcDbEntity
  8
実線
100
AcDbCircle
 10
950.6833364788045
 20
845.2371858162345
 30
0.0
 40
16.0
100
AcDbArc
 50
0.0
 51
90.0
  0
ARC
  5
661
102
{ACAD_REACTORS
330
758
102
}
330
1F
100
AcDbEntity
  8
実線
100
AcDbCircle
 10
872.6833364788044
 20
845.2371858162345
 30
0.0
 40
16.0
100
AcDbArc
 50
90.0
 51
180.0
  0
LINE
  5
662
102
{ACAD_REACTORS
330
758
102
}
330
1F
100
AcDbEntity
  8
実線
100
AcDbLine
 10
850.9036473009658
 20
799.7371858162346
 30
0.0
 11
850.9036473009658
 21
784.7371858162346
 31
0.0
  0
LINE
  5
663
102
{ACAD_REACTORS
330
758
102
}
330
1F
100
AcDbEntity
  8
実線
100
AcDbLine
 10
850.9036473009658
 20
799.7371858162346
 30
0.0
 11
884.8733643288626
 21
799.7371858162346
 31
0.0
  0
LINE
  5
664
102
{ACAD_REACTORS
330
758
102
}
330
1F
100
AcDbEntity
  8
実線
100
AcDbLine
 10
972.4630256566436
 20
799.7371858162346
 30
0.0
 11
938.4933086287455
 21
799.7371858162346
 31
0.0
  0
LINE
  5
665
102
{ACAD_REACTORS
330
758
102
}
330
1F
100
AcDbEntity
  8
実線
100
AcDbLine
 10
972.4630256566436
 20
784.7371858162346
 30
0.0
 11
972.4630256566436
 21
799.7371858162346
 31
0.0
  0
LINE
  5
666
102
{ACAD_REACTORS
330
758
102
}
330
1F
100
AcDbEntity
  8
実線
100
AcDbLine
 10
884.8733643288626
 20
799.7371858162346
 30
0.0
 11
884.8733643288626
 21
784.7371858162346
 31
0.0
  0
LINE
  5
667
102
{ACAD_REACTORS
330
758
102
}
330
1F
100
AcDbEntity
  8
実線
100
AcDbLine
 10
938.4933086287455
 20
799.7371858162346
 30
0.0
 11
938.4933086287455
 21
784.7371858162346
 31
0.0
  0
LINE
  5
668
102
{ACAD_REACTORS
330
758
102
}
330
1F
100
AcDbEntity
  8
実線
100
AcDbLine
 10
839.1833364787935
 20
565.2371858162346
 30
0.0
 11
839.1833364787935
 21
563.2371858162346
 31
0.0
  0
LINE
  5
669
102
{ACAD_REACTORS
330
758
102
}
330
1F
100
AcDbEntity
  8
実線
100
AcDbLine
 10
984.1833364787936
 20
563.2371858162346
 30
0.0
 11
984.1833364787936
 21
565.2371858162346
 31
0.0
  0
LINE
  5
66A
102
{ACAD_REACTORS
330
758
102
}
330
1F
100
AcDbEntity
  8
実線
100
AcDbLine
 10
981.1833364787934
 20
560.2371858162346
 30
0.0
 11
842.1833364787936
 21
560.2371858162346
 31
0.0
  0
ARC
  5
66B
102
{ACAD_REACTORS
330
758
102
}
330
1F
100
AcDbEntity
  8
実線
100
AcDbCircle
 10
842.1833364787936
 20
563.2371858162346
 30
0.0
 40
3.0
100
AcDbArc
 50
180.0
 51
270.0
  0
ARC
  5
66C
102
{ACAD_REACTORS
330
758
102
}
330
1F
100
AcDbEntity
  8
実線
100
AcDbCircle
 10
981.1833364787934
 20
563.2371858162346
 30
0.0
 40
3.0
100
AcDbArc
 50
270.0
 51
0.0
  0
LINE
  5
66D
102
{ACAD_REACTORS
330
758
102
}
330
1F
100
AcDbEntity
  8
実線
100
AcDbLine
 10
1036.683336478804
 20
876.9371858162349
 30
0.0
 11
1036.683336478804
 21
896.9371858162348
 31
0.0
  0
LINE
  5
66E
102
{ACAD_REACTORS
330
758
102
}
330
1F
100
AcDbEntity
  8
実線
100
AcDbLine
 10
786.6833364788035
 20
896.9371858162348
 30
0.0
 11
786.6833364788035
 21
876.9371858162349
 31
0.0
  0
LINE
  5
66F
102
{ACAD_REACTORS
330
758
102
}
330
1F
100
AcDbEntity
  8
実線
100
AcDbLine
 10
1036.683336478804
 20
896.9371858162348
 30
0.0
 11
786.6833364788035
 21
896.9371858162348
 31
0.0
  0
LINE
  5
670
102
{ACAD_REACTORS
330
758
102
}
330
1F
100
AcDbEntity
  8
実線
100
AcDbLine
 10
1036.683336478804
 20
876.9371858162349
 30
0.0
 11
786.6833364788035
 21
876.9371858162349
 31
0.0
  0
LINE
  5
671
102
{ACAD_REACTORS
330
765
102
}
330
1F
100
AcDbEntity
  8
実線
100
AcDbLine
 10
124.1833364788137
 20
668.2371858162346
 30
0.0
 11
124.1833364788137
 21
666.2371858162345
 31
0.0
  0
LINE
  5
672
102
{ACAD_REACTORS
330
765
102
}
330
1F
100
AcDbEntity
  8
実線
100
AcDbLine
 10
259.1833364788138
 20
666.2371858162345
 30
0.0
 11
259.1833364788138
 21
668.2371858162346
 31
0.0
  0
LINE
  5
673
102
{ACAD_REACTORS
330
765
102
}
330
1F
100
AcDbEntity
  8
実線
100
AcDbLine
 10
124.1833364788137
 20
668.2371858162346
 30
0.0
 11
259.1833364788138
 21
668.2371858162346
 31
0.0
  0
LINE
  5
674
102
{ACAD_REACTORS
330
765
102
}
330
1F
100
AcDbEntity
  8
実線
100
AcDbLine
 10
119.1833364788139
 20
666.2371858162345
 30
0.0
 11
119.1833364788139
 21
565.2371858162346
 31
0.0
  0
LINE
  5
675
102
{ACAD_REACTORS
330
765
102
}
330
1F
100
AcDbEntity
  8
実線
100
AcDbLine
 10
264.1833364788138
 20
565.2371858162346
 30
0.0
 11
264.1833364788138
 21
666.2371858162345
 31
0.0
  0
LINE
  5
676
102
{ACAD_REACTORS
330
765
102
}
330
1F
100
AcDbEntity
  8
実線
100
AcDbLine
 10
119.1833364788138
 20
565.2371858162346
 30
0.0
 11
264.1833364788138
 21
565.2371858162346
 31
0.0
  0
LINE
  5
677
102
{ACAD_REACTORS
330
765
102
}
330
1F
100
AcDbEntity
  8
実線
100
AcDbLine
 10
119.1833364788138
 20
666.2371858162345
 30
0.0
 11
264.1833364788138
 21
666.2371858162345
 31
0.0
  0
LINE
  5
678
102
{ACAD_REACTORS
330
765
102
}
330
1F
100
AcDbEntity
  8
実線
100
AcDbLine
 10
130.9036473009749
 20
784.7371858162346
 30
0.0
 11
130.9036473009749
 21
771.2371858162346
 31
0.0
  0
LINE
  5
679
102
{ACAD_REACTORS
330
765
102
}
330
1F
100
AcDbEntity
  8
実線
100
AcDbLine
 10
130.9036473009749
 20
771.2371858162346
 30
0.0
 11
155.4676018419747
 21
771.2371858162346
 31
0.0
  0
LINE
  5
67A
102
{ACAD_REACTORS
330
765
102
}
330
1F
100
AcDbEntity
  8
実線
100
AcDbLine
 10
252.4630256566531
 20
771.2371858162346
 30
0.0
 11
227.8990711156323
 21
771.2371858162346
 31
0.0
  0
LINE
  5
67B
102
{ACAD_REACTORS
330
765
102
}
330
1F
100
AcDbEntity
  8
実線
100
AcDbLine
 10
252.4630256566531
 20
784.7371858162346
 30
0.0
 11
230.3911136487799
 21
784.7371858162346
 31
0.0
  0
LINE
  5
67C
102
{ACAD_REACTORS
330
765
102
}
330
1F
100
AcDbEntity
  8
実線
100
AcDbLine
 10
252.4630256566531
 20
771.2371858162346
 30
0.0
 11
252.4630256566531
 21
784.7371858162346
 31
0.0
  0
LINE
  5
67D
102
{ACAD_REACTORS
330
765
102
}
330
1F
100
AcDbEntity
  8
実線
100
AcDbLine
 10
208.1833364788139
 20
416.3371858162348
 30
0.0
 11
234.1833364788139
 21
425.5371858162346
 31
0.0
  0
LINE
  5
67E
102
{ACAD_REACTORS
330
765
102
}
330
1F
100
AcDbEntity
  8
実線
100
AcDbLine
 10
149.1833364788137
 20
425.5371858162346
 30
0.0
 11
175.1833364788138
 21
416.3371858162348
 31
0.0
  0
LINE
  5
67F
102
{ACAD_REACTORS
330
765
102
}
330
1F
100
AcDbEntity
  8
実線
100
AcDbLine
 10
234.1833364788139
 20
425.5371858162346
 30
0.0
 11
149.1833364788137
 21
425.5371858162346
 31
0.0
  0
LINE
  5
680
102
{ACAD_REACTORS
330
765
102
}
330
1F
100
AcDbEntity
  8
実線
100
AcDbLine
 10
175.1833364788138
 20
416.3371858162348
 30
0.0
 11
208.1833364788139
 21
416.3371858162348
 31
0.0
  0
LINE
  5
681
102
{ACAD_REACTORS
330
765
102
}
330
1F
100
AcDbEntity
  8
実線
100
AcDbLine
 10
149.1833364788137
 20
502.5371858162348
 30
0.0
 11
149.1833364788137
 21
425.5371858162346
 31
0.0
  0
LINE
  5
682
102
{ACAD_REACTORS
330
765
102
}
330
1F
100
AcDbEntity
  8
実線
100
AcDbLine
 10
234.1833364788139
 20
425.5371858162346
 30
0.0
 11
234.1833364788139
 21
502.5371858162348
 31
0.0
  0
LINE
  5
683
102
{ACAD_REACTORS
330
765
102
}
330
1F
100
AcDbEntity
  8
実線
100
AcDbLine
 10
174.6833364788139
 20
549.2371858162345
 30
0.0
 11
174.6833364788139
 21
542.2371858162347
 31
0.0
  0
LINE
  5
684
102
{ACAD_REACTORS
330
765
102
}
330
1F
100
AcDbEntity
  8
実線
100
AcDbLine
 10
208.6833364788139
 20
542.2371858162347
 30
0.0
 11
208.6833364788139
 21
549.2371858162345
 31
0.0
  0
LINE
  5
685
102
{ACAD_REACTORS
330
765
102
}
330
1F
100
AcDbEntity
  8
実線
100
AcDbLine
 10
145.6833364788137
 20
560.2371858162346
 30
0.0
 11
145.6833364788137
 21
549.2371858162345
 31
0.0
  0
LINE
  5
686
102
{ACAD_REACTORS
330
765
102
}
330
1F
100
AcDbEntity
  8
実線
100
AcDbLine
 10
237.6833364788139
 20
549.2371858162345
 30
0.0
 11
237.6833364788139
 21
560.2371858162346
 31
0.0
  0
LINE
  5
687
102
{ACAD_REACTORS
330
765
102
}
330
1F
100
AcDbEntity
  8
実線
100
AcDbLine
 10
145.6833364788137
 20
549.2371858162345
 30
0.0
 11
237.6833364788139
 21
549.2371858162345
 31
0.0
  0
ELLIPSE
  5
688
102
{ACAD_REACTORS
330
765
102
}
330
1F
100
AcDbEntity
  8
実線
100
AcDbEllipse
 10
191.6833364788035
 20
795.4792347847878
 30
0.0
 11
31.75
 21
0.0
 31
0.0
210
0.0
220
0.0
230
1.0
 40
0.7071067811865476
 41
0.1905913349515993
 42
1.570796326794897
  0
ELLIPSE
  5
689
102
{ACAD_REACTORS
330
765
102
}
330
1F
100
AcDbEntity
  8
実線
100
AcDbEllipse
 10
191.6833364788035
 20
795.4792347847878
 30
0.0
 11
31.75
 21
0.0
 31
0.0
210
0.0
220
0.0
230
1.0
 40
0.7071067811865476
 41
1.570796326794897
 42
2.951001318638193
  0
ELLIPSE
  5
68A
102
{ACAD_REACTORS
330
765
102
}
330
1F
100
AcDbEntity
  8
実線
100
AcDbEllipse
 10
191.6833364788035
 20
780.9835457704636
 30
0.0
 11
38.75
 21
0.0
 31
0.0
210
0.0
220
0.0
230
1.0
 40
0.7071067811865476
 41
0.0
 42
1.570796326794897
  0
ELLIPSE
  5
68B
102
{ACAD_REACTORS
330
765
102
}
330
1F
100
AcDbEntity
  8
実線
100
AcDbEllipse
 10
191.6833364788035
 20
783.4584195046167
 30
0.0
 11
38.75
 21
0.0
 31
0.0
210
0.0
220
0.0
230
1.0
 40
0.7071067811865476
 41
0.0
 42
1.570796326794897
  0
LINE
  5
68C
102
{ACAD_REACTORS
330
765
102
}
330
1F
100
AcDbEntity
  8
実線
100
AcDbLine
 10
230.4333364788035
 20
780.9835457704636
 30
0.0
 11
230.4333364788035
 21
783.4584195046167
 31
0.0
  0
LINE
  5
68D
102
{ACAD_REACTORS
330
765
102
}
330
1F
100
AcDbEntity
  8
実線
100
AcDbLine
 10
152.9333364788035
 20
783.4584195046167
 30
0.0
 11
152.9333364788035
 21
780.9835457704636
 31
0.0
  0
ELLIPSE
  5
68E
102
{ACAD_REACTORS
330
765
102
}
330
1F
100
AcDbEntity
  8
実線
100
AcDbEllipse
 10
191.6833364788035
 20
780.9835457704636
 30
0.0
 11
38.75
 21
0.0
 31
0.0
210
0.0
220
0.0
230
1.0
 40
0.7071067811865476
 41
3.141592653589792
 42
6.283185307179584
  0
ELLIPSE
  5
68F
102
{ACAD_REACTORS
330
765
102
}
330
1F
100
AcDbEntity
  8
実線
100
AcDbEllipse
 10
191.6833364788035
 20
780.9835457704636
 30
0.0
 11
38.75
 21
0.0
 31
0.0
210
0.0
220
0.0
230
1.0
 40
0.7071067811865476
 41
1.570796326794897
 42
3.141592653589792
  0
ELLIPSE
  5
690
102
{ACAD_REACTORS
330
765
102
}
330
1F
100
AcDbEntity
  8
実線
100
AcDbEllipse
 10
191.6833364788035
 20
783.4584195046167
 30
0.0
 11
38.75
 21
0.0
 31
0.0
210
0.0
220
0.0
230
1.0
 40
0.7071067811865476
 41
1.570796326794897
 42
3.141592653589792
  0
LINE
  5
691
102
{ACAD_REACTORS
330
765
102
}
330
1F
100
AcDbEntity
  8
実線
100
AcDbLine
 10
233.6833364788035
 20
861.2371858162349
 30
0.0
 11
240.6833364788036
 21
867.9371858162349
 31
0.0
  0
LINE
  5
692
102
{ACAD_REACTORS
330
765
102
}
330
1F
100
AcDbEntity
  8
実線
100
AcDbLine
 10
142.6833364788035
 20
867.9371858162349
 30
0.0
 11
149.6833364788034
 21
861.2371858162349
 31
0.0
  0
LINE
  5
693
102
{ACAD_REACTORS
330
765
102
}
330
1F
100
AcDbEntity
  8
実線
100
AcDbLine
 10
149.6833364788034
 20
861.2371858162349
 30
0.0
 11
233.6833364788035
 21
861.2371858162349
 31
0.0
  0
LINE
  5
694
102
{ACAD_REACTORS
330
765
102
}
330
1F
100
AcDbEntity
  8
実線
100
AcDbLine
 10
240.6833364788036
 20
867.9371858162349
 30
0.0
 11
240.6833364788036
 21
876.9371858162349
 31
0.0
  0
LINE
  5
695
102
{ACAD_REACTORS
330
765
102
}
330
1F
100
AcDbEntity
  8
実線
100
AcDbLine
 10
142.6833364788035
 20
876.9371858162349
 30
0.0
 11
142.6833364788035
 21
867.9371858162349
 31
0.0
  0
LINE
  5
696
102
{ACAD_REACTORS
330
765
102
}
330
1F
100
AcDbEntity
  8
実線
100
AcDbLine
 10
142.6833364788035
 20
867.9371858162349
 30
0.0
 11
240.6833364788036
 21
867.9371858162349
 31
0.0
  0
ELLIPSE
  5
697
102
{ACAD_REACTORS
330
765
102
}
330
1F
100
AcDbEntity
  8
実線
100
AcDbEllipse
 10
191.6833364788035
 20
795.4792347847878
 30
0.0
 11
31.75
 21
0.0
 31
0.0
210
0.0
220
0.0
230
1.0
 40
0.7071067811865476
 41
0.1905913349515993
 42
2.951001318638193
  0
ARC
  5
698
102
{ACAD_REACTORS
330
765
102
}
330
1F
100
AcDbEntity
  8
実線
100
AcDbCircle
 10
191.6833364788035
 20
825.2371858162346
 30
0.0
 40
31.75
100
AcDbArc
 50
0.0
 51
180.0
  0
LINE
  5
699
102
{ACAD_REACTORS
330
765
102
}
330
1F
100
AcDbEntity
  8
実線
100
AcDbLine
 10
159.9333364788035
 20
825.2371858162346
 30
0.0
 11
159.9333364788035
 21
799.1666975770215
 31
0.0
  0
LINE
  5
69A
102
{ACAD_REACTORS
330
765
102
}
330
1F
100
AcDbEntity
  8
実線
100
AcDbLine
 10
223.4333364788035
 20
799.1666975770215
 30
0.0
 11
223.4333364788035
 21
825.2371858162346
 31
0.0
  0
LINE
  5
69B
102
{ACAD_REACTORS
330
765
102
}
330
1F
100
AcDbEntity
  8
実線
100
AcDbLine
 10
234.9833364788137
 20
538.5371858162346
 30
0.0
 11
235.6833364788138
 21
542.2371858162347
 31
0.0
  0
LINE
  5
69C
102
{ACAD_REACTORS
330
765
102
}
330
1F
100
AcDbEntity
  8
実線
100
AcDbLine
 10
147.6833364788137
 20
542.2371858162347
 30
0.0
 11
148.3833364788137
 21
538.5371858162346
 31
0.0
  0
LINE
  5
69D
102
{ACAD_REACTORS
330
765
102
}
330
1F
100
AcDbEntity
  8
実線
100
AcDbLine
 10
235.6833364788138
 20
542.2371858162347
 30
0.0
 11
147.6833364788137
 21
542.2371858162347
 31
0.0
  0
LINE
  5
69E
102
{ACAD_REACTORS
330
765
102
}
330
1F
100
AcDbEntity
  8
実線
100
AcDbLine
 10
148.3833364788137
 20
538.5371858162346
 30
0.0
 11
148.3833364788137
 21
502.5371858162348
 31
0.0
  0
LINE
  5
69F
102
{ACAD_REACTORS
330
765
102
}
330
1F
100
AcDbEntity
  8
実線
100
AcDbLine
 10
234.9833364788137
 20
502.5371858162348
 30
0.0
 11
234.9833364788137
 21
538.5371858162346
 31
0.0
  0
LINE
  5
6A0
102
{ACAD_REACTORS
330
765
102
}
330
1F
100
AcDbEntity
  8
実線
100
AcDbLine
 10
148.3833364788137
 20
502.5371858162348
 30
0.0
 11
234.9833364788137
 21
502.5371858162348
 31
0.0
  0
LINE
  5
6A1
102
{ACAD_REACTORS
330
765
102
}
330
1F
100
AcDbEntity
  8
実線
100
AcDbLine
 10
148.3833364788137
 20
538.5371858162346
 30
0.0
 11
234.9833364788137
 21
538.5371858162346
 31
0.0
  0
LINE
  5
6A2
102
{ACAD_REACTORS
330
765
102
}
330
1F
100
AcDbEntity
  8
実線
100
AcDbLine
 10
241.6833364788138
 20
668.2371858162346
 30
0.0
 11
241.6833364788138
 21
733.2371858162346
 31
0.0
  0
LINE
  5
6A3
102
{ACAD_REACTORS
330
765
102
}
330
1F
100
AcDbEntity
  8
実線
100
AcDbLine
 10
205.1833364788138
 20
733.2371858162346
 30
0.0
 11
241.6833364788138
 21
733.2371858162346
 31
0.0
  0
LINE
  5
6A4
102
{ACAD_REACTORS
330
765
102
}
330
1F
100
AcDbEntity
  8
実線
100
AcDbLine
 10
178.1833364788139
 20
733.2371858162346
 30
0.0
 11
141.6833364788138
 21
733.2371858162346
 31
0.0
  0
LINE
  5
6A5
102
{ACAD_REACTORS
330
765
102
}
330
1F
100
AcDbEntity
  8
実線
100
AcDbLine
 10
141.6833364788138
 20
733.2371858162346
 30
0.0
 11
141.6833364788138
 21
668.2371858162346
 31
0.0
  0
LINE
  5
6A6
102
{ACAD_REACTORS
330
765
102
}
330
1F
100
AcDbEntity
  8
実線
100
AcDbLine
 10
205.1833364788138
 20
755.2997717097875
 30
0.0
 11
205.1833364788138
 21
668.2371858162346
 31
0.0
  0
LINE
  5
6A7
102
{ACAD_REACTORS
330
765
102
}
330
1F
100
AcDbEntity
  8
実線
100
AcDbLine
 10
178.1833364788139
 20
755.2997717097821
 30
0.0
 11
178.1833364788139
 21
668.2371858162346
 31
0.0
  0
ARC
  5
6A8
102
{ACAD_REACTORS
330
765
102
}
330
1F
100
AcDbEntity
  8
実線
100
AcDbCircle
 10
230.6833364788035
 20
845.2371858162345
 30
0.0
 40
16.0
100
AcDbArc
 50
0.0
 51
90.0
  0
ARC
  5
6A9
102
{ACAD_REACTORS
330
765
102
}
330
1F
100
AcDbEntity
  8
実線
100
AcDbCircle
 10
152.6833364788035
 20
845.2371858162345
 30
0.0
 40
16.0
100
AcDbArc
 50
90.0
 51
180.0
  0
LINE
  5
6AA
102
{ACAD_REACTORS
330
765
102
}
330
1F
100
AcDbEntity
  8
実線
100
AcDbLine
 10
136.6833364788034
 20
845.2371858162345
 30
0.0
 11
136.6833364788034
 21
799.7371858162346
 31
0.0
  0
LINE
  5
6AB
102
{ACAD_REACTORS
330
765
102
}
330
1F
100
AcDbEntity
  8
実線
100
AcDbLine
 10
246.6833364788036
 20
799.7371858162346
 30
0.0
 11
246.6833364788036
 21
845.2371858162345
 31
0.0
  0
LINE
  5
6AC
102
{ACAD_REACTORS
330
765
102
}
330
1F
100
AcDbEntity
  8
実線
100
AcDbLine
 10
130.9036473009647
 20
799.7371858162346
 30
0.0
 11
130.9036473009647
 21
784.7371858162346
 31
0.0
  0
LINE
  5
6AD
102
{ACAD_REACTORS
330
765
102
}
330
1F
100
AcDbEntity
  8
実線
100
AcDbLine
 10
130.9036473009647
 20
784.7371858162346
 30
0.0
 11
152.9755593088271
 21
784.7371858162346
 31
0.0
  0
LINE
  5
6AE
102
{ACAD_REACTORS
330
765
102
}
330
1F
100
AcDbEntity
  8
実線
100
AcDbLine
 10
130.9036473009647
 20
799.7371858162346
 30
0.0
 11
159.9333364788035
 21
799.7371858162346
 31
0.0
  0
LINE
  5
6AF
102
{ACAD_REACTORS
330
765
102
}
330
1F
100
AcDbEntity
  8
実線
100
AcDbLine
 10
252.4630256566425
 20
799.7371858162346
 30
0.0
 11
223.4333364788035
 21
799.7371858162346
 31
0.0
  0
LINE
  5
6B0
102
{ACAD_REACTORS
330
765
102
}
330
1F
100
AcDbEntity
  8
実線
100
AcDbLine
 10
252.4630256566425
 20
784.7371858162346
 30
0.0
 11
252.4630256566425
 21
799.7371858162346
 31
0.0
  0
LINE
  5
6B1
102
{ACAD_REACTORS
330
765
102
}
330
1F
100
AcDbEntity
  8
実線
100
AcDbLine
 10
119.1833364788138
 20
565.2371858162346
 30
0.0
 11
119.1833364788138
 21
563.2371858162346
 31
0.0
  0
LINE
  5
6B2
102
{ACAD_REACTORS
330
765
102
}
330
1F
100
AcDbEntity
  8
実線
100
AcDbLine
 10
264.1833364788138
 20
563.2371858162346
 30
0.0
 11
264.1833364788138
 21
565.2371858162346
 31
0.0
  0
LINE
  5
6B3
102
{ACAD_REACTORS
330
765
102
}
330
1F
100
AcDbEntity
  8
実線
100
AcDbLine
 10
122.1833364788139
 20
560.2371858162346
 30
0.0
 11
261.1833364788138
 21
560.2371858162346
 31
0.0
  0
ARC
  5
6B4
102
{ACAD_REACTORS
330
765
102
}
330
1F
100
AcDbEntity
  8
実線
100
AcDbCircle
 10
122.1833364788137
 20
563.2371858162346
 30
0.0
 40
3.0
100
AcDbArc
 50
180.0
 51
270.0
  0
ARC
  5
6B5
102
{ACAD_REACTORS
330
765
102
}
330
1F
100
AcDbEntity
  8
実線
100
AcDbCircle
 10
261.1833364788138
 20
563.2371858162346
 30
0.0
 40
3.0
100
AcDbArc
 50
270.0
 51
0.0
  0
LINE
  5
6B6
102
{ACAD_REACTORS
330
765
102
}
330
1F
100
AcDbEntity
  8
実線
100
AcDbLine
 10
316.6833364788035
 20
896.9371858162348
 30
0.0
 11
66.68333647880354
 21
896.9371858162348
 31
0.0
  0
LINE
  5
6B7
102
{ACAD_REACTORS
330
765
102
}
330
1F
100
AcDbEntity
  8
実線
100
AcDbLine
 10
66.68333647880354
 20
876.9371858162349
 30
0.0
 11
316.6833364788035
 21
876.9371858162349
 31
0.0
  0
LINE
  5
6B8
102
{ACAD_REACTORS
330
765
102
}
330
1F
100
AcDbEntity
  8
実線
100
AcDbLine
 10
316.6833364788035
 20
876.9371858162349
 30
0.0
 11
316.6833364788035
 21
896.9371858162348
 31
0.0
  0
LINE
  5
6B9
102
{ACAD_REACTORS
330
765
102
}
330
1F
100
AcDbEntity
  8
実線
100
AcDbLine
 10
66.68333647880354
 20
896.9371858162348
 30
0.0
 11
66.68333647880354
 21
876.9371858162349
 31
0.0
  0
LINE
  5
6BA
102
{ACAD_REACTORS
330
759
102
}
330
1F
100
AcDbEntity
  8
実線
100
AcDbLine
 10
543.6833364788042
 20
771.1930892676365
 30
0.0
 11
543.6833364788042
 21
733.2371858162344
 31
0.0
  0
LINE
  5
6BB
102
{ACAD_REACTORS
330
759
102
}
330
1F
100
AcDbEntity
  8
実線
100
AcDbLine
 10
559.6833364788042
 20
733.2371858162344
 30
0.0
 11
559.6833364788042
 21
771.1930892676365
 31
0.0
  0
LINE
  5
6BC
102
{ACAD_REACTORS
330
759
102
}
330
1F
100
AcDbEntity
  8
実線
100
AcDbLine
 10
484.1833364788042
 20
668.2371858162345
 30
0.0
 11
484.1833364788042
 21
666.2371858162345
 31
0.0
  0
LINE
  5
6BD
102
{ACAD_REACTORS
330
759
102
}
330
1F
100
AcDbEntity
  8
実線
100
AcDbLine
 10
619.1833364788042
 20
666.2371858162345
 30
0.0
 11
619.1833364788042
 21
668.2371858162345
 31
0.0
  0
LINE
  5
6BE
102
{ACAD_REACTORS
330
759
102
}
330
1F
100
AcDbEntity
  8
実線
100
AcDbLine
 10
484.1833364788042
 20
668.2371858162345
 30
0.0
 11
619.1833364788042
 21
668.2371858162345
 31
0.0
  0
LINE
  5
6BF
102
{ACAD_REACTORS
330
759
102
}
330
1F
100
AcDbEntity
  8
実線
100
AcDbLine
 10
624.1833364788042
 20
565.2371858162345
 30
0.0
 11
479.1833364788041
 21
565.2371858162345
 31
0.0
  0
LINE
  5
6C0
102
{ACAD_REACTORS
330
759
102
}
330
1F
100
AcDbEntity
  8
実線
100
AcDbLine
 10
479.1833364788041
 20
666.2371858162345
 30
0.0
 11
479.1833364788041
 21
565.2371858162345
 31
0.0
  0
LINE
  5
6C1
102
{ACAD_REACTORS
330
759
102
}
330
1F
100
AcDbEntity
  8
実線
100
AcDbLine
 10
624.1833364788042
 20
565.2371858162345
 30
0.0
 11
624.1833364788042
 21
666.2371858162345
 31
0.0
  0
LINE
  5
6C2
102
{ACAD_REACTORS
330
759
102
}
330
1F
100
AcDbEntity
  8
実線
100
AcDbLine
 10
479.1833364788041
 20
666.2371858162345
 30
0.0
 11
624.1833364788042
 21
666.2371858162345
 31
0.0
  0
LINE
  5
6C3
102
{ACAD_REACTORS
330
759
102
}
330
1F
100
AcDbEntity
  8
実線
100
AcDbLine
 10
490.9036473009654
 20
771.2371858162344
 30
0.0
 11
612.4630256566422
 21
771.2371858162344
 31
0.0
  0
LINE
  5
6C4
102
{ACAD_REACTORS
330
759
102
}
330
1F
100
AcDbEntity
  8
実線
100
AcDbLine
 10
612.4630256566422
 20
771.2371858162344
 30
0.0
 11
612.4630256566422
 21
784.7371858162345
 31
0.0
  0
LINE
  5
6C5
102
{ACAD_REACTORS
330
759
102
}
330
1F
100
AcDbEntity
  8
実線
100
AcDbLine
 10
490.9036473009652
 20
784.7371858162345
 30
0.0
 11
490.9036473009652
 21
771.2371858162344
 31
0.0
  0
LINE
  5
6C6
102
{ACAD_REACTORS
330
759
102
}
330
1F
100
AcDbEntity
  8
実線
100
AcDbLine
 10
578.4933086287452
 20
784.7371858162345
 30
0.0
 11
578.4933086287452
 21
771.2371858162344
 31
0.0
  0
LINE
  5
6C7
102
{ACAD_REACTORS
330
759
102
}
330
1F
100
AcDbEntity
  8
実線
100
AcDbLine
 10
524.873364328863
 20
784.7371858162345
 30
0.0
 11
524.873364328863
 21
771.2371858162344
 31
0.0
  0
LINE
  5
6C8
102
{ACAD_REACTORS
330
759
102
}
330
1F
100
AcDbEntity
  8
実線
100
AcDbLine
 10
568.1833364788039
 20
416.3371858162346
 30
0.0
 11
535.1833364788041
 21
416.3371858162346
 31
0.0
  0
LINE
  5
6C9
102
{ACAD_REACTORS
330
759
102
}
330
1F
100
AcDbEntity
  8
実線
100
AcDbLine
 10
568.1833364788039
 20
416.3371858162346
 30
0.0
 11
594.1833364788042
 21
425.5371858162345
 31
0.0
  0
LINE
  5
6CA
102
{ACAD_REACTORS
330
759
102
}
330
1F
100
AcDbEntity
  8
実線
100
AcDbLine
 10
509.183336478804
 20
425.5371858162345
 30
0.0
 11
535.1833364788041
 21
416.3371858162346
 31
0.0
  0
LINE
  5
6CB
102
{ACAD_REACTORS
330
759
102
}
330
1F
100
AcDbEntity
  8
実線
100
AcDbLine
 10
594.1833364788042
 20
425.5371858162345
 30
0.0
 11
509.183336478804
 21
425.5371858162345
 31
0.0
  0
LINE
  5
6CC
102
{ACAD_REACTORS
330
759
102
}
330
1F
100
AcDbEntity
  8
実線
100
AcDbLine
 10
509.1833364788042
 20
502.5371858162347
 30
0.0
 11
509.1833364788042
 21
425.5371858162345
 31
0.0
  0
LINE
  5
6CD
102
{ACAD_REACTORS
330
759
102
}
330
1F
100
AcDbEntity
  8
実線
100
AcDbLine
 10
594.1833364788042
 20
425.5371858162345
 30
0.0
 11
594.1833364788042
 21
502.5371858162347
 31
0.0
  0
LINE
  5
6CE
102
{ACAD_REACTORS
330
759
102
}
330
1F
100
AcDbEntity
  8
実線
100
AcDbLine
 10
534.683336478804
 20
549.2371858162345
 30
0.0
 11
534.683336478804
 21
542.2371858162346
 31
0.0
  0
LINE
  5
6CF
102
{ACAD_REACTORS
330
759
102
}
330
1F
100
AcDbEntity
  8
実線
100
AcDbLine
 10
568.6833364788042
 20
542.2371858162346
 30
0.0
 11
568.6833364788042
 21
549.2371858162345
 31
0.0
  0
LINE
  5
6D0
102
{ACAD_REACTORS
330
759
102
}
330
1F
100
AcDbEntity
  8
実線
100
AcDbLine
 10
597.6833364788042
 20
549.2371858162345
 30
0.0
 11
505.683336478804
 21
549.2371858162345
 31
0.0
  0
LINE
  5
6D1
102
{ACAD_REACTORS
330
759
102
}
330
1F
100
AcDbEntity
  8
実線
100
AcDbLine
 10
505.683336478804
 20
560.2371858162345
 30
0.0
 11
505.683336478804
 21
549.2371858162345
 31
0.0
  0
LINE
  5
6D2
102
{ACAD_REACTORS
330
759
102
}
330
1F
100
AcDbEntity
  8
実線
100
AcDbLine
 10
597.6833364788042
 20
549.2371858162345
 30
0.0
 11
597.6833364788042
 21
560.2371858162345
 31
0.0
  0
LINE
  5
6D3
102
{ACAD_REACTORS
330
759
102
}
330
1F
100
AcDbEntity
  8
実線
100
AcDbLine
 10
501.8234331643165
 20
856.9871858162345
 30
0.0
 11
483.6833364788035
 21
856.9871858162345
 31
0.0
  0
LINE
  5
6D4
102
{ACAD_REACTORS
330
759
102
}
330
1F
100
AcDbEntity
  8
実線
100
AcDbLine
 10
483.6833364788035
 20
793.4871858162344
 30
0.0
 11
490.9036473009649
 21
793.4871858162344
 31
0.0
  0
LINE
  5
6D5
102
{ACAD_REACTORS
330
759
102
}
330
1F
100
AcDbEntity
  8
実線
100
AcDbLine
 10
483.6833364788035
 20
856.9871858162345
 30
0.0
 11
483.6833364788035
 21
793.4871858162344
 31
0.0
  0
LINE
  5
6D6
102
{ACAD_REACTORS
330
759
102
}
330
1F
100
AcDbEntity
  8
実線
100
AcDbLine
 10
389.3906472075773
 20
817.9298750874606
 30
0.0
 11
434.2919278129231
 21
773.028594482115
 31
0.0
  0
LINE
  5
6D7
102
{ACAD_REACTORS
330
759
102
}
330
1F
100
AcDbEntity
  8
実線
100
AcDbLine
 10
424.4631435544302
 20
763.1998102236217
 30
0.0
 11
434.2919278129231
 21
773.028594482115
 31
0.0
  0
LINE
  5
6D8
102
{ACAD_REACTORS
330
759
102
}
330
1F
100
AcDbEntity
  8
実線
100
AcDbLine
 10
389.3906472075773
 20
817.9298750874606
 30
0.0
 11
379.5618629490842
 21
808.1010908289679
 31
0.0
  0
LINE
  5
6D9
102
{ACAD_REACTORS
330
759
102
}
330
1F
100
AcDbEntity
  8
実線
100
AcDbLine
 10
369.9452107249473
 20
808.3839335414424
 30
0.0
 11
424.7459862669049
 21
753.5831579994848
 31
0.0
  0
LINE
  5
6DA
102
{ACAD_REACTORS
330
759
102
}
330
1F
100
AcDbEntity
  8
実線
100
AcDbLine
 10
424.7459862669049
 20
753.5831579994848
 30
0.0
 11
427.2208600010575
 21
756.0580317336375
 31
0.0
  0
LINE
  5
6DB
102
{ACAD_REACTORS
330
759
102
}
330
1F
100
AcDbEntity
  8
実線
100
AcDbLine
 10
372.4200844591003
 20
810.8588072755955
 30
0.0
 11
369.9452107249473
 21
808.383933541442
 31
0.0
  0
LINE
  5
6DC
102
{ACAD_REACTORS
330
759
102
}
330
1F
100
AcDbEntity
  8
実線
100
AcDbLine
 10
372.4200844591003
 20
810.8588072755955
 30
0.0
 11
427.2208600010579
 21
756.0580317336375
 31
0.0
  0
LINE
  5
6DD
102
{ACAD_REACTORS
330
759
102
}
330
1F
100
AcDbEntity
  8
実線
100
AcDbLine
 10
379.5618629490842
 20
808.1010908289679
 30
0.0
 11
424.4631435544302
 21
763.1998102236217
 31
0.0
  0
LINE
  5
6DE
102
{ACAD_REACTORS
330
759
102
}
330
1F
100
AcDbEntity
  8
実線
100
AcDbLine
 10
379.5618629490842
 20
808.1010908289679
 30
0.0
 11
372.4200844591003
 21
810.8588072755955
 31
0.0
  0
LINE
  5
6DF
102
{ACAD_REACTORS
330
759
102
}
330
1F
100
AcDbEntity
  8
実線
100
AcDbLine
 10
427.2208600010575
 20
756.0580317336375
 30
0.0
 11
424.4631435544302
 21
763.1998102236217
 31
0.0
  0
LINE
  5
6E0
102
{ACAD_REACTORS
330
759
102
}
330
1F
100
AcDbEntity
  8
実線
100
AcDbLine
 10
600.6833364788035
 20
867.9371858162348
 30
0.0
 11
600.6833364788035
 21
876.9371858162347
 31
0.0
  0
LINE
  5
6E1
102
{ACAD_REACTORS
330
759
102
}
330
1F
100
AcDbEntity
  8
実線
100
AcDbLine
 10
502.6833364788035
 20
876.9371858162347
 30
0.0
 11
502.6833364788035
 21
867.9371858162348
 31
0.0
  0
LINE
  5
6E2
102
{ACAD_REACTORS
330
759
102
}
330
1F
100
AcDbEntity
  8
実線
100
AcDbLine
 10
593.6833364788035
 20
861.2371858162347
 30
0.0
 11
600.6833364788035
 21
867.9371858162348
 31
0.0
  0
LINE
  5
6E3
102
{ACAD_REACTORS
330
759
102
}
330
1F
100
AcDbEntity
  8
実線
100
AcDbLine
 10
502.6833364788035
 20
867.9371858162348
 30
0.0
 11
509.6833364788035
 21
861.2371858162347
 31
0.0
  0
LINE
  5
6E4
102
{ACAD_REACTORS
330
759
102
}
330
1F
100
AcDbEntity
  8
実線
100
AcDbLine
 10
509.6833364788035
 20
861.2371858162347
 30
0.0
 11
593.6833364788035
 21
861.2371858162347
 31
0.0
  0
LINE
  5
6E5
102
{ACAD_REACTORS
330
759
102
}
330
1F
100
AcDbEntity
  8
実線
100
AcDbLine
 10
502.6833364788035
 20
867.9371858162348
 30
0.0
 11
600.6833364788035
 21
867.9371858162348
 31
0.0
  0
ARC
  5
6E6
102
{ACAD_REACTORS
330
759
102
}
330
1F
100
AcDbEntity
  8
実線
100
AcDbCircle
 10
483.6833364788035
 20
723.6371858162344
 30
0.0
 40
133.35
100
AcDbArc
 50
90.0
 51
135.0000000000045
  0
ARC
  5
6E7
102
{ACAD_REACTORS
330
759
102
}
330
1F
100
AcDbEntity
  8
実線
100
AcDbCircle
 10
483.6833364788035
 20
723.6371858162344
 30
0.0
 40
69.84999999999999
100
AcDbArc
 50
90.0
 51
135.0000000000045
  0
LINE
  5
6E8
102
{ACAD_REACTORS
330
759
102
}
330
1F
100
AcDbEntity
  8
実線
100
AcDbLine
 10
594.9833364788043
 20
538.5371858162345
 30
0.0
 11
595.6833364788042
 21
542.2371858162346
 31
0.0
  0
LINE
  5
6E9
102
{ACAD_REACTORS
330
759
102
}
330
1F
100
AcDbEntity
  8
実線
100
AcDbLine
 10
507.6833364788041
 20
542.2371858162346
 30
0.0
 11
508.3833364788041
 21
538.5371858162345
 31
0.0
  0
LINE
  5
6EA
102
{ACAD_REACTORS
330
759
102
}
330
1F
100
AcDbEntity
  8
実線
100
AcDbLine
 10
595.6833364788042
 20
542.2371858162346
 30
0.0
 11
507.6833364788041
 21
542.2371858162346
 31
0.0
  0
LINE
  5
6EB
102
{ACAD_REACTORS
330
759
102
}
330
1F
100
AcDbEntity
  8
実線
100
AcDbLine
 10
594.9833364788043
 20
502.5371858162347
 30
0.0
 11
508.3833364788041
 21
502.5371858162347
 31
0.0
  0
LINE
  5
6EC
102
{ACAD_REACTORS
330
759
102
}
330
1F
100
AcDbEntity
  8
実線
100
AcDbLine
 10
508.3833364788041
 20
538.5371858162345
 30
0.0
 11
508.3833364788041
 21
502.5371858162347
 31
0.0
  0
LINE
  5
6ED
102
{ACAD_REACTORS
330
759
102
}
330
1F
100
AcDbEntity
  8
実線
100
AcDbLine
 10
594.9833364788043
 20
502.5371858162347
 30
0.0
 11
594.9833364788043
 21
538.5371858162345
 31
0.0
  0
LINE
  5
6EE
102
{ACAD_REACTORS
330
759
102
}
330
1F
100
AcDbEntity
  8
実線
100
AcDbLine
 10
508.3833364788041
 20
538.5371858162345
 30
0.0
 11
594.9833364788043
 21
538.5371858162345
 31
0.0
  0
LINE
  5
6EF
102
{ACAD_REACTORS
330
759
102
}
330
1F
100
AcDbEntity
  8
実線
100
AcDbLine
 10
613.9833364788042
 20
668.2371858162345
 30
0.0
 11
613.9833364788042
 21
719.7371858162346
 31
0.0
  0
ARC
  5
6F0
102
{ACAD_REACTORS
330
759
102
}
330
1F
100
AcDbEntity
  8
実線
100
AcDbCircle
 10
546.9833364788042
 20
719.7371858162346
 30
0.0
 40
66.99999999999993
100
AcDbArc
 50
0.0
 51
50.23341593083052
  0
ARC
  5
6F1
102
{ACAD_REACTORS
330
759
102
}
330
1F
100
AcDbEntity
  8
実線
100
AcDbCircle
 10
546.9833364788042
 20
719.7371858162346
 30
0.0
 40
53.0
100
AcDbArc
 50
14.75681560632998
 51
76.33609100304766
  0
ARC
  5
6F2
102
{ACAD_REACTORS
330
759
102
}
330
1F
100
AcDbEntity
  8
実線
100
AcDbCircle
 10
556.3833364788041
 20
719.7371858162346
 30
0.0
 40
53.0
100
AcDbArc
 50
103.6639089969523
 51
165.24318439367
  0
ARC
  5
6F3
102
{ACAD_REACTORS
330
759
102
}
330
1F
100
AcDbEntity
  8
実線
100
AcDbCircle
 10
556.3833364788041
 20
719.7371858162346
 30
0.0
 40
66.99999999999993
100
AcDbArc
 50
129.7665840691694
 51
180.0
  0
LINE
  5
6F4
102
{ACAD_REACTORS
330
759
102
}
330
1F
100
AcDbEntity
  8
実線
100
AcDbLine
 10
489.3833364788041
 20
668.2371858162345
 30
0.0
 11
489.3833364788041
 21
719.7371858162346
 31
0.0
  0
LINE
  5
6F5
102
{ACAD_REACTORS
330
759
102
}
330
1F
100
AcDbEntity
  8
実線
100
AcDbLine
 10
599.8263525870621
 20
733.2371858162344
 30
0.0
 11
503.5403203705461
 21
733.2371858162344
 31
0.0
  0
LINE
  5
6F6
102
{ACAD_REACTORS
330
759
102
}
330
1F
100
AcDbEntity
  8
実線
100
AcDbLine
 10
503.5403203705461
 20
733.2371858162344
 30
0.0
 11
503.5403203705461
 21
668.2371858162345
 31
0.0
  0
LINE
  5
6F7
102
{ACAD_REACTORS
330
759
102
}
330
1F
100
AcDbEntity
  8
実線
100
AcDbLine
 10
599.8263525870621
 20
668.2371858162345
 30
0.0
 11
599.8263525870621
 21
733.2371858162344
 31
0.0
  0
ARC
  5
6F8
102
{ACAD_REACTORS
330
759
102
}
330
1F
100
AcDbEntity
  8
実線
100
AcDbCircle
 10
590.6833364788035
 20
845.2371858162345
 30
0.0
 40
16.0
100
AcDbArc
 50
0.0
 51
90.0
  0
ARC
  5
6F9
102
{ACAD_REACTORS
330
759
102
}
330
1F
100
AcDbEntity
  8
実線
100
AcDbCircle
 10
512.6833364788035
 20
845.2371858162345
 30
0.0
 40
16.0
100
AcDbArc
 50
90.0
 51
132.7455692246592
  0
LINE
  5
6FA
102
{ACAD_REACTORS
330
759
102
}
330
1F
100
AcDbEntity
  8
実線
100
AcDbLine
 10
612.4630256566422
 20
784.7371858162345
 30
0.0
 11
490.9036473009647
 21
784.7371858162345
 31
0.0
  0
LINE
  5
6FB
102
{ACAD_REACTORS
330
759
102
}
330
1F
100
AcDbEntity
  8
実線
100
AcDbLine
 10
606.6833364788035
 20
799.7371858162344
 30
0.0
 11
606.6833364788035
 21
845.2371858162345
 31
0.0
  0
LINE
  5
6FC
102
{ACAD_REACTORS
330
759
102
}
330
1F
100
AcDbEntity
  8
実線
100
AcDbLine
 10
490.9036473009647
 20
799.7371858162344
 30
0.0
 11
490.9036473009647
 21
784.7371858162345
 31
0.0
  0
LINE
  5
6FD
102
{ACAD_REACTORS
330
759
102
}
330
1F
100
AcDbEntity
  8
実線
100
AcDbLine
 10
490.9036473009647
 20
799.7371858162344
 30
0.0
 11
524.8733643288622
 21
799.7371858162344
 31
0.0
  0
LINE
  5
6FE
102
{ACAD_REACTORS
330
759
102
}
330
1F
100
AcDbEntity
  8
実線
100
AcDbLine
 10
612.4630256566422
 20
799.7371858162344
 30
0.0
 11
578.4933086287445
 21
799.7371858162344
 31
0.0
  0
LINE
  5
6FF
102
{ACAD_REACTORS
330
759
102
}
330
1F
100
AcDbEntity
  8
実線
100
AcDbLine
 10
612.4630256566422
 20
784.7371858162345
 30
0.0
 11
612.4630256566422
 21
799.7371858162344
 31
0.0
  0
LINE
  5
700
102
{ACAD_REACTORS
330
759
102
}
330
1F
100
AcDbEntity
  8
実線
100
AcDbLine
 10
524.8733643288622
 20
799.7371858162344
 30
0.0
 11
524.8733643288622
 21
784.7371858162345
 31
0.0
  0
LINE
  5
701
102
{ACAD_REACTORS
330
759
102
}
330
1F
100
AcDbEntity
  8
実線
100
AcDbLine
 10
578.4933086287445
 20
799.7371858162344
 30
0.0
 11
578.4933086287445
 21
784.7371858162345
 31
0.0
  0
LINE
  5
702
102
{ACAD_REACTORS
330
759
102
}
330
1F
100
AcDbEntity
  8
実線
100
AcDbLine
 10
482.183336478804
 20
560.2371858162345
 30
0.0
 11
621.1833364788041
 21
560.2371858162345
 31
0.0
  0
ARC
  5
703
102
{ACAD_REACTORS
330
759
102
}
330
1F
100
AcDbEntity
  8
実線
100
AcDbCircle
 10
482.183336478804
 20
563.2371858162344
 30
0.0
 40
3.0
100
AcDbArc
 50
180.0
 51
270.0
  0
ARC
  5
704
102
{ACAD_REACTORS
330
759
102
}
330
1F
100
AcDbEntity
  8
実線
100
AcDbCircle
 10
621.1833364788041
 20
563.2371858162344
 30
0.0
 40
3.0
100
AcDbArc
 50
270.0
 51
0.0
  0
LINE
  5
705
102
{ACAD_REACTORS
330
759
102
}
330
1F
100
AcDbEntity
  8
実線
100
AcDbLine
 10
479.1833364788041
 20
565.2371858162345
 30
0.0
 11
479.1833364788041
 21
563.2371858162344
 31
0.0
  0
LINE
  5
706
102
{ACAD_REACTORS
330
759
102
}
330
1F
100
AcDbEntity
  8
実線
100
AcDbLine
 10
624.1833364788042
 20
563.2371858162344
 30
0.0
 11
624.1833364788042
 21
565.2371858162345
 31
0.0
  0
LINE
  5
707
102
{ACAD_REACTORS
330
759
102
}
330
1F
100
AcDbEntity
  8
実線
100
AcDbLine
 10
426.6833364788035
 20
896.9371858162348
 30
0.0
 11
676.6833364788035
 21
896.9371858162348
 31
0.0
  0
LINE
  5
708
102
{ACAD_REACTORS
330
759
102
}
330
1F
100
AcDbEntity
  8
実線
100
AcDbLine
 10
676.6833364788035
 20
876.9371858162347
 30
0.0
 11
676.6833364788035
 21
896.9371858162348
 31
0.0
  0
LINE
  5
709
102
{ACAD_REACTORS
330
759
102
}
330
1F
100
AcDbEntity
  8
実線
100
AcDbLine
 10
426.6833364788035
 20
896.9371858162348
 30
0.0
 11
426.6833364788035
 21
876.9371858162347
 31
0.0
  0
LINE
  5
70A
102
{ACAD_REACTORS
330
759
102
}
330
1F
100
AcDbEntity
  8
実線
100
AcDbLine
 10
676.6833364788035
 20
876.9371858162347
 30
0.0
 11
426.6833364788035
 21
876.9371858162347
 31
0.0
  0
LINE
  5
715
102
{ACAD_REACTORS
330
75A
102
}
330
1F
100
AcDbEntity
  8
中心線
100
AcDbLine
 10
648.6906873924889
 20
151.2554254179001
 30
0.0
 11
648.6906873924889
 21
122.2554254179001
 31
0.0
  0
LINE
  5
716
102
{ACAD_REACTORS
330
75A
102
}
330
1F
100
AcDbEntity
  8
中心線
100
AcDbLine
 10
634.1906873924889
 20
136.7554254179001
 30
0.0
 11
663.1906873924885
 21
136.7554254179001
 31
0.0
  0
LINE
  5
717
102
{ACAD_REACTORS
330
75A
102
}
330
1F
100
AcDbEntity
  8
中心線
100
AcDbLine
 10
648.6906873924889
 20
231.6189462145692
 30
0.0
 11
648.6906873924889
 21
202.6189462145692
 31
0.0
  0
LINE
  5
718
102
{ACAD_REACTORS
330
75A
102
}
330
1F
100
AcDbEntity
  8
中心線
100
AcDbLine
 10
634.1906873924889
 20
217.1189462145692
 30
0.0
 11
663.1906873924885
 21
217.1189462145692
 31
0.0
  0
LINE
  5
719
102
{ACAD_REACTORS
330
75A
102
}
330
1F
100
AcDbEntity
  8
中心線
100
AcDbLine
 10
591.8650968771382
 20
288.4445367299197
 30
0.0
 11
591.8650968771382
 21
259.4445367299197
 31
0.0
  0
LINE
  5
71A
102
{ACAD_REACTORS
330
75A
102
}
330
1F
100
AcDbEntity
  8
中心線
100
AcDbLine
 10
577.3650968771383
 20
273.9445367299197
 30
0.0
 11
606.3650968771383
 21
273.9445367299197
 31
0.0
  0
LINE
  5
71B
102
{ACAD_REACTORS
330
75A
102
}
330
1F
100
AcDbEntity
  8
中心線
100
AcDbLine
 10
511.5015760804692
 20
288.4445367299197
 30
0.0
 11
511.5015760804692
 21
259.4445367299197
 31
0.0
  0
LINE
  5
71C
102
{ACAD_REACTORS
330
75A
102
}
330
1F
100
AcDbEntity
  8
中心線
100
AcDbLine
 10
497.0015760804694
 20
273.9445367299197
 30
0.0
 11
526.0015760804695
 21
273.9445367299197
 31
0.0
  0
LINE
  5
71D
102
{ACAD_REACTORS
330
75A
102
}
330
1F
100
AcDbEntity
  8
中心線
100
AcDbLine
 10
454.6759855651187
 20
231.6189462145692
 30
0.0
 11
454.6759855651187
 21
202.6189462145692
 31
0.0
  0
LINE
  5
71E
102
{ACAD_REACTORS
330
75A
102
}
330
1F
100
AcDbEntity
  8
中心線
100
AcDbLine
 10
440.1759855651188
 20
217.1189462145692
 30
0.0
 11
469.1759855651188
 21
217.1189462145692
 31
0.0
  0
LINE
  5
71F
102
{ACAD_REACTORS
330
75A
102
}
330
1F
100
AcDbEntity
  8
中心線
100
AcDbLine
 10
454.6759855651187
 20
151.2554254179001
 30
0.0
 11
454.6759855651187
 21
122.2554254179001
 31
0.0
  0
LINE
  5
720
102
{ACAD_REACTORS
330
75A
102
}
330
1F
100
AcDbEntity
  8
中心線
100
AcDbLine
 10
440.1759855651188
 20
136.7554254179001
 30
0.0
 11
469.1759855651188
 21
136.7554254179001
 31
0.0
  0
LINE
  5
721
102
{ACAD_REACTORS
330
75A
102
}
330
1F
100
AcDbEntity
  8
中心線
100
AcDbLine
 10
511.5015760804692
 20
94.4298349025496
 30
0.0
 11
511.5015760804692
 21
65.4298349025496
 31
0.0
  0
LINE
  5
722
102
{ACAD_REACTORS
330
75A
102
}
330
1F
100
AcDbEntity
  8
中心線
100
AcDbLine
 10
497.0015760804694
 20
79.9298349025496
 30
0.0
 11
526.0015760804695
 21
79.9298349025496
 31
0.0
  0
LINE
  5
723
102
{ACAD_REACTORS
330
75A
102
}
330
1F
100
AcDbEntity
  8
中心線
100
AcDbLine
 10
591.8650968771382
 20
94.4298349025496
 30
0.0
 11
591.8650968771382
 21
65.4298349025496
 31
0.0
  0
LINE
  5
724
102
{ACAD_REACTORS
330
75A
102
}
330
1F
100
AcDbEntity
  8
中心線
100
AcDbLine
 10
577.3650968771383
 20
79.9298349025496
 30
0.0
 11
606.3650968771383
 21
79.9298349025496
 31
0.0
  0
LINE
  5
725
102
{ACAD_REACTORS
330
75A
102
}
330
1F
100
AcDbEntity
  8
中心線
100
AcDbLine
 10
366.683336478804
 20
176.9371858162348
 30
0.0
 11
736.683336478804
 21
176.9371858162348
 31
0.0
  0
LINE
  5
726
102
{ACAD_REACTORS
330
75A
102
}
330
1F
100
AcDbEntity
  8
中心線
100
AcDbLine
 10
551.6833364788039
 20
41.93718581623477
 30
0.0
 11
551.6833364788039
 21
311.9371858162348
 31
0.0
  0
LINE
  5
727
102
{ACAD_REACTORS
330
766
102
}
330
1F
100
AcDbEntity
  8
中心線
100
AcDbLine
 10
648.6906873924884
 20
1171.255425417901
 30
0.0
 11
648.6906873924884
 21
1142.255425417901
 31
0.0
  0
LINE
  5
728
102
{ACAD_REACTORS
330
766
102
}
330
1F
100
AcDbEntity
  8
中心線
100
AcDbLine
 10
634.1906873924888
 20
1156.755425417901
 30
0.0
 11
663.1906873924885
 21
1156.755425417901
 31
0.0
  0
LINE
  5
729
102
{ACAD_REACTORS
330
766
102
}
330
1F
100
AcDbEntity
  8
中心線
100
AcDbLine
 10
648.6906873924884
 20
1251.61894621457
 30
0.0
 11
648.6906873924884
 21
1222.61894621457
 31
0.0
  0
LINE
  5
72A
102
{ACAD_REACTORS
330
766
102
}
330
1F
100
AcDbEntity
  8
中心線
100
AcDbLine
 10
634.1906873924888
 20
1237.11894621457
 30
0.0
 11
663.1906873924885
 21
1237.11894621457
 31
0.0
  0
LINE
  5
72B
102
{ACAD_REACTORS
330
766
102
}
330
1F
100
AcDbEntity
  8
中心線
100
AcDbLine
 10
591.865096877138
 20
1308.44453672992
 30
0.0
 11
591.865096877138
 21
1279.44453672992
 31
0.0
  0
LINE
  5
72C
102
{ACAD_REACTORS
330
766
102
}
330
1F
100
AcDbEntity
  8
中心線
100
AcDbLine
 10
577.365096877138
 20
1293.94453672992
 30
0.0
 11
606.365096877138
 21
1293.94453672992
 31
0.0
  0
LINE
  5
72D
102
{ACAD_REACTORS
330
766
102
}
330
1F
100
AcDbEntity
  8
中心線
100
AcDbLine
 10
511.501576080469
 20
1308.44453672992
 30
0.0
 11
511.501576080469
 21
1279.44453672992
 31
0.0
  0
LINE
  5
72E
102
{ACAD_REACTORS
330
766
102
}
330
1F
100
AcDbEntity
  8
中心線
100
AcDbLine
 10
497.001576080469
 20
1293.94453672992
 30
0.0
 11
526.001576080469
 21
1293.94453672992
 31
0.0
  0
LINE
  5
72F
102
{ACAD_REACTORS
330
766
102
}
330
1F
100
AcDbEntity
  8
中心線
100
AcDbLine
 10
454.6759855651185
 20
1251.61894621457
 30
0.0
 11
454.6759855651185
 21
1222.61894621457
 31
0.0
  0
LINE
  5
730
102
{ACAD_REACTORS
330
766
102
}
330
1F
100
AcDbEntity
  8
中心線
100
AcDbLine
 10
440.1759855651183
 20
1237.11894621457
 30
0.0
 11
469.1759855651184
 21
1237.11894621457
 31
0.0
  0
LINE
  5
731
102
{ACAD_REACTORS
330
766
102
}
330
1F
100
AcDbEntity
  8
中心線
100
AcDbLine
 10
454.6759855651185
 20
1171.255425417901
 30
0.0
 11
454.6759855651185
 21
1142.255425417901
 31
0.0
  0
LINE
  5
732
102
{ACAD_REACTORS
330
766
102
}
330
1F
100
AcDbEntity
  8
中心線
100
AcDbLine
 10
440.1759855651183
 20
1156.755425417901
 30
0.0
 11
469.1759855651184
 21
1156.755425417901
 31
0.0
  0
LINE
  5
733
102
{ACAD_REACTORS
330
766
102
}
330
1F
100
AcDbEntity
  8
中心線
100
AcDbLine
 10
511.501576080469
 20
1114.42983490255
 30
0.0
 11
511.501576080469
 21
1085.42983490255
 31
0.0
  0
LINE
  5
734
102
{ACAD_REACTORS
330
766
102
}
330
1F
100
AcDbEntity
  8
中心線
100
AcDbLine
 10
497.001576080469
 20
1099.92983490255
 30
0.0
 11
526.001576080469
 21
1099.92983490255
 31
0.0
  0
LINE
  5
735
102
{ACAD_REACTORS
330
766
102
}
330
1F
100
AcDbEntity
  8
中心線
100
AcDbLine
 10
591.865096877138
 20
1114.42983490255
 30
0.0
 11
591.865096877138
 21
1085.42983490255
 31
0.0
  0
LINE
  5
736
102
{ACAD_REACTORS
330
766
102
}
330
1F
100
AcDbEntity
  8
中心線
100
AcDbLine
 10
577.365096877138
 20
1099.92983490255
 30
0.0
 11
606.365096877138
 21
1099.92983490255
 31
0.0
  0
LINE
  5
737
102
{ACAD_REACTORS
330
766
102
}
330
1F
100
AcDbEntity
  8
中心線
100
AcDbLine
 10
366.6833364788035
 20
1196.937185816234
 30
0.0
 11
736.6833364788035
 21
1196.937185816235
 31
0.0
  0
LINE
  5
738
102
{ACAD_REACTORS
330
766
102
}
330
1F
100
AcDbEntity
  8
中心線
100
AcDbLine
 10
551.6833364788035
 20
1061.937185816235
 30
0.0
 11
551.6833364788035
 21
1331.937185816235
 31
0.0
  0
LINE
  5
739
102
{ACAD_REACTORS
330
757
102
}
330
1F
100
AcDbEntity
  8
中心線
100
AcDbLine
 10
1161.599238541696
 20
825.2371858162346
 30
0.0
 11
1381.76743441591
 21
825.2371858162346
 31
0.0
  0
LINE
  5
73A
102
{ACAD_REACTORS
330
757
102
}
330
1F
100
AcDbEntity
  8
中心線
100
AcDbLine
 10
1271.683336478803
 20
403.0430873989068
 30
0.0
 11
1271.683336478803
 21
910.2371858162346
 31
0.0
  0
LINE
  5
73B
102
{ACAD_REACTORS
330
757
102
}
330
1F
100
AcDbEntity
  8
中心線
100
AcDbLine
 10
1381.76743441591
 20
825.2371858162346
 30
0.0
 11
1427.435288024053
 21
779.5693322080907
 31
0.0
  0
LINE
  5
744
102
{ACAD_REACTORS
330
758
102
}
330
1F
100
AcDbEntity
  8
中心線
100
AcDbLine
 10
911.6833364788035
 20
403.0430873989068
 30
0.0
 11
911.6833364788035
 21
910.2371858162346
 31
0.0
  0
LINE
  5
745
102
{ACAD_REACTORS
330
759
102
}
330
1F
100
AcDbEntity
  8
中心線
100
AcDbLine
 10
551.6833364788035
 20
403.0430873989067
 30
0.0
 11
551.6833364788035
 21
910.2371858162346
 31
0.0
  0
LINE
  5
746
102
{ACAD_REACTORS
330
765
102
}
330
1F
100
AcDbEntity
  8
中心線
100
AcDbLine
 10
191.6833364788035
 20
403.0430873989068
 30
0.0
 11
191.6833364788035
 21
910.2371858162346
 31
0.0
  0
LINE
  5
753
102
{ACAD_REACTORS
330
759
102
}
330
1F
100
AcDbEntity
  8
中心線
100
AcDbLine
 10
441.5992385416967
 20
825.2371858162344
 30
0.0
 11
395.931384933553
 21
779.5693322080905
 31
0.0
  0
LINE
  5
754
102
{ACAD_REACTORS
330
759
102
}
330
1F
100
AcDbEntity
  8
中心線
100
AcDbLine
 10
661.7674344159103
 20
825.2371858162344
 30
0.0
 11
441.5992385416967
 21
825.2371858162344
 31
0.0
  0
LINE
  5
755
102
{ACAD_REACTORS
330
758
102
}
330
1F
100
AcDbEntity
  8
中心線
100
AcDbLine
 10
826.6833364788036
 20
825.2371858162346
 30
0.0
 11
996.6833364788035
 21
825.2371858162346
 31
0.0
  0
LINE
  5
756
102
{ACAD_REACTORS
330
765
102
}
330
1F
100
AcDbEntity
  8
中心線
100
AcDbLine
 10
106.6833364788035
 20
825.2371858162346
 30
0.0
 11
276.6833364788035
 21
825.2371858162346
 31
0.0
  0
ENDSEC
  0
SECTION
  2
OBJECTS
  0
DICTIONARY
  5
C
330
0
100
AcDbDictionary
281
     1
  3
ACAD_CIP_PREVIOUS_PRODUCT_INFO
350
270
  3
ACAD_COLOR
350
266
  3
ACAD_DETAILVIEWSTYLE
350
269
  3
ACAD_GROUP
350
D
  3
ACAD_LAYOUT
350
1A
  3
ACAD_MATERIAL
350
43
  3
ACAD_MLEADERSTYLE
350
5B
  3
ACAD_MLINESTYLE
350
17
  3
ACAD_PLOTSETTINGS
350
19
  3
ACAD_PLOTSTYLENAME
350
E
  3
ACAD_SCALELIST
350
47
  3
ACAD_SECTIONVIEWSTYLE
350
267
  3
ACAD_TABLESTYLE
350
59
  3
ACAD_VISUALSTYLE
350
2A
  3
ACDB_RECOMPOSE_DATA
350
7C3
  3
AcDbVariableDictionary
350
21B
  3
DWGPROPS
350
7C4
  0
DICTIONARY
  5
277
330
2
100
AcDbDictionary
280
     1
281
     1
  3
ACAD_LAYERSTATES
360
278
  0
DICTIONARY
  5
767
330
10
100
AcDbDictionary
280
     1
281
     1
  3
ADSK_XREC_LAYER_RECONCILED
360
768
  0
DICTIONARY
  5
273
330
272
100
AcDbDictionary
280
     1
281
     1
  3
ADSK_XREC_LAYER_RECONCILED
360
769
  0
DICTIONARY
  5
275
330
274
100
AcDbDictionary
280
     1
281
     1
  3
ADSK_XREC_LAYER_RECONCILED
360
76A
  0
DICTIONARY
  5
5AE
330
1F
100
AcDbDictionary
280
     1
281
     1
  3
ACAD_SORTENTS
360
5AF
  0
XRECORD
  5
270
102
{ACAD_REACTORS
330
C
102
}
330
C
100
AcDbXrecord
280
     1
300
ACDLT
300
2016
300
ACDLT_F_S
  0
DICTIONARY
  5
266
102
{ACAD_REACTORS
330
C
102
}
330
C
100
AcDbDictionary
281
     1
  0
DICTIONARY
  5
269
102
{ACAD_REACTORS
330
C
102
}
330
C
100
AcDbDictionary
281
     1
  3
Metric50
350
26A
  0
DICTIONARY
  5
D
102
{ACAD_REACTORS
330
C
102
}
330
C
100
AcDbDictionary
281
     1
  3
*A1
350
757
  3
*A2
350
758
  3
*A3
350
759
  3
*A4
350
75A
  3
*A5
350
765
  3
*A6
350
766
  0
DICTIONARY
  5
1A
102
{ACAD_REACTORS
330
C
102
}
330
C
100
AcDbDictionary
281
     1
  3
Layout1
350
1E
  3
Model
350
22
  3
レイアウト1
350
26B
  0
DICTIONARY
  5
43
102
{ACAD_REACTORS
330
C
102
}
330
C
100
AcDbDictionary
281
     1
  3
ByBlock
350
45
  3
ByLayer
350
44
  3
Global
350
46
  0
DICTIONARY
  5
5B
102
{ACAD_REACTORS
330
C
102
}
330
C
100
AcDbDictionary
281
     1
  3
Standard
350
5C
  0
DICTIONARY
  5
17
102
{ACAD_REACTORS
330
C
102
}
330
C
100
AcDbDictionary
281
     1
  3
Standard
350
18
  0
DICTIONARY
  5
19
102
{ACAD_REACTORS
330
C
102
}
330
C
100
AcDbDictionary
281
     1
  0
ACDBDICTIONARYWDFLT
  5
E
102
{ACAD_REACTORS
330
C
102
}
330
C
100
AcDbDictionary
281
     1
  3
Normal
350
F
100
AcDbDictionaryWithDefault
340
F
  0
DICTIONARY
  5
47
102
{ACAD_REACTORS
330
C
102
}
330
C
100
AcDbDictionary
281
     1
  3
A0
350
48
  3
A1
350
49
  3
A2
350
4A
  3
A3
350
4B
  3
A4
350
4C
  3
A5
350
4D
  3
A6
350
4E
  3
A7
350
4F
  3
A8
350
50
  3
A9
350
51
  3
B0
350
52
  3
B1
350
53
  3
B2
350
54
  3
B3
350
55
  3
B4
350
56
  3
B5
350
57
  3
B6
350
58
  0
DICTIONARY
  5
267
102
{ACAD_REACTORS
330
C
102
}
330
C
100
AcDbDictionary
281
     1
  3
Metric50
350
268
  0
DICTIONARY
  5
59
102
{ACAD_REACTORS
330
C
102
}
330
C
100
AcDbDictionary
281
     1
  3
Standard
350
5A
  0
DICTIONARY
  5
2A
102
{ACAD_REACTORS
330
C
102
}
330
C
100
AcDbDictionary
281
     1
  3
2dWireframe
350
2F
  3
Basic
350
32
  3
Brighten
350
36
  3
ColorChange
350
3A
  3
Conceptual
350
34
  3
Dim
350
35
  3
EdgeColorOff
350
3D
  3
Facepattern
350
39
  3
Flat
350
2B
  3
FlatWithEdges
350
2C
  3
Gouraud
350
2D
  3
GouraudWithEdges
350
2E
  3
Hidden
350
31
  3
JitterOff
350
3B
  3
Linepattern
350
38
  3
OverhangOff
350
3C
  3
Realistic
350
33
  3
Shaded
350
42
  3
Shaded with edges
350
41
  3
Shades of Gray
350
3E
  3
Sketchy
350
3F
  3
Thicken
350
37
  3
Wireframe
350
30
  3
X-Ray
350
40
  0
XRECORD
  5
7C3
102
{ACAD_REACTORS
330
C
102
}
330
C
100
AcDbXrecord
280
     1
 90
        1
330
5A
  0
DICTIONARY
  5
21B
102
{ACAD_REACTORS
330
C
102
}
330
C
100
AcDbDictionary
281
     1
  3
CANNOSCALE
350
229
  3
CENTEREXE
350
222
  3
CENTERLTYPEFILE
350
223
  3
CMLEADERSTYLE
350
21D
  3
CTABLESTYLE
350
21C
  3
CVIEWDETAILSTYLE
350
76B
  3
CVIEWSECTIONSTYLE
350
76C
  3
DIMASSOC
350
224
  3
HIDETEXT
350
225
  3
INDEXCTL
350
7BB
  3
LAYEREVAL
350
76E
  3
LAYERNOTIFY
350
76F
  3
LIGHTINGUNITS
350
76D
  3
LOFTANG1
350
7BE
  3
LOFTANG2
350
7BF
  3
LONGITUDE
350
7C0
  3
MSLTSCALE
350
22A
  3
PSOLHEIGHT
350
7BD
  3
PSOLWIDTH
350
7BC
  3
SORTENTS
350
7BA
  3
XCLIPFRAME
350
7C1
  0
XRECORD
  5
7C4
102
{ACAD_REACTORS
330
C
102
}
330
C
100
AcDbXrecord
280
     1
  1
DWGPROPS COOKIE
  2

  3

  4

  6
File was created by TR2_DExp
  7

  8
fujino
  9

300
=
301
=
302
=
303
=
304
=
305
=
306
=
307
=
308
=
309
=
 40
0.065830150462963
 41
2455188.75
 42
2459754.638237489
  1

 90
        0
  0
DICTIONARY
  5
278
102
{ACAD_REACTORS
330
277
102
}
330
277
100
AcDbDictionary
281
     1
  0
XRECORD
  5
768
102
{ACAD_REACTORS
330
767
102
}
330
767
100
AcDbXrecord
280
     1
290
     1
  0
XRECORD
  5
769
102
{ACAD_REACTORS
330
273
102
}
330
273
100
AcDbXrecord
280
     1
290
     1
  0
XRECORD
  5
76A
102
{ACAD_REACTORS
330
275
102
}
330
275
100
AcDbXrecord
280
     1
290
     1
  0
SORTENTSTABLE
  5
5AF
102
{ACAD_REACTORS
330
5AE
102
}
330
5AE
100
AcDbSortentsTable
330
1F
331
704
  5
440
331
700
  5
43C
331
61D
  5
515
331
6FC
  5
438
331
619
  5
511
331
615
  5
50D
331
654
  5
4B7
331
6F8
  5
434
331
611
  5
509
331
650
  5
4B3
331
68C
  5
462
331
688
  5
45E
331
6C7
  5
403
331
6C3
  5
3FF
331
684
  5
45A
331
680
  5
456
331
5B7
  5
52C
331
5B3
  5
528
331
5E6
  5
4DE
331
57C
  5
560
331
578
  5
55C
331
5A3
  5
587
331
5E2
  5
4DA
331
737
  5
737
331
733
  5
733
331
6F4
  5
430
331
72F
  5
72F
331
6F0
  5
42C
331
60D
  5
505
331
64C
  5
4AF
331
72B
  5
72B
331
648
  5
4AB
331
6EC
  5
428
331
609
  5
501
331
644
  5
4A7
331
6E8
  5
424
331
605
  5
4FD
331
601
  5
4F9
331
6BF
  5
3FB
331
640
  5
4A3
331
67C
  5
452
331
6BB
  5
3F7
331
678
  5
44E
331
6B7
  5
48D
331
674
  5
44A
331
6B3
  5
489
331
670
  5
4D3
331
756
  5
756
331
574
  5
558
331
739
  5
739
331
570
  5
554
331
5DE
  5
4D6
331
597
  5
57B
331
593
  5
577
331
5DA
  5
54F
331
727
  5
727
331
723
  5
723
331
6E4
  5
420
331
71F
  5
71F
331
6E0
  5
41C
331
5FD
  5
4F5
331
63C
  5
49F
331
71B
  5
71B
331
6DC
  5
418
331
5F9
  5
4F1
331
638
  5
49B
331
634
  5
497
331
6D8
  5
414
331
5F5
  5
4ED
331
5F1
  5
4E9
331
6AF
  5
485
331
630
  5
493
331
66C
  5
4CF
331
6AB
  5
481
331
668
  5
4CB
331
6A7
  5
47D
331
664
  5
4C7
331
6A3
  5
479
331
660
  5
4C3
331
58F
  5
573
331
58B
  5
56F
331
5CE
  5
543
331
587
  5
56B
331
583
  5
567
331
717
  5
717
331
6D4
  5
410
331
6D0
  5
40C
331
5ED
  5
4E5
331
62C
  5
524
331
6CC
  5
408
331
5E9
  5
4E1
331
628
  5
520
331
624
  5
51C
331
6C8
  5
404
331
69F
  5
475
331
620
  5
518
331
65C
  5
4BF
331
69B
  5
471
331
658
  5
4BB
331
697
  5
46D
331
693
  5
469
331
5C2
  5
537
331
5BE
  5
533
331
5AC
  5
590
331
5BA
  5
52F
331
707
  5
443
331
703
  5
43F
331
746
  5
746
331
6FF
  5
43B
331
61C
  5
514
331
657
  5
4BA
331
6FB
  5
437
331
618
  5
510
331
614
  5
50C
331
653
  5
4B6
331
68F
  5
465
331
610
  5
508
331
68B
  5
461
331
687
  5
45D
331
6C6
  5
402
331
6C2
  5
3FE
331
683
  5
459
331
5B6
  5
52B
331
57F
  5
563
331
5B2
  5
527
331
5A6
  5
58A
331
5E5
  5
4DD
331
57B
  5
55F
331
5E1
  5
4D9
331
736
  5
736
331
6F7
  5
433
331
732
  5
732
331
64F
  5
4B2
331
6F3
  5
42F
331
72E
  5
72E
331
6EF
  5
42B
331
60C
  5
504
331
64B
  5
4AE
331
72A
  5
72A
331
647
  5
4AA
331
6EB
  5
427
331
608
  5
500
331
604
  5
4FC
331
643
  5
4A6
331
600
  5
4F8
331
67F
  5
455
331
6BE
  5
3FA
331
67B
  5
451
331
6BA
  5
3F6
331
677
  5
44D
331
6B6
  5
48C
331
6B2
  5
488
331
673
  5
449
331
577
  5
55B
331
755
  5
755
331
573
  5
557
331
738
  5
738
331
56F
  5
553
331
59A
  5
57E
331
5DD
  5
4D5
331
592
  5
576
331
726
  5
726
331
6E7
  5
423
331
722
  5
722
331
63F
  5
4A2
331
6E3
  5
41F
331
71E
  5
71E
331
6DF
  5
41B
331
5FC
  5
4F4
331
63B
  5
49E
331
71A
  5
71A
331
637
  5
49A
331
6DB
  5
417
331
5F8
  5
4F0
331
633
  5
496
331
5F4
  5
4EC
331
5F0
  5
4E8
331
6AE
  5
484
331
66F
  5
4D2
331
66B
  5
4CE
331
6AA
  5
480
331
667
  5
4CA
331
6A6
  5
47C
331
663
  5
4C6
331
6A2
  5
478
331
58E
  5
572
331
58A
  5
56E
331
5D1
  5
546
331
586
  5
56A
331
582
  5
566
331
716
  5
716
331
6D7
  5
413
331
62F
  5
492
331
6D3
  5
40F
331
6CF
  5
40B
331
5EC
  5
4E4
331
62B
  5
523
331
6CB
  5
407
331
70A
  5
446
331
5E8
  5
4E0
331
627
  5
51F
331
623
  5
51B
331
69E
  5
474
331
65F
  5
4C2
331
65B
  5
4BE
331
69A
  5
470
331
696
  5
46C
331
692
  5
468
331
5C5
  5
53A
331
5C1
  5
536
331
5BD
  5
532
331
5B9
  5
52E
331
706
  5
442
331
702
  5
43E
331
61F
  5
517
331
745
  5
745
331
6FE
  5
43A
331
61B
  5
513
331
656
  5
4B9
331
6FA
  5
436
331
617
  5
50F
331
613
  5
50B
331
652
  5
4B5
331
68E
  5
464
331
68A
  5
460
331
686
  5
45C
331
6C5
  5
401
331
6C1
  5
3FD
331
682
  5
458
331
5B5
  5
52A
331
57E
  5
562
331
5B1
  5
526
331
5E4
  5
4DC
331
57A
  5
55E
331
5E0
  5
4D8
331
735
  5
735
331
6F6
  5
432
331
731
  5
731
331
6F2
  5
42E
331
60F
  5
507
331
64E
  5
4B1
331
72D
  5
72D
331
6EE
  5
42A
331
60B
  5
503
331
64A
  5
4AD
331
729
  5
729
331
646
  5
4A9
331
6EA
  5
426
331
607
  5
4FF
331
603
  5
4FB
331
642
  5
4A5
331
67E
  5
454
331
6BD
  5
3F9
331
67A
  5
450
331
6B9
  5
48F
331
676
  5
44C
331
6B5
  5
48B
331
6B1
  5
487
331
672
  5
448
331
576
  5
55A
331
754
  5
754
331
73B
  5
73B
331
572
  5
556
331
59D
  5
581
331
56E
  5
552
331
5DC
  5
4D4
331
591
  5
575
331
725
  5
725
331
6E6
  5
422
331
721
  5
721
331
5FF
  5
4F7
331
63E
  5
4A1
331
6E2
  5
41E
331
71D
  5
71D
331
6DE
  5
41A
331
5FB
  5
4F3
331
63A
  5
49D
331
719
  5
719
331
636
  5
499
331
6DA
  5
416
331
5F7
  5
4EF
331
5F3
  5
4EB
331
632
  5
495
331
66E
  5
4D1
331
6AD
  5
483
331
66A
  5
4CD
331
6A9
  5
47F
331
666
  5
4C9
331
6A5
  5
47B
331
6A1
  5
477
331
662
  5
4C5
331
58D
  5
571
331
5D4
  5
549
331
589
  5
56D
331
585
  5
569
331
581
  5
565
331
5C8
  5
53D
331
715
  5
715
331
6D6
  5
412
331
5EF
  5
4E7
331
62E
  5
491
331
6D2
  5
40E
331
6CE
  5
40A
331
5EB
  5
4E3
331
62A
  5
522
331
626
  5
51E
331
6CA
  5
406
331
709
  5
445
331
622
  5
51A
331
69D
  5
473
331
65E
  5
4C1
331
65A
  5
4BD
331
699
  5
46F
331
695
  5
46B
331
691
  5
467
331
5C0
  5
535
331
5BC
  5
531
331
5B8
  5
52D
331
705
  5
441
331
701
  5
43D
331
61E
  5
516
331
744
  5
744
331
6FD
  5
439
331
61A
  5
512
331
655
  5
4B8
331
6F9
  5
435
331
616
  5
50E
331
612
  5
50A
331
651
  5
4B4
331
68D
  5
463
331
689
  5
45F
331
685
  5
45B
331
6C4
  5
400
331
6C0
  5
3FC
331
681
  5
457
331
5B4
  5
529
331
5E7
  5
4DF
331
57D
  5
561
331
5B0
  5
525
331
579
  5
55D
331
5E3
  5
4DB
331
5A0
  5
584
331
734
  5
734
331
6F5
  5
431
331
730
  5
730
331
6F1
  5
42D
331
60E
  5
506
331
64D
  5
4B0
331
72C
  5
72C
331
6ED
  5
429
331
60A
  5
502
331
649
  5
4AC
331
728
  5
728
331
645
  5
4A8
331
6E9
  5
425
331
606
  5
4FE
331
602
  5
4FA
331
641
  5
4A4
331
67D
  5
453
331
6BC
  5
3F8
331
679
  5
44F
331
6B8
  5
48E
331
675
  5
44B
331
6B4
  5
48A
331
6B0
  5
486
331
671
  5
447
331
575
  5
559
331
753
  5
753
331
73A
  5
73A
331
571
  5
555
331
5DF
  5
4D7
331
56D
  5
551
331
594
  5
578
331
5DB
  5
550
331
590
  5
574
331
724
  5
724
331
6E5
  5
421
331
720
  5
720
331
6E1
  5
41D
331
5FE
  5
4F6
331
63D
  5
4A0
331
71C
  5
71C
331
6DD
  5
419
331
5FA
  5
4F2
331
639
  5
49C
331
718
  5
718
331
635
  5
498
331
6D9
  5
415
331
5F6
  5
4EE
331
5F2
  5
4EA
331
631
  5
494
331
66D
  5
4D0
331
6AC
  5
482
331
669
  5
4CC
331
6A8
  5
47E
331
665
  5
4C8
331
6A4
  5
47A
331
6A0
  5
476
331
661
  5
4C4
331
5D7
  5
54C
331
58C
  5
570
331
588
  5
56C
331
584
  5
568
331
5CB
  5
540
331
580
  5
564
331
6D5
  5
411
331
5EE
  5
4E6
331
62D
  5
490
331
6D1
  5
40D
331
6CD
  5
409
331
5EA
  5
4E2
331
629
  5
521
331
625
  5
51D
331
6C9
  5
405
331
708
  5
444
331
621
  5
519
331
65D
  5
4C0
331
69C
  5
472
331
659
  5
4BC
331
698
  5
46E
331
694
  5
46A
331
690
  5
466
331
5BF
  5
534
331
5AD
  5
591
331
5BB
  5
530
331
5A9
  5
58D
  0
ACDBDETAILVIEWSTYLE
  5
26A
102
{ACAD_XDICTIONARY
360
7FC
102
}
102
{ACAD_REACTORS
330
269
102
}
330
269
100
AcDbModelDocViewStyle
 70
     0
  3
Metric50
290
     0
100
AcDbDetailViewStyle
 70
     0
 71
     0
 90
        3
 71
     1
340
11
 40
5.0
340
0
 40
5.0
300

 40
0.0
280
     1
 71
     2
340
16
 90
       25
 71
     3
340
11
 40
5.0
 90
        0
 40
15.0
 90
        1
300
%<\AcVar ViewDetailId>% (%<\AcVar ViewScale \f "%sn">%)
 71
     4
340
16
 90
       25
340
16
 90
       25
280
     0
  0
GROUP
  5
757
102
{ACAD_REACTORS
330
D
102
}
330
D
100
AcDbGroup
300

 70
     1
 71
     1
340
73B
340
73A
340
739
340
62C
340
62B
340
62A
340
629
340
628
340
627
340
626
340
625
340
624
340
623
340
622
340
621
340
620
340
61F
340
61E
340
61D
340
61C
340
61B
340
61A
340
619
340
618
340
617
340
616
340
615
340
614
340
613
340
612
340
611
340
610
340
60F
340
60E
340
60D
340
60C
340
60B
340
60A
340
609
340
608
340
607
340
606
340
605
340
604
340
603
340
602
340
601
340
600
340
5FF
340
5FE
340
5FD
340
5FC
340
5FB
340
5FA
340
5F9
340
5F8
340
5F7
340
5F6
340
5F5
340
5F4
340
5F3
340
5F2
340
5F1
340
5F0
340
5EF
340
5EE
340
5ED
340
5EC
340
5EB
340
5EA
340
5E9
340
5E8
340
5E7
340
5E6
340
5E5
340
5E4
340
5E3
340
5E2
340
5E1
340
5E0
340
5DF
340
5DE
340
5DD
340
5DC
  0
GROUP
  5
758
102
{ACAD_REACTORS
330
D
102
}
330
D
100
AcDbGroup
300

 70
     1
 71
     1
340
755
340
744
340
670
340
66F
340
66E
340
66D
340
66C
340
66B
340
66A
340
669
340
668
340
667
340
666
340
665
340
664
340
663
340
662
340
661
340
660
340
65F
340
65E
340
65D
340
65C
340
65B
340
65A
340
659
340
658
340
657
340
656
340
655
340
654
340
653
340
652
340
651
340
650
340
64F
340
64E
340
64D
340
64C
340
64B
340
64A
340
649
340
648
340
647
340
646
340
645
340
644
340
643
340
642
340
641
340
640
340
63F
340
63E
340
63D
340
63C
340
63B
340
63A
340
639
340
638
340
637
340
636
340
635
340
634
340
633
340
632
340
631
340
630
340
62F
340
62E
340
62D
  0
GROUP
  5
759
102
{ACAD_REACTORS
330
D
102
}
330
D
100
AcDbGroup
300

 70
     1
 71
     1
340
754
340
753
340
745
340
70A
340
709
340
708
340
707
340
706
340
705
340
704
340
703
340
702
340
701
340
700
340
6FF
340
6FE
340
6FD
340
6FC
340
6FB
340
6FA
340
6F9
340
6F8
340
6F7
340
6F6
340
6F5
340
6F4
340
6F3
340
6F2
340
6F1
340
6F0
340
6EF
340
6EE
340
6ED
340
6EC
340
6EB
340
6EA
340
6E9
340
6E8
340
6E7
340
6E6
340
6E5
340
6E4
340
6E3
340
6E2
340
6E1
340
6E0
340
6DF
340
6DE
340
6DD
340
6DC
340
6DB
340
6DA
340
6D9
340
6D8
340
6D7
340
6D6
340
6D5
340
6D4
340
6D3
340
6D2
340
6D1
340
6D0
340
6CF
340
6CE
340
6CD
340
6CC
340
6CB
340
6CA
340
6C9
340
6C8
340
6C7
340
6C6
340
6C5
340
6C4
340
6C3
340
6C2
340
6C1
340
6C0
340
6BF
340
6BE
340
6BD
340
6BC
340
6BB
340
6BA
  0
GROUP
  5
75A
102
{ACAD_REACTORS
330
D
102
}
330
D
100
AcDbGroup
300

 70
     1
 71
     1
340
726
340
725
340
724
340
723
340
722
340
721
340
720
340
71F
340
71E
340
71D
340
71C
340
71B
340
71A
340
719
340
718
340
717
340
716
340
715
340
5AD
340
5AC
340
5A9
340
5A6
340
5A3
340
5A0
340
59D
340
59A
340
597
340
594
340
593
340
592
340
591
340
590
340
58F
340
58E
340
58D
340
58C
340
58B
340
58A
340
589
340
588
340
587
340
586
340
585
340
584
340
583
340
582
340
581
340
580
340
57F
340
57E
340
57D
340
57C
340
57B
340
57A
340
579
340
578
340
577
340
576
340
575
340
574
340
573
340
572
340
571
340
570
340
56F
340
56E
340
56D
  0
GROUP
  5
765
102
{ACAD_REACTORS
330
D
102
}
330
D
100
AcDbGroup
300

 70
     1
 71
     1
340
756
340
746
340
6B9
340
6B8
340
6B7
340
6B6
340
6B5
340
6B4
340
6B3
340
6B2
340
6B1
340
6B0
340
6AF
340
6AE
340
6AD
340
6AC
340
6AB
340
6AA
340
6A9
340
6A8
340
6A7
340
6A6
340
6A5
340
6A4
340
6A3
340
6A2
340
6A1
340
6A0
340
69F
340
69E
340
69D
340
69C
340
69B
340
69A
340
699
340
698
340
697
340
696
340
695
340
694
340
693
340
692
340
691
340
690
340
68F
340
68E
340
68D
340
68C
340
68B
340
68A
340
689
340
688
340
687
340
686
340
685
340
684
340
683
340
682
340
681
340
680
340
67F
340
67E
340
67D
340
67C
340
67B
340
67A
340
679
340
678
340
677
340
676
340
675
340
674
340
673
340
672
340
671
  0
GROUP
  5
766
102
{ACAD_REACTORS
330
D
102
}
330
D
100
AcDbGroup
300

 70
     1
 71
     1
340
738
340
737
340
736
340
735
340
734
340
733
340
732
340
731
340
730
340
72F
340
72E
340
72D
340
72C
340
72B
340
72A
340
729
340
728
340
727
340
5DB
340
5DA
340
5D7
340
5D4
340
5D1
340
5CE
340
5CB
340
5C8
340
5C5
340
5C2
340
5C1
340
5C0
340
5BF
340
5BE
340
5BD
340
5BC
340
5BB
340
5BA
340
5B9
340
5B8
340
5B7
340
5B6
340
5B5
340
5B4
340
5B3
340
5B2
340
5B1
340
5B0
  0
LAYOUT
  5
1E
102
{ACAD_XDICTIONARY
360
7C5
102
}
102
{ACAD_REACTORS
330
1A
102
}
330
1A
100
AcDbPlotSettings
  1

  2
none_device
  4

  6

 40
0.0
 41
0.0
 42
0.0
 43
0.0
 44
0.0
 45
0.0
 46
0.0
 47
0.0
 48
0.0
 49
0.0
140
0.0
141
0.0
142
1.0
143
1.0
 70
   688
 72
     1
 73
     0
 74
     5
  7

 75
    16
147
1.0
148
0.0
149
0.0
100
AcDbLayout
  1
Layout1
 70
     1
 71
     1
 10
0.0
 20
0.0
 11
420.0
 21
297.0
 12
0.0
 22
0.0
 32
0.0
 14
1.000000000000000E+20
 24
1.000000000000000E+20
 34
1.000000000000000E+20
 15
-1.000000000000000E+20
 25
-1.000000000000000E+20
 35
-1.000000000000000E+20
146
0.0
 13
0.0
 23
0.0
 33
0.0
 16
1.0
 26
0.0
 36
0.0
 17
0.0
 27
1.0
 37
0.0
 76
     0
330
1B
  0
LAYOUT
  5
22
102
{ACAD_XDICTIONARY
360
7C7
102
}
102
{ACAD_REACTORS
330
1A
102
}
330
1A
100
AcDbPlotSettings
  1

  2
none_device
  4
Letter_(8.50_x_11.00_Inches)
  6

 40
6.349999999999998
 41
6.349999999999998
 42
6.350005079999998
 43
6.350005079999998
 44
215.9
 45
279.4
 46
0.0
 47
0.0
 48
0.0
 49
0.0
140
0.0
141
0.0
142
1.0
143
1.0
 70
  1712
 72
     1
 73
     0
 74
     0
  7

 75
     0
147
1.0
148
0.0
149
0.0
100
AcDbLayout
  1
Model
 70
     1
 71
     0
 10
-781.15673828125
 20
-967.4233818054201
 11
1347.014401388622
 21
512.4877166748047
 12
0.0
 22
0.0
 32
0.0
 14
-781.15673828125
 24
-967.4233818054201
 34
0.0
 15
1347.014401388622
 25
512.4877166748047
 35
0.0
146
0.0
 13
0.0
 23
0.0
 33
0.0
 16
1.0
 26
0.0
 36
0.0
 17
0.0
 27
1.0
 37
0.0
 76
     0
330
1F
331
29
  0
LAYOUT
  5
26B
102
{ACAD_XDICTIONARY
360
7FE
102
}
102
{ACAD_REACTORS
330
1A
102
}
330
1A
100
AcDbPlotSettings
  1

  2
青梅 FX DocuCentre-V C2275 T2
  4

  6

 40
0.0
 41
0.0
 42
0.0
 43
0.0
 44
0.0
 45
0.0
 46
0.0
 47
0.0
 48
0.0
 49
0.0
140
0.0
141
0.0
142
1.0
143
1.0
 70
   688
 72
     0
 73
     0
 74
     5
  7
AutoCAD_PEN.ctb
 75
    16
147
1.0
148
0.0
149
0.0
100
AcDbLayout
  1
レイアウト1
 70
     1
 71
     2
 10
0.0
 20
0.0
 11
12.0
 21
9.0
 12
0.0
 22
0.0
 32
0.0
 14
0.0
 24
0.0
 34
0.0
 15
0.0
 25
0.0
 35
0.0
146
0.0
 13
0.0
 23
0.0
 33
0.0
 16
1.0
 26
0.0
 36
0.0
 17
0.0
 27
1.0
 37
0.0
 76
     0
330
23
  0
MATERIAL
  5
45
102
{ACAD_XDICTIONARY
360
25D
102
}
102
{ACAD_REACTORS
330
43
102
}
330
43
100
AcDbMaterial
  1
ByBlock
  0
MATERIAL
  5
44
102
{ACAD_XDICTIONARY
360
25B
102
}
102
{ACAD_REACTORS
330
43
102
}
330
43
100
AcDbMaterial
  1
ByLayer
  0
MATERIAL
  5
46
102
{ACAD_XDICTIONARY
360
25F
102
}
102
{ACAD_REACTORS
330
43
102
}
330
43
100
AcDbMaterial
  1
Global
  0
MLEADERSTYLE
  5
5C
102
{ACAD_REACTORS
330
5B
102
}
330
5B
100
AcDbMLeaderStyle
170
     2
171
     1
172
     0
 90
        2
 40
0.0
 41
0.0
173
     1
 91
-1056964608
340
14
 92
       -2
290
     1
 42
2.0
291
     1
 43
8.0
  3
Standard
 44
4.0
300

342
11
174
     1
178
     6
175
     1
176
     0
 93
-1056964608
 45
4.0
292
     0
297
     0
 46
4.0
 94
-1056964608
 47
1.0
 49
1.0
140
1.0
293
     1
141
0.0
294
     1
177
     0
142
1.0
295
     0
296
     0
143
3.75
1001
ACAD_MLEADERVER
1070
     2
  0
MLINESTYLE
  5
18
102
{ACAD_REACTORS
330
17
102
}
330
17
100
AcDbMlineStyle
  2
STANDARD
 70
     0
  3

 62
   256
 51
90.0
 52
90.0
 71
     2
 49
0.5
 62
   256
  6
BYLAYER
 49
-0.5
 62
   256
  6
BYLAYER
  0
ACDBPLACEHOLDER
  5
F
102
{ACAD_REACTORS
330
E
102
}
330
E
  0
SCALE
  5
48
102
{ACAD_REACTORS
330
47
102
}
330
47
100
AcDbScale
 70
     0
300
1:1
140
1.0
141
1.0
290
     1
  0
SCALE
  5
49
102
{ACAD_REACTORS
330
47
102
}
330
47
100
AcDbScale
 70
     0
300
1:2
140
1.0
141
2.0
290
     0
  0
SCALE
  5
4A
102
{ACAD_REACTORS
330
47
102
}
330
47
100
AcDbScale
 70
     0
300
1:4
140
1.0
141
4.0
290
     0
  0
SCALE
  5
4B
102
{ACAD_REACTORS
330
47
102
}
330
47
100
AcDbScale
 70
     0
300
1:5
140
1.0
141
5.0
290
     0
  0
SCALE
  5
4C
102
{ACAD_REACTORS
330
47
102
}
330
47
100
AcDbScale
 70
     0
300
1:8
140
1.0
141
8.0
290
     0
  0
SCALE
  5
4D
102
{ACAD_REACTORS
330
47
102
}
330
47
100
AcDbScale
 70
     0
300
1:10
140
1.0
141
10.0
290
     0
  0
SCALE
  5
4E
102
{ACAD_REACTORS
330
47
102
}
330
47
100
AcDbScale
 70
     0
300
1:16
140
1.0
141
16.0
290
     0
  0
SCALE
  5
4F
102
{ACAD_REACTORS
330
47
102
}
330
47
100
AcDbScale
 70
     0
300
1:20
140
1.0
141
20.0
290
     0
  0
SCALE
  5
50
102
{ACAD_REACTORS
330
47
102
}
330
47
100
AcDbScale
 70
     0
300
1:30
140
1.0
141
30.0
290
     0
  0
SCALE
  5
51
102
{ACAD_REACTORS
330
47
102
}
330
47
100
AcDbScale
 70
     0
300
1:40
140
1.0
141
40.0
290
     0
  0
SCALE
  5
52
102
{ACAD_REACTORS
330
47
102
}
330
47
100
AcDbScale
 70
     0
300
1:50
140
1.0
141
50.0
290
     0
  0
SCALE
  5
53
102
{ACAD_REACTORS
330
47
102
}
330
47
100
AcDbScale
 70
     0
300
1:100
140
1.0
141
100.0
290
     0
  0
SCALE
  5
54
102
{ACAD_REACTORS
330
47
102
}
330
47
100
AcDbScale
 70
     0
300
2:1
140
2.0
141
1.0
290
     0
  0
SCALE
  5
55
102
{ACAD_REACTORS
330
47
102
}
330
47
100
AcDbScale
 70
     0
300
4:1
140
4.0
141
1.0
290
     0
  0
SCALE
  5
56
102
{ACAD_REACTORS
330
47
102
}
330
47
100
AcDbScale
 70
     0
300
8:1
140
8.0
141
1.0
290
     0
  0
SCALE
  5
57
102
{ACAD_REACTORS
330
47
102
}
330
47
100
AcDbScale
 70
     0
300
10:1
140
10.0
141
1.0
290
     0
  0
SCALE
  5
58
102
{ACAD_REACTORS
330
47
102
}
330
47
100
AcDbScale
 70
     0
300
100:1
140
100.0
141
1.0
290
     0
  0
ACDBSECTIONVIEWSTYLE
  5
268
102
{ACAD_XDICTIONARY
360
7FA
102
}
102
{ACAD_REACTORS
330
267
102
}
330
267
100
AcDbModelDocViewStyle
 70
     0
  3
Metric50
290
     0
100
AcDbSectionViewStyle
 70
     0
 71
     0
 90
      102
 71
     1
340
11
 40
5.0
340
0
340
0
 40
5.0
300
I, O, Q, S, X, Z
 40
10.0
 90
        0
 40
2.5
 90
        0
 71
     2
340
16
 90
       25
340
16
 90
       50
 40
5.0
 40
2.5
 40
5.0
 71
     3
340
11
 40
5.0
 90
        0
 40
15.0
 90
        1
300
%<\AcVar ViewSectionStartId>%-%<\AcVar ViewSectionEndId>% (%<\AcVar ViewScale \f "%sn">%)
 71
     4
300
ANSI31
 40
1.0
 90
        0
290
     0
290
     0
 90
        6
 40
0.0
 40
1.570796326794896
 40
0.2617993877991494
 40
1.308996938995747
 40
-0.2617993877991494
 40
1.832595714594045
  0
TABLESTYLE
  5
5A
102
{ACAD_XDICTIONARY
360
770
102
}
102
{ACAD_REACTORS
330
59
102
}
330
59
100
AcDbTableStyle
  3
Standard
 70
     0
 71
     0
 40
1.5
 41
1.5
280
     0
281
     0
  7
Standard
140
4.5
170
     2
 62
     0
 63
     7
283
     0
274
    -2
284
     1
 64
     0
275
    -2
285
     1
 65
     0
276
    -2
286
     1
 66
     0
277
    -2
287
     1
 67
     0
278
    -2
288
     1
 68
     0
279
    -2
289
     1
 69
     0
  7
Standard
140
6.0
170
     5
 62
     0
 63
     7
283
     0
274
    -2
284
     1
 64
     0
275
    -2
285
     1
 65
     0
276
    -2
286
     1
 66
     0
277
    -2
287
     1
 67
     0
278
    -2
288
     1
 68
     0
279
    -2
289
     1
 69
     0
  7
Standard
140
4.5
170
     5
 62
     0
 63
     7
283
     0
274
    -2
284
     1
 64
     0
275
    -2
285
     1
 65
     0
276
    -2
286
     1
 66
     0
277
    -2
287
     1
 67
     0
278
    -2
288
     1
 68
     0
279
    -2
289
     1
 69
     0
  0
VISUALSTYLE
  5
2F
102
{ACAD_XDICTIONARY
360
7D1
102
}
102
{ACAD_REACTORS
330
2A
102
}
330
2A
100
AcDbVisualStyle
  2

 70
     4
 71
     0
 72
     2
 73
     0
 90
        0
 40
-0.6
 41
-30.0
 62
     5
 63
     7
 74
     1
 91
        4
 64
     7
 65
   257
 75
     1
175
     1
 42
1.0
 92
        0
 66
   257
 43
1.0
 76
     1
 77
     6
 78
     2
 67
     7
 79
     5
170
     0
171
     0
290
     0
174
     0
 93
        1
 44
0.0
173
     0
291
     0
 45
0.0
1001
ACAD
1000
AcDbSavedByObjectVersion
1070
     0
  0
VISUALSTYLE
  5
32
102
{ACAD_XDICTIONARY
360
7D7
102
}
102
{ACAD_REACTORS
330
2A
102
}
330
2A
100
AcDbVisualStyle
  2

 70
     7
 71
     1
 72
     0
 73
     1
 90
        0
 40
-0.6
 41
-30.0
 62
     5
 63
     7
 74
     0
 91
        4
 64
     7
 65
   257
 75
     1
175
     1
 42
1.0
 92
        8
 66
     7
 43
1.0
 76
     1
 77
     6
 78
     2
 67
     7
 79
     5
170
     0
171
     0
290
     0
174
     0
 93
        1
 44
0.0
173
     0
291
     1
 45
0.0
1001
ACAD
1000
AcDbSavedByObjectVersion
1070
     0
  0
VISUALSTYLE
  5
36
102
{ACAD_XDICTIONARY
360
7DF
102
}
102
{ACAD_REACTORS
330
2A
102
}
330
2A
100
AcDbVisualStyle
  2

 70
    12
 71
     2
 72
     2
 73
     0
 90
        0
 40
-0.6
 41
-30.0
 62
     5
 63
     7
 74
     1
 91
        4
 64
     7
 65
   257
 75
     1
175
     1
 42
1.0
 92
        8
 66
     7
 43
1.0
 76
     1
 77
     6
 78
     2
 67
     7
 79
     5
170
     0
171
     0
290
     0
174
     0
 93
        1
 44
50.0
173
     0
291
     1
 45
0.0
1001
ACAD
1000
AcDbSavedByObjectVersion
1070
     0
  0
VISUALSTYLE
  5
3A
102
{ACAD_XDICTIONARY
360
7E7
102
}
102
{ACAD_REACTORS
330
2A
102
}
330
2A
100
AcDbVisualStyle
  2

 70
    16
 71
     2
 72
     2
 73
     3
 90
        0
 40
-0.6
 41
-30.0
 62
     5
 63
     8
 74
     1
 91
        4
 64
     7
 65
   257
 75
     1
175
     1
 42
1.0
 92
        8
 66
     8
 43
1.0
 76
     1
 77
     6
 78
     2
 67
     7
 79
     5
170
     0
171
     0
290
     0
174
     0
 93
        1
 44
0.0
173
     0
291
     1
 45
0.0
1001
ACAD
1000
AcDbSavedByObjectVersion
1070
     0
  0
VISUALSTYLE
  5
34
102
{ACAD_XDICTIONARY
360
7DB
102
}
102
{ACAD_REACTORS
330
2A
102
}
330
2A
100
AcDbVisualStyle
  2

 70
     9
 71
     3
 72
     2
 73
     0
 90
        0
 40
-0.6
 41
-30.0
 62
     5
 63
     7
 74
     2
 91
        2
 64
     7
 65
   257
 75
     1
175
     1
 42
179.0
 92
        8
 66
     7
 43
1.0
 76
     1
 77
     6
 78
     2
 67
     7
 79
     3
170
     0
171
     0
290
     0
174
     0
 93
        1
 44
0.0
173
     0
291
     0
 45
0.0
1001
ACAD
1000
AcDbSavedByObjectVersion
1070
     0
  0
VISUALSTYLE
  5
35
102
{ACAD_XDICTIONARY
360
7DD
102
}
102
{ACAD_REACTORS
330
2A
102
}
330
2A
100
AcDbVisualStyle
  2

 70
    11
 71
     2
 72
     2
 73
     0
 90
        0
 40
-0.6
 41
-30.0
 62
     5
 63
     7
 74
     1
 91
        4
 64
     7
 65
   257
 75
     1
175
     1
 42
1.0
 92
        8
 66
     7
 43
1.0
 76
     1
 77
     6
 78
     2
 67
     7
 79
     5
170
     0
171
     0
290
     0
174
     0
 93
        1
 44
-50.0
173
     0
291
     1
 45
0.0
1001
ACAD
1000
AcDbSavedByObjectVersion
1070
     0
  0
VISUALSTYLE
  5
3D
102
{ACAD_XDICTIONARY
360
7ED
102
}
102
{ACAD_REACTORS
330
2A
102
}
330
2A
100
AcDbVisualStyle
  2

 70
    22
 71
     2
 72
     2
 73
     0
 90
        0
 40
-0.6
 41
-30.0
 62
     5
 63
     7
 74
     1
 91
        4
 64
     7
 65
   257
 75
     1
175
     1
 42
1.0
 92
        8
 66
     7
 43
1.0
 76
     1
 77
     6
 78
     2
 67
     7
 79
     5
170
     0
171
     0
290
     0
174
     0
 93
        1
 44
0.0
173
     0
291
     1
 45
0.0
1001
ACAD
1000
AcDbSavedByObjectVersion
1070
     0
  0
VISUALSTYLE
  5
39
102
{ACAD_XDICTIONARY
360
7E5
102
}
102
{ACAD_REACTORS
330
2A
102
}
330
2A
100
AcDbVisualStyle
  2

 70
    15
 71
     2
 72
     2
 73
     0
 90
        0
 40
-0.6
 41
-30.0
 62
     5
 63
     7
 74
     1
 91
        4
 64
     7
 65
   257
 75
     1
175
     1
 42
1.0
 92
        8
 66
     7
 43
1.0
 76
     1
 77
     6
 78
     2
 67
     7
 79
     5
170
     0
171
     0
290
     0
174
     0
 93
        1
 44
0.0
173
     0
291
     1
 45
0.0
1001
ACAD
1000
AcDbSavedByObjectVersion
1070
     0
  0
VISUALSTYLE
  5
2B
102
{ACAD_XDICTIONARY
360
7C9
102
}
102
{ACAD_REACTORS
330
2A
102
}
330
2A
100
AcDbVisualStyle
  2

 70
     0
 71
     2
 72
     1
 73
     1
 90
        2
 40
-0.6
 41
30.0
 62
     5
 63
     7
 74
     0
 91
        0
 64
     7
 65
   257
 75
     1
175
     1
 42
1.0
 92
        8
 66
     7
 43
1.0
 76
     1
 77
     6
 78
     2
 67
     7
 79
     5
170
     0
171
     0
290
     0
174
     0
 93
       13
 44
0.0
173
     0
291
     1
 45
0.0
1001
ACAD
1000
AcDbSavedByObjectVersion
1070
     0
  0
VISUALSTYLE
  5
2C
102
{ACAD_XDICTIONARY
360
7CB
102
}
102
{ACAD_REACTORS
330
2A
102
}
330
2A
100
AcDbVisualStyle
  2

 70
     1
 71
     2
 72
     1
 73
     1
 90
        2
 40
-0.6
 41
30.0
 62
     5
 63
     7
 74
     1
 91
        0
 64
     7
 65
   257
 75
     1
175
     1
 42
1.0
 92
        0
 66
   257
 43
1.0
 76
     1
 77
     6
 78
     2
 67
     7
 79
     5
170
     0
171
     0
290
     0
174
     0
 93
       13
 44
0.0
173
     0
291
     1
 45
0.0
1001
ACAD
1000
AcDbSavedByObjectVersion
1070
     0
  0
VISUALSTYLE
  5
2D
102
{ACAD_XDICTIONARY
360
7CD
102
}
102
{ACAD_REACTORS
330
2A
102
}
330
2A
100
AcDbVisualStyle
  2

 70
     2
 71
     2
 72
     2
 73
     1
 90
        2
 40
-0.6
 41
30.0
 62
     5
 63
     7
 74
     0
 91
        0
 64
     7
 65
   257
 75
     1
175
     1
 42
1.0
 92
        0
 66
     7
 43
1.0
 76
     1
 77
     6
 78
     2
 67
     7
 79
     5
170
     0
171
     0
290
     0
174
     0
 93
       13
 44
0.0
173
     0
291
     1
 45
0.0
1001
ACAD
1000
AcDbSavedByObjectVersion
1070
     0
  0
VISUALSTYLE
  5
2E
102
{ACAD_XDICTIONARY
360
7CF
102
}
102
{ACAD_REACTORS
330
2A
102
}
330
2A
100
AcDbVisualStyle
  2

 70
     3
 71
     2
 72
     2
 73
     1
 90
        2
 40
-0.6
 41
30.0
 62
     5
 63
     7
 74
     1
 91
        0
 64
     7
 65
   257
 75
     1
175
     1
 42
1.0
 92
        0
 66
   257
 43
1.0
 76
     1
 77
     6
 78
     2
 67
     7
 79
     5
170
     0
171
     0
290
     0
174
     0
 93
       13
 44
0.0
173
     0
291
     1
 45
0.0
1001
ACAD
1000
AcDbSavedByObjectVersion
1070
     0
  0
VISUALSTYLE
  5
31
102
{ACAD_XDICTIONARY
360
7D5
102
}
102
{ACAD_REACTORS
330
2A
102
}
330
2A
100
AcDbVisualStyle
  2

 70
     6
 71
     1
 72
     2
 73
     2
 90
        0
 40
-0.6
 41
-30.0
 62
     5
 63
     7
 74
     2
 91
        2
 64
     7
 65
   257
 75
     2
175
     1
 42
40.0
 92
        0
 66
   257
 43
1.0
 76
     1
 77
     6
 78
     2
 67
     7
 79
     3
170
     0
171
     0
290
     0
174
     0
 93
        1
 44
0.0
173
     0
291
     0
 45
0.0
1001
ACAD
1000
AcDbSavedByObjectVersion
1070
     0
  0
VISUALSTYLE
  5
3B
102
{ACAD_XDICTIONARY
360
7E9
102
}
102
{ACAD_REACTORS
330
2A
102
}
330
2A
100
AcDbVisualStyle
  2

 70
    20
 71
     2
 72
     2
 73
     0
 90
        0
 40
-0.6
 41
-30.0
 62
     5
 63
     7
 74
     1
 91
        4
 64
     7
 65
   257
 75
     1
175
     1
 42
1.0
 92
       10
 66
     7
 43
1.0
 76
     1
 77
     6
 78
     2
 67
     7
 79
     5
170
     0
171
     0
290
     0
174
     0
 93
        1
 44
0.0
173
     0
291
     1
 45
0.0
1001
ACAD
1000
AcDbSavedByObjectVersion
1070
     0
  0
VISUALSTYLE
  5
38
102
{ACAD_XDICTIONARY
360
7E3
102
}
102
{ACAD_REACTORS
330
2A
102
}
330
2A
100
AcDbVisualStyle
  2

 70
    14
 71
     2
 72
     2
 73
     0
 90
        0
 40
-0.6
 41
-30.0
 62
     5
 63
     7
 74
     1
 91
        4
 64
     7
 65
   257
 75
     7
175
     7
 42
1.0
 92
        8
 66
     7
 43
1.0
 76
     1
 77
     6
 78
     2
 67
     7
 79
     5
170
     0
171
     0
290
     0
174
     0
 93
        1
 44
0.0
173
     0
291
     1
 45
0.0
1001
ACAD
1000
AcDbSavedByObjectVersion
1070
     0
  0
VISUALSTYLE
  5
3C
102
{ACAD_XDICTIONARY
360
7EB
102
}
102
{ACAD_REACTORS
330
2A
102
}
330
2A
100
AcDbVisualStyle
  2

 70
    21
 71
     2
 72
     2
 73
     0
 90
        0
 40
-0.6
 41
-30.0
 62
     5
 63
     7
 74
     1
 91
        4
 64
     7
 65
   257
 75
     1
175
     1
 42
1.0
 92
        9
 66
     7
 43
1.0
 76
     1
 77
     6
 78
     2
 67
     7
 79
     5
170
     0
171
     0
290
     0
174
     0
 93
        1
 44
0.0
173
     0
291
     1
 45
0.0
1001
ACAD
1000
AcDbSavedByObjectVersion
1070
     0
  0
VISUALSTYLE
  5
33
102
{ACAD_XDICTIONARY
360
7D9
102
}
102
{ACAD_REACTORS
330
2A
102
}
330
2A
100
AcDbVisualStyle
  2

 70
     8
 71
     2
 72
     3
 73
     0
 90
        2
 40
-0.6
 41
30.0
 62
     5
 63
     7
 74
     0
 91
        0
 64
     7
 65
   257
 75
     1
175
     1
 42
1.0
 92
        8
 66
   257
 43
1.0
 76
     1
 77
     6
 78
     2
 67
     7
 79
     3
170
     0
171
     0
290
     0
174
     0
 93
       13
 44
0.0
173
     0
291
     0
 45
0.0
1001
ACAD
1000
AcDbSavedByObjectVersion
1070
     0
  0
VISUALSTYLE
  5
42
102
{ACAD_XDICTIONARY
360
7F7
102
}
102
{ACAD_REACTORS
330
2A
102
}
330
2A
100
AcDbVisualStyle
  2

 70
    27
 71
     2
 72
     2
 73
     1
 90
        2
 40
-0.6
 41
30.0
 62
     5
 63
     7
 74
     0
 91
        4
 64
     7
 65
   257
 75
     1
175
     1
 42
1.0
 92
        8
 66
   257
 43
1.0
 76
     1
 77
     6
 78
     2
 67
     8
 79
     3
170
     0
171
     0
290
     0
174
     0
 93
        5
 44
0.0
173
     0
291
     0
 45
0.0
1001
ACAD
1000
AcDbSavedByObjectVersion
1070
     0
  0
VISUALSTYLE
  5
41
102
{ACAD_XDICTIONARY
360
7F5
102
}
102
{ACAD_REACTORS
330
2A
102
}
330
2A
100
AcDbVisualStyle
  2

 70
    26
 71
     2
 72
     2
 73
     1
 90
        2
 40
-0.6
 41
30.0
 62
     5
 63
     7
 74
     1
 91
       10
 64
     7
 65
   257
 75
     2
175
     1
 42
1.0
 92
        8
 66
   257
 43
1.0
 76
     1
 77
     6
 78
     2
 67
     7
 79
     3
170
     0
171
     0
290
     0
174
     0
 93
        5
 44
0.0
173
     0
291
     0
 45
0.0
1001
ACAD
1000
AcDbSavedByObjectVersion
1070
     0
  0
VISUALSTYLE
  5
3E
102
{ACAD_XDICTIONARY
360
7EF
102
}
102
{ACAD_REACTORS
330
2A
102
}
330
2A
100
AcDbVisualStyle
  2

 70
    23
 71
     2
 72
     2
 73
     3
 90
        0
 40
-0.6
 41
-30.0
 62
     5
 63
     7
 74
     2
 91
        2
 64
     7
 65
     7
 75
     1
175
     1
 42
40.0
 92
        8
 66
     7
 43
1.0
 76
     1
 77
     6
 78
     2
 67
     7
 79
     3
170
     0
171
     0
290
     0
174
     0
 93
        1
 44
0.0
173
     0
291
     0
 45
0.0
1001
ACAD
1000
AcDbSavedByObjectVersion
1070
     0
  0
VISUALSTYLE
  5
3F
102
{ACAD_XDICTIONARY
360
7F1
102
}
102
{ACAD_REACTORS
330
2A
102
}
330
2A
100
AcDbVisualStyle
  2

 70
    24
 71
     1
 72
     2
 73
     2
 90
        0
 40
-0.6
 41
-30.0
 62
     5
 63
     7
 74
     2
 91
        2
 64
     7
 65
     7
 75
     1
175
     1
 42
40.0
 92
       11
 66
     7
 43
1.0
 76
     1
 77
     6
 78
     2
 67
     7
 79
     6
170
     0
171
     0
290
     0
174
     0
 93
        1
 44
0.0
173
     0
291
     0
 45
0.0
1001
ACAD
1000
AcDbSavedByObjectVersion
1070
     0
  0
VISUALSTYLE
  5
37
102
{ACAD_XDICTIONARY
360
7E1
102
}
102
{ACAD_REACTORS
330
2A
102
}
330
2A
100
AcDbVisualStyle
  2

 70
    13
 71
     2
 72
     2
 73
     0
 90
        0
 40
-0.6
 41
-30.0
 62
     5
 63
     7
 74
     1
 91
        4
 64
     7
 65
   257
 75
     1
175
     1
 42
1.0
 92
       12
 66
     7
 43
1.0
 76
     1
 77
     6
 78
     2
 67
     7
 79
     5
170
     0
171
     0
290
     0
174
     0
 93
        1
 44
0.0
173
     0
291
     1
 45
0.0
1001
ACAD
1000
AcDbSavedByObjectVersion
1070
     0
  0
VISUALSTYLE
  5
30
102
{ACAD_XDICTIONARY
360
7D3
102
}
102
{ACAD_REACTORS
330
2A
102
}
330
2A
100
AcDbVisualStyle
  2

 70
     5
 71
     0
 72
     2
 73
     0
 90
        0
 40
-0.6
 41
-30.0
 62
     5
 63
     7
 74
     1
 91
        4
 64
     7
 65
   257
 75
     1
175
     1
 42
1.0
 92
        0
 66
   257
 43
1.0
 76
     1
 77
     6
 78
     2
 67
     7
 79
     3
170
     0
171
     0
290
     0
174
     0
 93
        1
 44
0.0
173
     0
291
     0
 45
0.0
1001
ACAD
1000
AcDbSavedByObjectVersion
1070
     0
  0
VISUALSTYLE
  5
40
102
{ACAD_XDICTIONARY
360
7F3
102
}
102
{ACAD_REACTORS
330
2A
102
}
330
2A
100
AcDbVisualStyle
  2

 70
    25
 71
     2
 72
     2
 73
     1
 90
        1
 40
0.5
 41
-30.0
 62
     5
 63
     7
 74
     1
 91
        0
 64
     7
 65
   257
 75
     1
175
     1
 42
1.0
 92
        8
 66
     7
 43
1.0
 76
     1
 77
     6
 78
     2
 67
     7
 79
     3
170
     0
171
     0
290
     0
174
     0
 93
       13
 44
0.0
173
     0
291
     0
 45
0.0
1001
ACAD
1000
AcDbSavedByObjectVersion
1070
     0
  0
DICTIONARYVAR
  5
229
102
{ACAD_REACTORS
330
21B
102
}
330
21B
100
DictionaryVariables
280
     0
  1
1:1
  0
DICTIONARYVAR
  5
222
102
{ACAD_REACTORS
330
21B
102
}
330
21B
100
DictionaryVariables
280
     0
  1
3.500000
  0
DICTIONARYVAR
  5
223
102
{ACAD_REACTORS
330
21B
102
}
330
21B
100
DictionaryVariables
280
     0
  1
acadiso.lin
  0
DICTIONARYVAR
  5
21D
102
{ACAD_REACTORS
330
21B
102
}
330
21B
100
DictionaryVariables
280
     0
  1
STANDARD
  0
DICTIONARYVAR
  5
21C
102
{ACAD_REACTORS
330
21B
102
}
330
21B
100
DictionaryVariables
280
     0
  1
STANDARD
  0
DICTIONARYVAR
  5
76B
102
{ACAD_REACTORS
330
21B
102
}
330
21B
100
DictionaryVariables
280
     0
  1
Metric50
  0
DICTIONARYVAR
  5
76C
102
{ACAD_REACTORS
330
21B
102
}
330
21B
100
DictionaryVariables
280
     0
  1
Metric50
  0
DICTIONARYVAR
  5
224
102
{ACAD_REACTORS
330
21B
102
}
330
21B
100
DictionaryVariables
280
     0
  1
2
  0
DICTIONARYVAR
  5
225
102
{ACAD_REACTORS
330
21B
102
}
330
21B
100
DictionaryVariables
280
     0
  1
1
  0
DICTIONARYVAR
  5
7BB
102
{ACAD_REACTORS
330
21B
102
}
330
21B
100
DictionaryVariables
280
     0
  1
0
  0
DICTIONARYVAR
  5
76E
102
{ACAD_REACTORS
330
21B
102
}
330
21B
100
DictionaryVariables
280
     0
  1
1
  0
DICTIONARYVAR
  5
76F
102
{ACAD_REACTORS
330
21B
102
}
330
21B
100
DictionaryVariables
280
     0
  1
15
  0
DICTIONARYVAR
  5
76D
102
{ACAD_REACTORS
330
21B
102
}
330
21B
100
DictionaryVariables
280
     0
  1
0
  0
DICTIONARYVAR
  5
7BE
102
{ACAD_REACTORS
330
21B
102
}
330
21B
100
DictionaryVariables
280
     0
  1
1.570796
  0
DICTIONARYVAR
  5
7BF
102
{ACAD_REACTORS
330
21B
102
}
330
21B
100
DictionaryVariables
280
     0
  1
1.570796
  0
DICTIONARYVAR
  5
7C0
102
{ACAD_REACTORS
330
21B
102
}
330
21B
100
DictionaryVariables
280
     0
  1
-122.394000
  0
DICTIONARYVAR
  5
22A
102
{ACAD_REACTORS
330
21B
102
}
330
21B
100
DictionaryVariables
280
     0
  1
1
  0
DICTIONARYVAR
  5
7BD
102
{ACAD_REACTORS
330
21B
102
}
330
21B
100
DictionaryVariables
280
     0
  1
80.000000
  0
DICTIONARYVAR
  5
7BC
102
{ACAD_REACTORS
330
21B
102
}
330
21B
100
DictionaryVariables
280
     0
  1
5.000000
  0
DICTIONARYVAR
  5
7BA
102
{ACAD_REACTORS
330
21B
102
}
330
21B
100
DictionaryVariables
280
     0
  1
127
  0
DICTIONARYVAR
  5
7C1
102
{ACAD_REACTORS
330
21B
102
}
330
21B
100
DictionaryVariables
280
     0
  1
2
  0
DICTIONARY
  5
7FC
330
26A
100
AcDbDictionary
280
     1
281
     1
  3
ACAD_XREC_ROUNDTRIP
360
7FD
  0
DICTIONARY
  5
7C5
330
1E
100
AcDbDictionary
280
     1
281
     1
  3
ACAD_XREC_ROUNDTRIP
360
7C6
  0
DICTIONARY
  5
7C7
330
22
100
AcDbDictionary
280
     1
281
     1
  3
ACAD_XREC_ROUNDTRIP
360
7C8
  0
DICTIONARY
  5
7FE
330
26B
100
AcDbDictionary
280
     1
281
     1
  3
ACAD_XREC_ROUNDTRIP
360
7FF
  0
DICTIONARY
  5
25D
330
45
100
AcDbDictionary
280
     1
281
     1
  3
ACAD_XREC_ROUNDTRIP
360
25E
  0
DICTIONARY
  5
25B
330
44
100
AcDbDictionary
280
     1
281
     1
  3
ACAD_XREC_ROUNDTRIP
360
25C
  0
DICTIONARY
  5
25F
330
46
100
AcDbDictionary
280
     1
281
     1
  3
ACAD_XREC_ROUNDTRIP
360
260
  0
DICTIONARY
  5
7FA
330
268
100
AcDbDictionary
280
     1
281
     1
  3
ACAD_XREC_ROUNDTRIP
360
7FB
  0
DICTIONARY
  5
770
330
5A
100
AcDbDictionary
280
     1
281
     1
  3
ACAD_ROUNDTRIP_2008_TABLESTYLE_CELLSTYLEMAP
360
7C2
  3
ACAD_XREC_ROUNDTRIP
360
7F9
  0
DICTIONARY
  5
7D1
330
2F
100
AcDbDictionary
280
     1
281
     1
  3
ACAD_XREC_ROUNDTRIP
360
7D2
  0
DICTIONARY
  5
7D7
330
32
100
AcDbDictionary
280
     1
281
     1
  3
ACAD_XREC_ROUNDTRIP
360
7D8
  0
DICTIONARY
  5
7DF
330
36
100
AcDbDictionary
280
     1
281
     1
  3
ACAD_XREC_ROUNDTRIP
360
7E0
  0
DICTIONARY
  5
7E7
330
3A
100
AcDbDictionary
280
     1
281
     1
  3
ACAD_XREC_ROUNDTRIP
360
7E8
  0
DICTIONARY
  5
7DB
330
34
100
AcDbDictionary
280
     1
281
     1
  3
ACAD_XREC_ROUNDTRIP
360
7DC
  0
DICTIONARY
  5
7DD
330
35
100
AcDbDictionary
280
     1
281
     1
  3
ACAD_XREC_ROUNDTRIP
360
7DE
  0
DICTIONARY
  5
7ED
330
3D
100
AcDbDictionary
280
     1
281
     1
  3
ACAD_XREC_ROUNDTRIP
360
7EE
  0
DICTIONARY
  5
7E5
330
39
100
AcDbDictionary
280
     1
281
     1
  3
ACAD_XREC_ROUNDTRIP
360
7E6
  0
DICTIONARY
  5
7C9
330
2B
100
AcDbDictionary
280
     1
281
     1
  3
ACAD_XREC_ROUNDTRIP
360
7CA
  0
DICTIONARY
  5
7CB
330
2C
100
AcDbDictionary
280
     1
281
     1
  3
ACAD_XREC_ROUNDTRIP
360
7CC
  0
DICTIONARY
  5
7CD
330
2D
100
AcDbDictionary
280
     1
281
     1
  3
ACAD_XREC_ROUNDTRIP
360
7CE
  0
DICTIONARY
  5
7CF
330
2E
100
AcDbDictionary
280
     1
281
     1
  3
ACAD_XREC_ROUNDTRIP
360
7D0
  0
DICTIONARY
  5
7D5
330
31
100
AcDbDictionary
280
     1
281
     1
  3
ACAD_XREC_ROUNDTRIP
360
7D6
  0
DICTIONARY
  5
7E9
330
3B
100
AcDbDictionary
280
     1
281
     1
  3
ACAD_XREC_ROUNDTRIP
360
7EA
  0
DICTIONARY
  5
7E3
330
38
100
AcDbDictionary
280
     1
281
     1
  3
ACAD_XREC_ROUNDTRIP
360
7E4
  0
DICTIONARY
  5
7EB
330
3C
100
AcDbDictionary
280
     1
281
     1
  3
ACAD_XREC_ROUNDTRIP
360
7EC
  0
DICTIONARY
  5
7D9
330
33
100
AcDbDictionary
280
     1
281
     1
  3
ACAD_XREC_ROUNDTRIP
360
7DA
  0
DICTIONARY
  5
7F7
330
42
100
AcDbDictionary
280
     1
281
     1
  3
ACAD_XREC_ROUNDTRIP
360
7F8
  0
DICTIONARY
  5
7F5
330
41
100
AcDbDictionary
280
     1
281
     1
  3
ACAD_XREC_ROUNDTRIP
360
7F6
  0
DICTIONARY
  5
7EF
330
3E
100
AcDbDictionary
280
     1
281
     1
  3
ACAD_XREC_ROUNDTRIP
360
7F0
  0
DICTIONARY
  5
7F1
330
3F
100
AcDbDictionary
280
     1
281
     1
  3
ACAD_XREC_ROUNDTRIP
360
7F2
  0
DICTIONARY
  5
7E1
330
37
100
AcDbDictionary
280
     1
281
     1
  3
ACAD_XREC_ROUNDTRIP
360
7E2
  0
DICTIONARY
  5
7D3
330
30
100
AcDbDictionary
280
     1
281
     1
  3
ACAD_XREC_ROUNDTRIP
360
7D4
  0
DICTIONARY
  5
7F3
330
40
100
AcDbDictionary
280
     1
281
     1
  3
ACAD_XREC_ROUNDTRIP
360
7F4
  0
XRECORD
  5
7FD
102
{ACAD_REACTORS
330
7FC
102
}
330
7FC
100
AcDbXrecord
280
     1
102
DISPLAYNAME
  1
Metric50
102
FLAGS
 90
        0
  0
XRECORD
  5
7C6
102
{ACAD_REACTORS
330
7C5
102
}
330
7C5
100
AcDbXrecord
280
     1
102
SHADEPLOT
 70
     0
102
SHADEPLOTRESLEVEL
 70
     2
102
SHADEPLOTCUSTOMDPI
 70
   300
  0
XRECORD
  5
7C8
102
{ACAD_REACTORS
330
7C7
102
}
330
7C7
100
AcDbXrecord
280
     1
102
SHADEPLOT
 70
     0
102
SHADEPLOTRESLEVEL
 70
     2
102
SHADEPLOTCUSTOMDPI
 70
   300
  0
XRECORD
  5
7FF
102
{ACAD_REACTORS
330
7FE
102
}
330
7FE
100
AcDbXrecord
280
     1
102
SHADEPLOT
 70
     0
102
SHADEPLOTRESLEVEL
 70
     2
102
SHADEPLOTCUSTOMDPI
 70
   300
  0
XRECORD
  5
25E
102
{ACAD_REACTORS
330
25D
102
}
330
25D
100
AcDbXrecord
280
     1
102
MATERIAL
148
0.0
149
0.0
149
0.0
 93
        0
 94
      127
282
     0
 72
     1
 77
     1
171
     1
175
     1
179
     1
273
     0
  0
XRECORD
  5
25C
102
{ACAD_REACTORS
330
25B
102
}
330
25B
100
AcDbXrecord
280
     1
102
MATERIAL
148
0.0
149
0.0
149
0.0
 93
        0
 94
      127
282
     0
 72
     1
 77
     1
171
     1
175
     1
179
     1
273
     0
  0
XRECORD
  5
260
102
{ACAD_REACTORS
330
25F
102
}
330
25F
100
AcDbXrecord
280
     1
102
MATERIAL
148
0.0
149
0.0
149
0.0
 93
        0
 94
      127
282
     0
 72
     1
 77
     1
171
     1
175
     1
179
     1
273
     0
  0
XRECORD
  5
7FB
102
{ACAD_REACTORS
330
7FA
102
}
330
7FA
100
AcDbXrecord
280
     1
102
DISPLAYNAME
  1
Metric50
102
FLAGS
 90
        0
  0
CELLSTYLEMAP
  5
7C2
102
{ACAD_REACTORS
330
770
102
}
330
770
100
AcDbCellStyleMap
 90
        3
300
CELLSTYLE
  1
TABLEFORMAT_BEGIN
 90
        5
170
     1
 91
        0
 92
    32768
 62
   257
 93
        1
300
CONTENTFORMAT
  1
CONTENTFORMAT_BEGIN
 90
        0
 91
        0
 92
        4
 93
        0
300

 40
0.0
140
1.0
 94
        5
 62
     0
340
11
144
6.0
309
CONTENTFORMAT_END
171
     1
301
MARGIN
  1
CELLMARGIN_BEGIN
 40
1.5
 40
1.5
 40
1.5
 40
1.5
 40
0.18
 40
0.18
309
CELLMARGIN_END
 94
        6
 95
        1
302
GRIDFORMAT
  1
GRIDFORMAT_BEGIN
 90
        0
 91
        1
 62
     0
 92
       -2
340
0
 93
        0
 40
0.045
309
GRIDFORMAT_END
 95
        2
302
GRIDFORMAT
  1
GRIDFORMAT_BEGIN
 90
        0
 91
        1
 62
     0
 92
       -2
340
0
 93
        0
 40
0.045
309
GRIDFORMAT_END
 95
        4
302
GRIDFORMAT
  1
GRIDFORMAT_BEGIN
 90
        0
 91
        1
 62
     0
 92
       -2
340
0
 93
        0
 40
0.045
309
GRIDFORMAT_END
 95
        8
302
GRIDFORMAT
  1
GRIDFORMAT_BEGIN
 90
        0
 91
        1
 62
     0
 92
       -2
340
0
 93
        0
 40
0.045
309
GRIDFORMAT_END
 95
       16
302
GRIDFORMAT
  1
GRIDFORMAT_BEGIN
 90
        0
 91
        1
 62
     0
 92
       -2
340
0
 93
        0
 40
0.045
309
GRIDFORMAT_END
 95
       32
302
GRIDFORMAT
  1
GRIDFORMAT_BEGIN
 90
        0
 91
        1
 62
     0
 92
       -2
340
0
 93
        0
 40
0.045
309
GRIDFORMAT_END
309
TABLEFORMAT_END
  1
CELLSTYLE_BEGIN
 90
        1
 91
        1
300
_TITLE
309
CELLSTYLE_END
300
CELLSTYLE
  1
TABLEFORMAT_BEGIN
 90
        5
170
     1
 91
        0
 92
        0
 62
   257
 93
        1
300
CONTENTFORMAT
  1
CONTENTFORMAT_BEGIN
 90
        0
 91
        0
 92
        4
 93
        0
300

 40
0.0
140
1.0
 94
        5
 62
     0
340
11
144
4.5
309
CONTENTFORMAT_END
171
     1
301
MARGIN
  1
CELLMARGIN_BEGIN
 40
1.5
 40
1.5
 40
1.5
 40
1.5
 40
0.18
 40
0.18
309
CELLMARGIN_END
 94
        6
 95
        1
302
GRIDFORMAT
  1
GRIDFORMAT_BEGIN
 90
        0
 91
        1
 62
     0
 92
       -2
340
0
 93
        0
 40
0.045
309
GRIDFORMAT_END
 95
        2
302
GRIDFORMAT
  1
GRIDFORMAT_BEGIN
 90
        0
 91
        1
 62
     0
 92
       -2
340
0
 93
        0
 40
0.045
309
GRIDFORMAT_END
 95
        4
302
GRIDFORMAT
  1
GRIDFORMAT_BEGIN
 90
        0
 91
        1
 62
     0
 92
       -2
340
0
 93
        0
 40
0.045
309
GRIDFORMAT_END
 95
        8
302
GRIDFORMAT
  1
GRIDFORMAT_BEGIN
 90
        0
 91
        1
 62
     0
 92
       -2
340
0
 93
        0
 40
0.045
309
GRIDFORMAT_END
 95
       16
302
GRIDFORMAT
  1
GRIDFORMAT_BEGIN
 90
        0
 91
        1
 62
     0
 92
       -2
340
0
 93
        0
 40
0.045
309
GRIDFORMAT_END
 95
       32
302
GRIDFORMAT
  1
GRIDFORMAT_BEGIN
 90
        0
 91
        1
 62
     0
 92
       -2
340
0
 93
        0
 40
0.045
309
GRIDFORMAT_END
309
TABLEFORMAT_END
  1
CELLSTYLE_BEGIN
 90
        2
 91
        1
300
_HEADER
309
CELLSTYLE_END
300
CELLSTYLE
  1
TABLEFORMAT_BEGIN
 90
        5
170
     1
 91
        0
 92
        0
 62
   257
 93
        1
300
CONTENTFORMAT
  1
CONTENTFORMAT_BEGIN
 90
        0
 91
        0
 92
        4
 93
        0
300

 40
0.0
140
1.0
 94
        2
 62
     0
340
11
144
4.5
309
CONTENTFORMAT_END
171
     1
301
MARGIN
  1
CELLMARGIN_BEGIN
 40
1.5
 40
1.5
 40
1.5
 40
1.5
 40
0.18
 40
0.18
309
CELLMARGIN_END
 94
        6
 95
        1
302
GRIDFORMAT
  1
GRIDFORMAT_BEGIN
 90
        0
 91
        1
 62
     0
 92
       -2
340
0
 93
        0
 40
0.045
309
GRIDFORMAT_END
 95
        2
302
GRIDFORMAT
  1
GRIDFORMAT_BEGIN
 90
        0
 91
        1
 62
     0
 92
       -2
340
0
 93
        0
 40
0.045
309
GRIDFORMAT_END
 95
        4
302
GRIDFORMAT
  1
GRIDFORMAT_BEGIN
 90
        0
 91
        1
 62
     0
 92
       -2
340
0
 93
        0
 40
0.045
309
GRIDFORMAT_END
 95
        8
302
GRIDFORMAT
  1
GRIDFORMAT_BEGIN
 90
        0
 91
        1
 62
     0
 92
       -2
340
0
 93
        0
 40
0.045
309
GRIDFORMAT_END
 95
       16
302
GRIDFORMAT
  1
GRIDFORMAT_BEGIN
 90
        0
 91
        1
 62
     0
 92
       -2
340
0
 93
        0
 40
0.045
309
GRIDFORMAT_END
 95
       32
302
GRIDFORMAT
  1
GRIDFORMAT_BEGIN
 90
        0
 91
        1
 62
     0
 92
       -2
340
0
 93
        0
 40
0.045
309
GRIDFORMAT_END
309
TABLEFORMAT_END
  1
CELLSTYLE_BEGIN
 90
        3
 91
        2
300
_DATA
309
CELLSTYLE_END
  0
XRECORD
  5
7F9
102
{ACAD_REACTORS
330
770
102
}
330
770
100
AcDbXrecord
280
     1
102
ACAD_ROUNDTRIP_PRE2007_TABLESTYLE
 90
        4
 91
        0
  1

 92
        4
 93
        0
  2

 94
        4
 95
        0
  3

  0
XRECORD
  5
7D2
102
{ACAD_REACTORS
330
7D1
102
}
330
7D1
100
AcDbXrecord
280
     1
102
RTVSPost2010Prop28
280
     1
102
RTVSPost2010PropOp28
 70
     1
102
RTVSPost2010Prop29
280
     1
102
RTVSPost2010PropOp29
 70
     1
102
RTVSPost2010Prop30
280
     0
102
RTVSPost2010PropOp30
 70
     1
102
RTVSPost2010Prop31
280
     0
102
RTVSPost2010PropOp31
 70
     1
102
RTVSPost2010Prop32
280
     0
102
RTVSPost2010PropOp32
 70
     1
102
RTVSPost2010Prop33
280
     0
102
RTVSPost2010PropOp33
 70
     1
102
RTVSPost2010Prop34
280
     0
102
RTVSPost2010PropOp34
 70
     1
102
RTVSPost2010Prop35
280
     0
102
RTVSPost2010PropOp35
 70
     1
102
RTVSPost2010Prop36
280
     0
102
RTVSPost2010PropOp36
 70
     1
102
RTVSPost2010Prop37
 90
       50
102
RTVSPost2010PropOp37
 70
     1
102
RTVSPost2010Prop38
140
0.0
102
RTVSPost2010PropOp38
 70
     1
102
RTVSPost2010Prop39
140
1.0
102
RTVSPost2010PropOp39
 70
     1
102
RTVSPost2010Prop40
 90
        0
102
RTVSPost2010PropOp40
 70
     1
102
RTVSPost2010Prop41ColorIndex
 90
       18
102
RTVSPost2010Prop41ColorRGB
 90
        0
102
RTVSPost2010PropOp41
 70
     1
102
RTVSPost2010Prop42
 90
       50
102
RTVSPost2010PropOp42
 70
     1
102
RTVSPost2010Prop43
 90
        3
102
RTVSPost2010PropOp43
 70
     1
102
RTVSPost2010Prop44ColorIndex
 90
        5
102
RTVSPost2010Prop44ColorRGB
 90
      255
102
RTVSPost2010PropOp44
 70
     1
102
RTVSPost2010Prop45
280
     0
102
RTVSPost2010PropOp45
 70
     1
102
RTVSPost2010Prop46
 90
       50
102
RTVSPost2010PropOp46
 70
     1
102
RTVSPost2010Prop47
 90
       50
102
RTVSPost2010PropOp47
 70
     1
102
RTVSPost2010Prop48
 90
       50
102
RTVSPost2010PropOp48
 70
     1
102
RTVSPost2010Prop49
280
     0
102
RTVSPost2010PropOp49
 70
     1
102
RTVSPost2010Prop50
 90
       50
102
RTVSPost2010PropOp50
 70
     1
102
RTVSPost2010Prop51ColorIndex
 90
      256
102
RTVSPost2010Prop51ColorRGB
 90
-16777216
102
RTVSPost2010PropOp51
 70
     0
102
RTVSPost2010Prop52
140
1.0
102
RTVSPost2010PropOp52
 70
     0
102
RTVSPost2010Prop53
 90
        2
102
RTVSPost2010PropOp53
 70
     1
102
RTVSPost2010Prop54
  1
strokes_ogs.tif
102
RTVSPost2010PropOp54
 70
     1
102
RTVSPost2010Prop55
280
     0
102
RTVSPost2010PropOp55
 70
     1
102
RTVSPost2010Prop56
140
1.0
102
RTVSPost2010PropOp56
 70
     1
102
RTVSPost2010Prop57
140
1.0
102
RTVSPost2010PropOp57
 70
     1
102
RTVSPropertyOp0
 70
     1
102
RTVSPropertyOp1
 70
     1
102
RTVSPropertyOp2
 70
     1
102
RTVSPropertyOp3
 70
     1
102
RTVSPropertyOp4
 70
     1
102
RTVSPropertyOp5
 70
     1
102
RTVSPropertyOp6
 70
     1
102
RTVSPropertyOp7
 70
     1
102
RTVSPropertyOp8
 70
     1
102
RTVSPropertyOp9
 70
     1
102
RTVSPropertyOp10
 70
     1
102
RTVSPropertyOp11
 70
     1
102
RTVSPropertyOp12
 70
     1
102
RTVSPropertyOp13
 70
     1
102
RTVSPropertyOp14
 70
     1
102
RTVSPropertyOp15
 70
     1
102
RTVSPropertyOp16
 70
     1
102
RTVSPropertyOp17
 70
     1
102
RTVSPropertyOp18
 70
     1
102
RTVSPropertyOp19
 70
     1
102
RTVSPropertyOp20
 70
     1
102
RTVSPropertyOp21
 70
     1
102
RTVSPropertyOp22
 70
     1
102
RTVSPropertyOp23
 70
     1
102
RTVSPropertyOp24
 70
     1
102
RTVSPropertyOp25
 70
     1
102
RTVSPropertyOp26
 70
     1
102
RTVSPropertyOp27
 70
     1
102
RTVSPropertyOp28
 70
     1
102
RTVSPropertyOp29
 70
     1
102
RTVSPropertyOp30
 70
     1
102
RTVSPropertyOp31
 70
     1
102
RTVSPropertyOp32
 70
     1
102
RTVSPropertyOp33
 70
     1
102
RTVSPropertyOp34
 70
     1
102
RTVSPropertyOp35
 70
     1
102
RTVSPropertyOp36
 70
     1
102
RTVSPropertyOp37
 70
     1
102
RTVSPropertyOp38
 70
     1
102
RTVSPropertyOp39
 70
     1
102
RTVSPropertyOp40
 70
     1
102
RTVSPropertyOp41
 70
     1
102
RTVSPropertyOp42
 70
     1
102
RTVSPropertyOp43
 70
     1
102
RTVSPropertyOp44
 70
     1
102
RTVSPropertyOp45
 70
     1
102
RTVSPropertyOp46
 70
     1
102
RTVSPropertyOp47
 70
     1
102
RTVSPropertyOp48
 70
     1
102
RTVSPropertyOp49
 70
     1
102
RTVSPropertyOp50
 70
     1
102
RTVSPropertyOp51
 70
     0
102
RTVSPropertyOp52
 70
     0
102
RTVSPropertyOp53
 70
     1
102
RTVSPropertyOp54
 70
     1
102
RTVSPropertyOp55
 70
     1
102
RTVSPropertyOp56
 70
     1
102
RTVSPropertyOp57
 70
     1
102
RTVSPropertyOp58
 70
     1
102
RTVSPropertyOp59
 70
     1
102
RTVSPropertyOp60
 70
     1
102
RTVSPropertyOp61
 70
     1
102
RTVSPropertyOp62
 70
     1
  0
XRECORD
  5
7D8
102
{ACAD_REACTORS
330
7D7
102
}
330
7D7
100
AcDbXrecord
280
     1
102
RTVSPost2010Prop28
280
     0
102
RTVSPost2010PropOp28
 70
     1
102
RTVSPost2010Prop29
280
     1
102
RTVSPost2010PropOp29
 70
     1
102
RTVSPost2010Prop30
280
     1
102
RTVSPost2010PropOp30
 70
     1
102
RTVSPost2010Prop31
280
     0
102
RTVSPost2010PropOp31
 70
     1
102
RTVSPost2010Prop32
280
     0
102
RTVSPost2010PropOp32
 70
     1
102
RTVSPost2010Prop33
280
     0
102
RTVSPost2010PropOp33
 70
     1
102
RTVSPost2010Prop34
280
     0
102
RTVSPost2010PropOp34
 70
     1
102
RTVSPost2010Prop35
280
     0
102
RTVSPost2010PropOp35
 70
     1
102
RTVSPost2010Prop36
280
     0
102
RTVSPost2010PropOp36
 70
     1
102
RTVSPost2010Prop37
 90
       50
102
RTVSPost2010PropOp37
 70
     1
102
RTVSPost2010Prop38
140
0.0
102
RTVSPost2010PropOp38
 70
     1
102
RTVSPost2010Prop39
140
1.0
102
RTVSPost2010PropOp39
 70
     1
102
RTVSPost2010Prop40
 90
        0
102
RTVSPost2010PropOp40
 70
     1
102
RTVSPost2010Prop41ColorIndex
 90
       18
102
RTVSPost2010Prop41ColorRGB
 90
        0
102
RTVSPost2010PropOp41
 70
     1
102
RTVSPost2010Prop42
 90
       50
102
RTVSPost2010PropOp42
 70
     1
102
RTVSPost2010Prop43
 90
        3
102
RTVSPost2010PropOp43
 70
     1
102
RTVSPost2010Prop44ColorIndex
 90
        5
102
RTVSPost2010Prop44ColorRGB
 90
      255
102
RTVSPost2010PropOp44
 70
     1
102
RTVSPost2010Prop45
280
     0
102
RTVSPost2010PropOp45
 70
     1
102
RTVSPost2010Prop46
 90
       50
102
RTVSPost2010PropOp46
 70
     1
102
RTVSPost2010Prop47
 90
       50
102
RTVSPost2010PropOp47
 70
     1
102
RTVSPost2010Prop48
 90
       50
102
RTVSPost2010PropOp48
 70
     1
102
RTVSPost2010Prop49
280
     0
102
RTVSPost2010PropOp49
 70
     1
102
RTVSPost2010Prop50
 90
       50
102
RTVSPost2010PropOp50
 70
     1
102
RTVSPost2010Prop51ColorIndex
 90
      256
102
RTVSPost2010Prop51ColorRGB
 90
-16777216
102
RTVSPost2010PropOp51
 70
     0
102
RTVSPost2010Prop52
140
1.0
102
RTVSPost2010PropOp52
 70
     0
102
RTVSPost2010Prop53
 90
        2
102
RTVSPost2010PropOp53
 70
     1
102
RTVSPost2010Prop54
  1
strokes_ogs.tif
102
RTVSPost2010PropOp54
 70
     1
102
RTVSPost2010Prop55
280
     0
102
RTVSPost2010PropOp55
 70
     1
102
RTVSPost2010Prop56
140
1.0
102
RTVSPost2010PropOp56
 70
     1
102
RTVSPost2010Prop57
140
1.0
102
RTVSPost2010PropOp57
 70
     1
102
RTVSPropertyOp0
 70
     1
102
RTVSPropertyOp1
 70
     1
102
RTVSPropertyOp2
 70
     1
102
RTVSPropertyOp3
 70
     1
102
RTVSPropertyOp4
 70
     1
102
RTVSPropertyOp5
 70
     1
102
RTVSPropertyOp6
 70
     1
102
RTVSPropertyOp7
 70
     1
102
RTVSPropertyOp8
 70
     1
102
RTVSPropertyOp9
 70
     1
102
RTVSPropertyOp10
 70
     1
102
RTVSPropertyOp11
 70
     1
102
RTVSPropertyOp12
 70
     1
102
RTVSPropertyOp13
 70
     1
102
RTVSPropertyOp14
 70
     1
102
RTVSPropertyOp15
 70
     1
102
RTVSPropertyOp16
 70
     1
102
RTVSPropertyOp17
 70
     1
102
RTVSPropertyOp18
 70
     1
102
RTVSPropertyOp19
 70
     1
102
RTVSPropertyOp20
 70
     1
102
RTVSPropertyOp21
 70
     1
102
RTVSPropertyOp22
 70
     1
102
RTVSPropertyOp23
 70
     1
102
RTVSPropertyOp24
 70
     1
102
RTVSPropertyOp25
 70
     1
102
RTVSPropertyOp26
 70
     1
102
RTVSPropertyOp27
 70
     1
102
RTVSPropertyOp28
 70
     1
102
RTVSPropertyOp29
 70
     1
102
RTVSPropertyOp30
 70
     1
102
RTVSPropertyOp31
 70
     1
102
RTVSPropertyOp32
 70
     1
102
RTVSPropertyOp33
 70
     1
102
RTVSPropertyOp34
 70
     1
102
RTVSPropertyOp35
 70
     1
102
RTVSPropertyOp36
 70
     1
102
RTVSPropertyOp37
 70
     1
102
RTVSPropertyOp38
 70
     1
102
RTVSPropertyOp39
 70
     1
102
RTVSPropertyOp40
 70
     1
102
RTVSPropertyOp41
 70
     1
102
RTVSPropertyOp42
 70
     1
102
RTVSPropertyOp43
 70
     1
102
RTVSPropertyOp44
 70
     1
102
RTVSPropertyOp45
 70
     1
102
RTVSPropertyOp46
 70
     1
102
RTVSPropertyOp47
 70
     1
102
RTVSPropertyOp48
 70
     1
102
RTVSPropertyOp49
 70
     1
102
RTVSPropertyOp50
 70
     1
102
RTVSPropertyOp51
 70
     0
102
RTVSPropertyOp52
 70
     0
102
RTVSPropertyOp53
 70
     1
102
RTVSPropertyOp54
 70
     1
102
RTVSPropertyOp55
 70
     1
102
RTVSPropertyOp56
 70
     1
102
RTVSPropertyOp57
 70
     1
102
RTVSPropertyOp58
 70
     1
102
RTVSPropertyOp59
 70
     1
102
RTVSPropertyOp60
 70
     1
102
RTVSPropertyOp61
 70
     1
102
RTVSPropertyOp62
 70
     1
  0
XRECORD
  5
7E0
102
{ACAD_REACTORS
330
7DF
102
}
330
7DF
100
AcDbXrecord
280
     1
102
RTVSPost2010Prop28
280
     0
102
RTVSPost2010PropOp28
 70
     1
102
RTVSPost2010Prop29
280
     1
102
RTVSPost2010PropOp29
 70
     1
102
RTVSPost2010Prop30
280
     1
102
RTVSPost2010PropOp30
 70
     1
102
RTVSPost2010Prop31
280
     0
102
RTVSPost2010PropOp31
 70
     1
102
RTVSPost2010Prop32
280
     0
102
RTVSPost2010PropOp32
 70
     1
102
RTVSPost2010Prop33
280
     0
102
RTVSPost2010PropOp33
 70
     1
102
RTVSPost2010Prop34
280
     0
102
RTVSPost2010PropOp34
 70
     1
102
RTVSPost2010Prop35
280
     0
102
RTVSPost2010PropOp35
 70
     1
102
RTVSPost2010Prop36
280
     0
102
RTVSPost2010PropOp36
 70
     1
102
RTVSPost2010Prop37
 90
       50
102
RTVSPost2010PropOp37
 70
     1
102
RTVSPost2010Prop38
140
0.0
102
RTVSPost2010PropOp38
 70
     1
102
RTVSPost2010Prop39
140
1.0
102
RTVSPost2010PropOp39
 70
     1
102
RTVSPost2010Prop40
 90
        0
102
RTVSPost2010PropOp40
 70
     1
102
RTVSPost2010Prop41ColorIndex
 90
       18
102
RTVSPost2010Prop41ColorRGB
 90
        0
102
RTVSPost2010PropOp41
 70
     1
102
RTVSPost2010Prop42
 90
       50
102
RTVSPost2010PropOp42
 70
     1
102
RTVSPost2010Prop43
 90
        3
102
RTVSPost2010PropOp43
 70
     1
102
RTVSPost2010Prop44ColorIndex
 90
        5
102
RTVSPost2010Prop44ColorRGB
 90
      255
102
RTVSPost2010PropOp44
 70
     1
102
RTVSPost2010Prop45
280
     0
102
RTVSPost2010PropOp45
 70
     1
102
RTVSPost2010Prop46
 90
       50
102
RTVSPost2010PropOp46
 70
     1
102
RTVSPost2010Prop47
 90
       50
102
RTVSPost2010PropOp47
 70
     1
102
RTVSPost2010Prop48
 90
       50
102
RTVSPost2010PropOp48
 70
     1
102
RTVSPost2010Prop49
280
     0
102
RTVSPost2010PropOp49
 70
     1
102
RTVSPost2010Prop50
 90
       50
102
RTVSPost2010PropOp50
 70
     1
102
RTVSPost2010Prop51ColorIndex
 90
      256
102
RTVSPost2010Prop51ColorRGB
 90
-16777216
102
RTVSPost2010PropOp51
 70
     0
102
RTVSPost2010Prop52
140
1.0
102
RTVSPost2010PropOp52
 70
     0
102
RTVSPost2010Prop53
 90
        2
102
RTVSPost2010PropOp53
 70
     1
102
RTVSPost2010Prop54
  1
strokes_ogs.tif
102
RTVSPost2010PropOp54
 70
     1
102
RTVSPost2010Prop55
280
     0
102
RTVSPost2010PropOp55
 70
     1
102
RTVSPost2010Prop56
140
1.0
102
RTVSPost2010PropOp56
 70
     1
102
RTVSPost2010Prop57
140
1.0
102
RTVSPost2010PropOp57
 70
     1
102
RTVSPropertyOp0
 70
     1
102
RTVSPropertyOp1
 70
     1
102
RTVSPropertyOp2
 70
     1
102
RTVSPropertyOp3
 70
     1
102
RTVSPropertyOp4
 70
     1
102
RTVSPropertyOp5
 70
     1
102
RTVSPropertyOp6
 70
     1
102
RTVSPropertyOp7
 70
     1
102
RTVSPropertyOp8
 70
     1
102
RTVSPropertyOp9
 70
     1
102
RTVSPropertyOp10
 70
     1
102
RTVSPropertyOp11
 70
     1
102
RTVSPropertyOp12
 70
     1
102
RTVSPropertyOp13
 70
     1
102
RTVSPropertyOp14
 70
     1
102
RTVSPropertyOp15
 70
     1
102
RTVSPropertyOp16
 70
     1
102
RTVSPropertyOp17
 70
     1
102
RTVSPropertyOp18
 70
     1
102
RTVSPropertyOp19
 70
     1
102
RTVSPropertyOp20
 70
     1
102
RTVSPropertyOp21
 70
     1
102
RTVSPropertyOp22
 70
     1
102
RTVSPropertyOp23
 70
     1
102
RTVSPropertyOp24
 70
     1
102
RTVSPropertyOp25
 70
     1
102
RTVSPropertyOp26
 70
     1
102
RTVSPropertyOp27
 70
     1
102
RTVSPropertyOp28
 70
     1
102
RTVSPropertyOp29
 70
     1
102
RTVSPropertyOp30
 70
     1
102
RTVSPropertyOp31
 70
     1
102
RTVSPropertyOp32
 70
     1
102
RTVSPropertyOp33
 70
     1
102
RTVSPropertyOp34
 70
     1
102
RTVSPropertyOp35
 70
     1
102
RTVSPropertyOp36
 70
     1
102
RTVSPropertyOp37
 70
     1
102
RTVSPropertyOp38
 70
     1
102
RTVSPropertyOp39
 70
     1
102
RTVSPropertyOp40
 70
     1
102
RTVSPropertyOp41
 70
     1
102
RTVSPropertyOp42
 70
     1
102
RTVSPropertyOp43
 70
     1
102
RTVSPropertyOp44
 70
     1
102
RTVSPropertyOp45
 70
     1
102
RTVSPropertyOp46
 70
     1
102
RTVSPropertyOp47
 70
     1
102
RTVSPropertyOp48
 70
     1
102
RTVSPropertyOp49
 70
     1
102
RTVSPropertyOp50
 70
     1
102
RTVSPropertyOp51
 70
     0
102
RTVSPropertyOp52
 70
     0
102
RTVSPropertyOp53
 70
     1
102
RTVSPropertyOp54
 70
     1
102
RTVSPropertyOp55
 70
     1
102
RTVSPropertyOp56
 70
     1
102
RTVSPropertyOp57
 70
     1
102
RTVSPropertyOp58
 70
     1
102
RTVSPropertyOp59
 70
     1
102
RTVSPropertyOp60
 70
     1
102
RTVSPropertyOp61
 70
     1
102
RTVSPropertyOp62
 70
     1
  0
XRECORD
  5
7E8
102
{ACAD_REACTORS
330
7E7
102
}
330
7E7
100
AcDbXrecord
280
     1
102
RTVSPost2010Prop28
280
     0
102
RTVSPost2010PropOp28
 70
     1
102
RTVSPost2010Prop29
280
     1
102
RTVSPost2010PropOp29
 70
     1
102
RTVSPost2010Prop30
280
     1
102
RTVSPost2010PropOp30
 70
     1
102
RTVSPost2010Prop31
280
     0
102
RTVSPost2010PropOp31
 70
     1
102
RTVSPost2010Prop32
280
     0
102
RTVSPost2010PropOp32
 70
     1
102
RTVSPost2010Prop33
280
     0
102
RTVSPost2010PropOp33
 70
     1
102
RTVSPost2010Prop34
280
     0
102
RTVSPost2010PropOp34
 70
     1
102
RTVSPost2010Prop35
280
     0
102
RTVSPost2010PropOp35
 70
     1
102
RTVSPost2010Prop36
280
     0
102
RTVSPost2010PropOp36
 70
     1
102
RTVSPost2010Prop37
 90
       50
102
RTVSPost2010PropOp37
 70
     1
102
RTVSPost2010Prop38
140
0.0
102
RTVSPost2010PropOp38
 70
     1
102
RTVSPost2010Prop39
140
1.0
102
RTVSPost2010PropOp39
 70
     1
102
RTVSPost2010Prop40
 90
        0
102
RTVSPost2010PropOp40
 70
     1
102
RTVSPost2010Prop41ColorIndex
 90
       18
102
RTVSPost2010Prop41ColorRGB
 90
        0
102
RTVSPost2010PropOp41
 70
     1
102
RTVSPost2010Prop42
 90
       50
102
RTVSPost2010PropOp42
 70
     1
102
RTVSPost2010Prop43
 90
        3
102
RTVSPost2010PropOp43
 70
     1
102
RTVSPost2010Prop44ColorIndex
 90
        5
102
RTVSPost2010Prop44ColorRGB
 90
      255
102
RTVSPost2010PropOp44
 70
     1
102
RTVSPost2010Prop45
280
     0
102
RTVSPost2010PropOp45
 70
     1
102
RTVSPost2010Prop46
 90
       50
102
RTVSPost2010PropOp46
 70
     1
102
RTVSPost2010Prop47
 90
       50
102
RTVSPost2010PropOp47
 70
     1
102
RTVSPost2010Prop48
 90
       50
102
RTVSPost2010PropOp48
 70
     1
102
RTVSPost2010Prop49
280
     0
102
RTVSPost2010PropOp49
 70
     1
102
RTVSPost2010Prop50
 90
       50
102
RTVSPost2010PropOp50
 70
     1
102
RTVSPost2010Prop51ColorIndex
 90
      256
102
RTVSPost2010Prop51ColorRGB
 90
-16777216
102
RTVSPost2010PropOp51
 70
     0
102
RTVSPost2010Prop52
140
1.0
102
RTVSPost2010PropOp52
 70
     0
102
RTVSPost2010Prop53
 90
        2
102
RTVSPost2010PropOp53
 70
     1
102
RTVSPost2010Prop54
  1
strokes_ogs.tif
102
RTVSPost2010PropOp54
 70
     1
102
RTVSPost2010Prop55
280
     0
102
RTVSPost2010PropOp55
 70
     1
102
RTVSPost2010Prop56
140
1.0
102
RTVSPost2010PropOp56
 70
     1
102
RTVSPost2010Prop57
140
1.0
102
RTVSPost2010PropOp57
 70
     1
102
RTVSPropertyOp0
 70
     1
102
RTVSPropertyOp1
 70
     1
102
RTVSPropertyOp2
 70
     1
102
RTVSPropertyOp3
 70
     1
102
RTVSPropertyOp4
 70
     1
102
RTVSPropertyOp5
 70
     1
102
RTVSPropertyOp6
 70
     1
102
RTVSPropertyOp7
 70
     1
102
RTVSPropertyOp8
 70
     1
102
RTVSPropertyOp9
 70
     1
102
RTVSPropertyOp10
 70
     1
102
RTVSPropertyOp11
 70
     1
102
RTVSPropertyOp12
 70
     1
102
RTVSPropertyOp13
 70
     1
102
RTVSPropertyOp14
 70
     1
102
RTVSPropertyOp15
 70
     1
102
RTVSPropertyOp16
 70
     1
102
RTVSPropertyOp17
 70
     1
102
RTVSPropertyOp18
 70
     1
102
RTVSPropertyOp19
 70
     1
102
RTVSPropertyOp20
 70
     1
102
RTVSPropertyOp21
 70
     1
102
RTVSPropertyOp22
 70
     1
102
RTVSPropertyOp23
 70
     1
102
RTVSPropertyOp24
 70
     1
102
RTVSPropertyOp25
 70
     1
102
RTVSPropertyOp26
 70
     1
102
RTVSPropertyOp27
 70
     1
102
RTVSPropertyOp28
 70
     1
102
RTVSPropertyOp29
 70
     1
102
RTVSPropertyOp30
 70
     1
102
RTVSPropertyOp31
 70
     1
102
RTVSPropertyOp32
 70
     1
102
RTVSPropertyOp33
 70
     1
102
RTVSPropertyOp34
 70
     1
102
RTVSPropertyOp35
 70
     1
102
RTVSPropertyOp36
 70
     1
102
RTVSPropertyOp37
 70
     1
102
RTVSPropertyOp38
 70
     1
102
RTVSPropertyOp39
 70
     1
102
RTVSPropertyOp40
 70
     1
102
RTVSPropertyOp41
 70
     1
102
RTVSPropertyOp42
 70
     1
102
RTVSPropertyOp43
 70
     1
102
RTVSPropertyOp44
 70
     1
102
RTVSPropertyOp45
 70
     1
102
RTVSPropertyOp46
 70
     1
102
RTVSPropertyOp47
 70
     1
102
RTVSPropertyOp48
 70
     1
102
RTVSPropertyOp49
 70
     1
102
RTVSPropertyOp50
 70
     1
102
RTVSPropertyOp51
 70
     0
102
RTVSPropertyOp52
 70
     0
102
RTVSPropertyOp53
 70
     1
102
RTVSPropertyOp54
 70
     1
102
RTVSPropertyOp55
 70
     1
102
RTVSPropertyOp56
 70
     1
102
RTVSPropertyOp57
 70
     1
102
RTVSPropertyOp58
 70
     1
102
RTVSPropertyOp59
 70
     1
102
RTVSPropertyOp60
 70
     1
102
RTVSPropertyOp61
 70
     1
102
RTVSPropertyOp62
 70
     1
  0
XRECORD
  5
7DC
102
{ACAD_REACTORS
330
7DB
102
}
330
7DB
100
AcDbXrecord
280
     1
102
RTVSPost2010Prop28
280
     0
102
RTVSPost2010PropOp28
 70
     1
102
RTVSPost2010Prop29
280
     1
102
RTVSPost2010PropOp29
 70
     1
102
RTVSPost2010Prop30
280
     1
102
RTVSPost2010PropOp30
 70
     1
102
RTVSPost2010Prop31
280
     0
102
RTVSPost2010PropOp31
 70
     1
102
RTVSPost2010Prop32
280
     0
102
RTVSPost2010PropOp32
 70
     1
102
RTVSPost2010Prop33
280
     0
102
RTVSPost2010PropOp33
 70
     1
102
RTVSPost2010Prop34
280
     0
102
RTVSPost2010PropOp34
 70
     1
102
RTVSPost2010Prop35
280
     0
102
RTVSPost2010PropOp35
 70
     1
102
RTVSPost2010Prop36
280
     0
102
RTVSPost2010PropOp36
 70
     1
102
RTVSPost2010Prop37
 90
       50
102
RTVSPost2010PropOp37
 70
     1
102
RTVSPost2010Prop38
140
0.0
102
RTVSPost2010PropOp38
 70
     1
102
RTVSPost2010Prop39
140
1.0
102
RTVSPost2010PropOp39
 70
     1
102
RTVSPost2010Prop40
 90
        0
102
RTVSPost2010PropOp40
 70
     1
102
RTVSPost2010Prop41ColorIndex
 90
       18
102
RTVSPost2010Prop41ColorRGB
 90
        0
102
RTVSPost2010PropOp41
 70
     1
102
RTVSPost2010Prop42
 90
       50
102
RTVSPost2010PropOp42
 70
     1
102
RTVSPost2010Prop43
 90
        3
102
RTVSPost2010PropOp43
 70
     1
102
RTVSPost2010Prop44ColorIndex
 90
        5
102
RTVSPost2010Prop44ColorRGB
 90
      255
102
RTVSPost2010PropOp44
 70
     1
102
RTVSPost2010Prop45
280
     0
102
RTVSPost2010PropOp45
 70
     1
102
RTVSPost2010Prop46
 90
       50
102
RTVSPost2010PropOp46
 70
     1
102
RTVSPost2010Prop47
 90
       50
102
RTVSPost2010PropOp47
 70
     1
102
RTVSPost2010Prop48
 90
       50
102
RTVSPost2010PropOp48
 70
     1
102
RTVSPost2010Prop49
280
     0
102
RTVSPost2010PropOp49
 70
     1
102
RTVSPost2010Prop50
 90
       50
102
RTVSPost2010PropOp50
 70
     1
102
RTVSPost2010Prop51ColorIndex
 90
      256
102
RTVSPost2010Prop51ColorRGB
 90
-16777216
102
RTVSPost2010PropOp51
 70
     0
102
RTVSPost2010Prop52
140
1.0
102
RTVSPost2010PropOp52
 70
     0
102
RTVSPost2010Prop53
 90
        2
102
RTVSPost2010PropOp53
 70
     1
102
RTVSPost2010Prop54
  1
strokes_ogs.tif
102
RTVSPost2010PropOp54
 70
     1
102
RTVSPost2010Prop55
280
     0
102
RTVSPost2010PropOp55
 70
     1
102
RTVSPost2010Prop56
140
1.0
102
RTVSPost2010PropOp56
 70
     1
102
RTVSPost2010Prop57
140
1.0
102
RTVSPost2010PropOp57
 70
     1
102
RTVSPropertyOp0
 70
     1
102
RTVSPropertyOp1
 70
     1
102
RTVSPropertyOp2
 70
     1
102
RTVSPropertyOp3
 70
     1
102
RTVSPropertyOp4
 70
     1
102
RTVSPropertyOp5
 70
     1
102
RTVSPropertyOp6
 70
     1
102
RTVSPropertyOp7
 70
     1
102
RTVSPropertyOp8
 70
     1
102
RTVSPropertyOp9
 70
     1
102
RTVSPropertyOp10
 70
     1
102
RTVSPropertyOp11
 70
     1
102
RTVSPropertyOp12
 70
     1
102
RTVSPropertyOp13
 70
     1
102
RTVSPropertyOp14
 70
     1
102
RTVSPropertyOp15
 70
     1
102
RTVSPropertyOp16
 70
     1
102
RTVSPropertyOp17
 70
     1
102
RTVSPropertyOp18
 70
     1
102
RTVSPropertyOp19
 70
     1
102
RTVSPropertyOp20
 70
     1
102
RTVSPropertyOp21
 70
     1
102
RTVSPropertyOp22
 70
     1
102
RTVSPropertyOp23
 70
     1
102
RTVSPropertyOp24
 70
     1
102
RTVSPropertyOp25
 70
     1
102
RTVSPropertyOp26
 70
     1
102
RTVSPropertyOp27
 70
     1
102
RTVSPropertyOp28
 70
     1
102
RTVSPropertyOp29
 70
     1
102
RTVSPropertyOp30
 70
     1
102
RTVSPropertyOp31
 70
     1
102
RTVSPropertyOp32
 70
     1
102
RTVSPropertyOp33
 70
     1
102
RTVSPropertyOp34
 70
     1
102
RTVSPropertyOp35
 70
     1
102
RTVSPropertyOp36
 70
     1
102
RTVSPropertyOp37
 70
     1
102
RTVSPropertyOp38
 70
     1
102
RTVSPropertyOp39
 70
     1
102
RTVSPropertyOp40
 70
     1
102
RTVSPropertyOp41
 70
     1
102
RTVSPropertyOp42
 70
     1
102
RTVSPropertyOp43
 70
     1
102
RTVSPropertyOp44
 70
     1
102
RTVSPropertyOp45
 70
     1
102
RTVSPropertyOp46
 70
     1
102
RTVSPropertyOp47
 70
     1
102
RTVSPropertyOp48
 70
     1
102
RTVSPropertyOp49
 70
     1
102
RTVSPropertyOp50
 70
     1
102
RTVSPropertyOp51
 70
     0
102
RTVSPropertyOp52
 70
     0
102
RTVSPropertyOp53
 70
     1
102
RTVSPropertyOp54
 70
     1
102
RTVSPropertyOp55
 70
     1
102
RTVSPropertyOp56
 70
     1
102
RTVSPropertyOp57
 70
     1
102
RTVSPropertyOp58
 70
     1
102
RTVSPropertyOp59
 70
     1
102
RTVSPropertyOp60
 70
     1
102
RTVSPropertyOp61
 70
     1
102
RTVSPropertyOp62
 70
     1
  0
XRECORD
  5
7DE
102
{ACAD_REACTORS
330
7DD
102
}
330
7DD
100
AcDbXrecord
280
     1
102
RTVSPost2010Prop28
280
     0
102
RTVSPost2010PropOp28
 70
     1
102
RTVSPost2010Prop29
280
     1
102
RTVSPost2010PropOp29
 70
     1
102
RTVSPost2010Prop30
280
     1
102
RTVSPost2010PropOp30
 70
     1
102
RTVSPost2010Prop31
280
     0
102
RTVSPost2010PropOp31
 70
     1
102
RTVSPost2010Prop32
280
     0
102
RTVSPost2010PropOp32
 70
     1
102
RTVSPost2010Prop33
280
     0
102
RTVSPost2010PropOp33
 70
     1
102
RTVSPost2010Prop34
280
     0
102
RTVSPost2010PropOp34
 70
     1
102
RTVSPost2010Prop35
280
     0
102
RTVSPost2010PropOp35
 70
     1
102
RTVSPost2010Prop36
280
     0
102
RTVSPost2010PropOp36
 70
     1
102
RTVSPost2010Prop37
 90
       50
102
RTVSPost2010PropOp37
 70
     1
102
RTVSPost2010Prop38
140
0.0
102
RTVSPost2010PropOp38
 70
     1
102
RTVSPost2010Prop39
140
1.0
102
RTVSPost2010PropOp39
 70
     1
102
RTVSPost2010Prop40
 90
        0
102
RTVSPost2010PropOp40
 70
     1
102
RTVSPost2010Prop41ColorIndex
 90
       18
102
RTVSPost2010Prop41ColorRGB
 90
        0
102
RTVSPost2010PropOp41
 70
     1
102
RTVSPost2010Prop42
 90
       50
102
RTVSPost2010PropOp42
 70
     1
102
RTVSPost2010Prop43
 90
        3
102
RTVSPost2010PropOp43
 70
     1
102
RTVSPost2010Prop44ColorIndex
 90
        5
102
RTVSPost2010Prop44ColorRGB
 90
      255
102
RTVSPost2010PropOp44
 70
     1
102
RTVSPost2010Prop45
280
     0
102
RTVSPost2010PropOp45
 70
     1
102
RTVSPost2010Prop46
 90
       50
102
RTVSPost2010PropOp46
 70
     1
102
RTVSPost2010Prop47
 90
       50
102
RTVSPost2010PropOp47
 70
     1
102
RTVSPost2010Prop48
 90
       50
102
RTVSPost2010PropOp48
 70
     1
102
RTVSPost2010Prop49
280
     0
102
RTVSPost2010PropOp49
 70
     1
102
RTVSPost2010Prop50
 90
       50
102
RTVSPost2010PropOp50
 70
     1
102
RTVSPost2010Prop51ColorIndex
 90
      256
102
RTVSPost2010Prop51ColorRGB
 90
-16777216
102
RTVSPost2010PropOp51
 70
     0
102
RTVSPost2010Prop52
140
1.0
102
RTVSPost2010PropOp52
 70
     0
102
RTVSPost2010Prop53
 90
        2
102
RTVSPost2010PropOp53
 70
     1
102
RTVSPost2010Prop54
  1
strokes_ogs.tif
102
RTVSPost2010PropOp54
 70
     1
102
RTVSPost2010Prop55
280
     0
102
RTVSPost2010PropOp55
 70
     1
102
RTVSPost2010Prop56
140
1.0
102
RTVSPost2010PropOp56
 70
     1
102
RTVSPost2010Prop57
140
1.0
102
RTVSPost2010PropOp57
 70
     1
102
RTVSPropertyOp0
 70
     1
102
RTVSPropertyOp1
 70
     1
102
RTVSPropertyOp2
 70
     1
102
RTVSPropertyOp3
 70
     1
102
RTVSPropertyOp4
 70
     1
102
RTVSPropertyOp5
 70
     1
102
RTVSPropertyOp6
 70
     1
102
RTVSPropertyOp7
 70
     1
102
RTVSPropertyOp8
 70
     1
102
RTVSPropertyOp9
 70
     1
102
RTVSPropertyOp10
 70
     1
102
RTVSPropertyOp11
 70
     1
102
RTVSPropertyOp12
 70
     1
102
RTVSPropertyOp13
 70
     1
102
RTVSPropertyOp14
 70
     1
102
RTVSPropertyOp15
 70
     1
102
RTVSPropertyOp16
 70
     1
102
RTVSPropertyOp17
 70
     1
102
RTVSPropertyOp18
 70
     1
102
RTVSPropertyOp19
 70
     1
102
RTVSPropertyOp20
 70
     1
102
RTVSPropertyOp21
 70
     1
102
RTVSPropertyOp22
 70
     1
102
RTVSPropertyOp23
 70
     1
102
RTVSPropertyOp24
 70
     1
102
RTVSPropertyOp25
 70
     1
102
RTVSPropertyOp26
 70
     1
102
RTVSPropertyOp27
 70
     1
102
RTVSPropertyOp28
 70
     1
102
RTVSPropertyOp29
 70
     1
102
RTVSPropertyOp30
 70
     1
102
RTVSPropertyOp31
 70
     1
102
RTVSPropertyOp32
 70
     1
102
RTVSPropertyOp33
 70
     1
102
RTVSPropertyOp34
 70
     1
102
RTVSPropertyOp35
 70
     1
102
RTVSPropertyOp36
 70
     1
102
RTVSPropertyOp37
 70
     1
102
RTVSPropertyOp38
 70
     1
102
RTVSPropertyOp39
 70
     1
102
RTVSPropertyOp40
 70
     1
102
RTVSPropertyOp41
 70
     1
102
RTVSPropertyOp42
 70
     1
102
RTVSPropertyOp43
 70
     1
102
RTVSPropertyOp44
 70
     1
102
RTVSPropertyOp45
 70
     1
102
RTVSPropertyOp46
 70
     1
102
RTVSPropertyOp47
 70
     1
102
RTVSPropertyOp48
 70
     1
102
RTVSPropertyOp49
 70
     1
102
RTVSPropertyOp50
 70
     1
102
RTVSPropertyOp51
 70
     0
102
RTVSPropertyOp52
 70
     0
102
RTVSPropertyOp53
 70
     1
102
RTVSPropertyOp54
 70
     1
102
RTVSPropertyOp55
 70
     1
102
RTVSPropertyOp56
 70
     1
102
RTVSPropertyOp57
 70
     1
102
RTVSPropertyOp58
 70
     1
102
RTVSPropertyOp59
 70
     1
102
RTVSPropertyOp60
 70
     1
102
RTVSPropertyOp61
 70
     1
102
RTVSPropertyOp62
 70
     1
  0
XRECORD
  5
7EE
102
{ACAD_REACTORS
330
7ED
102
}
330
7ED
100
AcDbXrecord
280
     1
102
RTVSPost2010Prop28
280
     0
102
RTVSPost2010PropOp28
 70
     0
102
RTVSPost2010Prop29
280
     1
102
RTVSPost2010PropOp29
 70
     0
102
RTVSPost2010Prop30
280
     1
102
RTVSPost2010PropOp30
 70
     0
102
RTVSPost2010Prop31
280
     0
102
RTVSPost2010PropOp31
 70
     0
102
RTVSPost2010Prop32
280
     0
102
RTVSPost2010PropOp32
 70
     0
102
RTVSPost2010Prop33
280
     0
102
RTVSPost2010PropOp33
 70
     0
102
RTVSPost2010Prop34
280
     0
102
RTVSPost2010PropOp34
 70
     0
102
RTVSPost2010Prop35
280
     0
102
RTVSPost2010PropOp35
 70
     0
102
RTVSPost2010Prop36
280
     0
102
RTVSPost2010PropOp36
 70
     0
102
RTVSPost2010Prop37
 90
       50
102
RTVSPost2010PropOp37
 70
     0
102
RTVSPost2010Prop38
140
0.0
102
RTVSPost2010PropOp38
 70
     0
102
RTVSPost2010Prop39
140
1.0
102
RTVSPost2010PropOp39
 70
     0
102
RTVSPost2010Prop40
 90
        0
102
RTVSPost2010PropOp40
 70
     0
102
RTVSPost2010Prop41ColorIndex
 90
       18
102
RTVSPost2010Prop41ColorRGB
 90
        0
102
RTVSPost2010PropOp41
 70
     0
102
RTVSPost2010Prop42
 90
       50
102
RTVSPost2010PropOp42
 70
     0
102
RTVSPost2010Prop43
 90
        3
102
RTVSPost2010PropOp43
 70
     0
102
RTVSPost2010Prop44ColorIndex
 90
        5
102
RTVSPost2010Prop44ColorRGB
 90
      255
102
RTVSPost2010PropOp44
 70
     0
102
RTVSPost2010Prop45
280
     0
102
RTVSPost2010PropOp45
 70
     0
102
RTVSPost2010Prop46
 90
       50
102
RTVSPost2010PropOp46
 70
     0
102
RTVSPost2010Prop47
 90
       50
102
RTVSPost2010PropOp47
 70
     0
102
RTVSPost2010Prop48
 90
       50
102
RTVSPost2010PropOp48
 70
     0
102
RTVSPost2010Prop49
280
     0
102
RTVSPost2010PropOp49
 70
     0
102
RTVSPost2010Prop50
 90
       50
102
RTVSPost2010PropOp50
 70
     0
102
RTVSPost2010Prop51ColorIndex
 90
      256
102
RTVSPost2010Prop51ColorRGB
 90
-16777216
102
RTVSPost2010PropOp51
 70
     0
102
RTVSPost2010Prop52
140
1.0
102
RTVSPost2010PropOp52
 70
     0
102
RTVSPost2010Prop53
 90
        2
102
RTVSPost2010PropOp53
 70
     0
102
RTVSPost2010Prop54
  1
strokes_ogs.tif
102
RTVSPost2010PropOp54
 70
     0
102
RTVSPost2010Prop55
280
     0
102
RTVSPost2010PropOp55
 70
     0
102
RTVSPost2010Prop56
140
1.0
102
RTVSPost2010PropOp56
 70
     0
102
RTVSPost2010Prop57
140
1.0
102
RTVSPost2010PropOp57
 70
     0
102
RTVSPropertyOp0
 70
     0
102
RTVSPropertyOp1
 70
     0
102
RTVSPropertyOp2
 70
     0
102
RTVSPropertyOp3
 70
     0
102
RTVSPropertyOp4
 70
     0
102
RTVSPropertyOp5
 70
     0
102
RTVSPropertyOp6
 70
     0
102
RTVSPropertyOp7
 70
     0
102
RTVSPropertyOp8
 70
     0
102
RTVSPropertyOp9
 70
     0
102
RTVSPropertyOp10
 70
     0
102
RTVSPropertyOp11
 70
     0
102
RTVSPropertyOp12
 70
     0
102
RTVSPropertyOp13
 70
     0
102
RTVSPropertyOp14
 70
     2
102
RTVSPropertyOp15
 70
     0
102
RTVSPropertyOp16
 70
     0
102
RTVSPropertyOp17
 70
     0
102
RTVSPropertyOp18
 70
     0
102
RTVSPropertyOp19
 70
     0
102
RTVSPropertyOp20
 70
     0
102
RTVSPropertyOp21
 70
     0
102
RTVSPropertyOp22
 70
     0
102
RTVSPropertyOp23
 70
     0
102
RTVSPropertyOp24
 70
     0
102
RTVSPropertyOp25
 70
     0
102
RTVSPropertyOp26
 70
     0
102
RTVSPropertyOp27
 70
     0
102
RTVSPropertyOp28
 70
     0
102
RTVSPropertyOp29
 70
     0
102
RTVSPropertyOp30
 70
     0
102
RTVSPropertyOp31
 70
     0
102
RTVSPropertyOp32
 70
     0
102
RTVSPropertyOp33
 70
     0
102
RTVSPropertyOp34
 70
     0
102
RTVSPropertyOp35
 70
     0
102
RTVSPropertyOp36
 70
     0
102
RTVSPropertyOp37
 70
     0
102
RTVSPropertyOp38
 70
     0
102
RTVSPropertyOp39
 70
     0
102
RTVSPropertyOp40
 70
     0
102
RTVSPropertyOp41
 70
     0
102
RTVSPropertyOp42
 70
     0
102
RTVSPropertyOp43
 70
     0
102
RTVSPropertyOp44
 70
     0
102
RTVSPropertyOp45
 70
     0
102
RTVSPropertyOp46
 70
     0
102
RTVSPropertyOp47
 70
     0
102
RTVSPropertyOp48
 70
     0
102
RTVSPropertyOp49
 70
     0
102
RTVSPropertyOp50
 70
     0
102
RTVSPropertyOp51
 70
     0
102
RTVSPropertyOp52
 70
     0
102
RTVSPropertyOp53
 70
     0
102
RTVSPropertyOp54
 70
     0
102
RTVSPropertyOp55
 70
     0
102
RTVSPropertyOp56
 70
     0
102
RTVSPropertyOp57
 70
     0
102
RTVSPropertyOp58
 70
     1
102
RTVSPropertyOp59
 70
     1
102
RTVSPropertyOp60
 70
     1
102
RTVSPropertyOp61
 70
     1
102
RTVSPropertyOp62
 70
     1
  0
XRECORD
  5
7E6
102
{ACAD_REACTORS
330
7E5
102
}
330
7E5
100
AcDbXrecord
280
     1
102
RTVSPost2010Prop28
280
     0
102
RTVSPost2010PropOp28
 70
     1
102
RTVSPost2010Prop29
280
     1
102
RTVSPost2010PropOp29
 70
     1
102
RTVSPost2010Prop30
280
     1
102
RTVSPost2010PropOp30
 70
     1
102
RTVSPost2010Prop31
280
     0
102
RTVSPost2010PropOp31
 70
     1
102
RTVSPost2010Prop32
280
     0
102
RTVSPost2010PropOp32
 70
     1
102
RTVSPost2010Prop33
280
     0
102
RTVSPost2010PropOp33
 70
     1
102
RTVSPost2010Prop34
280
     0
102
RTVSPost2010PropOp34
 70
     1
102
RTVSPost2010Prop35
280
     0
102
RTVSPost2010PropOp35
 70
     1
102
RTVSPost2010Prop36
280
     0
102
RTVSPost2010PropOp36
 70
     1
102
RTVSPost2010Prop37
 90
       50
102
RTVSPost2010PropOp37
 70
     1
102
RTVSPost2010Prop38
140
0.0
102
RTVSPost2010PropOp38
 70
     1
102
RTVSPost2010Prop39
140
1.0
102
RTVSPost2010PropOp39
 70
     1
102
RTVSPost2010Prop40
 90
        0
102
RTVSPost2010PropOp40
 70
     1
102
RTVSPost2010Prop41ColorIndex
 90
       18
102
RTVSPost2010Prop41ColorRGB
 90
        0
102
RTVSPost2010PropOp41
 70
     1
102
RTVSPost2010Prop42
 90
       50
102
RTVSPost2010PropOp42
 70
     1
102
RTVSPost2010Prop43
 90
        3
102
RTVSPost2010PropOp43
 70
     1
102
RTVSPost2010Prop44ColorIndex
 90
        5
102
RTVSPost2010Prop44ColorRGB
 90
      255
102
RTVSPost2010PropOp44
 70
     1
102
RTVSPost2010Prop45
280
     0
102
RTVSPost2010PropOp45
 70
     1
102
RTVSPost2010Prop46
 90
       50
102
RTVSPost2010PropOp46
 70
     1
102
RTVSPost2010Prop47
 90
       50
102
RTVSPost2010PropOp47
 70
     1
102
RTVSPost2010Prop48
 90
       50
102
RTVSPost2010PropOp48
 70
     1
102
RTVSPost2010Prop49
280
     0
102
RTVSPost2010PropOp49
 70
     1
102
RTVSPost2010Prop50
 90
       50
102
RTVSPost2010PropOp50
 70
     1
102
RTVSPost2010Prop51ColorIndex
 90
      256
102
RTVSPost2010Prop51ColorRGB
 90
-16777216
102
RTVSPost2010PropOp51
 70
     0
102
RTVSPost2010Prop52
140
1.0
102
RTVSPost2010PropOp52
 70
     0
102
RTVSPost2010Prop53
 90
        2
102
RTVSPost2010PropOp53
 70
     1
102
RTVSPost2010Prop54
  1
strokes_ogs.tif
102
RTVSPost2010PropOp54
 70
     1
102
RTVSPost2010Prop55
280
     0
102
RTVSPost2010PropOp55
 70
     1
102
RTVSPost2010Prop56
140
1.0
102
RTVSPost2010PropOp56
 70
     1
102
RTVSPost2010Prop57
140
1.0
102
RTVSPost2010PropOp57
 70
     1
102
RTVSPropertyOp0
 70
     1
102
RTVSPropertyOp1
 70
     1
102
RTVSPropertyOp2
 70
     1
102
RTVSPropertyOp3
 70
     1
102
RTVSPropertyOp4
 70
     1
102
RTVSPropertyOp5
 70
     1
102
RTVSPropertyOp6
 70
     1
102
RTVSPropertyOp7
 70
     1
102
RTVSPropertyOp8
 70
     1
102
RTVSPropertyOp9
 70
     1
102
RTVSPropertyOp10
 70
     1
102
RTVSPropertyOp11
 70
     1
102
RTVSPropertyOp12
 70
     1
102
RTVSPropertyOp13
 70
     1
102
RTVSPropertyOp14
 70
     1
102
RTVSPropertyOp15
 70
     1
102
RTVSPropertyOp16
 70
     1
102
RTVSPropertyOp17
 70
     1
102
RTVSPropertyOp18
 70
     1
102
RTVSPropertyOp19
 70
     1
102
RTVSPropertyOp20
 70
     1
102
RTVSPropertyOp21
 70
     1
102
RTVSPropertyOp22
 70
     1
102
RTVSPropertyOp23
 70
     1
102
RTVSPropertyOp24
 70
     1
102
RTVSPropertyOp25
 70
     1
102
RTVSPropertyOp26
 70
     1
102
RTVSPropertyOp27
 70
     1
102
RTVSPropertyOp28
 70
     1
102
RTVSPropertyOp29
 70
     1
102
RTVSPropertyOp30
 70
     1
102
RTVSPropertyOp31
 70
     1
102
RTVSPropertyOp32
 70
     1
102
RTVSPropertyOp33
 70
     1
102
RTVSPropertyOp34
 70
     1
102
RTVSPropertyOp35
 70
     1
102
RTVSPropertyOp36
 70
     1
102
RTVSPropertyOp37
 70
     1
102
RTVSPropertyOp38
 70
     1
102
RTVSPropertyOp39
 70
     1
102
RTVSPropertyOp40
 70
     1
102
RTVSPropertyOp41
 70
     1
102
RTVSPropertyOp42
 70
     1
102
RTVSPropertyOp43
 70
     1
102
RTVSPropertyOp44
 70
     1
102
RTVSPropertyOp45
 70
     1
102
RTVSPropertyOp46
 70
     1
102
RTVSPropertyOp47
 70
     1
102
RTVSPropertyOp48
 70
     1
102
RTVSPropertyOp49
 70
     1
102
RTVSPropertyOp50
 70
     1
102
RTVSPropertyOp51
 70
     0
102
RTVSPropertyOp52
 70
     0
102
RTVSPropertyOp53
 70
     1
102
RTVSPropertyOp54
 70
     1
102
RTVSPropertyOp55
 70
     1
102
RTVSPropertyOp56
 70
     1
102
RTVSPropertyOp57
 70
     1
102
RTVSPropertyOp58
 70
     1
102
RTVSPropertyOp59
 70
     1
102
RTVSPropertyOp60
 70
     1
102
RTVSPropertyOp61
 70
     1
102
RTVSPropertyOp62
 70
     1
  0
XRECORD
  5
7CA
102
{ACAD_REACTORS
330
7C9
102
}
330
7C9
100
AcDbXrecord
280
     1
102
RTVSPost2010Prop28
280
     0
102
RTVSPost2010PropOp28
 70
     1
102
RTVSPost2010Prop29
280
     1
102
RTVSPost2010PropOp29
 70
     1
102
RTVSPost2010Prop30
280
     1
102
RTVSPost2010PropOp30
 70
     1
102
RTVSPost2010Prop31
280
     0
102
RTVSPost2010PropOp31
 70
     1
102
RTVSPost2010Prop32
280
     0
102
RTVSPost2010PropOp32
 70
     1
102
RTVSPost2010Prop33
280
     0
102
RTVSPost2010PropOp33
 70
     1
102
RTVSPost2010Prop34
280
     0
102
RTVSPost2010PropOp34
 70
     1
102
RTVSPost2010Prop35
280
     0
102
RTVSPost2010PropOp35
 70
     1
102
RTVSPost2010Prop36
280
     0
102
RTVSPost2010PropOp36
 70
     1
102
RTVSPost2010Prop37
 90
       50
102
RTVSPost2010PropOp37
 70
     1
102
RTVSPost2010Prop38
140
0.0
102
RTVSPost2010PropOp38
 70
     1
102
RTVSPost2010Prop39
140
1.0
102
RTVSPost2010PropOp39
 70
     1
102
RTVSPost2010Prop40
 90
        0
102
RTVSPost2010PropOp40
 70
     1
102
RTVSPost2010Prop41ColorIndex
 90
       18
102
RTVSPost2010Prop41ColorRGB
 90
        0
102
RTVSPost2010PropOp41
 70
     1
102
RTVSPost2010Prop42
 90
       50
102
RTVSPost2010PropOp42
 70
     1
102
RTVSPost2010Prop43
 90
        3
102
RTVSPost2010PropOp43
 70
     1
102
RTVSPost2010Prop44ColorIndex
 90
        5
102
RTVSPost2010Prop44ColorRGB
 90
      255
102
RTVSPost2010PropOp44
 70
     1
102
RTVSPost2010Prop45
280
     0
102
RTVSPost2010PropOp45
 70
     1
102
RTVSPost2010Prop46
 90
       50
102
RTVSPost2010PropOp46
 70
     1
102
RTVSPost2010Prop47
 90
       50
102
RTVSPost2010PropOp47
 70
     1
102
RTVSPost2010Prop48
 90
       50
102
RTVSPost2010PropOp48
 70
     1
102
RTVSPost2010Prop49
280
     0
102
RTVSPost2010PropOp49
 70
     1
102
RTVSPost2010Prop50
 90
       50
102
RTVSPost2010PropOp50
 70
     1
102
RTVSPost2010Prop51ColorIndex
 90
      256
102
RTVSPost2010Prop51ColorRGB
 90
-16777216
102
RTVSPost2010PropOp51
 70
     0
102
RTVSPost2010Prop52
140
1.0
102
RTVSPost2010PropOp52
 70
     0
102
RTVSPost2010Prop53
 90
        2
102
RTVSPost2010PropOp53
 70
     1
102
RTVSPost2010Prop54
  1
strokes_ogs.tif
102
RTVSPost2010PropOp54
 70
     1
102
RTVSPost2010Prop55
280
     0
102
RTVSPost2010PropOp55
 70
     1
102
RTVSPost2010Prop56
140
1.0
102
RTVSPost2010PropOp56
 70
     1
102
RTVSPost2010Prop57
140
1.0
102
RTVSPost2010PropOp57
 70
     1
102
RTVSPropertyOp0
 70
     1
102
RTVSPropertyOp1
 70
     1
102
RTVSPropertyOp2
 70
     1
102
RTVSPropertyOp3
 70
     1
102
RTVSPropertyOp4
 70
     1
102
RTVSPropertyOp5
 70
     1
102
RTVSPropertyOp6
 70
     1
102
RTVSPropertyOp7
 70
     1
102
RTVSPropertyOp8
 70
     1
102
RTVSPropertyOp9
 70
     1
102
RTVSPropertyOp10
 70
     1
102
RTVSPropertyOp11
 70
     1
102
RTVSPropertyOp12
 70
     1
102
RTVSPropertyOp13
 70
     1
102
RTVSPropertyOp14
 70
     1
102
RTVSPropertyOp15
 70
     1
102
RTVSPropertyOp16
 70
     1
102
RTVSPropertyOp17
 70
     1
102
RTVSPropertyOp18
 70
     1
102
RTVSPropertyOp19
 70
     1
102
RTVSPropertyOp20
 70
     1
102
RTVSPropertyOp21
 70
     1
102
RTVSPropertyOp22
 70
     1
102
RTVSPropertyOp23
 70
     1
102
RTVSPropertyOp24
 70
     1
102
RTVSPropertyOp25
 70
     1
102
RTVSPropertyOp26
 70
     1
102
RTVSPropertyOp27
 70
     1
102
RTVSPropertyOp28
 70
     1
102
RTVSPropertyOp29
 70
     1
102
RTVSPropertyOp30
 70
     1
102
RTVSPropertyOp31
 70
     1
102
RTVSPropertyOp32
 70
     1
102
RTVSPropertyOp33
 70
     1
102
RTVSPropertyOp34
 70
     1
102
RTVSPropertyOp35
 70
     1
102
RTVSPropertyOp36
 70
     1
102
RTVSPropertyOp37
 70
     1
102
RTVSPropertyOp38
 70
     1
102
RTVSPropertyOp39
 70
     1
102
RTVSPropertyOp40
 70
     1
102
RTVSPropertyOp41
 70
     1
102
RTVSPropertyOp42
 70
     1
102
RTVSPropertyOp43
 70
     1
102
RTVSPropertyOp44
 70
     1
102
RTVSPropertyOp45
 70
     1
102
RTVSPropertyOp46
 70
     1
102
RTVSPropertyOp47
 70
     1
102
RTVSPropertyOp48
 70
     1
102
RTVSPropertyOp49
 70
     1
102
RTVSPropertyOp50
 70
     1
102
RTVSPropertyOp51
 70
     0
102
RTVSPropertyOp52
 70
     0
102
RTVSPropertyOp53
 70
     1
102
RTVSPropertyOp54
 70
     1
102
RTVSPropertyOp55
 70
     1
102
RTVSPropertyOp56
 70
     1
102
RTVSPropertyOp57
 70
     1
102
RTVSPropertyOp58
 70
     1
102
RTVSPropertyOp59
 70
     1
102
RTVSPropertyOp60
 70
     1
102
RTVSPropertyOp61
 70
     1
102
RTVSPropertyOp62
 70
     1
  0
XRECORD
  5
7CC
102
{ACAD_REACTORS
330
7CB
102
}
330
7CB
100
AcDbXrecord
280
     1
102
RTVSPost2010Prop28
280
     0
102
RTVSPost2010PropOp28
 70
     1
102
RTVSPost2010Prop29
280
     1
102
RTVSPost2010PropOp29
 70
     1
102
RTVSPost2010Prop30
280
     1
102
RTVSPost2010PropOp30
 70
     1
102
RTVSPost2010Prop31
280
     0
102
RTVSPost2010PropOp31
 70
     1
102
RTVSPost2010Prop32
280
     0
102
RTVSPost2010PropOp32
 70
     1
102
RTVSPost2010Prop33
280
     0
102
RTVSPost2010PropOp33
 70
     1
102
RTVSPost2010Prop34
280
     0
102
RTVSPost2010PropOp34
 70
     1
102
RTVSPost2010Prop35
280
     0
102
RTVSPost2010PropOp35
 70
     1
102
RTVSPost2010Prop36
280
     0
102
RTVSPost2010PropOp36
 70
     1
102
RTVSPost2010Prop37
 90
       50
102
RTVSPost2010PropOp37
 70
     1
102
RTVSPost2010Prop38
140
0.0
102
RTVSPost2010PropOp38
 70
     1
102
RTVSPost2010Prop39
140
1.0
102
RTVSPost2010PropOp39
 70
     1
102
RTVSPost2010Prop40
 90
        0
102
RTVSPost2010PropOp40
 70
     1
102
RTVSPost2010Prop41ColorIndex
 90
       18
102
RTVSPost2010Prop41ColorRGB
 90
        0
102
RTVSPost2010PropOp41
 70
     1
102
RTVSPost2010Prop42
 90
       50
102
RTVSPost2010PropOp42
 70
     1
102
RTVSPost2010Prop43
 90
        3
102
RTVSPost2010PropOp43
 70
     1
102
RTVSPost2010Prop44ColorIndex
 90
        5
102
RTVSPost2010Prop44ColorRGB
 90
      255
102
RTVSPost2010PropOp44
 70
     1
102
RTVSPost2010Prop45
280
     0
102
RTVSPost2010PropOp45
 70
     1
102
RTVSPost2010Prop46
 90
       50
102
RTVSPost2010PropOp46
 70
     1
102
RTVSPost2010Prop47
 90
       50
102
RTVSPost2010PropOp47
 70
     1
102
RTVSPost2010Prop48
 90
       50
102
RTVSPost2010PropOp48
 70
     1
102
RTVSPost2010Prop49
280
     0
102
RTVSPost2010PropOp49
 70
     1
102
RTVSPost2010Prop50
 90
       50
102
RTVSPost2010PropOp50
 70
     1
102
RTVSPost2010Prop51ColorIndex
 90
      256
102
RTVSPost2010Prop51ColorRGB
 90
-16777216
102
RTVSPost2010PropOp51
 70
     0
102
RTVSPost2010Prop52
140
1.0
102
RTVSPost2010PropOp52
 70
     0
102
RTVSPost2010Prop53
 90
        2
102
RTVSPost2010PropOp53
 70
     1
102
RTVSPost2010Prop54
  1
strokes_ogs.tif
102
RTVSPost2010PropOp54
 70
     1
102
RTVSPost2010Prop55
280
     0
102
RTVSPost2010PropOp55
 70
     1
102
RTVSPost2010Prop56
140
1.0
102
RTVSPost2010PropOp56
 70
     1
102
RTVSPost2010Prop57
140
1.0
102
RTVSPost2010PropOp57
 70
     1
102
RTVSPropertyOp0
 70
     1
102
RTVSPropertyOp1
 70
     1
102
RTVSPropertyOp2
 70
     1
102
RTVSPropertyOp3
 70
     1
102
RTVSPropertyOp4
 70
     1
102
RTVSPropertyOp5
 70
     1
102
RTVSPropertyOp6
 70
     1
102
RTVSPropertyOp7
 70
     1
102
RTVSPropertyOp8
 70
     1
102
RTVSPropertyOp9
 70
     1
102
RTVSPropertyOp10
 70
     1
102
RTVSPropertyOp11
 70
     1
102
RTVSPropertyOp12
 70
     1
102
RTVSPropertyOp13
 70
     1
102
RTVSPropertyOp14
 70
     1
102
RTVSPropertyOp15
 70
     1
102
RTVSPropertyOp16
 70
     1
102
RTVSPropertyOp17
 70
     1
102
RTVSPropertyOp18
 70
     1
102
RTVSPropertyOp19
 70
     1
102
RTVSPropertyOp20
 70
     1
102
RTVSPropertyOp21
 70
     1
102
RTVSPropertyOp22
 70
     1
102
RTVSPropertyOp23
 70
     1
102
RTVSPropertyOp24
 70
     1
102
RTVSPropertyOp25
 70
     1
102
RTVSPropertyOp26
 70
     1
102
RTVSPropertyOp27
 70
     1
102
RTVSPropertyOp28
 70
     1
102
RTVSPropertyOp29
 70
     1
102
RTVSPropertyOp30
 70
     1
102
RTVSPropertyOp31
 70
     1
102
RTVSPropertyOp32
 70
     1
102
RTVSPropertyOp33
 70
     1
102
RTVSPropertyOp34
 70
     1
102
RTVSPropertyOp35
 70
     1
102
RTVSPropertyOp36
 70
     1
102
RTVSPropertyOp37
 70
     1
102
RTVSPropertyOp38
 70
     1
102
RTVSPropertyOp39
 70
     1
102
RTVSPropertyOp40
 70
     1
102
RTVSPropertyOp41
 70
     1
102
RTVSPropertyOp42
 70
     1
102
RTVSPropertyOp43
 70
     1
102
RTVSPropertyOp44
 70
     1
102
RTVSPropertyOp45
 70
     1
102
RTVSPropertyOp46
 70
     1
102
RTVSPropertyOp47
 70
     1
102
RTVSPropertyOp48
 70
     1
102
RTVSPropertyOp49
 70
     1
102
RTVSPropertyOp50
 70
     1
102
RTVSPropertyOp51
 70
     0
102
RTVSPropertyOp52
 70
     0
102
RTVSPropertyOp53
 70
     1
102
RTVSPropertyOp54
 70
     1
102
RTVSPropertyOp55
 70
     1
102
RTVSPropertyOp56
 70
     1
102
RTVSPropertyOp57
 70
     1
102
RTVSPropertyOp58
 70
     1
102
RTVSPropertyOp59
 70
     1
102
RTVSPropertyOp60
 70
     1
102
RTVSPropertyOp61
 70
     1
102
RTVSPropertyOp62
 70
     1
  0
XRECORD
  5
7CE
102
{ACAD_REACTORS
330
7CD
102
}
330
7CD
100
AcDbXrecord
280
     1
102
RTVSPost2010Prop28
280
     0
102
RTVSPost2010PropOp28
 70
     1
102
RTVSPost2010Prop29
280
     1
102
RTVSPost2010PropOp29
 70
     1
102
RTVSPost2010Prop30
280
     1
102
RTVSPost2010PropOp30
 70
     1
102
RTVSPost2010Prop31
280
     0
102
RTVSPost2010PropOp31
 70
     1
102
RTVSPost2010Prop32
280
     0
102
RTVSPost2010PropOp32
 70
     1
102
RTVSPost2010Prop33
280
     0
102
RTVSPost2010PropOp33
 70
     1
102
RTVSPost2010Prop34
280
     0
102
RTVSPost2010PropOp34
 70
     1
102
RTVSPost2010Prop35
280
     0
102
RTVSPost2010PropOp35
 70
     1
102
RTVSPost2010Prop36
280
     0
102
RTVSPost2010PropOp36
 70
     1
102
RTVSPost2010Prop37
 90
       50
102
RTVSPost2010PropOp37
 70
     1
102
RTVSPost2010Prop38
140
0.0
102
RTVSPost2010PropOp38
 70
     1
102
RTVSPost2010Prop39
140
1.0
102
RTVSPost2010PropOp39
 70
     1
102
RTVSPost2010Prop40
 90
        0
102
RTVSPost2010PropOp40
 70
     1
102
RTVSPost2010Prop41ColorIndex
 90
       18
102
RTVSPost2010Prop41ColorRGB
 90
        0
102
RTVSPost2010PropOp41
 70
     1
102
RTVSPost2010Prop42
 90
       50
102
RTVSPost2010PropOp42
 70
     1
102
RTVSPost2010Prop43
 90
        3
102
RTVSPost2010PropOp43
 70
     1
102
RTVSPost2010Prop44ColorIndex
 90
        5
102
RTVSPost2010Prop44ColorRGB
 90
      255
102
RTVSPost2010PropOp44
 70
     1
102
RTVSPost2010Prop45
280
     0
102
RTVSPost2010PropOp45
 70
     1
102
RTVSPost2010Prop46
 90
       50
102
RTVSPost2010PropOp46
 70
     1
102
RTVSPost2010Prop47
 90
       50
102
RTVSPost2010PropOp47
 70
     1
102
RTVSPost2010Prop48
 90
       50
102
RTVSPost2010PropOp48
 70
     1
102
RTVSPost2010Prop49
280
     0
102
RTVSPost2010PropOp49
 70
     1
102
RTVSPost2010Prop50
 90
       50
102
RTVSPost2010PropOp50
 70
     1
102
RTVSPost2010Prop51ColorIndex
 90
      256
102
RTVSPost2010Prop51ColorRGB
 90
-16777216
102
RTVSPost2010PropOp51
 70
     0
102
RTVSPost2010Prop52
140
1.0
102
RTVSPost2010PropOp52
 70
     0
102
RTVSPost2010Prop53
 90
        2
102
RTVSPost2010PropOp53
 70
     1
102
RTVSPost2010Prop54
  1
strokes_ogs.tif
102
RTVSPost2010PropOp54
 70
     1
102
RTVSPost2010Prop55
280
     0
102
RTVSPost2010PropOp55
 70
     1
102
RTVSPost2010Prop56
140
1.0
102
RTVSPost2010PropOp56
 70
     1
102
RTVSPost2010Prop57
140
1.0
102
RTVSPost2010PropOp57
 70
     1
102
RTVSPropertyOp0
 70
     1
102
RTVSPropertyOp1
 70
     1
102
RTVSPropertyOp2
 70
     1
102
RTVSPropertyOp3
 70
     1
102
RTVSPropertyOp4
 70
     1
102
RTVSPropertyOp5
 70
     1
102
RTVSPropertyOp6
 70
     1
102
RTVSPropertyOp7
 70
     1
102
RTVSPropertyOp8
 70
     1
102
RTVSPropertyOp9
 70
     1
102
RTVSPropertyOp10
 70
     1
102
RTVSPropertyOp11
 70
     1
102
RTVSPropertyOp12
 70
     1
102
RTVSPropertyOp13
 70
     1
102
RTVSPropertyOp14
 70
     1
102
RTVSPropertyOp15
 70
     1
102
RTVSPropertyOp16
 70
     1
102
RTVSPropertyOp17
 70
     1
102
RTVSPropertyOp18
 70
     1
102
RTVSPropertyOp19
 70
     1
102
RTVSPropertyOp20
 70
     1
102
RTVSPropertyOp21
 70
     1
102
RTVSPropertyOp22
 70
     1
102
RTVSPropertyOp23
 70
     1
102
RTVSPropertyOp24
 70
     1
102
RTVSPropertyOp25
 70
     1
102
RTVSPropertyOp26
 70
     1
102
RTVSPropertyOp27
 70
     1
102
RTVSPropertyOp28
 70
     1
102
RTVSPropertyOp29
 70
     1
102
RTVSPropertyOp30
 70
     1
102
RTVSPropertyOp31
 70
     1
102
RTVSPropertyOp32
 70
     1
102
RTVSPropertyOp33
 70
     1
102
RTVSPropertyOp34
 70
     1
102
RTVSPropertyOp35
 70
     1
102
RTVSPropertyOp36
 70
     1
102
RTVSPropertyOp37
 70
     1
102
RTVSPropertyOp38
 70
     1
102
RTVSPropertyOp39
 70
     1
102
RTVSPropertyOp40
 70
     1
102
RTVSPropertyOp41
 70
     1
102
RTVSPropertyOp42
 70
     1
102
RTVSPropertyOp43
 70
     1
102
RTVSPropertyOp44
 70
     1
102
RTVSPropertyOp45
 70
     1
102
RTVSPropertyOp46
 70
     1
102
RTVSPropertyOp47
 70
     1
102
RTVSPropertyOp48
 70
     1
102
RTVSPropertyOp49
 70
     1
102
RTVSPropertyOp50
 70
     1
102
RTVSPropertyOp51
 70
     0
102
RTVSPropertyOp52
 70
     0
102
RTVSPropertyOp53
 70
     1
102
RTVSPropertyOp54
 70
     1
102
RTVSPropertyOp55
 70
     1
102
RTVSPropertyOp56
 70
     1
102
RTVSPropertyOp57
 70
     1
102
RTVSPropertyOp58
 70
     1
102
RTVSPropertyOp59
 70
     1
102
RTVSPropertyOp60
 70
     1
102
RTVSPropertyOp61
 70
     1
102
RTVSPropertyOp62
 70
     1
  0
XRECORD
  5
7D0
102
{ACAD_REACTORS
330
7CF
102
}
330
7CF
100
AcDbXrecord
280
     1
102
RTVSPost2010Prop28
280
     0
102
RTVSPost2010PropOp28
 70
     1
102
RTVSPost2010Prop29
280
     1
102
RTVSPost2010PropOp29
 70
     1
102
RTVSPost2010Prop30
280
     1
102
RTVSPost2010PropOp30
 70
     1
102
RTVSPost2010Prop31
280
     0
102
RTVSPost2010PropOp31
 70
     1
102
RTVSPost2010Prop32
280
     0
102
RTVSPost2010PropOp32
 70
     1
102
RTVSPost2010Prop33
280
     0
102
RTVSPost2010PropOp33
 70
     1
102
RTVSPost2010Prop34
280
     0
102
RTVSPost2010PropOp34
 70
     1
102
RTVSPost2010Prop35
280
     0
102
RTVSPost2010PropOp35
 70
     1
102
RTVSPost2010Prop36
280
     0
102
RTVSPost2010PropOp36
 70
     1
102
RTVSPost2010Prop37
 90
       50
102
RTVSPost2010PropOp37
 70
     1
102
RTVSPost2010Prop38
140
0.0
102
RTVSPost2010PropOp38
 70
     1
102
RTVSPost2010Prop39
140
1.0
102
RTVSPost2010PropOp39
 70
     1
102
RTVSPost2010Prop40
 90
        0
102
RTVSPost2010PropOp40
 70
     1
102
RTVSPost2010Prop41ColorIndex
 90
       18
102
RTVSPost2010Prop41ColorRGB
 90
        0
102
RTVSPost2010PropOp41
 70
     1
102
RTVSPost2010Prop42
 90
       50
102
RTVSPost2010PropOp42
 70
     1
102
RTVSPost2010Prop43
 90
        3
102
RTVSPost2010PropOp43
 70
     1
102
RTVSPost2010Prop44ColorIndex
 90
        5
102
RTVSPost2010Prop44ColorRGB
 90
      255
102
RTVSPost2010PropOp44
 70
     1
102
RTVSPost2010Prop45
280
     0
102
RTVSPost2010PropOp45
 70
     1
102
RTVSPost2010Prop46
 90
       50
102
RTVSPost2010PropOp46
 70
     1
102
RTVSPost2010Prop47
 90
       50
102
RTVSPost2010PropOp47
 70
     1
102
RTVSPost2010Prop48
 90
       50
102
RTVSPost2010PropOp48
 70
     1
102
RTVSPost2010Prop49
280
     0
102
RTVSPost2010PropOp49
 70
     1
102
RTVSPost2010Prop50
 90
       50
102
RTVSPost2010PropOp50
 70
     1
102
RTVSPost2010Prop51ColorIndex
 90
      256
102
RTVSPost2010Prop51ColorRGB
 90
-16777216
102
RTVSPost2010PropOp51
 70
     0
102
RTVSPost2010Prop52
140
1.0
102
RTVSPost2010PropOp52
 70
     0
102
RTVSPost2010Prop53
 90
        2
102
RTVSPost2010PropOp53
 70
     1
102
RTVSPost2010Prop54
  1
strokes_ogs.tif
102
RTVSPost2010PropOp54
 70
     1
102
RTVSPost2010Prop55
280
     0
102
RTVSPost2010PropOp55
 70
     1
102
RTVSPost2010Prop56
140
1.0
102
RTVSPost2010PropOp56
 70
     1
102
RTVSPost2010Prop57
140
1.0
102
RTVSPost2010PropOp57
 70
     1
102
RTVSPropertyOp0
 70
     1
102
RTVSPropertyOp1
 70
     1
102
RTVSPropertyOp2
 70
     1
102
RTVSPropertyOp3
 70
     1
102
RTVSPropertyOp4
 70
     1
102
RTVSPropertyOp5
 70
     1
102
RTVSPropertyOp6
 70
     1
102
RTVSPropertyOp7
 70
     1
102
RTVSPropertyOp8
 70
     1
102
RTVSPropertyOp9
 70
     1
102
RTVSPropertyOp10
 70
     1
102
RTVSPropertyOp11
 70
     1
102
RTVSPropertyOp12
 70
     1
102
RTVSPropertyOp13
 70
     1
102
RTVSPropertyOp14
 70
     1
102
RTVSPropertyOp15
 70
     1
102
RTVSPropertyOp16
 70
     1
102
RTVSPropertyOp17
 70
     1
102
RTVSPropertyOp18
 70
     1
102
RTVSPropertyOp19
 70
     1
102
RTVSPropertyOp20
 70
     1
102
RTVSPropertyOp21
 70
     1
102
RTVSPropertyOp22
 70
     1
102
RTVSPropertyOp23
 70
     1
102
RTVSPropertyOp24
 70
     1
102
RTVSPropertyOp25
 70
     1
102
RTVSPropertyOp26
 70
     1
102
RTVSPropertyOp27
 70
     1
102
RTVSPropertyOp28
 70
     1
102
RTVSPropertyOp29
 70
     1
102
RTVSPropertyOp30
 70
     1
102
RTVSPropertyOp31
 70
     1
102
RTVSPropertyOp32
 70
     1
102
RTVSPropertyOp33
 70
     1
102
RTVSPropertyOp34
 70
     1
102
RTVSPropertyOp35
 70
     1
102
RTVSPropertyOp36
 70
     1
102
RTVSPropertyOp37
 70
     1
102
RTVSPropertyOp38
 70
     1
102
RTVSPropertyOp39
 70
     1
102
RTVSPropertyOp40
 70
     1
102
RTVSPropertyOp41
 70
     1
102
RTVSPropertyOp42
 70
     1
102
RTVSPropertyOp43
 70
     1
102
RTVSPropertyOp44
 70
     1
102
RTVSPropertyOp45
 70
     1
102
RTVSPropertyOp46
 70
     1
102
RTVSPropertyOp47
 70
     1
102
RTVSPropertyOp48
 70
     1
102
RTVSPropertyOp49
 70
     1
102
RTVSPropertyOp50
 70
     1
102
RTVSPropertyOp51
 70
     0
102
RTVSPropertyOp52
 70
     0
102
RTVSPropertyOp53
 70
     1
102
RTVSPropertyOp54
 70
     1
102
RTVSPropertyOp55
 70
     1
102
RTVSPropertyOp56
 70
     1
102
RTVSPropertyOp57
 70
     1
102
RTVSPropertyOp58
 70
     1
102
RTVSPropertyOp59
 70
     1
102
RTVSPropertyOp60
 70
     1
102
RTVSPropertyOp61
 70
     1
102
RTVSPropertyOp62
 70
     1
  0
XRECORD
  5
7D6
102
{ACAD_REACTORS
330
7D5
102
}
330
7D5
100
AcDbXrecord
280
     1
102
RTVSPost2010Prop28
280
     0
102
RTVSPost2010PropOp28
 70
     1
102
RTVSPost2010Prop29
280
     1
102
RTVSPost2010PropOp29
 70
     1
102
RTVSPost2010Prop30
280
     1
102
RTVSPost2010PropOp30
 70
     1
102
RTVSPost2010Prop31
280
     0
102
RTVSPost2010PropOp31
 70
     1
102
RTVSPost2010Prop32
280
     0
102
RTVSPost2010PropOp32
 70
     1
102
RTVSPost2010Prop33
280
     0
102
RTVSPost2010PropOp33
 70
     1
102
RTVSPost2010Prop34
280
     0
102
RTVSPost2010PropOp34
 70
     1
102
RTVSPost2010Prop35
280
     0
102
RTVSPost2010PropOp35
 70
     1
102
RTVSPost2010Prop36
280
     0
102
RTVSPost2010PropOp36
 70
     1
102
RTVSPost2010Prop37
 90
       50
102
RTVSPost2010PropOp37
 70
     1
102
RTVSPost2010Prop38
140
0.0
102
RTVSPost2010PropOp38
 70
     1
102
RTVSPost2010Prop39
140
1.0
102
RTVSPost2010PropOp39
 70
     1
102
RTVSPost2010Prop40
 90
        0
102
RTVSPost2010PropOp40
 70
     1
102
RTVSPost2010Prop41ColorIndex
 90
       18
102
RTVSPost2010Prop41ColorRGB
 90
        0
102
RTVSPost2010PropOp41
 70
     1
102
RTVSPost2010Prop42
 90
       50
102
RTVSPost2010PropOp42
 70
     1
102
RTVSPost2010Prop43
 90
        3
102
RTVSPost2010PropOp43
 70
     1
102
RTVSPost2010Prop44ColorIndex
 90
        5
102
RTVSPost2010Prop44ColorRGB
 90
      255
102
RTVSPost2010PropOp44
 70
     1
102
RTVSPost2010Prop45
280
     0
102
RTVSPost2010PropOp45
 70
     1
102
RTVSPost2010Prop46
 90
       50
102
RTVSPost2010PropOp46
 70
     1
102
RTVSPost2010Prop47
 90
       50
102
RTVSPost2010PropOp47
 70
     1
102
RTVSPost2010Prop48
 90
       50
102
RTVSPost2010PropOp48
 70
     1
102
RTVSPost2010Prop49
280
     0
102
RTVSPost2010PropOp49
 70
     1
102
RTVSPost2010Prop50
 90
       50
102
RTVSPost2010PropOp50
 70
     1
102
RTVSPost2010Prop51ColorIndex
 90
      256
102
RTVSPost2010Prop51ColorRGB
 90
-16777216
102
RTVSPost2010PropOp51
 70
     0
102
RTVSPost2010Prop52
140
1.0
102
RTVSPost2010PropOp52
 70
     0
102
RTVSPost2010Prop53
 90
        2
102
RTVSPost2010PropOp53
 70
     1
102
RTVSPost2010Prop54
  1
strokes_ogs.tif
102
RTVSPost2010PropOp54
 70
     1
102
RTVSPost2010Prop55
280
     0
102
RTVSPost2010PropOp55
 70
     1
102
RTVSPost2010Prop56
140
1.0
102
RTVSPost2010PropOp56
 70
     1
102
RTVSPost2010Prop57
140
1.0
102
RTVSPost2010PropOp57
 70
     1
102
RTVSPropertyOp0
 70
     1
102
RTVSPropertyOp1
 70
     1
102
RTVSPropertyOp2
 70
     1
102
RTVSPropertyOp3
 70
     1
102
RTVSPropertyOp4
 70
     1
102
RTVSPropertyOp5
 70
     1
102
RTVSPropertyOp6
 70
     1
102
RTVSPropertyOp7
 70
     1
102
RTVSPropertyOp8
 70
     1
102
RTVSPropertyOp9
 70
     1
102
RTVSPropertyOp10
 70
     1
102
RTVSPropertyOp11
 70
     1
102
RTVSPropertyOp12
 70
     1
102
RTVSPropertyOp13
 70
     1
102
RTVSPropertyOp14
 70
     1
102
RTVSPropertyOp15
 70
     1
102
RTVSPropertyOp16
 70
     1
102
RTVSPropertyOp17
 70
     1
102
RTVSPropertyOp18
 70
     1
102
RTVSPropertyOp19
 70
     1
102
RTVSPropertyOp20
 70
     1
102
RTVSPropertyOp21
 70
     1
102
RTVSPropertyOp22
 70
     1
102
RTVSPropertyOp23
 70
     1
102
RTVSPropertyOp24
 70
     1
102
RTVSPropertyOp25
 70
     1
102
RTVSPropertyOp26
 70
     1
102
RTVSPropertyOp27
 70
     1
102
RTVSPropertyOp28
 70
     1
102
RTVSPropertyOp29
 70
     1
102
RTVSPropertyOp30
 70
     1
102
RTVSPropertyOp31
 70
     1
102
RTVSPropertyOp32
 70
     1
102
RTVSPropertyOp33
 70
     1
102
RTVSPropertyOp34
 70
     1
102
RTVSPropertyOp35
 70
     1
102
RTVSPropertyOp36
 70
     1
102
RTVSPropertyOp37
 70
     1
102
RTVSPropertyOp38
 70
     1
102
RTVSPropertyOp39
 70
     1
102
RTVSPropertyOp40
 70
     1
102
RTVSPropertyOp41
 70
     1
102
RTVSPropertyOp42
 70
     1
102
RTVSPropertyOp43
 70
     1
102
RTVSPropertyOp44
 70
     1
102
RTVSPropertyOp45
 70
     1
102
RTVSPropertyOp46
 70
     1
102
RTVSPropertyOp47
 70
     1
102
RTVSPropertyOp48
 70
     1
102
RTVSPropertyOp49
 70
     1
102
RTVSPropertyOp50
 70
     1
102
RTVSPropertyOp51
 70
     0
102
RTVSPropertyOp52
 70
     0
102
RTVSPropertyOp53
 70
     1
102
RTVSPropertyOp54
 70
     1
102
RTVSPropertyOp55
 70
     1
102
RTVSPropertyOp56
 70
     1
102
RTVSPropertyOp57
 70
     1
102
RTVSPropertyOp58
 70
     1
102
RTVSPropertyOp59
 70
     1
102
RTVSPropertyOp60
 70
     1
102
RTVSPropertyOp61
 70
     1
102
RTVSPropertyOp62
 70
     1
  0
XRECORD
  5
7EA
102
{ACAD_REACTORS
330
7E9
102
}
330
7E9
100
AcDbXrecord
280
     1
102
RTVSPost2010Prop28
280
     0
102
RTVSPost2010PropOp28
 70
     0
102
RTVSPost2010Prop29
280
     1
102
RTVSPost2010PropOp29
 70
     0
102
RTVSPost2010Prop30
280
     1
102
RTVSPost2010PropOp30
 70
     0
102
RTVSPost2010Prop31
280
     0
102
RTVSPost2010PropOp31
 70
     0
102
RTVSPost2010Prop32
280
     0
102
RTVSPost2010PropOp32
 70
     0
102
RTVSPost2010Prop33
280
     0
102
RTVSPost2010PropOp33
 70
     0
102
RTVSPost2010Prop34
280
     0
102
RTVSPost2010PropOp34
 70
     0
102
RTVSPost2010Prop35
280
     0
102
RTVSPost2010PropOp35
 70
     0
102
RTVSPost2010Prop36
280
     0
102
RTVSPost2010PropOp36
 70
     0
102
RTVSPost2010Prop37
 90
       50
102
RTVSPost2010PropOp37
 70
     0
102
RTVSPost2010Prop38
140
0.0
102
RTVSPost2010PropOp38
 70
     0
102
RTVSPost2010Prop39
140
1.0
102
RTVSPost2010PropOp39
 70
     0
102
RTVSPost2010Prop40
 90
        0
102
RTVSPost2010PropOp40
 70
     0
102
RTVSPost2010Prop41ColorIndex
 90
       18
102
RTVSPost2010Prop41ColorRGB
 90
        0
102
RTVSPost2010PropOp41
 70
     0
102
RTVSPost2010Prop42
 90
       50
102
RTVSPost2010PropOp42
 70
     0
102
RTVSPost2010Prop43
 90
        3
102
RTVSPost2010PropOp43
 70
     0
102
RTVSPost2010Prop44ColorIndex
 90
        5
102
RTVSPost2010Prop44ColorRGB
 90
      255
102
RTVSPost2010PropOp44
 70
     0
102
RTVSPost2010Prop45
280
     0
102
RTVSPost2010PropOp45
 70
     0
102
RTVSPost2010Prop46
 90
       50
102
RTVSPost2010PropOp46
 70
     0
102
RTVSPost2010Prop47
 90
       50
102
RTVSPost2010PropOp47
 70
     0
102
RTVSPost2010Prop48
 90
       50
102
RTVSPost2010PropOp48
 70
     0
102
RTVSPost2010Prop49
280
     0
102
RTVSPost2010PropOp49
 70
     0
102
RTVSPost2010Prop50
 90
       50
102
RTVSPost2010PropOp50
 70
     0
102
RTVSPost2010Prop51ColorIndex
 90
      256
102
RTVSPost2010Prop51ColorRGB
 90
-16777216
102
RTVSPost2010PropOp51
 70
     0
102
RTVSPost2010Prop52
140
1.0
102
RTVSPost2010PropOp52
 70
     0
102
RTVSPost2010Prop53
 90
        2
102
RTVSPost2010PropOp53
 70
     0
102
RTVSPost2010Prop54
  1
strokes_ogs.tif
102
RTVSPost2010PropOp54
 70
     0
102
RTVSPost2010Prop55
280
     0
102
RTVSPost2010PropOp55
 70
     0
102
RTVSPost2010Prop56
140
1.0
102
RTVSPost2010PropOp56
 70
     0
102
RTVSPost2010Prop57
140
1.0
102
RTVSPost2010PropOp57
 70
     0
102
RTVSPropertyOp0
 70
     0
102
RTVSPropertyOp1
 70
     0
102
RTVSPropertyOp2
 70
     0
102
RTVSPropertyOp3
 70
     0
102
RTVSPropertyOp4
 70
     0
102
RTVSPropertyOp5
 70
     0
102
RTVSPropertyOp6
 70
     0
102
RTVSPropertyOp7
 70
     0
102
RTVSPropertyOp8
 70
     0
102
RTVSPropertyOp9
 70
     0
102
RTVSPropertyOp10
 70
     0
102
RTVSPropertyOp11
 70
     0
102
RTVSPropertyOp12
 70
     0
102
RTVSPropertyOp13
 70
     0
102
RTVSPropertyOp14
 70
     2
102
RTVSPropertyOp15
 70
     0
102
RTVSPropertyOp16
 70
     0
102
RTVSPropertyOp17
 70
     0
102
RTVSPropertyOp18
 70
     0
102
RTVSPropertyOp19
 70
     0
102
RTVSPropertyOp20
 70
     0
102
RTVSPropertyOp21
 70
     0
102
RTVSPropertyOp22
 70
     0
102
RTVSPropertyOp23
 70
     0
102
RTVSPropertyOp24
 70
     0
102
RTVSPropertyOp25
 70
     0
102
RTVSPropertyOp26
 70
     0
102
RTVSPropertyOp27
 70
     0
102
RTVSPropertyOp28
 70
     0
102
RTVSPropertyOp29
 70
     0
102
RTVSPropertyOp30
 70
     0
102
RTVSPropertyOp31
 70
     0
102
RTVSPropertyOp32
 70
     0
102
RTVSPropertyOp33
 70
     0
102
RTVSPropertyOp34
 70
     0
102
RTVSPropertyOp35
 70
     0
102
RTVSPropertyOp36
 70
     0
102
RTVSPropertyOp37
 70
     0
102
RTVSPropertyOp38
 70
     0
102
RTVSPropertyOp39
 70
     0
102
RTVSPropertyOp40
 70
     0
102
RTVSPropertyOp41
 70
     0
102
RTVSPropertyOp42
 70
     0
102
RTVSPropertyOp43
 70
     0
102
RTVSPropertyOp44
 70
     0
102
RTVSPropertyOp45
 70
     0
102
RTVSPropertyOp46
 70
     0
102
RTVSPropertyOp47
 70
     0
102
RTVSPropertyOp48
 70
     0
102
RTVSPropertyOp49
 70
     0
102
RTVSPropertyOp50
 70
     0
102
RTVSPropertyOp51
 70
     0
102
RTVSPropertyOp52
 70
     0
102
RTVSPropertyOp53
 70
     0
102
RTVSPropertyOp54
 70
     0
102
RTVSPropertyOp55
 70
     0
102
RTVSPropertyOp56
 70
     0
102
RTVSPropertyOp57
 70
     0
102
RTVSPropertyOp58
 70
     1
102
RTVSPropertyOp59
 70
     1
102
RTVSPropertyOp60
 70
     1
102
RTVSPropertyOp61
 70
     1
102
RTVSPropertyOp62
 70
     1
  0
XRECORD
  5
7E4
102
{ACAD_REACTORS
330
7E3
102
}
330
7E3
100
AcDbXrecord
280
     1
102
RTVSPost2010Prop28
280
     0
102
RTVSPost2010PropOp28
 70
     1
102
RTVSPost2010Prop29
280
     1
102
RTVSPost2010PropOp29
 70
     1
102
RTVSPost2010Prop30
280
     1
102
RTVSPost2010PropOp30
 70
     1
102
RTVSPost2010Prop31
280
     0
102
RTVSPost2010PropOp31
 70
     1
102
RTVSPost2010Prop32
280
     0
102
RTVSPost2010PropOp32
 70
     1
102
RTVSPost2010Prop33
280
     0
102
RTVSPost2010PropOp33
 70
     1
102
RTVSPost2010Prop34
280
     0
102
RTVSPost2010PropOp34
 70
     1
102
RTVSPost2010Prop35
280
     0
102
RTVSPost2010PropOp35
 70
     1
102
RTVSPost2010Prop36
280
     0
102
RTVSPost2010PropOp36
 70
     1
102
RTVSPost2010Prop37
 90
       50
102
RTVSPost2010PropOp37
 70
     1
102
RTVSPost2010Prop38
140
0.0
102
RTVSPost2010PropOp38
 70
     1
102
RTVSPost2010Prop39
140
1.0
102
RTVSPost2010PropOp39
 70
     1
102
RTVSPost2010Prop40
 90
        0
102
RTVSPost2010PropOp40
 70
     1
102
RTVSPost2010Prop41ColorIndex
 90
       18
102
RTVSPost2010Prop41ColorRGB
 90
        0
102
RTVSPost2010PropOp41
 70
     1
102
RTVSPost2010Prop42
 90
       50
102
RTVSPost2010PropOp42
 70
     1
102
RTVSPost2010Prop43
 90
        3
102
RTVSPost2010PropOp43
 70
     1
102
RTVSPost2010Prop44ColorIndex
 90
        5
102
RTVSPost2010Prop44ColorRGB
 90
      255
102
RTVSPost2010PropOp44
 70
     1
102
RTVSPost2010Prop45
280
     0
102
RTVSPost2010PropOp45
 70
     1
102
RTVSPost2010Prop46
 90
       50
102
RTVSPost2010PropOp46
 70
     1
102
RTVSPost2010Prop47
 90
       50
102
RTVSPost2010PropOp47
 70
     1
102
RTVSPost2010Prop48
 90
       50
102
RTVSPost2010PropOp48
 70
     1
102
RTVSPost2010Prop49
280
     0
102
RTVSPost2010PropOp49
 70
     1
102
RTVSPost2010Prop50
 90
       50
102
RTVSPost2010PropOp50
 70
     1
102
RTVSPost2010Prop51ColorIndex
 90
      256
102
RTVSPost2010Prop51ColorRGB
 90
-16777216
102
RTVSPost2010PropOp51
 70
     0
102
RTVSPost2010Prop52
140
1.0
102
RTVSPost2010PropOp52
 70
     0
102
RTVSPost2010Prop53
 90
        2
102
RTVSPost2010PropOp53
 70
     1
102
RTVSPost2010Prop54
  1
strokes_ogs.tif
102
RTVSPost2010PropOp54
 70
     1
102
RTVSPost2010Prop55
280
     0
102
RTVSPost2010PropOp55
 70
     1
102
RTVSPost2010Prop56
140
1.0
102
RTVSPost2010PropOp56
 70
     1
102
RTVSPost2010Prop57
140
1.0
102
RTVSPost2010PropOp57
 70
     1
102
RTVSPropertyOp0
 70
     1
102
RTVSPropertyOp1
 70
     1
102
RTVSPropertyOp2
 70
     1
102
RTVSPropertyOp3
 70
     1
102
RTVSPropertyOp4
 70
     1
102
RTVSPropertyOp5
 70
     1
102
RTVSPropertyOp6
 70
     1
102
RTVSPropertyOp7
 70
     1
102
RTVSPropertyOp8
 70
     1
102
RTVSPropertyOp9
 70
     1
102
RTVSPropertyOp10
 70
     1
102
RTVSPropertyOp11
 70
     1
102
RTVSPropertyOp12
 70
     1
102
RTVSPropertyOp13
 70
     1
102
RTVSPropertyOp14
 70
     1
102
RTVSPropertyOp15
 70
     1
102
RTVSPropertyOp16
 70
     1
102
RTVSPropertyOp17
 70
     1
102
RTVSPropertyOp18
 70
     1
102
RTVSPropertyOp19
 70
     1
102
RTVSPropertyOp20
 70
     1
102
RTVSPropertyOp21
 70
     1
102
RTVSPropertyOp22
 70
     1
102
RTVSPropertyOp23
 70
     1
102
RTVSPropertyOp24
 70
     1
102
RTVSPropertyOp25
 70
     1
102
RTVSPropertyOp26
 70
     1
102
RTVSPropertyOp27
 70
     1
102
RTVSPropertyOp28
 70
     1
102
RTVSPropertyOp29
 70
     1
102
RTVSPropertyOp30
 70
     1
102
RTVSPropertyOp31
 70
     1
102
RTVSPropertyOp32
 70
     1
102
RTVSPropertyOp33
 70
     1
102
RTVSPropertyOp34
 70
     1
102
RTVSPropertyOp35
 70
     1
102
RTVSPropertyOp36
 70
     1
102
RTVSPropertyOp37
 70
     1
102
RTVSPropertyOp38
 70
     1
102
RTVSPropertyOp39
 70
     1
102
RTVSPropertyOp40
 70
     1
102
RTVSPropertyOp41
 70
     1
102
RTVSPropertyOp42
 70
     1
102
RTVSPropertyOp43
 70
     1
102
RTVSPropertyOp44
 70
     1
102
RTVSPropertyOp45
 70
     1
102
RTVSPropertyOp46
 70
     1
102
RTVSPropertyOp47
 70
     1
102
RTVSPropertyOp48
 70
     1
102
RTVSPropertyOp49
 70
     1
102
RTVSPropertyOp50
 70
     1
102
RTVSPropertyOp51
 70
     0
102
RTVSPropertyOp52
 70
     0
102
RTVSPropertyOp53
 70
     1
102
RTVSPropertyOp54
 70
     1
102
RTVSPropertyOp55
 70
     1
102
RTVSPropertyOp56
 70
     1
102
RTVSPropertyOp57
 70
     1
102
RTVSPropertyOp58
 70
     1
102
RTVSPropertyOp59
 70
     1
102
RTVSPropertyOp60
 70
     1
102
RTVSPropertyOp61
 70
     1
102
RTVSPropertyOp62
 70
     1
  0
XRECORD
  5
7EC
102
{ACAD_REACTORS
330
7EB
102
}
330
7EB
100
AcDbXrecord
280
     1
102
RTVSPost2010Prop28
280
     0
102
RTVSPost2010PropOp28
 70
     0
102
RTVSPost2010Prop29
280
     1
102
RTVSPost2010PropOp29
 70
     0
102
RTVSPost2010Prop30
280
     1
102
RTVSPost2010PropOp30
 70
     0
102
RTVSPost2010Prop31
280
     0
102
RTVSPost2010PropOp31
 70
     0
102
RTVSPost2010Prop32
280
     0
102
RTVSPost2010PropOp32
 70
     0
102
RTVSPost2010Prop33
280
     0
102
RTVSPost2010PropOp33
 70
     0
102
RTVSPost2010Prop34
280
     0
102
RTVSPost2010PropOp34
 70
     0
102
RTVSPost2010Prop35
280
     0
102
RTVSPost2010PropOp35
 70
     0
102
RTVSPost2010Prop36
280
     0
102
RTVSPost2010PropOp36
 70
     0
102
RTVSPost2010Prop37
 90
       50
102
RTVSPost2010PropOp37
 70
     0
102
RTVSPost2010Prop38
140
0.0
102
RTVSPost2010PropOp38
 70
     0
102
RTVSPost2010Prop39
140
1.0
102
RTVSPost2010PropOp39
 70
     0
102
RTVSPost2010Prop40
 90
        0
102
RTVSPost2010PropOp40
 70
     0
102
RTVSPost2010Prop41ColorIndex
 90
       18
102
RTVSPost2010Prop41ColorRGB
 90
        0
102
RTVSPost2010PropOp41
 70
     0
102
RTVSPost2010Prop42
 90
       50
102
RTVSPost2010PropOp42
 70
     0
102
RTVSPost2010Prop43
 90
        3
102
RTVSPost2010PropOp43
 70
     0
102
RTVSPost2010Prop44ColorIndex
 90
        5
102
RTVSPost2010Prop44ColorRGB
 90
      255
102
RTVSPost2010PropOp44
 70
     0
102
RTVSPost2010Prop45
280
     0
102
RTVSPost2010PropOp45
 70
     0
102
RTVSPost2010Prop46
 90
       50
102
RTVSPost2010PropOp46
 70
     0
102
RTVSPost2010Prop47
 90
       50
102
RTVSPost2010PropOp47
 70
     0
102
RTVSPost2010Prop48
 90
       50
102
RTVSPost2010PropOp48
 70
     0
102
RTVSPost2010Prop49
280
     0
102
RTVSPost2010PropOp49
 70
     0
102
RTVSPost2010Prop50
 90
       50
102
RTVSPost2010PropOp50
 70
     0
102
RTVSPost2010Prop51ColorIndex
 90
      256
102
RTVSPost2010Prop51ColorRGB
 90
-16777216
102
RTVSPost2010PropOp51
 70
     0
102
RTVSPost2010Prop52
140
1.0
102
RTVSPost2010PropOp52
 70
     0
102
RTVSPost2010Prop53
 90
        2
102
RTVSPost2010PropOp53
 70
     0
102
RTVSPost2010Prop54
  1
strokes_ogs.tif
102
RTVSPost2010PropOp54
 70
     0
102
RTVSPost2010Prop55
280
     0
102
RTVSPost2010PropOp55
 70
     0
102
RTVSPost2010Prop56
140
1.0
102
RTVSPost2010PropOp56
 70
     0
102
RTVSPost2010Prop57
140
1.0
102
RTVSPost2010PropOp57
 70
     0
102
RTVSPropertyOp0
 70
     0
102
RTVSPropertyOp1
 70
     0
102
RTVSPropertyOp2
 70
     0
102
RTVSPropertyOp3
 70
     0
102
RTVSPropertyOp4
 70
     0
102
RTVSPropertyOp5
 70
     0
102
RTVSPropertyOp6
 70
     0
102
RTVSPropertyOp7
 70
     0
102
RTVSPropertyOp8
 70
     0
102
RTVSPropertyOp9
 70
     0
102
RTVSPropertyOp10
 70
     0
102
RTVSPropertyOp11
 70
     0
102
RTVSPropertyOp12
 70
     0
102
RTVSPropertyOp13
 70
     0
102
RTVSPropertyOp14
 70
     2
102
RTVSPropertyOp15
 70
     0
102
RTVSPropertyOp16
 70
     0
102
RTVSPropertyOp17
 70
     0
102
RTVSPropertyOp18
 70
     0
102
RTVSPropertyOp19
 70
     0
102
RTVSPropertyOp20
 70
     0
102
RTVSPropertyOp21
 70
     0
102
RTVSPropertyOp22
 70
     0
102
RTVSPropertyOp23
 70
     0
102
RTVSPropertyOp24
 70
     0
102
RTVSPropertyOp25
 70
     0
102
RTVSPropertyOp26
 70
     0
102
RTVSPropertyOp27
 70
     0
102
RTVSPropertyOp28
 70
     0
102
RTVSPropertyOp29
 70
     0
102
RTVSPropertyOp30
 70
     0
102
RTVSPropertyOp31
 70
     0
102
RTVSPropertyOp32
 70
     0
102
RTVSPropertyOp33
 70
     0
102
RTVSPropertyOp34
 70
     0
102
RTVSPropertyOp35
 70
     0
102
RTVSPropertyOp36
 70
     0
102
RTVSPropertyOp37
 70
     0
102
RTVSPropertyOp38
 70
     0
102
RTVSPropertyOp39
 70
     0
102
RTVSPropertyOp40
 70
     0
102
RTVSPropertyOp41
 70
     0
102
RTVSPropertyOp42
 70
     0
102
RTVSPropertyOp43
 70
     0
102
RTVSPropertyOp44
 70
     0
102
RTVSPropertyOp45
 70
     0
102
RTVSPropertyOp46
 70
     0
102
RTVSPropertyOp47
 70
     0
102
RTVSPropertyOp48
 70
     0
102
RTVSPropertyOp49
 70
     0
102
RTVSPropertyOp50
 70
     0
102
RTVSPropertyOp51
 70
     0
102
RTVSPropertyOp52
 70
     0
102
RTVSPropertyOp53
 70
     0
102
RTVSPropertyOp54
 70
     0
102
RTVSPropertyOp55
 70
     0
102
RTVSPropertyOp56
 70
     0
102
RTVSPropertyOp57
 70
     0
102
RTVSPropertyOp58
 70
     1
102
RTVSPropertyOp59
 70
     1
102
RTVSPropertyOp60
 70
     1
102
RTVSPropertyOp61
 70
     1
102
RTVSPropertyOp62
 70
     1
  0
XRECORD
  5
7DA
102
{ACAD_REACTORS
330
7D9
102
}
330
7D9
100
AcDbXrecord
280
     1
102
RTVSPost2010Prop28
280
     0
102
RTVSPost2010PropOp28
 70
     1
102
RTVSPost2010Prop29
280
     1
102
RTVSPost2010PropOp29
 70
     1
102
RTVSPost2010Prop30
280
     1
102
RTVSPost2010PropOp30
 70
     1
102
RTVSPost2010Prop31
280
     0
102
RTVSPost2010PropOp31
 70
     1
102
RTVSPost2010Prop32
280
     0
102
RTVSPost2010PropOp32
 70
     1
102
RTVSPost2010Prop33
280
     0
102
RTVSPost2010PropOp33
 70
     1
102
RTVSPost2010Prop34
280
     0
102
RTVSPost2010PropOp34
 70
     1
102
RTVSPost2010Prop35
280
     0
102
RTVSPost2010PropOp35
 70
     1
102
RTVSPost2010Prop36
280
     0
102
RTVSPost2010PropOp36
 70
     1
102
RTVSPost2010Prop37
 90
       50
102
RTVSPost2010PropOp37
 70
     1
102
RTVSPost2010Prop38
140
0.0
102
RTVSPost2010PropOp38
 70
     1
102
RTVSPost2010Prop39
140
1.0
102
RTVSPost2010PropOp39
 70
     1
102
RTVSPost2010Prop40
 90
        0
102
RTVSPost2010PropOp40
 70
     1
102
RTVSPost2010Prop41ColorIndex
 90
       18
102
RTVSPost2010Prop41ColorRGB
 90
        0
102
RTVSPost2010PropOp41
 70
     1
102
RTVSPost2010Prop42
 90
       50
102
RTVSPost2010PropOp42
 70
     1
102
RTVSPost2010Prop43
 90
        3
102
RTVSPost2010PropOp43
 70
     1
102
RTVSPost2010Prop44ColorIndex
 90
        5
102
RTVSPost2010Prop44ColorRGB
 90
      255
102
RTVSPost2010PropOp44
 70
     1
102
RTVSPost2010Prop45
280
     0
102
RTVSPost2010PropOp45
 70
     1
102
RTVSPost2010Prop46
 90
       50
102
RTVSPost2010PropOp46
 70
     1
102
RTVSPost2010Prop47
 90
       50
102
RTVSPost2010PropOp47
 70
     1
102
RTVSPost2010Prop48
 90
       50
102
RTVSPost2010PropOp48
 70
     1
102
RTVSPost2010Prop49
280
     0
102
RTVSPost2010PropOp49
 70
     1
102
RTVSPost2010Prop50
 90
       50
102
RTVSPost2010PropOp50
 70
     1
102
RTVSPost2010Prop51ColorIndex
 90
      256
102
RTVSPost2010Prop51ColorRGB
 90
-16777216
102
RTVSPost2010PropOp51
 70
     0
102
RTVSPost2010Prop52
140
1.0
102
RTVSPost2010PropOp52
 70
     0
102
RTVSPost2010Prop53
 90
        2
102
RTVSPost2010PropOp53
 70
     1
102
RTVSPost2010Prop54
  1
strokes_ogs.tif
102
RTVSPost2010PropOp54
 70
     1
102
RTVSPost2010Prop55
280
     0
102
RTVSPost2010PropOp55
 70
     1
102
RTVSPost2010Prop56
140
1.0
102
RTVSPost2010PropOp56
 70
     1
102
RTVSPost2010Prop57
140
1.0
102
RTVSPost2010PropOp57
 70
     1
102
RTVSPropertyOp0
 70
     1
102
RTVSPropertyOp1
 70
     1
102
RTVSPropertyOp2
 70
     1
102
RTVSPropertyOp3
 70
     1
102
RTVSPropertyOp4
 70
     1
102
RTVSPropertyOp5
 70
     1
102
RTVSPropertyOp6
 70
     1
102
RTVSPropertyOp7
 70
     1
102
RTVSPropertyOp8
 70
     1
102
RTVSPropertyOp9
 70
     1
102
RTVSPropertyOp10
 70
     1
102
RTVSPropertyOp11
 70
     1
102
RTVSPropertyOp12
 70
     1
102
RTVSPropertyOp13
 70
     1
102
RTVSPropertyOp14
 70
     1
102
RTVSPropertyOp15
 70
     1
102
RTVSPropertyOp16
 70
     1
102
RTVSPropertyOp17
 70
     1
102
RTVSPropertyOp18
 70
     1
102
RTVSPropertyOp19
 70
     1
102
RTVSPropertyOp20
 70
     1
102
RTVSPropertyOp21
 70
     1
102
RTVSPropertyOp22
 70
     1
102
RTVSPropertyOp23
 70
     1
102
RTVSPropertyOp24
 70
     1
102
RTVSPropertyOp25
 70
     1
102
RTVSPropertyOp26
 70
     1
102
RTVSPropertyOp27
 70
     1
102
RTVSPropertyOp28
 70
     1
102
RTVSPropertyOp29
 70
     1
102
RTVSPropertyOp30
 70
     1
102
RTVSPropertyOp31
 70
     1
102
RTVSPropertyOp32
 70
     1
102
RTVSPropertyOp33
 70
     1
102
RTVSPropertyOp34
 70
     1
102
RTVSPropertyOp35
 70
     1
102
RTVSPropertyOp36
 70
     1
102
RTVSPropertyOp37
 70
     1
102
RTVSPropertyOp38
 70
     1
102
RTVSPropertyOp39
 70
     1
102
RTVSPropertyOp40
 70
     1
102
RTVSPropertyOp41
 70
     1
102
RTVSPropertyOp42
 70
     1
102
RTVSPropertyOp43
 70
     1
102
RTVSPropertyOp44
 70
     1
102
RTVSPropertyOp45
 70
     1
102
RTVSPropertyOp46
 70
     1
102
RTVSPropertyOp47
 70
     1
102
RTVSPropertyOp48
 70
     1
102
RTVSPropertyOp49
 70
     1
102
RTVSPropertyOp50
 70
     1
102
RTVSPropertyOp51
 70
     0
102
RTVSPropertyOp52
 70
     0
102
RTVSPropertyOp53
 70
     1
102
RTVSPropertyOp54
 70
     1
102
RTVSPropertyOp55
 70
     1
102
RTVSPropertyOp56
 70
     1
102
RTVSPropertyOp57
 70
     1
102
RTVSPropertyOp58
 70
     1
102
RTVSPropertyOp59
 70
     1
102
RTVSPropertyOp60
 70
     1
102
RTVSPropertyOp61
 70
     1
102
RTVSPropertyOp62
 70
     1
  0
XRECORD
  5
7F8
102
{ACAD_REACTORS
330
7F7
102
}
330
7F7
100
AcDbXrecord
280
     1
102
RTVSPost2010Prop28
280
     0
102
RTVSPost2010PropOp28
 70
     1
102
RTVSPost2010Prop29
280
     1
102
RTVSPost2010PropOp29
 70
     1
102
RTVSPost2010Prop30
280
     1
102
RTVSPost2010PropOp30
 70
     1
102
RTVSPost2010Prop31
280
     0
102
RTVSPost2010PropOp31
 70
     1
102
RTVSPost2010Prop32
280
     0
102
RTVSPost2010PropOp32
 70
     1
102
RTVSPost2010Prop33
280
     0
102
RTVSPost2010PropOp33
 70
     1
102
RTVSPost2010Prop34
280
     0
102
RTVSPost2010PropOp34
 70
     1
102
RTVSPost2010Prop35
280
     0
102
RTVSPost2010PropOp35
 70
     1
102
RTVSPost2010Prop36
280
     0
102
RTVSPost2010PropOp36
 70
     1
102
RTVSPost2010Prop37
 90
       50
102
RTVSPost2010PropOp37
 70
     1
102
RTVSPost2010Prop38
140
0.0
102
RTVSPost2010PropOp38
 70
     1
102
RTVSPost2010Prop39
140
1.0
102
RTVSPost2010PropOp39
 70
     1
102
RTVSPost2010Prop40
 90
        0
102
RTVSPost2010PropOp40
 70
     1
102
RTVSPost2010Prop41ColorIndex
 90
       18
102
RTVSPost2010Prop41ColorRGB
 90
        0
102
RTVSPost2010PropOp41
 70
     1
102
RTVSPost2010Prop42
 90
       50
102
RTVSPost2010PropOp42
 70
     1
102
RTVSPost2010Prop43
 90
        3
102
RTVSPost2010PropOp43
 70
     1
102
RTVSPost2010Prop44ColorIndex
 90
        5
102
RTVSPost2010Prop44ColorRGB
 90
      255
102
RTVSPost2010PropOp44
 70
     1
102
RTVSPost2010Prop45
280
     0
102
RTVSPost2010PropOp45
 70
     1
102
RTVSPost2010Prop46
 90
       50
102
RTVSPost2010PropOp46
 70
     1
102
RTVSPost2010Prop47
 90
       50
102
RTVSPost2010PropOp47
 70
     1
102
RTVSPost2010Prop48
 90
       50
102
RTVSPost2010PropOp48
 70
     1
102
RTVSPost2010Prop49
280
     0
102
RTVSPost2010PropOp49
 70
     1
102
RTVSPost2010Prop50
 90
       50
102
RTVSPost2010PropOp50
 70
     1
102
RTVSPost2010Prop51ColorIndex
 90
      256
102
RTVSPost2010Prop51ColorRGB
 90
-16777216
102
RTVSPost2010PropOp51
 70
     0
102
RTVSPost2010Prop52
140
1.0
102
RTVSPost2010PropOp52
 70
     0
102
RTVSPost2010Prop53
 90
        2
102
RTVSPost2010PropOp53
 70
     1
102
RTVSPost2010Prop54
  1
strokes_ogs.tif
102
RTVSPost2010PropOp54
 70
     1
102
RTVSPost2010Prop55
280
     0
102
RTVSPost2010PropOp55
 70
     1
102
RTVSPost2010Prop56
140
1.0
102
RTVSPost2010PropOp56
 70
     1
102
RTVSPost2010Prop57
140
1.0
102
RTVSPost2010PropOp57
 70
     1
102
RTVSPropertyOp0
 70
     1
102
RTVSPropertyOp1
 70
     1
102
RTVSPropertyOp2
 70
     1
102
RTVSPropertyOp3
 70
     1
102
RTVSPropertyOp4
 70
     1
102
RTVSPropertyOp5
 70
     1
102
RTVSPropertyOp6
 70
     1
102
RTVSPropertyOp7
 70
     1
102
RTVSPropertyOp8
 70
     1
102
RTVSPropertyOp9
 70
     1
102
RTVSPropertyOp10
 70
     1
102
RTVSPropertyOp11
 70
     1
102
RTVSPropertyOp12
 70
     1
102
RTVSPropertyOp13
 70
     1
102
RTVSPropertyOp14
 70
     1
102
RTVSPropertyOp15
 70
     1
102
RTVSPropertyOp16
 70
     1
102
RTVSPropertyOp17
 70
     1
102
RTVSPropertyOp18
 70
     1
102
RTVSPropertyOp19
 70
     1
102
RTVSPropertyOp20
 70
     1
102
RTVSPropertyOp21
 70
     1
102
RTVSPropertyOp22
 70
     1
102
RTVSPropertyOp23
 70
     1
102
RTVSPropertyOp24
 70
     1
102
RTVSPropertyOp25
 70
     1
102
RTVSPropertyOp26
 70
     1
102
RTVSPropertyOp27
 70
     1
102
RTVSPropertyOp28
 70
     1
102
RTVSPropertyOp29
 70
     1
102
RTVSPropertyOp30
 70
     1
102
RTVSPropertyOp31
 70
     1
102
RTVSPropertyOp32
 70
     1
102
RTVSPropertyOp33
 70
     1
102
RTVSPropertyOp34
 70
     1
102
RTVSPropertyOp35
 70
     1
102
RTVSPropertyOp36
 70
     1
102
RTVSPropertyOp37
 70
     1
102
RTVSPropertyOp38
 70
     1
102
RTVSPropertyOp39
 70
     1
102
RTVSPropertyOp40
 70
     1
102
RTVSPropertyOp41
 70
     1
102
RTVSPropertyOp42
 70
     1
102
RTVSPropertyOp43
 70
     1
102
RTVSPropertyOp44
 70
     1
102
RTVSPropertyOp45
 70
     1
102
RTVSPropertyOp46
 70
     1
102
RTVSPropertyOp47
 70
     1
102
RTVSPropertyOp48
 70
     1
102
RTVSPropertyOp49
 70
     1
102
RTVSPropertyOp50
 70
     1
102
RTVSPropertyOp51
 70
     0
102
RTVSPropertyOp52
 70
     0
102
RTVSPropertyOp53
 70
     1
102
RTVSPropertyOp54
 70
     1
102
RTVSPropertyOp55
 70
     1
102
RTVSPropertyOp56
 70
     1
102
RTVSPropertyOp57
 70
     1
102
RTVSPropertyOp58
 70
     1
102
RTVSPropertyOp59
 70
     1
102
RTVSPropertyOp60
 70
     1
102
RTVSPropertyOp61
 70
     1
102
RTVSPropertyOp62
 70
     1
  0
XRECORD
  5
7F6
102
{ACAD_REACTORS
330
7F5
102
}
330
7F5
100
AcDbXrecord
280
     1
102
RTVSPost2010Prop28
280
     0
102
RTVSPost2010PropOp28
 70
     1
102
RTVSPost2010Prop29
280
     1
102
RTVSPost2010PropOp29
 70
     1
102
RTVSPost2010Prop30
280
     1
102
RTVSPost2010PropOp30
 70
     1
102
RTVSPost2010Prop31
280
     0
102
RTVSPost2010PropOp31
 70
     1
102
RTVSPost2010Prop32
280
     0
102
RTVSPost2010PropOp32
 70
     1
102
RTVSPost2010Prop33
280
     0
102
RTVSPost2010PropOp33
 70
     1
102
RTVSPost2010Prop34
280
     0
102
RTVSPost2010PropOp34
 70
     1
102
RTVSPost2010Prop35
280
     0
102
RTVSPost2010PropOp35
 70
     1
102
RTVSPost2010Prop36
280
     0
102
RTVSPost2010PropOp36
 70
     1
102
RTVSPost2010Prop37
 90
       50
102
RTVSPost2010PropOp37
 70
     1
102
RTVSPost2010Prop38
140
0.0
102
RTVSPost2010PropOp38
 70
     1
102
RTVSPost2010Prop39
140
1.0
102
RTVSPost2010PropOp39
 70
     1
102
RTVSPost2010Prop40
 90
        0
102
RTVSPost2010PropOp40
 70
     1
102
RTVSPost2010Prop41ColorIndex
 90
       18
102
RTVSPost2010Prop41ColorRGB
 90
        0
102
RTVSPost2010PropOp41
 70
     1
102
RTVSPost2010Prop42
 90
       50
102
RTVSPost2010PropOp42
 70
     1
102
RTVSPost2010Prop43
 90
        3
102
RTVSPost2010PropOp43
 70
     1
102
RTVSPost2010Prop44ColorIndex
 90
        5
102
RTVSPost2010Prop44ColorRGB
 90
      255
102
RTVSPost2010PropOp44
 70
     1
102
RTVSPost2010Prop45
280
     0
102
RTVSPost2010PropOp45
 70
     1
102
RTVSPost2010Prop46
 90
       50
102
RTVSPost2010PropOp46
 70
     1
102
RTVSPost2010Prop47
 90
       50
102
RTVSPost2010PropOp47
 70
     1
102
RTVSPost2010Prop48
 90
       50
102
RTVSPost2010PropOp48
 70
     1
102
RTVSPost2010Prop49
280
     0
102
RTVSPost2010PropOp49
 70
     1
102
RTVSPost2010Prop50
 90
       50
102
RTVSPost2010PropOp50
 70
     1
102
RTVSPost2010Prop51ColorIndex
 90
      256
102
RTVSPost2010Prop51ColorRGB
 90
-16777216
102
RTVSPost2010PropOp51
 70
     0
102
RTVSPost2010Prop52
140
1.0
102
RTVSPost2010PropOp52
 70
     0
102
RTVSPost2010Prop53
 90
        2
102
RTVSPost2010PropOp53
 70
     1
102
RTVSPost2010Prop54
  1
strokes_ogs.tif
102
RTVSPost2010PropOp54
 70
     1
102
RTVSPost2010Prop55
280
     0
102
RTVSPost2010PropOp55
 70
     1
102
RTVSPost2010Prop56
140
1.0
102
RTVSPost2010PropOp56
 70
     1
102
RTVSPost2010Prop57
140
1.0
102
RTVSPost2010PropOp57
 70
     1
102
RTVSPropertyOp0
 70
     1
102
RTVSPropertyOp1
 70
     1
102
RTVSPropertyOp2
 70
     1
102
RTVSPropertyOp3
 70
     1
102
RTVSPropertyOp4
 70
     1
102
RTVSPropertyOp5
 70
     1
102
RTVSPropertyOp6
 70
     1
102
RTVSPropertyOp7
 70
     1
102
RTVSPropertyOp8
 70
     1
102
RTVSPropertyOp9
 70
     1
102
RTVSPropertyOp10
 70
     1
102
RTVSPropertyOp11
 70
     1
102
RTVSPropertyOp12
 70
     1
102
RTVSPropertyOp13
 70
     1
102
RTVSPropertyOp14
 70
     1
102
RTVSPropertyOp15
 70
     1
102
RTVSPropertyOp16
 70
     1
102
RTVSPropertyOp17
 70
     1
102
RTVSPropertyOp18
 70
     1
102
RTVSPropertyOp19
 70
     1
102
RTVSPropertyOp20
 70
     1
102
RTVSPropertyOp21
 70
     1
102
RTVSPropertyOp22
 70
     1
102
RTVSPropertyOp23
 70
     1
102
RTVSPropertyOp24
 70
     1
102
RTVSPropertyOp25
 70
     1
102
RTVSPropertyOp26
 70
     1
102
RTVSPropertyOp27
 70
     1
102
RTVSPropertyOp28
 70
     1
102
RTVSPropertyOp29
 70
     1
102
RTVSPropertyOp30
 70
     1
102
RTVSPropertyOp31
 70
     1
102
RTVSPropertyOp32
 70
     1
102
RTVSPropertyOp33
 70
     1
102
RTVSPropertyOp34
 70
     1
102
RTVSPropertyOp35
 70
     1
102
RTVSPropertyOp36
 70
     1
102
RTVSPropertyOp37
 70
     1
102
RTVSPropertyOp38
 70
     1
102
RTVSPropertyOp39
 70
     1
102
RTVSPropertyOp40
 70
     1
102
RTVSPropertyOp41
 70
     1
102
RTVSPropertyOp42
 70
     1
102
RTVSPropertyOp43
 70
     1
102
RTVSPropertyOp44
 70
     1
102
RTVSPropertyOp45
 70
     1
102
RTVSPropertyOp46
 70
     1
102
RTVSPropertyOp47
 70
     1
102
RTVSPropertyOp48
 70
     1
102
RTVSPropertyOp49
 70
     1
102
RTVSPropertyOp50
 70
     1
102
RTVSPropertyOp51
 70
     0
102
RTVSPropertyOp52
 70
     0
102
RTVSPropertyOp53
 70
     1
102
RTVSPropertyOp54
 70
     1
102
RTVSPropertyOp55
 70
     1
102
RTVSPropertyOp56
 70
     1
102
RTVSPropertyOp57
 70
     1
102
RTVSPropertyOp58
 70
     1
102
RTVSPropertyOp59
 70
     1
102
RTVSPropertyOp60
 70
     1
102
RTVSPropertyOp61
 70
     1
102
RTVSPropertyOp62
 70
     1
  0
XRECORD
  5
7F0
102
{ACAD_REACTORS
330
7EF
102
}
330
7EF
100
AcDbXrecord
280
     1
102
RTVSPost2010Prop28
280
     0
102
RTVSPost2010PropOp28
 70
     1
102
RTVSPost2010Prop29
280
     1
102
RTVSPost2010PropOp29
 70
     1
102
RTVSPost2010Prop30
280
     1
102
RTVSPost2010PropOp30
 70
     1
102
RTVSPost2010Prop31
280
     0
102
RTVSPost2010PropOp31
 70
     1
102
RTVSPost2010Prop32
280
     0
102
RTVSPost2010PropOp32
 70
     1
102
RTVSPost2010Prop33
280
     0
102
RTVSPost2010PropOp33
 70
     1
102
RTVSPost2010Prop34
280
     0
102
RTVSPost2010PropOp34
 70
     1
102
RTVSPost2010Prop35
280
     0
102
RTVSPost2010PropOp35
 70
     1
102
RTVSPost2010Prop36
280
     0
102
RTVSPost2010PropOp36
 70
     1
102
RTVSPost2010Prop37
 90
       50
102
RTVSPost2010PropOp37
 70
     1
102
RTVSPost2010Prop38
140
0.0
102
RTVSPost2010PropOp38
 70
     1
102
RTVSPost2010Prop39
140
1.0
102
RTVSPost2010PropOp39
 70
     1
102
RTVSPost2010Prop40
 90
        0
102
RTVSPost2010PropOp40
 70
     1
102
RTVSPost2010Prop41ColorIndex
 90
       18
102
RTVSPost2010Prop41ColorRGB
 90
        0
102
RTVSPost2010PropOp41
 70
     1
102
RTVSPost2010Prop42
 90
       50
102
RTVSPost2010PropOp42
 70
     1
102
RTVSPost2010Prop43
 90
        3
102
RTVSPost2010PropOp43
 70
     1
102
RTVSPost2010Prop44ColorIndex
 90
        5
102
RTVSPost2010Prop44ColorRGB
 90
      255
102
RTVSPost2010PropOp44
 70
     1
102
RTVSPost2010Prop45
280
     0
102
RTVSPost2010PropOp45
 70
     1
102
RTVSPost2010Prop46
 90
       50
102
RTVSPost2010PropOp46
 70
     1
102
RTVSPost2010Prop47
 90
       50
102
RTVSPost2010PropOp47
 70
     1
102
RTVSPost2010Prop48
 90
       50
102
RTVSPost2010PropOp48
 70
     1
102
RTVSPost2010Prop49
280
     0
102
RTVSPost2010PropOp49
 70
     1
102
RTVSPost2010Prop50
 90
       50
102
RTVSPost2010PropOp50
 70
     1
102
RTVSPost2010Prop51ColorIndex
 90
      256
102
RTVSPost2010Prop51ColorRGB
 90
-16777216
102
RTVSPost2010PropOp51
 70
     0
102
RTVSPost2010Prop52
140
1.0
102
RTVSPost2010PropOp52
 70
     0
102
RTVSPost2010Prop53
 90
        2
102
RTVSPost2010PropOp53
 70
     1
102
RTVSPost2010Prop54
  1
strokes_ogs.tif
102
RTVSPost2010PropOp54
 70
     1
102
RTVSPost2010Prop55
280
     0
102
RTVSPost2010PropOp55
 70
     1
102
RTVSPost2010Prop56
140
1.0
102
RTVSPost2010PropOp56
 70
     1
102
RTVSPost2010Prop57
140
1.0
102
RTVSPost2010PropOp57
 70
     1
102
RTVSPropertyOp0
 70
     1
102
RTVSPropertyOp1
 70
     1
102
RTVSPropertyOp2
 70
     1
102
RTVSPropertyOp3
 70
     1
102
RTVSPropertyOp4
 70
     1
102
RTVSPropertyOp5
 70
     1
102
RTVSPropertyOp6
 70
     1
102
RTVSPropertyOp7
 70
     1
102
RTVSPropertyOp8
 70
     1
102
RTVSPropertyOp9
 70
     1
102
RTVSPropertyOp10
 70
     1
102
RTVSPropertyOp11
 70
     1
102
RTVSPropertyOp12
 70
     1
102
RTVSPropertyOp13
 70
     1
102
RTVSPropertyOp14
 70
     1
102
RTVSPropertyOp15
 70
     1
102
RTVSPropertyOp16
 70
     1
102
RTVSPropertyOp17
 70
     1
102
RTVSPropertyOp18
 70
     1
102
RTVSPropertyOp19
 70
     1
102
RTVSPropertyOp20
 70
     1
102
RTVSPropertyOp21
 70
     1
102
RTVSPropertyOp22
 70
     1
102
RTVSPropertyOp23
 70
     1
102
RTVSPropertyOp24
 70
     1
102
RTVSPropertyOp25
 70
     1
102
RTVSPropertyOp26
 70
     1
102
RTVSPropertyOp27
 70
     1
102
RTVSPropertyOp28
 70
     1
102
RTVSPropertyOp29
 70
     1
102
RTVSPropertyOp30
 70
     1
102
RTVSPropertyOp31
 70
     1
102
RTVSPropertyOp32
 70
     1
102
RTVSPropertyOp33
 70
     1
102
RTVSPropertyOp34
 70
     1
102
RTVSPropertyOp35
 70
     1
102
RTVSPropertyOp36
 70
     1
102
RTVSPropertyOp37
 70
     1
102
RTVSPropertyOp38
 70
     1
102
RTVSPropertyOp39
 70
     1
102
RTVSPropertyOp40
 70
     1
102
RTVSPropertyOp41
 70
     1
102
RTVSPropertyOp42
 70
     1
102
RTVSPropertyOp43
 70
     1
102
RTVSPropertyOp44
 70
     1
102
RTVSPropertyOp45
 70
     1
102
RTVSPropertyOp46
 70
     1
102
RTVSPropertyOp47
 70
     1
102
RTVSPropertyOp48
 70
     1
102
RTVSPropertyOp49
 70
     1
102
RTVSPropertyOp50
 70
     1
102
RTVSPropertyOp51
 70
     0
102
RTVSPropertyOp52
 70
     0
102
RTVSPropertyOp53
 70
     1
102
RTVSPropertyOp54
 70
     1
102
RTVSPropertyOp55
 70
     1
102
RTVSPropertyOp56
 70
     1
102
RTVSPropertyOp57
 70
     1
102
RTVSPropertyOp58
 70
     1
102
RTVSPropertyOp59
 70
     1
102
RTVSPropertyOp60
 70
     1
102
RTVSPropertyOp61
 70
     1
102
RTVSPropertyOp62
 70
     1
  0
XRECORD
  5
7F2
102
{ACAD_REACTORS
330
7F1
102
}
330
7F1
100
AcDbXrecord
280
     1
102
RTVSPost2010Prop28
280
     0
102
RTVSPost2010PropOp28
 70
     1
102
RTVSPost2010Prop29
280
     1
102
RTVSPost2010PropOp29
 70
     1
102
RTVSPost2010Prop30
280
     1
102
RTVSPost2010PropOp30
 70
     1
102
RTVSPost2010Prop31
280
     0
102
RTVSPost2010PropOp31
 70
     1
102
RTVSPost2010Prop32
280
     0
102
RTVSPost2010PropOp32
 70
     1
102
RTVSPost2010Prop33
280
     0
102
RTVSPost2010PropOp33
 70
     1
102
RTVSPost2010Prop34
280
     0
102
RTVSPost2010PropOp34
 70
     1
102
RTVSPost2010Prop35
280
     0
102
RTVSPost2010PropOp35
 70
     1
102
RTVSPost2010Prop36
280
     0
102
RTVSPost2010PropOp36
 70
     1
102
RTVSPost2010Prop37
 90
       50
102
RTVSPost2010PropOp37
 70
     1
102
RTVSPost2010Prop38
140
0.0
102
RTVSPost2010PropOp38
 70
     1
102
RTVSPost2010Prop39
140
1.0
102
RTVSPost2010PropOp39
 70
     1
102
RTVSPost2010Prop40
 90
        0
102
RTVSPost2010PropOp40
 70
     1
102
RTVSPost2010Prop41ColorIndex
 90
       18
102
RTVSPost2010Prop41ColorRGB
 90
        0
102
RTVSPost2010PropOp41
 70
     1
102
RTVSPost2010Prop42
 90
       50
102
RTVSPost2010PropOp42
 70
     1
102
RTVSPost2010Prop43
 90
        3
102
RTVSPost2010PropOp43
 70
     1
102
RTVSPost2010Prop44ColorIndex
 90
        5
102
RTVSPost2010Prop44ColorRGB
 90
      255
102
RTVSPost2010PropOp44
 70
     1
102
RTVSPost2010Prop45
280
     0
102
RTVSPost2010PropOp45
 70
     1
102
RTVSPost2010Prop46
 90
       50
102
RTVSPost2010PropOp46
 70
     1
102
RTVSPost2010Prop47
 90
       50
102
RTVSPost2010PropOp47
 70
     1
102
RTVSPost2010Prop48
 90
       50
102
RTVSPost2010PropOp48
 70
     1
102
RTVSPost2010Prop49
280
     0
102
RTVSPost2010PropOp49
 70
     1
102
RTVSPost2010Prop50
 90
       50
102
RTVSPost2010PropOp50
 70
     1
102
RTVSPost2010Prop51ColorIndex
 90
      256
102
RTVSPost2010Prop51ColorRGB
 90
-16777216
102
RTVSPost2010PropOp51
 70
     0
102
RTVSPost2010Prop52
140
1.0
102
RTVSPost2010PropOp52
 70
     0
102
RTVSPost2010Prop53
 90
        2
102
RTVSPost2010PropOp53
 70
     1
102
RTVSPost2010Prop54
  1
strokes_ogs.tif
102
RTVSPost2010PropOp54
 70
     1
102
RTVSPost2010Prop55
280
     0
102
RTVSPost2010PropOp55
 70
     1
102
RTVSPost2010Prop56
140
1.0
102
RTVSPost2010PropOp56
 70
     1
102
RTVSPost2010Prop57
140
1.0
102
RTVSPost2010PropOp57
 70
     1
102
RTVSPropertyOp0
 70
     1
102
RTVSPropertyOp1
 70
     1
102
RTVSPropertyOp2
 70
     1
102
RTVSPropertyOp3
 70
     1
102
RTVSPropertyOp4
 70
     1
102
RTVSPropertyOp5
 70
     1
102
RTVSPropertyOp6
 70
     1
102
RTVSPropertyOp7
 70
     1
102
RTVSPropertyOp8
 70
     1
102
RTVSPropertyOp9
 70
     1
102
RTVSPropertyOp10
 70
     1
102
RTVSPropertyOp11
 70
     1
102
RTVSPropertyOp12
 70
     1
102
RTVSPropertyOp13
 70
     1
102
RTVSPropertyOp14
 70
     1
102
RTVSPropertyOp15
 70
     1
102
RTVSPropertyOp16
 70
     1
102
RTVSPropertyOp17
 70
     1
102
RTVSPropertyOp18
 70
     1
102
RTVSPropertyOp19
 70
     1
102
RTVSPropertyOp20
 70
     1
102
RTVSPropertyOp21
 70
     1
102
RTVSPropertyOp22
 70
     1
102
RTVSPropertyOp23
 70
     1
102
RTVSPropertyOp24
 70
     1
102
RTVSPropertyOp25
 70
     1
102
RTVSPropertyOp26
 70
     1
102
RTVSPropertyOp27
 70
     1
102
RTVSPropertyOp28
 70
     1
102
RTVSPropertyOp29
 70
     1
102
RTVSPropertyOp30
 70
     1
102
RTVSPropertyOp31
 70
     1
102
RTVSPropertyOp32
 70
     1
102
RTVSPropertyOp33
 70
     1
102
RTVSPropertyOp34
 70
     1
102
RTVSPropertyOp35
 70
     1
102
RTVSPropertyOp36
 70
     1
102
RTVSPropertyOp37
 70
     1
102
RTVSPropertyOp38
 70
     1
102
RTVSPropertyOp39
 70
     1
102
RTVSPropertyOp40
 70
     1
102
RTVSPropertyOp41
 70
     1
102
RTVSPropertyOp42
 70
     1
102
RTVSPropertyOp43
 70
     1
102
RTVSPropertyOp44
 70
     1
102
RTVSPropertyOp45
 70
     1
102
RTVSPropertyOp46
 70
     1
102
RTVSPropertyOp47
 70
     1
102
RTVSPropertyOp48
 70
     1
102
RTVSPropertyOp49
 70
     1
102
RTVSPropertyOp50
 70
     1
102
RTVSPropertyOp51
 70
     0
102
RTVSPropertyOp52
 70
     0
102
RTVSPropertyOp53
 70
     1
102
RTVSPropertyOp54
 70
     1
102
RTVSPropertyOp55
 70
     1
102
RTVSPropertyOp56
 70
     1
102
RTVSPropertyOp57
 70
     1
102
RTVSPropertyOp58
 70
     1
102
RTVSPropertyOp59
 70
     1
102
RTVSPropertyOp60
 70
     1
102
RTVSPropertyOp61
 70
     1
102
RTVSPropertyOp62
 70
     1
  0
XRECORD
  5
7E2
102
{ACAD_REACTORS
330
7E1
102
}
330
7E1
100
AcDbXrecord
280
     1
102
RTVSPost2010Prop28
280
     0
102
RTVSPost2010PropOp28
 70
     1
102
RTVSPost2010Prop29
280
     1
102
RTVSPost2010PropOp29
 70
     1
102
RTVSPost2010Prop30
280
     1
102
RTVSPost2010PropOp30
 70
     1
102
RTVSPost2010Prop31
280
     0
102
RTVSPost2010PropOp31
 70
     1
102
RTVSPost2010Prop32
280
     0
102
RTVSPost2010PropOp32
 70
     1
102
RTVSPost2010Prop33
280
     0
102
RTVSPost2010PropOp33
 70
     1
102
RTVSPost2010Prop34
280
     0
102
RTVSPost2010PropOp34
 70
     1
102
RTVSPost2010Prop35
280
     0
102
RTVSPost2010PropOp35
 70
     1
102
RTVSPost2010Prop36
280
     0
102
RTVSPost2010PropOp36
 70
     1
102
RTVSPost2010Prop37
 90
       50
102
RTVSPost2010PropOp37
 70
     1
102
RTVSPost2010Prop38
140
0.0
102
RTVSPost2010PropOp38
 70
     1
102
RTVSPost2010Prop39
140
1.0
102
RTVSPost2010PropOp39
 70
     1
102
RTVSPost2010Prop40
 90
        0
102
RTVSPost2010PropOp40
 70
     1
102
RTVSPost2010Prop41ColorIndex
 90
       18
102
RTVSPost2010Prop41ColorRGB
 90
        0
102
RTVSPost2010PropOp41
 70
     1
102
RTVSPost2010Prop42
 90
       50
102
RTVSPost2010PropOp42
 70
     1
102
RTVSPost2010Prop43
 90
        3
102
RTVSPost2010PropOp43
 70
     1
102
RTVSPost2010Prop44ColorIndex
 90
        5
102
RTVSPost2010Prop44ColorRGB
 90
      255
102
RTVSPost2010PropOp44
 70
     1
102
RTVSPost2010Prop45
280
     0
102
RTVSPost2010PropOp45
 70
     1
102
RTVSPost2010Prop46
 90
       50
102
RTVSPost2010PropOp46
 70
     1
102
RTVSPost2010Prop47
 90
       50
102
RTVSPost2010PropOp47
 70
     1
102
RTVSPost2010Prop48
 90
       50
102
RTVSPost2010PropOp48
 70
     1
102
RTVSPost2010Prop49
280
     0
102
RTVSPost2010PropOp49
 70
     1
102
RTVSPost2010Prop50
 90
       50
102
RTVSPost2010PropOp50
 70
     1
102
RTVSPost2010Prop51ColorIndex
 90
      256
102
RTVSPost2010Prop51ColorRGB
 90
-16777216
102
RTVSPost2010PropOp51
 70
     0
102
RTVSPost2010Prop52
140
1.0
102
RTVSPost2010PropOp52
 70
     0
102
RTVSPost2010Prop53
 90
        2
102
RTVSPost2010PropOp53
 70
     1
102
RTVSPost2010Prop54
  1
strokes_ogs.tif
102
RTVSPost2010PropOp54
 70
     1
102
RTVSPost2010Prop55
280
     0
102
RTVSPost2010PropOp55
 70
     1
102
RTVSPost2010Prop56
140
1.0
102
RTVSPost2010PropOp56
 70
     1
102
RTVSPost2010Prop57
140
1.0
102
RTVSPost2010PropOp57
 70
     1
102
RTVSPropertyOp0
 70
     1
102
RTVSPropertyOp1
 70
     1
102
RTVSPropertyOp2
 70
     1
102
RTVSPropertyOp3
 70
     1
102
RTVSPropertyOp4
 70
     1
102
RTVSPropertyOp5
 70
     1
102
RTVSPropertyOp6
 70
     1
102
RTVSPropertyOp7
 70
     1
102
RTVSPropertyOp8
 70
     1
102
RTVSPropertyOp9
 70
     1
102
RTVSPropertyOp10
 70
     1
102
RTVSPropertyOp11
 70
     1
102
RTVSPropertyOp12
 70
     1
102
RTVSPropertyOp13
 70
     1
102
RTVSPropertyOp14
 70
     1
102
RTVSPropertyOp15
 70
     1
102
RTVSPropertyOp16
 70
     1
102
RTVSPropertyOp17
 70
     1
102
RTVSPropertyOp18
 70
     1
102
RTVSPropertyOp19
 70
     1
102
RTVSPropertyOp20
 70
     1
102
RTVSPropertyOp21
 70
     1
102
RTVSPropertyOp22
 70
     1
102
RTVSPropertyOp23
 70
     1
102
RTVSPropertyOp24
 70
     1
102
RTVSPropertyOp25
 70
     1
102
RTVSPropertyOp26
 70
     1
102
RTVSPropertyOp27
 70
     1
102
RTVSPropertyOp28
 70
     1
102
RTVSPropertyOp29
 70
     1
102
RTVSPropertyOp30
 70
     1
102
RTVSPropertyOp31
 70
     1
102
RTVSPropertyOp32
 70
     1
102
RTVSPropertyOp33
 70
     1
102
RTVSPropertyOp34
 70
     1
102
RTVSPropertyOp35
 70
     1
102
RTVSPropertyOp36
 70
     1
102
RTVSPropertyOp37
 70
     1
102
RTVSPropertyOp38
 70
     1
102
RTVSPropertyOp39
 70
     1
102
RTVSPropertyOp40
 70
     1
102
RTVSPropertyOp41
 70
     1
102
RTVSPropertyOp42
 70
     1
102
RTVSPropertyOp43
 70
     1
102
RTVSPropertyOp44
 70
     1
102
RTVSPropertyOp45
 70
     1
102
RTVSPropertyOp46
 70
     1
102
RTVSPropertyOp47
 70
     1
102
RTVSPropertyOp48
 70
     1
102
RTVSPropertyOp49
 70
     1
102
RTVSPropertyOp50
 70
     1
102
RTVSPropertyOp51
 70
     0
102
RTVSPropertyOp52
 70
     0
102
RTVSPropertyOp53
 70
     1
102
RTVSPropertyOp54
 70
     1
102
RTVSPropertyOp55
 70
     1
102
RTVSPropertyOp56
 70
     1
102
RTVSPropertyOp57
 70
     1
102
RTVSPropertyOp58
 70
     1
102
RTVSPropertyOp59
 70
     1
102
RTVSPropertyOp60
 70
     1
102
RTVSPropertyOp61
 70
     1
102
RTVSPropertyOp62
 70
     1
  0
XRECORD
  5
7D4
102
{ACAD_REACTORS
330
7D3
102
}
330
7D3
100
AcDbXrecord
280
     1
102
RTVSPost2010Prop28
280
     0
102
RTVSPost2010PropOp28
 70
     1
102
RTVSPost2010Prop29
280
     1
102
RTVSPost2010PropOp29
 70
     1
102
RTVSPost2010Prop30
280
     1
102
RTVSPost2010PropOp30
 70
     1
102
RTVSPost2010Prop31
280
     0
102
RTVSPost2010PropOp31
 70
     1
102
RTVSPost2010Prop32
280
     0
102
RTVSPost2010PropOp32
 70
     1
102
RTVSPost2010Prop33
280
     0
102
RTVSPost2010PropOp33
 70
     1
102
RTVSPost2010Prop34
280
     0
102
RTVSPost2010PropOp34
 70
     1
102
RTVSPost2010Prop35
280
     0
102
RTVSPost2010PropOp35
 70
     1
102
RTVSPost2010Prop36
280
     0
102
RTVSPost2010PropOp36
 70
     1
102
RTVSPost2010Prop37
 90
       50
102
RTVSPost2010PropOp37
 70
     1
102
RTVSPost2010Prop38
140
0.0
102
RTVSPost2010PropOp38
 70
     1
102
RTVSPost2010Prop39
140
1.0
102
RTVSPost2010PropOp39
 70
     1
102
RTVSPost2010Prop40
 90
        0
102
RTVSPost2010PropOp40
 70
     1
102
RTVSPost2010Prop41ColorIndex
 90
       18
102
RTVSPost2010Prop41ColorRGB
 90
        0
102
RTVSPost2010PropOp41
 70
     1
102
RTVSPost2010Prop42
 90
       50
102
RTVSPost2010PropOp42
 70
     1
102
RTVSPost2010Prop43
 90
        3
102
RTVSPost2010PropOp43
 70
     1
102
RTVSPost2010Prop44ColorIndex
 90
        5
102
RTVSPost2010Prop44ColorRGB
 90
      255
102
RTVSPost2010PropOp44
 70
     1
102
RTVSPost2010Prop45
280
     0
102
RTVSPost2010PropOp45
 70
     1
102
RTVSPost2010Prop46
 90
       50
102
RTVSPost2010PropOp46
 70
     1
102
RTVSPost2010Prop47
 90
       50
102
RTVSPost2010PropOp47
 70
     1
102
RTVSPost2010Prop48
 90
       50
102
RTVSPost2010PropOp48
 70
     1
102
RTVSPost2010Prop49
280
     0
102
RTVSPost2010PropOp49
 70
     1
102
RTVSPost2010Prop50
 90
       50
102
RTVSPost2010PropOp50
 70
     1
102
RTVSPost2010Prop51ColorIndex
 90
      256
102
RTVSPost2010Prop51ColorRGB
 90
-16777216
102
RTVSPost2010PropOp51
 70
     0
102
RTVSPost2010Prop52
140
1.0
102
RTVSPost2010PropOp52
 70
     0
102
RTVSPost2010Prop53
 90
        2
102
RTVSPost2010PropOp53
 70
     1
102
RTVSPost2010Prop54
  1
strokes_ogs.tif
102
RTVSPost2010PropOp54
 70
     1
102
RTVSPost2010Prop55
280
     0
102
RTVSPost2010PropOp55
 70
     1
102
RTVSPost2010Prop56
140
1.0
102
RTVSPost2010PropOp56
 70
     1
102
RTVSPost2010Prop57
140
1.0
102
RTVSPost2010PropOp57
 70
     1
102
RTVSPropertyOp0
 70
     1
102
RTVSPropertyOp1
 70
     1
102
RTVSPropertyOp2
 70
     1
102
RTVSPropertyOp3
 70
     1
102
RTVSPropertyOp4
 70
     1
102
RTVSPropertyOp5
 70
     1
102
RTVSPropertyOp6
 70
     1
102
RTVSPropertyOp7
 70
     1
102
RTVSPropertyOp8
 70
     1
102
RTVSPropertyOp9
 70
     1
102
RTVSPropertyOp10
 70
     1
102
RTVSPropertyOp11
 70
     1
102
RTVSPropertyOp12
 70
     1
102
RTVSPropertyOp13
 70
     1
102
RTVSPropertyOp14
 70
     1
102
RTVSPropertyOp15
 70
     1
102
RTVSPropertyOp16
 70
     1
102
RTVSPropertyOp17
 70
     1
102
RTVSPropertyOp18
 70
     1
102
RTVSPropertyOp19
 70
     1
102
RTVSPropertyOp20
 70
     1
102
RTVSPropertyOp21
 70
     1
102
RTVSPropertyOp22
 70
     1
102
RTVSPropertyOp23
 70
     1
102
RTVSPropertyOp24
 70
     1
102
RTVSPropertyOp25
 70
     1
102
RTVSPropertyOp26
 70
     1
102
RTVSPropertyOp27
 70
     1
102
RTVSPropertyOp28
 70
     1
102
RTVSPropertyOp29
 70
     1
102
RTVSPropertyOp30
 70
     1
102
RTVSPropertyOp31
 70
     1
102
RTVSPropertyOp32
 70
     1
102
RTVSPropertyOp33
 70
     1
102
RTVSPropertyOp34
 70
     1
102
RTVSPropertyOp35
 70
     1
102
RTVSPropertyOp36
 70
     1
102
RTVSPropertyOp37
 70
     1
102
RTVSPropertyOp38
 70
     1
102
RTVSPropertyOp39
 70
     1
102
RTVSPropertyOp40
 70
     1
102
RTVSPropertyOp41
 70
     1
102
RTVSPropertyOp42
 70
     1
102
RTVSPropertyOp43
 70
     1
102
RTVSPropertyOp44
 70
     1
102
RTVSPropertyOp45
 70
     1
102
RTVSPropertyOp46
 70
     1
102
RTVSPropertyOp47
 70
     1
102
RTVSPropertyOp48
 70
     1
102
RTVSPropertyOp49
 70
     1
102
RTVSPropertyOp50
 70
     1
102
RTVSPropertyOp51
 70
     0
102
RTVSPropertyOp52
 70
     0
102
RTVSPropertyOp53
 70
     1
102
RTVSPropertyOp54
 70
     1
102
RTVSPropertyOp55
 70
     1
102
RTVSPropertyOp56
 70
     1
102
RTVSPropertyOp57
 70
     1
102
RTVSPropertyOp58
 70
     1
102
RTVSPropertyOp59
 70
     1
102
RTVSPropertyOp60
 70
     1
102
RTVSPropertyOp61
 70
     1
102
RTVSPropertyOp62
 70
     1
  0
XRECORD
  5
7F4
102
{ACAD_REACTORS
330
7F3
102
}
330
7F3
100
AcDbXrecord
280
     1
102
RTVSPost2010Prop28
280
     0
102
RTVSPost2010PropOp28
 70
     1
102
RTVSPost2010Prop29
280
     1
102
RTVSPost2010PropOp29
 70
     1
102
RTVSPost2010Prop30
280
     1
102
RTVSPost2010PropOp30
 70
     1
102
RTVSPost2010Prop31
280
     0
102
RTVSPost2010PropOp31
 70
     1
102
RTVSPost2010Prop32
280
     0
102
RTVSPost2010PropOp32
 70
     1
102
RTVSPost2010Prop33
280
     0
102
RTVSPost2010PropOp33
 70
     1
102
RTVSPost2010Prop34
280
     0
102
RTVSPost2010PropOp34
 70
     1
102
RTVSPost2010Prop35
280
     0
102
RTVSPost2010PropOp35
 70
     1
102
RTVSPost2010Prop36
280
     0
102
RTVSPost2010PropOp36
 70
     1
102
RTVSPost2010Prop37
 90
       50
102
RTVSPost2010PropOp37
 70
     1
102
RTVSPost2010Prop38
140
0.0
102
RTVSPost2010PropOp38
 70
     1
102
RTVSPost2010Prop39
140
1.0
102
RTVSPost2010PropOp39
 70
     1
102
RTVSPost2010Prop40
 90
        0
102
RTVSPost2010PropOp40
 70
     1
102
RTVSPost2010Prop41ColorIndex
 90
       18
102
RTVSPost2010Prop41ColorRGB
 90
        0
102
RTVSPost2010PropOp41
 70
     1
102
RTVSPost2010Prop42
 90
       50
102
RTVSPost2010PropOp42
 70
     1
102
RTVSPost2010Prop43
 90
        3
102
RTVSPost2010PropOp43
 70
     1
102
RTVSPost2010Prop44ColorIndex
 90
        5
102
RTVSPost2010Prop44ColorRGB
 90
      255
102
RTVSPost2010PropOp44
 70
     1
102
RTVSPost2010Prop45
280
     0
102
RTVSPost2010PropOp45
 70
     1
102
RTVSPost2010Prop46
 90
       50
102
RTVSPost2010PropOp46
 70
     1
102
RTVSPost2010Prop47
 90
       50
102
RTVSPost2010PropOp47
 70
     1
102
RTVSPost2010Prop48
 90
       50
102
RTVSPost2010PropOp48
 70
     1
102
RTVSPost2010Prop49
280
     0
102
RTVSPost2010PropOp49
 70
     1
102
RTVSPost2010Prop50
 90
       50
102
RTVSPost2010PropOp50
 70
     1
102
RTVSPost2010Prop51ColorIndex
 90
      256
102
RTVSPost2010Prop51ColorRGB
 90
-16777216
102
RTVSPost2010PropOp51
 70
     0
102
RTVSPost2010Prop52
140
1.0
102
RTVSPost2010PropOp52
 70
     0
102
RTVSPost2010Prop53
 90
        2
102
RTVSPost2010PropOp53
 70
     1
102
RTVSPost2010Prop54
  1
strokes_ogs.tif
102
RTVSPost2010PropOp54
 70
     1
102
RTVSPost2010Prop55
280
     0
102
RTVSPost2010PropOp55
 70
     1
102
RTVSPost2010Prop56
140
1.0
102
RTVSPost2010PropOp56
 70
     1
102
RTVSPost2010Prop57
140
1.0
102
RTVSPost2010PropOp57
 70
     1
102
RTVSPropertyOp0
 70
     1
102
RTVSPropertyOp1
 70
     1
102
RTVSPropertyOp2
 70
     1
102
RTVSPropertyOp3
 70
     1
102
RTVSPropertyOp4
 70
     1
102
RTVSPropertyOp5
 70
     1
102
RTVSPropertyOp6
 70
     1
102
RTVSPropertyOp7
 70
     1
102
RTVSPropertyOp8
 70
     1
102
RTVSPropertyOp9
 70
     1
102
RTVSPropertyOp10
 70
     1
102
RTVSPropertyOp11
 70
     1
102
RTVSPropertyOp12
 70
     1
102
RTVSPropertyOp13
 70
     1
102
RTVSPropertyOp14
 70
     1
102
RTVSPropertyOp15
 70
     1
102
RTVSPropertyOp16
 70
     1
102
RTVSPropertyOp17
 70
     1
102
RTVSPropertyOp18
 70
     1
102
RTVSPropertyOp19
 70
     1
102
RTVSPropertyOp20
 70
     1
102
RTVSPropertyOp21
 70
     1
102
RTVSPropertyOp22
 70
     1
102
RTVSPropertyOp23
 70
     1
102
RTVSPropertyOp24
 70
     1
102
RTVSPropertyOp25
 70
     1
102
RTVSPropertyOp26
 70
     1
102
RTVSPropertyOp27
 70
     1
102
RTVSPropertyOp28
 70
     1
102
RTVSPropertyOp29
 70
     1
102
RTVSPropertyOp30
 70
     1
102
RTVSPropertyOp31
 70
     1
102
RTVSPropertyOp32
 70
     1
102
RTVSPropertyOp33
 70
     1
102
RTVSPropertyOp34
 70
     1
102
RTVSPropertyOp35
 70
     1
102
RTVSPropertyOp36
 70
     1
102
RTVSPropertyOp37
 70
     1
102
RTVSPropertyOp38
 70
     1
102
RTVSPropertyOp39
 70
     1
102
RTVSPropertyOp40
 70
     1
102
RTVSPropertyOp41
 70
     1
102
RTVSPropertyOp42
 70
     1
102
RTVSPropertyOp43
 70
     1
102
RTVSPropertyOp44
 70
     1
102
RTVSPropertyOp45
 70
     1
102
RTVSPropertyOp46
 70
     1
102
RTVSPropertyOp47
 70
     1
102
RTVSPropertyOp48
 70
     1
102
RTVSPropertyOp49
 70
     1
102
RTVSPropertyOp50
 70
     1
102
RTVSPropertyOp51
 70
     0
102
RTVSPropertyOp52
 70
     0
102
RTVSPropertyOp53
 70
     1
102
RTVSPropertyOp54
 70
     1
102
RTVSPropertyOp55
 70
     1
102
RTVSPropertyOp56
 70
     1
102
RTVSPropertyOp57
 70
     1
102
RTVSPropertyOp58
 70
     1
102
RTVSPropertyOp59
 70
     1
102
RTVSPropertyOp60
 70
     1
102
RTVSPropertyOp61
 70
     1
102
RTVSPropertyOp62
 70
     1
  0
ENDSEC
  0
EOF
