  0
SECTION
  2
HEADER
  9
$ACADVER
  1
AC1015
  9
$ACADMAINTVER
 70
    20
  9
$DWGCODEPAGE
  3
ANSI_932
  9
$INSBASE
 10
0.0
 20
0.0
 30
0.0
  9
$EXTMIN
 10
50.12523195220734
 20
14.6310551915426
 30
0.0
  9
$EXTMAX
 10
2059.636166409096
 20
1345.873142408072
 30
0.0
  9
$LIMMIN
 10
-626.3369827270508
 20
-765.5857734680174
  9
$LIMMAX
 10
1116.866161217193
 20
392.3502922058105
  9
$ORTHOMODE
 70
     1
  9
$REGENMODE
 70
     1
  9
$FILLMODE
 70
     1
  9
$QTEXTMODE
 70
     0
  9
$MIRRTEXT
 70
     1
  9
$LTSCALE
 40
0.134031444960066
  9
$ATTMODE
 70
     1
  9
$TEXTSIZE
 40
2.5
  9
$TRACEWID
 40
1.0
  9
$TEXTSTYLE
  7
Standard
  9
$CLAYER
  8
0
  9
$CELTYPE
  6
ByLayer
  9
$CECOLOR
 62
   256
  9
$CELTSCALE
 40
1.0
  9
$DISPSILH
 70
     0
  9
$DIMSCALE
 40
1.0
  9
$DIMASZ
 40
2.5
  9
$DIMEXO
 40
0.625
  9
$DIMDLI
 40
3.75
  9
$DIMRND
 40
0.0
  9
$DIMDLE
 40
0.0
  9
$DIMEXE
 40
1.25
  9
$DIMTP
 40
0.0
  9
$DIMTM
 40
0.0
  9
$DIMTXT
 40
2.5
  9
$DIMCEN
 40
2.5
  9
$DIMTSZ
 40
0.0
  9
$DIMTOL
 70
     0
  9
$DIMLIM
 70
     0
  9
$DIMTIH
 70
     0
  9
$DIMTOH
 70
     0
  9
$DIMSE1
 70
     0
  9
$DIMSE2
 70
     0
  9
$DIMTAD
 70
     1
  9
$DIMZIN
 70
     0
  9
$DIMBLK
  1

  9
$DIMASO
 70
     1
  9
$DIMSHO
 70
     1
  9
$DIMPOST
  1

  9
$DIMAPOST
  1

  9
$DIMALT
 70
     0
  9
$DIMALTD
 70
     3
  9
$DIMALTF
 40
0.03937007874016
  9
$DIMLFAC
 40
1.0
  9
$DIMTOFL
 70
     1
  9
$DIMTVP
 40
0.0
  9
$DIMTIX
 70
     0
  9
$DIMSOXD
 70
     0
  9
$DIMSAH
 70
     0
  9
$DIMBLK1
  1

  9
$DIMBLK2
  1

  9
$DIMSTYLE
  2
Standard
  9
$DIMCLRD
 70
     0
  9
$DIMCLRE
 70
     0
  9
$DIMCLRT
 70
     0
  9
$DIMTFAC
 40
0.75
  9
$DIMGAP
 40
0.625
  9
$DIMJUST
 70
     0
  9
$DIMSD1
 70
     0
  9
$DIMSD2
 70
     0
  9
$DIMTOLJ
 70
     0
  9
$DIMTZIN
 70
     8
  9
$DIMALTZ
 70
     0
  9
$DIMALTTZ
 70
     0
  9
$DIMUPT
 70
     0
  9
$DIMDEC
 70
     2
  9
$DIMTDEC
 70
     2
  9
$DIMALTU
 70
     2
  9
$DIMALTTD
 70
     3
  9
$DIMTXSTY
  7
Standard
  9
$DIMAUNIT
 70
     0
  9
$DIMADEC
 70
     0
  9
$DIMALTRND
 40
0.0
  9
$DIMAZIN
 70
     0
  9
$DIMDSEP
 70
    46
  9
$DIMATFIT
 70
     3
  9
$DIMFRAC
 70
     0
  9
$DIMLDRBLK
  1

  9
$DIMLUNIT
 70
     2
  9
$DIMLWD
 70
    -2
  9
$DIMLWE
 70
    -2
  9
$DIMTMOVE
 70
     0
  9
$LUNITS
 70
     2
  9
$LUPREC
 70
     4
  9
$SKETCHINC
 40
1.0
  9
$FILLETRAD
 40
0.0
  9
$AUNITS
 70
     0
  9
$AUPREC
 70
     0
  9
$MENU
  1
.
  9
$ELEVATION
 40
0.0
  9
$PELEVATION
 40
0.0
  9
$THICKNESS
 40
0.0
  9
$LIMCHECK
 70
     0
  9
$CHAMFERA
 40
10.0
  9
$CHAMFERB
 40
10.0
  9
$CHAMFERC
 40
20.0
  9
$CHAMFERD
 40
0.0
  9
$SKPOLY
 70
     0
  9
$TDCREATE
 40
2455188.750000000
  9
$TDUCREATE
 40
2455188.375000000
  9
$TDUPDATE
 40
2459759.409282002
  9
$TDUUPDATE
 40
2459759.034282002
  9
$TDINDWG
 40
0.0204052894
  9
$TDUSRTIMER
 40
0.0204050810
  9
$USRTIMER
 70
     1
  9
$ANGBASE
 50
0.0
  9
$ANGDIR
 70
     0
  9
$PDMODE
 70
     0
  9
$PDSIZE
 40
0.0
  9
$PLINEWID
 40
0.0
  9
$SPLFRAME
 70
     0
  9
$SPLINETYPE
 70
     6
  9
$SPLINESEGS
 70
     8
  9
$HANDSEED
  5
6F8
  9
$SURFTAB1
 70
     6
  9
$SURFTAB2
 70
     6
  9
$SURFTYPE
 70
     6
  9
$SURFU
 70
     6
  9
$SURFV
 70
     6
  9
$UCSBASE
  2

  9
$UCSNAME
  2

  9
$UCSORG
 10
0.0
 20
0.0
 30
0.0
  9
$UCSXDIR
 10
1.0
 20
0.0
 30
0.0
  9
$UCSYDIR
 10
0.0
 20
1.0
 30
0.0
  9
$UCSORTHOREF
  2

  9
$UCSORTHOVIEW
 70
     0
  9
$UCSORGTOP
 10
0.0
 20
0.0
 30
0.0
  9
$UCSORGBOTTOM
 10
0.0
 20
0.0
 30
0.0
  9
$UCSORGLEFT
 10
0.0
 20
0.0
 30
0.0
  9
$UCSORGRIGHT
 10
0.0
 20
0.0
 30
0.0
  9
$UCSORGFRONT
 10
0.0
 20
0.0
 30
0.0
  9
$UCSORGBACK
 10
0.0
 20
0.0
 30
0.0
  9
$PUCSBASE
  2

  9
$PUCSNAME
  2

  9
$PUCSORG
 10
0.0
 20
0.0
 30
0.0
  9
$PUCSXDIR
 10
1.0
 20
0.0
 30
0.0
  9
$PUCSYDIR
 10
0.0
 20
1.0
 30
0.0
  9
$PUCSORTHOREF
  2

  9
$PUCSORTHOVIEW
 70
     0
  9
$PUCSORGTOP
 10
0.0
 20
0.0
 30
0.0
  9
$PUCSORGBOTTOM
 10
0.0
 20
0.0
 30
0.0
  9
$PUCSORGLEFT
 10
0.0
 20
0.0
 30
0.0
  9
$PUCSORGRIGHT
 10
0.0
 20
0.0
 30
0.0
  9
$PUCSORGFRONT
 10
0.0
 20
0.0
 30
0.0
  9
$PUCSORGBACK
 10
0.0
 20
0.0
 30
0.0
  9
$USERI1
 70
     0
  9
$USERI2
 70
     0
  9
$USERI3
 70
     0
  9
$USERI4
 70
     0
  9
$USERI5
 70
     0
  9
$USERR1
 40
0.0
  9
$USERR2
 40
0.0
  9
$USERR3
 40
0.0
  9
$USERR4
 40
0.0
  9
$USERR5
 40
0.0
  9
$WORLDVIEW
 70
     1
  9
$SHADEDGE
 70
     3
  9
$SHADEDIF
 70
    70
  9
$TILEMODE
 70
     1
  9
$MAXACTVP
 70
    64
  9
$PINSBASE
 10
0.0
 20
0.0
 30
0.0
  9
$PLIMCHECK
 70
     0
  9
$PEXTMIN
 10
1.000000000000000E+20
 20
1.000000000000000E+20
 30
1.000000000000000E+20
  9
$PEXTMAX
 10
-1.000000000000000E+20
 20
-1.000000000000000E+20
 30
-1.000000000000000E+20
  9
$PLIMMIN
 10
0.0
 20
0.0
  9
$PLIMMAX
 10
420.0
 20
297.0
  9
$UNITMODE
 70
     0
  9
$VISRETAIN
 70
     1
  9
$PLINEGEN
 70
     0
  9
$PSLTSCALE
 70
     1
  9
$TREEDEPTH
 70
  3020
  9
$CMLSTYLE
  2
Standard
  9
$CMLJUST
 70
     0
  9
$CMLSCALE
 40
20.0
  9
$PROXYGRAPHICS
 70
     1
  9
$MEASUREMENT
 70
     1
  9
$CELWEIGHT
370
    -1
  9
$ENDCAPS
280
     0
  9
$JOINSTYLE
280
     0
  9
$LWDISPLAY
290
     0
  9
$INSUNITS
 70
     4
  9
$HYPERLINKBASE
  1

  9
$STYLESHEET
  1

  9
$XEDIT
290
     1
  9
$CEPSNTYPE
380
     0
  9
$PSTYLEMODE
290
     1
  9
$FINGERPRINTGUID
  2
{B615782F-8418-4032-8136-F022C631F734}
  9
$VERSIONGUID
  2
{82CC9629-80A3-49F3-9098-D27B36E1D063}
  9
$EXTNAMES
290
     1
  9
$PSVPSCALE
 40
0.0
  9
$OLESTARTUP
290
     0
  0
ENDSEC
  0
SECTION
  2
CLASSES
  0
CLASS
  1
ACDBDICTIONARYWDFLT
  2
AcDbDictionaryWithDefault
  3
ObjectDBX Classes
 90
        0
280
     0
281
     0
  0
CLASS
  1
VISUALSTYLE
  2
AcDbVisualStyle
  3
ObjectDBX Classes
 90
     4095
280
     0
281
     0
  0
CLASS
  1
MATERIAL
  2
AcDbMaterial
  3
ObjectDBX Classes
 90
     1153
280
     0
281
     0
  0
CLASS
  1
SCALE
  2
AcDbScale
  3
ObjectDBX Classes
 90
     1153
280
     0
281
     0
  0
CLASS
  1
TABLESTYLE
  2
AcDbTableStyle
  3
ObjectDBX Classes
 90
     4095
280
     0
281
     0
  0
CLASS
  1
MLEADERSTYLE
  2
AcDbMLeaderStyle
  3
ACDB_MLEADERSTYLE_CLASS
 90
     4095
280
     0
281
     0
  0
CLASS
  1
SUN
  2
AcDbSun
  3
SCENEOE
 90
    33921
280
     0
281
     0
  0
CLASS
  1
DICTIONARYVAR
  2
AcDbDictionaryVar
  3
ObjectDBX Classes
 90
        0
280
     0
281
     0
  0
CLASS
  1
ACDBSECTIONVIEWSTYLE
  2
AcDbSectionViewStyle
  3
ObjectDBX Classes
 90
     1025
280
     0
281
     0
  0
CLASS
  1
ACDBDETAILVIEWSTYLE
  2
AcDbDetailViewStyle
  3
ObjectDBX Classes
 90
     1025
280
     0
281
     0
  0
CLASS
  1
SORTENTSTABLE
  2
AcDbSortentsTable
  3
ObjectDBX Classes
 90
        0
280
     0
281
     0
  0
CLASS
  1
CELLSTYLEMAP
  2
AcDbCellStyleMap
  3
ObjectDBX Classes
 90
     1152
280
     0
281
     0
  0
CLASS
  1
ACDBPLACEHOLDER
  2
AcDbPlaceHolder
  3
ObjectDBX Classes
 90
        0
280
     0
281
     0
  0
CLASS
  1
LAYOUT
  2
AcDbLayout
  3
ObjectDBX Classes
 90
        0
280
     0
281
     0
  0
ENDSEC
  0
SECTION
  2
TABLES
  0
TABLE
  2
VPORT
  5
8
330
0
100
AcDbSymbolTable
 70
     1
  0
VPORT
  5
29
330
8
100
AcDbSymbolTableRecord
100
AcDbViewportTableRecord
  2
*Active
 70
     0
 10
0.0
 20
0.0
 11
1.0
 21
1.0
 12
1132.758540549887
 22
447.7608622703574
 13
0.0
 23
0.0
 14
10.0
 24
10.0
 15
10.0
 25
10.0
 16
0.0
 26
0.0
 36
1.0
 17
0.0
 27
0.0
 37
0.0
 40
1374.974346907805
 41
2.204301075268817
 42
50.0
 43
0.0
 44
0.0
 50
0.0
 51
0.0
 71
     0
 72
 20000
 73
     1
 74
     3
 75
     0
 76
     0
 77
     0
 78
     0
281
     0
 65
     1
110
0.0
120
0.0
130
0.0
111
1.0
121
0.0
131
0.0
112
0.0
122
1.0
132
0.0
 79
     0
146
0.0
1001
ACAD_NAV_VCDISPLAY
1070
     3
  0
ENDTAB
  0
TABLE
  2
LTYPE
  5
5
330
0
100
AcDbSymbolTable
 70
     2
  0
LTYPE
  5
14
330
5
100
AcDbSymbolTableRecord
100
AcDbLinetypeTableRecord
  2
ByBlock
 70
     0
  3

 72
    65
 73
     0
 40
0.0
  0
LTYPE
  5
15
330
5
100
AcDbSymbolTableRecord
100
AcDbLinetypeTableRecord
  2
ByLayer
 70
     0
  3

 72
    65
 73
     0
 40
0.0
  0
LTYPE
  5
16
330
5
100
AcDbSymbolTableRecord
100
AcDbLinetypeTableRecord
  2
Continuous
 70
     0
  3
Solid line
 72
    65
 73
     0
 40
0.0
  0
LTYPE
  5
23A
330
5
100
AcDbSymbolTableRecord
100
AcDbLinetypeTableRecord
  2
CENTER2
 70
     0
  3
Center (.5x) ___ _ ___ _ ___ _ ___ _ ___ _ ___
 72
    65
 73
     4
 40
28.575
 49
19.05
 74
     0
 49
-3.174999999999998
 74
     0
 49
3.174999999999998
 74
     0
 49
-3.174999999999998
 74
     0
  0
ENDTAB
  0
TABLE
  2
LAYER
  5
2
102
{ACAD_XDICTIONARY
360
240
102
}
330
0
100
AcDbSymbolTable
 70
     4
  0
LAYER
  5
10
102
{ACAD_XDICTIONARY
360
660
102
}
330
2
100
AcDbSymbolTableRecord
100
AcDbLayerTableRecord
  2
0
 70
     0
 62
     7
  6
Continuous
370
    -3
390
F
  0
LAYER
  5
66
330
2
100
AcDbSymbolTableRecord
100
AcDbLayerTableRecord
  2
Defpoints
 70
     0
 62
     7
  6
Continuous
290
     0
370
    -3
390
F
  0
LAYER
  5
23B
102
{ACAD_XDICTIONARY
360
23C
102
}
330
2
100
AcDbSymbolTableRecord
100
AcDbLayerTableRecord
  2
中心線
 70
     0
 62
     3
  6
CENTER2
370
    -3
390
F
  0
LAYER
  5
23D
102
{ACAD_XDICTIONARY
360
23E
102
}
330
2
100
AcDbSymbolTableRecord
100
AcDbLayerTableRecord
  2
実線
 70
     0
 62
     7
  6
Continuous
370
    -3
390
F
  0
ENDTAB
  0
TABLE
  2
STYLE
  5
3
330
0
100
AcDbSymbolTable
 70
     1
  0
STYLE
  5
11
330
3
100
AcDbSymbolTableRecord
100
AcDbTextStyleTableRecord
  2
Standard
 70
     0
 40
0.0
 41
1.0
 50
0.0
 71
     0
 42
2.5
  3
txt
  4
extfont2
  0
ENDTAB
  0
TABLE
  2
VIEW
  5
6
330
0
100
AcDbSymbolTable
 70
     0
  0
ENDTAB
  0
TABLE
  2
UCS
  5
7
330
0
100
AcDbSymbolTable
 70
     0
  0
ENDTAB
  0
TABLE
  2
APPID
  5
9
330
0
100
AcDbSymbolTable
 70
     4
  0
APPID
  5
12
330
9
100
AcDbSymbolTableRecord
100
AcDbRegAppTableRecord
  2
ACAD
 70
     0
  0
APPID
  5
22A
330
9
100
AcDbSymbolTableRecord
100
AcDbRegAppTableRecord
  2
ACAD_MLEADERVER
 70
     0
  0
APPID
  5
23F
330
9
100
AcDbSymbolTableRecord
100
AcDbRegAppTableRecord
  2
ACAD_NAV_VCDISPLAY
 70
     0
  0
APPID
  5
642
330
9
100
AcDbSymbolTableRecord
100
AcDbRegAppTableRecord
  2
ACAD_EXEMPT_FROM_CAD_STANDARDS
 70
     0
  0
ENDTAB
  0
TABLE
  2
DIMSTYLE
  5
A
330
0
100
AcDbSymbolTable
 70
     1
100
AcDbDimStyleTable
 71
     1
340
27
  0
DIMSTYLE
105
27
330
A
100
AcDbSymbolTableRecord
100
AcDbDimStyleTableRecord
  2
Standard
 70
     0
 41
2.5
 42
0.625
 43
3.75
 44
1.25
 73
     0
 74
     0
 77
     1
140
2.5
141
2.5
143
0.03937007874016
146
0.75
147
0.625
171
     3
172
     1
271
     2
272
     2
274
     3
283
     0
284
     8
340
11
  0
ENDTAB
  0
TABLE
  2
BLOCK_RECORD
  5
1
330
0
100
AcDbSymbolTable
 70
     1
  0
BLOCK_RECORD
  5
1F
102
{ACAD_XDICTIONARY
360
4FA
102
}
330
1
100
AcDbSymbolTableRecord
100
AcDbBlockTableRecord
  2
*Model_Space
340
22
  0
BLOCK_RECORD
  5
1B
330
1
100
AcDbSymbolTableRecord
100
AcDbBlockTableRecord
  2
*Paper_Space
340
1E
  0
BLOCK_RECORD
  5
23
330
1
100
AcDbSymbolTableRecord
100
AcDbBlockTableRecord
  2
*Paper_Space0
340
234
  0
ENDTAB
  0
ENDSEC
  0
SECTION
  2
BLOCKS
  0
BLOCK
  5
20
330
1F
100
AcDbEntity
  8
0
100
AcDbBlockBegin
  2
*Model_Space
 70
     0
 10
0.0
 20
0.0
 30
0.0
  3
*Model_Space
  1

  0
ENDBLK
  5
21
330
1F
100
AcDbEntity
  8
0
100
AcDbBlockEnd
  0
BLOCK
  5
1C
330
1B
100
AcDbEntity
 67
     1
  8
0
100
AcDbBlockBegin
  2
*Paper_Space
 70
     0
 10
0.0
 20
0.0
 30
0.0
  3
*Paper_Space
  1

  0
ENDBLK
  5
1D
330
1B
100
AcDbEntity
 67
     1
  8
0
100
AcDbBlockEnd
  0
BLOCK
  5
24
330
23
100
AcDbEntity
 67
     1
  8
0
100
AcDbBlockBegin
  2
*Paper_Space0
 70
     0
 10
0.0
 20
0.0
 30
0.0
  3
*Paper_Space0
  1

  0
ENDBLK
  5
25
330
23
100
AcDbEntity
 67
     1
  8
0
100
AcDbBlockEnd
  0
ENDSEC
  0
SECTION
  2
ENTITIES
  0
CIRCLE
  5
4C4
102
{ACAD_REACTORS
330
65F
102
}
330
1F
100
AcDbEntity
  8
実線
100
AcDbCircle
 10
497.6252319534341
 20
114.631055191543
 30
0.0
 40
44.0
  0
CIRCLE
  5
4C5
102
{ACAD_REACTORS
330
65F
102
}
330
1F
100
AcDbEntity
  8
実線
100
AcDbCircle
 10
497.6252319534341
 20
114.631055191543
 30
0.0
 40
42.5
  0
CIRCLE
  5
4C6
102
{ACAD_REACTORS
330
65F
102
}
330
1F
100
AcDbEntity
  8
実線
100
AcDbCircle
 10
497.6252319534341
 20
114.631055191543
 30
0.0
 40
16.5
  0
CIRCLE
  5
4C7
102
{ACAD_REACTORS
330
65F
102
}
330
1F
100
AcDbEntity
  8
実線
100
AcDbCircle
 10
497.6252319534341
 20
114.631055191543
 30
0.0
 40
43.3
  0
CIRCLE
  5
4C8
102
{ACAD_REACTORS
330
65F
102
}
330
1F
100
AcDbEntity
  8
実線
100
AcDbCircle
 10
497.6252319534341
 20
114.631055191543
 30
0.0
 40
46.0
  0
LINE
  5
4C9
102
{ACAD_REACTORS
330
65F
102
}
330
1F
100
AcDbEntity
  8
実線
100
AcDbLine
 10
459.3899195741832
 20
59.93636915659738
 30
0.0
 11
463.0987637281211
 21
62.53332979122967
 31
0.0
  0
LINE
  5
4CA
102
{ACAD_REACTORS
330
65F
102
}
330
1F
100
AcDbEntity
  8
実線
100
AcDbLine
 10
549.7229573537477
 20
149.157523416856
 30
0.0
 11
552.3199179883802
 21
152.8663675707943
 31
0.0
  0
LINE
  5
4CB
102
{ACAD_REACTORS
330
65F
102
}
330
1F
100
AcDbEntity
  8
実線
100
AcDbLine
 10
463.0987637281211
 20
166.7287805918563
 30
0.0
 11
459.3899195741832
 21
169.3257412264887
 31
0.0
  0
LINE
  5
4CC
102
{ACAD_REACTORS
330
65F
102
}
330
1F
100
AcDbEntity
  8
実線
100
AcDbLine
 10
532.1517001787473
 20
62.53332979122967
 30
0.0
 11
535.8605443326854
 21
59.93636915659727
 31
0.0
  0
ARC
  5
4CD
102
{ACAD_REACTORS
330
65F
102
}
330
1F
100
AcDbEntity
  8
実線
100
AcDbCircle
 10
541.5963086961959
 20
68.12788959948716
 30
0.0
 40
10.00000000000003
100
AcDbArc
 50
235.0000000000025
 51
313.3968902048156
  0
ARC
  5
4CE
102
{ACAD_REACTORS
330
65F
102
}
330
1F
100
AcDbEntity
  8
実線
100
AcDbCircle
 10
497.6252319534345
 20
114.6310551915429
 30
0.0
 40
73.99999999999984
100
AcDbArc
 50
313.3968902048156
 51
316.603109795183
  0
LINE
  5
4CF
102
{ACAD_REACTORS
330
65F
102
}
330
1F
100
AcDbEntity
  8
実線
100
AcDbLine
 10
552.3199179883802
 20
76.39574281229193
 30
0.0
 11
549.7229573537477
 21
80.10458696622993
 31
0.0
  0
ARC
  5
4D0
102
{ACAD_REACTORS
330
65F
102
}
330
1F
100
AcDbEntity
  8
実線
100
AcDbCircle
 10
544.1283975454902
 20
158.6021319343048
 30
0.0
 40
10.00000000000002
100
AcDbArc
 50
325.0000000000028
 51
43.39689020481704
  0
ARC
  5
4D1
102
{ACAD_REACTORS
330
65F
102
}
330
1F
100
AcDbEntity
  8
実線
100
AcDbCircle
 10
497.6252319534345
 20
114.6310551915429
 30
0.0
 40
74.00000000000003
100
AcDbArc
 50
43.39689020481704
 51
46.60310979518436
  0
ARC
  5
4D2
102
{ACAD_REACTORS
330
65F
102
}
330
1F
100
AcDbEntity
  8
実線
100
AcDbCircle
 10
541.5963086961961
 20
161.1342207835989
 30
0.0
 40
10.00000000000001
100
AcDbArc
 50
46.60310979518436
 51
124.9999999999974
  0
LINE
  5
4D3
102
{ACAD_REACTORS
330
65F
102
}
330
1F
100
AcDbEntity
  8
実線
100
AcDbLine
 10
535.8605443326854
 20
169.3257412264887
 30
0.0
 11
532.1517001787474
 21
166.7287805918563
 31
0.0
  0
ARC
  5
4D4
102
{ACAD_REACTORS
330
65F
102
}
330
1F
100
AcDbEntity
  8
実線
100
AcDbCircle
 10
453.6541552106727
 20
161.1342207835989
 30
0.0
 40
10.0
100
AcDbArc
 50
55.00000000000256
 51
133.3968902048156
  0
ARC
  5
4D5
102
{ACAD_REACTORS
330
65F
102
}
330
1F
100
AcDbEntity
  8
実線
100
AcDbCircle
 10
497.6252319534345
 20
114.6310551915429
 30
0.0
 40
74.00000000000019
100
AcDbArc
 50
133.3968902048156
 51
136.6031097951829
  0
ARC
  5
4D6
102
{ACAD_REACTORS
330
65F
102
}
330
1F
100
AcDbEntity
  8
実線
100
AcDbCircle
 10
451.1220663613785
 20
158.6021319343048
 30
0.0
 40
10.00000000000001
100
AcDbArc
 50
136.6031097951829
 51
214.9999999999971
  0
LINE
  5
4D7
102
{ACAD_REACTORS
330
65F
102
}
330
1F
100
AcDbEntity
  8
実線
100
AcDbLine
 10
442.9305459184885
 20
152.8663675707943
 30
0.0
 11
445.527506553121
 21
149.1575234168561
 31
0.0
  0
LINE
  5
4D8
102
{ACAD_REACTORS
330
65F
102
}
330
1F
100
AcDbEntity
  8
実線
100
AcDbLine
 10
445.527506553121
 20
80.10458696622993
 30
0.0
 11
442.9305459184885
 21
76.39574281229193
 31
0.0
  0
ARC
  5
4D9
102
{ACAD_REACTORS
330
65F
102
}
330
1F
100
AcDbEntity
  8
実線
100
AcDbCircle
 10
451.1220663613785
 20
70.65997844878143
 30
0.0
 40
10.00000000000001
100
AcDbArc
 50
145.0000000000028
 51
223.396890204817
  0
ARC
  5
4DA
102
{ACAD_REACTORS
330
65F
102
}
330
1F
100
AcDbEntity
  8
実線
100
AcDbCircle
 10
497.6252319534345
 20
114.6310551915429
 30
0.0
 40
73.99999999999997
100
AcDbArc
 50
223.396890204817
 51
226.6031097951843
  0
ARC
  5
4DB
102
{ACAD_REACTORS
330
65F
102
}
330
1F
100
AcDbEntity
  8
実線
100
AcDbCircle
 10
453.6541552106727
 20
68.12788959948716
 30
0.0
 40
10.00000000000001
100
AcDbArc
 50
226.6031097951843
 51
304.9999999999974
  0
ARC
  5
4DC
102
{ACAD_REACTORS
330
65F
102
}
330
1F
100
AcDbEntity
  8
実線
100
AcDbCircle
 10
544.1283975454902
 20
70.65997844878143
 30
0.0
 40
9.999999999999976
100
AcDbArc
 50
316.603109795183
 51
34.99999999999718
  0
ELLIPSE
  5
4DD
102
{ACAD_REACTORS
330
65F
102
}
330
1F
100
AcDbEntity
  8
実線
100
AcDbEllipse
 10
376.2436952270192
 20
114.6310551915433
 30
0.0
 11
0.0
 21
25.40000000000002
 31
0.0
210
0.0
220
0.0
230
1.0
 40
0.7071067811865474
 41
3.197337795051211
 42
4.71238898038469
  0
ELLIPSE
  5
4DE
102
{ACAD_REACTORS
330
65F
102
}
330
1F
100
AcDbEntity
  8
実線
100
AcDbEllipse
 10
376.2436952270192
 20
114.6310551915433
 30
0.0
 11
0.0
 21
25.40000000000002
 31
0.0
210
0.0
220
0.0
230
1.0
 40
0.7071067811865474
 41
4.71238898038469
 42
6.227440165718164
  0
ELLIPSE
  5
4DF
102
{ACAD_REACTORS
330
65F
102
}
330
1F
100
AcDbEntity
  8
実線
100
AcDbEllipse
 10
363.4450624875428
 20
114.6310551915433
 30
0.0
 11
0.0000000000000036
 21
32.0
 31
0.0
210
0.0
220
0.0
230
1.0
 40
0.7071067811865475
 41
3.141592653589792
 42
4.71238898038469
  0
LINE
  5
4E0
102
{ACAD_REACTORS
330
65F
102
}
330
1F
100
AcDbEntity
  8
実線
100
AcDbLine
 10
361.3944528221019
 20
82.63105519154327
 30
0.0
 11
363.4450624875428
 21
82.63105519154327
 31
0.0
  0
LINE
  5
4E1
102
{ACAD_REACTORS
330
65F
102
}
330
1F
100
AcDbEntity
  8
実線
100
AcDbLine
 10
363.4450624875428
 20
146.6310551915433
 30
0.0
 11
361.3944528221019
 21
146.6310551915433
 31
0.0
  0
ELLIPSE
  5
4E2
102
{ACAD_REACTORS
330
65F
102
}
330
1F
100
AcDbEntity
  8
実線
100
AcDbEllipse
 10
361.3944528221019
 20
114.6310551915433
 30
0.0
 11
0.0000000000000036
 21
32.0
 31
0.0
210
0.0
220
0.0
230
1.0
 40
0.7071067811865475
 41
0.0
 42
3.141592653589792
  0
ELLIPSE
  5
4E3
102
{ACAD_REACTORS
330
65F
102
}
330
1F
100
AcDbEntity
  8
実線
100
AcDbEllipse
 10
361.3944528221019
 20
114.6310551915433
 30
0.0
 11
0.0000000000000036
 21
32.0
 31
0.0
210
0.0
220
0.0
230
1.0
 40
0.7071067811865475
 41
4.71238898038469
 42
6.283185307179584
  0
ELLIPSE
  5
4E4
102
{ACAD_REACTORS
330
65F
102
}
330
1F
100
AcDbEntity
  8
実線
100
AcDbEllipse
 10
363.4450624875428
 20
114.6310551915433
 30
0.0
 11
0.0000000000000036
 21
32.0
 31
0.0
210
0.0
220
0.0
230
1.0
 40
0.7071067811865475
 41
4.71238898038469
 42
6.283185307179584
  0
ELLIPSE
  5
4E5
102
{ACAD_REACTORS
330
65F
102
}
330
1F
100
AcDbEntity
  8
実線
100
AcDbEllipse
 10
361.3944528221019
 20
114.6310551915433
 30
0.0
 11
0.0000000000000036
 21
32.0
 31
0.0
210
0.0
220
0.0
230
1.0
 40
0.7071067811865475
 41
3.141592653589792
 42
4.71238898038469
  0
LINE
  5
4E6
102
{ACAD_REACTORS
330
65F
102
}
330
1F
100
AcDbEntity
  8
実線
100
AcDbLine
 10
440.5192777980224
 20
140.0310551915432
 30
0.0
 11
430.1252319534341
 21
140.0310551915432
 31
0.0
  0
LINE
  5
4E7
102
{ACAD_REACTORS
330
65F
102
}
330
1F
100
AcDbEntity
  8
実線
100
AcDbLine
 10
430.1252319534341
 20
89.23105519154331
 30
0.0
 11
440.5192777980222
 21
89.23105519154331
 31
0.0
  0
LINE
  5
4E8
102
{ACAD_REACTORS
330
65F
102
}
330
1F
100
AcDbEntity
  8
実線
100
AcDbLine
 10
430.1252319534341
 20
140.0310551915432
 30
0.0
 11
430.1252319534341
 21
89.23105519154331
 31
0.0
  0
LINE
  5
4E9
102
{ACAD_REACTORS
330
65F
102
}
330
1F
100
AcDbEntity
  8
実線
100
AcDbLine
 10
377.2080563478918
 20
89.23105519154331
 30
0.0
 11
430.1252319534341
 21
89.23105519154331
 31
0.0
  0
LINE
  5
4EA
102
{ACAD_REACTORS
330
65F
102
}
330
1F
100
AcDbEntity
  8
実線
100
AcDbLine
 10
430.1252319534341
 20
140.0310551915432
 30
0.0
 11
377.2080563478918
 21
140.0310551915432
 31
0.0
  0
ELLIPSE
  5
4EB
102
{ACAD_REACTORS
330
65F
102
}
330
1F
100
AcDbEntity
  8
実線
100
AcDbEllipse
 10
376.2436952270192
 20
114.6310551915433
 30
0.0
 11
0.0
 21
25.39999999999999
 31
0.0
210
0.0
220
0.0
230
1.0
 40
0.7071067811865475
 41
3.197337795051221
 42
6.227440165718156
  0
CIRCLE
  5
4EC
102
{ACAD_REACTORS
330
65F
102
}
330
1F
100
AcDbEntity
  8
実線
100
AcDbCircle
 10
497.6252319534341
 20
114.631055191543
 30
0.0
 40
62.5
  0
ARC
  5
4EF
102
{ACAD_REACTORS
330
65F
102
}
330
1F
100
AcDbEntity
  8
実線
100
AcDbCircle
 10
448.1277572703732
 20
65.13358050848745
 30
0.0
 40
9.5
100
AcDbArc
 50
137.1218257848531
 51
312.8781742150951
  0
ARC
  5
4F2
102
{ACAD_REACTORS
330
65F
102
}
330
1F
100
AcDbEntity
  8
実線
100
AcDbCircle
 10
448.1277572703784
 20
164.1285298746042
 30
0.0
 40
9.5
100
AcDbArc
 50
47.12182578483498
 51
222.8781742150874
  0
ARC
  5
4F5
102
{ACAD_REACTORS
330
65F
102
}
330
1F
100
AcDbEntity
  8
実線
100
AcDbCircle
 10
547.122706636495
 20
164.128529874599
 30
0.0
 40
9.5
100
AcDbArc
 50
317.1218257848531
 51
132.8781742150312
  0
ARC
  5
4F8
102
{ACAD_REACTORS
330
65F
102
}
330
1F
100
AcDbEntity
  8
実線
100
AcDbCircle
 10
547.12270663649
 20
65.13358050848239
 30
0.0
 40
9.5
100
AcDbArc
 50
227.1218257848709
 51
42.87817421509198
  0
ARC
  5
4F9
102
{ACAD_REACTORS
330
65F
102
}
330
1F
100
AcDbEntity
  8
実線
100
AcDbCircle
 10
497.6252319534341
 20
114.6310551915433
 30
0.0
 40
87.5
100
AcDbArc
 50
196.875062091146
 51
163.1249379088539
  0
ELLIPSE
  5
4FC
102
{ACAD_REACTORS
330
65E
102
}
330
1F
100
AcDbEntity
  8
実線
100
AcDbEllipse
 10
363.4450624875428
 20
954.6310551915425
 30
0.0
 11
0.0000000000000036
 21
32.0
 31
0.0
210
0.0
220
0.0
230
1.0
 40
0.7071067811865475
 41
5.627314261884921
 42
6.283185307179584
  0
LINE
  5
4FD
102
{ACAD_REACTORS
330
65E
102
}
330
1F
100
AcDbEntity
  8
実線
100
AcDbLine
 10
361.3944528221019
 20
922.6310551915426
 30
0.0
 11
363.4450624875428
 21
922.6310551915426
 31
0.0
  0
LINE
  5
4FE
102
{ACAD_REACTORS
330
65E
102
}
330
1F
100
AcDbEntity
  8
実線
100
AcDbLine
 10
363.4450624875428
 20
986.6310551915425
 30
0.0
 11
361.3944528221019
 21
986.6310551915425
 31
0.0
  0
ELLIPSE
  5
4FF
102
{ACAD_REACTORS
330
65E
102
}
330
1F
100
AcDbEntity
  8
実線
100
AcDbEllipse
 10
361.3944528221019
 20
954.6310551915425
 30
0.0
 11
0.0000000000000036
 21
32.0
 31
0.0
210
0.0
220
0.0
230
1.0
 40
0.7071067811865475
 41
0.0
 42
3.141592653589792
  0
ELLIPSE
  5
500
102
{ACAD_REACTORS
330
65E
102
}
330
1F
100
AcDbEntity
  8
実線
100
AcDbEllipse
 10
363.4450624875428
 20
954.6310551915425
 30
0.0
 11
0.0000000000000036
 21
32.0
 31
0.0
210
0.0
220
0.0
230
1.0
 40
0.7071067811865475
 41
0.0
 42
3.141592653589792
  0
ELLIPSE
  5
501
102
{ACAD_REACTORS
330
65E
102
}
330
1F
100
AcDbEntity
  8
実線
100
AcDbEllipse
 10
363.4450624875428
 20
954.6310551915425
 30
0.0
 11
0.0000000000000036
 21
32.0
 31
0.0
210
0.0
220
0.0
230
1.0
 40
0.7071067811865475
 41
3.141592653589792
 42
3.797463698884456
  0
LINE
  5
502
102
{ACAD_REACTORS
330
65E
102
}
330
1F
100
AcDbEntity
  8
実線
100
AcDbLine
 10
365.1421187623903
 20
929.2310551915425
 30
0.0
 11
376.2436952270192
 21
929.2310551915425
 31
0.0
  0
LINE
  5
503
102
{ACAD_REACTORS
330
65E
102
}
330
1F
100
AcDbEntity
  8
実線
100
AcDbLine
 10
376.2436952270192
 20
980.0310551915424
 30
0.0
 11
365.1421187623903
 21
980.0310551915424
 31
0.0
  0
ELLIPSE
  5
504
102
{ACAD_REACTORS
330
65E
102
}
330
1F
100
AcDbEntity
  8
実線
100
AcDbEllipse
 10
365.1421187623903
 20
954.6310551915425
 30
0.0
 11
0.0
 21
25.40000000000001
 31
0.0
210
0.0
220
0.0
230
1.0
 40
0.7071067811865475
 41
0.0
 42
3.141592653589792
  0
ELLIPSE
  5
505
102
{ACAD_REACTORS
330
65E
102
}
330
1F
100
AcDbEntity
  8
実線
100
AcDbEllipse
 10
376.2436952270192
 20
954.6310551915425
 30
0.0
 11
0.0
 21
25.40000000000002
 31
0.0
210
0.0
220
0.0
230
1.0
 40
0.7071067811865474
 41
0.0
 42
3.141592653589792
  0
ELLIPSE
  5
506
102
{ACAD_REACTORS
330
65E
102
}
330
1F
100
AcDbEntity
  8
実線
100
AcDbEllipse
 10
376.2436952270192
 20
954.6310551915425
 30
0.0
 11
0.0
 21
25.39999999999999
 31
0.0
210
0.0
220
0.0
230
1.0
 40
0.7071067811865475
 41
0.0
 42
3.141592653589792
  0
LINE
  5
507
102
{ACAD_REACTORS
330
65E
102
}
330
1F
100
AcDbEntity
  8
実線
100
AcDbLine
 10
413.8929801026688
 20
980.0310551915424
 30
0.0
 11
376.2436952270192
 21
980.0310551915424
 31
0.0
  0
LINE
  5
508
102
{ACAD_REACTORS
330
65E
102
}
330
1F
100
AcDbEntity
  8
実線
100
AcDbLine
 10
376.2436952270192
 20
929.2310551915425
 30
0.0
 11
413.8929801026688
 21
929.2310551915425
 31
0.0
  0
ARC
  5
509
102
{ACAD_REACTORS
330
65E
102
}
330
1F
100
AcDbEntity
  8
実線
100
AcDbCircle
 10
541.5963086961959
 20
1001.134220783598
 30
0.0
 40
10.00000000000003
100
AcDbArc
 50
46.60310979518435
 51
95.38109903226125
  0
ARC
  5
50A
102
{ACAD_REACTORS
330
65E
102
}
330
1F
100
AcDbEntity
  8
実線
100
AcDbCircle
 10
497.6252319534341
 20
954.6310551915425
 30
0.0
 40
73.99999999999984
100
AcDbArc
 50
43.39689020481702
 51
46.60310979518435
  0
ARC
  5
50B
102
{ACAD_REACTORS
330
65E
102
}
330
1F
100
AcDbEntity
  8
実線
100
AcDbCircle
 10
544.1283975454902
 20
998.6021319343047
 30
0.0
 40
9.999999999999976
100
AcDbArc
 50
354.6189009678566
 51
43.39689020481702
  0
ARC
  5
50C
102
{ACAD_REACTORS
330
65E
102
}
330
1F
100
AcDbEntity
  8
実線
100
AcDbCircle
 10
497.6252319534341
 20
954.6310551915425
 30
0.0
 40
73.99999999999997
100
AcDbArc
 50
133.3968902048156
 51
136.6031097951829
  0
ARC
  5
50D
102
{ACAD_REACTORS
330
65E
102
}
330
1F
100
AcDbEntity
  8
実線
100
AcDbCircle
 10
453.6541552106727
 20
1001.134220783598
 30
0.0
 40
10.00000000000001
100
AcDbArc
 50
84.61890096783694
 51
133.3968902048156
  0
ARC
  5
50E
102
{ACAD_REACTORS
330
65E
102
}
330
1F
100
AcDbEntity
  8
実線
100
AcDbCircle
 10
451.1220663613784
 20
998.6021319343047
 30
0.0
 40
10.00000000000001
100
AcDbArc
 50
136.6031097951829
 51
185.3810990322154
  0
ARC
  5
50F
102
{ACAD_REACTORS
330
65E
102
}
330
1F
100
AcDbEntity
  8
実線
100
AcDbCircle
 10
541.5963086961959
 20
908.1278895994865
 30
0.0
 40
10.00000000000001
100
AcDbArc
 50
264.6189009678892
 51
313.3968902048156
  0
ARC
  5
510
102
{ACAD_REACTORS
330
65E
102
}
330
1F
100
AcDbEntity
  8
実線
100
AcDbCircle
 10
497.6252319534345
 20
954.6310551915425
 30
0.0
 40
74.00000000000003
100
AcDbArc
 50
313.3968902048156
 51
316.603109795183
  0
ARC
  5
511
102
{ACAD_REACTORS
330
65E
102
}
330
1F
100
AcDbEntity
  8
実線
100
AcDbCircle
 10
544.1283975454902
 20
910.6599784487805
 30
0.0
 40
10.00000000000002
100
AcDbArc
 50
316.603109795183
 51
5.381099032254658
  0
ARC
  5
512
102
{ACAD_REACTORS
330
65E
102
}
330
1F
100
AcDbEntity
  8
実線
100
AcDbCircle
 10
451.1220663613784
 20
910.6599784487805
 30
0.0
 40
10.00000000000001
100
AcDbArc
 50
174.61890096785
 51
223.396890204817
  0
ARC
  5
513
102
{ACAD_REACTORS
330
65E
102
}
330
1F
100
AcDbEntity
  8
実線
100
AcDbCircle
 10
497.6252319534341
 20
954.6310551915425
 30
0.0
 40
74.00000000000019
100
AcDbArc
 50
223.396890204817
 51
226.6031097951843
  0
ARC
  5
514
102
{ACAD_REACTORS
330
65E
102
}
330
1F
100
AcDbEntity
  8
実線
100
AcDbCircle
 10
453.6541552106727
 20
908.1278895994865
 30
0.0
 40
10.0
100
AcDbArc
 50
226.6031097951843
 51
275.3810990322546
  0
CIRCLE
  5
517
102
{ACAD_REACTORS
330
65E
102
}
330
1F
100
AcDbEntity
  8
実線
100
AcDbCircle
 10
448.1277572703732
 20
1004.128529874598
 30
0.0
 40
9.5
  0
CIRCLE
  5
51A
102
{ACAD_REACTORS
330
65E
102
}
330
1F
100
AcDbEntity
  8
実線
100
AcDbCircle
 10
448.1277572703784
 20
905.1335805084816
 30
0.0
 40
9.5
  0
CIRCLE
  5
51D
102
{ACAD_REACTORS
330
65E
102
}
330
1F
100
AcDbEntity
  8
実線
100
AcDbCircle
 10
547.122706636495
 20
905.1335805084866
 30
0.0
 40
9.5
  0
CIRCLE
  5
520
102
{ACAD_REACTORS
330
65E
102
}
330
1F
100
AcDbEntity
  8
実線
100
AcDbCircle
 10
547.12270663649
 20
1004.128529874603
 30
0.0
 40
9.5
  0
CIRCLE
  5
521
102
{ACAD_REACTORS
330
65E
102
}
330
1F
100
AcDbEntity
  8
実線
100
AcDbCircle
 10
497.6252319534341
 20
954.6310551915425
 30
0.0
 40
87.5
  0
LINE
  5
522
102
{ACAD_REACTORS
330
65A
102
}
330
1F
100
AcDbEntity
  8
実線
100
AcDbLine
 10
1173.625231953434
 20
418.2310551915429
 30
0.0
 11
1261.625231953434
 21
418.2310551915429
 31
0.0
  0
LINE
  5
523
102
{ACAD_REACTORS
330
65A
102
}
330
1F
100
AcDbEntity
  8
実線
100
AcDbLine
 10
1260.925231953434
 20
414.5310551915429
 30
0.0
 11
1261.625231953434
 21
418.2310551915429
 31
0.0
  0
LINE
  5
524
102
{ACAD_REACTORS
330
65A
102
}
330
1F
100
AcDbEntity
  8
実線
100
AcDbLine
 10
1173.625231953434
 20
418.2310551915429
 30
0.0
 11
1174.325231953434
 21
414.5310551915429
 31
0.0
  0
LINE
  5
525
102
{ACAD_REACTORS
330
65A
102
}
330
1F
100
AcDbEntity
  8
実線
100
AcDbLine
 10
1175.125231953434
 20
301.531055191543
 30
0.0
 11
1260.125231953434
 21
301.531055191543
 31
0.0
  0
LINE
  5
526
102
{ACAD_REACTORS
330
65A
102
}
330
1F
100
AcDbEntity
  8
実線
100
AcDbLine
 10
1234.125231953434
 20
292.3310551915429
 30
0.0
 11
1260.125231953434
 21
301.531055191543
 31
0.0
  0
LINE
  5
527
102
{ACAD_REACTORS
330
65A
102
}
330
1F
100
AcDbEntity
  8
実線
100
AcDbLine
 10
1175.125231953434
 20
301.531055191543
 30
0.0
 11
1201.125231953434
 21
292.3310551915429
 31
0.0
  0
LINE
  5
528
102
{ACAD_REACTORS
330
65A
102
}
330
1F
100
AcDbEntity
  8
実線
100
AcDbLine
 10
1201.125231953434
 20
292.3310551915429
 30
0.0
 11
1234.125231953434
 21
292.3310551915429
 31
0.0
  0
LINE
  5
529
102
{ACAD_REACTORS
330
65A
102
}
330
1F
100
AcDbEntity
  8
実線
100
AcDbLine
 10
1175.125231953434
 20
378.5310551915429
 30
0.0
 11
1175.125231953434
 21
301.531055191543
 31
0.0
  0
LINE
  5
52A
102
{ACAD_REACTORS
330
65A
102
}
330
1F
100
AcDbEntity
  8
実線
100
AcDbLine
 10
1260.125231953434
 20
301.531055191543
 30
0.0
 11
1260.125231953434
 21
378.5310551915429
 31
0.0
  0
LINE
  5
52B
102
{ACAD_REACTORS
330
65A
102
}
330
1F
100
AcDbEntity
  8
実線
100
AcDbLine
 10
1174.325231953434
 20
414.5310551915429
 30
0.0
 11
1260.925231953434
 21
414.5310551915429
 31
0.0
  0
LINE
  5
52C
102
{ACAD_REACTORS
330
65A
102
}
330
1F
100
AcDbEntity
  8
実線
100
AcDbLine
 10
1174.325231953434
 20
414.5310551915429
 30
0.0
 11
1174.325231953434
 21
378.5310551915429
 31
0.0
  0
LINE
  5
52D
102
{ACAD_REACTORS
330
65A
102
}
330
1F
100
AcDbEntity
  8
実線
100
AcDbLine
 10
1260.925231953434
 20
378.5310551915429
 30
0.0
 11
1260.925231953434
 21
414.5310551915429
 31
0.0
  0
LINE
  5
52E
102
{ACAD_REACTORS
330
65A
102
}
330
1F
100
AcDbEntity
  8
実線
100
AcDbLine
 10
1174.325231953434
 20
378.5310551915429
 30
0.0
 11
1260.925231953434
 21
378.5310551915429
 31
0.0
  0
LINE
  5
52F
102
{ACAD_REACTORS
330
65A
102
}
330
1F
100
AcDbEntity
  8
実線
100
AcDbLine
 10
1202.125231953434
 20
425.2310551915431
 30
0.0
 11
1202.125231953434
 21
418.2310551915429
 31
0.0
  0
LINE
  5
530
102
{ACAD_REACTORS
330
65A
102
}
330
1F
100
AcDbEntity
  8
実線
100
AcDbLine
 10
1233.125231953434
 20
418.2310551915429
 30
0.0
 11
1233.125231953434
 21
425.2310551915431
 31
0.0
  0
LINE
  5
531
102
{ACAD_REACTORS
330
65A
102
}
330
1F
100
AcDbEntity
  8
実線
100
AcDbLine
 10
1171.625231953434
 20
436.7310551915429
 30
0.0
 11
1171.625231953434
 21
425.2310551915431
 31
0.0
  0
LINE
  5
532
102
{ACAD_REACTORS
330
65A
102
}
330
1F
100
AcDbEntity
  8
実線
100
AcDbLine
 10
1263.625231953434
 20
425.2310551915431
 30
0.0
 11
1263.625231953434
 21
436.7310551915429
 31
0.0
  0
LINE
  5
533
102
{ACAD_REACTORS
330
65A
102
}
330
1F
100
AcDbEntity
  8
実線
100
AcDbLine
 10
1171.625231953434
 20
425.2310551915431
 30
0.0
 11
1263.625231953434
 21
425.2310551915431
 31
0.0
  0
LINE
  5
534
102
{ACAD_REACTORS
330
65A
102
}
330
1F
100
AcDbEntity
  8
実線
100
AcDbLine
 10
1209.625231953434
 20
619.131055191543
 30
0.0
 11
1209.625231953434
 21
586.6310551915431
 31
0.0
  0
LINE
  5
535
102
{ACAD_REACTORS
330
65A
102
}
330
1F
100
AcDbEntity
  8
実線
100
AcDbLine
 10
1225.625231953434
 20
586.6310551915431
 30
0.0
 11
1225.625231953434
 21
619.131055191543
 31
0.0
  0
LINE
  5
536
102
{ACAD_REACTORS
330
65A
102
}
330
1F
100
AcDbEntity
  8
実線
100
AcDbLine
 10
1155.125231953434
 20
533.2310551915431
 30
0.0
 11
1280.125231953434
 21
533.2310551915431
 31
0.0
  0
LINE
  5
537
102
{ACAD_REACTORS
330
65A
102
}
330
1F
100
AcDbEntity
  8
実線
100
AcDbLine
 10
1155.125231953434
 20
533.2310551915431
 30
0.0
 11
1155.125231953434
 21
441.2310551915431
 31
0.0
  0
LINE
  5
538
102
{ACAD_REACTORS
330
65A
102
}
330
1F
100
AcDbEntity
  8
実線
100
AcDbLine
 10
1280.125231953434
 20
441.2310551915431
 30
0.0
 11
1280.125231953434
 21
533.2310551915431
 31
0.0
  0
LINE
  5
539
102
{ACAD_REACTORS
330
65A
102
}
330
1F
100
AcDbEntity
  8
実線
100
AcDbLine
 10
1155.125231953434
 20
441.2310551915431
 30
0.0
 11
1280.125231953434
 21
441.2310551915431
 31
0.0
  0
LINE
  5
53A
102
{ACAD_REACTORS
330
65A
102
}
330
1F
100
AcDbEntity
  8
実線
100
AcDbLine
 10
1274.12839754549
 20
619.131055191543
 30
0.0
 11
1161.122066361378
 21
619.131055191543
 31
0.0
  0
LINE
  5
53B
102
{ACAD_REACTORS
330
65A
102
}
330
1F
100
AcDbEntity
  8
実線
100
AcDbLine
 10
1161.122066361378
 20
632.6310551915429
 30
0.0
 11
1161.122066361378
 21
619.131055191543
 31
0.0
  0
LINE
  5
53C
102
{ACAD_REACTORS
330
65A
102
}
330
1F
100
AcDbEntity
  8
実線
100
AcDbLine
 10
1274.12839754549
 20
619.131055191543
 30
0.0
 11
1274.12839754549
 21
632.6310551915429
 31
0.0
  0
LINE
  5
53D
102
{ACAD_REACTORS
330
65A
102
}
330
1F
100
AcDbEntity
  8
実線
100
AcDbLine
 10
1240.003475240577
 20
619.131055191543
 30
0.0
 11
1240.003475240577
 21
632.6310551915429
 31
0.0
  0
LINE
  5
53E
102
{ACAD_REACTORS
330
65A
102
}
330
1F
100
AcDbEntity
  8
実線
100
AcDbLine
 10
1195.246988666291
 20
619.131055191543
 30
0.0
 11
1195.246988666291
 21
632.6310551915429
 31
0.0
  0
LINE
  5
53F
102
{ACAD_REACTORS
330
65A
102
}
330
1F
100
AcDbEntity
  8
実線
100
AcDbLine
 10
1321.046256437711
 20
626.8520796758195
 30
0.0
 11
1356.967280921988
 21
662.773104160096
 31
0.0
  0
LINE
  5
540
102
{ACAD_REACTORS
330
65A
102
}
330
1F
100
AcDbEntity
  8
実線
100
AcDbLine
 10
1368.068857386617
 20
651.6715276954673
 30
0.0
 11
1356.967280921988
 21
662.773104160096
 31
0.0
  0
LINE
  5
541
102
{ACAD_REACTORS
330
65A
102
}
330
1F
100
AcDbEntity
  8
実線
100
AcDbLine
 10
1321.046256437711
 20
626.8520796758195
 30
0.0
 11
1332.14783290234
 21
615.7505032111908
 31
0.0
  0
LINE
  5
542
102
{ACAD_REACTORS
330
65A
102
}
330
1F
100
AcDbEntity
  8
実線
100
AcDbLine
 10
1331.228594086797
 20
607.3359325150708
 30
0.0
 11
1376.483428082736
 21
652.5907665110098
 31
0.0
  0
LINE
  5
543
102
{ACAD_REACTORS
330
65A
102
}
330
1F
100
AcDbEntity
  8
実線
100
AcDbLine
 10
1376.483428082736
 20
652.5907665110098
 30
0.0
 11
1374.432818417296
 21
654.6413761764507
 31
0.0
  0
LINE
  5
544
102
{ACAD_REACTORS
330
65A
102
}
330
1F
100
AcDbEntity
  8
実線
100
AcDbLine
 10
1329.177984421356
 20
609.3865421805119
 30
0.0
 11
1331.228594086797
 21
607.3359325150708
 31
0.0
  0
LINE
  5
545
102
{ACAD_REACTORS
330
65A
102
}
330
1F
100
AcDbEntity
  8
実線
100
AcDbLine
 10
1329.177984421356
 20
609.3865421805119
 30
0.0
 11
1374.432818417295
 21
654.6413761764507
 31
0.0
  0
LINE
  5
546
102
{ACAD_REACTORS
330
65A
102
}
330
1F
100
AcDbEntity
  8
実線
100
AcDbLine
 10
1332.14783290234
 20
615.7505032111908
 30
0.0
 11
1368.068857386617
 21
651.6715276954673
 31
0.0
  0
LINE
  5
547
102
{ACAD_REACTORS
330
65A
102
}
330
1F
100
AcDbEntity
  8
実線
100
AcDbLine
 10
1332.14783290234
 20
615.7505032111908
 30
0.0
 11
1329.177984421356
 21
609.3865421805119
 31
0.0
  0
LINE
  5
548
102
{ACAD_REACTORS
330
65A
102
}
330
1F
100
AcDbEntity
  8
実線
100
AcDbLine
 10
1374.432818417295
 20
654.6413761764507
 30
0.0
 11
1368.068857386617
 21
651.6715276954673
 31
0.0
  0
LINE
  5
549
102
{ACAD_REACTORS
330
65A
102
}
330
1F
100
AcDbEntity
  8
実線
100
AcDbLine
 10
1285.125231953434
 20
692.5310551915429
 30
0.0
 11
1285.125231953434
 21
641.7310551915429
 31
0.0
  0
LINE
  5
54A
102
{ACAD_REACTORS
330
65A
102
}
330
1F
100
AcDbEntity
  8
実線
100
AcDbLine
 10
1274.12839754549
 20
641.7310551915431
 30
0.0
 11
1285.125231953434
 21
641.7310551915431
 31
0.0
  0
LINE
  5
54B
102
{ACAD_REACTORS
330
65A
102
}
330
1F
100
AcDbEntity
  8
実線
100
AcDbLine
 10
1285.125231953434
 20
692.5310551915429
 30
0.0
 11
1260.697268803084
 21
692.5310551915429
 31
0.0
  0
ARC
  5
54C
102
{ACAD_REACTORS
330
65A
102
}
330
1F
100
AcDbEntity
  8
実線
100
AcDbCircle
 10
1285.125231953434
 20
590.9310551915431
 30
0.0
 40
101.6
100
AcDbArc
 50
45.00000000000006
 51
90.0
  0
ARC
  5
54D
102
{ACAD_REACTORS
330
65A
102
}
330
1F
100
AcDbEntity
  8
実線
100
AcDbCircle
 10
1285.125231953434
 20
590.9310551915431
 30
0.0
 40
50.80000000000001
100
AcDbArc
 50
45.00000000000006
 51
90.0
  0
ARC
  5
54E
102
{ACAD_REACTORS
330
65A
102
}
330
1F
100
AcDbEntity
  8
実線
100
AcDbCircle
 10
1249.625231953434
 20
679.631055191543
 30
0.0
 40
17.0
100
AcDbArc
 50
49.36059232723411
 51
90.0
  0
ARC
  5
54F
102
{ACAD_REACTORS
330
65A
102
}
330
1F
100
AcDbEntity
  8
実線
100
AcDbCircle
 10
1185.625231953434
 20
679.631055191543
 30
0.0
 40
17.0
100
AcDbArc
 50
90.0
 51
180.0
  0
LINE
  5
550
102
{ACAD_REACTORS
330
65A
102
}
330
1F
100
AcDbEntity
  8
実線
100
AcDbLine
 10
1161.122066361378
 20
632.6310551915429
 30
0.0
 11
1274.12839754549
 21
632.6310551915429
 31
0.0
  0
LINE
  5
551
102
{ACAD_REACTORS
330
65A
102
}
330
1F
100
AcDbEntity
  8
実線
100
AcDbLine
 10
1168.625231953434
 20
679.631055191543
 30
0.0
 11
1168.625231953434
 21
647.631055191543
 31
0.0
  0
LINE
  5
552
102
{ACAD_REACTORS
330
65A
102
}
330
1F
100
AcDbEntity
  8
実線
100
AcDbLine
 10
1274.12839754549
 20
632.6310551915429
 30
0.0
 11
1274.12839754549
 21
647.631055191543
 31
0.0
  0
LINE
  5
553
102
{ACAD_REACTORS
330
65A
102
}
330
1F
100
AcDbEntity
  8
実線
100
AcDbLine
 10
1274.12839754549
 20
647.631055191543
 30
0.0
 11
1240.003475240577
 21
647.631055191543
 31
0.0
  0
LINE
  5
554
102
{ACAD_REACTORS
330
65A
102
}
330
1F
100
AcDbEntity
  8
実線
100
AcDbLine
 10
1161.122066361378
 20
647.631055191543
 30
0.0
 11
1195.246988666291
 21
647.631055191543
 31
0.0
  0
LINE
  5
555
102
{ACAD_REACTORS
330
65A
102
}
330
1F
100
AcDbEntity
  8
実線
100
AcDbLine
 10
1161.122066361378
 20
647.631055191543
 30
0.0
 11
1161.122066361378
 21
632.6310551915429
 31
0.0
  0
LINE
  5
556
102
{ACAD_REACTORS
330
65A
102
}
330
1F
100
AcDbEntity
  8
実線
100
AcDbLine
 10
1240.003475240577
 20
632.6310551915429
 30
0.0
 11
1240.003475240577
 21
647.631055191543
 31
0.0
  0
LINE
  5
557
102
{ACAD_REACTORS
330
65A
102
}
330
1F
100
AcDbEntity
  8
実線
100
AcDbLine
 10
1195.246988666291
 20
632.6310551915429
 30
0.0
 11
1195.246988666291
 21
647.631055191543
 31
0.0
  0
LINE
  5
558
102
{ACAD_REACTORS
330
65A
102
}
330
1F
100
AcDbEntity
  8
実線
100
AcDbLine
 10
1158.125231953434
 20
436.7310551915429
 30
0.0
 11
1277.125231953434
 21
436.7310551915429
 31
0.0
  0
ARC
  5
559
102
{ACAD_REACTORS
330
65A
102
}
330
1F
100
AcDbEntity
  8
実線
100
AcDbCircle
 10
1158.125231953434
 20
439.7310551915429
 30
0.0
 40
3.0
100
AcDbArc
 50
180.0
 51
270.0
  0
ARC
  5
55A
102
{ACAD_REACTORS
330
65A
102
}
330
1F
100
AcDbEntity
  8
実線
100
AcDbCircle
 10
1277.125231953434
 20
439.7310551915429
 30
0.0
 40
3.0
100
AcDbArc
 50
270.0
 51
0.0
  0
LINE
  5
55B
102
{ACAD_REACTORS
330
65A
102
}
330
1F
100
AcDbEntity
  8
実線
100
AcDbLine
 10
1155.125231953434
 20
441.2310551915429
 30
0.0
 11
1155.125231953434
 21
439.7310551915429
 31
0.0
  0
LINE
  5
55C
102
{ACAD_REACTORS
330
65A
102
}
330
1F
100
AcDbEntity
  8
実線
100
AcDbLine
 10
1280.125231953434
 20
439.7310551915429
 30
0.0
 11
1280.125231953434
 21
441.2310551915429
 31
0.0
  0
LINE
  5
55D
102
{ACAD_REACTORS
330
65A
102
}
330
1F
100
AcDbEntity
  8
実線
100
AcDbLine
 10
1130.125231953434
 20
696.6310551915429
 30
0.0
 11
1305.125231953434
 21
696.6310551915429
 31
0.0
  0
LINE
  5
55E
102
{ACAD_REACTORS
330
65A
102
}
330
1F
100
AcDbEntity
  8
実線
100
AcDbLine
 10
1305.125231953434
 20
714.6310551915429
 30
0.0
 11
1130.125231953434
 21
714.6310551915429
 31
0.0
  0
LINE
  5
55F
102
{ACAD_REACTORS
330
65A
102
}
330
1F
100
AcDbEntity
  8
実線
100
AcDbLine
 10
1305.125231953434
 20
696.6310551915429
 30
0.0
 11
1305.125231953434
 21
714.6310551915429
 31
0.0
  0
LINE
  5
560
102
{ACAD_REACTORS
330
65A
102
}
330
1F
100
AcDbEntity
  8
実線
100
AcDbLine
 10
1130.125231953434
 20
714.6310551915429
 30
0.0
 11
1130.125231953434
 21
696.6310551915429
 31
0.0
  0
LINE
  5
561
102
{ACAD_REACTORS
330
65A
102
}
330
1F
100
AcDbEntity
  8
実線
100
AcDbLine
 10
1274.925231953434
 20
533.2310551915431
 30
0.0
 11
1274.925231953434
 21
573.131055191543
 31
0.0
  0
ARC
  5
562
102
{ACAD_REACTORS
330
65A
102
}
330
1F
100
AcDbEntity
  8
実線
100
AcDbCircle
 10
1212.925231953434
 20
573.131055191543
 30
0.0
 40
47.99999999999999
100
AcDbArc
 50
16.33482278068604
 51
73.40215786413563
  0
ARC
  5
563
102
{ACAD_REACTORS
330
65A
102
}
330
1F
100
AcDbEntity
  8
実線
100
AcDbCircle
 10
1214.925231953434
 20
573.131055191543
 30
0.0
 40
60.00000000000005
100
AcDbArc
 50
0.0
 51
50.05549481018421
  0
ARC
  5
564
102
{ACAD_REACTORS
330
65A
102
}
330
1F
100
AcDbEntity
  8
実線
100
AcDbCircle
 10
1222.325231953434
 20
573.131055191543
 30
0.0
 40
47.99999999999999
100
AcDbArc
 50
106.5978421358644
 51
163.6651772193139
  0
LINE
  5
565
102
{ACAD_REACTORS
330
65A
102
}
330
1F
100
AcDbEntity
  8
実線
100
AcDbLine
 10
1160.325231953434
 20
533.2310551915431
 30
0.0
 11
1160.325231953434
 21
573.131055191543
 31
0.0
  0
ARC
  5
566
102
{ACAD_REACTORS
330
65A
102
}
330
1F
100
AcDbEntity
  8
実線
100
AcDbCircle
 10
1220.325231953434
 20
573.131055191543
 30
0.0
 40
60.00000000000005
100
AcDbArc
 50
129.9445051898158
 51
180.0
  0
LINE
  5
567
102
{ACAD_REACTORS
330
65A
102
}
330
1F
100
AcDbEntity
  8
実線
100
AcDbLine
 10
1265.768248061692
 20
586.6310551915431
 30
0.0
 11
1169.482215845176
 21
586.6310551915431
 31
0.0
  0
LINE
  5
568
102
{ACAD_REACTORS
330
65A
102
}
330
1F
100
AcDbEntity
  8
実線
100
AcDbLine
 10
1169.482215845176
 20
586.6310551915431
 30
0.0
 11
1169.482215845176
 21
533.2310551915431
 31
0.0
  0
LINE
  5
569
102
{ACAD_REACTORS
330
65A
102
}
330
1F
100
AcDbEntity
  8
実線
100
AcDbLine
 10
1265.768248061692
 20
586.6310551915431
 30
0.0
 11
1265.768248061692
 21
533.2310551915431
 31
0.0
  0
LINE
  5
56A
102
{ACAD_REACTORS
330
65B
102
}
330
1F
100
AcDbEntity
  8
実線
100
AcDbLine
 10
901.625231953435
 20
418.2310551915429
 30
0.0
 11
813.6252319534342
 21
418.2310551915429
 31
0.0
  0
LINE
  5
56B
102
{ACAD_REACTORS
330
65B
102
}
330
1F
100
AcDbEntity
  8
実線
100
AcDbLine
 10
900.9252319534351
 20
414.5310551915429
 30
0.0
 11
901.625231953435
 21
418.2310551915429
 31
0.0
  0
LINE
  5
56C
102
{ACAD_REACTORS
330
65B
102
}
330
1F
100
AcDbEntity
  8
実線
100
AcDbLine
 10
813.6252319534342
 20
418.2310551915429
 30
0.0
 11
814.3252319534349
 21
414.5310551915429
 31
0.0
  0
LINE
  5
56D
102
{ACAD_REACTORS
330
65B
102
}
330
1F
100
AcDbEntity
  8
実線
100
AcDbLine
 10
900.1252319534343
 20
301.531055191543
 30
0.0
 11
815.1252319534341
 21
301.531055191543
 31
0.0
  0
LINE
  5
56E
102
{ACAD_REACTORS
330
65B
102
}
330
1F
100
AcDbEntity
  8
実線
100
AcDbLine
 10
841.1252319534352
 20
292.3310551915429
 30
0.0
 11
874.1252319534341
 21
292.3310551915429
 31
0.0
  0
LINE
  5
56F
102
{ACAD_REACTORS
330
65B
102
}
330
1F
100
AcDbEntity
  8
実線
100
AcDbLine
 10
874.1252319534341
 20
292.3310551915429
 30
0.0
 11
900.1252319534351
 21
301.531055191543
 31
0.0
  0
LINE
  5
570
102
{ACAD_REACTORS
330
65B
102
}
330
1F
100
AcDbEntity
  8
実線
100
AcDbLine
 10
815.1252319534341
 20
301.531055191543
 30
0.0
 11
841.1252319534352
 21
292.3310551915429
 31
0.0
  0
LINE
  5
571
102
{ACAD_REACTORS
330
65B
102
}
330
1F
100
AcDbEntity
  8
実線
100
AcDbLine
 10
815.125231953435
 20
378.5310551915429
 30
0.0
 11
815.125231953435
 21
301.531055191543
 31
0.0
  0
LINE
  5
572
102
{ACAD_REACTORS
330
65B
102
}
330
1F
100
AcDbEntity
  8
実線
100
AcDbLine
 10
900.1252319534343
 20
301.531055191543
 30
0.0
 11
900.1252319534343
 21
378.5310551915429
 31
0.0
  0
LINE
  5
573
102
{ACAD_REACTORS
330
65B
102
}
330
1F
100
AcDbEntity
  8
実線
100
AcDbLine
 10
814.3252319534349
 20
378.5310551915429
 30
0.0
 11
900.9252319534351
 21
378.5310551915429
 31
0.0
  0
LINE
  5
574
102
{ACAD_REACTORS
330
65B
102
}
330
1F
100
AcDbEntity
  8
実線
100
AcDbLine
 10
900.9252319534351
 20
414.5310551915429
 30
0.0
 11
814.3252319534349
 21
414.5310551915429
 31
0.0
  0
LINE
  5
575
102
{ACAD_REACTORS
330
65B
102
}
330
1F
100
AcDbEntity
  8
実線
100
AcDbLine
 10
814.3252319534349
 20
414.5310551915429
 30
0.0
 11
814.3252319534349
 21
378.5310551915429
 31
0.0
  0
LINE
  5
576
102
{ACAD_REACTORS
330
65B
102
}
330
1F
100
AcDbEntity
  8
実線
100
AcDbLine
 10
900.9252319534351
 20
378.5310551915429
 30
0.0
 11
900.9252319534351
 21
414.5310551915429
 31
0.0
  0
LINE
  5
577
102
{ACAD_REACTORS
330
65B
102
}
330
1F
100
AcDbEntity
  8
実線
100
AcDbLine
 10
842.1252319534342
 20
425.2310551915431
 30
0.0
 11
842.1252319534342
 21
418.2310551915429
 31
0.0
  0
LINE
  5
578
102
{ACAD_REACTORS
330
65B
102
}
330
1F
100
AcDbEntity
  8
実線
100
AcDbLine
 10
873.125231953435
 20
418.2310551915429
 30
0.0
 11
873.125231953435
 21
425.2310551915431
 31
0.0
  0
LINE
  5
579
102
{ACAD_REACTORS
330
65B
102
}
330
1F
100
AcDbEntity
  8
実線
100
AcDbLine
 10
811.6252319534341
 20
425.2310551915431
 30
0.0
 11
903.6252319534341
 21
425.2310551915431
 31
0.0
  0
LINE
  5
57A
102
{ACAD_REACTORS
330
65B
102
}
330
1F
100
AcDbEntity
  8
実線
100
AcDbLine
 10
811.6252319534341
 20
436.7310551915429
 30
0.0
 11
811.6252319534341
 21
425.2310551915431
 31
0.0
  0
LINE
  5
57B
102
{ACAD_REACTORS
330
65B
102
}
330
1F
100
AcDbEntity
  8
実線
100
AcDbLine
 10
903.6252319534341
 20
425.2310551915431
 30
0.0
 11
903.6252319534341
 21
436.7310551915429
 31
0.0
  0
LINE
  5
57C
102
{ACAD_REACTORS
330
65B
102
}
330
1F
100
AcDbEntity
  8
実線
100
AcDbLine
 10
795.1252319534342
 20
441.2310551915431
 30
0.0
 11
920.1252319534342
 21
441.2310551915431
 31
0.0
  0
LINE
  5
57D
102
{ACAD_REACTORS
330
65B
102
}
330
1F
100
AcDbEntity
  8
実線
100
AcDbLine
 10
920.1252319534342
 20
533.2310551915431
 30
0.0
 11
795.1252319534342
 21
533.2310551915431
 31
0.0
  0
LINE
  5
57E
102
{ACAD_REACTORS
330
65B
102
}
330
1F
100
AcDbEntity
  8
実線
100
AcDbLine
 10
795.1252319534342
 20
533.2310551915431
 30
0.0
 11
795.1252319534342
 21
441.2310551915431
 31
0.0
  0
LINE
  5
57F
102
{ACAD_REACTORS
330
65B
102
}
330
1F
100
AcDbEntity
  8
実線
100
AcDbLine
 10
920.1252319534342
 20
441.2310551915431
 30
0.0
 11
920.1252319534342
 21
533.2310551915431
 31
0.0
  0
LINE
  5
580
102
{ACAD_REACTORS
330
65B
102
}
330
1F
100
AcDbEntity
  8
実線
100
AcDbLine
 10
801.122066361378
 20
619.131055191543
 30
0.0
 11
914.12839754549
 21
619.131055191543
 31
0.0
  0
LINE
  5
581
102
{ACAD_REACTORS
330
65B
102
}
330
1F
100
AcDbEntity
  8
実線
100
AcDbLine
 10
914.12839754549
 20
619.131055191543
 30
0.0
 11
914.12839754549
 21
632.6310551915429
 31
0.0
  0
LINE
  5
582
102
{ACAD_REACTORS
330
65B
102
}
330
1F
100
AcDbEntity
  8
実線
100
AcDbLine
 10
801.122066361378
 20
632.6310551915429
 30
0.0
 11
801.122066361378
 21
619.131055191543
 31
0.0
  0
LINE
  5
583
102
{ACAD_REACTORS
330
65B
102
}
330
1F
100
AcDbEntity
  8
実線
100
AcDbLine
 10
835.2469886662909
 20
619.131055191543
 30
0.0
 11
835.2469886662909
 21
632.6310551915429
 31
0.0
  0
LINE
  5
584
102
{ACAD_REACTORS
330
65B
102
}
330
1F
100
AcDbEntity
  8
実線
100
AcDbLine
 10
880.0034752405769
 20
619.131055191543
 30
0.0
 11
880.0034752405769
 21
632.6310551915429
 31
0.0
  0
ELLIPSE
  5
585
102
{ACAD_REACTORS
330
65B
102
}
330
1F
100
AcDbEntity
  8
実線
100
AcDbEllipse
 10
857.6252319534342
 20
629.9633495130405
 30
0.0
 11
32.0
 21
0.0
 31
0.0
210
0.0
220
0.0
230
1.0
 40
0.7071067811865476
 41
5.147901351449129
 42
5.783984192163979
  0
ELLIPSE
  5
586
102
{ACAD_REACTORS
330
65B
102
}
330
1F
100
AcDbEntity
  8
実線
100
AcDbEllipse
 10
857.6252319534342
 20
629.9633495130405
 30
0.0
 11
32.0
 21
0.0
 31
0.0
210
0.0
220
0.0
230
1.0
 40
0.7071067811865476
 41
3.640793768605399
 42
4.276876609320261
  0
ELLIPSE
  5
587
102
{ACAD_REACTORS
330
65B
102
}
330
1F
100
AcDbEntity
  8
実線
100
AcDbEllipse
 10
857.6252319534342
 20
632.0139591784814
 30
0.0
 11
32.0
 21
0.0
 31
0.0
210
0.0
220
0.0
230
1.0
 40
0.7071067811865476
 41
3.747306775751118
 42
4.276876609320261
  0
ELLIPSE
  5
588
102
{ACAD_REACTORS
330
65B
102
}
330
1F
100
AcDbEntity
  8
実線
100
AcDbEllipse
 10
857.6252319534342
 20
632.0139591784814
 30
0.0
 11
32.0
 21
0.0
 31
0.0
210
0.0
220
0.0
230
1.0
 40
0.7071067811865476
 41
5.147901351449129
 42
5.677471185018259
  0
ELLIPSE
  5
589
102
{ACAD_REACTORS
330
65B
102
}
330
1F
100
AcDbEntity
  8
実線
100
AcDbEllipse
 10
857.6252319534342
 20
633.711015453329
 30
0.0
 11
25.40000000000001
 21
0.0
 31
0.0
210
0.0
220
0.0
230
1.0
 40
0.7071067811865475
 41
5.272754750513714
 42
5.335993804876948
  0
ELLIPSE
  5
58A
102
{ACAD_REACTORS
330
65B
102
}
330
1F
100
AcDbEntity
  8
実線
100
AcDbEllipse
 10
857.6252319534342
 20
633.711015453329
 30
0.0
 11
25.40000000000001
 21
0.0
 31
0.0
210
0.0
220
0.0
230
1.0
 40
0.7071067811865475
 41
4.08878415589243
 42
4.152023210255681
  0
ARC
  5
58B
102
{ACAD_REACTORS
330
65B
102
}
330
1F
100
AcDbEntity
  8
実線
100
AcDbCircle
 10
889.6252319534342
 20
679.631055191543
 30
0.0
 40
17.0
100
AcDbArc
 50
0.0
 51
90.0
  0
ARC
  5
58C
102
{ACAD_REACTORS
330
65B
102
}
330
1F
100
AcDbEntity
  8
実線
100
AcDbCircle
 10
825.6252319534342
 20
679.631055191543
 30
0.0
 40
17.0
100
AcDbArc
 50
90.0
 51
180.0
  0
LINE
  5
58D
102
{ACAD_REACTORS
330
65B
102
}
330
1F
100
AcDbEntity
  8
実線
100
AcDbLine
 10
801.122066361378
 20
632.6310551915429
 30
0.0
 11
914.12839754549
 21
632.6310551915429
 31
0.0
  0
LINE
  5
58E
102
{ACAD_REACTORS
330
65B
102
}
330
1F
100
AcDbEntity
  8
実線
100
AcDbLine
 10
906.6252319534342
 20
647.631055191543
 30
0.0
 11
906.6252319534342
 21
679.631055191543
 31
0.0
  0
LINE
  5
58F
102
{ACAD_REACTORS
330
65B
102
}
330
1F
100
AcDbEntity
  8
実線
100
AcDbLine
 10
808.6252319534342
 20
679.631055191543
 30
0.0
 11
808.6252319534342
 21
647.631055191543
 31
0.0
  0
LINE
  5
590
102
{ACAD_REACTORS
330
65B
102
}
330
1F
100
AcDbEntity
  8
実線
100
AcDbLine
 10
914.12839754549
 20
632.6310551915429
 30
0.0
 11
914.12839754549
 21
647.631055191543
 31
0.0
  0
LINE
  5
591
102
{ACAD_REACTORS
330
65B
102
}
330
1F
100
AcDbEntity
  8
実線
100
AcDbLine
 10
914.12839754549
 20
647.631055191543
 30
0.0
 11
880.0034752405769
 21
647.631055191543
 31
0.0
  0
LINE
  5
592
102
{ACAD_REACTORS
330
65B
102
}
330
1F
100
AcDbEntity
  8
実線
100
AcDbLine
 10
801.122066361378
 20
647.631055191543
 30
0.0
 11
835.2469886662909
 21
647.631055191543
 31
0.0
  0
LINE
  5
593
102
{ACAD_REACTORS
330
65B
102
}
330
1F
100
AcDbEntity
  8
実線
100
AcDbLine
 10
801.122066361378
 20
647.631055191543
 30
0.0
 11
801.122066361378
 21
632.6310551915429
 31
0.0
  0
LINE
  5
594
102
{ACAD_REACTORS
330
65B
102
}
330
1F
100
AcDbEntity
  8
実線
100
AcDbLine
 10
835.2469886662909
 20
632.6310551915429
 30
0.0
 11
835.2469886662909
 21
647.631055191543
 31
0.0
  0
LINE
  5
595
102
{ACAD_REACTORS
330
65B
102
}
330
1F
100
AcDbEntity
  8
実線
100
AcDbLine
 10
880.0034752405769
 20
632.6310551915429
 30
0.0
 11
880.0034752405769
 21
647.631055191543
 31
0.0
  0
LINE
  5
596
102
{ACAD_REACTORS
330
65B
102
}
330
1F
100
AcDbEntity
  8
実線
100
AcDbLine
 10
795.1252319534342
 20
441.2310551915429
 30
0.0
 11
795.1252319534342
 21
439.7310551915429
 31
0.0
  0
LINE
  5
597
102
{ACAD_REACTORS
330
65B
102
}
330
1F
100
AcDbEntity
  8
実線
100
AcDbLine
 10
920.1252319534342
 20
439.7310551915429
 30
0.0
 11
920.1252319534342
 21
441.2310551915429
 31
0.0
  0
LINE
  5
598
102
{ACAD_REACTORS
330
65B
102
}
330
1F
100
AcDbEntity
  8
実線
100
AcDbLine
 10
798.1252319534342
 20
436.7310551915429
 30
0.0
 11
917.1252319534342
 21
436.7310551915429
 31
0.0
  0
ARC
  5
599
102
{ACAD_REACTORS
330
65B
102
}
330
1F
100
AcDbEntity
  8
実線
100
AcDbCircle
 10
798.1252319534342
 20
439.7310551915429
 30
0.0
 40
3.0
100
AcDbArc
 50
180.0
 51
270.0
  0
ARC
  5
59A
102
{ACAD_REACTORS
330
65B
102
}
330
1F
100
AcDbEntity
  8
実線
100
AcDbCircle
 10
917.1252319534342
 20
439.7310551915429
 30
0.0
 40
3.0
100
AcDbArc
 50
270.0
 51
0.0
  0
LINE
  5
59B
102
{ACAD_REACTORS
330
65B
102
}
330
1F
100
AcDbEntity
  8
実線
100
AcDbLine
 10
945.1252319534342
 20
696.6310551915429
 30
0.0
 11
770.1252319534342
 21
696.6310551915429
 31
0.0
  0
LINE
  5
59C
102
{ACAD_REACTORS
330
65B
102
}
330
1F
100
AcDbEntity
  8
実線
100
AcDbLine
 10
945.1252319534342
 20
696.6310551915429
 30
0.0
 11
945.1252319534342
 21
714.6310551915429
 31
0.0
  0
LINE
  5
59D
102
{ACAD_REACTORS
330
65B
102
}
330
1F
100
AcDbEntity
  8
実線
100
AcDbLine
 10
770.1252319534342
 20
714.6310551915429
 30
0.0
 11
770.1252319534342
 21
696.6310551915429
 31
0.0
  0
LINE
  5
59E
102
{ACAD_REACTORS
330
65B
102
}
330
1F
100
AcDbEntity
  8
実線
100
AcDbLine
 10
945.1252319534342
 20
714.6310551915429
 30
0.0
 11
770.1252319534342
 21
714.6310551915429
 31
0.0
  0
LINE
  5
59F
102
{ACAD_REACTORS
330
65B
102
}
330
1F
100
AcDbEntity
  8
実線
100
AcDbLine
 10
907.6252319534351
 20
533.2310551915431
 30
0.0
 11
907.6252319534351
 21
586.6310551915431
 31
0.0
  0
LINE
  5
5A0
102
{ACAD_REACTORS
330
65B
102
}
330
1F
100
AcDbEntity
  8
実線
100
AcDbLine
 10
871.125231953435
 20
586.6310551915431
 30
0.0
 11
907.6252319534351
 21
586.6310551915431
 31
0.0
  0
LINE
  5
5A1
102
{ACAD_REACTORS
330
65B
102
}
330
1F
100
AcDbEntity
  8
実線
100
AcDbLine
 10
844.1252319534351
 20
586.6310551915431
 30
0.0
 11
807.6252319534342
 21
586.6310551915431
 31
0.0
  0
LINE
  5
5A2
102
{ACAD_REACTORS
330
65B
102
}
330
1F
100
AcDbEntity
  8
実線
100
AcDbLine
 10
807.6252319534342
 20
586.6310551915431
 30
0.0
 11
807.6252319534342
 21
533.2310551915431
 31
0.0
  0
LINE
  5
5A3
102
{ACAD_REACTORS
330
65B
102
}
330
1F
100
AcDbEntity
  8
実線
100
AcDbLine
 10
871.125231953435
 20
619.131055191543
 30
0.0
 11
871.125231953435
 21
533.2310551915431
 31
0.0
  0
LINE
  5
5A4
102
{ACAD_REACTORS
330
65B
102
}
330
1F
100
AcDbEntity
  8
実線
100
AcDbLine
 10
844.1252319534351
 20
619.131055191543
 30
0.0
 11
844.1252319534351
 21
533.2310551915431
 31
0.0
  0
LINE
  5
5A5
102
{ACAD_REACTORS
330
65C
102
}
330
1F
100
AcDbEntity
  8
実線
100
AcDbLine
 10
180.925231952207
 20
414.5310551915429
 30
0.0
 11
181.6252319522071
 21
418.2310551915429
 31
0.0
  0
LINE
  5
5A6
102
{ACAD_REACTORS
330
65C
102
}
330
1F
100
AcDbEntity
  8
実線
100
AcDbLine
 10
93.62523195220717
 20
418.2310551915429
 30
0.0
 11
94.3252319522071
 21
414.5310551915429
 31
0.0
  0
LINE
  5
5A7
102
{ACAD_REACTORS
330
65C
102
}
330
1F
100
AcDbEntity
  8
実線
100
AcDbLine
 10
181.6252319522071
 20
418.2310551915429
 30
0.0
 11
93.62523195220717
 21
418.2310551915429
 31
0.0
  0
LINE
  5
5A8
102
{ACAD_REACTORS
330
65C
102
}
330
1F
100
AcDbEntity
  8
実線
100
AcDbLine
 10
94.3252319522071
 20
414.5310551915429
 30
0.0
 11
180.925231952207
 21
414.5310551915429
 31
0.0
  0
LINE
  5
5A9
102
{ACAD_REACTORS
330
65C
102
}
330
1F
100
AcDbEntity
  8
実線
100
AcDbLine
 10
154.1252319522071
 20
292.3310551915429
 30
0.0
 11
180.1252319522071
 21
301.531055191543
 31
0.0
  0
LINE
  5
5AA
102
{ACAD_REACTORS
330
65C
102
}
330
1F
100
AcDbEntity
  8
実線
100
AcDbLine
 10
95.12523195220717
 20
301.531055191543
 30
0.0
 11
121.1252319522071
 21
292.3310551915429
 31
0.0
  0
LINE
  5
5AB
102
{ACAD_REACTORS
330
65C
102
}
330
1F
100
AcDbEntity
  8
実線
100
AcDbLine
 10
180.1252319522071
 20
301.531055191543
 30
0.0
 11
95.12523195220717
 21
301.531055191543
 31
0.0
  0
LINE
  5
5AC
102
{ACAD_REACTORS
330
65C
102
}
330
1F
100
AcDbEntity
  8
実線
100
AcDbLine
 10
121.1252319522071
 20
292.3310551915429
 30
0.0
 11
154.1252319522071
 21
292.3310551915429
 31
0.0
  0
LINE
  5
5AD
102
{ACAD_REACTORS
330
65C
102
}
330
1F
100
AcDbEntity
  8
実線
100
AcDbLine
 10
95.12523195220717
 20
378.5310551915429
 30
0.0
 11
95.12523195220717
 21
301.531055191543
 31
0.0
  0
LINE
  5
5AE
102
{ACAD_REACTORS
330
65C
102
}
330
1F
100
AcDbEntity
  8
実線
100
AcDbLine
 10
180.125231952207
 20
301.531055191543
 30
0.0
 11
180.125231952207
 21
378.5310551915429
 31
0.0
  0
LINE
  5
5AF
102
{ACAD_REACTORS
330
65C
102
}
330
1F
100
AcDbEntity
  8
実線
100
AcDbLine
 10
94.3252319522071
 20
414.5310551915429
 30
0.0
 11
94.3252319522071
 21
378.5310551915429
 31
0.0
  0
LINE
  5
5B0
102
{ACAD_REACTORS
330
65C
102
}
330
1F
100
AcDbEntity
  8
実線
100
AcDbLine
 10
180.925231952207
 20
378.5310551915429
 30
0.0
 11
180.925231952207
 21
414.5310551915429
 31
0.0
  0
LINE
  5
5B1
102
{ACAD_REACTORS
330
65C
102
}
330
1F
100
AcDbEntity
  8
実線
100
AcDbLine
 10
94.3252319522071
 20
378.5310551915429
 30
0.0
 11
180.925231952207
 21
378.5310551915429
 31
0.0
  0
LINE
  5
5B2
102
{ACAD_REACTORS
330
65C
102
}
330
1F
100
AcDbEntity
  8
実線
100
AcDbLine
 10
122.1252319522071
 20
425.2310551915431
 30
0.0
 11
122.1252319522071
 21
418.2310551915429
 31
0.0
  0
LINE
  5
5B3
102
{ACAD_REACTORS
330
65C
102
}
330
1F
100
AcDbEntity
  8
実線
100
AcDbLine
 10
153.1252319522072
 20
418.2310551915429
 30
0.0
 11
153.1252319522072
 21
425.2310551915431
 31
0.0
  0
LINE
  5
5B4
102
{ACAD_REACTORS
330
65C
102
}
330
1F
100
AcDbEntity
  8
実線
100
AcDbLine
 10
91.62523195220718
 20
436.7310551915429
 30
0.0
 11
91.62523195220718
 21
425.2310551915431
 31
0.0
  0
LINE
  5
5B5
102
{ACAD_REACTORS
330
65C
102
}
330
1F
100
AcDbEntity
  8
実線
100
AcDbLine
 10
183.625231952207
 20
425.2310551915431
 30
0.0
 11
183.625231952207
 21
436.7310551915429
 31
0.0
  0
LINE
  5
5B6
102
{ACAD_REACTORS
330
65C
102
}
330
1F
100
AcDbEntity
  8
実線
100
AcDbLine
 10
91.62523195220718
 20
425.2310551915431
 30
0.0
 11
183.625231952207
 21
425.2310551915431
 31
0.0
  0
LINE
  5
5B7
102
{ACAD_REACTORS
330
65C
102
}
330
1F
100
AcDbEntity
  8
実線
100
AcDbLine
 10
75.12523195220717
 20
533.2310551915431
 30
0.0
 11
75.12523195220717
 21
441.2310551915431
 31
0.0
  0
LINE
  5
5B8
102
{ACAD_REACTORS
330
65C
102
}
330
1F
100
AcDbEntity
  8
実線
100
AcDbLine
 10
200.1252319522071
 20
441.2310551915431
 30
0.0
 11
200.1252319522071
 21
533.2310551915431
 31
0.0
  0
LINE
  5
5B9
102
{ACAD_REACTORS
330
65C
102
}
330
1F
100
AcDbEntity
  8
実線
100
AcDbLine
 10
75.12523195220717
 20
441.2310551915431
 30
0.0
 11
200.1252319522071
 21
441.2310551915431
 31
0.0
  0
LINE
  5
5BA
102
{ACAD_REACTORS
330
65C
102
}
330
1F
100
AcDbEntity
  8
実線
100
AcDbLine
 10
75.12523195220717
 20
533.2310551915431
 30
0.0
 11
200.1252319522071
 21
533.2310551915431
 31
0.0
  0
LINE
  5
5BB
102
{ACAD_REACTORS
330
65C
102
}
330
1F
100
AcDbEntity
  8
実線
100
AcDbLine
 10
194.1283975442632
 20
619.131055191543
 30
0.0
 11
194.1283975442632
 21
632.6310551915429
 31
0.0
  0
LINE
  5
5BC
102
{ACAD_REACTORS
330
65C
102
}
330
1F
100
AcDbEntity
  8
実線
100
AcDbLine
 10
194.1283975442632
 20
619.131055191543
 30
0.0
 11
165.7201211576289
 21
619.131055191543
 31
0.0
  0
LINE
  5
5BD
102
{ACAD_REACTORS
330
65C
102
}
330
1F
100
AcDbEntity
  8
実線
100
AcDbLine
 10
81.12206636015139
 20
619.131055191543
 30
0.0
 11
109.5303427467859
 21
619.131055191543
 31
0.0
  0
LINE
  5
5BE
102
{ACAD_REACTORS
330
65C
102
}
330
1F
100
AcDbEntity
  8
実線
100
AcDbLine
 10
81.12206636015139
 20
632.6310551915429
 30
0.0
 11
105.6371343998156
 21
632.6310551915429
 31
0.0
  0
LINE
  5
5BF
102
{ACAD_REACTORS
330
65C
102
}
330
1F
100
AcDbEntity
  8
実線
100
AcDbLine
 10
81.12206636015139
 20
632.6310551915429
 30
0.0
 11
81.12206636015139
 21
619.131055191543
 31
0.0
  0
ELLIPSE
  5
5C0
102
{ACAD_REACTORS
330
65C
102
}
330
1F
100
AcDbEntity
  8
実線
100
AcDbEllipse
 10
137.6252319522073
 20
644.8125919179578
 30
0.0
 11
25.40000000000002
 21
0.0
 31
0.0
210
0.0
220
0.0
230
1.0
 40
0.7071067811865476
 41
0.0557451414614233
 42
3.08584751212837
  0
ELLIPSE
  5
5C1
102
{ACAD_REACTORS
330
65C
102
}
330
1F
100
AcDbEntity
  8
実線
100
AcDbEllipse
 10
137.6252319522073
 20
629.9633495130405
 30
0.0
 11
32.0
 21
0.0
 31
0.0
210
0.0
220
0.0
230
1.0
 40
0.7071067811865476
 41
3.141592653589792
 42
4.71238898038469
  0
LINE
  5
5C2
102
{ACAD_REACTORS
330
65C
102
}
330
1F
100
AcDbEntity
  8
実線
100
AcDbLine
 10
169.6252319522074
 20
629.9633495130405
 30
0.0
 11
169.6252319522074
 21
632.0139591784814
 31
0.0
  0
LINE
  5
5C3
102
{ACAD_REACTORS
330
65C
102
}
330
1F
100
AcDbEntity
  8
実線
100
AcDbLine
 10
105.6252319522074
 20
632.0139591784814
 30
0.0
 11
105.6252319522074
 21
629.9633495130405
 31
0.0
  0
ELLIPSE
  5
5C4
102
{ACAD_REACTORS
330
65C
102
}
330
1F
100
AcDbEntity
  8
実線
100
AcDbEllipse
 10
137.6252319522073
 20
629.9633495130405
 30
0.0
 11
32.0
 21
0.0
 31
0.0
210
0.0
220
0.0
230
1.0
 40
0.7071067811865476
 41
0.0
 42
3.141592653589792
  0
ELLIPSE
  5
5C5
102
{ACAD_REACTORS
330
65C
102
}
330
1F
100
AcDbEntity
  8
実線
100
AcDbEllipse
 10
137.6252319522073
 20
629.9633495130405
 30
0.0
 11
32.0
 21
0.0
 31
0.0
210
0.0
220
0.0
230
1.0
 40
0.7071067811865476
 41
4.71238898038469
 42
6.283185307179584
  0
ELLIPSE
  5
5C6
102
{ACAD_REACTORS
330
65C
102
}
330
1F
100
AcDbEntity
  8
実線
100
AcDbEllipse
 10
137.6252319522073
 20
632.0139591784814
 30
0.0
 11
32.0
 21
0.0
 31
0.0
210
0.0
220
0.0
230
1.0
 40
0.7071067811865476
 41
0.0
 42
3.141592653589792
  0
ELLIPSE
  5
5C7
102
{ACAD_REACTORS
330
65C
102
}
330
1F
100
AcDbEntity
  8
実線
100
AcDbEllipse
 10
137.6252319522073
 20
644.8125919179578
 30
0.0
 11
25.39999999999999
 21
0.0
 31
0.0
210
0.0
220
0.0
230
1.0
 40
0.7071067811865476
 41
0.0557451414614292
 42
3.085847512128362
  0
ARC
  5
5C8
102
{ACAD_REACTORS
330
65C
102
}
330
1F
100
AcDbEntity
  8
実線
100
AcDbCircle
 10
137.6252319522073
 20
667.131055191543
 30
0.0
 40
25.39999999999999
100
AcDbArc
 50
0.0
 51
180.0
  0
LINE
  5
5C9
102
{ACAD_REACTORS
330
65C
102
}
330
1F
100
AcDbEntity
  8
実線
100
AcDbLine
 10
112.2252319522074
 20
667.131055191543
 30
0.0
 11
112.2252319522074
 21
645.7769530388302
 31
0.0
  0
LINE
  5
5CA
102
{ACAD_REACTORS
330
65C
102
}
330
1F
100
AcDbEntity
  8
実線
100
AcDbLine
 10
163.0252319522073
 20
645.7769530388303
 30
0.0
 11
163.0252319522073
 21
667.131055191543
 31
0.0
  0
ARC
  5
5CB
102
{ACAD_REACTORS
330
65C
102
}
330
1F
100
AcDbEntity
  8
実線
100
AcDbCircle
 10
169.6252319522074
 20
679.631055191543
 30
0.0
 40
17.0
100
AcDbArc
 50
0.0
 51
90.0
  0
ARC
  5
5CC
102
{ACAD_REACTORS
330
65C
102
}
330
1F
100
AcDbEntity
  8
実線
100
AcDbCircle
 10
105.6252319522074
 20
679.631055191543
 30
0.0
 40
17.0
100
AcDbArc
 50
90.0
 51
180.0
  0
LINE
  5
5CD
102
{ACAD_REACTORS
330
65C
102
}
330
1F
100
AcDbEntity
  8
実線
100
AcDbLine
 10
186.6252319522073
 20
647.631055191543
 30
0.0
 11
186.6252319522073
 21
679.631055191543
 31
0.0
  0
LINE
  5
5CE
102
{ACAD_REACTORS
330
65C
102
}
330
1F
100
AcDbEntity
  8
実線
100
AcDbLine
 10
88.6252319522074
 20
679.631055191543
 30
0.0
 11
88.6252319522074
 21
647.631055191543
 31
0.0
  0
LINE
  5
5CF
102
{ACAD_REACTORS
330
65C
102
}
330
1F
100
AcDbEntity
  8
実線
100
AcDbLine
 10
194.1283975442632
 20
632.6310551915429
 30
0.0
 11
194.1283975442632
 21
647.631055191543
 31
0.0
  0
LINE
  5
5D0
102
{ACAD_REACTORS
330
65C
102
}
330
1F
100
AcDbEntity
  8
実線
100
AcDbLine
 10
194.1283975442632
 20
647.631055191543
 30
0.0
 11
163.0252319522073
 21
647.631055191543
 31
0.0
  0
LINE
  5
5D1
102
{ACAD_REACTORS
330
65C
102
}
330
1F
100
AcDbEntity
  8
実線
100
AcDbLine
 10
194.1283975442632
 20
632.6310551915429
 30
0.0
 11
169.613329504599
 21
632.6310551915429
 31
0.0
  0
LINE
  5
5D2
102
{ACAD_REACTORS
330
65C
102
}
330
1F
100
AcDbEntity
  8
実線
100
AcDbLine
 10
81.1220663601515
 20
647.631055191543
 30
0.0
 11
112.2252319522074
 21
647.631055191543
 31
0.0
  0
LINE
  5
5D3
102
{ACAD_REACTORS
330
65C
102
}
330
1F
100
AcDbEntity
  8
実線
100
AcDbLine
 10
81.1220663601515
 20
647.631055191543
 30
0.0
 11
81.1220663601515
 21
632.6310551915429
 31
0.0
  0
LINE
  5
5D4
102
{ACAD_REACTORS
330
65C
102
}
330
1F
100
AcDbEntity
  8
実線
100
AcDbLine
 10
75.12523195220717
 20
441.2310551915429
 30
0.0
 11
75.12523195220717
 21
439.7310551915429
 31
0.0
  0
LINE
  5
5D5
102
{ACAD_REACTORS
330
65C
102
}
330
1F
100
AcDbEntity
  8
実線
100
AcDbLine
 10
200.1252319522071
 20
439.7310551915429
 30
0.0
 11
200.1252319522071
 21
441.2310551915429
 31
0.0
  0
LINE
  5
5D6
102
{ACAD_REACTORS
330
65C
102
}
330
1F
100
AcDbEntity
  8
実線
100
AcDbLine
 10
197.125231952207
 20
436.7310551915429
 30
0.0
 11
78.12523195220717
 21
436.7310551915429
 31
0.0
  0
ARC
  5
5D7
102
{ACAD_REACTORS
330
65C
102
}
330
1F
100
AcDbEntity
  8
実線
100
AcDbCircle
 10
78.12523195220717
 20
439.7310551915429
 30
0.0
 40
3.0
100
AcDbArc
 50
180.0
 51
270.0
  0
ARC
  5
5D8
102
{ACAD_REACTORS
330
65C
102
}
330
1F
100
AcDbEntity
  8
実線
100
AcDbCircle
 10
197.125231952207
 20
439.7310551915429
 30
0.0
 40
3.0
100
AcDbArc
 50
270.0
 51
0.0
  0
LINE
  5
5D9
102
{ACAD_REACTORS
330
65C
102
}
330
1F
100
AcDbEntity
  8
実線
100
AcDbLine
 10
50.12523195220734
 20
714.6310551915429
 30
0.0
 11
225.1252319522074
 21
714.6310551915429
 31
0.0
  0
LINE
  5
5DA
102
{ACAD_REACTORS
330
65C
102
}
330
1F
100
AcDbEntity
  8
実線
100
AcDbLine
 10
225.1252319522074
 20
696.6310551915429
 30
0.0
 11
225.1252319522074
 21
714.6310551915429
 31
0.0
  0
LINE
  5
5DB
102
{ACAD_REACTORS
330
65C
102
}
330
1F
100
AcDbEntity
  8
実線
100
AcDbLine
 10
50.12523195220734
 20
714.6310551915429
 30
0.0
 11
50.12523195220734
 21
696.6310551915429
 31
0.0
  0
LINE
  5
5DC
102
{ACAD_REACTORS
330
65C
102
}
330
1F
100
AcDbEntity
  8
実線
100
AcDbLine
 10
50.12523195220734
 20
696.6310551915429
 30
0.0
 11
225.1252319522074
 21
696.6310551915429
 31
0.0
  0
LINE
  5
5DD
102
{ACAD_REACTORS
330
65C
102
}
330
1F
100
AcDbEntity
  8
実線
100
AcDbLine
 10
124.1252319522071
 20
586.6310551915431
 30
0.0
 11
87.62523195220717
 21
586.6310551915431
 31
0.0
  0
LINE
  5
5DE
102
{ACAD_REACTORS
330
65C
102
}
330
1F
100
AcDbEntity
  8
実線
100
AcDbLine
 10
87.62523195220717
 20
586.6310551915431
 30
0.0
 11
87.62523195220717
 21
533.2310551915431
 31
0.0
  0
LINE
  5
5DF
102
{ACAD_REACTORS
330
65C
102
}
330
1F
100
AcDbEntity
  8
実線
100
AcDbLine
 10
187.625231952207
 20
533.2310551915431
 30
0.0
 11
187.625231952207
 21
586.6310551915431
 31
0.0
  0
LINE
  5
5E0
102
{ACAD_REACTORS
330
65C
102
}
330
1F
100
AcDbEntity
  8
実線
100
AcDbLine
 10
187.625231952207
 20
586.6310551915431
 30
0.0
 11
151.125231952207
 21
586.6310551915431
 31
0.0
  0
LINE
  5
5E1
102
{ACAD_REACTORS
330
65C
102
}
330
1F
100
AcDbEntity
  8
実線
100
AcDbLine
 10
151.125231952207
 20
609.4481112741116
 30
0.0
 11
151.125231952207
 21
533.2310551915431
 31
0.0
  0
LINE
  5
5E2
102
{ACAD_REACTORS
330
65C
102
}
330
1F
100
AcDbEntity
  8
実線
100
AcDbLine
 10
124.1252319522071
 20
609.4481112741119
 30
0.0
 11
124.1252319522071
 21
533.2310551915431
 31
0.0
  0
LINE
  5
5E3
102
{ACAD_REACTORS
330
65D
102
}
330
1F
100
AcDbEntity
  8
実線
100
AcDbLine
 10
540.9252319534345
 20
414.5310551915429
 30
0.0
 11
541.6252319534342
 21
418.2310551915429
 31
0.0
  0
LINE
  5
5E4
102
{ACAD_REACTORS
330
65D
102
}
330
1F
100
AcDbEntity
  8
実線
100
AcDbLine
 10
453.6252319534342
 20
418.2310551915429
 30
0.0
 11
454.3252319534342
 21
414.5310551915429
 31
0.0
  0
LINE
  5
5E5
102
{ACAD_REACTORS
330
65D
102
}
330
1F
100
AcDbEntity
  8
実線
100
AcDbLine
 10
541.6252319534342
 20
418.2310551915429
 30
0.0
 11
453.6252319534342
 21
418.2310551915429
 31
0.0
  0
LINE
  5
5E6
102
{ACAD_REACTORS
330
65D
102
}
330
1F
100
AcDbEntity
  8
実線
100
AcDbLine
 10
514.1252319534341
 20
292.3310551915429
 30
0.0
 11
481.1252319534341
 21
292.3310551915429
 31
0.0
  0
LINE
  5
5E7
102
{ACAD_REACTORS
330
65D
102
}
330
1F
100
AcDbEntity
  8
実線
100
AcDbLine
 10
514.1252319534341
 20
292.3310551915429
 30
0.0
 11
540.1252319534345
 21
301.531055191543
 31
0.0
  0
LINE
  5
5E8
102
{ACAD_REACTORS
330
65D
102
}
330
1F
100
AcDbEntity
  8
実線
100
AcDbLine
 10
455.1252319534341
 20
301.531055191543
 30
0.0
 11
481.1252319534341
 21
292.3310551915429
 31
0.0
  0
LINE
  5
5E9
102
{ACAD_REACTORS
330
65D
102
}
330
1F
100
AcDbEntity
  8
実線
100
AcDbLine
 10
540.1252319534345
 20
301.531055191543
 30
0.0
 11
455.1252319534341
 21
301.531055191543
 31
0.0
  0
LINE
  5
5EA
102
{ACAD_REACTORS
330
65D
102
}
330
1F
100
AcDbEntity
  8
実線
100
AcDbLine
 10
455.1252319534341
 20
378.5310551915429
 30
0.0
 11
455.1252319534341
 21
301.531055191543
 31
0.0
  0
LINE
  5
5EB
102
{ACAD_REACTORS
330
65D
102
}
330
1F
100
AcDbEntity
  8
実線
100
AcDbLine
 10
540.1252319534342
 20
301.531055191543
 30
0.0
 11
540.1252319534342
 21
378.5310551915429
 31
0.0
  0
LINE
  5
5EC
102
{ACAD_REACTORS
330
65D
102
}
330
1F
100
AcDbEntity
  8
実線
100
AcDbLine
 10
540.9252319534345
 20
378.5310551915429
 30
0.0
 11
454.3252319534342
 21
378.5310551915429
 31
0.0
  0
LINE
  5
5ED
102
{ACAD_REACTORS
330
65D
102
}
330
1F
100
AcDbEntity
  8
実線
100
AcDbLine
 10
454.3252319534342
 20
414.5310551915429
 30
0.0
 11
454.3252319534342
 21
378.5310551915429
 31
0.0
  0
LINE
  5
5EE
102
{ACAD_REACTORS
330
65D
102
}
330
1F
100
AcDbEntity
  8
実線
100
AcDbLine
 10
540.9252319534345
 20
378.5310551915429
 30
0.0
 11
540.9252319534345
 21
414.5310551915429
 31
0.0
  0
LINE
  5
5EF
102
{ACAD_REACTORS
330
65D
102
}
330
1F
100
AcDbEntity
  8
実線
100
AcDbLine
 10
454.3252319534342
 20
414.5310551915429
 30
0.0
 11
540.9252319534345
 21
414.5310551915429
 31
0.0
  0
LINE
  5
5F0
102
{ACAD_REACTORS
330
65D
102
}
330
1F
100
AcDbEntity
  8
実線
100
AcDbLine
 10
482.1252319534342
 20
425.2310551915431
 30
0.0
 11
482.1252319534342
 21
418.2310551915429
 31
0.0
  0
LINE
  5
5F1
102
{ACAD_REACTORS
330
65D
102
}
330
1F
100
AcDbEntity
  8
実線
100
AcDbLine
 10
513.1252319534342
 20
418.2310551915429
 30
0.0
 11
513.1252319534342
 21
425.2310551915431
 31
0.0
  0
LINE
  5
5F2
102
{ACAD_REACTORS
330
65D
102
}
330
1F
100
AcDbEntity
  8
実線
100
AcDbLine
 10
543.6252319534341
 20
425.2310551915431
 30
0.0
 11
451.6252319534341
 21
425.2310551915431
 31
0.0
  0
LINE
  5
5F3
102
{ACAD_REACTORS
330
65D
102
}
330
1F
100
AcDbEntity
  8
実線
100
AcDbLine
 10
451.6252319534341
 20
436.7310551915429
 30
0.0
 11
451.6252319534341
 21
425.2310551915431
 31
0.0
  0
LINE
  5
5F4
102
{ACAD_REACTORS
330
65D
102
}
330
1F
100
AcDbEntity
  8
実線
100
AcDbLine
 10
543.6252319534341
 20
425.2310551915431
 30
0.0
 11
543.6252319534341
 21
436.7310551915429
 31
0.0
  0
LINE
  5
5F5
102
{ACAD_REACTORS
330
65D
102
}
330
1F
100
AcDbEntity
  8
実線
100
AcDbLine
 10
489.6252319534341
 20
619.131055191543
 30
0.0
 11
489.6252319534341
 21
586.6310551915431
 31
0.0
  0
LINE
  5
5F6
102
{ACAD_REACTORS
330
65D
102
}
330
1F
100
AcDbEntity
  8
実線
100
AcDbLine
 10
505.6252319534341
 20
586.6310551915431
 30
0.0
 11
505.6252319534341
 21
619.131055191543
 31
0.0
  0
LINE
  5
5F7
102
{ACAD_REACTORS
330
65D
102
}
330
1F
100
AcDbEntity
  8
実線
100
AcDbLine
 10
560.1252319534345
 20
441.2310551915431
 30
0.0
 11
435.1252319534341
 21
441.2310551915431
 31
0.0
  0
LINE
  5
5F8
102
{ACAD_REACTORS
330
65D
102
}
330
1F
100
AcDbEntity
  8
実線
100
AcDbLine
 10
435.1252319534341
 20
533.2310551915431
 30
0.0
 11
435.1252319534341
 21
441.2310551915431
 31
0.0
  0
LINE
  5
5F9
102
{ACAD_REACTORS
330
65D
102
}
330
1F
100
AcDbEntity
  8
実線
100
AcDbLine
 10
560.1252319534345
 20
441.2310551915431
 30
0.0
 11
560.1252319534345
 21
533.2310551915431
 31
0.0
  0
LINE
  5
5FA
102
{ACAD_REACTORS
330
65D
102
}
330
1F
100
AcDbEntity
  8
実線
100
AcDbLine
 10
435.1252319534341
 20
533.2310551915431
 30
0.0
 11
560.1252319534345
 21
533.2310551915431
 31
0.0
  0
LINE
  5
5FB
102
{ACAD_REACTORS
330
65D
102
}
330
1F
100
AcDbEntity
  8
実線
100
AcDbLine
 10
554.1283975454901
 20
632.6310551915429
 30
0.0
 11
441.1220663613786
 21
632.6310551915429
 31
0.0
  0
LINE
  5
5FC
102
{ACAD_REACTORS
330
65D
102
}
330
1F
100
AcDbEntity
  8
実線
100
AcDbLine
 10
554.1283975454901
 20
619.131055191543
 30
0.0
 11
441.1220663613786
 21
619.131055191543
 31
0.0
  0
LINE
  5
5FD
102
{ACAD_REACTORS
330
65D
102
}
330
1F
100
AcDbEntity
  8
実線
100
AcDbLine
 10
441.1220663613784
 20
632.6310551915429
 30
0.0
 11
441.1220663613784
 21
619.131055191543
 31
0.0
  0
LINE
  5
5FE
102
{ACAD_REACTORS
330
65D
102
}
330
1F
100
AcDbEntity
  8
実線
100
AcDbLine
 10
554.1283975454901
 20
619.131055191543
 30
0.0
 11
554.1283975454901
 21
632.6310551915429
 31
0.0
  0
LINE
  5
5FF
102
{ACAD_REACTORS
330
65D
102
}
330
1F
100
AcDbEntity
  8
実線
100
AcDbLine
 10
520.0034752405774
 20
619.131055191543
 30
0.0
 11
520.0034752405774
 21
632.6310551915429
 31
0.0
  0
LINE
  5
600
102
{ACAD_REACTORS
330
65D
102
}
330
1F
100
AcDbEntity
  8
実線
100
AcDbLine
 10
475.2469886662911
 20
619.131055191543
 30
0.0
 11
475.2469886662911
 21
632.6310551915429
 31
0.0
  0
LINE
  5
601
102
{ACAD_REACTORS
330
65D
102
}
330
1F
100
AcDbEntity
  8
実線
100
AcDbLine
 10
383.1026310045287
 20
615.7505032111908
 30
0.0
 11
394.2042074691576
 21
626.8520796758195
 31
0.0
  0
LINE
  5
602
102
{ACAD_REACTORS
330
65D
102
}
330
1F
100
AcDbEntity
  8
実線
100
AcDbLine
 10
358.283182984881
 20
662.773104160096
 30
0.0
 11
347.1816065202523
 21
651.6715276954673
 31
0.0
  0
LINE
  5
603
102
{ACAD_REACTORS
330
65D
102
}
330
1F
100
AcDbEntity
  8
実線
100
AcDbLine
 10
394.2042074691576
 20
626.8520796758195
 30
0.0
 11
358.283182984881
 21
662.773104160096
 31
0.0
  0
LINE
  5
604
102
{ACAD_REACTORS
330
65D
102
}
330
1F
100
AcDbEntity
  8
実線
100
AcDbLine
 10
347.1816065202523
 20
651.6715276954673
 30
0.0
 11
340.8176454895732
 21
654.6413761764507
 31
0.0
  0
LINE
  5
605
102
{ACAD_REACTORS
330
65D
102
}
330
1F
100
AcDbEntity
  8
実線
100
AcDbLine
 10
386.0724794855123
 20
609.3865421805119
 30
0.0
 11
383.1026310045287
 21
615.7505032111908
 31
0.0
  0
LINE
  5
606
102
{ACAD_REACTORS
330
65D
102
}
330
1F
100
AcDbEntity
  8
実線
100
AcDbLine
 10
347.1816065202523
 20
651.6715276954673
 30
0.0
 11
383.1026310045287
 21
615.7505032111908
 31
0.0
  0
LINE
  5
607
102
{ACAD_REACTORS
330
65D
102
}
330
1F
100
AcDbEntity
  8
実線
100
AcDbLine
 10
384.0218698200713
 20
607.3359325150708
 30
0.0
 11
386.0724794855123
 21
609.3865421805119
 31
0.0
  0
LINE
  5
608
102
{ACAD_REACTORS
330
65D
102
}
330
1F
100
AcDbEntity
  8
実線
100
AcDbLine
 10
340.8176454895732
 20
654.6413761764507
 30
0.0
 11
338.7670358241321
 21
652.5907665110098
 31
0.0
  0
LINE
  5
609
102
{ACAD_REACTORS
330
65D
102
}
330
1F
100
AcDbEntity
  8
実線
100
AcDbLine
 10
384.0218698200713
 20
607.3359325150708
 30
0.0
 11
338.7670358241323
 21
652.5907665110098
 31
0.0
  0
LINE
  5
60A
102
{ACAD_REACTORS
330
65D
102
}
330
1F
100
AcDbEntity
  8
実線
100
AcDbLine
 10
386.0724794855123
 20
609.3865421805119
 30
0.0
 11
340.8176454895732
 21
654.6413761764507
 31
0.0
  0
LINE
  5
60B
102
{ACAD_REACTORS
330
65D
102
}
330
1F
100
AcDbEntity
  8
実線
100
AcDbLine
 10
454.5531951037843
 20
692.5310551915429
 30
0.0
 11
430.1252319534341
 21
692.5310551915429
 31
0.0
  0
LINE
  5
60C
102
{ACAD_REACTORS
330
65D
102
}
330
1F
100
AcDbEntity
  8
実線
100
AcDbLine
 10
430.1252319534341
 20
641.7310551915431
 30
0.0
 11
441.1220663613781
 21
641.7310551915431
 31
0.0
  0
LINE
  5
60D
102
{ACAD_REACTORS
330
65D
102
}
330
1F
100
AcDbEntity
  8
実線
100
AcDbLine
 10
430.1252319534341
 20
692.5310551915429
 30
0.0
 11
430.1252319534341
 21
641.7310551915429
 31
0.0
  0
ARC
  5
60E
102
{ACAD_REACTORS
330
65D
102
}
330
1F
100
AcDbEntity
  8
実線
100
AcDbCircle
 10
430.1252319534341
 20
590.9310551915431
 30
0.0
 40
101.6
100
AcDbArc
 50
90.0
 51
134.9999999999999
  0
ARC
  5
60F
102
{ACAD_REACTORS
330
65D
102
}
330
1F
100
AcDbEntity
  8
実線
100
AcDbCircle
 10
430.1252319534341
 20
590.9310551915431
 30
0.0
 40
50.80000000000001
100
AcDbArc
 50
90.0
 51
134.9999999999999
  0
ARC
  5
610
102
{ACAD_REACTORS
330
65D
102
}
330
1F
100
AcDbEntity
  8
実線
100
AcDbCircle
 10
529.6252319534342
 20
679.631055191543
 30
0.0
 40
17.0
100
AcDbArc
 50
0.0
 51
90.0
  0
ARC
  5
611
102
{ACAD_REACTORS
330
65D
102
}
330
1F
100
AcDbEntity
  8
実線
100
AcDbCircle
 10
465.6252319534342
 20
679.631055191543
 30
0.0
 40
17.0
100
AcDbArc
 50
90.0
 51
130.6394076727658
  0
LINE
  5
612
102
{ACAD_REACTORS
330
65D
102
}
330
1F
100
AcDbEntity
  8
実線
100
AcDbLine
 10
546.6252319534341
 20
647.631055191543
 30
0.0
 11
546.6252319534341
 21
679.631055191543
 31
0.0
  0
LINE
  5
613
102
{ACAD_REACTORS
330
65D
102
}
330
1F
100
AcDbEntity
  8
実線
100
AcDbLine
 10
441.1220663613781
 20
647.631055191543
 30
0.0
 11
475.2469886662911
 21
647.631055191543
 31
0.0
  0
LINE
  5
614
102
{ACAD_REACTORS
330
65D
102
}
330
1F
100
AcDbEntity
  8
実線
100
AcDbLine
 10
441.1220663613781
 20
647.631055191543
 30
0.0
 11
441.1220663613781
 21
632.6310551915429
 31
0.0
  0
LINE
  5
615
102
{ACAD_REACTORS
330
65D
102
}
330
1F
100
AcDbEntity
  8
実線
100
AcDbLine
 10
554.1283975454901
 20
632.6310551915429
 30
0.0
 11
554.1283975454901
 21
647.631055191543
 31
0.0
  0
LINE
  5
616
102
{ACAD_REACTORS
330
65D
102
}
330
1F
100
AcDbEntity
  8
実線
100
AcDbLine
 10
554.1283975454901
 20
647.631055191543
 30
0.0
 11
520.0034752405772
 21
647.631055191543
 31
0.0
  0
LINE
  5
617
102
{ACAD_REACTORS
330
65D
102
}
330
1F
100
AcDbEntity
  8
実線
100
AcDbLine
 10
520.0034752405772
 20
632.6310551915429
 30
0.0
 11
520.0034752405772
 21
647.631055191543
 31
0.0
  0
LINE
  5
618
102
{ACAD_REACTORS
330
65D
102
}
330
1F
100
AcDbEntity
  8
実線
100
AcDbLine
 10
475.2469886662911
 20
632.6310551915429
 30
0.0
 11
475.2469886662911
 21
647.631055191543
 31
0.0
  0
LINE
  5
619
102
{ACAD_REACTORS
330
65D
102
}
330
1F
100
AcDbEntity
  8
実線
100
AcDbLine
 10
557.1252319534345
 20
436.7310551915429
 30
0.0
 11
438.1252319570502
 21
436.7310551915429
 31
0.0
  0
ARC
  5
61A
102
{ACAD_REACTORS
330
65D
102
}
330
1F
100
AcDbEntity
  8
実線
100
AcDbCircle
 10
438.1252319534342
 20
439.7310551915429
 30
0.0
 40
3.0
100
AcDbArc
 50
180.0
 51
270.0
  0
ARC
  5
61B
102
{ACAD_REACTORS
330
65D
102
}
330
1F
100
AcDbEntity
  8
実線
100
AcDbCircle
 10
557.1252319534345
 20
439.7310551915429
 30
0.0
 40
3.0
100
AcDbArc
 50
270.0
 51
0.0
  0
LINE
  5
61C
102
{ACAD_REACTORS
330
65D
102
}
330
1F
100
AcDbEntity
  8
実線
100
AcDbLine
 10
435.1252319534341
 20
441.2310551915429
 30
0.0
 11
435.1252319534341
 21
439.7310551915429
 31
0.0
  0
LINE
  5
61D
102
{ACAD_REACTORS
330
65D
102
}
330
1F
100
AcDbEntity
  8
実線
100
AcDbLine
 10
560.1252319534345
 20
439.7310551915429
 30
0.0
 11
560.1252319534345
 21
441.2310551915429
 31
0.0
  0
LINE
  5
61E
102
{ACAD_REACTORS
330
65D
102
}
330
1F
100
AcDbEntity
  8
実線
100
AcDbLine
 10
585.1252319534344
 20
696.6310551915429
 30
0.0
 11
585.1252319534344
 21
714.6310551915429
 31
0.0
  0
LINE
  5
61F
102
{ACAD_REACTORS
330
65D
102
}
330
1F
100
AcDbEntity
  8
実線
100
AcDbLine
 10
410.1252319534341
 20
714.6310551915429
 30
0.0
 11
410.1252319534341
 21
696.6310551915429
 31
0.0
  0
LINE
  5
620
102
{ACAD_REACTORS
330
65D
102
}
330
1F
100
AcDbEntity
  8
実線
100
AcDbLine
 10
585.1252319534344
 20
714.6310551915429
 30
0.0
 11
410.1252319534341
 21
714.6310551915429
 31
0.0
  0
LINE
  5
621
102
{ACAD_REACTORS
330
65D
102
}
330
1F
100
AcDbEntity
  8
実線
100
AcDbLine
 10
585.1252319534344
 20
696.6310551915429
 30
0.0
 11
410.1252319534341
 21
696.6310551915429
 31
0.0
  0
ARC
  5
622
102
{ACAD_REACTORS
330
65D
102
}
330
1F
100
AcDbEntity
  8
実線
100
AcDbCircle
 10
502.3252319534342
 20
573.131055191543
 30
0.0
 40
47.99999999999999
100
AcDbArc
 50
106.5978421358643
 51
163.6651772193139
  0
ARC
  5
623
102
{ACAD_REACTORS
330
65D
102
}
330
1F
100
AcDbEntity
  8
実線
100
AcDbCircle
 10
500.3252319534342
 20
573.131055191543
 30
0.0
 40
60.00000000000005
100
AcDbArc
 50
129.9445051898158
 51
180.0
  0
LINE
  5
624
102
{ACAD_REACTORS
330
65D
102
}
330
1F
100
AcDbEntity
  8
実線
100
AcDbLine
 10
440.3252319534344
 20
533.2310551915431
 30
0.0
 11
440.3252319534344
 21
573.131055191543
 31
0.0
  0
ARC
  5
625
102
{ACAD_REACTORS
330
65D
102
}
330
1F
100
AcDbEntity
  8
実線
100
AcDbCircle
 10
492.9252319534341
 20
573.131055191543
 30
0.0
 40
47.99999999999999
100
AcDbArc
 50
16.33482278068605
 51
73.40215786413565
  0
LINE
  5
626
102
{ACAD_REACTORS
330
65D
102
}
330
1F
100
AcDbEntity
  8
実線
100
AcDbLine
 10
554.9252319534344
 20
533.2310551915431
 30
0.0
 11
554.9252319534344
 21
573.131055191543
 31
0.0
  0
ARC
  5
627
102
{ACAD_REACTORS
330
65D
102
}
330
1F
100
AcDbEntity
  8
実線
100
AcDbCircle
 10
494.9252319534341
 20
573.131055191543
 30
0.0
 40
60.00000000000005
100
AcDbArc
 50
0.0
 51
50.05549481018416
  0
LINE
  5
628
102
{ACAD_REACTORS
330
65D
102
}
330
1F
100
AcDbEntity
  8
実線
100
AcDbLine
 10
545.7682480616925
 20
586.6310551915431
 30
0.0
 11
545.7682480616925
 21
533.2310551915431
 31
0.0
  0
LINE
  5
629
102
{ACAD_REACTORS
330
65D
102
}
330
1F
100
AcDbEntity
  8
実線
100
AcDbLine
 10
545.7682480616925
 20
586.6310551915431
 30
0.0
 11
449.4822158451762
 21
586.6310551915431
 31
0.0
  0
LINE
  5
62A
102
{ACAD_REACTORS
330
65D
102
}
330
1F
100
AcDbEntity
  8
実線
100
AcDbLine
 10
449.4822158451762
 20
586.6310551915431
 30
0.0
 11
449.4822158451762
 21
533.2310551915431
 31
0.0
  0
LINE
  5
62B
102
{ACAD_REACTORS
330
65E
102
}
330
1F
100
AcDbEntity
  8
中心線
100
AcDbLine
 10
448.1277572703732
 20
1016.628529874598
 30
0.0
 11
448.1277572703732
 21
991.6285298745984
 31
0.0
  0
LINE
  5
62C
102
{ACAD_REACTORS
330
65E
102
}
330
1F
100
AcDbEntity
  8
中心線
100
AcDbLine
 10
435.6277572703732
 20
1004.128529874598
 30
0.0
 11
460.6277572703732
 21
1004.128529874598
 31
0.0
  0
LINE
  5
62D
102
{ACAD_REACTORS
330
65E
102
}
330
1F
100
AcDbEntity
  8
中心線
100
AcDbLine
 10
448.1277572703784
 20
917.6335805084816
 30
0.0
 11
448.1277572703784
 21
892.6335805084816
 31
0.0
  0
LINE
  5
62E
102
{ACAD_REACTORS
330
65E
102
}
330
1F
100
AcDbEntity
  8
中心線
100
AcDbLine
 10
435.6277572703784
 20
905.1335805084816
 30
0.0
 11
460.6277572703784
 21
905.1335805084816
 31
0.0
  0
LINE
  5
62F
102
{ACAD_REACTORS
330
65E
102
}
330
1F
100
AcDbEntity
  8
中心線
100
AcDbLine
 10
547.1227066364949
 20
917.6335805084866
 30
0.0
 11
547.1227066364949
 21
892.6335805084866
 31
0.0
  0
LINE
  5
630
102
{ACAD_REACTORS
330
65E
102
}
330
1F
100
AcDbEntity
  8
中心線
100
AcDbLine
 10
534.6227066364949
 20
905.1335805084866
 30
0.0
 11
559.6227066364945
 21
905.1335805084866
 31
0.0
  0
LINE
  5
631
102
{ACAD_REACTORS
330
65E
102
}
330
1F
100
AcDbEntity
  8
中心線
100
AcDbLine
 10
547.12270663649
 20
1016.628529874603
 30
0.0
 11
547.12270663649
 21
991.6285298746036
 31
0.0
  0
LINE
  5
632
102
{ACAD_REACTORS
330
65E
102
}
330
1F
100
AcDbEntity
  8
中心線
100
AcDbLine
 10
534.62270663649
 20
1004.128529874603
 30
0.0
 11
559.6227066364895
 21
1004.128529874603
 31
0.0
  0
LINE
  5
633
102
{ACAD_REACTORS
330
65E
102
}
330
1F
100
AcDbEntity
  8
中心線
100
AcDbLine
 10
337.6252319534342
 20
954.6310551915425
 30
0.0
 11
657.6252319534342
 21
954.6310551915425
 31
0.0
  0
LINE
  5
634
102
{ACAD_REACTORS
330
65E
102
}
330
1F
100
AcDbEntity
  8
中心線
100
AcDbLine
 10
497.6252319534341
 20
854.6310551915425
 30
0.0
 11
497.6252319534341
 21
1054.631055191542
 31
0.0
  0
LINE
  5
635
102
{ACAD_REACTORS
330
65F
102
}
330
1F
100
AcDbEntity
  8
中心線
100
AcDbLine
 10
448.1277572703732
 20
176.6285298745987
 30
0.0
 11
448.1277572703732
 21
151.6285298745987
 31
0.0
  0
LINE
  5
636
102
{ACAD_REACTORS
330
65F
102
}
330
1F
100
AcDbEntity
  8
中心線
100
AcDbLine
 10
435.6277572703732
 20
164.1285298745987
 30
0.0
 11
460.6277572703732
 21
164.1285298745987
 31
0.0
  0
LINE
  5
637
102
{ACAD_REACTORS
330
65F
102
}
330
1F
100
AcDbEntity
  8
中心線
100
AcDbLine
 10
448.1277572703784
 20
77.63358050848228
 30
0.0
 11
448.1277572703784
 21
52.63358050848217
 31
0.0
  0
LINE
  5
638
102
{ACAD_REACTORS
330
65F
102
}
330
1F
100
AcDbEntity
  8
中心線
100
AcDbLine
 10
435.6277572703784
 20
65.13358050848217
 30
0.0
 11
460.6277572703784
 21
65.13358050848217
 31
0.0
  0
LINE
  5
639
102
{ACAD_REACTORS
330
65F
102
}
330
1F
100
AcDbEntity
  8
中心線
100
AcDbLine
 10
547.1227066364949
 20
77.63358050848728
 30
0.0
 11
547.1227066364949
 21
52.63358050848728
 31
0.0
  0
LINE
  5
63A
102
{ACAD_REACTORS
330
65F
102
}
330
1F
100
AcDbEntity
  8
中心線
100
AcDbLine
 10
534.6227066364949
 20
65.13358050848728
 30
0.0
 11
559.6227066364945
 21
65.13358050848728
 31
0.0
  0
LINE
  5
63B
102
{ACAD_REACTORS
330
65F
102
}
330
1F
100
AcDbEntity
  8
中心線
100
AcDbLine
 10
547.12270663649
 20
176.6285298746037
 30
0.0
 11
547.12270663649
 21
151.6285298746037
 31
0.0
  0
LINE
  5
63C
102
{ACAD_REACTORS
330
65F
102
}
330
1F
100
AcDbEntity
  8
中心線
100
AcDbLine
 10
534.62270663649
 20
164.1285298746037
 30
0.0
 11
559.6227066364895
 21
164.1285298746037
 31
0.0
  0
LINE
  5
63D
102
{ACAD_REACTORS
330
65F
102
}
330
1F
100
AcDbEntity
  8
中心線
100
AcDbLine
 10
337.6252319534344
 20
114.631055191543
 30
0.0
 11
657.6252319534344
 21
114.631055191543
 31
0.0
  0
LINE
  5
63E
102
{ACAD_REACTORS
330
65F
102
}
330
1F
100
AcDbEntity
  8
中心線
100
AcDbLine
 10
497.6252319534341
 20
14.6310551915426
 30
0.0
 11
497.6252319534343
 21
214.6310551915426
 31
0.0
  0
LINE
  5
63F
102
{ACAD_REACTORS
330
65A
102
}
330
1F
100
AcDbEntity
  8
中心線
100
AcDbLine
 10
1118.562158500603
 20
667.131055191543
 30
0.0
 11
1316.688305406264
 21
667.131055191543
 31
0.0
  0
LINE
  5
640
102
{ACAD_REACTORS
330
65A
102
}
330
1F
100
AcDbEntity
  8
中心線
100
AcDbLine
 10
1217.625231953434
 20
273.6775889594809
 30
0.0
 11
1217.625231953434
 21
727.1310551915429
 31
0.0
  0
LINE
  5
641
102
{ACAD_REACTORS
330
65A
102
}
330
1F
100
AcDbEntity
  8
中心線
100
AcDbLine
 10
1316.688305406264
 20
667.131055191543
 30
0.0
 11
1355.27022464714
 21
628.5491359506675
 31
0.0
  0
LINE
  5
649
102
{ACAD_REACTORS
330
65B
102
}
330
1F
100
AcDbEntity
  8
中心線
100
AcDbLine
 10
857.6252319534342
 20
273.6775889594811
 30
0.0
 11
857.6252319534342
 21
727.1310551915429
 31
0.0
  0
LINE
  5
64A
102
{ACAD_REACTORS
330
65B
102
}
330
1F
100
AcDbEntity
  8
中心線
100
AcDbLine
 10
797.6252319534341
 20
667.1310551915429
 30
0.0
 11
917.6252319534341
 21
667.1310551915429
 31
0.0
  0
LINE
  5
655
102
{ACAD_REACTORS
330
65D
102
}
330
1F
100
AcDbEntity
  8
中心線
100
AcDbLine
 10
596.6883054062646
 20
667.131055191543
 30
0.0
 11
398.5621585006037
 21
667.131055191543
 31
0.0
  0
LINE
  5
656
102
{ACAD_REACTORS
330
65D
102
}
330
1F
100
AcDbEntity
  8
中心線
100
AcDbLine
 10
497.6252319534341
 20
273.6775889594813
 30
0.0
 11
497.6252319534341
 21
727.1310551915429
 31
0.0
  0
LINE
  5
657
102
{ACAD_REACTORS
330
65D
102
}
330
1F
100
AcDbEntity
  8
中心線
100
AcDbLine
 10
398.5621585006037
 20
667.131055191543
 30
0.0
 11
359.9802392597287
 21
628.5491359506672
 31
0.0
  0
LINE
  5
658
102
{ACAD_REACTORS
330
65C
102
}
330
1F
100
AcDbEntity
  8
中心線
100
AcDbLine
 10
137.6252319522073
 20
273.6775889594814
 30
0.0
 11
137.6252319522073
 21
727.131055191543
 31
0.0
  0
LINE
  5
659
102
{ACAD_REACTORS
330
65C
102
}
330
1F
100
AcDbEntity
  8
中心線
100
AcDbLine
 10
77.62523195220729
 20
667.131055191543
 30
0.0
 11
197.6252319522073
 21
667.131055191543
 31
0.0
  0
ENDSEC
  0
SECTION
  2
OBJECTS
  0
DICTIONARY
  5
C
330
0
100
AcDbDictionary
281
     1
  3
ACAD_CIP_PREVIOUS_PRODUCT_INFO
350
239
  3
ACAD_COLOR
350
22F
  3
ACAD_DETAILVIEWSTYLE
350
232
  3
ACAD_GROUP
350
D
  3
ACAD_LAYOUT
350
1A
  3
ACAD_MATERIAL
350
43
  3
ACAD_MLEADERSTYLE
350
5B
  3
ACAD_MLINESTYLE
350
17
  3
ACAD_PLOTSETTINGS
350
19
  3
ACAD_PLOTSTYLENAME
350
E
  3
ACAD_SCALELIST
350
47
  3
ACAD_SECTIONVIEWSTYLE
350
230
  3
ACAD_TABLESTYLE
350
59
  3
ACAD_VISUALSTYLE
350
2A
  3
ACDB_RECOMPOSE_DATA
350
6BB
  3
AcDbVariableDictionary
350
1E4
  3
DWGPROPS
350
6BC
  0
DICTIONARY
  5
240
330
2
100
AcDbDictionary
280
     1
281
     1
  3
ACAD_LAYERSTATES
360
241
  0
DICTIONARY
  5
660
330
10
100
AcDbDictionary
280
     1
281
     1
  3
ADSK_XREC_LAYER_RECONCILED
360
661
  0
DICTIONARY
  5
23C
330
23B
100
AcDbDictionary
280
     1
281
     1
  3
ADSK_XREC_LAYER_RECONCILED
360
662
  0
DICTIONARY
  5
23E
330
23D
100
AcDbDictionary
280
     1
281
     1
  3
ADSK_XREC_LAYER_RECONCILED
360
663
  0
DICTIONARY
  5
4FA
330
1F
100
AcDbDictionary
280
     1
281
     1
  3
ACAD_SORTENTS
360
4FB
  0
XRECORD
  5
239
102
{ACAD_REACTORS
330
C
102
}
330
C
100
AcDbXrecord
280
     1
300
ACDLT
300
2016
300
ACDLT_F_S
  0
DICTIONARY
  5
22F
102
{ACAD_REACTORS
330
C
102
}
330
C
100
AcDbDictionary
281
     1
  0
DICTIONARY
  5
232
102
{ACAD_REACTORS
330
C
102
}
330
C
100
AcDbDictionary
281
     1
  3
Metric50
350
233
  0
DICTIONARY
  5
D
102
{ACAD_REACTORS
330
C
102
}
330
C
100
AcDbDictionary
281
     1
  3
*A1
350
65A
  3
*A2
350
65B
  3
*A3
350
65C
  3
*A4
350
65D
  3
*A5
350
65E
  3
*A6
350
65F
  0
DICTIONARY
  5
1A
102
{ACAD_REACTORS
330
C
102
}
330
C
100
AcDbDictionary
281
     1
  3
Layout1
350
1E
  3
Model
350
22
  3
レイアウト1
350
234
  0
DICTIONARY
  5
43
102
{ACAD_REACTORS
330
C
102
}
330
C
100
AcDbDictionary
281
     1
  3
ByBlock
350
45
  3
ByLayer
350
44
  3
Global
350
46
  0
DICTIONARY
  5
5B
102
{ACAD_REACTORS
330
C
102
}
330
C
100
AcDbDictionary
281
     1
  3
Standard
350
5C
  0
DICTIONARY
  5
17
102
{ACAD_REACTORS
330
C
102
}
330
C
100
AcDbDictionary
281
     1
  3
Standard
350
18
  0
DICTIONARY
  5
19
102
{ACAD_REACTORS
330
C
102
}
330
C
100
AcDbDictionary
281
     1
  0
ACDBDICTIONARYWDFLT
  5
E
102
{ACAD_REACTORS
330
C
102
}
330
C
100
AcDbDictionary
281
     1
  3
Normal
350
F
100
AcDbDictionaryWithDefault
340
F
  0
DICTIONARY
  5
47
102
{ACAD_REACTORS
330
C
102
}
330
C
100
AcDbDictionary
281
     1
  3
A0
350
48
  3
A1
350
49
  3
A2
350
4A
  3
A3
350
4B
  3
A4
350
4C
  3
A5
350
4D
  3
A6
350
4E
  3
A7
350
4F
  3
A8
350
50
  3
A9
350
51
  3
B0
350
52
  3
B1
350
53
  3
B2
350
54
  3
B3
350
55
  3
B4
350
56
  3
B5
350
57
  3
B6
350
58
  0
DICTIONARY
  5
230
102
{ACAD_REACTORS
330
C
102
}
330
C
100
AcDbDictionary
281
     1
  3
Metric50
350
231
  0
DICTIONARY
  5
59
102
{ACAD_REACTORS
330
C
102
}
330
C
100
AcDbDictionary
281
     1
  3
Standard
350
5A
  0
DICTIONARY
  5
2A
102
{ACAD_REACTORS
330
C
102
}
330
C
100
AcDbDictionary
281
     1
  3
2dWireframe
350
2F
  3
Basic
350
32
  3
Brighten
350
36
  3
ColorChange
350
3A
  3
Conceptual
350
34
  3
Dim
350
35
  3
EdgeColorOff
350
3D
  3
Facepattern
350
39
  3
Flat
350
2B
  3
FlatWithEdges
350
2C
  3
Gouraud
350
2D
  3
GouraudWithEdges
350
2E
  3
Hidden
350
31
  3
JitterOff
350
3B
  3
Linepattern
350
38
  3
OverhangOff
350
3C
  3
Realistic
350
33
  3
Shaded
350
42
  3
Shaded with edges
350
41
  3
Shades of Gray
350
3E
  3
Sketchy
350
3F
  3
Thicken
350
37
  3
Wireframe
350
30
  3
X-Ray
350
40
  0
XRECORD
  5
6BB
102
{ACAD_REACTORS
330
C
102
}
330
C
100
AcDbXrecord
280
     1
 90
        1
330
5A
  0
DICTIONARY
  5
1E4
102
{ACAD_REACTORS
330
C
102
}
330
C
100
AcDbDictionary
281
     1
  3
CANNOSCALE
350
1F2
  3
CENTEREXE
350
1EB
  3
CENTERLTYPEFILE
350
1EC
  3
CMLEADERSTYLE
350
1E6
  3
CTABLESTYLE
350
1E5
  3
CVIEWDETAILSTYLE
350
664
  3
CVIEWSECTIONSTYLE
350
665
  3
DIMASSOC
350
1ED
  3
HIDETEXT
350
1EE
  3
INDEXCTL
350
6B3
  3
LAYEREVAL
350
667
  3
LAYERNOTIFY
350
668
  3
LIGHTINGUNITS
350
666
  3
LOFTANG1
350
6B6
  3
LOFTANG2
350
6B7
  3
LONGITUDE
350
6B8
  3
MSLTSCALE
350
1F3
  3
PSOLHEIGHT
350
6B5
  3
PSOLWIDTH
350
6B4
  3
SORTENTS
350
6B2
  3
XCLIPFRAME
350
6B9
  0
XRECORD
  5
6BC
102
{ACAD_REACTORS
330
C
102
}
330
C
100
AcDbXrecord
280
     1
  1
DWGPROPS COOKIE
  2

  3

  4

  6
File was created by TR2_DExp
  7

  8
fujino
  9

300
=
301
=
302
=
303
=
304
=
305
=
306
=
307
=
308
=
309
=
 40
0.0204044328703704
 41
2455188.75
 42
2459759.409282002
  1

 90
        0
  0
DICTIONARY
  5
241
102
{ACAD_REACTORS
330
240
102
}
330
240
100
AcDbDictionary
281
     1
  0
XRECORD
  5
661
102
{ACAD_REACTORS
330
660
102
}
330
660
100
AcDbXrecord
280
     1
290
     1
  0
XRECORD
  5
662
102
{ACAD_REACTORS
330
23C
102
}
330
23C
100
AcDbXrecord
280
     1
290
     1
  0
XRECORD
  5
663
102
{ACAD_REACTORS
330
23E
102
}
330
23E
100
AcDbXrecord
280
     1
290
     1
  0
SORTENTSTABLE
  5
4FB
102
{ACAD_REACTORS
330
4FA
102
}
330
4FA
100
AcDbSortentsTable
330
1F
331
506
  5
499
331
574
  5
416
331
502
  5
495
331
53D
  5
462
331
570
  5
412
331
5AF
  5
3D8
331
5AB
  5
3D4
331
4F2
  5
4E3
331
539
  5
45E
331
56C
  5
40E
331
5E6
  5
389
331
568
  5
48D
331
5E2
  5
40B
331
4CF
  5
4C0
331
4CB
  5
4BC
331
5DE
  5
407
331
61D
  5
3C0
331
640
  5
640
331
5DA
  5
403
331
619
  5
3BC
331
5A7
  5
3D0
331
535
  5
45A
331
531
  5
456
331
564
  5
489
331
5A3
  5
445
331
4EA
  5
4DB
331
4E6
  5
4D7
331
52D
  5
452
331
560
  5
485
331
59F
  5
441
331
4E2
  5
4D3
331
529
  5
44E
331
656
  5
656
331
4C7
  5
4B8
331
55C
  5
481
331
59B
  5
43D
331
615
  5
3B8
331
5D6
  5
3FF
331
558
  5
47D
331
5D2
  5
3FB
331
611
  5
3B4
331
64A
  5
64A
331
5CE
  5
3F7
331
60D
  5
3B0
331
5CA
  5
3F3
331
609
  5
3AC
331
597
  5
439
331
4DE
  5
4CF
331
525
  5
44A
331
521
  5
4B4
331
554
  5
479
331
593
  5
435
331
4DA
  5
4CB
331
51D
  5
4B0
331
550
  5
475
331
58F
  5
431
331
4D6
  5
4C7
331
4D2
  5
4C3
331
63E
  5
63E
331
54C
  5
471
331
58B
  5
42D
331
63A
  5
63A
331
605
  5
3A8
331
5C6
  5
3EF
331
548
  5
46D
331
636
  5
636
331
601
  5
3A4
331
5C2
  5
3EB
331
632
  5
632
331
5BE
  5
3E7
331
5FD
  5
3A0
331
5BA
  5
3E3
331
5F9
  5
39C
331
587
  5
429
331
544
  5
469
331
583
  5
425
331
511
  5
4A4
331
50D
  5
4A0
331
540
  5
465
331
57F
  5
421
331
509
  5
49C
331
62E
  5
62E
331
4FF
  5
492
331
57B
  5
41D
331
62A
  5
3CD
331
5B6
  5
3DF
331
5F5
  5
398
331
626
  5
3C9
331
5F1
  5
394
331
5B2
  5
3DB
331
622
  5
3C5
331
5ED
  5
390
331
5E9
  5
38C
331
577
  5
419
331
505
  5
498
331
573
  5
415
331
501
  5
494
331
4F5
  5
4E6
331
53C
  5
461
331
56F
  5
411
331
5AE
  5
3D7
331
5AA
  5
3D3
331
538
  5
45D
331
56B
  5
40D
331
5E5
  5
388
331
4CE
  5
4BF
331
5E1
  5
40A
331
4CA
  5
4BB
331
5DD
  5
406
331
61C
  5
3BF
331
5D9
  5
402
331
618
  5
3BB
331
567
  5
48C
331
5A6
  5
3CF
331
534
  5
459
331
530
  5
455
331
563
  5
488
331
5A2
  5
444
331
4E9
  5
4DA
331
4E5
  5
4D6
331
52C
  5
451
331
55F
  5
484
331
59E
  5
440
331
59A
  5
43C
331
4E1
  5
4D2
331
528
  5
44D
331
655
  5
655
331
4C6
  5
4B7
331
55B
  5
480
331
614
  5
3B7
331
5D5
  5
3FE
331
5D1
  5
3FA
331
610
  5
3B3
331
649
  5
649
331
5CD
  5
3F6
331
60C
  5
3AF
331
5C9
  5
3F2
331
608
  5
3AB
331
596
  5
438
331
4DD
  5
4CE
331
524
  5
449
331
557
  5
47C
331
520
  5
4B3
331
553
  5
478
331
592
  5
434
331
4D9
  5
4CA
331
4D5
  5
4C6
331
54F
  5
474
331
58E
  5
430
331
4D1
  5
4C2
331
63D
  5
63D
331
54B
  5
470
331
58A
  5
42C
331
639
  5
639
331
604
  5
3A7
331
5C5
  5
3EE
331
635
  5
635
331
5C1
  5
3EA
331
600
  5
3A3
331
631
  5
631
331
5BD
  5
3E6
331
5FC
  5
39F
331
5B9
  5
3E2
331
5F8
  5
39B
331
586
  5
428
331
514
  5
4A7
331
547
  5
46C
331
510
  5
4A3
331
543
  5
468
331
582
  5
424
331
50C
  5
49F
331
57E
  5
420
331
508
  5
49B
331
62D
  5
62D
331
4FE
  5
491
331
57A
  5
41C
331
5F4
  5
397
331
5B5
  5
3DE
331
629
  5
3CC
331
625
  5
3C8
331
5F0
  5
393
331
5B1
  5
3DA
331
621
  5
3C4
331
5EC
  5
38F
331
5E8
  5
38B
331
576
  5
418
331
504
  5
497
331
53F
  5
464
331
572
  5
414
331
500
  5
493
331
53B
  5
460
331
56E
  5
410
331
5AD
  5
3D6
331
5A9
  5
3D2
331
56A
  5
40C
331
5E4
  5
387
331
4CD
  5
4BE
331
5E0
  5
409
331
61F
  5
3C2
331
4C9
  5
4BA
331
5DC
  5
405
331
61B
  5
3BE
331
5D8
  5
401
331
537
  5
45C
331
566
  5
48B
331
5A5
  5
3CE
331
4EC
  5
4DD
331
533
  5
458
331
52F
  5
454
331
562
  5
487
331
5A1
  5
443
331
4E8
  5
4D9
331
4E4
  5
4D5
331
52B
  5
450
331
55E
  5
483
331
59D
  5
43F
331
599
  5
43B
331
4E0
  5
4D1
331
4C5
  5
4B6
331
55A
  5
47F
331
617
  5
3BA
331
613
  5
3B6
331
5D4
  5
3FD
331
5D0
  5
3F9
331
60F
  5
3B2
331
659
  5
659
331
5CC
  5
3F5
331
60B
  5
3AE
331
5C8
  5
3F1
331
527
  5
44C
331
556
  5
47B
331
595
  5
437
331
4DC
  5
4CD
331
523
  5
448
331
552
  5
477
331
591
  5
433
331
4D8
  5
4C9
331
4D4
  5
4C5
331
54E
  5
473
331
58D
  5
42F
331
589
  5
42B
331
4D0
  5
4C1
331
63C
  5
63C
331
54A
  5
46F
331
607
  5
3AA
331
638
  5
638
331
603
  5
3A6
331
5C4
  5
3ED
331
634
  5
634
331
5C0
  5
3E9
331
5FF
  5
3A2
331
630
  5
630
331
5BC
  5
3E5
331
5FB
  5
39E
331
5B8
  5
3E1
331
517
  5
4AA
331
585
  5
427
331
513
  5
4A6
331
546
  5
46B
331
50F
  5
4A2
331
542
  5
467
331
581
  5
423
331
50B
  5
49E
331
57D
  5
41F
331
62C
  5
62C
331
4FD
  5
490
331
5F7
  5
39A
331
579
  5
41B
331
5F3
  5
396
331
4F9
  5
4EA
331
5B4
  5
3DD
331
628
  5
3CB
331
624
  5
3C7
331
5B0
  5
3D9
331
5EF
  5
392
331
620
  5
3C3
331
5EB
  5
38E
331
507
  5
49A
331
575
  5
417
331
503
  5
496
331
53E
  5
463
331
571
  5
413
331
53A
  5
45F
331
56D
  5
40F
331
5AC
  5
3D5
331
5A8
  5
3D1
331
5E7
  5
38A
331
569
  5
48E
331
5E3
  5
386
331
4CC
  5
4BD
331
5DF
  5
408
331
61E
  5
3C1
331
641
  5
641
331
4C8
  5
4B9
331
5DB
  5
404
331
61A
  5
3BD
331
4EF
  5
4E0
331
536
  5
45B
331
532
  5
457
331
565
  5
48A
331
5A4
  5
446
331
4EB
  5
4DC
331
52E
  5
453
331
561
  5
486
331
5A0
  5
442
331
4E7
  5
4D8
331
4E3
  5
4D4
331
52A
  5
44F
331
657
  5
657
331
55D
  5
482
331
59C
  5
43E
331
598
  5
43A
331
616
  5
3B9
331
4C4
  5
4B5
331
5D7
  5
400
331
559
  5
47E
331
612
  5
3B5
331
5D3
  5
3FC
331
5CF
  5
3F8
331
60E
  5
3B1
331
658
  5
658
331
5CB
  5
3F4
331
60A
  5
3AD
331
4DF
  5
4D0
331
526
  5
44B
331
555
  5
47A
331
594
  5
436
331
4DB
  5
4CC
331
522
  5
447
331
551
  5
476
331
590
  5
432
331
4D7
  5
4C8
331
4D3
  5
4C4
331
51A
  5
4AD
331
63F
  5
63F
331
54D
  5
472
331
58C
  5
42E
331
588
  5
42A
331
63B
  5
63B
331
549
  5
46E
331
5C7
  5
3F0
331
606
  5
3A9
331
637
  5
637
331
602
  5
3A5
331
5C3
  5
3EC
331
633
  5
633
331
5BF
  5
3E8
331
5FE
  5
3A1
331
5BB
  5
3E4
331
5FA
  5
39D
331
545
  5
46A
331
584
  5
426
331
512
  5
4A5
331
50E
  5
4A1
331
541
  5
466
331
580
  5
422
331
50A
  5
49D
331
62F
  5
62F
331
57C
  5
41E
331
62B
  5
62B
331
578
  5
41A
331
4FC
  5
48F
331
5B7
  5
3E0
331
5F6
  5
399
331
627
  5
3CA
331
5F2
  5
395
331
4F8
  5
4E9
331
5B3
  5
3DC
331
623
  5
3C6
331
5EE
  5
391
331
5EA
  5
38D
  0
ACDBDETAILVIEWSTYLE
  5
233
102
{ACAD_XDICTIONARY
360
6F4
102
}
102
{ACAD_REACTORS
330
232
102
}
330
232
100
AcDbModelDocViewStyle
 70
     0
  3
Metric50
290
     0
100
AcDbDetailViewStyle
 70
     0
 71
     0
 90
        3
 71
     1
340
11
 40
5.0
340
0
 40
5.0
300

 40
0.0
280
     1
 71
     2
340
16
 90
       25
 71
     3
340
11
 40
5.0
 90
        0
 40
15.0
 90
        1
300
%<\AcVar ViewDetailId>% (%<\AcVar ViewScale \f "%sn">%)
 71
     4
340
16
 90
       25
340
16
 90
       25
280
     0
  0
GROUP
  5
65A
102
{ACAD_REACTORS
330
D
102
}
330
D
100
AcDbGroup
300

 70
     1
 71
     1
340
641
340
640
340
63F
340
569
340
568
340
567
340
566
340
565
340
564
340
563
340
562
340
561
340
560
340
55F
340
55E
340
55D
340
55C
340
55B
340
55A
340
559
340
558
340
557
340
556
340
555
340
554
340
553
340
552
340
551
340
550
340
54F
340
54E
340
54D
340
54C
340
54B
340
54A
340
549
340
548
340
547
340
546
340
545
340
544
340
543
340
542
340
541
340
540
340
53F
340
53E
340
53D
340
53C
340
53B
340
53A
340
539
340
538
340
537
340
536
340
535
340
534
340
533
340
532
340
531
340
530
340
52F
340
52E
340
52D
340
52C
340
52B
340
52A
340
529
340
528
340
527
340
526
340
525
340
524
340
523
340
522
  0
GROUP
  5
65B
102
{ACAD_REACTORS
330
D
102
}
330
D
100
AcDbGroup
300

 70
     1
 71
     1
340
64A
340
649
340
5A4
340
5A3
340
5A2
340
5A1
340
5A0
340
59F
340
59E
340
59D
340
59C
340
59B
340
59A
340
599
340
598
340
597
340
596
340
595
340
594
340
593
340
592
340
591
340
590
340
58F
340
58E
340
58D
340
58C
340
58B
340
58A
340
589
340
588
340
587
340
586
340
585
340
584
340
583
340
582
340
581
340
580
340
57F
340
57E
340
57D
340
57C
340
57B
340
57A
340
579
340
578
340
577
340
576
340
575
340
574
340
573
340
572
340
571
340
570
340
56F
340
56E
340
56D
340
56C
340
56B
340
56A
  0
GROUP
  5
65C
102
{ACAD_REACTORS
330
D
102
}
330
D
100
AcDbGroup
300

 70
     1
 71
     1
340
659
340
658
340
5E2
340
5E1
340
5E0
340
5DF
340
5DE
340
5DD
340
5DC
340
5DB
340
5DA
340
5D9
340
5D8
340
5D7
340
5D6
340
5D5
340
5D4
340
5D3
340
5D2
340
5D1
340
5D0
340
5CF
340
5CE
340
5CD
340
5CC
340
5CB
340
5CA
340
5C9
340
5C8
340
5C7
340
5C6
340
5C5
340
5C4
340
5C3
340
5C2
340
5C1
340
5C0
340
5BF
340
5BE
340
5BD
340
5BC
340
5BB
340
5BA
340
5B9
340
5B8
340
5B7
340
5B6
340
5B5
340
5B4
340
5B3
340
5B2
340
5B1
340
5B0
340
5AF
340
5AE
340
5AD
340
5AC
340
5AB
340
5AA
340
5A9
340
5A8
340
5A7
340
5A6
340
5A5
  0
GROUP
  5
65D
102
{ACAD_REACTORS
330
D
102
}
330
D
100
AcDbGroup
300

 70
     1
 71
     1
340
657
340
656
340
655
340
62A
340
629
340
628
340
627
340
626
340
625
340
624
340
623
340
622
340
621
340
620
340
61F
340
61E
340
61D
340
61C
340
61B
340
61A
340
619
340
618
340
617
340
616
340
615
340
614
340
613
340
612
340
611
340
610
340
60F
340
60E
340
60D
340
60C
340
60B
340
60A
340
609
340
608
340
607
340
606
340
605
340
604
340
603
340
602
340
601
340
600
340
5FF
340
5FE
340
5FD
340
5FC
340
5FB
340
5FA
340
5F9
340
5F8
340
5F7
340
5F6
340
5F5
340
5F4
340
5F3
340
5F2
340
5F1
340
5F0
340
5EF
340
5EE
340
5ED
340
5EC
340
5EB
340
5EA
340
5E9
340
5E8
340
5E7
340
5E6
340
5E5
340
5E4
340
5E3
  0
GROUP
  5
65E
102
{ACAD_REACTORS
330
D
102
}
330
D
100
AcDbGroup
300

 70
     1
 71
     1
340
634
340
633
340
632
340
631
340
630
340
62F
340
62E
340
62D
340
62C
340
62B
340
521
340
520
340
51D
340
51A
340
517
340
514
340
513
340
512
340
511
340
510
340
50F
340
50E
340
50D
340
50C
340
50B
340
50A
340
509
340
508
340
507
340
506
340
505
340
504
340
503
340
502
340
501
340
500
340
4FF
340
4FE
340
4FD
340
4FC
  0
GROUP
  5
65F
102
{ACAD_REACTORS
330
D
102
}
330
D
100
AcDbGroup
300

 70
     1
 71
     1
340
63E
340
63D
340
63C
340
63B
340
63A
340
639
340
638
340
637
340
636
340
635
340
4F9
340
4F8
340
4F5
340
4F2
340
4EF
340
4EC
340
4EB
340
4EA
340
4E9
340
4E8
340
4E7
340
4E6
340
4E5
340
4E4
340
4E3
340
4E2
340
4E1
340
4E0
340
4DF
340
4DE
340
4DD
340
4DC
340
4DB
340
4DA
340
4D9
340
4D8
340
4D7
340
4D6
340
4D5
340
4D4
340
4D3
340
4D2
340
4D1
340
4D0
340
4CF
340
4CE
340
4CD
340
4CC
340
4CB
340
4CA
340
4C9
340
4C8
340
4C7
340
4C6
340
4C5
340
4C4
  0
LAYOUT
  5
1E
102
{ACAD_XDICTIONARY
360
6BD
102
}
102
{ACAD_REACTORS
330
1A
102
}
330
1A
100
AcDbPlotSettings
  1

  2
none_device
  4

  6

 40
0.0
 41
0.0
 42
0.0
 43
0.0
 44
0.0
 45
0.0
 46
0.0
 47
0.0
 48
0.0
 49
0.0
140
0.0
141
0.0
142
1.0
143
1.0
 70
   688
 72
     1
 73
     0
 74
     5
  7

 75
    16
147
1.0
148
0.0
149
0.0
100
AcDbLayout
  1
Layout1
 70
     1
 71
     1
 10
0.0
 20
0.0
 11
420.0
 21
297.0
 12
0.0
 22
0.0
 32
0.0
 14
1.000000000000000E+20
 24
1.000000000000000E+20
 34
1.000000000000000E+20
 15
-1.000000000000000E+20
 25
-1.000000000000000E+20
 35
-1.000000000000000E+20
146
0.0
 13
0.0
 23
0.0
 33
0.0
 16
1.0
 26
0.0
 36
0.0
 17
0.0
 27
1.0
 37
0.0
 76
     0
330
1B
  0
LAYOUT
  5
22
102
{ACAD_XDICTIONARY
360
6BF
102
}
102
{ACAD_REACTORS
330
1A
102
}
330
1A
100
AcDbPlotSettings
  1

  2
none_device
  4
Letter_(8.50_x_11.00_Inches)
  6

 40
6.349999999999998
 41
6.349999999999998
 42
6.350005079999998
 43
6.350005079999998
 44
215.9
 45
279.4
 46
0.0
 47
0.0
 48
0.0
 49
0.0
140
0.0
141
0.0
142
1.0
143
1.0
 70
  1712
 72
     1
 73
     0
 74
     0
  7

 75
     0
147
1.0
148
0.0
149
0.0
100
AcDbLayout
  1
Model
 70
     1
 71
     0
 10
-626.3369827270508
 20
-765.5857734680174
 11
1116.866161217193
 21
392.3502922058105
 12
0.0
 22
0.0
 32
0.0
 14
-626.3369827270508
 24
-765.5857734680174
 34
0.0
 15
1116.866161217193
 25
392.3502922058105
 35
0.0
146
0.0
 13
0.0
 23
0.0
 33
0.0
 16
1.0
 26
0.0
 36
0.0
 17
0.0
 27
1.0
 37
0.0
 76
     0
330
1F
331
29
  0
LAYOUT
  5
234
102
{ACAD_XDICTIONARY
360
6F6
102
}
102
{ACAD_REACTORS
330
1A
102
}
330
1A
100
AcDbPlotSettings
  1

  2
青梅 FX DocuCentre-V C2275 T2
  4

  6

 40
0.0
 41
0.0
 42
0.0
 43
0.0
 44
0.0
 45
0.0
 46
0.0
 47
0.0
 48
0.0
 49
0.0
140
0.0
141
0.0
142
1.0
143
1.0
 70
   688
 72
     0
 73
     0
 74
     5
  7
AutoCAD_PEN.ctb
 75
    16
147
1.0
148
0.0
149
0.0
100
AcDbLayout
  1
レイアウト1
 70
     1
 71
     2
 10
0.0
 20
0.0
 11
12.0
 21
9.0
 12
0.0
 22
0.0
 32
0.0
 14
0.0
 24
0.0
 34
0.0
 15
0.0
 25
0.0
 35
0.0
146
0.0
 13
0.0
 23
0.0
 33
0.0
 16
1.0
 26
0.0
 36
0.0
 17
0.0
 27
1.0
 37
0.0
 76
     0
330
23
  0
MATERIAL
  5
45
102
{ACAD_XDICTIONARY
360
226
102
}
102
{ACAD_REACTORS
330
43
102
}
330
43
100
AcDbMaterial
  1
ByBlock
  0
MATERIAL
  5
44
102
{ACAD_XDICTIONARY
360
224
102
}
102
{ACAD_REACTORS
330
43
102
}
330
43
100
AcDbMaterial
  1
ByLayer
  0
MATERIAL
  5
46
102
{ACAD_XDICTIONARY
360
228
102
}
102
{ACAD_REACTORS
330
43
102
}
330
43
100
AcDbMaterial
  1
Global
  0
MLEADERSTYLE
  5
5C
102
{ACAD_REACTORS
330
5B
102
}
330
5B
100
AcDbMLeaderStyle
170
     2
171
     1
172
     0
 90
        2
 40
0.0
 41
0.0
173
     1
 91
-1056964608
340
14
 92
       -2
290
     1
 42
2.0
291
     1
 43
8.0
  3
Standard
 44
4.0
300

342
11
174
     1
178
     6
175
     1
176
     0
 93
-1056964608
 45
4.0
292
     0
297
     0
 46
4.0
 94
-1056964608
 47
1.0
 49
1.0
140
1.0
293
     1
141
0.0
294
     1
177
     0
142
1.0
295
     0
296
     0
143
3.75
1001
ACAD_MLEADERVER
1070
     2
  0
MLINESTYLE
  5
18
102
{ACAD_REACTORS
330
17
102
}
330
17
100
AcDbMlineStyle
  2
STANDARD
 70
     0
  3

 62
   256
 51
90.0
 52
90.0
 71
     2
 49
0.5
 62
   256
  6
BYLAYER
 49
-0.5
 62
   256
  6
BYLAYER
  0
ACDBPLACEHOLDER
  5
F
102
{ACAD_REACTORS
330
E
102
}
330
E
  0
SCALE
  5
48
102
{ACAD_REACTORS
330
47
102
}
330
47
100
AcDbScale
 70
     0
300
1:1
140
1.0
141
1.0
290
     1
  0
SCALE
  5
49
102
{ACAD_REACTORS
330
47
102
}
330
47
100
AcDbScale
 70
     0
300
1:2
140
1.0
141
2.0
290
     0
  0
SCALE
  5
4A
102
{ACAD_REACTORS
330
47
102
}
330
47
100
AcDbScale
 70
     0
300
1:4
140
1.0
141
4.0
290
     0
  0
SCALE
  5
4B
102
{ACAD_REACTORS
330
47
102
}
330
47
100
AcDbScale
 70
     0
300
1:5
140
1.0
141
5.0
290
     0
  0
SCALE
  5
4C
102
{ACAD_REACTORS
330
47
102
}
330
47
100
AcDbScale
 70
     0
300
1:8
140
1.0
141
8.0
290
     0
  0
SCALE
  5
4D
102
{ACAD_REACTORS
330
47
102
}
330
47
100
AcDbScale
 70
     0
300
1:10
140
1.0
141
10.0
290
     0
  0
SCALE
  5
4E
102
{ACAD_REACTORS
330
47
102
}
330
47
100
AcDbScale
 70
     0
300
1:16
140
1.0
141
16.0
290
     0
  0
SCALE
  5
4F
102
{ACAD_REACTORS
330
47
102
}
330
47
100
AcDbScale
 70
     0
300
1:20
140
1.0
141
20.0
290
     0
  0
SCALE
  5
50
102
{ACAD_REACTORS
330
47
102
}
330
47
100
AcDbScale
 70
     0
300
1:30
140
1.0
141
30.0
290
     0
  0
SCALE
  5
51
102
{ACAD_REACTORS
330
47
102
}
330
47
100
AcDbScale
 70
     0
300
1:40
140
1.0
141
40.0
290
     0
  0
SCALE
  5
52
102
{ACAD_REACTORS
330
47
102
}
330
47
100
AcDbScale
 70
     0
300
1:50
140
1.0
141
50.0
290
     0
  0
SCALE
  5
53
102
{ACAD_REACTORS
330
47
102
}
330
47
100
AcDbScale
 70
     0
300
1:100
140
1.0
141
100.0
290
     0
  0
SCALE
  5
54
102
{ACAD_REACTORS
330
47
102
}
330
47
100
AcDbScale
 70
     0
300
2:1
140
2.0
141
1.0
290
     0
  0
SCALE
  5
55
102
{ACAD_REACTORS
330
47
102
}
330
47
100
AcDbScale
 70
     0
300
4:1
140
4.0
141
1.0
290
     0
  0
SCALE
  5
56
102
{ACAD_REACTORS
330
47
102
}
330
47
100
AcDbScale
 70
     0
300
8:1
140
8.0
141
1.0
290
     0
  0
SCALE
  5
57
102
{ACAD_REACTORS
330
47
102
}
330
47
100
AcDbScale
 70
     0
300
10:1
140
10.0
141
1.0
290
     0
  0
SCALE
  5
58
102
{ACAD_REACTORS
330
47
102
}
330
47
100
AcDbScale
 70
     0
300
100:1
140
100.0
141
1.0
290
     0
  0
ACDBSECTIONVIEWSTYLE
  5
231
102
{ACAD_XDICTIONARY
360
6F2
102
}
102
{ACAD_REACTORS
330
230
102
}
330
230
100
AcDbModelDocViewStyle
 70
     0
  3
Metric50
290
     0
100
AcDbSectionViewStyle
 70
     0
 71
     0
 90
      102
 71
     1
340
11
 40
5.0
340
0
340
0
 40
5.0
300
I, O, Q, S, X, Z
 40
10.0
 90
        0
 40
2.5
 90
        0
 71
     2
340
16
 90
       25
340
16
 90
       50
 40
5.0
 40
2.5
 40
5.0
 71
     3
340
11
 40
5.0
 90
        0
 40
15.0
 90
        1
300
%<\AcVar ViewSectionStartId>%-%<\AcVar ViewSectionEndId>% (%<\AcVar ViewScale \f "%sn">%)
 71
     4
300
ANSI31
 40
1.0
 90
        0
290
     0
290
     0
 90
        6
 40
0.0
 40
1.570796326794896
 40
0.2617993877991494
 40
1.308996938995747
 40
-0.2617993877991494
 40
1.832595714594045
  0
TABLESTYLE
  5
5A
102
{ACAD_XDICTIONARY
360
669
102
}
102
{ACAD_REACTORS
330
59
102
}
330
59
100
AcDbTableStyle
  3
Standard
 70
     0
 71
     0
 40
1.5
 41
1.5
280
     0
281
     0
  7
Standard
140
4.5
170
     2
 62
     0
 63
     7
283
     0
274
    -2
284
     1
 64
     0
275
    -2
285
     1
 65
     0
276
    -2
286
     1
 66
     0
277
    -2
287
     1
 67
     0
278
    -2
288
     1
 68
     0
279
    -2
289
     1
 69
     0
  7
Standard
140
6.0
170
     5
 62
     0
 63
     7
283
     0
274
    -2
284
     1
 64
     0
275
    -2
285
     1
 65
     0
276
    -2
286
     1
 66
     0
277
    -2
287
     1
 67
     0
278
    -2
288
     1
 68
     0
279
    -2
289
     1
 69
     0
  7
Standard
140
4.5
170
     5
 62
     0
 63
     7
283
     0
274
    -2
284
     1
 64
     0
275
    -2
285
     1
 65
     0
276
    -2
286
     1
 66
     0
277
    -2
287
     1
 67
     0
278
    -2
288
     1
 68
     0
279
    -2
289
     1
 69
     0
  0
VISUALSTYLE
  5
2F
102
{ACAD_XDICTIONARY
360
6C9
102
}
102
{ACAD_REACTORS
330
2A
102
}
330
2A
100
AcDbVisualStyle
  2

 70
     4
 71
     0
 72
     2
 73
     0
 90
        0
 40
-0.6
 41
-30.0
 62
     5
 63
     7
 74
     1
 91
        4
 64
     7
 65
   257
 75
     1
175
     1
 42
1.0
 92
        0
 66
   257
 43
1.0
 76
     1
 77
     6
 78
     2
 67
     7
 79
     5
170
     0
171
     0
290
     0
174
     0
 93
        1
 44
0.0
173
     0
291
     0
 45
0.0
1001
ACAD
1000
AcDbSavedByObjectVersion
1070
     0
  0
VISUALSTYLE
  5
32
102
{ACAD_XDICTIONARY
360
6CF
102
}
102
{ACAD_REACTORS
330
2A
102
}
330
2A
100
AcDbVisualStyle
  2

 70
     7
 71
     1
 72
     0
 73
     1
 90
        0
 40
-0.6
 41
-30.0
 62
     5
 63
     7
 74
     0
 91
        4
 64
     7
 65
   257
 75
     1
175
     1
 42
1.0
 92
        8
 66
     7
 43
1.0
 76
     1
 77
     6
 78
     2
 67
     7
 79
     5
170
     0
171
     0
290
     0
174
     0
 93
        1
 44
0.0
173
     0
291
     1
 45
0.0
1001
ACAD
1000
AcDbSavedByObjectVersion
1070
     0
  0
VISUALSTYLE
  5
36
102
{ACAD_XDICTIONARY
360
6D7
102
}
102
{ACAD_REACTORS
330
2A
102
}
330
2A
100
AcDbVisualStyle
  2

 70
    12
 71
     2
 72
     2
 73
     0
 90
        0
 40
-0.6
 41
-30.0
 62
     5
 63
     7
 74
     1
 91
        4
 64
     7
 65
   257
 75
     1
175
     1
 42
1.0
 92
        8
 66
     7
 43
1.0
 76
     1
 77
     6
 78
     2
 67
     7
 79
     5
170
     0
171
     0
290
     0
174
     0
 93
        1
 44
50.0
173
     0
291
     1
 45
0.0
1001
ACAD
1000
AcDbSavedByObjectVersion
1070
     0
  0
VISUALSTYLE
  5
3A
102
{ACAD_XDICTIONARY
360
6DF
102
}
102
{ACAD_REACTORS
330
2A
102
}
330
2A
100
AcDbVisualStyle
  2

 70
    16
 71
     2
 72
     2
 73
     3
 90
        0
 40
-0.6
 41
-30.0
 62
     5
 63
     8
 74
     1
 91
        4
 64
     7
 65
   257
 75
     1
175
     1
 42
1.0
 92
        8
 66
     8
 43
1.0
 76
     1
 77
     6
 78
     2
 67
     7
 79
     5
170
     0
171
     0
290
     0
174
     0
 93
        1
 44
0.0
173
     0
291
     1
 45
0.0
1001
ACAD
1000
AcDbSavedByObjectVersion
1070
     0
  0
VISUALSTYLE
  5
34
102
{ACAD_XDICTIONARY
360
6D3
102
}
102
{ACAD_REACTORS
330
2A
102
}
330
2A
100
AcDbVisualStyle
  2

 70
     9
 71
     3
 72
     2
 73
     0
 90
        0
 40
-0.6
 41
-30.0
 62
     5
 63
     7
 74
     2
 91
        2
 64
     7
 65
   257
 75
     1
175
     1
 42
179.0
 92
        8
 66
     7
 43
1.0
 76
     1
 77
     6
 78
     2
 67
     7
 79
     3
170
     0
171
     0
290
     0
174
     0
 93
        1
 44
0.0
173
     0
291
     0
 45
0.0
1001
ACAD
1000
AcDbSavedByObjectVersion
1070
     0
  0
VISUALSTYLE
  5
35
102
{ACAD_XDICTIONARY
360
6D5
102
}
102
{ACAD_REACTORS
330
2A
102
}
330
2A
100
AcDbVisualStyle
  2

 70
    11
 71
     2
 72
     2
 73
     0
 90
        0
 40
-0.6
 41
-30.0
 62
     5
 63
     7
 74
     1
 91
        4
 64
     7
 65
   257
 75
     1
175
     1
 42
1.0
 92
        8
 66
     7
 43
1.0
 76
     1
 77
     6
 78
     2
 67
     7
 79
     5
170
     0
171
     0
290
     0
174
     0
 93
        1
 44
-50.0
173
     0
291
     1
 45
0.0
1001
ACAD
1000
AcDbSavedByObjectVersion
1070
     0
  0
VISUALSTYLE
  5
3D
102
{ACAD_XDICTIONARY
360
6E5
102
}
102
{ACAD_REACTORS
330
2A
102
}
330
2A
100
AcDbVisualStyle
  2

 70
    22
 71
     2
 72
     2
 73
     0
 90
        0
 40
-0.6
 41
-30.0
 62
     5
 63
     7
 74
     1
 91
        4
 64
     7
 65
   257
 75
     1
175
     1
 42
1.0
 92
        8
 66
     7
 43
1.0
 76
     1
 77
     6
 78
     2
 67
     7
 79
     5
170
     0
171
     0
290
     0
174
     0
 93
        1
 44
0.0
173
     0
291
     1
 45
0.0
1001
ACAD
1000
AcDbSavedByObjectVersion
1070
     0
  0
VISUALSTYLE
  5
39
102
{ACAD_XDICTIONARY
360
6DD
102
}
102
{ACAD_REACTORS
330
2A
102
}
330
2A
100
AcDbVisualStyle
  2

 70
    15
 71
     2
 72
     2
 73
     0
 90
        0
 40
-0.6
 41
-30.0
 62
     5
 63
     7
 74
     1
 91
        4
 64
     7
 65
   257
 75
     1
175
     1
 42
1.0
 92
        8
 66
     7
 43
1.0
 76
     1
 77
     6
 78
     2
 67
     7
 79
     5
170
     0
171
     0
290
     0
174
     0
 93
        1
 44
0.0
173
     0
291
     1
 45
0.0
1001
ACAD
1000
AcDbSavedByObjectVersion
1070
     0
  0
VISUALSTYLE
  5
2B
102
{ACAD_XDICTIONARY
360
6C1
102
}
102
{ACAD_REACTORS
330
2A
102
}
330
2A
100
AcDbVisualStyle
  2

 70
     0
 71
     2
 72
     1
 73
     1
 90
        2
 40
-0.6
 41
30.0
 62
     5
 63
     7
 74
     0
 91
        0
 64
     7
 65
   257
 75
     1
175
     1
 42
1.0
 92
        8
 66
     7
 43
1.0
 76
     1
 77
     6
 78
     2
 67
     7
 79
     5
170
     0
171
     0
290
     0
174
     0
 93
       13
 44
0.0
173
     0
291
     1
 45
0.0
1001
ACAD
1000
AcDbSavedByObjectVersion
1070
     0
  0
VISUALSTYLE
  5
2C
102
{ACAD_XDICTIONARY
360
6C3
102
}
102
{ACAD_REACTORS
330
2A
102
}
330
2A
100
AcDbVisualStyle
  2

 70
     1
 71
     2
 72
     1
 73
     1
 90
        2
 40
-0.6
 41
30.0
 62
     5
 63
     7
 74
     1
 91
        0
 64
     7
 65
   257
 75
     1
175
     1
 42
1.0
 92
        0
 66
   257
 43
1.0
 76
     1
 77
     6
 78
     2
 67
     7
 79
     5
170
     0
171
     0
290
     0
174
     0
 93
       13
 44
0.0
173
     0
291
     1
 45
0.0
1001
ACAD
1000
AcDbSavedByObjectVersion
1070
     0
  0
VISUALSTYLE
  5
2D
102
{ACAD_XDICTIONARY
360
6C5
102
}
102
{ACAD_REACTORS
330
2A
102
}
330
2A
100
AcDbVisualStyle
  2

 70
     2
 71
     2
 72
     2
 73
     1
 90
        2
 40
-0.6
 41
30.0
 62
     5
 63
     7
 74
     0
 91
        0
 64
     7
 65
   257
 75
     1
175
     1
 42
1.0
 92
        0
 66
     7
 43
1.0
 76
     1
 77
     6
 78
     2
 67
     7
 79
     5
170
     0
171
     0
290
     0
174
     0
 93
       13
 44
0.0
173
     0
291
     1
 45
0.0
1001
ACAD
1000
AcDbSavedByObjectVersion
1070
     0
  0
VISUALSTYLE
  5
2E
102
{ACAD_XDICTIONARY
360
6C7
102
}
102
{ACAD_REACTORS
330
2A
102
}
330
2A
100
AcDbVisualStyle
  2

 70
     3
 71
     2
 72
     2
 73
     1
 90
        2
 40
-0.6
 41
30.0
 62
     5
 63
     7
 74
     1
 91
        0
 64
     7
 65
   257
 75
     1
175
     1
 42
1.0
 92
        0
 66
   257
 43
1.0
 76
     1
 77
     6
 78
     2
 67
     7
 79
     5
170
     0
171
     0
290
     0
174
     0
 93
       13
 44
0.0
173
     0
291
     1
 45
0.0
1001
ACAD
1000
AcDbSavedByObjectVersion
1070
     0
  0
VISUALSTYLE
  5
31
102
{ACAD_XDICTIONARY
360
6CD
102
}
102
{ACAD_REACTORS
330
2A
102
}
330
2A
100
AcDbVisualStyle
  2

 70
     6
 71
     1
 72
     2
 73
     2
 90
        0
 40
-0.6
 41
-30.0
 62
     5
 63
     7
 74
     2
 91
        2
 64
     7
 65
   257
 75
     2
175
     1
 42
40.0
 92
        0
 66
   257
 43
1.0
 76
     1
 77
     6
 78
     2
 67
     7
 79
     3
170
     0
171
     0
290
     0
174
     0
 93
        1
 44
0.0
173
     0
291
     0
 45
0.0
1001
ACAD
1000
AcDbSavedByObjectVersion
1070
     0
  0
VISUALSTYLE
  5
3B
102
{ACAD_XDICTIONARY
360
6E1
102
}
102
{ACAD_REACTORS
330
2A
102
}
330
2A
100
AcDbVisualStyle
  2

 70
    20
 71
     2
 72
     2
 73
     0
 90
        0
 40
-0.6
 41
-30.0
 62
     5
 63
     7
 74
     1
 91
        4
 64
     7
 65
   257
 75
     1
175
     1
 42
1.0
 92
       10
 66
     7
 43
1.0
 76
     1
 77
     6
 78
     2
 67
     7
 79
     5
170
     0
171
     0
290
     0
174
     0
 93
        1
 44
0.0
173
     0
291
     1
 45
0.0
1001
ACAD
1000
AcDbSavedByObjectVersion
1070
     0
  0
VISUALSTYLE
  5
38
102
{ACAD_XDICTIONARY
360
6DB
102
}
102
{ACAD_REACTORS
330
2A
102
}
330
2A
100
AcDbVisualStyle
  2

 70
    14
 71
     2
 72
     2
 73
     0
 90
        0
 40
-0.6
 41
-30.0
 62
     5
 63
     7
 74
     1
 91
        4
 64
     7
 65
   257
 75
     7
175
     7
 42
1.0
 92
        8
 66
     7
 43
1.0
 76
     1
 77
     6
 78
     2
 67
     7
 79
     5
170
     0
171
     0
290
     0
174
     0
 93
        1
 44
0.0
173
     0
291
     1
 45
0.0
1001
ACAD
1000
AcDbSavedByObjectVersion
1070
     0
  0
VISUALSTYLE
  5
3C
102
{ACAD_XDICTIONARY
360
6E3
102
}
102
{ACAD_REACTORS
330
2A
102
}
330
2A
100
AcDbVisualStyle
  2

 70
    21
 71
     2
 72
     2
 73
     0
 90
        0
 40
-0.6
 41
-30.0
 62
     5
 63
     7
 74
     1
 91
        4
 64
     7
 65
   257
 75
     1
175
     1
 42
1.0
 92
        9
 66
     7
 43
1.0
 76
     1
 77
     6
 78
     2
 67
     7
 79
     5
170
     0
171
     0
290
     0
174
     0
 93
        1
 44
0.0
173
     0
291
     1
 45
0.0
1001
ACAD
1000
AcDbSavedByObjectVersion
1070
     0
  0
VISUALSTYLE
  5
33
102
{ACAD_XDICTIONARY
360
6D1
102
}
102
{ACAD_REACTORS
330
2A
102
}
330
2A
100
AcDbVisualStyle
  2

 70
     8
 71
     2
 72
     3
 73
     0
 90
        2
 40
-0.6
 41
30.0
 62
     5
 63
     7
 74
     0
 91
        0
 64
     7
 65
   257
 75
     1
175
     1
 42
1.0
 92
        8
 66
   257
 43
1.0
 76
     1
 77
     6
 78
     2
 67
     7
 79
     3
170
     0
171
     0
290
     0
174
     0
 93
       13
 44
0.0
173
     0
291
     0
 45
0.0
1001
ACAD
1000
AcDbSavedByObjectVersion
1070
     0
  0
VISUALSTYLE
  5
42
102
{ACAD_XDICTIONARY
360
6EF
102
}
102
{ACAD_REACTORS
330
2A
102
}
330
2A
100
AcDbVisualStyle
  2

 70
    27
 71
     2
 72
     2
 73
     1
 90
        2
 40
-0.6
 41
30.0
 62
     5
 63
     7
 74
     0
 91
        4
 64
     7
 65
   257
 75
     1
175
     1
 42
1.0
 92
        8
 66
   257
 43
1.0
 76
     1
 77
     6
 78
     2
 67
     8
 79
     3
170
     0
171
     0
290
     0
174
     0
 93
        5
 44
0.0
173
     0
291
     0
 45
0.0
1001
ACAD
1000
AcDbSavedByObjectVersion
1070
     0
  0
VISUALSTYLE
  5
41
102
{ACAD_XDICTIONARY
360
6ED
102
}
102
{ACAD_REACTORS
330
2A
102
}
330
2A
100
AcDbVisualStyle
  2

 70
    26
 71
     2
 72
     2
 73
     1
 90
        2
 40
-0.6
 41
30.0
 62
     5
 63
     7
 74
     1
 91
       10
 64
     7
 65
   257
 75
     2
175
     1
 42
1.0
 92
        8
 66
   257
 43
1.0
 76
     1
 77
     6
 78
     2
 67
     7
 79
     3
170
     0
171
     0
290
     0
174
     0
 93
        5
 44
0.0
173
     0
291
     0
 45
0.0
1001
ACAD
1000
AcDbSavedByObjectVersion
1070
     0
  0
VISUALSTYLE
  5
3E
102
{ACAD_XDICTIONARY
360
6E7
102
}
102
{ACAD_REACTORS
330
2A
102
}
330
2A
100
AcDbVisualStyle
  2

 70
    23
 71
     2
 72
     2
 73
     3
 90
        0
 40
-0.6
 41
-30.0
 62
     5
 63
     7
 74
     2
 91
        2
 64
     7
 65
     7
 75
     1
175
     1
 42
40.0
 92
        8
 66
     7
 43
1.0
 76
     1
 77
     6
 78
     2
 67
     7
 79
     3
170
     0
171
     0
290
     0
174
     0
 93
        1
 44
0.0
173
     0
291
     0
 45
0.0
1001
ACAD
1000
AcDbSavedByObjectVersion
1070
     0
  0
VISUALSTYLE
  5
3F
102
{ACAD_XDICTIONARY
360
6E9
102
}
102
{ACAD_REACTORS
330
2A
102
}
330
2A
100
AcDbVisualStyle
  2

 70
    24
 71
     1
 72
     2
 73
     2
 90
        0
 40
-0.6
 41
-30.0
 62
     5
 63
     7
 74
     2
 91
        2
 64
     7
 65
     7
 75
     1
175
     1
 42
40.0
 92
       11
 66
     7
 43
1.0
 76
     1
 77
     6
 78
     2
 67
     7
 79
     6
170
     0
171
     0
290
     0
174
     0
 93
        1
 44
0.0
173
     0
291
     0
 45
0.0
1001
ACAD
1000
AcDbSavedByObjectVersion
1070
     0
  0
VISUALSTYLE
  5
37
102
{ACAD_XDICTIONARY
360
6D9
102
}
102
{ACAD_REACTORS
330
2A
102
}
330
2A
100
AcDbVisualStyle
  2

 70
    13
 71
     2
 72
     2
 73
     0
 90
        0
 40
-0.6
 41
-30.0
 62
     5
 63
     7
 74
     1
 91
        4
 64
     7
 65
   257
 75
     1
175
     1
 42
1.0
 92
       12
 66
     7
 43
1.0
 76
     1
 77
     6
 78
     2
 67
     7
 79
     5
170
     0
171
     0
290
     0
174
     0
 93
        1
 44
0.0
173
     0
291
     1
 45
0.0
1001
ACAD
1000
AcDbSavedByObjectVersion
1070
     0
  0
VISUALSTYLE
  5
30
102
{ACAD_XDICTIONARY
360
6CB
102
}
102
{ACAD_REACTORS
330
2A
102
}
330
2A
100
AcDbVisualStyle
  2

 70
     5
 71
     0
 72
     2
 73
     0
 90
        0
 40
-0.6
 41
-30.0
 62
     5
 63
     7
 74
     1
 91
        4
 64
     7
 65
   257
 75
     1
175
     1
 42
1.0
 92
        0
 66
   257
 43
1.0
 76
     1
 77
     6
 78
     2
 67
     7
 79
     3
170
     0
171
     0
290
     0
174
     0
 93
        1
 44
0.0
173
     0
291
     0
 45
0.0
1001
ACAD
1000
AcDbSavedByObjectVersion
1070
     0
  0
VISUALSTYLE
  5
40
102
{ACAD_XDICTIONARY
360
6EB
102
}
102
{ACAD_REACTORS
330
2A
102
}
330
2A
100
AcDbVisualStyle
  2

 70
    25
 71
     2
 72
     2
 73
     1
 90
        1
 40
0.5
 41
-30.0
 62
     5
 63
     7
 74
     1
 91
        0
 64
     7
 65
   257
 75
     1
175
     1
 42
1.0
 92
        8
 66
     7
 43
1.0
 76
     1
 77
     6
 78
     2
 67
     7
 79
     3
170
     0
171
     0
290
     0
174
     0
 93
       13
 44
0.0
173
     0
291
     0
 45
0.0
1001
ACAD
1000
AcDbSavedByObjectVersion
1070
     0
  0
DICTIONARYVAR
  5
1F2
102
{ACAD_REACTORS
330
1E4
102
}
330
1E4
100
DictionaryVariables
280
     0
  1
1:1
  0
DICTIONARYVAR
  5
1EB
102
{ACAD_REACTORS
330
1E4
102
}
330
1E4
100
DictionaryVariables
280
     0
  1
3.500000
  0
DICTIONARYVAR
  5
1EC
102
{ACAD_REACTORS
330
1E4
102
}
330
1E4
100
DictionaryVariables
280
     0
  1
acadiso.lin
  0
DICTIONARYVAR
  5
1E6
102
{ACAD_REACTORS
330
1E4
102
}
330
1E4
100
DictionaryVariables
280
     0
  1
STANDARD
  0
DICTIONARYVAR
  5
1E5
102
{ACAD_REACTORS
330
1E4
102
}
330
1E4
100
DictionaryVariables
280
     0
  1
STANDARD
  0
DICTIONARYVAR
  5
664
102
{ACAD_REACTORS
330
1E4
102
}
330
1E4
100
DictionaryVariables
280
     0
  1
Metric50
  0
DICTIONARYVAR
  5
665
102
{ACAD_REACTORS
330
1E4
102
}
330
1E4
100
DictionaryVariables
280
     0
  1
Metric50
  0
DICTIONARYVAR
  5
1ED
102
{ACAD_REACTORS
330
1E4
102
}
330
1E4
100
DictionaryVariables
280
     0
  1
2
  0
DICTIONARYVAR
  5
1EE
102
{ACAD_REACTORS
330
1E4
102
}
330
1E4
100
DictionaryVariables
280
     0
  1
1
  0
DICTIONARYVAR
  5
6B3
102
{ACAD_REACTORS
330
1E4
102
}
330
1E4
100
DictionaryVariables
280
     0
  1
0
  0
DICTIONARYVAR
  5
667
102
{ACAD_REACTORS
330
1E4
102
}
330
1E4
100
DictionaryVariables
280
     0
  1
1
  0
DICTIONARYVAR
  5
668
102
{ACAD_REACTORS
330
1E4
102
}
330
1E4
100
DictionaryVariables
280
     0
  1
15
  0
DICTIONARYVAR
  5
666
102
{ACAD_REACTORS
330
1E4
102
}
330
1E4
100
DictionaryVariables
280
     0
  1
0
  0
DICTIONARYVAR
  5
6B6
102
{ACAD_REACTORS
330
1E4
102
}
330
1E4
100
DictionaryVariables
280
     0
  1
1.570796
  0
DICTIONARYVAR
  5
6B7
102
{ACAD_REACTORS
330
1E4
102
}
330
1E4
100
DictionaryVariables
280
     0
  1
1.570796
  0
DICTIONARYVAR
  5
6B8
102
{ACAD_REACTORS
330
1E4
102
}
330
1E4
100
DictionaryVariables
280
     0
  1
-122.394000
  0
DICTIONARYVAR
  5
1F3
102
{ACAD_REACTORS
330
1E4
102
}
330
1E4
100
DictionaryVariables
280
     0
  1
1
  0
DICTIONARYVAR
  5
6B5
102
{ACAD_REACTORS
330
1E4
102
}
330
1E4
100
DictionaryVariables
280
     0
  1
80.000000
  0
DICTIONARYVAR
  5
6B4
102
{ACAD_REACTORS
330
1E4
102
}
330
1E4
100
DictionaryVariables
280
     0
  1
5.000000
  0
DICTIONARYVAR
  5
6B2
102
{ACAD_REACTORS
330
1E4
102
}
330
1E4
100
DictionaryVariables
280
     0
  1
127
  0
DICTIONARYVAR
  5
6B9
102
{ACAD_REACTORS
330
1E4
102
}
330
1E4
100
DictionaryVariables
280
     0
  1
2
  0
DICTIONARY
  5
6F4
330
233
100
AcDbDictionary
280
     1
281
     1
  3
ACAD_XREC_ROUNDTRIP
360
6F5
  0
DICTIONARY
  5
6BD
330
1E
100
AcDbDictionary
280
     1
281
     1
  3
ACAD_XREC_ROUNDTRIP
360
6BE
  0
DICTIONARY
  5
6BF
330
22
100
AcDbDictionary
280
     1
281
     1
  3
ACAD_XREC_ROUNDTRIP
360
6C0
  0
DICTIONARY
  5
6F6
330
234
100
AcDbDictionary
280
     1
281
     1
  3
ACAD_XREC_ROUNDTRIP
360
6F7
  0
DICTIONARY
  5
226
330
45
100
AcDbDictionary
280
     1
281
     1
  3
ACAD_XREC_ROUNDTRIP
360
227
  0
DICTIONARY
  5
224
330
44
100
AcDbDictionary
280
     1
281
     1
  3
ACAD_XREC_ROUNDTRIP
360
225
  0
DICTIONARY
  5
228
330
46
100
AcDbDictionary
280
     1
281
     1
  3
ACAD_XREC_ROUNDTRIP
360
229
  0
DICTIONARY
  5
6F2
330
231
100
AcDbDictionary
280
     1
281
     1
  3
ACAD_XREC_ROUNDTRIP
360
6F3
  0
DICTIONARY
  5
669
330
5A
100
AcDbDictionary
280
     1
281
     1
  3
ACAD_ROUNDTRIP_2008_TABLESTYLE_CELLSTYLEMAP
360
6BA
  3
ACAD_XREC_ROUNDTRIP
360
6F1
  0
DICTIONARY
  5
6C9
330
2F
100
AcDbDictionary
280
     1
281
     1
  3
ACAD_XREC_ROUNDTRIP
360
6CA
  0
DICTIONARY
  5
6CF
330
32
100
AcDbDictionary
280
     1
281
     1
  3
ACAD_XREC_ROUNDTRIP
360
6D0
  0
DICTIONARY
  5
6D7
330
36
100
AcDbDictionary
280
     1
281
     1
  3
ACAD_XREC_ROUNDTRIP
360
6D8
  0
DICTIONARY
  5
6DF
330
3A
100
AcDbDictionary
280
     1
281
     1
  3
ACAD_XREC_ROUNDTRIP
360
6E0
  0
DICTIONARY
  5
6D3
330
34
100
AcDbDictionary
280
     1
281
     1
  3
ACAD_XREC_ROUNDTRIP
360
6D4
  0
DICTIONARY
  5
6D5
330
35
100
AcDbDictionary
280
     1
281
     1
  3
ACAD_XREC_ROUNDTRIP
360
6D6
  0
DICTIONARY
  5
6E5
330
3D
100
AcDbDictionary
280
     1
281
     1
  3
ACAD_XREC_ROUNDTRIP
360
6E6
  0
DICTIONARY
  5
6DD
330
39
100
AcDbDictionary
280
     1
281
     1
  3
ACAD_XREC_ROUNDTRIP
360
6DE
  0
DICTIONARY
  5
6C1
330
2B
100
AcDbDictionary
280
     1
281
     1
  3
ACAD_XREC_ROUNDTRIP
360
6C2
  0
DICTIONARY
  5
6C3
330
2C
100
AcDbDictionary
280
     1
281
     1
  3
ACAD_XREC_ROUNDTRIP
360
6C4
  0
DICTIONARY
  5
6C5
330
2D
100
AcDbDictionary
280
     1
281
     1
  3
ACAD_XREC_ROUNDTRIP
360
6C6
  0
DICTIONARY
  5
6C7
330
2E
100
AcDbDictionary
280
     1
281
     1
  3
ACAD_XREC_ROUNDTRIP
360
6C8
  0
DICTIONARY
  5
6CD
330
31
100
AcDbDictionary
280
     1
281
     1
  3
ACAD_XREC_ROUNDTRIP
360
6CE
  0
DICTIONARY
  5
6E1
330
3B
100
AcDbDictionary
280
     1
281
     1
  3
ACAD_XREC_ROUNDTRIP
360
6E2
  0
DICTIONARY
  5
6DB
330
38
100
AcDbDictionary
280
     1
281
     1
  3
ACAD_XREC_ROUNDTRIP
360
6DC
  0
DICTIONARY
  5
6E3
330
3C
100
AcDbDictionary
280
     1
281
     1
  3
ACAD_XREC_ROUNDTRIP
360
6E4
  0
DICTIONARY
  5
6D1
330
33
100
AcDbDictionary
280
     1
281
     1
  3
ACAD_XREC_ROUNDTRIP
360
6D2
  0
DICTIONARY
  5
6EF
330
42
100
AcDbDictionary
280
     1
281
     1
  3
ACAD_XREC_ROUNDTRIP
360
6F0
  0
DICTIONARY
  5
6ED
330
41
100
AcDbDictionary
280
     1
281
     1
  3
ACAD_XREC_ROUNDTRIP
360
6EE
  0
DICTIONARY
  5
6E7
330
3E
100
AcDbDictionary
280
     1
281
     1
  3
ACAD_XREC_ROUNDTRIP
360
6E8
  0
DICTIONARY
  5
6E9
330
3F
100
AcDbDictionary
280
     1
281
     1
  3
ACAD_XREC_ROUNDTRIP
360
6EA
  0
DICTIONARY
  5
6D9
330
37
100
AcDbDictionary
280
     1
281
     1
  3
ACAD_XREC_ROUNDTRIP
360
6DA
  0
DICTIONARY
  5
6CB
330
30
100
AcDbDictionary
280
     1
281
     1
  3
ACAD_XREC_ROUNDTRIP
360
6CC
  0
DICTIONARY
  5
6EB
330
40
100
AcDbDictionary
280
     1
281
     1
  3
ACAD_XREC_ROUNDTRIP
360
6EC
  0
XRECORD
  5
6F5
102
{ACAD_REACTORS
330
6F4
102
}
330
6F4
100
AcDbXrecord
280
     1
102
DISPLAYNAME
  1
Metric50
102
FLAGS
 90
        0
  0
XRECORD
  5
6BE
102
{ACAD_REACTORS
330
6BD
102
}
330
6BD
100
AcDbXrecord
280
     1
102
SHADEPLOT
 70
     0
102
SHADEPLOTRESLEVEL
 70
     2
102
SHADEPLOTCUSTOMDPI
 70
   300
  0
XRECORD
  5
6C0
102
{ACAD_REACTORS
330
6BF
102
}
330
6BF
100
AcDbXrecord
280
     1
102
SHADEPLOT
 70
     0
102
SHADEPLOTRESLEVEL
 70
     2
102
SHADEPLOTCUSTOMDPI
 70
   300
  0
XRECORD
  5
6F7
102
{ACAD_REACTORS
330
6F6
102
}
330
6F6
100
AcDbXrecord
280
     1
102
SHADEPLOT
 70
     0
102
SHADEPLOTRESLEVEL
 70
     2
102
SHADEPLOTCUSTOMDPI
 70
   300
  0
XRECORD
  5
227
102
{ACAD_REACTORS
330
226
102
}
330
226
100
AcDbXrecord
280
     1
102
MATERIAL
148
0.0
149
0.0
149
0.0
 93
        0
 94
      127
282
     0
 72
     1
 77
     1
171
     1
175
     1
179
     1
273
     0
  0
XRECORD
  5
225
102
{ACAD_REACTORS
330
224
102
}
330
224
100
AcDbXrecord
280
     1
102
MATERIAL
148
0.0
149
0.0
149
0.0
 93
        0
 94
      127
282
     0
 72
     1
 77
     1
171
     1
175
     1
179
     1
273
     0
  0
XRECORD
  5
229
102
{ACAD_REACTORS
330
228
102
}
330
228
100
AcDbXrecord
280
     1
102
MATERIAL
148
0.0
149
0.0
149
0.0
 93
        0
 94
      127
282
     0
 72
     1
 77
     1
171
     1
175
     1
179
     1
273
     0
  0
XRECORD
  5
6F3
102
{ACAD_REACTORS
330
6F2
102
}
330
6F2
100
AcDbXrecord
280
     1
102
DISPLAYNAME
  1
Metric50
102
FLAGS
 90
        0
  0
CELLSTYLEMAP
  5
6BA
102
{ACAD_REACTORS
330
669
102
}
330
669
100
AcDbCellStyleMap
 90
        3
300
CELLSTYLE
  1
TABLEFORMAT_BEGIN
 90
        5
170
     1
 91
        0
 92
    32768
 62
   257
 93
        1
300
CONTENTFORMAT
  1
CONTENTFORMAT_BEGIN
 90
        0
 91
        0
 92
        4
 93
        0
300

 40
0.0
140
1.0
 94
        5
 62
     0
340
11
144
6.0
309
CONTENTFORMAT_END
171
     1
301
MARGIN
  1
CELLMARGIN_BEGIN
 40
1.5
 40
1.5
 40
1.5
 40
1.5
 40
0.18
 40
0.18
309
CELLMARGIN_END
 94
        6
 95
        1
302
GRIDFORMAT
  1
GRIDFORMAT_BEGIN
 90
        0
 91
        1
 62
     0
 92
       -2
340
0
 93
        0
 40
0.045
309
GRIDFORMAT_END
 95
        2
302
GRIDFORMAT
  1
GRIDFORMAT_BEGIN
 90
        0
 91
        1
 62
     0
 92
       -2
340
0
 93
        0
 40
0.045
309
GRIDFORMAT_END
 95
        4
302
GRIDFORMAT
  1
GRIDFORMAT_BEGIN
 90
        0
 91
        1
 62
     0
 92
       -2
340
0
 93
        0
 40
0.045
309
GRIDFORMAT_END
 95
        8
302
GRIDFORMAT
  1
GRIDFORMAT_BEGIN
 90
        0
 91
        1
 62
     0
 92
       -2
340
0
 93
        0
 40
0.045
309
GRIDFORMAT_END
 95
       16
302
GRIDFORMAT
  1
GRIDFORMAT_BEGIN
 90
        0
 91
        1
 62
     0
 92
       -2
340
0
 93
        0
 40
0.045
309
GRIDFORMAT_END
 95
       32
302
GRIDFORMAT
  1
GRIDFORMAT_BEGIN
 90
        0
 91
        1
 62
     0
 92
       -2
340
0
 93
        0
 40
0.045
309
GRIDFORMAT_END
309
TABLEFORMAT_END
  1
CELLSTYLE_BEGIN
 90
        1
 91
        1
300
_TITLE
309
CELLSTYLE_END
300
CELLSTYLE
  1
TABLEFORMAT_BEGIN
 90
        5
170
     1
 91
        0
 92
        0
 62
   257
 93
        1
300
CONTENTFORMAT
  1
CONTENTFORMAT_BEGIN
 90
        0
 91
        0
 92
        4
 93
        0
300

 40
0.0
140
1.0
 94
        5
 62
     0
340
11
144
4.5
309
CONTENTFORMAT_END
171
     1
301
MARGIN
  1
CELLMARGIN_BEGIN
 40
1.5
 40
1.5
 40
1.5
 40
1.5
 40
0.18
 40
0.18
309
CELLMARGIN_END
 94
        6
 95
        1
302
GRIDFORMAT
  1
GRIDFORMAT_BEGIN
 90
        0
 91
        1
 62
     0
 92
       -2
340
0
 93
        0
 40
0.045
309
GRIDFORMAT_END
 95
        2
302
GRIDFORMAT
  1
GRIDFORMAT_BEGIN
 90
        0
 91
        1
 62
     0
 92
       -2
340
0
 93
        0
 40
0.045
309
GRIDFORMAT_END
 95
        4
302
GRIDFORMAT
  1
GRIDFORMAT_BEGIN
 90
        0
 91
        1
 62
     0
 92
       -2
340
0
 93
        0
 40
0.045
309
GRIDFORMAT_END
 95
        8
302
GRIDFORMAT
  1
GRIDFORMAT_BEGIN
 90
        0
 91
        1
 62
     0
 92
       -2
340
0
 93
        0
 40
0.045
309
GRIDFORMAT_END
 95
       16
302
GRIDFORMAT
  1
GRIDFORMAT_BEGIN
 90
        0
 91
        1
 62
     0
 92
       -2
340
0
 93
        0
 40
0.045
309
GRIDFORMAT_END
 95
       32
302
GRIDFORMAT
  1
GRIDFORMAT_BEGIN
 90
        0
 91
        1
 62
     0
 92
       -2
340
0
 93
        0
 40
0.045
309
GRIDFORMAT_END
309
TABLEFORMAT_END
  1
CELLSTYLE_BEGIN
 90
        2
 91
        1
300
_HEADER
309
CELLSTYLE_END
300
CELLSTYLE
  1
TABLEFORMAT_BEGIN
 90
        5
170
     1
 91
        0
 92
        0
 62
   257
 93
        1
300
CONTENTFORMAT
  1
CONTENTFORMAT_BEGIN
 90
        0
 91
        0
 92
        4
 93
        0
300

 40
0.0
140
1.0
 94
        2
 62
     0
340
11
144
4.5
309
CONTENTFORMAT_END
171
     1
301
MARGIN
  1
CELLMARGIN_BEGIN
 40
1.5
 40
1.5
 40
1.5
 40
1.5
 40
0.18
 40
0.18
309
CELLMARGIN_END
 94
        6
 95
        1
302
GRIDFORMAT
  1
GRIDFORMAT_BEGIN
 90
        0
 91
        1
 62
     0
 92
       -2
340
0
 93
        0
 40
0.045
309
GRIDFORMAT_END
 95
        2
302
GRIDFORMAT
  1
GRIDFORMAT_BEGIN
 90
        0
 91
        1
 62
     0
 92
       -2
340
0
 93
        0
 40
0.045
309
GRIDFORMAT_END
 95
        4
302
GRIDFORMAT
  1
GRIDFORMAT_BEGIN
 90
        0
 91
        1
 62
     0
 92
       -2
340
0
 93
        0
 40
0.045
309
GRIDFORMAT_END
 95
        8
302
GRIDFORMAT
  1
GRIDFORMAT_BEGIN
 90
        0
 91
        1
 62
     0
 92
       -2
340
0
 93
        0
 40
0.045
309
GRIDFORMAT_END
 95
       16
302
GRIDFORMAT
  1
GRIDFORMAT_BEGIN
 90
        0
 91
        1
 62
     0
 92
       -2
340
0
 93
        0
 40
0.045
309
GRIDFORMAT_END
 95
       32
302
GRIDFORMAT
  1
GRIDFORMAT_BEGIN
 90
        0
 91
        1
 62
     0
 92
       -2
340
0
 93
        0
 40
0.045
309
GRIDFORMAT_END
309
TABLEFORMAT_END
  1
CELLSTYLE_BEGIN
 90
        3
 91
        2
300
_DATA
309
CELLSTYLE_END
  0
XRECORD
  5
6F1
102
{ACAD_REACTORS
330
669
102
}
330
669
100
AcDbXrecord
280
     1
102
ACAD_ROUNDTRIP_PRE2007_TABLESTYLE
 90
        4
 91
        0
  1

 92
        4
 93
        0
  2

 94
        4
 95
        0
  3

  0
XRECORD
  5
6CA
102
{ACAD_REACTORS
330
6C9
102
}
330
6C9
100
AcDbXrecord
280
     1
102
RTVSPost2010Prop28
280
     1
102
RTVSPost2010PropOp28
 70
     1
102
RTVSPost2010Prop29
280
     1
102
RTVSPost2010PropOp29
 70
     1
102
RTVSPost2010Prop30
280
     0
102
RTVSPost2010PropOp30
 70
     1
102
RTVSPost2010Prop31
280
     0
102
RTVSPost2010PropOp31
 70
     1
102
RTVSPost2010Prop32
280
     0
102
RTVSPost2010PropOp32
 70
     1
102
RTVSPost2010Prop33
280
     0
102
RTVSPost2010PropOp33
 70
     1
102
RTVSPost2010Prop34
280
     0
102
RTVSPost2010PropOp34
 70
     1
102
RTVSPost2010Prop35
280
     0
102
RTVSPost2010PropOp35
 70
     1
102
RTVSPost2010Prop36
280
     0
102
RTVSPost2010PropOp36
 70
     1
102
RTVSPost2010Prop37
 90
       50
102
RTVSPost2010PropOp37
 70
     1
102
RTVSPost2010Prop38
140
0.0
102
RTVSPost2010PropOp38
 70
     1
102
RTVSPost2010Prop39
140
1.0
102
RTVSPost2010PropOp39
 70
     1
102
RTVSPost2010Prop40
 90
        0
102
RTVSPost2010PropOp40
 70
     1
102
RTVSPost2010Prop41ColorIndex
 90
       18
102
RTVSPost2010Prop41ColorRGB
 90
        0
102
RTVSPost2010PropOp41
 70
     1
102
RTVSPost2010Prop42
 90
       50
102
RTVSPost2010PropOp42
 70
     1
102
RTVSPost2010Prop43
 90
        3
102
RTVSPost2010PropOp43
 70
     1
102
RTVSPost2010Prop44ColorIndex
 90
        5
102
RTVSPost2010Prop44ColorRGB
 90
      255
102
RTVSPost2010PropOp44
 70
     1
102
RTVSPost2010Prop45
280
     0
102
RTVSPost2010PropOp45
 70
     1
102
RTVSPost2010Prop46
 90
       50
102
RTVSPost2010PropOp46
 70
     1
102
RTVSPost2010Prop47
 90
       50
102
RTVSPost2010PropOp47
 70
     1
102
RTVSPost2010Prop48
 90
       50
102
RTVSPost2010PropOp48
 70
     1
102
RTVSPost2010Prop49
280
     0
102
RTVSPost2010PropOp49
 70
     1
102
RTVSPost2010Prop50
 90
       50
102
RTVSPost2010PropOp50
 70
     1
102
RTVSPost2010Prop51ColorIndex
 90
      256
102
RTVSPost2010Prop51ColorRGB
 90
-16777216
102
RTVSPost2010PropOp51
 70
     0
102
RTVSPost2010Prop52
140
1.0
102
RTVSPost2010PropOp52
 70
     0
102
RTVSPost2010Prop53
 90
        2
102
RTVSPost2010PropOp53
 70
     1
102
RTVSPost2010Prop54
  1
strokes_ogs.tif
102
RTVSPost2010PropOp54
 70
     1
102
RTVSPost2010Prop55
280
     0
102
RTVSPost2010PropOp55
 70
     1
102
RTVSPost2010Prop56
140
1.0
102
RTVSPost2010PropOp56
 70
     1
102
RTVSPost2010Prop57
140
1.0
102
RTVSPost2010PropOp57
 70
     1
102
RTVSPropertyOp0
 70
     1
102
RTVSPropertyOp1
 70
     1
102
RTVSPropertyOp2
 70
     1
102
RTVSPropertyOp3
 70
     1
102
RTVSPropertyOp4
 70
     1
102
RTVSPropertyOp5
 70
     1
102
RTVSPropertyOp6
 70
     1
102
RTVSPropertyOp7
 70
     1
102
RTVSPropertyOp8
 70
     1
102
RTVSPropertyOp9
 70
     1
102
RTVSPropertyOp10
 70
     1
102
RTVSPropertyOp11
 70
     1
102
RTVSPropertyOp12
 70
     1
102
RTVSPropertyOp13
 70
     1
102
RTVSPropertyOp14
 70
     1
102
RTVSPropertyOp15
 70
     1
102
RTVSPropertyOp16
 70
     1
102
RTVSPropertyOp17
 70
     1
102
RTVSPropertyOp18
 70
     1
102
RTVSPropertyOp19
 70
     1
102
RTVSPropertyOp20
 70
     1
102
RTVSPropertyOp21
 70
     1
102
RTVSPropertyOp22
 70
     1
102
RTVSPropertyOp23
 70
     1
102
RTVSPropertyOp24
 70
     1
102
RTVSPropertyOp25
 70
     1
102
RTVSPropertyOp26
 70
     1
102
RTVSPropertyOp27
 70
     1
102
RTVSPropertyOp28
 70
     1
102
RTVSPropertyOp29
 70
     1
102
RTVSPropertyOp30
 70
     1
102
RTVSPropertyOp31
 70
     1
102
RTVSPropertyOp32
 70
     1
102
RTVSPropertyOp33
 70
     1
102
RTVSPropertyOp34
 70
     1
102
RTVSPropertyOp35
 70
     1
102
RTVSPropertyOp36
 70
     1
102
RTVSPropertyOp37
 70
     1
102
RTVSPropertyOp38
 70
     1
102
RTVSPropertyOp39
 70
     1
102
RTVSPropertyOp40
 70
     1
102
RTVSPropertyOp41
 70
     1
102
RTVSPropertyOp42
 70
     1
102
RTVSPropertyOp43
 70
     1
102
RTVSPropertyOp44
 70
     1
102
RTVSPropertyOp45
 70
     1
102
RTVSPropertyOp46
 70
     1
102
RTVSPropertyOp47
 70
     1
102
RTVSPropertyOp48
 70
     1
102
RTVSPropertyOp49
 70
     1
102
RTVSPropertyOp50
 70
     1
102
RTVSPropertyOp51
 70
     0
102
RTVSPropertyOp52
 70
     0
102
RTVSPropertyOp53
 70
     1
102
RTVSPropertyOp54
 70
     1
102
RTVSPropertyOp55
 70
     1
102
RTVSPropertyOp56
 70
     1
102
RTVSPropertyOp57
 70
     1
102
RTVSPropertyOp58
 70
     1
102
RTVSPropertyOp59
 70
     1
102
RTVSPropertyOp60
 70
     1
102
RTVSPropertyOp61
 70
     1
102
RTVSPropertyOp62
 70
     1
  0
XRECORD
  5
6D0
102
{ACAD_REACTORS
330
6CF
102
}
330
6CF
100
AcDbXrecord
280
     1
102
RTVSPost2010Prop28
280
     0
102
RTVSPost2010PropOp28
 70
     1
102
RTVSPost2010Prop29
280
     1
102
RTVSPost2010PropOp29
 70
     1
102
RTVSPost2010Prop30
280
     1
102
RTVSPost2010PropOp30
 70
     1
102
RTVSPost2010Prop31
280
     0
102
RTVSPost2010PropOp31
 70
     1
102
RTVSPost2010Prop32
280
     0
102
RTVSPost2010PropOp32
 70
     1
102
RTVSPost2010Prop33
280
     0
102
RTVSPost2010PropOp33
 70
     1
102
RTVSPost2010Prop34
280
     0
102
RTVSPost2010PropOp34
 70
     1
102
RTVSPost2010Prop35
280
     0
102
RTVSPost2010PropOp35
 70
     1
102
RTVSPost2010Prop36
280
     0
102
RTVSPost2010PropOp36
 70
     1
102
RTVSPost2010Prop37
 90
       50
102
RTVSPost2010PropOp37
 70
     1
102
RTVSPost2010Prop38
140
0.0
102
RTVSPost2010PropOp38
 70
     1
102
RTVSPost2010Prop39
140
1.0
102
RTVSPost2010PropOp39
 70
     1
102
RTVSPost2010Prop40
 90
        0
102
RTVSPost2010PropOp40
 70
     1
102
RTVSPost2010Prop41ColorIndex
 90
       18
102
RTVSPost2010Prop41ColorRGB
 90
        0
102
RTVSPost2010PropOp41
 70
     1
102
RTVSPost2010Prop42
 90
       50
102
RTVSPost2010PropOp42
 70
     1
102
RTVSPost2010Prop43
 90
        3
102
RTVSPost2010PropOp43
 70
     1
102
RTVSPost2010Prop44ColorIndex
 90
        5
102
RTVSPost2010Prop44ColorRGB
 90
      255
102
RTVSPost2010PropOp44
 70
     1
102
RTVSPost2010Prop45
280
     0
102
RTVSPost2010PropOp45
 70
     1
102
RTVSPost2010Prop46
 90
       50
102
RTVSPost2010PropOp46
 70
     1
102
RTVSPost2010Prop47
 90
       50
102
RTVSPost2010PropOp47
 70
     1
102
RTVSPost2010Prop48
 90
       50
102
RTVSPost2010PropOp48
 70
     1
102
RTVSPost2010Prop49
280
     0
102
RTVSPost2010PropOp49
 70
     1
102
RTVSPost2010Prop50
 90
       50
102
RTVSPost2010PropOp50
 70
     1
102
RTVSPost2010Prop51ColorIndex
 90
      256
102
RTVSPost2010Prop51ColorRGB
 90
-16777216
102
RTVSPost2010PropOp51
 70
     0
102
RTVSPost2010Prop52
140
1.0
102
RTVSPost2010PropOp52
 70
     0
102
RTVSPost2010Prop53
 90
        2
102
RTVSPost2010PropOp53
 70
     1
102
RTVSPost2010Prop54
  1
strokes_ogs.tif
102
RTVSPost2010PropOp54
 70
     1
102
RTVSPost2010Prop55
280
     0
102
RTVSPost2010PropOp55
 70
     1
102
RTVSPost2010Prop56
140
1.0
102
RTVSPost2010PropOp56
 70
     1
102
RTVSPost2010Prop57
140
1.0
102
RTVSPost2010PropOp57
 70
     1
102
RTVSPropertyOp0
 70
     1
102
RTVSPropertyOp1
 70
     1
102
RTVSPropertyOp2
 70
     1
102
RTVSPropertyOp3
 70
     1
102
RTVSPropertyOp4
 70
     1
102
RTVSPropertyOp5
 70
     1
102
RTVSPropertyOp6
 70
     1
102
RTVSPropertyOp7
 70
     1
102
RTVSPropertyOp8
 70
     1
102
RTVSPropertyOp9
 70
     1
102
RTVSPropertyOp10
 70
     1
102
RTVSPropertyOp11
 70
     1
102
RTVSPropertyOp12
 70
     1
102
RTVSPropertyOp13
 70
     1
102
RTVSPropertyOp14
 70
     1
102
RTVSPropertyOp15
 70
     1
102
RTVSPropertyOp16
 70
     1
102
RTVSPropertyOp17
 70
     1
102
RTVSPropertyOp18
 70
     1
102
RTVSPropertyOp19
 70
     1
102
RTVSPropertyOp20
 70
     1
102
RTVSPropertyOp21
 70
     1
102
RTVSPropertyOp22
 70
     1
102
RTVSPropertyOp23
 70
     1
102
RTVSPropertyOp24
 70
     1
102
RTVSPropertyOp25
 70
     1
102
RTVSPropertyOp26
 70
     1
102
RTVSPropertyOp27
 70
     1
102
RTVSPropertyOp28
 70
     1
102
RTVSPropertyOp29
 70
     1
102
RTVSPropertyOp30
 70
     1
102
RTVSPropertyOp31
 70
     1
102
RTVSPropertyOp32
 70
     1
102
RTVSPropertyOp33
 70
     1
102
RTVSPropertyOp34
 70
     1
102
RTVSPropertyOp35
 70
     1
102
RTVSPropertyOp36
 70
     1
102
RTVSPropertyOp37
 70
     1
102
RTVSPropertyOp38
 70
     1
102
RTVSPropertyOp39
 70
     1
102
RTVSPropertyOp40
 70
     1
102
RTVSPropertyOp41
 70
     1
102
RTVSPropertyOp42
 70
     1
102
RTVSPropertyOp43
 70
     1
102
RTVSPropertyOp44
 70
     1
102
RTVSPropertyOp45
 70
     1
102
RTVSPropertyOp46
 70
     1
102
RTVSPropertyOp47
 70
     1
102
RTVSPropertyOp48
 70
     1
102
RTVSPropertyOp49
 70
     1
102
RTVSPropertyOp50
 70
     1
102
RTVSPropertyOp51
 70
     0
102
RTVSPropertyOp52
 70
     0
102
RTVSPropertyOp53
 70
     1
102
RTVSPropertyOp54
 70
     1
102
RTVSPropertyOp55
 70
     1
102
RTVSPropertyOp56
 70
     1
102
RTVSPropertyOp57
 70
     1
102
RTVSPropertyOp58
 70
     1
102
RTVSPropertyOp59
 70
     1
102
RTVSPropertyOp60
 70
     1
102
RTVSPropertyOp61
 70
     1
102
RTVSPropertyOp62
 70
     1
  0
XRECORD
  5
6D8
102
{ACAD_REACTORS
330
6D7
102
}
330
6D7
100
AcDbXrecord
280
     1
102
RTVSPost2010Prop28
280
     0
102
RTVSPost2010PropOp28
 70
     1
102
RTVSPost2010Prop29
280
     1
102
RTVSPost2010PropOp29
 70
     1
102
RTVSPost2010Prop30
280
     1
102
RTVSPost2010PropOp30
 70
     1
102
RTVSPost2010Prop31
280
     0
102
RTVSPost2010PropOp31
 70
     1
102
RTVSPost2010Prop32
280
     0
102
RTVSPost2010PropOp32
 70
     1
102
RTVSPost2010Prop33
280
     0
102
RTVSPost2010PropOp33
 70
     1
102
RTVSPost2010Prop34
280
     0
102
RTVSPost2010PropOp34
 70
     1
102
RTVSPost2010Prop35
280
     0
102
RTVSPost2010PropOp35
 70
     1
102
RTVSPost2010Prop36
280
     0
102
RTVSPost2010PropOp36
 70
     1
102
RTVSPost2010Prop37
 90
       50
102
RTVSPost2010PropOp37
 70
     1
102
RTVSPost2010Prop38
140
0.0
102
RTVSPost2010PropOp38
 70
     1
102
RTVSPost2010Prop39
140
1.0
102
RTVSPost2010PropOp39
 70
     1
102
RTVSPost2010Prop40
 90
        0
102
RTVSPost2010PropOp40
 70
     1
102
RTVSPost2010Prop41ColorIndex
 90
       18
102
RTVSPost2010Prop41ColorRGB
 90
        0
102
RTVSPost2010PropOp41
 70
     1
102
RTVSPost2010Prop42
 90
       50
102
RTVSPost2010PropOp42
 70
     1
102
RTVSPost2010Prop43
 90
        3
102
RTVSPost2010PropOp43
 70
     1
102
RTVSPost2010Prop44ColorIndex
 90
        5
102
RTVSPost2010Prop44ColorRGB
 90
      255
102
RTVSPost2010PropOp44
 70
     1
102
RTVSPost2010Prop45
280
     0
102
RTVSPost2010PropOp45
 70
     1
102
RTVSPost2010Prop46
 90
       50
102
RTVSPost2010PropOp46
 70
     1
102
RTVSPost2010Prop47
 90
       50
102
RTVSPost2010PropOp47
 70
     1
102
RTVSPost2010Prop48
 90
       50
102
RTVSPost2010PropOp48
 70
     1
102
RTVSPost2010Prop49
280
     0
102
RTVSPost2010PropOp49
 70
     1
102
RTVSPost2010Prop50
 90
       50
102
RTVSPost2010PropOp50
 70
     1
102
RTVSPost2010Prop51ColorIndex
 90
      256
102
RTVSPost2010Prop51ColorRGB
 90
-16777216
102
RTVSPost2010PropOp51
 70
     0
102
RTVSPost2010Prop52
140
1.0
102
RTVSPost2010PropOp52
 70
     0
102
RTVSPost2010Prop53
 90
        2
102
RTVSPost2010PropOp53
 70
     1
102
RTVSPost2010Prop54
  1
strokes_ogs.tif
102
RTVSPost2010PropOp54
 70
     1
102
RTVSPost2010Prop55
280
     0
102
RTVSPost2010PropOp55
 70
     1
102
RTVSPost2010Prop56
140
1.0
102
RTVSPost2010PropOp56
 70
     1
102
RTVSPost2010Prop57
140
1.0
102
RTVSPost2010PropOp57
 70
     1
102
RTVSPropertyOp0
 70
     1
102
RTVSPropertyOp1
 70
     1
102
RTVSPropertyOp2
 70
     1
102
RTVSPropertyOp3
 70
     1
102
RTVSPropertyOp4
 70
     1
102
RTVSPropertyOp5
 70
     1
102
RTVSPropertyOp6
 70
     1
102
RTVSPropertyOp7
 70
     1
102
RTVSPropertyOp8
 70
     1
102
RTVSPropertyOp9
 70
     1
102
RTVSPropertyOp10
 70
     1
102
RTVSPropertyOp11
 70
     1
102
RTVSPropertyOp12
 70
     1
102
RTVSPropertyOp13
 70
     1
102
RTVSPropertyOp14
 70
     1
102
RTVSPropertyOp15
 70
     1
102
RTVSPropertyOp16
 70
     1
102
RTVSPropertyOp17
 70
     1
102
RTVSPropertyOp18
 70
     1
102
RTVSPropertyOp19
 70
     1
102
RTVSPropertyOp20
 70
     1
102
RTVSPropertyOp21
 70
     1
102
RTVSPropertyOp22
 70
     1
102
RTVSPropertyOp23
 70
     1
102
RTVSPropertyOp24
 70
     1
102
RTVSPropertyOp25
 70
     1
102
RTVSPropertyOp26
 70
     1
102
RTVSPropertyOp27
 70
     1
102
RTVSPropertyOp28
 70
     1
102
RTVSPropertyOp29
 70
     1
102
RTVSPropertyOp30
 70
     1
102
RTVSPropertyOp31
 70
     1
102
RTVSPropertyOp32
 70
     1
102
RTVSPropertyOp33
 70
     1
102
RTVSPropertyOp34
 70
     1
102
RTVSPropertyOp35
 70
     1
102
RTVSPropertyOp36
 70
     1
102
RTVSPropertyOp37
 70
     1
102
RTVSPropertyOp38
 70
     1
102
RTVSPropertyOp39
 70
     1
102
RTVSPropertyOp40
 70
     1
102
RTVSPropertyOp41
 70
     1
102
RTVSPropertyOp42
 70
     1
102
RTVSPropertyOp43
 70
     1
102
RTVSPropertyOp44
 70
     1
102
RTVSPropertyOp45
 70
     1
102
RTVSPropertyOp46
 70
     1
102
RTVSPropertyOp47
 70
     1
102
RTVSPropertyOp48
 70
     1
102
RTVSPropertyOp49
 70
     1
102
RTVSPropertyOp50
 70
     1
102
RTVSPropertyOp51
 70
     0
102
RTVSPropertyOp52
 70
     0
102
RTVSPropertyOp53
 70
     1
102
RTVSPropertyOp54
 70
     1
102
RTVSPropertyOp55
 70
     1
102
RTVSPropertyOp56
 70
     1
102
RTVSPropertyOp57
 70
     1
102
RTVSPropertyOp58
 70
     1
102
RTVSPropertyOp59
 70
     1
102
RTVSPropertyOp60
 70
     1
102
RTVSPropertyOp61
 70
     1
102
RTVSPropertyOp62
 70
     1
  0
XRECORD
  5
6E0
102
{ACAD_REACTORS
330
6DF
102
}
330
6DF
100
AcDbXrecord
280
     1
102
RTVSPost2010Prop28
280
     0
102
RTVSPost2010PropOp28
 70
     1
102
RTVSPost2010Prop29
280
     1
102
RTVSPost2010PropOp29
 70
     1
102
RTVSPost2010Prop30
280
     1
102
RTVSPost2010PropOp30
 70
     1
102
RTVSPost2010Prop31
280
     0
102
RTVSPost2010PropOp31
 70
     1
102
RTVSPost2010Prop32
280
     0
102
RTVSPost2010PropOp32
 70
     1
102
RTVSPost2010Prop33
280
     0
102
RTVSPost2010PropOp33
 70
     1
102
RTVSPost2010Prop34
280
     0
102
RTVSPost2010PropOp34
 70
     1
102
RTVSPost2010Prop35
280
     0
102
RTVSPost2010PropOp35
 70
     1
102
RTVSPost2010Prop36
280
     0
102
RTVSPost2010PropOp36
 70
     1
102
RTVSPost2010Prop37
 90
       50
102
RTVSPost2010PropOp37
 70
     1
102
RTVSPost2010Prop38
140
0.0
102
RTVSPost2010PropOp38
 70
     1
102
RTVSPost2010Prop39
140
1.0
102
RTVSPost2010PropOp39
 70
     1
102
RTVSPost2010Prop40
 90
        0
102
RTVSPost2010PropOp40
 70
     1
102
RTVSPost2010Prop41ColorIndex
 90
       18
102
RTVSPost2010Prop41ColorRGB
 90
        0
102
RTVSPost2010PropOp41
 70
     1
102
RTVSPost2010Prop42
 90
       50
102
RTVSPost2010PropOp42
 70
     1
102
RTVSPost2010Prop43
 90
        3
102
RTVSPost2010PropOp43
 70
     1
102
RTVSPost2010Prop44ColorIndex
 90
        5
102
RTVSPost2010Prop44ColorRGB
 90
      255
102
RTVSPost2010PropOp44
 70
     1
102
RTVSPost2010Prop45
280
     0
102
RTVSPost2010PropOp45
 70
     1
102
RTVSPost2010Prop46
 90
       50
102
RTVSPost2010PropOp46
 70
     1
102
RTVSPost2010Prop47
 90
       50
102
RTVSPost2010PropOp47
 70
     1
102
RTVSPost2010Prop48
 90
       50
102
RTVSPost2010PropOp48
 70
     1
102
RTVSPost2010Prop49
280
     0
102
RTVSPost2010PropOp49
 70
     1
102
RTVSPost2010Prop50
 90
       50
102
RTVSPost2010PropOp50
 70
     1
102
RTVSPost2010Prop51ColorIndex
 90
      256
102
RTVSPost2010Prop51ColorRGB
 90
-16777216
102
RTVSPost2010PropOp51
 70
     0
102
RTVSPost2010Prop52
140
1.0
102
RTVSPost2010PropOp52
 70
     0
102
RTVSPost2010Prop53
 90
        2
102
RTVSPost2010PropOp53
 70
     1
102
RTVSPost2010Prop54
  1
strokes_ogs.tif
102
RTVSPost2010PropOp54
 70
     1
102
RTVSPost2010Prop55
280
     0
102
RTVSPost2010PropOp55
 70
     1
102
RTVSPost2010Prop56
140
1.0
102
RTVSPost2010PropOp56
 70
     1
102
RTVSPost2010Prop57
140
1.0
102
RTVSPost2010PropOp57
 70
     1
102
RTVSPropertyOp0
 70
     1
102
RTVSPropertyOp1
 70
     1
102
RTVSPropertyOp2
 70
     1
102
RTVSPropertyOp3
 70
     1
102
RTVSPropertyOp4
 70
     1
102
RTVSPropertyOp5
 70
     1
102
RTVSPropertyOp6
 70
     1
102
RTVSPropertyOp7
 70
     1
102
RTVSPropertyOp8
 70
     1
102
RTVSPropertyOp9
 70
     1
102
RTVSPropertyOp10
 70
     1
102
RTVSPropertyOp11
 70
     1
102
RTVSPropertyOp12
 70
     1
102
RTVSPropertyOp13
 70
     1
102
RTVSPropertyOp14
 70
     1
102
RTVSPropertyOp15
 70
     1
102
RTVSPropertyOp16
 70
     1
102
RTVSPropertyOp17
 70
     1
102
RTVSPropertyOp18
 70
     1
102
RTVSPropertyOp19
 70
     1
102
RTVSPropertyOp20
 70
     1
102
RTVSPropertyOp21
 70
     1
102
RTVSPropertyOp22
 70
     1
102
RTVSPropertyOp23
 70
     1
102
RTVSPropertyOp24
 70
     1
102
RTVSPropertyOp25
 70
     1
102
RTVSPropertyOp26
 70
     1
102
RTVSPropertyOp27
 70
     1
102
RTVSPropertyOp28
 70
     1
102
RTVSPropertyOp29
 70
     1
102
RTVSPropertyOp30
 70
     1
102
RTVSPropertyOp31
 70
     1
102
RTVSPropertyOp32
 70
     1
102
RTVSPropertyOp33
 70
     1
102
RTVSPropertyOp34
 70
     1
102
RTVSPropertyOp35
 70
     1
102
RTVSPropertyOp36
 70
     1
102
RTVSPropertyOp37
 70
     1
102
RTVSPropertyOp38
 70
     1
102
RTVSPropertyOp39
 70
     1
102
RTVSPropertyOp40
 70
     1
102
RTVSPropertyOp41
 70
     1
102
RTVSPropertyOp42
 70
     1
102
RTVSPropertyOp43
 70
     1
102
RTVSPropertyOp44
 70
     1
102
RTVSPropertyOp45
 70
     1
102
RTVSPropertyOp46
 70
     1
102
RTVSPropertyOp47
 70
     1
102
RTVSPropertyOp48
 70
     1
102
RTVSPropertyOp49
 70
     1
102
RTVSPropertyOp50
 70
     1
102
RTVSPropertyOp51
 70
     0
102
RTVSPropertyOp52
 70
     0
102
RTVSPropertyOp53
 70
     1
102
RTVSPropertyOp54
 70
     1
102
RTVSPropertyOp55
 70
     1
102
RTVSPropertyOp56
 70
     1
102
RTVSPropertyOp57
 70
     1
102
RTVSPropertyOp58
 70
     1
102
RTVSPropertyOp59
 70
     1
102
RTVSPropertyOp60
 70
     1
102
RTVSPropertyOp61
 70
     1
102
RTVSPropertyOp62
 70
     1
  0
XRECORD
  5
6D4
102
{ACAD_REACTORS
330
6D3
102
}
330
6D3
100
AcDbXrecord
280
     1
102
RTVSPost2010Prop28
280
     0
102
RTVSPost2010PropOp28
 70
     1
102
RTVSPost2010Prop29
280
     1
102
RTVSPost2010PropOp29
 70
     1
102
RTVSPost2010Prop30
280
     1
102
RTVSPost2010PropOp30
 70
     1
102
RTVSPost2010Prop31
280
     0
102
RTVSPost2010PropOp31
 70
     1
102
RTVSPost2010Prop32
280
     0
102
RTVSPost2010PropOp32
 70
     1
102
RTVSPost2010Prop33
280
     0
102
RTVSPost2010PropOp33
 70
     1
102
RTVSPost2010Prop34
280
     0
102
RTVSPost2010PropOp34
 70
     1
102
RTVSPost2010Prop35
280
     0
102
RTVSPost2010PropOp35
 70
     1
102
RTVSPost2010Prop36
280
     0
102
RTVSPost2010PropOp36
 70
     1
102
RTVSPost2010Prop37
 90
       50
102
RTVSPost2010PropOp37
 70
     1
102
RTVSPost2010Prop38
140
0.0
102
RTVSPost2010PropOp38
 70
     1
102
RTVSPost2010Prop39
140
1.0
102
RTVSPost2010PropOp39
 70
     1
102
RTVSPost2010Prop40
 90
        0
102
RTVSPost2010PropOp40
 70
     1
102
RTVSPost2010Prop41ColorIndex
 90
       18
102
RTVSPost2010Prop41ColorRGB
 90
        0
102
RTVSPost2010PropOp41
 70
     1
102
RTVSPost2010Prop42
 90
       50
102
RTVSPost2010PropOp42
 70
     1
102
RTVSPost2010Prop43
 90
        3
102
RTVSPost2010PropOp43
 70
     1
102
RTVSPost2010Prop44ColorIndex
 90
        5
102
RTVSPost2010Prop44ColorRGB
 90
      255
102
RTVSPost2010PropOp44
 70
     1
102
RTVSPost2010Prop45
280
     0
102
RTVSPost2010PropOp45
 70
     1
102
RTVSPost2010Prop46
 90
       50
102
RTVSPost2010PropOp46
 70
     1
102
RTVSPost2010Prop47
 90
       50
102
RTVSPost2010PropOp47
 70
     1
102
RTVSPost2010Prop48
 90
       50
102
RTVSPost2010PropOp48
 70
     1
102
RTVSPost2010Prop49
280
     0
102
RTVSPost2010PropOp49
 70
     1
102
RTVSPost2010Prop50
 90
       50
102
RTVSPost2010PropOp50
 70
     1
102
RTVSPost2010Prop51ColorIndex
 90
      256
102
RTVSPost2010Prop51ColorRGB
 90
-16777216
102
RTVSPost2010PropOp51
 70
     0
102
RTVSPost2010Prop52
140
1.0
102
RTVSPost2010PropOp52
 70
     0
102
RTVSPost2010Prop53
 90
        2
102
RTVSPost2010PropOp53
 70
     1
102
RTVSPost2010Prop54
  1
strokes_ogs.tif
102
RTVSPost2010PropOp54
 70
     1
102
RTVSPost2010Prop55
280
     0
102
RTVSPost2010PropOp55
 70
     1
102
RTVSPost2010Prop56
140
1.0
102
RTVSPost2010PropOp56
 70
     1
102
RTVSPost2010Prop57
140
1.0
102
RTVSPost2010PropOp57
 70
     1
102
RTVSPropertyOp0
 70
     1
102
RTVSPropertyOp1
 70
     1
102
RTVSPropertyOp2
 70
     1
102
RTVSPropertyOp3
 70
     1
102
RTVSPropertyOp4
 70
     1
102
RTVSPropertyOp5
 70
     1
102
RTVSPropertyOp6
 70
     1
102
RTVSPropertyOp7
 70
     1
102
RTVSPropertyOp8
 70
     1
102
RTVSPropertyOp9
 70
     1
102
RTVSPropertyOp10
 70
     1
102
RTVSPropertyOp11
 70
     1
102
RTVSPropertyOp12
 70
     1
102
RTVSPropertyOp13
 70
     1
102
RTVSPropertyOp14
 70
     1
102
RTVSPropertyOp15
 70
     1
102
RTVSPropertyOp16
 70
     1
102
RTVSPropertyOp17
 70
     1
102
RTVSPropertyOp18
 70
     1
102
RTVSPropertyOp19
 70
     1
102
RTVSPropertyOp20
 70
     1
102
RTVSPropertyOp21
 70
     1
102
RTVSPropertyOp22
 70
     1
102
RTVSPropertyOp23
 70
     1
102
RTVSPropertyOp24
 70
     1
102
RTVSPropertyOp25
 70
     1
102
RTVSPropertyOp26
 70
     1
102
RTVSPropertyOp27
 70
     1
102
RTVSPropertyOp28
 70
     1
102
RTVSPropertyOp29
 70
     1
102
RTVSPropertyOp30
 70
     1
102
RTVSPropertyOp31
 70
     1
102
RTVSPropertyOp32
 70
     1
102
RTVSPropertyOp33
 70
     1
102
RTVSPropertyOp34
 70
     1
102
RTVSPropertyOp35
 70
     1
102
RTVSPropertyOp36
 70
     1
102
RTVSPropertyOp37
 70
     1
102
RTVSPropertyOp38
 70
     1
102
RTVSPropertyOp39
 70
     1
102
RTVSPropertyOp40
 70
     1
102
RTVSPropertyOp41
 70
     1
102
RTVSPropertyOp42
 70
     1
102
RTVSPropertyOp43
 70
     1
102
RTVSPropertyOp44
 70
     1
102
RTVSPropertyOp45
 70
     1
102
RTVSPropertyOp46
 70
     1
102
RTVSPropertyOp47
 70
     1
102
RTVSPropertyOp48
 70
     1
102
RTVSPropertyOp49
 70
     1
102
RTVSPropertyOp50
 70
     1
102
RTVSPropertyOp51
 70
     0
102
RTVSPropertyOp52
 70
     0
102
RTVSPropertyOp53
 70
     1
102
RTVSPropertyOp54
 70
     1
102
RTVSPropertyOp55
 70
     1
102
RTVSPropertyOp56
 70
     1
102
RTVSPropertyOp57
 70
     1
102
RTVSPropertyOp58
 70
     1
102
RTVSPropertyOp59
 70
     1
102
RTVSPropertyOp60
 70
     1
102
RTVSPropertyOp61
 70
     1
102
RTVSPropertyOp62
 70
     1
  0
XRECORD
  5
6D6
102
{ACAD_REACTORS
330
6D5
102
}
330
6D5
100
AcDbXrecord
280
     1
102
RTVSPost2010Prop28
280
     0
102
RTVSPost2010PropOp28
 70
     1
102
RTVSPost2010Prop29
280
     1
102
RTVSPost2010PropOp29
 70
     1
102
RTVSPost2010Prop30
280
     1
102
RTVSPost2010PropOp30
 70
     1
102
RTVSPost2010Prop31
280
     0
102
RTVSPost2010PropOp31
 70
     1
102
RTVSPost2010Prop32
280
     0
102
RTVSPost2010PropOp32
 70
     1
102
RTVSPost2010Prop33
280
     0
102
RTVSPost2010PropOp33
 70
     1
102
RTVSPost2010Prop34
280
     0
102
RTVSPost2010PropOp34
 70
     1
102
RTVSPost2010Prop35
280
     0
102
RTVSPost2010PropOp35
 70
     1
102
RTVSPost2010Prop36
280
     0
102
RTVSPost2010PropOp36
 70
     1
102
RTVSPost2010Prop37
 90
       50
102
RTVSPost2010PropOp37
 70
     1
102
RTVSPost2010Prop38
140
0.0
102
RTVSPost2010PropOp38
 70
     1
102
RTVSPost2010Prop39
140
1.0
102
RTVSPost2010PropOp39
 70
     1
102
RTVSPost2010Prop40
 90
        0
102
RTVSPost2010PropOp40
 70
     1
102
RTVSPost2010Prop41ColorIndex
 90
       18
102
RTVSPost2010Prop41ColorRGB
 90
        0
102
RTVSPost2010PropOp41
 70
     1
102
RTVSPost2010Prop42
 90
       50
102
RTVSPost2010PropOp42
 70
     1
102
RTVSPost2010Prop43
 90
        3
102
RTVSPost2010PropOp43
 70
     1
102
RTVSPost2010Prop44ColorIndex
 90
        5
102
RTVSPost2010Prop44ColorRGB
 90
      255
102
RTVSPost2010PropOp44
 70
     1
102
RTVSPost2010Prop45
280
     0
102
RTVSPost2010PropOp45
 70
     1
102
RTVSPost2010Prop46
 90
       50
102
RTVSPost2010PropOp46
 70
     1
102
RTVSPost2010Prop47
 90
       50
102
RTVSPost2010PropOp47
 70
     1
102
RTVSPost2010Prop48
 90
       50
102
RTVSPost2010PropOp48
 70
     1
102
RTVSPost2010Prop49
280
     0
102
RTVSPost2010PropOp49
 70
     1
102
RTVSPost2010Prop50
 90
       50
102
RTVSPost2010PropOp50
 70
     1
102
RTVSPost2010Prop51ColorIndex
 90
      256
102
RTVSPost2010Prop51ColorRGB
 90
-16777216
102
RTVSPost2010PropOp51
 70
     0
102
RTVSPost2010Prop52
140
1.0
102
RTVSPost2010PropOp52
 70
     0
102
RTVSPost2010Prop53
 90
        2
102
RTVSPost2010PropOp53
 70
     1
102
RTVSPost2010Prop54
  1
strokes_ogs.tif
102
RTVSPost2010PropOp54
 70
     1
102
RTVSPost2010Prop55
280
     0
102
RTVSPost2010PropOp55
 70
     1
102
RTVSPost2010Prop56
140
1.0
102
RTVSPost2010PropOp56
 70
     1
102
RTVSPost2010Prop57
140
1.0
102
RTVSPost2010PropOp57
 70
     1
102
RTVSPropertyOp0
 70
     1
102
RTVSPropertyOp1
 70
     1
102
RTVSPropertyOp2
 70
     1
102
RTVSPropertyOp3
 70
     1
102
RTVSPropertyOp4
 70
     1
102
RTVSPropertyOp5
 70
     1
102
RTVSPropertyOp6
 70
     1
102
RTVSPropertyOp7
 70
     1
102
RTVSPropertyOp8
 70
     1
102
RTVSPropertyOp9
 70
     1
102
RTVSPropertyOp10
 70
     1
102
RTVSPropertyOp11
 70
     1
102
RTVSPropertyOp12
 70
     1
102
RTVSPropertyOp13
 70
     1
102
RTVSPropertyOp14
 70
     1
102
RTVSPropertyOp15
 70
     1
102
RTVSPropertyOp16
 70
     1
102
RTVSPropertyOp17
 70
     1
102
RTVSPropertyOp18
 70
     1
102
RTVSPropertyOp19
 70
     1
102
RTVSPropertyOp20
 70
     1
102
RTVSPropertyOp21
 70
     1
102
RTVSPropertyOp22
 70
     1
102
RTVSPropertyOp23
 70
     1
102
RTVSPropertyOp24
 70
     1
102
RTVSPropertyOp25
 70
     1
102
RTVSPropertyOp26
 70
     1
102
RTVSPropertyOp27
 70
     1
102
RTVSPropertyOp28
 70
     1
102
RTVSPropertyOp29
 70
     1
102
RTVSPropertyOp30
 70
     1
102
RTVSPropertyOp31
 70
     1
102
RTVSPropertyOp32
 70
     1
102
RTVSPropertyOp33
 70
     1
102
RTVSPropertyOp34
 70
     1
102
RTVSPropertyOp35
 70
     1
102
RTVSPropertyOp36
 70
     1
102
RTVSPropertyOp37
 70
     1
102
RTVSPropertyOp38
 70
     1
102
RTVSPropertyOp39
 70
     1
102
RTVSPropertyOp40
 70
     1
102
RTVSPropertyOp41
 70
     1
102
RTVSPropertyOp42
 70
     1
102
RTVSPropertyOp43
 70
     1
102
RTVSPropertyOp44
 70
     1
102
RTVSPropertyOp45
 70
     1
102
RTVSPropertyOp46
 70
     1
102
RTVSPropertyOp47
 70
     1
102
RTVSPropertyOp48
 70
     1
102
RTVSPropertyOp49
 70
     1
102
RTVSPropertyOp50
 70
     1
102
RTVSPropertyOp51
 70
     0
102
RTVSPropertyOp52
 70
     0
102
RTVSPropertyOp53
 70
     1
102
RTVSPropertyOp54
 70
     1
102
RTVSPropertyOp55
 70
     1
102
RTVSPropertyOp56
 70
     1
102
RTVSPropertyOp57
 70
     1
102
RTVSPropertyOp58
 70
     1
102
RTVSPropertyOp59
 70
     1
102
RTVSPropertyOp60
 70
     1
102
RTVSPropertyOp61
 70
     1
102
RTVSPropertyOp62
 70
     1
  0
XRECORD
  5
6E6
102
{ACAD_REACTORS
330
6E5
102
}
330
6E5
100
AcDbXrecord
280
     1
102
RTVSPost2010Prop28
280
     0
102
RTVSPost2010PropOp28
 70
     0
102
RTVSPost2010Prop29
280
     1
102
RTVSPost2010PropOp29
 70
     0
102
RTVSPost2010Prop30
280
     1
102
RTVSPost2010PropOp30
 70
     0
102
RTVSPost2010Prop31
280
     0
102
RTVSPost2010PropOp31
 70
     0
102
RTVSPost2010Prop32
280
     0
102
RTVSPost2010PropOp32
 70
     0
102
RTVSPost2010Prop33
280
     0
102
RTVSPost2010PropOp33
 70
     0
102
RTVSPost2010Prop34
280
     0
102
RTVSPost2010PropOp34
 70
     0
102
RTVSPost2010Prop35
280
     0
102
RTVSPost2010PropOp35
 70
     0
102
RTVSPost2010Prop36
280
     0
102
RTVSPost2010PropOp36
 70
     0
102
RTVSPost2010Prop37
 90
       50
102
RTVSPost2010PropOp37
 70
     0
102
RTVSPost2010Prop38
140
0.0
102
RTVSPost2010PropOp38
 70
     0
102
RTVSPost2010Prop39
140
1.0
102
RTVSPost2010PropOp39
 70
     0
102
RTVSPost2010Prop40
 90
        0
102
RTVSPost2010PropOp40
 70
     0
102
RTVSPost2010Prop41ColorIndex
 90
       18
102
RTVSPost2010Prop41ColorRGB
 90
        0
102
RTVSPost2010PropOp41
 70
     0
102
RTVSPost2010Prop42
 90
       50
102
RTVSPost2010PropOp42
 70
     0
102
RTVSPost2010Prop43
 90
        3
102
RTVSPost2010PropOp43
 70
     0
102
RTVSPost2010Prop44ColorIndex
 90
        5
102
RTVSPost2010Prop44ColorRGB
 90
      255
102
RTVSPost2010PropOp44
 70
     0
102
RTVSPost2010Prop45
280
     0
102
RTVSPost2010PropOp45
 70
     0
102
RTVSPost2010Prop46
 90
       50
102
RTVSPost2010PropOp46
 70
     0
102
RTVSPost2010Prop47
 90
       50
102
RTVSPost2010PropOp47
 70
     0
102
RTVSPost2010Prop48
 90
       50
102
RTVSPost2010PropOp48
 70
     0
102
RTVSPost2010Prop49
280
     0
102
RTVSPost2010PropOp49
 70
     0
102
RTVSPost2010Prop50
 90
       50
102
RTVSPost2010PropOp50
 70
     0
102
RTVSPost2010Prop51ColorIndex
 90
      256
102
RTVSPost2010Prop51ColorRGB
 90
-16777216
102
RTVSPost2010PropOp51
 70
     0
102
RTVSPost2010Prop52
140
1.0
102
RTVSPost2010PropOp52
 70
     0
102
RTVSPost2010Prop53
 90
        2
102
RTVSPost2010PropOp53
 70
     0
102
RTVSPost2010Prop54
  1
strokes_ogs.tif
102
RTVSPost2010PropOp54
 70
     0
102
RTVSPost2010Prop55
280
     0
102
RTVSPost2010PropOp55
 70
     0
102
RTVSPost2010Prop56
140
1.0
102
RTVSPost2010PropOp56
 70
     0
102
RTVSPost2010Prop57
140
1.0
102
RTVSPost2010PropOp57
 70
     0
102
RTVSPropertyOp0
 70
     0
102
RTVSPropertyOp1
 70
     0
102
RTVSPropertyOp2
 70
     0
102
RTVSPropertyOp3
 70
     0
102
RTVSPropertyOp4
 70
     0
102
RTVSPropertyOp5
 70
     0
102
RTVSPropertyOp6
 70
     0
102
RTVSPropertyOp7
 70
     0
102
RTVSPropertyOp8
 70
     0
102
RTVSPropertyOp9
 70
     0
102
RTVSPropertyOp10
 70
     0
102
RTVSPropertyOp11
 70
     0
102
RTVSPropertyOp12
 70
     0
102
RTVSPropertyOp13
 70
     0
102
RTVSPropertyOp14
 70
     2
102
RTVSPropertyOp15
 70
     0
102
RTVSPropertyOp16
 70
     0
102
RTVSPropertyOp17
 70
     0
102
RTVSPropertyOp18
 70
     0
102
RTVSPropertyOp19
 70
     0
102
RTVSPropertyOp20
 70
     0
102
RTVSPropertyOp21
 70
     0
102
RTVSPropertyOp22
 70
     0
102
RTVSPropertyOp23
 70
     0
102
RTVSPropertyOp24
 70
     0
102
RTVSPropertyOp25
 70
     0
102
RTVSPropertyOp26
 70
     0
102
RTVSPropertyOp27
 70
     0
102
RTVSPropertyOp28
 70
     0
102
RTVSPropertyOp29
 70
     0
102
RTVSPropertyOp30
 70
     0
102
RTVSPropertyOp31
 70
     0
102
RTVSPropertyOp32
 70
     0
102
RTVSPropertyOp33
 70
     0
102
RTVSPropertyOp34
 70
     0
102
RTVSPropertyOp35
 70
     0
102
RTVSPropertyOp36
 70
     0
102
RTVSPropertyOp37
 70
     0
102
RTVSPropertyOp38
 70
     0
102
RTVSPropertyOp39
 70
     0
102
RTVSPropertyOp40
 70
     0
102
RTVSPropertyOp41
 70
     0
102
RTVSPropertyOp42
 70
     0
102
RTVSPropertyOp43
 70
     0
102
RTVSPropertyOp44
 70
     0
102
RTVSPropertyOp45
 70
     0
102
RTVSPropertyOp46
 70
     0
102
RTVSPropertyOp47
 70
     0
102
RTVSPropertyOp48
 70
     0
102
RTVSPropertyOp49
 70
     0
102
RTVSPropertyOp50
 70
     0
102
RTVSPropertyOp51
 70
     0
102
RTVSPropertyOp52
 70
     0
102
RTVSPropertyOp53
 70
     0
102
RTVSPropertyOp54
 70
     0
102
RTVSPropertyOp55
 70
     0
102
RTVSPropertyOp56
 70
     0
102
RTVSPropertyOp57
 70
     0
102
RTVSPropertyOp58
 70
     1
102
RTVSPropertyOp59
 70
     1
102
RTVSPropertyOp60
 70
     1
102
RTVSPropertyOp61
 70
     1
102
RTVSPropertyOp62
 70
     1
  0
XRECORD
  5
6DE
102
{ACAD_REACTORS
330
6DD
102
}
330
6DD
100
AcDbXrecord
280
     1
102
RTVSPost2010Prop28
280
     0
102
RTVSPost2010PropOp28
 70
     1
102
RTVSPost2010Prop29
280
     1
102
RTVSPost2010PropOp29
 70
     1
102
RTVSPost2010Prop30
280
     1
102
RTVSPost2010PropOp30
 70
     1
102
RTVSPost2010Prop31
280
     0
102
RTVSPost2010PropOp31
 70
     1
102
RTVSPost2010Prop32
280
     0
102
RTVSPost2010PropOp32
 70
     1
102
RTVSPost2010Prop33
280
     0
102
RTVSPost2010PropOp33
 70
     1
102
RTVSPost2010Prop34
280
     0
102
RTVSPost2010PropOp34
 70
     1
102
RTVSPost2010Prop35
280
     0
102
RTVSPost2010PropOp35
 70
     1
102
RTVSPost2010Prop36
280
     0
102
RTVSPost2010PropOp36
 70
     1
102
RTVSPost2010Prop37
 90
       50
102
RTVSPost2010PropOp37
 70
     1
102
RTVSPost2010Prop38
140
0.0
102
RTVSPost2010PropOp38
 70
     1
102
RTVSPost2010Prop39
140
1.0
102
RTVSPost2010PropOp39
 70
     1
102
RTVSPost2010Prop40
 90
        0
102
RTVSPost2010PropOp40
 70
     1
102
RTVSPost2010Prop41ColorIndex
 90
       18
102
RTVSPost2010Prop41ColorRGB
 90
        0
102
RTVSPost2010PropOp41
 70
     1
102
RTVSPost2010Prop42
 90
       50
102
RTVSPost2010PropOp42
 70
     1
102
RTVSPost2010Prop43
 90
        3
102
RTVSPost2010PropOp43
 70
     1
102
RTVSPost2010Prop44ColorIndex
 90
        5
102
RTVSPost2010Prop44ColorRGB
 90
      255
102
RTVSPost2010PropOp44
 70
     1
102
RTVSPost2010Prop45
280
     0
102
RTVSPost2010PropOp45
 70
     1
102
RTVSPost2010Prop46
 90
       50
102
RTVSPost2010PropOp46
 70
     1
102
RTVSPost2010Prop47
 90
       50
102
RTVSPost2010PropOp47
 70
     1
102
RTVSPost2010Prop48
 90
       50
102
RTVSPost2010PropOp48
 70
     1
102
RTVSPost2010Prop49
280
     0
102
RTVSPost2010PropOp49
 70
     1
102
RTVSPost2010Prop50
 90
       50
102
RTVSPost2010PropOp50
 70
     1
102
RTVSPost2010Prop51ColorIndex
 90
      256
102
RTVSPost2010Prop51ColorRGB
 90
-16777216
102
RTVSPost2010PropOp51
 70
     0
102
RTVSPost2010Prop52
140
1.0
102
RTVSPost2010PropOp52
 70
     0
102
RTVSPost2010Prop53
 90
        2
102
RTVSPost2010PropOp53
 70
     1
102
RTVSPost2010Prop54
  1
strokes_ogs.tif
102
RTVSPost2010PropOp54
 70
     1
102
RTVSPost2010Prop55
280
     0
102
RTVSPost2010PropOp55
 70
     1
102
RTVSPost2010Prop56
140
1.0
102
RTVSPost2010PropOp56
 70
     1
102
RTVSPost2010Prop57
140
1.0
102
RTVSPost2010PropOp57
 70
     1
102
RTVSPropertyOp0
 70
     1
102
RTVSPropertyOp1
 70
     1
102
RTVSPropertyOp2
 70
     1
102
RTVSPropertyOp3
 70
     1
102
RTVSPropertyOp4
 70
     1
102
RTVSPropertyOp5
 70
     1
102
RTVSPropertyOp6
 70
     1
102
RTVSPropertyOp7
 70
     1
102
RTVSPropertyOp8
 70
     1
102
RTVSPropertyOp9
 70
     1
102
RTVSPropertyOp10
 70
     1
102
RTVSPropertyOp11
 70
     1
102
RTVSPropertyOp12
 70
     1
102
RTVSPropertyOp13
 70
     1
102
RTVSPropertyOp14
 70
     1
102
RTVSPropertyOp15
 70
     1
102
RTVSPropertyOp16
 70
     1
102
RTVSPropertyOp17
 70
     1
102
RTVSPropertyOp18
 70
     1
102
RTVSPropertyOp19
 70
     1
102
RTVSPropertyOp20
 70
     1
102
RTVSPropertyOp21
 70
     1
102
RTVSPropertyOp22
 70
     1
102
RTVSPropertyOp23
 70
     1
102
RTVSPropertyOp24
 70
     1
102
RTVSPropertyOp25
 70
     1
102
RTVSPropertyOp26
 70
     1
102
RTVSPropertyOp27
 70
     1
102
RTVSPropertyOp28
 70
     1
102
RTVSPropertyOp29
 70
     1
102
RTVSPropertyOp30
 70
     1
102
RTVSPropertyOp31
 70
     1
102
RTVSPropertyOp32
 70
     1
102
RTVSPropertyOp33
 70
     1
102
RTVSPropertyOp34
 70
     1
102
RTVSPropertyOp35
 70
     1
102
RTVSPropertyOp36
 70
     1
102
RTVSPropertyOp37
 70
     1
102
RTVSPropertyOp38
 70
     1
102
RTVSPropertyOp39
 70
     1
102
RTVSPropertyOp40
 70
     1
102
RTVSPropertyOp41
 70
     1
102
RTVSPropertyOp42
 70
     1
102
RTVSPropertyOp43
 70
     1
102
RTVSPropertyOp44
 70
     1
102
RTVSPropertyOp45
 70
     1
102
RTVSPropertyOp46
 70
     1
102
RTVSPropertyOp47
 70
     1
102
RTVSPropertyOp48
 70
     1
102
RTVSPropertyOp49
 70
     1
102
RTVSPropertyOp50
 70
     1
102
RTVSPropertyOp51
 70
     0
102
RTVSPropertyOp52
 70
     0
102
RTVSPropertyOp53
 70
     1
102
RTVSPropertyOp54
 70
     1
102
RTVSPropertyOp55
 70
     1
102
RTVSPropertyOp56
 70
     1
102
RTVSPropertyOp57
 70
     1
102
RTVSPropertyOp58
 70
     1
102
RTVSPropertyOp59
 70
     1
102
RTVSPropertyOp60
 70
     1
102
RTVSPropertyOp61
 70
     1
102
RTVSPropertyOp62
 70
     1
  0
XRECORD
  5
6C2
102
{ACAD_REACTORS
330
6C1
102
}
330
6C1
100
AcDbXrecord
280
     1
102
RTVSPost2010Prop28
280
     0
102
RTVSPost2010PropOp28
 70
     1
102
RTVSPost2010Prop29
280
     1
102
RTVSPost2010PropOp29
 70
     1
102
RTVSPost2010Prop30
280
     1
102
RTVSPost2010PropOp30
 70
     1
102
RTVSPost2010Prop31
280
     0
102
RTVSPost2010PropOp31
 70
     1
102
RTVSPost2010Prop32
280
     0
102
RTVSPost2010PropOp32
 70
     1
102
RTVSPost2010Prop33
280
     0
102
RTVSPost2010PropOp33
 70
     1
102
RTVSPost2010Prop34
280
     0
102
RTVSPost2010PropOp34
 70
     1
102
RTVSPost2010Prop35
280
     0
102
RTVSPost2010PropOp35
 70
     1
102
RTVSPost2010Prop36
280
     0
102
RTVSPost2010PropOp36
 70
     1
102
RTVSPost2010Prop37
 90
       50
102
RTVSPost2010PropOp37
 70
     1
102
RTVSPost2010Prop38
140
0.0
102
RTVSPost2010PropOp38
 70
     1
102
RTVSPost2010Prop39
140
1.0
102
RTVSPost2010PropOp39
 70
     1
102
RTVSPost2010Prop40
 90
        0
102
RTVSPost2010PropOp40
 70
     1
102
RTVSPost2010Prop41ColorIndex
 90
       18
102
RTVSPost2010Prop41ColorRGB
 90
        0
102
RTVSPost2010PropOp41
 70
     1
102
RTVSPost2010Prop42
 90
       50
102
RTVSPost2010PropOp42
 70
     1
102
RTVSPost2010Prop43
 90
        3
102
RTVSPost2010PropOp43
 70
     1
102
RTVSPost2010Prop44ColorIndex
 90
        5
102
RTVSPost2010Prop44ColorRGB
 90
      255
102
RTVSPost2010PropOp44
 70
     1
102
RTVSPost2010Prop45
280
     0
102
RTVSPost2010PropOp45
 70
     1
102
RTVSPost2010Prop46
 90
       50
102
RTVSPost2010PropOp46
 70
     1
102
RTVSPost2010Prop47
 90
       50
102
RTVSPost2010PropOp47
 70
     1
102
RTVSPost2010Prop48
 90
       50
102
RTVSPost2010PropOp48
 70
     1
102
RTVSPost2010Prop49
280
     0
102
RTVSPost2010PropOp49
 70
     1
102
RTVSPost2010Prop50
 90
       50
102
RTVSPost2010PropOp50
 70
     1
102
RTVSPost2010Prop51ColorIndex
 90
      256
102
RTVSPost2010Prop51ColorRGB
 90
-16777216
102
RTVSPost2010PropOp51
 70
     0
102
RTVSPost2010Prop52
140
1.0
102
RTVSPost2010PropOp52
 70
     0
102
RTVSPost2010Prop53
 90
        2
102
RTVSPost2010PropOp53
 70
     1
102
RTVSPost2010Prop54
  1
strokes_ogs.tif
102
RTVSPost2010PropOp54
 70
     1
102
RTVSPost2010Prop55
280
     0
102
RTVSPost2010PropOp55
 70
     1
102
RTVSPost2010Prop56
140
1.0
102
RTVSPost2010PropOp56
 70
     1
102
RTVSPost2010Prop57
140
1.0
102
RTVSPost2010PropOp57
 70
     1
102
RTVSPropertyOp0
 70
     1
102
RTVSPropertyOp1
 70
     1
102
RTVSPropertyOp2
 70
     1
102
RTVSPropertyOp3
 70
     1
102
RTVSPropertyOp4
 70
     1
102
RTVSPropertyOp5
 70
     1
102
RTVSPropertyOp6
 70
     1
102
RTVSPropertyOp7
 70
     1
102
RTVSPropertyOp8
 70
     1
102
RTVSPropertyOp9
 70
     1
102
RTVSPropertyOp10
 70
     1
102
RTVSPropertyOp11
 70
     1
102
RTVSPropertyOp12
 70
     1
102
RTVSPropertyOp13
 70
     1
102
RTVSPropertyOp14
 70
     1
102
RTVSPropertyOp15
 70
     1
102
RTVSPropertyOp16
 70
     1
102
RTVSPropertyOp17
 70
     1
102
RTVSPropertyOp18
 70
     1
102
RTVSPropertyOp19
 70
     1
102
RTVSPropertyOp20
 70
     1
102
RTVSPropertyOp21
 70
     1
102
RTVSPropertyOp22
 70
     1
102
RTVSPropertyOp23
 70
     1
102
RTVSPropertyOp24
 70
     1
102
RTVSPropertyOp25
 70
     1
102
RTVSPropertyOp26
 70
     1
102
RTVSPropertyOp27
 70
     1
102
RTVSPropertyOp28
 70
     1
102
RTVSPropertyOp29
 70
     1
102
RTVSPropertyOp30
 70
     1
102
RTVSPropertyOp31
 70
     1
102
RTVSPropertyOp32
 70
     1
102
RTVSPropertyOp33
 70
     1
102
RTVSPropertyOp34
 70
     1
102
RTVSPropertyOp35
 70
     1
102
RTVSPropertyOp36
 70
     1
102
RTVSPropertyOp37
 70
     1
102
RTVSPropertyOp38
 70
     1
102
RTVSPropertyOp39
 70
     1
102
RTVSPropertyOp40
 70
     1
102
RTVSPropertyOp41
 70
     1
102
RTVSPropertyOp42
 70
     1
102
RTVSPropertyOp43
 70
     1
102
RTVSPropertyOp44
 70
     1
102
RTVSPropertyOp45
 70
     1
102
RTVSPropertyOp46
 70
     1
102
RTVSPropertyOp47
 70
     1
102
RTVSPropertyOp48
 70
     1
102
RTVSPropertyOp49
 70
     1
102
RTVSPropertyOp50
 70
     1
102
RTVSPropertyOp51
 70
     0
102
RTVSPropertyOp52
 70
     0
102
RTVSPropertyOp53
 70
     1
102
RTVSPropertyOp54
 70
     1
102
RTVSPropertyOp55
 70
     1
102
RTVSPropertyOp56
 70
     1
102
RTVSPropertyOp57
 70
     1
102
RTVSPropertyOp58
 70
     1
102
RTVSPropertyOp59
 70
     1
102
RTVSPropertyOp60
 70
     1
102
RTVSPropertyOp61
 70
     1
102
RTVSPropertyOp62
 70
     1
  0
XRECORD
  5
6C4
102
{ACAD_REACTORS
330
6C3
102
}
330
6C3
100
AcDbXrecord
280
     1
102
RTVSPost2010Prop28
280
     0
102
RTVSPost2010PropOp28
 70
     1
102
RTVSPost2010Prop29
280
     1
102
RTVSPost2010PropOp29
 70
     1
102
RTVSPost2010Prop30
280
     1
102
RTVSPost2010PropOp30
 70
     1
102
RTVSPost2010Prop31
280
     0
102
RTVSPost2010PropOp31
 70
     1
102
RTVSPost2010Prop32
280
     0
102
RTVSPost2010PropOp32
 70
     1
102
RTVSPost2010Prop33
280
     0
102
RTVSPost2010PropOp33
 70
     1
102
RTVSPost2010Prop34
280
     0
102
RTVSPost2010PropOp34
 70
     1
102
RTVSPost2010Prop35
280
     0
102
RTVSPost2010PropOp35
 70
     1
102
RTVSPost2010Prop36
280
     0
102
RTVSPost2010PropOp36
 70
     1
102
RTVSPost2010Prop37
 90
       50
102
RTVSPost2010PropOp37
 70
     1
102
RTVSPost2010Prop38
140
0.0
102
RTVSPost2010PropOp38
 70
     1
102
RTVSPost2010Prop39
140
1.0
102
RTVSPost2010PropOp39
 70
     1
102
RTVSPost2010Prop40
 90
        0
102
RTVSPost2010PropOp40
 70
     1
102
RTVSPost2010Prop41ColorIndex
 90
       18
102
RTVSPost2010Prop41ColorRGB
 90
        0
102
RTVSPost2010PropOp41
 70
     1
102
RTVSPost2010Prop42
 90
       50
102
RTVSPost2010PropOp42
 70
     1
102
RTVSPost2010Prop43
 90
        3
102
RTVSPost2010PropOp43
 70
     1
102
RTVSPost2010Prop44ColorIndex
 90
        5
102
RTVSPost2010Prop44ColorRGB
 90
      255
102
RTVSPost2010PropOp44
 70
     1
102
RTVSPost2010Prop45
280
     0
102
RTVSPost2010PropOp45
 70
     1
102
RTVSPost2010Prop46
 90
       50
102
RTVSPost2010PropOp46
 70
     1
102
RTVSPost2010Prop47
 90
       50
102
RTVSPost2010PropOp47
 70
     1
102
RTVSPost2010Prop48
 90
       50
102
RTVSPost2010PropOp48
 70
     1
102
RTVSPost2010Prop49
280
     0
102
RTVSPost2010PropOp49
 70
     1
102
RTVSPost2010Prop50
 90
       50
102
RTVSPost2010PropOp50
 70
     1
102
RTVSPost2010Prop51ColorIndex
 90
      256
102
RTVSPost2010Prop51ColorRGB
 90
-16777216
102
RTVSPost2010PropOp51
 70
     0
102
RTVSPost2010Prop52
140
1.0
102
RTVSPost2010PropOp52
 70
     0
102
RTVSPost2010Prop53
 90
        2
102
RTVSPost2010PropOp53
 70
     1
102
RTVSPost2010Prop54
  1
strokes_ogs.tif
102
RTVSPost2010PropOp54
 70
     1
102
RTVSPost2010Prop55
280
     0
102
RTVSPost2010PropOp55
 70
     1
102
RTVSPost2010Prop56
140
1.0
102
RTVSPost2010PropOp56
 70
     1
102
RTVSPost2010Prop57
140
1.0
102
RTVSPost2010PropOp57
 70
     1
102
RTVSPropertyOp0
 70
     1
102
RTVSPropertyOp1
 70
     1
102
RTVSPropertyOp2
 70
     1
102
RTVSPropertyOp3
 70
     1
102
RTVSPropertyOp4
 70
     1
102
RTVSPropertyOp5
 70
     1
102
RTVSPropertyOp6
 70
     1
102
RTVSPropertyOp7
 70
     1
102
RTVSPropertyOp8
 70
     1
102
RTVSPropertyOp9
 70
     1
102
RTVSPropertyOp10
 70
     1
102
RTVSPropertyOp11
 70
     1
102
RTVSPropertyOp12
 70
     1
102
RTVSPropertyOp13
 70
     1
102
RTVSPropertyOp14
 70
     1
102
RTVSPropertyOp15
 70
     1
102
RTVSPropertyOp16
 70
     1
102
RTVSPropertyOp17
 70
     1
102
RTVSPropertyOp18
 70
     1
102
RTVSPropertyOp19
 70
     1
102
RTVSPropertyOp20
 70
     1
102
RTVSPropertyOp21
 70
     1
102
RTVSPropertyOp22
 70
     1
102
RTVSPropertyOp23
 70
     1
102
RTVSPropertyOp24
 70
     1
102
RTVSPropertyOp25
 70
     1
102
RTVSPropertyOp26
 70
     1
102
RTVSPropertyOp27
 70
     1
102
RTVSPropertyOp28
 70
     1
102
RTVSPropertyOp29
 70
     1
102
RTVSPropertyOp30
 70
     1
102
RTVSPropertyOp31
 70
     1
102
RTVSPropertyOp32
 70
     1
102
RTVSPropertyOp33
 70
     1
102
RTVSPropertyOp34
 70
     1
102
RTVSPropertyOp35
 70
     1
102
RTVSPropertyOp36
 70
     1
102
RTVSPropertyOp37
 70
     1
102
RTVSPropertyOp38
 70
     1
102
RTVSPropertyOp39
 70
     1
102
RTVSPropertyOp40
 70
     1
102
RTVSPropertyOp41
 70
     1
102
RTVSPropertyOp42
 70
     1
102
RTVSPropertyOp43
 70
     1
102
RTVSPropertyOp44
 70
     1
102
RTVSPropertyOp45
 70
     1
102
RTVSPropertyOp46
 70
     1
102
RTVSPropertyOp47
 70
     1
102
RTVSPropertyOp48
 70
     1
102
RTVSPropertyOp49
 70
     1
102
RTVSPropertyOp50
 70
     1
102
RTVSPropertyOp51
 70
     0
102
RTVSPropertyOp52
 70
     0
102
RTVSPropertyOp53
 70
     1
102
RTVSPropertyOp54
 70
     1
102
RTVSPropertyOp55
 70
     1
102
RTVSPropertyOp56
 70
     1
102
RTVSPropertyOp57
 70
     1
102
RTVSPropertyOp58
 70
     1
102
RTVSPropertyOp59
 70
     1
102
RTVSPropertyOp60
 70
     1
102
RTVSPropertyOp61
 70
     1
102
RTVSPropertyOp62
 70
     1
  0
XRECORD
  5
6C6
102
{ACAD_REACTORS
330
6C5
102
}
330
6C5
100
AcDbXrecord
280
     1
102
RTVSPost2010Prop28
280
     0
102
RTVSPost2010PropOp28
 70
     1
102
RTVSPost2010Prop29
280
     1
102
RTVSPost2010PropOp29
 70
     1
102
RTVSPost2010Prop30
280
     1
102
RTVSPost2010PropOp30
 70
     1
102
RTVSPost2010Prop31
280
     0
102
RTVSPost2010PropOp31
 70
     1
102
RTVSPost2010Prop32
280
     0
102
RTVSPost2010PropOp32
 70
     1
102
RTVSPost2010Prop33
280
     0
102
RTVSPost2010PropOp33
 70
     1
102
RTVSPost2010Prop34
280
     0
102
RTVSPost2010PropOp34
 70
     1
102
RTVSPost2010Prop35
280
     0
102
RTVSPost2010PropOp35
 70
     1
102
RTVSPost2010Prop36
280
     0
102
RTVSPost2010PropOp36
 70
     1
102
RTVSPost2010Prop37
 90
       50
102
RTVSPost2010PropOp37
 70
     1
102
RTVSPost2010Prop38
140
0.0
102
RTVSPost2010PropOp38
 70
     1
102
RTVSPost2010Prop39
140
1.0
102
RTVSPost2010PropOp39
 70
     1
102
RTVSPost2010Prop40
 90
        0
102
RTVSPost2010PropOp40
 70
     1
102
RTVSPost2010Prop41ColorIndex
 90
       18
102
RTVSPost2010Prop41ColorRGB
 90
        0
102
RTVSPost2010PropOp41
 70
     1
102
RTVSPost2010Prop42
 90
       50
102
RTVSPost2010PropOp42
 70
     1
102
RTVSPost2010Prop43
 90
        3
102
RTVSPost2010PropOp43
 70
     1
102
RTVSPost2010Prop44ColorIndex
 90
        5
102
RTVSPost2010Prop44ColorRGB
 90
      255
102
RTVSPost2010PropOp44
 70
     1
102
RTVSPost2010Prop45
280
     0
102
RTVSPost2010PropOp45
 70
     1
102
RTVSPost2010Prop46
 90
       50
102
RTVSPost2010PropOp46
 70
     1
102
RTVSPost2010Prop47
 90
       50
102
RTVSPost2010PropOp47
 70
     1
102
RTVSPost2010Prop48
 90
       50
102
RTVSPost2010PropOp48
 70
     1
102
RTVSPost2010Prop49
280
     0
102
RTVSPost2010PropOp49
 70
     1
102
RTVSPost2010Prop50
 90
       50
102
RTVSPost2010PropOp50
 70
     1
102
RTVSPost2010Prop51ColorIndex
 90
      256
102
RTVSPost2010Prop51ColorRGB
 90
-16777216
102
RTVSPost2010PropOp51
 70
     0
102
RTVSPost2010Prop52
140
1.0
102
RTVSPost2010PropOp52
 70
     0
102
RTVSPost2010Prop53
 90
        2
102
RTVSPost2010PropOp53
 70
     1
102
RTVSPost2010Prop54
  1
strokes_ogs.tif
102
RTVSPost2010PropOp54
 70
     1
102
RTVSPost2010Prop55
280
     0
102
RTVSPost2010PropOp55
 70
     1
102
RTVSPost2010Prop56
140
1.0
102
RTVSPost2010PropOp56
 70
     1
102
RTVSPost2010Prop57
140
1.0
102
RTVSPost2010PropOp57
 70
     1
102
RTVSPropertyOp0
 70
     1
102
RTVSPropertyOp1
 70
     1
102
RTVSPropertyOp2
 70
     1
102
RTVSPropertyOp3
 70
     1
102
RTVSPropertyOp4
 70
     1
102
RTVSPropertyOp5
 70
     1
102
RTVSPropertyOp6
 70
     1
102
RTVSPropertyOp7
 70
     1
102
RTVSPropertyOp8
 70
     1
102
RTVSPropertyOp9
 70
     1
102
RTVSPropertyOp10
 70
     1
102
RTVSPropertyOp11
 70
     1
102
RTVSPropertyOp12
 70
     1
102
RTVSPropertyOp13
 70
     1
102
RTVSPropertyOp14
 70
     1
102
RTVSPropertyOp15
 70
     1
102
RTVSPropertyOp16
 70
     1
102
RTVSPropertyOp17
 70
     1
102
RTVSPropertyOp18
 70
     1
102
RTVSPropertyOp19
 70
     1
102
RTVSPropertyOp20
 70
     1
102
RTVSPropertyOp21
 70
     1
102
RTVSPropertyOp22
 70
     1
102
RTVSPropertyOp23
 70
     1
102
RTVSPropertyOp24
 70
     1
102
RTVSPropertyOp25
 70
     1
102
RTVSPropertyOp26
 70
     1
102
RTVSPropertyOp27
 70
     1
102
RTVSPropertyOp28
 70
     1
102
RTVSPropertyOp29
 70
     1
102
RTVSPropertyOp30
 70
     1
102
RTVSPropertyOp31
 70
     1
102
RTVSPropertyOp32
 70
     1
102
RTVSPropertyOp33
 70
     1
102
RTVSPropertyOp34
 70
     1
102
RTVSPropertyOp35
 70
     1
102
RTVSPropertyOp36
 70
     1
102
RTVSPropertyOp37
 70
     1
102
RTVSPropertyOp38
 70
     1
102
RTVSPropertyOp39
 70
     1
102
RTVSPropertyOp40
 70
     1
102
RTVSPropertyOp41
 70
     1
102
RTVSPropertyOp42
 70
     1
102
RTVSPropertyOp43
 70
     1
102
RTVSPropertyOp44
 70
     1
102
RTVSPropertyOp45
 70
     1
102
RTVSPropertyOp46
 70
     1
102
RTVSPropertyOp47
 70
     1
102
RTVSPropertyOp48
 70
     1
102
RTVSPropertyOp49
 70
     1
102
RTVSPropertyOp50
 70
     1
102
RTVSPropertyOp51
 70
     0
102
RTVSPropertyOp52
 70
     0
102
RTVSPropertyOp53
 70
     1
102
RTVSPropertyOp54
 70
     1
102
RTVSPropertyOp55
 70
     1
102
RTVSPropertyOp56
 70
     1
102
RTVSPropertyOp57
 70
     1
102
RTVSPropertyOp58
 70
     1
102
RTVSPropertyOp59
 70
     1
102
RTVSPropertyOp60
 70
     1
102
RTVSPropertyOp61
 70
     1
102
RTVSPropertyOp62
 70
     1
  0
XRECORD
  5
6C8
102
{ACAD_REACTORS
330
6C7
102
}
330
6C7
100
AcDbXrecord
280
     1
102
RTVSPost2010Prop28
280
     0
102
RTVSPost2010PropOp28
 70
     1
102
RTVSPost2010Prop29
280
     1
102
RTVSPost2010PropOp29
 70
     1
102
RTVSPost2010Prop30
280
     1
102
RTVSPost2010PropOp30
 70
     1
102
RTVSPost2010Prop31
280
     0
102
RTVSPost2010PropOp31
 70
     1
102
RTVSPost2010Prop32
280
     0
102
RTVSPost2010PropOp32
 70
     1
102
RTVSPost2010Prop33
280
     0
102
RTVSPost2010PropOp33
 70
     1
102
RTVSPost2010Prop34
280
     0
102
RTVSPost2010PropOp34
 70
     1
102
RTVSPost2010Prop35
280
     0
102
RTVSPost2010PropOp35
 70
     1
102
RTVSPost2010Prop36
280
     0
102
RTVSPost2010PropOp36
 70
     1
102
RTVSPost2010Prop37
 90
       50
102
RTVSPost2010PropOp37
 70
     1
102
RTVSPost2010Prop38
140
0.0
102
RTVSPost2010PropOp38
 70
     1
102
RTVSPost2010Prop39
140
1.0
102
RTVSPost2010PropOp39
 70
     1
102
RTVSPost2010Prop40
 90
        0
102
RTVSPost2010PropOp40
 70
     1
102
RTVSPost2010Prop41ColorIndex
 90
       18
102
RTVSPost2010Prop41ColorRGB
 90
        0
102
RTVSPost2010PropOp41
 70
     1
102
RTVSPost2010Prop42
 90
       50
102
RTVSPost2010PropOp42
 70
     1
102
RTVSPost2010Prop43
 90
        3
102
RTVSPost2010PropOp43
 70
     1
102
RTVSPost2010Prop44ColorIndex
 90
        5
102
RTVSPost2010Prop44ColorRGB
 90
      255
102
RTVSPost2010PropOp44
 70
     1
102
RTVSPost2010Prop45
280
     0
102
RTVSPost2010PropOp45
 70
     1
102
RTVSPost2010Prop46
 90
       50
102
RTVSPost2010PropOp46
 70
     1
102
RTVSPost2010Prop47
 90
       50
102
RTVSPost2010PropOp47
 70
     1
102
RTVSPost2010Prop48
 90
       50
102
RTVSPost2010PropOp48
 70
     1
102
RTVSPost2010Prop49
280
     0
102
RTVSPost2010PropOp49
 70
     1
102
RTVSPost2010Prop50
 90
       50
102
RTVSPost2010PropOp50
 70
     1
102
RTVSPost2010Prop51ColorIndex
 90
      256
102
RTVSPost2010Prop51ColorRGB
 90
-16777216
102
RTVSPost2010PropOp51
 70
     0
102
RTVSPost2010Prop52
140
1.0
102
RTVSPost2010PropOp52
 70
     0
102
RTVSPost2010Prop53
 90
        2
102
RTVSPost2010PropOp53
 70
     1
102
RTVSPost2010Prop54
  1
strokes_ogs.tif
102
RTVSPost2010PropOp54
 70
     1
102
RTVSPost2010Prop55
280
     0
102
RTVSPost2010PropOp55
 70
     1
102
RTVSPost2010Prop56
140
1.0
102
RTVSPost2010PropOp56
 70
     1
102
RTVSPost2010Prop57
140
1.0
102
RTVSPost2010PropOp57
 70
     1
102
RTVSPropertyOp0
 70
     1
102
RTVSPropertyOp1
 70
     1
102
RTVSPropertyOp2
 70
     1
102
RTVSPropertyOp3
 70
     1
102
RTVSPropertyOp4
 70
     1
102
RTVSPropertyOp5
 70
     1
102
RTVSPropertyOp6
 70
     1
102
RTVSPropertyOp7
 70
     1
102
RTVSPropertyOp8
 70
     1
102
RTVSPropertyOp9
 70
     1
102
RTVSPropertyOp10
 70
     1
102
RTVSPropertyOp11
 70
     1
102
RTVSPropertyOp12
 70
     1
102
RTVSPropertyOp13
 70
     1
102
RTVSPropertyOp14
 70
     1
102
RTVSPropertyOp15
 70
     1
102
RTVSPropertyOp16
 70
     1
102
RTVSPropertyOp17
 70
     1
102
RTVSPropertyOp18
 70
     1
102
RTVSPropertyOp19
 70
     1
102
RTVSPropertyOp20
 70
     1
102
RTVSPropertyOp21
 70
     1
102
RTVSPropertyOp22
 70
     1
102
RTVSPropertyOp23
 70
     1
102
RTVSPropertyOp24
 70
     1
102
RTVSPropertyOp25
 70
     1
102
RTVSPropertyOp26
 70
     1
102
RTVSPropertyOp27
 70
     1
102
RTVSPropertyOp28
 70
     1
102
RTVSPropertyOp29
 70
     1
102
RTVSPropertyOp30
 70
     1
102
RTVSPropertyOp31
 70
     1
102
RTVSPropertyOp32
 70
     1
102
RTVSPropertyOp33
 70
     1
102
RTVSPropertyOp34
 70
     1
102
RTVSPropertyOp35
 70
     1
102
RTVSPropertyOp36
 70
     1
102
RTVSPropertyOp37
 70
     1
102
RTVSPropertyOp38
 70
     1
102
RTVSPropertyOp39
 70
     1
102
RTVSPropertyOp40
 70
     1
102
RTVSPropertyOp41
 70
     1
102
RTVSPropertyOp42
 70
     1
102
RTVSPropertyOp43
 70
     1
102
RTVSPropertyOp44
 70
     1
102
RTVSPropertyOp45
 70
     1
102
RTVSPropertyOp46
 70
     1
102
RTVSPropertyOp47
 70
     1
102
RTVSPropertyOp48
 70
     1
102
RTVSPropertyOp49
 70
     1
102
RTVSPropertyOp50
 70
     1
102
RTVSPropertyOp51
 70
     0
102
RTVSPropertyOp52
 70
     0
102
RTVSPropertyOp53
 70
     1
102
RTVSPropertyOp54
 70
     1
102
RTVSPropertyOp55
 70
     1
102
RTVSPropertyOp56
 70
     1
102
RTVSPropertyOp57
 70
     1
102
RTVSPropertyOp58
 70
     1
102
RTVSPropertyOp59
 70
     1
102
RTVSPropertyOp60
 70
     1
102
RTVSPropertyOp61
 70
     1
102
RTVSPropertyOp62
 70
     1
  0
XRECORD
  5
6CE
102
{ACAD_REACTORS
330
6CD
102
}
330
6CD
100
AcDbXrecord
280
     1
102
RTVSPost2010Prop28
280
     0
102
RTVSPost2010PropOp28
 70
     1
102
RTVSPost2010Prop29
280
     1
102
RTVSPost2010PropOp29
 70
     1
102
RTVSPost2010Prop30
280
     1
102
RTVSPost2010PropOp30
 70
     1
102
RTVSPost2010Prop31
280
     0
102
RTVSPost2010PropOp31
 70
     1
102
RTVSPost2010Prop32
280
     0
102
RTVSPost2010PropOp32
 70
     1
102
RTVSPost2010Prop33
280
     0
102
RTVSPost2010PropOp33
 70
     1
102
RTVSPost2010Prop34
280
     0
102
RTVSPost2010PropOp34
 70
     1
102
RTVSPost2010Prop35
280
     0
102
RTVSPost2010PropOp35
 70
     1
102
RTVSPost2010Prop36
280
     0
102
RTVSPost2010PropOp36
 70
     1
102
RTVSPost2010Prop37
 90
       50
102
RTVSPost2010PropOp37
 70
     1
102
RTVSPost2010Prop38
140
0.0
102
RTVSPost2010PropOp38
 70
     1
102
RTVSPost2010Prop39
140
1.0
102
RTVSPost2010PropOp39
 70
     1
102
RTVSPost2010Prop40
 90
        0
102
RTVSPost2010PropOp40
 70
     1
102
RTVSPost2010Prop41ColorIndex
 90
       18
102
RTVSPost2010Prop41ColorRGB
 90
        0
102
RTVSPost2010PropOp41
 70
     1
102
RTVSPost2010Prop42
 90
       50
102
RTVSPost2010PropOp42
 70
     1
102
RTVSPost2010Prop43
 90
        3
102
RTVSPost2010PropOp43
 70
     1
102
RTVSPost2010Prop44ColorIndex
 90
        5
102
RTVSPost2010Prop44ColorRGB
 90
      255
102
RTVSPost2010PropOp44
 70
     1
102
RTVSPost2010Prop45
280
     0
102
RTVSPost2010PropOp45
 70
     1
102
RTVSPost2010Prop46
 90
       50
102
RTVSPost2010PropOp46
 70
     1
102
RTVSPost2010Prop47
 90
       50
102
RTVSPost2010PropOp47
 70
     1
102
RTVSPost2010Prop48
 90
       50
102
RTVSPost2010PropOp48
 70
     1
102
RTVSPost2010Prop49
280
     0
102
RTVSPost2010PropOp49
 70
     1
102
RTVSPost2010Prop50
 90
       50
102
RTVSPost2010PropOp50
 70
     1
102
RTVSPost2010Prop51ColorIndex
 90
      256
102
RTVSPost2010Prop51ColorRGB
 90
-16777216
102
RTVSPost2010PropOp51
 70
     0
102
RTVSPost2010Prop52
140
1.0
102
RTVSPost2010PropOp52
 70
     0
102
RTVSPost2010Prop53
 90
        2
102
RTVSPost2010PropOp53
 70
     1
102
RTVSPost2010Prop54
  1
strokes_ogs.tif
102
RTVSPost2010PropOp54
 70
     1
102
RTVSPost2010Prop55
280
     0
102
RTVSPost2010PropOp55
 70
     1
102
RTVSPost2010Prop56
140
1.0
102
RTVSPost2010PropOp56
 70
     1
102
RTVSPost2010Prop57
140
1.0
102
RTVSPost2010PropOp57
 70
     1
102
RTVSPropertyOp0
 70
     1
102
RTVSPropertyOp1
 70
     1
102
RTVSPropertyOp2
 70
     1
102
RTVSPropertyOp3
 70
     1
102
RTVSPropertyOp4
 70
     1
102
RTVSPropertyOp5
 70
     1
102
RTVSPropertyOp6
 70
     1
102
RTVSPropertyOp7
 70
     1
102
RTVSPropertyOp8
 70
     1
102
RTVSPropertyOp9
 70
     1
102
RTVSPropertyOp10
 70
     1
102
RTVSPropertyOp11
 70
     1
102
RTVSPropertyOp12
 70
     1
102
RTVSPropertyOp13
 70
     1
102
RTVSPropertyOp14
 70
     1
102
RTVSPropertyOp15
 70
     1
102
RTVSPropertyOp16
 70
     1
102
RTVSPropertyOp17
 70
     1
102
RTVSPropertyOp18
 70
     1
102
RTVSPropertyOp19
 70
     1
102
RTVSPropertyOp20
 70
     1
102
RTVSPropertyOp21
 70
     1
102
RTVSPropertyOp22
 70
     1
102
RTVSPropertyOp23
 70
     1
102
RTVSPropertyOp24
 70
     1
102
RTVSPropertyOp25
 70
     1
102
RTVSPropertyOp26
 70
     1
102
RTVSPropertyOp27
 70
     1
102
RTVSPropertyOp28
 70
     1
102
RTVSPropertyOp29
 70
     1
102
RTVSPropertyOp30
 70
     1
102
RTVSPropertyOp31
 70
     1
102
RTVSPropertyOp32
 70
     1
102
RTVSPropertyOp33
 70
     1
102
RTVSPropertyOp34
 70
     1
102
RTVSPropertyOp35
 70
     1
102
RTVSPropertyOp36
 70
     1
102
RTVSPropertyOp37
 70
     1
102
RTVSPropertyOp38
 70
     1
102
RTVSPropertyOp39
 70
     1
102
RTVSPropertyOp40
 70
     1
102
RTVSPropertyOp41
 70
     1
102
RTVSPropertyOp42
 70
     1
102
RTVSPropertyOp43
 70
     1
102
RTVSPropertyOp44
 70
     1
102
RTVSPropertyOp45
 70
     1
102
RTVSPropertyOp46
 70
     1
102
RTVSPropertyOp47
 70
     1
102
RTVSPropertyOp48
 70
     1
102
RTVSPropertyOp49
 70
     1
102
RTVSPropertyOp50
 70
     1
102
RTVSPropertyOp51
 70
     0
102
RTVSPropertyOp52
 70
     0
102
RTVSPropertyOp53
 70
     1
102
RTVSPropertyOp54
 70
     1
102
RTVSPropertyOp55
 70
     1
102
RTVSPropertyOp56
 70
     1
102
RTVSPropertyOp57
 70
     1
102
RTVSPropertyOp58
 70
     1
102
RTVSPropertyOp59
 70
     1
102
RTVSPropertyOp60
 70
     1
102
RTVSPropertyOp61
 70
     1
102
RTVSPropertyOp62
 70
     1
  0
XRECORD
  5
6E2
102
{ACAD_REACTORS
330
6E1
102
}
330
6E1
100
AcDbXrecord
280
     1
102
RTVSPost2010Prop28
280
     0
102
RTVSPost2010PropOp28
 70
     0
102
RTVSPost2010Prop29
280
     1
102
RTVSPost2010PropOp29
 70
     0
102
RTVSPost2010Prop30
280
     1
102
RTVSPost2010PropOp30
 70
     0
102
RTVSPost2010Prop31
280
     0
102
RTVSPost2010PropOp31
 70
     0
102
RTVSPost2010Prop32
280
     0
102
RTVSPost2010PropOp32
 70
     0
102
RTVSPost2010Prop33
280
     0
102
RTVSPost2010PropOp33
 70
     0
102
RTVSPost2010Prop34
280
     0
102
RTVSPost2010PropOp34
 70
     0
102
RTVSPost2010Prop35
280
     0
102
RTVSPost2010PropOp35
 70
     0
102
RTVSPost2010Prop36
280
     0
102
RTVSPost2010PropOp36
 70
     0
102
RTVSPost2010Prop37
 90
       50
102
RTVSPost2010PropOp37
 70
     0
102
RTVSPost2010Prop38
140
0.0
102
RTVSPost2010PropOp38
 70
     0
102
RTVSPost2010Prop39
140
1.0
102
RTVSPost2010PropOp39
 70
     0
102
RTVSPost2010Prop40
 90
        0
102
RTVSPost2010PropOp40
 70
     0
102
RTVSPost2010Prop41ColorIndex
 90
       18
102
RTVSPost2010Prop41ColorRGB
 90
        0
102
RTVSPost2010PropOp41
 70
     0
102
RTVSPost2010Prop42
 90
       50
102
RTVSPost2010PropOp42
 70
     0
102
RTVSPost2010Prop43
 90
        3
102
RTVSPost2010PropOp43
 70
     0
102
RTVSPost2010Prop44ColorIndex
 90
        5
102
RTVSPost2010Prop44ColorRGB
 90
      255
102
RTVSPost2010PropOp44
 70
     0
102
RTVSPost2010Prop45
280
     0
102
RTVSPost2010PropOp45
 70
     0
102
RTVSPost2010Prop46
 90
       50
102
RTVSPost2010PropOp46
 70
     0
102
RTVSPost2010Prop47
 90
       50
102
RTVSPost2010PropOp47
 70
     0
102
RTVSPost2010Prop48
 90
       50
102
RTVSPost2010PropOp48
 70
     0
102
RTVSPost2010Prop49
280
     0
102
RTVSPost2010PropOp49
 70
     0
102
RTVSPost2010Prop50
 90
       50
102
RTVSPost2010PropOp50
 70
     0
102
RTVSPost2010Prop51ColorIndex
 90
      256
102
RTVSPost2010Prop51ColorRGB
 90
-16777216
102
RTVSPost2010PropOp51
 70
     0
102
RTVSPost2010Prop52
140
1.0
102
RTVSPost2010PropOp52
 70
     0
102
RTVSPost2010Prop53
 90
        2
102
RTVSPost2010PropOp53
 70
     0
102
RTVSPost2010Prop54
  1
strokes_ogs.tif
102
RTVSPost2010PropOp54
 70
     0
102
RTVSPost2010Prop55
280
     0
102
RTVSPost2010PropOp55
 70
     0
102
RTVSPost2010Prop56
140
1.0
102
RTVSPost2010PropOp56
 70
     0
102
RTVSPost2010Prop57
140
1.0
102
RTVSPost2010PropOp57
 70
     0
102
RTVSPropertyOp0
 70
     0
102
RTVSPropertyOp1
 70
     0
102
RTVSPropertyOp2
 70
     0
102
RTVSPropertyOp3
 70
     0
102
RTVSPropertyOp4
 70
     0
102
RTVSPropertyOp5
 70
     0
102
RTVSPropertyOp6
 70
     0
102
RTVSPropertyOp7
 70
     0
102
RTVSPropertyOp8
 70
     0
102
RTVSPropertyOp9
 70
     0
102
RTVSPropertyOp10
 70
     0
102
RTVSPropertyOp11
 70
     0
102
RTVSPropertyOp12
 70
     0
102
RTVSPropertyOp13
 70
     0
102
RTVSPropertyOp14
 70
     2
102
RTVSPropertyOp15
 70
     0
102
RTVSPropertyOp16
 70
     0
102
RTVSPropertyOp17
 70
     0
102
RTVSPropertyOp18
 70
     0
102
RTVSPropertyOp19
 70
     0
102
RTVSPropertyOp20
 70
     0
102
RTVSPropertyOp21
 70
     0
102
RTVSPropertyOp22
 70
     0
102
RTVSPropertyOp23
 70
     0
102
RTVSPropertyOp24
 70
     0
102
RTVSPropertyOp25
 70
     0
102
RTVSPropertyOp26
 70
     0
102
RTVSPropertyOp27
 70
     0
102
RTVSPropertyOp28
 70
     0
102
RTVSPropertyOp29
 70
     0
102
RTVSPropertyOp30
 70
     0
102
RTVSPropertyOp31
 70
     0
102
RTVSPropertyOp32
 70
     0
102
RTVSPropertyOp33
 70
     0
102
RTVSPropertyOp34
 70
     0
102
RTVSPropertyOp35
 70
     0
102
RTVSPropertyOp36
 70
     0
102
RTVSPropertyOp37
 70
     0
102
RTVSPropertyOp38
 70
     0
102
RTVSPropertyOp39
 70
     0
102
RTVSPropertyOp40
 70
     0
102
RTVSPropertyOp41
 70
     0
102
RTVSPropertyOp42
 70
     0
102
RTVSPropertyOp43
 70
     0
102
RTVSPropertyOp44
 70
     0
102
RTVSPropertyOp45
 70
     0
102
RTVSPropertyOp46
 70
     0
102
RTVSPropertyOp47
 70
     0
102
RTVSPropertyOp48
 70
     0
102
RTVSPropertyOp49
 70
     0
102
RTVSPropertyOp50
 70
     0
102
RTVSPropertyOp51
 70
     0
102
RTVSPropertyOp52
 70
     0
102
RTVSPropertyOp53
 70
     0
102
RTVSPropertyOp54
 70
     0
102
RTVSPropertyOp55
 70
     0
102
RTVSPropertyOp56
 70
     0
102
RTVSPropertyOp57
 70
     0
102
RTVSPropertyOp58
 70
     1
102
RTVSPropertyOp59
 70
     1
102
RTVSPropertyOp60
 70
     1
102
RTVSPropertyOp61
 70
     1
102
RTVSPropertyOp62
 70
     1
  0
XRECORD
  5
6DC
102
{ACAD_REACTORS
330
6DB
102
}
330
6DB
100
AcDbXrecord
280
     1
102
RTVSPost2010Prop28
280
     0
102
RTVSPost2010PropOp28
 70
     1
102
RTVSPost2010Prop29
280
     1
102
RTVSPost2010PropOp29
 70
     1
102
RTVSPost2010Prop30
280
     1
102
RTVSPost2010PropOp30
 70
     1
102
RTVSPost2010Prop31
280
     0
102
RTVSPost2010PropOp31
 70
     1
102
RTVSPost2010Prop32
280
     0
102
RTVSPost2010PropOp32
 70
     1
102
RTVSPost2010Prop33
280
     0
102
RTVSPost2010PropOp33
 70
     1
102
RTVSPost2010Prop34
280
     0
102
RTVSPost2010PropOp34
 70
     1
102
RTVSPost2010Prop35
280
     0
102
RTVSPost2010PropOp35
 70
     1
102
RTVSPost2010Prop36
280
     0
102
RTVSPost2010PropOp36
 70
     1
102
RTVSPost2010Prop37
 90
       50
102
RTVSPost2010PropOp37
 70
     1
102
RTVSPost2010Prop38
140
0.0
102
RTVSPost2010PropOp38
 70
     1
102
RTVSPost2010Prop39
140
1.0
102
RTVSPost2010PropOp39
 70
     1
102
RTVSPost2010Prop40
 90
        0
102
RTVSPost2010PropOp40
 70
     1
102
RTVSPost2010Prop41ColorIndex
 90
       18
102
RTVSPost2010Prop41ColorRGB
 90
        0
102
RTVSPost2010PropOp41
 70
     1
102
RTVSPost2010Prop42
 90
       50
102
RTVSPost2010PropOp42
 70
     1
102
RTVSPost2010Prop43
 90
        3
102
RTVSPost2010PropOp43
 70
     1
102
RTVSPost2010Prop44ColorIndex
 90
        5
102
RTVSPost2010Prop44ColorRGB
 90
      255
102
RTVSPost2010PropOp44
 70
     1
102
RTVSPost2010Prop45
280
     0
102
RTVSPost2010PropOp45
 70
     1
102
RTVSPost2010Prop46
 90
       50
102
RTVSPost2010PropOp46
 70
     1
102
RTVSPost2010Prop47
 90
       50
102
RTVSPost2010PropOp47
 70
     1
102
RTVSPost2010Prop48
 90
       50
102
RTVSPost2010PropOp48
 70
     1
102
RTVSPost2010Prop49
280
     0
102
RTVSPost2010PropOp49
 70
     1
102
RTVSPost2010Prop50
 90
       50
102
RTVSPost2010PropOp50
 70
     1
102
RTVSPost2010Prop51ColorIndex
 90
      256
102
RTVSPost2010Prop51ColorRGB
 90
-16777216
102
RTVSPost2010PropOp51
 70
     0
102
RTVSPost2010Prop52
140
1.0
102
RTVSPost2010PropOp52
 70
     0
102
RTVSPost2010Prop53
 90
        2
102
RTVSPost2010PropOp53
 70
     1
102
RTVSPost2010Prop54
  1
strokes_ogs.tif
102
RTVSPost2010PropOp54
 70
     1
102
RTVSPost2010Prop55
280
     0
102
RTVSPost2010PropOp55
 70
     1
102
RTVSPost2010Prop56
140
1.0
102
RTVSPost2010PropOp56
 70
     1
102
RTVSPost2010Prop57
140
1.0
102
RTVSPost2010PropOp57
 70
     1
102
RTVSPropertyOp0
 70
     1
102
RTVSPropertyOp1
 70
     1
102
RTVSPropertyOp2
 70
     1
102
RTVSPropertyOp3
 70
     1
102
RTVSPropertyOp4
 70
     1
102
RTVSPropertyOp5
 70
     1
102
RTVSPropertyOp6
 70
     1
102
RTVSPropertyOp7
 70
     1
102
RTVSPropertyOp8
 70
     1
102
RTVSPropertyOp9
 70
     1
102
RTVSPropertyOp10
 70
     1
102
RTVSPropertyOp11
 70
     1
102
RTVSPropertyOp12
 70
     1
102
RTVSPropertyOp13
 70
     1
102
RTVSPropertyOp14
 70
     1
102
RTVSPropertyOp15
 70
     1
102
RTVSPropertyOp16
 70
     1
102
RTVSPropertyOp17
 70
     1
102
RTVSPropertyOp18
 70
     1
102
RTVSPropertyOp19
 70
     1
102
RTVSPropertyOp20
 70
     1
102
RTVSPropertyOp21
 70
     1
102
RTVSPropertyOp22
 70
     1
102
RTVSPropertyOp23
 70
     1
102
RTVSPropertyOp24
 70
     1
102
RTVSPropertyOp25
 70
     1
102
RTVSPropertyOp26
 70
     1
102
RTVSPropertyOp27
 70
     1
102
RTVSPropertyOp28
 70
     1
102
RTVSPropertyOp29
 70
     1
102
RTVSPropertyOp30
 70
     1
102
RTVSPropertyOp31
 70
     1
102
RTVSPropertyOp32
 70
     1
102
RTVSPropertyOp33
 70
     1
102
RTVSPropertyOp34
 70
     1
102
RTVSPropertyOp35
 70
     1
102
RTVSPropertyOp36
 70
     1
102
RTVSPropertyOp37
 70
     1
102
RTVSPropertyOp38
 70
     1
102
RTVSPropertyOp39
 70
     1
102
RTVSPropertyOp40
 70
     1
102
RTVSPropertyOp41
 70
     1
102
RTVSPropertyOp42
 70
     1
102
RTVSPropertyOp43
 70
     1
102
RTVSPropertyOp44
 70
     1
102
RTVSPropertyOp45
 70
     1
102
RTVSPropertyOp46
 70
     1
102
RTVSPropertyOp47
 70
     1
102
RTVSPropertyOp48
 70
     1
102
RTVSPropertyOp49
 70
     1
102
RTVSPropertyOp50
 70
     1
102
RTVSPropertyOp51
 70
     0
102
RTVSPropertyOp52
 70
     0
102
RTVSPropertyOp53
 70
     1
102
RTVSPropertyOp54
 70
     1
102
RTVSPropertyOp55
 70
     1
102
RTVSPropertyOp56
 70
     1
102
RTVSPropertyOp57
 70
     1
102
RTVSPropertyOp58
 70
     1
102
RTVSPropertyOp59
 70
     1
102
RTVSPropertyOp60
 70
     1
102
RTVSPropertyOp61
 70
     1
102
RTVSPropertyOp62
 70
     1
  0
XRECORD
  5
6E4
102
{ACAD_REACTORS
330
6E3
102
}
330
6E3
100
AcDbXrecord
280
     1
102
RTVSPost2010Prop28
280
     0
102
RTVSPost2010PropOp28
 70
     0
102
RTVSPost2010Prop29
280
     1
102
RTVSPost2010PropOp29
 70
     0
102
RTVSPost2010Prop30
280
     1
102
RTVSPost2010PropOp30
 70
     0
102
RTVSPost2010Prop31
280
     0
102
RTVSPost2010PropOp31
 70
     0
102
RTVSPost2010Prop32
280
     0
102
RTVSPost2010PropOp32
 70
     0
102
RTVSPost2010Prop33
280
     0
102
RTVSPost2010PropOp33
 70
     0
102
RTVSPost2010Prop34
280
     0
102
RTVSPost2010PropOp34
 70
     0
102
RTVSPost2010Prop35
280
     0
102
RTVSPost2010PropOp35
 70
     0
102
RTVSPost2010Prop36
280
     0
102
RTVSPost2010PropOp36
 70
     0
102
RTVSPost2010Prop37
 90
       50
102
RTVSPost2010PropOp37
 70
     0
102
RTVSPost2010Prop38
140
0.0
102
RTVSPost2010PropOp38
 70
     0
102
RTVSPost2010Prop39
140
1.0
102
RTVSPost2010PropOp39
 70
     0
102
RTVSPost2010Prop40
 90
        0
102
RTVSPost2010PropOp40
 70
     0
102
RTVSPost2010Prop41ColorIndex
 90
       18
102
RTVSPost2010Prop41ColorRGB
 90
        0
102
RTVSPost2010PropOp41
 70
     0
102
RTVSPost2010Prop42
 90
       50
102
RTVSPost2010PropOp42
 70
     0
102
RTVSPost2010Prop43
 90
        3
102
RTVSPost2010PropOp43
 70
     0
102
RTVSPost2010Prop44ColorIndex
 90
        5
102
RTVSPost2010Prop44ColorRGB
 90
      255
102
RTVSPost2010PropOp44
 70
     0
102
RTVSPost2010Prop45
280
     0
102
RTVSPost2010PropOp45
 70
     0
102
RTVSPost2010Prop46
 90
       50
102
RTVSPost2010PropOp46
 70
     0
102
RTVSPost2010Prop47
 90
       50
102
RTVSPost2010PropOp47
 70
     0
102
RTVSPost2010Prop48
 90
       50
102
RTVSPost2010PropOp48
 70
     0
102
RTVSPost2010Prop49
280
     0
102
RTVSPost2010PropOp49
 70
     0
102
RTVSPost2010Prop50
 90
       50
102
RTVSPost2010PropOp50
 70
     0
102
RTVSPost2010Prop51ColorIndex
 90
      256
102
RTVSPost2010Prop51ColorRGB
 90
-16777216
102
RTVSPost2010PropOp51
 70
     0
102
RTVSPost2010Prop52
140
1.0
102
RTVSPost2010PropOp52
 70
     0
102
RTVSPost2010Prop53
 90
        2
102
RTVSPost2010PropOp53
 70
     0
102
RTVSPost2010Prop54
  1
strokes_ogs.tif
102
RTVSPost2010PropOp54
 70
     0
102
RTVSPost2010Prop55
280
     0
102
RTVSPost2010PropOp55
 70
     0
102
RTVSPost2010Prop56
140
1.0
102
RTVSPost2010PropOp56
 70
     0
102
RTVSPost2010Prop57
140
1.0
102
RTVSPost2010PropOp57
 70
     0
102
RTVSPropertyOp0
 70
     0
102
RTVSPropertyOp1
 70
     0
102
RTVSPropertyOp2
 70
     0
102
RTVSPropertyOp3
 70
     0
102
RTVSPropertyOp4
 70
     0
102
RTVSPropertyOp5
 70
     0
102
RTVSPropertyOp6
 70
     0
102
RTVSPropertyOp7
 70
     0
102
RTVSPropertyOp8
 70
     0
102
RTVSPropertyOp9
 70
     0
102
RTVSPropertyOp10
 70
     0
102
RTVSPropertyOp11
 70
     0
102
RTVSPropertyOp12
 70
     0
102
RTVSPropertyOp13
 70
     0
102
RTVSPropertyOp14
 70
     2
102
RTVSPropertyOp15
 70
     0
102
RTVSPropertyOp16
 70
     0
102
RTVSPropertyOp17
 70
     0
102
RTVSPropertyOp18
 70
     0
102
RTVSPropertyOp19
 70
     0
102
RTVSPropertyOp20
 70
     0
102
RTVSPropertyOp21
 70
     0
102
RTVSPropertyOp22
 70
     0
102
RTVSPropertyOp23
 70
     0
102
RTVSPropertyOp24
 70
     0
102
RTVSPropertyOp25
 70
     0
102
RTVSPropertyOp26
 70
     0
102
RTVSPropertyOp27
 70
     0
102
RTVSPropertyOp28
 70
     0
102
RTVSPropertyOp29
 70
     0
102
RTVSPropertyOp30
 70
     0
102
RTVSPropertyOp31
 70
     0
102
RTVSPropertyOp32
 70
     0
102
RTVSPropertyOp33
 70
     0
102
RTVSPropertyOp34
 70
     0
102
RTVSPropertyOp35
 70
     0
102
RTVSPropertyOp36
 70
     0
102
RTVSPropertyOp37
 70
     0
102
RTVSPropertyOp38
 70
     0
102
RTVSPropertyOp39
 70
     0
102
RTVSPropertyOp40
 70
     0
102
RTVSPropertyOp41
 70
     0
102
RTVSPropertyOp42
 70
     0
102
RTVSPropertyOp43
 70
     0
102
RTVSPropertyOp44
 70
     0
102
RTVSPropertyOp45
 70
     0
102
RTVSPropertyOp46
 70
     0
102
RTVSPropertyOp47
 70
     0
102
RTVSPropertyOp48
 70
     0
102
RTVSPropertyOp49
 70
     0
102
RTVSPropertyOp50
 70
     0
102
RTVSPropertyOp51
 70
     0
102
RTVSPropertyOp52
 70
     0
102
RTVSPropertyOp53
 70
     0
102
RTVSPropertyOp54
 70
     0
102
RTVSPropertyOp55
 70
     0
102
RTVSPropertyOp56
 70
     0
102
RTVSPropertyOp57
 70
     0
102
RTVSPropertyOp58
 70
     1
102
RTVSPropertyOp59
 70
     1
102
RTVSPropertyOp60
 70
     1
102
RTVSPropertyOp61
 70
     1
102
RTVSPropertyOp62
 70
     1
  0
XRECORD
  5
6D2
102
{ACAD_REACTORS
330
6D1
102
}
330
6D1
100
AcDbXrecord
280
     1
102
RTVSPost2010Prop28
280
     0
102
RTVSPost2010PropOp28
 70
     1
102
RTVSPost2010Prop29
280
     1
102
RTVSPost2010PropOp29
 70
     1
102
RTVSPost2010Prop30
280
     1
102
RTVSPost2010PropOp30
 70
     1
102
RTVSPost2010Prop31
280
     0
102
RTVSPost2010PropOp31
 70
     1
102
RTVSPost2010Prop32
280
     0
102
RTVSPost2010PropOp32
 70
     1
102
RTVSPost2010Prop33
280
     0
102
RTVSPost2010PropOp33
 70
     1
102
RTVSPost2010Prop34
280
     0
102
RTVSPost2010PropOp34
 70
     1
102
RTVSPost2010Prop35
280
     0
102
RTVSPost2010PropOp35
 70
     1
102
RTVSPost2010Prop36
280
     0
102
RTVSPost2010PropOp36
 70
     1
102
RTVSPost2010Prop37
 90
       50
102
RTVSPost2010PropOp37
 70
     1
102
RTVSPost2010Prop38
140
0.0
102
RTVSPost2010PropOp38
 70
     1
102
RTVSPost2010Prop39
140
1.0
102
RTVSPost2010PropOp39
 70
     1
102
RTVSPost2010Prop40
 90
        0
102
RTVSPost2010PropOp40
 70
     1
102
RTVSPost2010Prop41ColorIndex
 90
       18
102
RTVSPost2010Prop41ColorRGB
 90
        0
102
RTVSPost2010PropOp41
 70
     1
102
RTVSPost2010Prop42
 90
       50
102
RTVSPost2010PropOp42
 70
     1
102
RTVSPost2010Prop43
 90
        3
102
RTVSPost2010PropOp43
 70
     1
102
RTVSPost2010Prop44ColorIndex
 90
        5
102
RTVSPost2010Prop44ColorRGB
 90
      255
102
RTVSPost2010PropOp44
 70
     1
102
RTVSPost2010Prop45
280
     0
102
RTVSPost2010PropOp45
 70
     1
102
RTVSPost2010Prop46
 90
       50
102
RTVSPost2010PropOp46
 70
     1
102
RTVSPost2010Prop47
 90
       50
102
RTVSPost2010PropOp47
 70
     1
102
RTVSPost2010Prop48
 90
       50
102
RTVSPost2010PropOp48
 70
     1
102
RTVSPost2010Prop49
280
     0
102
RTVSPost2010PropOp49
 70
     1
102
RTVSPost2010Prop50
 90
       50
102
RTVSPost2010PropOp50
 70
     1
102
RTVSPost2010Prop51ColorIndex
 90
      256
102
RTVSPost2010Prop51ColorRGB
 90
-16777216
102
RTVSPost2010PropOp51
 70
     0
102
RTVSPost2010Prop52
140
1.0
102
RTVSPost2010PropOp52
 70
     0
102
RTVSPost2010Prop53
 90
        2
102
RTVSPost2010PropOp53
 70
     1
102
RTVSPost2010Prop54
  1
strokes_ogs.tif
102
RTVSPost2010PropOp54
 70
     1
102
RTVSPost2010Prop55
280
     0
102
RTVSPost2010PropOp55
 70
     1
102
RTVSPost2010Prop56
140
1.0
102
RTVSPost2010PropOp56
 70
     1
102
RTVSPost2010Prop57
140
1.0
102
RTVSPost2010PropOp57
 70
     1
102
RTVSPropertyOp0
 70
     1
102
RTVSPropertyOp1
 70
     1
102
RTVSPropertyOp2
 70
     1
102
RTVSPropertyOp3
 70
     1
102
RTVSPropertyOp4
 70
     1
102
RTVSPropertyOp5
 70
     1
102
RTVSPropertyOp6
 70
     1
102
RTVSPropertyOp7
 70
     1
102
RTVSPropertyOp8
 70
     1
102
RTVSPropertyOp9
 70
     1
102
RTVSPropertyOp10
 70
     1
102
RTVSPropertyOp11
 70
     1
102
RTVSPropertyOp12
 70
     1
102
RTVSPropertyOp13
 70
     1
102
RTVSPropertyOp14
 70
     1
102
RTVSPropertyOp15
 70
     1
102
RTVSPropertyOp16
 70
     1
102
RTVSPropertyOp17
 70
     1
102
RTVSPropertyOp18
 70
     1
102
RTVSPropertyOp19
 70
     1
102
RTVSPropertyOp20
 70
     1
102
RTVSPropertyOp21
 70
     1
102
RTVSPropertyOp22
 70
     1
102
RTVSPropertyOp23
 70
     1
102
RTVSPropertyOp24
 70
     1
102
RTVSPropertyOp25
 70
     1
102
RTVSPropertyOp26
 70
     1
102
RTVSPropertyOp27
 70
     1
102
RTVSPropertyOp28
 70
     1
102
RTVSPropertyOp29
 70
     1
102
RTVSPropertyOp30
 70
     1
102
RTVSPropertyOp31
 70
     1
102
RTVSPropertyOp32
 70
     1
102
RTVSPropertyOp33
 70
     1
102
RTVSPropertyOp34
 70
     1
102
RTVSPropertyOp35
 70
     1
102
RTVSPropertyOp36
 70
     1
102
RTVSPropertyOp37
 70
     1
102
RTVSPropertyOp38
 70
     1
102
RTVSPropertyOp39
 70
     1
102
RTVSPropertyOp40
 70
     1
102
RTVSPropertyOp41
 70
     1
102
RTVSPropertyOp42
 70
     1
102
RTVSPropertyOp43
 70
     1
102
RTVSPropertyOp44
 70
     1
102
RTVSPropertyOp45
 70
     1
102
RTVSPropertyOp46
 70
     1
102
RTVSPropertyOp47
 70
     1
102
RTVSPropertyOp48
 70
     1
102
RTVSPropertyOp49
 70
     1
102
RTVSPropertyOp50
 70
     1
102
RTVSPropertyOp51
 70
     0
102
RTVSPropertyOp52
 70
     0
102
RTVSPropertyOp53
 70
     1
102
RTVSPropertyOp54
 70
     1
102
RTVSPropertyOp55
 70
     1
102
RTVSPropertyOp56
 70
     1
102
RTVSPropertyOp57
 70
     1
102
RTVSPropertyOp58
 70
     1
102
RTVSPropertyOp59
 70
     1
102
RTVSPropertyOp60
 70
     1
102
RTVSPropertyOp61
 70
     1
102
RTVSPropertyOp62
 70
     1
  0
XRECORD
  5
6F0
102
{ACAD_REACTORS
330
6EF
102
}
330
6EF
100
AcDbXrecord
280
     1
102
RTVSPost2010Prop28
280
     0
102
RTVSPost2010PropOp28
 70
     1
102
RTVSPost2010Prop29
280
     1
102
RTVSPost2010PropOp29
 70
     1
102
RTVSPost2010Prop30
280
     1
102
RTVSPost2010PropOp30
 70
     1
102
RTVSPost2010Prop31
280
     0
102
RTVSPost2010PropOp31
 70
     1
102
RTVSPost2010Prop32
280
     0
102
RTVSPost2010PropOp32
 70
     1
102
RTVSPost2010Prop33
280
     0
102
RTVSPost2010PropOp33
 70
     1
102
RTVSPost2010Prop34
280
     0
102
RTVSPost2010PropOp34
 70
     1
102
RTVSPost2010Prop35
280
     0
102
RTVSPost2010PropOp35
 70
     1
102
RTVSPost2010Prop36
280
     0
102
RTVSPost2010PropOp36
 70
     1
102
RTVSPost2010Prop37
 90
       50
102
RTVSPost2010PropOp37
 70
     1
102
RTVSPost2010Prop38
140
0.0
102
RTVSPost2010PropOp38
 70
     1
102
RTVSPost2010Prop39
140
1.0
102
RTVSPost2010PropOp39
 70
     1
102
RTVSPost2010Prop40
 90
        0
102
RTVSPost2010PropOp40
 70
     1
102
RTVSPost2010Prop41ColorIndex
 90
       18
102
RTVSPost2010Prop41ColorRGB
 90
        0
102
RTVSPost2010PropOp41
 70
     1
102
RTVSPost2010Prop42
 90
       50
102
RTVSPost2010PropOp42
 70
     1
102
RTVSPost2010Prop43
 90
        3
102
RTVSPost2010PropOp43
 70
     1
102
RTVSPost2010Prop44ColorIndex
 90
        5
102
RTVSPost2010Prop44ColorRGB
 90
      255
102
RTVSPost2010PropOp44
 70
     1
102
RTVSPost2010Prop45
280
     0
102
RTVSPost2010PropOp45
 70
     1
102
RTVSPost2010Prop46
 90
       50
102
RTVSPost2010PropOp46
 70
     1
102
RTVSPost2010Prop47
 90
       50
102
RTVSPost2010PropOp47
 70
     1
102
RTVSPost2010Prop48
 90
       50
102
RTVSPost2010PropOp48
 70
     1
102
RTVSPost2010Prop49
280
     0
102
RTVSPost2010PropOp49
 70
     1
102
RTVSPost2010Prop50
 90
       50
102
RTVSPost2010PropOp50
 70
     1
102
RTVSPost2010Prop51ColorIndex
 90
      256
102
RTVSPost2010Prop51ColorRGB
 90
-16777216
102
RTVSPost2010PropOp51
 70
     0
102
RTVSPost2010Prop52
140
1.0
102
RTVSPost2010PropOp52
 70
     0
102
RTVSPost2010Prop53
 90
        2
102
RTVSPost2010PropOp53
 70
     1
102
RTVSPost2010Prop54
  1
strokes_ogs.tif
102
RTVSPost2010PropOp54
 70
     1
102
RTVSPost2010Prop55
280
     0
102
RTVSPost2010PropOp55
 70
     1
102
RTVSPost2010Prop56
140
1.0
102
RTVSPost2010PropOp56
 70
     1
102
RTVSPost2010Prop57
140
1.0
102
RTVSPost2010PropOp57
 70
     1
102
RTVSPropertyOp0
 70
     1
102
RTVSPropertyOp1
 70
     1
102
RTVSPropertyOp2
 70
     1
102
RTVSPropertyOp3
 70
     1
102
RTVSPropertyOp4
 70
     1
102
RTVSPropertyOp5
 70
     1
102
RTVSPropertyOp6
 70
     1
102
RTVSPropertyOp7
 70
     1
102
RTVSPropertyOp8
 70
     1
102
RTVSPropertyOp9
 70
     1
102
RTVSPropertyOp10
 70
     1
102
RTVSPropertyOp11
 70
     1
102
RTVSPropertyOp12
 70
     1
102
RTVSPropertyOp13
 70
     1
102
RTVSPropertyOp14
 70
     1
102
RTVSPropertyOp15
 70
     1
102
RTVSPropertyOp16
 70
     1
102
RTVSPropertyOp17
 70
     1
102
RTVSPropertyOp18
 70
     1
102
RTVSPropertyOp19
 70
     1
102
RTVSPropertyOp20
 70
     1
102
RTVSPropertyOp21
 70
     1
102
RTVSPropertyOp22
 70
     1
102
RTVSPropertyOp23
 70
     1
102
RTVSPropertyOp24
 70
     1
102
RTVSPropertyOp25
 70
     1
102
RTVSPropertyOp26
 70
     1
102
RTVSPropertyOp27
 70
     1
102
RTVSPropertyOp28
 70
     1
102
RTVSPropertyOp29
 70
     1
102
RTVSPropertyOp30
 70
     1
102
RTVSPropertyOp31
 70
     1
102
RTVSPropertyOp32
 70
     1
102
RTVSPropertyOp33
 70
     1
102
RTVSPropertyOp34
 70
     1
102
RTVSPropertyOp35
 70
     1
102
RTVSPropertyOp36
 70
     1
102
RTVSPropertyOp37
 70
     1
102
RTVSPropertyOp38
 70
     1
102
RTVSPropertyOp39
 70
     1
102
RTVSPropertyOp40
 70
     1
102
RTVSPropertyOp41
 70
     1
102
RTVSPropertyOp42
 70
     1
102
RTVSPropertyOp43
 70
     1
102
RTVSPropertyOp44
 70
     1
102
RTVSPropertyOp45
 70
     1
102
RTVSPropertyOp46
 70
     1
102
RTVSPropertyOp47
 70
     1
102
RTVSPropertyOp48
 70
     1
102
RTVSPropertyOp49
 70
     1
102
RTVSPropertyOp50
 70
     1
102
RTVSPropertyOp51
 70
     0
102
RTVSPropertyOp52
 70
     0
102
RTVSPropertyOp53
 70
     1
102
RTVSPropertyOp54
 70
     1
102
RTVSPropertyOp55
 70
     1
102
RTVSPropertyOp56
 70
     1
102
RTVSPropertyOp57
 70
     1
102
RTVSPropertyOp58
 70
     1
102
RTVSPropertyOp59
 70
     1
102
RTVSPropertyOp60
 70
     1
102
RTVSPropertyOp61
 70
     1
102
RTVSPropertyOp62
 70
     1
  0
XRECORD
  5
6EE
102
{ACAD_REACTORS
330
6ED
102
}
330
6ED
100
AcDbXrecord
280
     1
102
RTVSPost2010Prop28
280
     0
102
RTVSPost2010PropOp28
 70
     1
102
RTVSPost2010Prop29
280
     1
102
RTVSPost2010PropOp29
 70
     1
102
RTVSPost2010Prop30
280
     1
102
RTVSPost2010PropOp30
 70
     1
102
RTVSPost2010Prop31
280
     0
102
RTVSPost2010PropOp31
 70
     1
102
RTVSPost2010Prop32
280
     0
102
RTVSPost2010PropOp32
 70
     1
102
RTVSPost2010Prop33
280
     0
102
RTVSPost2010PropOp33
 70
     1
102
RTVSPost2010Prop34
280
     0
102
RTVSPost2010PropOp34
 70
     1
102
RTVSPost2010Prop35
280
     0
102
RTVSPost2010PropOp35
 70
     1
102
RTVSPost2010Prop36
280
     0
102
RTVSPost2010PropOp36
 70
     1
102
RTVSPost2010Prop37
 90
       50
102
RTVSPost2010PropOp37
 70
     1
102
RTVSPost2010Prop38
140
0.0
102
RTVSPost2010PropOp38
 70
     1
102
RTVSPost2010Prop39
140
1.0
102
RTVSPost2010PropOp39
 70
     1
102
RTVSPost2010Prop40
 90
        0
102
RTVSPost2010PropOp40
 70
     1
102
RTVSPost2010Prop41ColorIndex
 90
       18
102
RTVSPost2010Prop41ColorRGB
 90
        0
102
RTVSPost2010PropOp41
 70
     1
102
RTVSPost2010Prop42
 90
       50
102
RTVSPost2010PropOp42
 70
     1
102
RTVSPost2010Prop43
 90
        3
102
RTVSPost2010PropOp43
 70
     1
102
RTVSPost2010Prop44ColorIndex
 90
        5
102
RTVSPost2010Prop44ColorRGB
 90
      255
102
RTVSPost2010PropOp44
 70
     1
102
RTVSPost2010Prop45
280
     0
102
RTVSPost2010PropOp45
 70
     1
102
RTVSPost2010Prop46
 90
       50
102
RTVSPost2010PropOp46
 70
     1
102
RTVSPost2010Prop47
 90
       50
102
RTVSPost2010PropOp47
 70
     1
102
RTVSPost2010Prop48
 90
       50
102
RTVSPost2010PropOp48
 70
     1
102
RTVSPost2010Prop49
280
     0
102
RTVSPost2010PropOp49
 70
     1
102
RTVSPost2010Prop50
 90
       50
102
RTVSPost2010PropOp50
 70
     1
102
RTVSPost2010Prop51ColorIndex
 90
      256
102
RTVSPost2010Prop51ColorRGB
 90
-16777216
102
RTVSPost2010PropOp51
 70
     0
102
RTVSPost2010Prop52
140
1.0
102
RTVSPost2010PropOp52
 70
     0
102
RTVSPost2010Prop53
 90
        2
102
RTVSPost2010PropOp53
 70
     1
102
RTVSPost2010Prop54
  1
strokes_ogs.tif
102
RTVSPost2010PropOp54
 70
     1
102
RTVSPost2010Prop55
280
     0
102
RTVSPost2010PropOp55
 70
     1
102
RTVSPost2010Prop56
140
1.0
102
RTVSPost2010PropOp56
 70
     1
102
RTVSPost2010Prop57
140
1.0
102
RTVSPost2010PropOp57
 70
     1
102
RTVSPropertyOp0
 70
     1
102
RTVSPropertyOp1
 70
     1
102
RTVSPropertyOp2
 70
     1
102
RTVSPropertyOp3
 70
     1
102
RTVSPropertyOp4
 70
     1
102
RTVSPropertyOp5
 70
     1
102
RTVSPropertyOp6
 70
     1
102
RTVSPropertyOp7
 70
     1
102
RTVSPropertyOp8
 70
     1
102
RTVSPropertyOp9
 70
     1
102
RTVSPropertyOp10
 70
     1
102
RTVSPropertyOp11
 70
     1
102
RTVSPropertyOp12
 70
     1
102
RTVSPropertyOp13
 70
     1
102
RTVSPropertyOp14
 70
     1
102
RTVSPropertyOp15
 70
     1
102
RTVSPropertyOp16
 70
     1
102
RTVSPropertyOp17
 70
     1
102
RTVSPropertyOp18
 70
     1
102
RTVSPropertyOp19
 70
     1
102
RTVSPropertyOp20
 70
     1
102
RTVSPropertyOp21
 70
     1
102
RTVSPropertyOp22
 70
     1
102
RTVSPropertyOp23
 70
     1
102
RTVSPropertyOp24
 70
     1
102
RTVSPropertyOp25
 70
     1
102
RTVSPropertyOp26
 70
     1
102
RTVSPropertyOp27
 70
     1
102
RTVSPropertyOp28
 70
     1
102
RTVSPropertyOp29
 70
     1
102
RTVSPropertyOp30
 70
     1
102
RTVSPropertyOp31
 70
     1
102
RTVSPropertyOp32
 70
     1
102
RTVSPropertyOp33
 70
     1
102
RTVSPropertyOp34
 70
     1
102
RTVSPropertyOp35
 70
     1
102
RTVSPropertyOp36
 70
     1
102
RTVSPropertyOp37
 70
     1
102
RTVSPropertyOp38
 70
     1
102
RTVSPropertyOp39
 70
     1
102
RTVSPropertyOp40
 70
     1
102
RTVSPropertyOp41
 70
     1
102
RTVSPropertyOp42
 70
     1
102
RTVSPropertyOp43
 70
     1
102
RTVSPropertyOp44
 70
     1
102
RTVSPropertyOp45
 70
     1
102
RTVSPropertyOp46
 70
     1
102
RTVSPropertyOp47
 70
     1
102
RTVSPropertyOp48
 70
     1
102
RTVSPropertyOp49
 70
     1
102
RTVSPropertyOp50
 70
     1
102
RTVSPropertyOp51
 70
     0
102
RTVSPropertyOp52
 70
     0
102
RTVSPropertyOp53
 70
     1
102
RTVSPropertyOp54
 70
     1
102
RTVSPropertyOp55
 70
     1
102
RTVSPropertyOp56
 70
     1
102
RTVSPropertyOp57
 70
     1
102
RTVSPropertyOp58
 70
     1
102
RTVSPropertyOp59
 70
     1
102
RTVSPropertyOp60
 70
     1
102
RTVSPropertyOp61
 70
     1
102
RTVSPropertyOp62
 70
     1
  0
XRECORD
  5
6E8
102
{ACAD_REACTORS
330
6E7
102
}
330
6E7
100
AcDbXrecord
280
     1
102
RTVSPost2010Prop28
280
     0
102
RTVSPost2010PropOp28
 70
     1
102
RTVSPost2010Prop29
280
     1
102
RTVSPost2010PropOp29
 70
     1
102
RTVSPost2010Prop30
280
     1
102
RTVSPost2010PropOp30
 70
     1
102
RTVSPost2010Prop31
280
     0
102
RTVSPost2010PropOp31
 70
     1
102
RTVSPost2010Prop32
280
     0
102
RTVSPost2010PropOp32
 70
     1
102
RTVSPost2010Prop33
280
     0
102
RTVSPost2010PropOp33
 70
     1
102
RTVSPost2010Prop34
280
     0
102
RTVSPost2010PropOp34
 70
     1
102
RTVSPost2010Prop35
280
     0
102
RTVSPost2010PropOp35
 70
     1
102
RTVSPost2010Prop36
280
     0
102
RTVSPost2010PropOp36
 70
     1
102
RTVSPost2010Prop37
 90
       50
102
RTVSPost2010PropOp37
 70
     1
102
RTVSPost2010Prop38
140
0.0
102
RTVSPost2010PropOp38
 70
     1
102
RTVSPost2010Prop39
140
1.0
102
RTVSPost2010PropOp39
 70
     1
102
RTVSPost2010Prop40
 90
        0
102
RTVSPost2010PropOp40
 70
     1
102
RTVSPost2010Prop41ColorIndex
 90
       18
102
RTVSPost2010Prop41ColorRGB
 90
        0
102
RTVSPost2010PropOp41
 70
     1
102
RTVSPost2010Prop42
 90
       50
102
RTVSPost2010PropOp42
 70
     1
102
RTVSPost2010Prop43
 90
        3
102
RTVSPost2010PropOp43
 70
     1
102
RTVSPost2010Prop44ColorIndex
 90
        5
102
RTVSPost2010Prop44ColorRGB
 90
      255
102
RTVSPost2010PropOp44
 70
     1
102
RTVSPost2010Prop45
280
     0
102
RTVSPost2010PropOp45
 70
     1
102
RTVSPost2010Prop46
 90
       50
102
RTVSPost2010PropOp46
 70
     1
102
RTVSPost2010Prop47
 90
       50
102
RTVSPost2010PropOp47
 70
     1
102
RTVSPost2010Prop48
 90
       50
102
RTVSPost2010PropOp48
 70
     1
102
RTVSPost2010Prop49
280
     0
102
RTVSPost2010PropOp49
 70
     1
102
RTVSPost2010Prop50
 90
       50
102
RTVSPost2010PropOp50
 70
     1
102
RTVSPost2010Prop51ColorIndex
 90
      256
102
RTVSPost2010Prop51ColorRGB
 90
-16777216
102
RTVSPost2010PropOp51
 70
     0
102
RTVSPost2010Prop52
140
1.0
102
RTVSPost2010PropOp52
 70
     0
102
RTVSPost2010Prop53
 90
        2
102
RTVSPost2010PropOp53
 70
     1
102
RTVSPost2010Prop54
  1
strokes_ogs.tif
102
RTVSPost2010PropOp54
 70
     1
102
RTVSPost2010Prop55
280
     0
102
RTVSPost2010PropOp55
 70
     1
102
RTVSPost2010Prop56
140
1.0
102
RTVSPost2010PropOp56
 70
     1
102
RTVSPost2010Prop57
140
1.0
102
RTVSPost2010PropOp57
 70
     1
102
RTVSPropertyOp0
 70
     1
102
RTVSPropertyOp1
 70
     1
102
RTVSPropertyOp2
 70
     1
102
RTVSPropertyOp3
 70
     1
102
RTVSPropertyOp4
 70
     1
102
RTVSPropertyOp5
 70
     1
102
RTVSPropertyOp6
 70
     1
102
RTVSPropertyOp7
 70
     1
102
RTVSPropertyOp8
 70
     1
102
RTVSPropertyOp9
 70
     1
102
RTVSPropertyOp10
 70
     1
102
RTVSPropertyOp11
 70
     1
102
RTVSPropertyOp12
 70
     1
102
RTVSPropertyOp13
 70
     1
102
RTVSPropertyOp14
 70
     1
102
RTVSPropertyOp15
 70
     1
102
RTVSPropertyOp16
 70
     1
102
RTVSPropertyOp17
 70
     1
102
RTVSPropertyOp18
 70
     1
102
RTVSPropertyOp19
 70
     1
102
RTVSPropertyOp20
 70
     1
102
RTVSPropertyOp21
 70
     1
102
RTVSPropertyOp22
 70
     1
102
RTVSPropertyOp23
 70
     1
102
RTVSPropertyOp24
 70
     1
102
RTVSPropertyOp25
 70
     1
102
RTVSPropertyOp26
 70
     1
102
RTVSPropertyOp27
 70
     1
102
RTVSPropertyOp28
 70
     1
102
RTVSPropertyOp29
 70
     1
102
RTVSPropertyOp30
 70
     1
102
RTVSPropertyOp31
 70
     1
102
RTVSPropertyOp32
 70
     1
102
RTVSPropertyOp33
 70
     1
102
RTVSPropertyOp34
 70
     1
102
RTVSPropertyOp35
 70
     1
102
RTVSPropertyOp36
 70
     1
102
RTVSPropertyOp37
 70
     1
102
RTVSPropertyOp38
 70
     1
102
RTVSPropertyOp39
 70
     1
102
RTVSPropertyOp40
 70
     1
102
RTVSPropertyOp41
 70
     1
102
RTVSPropertyOp42
 70
     1
102
RTVSPropertyOp43
 70
     1
102
RTVSPropertyOp44
 70
     1
102
RTVSPropertyOp45
 70
     1
102
RTVSPropertyOp46
 70
     1
102
RTVSPropertyOp47
 70
     1
102
RTVSPropertyOp48
 70
     1
102
RTVSPropertyOp49
 70
     1
102
RTVSPropertyOp50
 70
     1
102
RTVSPropertyOp51
 70
     0
102
RTVSPropertyOp52
 70
     0
102
RTVSPropertyOp53
 70
     1
102
RTVSPropertyOp54
 70
     1
102
RTVSPropertyOp55
 70
     1
102
RTVSPropertyOp56
 70
     1
102
RTVSPropertyOp57
 70
     1
102
RTVSPropertyOp58
 70
     1
102
RTVSPropertyOp59
 70
     1
102
RTVSPropertyOp60
 70
     1
102
RTVSPropertyOp61
 70
     1
102
RTVSPropertyOp62
 70
     1
  0
XRECORD
  5
6EA
102
{ACAD_REACTORS
330
6E9
102
}
330
6E9
100
AcDbXrecord
280
     1
102
RTVSPost2010Prop28
280
     0
102
RTVSPost2010PropOp28
 70
     1
102
RTVSPost2010Prop29
280
     1
102
RTVSPost2010PropOp29
 70
     1
102
RTVSPost2010Prop30
280
     1
102
RTVSPost2010PropOp30
 70
     1
102
RTVSPost2010Prop31
280
     0
102
RTVSPost2010PropOp31
 70
     1
102
RTVSPost2010Prop32
280
     0
102
RTVSPost2010PropOp32
 70
     1
102
RTVSPost2010Prop33
280
     0
102
RTVSPost2010PropOp33
 70
     1
102
RTVSPost2010Prop34
280
     0
102
RTVSPost2010PropOp34
 70
     1
102
RTVSPost2010Prop35
280
     0
102
RTVSPost2010PropOp35
 70
     1
102
RTVSPost2010Prop36
280
     0
102
RTVSPost2010PropOp36
 70
     1
102
RTVSPost2010Prop37
 90
       50
102
RTVSPost2010PropOp37
 70
     1
102
RTVSPost2010Prop38
140
0.0
102
RTVSPost2010PropOp38
 70
     1
102
RTVSPost2010Prop39
140
1.0
102
RTVSPost2010PropOp39
 70
     1
102
RTVSPost2010Prop40
 90
        0
102
RTVSPost2010PropOp40
 70
     1
102
RTVSPost2010Prop41ColorIndex
 90
       18
102
RTVSPost2010Prop41ColorRGB
 90
        0
102
RTVSPost2010PropOp41
 70
     1
102
RTVSPost2010Prop42
 90
       50
102
RTVSPost2010PropOp42
 70
     1
102
RTVSPost2010Prop43
 90
        3
102
RTVSPost2010PropOp43
 70
     1
102
RTVSPost2010Prop44ColorIndex
 90
        5
102
RTVSPost2010Prop44ColorRGB
 90
      255
102
RTVSPost2010PropOp44
 70
     1
102
RTVSPost2010Prop45
280
     0
102
RTVSPost2010PropOp45
 70
     1
102
RTVSPost2010Prop46
 90
       50
102
RTVSPost2010PropOp46
 70
     1
102
RTVSPost2010Prop47
 90
       50
102
RTVSPost2010PropOp47
 70
     1
102
RTVSPost2010Prop48
 90
       50
102
RTVSPost2010PropOp48
 70
     1
102
RTVSPost2010Prop49
280
     0
102
RTVSPost2010PropOp49
 70
     1
102
RTVSPost2010Prop50
 90
       50
102
RTVSPost2010PropOp50
 70
     1
102
RTVSPost2010Prop51ColorIndex
 90
      256
102
RTVSPost2010Prop51ColorRGB
 90
-16777216
102
RTVSPost2010PropOp51
 70
     0
102
RTVSPost2010Prop52
140
1.0
102
RTVSPost2010PropOp52
 70
     0
102
RTVSPost2010Prop53
 90
        2
102
RTVSPost2010PropOp53
 70
     1
102
RTVSPost2010Prop54
  1
strokes_ogs.tif
102
RTVSPost2010PropOp54
 70
     1
102
RTVSPost2010Prop55
280
     0
102
RTVSPost2010PropOp55
 70
     1
102
RTVSPost2010Prop56
140
1.0
102
RTVSPost2010PropOp56
 70
     1
102
RTVSPost2010Prop57
140
1.0
102
RTVSPost2010PropOp57
 70
     1
102
RTVSPropertyOp0
 70
     1
102
RTVSPropertyOp1
 70
     1
102
RTVSPropertyOp2
 70
     1
102
RTVSPropertyOp3
 70
     1
102
RTVSPropertyOp4
 70
     1
102
RTVSPropertyOp5
 70
     1
102
RTVSPropertyOp6
 70
     1
102
RTVSPropertyOp7
 70
     1
102
RTVSPropertyOp8
 70
     1
102
RTVSPropertyOp9
 70
     1
102
RTVSPropertyOp10
 70
     1
102
RTVSPropertyOp11
 70
     1
102
RTVSPropertyOp12
 70
     1
102
RTVSPropertyOp13
 70
     1
102
RTVSPropertyOp14
 70
     1
102
RTVSPropertyOp15
 70
     1
102
RTVSPropertyOp16
 70
     1
102
RTVSPropertyOp17
 70
     1
102
RTVSPropertyOp18
 70
     1
102
RTVSPropertyOp19
 70
     1
102
RTVSPropertyOp20
 70
     1
102
RTVSPropertyOp21
 70
     1
102
RTVSPropertyOp22
 70
     1
102
RTVSPropertyOp23
 70
     1
102
RTVSPropertyOp24
 70
     1
102
RTVSPropertyOp25
 70
     1
102
RTVSPropertyOp26
 70
     1
102
RTVSPropertyOp27
 70
     1
102
RTVSPropertyOp28
 70
     1
102
RTVSPropertyOp29
 70
     1
102
RTVSPropertyOp30
 70
     1
102
RTVSPropertyOp31
 70
     1
102
RTVSPropertyOp32
 70
     1
102
RTVSPropertyOp33
 70
     1
102
RTVSPropertyOp34
 70
     1
102
RTVSPropertyOp35
 70
     1
102
RTVSPropertyOp36
 70
     1
102
RTVSPropertyOp37
 70
     1
102
RTVSPropertyOp38
 70
     1
102
RTVSPropertyOp39
 70
     1
102
RTVSPropertyOp40
 70
     1
102
RTVSPropertyOp41
 70
     1
102
RTVSPropertyOp42
 70
     1
102
RTVSPropertyOp43
 70
     1
102
RTVSPropertyOp44
 70
     1
102
RTVSPropertyOp45
 70
     1
102
RTVSPropertyOp46
 70
     1
102
RTVSPropertyOp47
 70
     1
102
RTVSPropertyOp48
 70
     1
102
RTVSPropertyOp49
 70
     1
102
RTVSPropertyOp50
 70
     1
102
RTVSPropertyOp51
 70
     0
102
RTVSPropertyOp52
 70
     0
102
RTVSPropertyOp53
 70
     1
102
RTVSPropertyOp54
 70
     1
102
RTVSPropertyOp55
 70
     1
102
RTVSPropertyOp56
 70
     1
102
RTVSPropertyOp57
 70
     1
102
RTVSPropertyOp58
 70
     1
102
RTVSPropertyOp59
 70
     1
102
RTVSPropertyOp60
 70
     1
102
RTVSPropertyOp61
 70
     1
102
RTVSPropertyOp62
 70
     1
  0
XRECORD
  5
6DA
102
{ACAD_REACTORS
330
6D9
102
}
330
6D9
100
AcDbXrecord
280
     1
102
RTVSPost2010Prop28
280
     0
102
RTVSPost2010PropOp28
 70
     1
102
RTVSPost2010Prop29
280
     1
102
RTVSPost2010PropOp29
 70
     1
102
RTVSPost2010Prop30
280
     1
102
RTVSPost2010PropOp30
 70
     1
102
RTVSPost2010Prop31
280
     0
102
RTVSPost2010PropOp31
 70
     1
102
RTVSPost2010Prop32
280
     0
102
RTVSPost2010PropOp32
 70
     1
102
RTVSPost2010Prop33
280
     0
102
RTVSPost2010PropOp33
 70
     1
102
RTVSPost2010Prop34
280
     0
102
RTVSPost2010PropOp34
 70
     1
102
RTVSPost2010Prop35
280
     0
102
RTVSPost2010PropOp35
 70
     1
102
RTVSPost2010Prop36
280
     0
102
RTVSPost2010PropOp36
 70
     1
102
RTVSPost2010Prop37
 90
       50
102
RTVSPost2010PropOp37
 70
     1
102
RTVSPost2010Prop38
140
0.0
102
RTVSPost2010PropOp38
 70
     1
102
RTVSPost2010Prop39
140
1.0
102
RTVSPost2010PropOp39
 70
     1
102
RTVSPost2010Prop40
 90
        0
102
RTVSPost2010PropOp40
 70
     1
102
RTVSPost2010Prop41ColorIndex
 90
       18
102
RTVSPost2010Prop41ColorRGB
 90
        0
102
RTVSPost2010PropOp41
 70
     1
102
RTVSPost2010Prop42
 90
       50
102
RTVSPost2010PropOp42
 70
     1
102
RTVSPost2010Prop43
 90
        3
102
RTVSPost2010PropOp43
 70
     1
102
RTVSPost2010Prop44ColorIndex
 90
        5
102
RTVSPost2010Prop44ColorRGB
 90
      255
102
RTVSPost2010PropOp44
 70
     1
102
RTVSPost2010Prop45
280
     0
102
RTVSPost2010PropOp45
 70
     1
102
RTVSPost2010Prop46
 90
       50
102
RTVSPost2010PropOp46
 70
     1
102
RTVSPost2010Prop47
 90
       50
102
RTVSPost2010PropOp47
 70
     1
102
RTVSPost2010Prop48
 90
       50
102
RTVSPost2010PropOp48
 70
     1
102
RTVSPost2010Prop49
280
     0
102
RTVSPost2010PropOp49
 70
     1
102
RTVSPost2010Prop50
 90
       50
102
RTVSPost2010PropOp50
 70
     1
102
RTVSPost2010Prop51ColorIndex
 90
      256
102
RTVSPost2010Prop51ColorRGB
 90
-16777216
102
RTVSPost2010PropOp51
 70
     0
102
RTVSPost2010Prop52
140
1.0
102
RTVSPost2010PropOp52
 70
     0
102
RTVSPost2010Prop53
 90
        2
102
RTVSPost2010PropOp53
 70
     1
102
RTVSPost2010Prop54
  1
strokes_ogs.tif
102
RTVSPost2010PropOp54
 70
     1
102
RTVSPost2010Prop55
280
     0
102
RTVSPost2010PropOp55
 70
     1
102
RTVSPost2010Prop56
140
1.0
102
RTVSPost2010PropOp56
 70
     1
102
RTVSPost2010Prop57
140
1.0
102
RTVSPost2010PropOp57
 70
     1
102
RTVSPropertyOp0
 70
     1
102
RTVSPropertyOp1
 70
     1
102
RTVSPropertyOp2
 70
     1
102
RTVSPropertyOp3
 70
     1
102
RTVSPropertyOp4
 70
     1
102
RTVSPropertyOp5
 70
     1
102
RTVSPropertyOp6
 70
     1
102
RTVSPropertyOp7
 70
     1
102
RTVSPropertyOp8
 70
     1
102
RTVSPropertyOp9
 70
     1
102
RTVSPropertyOp10
 70
     1
102
RTVSPropertyOp11
 70
     1
102
RTVSPropertyOp12
 70
     1
102
RTVSPropertyOp13
 70
     1
102
RTVSPropertyOp14
 70
     1
102
RTVSPropertyOp15
 70
     1
102
RTVSPropertyOp16
 70
     1
102
RTVSPropertyOp17
 70
     1
102
RTVSPropertyOp18
 70
     1
102
RTVSPropertyOp19
 70
     1
102
RTVSPropertyOp20
 70
     1
102
RTVSPropertyOp21
 70
     1
102
RTVSPropertyOp22
 70
     1
102
RTVSPropertyOp23
 70
     1
102
RTVSPropertyOp24
 70
     1
102
RTVSPropertyOp25
 70
     1
102
RTVSPropertyOp26
 70
     1
102
RTVSPropertyOp27
 70
     1
102
RTVSPropertyOp28
 70
     1
102
RTVSPropertyOp29
 70
     1
102
RTVSPropertyOp30
 70
     1
102
RTVSPropertyOp31
 70
     1
102
RTVSPropertyOp32
 70
     1
102
RTVSPropertyOp33
 70
     1
102
RTVSPropertyOp34
 70
     1
102
RTVSPropertyOp35
 70
     1
102
RTVSPropertyOp36
 70
     1
102
RTVSPropertyOp37
 70
     1
102
RTVSPropertyOp38
 70
     1
102
RTVSPropertyOp39
 70
     1
102
RTVSPropertyOp40
 70
     1
102
RTVSPropertyOp41
 70
     1
102
RTVSPropertyOp42
 70
     1
102
RTVSPropertyOp43
 70
     1
102
RTVSPropertyOp44
 70
     1
102
RTVSPropertyOp45
 70
     1
102
RTVSPropertyOp46
 70
     1
102
RTVSPropertyOp47
 70
     1
102
RTVSPropertyOp48
 70
     1
102
RTVSPropertyOp49
 70
     1
102
RTVSPropertyOp50
 70
     1
102
RTVSPropertyOp51
 70
     0
102
RTVSPropertyOp52
 70
     0
102
RTVSPropertyOp53
 70
     1
102
RTVSPropertyOp54
 70
     1
102
RTVSPropertyOp55
 70
     1
102
RTVSPropertyOp56
 70
     1
102
RTVSPropertyOp57
 70
     1
102
RTVSPropertyOp58
 70
     1
102
RTVSPropertyOp59
 70
     1
102
RTVSPropertyOp60
 70
     1
102
RTVSPropertyOp61
 70
     1
102
RTVSPropertyOp62
 70
     1
  0
XRECORD
  5
6CC
102
{ACAD_REACTORS
330
6CB
102
}
330
6CB
100
AcDbXrecord
280
     1
102
RTVSPost2010Prop28
280
     0
102
RTVSPost2010PropOp28
 70
     1
102
RTVSPost2010Prop29
280
     1
102
RTVSPost2010PropOp29
 70
     1
102
RTVSPost2010Prop30
280
     1
102
RTVSPost2010PropOp30
 70
     1
102
RTVSPost2010Prop31
280
     0
102
RTVSPost2010PropOp31
 70
     1
102
RTVSPost2010Prop32
280
     0
102
RTVSPost2010PropOp32
 70
     1
102
RTVSPost2010Prop33
280
     0
102
RTVSPost2010PropOp33
 70
     1
102
RTVSPost2010Prop34
280
     0
102
RTVSPost2010PropOp34
 70
     1
102
RTVSPost2010Prop35
280
     0
102
RTVSPost2010PropOp35
 70
     1
102
RTVSPost2010Prop36
280
     0
102
RTVSPost2010PropOp36
 70
     1
102
RTVSPost2010Prop37
 90
       50
102
RTVSPost2010PropOp37
 70
     1
102
RTVSPost2010Prop38
140
0.0
102
RTVSPost2010PropOp38
 70
     1
102
RTVSPost2010Prop39
140
1.0
102
RTVSPost2010PropOp39
 70
     1
102
RTVSPost2010Prop40
 90
        0
102
RTVSPost2010PropOp40
 70
     1
102
RTVSPost2010Prop41ColorIndex
 90
       18
102
RTVSPost2010Prop41ColorRGB
 90
        0
102
RTVSPost2010PropOp41
 70
     1
102
RTVSPost2010Prop42
 90
       50
102
RTVSPost2010PropOp42
 70
     1
102
RTVSPost2010Prop43
 90
        3
102
RTVSPost2010PropOp43
 70
     1
102
RTVSPost2010Prop44ColorIndex
 90
        5
102
RTVSPost2010Prop44ColorRGB
 90
      255
102
RTVSPost2010PropOp44
 70
     1
102
RTVSPost2010Prop45
280
     0
102
RTVSPost2010PropOp45
 70
     1
102
RTVSPost2010Prop46
 90
       50
102
RTVSPost2010PropOp46
 70
     1
102
RTVSPost2010Prop47
 90
       50
102
RTVSPost2010PropOp47
 70
     1
102
RTVSPost2010Prop48
 90
       50
102
RTVSPost2010PropOp48
 70
     1
102
RTVSPost2010Prop49
280
     0
102
RTVSPost2010PropOp49
 70
     1
102
RTVSPost2010Prop50
 90
       50
102
RTVSPost2010PropOp50
 70
     1
102
RTVSPost2010Prop51ColorIndex
 90
      256
102
RTVSPost2010Prop51ColorRGB
 90
-16777216
102
RTVSPost2010PropOp51
 70
     0
102
RTVSPost2010Prop52
140
1.0
102
RTVSPost2010PropOp52
 70
     0
102
RTVSPost2010Prop53
 90
        2
102
RTVSPost2010PropOp53
 70
     1
102
RTVSPost2010Prop54
  1
strokes_ogs.tif
102
RTVSPost2010PropOp54
 70
     1
102
RTVSPost2010Prop55
280
     0
102
RTVSPost2010PropOp55
 70
     1
102
RTVSPost2010Prop56
140
1.0
102
RTVSPost2010PropOp56
 70
     1
102
RTVSPost2010Prop57
140
1.0
102
RTVSPost2010PropOp57
 70
     1
102
RTVSPropertyOp0
 70
     1
102
RTVSPropertyOp1
 70
     1
102
RTVSPropertyOp2
 70
     1
102
RTVSPropertyOp3
 70
     1
102
RTVSPropertyOp4
 70
     1
102
RTVSPropertyOp5
 70
     1
102
RTVSPropertyOp6
 70
     1
102
RTVSPropertyOp7
 70
     1
102
RTVSPropertyOp8
 70
     1
102
RTVSPropertyOp9
 70
     1
102
RTVSPropertyOp10
 70
     1
102
RTVSPropertyOp11
 70
     1
102
RTVSPropertyOp12
 70
     1
102
RTVSPropertyOp13
 70
     1
102
RTVSPropertyOp14
 70
     1
102
RTVSPropertyOp15
 70
     1
102
RTVSPropertyOp16
 70
     1
102
RTVSPropertyOp17
 70
     1
102
RTVSPropertyOp18
 70
     1
102
RTVSPropertyOp19
 70
     1
102
RTVSPropertyOp20
 70
     1
102
RTVSPropertyOp21
 70
     1
102
RTVSPropertyOp22
 70
     1
102
RTVSPropertyOp23
 70
     1
102
RTVSPropertyOp24
 70
     1
102
RTVSPropertyOp25
 70
     1
102
RTVSPropertyOp26
 70
     1
102
RTVSPropertyOp27
 70
     1
102
RTVSPropertyOp28
 70
     1
102
RTVSPropertyOp29
 70
     1
102
RTVSPropertyOp30
 70
     1
102
RTVSPropertyOp31
 70
     1
102
RTVSPropertyOp32
 70
     1
102
RTVSPropertyOp33
 70
     1
102
RTVSPropertyOp34
 70
     1
102
RTVSPropertyOp35
 70
     1
102
RTVSPropertyOp36
 70
     1
102
RTVSPropertyOp37
 70
     1
102
RTVSPropertyOp38
 70
     1
102
RTVSPropertyOp39
 70
     1
102
RTVSPropertyOp40
 70
     1
102
RTVSPropertyOp41
 70
     1
102
RTVSPropertyOp42
 70
     1
102
RTVSPropertyOp43
 70
     1
102
RTVSPropertyOp44
 70
     1
102
RTVSPropertyOp45
 70
     1
102
RTVSPropertyOp46
 70
     1
102
RTVSPropertyOp47
 70
     1
102
RTVSPropertyOp48
 70
     1
102
RTVSPropertyOp49
 70
     1
102
RTVSPropertyOp50
 70
     1
102
RTVSPropertyOp51
 70
     0
102
RTVSPropertyOp52
 70
     0
102
RTVSPropertyOp53
 70
     1
102
RTVSPropertyOp54
 70
     1
102
RTVSPropertyOp55
 70
     1
102
RTVSPropertyOp56
 70
     1
102
RTVSPropertyOp57
 70
     1
102
RTVSPropertyOp58
 70
     1
102
RTVSPropertyOp59
 70
     1
102
RTVSPropertyOp60
 70
     1
102
RTVSPropertyOp61
 70
     1
102
RTVSPropertyOp62
 70
     1
  0
XRECORD
  5
6EC
102
{ACAD_REACTORS
330
6EB
102
}
330
6EB
100
AcDbXrecord
280
     1
102
RTVSPost2010Prop28
280
     0
102
RTVSPost2010PropOp28
 70
     1
102
RTVSPost2010Prop29
280
     1
102
RTVSPost2010PropOp29
 70
     1
102
RTVSPost2010Prop30
280
     1
102
RTVSPost2010PropOp30
 70
     1
102
RTVSPost2010Prop31
280
     0
102
RTVSPost2010PropOp31
 70
     1
102
RTVSPost2010Prop32
280
     0
102
RTVSPost2010PropOp32
 70
     1
102
RTVSPost2010Prop33
280
     0
102
RTVSPost2010PropOp33
 70
     1
102
RTVSPost2010Prop34
280
     0
102
RTVSPost2010PropOp34
 70
     1
102
RTVSPost2010Prop35
280
     0
102
RTVSPost2010PropOp35
 70
     1
102
RTVSPost2010Prop36
280
     0
102
RTVSPost2010PropOp36
 70
     1
102
RTVSPost2010Prop37
 90
       50
102
RTVSPost2010PropOp37
 70
     1
102
RTVSPost2010Prop38
140
0.0
102
RTVSPost2010PropOp38
 70
     1
102
RTVSPost2010Prop39
140
1.0
102
RTVSPost2010PropOp39
 70
     1
102
RTVSPost2010Prop40
 90
        0
102
RTVSPost2010PropOp40
 70
     1
102
RTVSPost2010Prop41ColorIndex
 90
       18
102
RTVSPost2010Prop41ColorRGB
 90
        0
102
RTVSPost2010PropOp41
 70
     1
102
RTVSPost2010Prop42
 90
       50
102
RTVSPost2010PropOp42
 70
     1
102
RTVSPost2010Prop43
 90
        3
102
RTVSPost2010PropOp43
 70
     1
102
RTVSPost2010Prop44ColorIndex
 90
        5
102
RTVSPost2010Prop44ColorRGB
 90
      255
102
RTVSPost2010PropOp44
 70
     1
102
RTVSPost2010Prop45
280
     0
102
RTVSPost2010PropOp45
 70
     1
102
RTVSPost2010Prop46
 90
       50
102
RTVSPost2010PropOp46
 70
     1
102
RTVSPost2010Prop47
 90
       50
102
RTVSPost2010PropOp47
 70
     1
102
RTVSPost2010Prop48
 90
       50
102
RTVSPost2010PropOp48
 70
     1
102
RTVSPost2010Prop49
280
     0
102
RTVSPost2010PropOp49
 70
     1
102
RTVSPost2010Prop50
 90
       50
102
RTVSPost2010PropOp50
 70
     1
102
RTVSPost2010Prop51ColorIndex
 90
      256
102
RTVSPost2010Prop51ColorRGB
 90
-16777216
102
RTVSPost2010PropOp51
 70
     0
102
RTVSPost2010Prop52
140
1.0
102
RTVSPost2010PropOp52
 70
     0
102
RTVSPost2010Prop53
 90
        2
102
RTVSPost2010PropOp53
 70
     1
102
RTVSPost2010Prop54
  1
strokes_ogs.tif
102
RTVSPost2010PropOp54
 70
     1
102
RTVSPost2010Prop55
280
     0
102
RTVSPost2010PropOp55
 70
     1
102
RTVSPost2010Prop56
140
1.0
102
RTVSPost2010PropOp56
 70
     1
102
RTVSPost2010Prop57
140
1.0
102
RTVSPost2010PropOp57
 70
     1
102
RTVSPropertyOp0
 70
     1
102
RTVSPropertyOp1
 70
     1
102
RTVSPropertyOp2
 70
     1
102
RTVSPropertyOp3
 70
     1
102
RTVSPropertyOp4
 70
     1
102
RTVSPropertyOp5
 70
     1
102
RTVSPropertyOp6
 70
     1
102
RTVSPropertyOp7
 70
     1
102
RTVSPropertyOp8
 70
     1
102
RTVSPropertyOp9
 70
     1
102
RTVSPropertyOp10
 70
     1
102
RTVSPropertyOp11
 70
     1
102
RTVSPropertyOp12
 70
     1
102
RTVSPropertyOp13
 70
     1
102
RTVSPropertyOp14
 70
     1
102
RTVSPropertyOp15
 70
     1
102
RTVSPropertyOp16
 70
     1
102
RTVSPropertyOp17
 70
     1
102
RTVSPropertyOp18
 70
     1
102
RTVSPropertyOp19
 70
     1
102
RTVSPropertyOp20
 70
     1
102
RTVSPropertyOp21
 70
     1
102
RTVSPropertyOp22
 70
     1
102
RTVSPropertyOp23
 70
     1
102
RTVSPropertyOp24
 70
     1
102
RTVSPropertyOp25
 70
     1
102
RTVSPropertyOp26
 70
     1
102
RTVSPropertyOp27
 70
     1
102
RTVSPropertyOp28
 70
     1
102
RTVSPropertyOp29
 70
     1
102
RTVSPropertyOp30
 70
     1
102
RTVSPropertyOp31
 70
     1
102
RTVSPropertyOp32
 70
     1
102
RTVSPropertyOp33
 70
     1
102
RTVSPropertyOp34
 70
     1
102
RTVSPropertyOp35
 70
     1
102
RTVSPropertyOp36
 70
     1
102
RTVSPropertyOp37
 70
     1
102
RTVSPropertyOp38
 70
     1
102
RTVSPropertyOp39
 70
     1
102
RTVSPropertyOp40
 70
     1
102
RTVSPropertyOp41
 70
     1
102
RTVSPropertyOp42
 70
     1
102
RTVSPropertyOp43
 70
     1
102
RTVSPropertyOp44
 70
     1
102
RTVSPropertyOp45
 70
     1
102
RTVSPropertyOp46
 70
     1
102
RTVSPropertyOp47
 70
     1
102
RTVSPropertyOp48
 70
     1
102
RTVSPropertyOp49
 70
     1
102
RTVSPropertyOp50
 70
     1
102
RTVSPropertyOp51
 70
     0
102
RTVSPropertyOp52
 70
     0
102
RTVSPropertyOp53
 70
     1
102
RTVSPropertyOp54
 70
     1
102
RTVSPropertyOp55
 70
     1
102
RTVSPropertyOp56
 70
     1
102
RTVSPropertyOp57
 70
     1
102
RTVSPropertyOp58
 70
     1
102
RTVSPropertyOp59
 70
     1
102
RTVSPropertyOp60
 70
     1
102
RTVSPropertyOp61
 70
     1
102
RTVSPropertyOp62
 70
     1
  0
ENDSEC
  0
EOF
