  0
SECTION
  2
HEADER
  9
$ACADVER
  1
AC1015
  9
$ACADMAINTVER
 70
    20
  9
$DWGCODEPAGE
  3
ANSI_932
  9
$INSBASE
 10
0.0
 20
0.0
 30
0.0
  9
$EXTMIN
 10
36.54080520370002
 20
26.74757922165617
 30
0.0
  9
$EXTMAX
 10
1095.285232661807
 20
806.3523284860654
 30
0.0
  9
$LIMMIN
 10
-315.5297966003418
 20
-404.8475036621093
  9
$LIMMAX
 10
599.6880534492166
 20
261.8365173339844
  9
$ORTHOMODE
 70
     1
  9
$REGENMODE
 70
     1
  9
$FILLMODE
 70
     1
  9
$QTEXTMODE
 70
     0
  9
$MIRRTEXT
 70
     1
  9
$LTSCALE
 40
0.0897506473571297
  9
$ATTMODE
 70
     1
  9
$TEXTSIZE
 40
2.5
  9
$TRACEWID
 40
1.0
  9
$TEXTSTYLE
  7
Standard
  9
$CLAYER
  8
0
  9
$CELTYPE
  6
ByLayer
  9
$CECOLOR
 62
   256
  9
$CELTSCALE
 40
1.0
  9
$DISPSILH
 70
     0
  9
$DIMSCALE
 40
1.0
  9
$DIMASZ
 40
2.5
  9
$DIMEXO
 40
0.625
  9
$DIMDLI
 40
3.75
  9
$DIMRND
 40
0.0
  9
$DIMDLE
 40
0.0
  9
$DIMEXE
 40
1.25
  9
$DIMTP
 40
0.0
  9
$DIMTM
 40
0.0
  9
$DIMTXT
 40
2.5
  9
$DIMCEN
 40
2.5
  9
$DIMTSZ
 40
0.0
  9
$DIMTOL
 70
     0
  9
$DIMLIM
 70
     0
  9
$DIMTIH
 70
     0
  9
$DIMTOH
 70
     0
  9
$DIMSE1
 70
     0
  9
$DIMSE2
 70
     0
  9
$DIMTAD
 70
     1
  9
$DIMZIN
 70
     0
  9
$DIMBLK
  1

  9
$DIMASO
 70
     1
  9
$DIMSHO
 70
     1
  9
$DIMPOST
  1

  9
$DIMAPOST
  1

  9
$DIMALT
 70
     0
  9
$DIMALTD
 70
     3
  9
$DIMALTF
 40
0.03937007874016
  9
$DIMLFAC
 40
1.0
  9
$DIMTOFL
 70
     1
  9
$DIMTVP
 40
0.0
  9
$DIMTIX
 70
     0
  9
$DIMSOXD
 70
     0
  9
$DIMSAH
 70
     0
  9
$DIMBLK1
  1

  9
$DIMBLK2
  1

  9
$DIMSTYLE
  2
Standard
  9
$DIMCLRD
 70
     0
  9
$DIMCLRE
 70
     0
  9
$DIMCLRT
 70
     0
  9
$DIMTFAC
 40
0.75
  9
$DIMGAP
 40
0.625
  9
$DIMJUST
 70
     0
  9
$DIMSD1
 70
     0
  9
$DIMSD2
 70
     0
  9
$DIMTOLJ
 70
     0
  9
$DIMTZIN
 70
     8
  9
$DIMALTZ
 70
     0
  9
$DIMALTTZ
 70
     0
  9
$DIMUPT
 70
     0
  9
$DIMDEC
 70
     2
  9
$DIMTDEC
 70
     2
  9
$DIMALTU
 70
     2
  9
$DIMALTTD
 70
     3
  9
$DIMTXSTY
  7
Standard
  9
$DIMAUNIT
 70
     0
  9
$DIMADEC
 70
     0
  9
$DIMALTRND
 40
0.0
  9
$DIMAZIN
 70
     0
  9
$DIMDSEP
 70
    46
  9
$DIMATFIT
 70
     3
  9
$DIMFRAC
 70
     0
  9
$DIMLDRBLK
  1

  9
$DIMLUNIT
 70
     2
  9
$DIMLWD
 70
    -2
  9
$DIMLWE
 70
    -2
  9
$DIMTMOVE
 70
     0
  9
$LUNITS
 70
     2
  9
$LUPREC
 70
     4
  9
$SKETCHINC
 40
1.0
  9
$FILLETRAD
 40
0.0
  9
$AUNITS
 70
     0
  9
$AUPREC
 70
     0
  9
$MENU
  1
.
  9
$ELEVATION
 40
0.0
  9
$PELEVATION
 40
0.0
  9
$THICKNESS
 40
0.0
  9
$LIMCHECK
 70
     0
  9
$CHAMFERA
 40
10.0
  9
$CHAMFERB
 40
10.0
  9
$CHAMFERC
 40
20.0
  9
$CHAMFERD
 40
0.0
  9
$SKPOLY
 70
     0
  9
$TDCREATE
 40
2455188.750000000
  9
$TDUCREATE
 40
2455188.375000000
  9
$TDUPDATE
 40
2459739.358229792
  9
$TDUUPDATE
 40
2459738.983229792
  9
$TDINDWG
 40
0.0204249769
  9
$TDUSRTIMER
 40
0.0204246644
  9
$USRTIMER
 70
     1
  9
$ANGBASE
 50
0.0
  9
$ANGDIR
 70
     0
  9
$PDMODE
 70
     0
  9
$PDSIZE
 40
0.0
  9
$PLINEWID
 40
0.0
  9
$SPLFRAME
 70
     0
  9
$SPLINETYPE
 70
     6
  9
$SPLINESEGS
 70
     8
  9
$HANDSEED
  5
728
  9
$SURFTAB1
 70
     6
  9
$SURFTAB2
 70
     6
  9
$SURFTYPE
 70
     6
  9
$SURFU
 70
     6
  9
$SURFV
 70
     6
  9
$UCSBASE
  2

  9
$UCSNAME
  2

  9
$UCSORG
 10
0.0
 20
0.0
 30
0.0
  9
$UCSXDIR
 10
1.0
 20
0.0
 30
0.0
  9
$UCSYDIR
 10
0.0
 20
1.0
 30
0.0
  9
$UCSORTHOREF
  2

  9
$UCSORTHOVIEW
 70
     0
  9
$UCSORGTOP
 10
0.0
 20
0.0
 30
0.0
  9
$UCSORGBOTTOM
 10
0.0
 20
0.0
 30
0.0
  9
$UCSORGLEFT
 10
0.0
 20
0.0
 30
0.0
  9
$UCSORGRIGHT
 10
0.0
 20
0.0
 30
0.0
  9
$UCSORGFRONT
 10
0.0
 20
0.0
 30
0.0
  9
$UCSORGBACK
 10
0.0
 20
0.0
 30
0.0
  9
$PUCSBASE
  2

  9
$PUCSNAME
  2

  9
$PUCSORG
 10
0.0
 20
0.0
 30
0.0
  9
$PUCSXDIR
 10
1.0
 20
0.0
 30
0.0
  9
$PUCSYDIR
 10
0.0
 20
1.0
 30
0.0
  9
$PUCSORTHOREF
  2

  9
$PUCSORTHOVIEW
 70
     0
  9
$PUCSORGTOP
 10
0.0
 20
0.0
 30
0.0
  9
$PUCSORGBOTTOM
 10
0.0
 20
0.0
 30
0.0
  9
$PUCSORGLEFT
 10
0.0
 20
0.0
 30
0.0
  9
$PUCSORGRIGHT
 10
0.0
 20
0.0
 30
0.0
  9
$PUCSORGFRONT
 10
0.0
 20
0.0
 30
0.0
  9
$PUCSORGBACK
 10
0.0
 20
0.0
 30
0.0
  9
$USERI1
 70
     0
  9
$USERI2
 70
     0
  9
$USERI3
 70
     0
  9
$USERI4
 70
     0
  9
$USERI5
 70
     0
  9
$USERR1
 40
0.0
  9
$USERR2
 40
0.0
  9
$USERR3
 40
0.0
  9
$USERR4
 40
0.0
  9
$USERR5
 40
0.0
  9
$WORLDVIEW
 70
     1
  9
$SHADEDGE
 70
     3
  9
$SHADEDIF
 70
    70
  9
$TILEMODE
 70
     1
  9
$MAXACTVP
 70
    64
  9
$PINSBASE
 10
0.0
 20
0.0
 30
0.0
  9
$PLIMCHECK
 70
     0
  9
$PEXTMIN
 10
1.000000000000000E+20
 20
1.000000000000000E+20
 30
1.000000000000000E+20
  9
$PEXTMAX
 10
-1.000000000000000E+20
 20
-1.000000000000000E+20
 30
-1.000000000000000E+20
  9
$PLIMMIN
 10
0.0
 20
0.0
  9
$PLIMMAX
 10
420.0
 20
297.0
  9
$UNITMODE
 70
     0
  9
$VISRETAIN
 70
     1
  9
$PLINEGEN
 70
     0
  9
$PSLTSCALE
 70
     1
  9
$TREEDEPTH
 70
  3020
  9
$CMLSTYLE
  2
Standard
  9
$CMLJUST
 70
     0
  9
$CMLSCALE
 40
20.0
  9
$PROXYGRAPHICS
 70
     1
  9
$MEASUREMENT
 70
     1
  9
$CELWEIGHT
370
    -1
  9
$ENDCAPS
280
     0
  9
$JOINSTYLE
280
     0
  9
$LWDISPLAY
290
     0
  9
$INSUNITS
 70
     4
  9
$HYPERLINKBASE
  1

  9
$STYLESHEET
  1

  9
$XEDIT
290
     1
  9
$CEPSNTYPE
380
     0
  9
$PSTYLEMODE
290
     1
  9
$FINGERPRINTGUID
  2
{DA9F7642-B5C7-4E1C-9AF0-5C7C1779D04A}
  9
$VERSIONGUID
  2
{E542D2C3-47A4-4359-8154-87A73CF0B8D9}
  9
$EXTNAMES
290
     1
  9
$PSVPSCALE
 40
0.0
  9
$OLESTARTUP
290
     0
  0
ENDSEC
  0
SECTION
  2
CLASSES
  0
CLASS
  1
ACDBDICTIONARYWDFLT
  2
AcDbDictionaryWithDefault
  3
ObjectDBX Classes
 90
        0
280
     0
281
     0
  0
CLASS
  1
VISUALSTYLE
  2
AcDbVisualStyle
  3
ObjectDBX Classes
 90
     4095
280
     0
281
     0
  0
CLASS
  1
MATERIAL
  2
AcDbMaterial
  3
ObjectDBX Classes
 90
     1153
280
     0
281
     0
  0
CLASS
  1
SCALE
  2
AcDbScale
  3
ObjectDBX Classes
 90
     1153
280
     0
281
     0
  0
CLASS
  1
TABLESTYLE
  2
AcDbTableStyle
  3
ObjectDBX Classes
 90
     4095
280
     0
281
     0
  0
CLASS
  1
MLEADERSTYLE
  2
AcDbMLeaderStyle
  3
ACDB_MLEADERSTYLE_CLASS
 90
     4095
280
     0
281
     0
  0
CLASS
  1
SUN
  2
AcDbSun
  3
SCENEOE
 90
    33921
280
     0
281
     0
  0
CLASS
  1
DICTIONARYVAR
  2
AcDbDictionaryVar
  3
ObjectDBX Classes
 90
        0
280
     0
281
     0
  0
CLASS
  1
ACDBSECTIONVIEWSTYLE
  2
AcDbSectionViewStyle
  3
ObjectDBX Classes
 90
     1025
280
     0
281
     0
  0
CLASS
  1
ACDBDETAILVIEWSTYLE
  2
AcDbDetailViewStyle
  3
ObjectDBX Classes
 90
     1025
280
     0
281
     0
  0
CLASS
  1
SORTENTSTABLE
  2
AcDbSortentsTable
  3
ObjectDBX Classes
 90
        0
280
     0
281
     0
  0
CLASS
  1
CELLSTYLEMAP
  2
AcDbCellStyleMap
  3
ObjectDBX Classes
 90
     1152
280
     0
281
     0
  0
CLASS
  1
ACDBPLACEHOLDER
  2
AcDbPlaceHolder
  3
ObjectDBX Classes
 90
        0
280
     0
281
     0
  0
CLASS
  1
LAYOUT
  2
AcDbLayout
  3
ObjectDBX Classes
 90
        0
280
     0
281
     0
  0
ENDSEC
  0
SECTION
  2
TABLES
  0
TABLE
  2
VPORT
  5
8
330
0
100
AcDbSymbolTable
 70
     1
  0
VPORT
  5
29
330
8
100
AcDbSymbolTableRecord
100
AcDbViewportTableRecord
  2
*Active
 70
     0
 10
0.0
 20
0.0
 11
1.0
 21
1.0
 12
567.5310871962064
 22
358.4091849504887
 13
0.0
 23
0.0
 14
10.0
 24
10.0
 15
10.0
 25
10.0
 16
0.0
 26
0.0
 36
1.0
 17
0.0
 27
0.0
 37
0.0
 40
735.2799868206807
 41
2.204301075268817
 42
50.0
 43
0.0
 44
0.0
 50
0.0
 51
0.0
 71
     0
 72
 20000
 73
     1
 74
     3
 75
     0
 76
     0
 77
     0
 78
     0
281
     0
 65
     1
110
0.0
120
0.0
130
0.0
111
1.0
121
0.0
131
0.0
112
0.0
122
1.0
132
0.0
 79
     0
146
0.0
1001
ACAD_NAV_VCDISPLAY
1070
     3
  0
ENDTAB
  0
TABLE
  2
LTYPE
  5
5
330
0
100
AcDbSymbolTable
 70
     2
  0
LTYPE
  5
14
330
5
100
AcDbSymbolTableRecord
100
AcDbLinetypeTableRecord
  2
ByBlock
 70
     0
  3

 72
    65
 73
     0
 40
0.0
  0
LTYPE
  5
15
330
5
100
AcDbSymbolTableRecord
100
AcDbLinetypeTableRecord
  2
ByLayer
 70
     0
  3

 72
    65
 73
     0
 40
0.0
  0
LTYPE
  5
16
330
5
100
AcDbSymbolTableRecord
100
AcDbLinetypeTableRecord
  2
Continuous
 70
     0
  3
Solid line
 72
    65
 73
     0
 40
0.0
  0
LTYPE
  5
227
330
5
100
AcDbSymbolTableRecord
100
AcDbLinetypeTableRecord
  2
CENTER2
 70
     0
  3
Center (.5x) ___ _ ___ _ ___ _ ___ _ ___ _ ___
 72
    65
 73
     4
 40
28.575
 49
19.05
 74
     0
 49
-3.174999999999998
 74
     0
 49
3.174999999999998
 74
     0
 49
-3.174999999999998
 74
     0
  0
ENDTAB
  0
TABLE
  2
LAYER
  5
2
102
{ACAD_XDICTIONARY
360
22D
102
}
330
0
100
AcDbSymbolTable
 70
     4
  0
LAYER
  5
10
102
{ACAD_XDICTIONARY
360
5D6
102
}
330
2
100
AcDbSymbolTableRecord
100
AcDbLayerTableRecord
  2
0
 70
     0
 62
     7
  6
Continuous
370
    -3
390
F
  0
LAYER
  5
66
330
2
100
AcDbSymbolTableRecord
100
AcDbLayerTableRecord
  2
Defpoints
 70
     0
 62
     7
  6
Continuous
290
     0
370
    -3
390
F
  0
LAYER
  5
228
102
{ACAD_XDICTIONARY
360
229
102
}
330
2
100
AcDbSymbolTableRecord
100
AcDbLayerTableRecord
  2
中心線
 70
     0
 62
     3
  6
CENTER2
370
    -3
390
F
  0
LAYER
  5
22A
102
{ACAD_XDICTIONARY
360
22B
102
}
330
2
100
AcDbSymbolTableRecord
100
AcDbLayerTableRecord
  2
実線
 70
     0
 62
     7
  6
Continuous
370
    -3
390
F
  0
ENDTAB
  0
TABLE
  2
STYLE
  5
3
330
0
100
AcDbSymbolTable
 70
     1
  0
STYLE
  5
11
330
3
100
AcDbSymbolTableRecord
100
AcDbTextStyleTableRecord
  2
Standard
 70
     0
 40
0.0
 41
1.0
 50
0.0
 71
     0
 42
2.5
  3
txt
  4
extfont2
  0
ENDTAB
  0
TABLE
  2
VIEW
  5
6
330
0
100
AcDbSymbolTable
 70
     0
  0
ENDTAB
  0
TABLE
  2
UCS
  5
7
330
0
100
AcDbSymbolTable
 70
     0
  0
ENDTAB
  0
TABLE
  2
APPID
  5
9
330
0
100
AcDbSymbolTable
 70
     4
  0
APPID
  5
12
330
9
100
AcDbSymbolTableRecord
100
AcDbRegAppTableRecord
  2
ACAD
 70
     0
  0
APPID
  5
217
330
9
100
AcDbSymbolTableRecord
100
AcDbRegAppTableRecord
  2
ACAD_MLEADERVER
 70
     0
  0
APPID
  5
22C
330
9
100
AcDbSymbolTableRecord
100
AcDbRegAppTableRecord
  2
ACAD_NAV_VCDISPLAY
 70
     0
  0
APPID
  5
457
330
9
100
AcDbSymbolTableRecord
100
AcDbRegAppTableRecord
  2
ACAD_EXEMPT_FROM_CAD_STANDARDS
 70
     0
  0
ENDTAB
  0
TABLE
  2
DIMSTYLE
  5
A
330
0
100
AcDbSymbolTable
 70
     1
100
AcDbDimStyleTable
 71
     1
340
27
  0
DIMSTYLE
105
27
330
A
100
AcDbSymbolTableRecord
100
AcDbDimStyleTableRecord
  2
Standard
 70
     0
 41
2.5
 42
0.625
 43
3.75
 44
1.25
 73
     0
 74
     0
 77
     1
140
2.5
141
2.5
143
0.03937007874016
146
0.75
147
0.625
171
     3
172
     1
271
     2
272
     2
274
     3
283
     0
284
     8
340
11
  0
ENDTAB
  0
TABLE
  2
BLOCK_RECORD
  5
1
330
0
100
AcDbSymbolTable
 70
     1
  0
BLOCK_RECORD
  5
1F
102
{ACAD_XDICTIONARY
360
49A
102
}
330
1
100
AcDbSymbolTableRecord
100
AcDbBlockTableRecord
  2
*Model_Space
340
22
  0
BLOCK_RECORD
  5
1B
330
1
100
AcDbSymbolTableRecord
100
AcDbBlockTableRecord
  2
*Paper_Space
340
1E
  0
BLOCK_RECORD
  5
23
330
1
100
AcDbSymbolTableRecord
100
AcDbBlockTableRecord
  2
*Paper_Space0
340
221
  0
ENDTAB
  0
ENDSEC
  0
SECTION
  2
BLOCKS
  0
BLOCK
  5
20
330
1F
100
AcDbEntity
  8
0
100
AcDbBlockBegin
  2
*Model_Space
 70
     0
 10
0.0
 20
0.0
 30
0.0
  3
*Model_Space
  1

  0
ENDBLK
  5
21
330
1F
100
AcDbEntity
  8
0
100
AcDbBlockEnd
  0
BLOCK
  5
1C
330
1B
100
AcDbEntity
 67
     1
  8
0
100
AcDbBlockBegin
  2
*Paper_Space
 70
     0
 10
0.0
 20
0.0
 30
0.0
  3
*Paper_Space
  1

  0
ENDBLK
  5
1D
330
1B
100
AcDbEntity
 67
     1
  8
0
100
AcDbBlockEnd
  0
BLOCK
  5
24
330
23
100
AcDbEntity
 67
     1
  8
0
100
AcDbBlockBegin
  2
*Paper_Space0
 70
     0
 10
0.0
 20
0.0
 30
0.0
  3
*Paper_Space0
  1

  0
ENDBLK
  5
25
330
23
100
AcDbEntity
 67
     1
  8
0
100
AcDbBlockEnd
  0
ENDSEC
  0
SECTION
  2
ENTITIES
  0
LINE
  5
44D
102
{ACAD_REACTORS
330
5D3
102
}
330
1F
100
AcDbEntity
  8
中心線
100
AcDbLine
 10
326.5408052037
 20
303.5865448394652
 30
0.0
 11
326.5408052037
 21
485.6790875061737
 31
0.0
  0
LINE
  5
44E
102
{ACAD_REACTORS
330
5D3
102
}
330
1F
100
AcDbEntity
  8
中心線
100
AcDbLine
 10
284.8421111897595
 20
443.9975792216563
 30
0.0
 11
372.2232898224656
 21
443.9975792216563
 31
0.0
  0
LINE
  5
44F
102
{ACAD_REACTORS
330
5D3
102
}
330
1F
100
AcDbEntity
  8
中心線
100
AcDbLine
 10
284.8421111897595
 20
443.9975792216563
 30
0.0
 11
256.3826532002577
 21
415.5381212321541
 31
0.0
  0
LINE
  5
450
102
{ACAD_REACTORS
330
5D2
102
}
330
1F
100
AcDbEntity
  8
中心線
100
AcDbLine
 10
546.5408052036999
 20
303.5865448394652
 30
0.0
 11
546.5408052037
 21
485.6790875061737
 31
0.0
  0
LINE
  5
451
102
{ACAD_REACTORS
330
5D2
102
}
330
1F
100
AcDbEntity
  8
中心線
100
AcDbLine
 10
514.0408052037001
 20
443.9975792216563
 30
0.0
 11
579.0408052037
 21
443.9975792216563
 31
0.0
  0
LINE
  5
452
102
{ACAD_REACTORS
330
5D4
102
}
330
1F
100
AcDbEntity
  8
中心線
100
AcDbLine
 10
106.5408052036999
 20
303.5865448394652
 30
0.0
 11
106.5408052037
 21
485.6790875061737
 31
0.0
  0
LINE
  5
453
102
{ACAD_REACTORS
330
5D4
102
}
330
1F
100
AcDbEntity
  8
中心線
100
AcDbLine
 10
74.04080520369998
 20
443.9975792216562
 30
0.0
 11
139.0408052036999
 21
443.9975792216562
 31
0.0
  0
LINE
  5
454
102
{ACAD_REACTORS
330
5D1
102
}
330
1F
100
AcDbEntity
  8
中心線
100
AcDbLine
 10
720.8583205849342
 20
443.9975792216562
 30
0.0
 11
808.23949921764
 21
443.9975792216562
 31
0.0
  0
LINE
  5
455
102
{ACAD_REACTORS
330
5D1
102
}
330
1F
100
AcDbEntity
  8
中心線
100
AcDbLine
 10
766.5408052037
 20
292.7410324186428
 30
0.0
 11
766.5408052037
 21
485.6790875061737
 31
0.0
  0
LINE
  5
456
102
{ACAD_REACTORS
330
5D1
102
}
330
1F
100
AcDbEntity
  8
中心線
100
AcDbLine
 10
808.23949921764
 20
443.9975792216562
 30
0.0
 11
836.6989572071419
 21
415.538121232154
 31
0.0
  0
CIRCLE
  5
468
102
{ACAD_REACTORS
330
660
102
}
330
1F
100
AcDbEntity
  8
実線
100
AcDbCircle
 10
326.5408052036999
 20
111.7475792216563
 30
0.0
 40
8.0
  0
LINE
  5
469
102
{ACAD_REACTORS
330
660
102
}
330
1F
100
AcDbEntity
  8
実線
100
AcDbLine
 10
349.7524070316643
 20
92.8227152396345
 30
0.0
 11
319.7916133373023
 21
94.35596055721559
 31
0.0
  0
LINE
  5
46A
102
{ACAD_REACTORS
330
660
102
}
330
1F
100
AcDbEntity
  8
実線
100
AcDbLine
 10
349.8137368443674
 20
94.021146987409
 30
0.0
 11
349.7524070316643
 21
92.8227152396345
 31
0.0
  0
LINE
  5
46B
102
{ACAD_REACTORS
330
660
102
}
330
1F
100
AcDbEntity
  8
実線
100
AcDbLine
 10
319.8529431500056
 20
95.55439230499009
 30
0.0
 11
349.8137368443674
 21
94.021146987409
 31
0.0
  0
LINE
  5
46C
102
{ACAD_REACTORS
330
660
102
}
330
1F
100
AcDbEntity
  8
実線
100
AcDbLine
 10
319.7916133373023
 20
94.35596055721559
 30
0.0
 11
319.8529431500056
 21
95.55439230499009
 31
0.0
  0
LINE
  5
46D
102
{ACAD_REACTORS
330
660
102
}
330
1F
100
AcDbEntity
  8
実線
100
AcDbLine
 10
320.2566977503018
 20
103.4440679778387
 30
0.0
 11
345.2240258289369
 21
102.1663635465211
 31
0.0
  0
LINE
  5
46E
102
{ACAD_REACTORS
330
660
102
}
330
1F
100
AcDbEntity
  8
実線
100
AcDbLine
 10
320.2566977503018
 20
103.4440679778387
 30
0.0
 11
319.8529431500056
 21
95.55439230499009
 31
0.0
  0
LINE
  5
46F
102
{ACAD_REACTORS
330
660
102
}
330
1F
100
AcDbEntity
  8
実線
100
AcDbLine
 10
344.8202712286404
 20
94.27668787367251
 30
0.0
 11
345.2240258289369
 21
102.1663635465211
 31
0.0
  0
LINE
  5
470
102
{ACAD_REACTORS
330
660
102
}
330
1F
100
AcDbEntity
  8
実線
100
AcDbLine
 10
344.9454862629095
 20
96.72348602537869
 30
0.0
 11
351.4369915633547
 21
96.39128287323618
 31
0.0
  0
LINE
  5
471
102
{ACAD_REACTORS
330
660
102
}
330
1F
100
AcDbEntity
  8
実線
100
AcDbLine
 10
351.5903160951127
 20
99.38736224267238
 30
0.0
 11
345.0988107946678
 21
99.71956539481499
 31
0.0
  0
LINE
  5
472
102
{ACAD_REACTORS
330
660
102
}
330
1F
100
AcDbEntity
  8
実線
100
AcDbLine
 10
351.4369915633547
 20
96.39128287323618
 30
0.0
 11
351.5903160951127
 21
99.38736224267238
 31
0.0
  0
LINE
  5
473
102
{ACAD_REACTORS
330
660
102
}
330
1F
100
AcDbEntity
  8
実線
100
AcDbLine
 10
272.7071752342386
 20
100.8975792216563
 30
0.0
 11
273.7414581967298
 21
100.8975792216563
 31
0.0
  0
LINE
  5
474
102
{ACAD_REACTORS
330
660
102
}
330
1F
100
AcDbEntity
  8
実線
100
AcDbLine
 10
273.7414581967298
 20
122.5975792216563
 30
0.0
 11
272.7071752342386
 21
122.5975792216563
 31
0.0
  0
ELLIPSE
  5
475
102
{ACAD_REACTORS
330
660
102
}
330
1F
100
AcDbEntity
  8
実線
100
AcDbEllipse
 10
273.7414581967298
 20
111.7475792216563
 30
0.0
 11
0.0
 21
10.84999999999999
 31
0.0
210
0.0
220
0.0
230
1.0
 40
0.7071067811865476
 41
3.141592653589792
 42
6.283185307179584
  0
LINE
  5
476
102
{ACAD_REACTORS
330
660
102
}
330
1F
100
AcDbEntity
  8
実線
100
AcDbLine
 10
261.9327749509143
 20
94.74757922165627
 30
0.0
 11
263.4530545304656
 21
94.74757922165627
 31
0.0
  0
LINE
  5
477
102
{ACAD_REACTORS
330
660
102
}
330
1F
100
AcDbEntity
  8
実線
100
AcDbLine
 10
263.4530545304656
 20
128.7475792216563
 30
0.0
 11
261.9327749509143
 21
128.7475792216563
 31
0.0
  0
ELLIPSE
  5
478
102
{ACAD_REACTORS
330
660
102
}
330
1F
100
AcDbEntity
  8
実線
100
AcDbEllipse
 10
261.9327749509143
 20
111.7475792216563
 30
0.0
 11
0.0000000000000018
 21
17.0
 31
0.0
210
0.0
220
0.0
230
1.0
 40
0.7071067811865475
 41
3.141592653589792
 42
6.283185307179584
  0
ELLIPSE
  5
479
102
{ACAD_REACTORS
330
660
102
}
330
1F
100
AcDbEntity
  8
実線
100
AcDbEllipse
 10
261.9327749509143
 20
111.7475792216563
 30
0.0
 11
0.0000000000000018
 21
17.0
 31
0.0
210
0.0
220
0.0
230
1.0
 40
0.7071067811865475
 41
1.570796326794897
 42
3.141592653589792
  0
ELLIPSE
  5
47A
102
{ACAD_REACTORS
330
660
102
}
330
1F
100
AcDbEntity
  8
実線
100
AcDbEllipse
 10
263.4530545304656
 20
111.7475792216563
 30
0.0
 11
0.0000000000000018
 21
17.0
 31
0.0
210
0.0
220
0.0
230
1.0
 40
0.7071067811865475
 41
3.141592653589792
 42
6.283185307179584
  0
ELLIPSE
  5
47B
102
{ACAD_REACTORS
330
660
102
}
330
1F
100
AcDbEntity
  8
実線
100
AcDbEllipse
 10
261.9327749509143
 20
111.7475792216563
 30
0.0
 11
0.0000000000000018
 21
17.0
 31
0.0
210
0.0
220
0.0
230
1.0
 40
0.7071067811865475
 41
0.0
 42
1.570796326794897
  0
LINE
  5
47C
102
{ACAD_REACTORS
330
660
102
}
330
1F
100
AcDbEntity
  8
実線
100
AcDbLine
 10
273.7414581967298
 20
100.8975792216563
 30
0.0
 11
298.5715810457081
 21
100.8975792216563
 31
0.0
  0
LINE
  5
47D
102
{ACAD_REACTORS
330
660
102
}
330
1F
100
AcDbEntity
  8
実線
100
AcDbLine
 10
298.5715810457081
 20
122.5975792216563
 30
0.0
 11
273.7414581967298
 21
122.5975792216563
 31
0.0
  0
ELLIPSE
  5
47E
102
{ACAD_REACTORS
330
660
102
}
330
1F
100
AcDbEntity
  8
実線
100
AcDbEllipse
 10
273.7414581967298
 20
111.7475792216563
 30
0.0
 11
0.0
 21
10.84999999999999
 31
0.0
210
0.0
220
0.0
230
1.0
 40
0.7071067811865476
 41
3.141592653589792
 42
6.283185307179584
  0
ARC
  5
481
102
{ACAD_REACTORS
330
660
102
}
330
1F
100
AcDbEntity
  8
実線
100
AcDbCircle
 10
345.9003207020467
 20
99.72861350916998
 30
0.0
 40
2.0
100
AcDbArc
 50
355.637897105001
 51
110.6486193207723
  0
LINE
  5
482
102
{ACAD_REACTORS
330
660
102
}
330
1F
100
AcDbEntity
  8
実線
100
AcDbLine
 10
340.2305602132098
 20
102.4219044327846
 30
0.0
 11
340.3123332968141
 21
104.0198134298173
 31
0.0
  0
LINE
  5
483
102
{ACAD_REACTORS
330
660
102
}
330
1F
100
AcDbEntity
  8
実線
100
AcDbLine
 10
349.9389518786366
 20
96.46794513911528
 30
0.0
 11
349.8137368443674
 21
94.021146987409
 31
0.0
  0
LINE
  5
484
102
{ACAD_REACTORS
330
660
102
}
330
1F
100
AcDbEntity
  8
実線
100
AcDbLine
 10
350.2992645282682
 20
103.5087316572903
 30
0.0
 11
350.0922764103948
 21
99.46402450855138
 31
0.0
  0
LINE
  5
485
102
{ACAD_REACTORS
330
660
102
}
330
1F
100
AcDbEntity
  8
実線
100
AcDbLine
 10
340.3123332968141
 20
104.0198134298173
 30
0.0
 11
350.2992645282682
 21
103.5087316572903
 31
0.0
  0
CIRCLE
  5
486
102
{ACAD_REACTORS
330
660
102
}
330
1F
100
AcDbEntity
  8
実線
100
AcDbCircle
 10
326.5408052036999
 20
111.7475792216563
 30
0.0
 40
30.0
  0
LINE
  5
487
102
{ACAD_REACTORS
330
660
102
}
330
1F
100
AcDbEntity
  8
実線
100
AcDbLine
 10
319.3163072888523
 20
85.06811451196327
 30
0.0
 11
319.7916133373023
 21
94.35596055721559
 31
0.0
  0
CIRCLE
  5
48A
102
{ACAD_REACTORS
330
660
102
}
330
1F
100
AcDbEntity
  8
実線
100
AcDbCircle
 10
323.7408052036999
 20
89.34757922165628
 30
0.0
 40
2.0
  0
LINE
  5
48B
102
{ACAD_REACTORS
330
660
102
}
330
1F
100
AcDbEntity
  8
実線
100
AcDbLine
 10
329.3032385203061
 20
84.55703273943639
 30
0.0
 11
319.3163072888523
 21
85.06811451196327
 31
0.0
  0
LINE
  5
48C
102
{ACAD_REACTORS
330
660
102
}
330
1F
100
AcDbEntity
  8
実線
100
AcDbLine
 10
329.7785445687563
 20
93.84487878468851
 30
0.0
 11
329.3032385203061
 21
84.55703273943639
 31
0.0
  0
ARC
  5
48D
102
{ACAD_REACTORS
330
660
102
}
330
1F
100
AcDbEntity
  8
実線
100
AcDbCircle
 10
326.5408052036999
 20
111.7475792216563
 30
0.0
 40
70.0
100
AcDbArc
 50
193.4440413951761
 51
166.5559586048234
  0
CIRCLE
  5
490
102
{ACAD_REACTORS
330
660
102
}
330
1F
100
AcDbEntity
  8
実線
100
AcDbCircle
 10
363.6639112159937
 20
148.8706852339501
 30
0.0
 40
8.0
  0
CIRCLE
  5
493
102
{ACAD_REACTORS
330
660
102
}
330
1F
100
AcDbEntity
  8
実線
100
AcDbCircle
 10
289.417699191406
 20
148.8706852339501
 30
0.0
 40
8.0
  0
CIRCLE
  5
496
102
{ACAD_REACTORS
330
660
102
}
330
1F
100
AcDbEntity
  8
実線
100
AcDbCircle
 10
289.417699191406
 20
74.62447320936258
 30
0.0
 40
8.0
  0
CIRCLE
  5
499
102
{ACAD_REACTORS
330
660
102
}
330
1F
100
AcDbEntity
  8
実線
100
AcDbCircle
 10
363.6639112159937
 20
74.62447320936258
 30
0.0
 40
8.0
  0
ELLIPSE
  5
49C
102
{ACAD_REACTORS
330
5D5
102
}
330
1F
100
AcDbEntity
  8
実線
100
AcDbEllipse
 10
261.9327749509144
 20
631.7475792216562
 30
0.0
 11
0.0000000000000018
 21
17.0
 31
0.0
210
0.0
220
0.0
230
1.0
 40
0.7071067811865475
 41
1.570796326794897
 42
2.848430027464352
  0
ELLIPSE
  5
49D
102
{ACAD_REACTORS
330
5D5
102
}
330
1F
100
AcDbEntity
  8
実線
100
AcDbEllipse
 10
261.9327749509144
 20
631.7475792216562
 30
0.0
 11
0.0000000000000018
 21
17.0
 31
0.0
210
0.0
220
0.0
230
1.0
 40
0.7071067811865475
 41
0.2931626261254415
 42
1.570796326794897
  0
ELLIPSE
  5
49E
102
{ACAD_REACTORS
330
5D5
102
}
330
1F
100
AcDbEntity
  8
実線
100
AcDbEllipse
 10
263.4530545304657
 20
631.7475792216562
 30
0.0
 11
0.0000000000000018
 21
17.0
 31
0.0
210
0.0
220
0.0
230
1.0
 40
0.7071067811865475
 41
0.4488412741472528
 42
1.570796326794897
  0
ELLIPSE
  5
49F
102
{ACAD_REACTORS
330
5D5
102
}
330
1F
100
AcDbEntity
  8
実線
100
AcDbEllipse
 10
263.4530545304657
 20
631.7475792216562
 30
0.0
 11
0.0000000000000018
 21
17.0
 31
0.0
210
0.0
220
0.0
230
1.0
 40
0.7071067811865475
 41
1.570796326794897
 42
2.692751379442539
  0
CIRCLE
  5
4A2
102
{ACAD_REACTORS
330
5D5
102
}
330
1F
100
AcDbEntity
  8
実線
100
AcDbCircle
 10
363.6639112159938
 20
594.6244732093626
 30
0.0
 40
8.0
  0
CIRCLE
  5
4A5
102
{ACAD_REACTORS
330
5D5
102
}
330
1F
100
AcDbEntity
  8
実線
100
AcDbCircle
 10
289.4176991914061
 20
594.6244732093626
 30
0.0
 40
8.0
  0
CIRCLE
  5
4A8
102
{ACAD_REACTORS
330
5D5
102
}
330
1F
100
AcDbEntity
  8
実線
100
AcDbCircle
 10
289.4176991914061
 20
668.8706852339501
 30
0.0
 40
8.0
  0
CIRCLE
  5
4AB
102
{ACAD_REACTORS
330
5D5
102
}
330
1F
100
AcDbEntity
  8
実線
100
AcDbCircle
 10
363.6639112159938
 20
668.8706852339501
 30
0.0
 40
8.0
  0
CIRCLE
  5
4AC
102
{ACAD_REACTORS
330
5D5
102
}
330
1F
100
AcDbEntity
  8
実線
100
AcDbCircle
 10
326.5408052037
 20
631.7475792216562
 30
0.0
 40
70.0
  0
LINE
  5
4AD
102
{ACAD_REACTORS
330
5D1
102
}
330
1F
100
AcDbEntity
  8
実線
100
AcDbLine
 10
736.5408052036996
 20
413.7475792216561
 30
0.0
 11
736.5408052036996
 21
340.1475792216562
 31
0.0
  0
LINE
  5
4AE
102
{ACAD_REACTORS
330
5D1
102
}
330
1F
100
AcDbEntity
  8
実線
100
AcDbLine
 10
796.5408052037
 20
340.1475792216562
 30
0.0
 11
796.5408052037
 21
413.7475792216561
 31
0.0
  0
LINE
  5
4AF
102
{ACAD_REACTORS
330
5D1
102
}
330
1F
100
AcDbEntity
  8
実線
100
AcDbLine
 10
774.5408052037
 20
317.2475792216562
 30
0.0
 11
774.5408052037
 21
323.7475792216562
 31
0.0
  0
LINE
  5
4B0
102
{ACAD_REACTORS
330
5D1
102
}
330
1F
100
AcDbEntity
  8
実線
100
AcDbLine
 10
773.2899970700969
 20
317.2475792216562
 30
0.0
 11
774.5408052037
 21
317.2475792216562
 31
0.0
  0
LINE
  5
4B1
102
{ACAD_REACTORS
330
5D1
102
}
330
1F
100
AcDbEntity
  8
実線
100
AcDbLine
 10
773.2899970700969
 20
323.7475792216562
 30
0.0
 11
774.5408052037
 21
323.7475792216562
 31
0.0
  0
LINE
  5
4B2
102
{ACAD_REACTORS
330
5D1
102
}
330
1F
100
AcDbEntity
  8
実線
100
AcDbLine
 10
743.2678735630325
 20
311.1475792216562
 30
0.0
 11
773.2899970700969
 21
311.1475792216562
 31
0.0
  0
LINE
  5
4B3
102
{ACAD_REACTORS
330
5D1
102
}
330
1F
100
AcDbEntity
  8
実線
100
AcDbLine
 10
743.2678735630325
 20
336.1475792216562
 30
0.0
 11
748.4389140938731
 21
336.1475792216562
 31
0.0
  0
LINE
  5
4B4
102
{ACAD_REACTORS
330
5D1
102
}
330
1F
100
AcDbEntity
  8
実線
100
AcDbLine
 10
743.2678735630325
 20
311.1475792216562
 30
0.0
 11
743.2678735630325
 21
336.1475792216562
 31
0.0
  0
LINE
  5
4B5
102
{ACAD_REACTORS
330
5D1
102
}
330
1F
100
AcDbEntity
  8
実線
100
AcDbLine
 10
743.3292033757356
 20
336.1475792216562
 30
0.0
 11
743.3292033757356
 21
311.1475792216562
 31
0.0
  0
LINE
  5
4B6
102
{ACAD_REACTORS
330
5D1
102
}
330
1F
100
AcDbEntity
  8
実線
100
AcDbLine
 10
773.2899970700969
 20
334.9475792216562
 30
0.0
 11
773.2899970700969
 21
311.1475792216562
 31
0.0
  0
ELLIPSE
  5
4B7
102
{ACAD_REACTORS
330
5D1
102
}
330
1F
100
AcDbEntity
  8
実線
100
AcDbEllipse
 10
741.5679565781662
 20
318.1475792216562
 30
0.0
 11
0.0
 21
1.5
 31
0.0
210
0.0
220
0.0
230
1.0
 40
0.0511081772527001
 41
0.0
 42
1.570796326794897
  0
LINE
  5
4B8
102
{ACAD_REACTORS
330
5D1
102
}
330
1F
100
AcDbEntity
  8
実線
100
AcDbLine
 10
743.2678735630325
 20
319.6475792216562
 30
0.0
 11
741.5679565781662
 21
319.6475792216562
 31
0.0
  0
LINE
  5
4B9
102
{ACAD_REACTORS
330
5D1
102
}
330
1F
100
AcDbEntity
  8
実線
100
AcDbLine
 10
741.5679565781662
 20
316.6475792216562
 30
0.0
 11
743.2678735630325
 21
316.6475792216562
 31
0.0
  0
ELLIPSE
  5
4BA
102
{ACAD_REACTORS
330
5D1
102
}
330
1F
100
AcDbEntity
  8
実線
100
AcDbEllipse
 10
741.5679565781662
 20
318.1475792216562
 30
0.0
 11
0.0
 21
1.5
 31
0.0
210
0.0
220
0.0
230
1.0
 40
0.0511081772527001
 41
3.14159265358979
 42
6.283185307179584
  0
ELLIPSE
  5
4BB
102
{ACAD_REACTORS
330
5D1
102
}
330
1F
100
AcDbEntity
  8
実線
100
AcDbEllipse
 10
741.5679565781662
 20
318.1475792216562
 30
0.0
 11
0.0
 21
1.5
 31
0.0
210
0.0
220
0.0
230
1.0
 40
0.0511081772527001
 41
1.570796326794897
 42
3.14159265358979
  0
LINE
  5
4BC
102
{ACAD_REACTORS
330
5D1
102
}
330
1F
100
AcDbEntity
  8
実線
100
AcDbLine
 10
743.2678735630325
 20
330.1475792216562
 30
0.0
 11
741.5679565781662
 21
330.1475792216562
 31
0.0
  0
LINE
  5
4BD
102
{ACAD_REACTORS
330
5D1
102
}
330
1F
100
AcDbEntity
  8
実線
100
AcDbLine
 10
741.5679565781662
 20
327.1475792216562
 30
0.0
 11
743.2678735630325
 21
327.1475792216562
 31
0.0
  0
ELLIPSE
  5
4BE
102
{ACAD_REACTORS
330
5D1
102
}
330
1F
100
AcDbEntity
  8
実線
100
AcDbEllipse
 10
741.5679565781662
 20
328.6475792216562
 30
0.0
 11
0.0
 21
1.5
 31
0.0
210
0.0
220
0.0
230
1.0
 40
0.0511081772527001
 41
3.14159265358979
 42
6.283185307179584
  0
ELLIPSE
  5
4BF
102
{ACAD_REACTORS
330
5D1
102
}
330
1F
100
AcDbEntity
  8
実線
100
AcDbEllipse
 10
741.5679565781662
 20
328.6475792216562
 30
0.0
 11
0.0
 21
1.5
 31
0.0
210
0.0
220
0.0
230
1.0
 40
0.0511081772527001
 41
1.570796326794897
 42
3.14159265358979
  0
ELLIPSE
  5
4C0
102
{ACAD_REACTORS
330
5D1
102
}
330
1F
100
AcDbEntity
  8
実線
100
AcDbEllipse
 10
741.5679565781662
 20
328.6475792216562
 30
0.0
 11
0.0
 21
1.5
 31
0.0
210
0.0
220
0.0
230
1.0
 40
0.0511081772527001
 41
0.0
 42
1.570796326794897
  0
LINE
  5
4C1
102
{ACAD_REACTORS
330
5D1
102
}
330
1F
100
AcDbEntity
  8
実線
100
AcDbLine
 10
835.63896351702
 20
431.9423320740245
 30
0.0
 11
827.012260786544
 21
440.5690348045003
 31
0.0
  0
LINE
  5
4C2
102
{ACAD_REACTORS
330
5D1
102
}
330
1F
100
AcDbEntity
  8
実線
100
AcDbLine
 10
811.668043634796
 20
425.2248176527523
 30
0.0
 11
820.2947463652719
 21
416.5981149222764
 31
0.0
  0
LINE
  5
4C3
102
{ACAD_REACTORS
330
5D1
102
}
330
1F
100
AcDbEntity
  8
実線
100
AcDbLine
 10
827.012260786544
 20
440.5690348045003
 30
0.0
 11
811.668043634796
 21
425.2248176527523
 31
0.0
  0
LINE
  5
4C4
102
{ACAD_REACTORS
330
5D1
102
}
330
1F
100
AcDbEntity
  8
実線
100
AcDbLine
 10
843.1696507366559
 20
433.1090582629823
 30
0.0
 11
841.649371157105
 21
434.6293378425333
 31
0.0
  0
LINE
  5
4C5
102
{ACAD_REACTORS
330
5D1
102
}
330
1F
100
AcDbEntity
  8
実線
100
AcDbLine
 10
817.607740596763
 20
410.5877072821908
 30
0.0
 11
819.128020176314
 21
409.0674277026395
 31
0.0
  0
LINE
  5
4C6
102
{ACAD_REACTORS
330
5D1
102
}
330
1F
100
AcDbEntity
  8
実線
100
AcDbLine
 10
843.1696507366559
 20
433.1090582629823
 30
0.0
 11
819.128020176314
 21
409.0674277026395
 31
0.0
  0
LINE
  5
4C7
102
{ACAD_REACTORS
330
5D1
102
}
330
1F
100
AcDbEntity
  8
実線
100
AcDbLine
 10
820.2947463652719
 20
416.5981149222764
 30
0.0
 11
817.607740596763
 21
410.5877072821907
 31
0.0
  0
LINE
  5
4C8
102
{ACAD_REACTORS
330
5D1
102
}
330
1F
100
AcDbEntity
  8
実線
100
AcDbLine
 10
841.649371157105
 20
434.6293378425333
 30
0.0
 11
835.63896351702
 21
431.9423320740245
 31
0.0
  0
LINE
  5
4C9
102
{ACAD_REACTORS
330
5D1
102
}
330
1F
100
AcDbEntity
  8
実線
100
AcDbLine
 10
817.607740596763
 20
410.5877072821908
 30
0.0
 11
841.649371157105
 21
434.6293378425333
 31
0.0
  0
LINE
  5
4CA
102
{ACAD_REACTORS
330
5D1
102
}
330
1F
100
AcDbEntity
  8
実線
100
AcDbLine
 10
820.2947463652719
 20
416.5981149222764
 30
0.0
 11
835.63896351702
 21
431.9423320740245
 31
0.0
  0
LINE
  5
4CB
102
{ACAD_REACTORS
330
5D1
102
}
330
1F
100
AcDbEntity
  8
実線
100
AcDbLine
 10
792.5408052037
 20
454.847579221656
 30
0.0
 11
792.5408052037
 21
433.1475792216561
 31
0.0
  0
ARC
  5
4CC
102
{ACAD_REACTORS
330
5D1
102
}
330
1F
100
AcDbEntity
  8
実線
100
AcDbCircle
 10
792.5408052037
 20
406.097579221656
 30
0.0
 40
48.75
100
AcDbArc
 50
44.99999999999977
 51
90.0
  0
ARC
  5
4CD
102
{ACAD_REACTORS
330
5D1
102
}
330
1F
100
AcDbEntity
  8
実線
100
AcDbCircle
 10
792.5408052037
 20
406.097579221656
 30
0.0
 40
27.04999999999999
100
AcDbArc
 50
44.99999999999977
 51
90.0
  0
LINE
  5
4CE
102
{ACAD_REACTORS
330
5D1
102
}
330
1F
100
AcDbEntity
  8
実線
100
AcDbLine
 10
787.5408052037
 20
433.1475792216561
 30
0.0
 11
792.5408052037
 21
433.1475792216561
 31
0.0
  0
LINE
  5
4CF
102
{ACAD_REACTORS
330
5D1
102
}
330
1F
100
AcDbEntity
  8
実線
100
AcDbLine
 10
792.5408052037
 20
454.847579221656
 30
0.0
 11
787.5408052037
 21
454.847579221656
 31
0.0
  0
LINE
  5
4D0
102
{ACAD_REACTORS
330
5D1
102
}
330
1F
100
AcDbEntity
  8
実線
100
AcDbLine
 10
743.2678735630325
 20
336.1475792216562
 30
0.0
 11
742.9163557599182
 21
336.1475792216562
 31
0.0
  0
LINE
  5
4D1
102
{ACAD_REACTORS
330
5D1
102
}
330
1F
100
AcDbEntity
  8
実線
100
AcDbLine
 10
742.7823458791314
 20
336.1475792216562
 30
0.0
 11
742.7823458791314
 21
334.9475792216562
 31
0.0
  0
LINE
  5
4D2
102
{ACAD_REACTORS
330
5D1
102
}
330
1F
100
AcDbEntity
  8
実線
100
AcDbLine
 10
742.7823458791314
 20
334.9475792216562
 30
0.0
 11
743.2678735630325
 21
334.9475792216562
 31
0.0
  0
LINE
  5
4D3
102
{ACAD_REACTORS
330
5D1
102
}
330
1F
100
AcDbEntity
  8
実線
100
AcDbLine
 10
742.9163557599182
 20
336.1475792216562
 30
0.0
 11
740.5408052036997
 21
336.1475792216562
 31
0.0
  0
LINE
  5
4D4
102
{ACAD_REACTORS
330
5D1
102
}
330
1F
100
AcDbEntity
  8
実線
100
AcDbLine
 10
763.7095331449061
 20
336.1475792216562
 30
0.0
 11
748.4389140938731
 21
336.1475792216562
 31
0.0
  0
LINE
  5
4D5
102
{ACAD_REACTORS
330
5D1
102
}
330
1F
100
AcDbEntity
  8
実線
100
AcDbLine
 10
773.765303118547
 20
336.1475792216562
 30
0.0
 11
792.5408052037
 21
336.1475792216562
 31
0.0
  0
ARC
  5
4D6
102
{ACAD_REACTORS
330
5D1
102
}
330
1F
100
AcDbEntity
  8
実線
100
AcDbCircle
 10
740.5408052036997
 20
340.1475792216562
 30
0.0
 40
4.0
100
AcDbArc
 50
180.0
 51
270.0
  0
ARC
  5
4D7
102
{ACAD_REACTORS
330
5D1
102
}
330
1F
100
AcDbEntity
  8
実線
100
AcDbCircle
 10
792.5408052037
 20
340.1475792216562
 30
0.0
 40
4.0
100
AcDbArc
 50
270.0
 51
0.0
  0
LINE
  5
4D8
102
{ACAD_REACTORS
330
5D1
102
}
330
1F
100
AcDbEntity
  8
実線
100
AcDbLine
 10
736.5408052036996
 20
340.1475792216562
 30
0.0
 11
796.5408052037
 21
340.1475792216562
 31
0.0
  0
LINE
  5
4D9
102
{ACAD_REACTORS
330
5D1
102
}
330
1F
100
AcDbEntity
  8
実線
100
AcDbLine
 10
773.765303118547
 20
334.9475792216562
 30
0.0
 11
763.3030658386429
 21
334.9475792216562
 31
0.0
  0
LINE
  5
4DA
102
{ACAD_REACTORS
330
5D1
102
}
330
1F
100
AcDbEntity
  8
実線
100
AcDbLine
 10
773.765303118547
 20
336.1475792216562
 30
0.0
 11
763.7095331449061
 21
336.1475792216562
 31
0.0
  0
LINE
  5
4DB
102
{ACAD_REACTORS
330
5D1
102
}
330
1F
100
AcDbEntity
  8
実線
100
AcDbLine
 10
773.765303118547
 20
336.1475792216562
 30
0.0
 11
773.765303118547
 21
334.9475792216562
 31
0.0
  0
LINE
  5
4DC
102
{ACAD_REACTORS
330
5D1
102
}
330
1F
100
AcDbEntity
  8
実線
100
AcDbLine
 10
763.3030658386429
 20
336.1475792216562
 30
0.0
 11
763.3030658386429
 21
334.9475792216562
 31
0.0
  0
LINE
  5
4DD
102
{ACAD_REACTORS
330
5D1
102
}
330
1F
100
AcDbEntity
  8
実線
100
AcDbLine
 10
763.7783718870941
 20
336.1475792216562
 30
0.0
 11
763.7783718870941
 21
334.9475792216562
 31
0.0
  0
LINE
  5
4DE
102
{ACAD_REACTORS
330
5D1
102
}
330
1F
100
AcDbEntity
  8
実線
100
AcDbLine
 10
696.5408052036997
 20
455.7475792216562
 30
0.0
 11
836.5408052037
 21
455.7475792216562
 31
0.0
  0
LINE
  5
4DF
102
{ACAD_REACTORS
330
5D1
102
}
330
1F
100
AcDbEntity
  8
実線
100
AcDbLine
 10
836.5408052037
 20
471.7475792216561
 30
0.0
 11
696.5408052036997
 21
471.7475792216561
 31
0.0
  0
LINE
  5
4E0
102
{ACAD_REACTORS
330
5D1
102
}
330
1F
100
AcDbEntity
  8
実線
100
AcDbLine
 10
836.5408052037
 20
455.7475792216562
 30
0.0
 11
836.5408052037
 21
471.7475792216561
 31
0.0
  0
LINE
  5
4E1
102
{ACAD_REACTORS
330
5D1
102
}
330
1F
100
AcDbEntity
  8
実線
100
AcDbLine
 10
696.5408052036997
 20
471.7475792216561
 30
0.0
 11
696.5408052036997
 21
455.7475792216562
 31
0.0
  0
LINE
  5
4E2
102
{ACAD_REACTORS
330
5D1
102
}
330
1F
100
AcDbEntity
  8
実線
100
AcDbLine
 10
796.5408052037
 20
418.2475792216562
 30
0.0
 11
787.5408052037
 21
427.2475792216562
 31
0.0
  0
LINE
  5
4E3
102
{ACAD_REACTORS
330
5D1
102
}
330
1F
100
AcDbEntity
  8
実線
100
AcDbLine
 10
736.5408052036996
 20
418.2475792216562
 30
0.0
 11
736.5408052036996
 21
413.7475792216561
 31
0.0
  0
LINE
  5
4E4
102
{ACAD_REACTORS
330
5D1
102
}
330
1F
100
AcDbEntity
  8
実線
100
AcDbLine
 10
796.5408052037
 20
413.7475792216561
 30
0.0
 11
796.5408052037
 21
418.2475792216562
 31
0.0
  0
LINE
  5
4E5
102
{ACAD_REACTORS
330
5D1
102
}
330
1F
100
AcDbEntity
  8
実線
100
AcDbLine
 10
736.5408052036996
 20
418.2475792216562
 30
0.0
 11
745.5408052036996
 21
427.2475792216562
 31
0.0
  0
LINE
  5
4E6
102
{ACAD_REACTORS
330
5D1
102
}
330
1F
100
AcDbEntity
  8
実線
100
AcDbLine
 10
736.5408052036996
 20
413.7475792216561
 30
0.0
 11
796.5408052037
 21
413.7475792216561
 31
0.0
  0
ARC
  5
4E7
102
{ACAD_REACTORS
330
5D1
102
}
330
1F
100
AcDbEntity
  8
実線
100
AcDbCircle
 10
766.5408052037
 20
448.247579221656
 30
0.0
 40
30.0
100
AcDbArc
 50
224.9999999999997
 51
315.0000000000002
  0
LINE
  5
4E8
102
{ACAD_REACTORS
330
5D1
102
}
330
1F
100
AcDbEntity
  8
実線
100
AcDbLine
 10
745.5408052036996
 20
455.7475792216562
 30
0.0
 11
745.5408052036996
 21
427.2475792216562
 31
0.0
  0
LINE
  5
4E9
102
{ACAD_REACTORS
330
5D1
102
}
330
1F
100
AcDbEntity
  8
実線
100
AcDbLine
 10
787.5408052037
 20
455.7475792216562
 30
0.0
 11
787.5408052037
 21
427.2475792216562
 31
0.0
  0
LINE
  5
4EA
102
{ACAD_REACTORS
330
5D1
102
}
330
1F
100
AcDbEntity
  8
実線
100
AcDbLine
 10
762.0408052037
 20
435.4975792216562
 30
0.0
 11
745.5408052036996
 21
435.4975792216562
 31
0.0
  0
LINE
  5
4EB
102
{ACAD_REACTORS
330
5D1
102
}
330
1F
100
AcDbEntity
  8
実線
100
AcDbLine
 10
771.0408052037
 20
435.4975792216562
 30
0.0
 11
787.5408052037
 21
435.4975792216562
 31
0.0
  0
LINE
  5
4EC
102
{ACAD_REACTORS
330
5D1
102
}
330
1F
100
AcDbEntity
  8
実線
100
AcDbLine
 10
762.0408052037
 20
435.4975792216562
 30
0.0
 11
762.0408052037
 21
455.7475792216562
 31
0.0
  0
LINE
  5
4ED
102
{ACAD_REACTORS
330
5D1
102
}
330
1F
100
AcDbEntity
  8
実線
100
AcDbLine
 10
745.5408052036996
 20
427.2475792216562
 30
0.0
 11
787.5408052037
 21
427.2475792216562
 31
0.0
  0
LINE
  5
4EE
102
{ACAD_REACTORS
330
5D1
102
}
330
1F
100
AcDbEntity
  8
実線
100
AcDbLine
 10
771.0408052037
 20
435.4975792216562
 30
0.0
 11
771.0408052037
 21
455.7475792216562
 31
0.0
  0
LINE
  5
4EF
102
{ACAD_REACTORS
330
5D2
102
}
330
1F
100
AcDbEntity
  8
実線
100
AcDbLine
 10
516.5408052037
 20
340.1475792216562
 30
0.0
 11
576.5408052037001
 21
340.1475792216562
 31
0.0
  0
LINE
  5
4F0
102
{ACAD_REACTORS
330
5D2
102
}
330
1F
100
AcDbEntity
  8
実線
100
AcDbLine
 10
516.5408052037
 20
413.7475792216561
 30
0.0
 11
516.5408052037
 21
340.1475792216562
 31
0.0
  0
LINE
  5
4F1
102
{ACAD_REACTORS
330
5D2
102
}
330
1F
100
AcDbEntity
  8
実線
100
AcDbLine
 10
576.5408052037001
 20
340.1475792216562
 30
0.0
 11
576.5408052037001
 21
413.7475792216561
 31
0.0
  0
LINE
  5
4F2
102
{ACAD_REACTORS
330
5D2
102
}
330
1F
100
AcDbEntity
  8
実線
100
AcDbLine
 10
540.5408052037
 20
336.1475792216562
 30
0.0
 11
540.5408052037
 21
323.7475792216562
 31
0.0
  0
LINE
  5
4F3
102
{ACAD_REACTORS
330
5D2
102
}
330
1F
100
AcDbEntity
  8
実線
100
AcDbLine
 10
552.5408052037001
 20
323.7475792216562
 30
0.0
 11
552.5408052037001
 21
336.1475792216562
 31
0.0
  0
LINE
  5
4F4
102
{ACAD_REACTORS
330
5D2
102
}
330
1F
100
AcDbEntity
  8
実線
100
AcDbLine
 10
538.5408052037
 20
317.2475792216562
 30
0.0
 11
554.5408052037
 21
317.2475792216562
 31
0.0
  0
LINE
  5
4F5
102
{ACAD_REACTORS
330
5D2
102
}
330
1F
100
AcDbEntity
  8
実線
100
AcDbLine
 10
554.5408052037
 20
323.7475792216562
 30
0.0
 11
538.5408052037
 21
323.7475792216562
 31
0.0
  0
LINE
  5
4F6
102
{ACAD_REACTORS
330
5D2
102
}
330
1F
100
AcDbEntity
  8
実線
100
AcDbLine
 10
538.5408052037
 20
323.7475792216562
 30
0.0
 11
538.5408052037
 21
317.2475792216562
 31
0.0
  0
LINE
  5
4F7
102
{ACAD_REACTORS
330
5D2
102
}
330
1F
100
AcDbEntity
  8
実線
100
AcDbLine
 10
554.5408052037
 20
317.2475792216562
 30
0.0
 11
554.5408052037
 21
323.7475792216562
 31
0.0
  0
LINE
  5
4F8
102
{ACAD_REACTORS
330
5D2
102
}
330
1F
100
AcDbEntity
  8
実線
100
AcDbLine
 10
564.0116965516839
 20
324.6975792216562
 30
0.0
 11
554.8443164475178
 21
324.6975792216562
 31
0.0
  0
LINE
  5
4F9
102
{ACAD_REACTORS
330
5D2
102
}
330
1F
100
AcDbEntity
  8
実線
100
AcDbLine
 10
564.0116965516839
 20
332.5975792216563
 30
0.0
 11
554.8443164475178
 21
332.5975792216563
 31
0.0
  0
LINE
  5
4FA
102
{ACAD_REACTORS
330
5D2
102
}
330
1F
100
AcDbEntity
  8
実線
100
AcDbLine
 10
564.0116965516839
 20
332.5975792216563
 30
0.0
 11
564.0116965516839
 21
324.697579221656
 31
0.0
  0
LINE
  5
4FB
102
{ACAD_REACTORS
330
5D2
102
}
330
1F
100
AcDbEntity
  8
実線
100
AcDbLine
 10
556.122020878835
 20
324.6975792216562
 30
0.0
 11
556.122020878835
 21
332.5975792216563
 31
0.0
  0
LINE
  5
4FC
102
{ACAD_REACTORS
330
5D2
102
}
330
1F
100
AcDbEntity
  8
実線
100
AcDbLine
 10
554.8443164475178
 20
332.5975792216563
 30
0.0
 11
554.8443164475178
 21
324.697579221656
 31
0.0
  0
LINE
  5
4FD
102
{ACAD_REACTORS
330
5D2
102
}
330
1F
100
AcDbEntity
  8
実線
100
AcDbLine
 10
562.7339921203664
 20
314.1975792216563
 30
0.0
 11
562.7339921203664
 21
311.1475792216562
 31
0.0
  0
LINE
  5
4FE
102
{ACAD_REACTORS
330
5D2
102
}
330
1F
100
AcDbEntity
  8
実線
100
AcDbLine
 10
562.7339921203664
 20
324.6975792216562
 30
0.0
 11
562.7339921203664
 21
322.0975792216563
 31
0.0
  0
LINE
  5
4FF
102
{ACAD_REACTORS
330
5D2
102
}
330
1F
100
AcDbEntity
  8
実線
100
AcDbLine
 10
562.7339921203664
 20
334.9475792216562
 30
0.0
 11
562.7339921203664
 21
332.5975792216563
 31
0.0
  0
LINE
  5
500
102
{ACAD_REACTORS
330
5D2
102
}
330
1F
100
AcDbEntity
  8
実線
100
AcDbLine
 10
562.7339921203664
 20
311.1475792216562
 30
0.0
 11
565.4656691857221
 21
311.1475792216562
 31
0.0
  0
LINE
  5
501
102
{ACAD_REACTORS
330
5D2
102
}
330
1F
100
AcDbEntity
  8
実線
100
AcDbLine
 10
565.4656691857221
 20
336.1475792216562
 30
0.0
 11
564.2672374379476
 21
336.1475792216562
 31
0.0
  0
LINE
  5
502
102
{ACAD_REACTORS
330
5D2
102
}
330
1F
100
AcDbEntity
  8
実線
100
AcDbLine
 10
564.2672374379476
 20
311.1475792216562
 30
0.0
 11
564.2672374379476
 21
336.1475792216562
 31
0.0
  0
LINE
  5
503
102
{ACAD_REACTORS
330
5D2
102
}
330
1F
100
AcDbEntity
  8
実線
100
AcDbLine
 10
565.4656691857221
 20
336.1475792216562
 30
0.0
 11
565.4656691857221
 21
311.1475792216562
 31
0.0
  0
LINE
  5
504
102
{ACAD_REACTORS
330
5D2
102
}
330
1F
100
AcDbEntity
  8
実線
100
AcDbLine
 10
564.0116965516839
 20
314.1975792216563
 30
0.0
 11
554.8443164475178
 21
314.1975792216563
 31
0.0
  0
LINE
  5
505
102
{ACAD_REACTORS
330
5D2
102
}
330
1F
100
AcDbEntity
  8
実線
100
AcDbLine
 10
564.0116965516839
 20
322.0975792216563
 30
0.0
 11
554.8443164475178
 21
322.0975792216563
 31
0.0
  0
LINE
  5
506
102
{ACAD_REACTORS
330
5D2
102
}
330
1F
100
AcDbEntity
  8
実線
100
AcDbLine
 10
564.0116965516839
 20
322.0975792216563
 30
0.0
 11
564.0116965516839
 21
314.1975792216563
 31
0.0
  0
LINE
  5
507
102
{ACAD_REACTORS
330
5D2
102
}
330
1F
100
AcDbEntity
  8
実線
100
AcDbLine
 10
556.122020878835
 20
314.1975792216563
 30
0.0
 11
556.122020878835
 21
322.0975792216563
 31
0.0
  0
LINE
  5
508
102
{ACAD_REACTORS
330
5D2
102
}
330
1F
100
AcDbEntity
  8
実線
100
AcDbLine
 10
554.8443164475178
 20
322.0975792216563
 30
0.0
 11
554.8443164475178
 21
314.1975792216563
 31
0.0
  0
LINE
  5
509
102
{ACAD_REACTORS
330
5D2
102
}
330
1F
100
AcDbEntity
  8
実線
100
AcDbLine
 10
560.0668587152596
 20
316.6475792216562
 30
0.0
 11
560.399061867402
 21
316.6475792216562
 31
0.0
  0
LINE
  5
50A
102
{ACAD_REACTORS
330
5D2
102
}
330
1F
100
AcDbEntity
  8
実線
100
AcDbLine
 10
560.399061867402
 20
319.6475792216562
 30
0.0
 11
560.0668587152596
 21
319.6475792216562
 31
0.0
  0
ELLIPSE
  5
50B
102
{ACAD_REACTORS
330
5D2
102
}
330
1F
100
AcDbEntity
  8
実線
100
AcDbEllipse
 10
560.399061867402
 20
318.1475792216562
 30
0.0
 11
0.0
 21
1.5
 31
0.0
210
0.0
220
0.0
230
1.0
 40
0.9986931231453969
 41
3.141592653589792
 42
6.283185307179584
  0
ELLIPSE
  5
50C
102
{ACAD_REACTORS
330
5D2
102
}
330
1F
100
AcDbEntity
  8
実線
100
AcDbEllipse
 10
560.399061867402
 20
318.1475792216562
 30
0.0
 11
0.0
 21
1.5
 31
0.0
210
0.0
220
0.0
230
1.0
 40
0.9986931231453969
 41
1.570796326794897
 42
3.141592653589792
  0
ELLIPSE
  5
50D
102
{ACAD_REACTORS
330
5D2
102
}
330
1F
100
AcDbEntity
  8
実線
100
AcDbEllipse
 10
560.0668587152596
 20
318.1475792216562
 30
0.0
 11
0.0
 21
1.5
 31
0.0
210
0.0
220
0.0
230
1.0
 40
0.9986931231453969
 41
0.0
 42
3.141592653589792
  0
ELLIPSE
  5
50E
102
{ACAD_REACTORS
330
5D2
102
}
330
1F
100
AcDbEntity
  8
実線
100
AcDbEllipse
 10
560.399061867402
 20
318.1475792216562
 30
0.0
 11
0.0
 21
1.5
 31
0.0
210
0.0
220
0.0
230
1.0
 40
0.9986931231453969
 41
0.0
 42
1.570796326794897
  0
ELLIPSE
  5
50F
102
{ACAD_REACTORS
330
5D2
102
}
330
1F
100
AcDbEntity
  8
実線
100
AcDbEllipse
 10
560.399061867402
 20
328.6475792216562
 30
0.0
 11
0.0
 21
1.5
 31
0.0
210
0.0
220
0.0
230
1.0
 40
0.9986931231453969
 41
0.0
 42
1.570796326794897
  0
LINE
  5
510
102
{ACAD_REACTORS
330
5D2
102
}
330
1F
100
AcDbEntity
  8
実線
100
AcDbLine
 10
560.0668587152596
 20
327.1475792216562
 30
0.0
 11
560.399061867402
 21
327.1475792216562
 31
0.0
  0
LINE
  5
511
102
{ACAD_REACTORS
330
5D2
102
}
330
1F
100
AcDbEntity
  8
実線
100
AcDbLine
 10
560.399061867402
 20
330.1475792216562
 30
0.0
 11
560.0668587152596
 21
330.1475792216562
 31
0.0
  0
ELLIPSE
  5
512
102
{ACAD_REACTORS
330
5D2
102
}
330
1F
100
AcDbEntity
  8
実線
100
AcDbEllipse
 10
560.399061867402
 20
328.6475792216562
 30
0.0
 11
0.0
 21
1.5
 31
0.0
210
0.0
220
0.0
230
1.0
 40
0.9986931231453969
 41
3.141592653589792
 42
6.283185307179584
  0
ELLIPSE
  5
513
102
{ACAD_REACTORS
330
5D2
102
}
330
1F
100
AcDbEntity
  8
実線
100
AcDbEllipse
 10
560.399061867402
 20
328.6475792216562
 30
0.0
 11
0.0
 21
1.5
 31
0.0
210
0.0
220
0.0
230
1.0
 40
0.9986931231453969
 41
1.570796326794897
 42
3.141592653589792
  0
ELLIPSE
  5
514
102
{ACAD_REACTORS
330
5D2
102
}
330
1F
100
AcDbEntity
  8
実線
100
AcDbEllipse
 10
560.0668587152596
 20
328.6475792216562
 30
0.0
 11
0.0
 21
1.5
 31
0.0
210
0.0
220
0.0
230
1.0
 40
0.9986931231453969
 41
0.0
 42
3.141592653589792
  0
LINE
  5
515
102
{ACAD_REACTORS
330
5D2
102
}
330
1F
100
AcDbEntity
  8
実線
100
AcDbLine
 10
564.2672374379476
 20
334.9475792216562
 30
0.0
 11
554.268570995539
 21
334.9475792216562
 31
0.0
  0
LINE
  5
516
102
{ACAD_REACTORS
330
5D2
102
}
330
1F
100
AcDbEntity
  8
実線
100
AcDbLine
 10
564.2672374379476
 20
336.1475792216562
 30
0.0
 11
557.3983089904
 21
336.1475792216562
 31
0.0
  0
LINE
  5
517
102
{ACAD_REACTORS
330
5D2
102
}
330
1F
100
AcDbEntity
  8
実線
100
AcDbLine
 10
554.268570995539
 20
336.1475792216562
 30
0.0
 11
554.268570995539
 21
334.9475792216562
 31
0.0
  0
LINE
  5
518
102
{ACAD_REACTORS
330
5D2
102
}
330
1F
100
AcDbEntity
  8
実線
100
AcDbLine
 10
554.779652768066
 20
336.1475792216562
 30
0.0
 11
554.779652768066
 21
334.9475792216562
 31
0.0
  0
LINE
  5
519
102
{ACAD_REACTORS
330
5D2
102
}
330
1F
100
AcDbEntity
  8
実線
100
AcDbLine
 10
520.5408052037
 20
336.1475792216562
 30
0.0
 11
557.3983089904
 21
336.1475792216562
 31
0.0
  0
LINE
  5
51A
102
{ACAD_REACTORS
330
5D2
102
}
330
1F
100
AcDbEntity
  8
実線
100
AcDbLine
 10
572.3861896761566
 20
336.1475792216562
 30
0.0
 11
565.4656691857221
 21
336.1475792216562
 31
0.0
  0
ARC
  5
51B
102
{ACAD_REACTORS
330
5D2
102
}
330
1F
100
AcDbEntity
  8
実線
100
AcDbCircle
 10
520.5408052037
 20
340.1475792216562
 30
0.0
 40
4.0
100
AcDbArc
 50
180.0
 51
270.0
  0
ARC
  5
51C
102
{ACAD_REACTORS
330
5D2
102
}
330
1F
100
AcDbEntity
  8
実線
100
AcDbCircle
 10
572.5408052037001
 20
340.1475792216562
 30
0.0
 40
4.0
100
AcDbArc
 50
270.0
 51
0.0
  0
LINE
  5
51D
102
{ACAD_REACTORS
330
5D2
102
}
330
1F
100
AcDbEntity
  8
実線
100
AcDbLine
 10
565.4656691857221
 20
334.9475792216562
 30
0.0
 11
573.7313516859199
 21
334.9475792216562
 31
0.0
  0
LINE
  5
51E
102
{ACAD_REACTORS
330
5D2
102
}
330
1F
100
AcDbEntity
  8
実線
100
AcDbLine
 10
573.7313516859199
 20
336.1475792216562
 30
0.0
 11
572.3861896761566
 21
336.1475792216562
 31
0.0
  0
LINE
  5
51F
102
{ACAD_REACTORS
330
5D2
102
}
330
1F
100
AcDbEntity
  8
実線
100
AcDbLine
 10
573.7313516859199
 20
336.1475792216562
 30
0.0
 11
573.7313516859199
 21
334.9475792216562
 31
0.0
  0
LINE
  5
520
102
{ACAD_REACTORS
330
5D2
102
}
330
1F
100
AcDbEntity
  8
実線
100
AcDbLine
 10
616.5408052036999
 20
455.7475792216562
 30
0.0
 11
476.5408052037002
 21
455.7475792216562
 31
0.0
  0
LINE
  5
521
102
{ACAD_REACTORS
330
5D2
102
}
330
1F
100
AcDbEntity
  8
実線
100
AcDbLine
 10
616.5408052036999
 20
455.7475792216562
 30
0.0
 11
616.5408052036999
 21
471.7475792216561
 31
0.0
  0
LINE
  5
522
102
{ACAD_REACTORS
330
5D2
102
}
330
1F
100
AcDbEntity
  8
実線
100
AcDbLine
 10
476.5408052037002
 20
471.7475792216561
 30
0.0
 11
476.5408052037002
 21
455.7475792216562
 31
0.0
  0
LINE
  5
523
102
{ACAD_REACTORS
330
5D2
102
}
330
1F
100
AcDbEntity
  8
実線
100
AcDbLine
 10
616.5408052036999
 20
471.7475792216561
 30
0.0
 11
476.5408052037002
 21
471.7475792216561
 31
0.0
  0
LINE
  5
524
102
{ACAD_REACTORS
330
5D2
102
}
330
1F
100
AcDbEntity
  8
実線
100
AcDbLine
 10
576.5408052037001
 20
418.2475792216562
 30
0.0
 11
567.5408052037
 21
427.2475792216562
 31
0.0
  0
LINE
  5
525
102
{ACAD_REACTORS
330
5D2
102
}
330
1F
100
AcDbEntity
  8
実線
100
AcDbLine
 10
516.5408052037
 20
418.2475792216562
 30
0.0
 11
516.5408052037
 21
413.7475792216561
 31
0.0
  0
LINE
  5
526
102
{ACAD_REACTORS
330
5D2
102
}
330
1F
100
AcDbEntity
  8
実線
100
AcDbLine
 10
576.5408052037001
 20
413.7475792216561
 30
0.0
 11
576.5408052037001
 21
418.2475792216562
 31
0.0
  0
LINE
  5
527
102
{ACAD_REACTORS
330
5D2
102
}
330
1F
100
AcDbEntity
  8
実線
100
AcDbLine
 10
516.5408052037
 20
418.2475792216562
 30
0.0
 11
525.5408052037
 21
427.2475792216562
 31
0.0
  0
LINE
  5
528
102
{ACAD_REACTORS
330
5D2
102
}
330
1F
100
AcDbEntity
  8
実線
100
AcDbLine
 10
516.5408052037
 20
413.7475792216561
 30
0.0
 11
576.5408052037001
 21
413.7475792216561
 31
0.0
  0
ARC
  5
529
102
{ACAD_REACTORS
330
5D2
102
}
330
1F
100
AcDbEntity
  8
実線
100
AcDbCircle
 10
546.5408052037
 20
448.247579221656
 30
0.0
 40
30.0
100
AcDbArc
 50
224.9999999999998
 51
315.0000000000002
  0
LINE
  5
52A
102
{ACAD_REACTORS
330
5D2
102
}
330
1F
100
AcDbEntity
  8
実線
100
AcDbLine
 10
567.5408052037
 20
455.7475792216562
 30
0.0
 11
567.5408052037
 21
427.2475792216562
 31
0.0
  0
LINE
  5
52B
102
{ACAD_REACTORS
330
5D2
102
}
330
1F
100
AcDbEntity
  8
実線
100
AcDbLine
 10
525.5408052037
 20
455.7475792216562
 30
0.0
 11
525.5408052037
 21
427.2475792216562
 31
0.0
  0
LINE
  5
52C
102
{ACAD_REACTORS
330
5D2
102
}
330
1F
100
AcDbEntity
  8
実線
100
AcDbLine
 10
525.5408052037
 20
427.2475792216562
 30
0.0
 11
567.5408052037
 21
427.2475792216562
 31
0.0
  0
LINE
  5
52D
102
{ACAD_REACTORS
330
5D2
102
}
330
1F
100
AcDbEntity
  8
実線
100
AcDbLine
 10
525.5408052037
 20
435.4975792216562
 30
0.0
 11
535.2908052037
 21
435.4975792216562
 31
0.0
  0
LINE
  5
52E
102
{ACAD_REACTORS
330
5D2
102
}
330
1F
100
AcDbEntity
  8
実線
100
AcDbLine
 10
567.5408052037
 20
435.4975792216562
 30
0.0
 11
557.7908052037001
 21
435.4975792216562
 31
0.0
  0
LINE
  5
52F
102
{ACAD_REACTORS
330
5D2
102
}
330
1F
100
AcDbEntity
  8
実線
100
AcDbLine
 10
557.7908052037001
 20
435.4975792216562
 30
0.0
 11
557.7908052037001
 21
455.7475792216562
 31
0.0
  0
LINE
  5
530
102
{ACAD_REACTORS
330
5D2
102
}
330
1F
100
AcDbEntity
  8
実線
100
AcDbLine
 10
535.2908052037
 20
435.4975792216562
 30
0.0
 11
535.2908052037
 21
455.7475792216562
 31
0.0
  0
LINE
  5
531
102
{ACAD_REACTORS
330
5D4
102
}
330
1F
100
AcDbEntity
  8
実線
100
AcDbLine
 10
76.54080520370001
 20
413.7475792216561
 30
0.0
 11
76.54080520370001
 21
340.1475792216562
 31
0.0
  0
LINE
  5
532
102
{ACAD_REACTORS
330
5D4
102
}
330
1F
100
AcDbEntity
  8
実線
100
AcDbLine
 10
136.5408052036999
 20
340.1475792216562
 30
0.0
 11
136.5408052036999
 21
413.7475792216561
 31
0.0
  0
LINE
  5
533
102
{ACAD_REACTORS
330
5D4
102
}
330
1F
100
AcDbEntity
  8
実線
100
AcDbLine
 10
76.54080520370001
 20
340.1475792216562
 30
0.0
 11
136.5408052036999
 21
340.1475792216562
 31
0.0
  0
LINE
  5
534
102
{ACAD_REACTORS
330
5D4
102
}
330
1F
100
AcDbEntity
  8
実線
100
AcDbLine
 10
93.07866157456954
 20
413.7475792216561
 30
0.0
 11
76.54080520370001
 21
413.7475792216561
 31
0.0
  0
LINE
  5
535
102
{ACAD_REACTORS
330
5D4
102
}
330
1F
100
AcDbEntity
  8
実線
100
AcDbLine
 10
120.0029488328304
 20
413.7475792216561
 30
0.0
 11
136.5408052036999
 21
413.7475792216561
 31
0.0
  0
LINE
  5
536
102
{ACAD_REACTORS
330
5D4
102
}
330
1F
100
AcDbEntity
  8
実線
100
AcDbLine
 10
100.5408052037
 20
336.1475792216562
 30
0.0
 11
100.5408052037
 21
323.7475792216562
 31
0.0
  0
LINE
  5
537
102
{ACAD_REACTORS
330
5D4
102
}
330
1F
100
AcDbEntity
  8
実線
100
AcDbLine
 10
112.5408052036999
 20
323.7475792216562
 30
0.0
 11
112.5408052036999
 21
336.1475792216562
 31
0.0
  0
LINE
  5
538
102
{ACAD_REACTORS
330
5D4
102
}
330
1F
100
AcDbEntity
  8
実線
100
AcDbLine
 10
98.54080520370002
 20
323.7475792216562
 30
0.0
 11
98.54080520370002
 21
317.2475792216562
 31
0.0
  0
LINE
  5
539
102
{ACAD_REACTORS
330
5D4
102
}
330
1F
100
AcDbEntity
  8
実線
100
AcDbLine
 10
114.5408052036999
 20
317.2475792216562
 30
0.0
 11
114.5408052036999
 21
323.7475792216562
 31
0.0
  0
LINE
  5
53A
102
{ACAD_REACTORS
330
5D4
102
}
330
1F
100
AcDbEntity
  8
実線
100
AcDbLine
 10
98.54080520370002
 20
317.2475792216562
 30
0.0
 11
114.5408052036999
 21
317.2475792216562
 31
0.0
  0
LINE
  5
53B
102
{ACAD_REACTORS
330
5D4
102
}
330
1F
100
AcDbEntity
  8
実線
100
AcDbLine
 10
98.54080520370002
 20
323.7475792216562
 30
0.0
 11
114.5408052036999
 21
323.7475792216562
 31
0.0
  0
LINE
  5
53C
102
{ACAD_REACTORS
330
5D4
102
}
330
1F
100
AcDbEntity
  8
実線
100
AcDbLine
 10
98.23729395988232
 20
324.6975792216562
 30
0.0
 11
90.3476182870337
 21
324.6975792216562
 31
0.0
  0
LINE
  5
53D
102
{ACAD_REACTORS
330
5D4
102
}
330
1F
100
AcDbEntity
  8
実線
100
AcDbLine
 10
98.23729395988232
 20
332.5975792216563
 30
0.0
 11
98.23729395988232
 21
324.697579221656
 31
0.0
  0
LINE
  5
53E
102
{ACAD_REACTORS
330
5D4
102
}
330
1F
100
AcDbEntity
  8
実線
100
AcDbLine
 10
90.3476182870337
 20
332.5975792216563
 30
0.0
 11
98.23729395988232
 21
332.5975792216563
 31
0.0
  0
LINE
  5
53F
102
{ACAD_REACTORS
330
5D4
102
}
330
1F
100
AcDbEntity
  8
実線
100
AcDbLine
 10
90.3476182870337
 20
311.1475792216562
 30
0.0
 11
87.61594122167821
 21
311.1475792216562
 31
0.0
  0
LINE
  5
540
102
{ACAD_REACTORS
330
5D4
102
}
330
1F
100
AcDbEntity
  8
実線
100
AcDbLine
 10
90.3476182870337
 20
311.1475792216562
 30
0.0
 11
90.3476182870337
 21
336.1475792216562
 31
0.0
  0
LINE
  5
541
102
{ACAD_REACTORS
330
5D4
102
}
330
1F
100
AcDbEntity
  8
実線
100
AcDbLine
 10
87.61594122167821
 20
334.9475792216562
 30
0.0
 11
87.61594122167821
 21
311.1475792216562
 31
0.0
  0
LINE
  5
542
102
{ACAD_REACTORS
330
5D4
102
}
330
1F
100
AcDbEntity
  8
実線
100
AcDbLine
 10
89.14918653925917
 20
311.1475792216562
 30
0.0
 11
89.14918653925917
 21
336.1475792216562
 31
0.0
  0
LINE
  5
543
102
{ACAD_REACTORS
330
5D4
102
}
330
1F
100
AcDbEntity
  8
実線
100
AcDbLine
 10
90.3476182870337
 20
322.0975792216563
 30
0.0
 11
98.23729395988232
 21
322.0975792216563
 31
0.0
  0
LINE
  5
544
102
{ACAD_REACTORS
330
5D4
102
}
330
1F
100
AcDbEntity
  8
実線
100
AcDbLine
 10
98.23729395988232
 20
314.1975792216563
 30
0.0
 11
90.3476182870337
 21
314.1975792216563
 31
0.0
  0
LINE
  5
545
102
{ACAD_REACTORS
330
5D4
102
}
330
1F
100
AcDbEntity
  8
実線
100
AcDbLine
 10
98.23729395988232
 20
322.0975792216563
 30
0.0
 11
98.23729395988232
 21
314.1975792216563
 31
0.0
  0
ELLIPSE
  5
546
102
{ACAD_REACTORS
330
5D4
102
}
330
1F
100
AcDbEntity
  8
実線
100
AcDbEllipse
 10
106.5408052037
 20
432.8969262286263
 30
0.0
 11
10.84999999999999
 21
0.0
 31
0.0
210
0.0
220
0.0
230
1.0
 40
0.7071067811865476
 41
0.0
 42
1.570796326794897
  0
LINE
  5
547
102
{ACAD_REACTORS
330
5D4
102
}
330
1F
100
AcDbEntity
  8
実線
100
AcDbLine
 10
117.3908052036999
 20
431.862643266135
 30
0.0
 11
117.3908052036999
 21
432.8969262286263
 31
0.0
  0
LINE
  5
548
102
{ACAD_REACTORS
330
5D4
102
}
330
1F
100
AcDbEntity
  8
実線
100
AcDbLine
 10
95.69080520370006
 20
432.8969262286263
 30
0.0
 11
95.69080520370006
 21
431.862643266135
 31
0.0
  0
ELLIPSE
  5
549
102
{ACAD_REACTORS
330
5D4
102
}
330
1F
100
AcDbEntity
  8
実線
100
AcDbEllipse
 10
106.5408052037
 20
432.8969262286263
 30
0.0
 11
10.84999999999999
 21
0.0
 31
0.0
210
0.0
220
0.0
230
1.0
 40
0.7071067811865476
 41
1.570796326794897
 42
3.141592653589792
  0
ELLIPSE
  5
54A
102
{ACAD_REACTORS
330
5D4
102
}
330
1F
100
AcDbEntity
  8
実線
100
AcDbEllipse
 10
106.5408052037
 20
422.6085225623618
 30
0.0
 11
17.0
 21
0.0
 31
0.0
210
0.0
220
0.0
230
1.0
 40
0.7071067811865476
 41
0.0
 42
1.570796326794897
  0
LINE
  5
54B
102
{ACAD_REACTORS
330
5D4
102
}
330
1F
100
AcDbEntity
  8
実線
100
AcDbLine
 10
123.5408052036999
 20
421.0882429828109
 30
0.0
 11
123.5408052036999
 21
422.6085225623618
 31
0.0
  0
LINE
  5
54C
102
{ACAD_REACTORS
330
5D4
102
}
330
1F
100
AcDbEntity
  8
実線
100
AcDbLine
 10
89.54080520370002
 20
422.6085225623618
 30
0.0
 11
89.54080520370002
 21
421.0882429828109
 31
0.0
  0
ELLIPSE
  5
54D
102
{ACAD_REACTORS
330
5D4
102
}
330
1F
100
AcDbEntity
  8
実線
100
AcDbEllipse
 10
106.5408052037
 20
421.0882429828109
 30
0.0
 11
17.0
 21
0.0
 31
0.0
210
0.0
220
0.0
230
1.0
 40
0.7071067811865476
 41
3.141592653589792
 42
6.283185307179584
  0
ELLIPSE
  5
54E
102
{ACAD_REACTORS
330
5D4
102
}
330
1F
100
AcDbEntity
  8
実線
100
AcDbEllipse
 10
106.5408052037
 20
421.0882429828109
 30
0.0
 11
17.0
 21
0.0
 31
0.0
210
0.0
220
0.0
230
1.0
 40
0.7071067811865476
 41
1.570796326794897
 42
3.141592653589792
  0
ELLIPSE
  5
54F
102
{ACAD_REACTORS
330
5D4
102
}
330
1F
100
AcDbEntity
  8
実線
100
AcDbEllipse
 10
106.5408052037
 20
422.6085225623618
 30
0.0
 11
17.0
 21
0.0
 31
0.0
210
0.0
220
0.0
230
1.0
 40
0.7071067811865476
 41
1.570796326794897
 42
3.141592653589792
  0
ELLIPSE
  5
550
102
{ACAD_REACTORS
330
5D4
102
}
330
1F
100
AcDbEntity
  8
実線
100
AcDbEllipse
 10
106.5408052037
 20
421.0882429828109
 30
0.0
 11
17.0
 21
0.0
 31
0.0
210
0.0
220
0.0
230
1.0
 40
0.7071067811865476
 41
0.0
 42
1.570796326794897
  0
ARC
  5
551
102
{ACAD_REACTORS
330
5D4
102
}
330
1F
100
AcDbEntity
  8
実線
100
AcDbCircle
 10
106.5408052037
 20
443.9975792216562
 30
0.0
 40
10.85
100
AcDbArc
 50
0.0
 51
180.0
  0
LINE
  5
552
102
{ACAD_REACTORS
330
5D4
102
}
330
1F
100
AcDbEntity
  8
実線
100
AcDbLine
 10
95.69080520370006
 20
443.9975792216562
 30
0.0
 11
95.69080520370006
 21
432.8969262286263
 31
0.0
  0
LINE
  5
553
102
{ACAD_REACTORS
330
5D4
102
}
330
1F
100
AcDbEntity
  8
実線
100
AcDbLine
 10
117.3908052036999
 20
432.8969262286263
 30
0.0
 11
117.3908052036999
 21
443.9975792216562
 31
0.0
  0
ELLIPSE
  5
554
102
{ACAD_REACTORS
330
5D4
102
}
330
1F
100
AcDbEntity
  8
実線
100
AcDbEllipse
 10
106.5408052037
 20
432.8969262286263
 30
0.0
 11
10.84999999999999
 21
0.0
 31
0.0
210
0.0
220
0.0
230
1.0
 40
0.7071067811865476
 41
0.0
 42
3.141592653589792
  0
LINE
  5
555
102
{ACAD_REACTORS
330
5D4
102
}
330
1F
100
AcDbEntity
  8
実線
100
AcDbLine
 10
90.3476182870337
 20
334.9475792216562
 30
0.0
 11
98.81303941186093
 21
334.9475792216562
 31
0.0
  0
LINE
  5
556
102
{ACAD_REACTORS
330
5D4
102
}
330
1F
100
AcDbEntity
  8
実線
100
AcDbLine
 10
98.81303941186093
 20
336.1475792216562
 30
0.0
 11
98.81303941186093
 21
334.9475792216562
 31
0.0
  0
LINE
  5
557
102
{ACAD_REACTORS
330
5D4
102
}
330
1F
100
AcDbEntity
  8
実線
100
AcDbLine
 10
132.5408052036999
 20
336.1475792216562
 30
0.0
 11
81.53999531980483
 21
336.1475792216562
 31
0.0
  0
ARC
  5
558
102
{ACAD_REACTORS
330
5D4
102
}
330
1F
100
AcDbEntity
  8
実線
100
AcDbCircle
 10
80.54080520370002
 20
340.1475792216562
 30
0.0
 40
4.0
100
AcDbArc
 50
180.0
 51
270.0
  0
ARC
  5
559
102
{ACAD_REACTORS
330
5D4
102
}
330
1F
100
AcDbEntity
  8
実線
100
AcDbCircle
 10
132.5408052036999
 20
340.1475792216562
 30
0.0
 40
4.0
100
AcDbArc
 50
270.0
 51
0.0
  0
LINE
  5
55A
102
{ACAD_REACTORS
330
5D4
102
}
330
1F
100
AcDbEntity
  8
実線
100
AcDbLine
 10
79.35025872148
 20
336.1475792216562
 30
0.0
 11
81.53999531980483
 21
336.1475792216562
 31
0.0
  0
LINE
  5
55B
102
{ACAD_REACTORS
330
5D4
102
}
330
1F
100
AcDbEntity
  8
実線
100
AcDbLine
 10
79.35025872148
 20
334.9475792216562
 30
0.0
 11
89.14918653925917
 21
334.9475792216562
 31
0.0
  0
LINE
  5
55C
102
{ACAD_REACTORS
330
5D4
102
}
330
1F
100
AcDbEntity
  8
実線
100
AcDbLine
 10
79.35025872148
 20
336.1475792216562
 30
0.0
 11
79.35025872148
 21
334.9475792216562
 31
0.0
  0
LINE
  5
55D
102
{ACAD_REACTORS
330
5D4
102
}
330
1F
100
AcDbEntity
  8
実線
100
AcDbLine
 10
79.86134049400701
 20
336.1475792216562
 30
0.0
 11
79.86134049400701
 21
334.9475792216562
 31
0.0
  0
LINE
  5
55E
102
{ACAD_REACTORS
330
5D4
102
}
330
1F
100
AcDbEntity
  8
実線
100
AcDbLine
 10
36.54080520370002
 20
471.7475792216561
 30
0.0
 11
176.5408052036999
 21
471.7475792216561
 31
0.0
  0
LINE
  5
55F
102
{ACAD_REACTORS
330
5D4
102
}
330
1F
100
AcDbEntity
  8
実線
100
AcDbLine
 10
176.5408052036999
 20
455.7475792216562
 30
0.0
 11
176.5408052036999
 21
471.7475792216561
 31
0.0
  0
LINE
  5
560
102
{ACAD_REACTORS
330
5D4
102
}
330
1F
100
AcDbEntity
  8
実線
100
AcDbLine
 10
36.54080520370002
 20
471.7475792216561
 30
0.0
 11
36.54080520370002
 21
455.7475792216562
 31
0.0
  0
LINE
  5
561
102
{ACAD_REACTORS
330
5D4
102
}
330
1F
100
AcDbEntity
  8
実線
100
AcDbLine
 10
36.54080520370002
 20
455.7475792216562
 30
0.0
 11
176.5408052036999
 21
455.7475792216562
 31
0.0
  0
LINE
  5
562
102
{ACAD_REACTORS
330
5D4
102
}
330
1F
100
AcDbEntity
  8
実線
100
AcDbLine
 10
136.5408052036999
 20
418.2475792216562
 30
0.0
 11
127.5408052036999
 21
427.2475792216562
 31
0.0
  0
LINE
  5
563
102
{ACAD_REACTORS
330
5D4
102
}
330
1F
100
AcDbEntity
  8
実線
100
AcDbLine
 10
76.54080520370001
 20
418.2475792216562
 30
0.0
 11
76.54080520370001
 21
413.7475792216561
 31
0.0
  0
LINE
  5
564
102
{ACAD_REACTORS
330
5D4
102
}
330
1F
100
AcDbEntity
  8
実線
100
AcDbLine
 10
136.5408052036999
 20
413.7475792216561
 30
0.0
 11
136.5408052036999
 21
418.2475792216562
 31
0.0
  0
LINE
  5
565
102
{ACAD_REACTORS
330
5D4
102
}
330
1F
100
AcDbEntity
  8
実線
100
AcDbLine
 10
76.54080520370001
 20
418.2475792216562
 30
0.0
 11
85.54080520370002
 21
427.2475792216562
 31
0.0
  0
ARC
  5
566
102
{ACAD_REACTORS
330
5D4
102
}
330
1F
100
AcDbEntity
  8
実線
100
AcDbCircle
 10
106.5408052037
 20
448.247579221656
 30
0.0
 40
30.0
100
AcDbArc
 50
304.410340231567
 51
315.0000000000002
  0
ARC
  5
567
102
{ACAD_REACTORS
330
5D4
102
}
330
1F
100
AcDbEntity
  8
実線
100
AcDbCircle
 10
106.5408052037
 20
448.247579221656
 30
0.0
 40
30.0
100
AcDbArc
 50
224.9999999999998
 51
235.5896597684329
  0
LINE
  5
568
102
{ACAD_REACTORS
330
5D4
102
}
330
1F
100
AcDbEntity
  8
実線
100
AcDbLine
 10
127.5408052036999
 20
455.7475792216562
 30
0.0
 11
127.5408052036999
 21
427.2475792216562
 31
0.0
  0
LINE
  5
569
102
{ACAD_REACTORS
330
5D4
102
}
330
1F
100
AcDbEntity
  8
実線
100
AcDbLine
 10
85.54080520370002
 20
455.7475792216562
 30
0.0
 11
85.54080520370002
 21
427.2475792216562
 31
0.0
  0
LINE
  5
56A
102
{ACAD_REACTORS
330
5D4
102
}
330
1F
100
AcDbEntity
  8
実線
100
AcDbLine
 10
117.7908052036999
 20
435.4975792216562
 30
0.0
 11
117.7908052036999
 21
455.7475792216562
 31
0.0
  0
LINE
  5
56B
102
{ACAD_REACTORS
330
5D4
102
}
330
1F
100
AcDbEntity
  8
実線
100
AcDbLine
 10
95.29080520370001
 20
435.4975792216562
 30
0.0
 11
95.29080520370001
 21
455.7475792216562
 31
0.0
  0
LINE
  5
56C
102
{ACAD_REACTORS
330
5D4
102
}
330
1F
100
AcDbEntity
  8
実線
100
AcDbLine
 10
122.2238631524458
 20
427.2475792216562
 30
0.0
 11
127.5408052036999
 21
427.2475792216562
 31
0.0
  0
LINE
  5
56D
102
{ACAD_REACTORS
330
5D4
102
}
330
1F
100
AcDbEntity
  8
実線
100
AcDbLine
 10
85.54080520370002
 20
427.2475792216562
 30
0.0
 11
90.85774725495435
 21
427.2475792216562
 31
0.0
  0
LINE
  5
56E
102
{ACAD_REACTORS
330
5D4
102
}
330
1F
100
AcDbEntity
  8
実線
100
AcDbLine
 10
85.54080520370002
 20
435.4975792216562
 30
0.0
 11
95.29080520370001
 21
435.4975792216562
 31
0.0
  0
LINE
  5
56F
102
{ACAD_REACTORS
330
5D4
102
}
330
1F
100
AcDbEntity
  8
実線
100
AcDbLine
 10
127.5408052036999
 20
435.4975792216562
 30
0.0
 11
117.7908052036999
 21
435.4975792216562
 31
0.0
  0
LINE
  5
570
102
{ACAD_REACTORS
330
5D3
102
}
330
1F
100
AcDbEntity
  8
実線
100
AcDbLine
 10
356.5408052037001
 20
340.1475792216562
 30
0.0
 11
296.5408052036998
 21
340.1475792216562
 31
0.0
  0
LINE
  5
571
102
{ACAD_REACTORS
330
5D3
102
}
330
1F
100
AcDbEntity
  8
実線
100
AcDbLine
 10
296.5408052036998
 20
413.7475792216561
 30
0.0
 11
296.5408052036998
 21
340.1475792216562
 31
0.0
  0
LINE
  5
572
102
{ACAD_REACTORS
330
5D3
102
}
330
1F
100
AcDbEntity
  8
実線
100
AcDbLine
 10
356.5408052037001
 20
340.1475792216562
 30
0.0
 11
356.5408052037001
 21
413.7475792216561
 31
0.0
  0
LINE
  5
573
102
{ACAD_REACTORS
330
5D3
102
}
330
1F
100
AcDbEntity
  8
実線
100
AcDbLine
 10
320.5408052037
 20
336.1475792216562
 30
0.0
 11
320.5408052037
 21
323.7475792216562
 31
0.0
  0
LINE
  5
574
102
{ACAD_REACTORS
330
5D3
102
}
330
1F
100
AcDbEntity
  8
実線
100
AcDbLine
 10
332.5408052037001
 20
323.7475792216562
 30
0.0
 11
332.5408052037001
 21
336.1475792216562
 31
0.0
  0
LINE
  5
575
102
{ACAD_REACTORS
330
5D3
102
}
330
1F
100
AcDbEntity
  8
実線
100
AcDbLine
 10
334.5408052037
 20
317.2475792216562
 30
0.0
 11
318.5408052037
 21
317.2475792216562
 31
0.0
  0
LINE
  5
576
102
{ACAD_REACTORS
330
5D3
102
}
330
1F
100
AcDbEntity
  8
実線
100
AcDbLine
 10
318.5408052037
 20
323.7475792216562
 30
0.0
 11
318.5408052037
 21
317.2475792216562
 31
0.0
  0
LINE
  5
577
102
{ACAD_REACTORS
330
5D3
102
}
330
1F
100
AcDbEntity
  8
実線
100
AcDbLine
 10
334.5408052037
 20
317.2475792216562
 30
0.0
 11
334.5408052037
 21
323.7475792216562
 31
0.0
  0
LINE
  5
578
102
{ACAD_REACTORS
330
5D3
102
}
330
1F
100
AcDbEntity
  8
実線
100
AcDbLine
 10
334.5408052037
 20
323.7475792216562
 30
0.0
 11
318.5408052037
 21
323.7475792216562
 31
0.0
  0
LINE
  5
579
102
{ACAD_REACTORS
330
5D3
102
}
330
1F
100
AcDbEntity
  8
実線
100
AcDbLine
 10
319.8529431500056
 20
332.5975792216563
 30
0.0
 11
320.5408052037
 21
332.5975792216563
 31
0.0
  0
LINE
  5
57A
102
{ACAD_REACTORS
330
5D3
102
}
330
1F
100
AcDbEntity
  8
実線
100
AcDbLine
 10
319.8529431500056
 20
324.6975792216562
 30
0.0
 11
320.5408052037
 21
324.6975792216562
 31
0.0
  0
LINE
  5
57B
102
{ACAD_REACTORS
330
5D3
102
}
330
1F
100
AcDbEntity
  8
実線
100
AcDbLine
 10
332.5408052037001
 20
332.5975792216563
 30
0.0
 11
345.2240258289369
 21
332.5975792216563
 31
0.0
  0
LINE
  5
57C
102
{ACAD_REACTORS
330
5D3
102
}
330
1F
100
AcDbEntity
  8
実線
100
AcDbLine
 10
332.5408052037001
 20
324.6975792216562
 30
0.0
 11
345.2240258289369
 21
324.6975792216562
 31
0.0
  0
LINE
  5
57D
102
{ACAD_REACTORS
330
5D3
102
}
330
1F
100
AcDbEntity
  8
実線
100
AcDbLine
 10
345.2240258289369
 20
324.6975792216562
 30
0.0
 11
345.2240258289369
 21
332.5975792216563
 31
0.0
  0
LINE
  5
57E
102
{ACAD_REACTORS
330
5D3
102
}
330
1F
100
AcDbEntity
  8
実線
100
AcDbLine
 10
320.2566977503019
 20
332.5975792216563
 30
0.0
 11
320.2566977503019
 21
324.697579221656
 31
0.0
  0
LINE
  5
57F
102
{ACAD_REACTORS
330
5D3
102
}
330
1F
100
AcDbEntity
  8
実線
100
AcDbLine
 10
349.8137368443675
 20
311.1475792216562
 30
0.0
 11
319.7916133373024
 21
311.1475792216562
 31
0.0
  0
LINE
  5
580
102
{ACAD_REACTORS
330
5D3
102
}
330
1F
100
AcDbEntity
  8
実線
100
AcDbLine
 10
349.8137368443675
 20
316.6475792216562
 30
0.0
 11
349.8137368443675
 21
311.1475792216562
 31
0.0
  0
LINE
  5
581
102
{ACAD_REACTORS
330
5D3
102
}
330
1F
100
AcDbEntity
  8
実線
100
AcDbLine
 10
349.8137368443675
 20
327.1475792216562
 30
0.0
 11
349.8137368443675
 21
319.6475792216562
 31
0.0
  0
LINE
  5
582
102
{ACAD_REACTORS
330
5D3
102
}
330
1F
100
AcDbEntity
  8
実線
100
AcDbLine
 10
349.8137368443675
 20
334.9475792216562
 30
0.0
 11
349.8137368443675
 21
330.1475792216562
 31
0.0
  0
LINE
  5
583
102
{ACAD_REACTORS
330
5D3
102
}
330
1F
100
AcDbEntity
  8
実線
100
AcDbLine
 10
319.7916133373024
 20
317.2475792216562
 30
0.0
 11
319.7916133373024
 21
311.1475792216562
 31
0.0
  0
LINE
  5
584
102
{ACAD_REACTORS
330
5D3
102
}
330
1F
100
AcDbEntity
  8
実線
100
AcDbLine
 10
319.7916133373024
 20
323.7475792216562
 30
0.0
 11
319.7916133373024
 21
336.1475792216562
 31
0.0
  0
LINE
  5
585
102
{ACAD_REACTORS
330
5D3
102
}
330
1F
100
AcDbEntity
  8
実線
100
AcDbLine
 10
319.8529431500056
 20
311.1475792216562
 30
0.0
 11
319.8529431500056
 21
317.2475792216562
 31
0.0
  0
LINE
  5
586
102
{ACAD_REACTORS
330
5D3
102
}
330
1F
100
AcDbEntity
  8
実線
100
AcDbLine
 10
319.8529431500056
 20
323.7475792216562
 30
0.0
 11
319.8529431500056
 21
336.1475792216562
 31
0.0
  0
LINE
  5
587
102
{ACAD_REACTORS
330
5D3
102
}
330
1F
100
AcDbEntity
  8
実線
100
AcDbLine
 10
319.8529431500056
 20
314.1975792216563
 30
0.0
 11
345.2240258289369
 21
314.1975792216563
 31
0.0
  0
LINE
  5
588
102
{ACAD_REACTORS
330
5D3
102
}
330
1F
100
AcDbEntity
  8
実線
100
AcDbLine
 10
334.5408052037
 20
322.0975792216563
 30
0.0
 11
345.2240258289369
 21
322.0975792216563
 31
0.0
  0
LINE
  5
589
102
{ACAD_REACTORS
330
5D3
102
}
330
1F
100
AcDbEntity
  8
実線
100
AcDbLine
 10
345.2240258289369
 20
314.1975792216563
 30
0.0
 11
345.2240258289369
 21
322.0975792216563
 31
0.0
  0
LINE
  5
58A
102
{ACAD_REACTORS
330
5D3
102
}
330
1F
100
AcDbEntity
  8
実線
100
AcDbLine
 10
320.2566977503019
 20
317.2475792216562
 30
0.0
 11
320.2566977503019
 21
314.1975792216562
 31
0.0
  0
ELLIPSE
  5
58B
102
{ACAD_REACTORS
330
5D3
102
}
330
1F
100
AcDbEntity
  8
実線
100
AcDbEllipse
 10
351.5136538292338
 20
318.1475792216562
 30
0.0
 11
0.0
 21
1.5
 31
0.0
210
0.0
220
0.0
230
1.0
 40
0.0511081772527001
 41
4.71238898038469
 42
6.283185307179584
  0
LINE
  5
58C
102
{ACAD_REACTORS
330
5D3
102
}
330
1F
100
AcDbEntity
  8
実線
100
AcDbLine
 10
345.2240258289369
 20
316.6475792216562
 30
0.0
 11
351.5136538292338
 21
316.6475792216562
 31
0.0
  0
LINE
  5
58D
102
{ACAD_REACTORS
330
5D3
102
}
330
1F
100
AcDbEntity
  8
実線
100
AcDbLine
 10
351.5136538292338
 20
319.6475792216562
 30
0.0
 11
345.2240258289369
 21
319.6475792216562
 31
0.0
  0
ELLIPSE
  5
58E
102
{ACAD_REACTORS
330
5D3
102
}
330
1F
100
AcDbEntity
  8
実線
100
AcDbEllipse
 10
351.5136538292338
 20
318.1475792216562
 30
0.0
 11
0.0
 21
1.5
 31
0.0
210
0.0
220
0.0
230
1.0
 40
0.0511081772527001
 41
3.14159265358979
 42
4.71238898038469
  0
ELLIPSE
  5
58F
102
{ACAD_REACTORS
330
5D3
102
}
330
1F
100
AcDbEntity
  8
実線
100
AcDbEllipse
 10
351.5136538292338
 20
328.6475792216562
 30
0.0
 11
0.0
 21
1.5
 31
0.0
210
0.0
220
0.0
230
1.0
 40
0.0511081772527001
 41
4.71238898038469
 42
6.283185307179584
  0
LINE
  5
590
102
{ACAD_REACTORS
330
5D3
102
}
330
1F
100
AcDbEntity
  8
実線
100
AcDbLine
 10
345.2240258289369
 20
327.1475792216562
 30
0.0
 11
351.5136538292338
 21
327.1475792216562
 31
0.0
  0
LINE
  5
591
102
{ACAD_REACTORS
330
5D3
102
}
330
1F
100
AcDbEntity
  8
実線
100
AcDbLine
 10
351.5136538292338
 20
330.1475792216562
 30
0.0
 11
345.2240258289369
 21
330.1475792216562
 31
0.0
  0
ELLIPSE
  5
592
102
{ACAD_REACTORS
330
5D3
102
}
330
1F
100
AcDbEntity
  8
実線
100
AcDbEllipse
 10
351.5136538292338
 20
328.6475792216562
 30
0.0
 11
0.0
 21
1.5
 31
0.0
210
0.0
220
0.0
230
1.0
 40
0.0511081772527001
 41
3.14159265358979
 42
4.71238898038469
  0
LINE
  5
593
102
{ACAD_REACTORS
330
5D3
102
}
330
1F
100
AcDbEntity
  8
実線
100
AcDbLine
 10
272.7868640421281
 20
416.5981149222764
 30
0.0
 11
281.413566772604
 21
425.2248176527523
 31
0.0
  0
LINE
  5
594
102
{ACAD_REACTORS
330
5D3
102
}
330
1F
100
AcDbEntity
  8
実線
100
AcDbLine
 10
266.0693496208558
 20
440.5690348045003
 30
0.0
 11
257.44264689038
 21
431.9423320740245
 31
0.0
  0
LINE
  5
595
102
{ACAD_REACTORS
330
5D3
102
}
330
1F
100
AcDbEntity
  8
実線
100
AcDbLine
 10
249.9119596707431
 20
433.1090582629823
 30
0.0
 11
273.9535902310859
 21
409.0674277026395
 31
0.0
  0
LINE
  5
596
102
{ACAD_REACTORS
330
5D3
102
}
330
1F
100
AcDbEntity
  8
実線
100
AcDbLine
 10
273.9535902310859
 20
409.0674277026395
 30
0.0
 11
275.4738698106369
 21
410.5877072821908
 31
0.0
  0
LINE
  5
597
102
{ACAD_REACTORS
330
5D3
102
}
330
1F
100
AcDbEntity
  8
実線
100
AcDbLine
 10
251.4322392502944
 20
434.6293378425333
 30
0.0
 11
249.9119596707431
 21
433.1090582629823
 31
0.0
  0
LINE
  5
598
102
{ACAD_REACTORS
330
5D3
102
}
330
1F
100
AcDbEntity
  8
実線
100
AcDbLine
 10
251.4322392502943
 20
434.6293378425333
 30
0.0
 11
275.4738698106369
 21
410.5877072821908
 31
0.0
  0
LINE
  5
599
102
{ACAD_REACTORS
330
5D3
102
}
330
1F
100
AcDbEntity
  8
実線
100
AcDbLine
 10
257.44264689038
 20
431.9423320740245
 30
0.0
 11
272.7868640421281
 21
416.5981149222764
 31
0.0
  0
LINE
  5
59A
102
{ACAD_REACTORS
330
5D3
102
}
330
1F
100
AcDbEntity
  8
実線
100
AcDbLine
 10
257.44264689038
 20
431.9423320740245
 30
0.0
 11
251.4322392502943
 21
434.6293378425333
 31
0.0
  0
LINE
  5
59B
102
{ACAD_REACTORS
330
5D3
102
}
330
1F
100
AcDbEntity
  8
実線
100
AcDbLine
 10
275.4738698106369
 20
410.5877072821908
 30
0.0
 11
272.7868640421281
 21
416.5981149222764
 31
0.0
  0
ARC
  5
59C
102
{ACAD_REACTORS
330
5D3
102
}
330
1F
100
AcDbEntity
  8
実線
100
AcDbCircle
 10
300.5408052036998
 20
406.097579221656
 30
0.0
 40
48.75
100
AcDbArc
 50
90.0
 51
135.0000000000001
  0
ARC
  5
59D
102
{ACAD_REACTORS
330
5D3
102
}
330
1F
100
AcDbEntity
  8
実線
100
AcDbCircle
 10
300.5408052036998
 20
406.097579221656
 30
0.0
 40
27.04999999999999
100
AcDbArc
 50
90.0
 51
135.0000000000001
  0
LINE
  5
59E
102
{ACAD_REACTORS
330
5D3
102
}
330
1F
100
AcDbEntity
  8
実線
100
AcDbLine
 10
266.0693496208558
 20
440.5690348045003
 30
0.0
 11
281.413566772604
 21
425.2248176527523
 31
0.0
  0
LINE
  5
59F
102
{ACAD_REACTORS
330
5D3
102
}
330
1F
100
AcDbEntity
  8
実線
100
AcDbLine
 10
300.5408052036998
 20
454.847579221656
 30
0.0
 11
300.5408052036998
 21
433.1475792216561
 31
0.0
  0
LINE
  5
5A0
102
{ACAD_REACTORS
330
5D3
102
}
330
1F
100
AcDbEntity
  8
実線
100
AcDbLine
 10
305.5408052037
 20
454.847579221656
 30
0.0
 11
300.5408052036998
 21
454.847579221656
 31
0.0
  0
LINE
  5
5A1
102
{ACAD_REACTORS
330
5D3
102
}
330
1F
100
AcDbEntity
  8
実線
100
AcDbLine
 10
300.5408052036998
 20
433.1475792216561
 30
0.0
 11
305.5408052037
 21
433.1475792216561
 31
0.0
  0
LINE
  5
5A2
102
{ACAD_REACTORS
330
5D3
102
}
330
1F
100
AcDbEntity
  8
実線
100
AcDbLine
 10
350.2992645282682
 20
334.9475792216562
 30
0.0
 11
339.8268056129135
 21
334.9475792216562
 31
0.0
  0
LINE
  5
5A3
102
{ACAD_REACTORS
330
5D3
102
}
330
1F
100
AcDbEntity
  8
実線
100
AcDbLine
 10
350.2992645282682
 20
336.1475792216562
 30
0.0
 11
350.2992645282682
 21
334.9475792216562
 31
0.0
  0
LINE
  5
5A4
102
{ACAD_REACTORS
330
5D3
102
}
330
1F
100
AcDbEntity
  8
実線
100
AcDbLine
 10
339.8268056129135
 20
336.1475792216562
 30
0.0
 11
339.8268056129135
 21
334.9475792216562
 31
0.0
  0
LINE
  5
5A5
102
{ACAD_REACTORS
330
5D3
102
}
330
1F
100
AcDbEntity
  8
実線
100
AcDbLine
 10
340.3123332968142
 20
336.1475792216562
 30
0.0
 11
340.3123332968142
 21
334.9475792216562
 31
0.0
  0
LINE
  5
5A6
102
{ACAD_REACTORS
330
5D3
102
}
330
1F
100
AcDbEntity
  8
実線
100
AcDbLine
 10
352.5408052037001
 20
336.1475792216562
 30
0.0
 11
300.5408052053658
 21
336.1475792216562
 31
0.0
  0
ARC
  5
5A7
102
{ACAD_REACTORS
330
5D3
102
}
330
1F
100
AcDbEntity
  8
実線
100
AcDbCircle
 10
300.5408052036998
 20
340.1475792216562
 30
0.0
 40
4.0
100
AcDbArc
 50
180.0
 51
270.0
  0
ARC
  5
5A8
102
{ACAD_REACTORS
330
5D3
102
}
330
1F
100
AcDbEntity
  8
実線
100
AcDbCircle
 10
352.5408052037001
 20
340.1475792216562
 30
0.0
 40
4.0
100
AcDbArc
 50
270.0
 51
0.0
  0
LINE
  5
5A9
102
{ACAD_REACTORS
330
5D3
102
}
330
1F
100
AcDbEntity
  8
実線
100
AcDbLine
 10
319.3163072888523
 20
334.9475792216562
 30
0.0
 11
319.7916133373024
 21
334.9475792216562
 31
0.0
  0
LINE
  5
5AA
102
{ACAD_REACTORS
330
5D3
102
}
330
1F
100
AcDbEntity
  8
実線
100
AcDbLine
 10
319.3163072888523
 20
336.1475792216562
 30
0.0
 11
319.3163072888523
 21
334.9475792216562
 31
0.0
  0
LINE
  5
5AB
102
{ACAD_REACTORS
330
5D3
102
}
330
1F
100
AcDbEntity
  8
実線
100
AcDbLine
 10
396.5408052037001
 20
455.7475792216562
 30
0.0
 11
396.5408052037001
 21
471.7475792216561
 31
0.0
  0
LINE
  5
5AC
102
{ACAD_REACTORS
330
5D3
102
}
330
1F
100
AcDbEntity
  8
実線
100
AcDbLine
 10
256.5408052037
 20
471.7475792216561
 30
0.0
 11
256.5408052037
 21
455.7475792216562
 31
0.0
  0
LINE
  5
5AD
102
{ACAD_REACTORS
330
5D3
102
}
330
1F
100
AcDbEntity
  8
実線
100
AcDbLine
 10
396.5408052037001
 20
471.7475792216561
 30
0.0
 11
256.5408052037
 21
471.7475792216561
 31
0.0
  0
LINE
  5
5AE
102
{ACAD_REACTORS
330
5D3
102
}
330
1F
100
AcDbEntity
  8
実線
100
AcDbLine
 10
396.5408052037001
 20
455.7475792216562
 30
0.0
 11
256.5408052037
 21
455.7475792216562
 31
0.0
  0
LINE
  5
5AF
102
{ACAD_REACTORS
330
5D3
102
}
330
1F
100
AcDbEntity
  8
実線
100
AcDbLine
 10
296.5408052036998
 20
413.7475792216561
 30
0.0
 11
356.5408052037001
 21
413.7475792216561
 31
0.0
  0
LINE
  5
5B0
102
{ACAD_REACTORS
330
5D3
102
}
330
1F
100
AcDbEntity
  8
実線
100
AcDbLine
 10
356.5408052037001
 20
418.2475792216562
 30
0.0
 11
347.5408052037001
 21
427.2475792216562
 31
0.0
  0
LINE
  5
5B1
102
{ACAD_REACTORS
330
5D3
102
}
330
1F
100
AcDbEntity
  8
実線
100
AcDbLine
 10
296.5408052036998
 20
418.2475792216562
 30
0.0
 11
296.5408052036998
 21
413.7475792216561
 31
0.0
  0
LINE
  5
5B2
102
{ACAD_REACTORS
330
5D3
102
}
330
1F
100
AcDbEntity
  8
実線
100
AcDbLine
 10
356.5408052037001
 20
413.7475792216561
 30
0.0
 11
356.5408052037001
 21
418.2475792216562
 31
0.0
  0
LINE
  5
5B3
102
{ACAD_REACTORS
330
5D3
102
}
330
1F
100
AcDbEntity
  8
実線
100
AcDbLine
 10
296.5408052036998
 20
418.2475792216562
 30
0.0
 11
305.5408052037
 21
427.2475792216562
 31
0.0
  0
ARC
  5
5B4
102
{ACAD_REACTORS
330
5D3
102
}
330
1F
100
AcDbEntity
  8
実線
100
AcDbCircle
 10
326.5408052037
 20
448.247579221656
 30
0.0
 40
30.0
100
AcDbArc
 50
224.9999999999998
 51
315.0000000000002
  0
LINE
  5
5B5
102
{ACAD_REACTORS
330
5D3
102
}
330
1F
100
AcDbEntity
  8
実線
100
AcDbLine
 10
305.5408052037
 20
455.7475792216562
 30
0.0
 11
305.5408052037
 21
427.2475792216562
 31
0.0
  0
LINE
  5
5B6
102
{ACAD_REACTORS
330
5D3
102
}
330
1F
100
AcDbEntity
  8
実線
100
AcDbLine
 10
347.5408052037001
 20
455.7475792216562
 30
0.0
 11
347.5408052037001
 21
427.2475792216562
 31
0.0
  0
LINE
  5
5B7
102
{ACAD_REACTORS
330
5D3
102
}
330
1F
100
AcDbEntity
  8
実線
100
AcDbLine
 10
322.0408052037
 20
435.4975792216562
 30
0.0
 11
305.5408052037
 21
435.4975792216562
 31
0.0
  0
LINE
  5
5B8
102
{ACAD_REACTORS
330
5D3
102
}
330
1F
100
AcDbEntity
  8
実線
100
AcDbLine
 10
331.0408052037
 20
435.4975792216562
 30
0.0
 11
347.5408052037001
 21
435.4975792216562
 31
0.0
  0
LINE
  5
5B9
102
{ACAD_REACTORS
330
5D3
102
}
330
1F
100
AcDbEntity
  8
実線
100
AcDbLine
 10
331.0408052037
 20
435.4975792216562
 30
0.0
 11
331.0408052037
 21
455.7475792216562
 31
0.0
  0
LINE
  5
5BA
102
{ACAD_REACTORS
330
5D3
102
}
330
1F
100
AcDbEntity
  8
実線
100
AcDbLine
 10
322.0408052037
 20
435.4975792216562
 30
0.0
 11
322.0408052037
 21
455.7475792216562
 31
0.0
  0
LINE
  5
5BB
102
{ACAD_REACTORS
330
5D3
102
}
330
1F
100
AcDbEntity
  8
実線
100
AcDbLine
 10
305.5408052037
 20
427.2475792216562
 30
0.0
 11
347.5408052037001
 21
427.2475792216562
 31
0.0
  0
LINE
  5
5BC
102
{ACAD_REACTORS
330
660
102
}
330
1F
100
AcDbEntity
  8
中心線
100
AcDbLine
 10
363.6639112159937
 20
159.87068523395
 30
0.0
 11
363.6639112159937
 21
137.87068523395
 31
0.0
  0
LINE
  5
5BD
102
{ACAD_REACTORS
330
660
102
}
330
1F
100
AcDbEntity
  8
中心線
100
AcDbLine
 10
352.6639112159937
 20
148.87068523395
 30
0.0
 11
374.6639112159937
 21
148.87068523395
 31
0.0
  0
LINE
  5
5BE
102
{ACAD_REACTORS
330
660
102
}
330
1F
100
AcDbEntity
  8
中心線
100
AcDbLine
 10
289.4176991914063
 20
159.87068523395
 30
0.0
 11
289.4176991914063
 21
137.87068523395
 31
0.0
  0
LINE
  5
5BF
102
{ACAD_REACTORS
330
660
102
}
330
1F
100
AcDbEntity
  8
中心線
100
AcDbLine
 10
278.4176991914062
 20
148.87068523395
 30
0.0
 11
300.4176991914063
 21
148.87068523395
 31
0.0
  0
LINE
  5
5C0
102
{ACAD_REACTORS
330
660
102
}
330
1F
100
AcDbEntity
  8
中心線
100
AcDbLine
 10
289.4176991914063
 20
85.62447320936248
 30
0.0
 11
289.4176991914063
 21
63.62447320936249
 31
0.0
  0
LINE
  5
5C1
102
{ACAD_REACTORS
330
660
102
}
330
1F
100
AcDbEntity
  8
中心線
100
AcDbLine
 10
278.4176991914062
 20
74.62447320936249
 30
0.0
 11
300.4176991914063
 21
74.62447320936249
 31
0.0
  0
LINE
  5
5C2
102
{ACAD_REACTORS
330
660
102
}
330
1F
100
AcDbEntity
  8
中心線
100
AcDbLine
 10
363.6639112159937
 20
85.62447320936248
 30
0.0
 11
363.6639112159937
 21
63.62447320936249
 31
0.0
  0
LINE
  5
5C3
102
{ACAD_REACTORS
330
660
102
}
330
1F
100
AcDbEntity
  8
中心線
100
AcDbLine
 10
352.6639112159937
 20
74.62447320936249
 30
0.0
 11
374.6639112159937
 21
74.62447320936249
 31
0.0
  0
LINE
  5
5C4
102
{ACAD_REACTORS
330
660
102
}
330
1F
100
AcDbEntity
  8
中心線
100
AcDbLine
 10
241.5408052037
 20
111.7475792216563
 30
0.0
 11
411.5408052037
 21
111.7475792216563
 31
0.0
  0
LINE
  5
5C5
102
{ACAD_REACTORS
330
660
102
}
330
1F
100
AcDbEntity
  8
中心線
100
AcDbLine
 10
326.5408052036999
 20
26.74757922165617
 30
0.0
 11
326.5408052036999
 21
196.7475792216561
 31
0.0
  0
LINE
  5
5C6
102
{ACAD_REACTORS
330
5D5
102
}
330
1F
100
AcDbEntity
  8
中心線
100
AcDbLine
 10
363.6639112159937
 20
679.8706852339499
 30
0.0
 11
363.6639112159937
 21
657.87068523395
 31
0.0
  0
LINE
  5
5C7
102
{ACAD_REACTORS
330
5D5
102
}
330
1F
100
AcDbEntity
  8
中心線
100
AcDbLine
 10
352.6639112159938
 20
668.87068523395
 30
0.0
 11
374.6639112159937
 21
668.87068523395
 31
0.0
  0
LINE
  5
5C8
102
{ACAD_REACTORS
330
5D5
102
}
330
1F
100
AcDbEntity
  8
中心線
100
AcDbLine
 10
289.4176991914063
 20
679.8706852339499
 30
0.0
 11
289.4176991914063
 21
657.87068523395
 31
0.0
  0
LINE
  5
5C9
102
{ACAD_REACTORS
330
5D5
102
}
330
1F
100
AcDbEntity
  8
中心線
100
AcDbLine
 10
278.4176991914063
 20
668.87068523395
 30
0.0
 11
300.4176991914064
 21
668.87068523395
 31
0.0
  0
LINE
  5
5CA
102
{ACAD_REACTORS
330
5D5
102
}
330
1F
100
AcDbEntity
  8
中心線
100
AcDbLine
 10
289.4176991914063
 20
605.6244732093622
 30
0.0
 11
289.4176991914063
 21
583.6244732093624
 31
0.0
  0
LINE
  5
5CB
102
{ACAD_REACTORS
330
5D5
102
}
330
1F
100
AcDbEntity
  8
中心線
100
AcDbLine
 10
278.4176991914063
 20
594.6244732093624
 30
0.0
 11
300.4176991914064
 21
594.6244732093624
 31
0.0
  0
LINE
  5
5CC
102
{ACAD_REACTORS
330
5D5
102
}
330
1F
100
AcDbEntity
  8
中心線
100
AcDbLine
 10
363.6639112159937
 20
605.6244732093622
 30
0.0
 11
363.6639112159937
 21
583.6244732093624
 31
0.0
  0
LINE
  5
5CD
102
{ACAD_REACTORS
330
5D5
102
}
330
1F
100
AcDbEntity
  8
中心線
100
AcDbLine
 10
352.6639112159938
 20
594.6244732093624
 30
0.0
 11
374.6639112159937
 21
594.6244732093624
 31
0.0
  0
LINE
  5
5CE
102
{ACAD_REACTORS
330
5D5
102
}
330
1F
100
AcDbEntity
  8
中心線
100
AcDbLine
 10
241.5408052037
 20
631.7475792216562
 30
0.0
 11
411.5408052037
 21
631.7475792216562
 31
0.0
  0
LINE
  5
5CF
102
{ACAD_REACTORS
330
5D5
102
}
330
1F
100
AcDbEntity
  8
中心線
100
AcDbLine
 10
326.5408052037
 20
546.7475792216561
 30
0.0
 11
326.5408052037
 21
716.7475792216561
 31
0.0
  0
ENDSEC
  0
SECTION
  2
OBJECTS
  0
DICTIONARY
  5
C
330
0
100
AcDbDictionary
281
     1
  3
ACAD_CIP_PREVIOUS_PRODUCT_INFO
350
226
  3
ACAD_COLOR
350
21C
  3
ACAD_DETAILVIEWSTYLE
350
21F
  3
ACAD_GROUP
350
D
  3
ACAD_LAYOUT
350
1A
  3
ACAD_MATERIAL
350
43
  3
ACAD_MLEADERSTYLE
350
5B
  3
ACAD_MLINESTYLE
350
17
  3
ACAD_PLOTSETTINGS
350
19
  3
ACAD_PLOTSTYLENAME
350
E
  3
ACAD_SCALELIST
350
47
  3
ACAD_SECTIONVIEWSTYLE
350
21D
  3
ACAD_TABLESTYLE
350
59
  3
ACAD_VISUALSTYLE
350
2A
  3
ACDB_RECOMPOSE_DATA
350
6EB
  3
AcDbVariableDictionary
350
1D1
  3
DWGPROPS
350
6EC
  0
DICTIONARY
  5
22D
330
2
100
AcDbDictionary
280
     1
281
     1
  3
ACAD_LAYERSTATES
360
22E
  0
DICTIONARY
  5
5D6
330
10
100
AcDbDictionary
280
     1
281
     1
  3
ADSK_XREC_LAYER_RECONCILED
360
5D7
  0
DICTIONARY
  5
229
330
228
100
AcDbDictionary
280
     1
281
     1
  3
ADSK_XREC_LAYER_RECONCILED
360
5DA
  0
DICTIONARY
  5
22B
330
22A
100
AcDbDictionary
280
     1
281
     1
  3
ADSK_XREC_LAYER_RECONCILED
360
5DB
  0
DICTIONARY
  5
49A
330
1F
100
AcDbDictionary
280
     1
281
     1
  3
ACAD_SORTENTS
360
49B
  0
XRECORD
  5
226
102
{ACAD_REACTORS
330
C
102
}
330
C
100
AcDbXrecord
280
     1
300
ACDLT
300
2016
300
ACDLT_F_S
  0
DICTIONARY
  5
21C
102
{ACAD_REACTORS
330
C
102
}
330
C
100
AcDbDictionary
281
     1
  0
DICTIONARY
  5
21F
102
{ACAD_REACTORS
330
C
102
}
330
C
100
AcDbDictionary
281
     1
  3
Metric50
350
220
  0
DICTIONARY
  5
D
102
{ACAD_REACTORS
330
C
102
}
330
C
100
AcDbDictionary
281
     1
  3
*A2
350
5D1
  3
*A3
350
5D2
  3
*A4
350
5D3
  3
*A5
350
5D4
  3
*A6
350
5D5
  3
*A7
350
660
  0
DICTIONARY
  5
1A
102
{ACAD_REACTORS
330
C
102
}
330
C
100
AcDbDictionary
281
     1
  3
Layout1
350
1E
  3
Model
350
22
  3
レイアウト1
350
221
  0
DICTIONARY
  5
43
102
{ACAD_REACTORS
330
C
102
}
330
C
100
AcDbDictionary
281
     1
  3
ByBlock
350
45
  3
ByLayer
350
44
  3
Global
350
46
  0
DICTIONARY
  5
5B
102
{ACAD_REACTORS
330
C
102
}
330
C
100
AcDbDictionary
281
     1
  3
Standard
350
5C
  0
DICTIONARY
  5
17
102
{ACAD_REACTORS
330
C
102
}
330
C
100
AcDbDictionary
281
     1
  3
Standard
350
18
  0
DICTIONARY
  5
19
102
{ACAD_REACTORS
330
C
102
}
330
C
100
AcDbDictionary
281
     1
  0
ACDBDICTIONARYWDFLT
  5
E
102
{ACAD_REACTORS
330
C
102
}
330
C
100
AcDbDictionary
281
     1
  3
Normal
350
F
100
AcDbDictionaryWithDefault
340
F
  0
DICTIONARY
  5
47
102
{ACAD_REACTORS
330
C
102
}
330
C
100
AcDbDictionary
281
     1
  3
A0
350
48
  3
A1
350
49
  3
A2
350
4A
  3
A3
350
4B
  3
A4
350
4C
  3
A5
350
4D
  3
A6
350
4E
  3
A7
350
4F
  3
A8
350
50
  3
A9
350
51
  3
B0
350
52
  3
B1
350
53
  3
B2
350
54
  3
B3
350
55
  3
B4
350
56
  3
B5
350
57
  3
B6
350
58
  0
DICTIONARY
  5
21D
102
{ACAD_REACTORS
330
C
102
}
330
C
100
AcDbDictionary
281
     1
  3
Metric50
350
21E
  0
DICTIONARY
  5
59
102
{ACAD_REACTORS
330
C
102
}
330
C
100
AcDbDictionary
281
     1
  3
Standard
350
5A
  0
DICTIONARY
  5
2A
102
{ACAD_REACTORS
330
C
102
}
330
C
100
AcDbDictionary
281
     1
  3
2dWireframe
350
2F
  3
Basic
350
32
  3
Brighten
350
36
  3
ColorChange
350
3A
  3
Conceptual
350
34
  3
Dim
350
35
  3
EdgeColorOff
350
3D
  3
Facepattern
350
39
  3
Flat
350
2B
  3
FlatWithEdges
350
2C
  3
Gouraud
350
2D
  3
GouraudWithEdges
350
2E
  3
Hidden
350
31
  3
JitterOff
350
3B
  3
Linepattern
350
38
  3
OverhangOff
350
3C
  3
Realistic
350
33
  3
Shaded
350
42
  3
Shaded with edges
350
41
  3
Shades of Gray
350
3E
  3
Sketchy
350
3F
  3
Thicken
350
37
  3
Wireframe
350
30
  3
X-Ray
350
40
  0
XRECORD
  5
6EB
102
{ACAD_REACTORS
330
C
102
}
330
C
100
AcDbXrecord
280
     1
 90
        1
330
5A
  0
DICTIONARY
  5
1D1
102
{ACAD_REACTORS
330
C
102
}
330
C
100
AcDbDictionary
281
     1
  3
CANNOSCALE
350
1DF
  3
CENTEREXE
350
1D8
  3
CENTERLTYPEFILE
350
1D9
  3
CMLEADERSTYLE
350
1D3
  3
CTABLESTYLE
350
1D2
  3
CVIEWDETAILSTYLE
350
5DC
  3
CVIEWSECTIONSTYLE
350
5DD
  3
DIMASSOC
350
1DA
  3
HIDETEXT
350
1DB
  3
INDEXCTL
350
666
  3
LAYEREVAL
350
5DF
  3
LAYERNOTIFY
350
5E0
  3
LIGHTINGUNITS
350
5DE
  3
LOFTANG1
350
669
  3
LOFTANG2
350
66A
  3
LONGITUDE
350
66B
  3
MSLTSCALE
350
1E0
  3
PSOLHEIGHT
350
668
  3
PSOLWIDTH
350
667
  3
SORTENTS
350
665
  3
XCLIPFRAME
350
66C
  0
XRECORD
  5
6EC
102
{ACAD_REACTORS
330
C
102
}
330
C
100
AcDbXrecord
280
     1
  1
DWGPROPS COOKIE
  2

  3

  4

  6
File was created by TR2_DExp
  7

  8
fujino
  9

300
=
301
=
302
=
303
=
304
=
305
=
306
=
307
=
308
=
309
=
 40
0.0204241435185185
 41
2455188.75
 42
2459739.358229792
  1

 90
        0
  0
DICTIONARY
  5
22E
102
{ACAD_REACTORS
330
22D
102
}
330
22D
100
AcDbDictionary
281
     1
  0
XRECORD
  5
5D7
102
{ACAD_REACTORS
330
5D6
102
}
330
5D6
100
AcDbXrecord
280
     1
290
     1
  0
XRECORD
  5
5DA
102
{ACAD_REACTORS
330
229
102
}
330
229
100
AcDbXrecord
280
     1
290
     1
  0
XRECORD
  5
5DB
102
{ACAD_REACTORS
330
22B
102
}
330
22B
100
AcDbXrecord
280
     1
290
     1
  0
SORTENTSTABLE
  5
49B
102
{ACAD_REACTORS
330
49A
102
}
330
49A
100
AcDbSortentsTable
330
1F
331
595
  5
366
331
527
  5
404
331
47C
  5
486
331
523
  5
400
331
591
  5
362
331
4B7
  5
418
331
5CC
  5
5CC
331
478
  5
482
331
4B3
  5
414
331
51F
  5
3FC
331
55E
  5
3BA
331
58D
  5
35E
331
5C8
  5
5C8
331
589
  5
35A
331
51B
  5
3F8
331
4AF
  5
410
331
4EE
  5
44F
331
55A
  5
3B6
331
4AB
  5
470
331
4EA
  5
44B
331
455
  5
5BA
331
474
  5
47E
331
5C4
  5
5C4
331
556
  5
3B2
331
585
  5
356
331
451
  5
5B6
331
517
  5
3F4
331
470
  5
47A
331
5C0
  5
5C0
331
46C
  5
476
331
513
  5
3F0
331
4E6
  5
447
331
552
  5
3AE
331
581
  5
352
331
5BC
  5
5BC
331
468
  5
472
331
50F
  5
3EC
331
4E2
  5
443
331
54E
  5
3AA
331
57D
  5
34E
331
579
  5
34A
331
5B8
  5
389
331
50B
  5
3E8
331
4DE
  5
43F
331
54A
  5
3A6
331
493
  5
49F
331
4DA
  5
43B
331
546
  5
3A2
331
575
  5
346
331
5B4
  5
385
331
507
  5
3E4
331
542
  5
39E
331
571
  5
342
331
5B0
  5
381
331
4D6
  5
437
331
503
  5
3E0
331
5AC
  5
37D
331
4FF
  5
3DC
331
48B
  5
495
331
4D2
  5
433
331
53E
  5
39A
331
56D
  5
3C9
331
569
  5
3C5
331
5A8
  5
379
331
4FB
  5
3D8
331
487
  5
491
331
4CE
  5
42F
331
53A
  5
396
331
483
  5
48D
331
4CA
  5
42B
331
49C
  5
450
331
565
  5
3C1
331
5A4
  5
375
331
4F7
  5
3D4
331
536
  5
392
331
532
  5
38E
331
561
  5
3BD
331
5A0
  5
371
331
4C6
  5
427
331
4F3
  5
3D0
331
59C
  5
36D
331
4C2
  5
423
331
52E
  5
40B
331
598
  5
369
331
4BE
  5
41F
331
52A
  5
407
331
4BA
  5
41B
331
594
  5
365
331
526
  5
403
331
5CF
  5
5CF
331
47B
  5
485
331
522
  5
3FF
331
590
  5
361
331
4B6
  5
417
331
5CB
  5
5CB
331
4B2
  5
413
331
51E
  5
3FB
331
55D
  5
3B9
331
58C
  5
35D
331
588
  5
359
331
51A
  5
3F7
331
4AE
  5
40F
331
4ED
  5
44E
331
559
  5
3B5
331
4E9
  5
44A
331
477
  5
481
331
5C7
  5
5C7
331
454
  5
5B9
331
473
  5
47D
331
5C3
  5
5C3
331
555
  5
3B1
331
584
  5
355
331
450
  5
5B5
331
516
  5
3F3
331
46F
  5
479
331
5BF
  5
5BF
331
46B
  5
475
331
512
  5
3EF
331
4E5
  5
446
331
551
  5
3AD
331
580
  5
351
331
5BB
  5
38C
331
50E
  5
3EB
331
4A2
  5
456
331
4E1
  5
442
331
54D
  5
3A9
331
57C
  5
34D
331
578
  5
349
331
50A
  5
3E7
331
496
  5
4A2
331
4DD
  5
43E
331
549
  5
3A5
331
4D9
  5
43A
331
44F
  5
5B4
331
5B7
  5
388
331
545
  5
3A1
331
574
  5
345
331
5B3
  5
384
331
506
  5
3E3
331
502
  5
3DF
331
4D5
  5
436
331
541
  5
39D
331
570
  5
341
331
5AF
  5
380
331
5AB
  5
37C
331
4FE
  5
3DB
331
48A
  5
494
331
4D1
  5
432
331
53D
  5
399
331
56C
  5
3C8
331
568
  5
3C4
331
4FA
  5
3D7
331
486
  5
490
331
4CD
  5
42E
331
539
  5
395
331
482
  5
48C
331
4C9
  5
42A
331
49F
  5
453
331
5A7
  5
378
331
535
  5
391
331
564
  5
3C0
331
5A3
  5
374
331
4F6
  5
3D3
331
531
  5
38D
331
560
  5
3BC
331
59F
  5
370
331
4C5
  5
426
331
4F2
  5
3CF
331
59B
  5
36C
331
4C1
  5
422
331
52D
  5
40A
331
4BD
  5
41E
331
529
  5
406
331
4B9
  5
41A
331
597
  5
368
331
47E
  5
488
331
593
  5
364
331
525
  5
402
331
5CE
  5
5CE
331
47A
  5
484
331
4B5
  5
416
331
521
  5
3FE
331
58F
  5
360
331
5CA
  5
5CA
331
58B
  5
35C
331
4B1
  5
412
331
51D
  5
3FA
331
55C
  5
3B8
331
519
  5
3F6
331
4AD
  5
40E
331
4EC
  5
44D
331
558
  5
3B4
331
4E8
  5
449
331
476
  5
480
331
5C6
  5
5C6
331
587
  5
358
331
453
  5
5B8
331
472
  5
47C
331
5C2
  5
5C2
331
554
  5
3B0
331
583
  5
354
331
515
  5
3F2
331
46E
  5
478
331
5BE
  5
5BE
331
46A
  5
474
331
511
  5
3EE
331
4E4
  5
445
331
550
  5
3AC
331
57F
  5
350
331
4A5
  5
46A
331
5BA
  5
38B
331
50D
  5
3EA
331
4E0
  5
441
331
54C
  5
3A8
331
57B
  5
34C
331
509
  5
3E6
331
4DC
  5
43D
331
548
  5
3A4
331
4D8
  5
439
331
44E
  5
5B3
331
577
  5
348
331
5B6
  5
387
331
544
  5
3A0
331
573
  5
344
331
5B2
  5
383
331
505
  5
3E2
331
501
  5
3DE
331
4D4
  5
435
331
540
  5
39C
331
56F
  5
3CB
331
48D
  5
497
331
5AE
  5
37F
331
5AA
  5
37B
331
4FD
  5
3DA
331
4D0
  5
431
331
53C
  5
398
331
56B
  5
3C7
331
4F9
  5
3D6
331
485
  5
48F
331
4CC
  5
42D
331
538
  5
394
331
481
  5
48B
331
4C8
  5
429
331
49E
  5
452
331
567
  5
3C3
331
5A6
  5
377
331
534
  5
390
331
563
  5
3BF
331
5A2
  5
373
331
4F5
  5
3D2
331
4F1
  5
3CE
331
4C4
  5
425
331
530
  5
40D
331
59E
  5
36F
331
59A
  5
36B
331
4C0
  5
421
331
52C
  5
409
331
4BC
  5
41D
331
528
  5
405
331
4B8
  5
419
331
596
  5
367
331
47D
  5
487
331
524
  5
401
331
592
  5
363
331
5CD
  5
5CD
331
479
  5
483
331
4B4
  5
415
331
520
  5
3FD
331
55F
  5
3BB
331
58E
  5
35F
331
5C9
  5
5C9
331
58A
  5
35B
331
51C
  5
3F9
331
4B0
  5
411
331
4EF
  5
3CC
331
55B
  5
3B7
331
518
  5
3F5
331
4AC
  5
471
331
4EB
  5
44C
331
4A8
  5
46D
331
456
  5
5BB
331
475
  5
47F
331
5C5
  5
5C5
331
557
  5
3B3
331
586
  5
357
331
452
  5
5B7
331
471
  5
47B
331
5C1
  5
5C1
331
46D
  5
477
331
553
  5
3AF
331
582
  5
353
331
4E7
  5
448
331
514
  5
3F1
331
5BD
  5
5BD
331
469
  5
473
331
510
  5
3ED
331
4E3
  5
444
331
54F
  5
3AB
331
57E
  5
34F
331
57A
  5
34B
331
5B9
  5
38A
331
50C
  5
3E9
331
4DF
  5
440
331
54B
  5
3A7
331
508
  5
3E5
331
4DB
  5
43C
331
490
  5
49C
331
44D
  5
5B2
331
576
  5
347
331
5B5
  5
386
331
547
  5
3A3
331
543
  5
39F
331
572
  5
343
331
5B1
  5
382
331
4D7
  5
438
331
504
  5
3E1
331
5AD
  5
37E
331
500
  5
3DD
331
4D3
  5
434
331
53F
  5
39B
331
56E
  5
3CA
331
48C
  5
496
331
5A9
  5
37A
331
4FC
  5
3D9
331
4CF
  5
430
331
53B
  5
397
331
56A
  5
3C6
331
4F8
  5
3D5
331
484
  5
48E
331
4CB
  5
42C
331
49D
  5
451
331
566
  5
3C2
331
5A5
  5
376
331
499
  5
4A5
331
537
  5
393
331
533
  5
38F
331
562
  5
3BE
331
5A1
  5
372
331
4F4
  5
3D1
331
4C7
  5
428
331
4F0
  5
3CD
331
4C3
  5
424
331
52F
  5
40C
331
59D
  5
36E
331
599
  5
36A
331
4BF
  5
420
331
52B
  5
408
331
4BB
  5
41C
  0
ACDBDETAILVIEWSTYLE
  5
220
102
{ACAD_XDICTIONARY
360
724
102
}
102
{ACAD_REACTORS
330
21F
102
}
330
21F
100
AcDbModelDocViewStyle
 70
     0
  3
Metric50
290
     0
100
AcDbDetailViewStyle
 70
     0
 71
     0
 90
        3
 71
     1
340
11
 40
5.0
340
0
 40
5.0
300

 40
0.0
280
     1
 71
     2
340
16
 90
       25
 71
     3
340
11
 40
5.0
 90
        0
 40
15.0
 90
        1
300
%<\AcVar ViewDetailId>% (%<\AcVar ViewScale \f "%sn">%)
 71
     4
340
16
 90
       25
340
16
 90
       25
280
     0
  0
GROUP
  5
5D1
102
{ACAD_REACTORS
330
D
102
}
330
D
100
AcDbGroup
300

 70
     1
 71
     1
340
456
340
455
340
454
340
4EE
340
4ED
340
4EC
340
4EB
340
4EA
340
4E9
340
4E8
340
4E7
340
4E6
340
4E5
340
4E4
340
4E3
340
4E2
340
4E1
340
4E0
340
4DF
340
4DE
340
4DD
340
4DC
340
4DB
340
4DA
340
4D9
340
4D8
340
4D7
340
4D6
340
4D5
340
4D4
340
4D3
340
4D2
340
4D1
340
4D0
340
4CF
340
4CE
340
4CD
340
4CC
340
4CB
340
4CA
340
4C9
340
4C8
340
4C7
340
4C6
340
4C5
340
4C4
340
4C3
340
4C2
340
4C1
340
4C0
340
4BF
340
4BE
340
4BD
340
4BC
340
4BB
340
4BA
340
4B9
340
4B8
340
4B7
340
4B6
340
4B5
340
4B4
340
4B3
340
4B2
340
4B1
340
4B0
340
4AF
340
4AE
340
4AD
  0
GROUP
  5
5D2
102
{ACAD_REACTORS
330
D
102
}
330
D
100
AcDbGroup
300

 70
     1
 71
     1
340
451
340
450
340
530
340
52F
340
52E
340
52D
340
52C
340
52B
340
52A
340
529
340
528
340
527
340
526
340
525
340
524
340
523
340
522
340
521
340
520
340
51F
340
51E
340
51D
340
51C
340
51B
340
51A
340
519
340
518
340
517
340
516
340
515
340
514
340
513
340
512
340
511
340
510
340
50F
340
50E
340
50D
340
50C
340
50B
340
50A
340
509
340
508
340
507
340
506
340
505
340
504
340
503
340
502
340
501
340
500
340
4FF
340
4FE
340
4FD
340
4FC
340
4FB
340
4FA
340
4F9
340
4F8
340
4F7
340
4F6
340
4F5
340
4F4
340
4F3
340
4F2
340
4F1
340
4F0
340
4EF
  0
GROUP
  5
5D3
102
{ACAD_REACTORS
330
D
102
}
330
D
100
AcDbGroup
300

 70
     1
 71
     1
340
44F
340
44E
340
44D
340
5BB
340
5BA
340
5B9
340
5B8
340
5B7
340
5B6
340
5B5
340
5B4
340
5B3
340
5B2
340
5B1
340
5B0
340
5AF
340
5AE
340
5AD
340
5AC
340
5AB
340
5AA
340
5A9
340
5A8
340
5A7
340
5A6
340
5A5
340
5A4
340
5A3
340
5A2
340
5A1
340
5A0
340
59F
340
59E
340
59D
340
59C
340
59B
340
59A
340
599
340
598
340
597
340
596
340
595
340
594
340
593
340
592
340
591
340
590
340
58F
340
58E
340
58D
340
58C
340
58B
340
58A
340
589
340
588
340
587
340
586
340
585
340
584
340
583
340
582
340
581
340
580
340
57F
340
57E
340
57D
340
57C
340
57B
340
57A
340
579
340
578
340
577
340
576
340
575
340
574
340
573
340
572
340
571
340
570
  0
GROUP
  5
5D4
102
{ACAD_REACTORS
330
D
102
}
330
D
100
AcDbGroup
300

 70
     1
 71
     1
340
453
340
452
340
56F
340
56E
340
56D
340
56C
340
56B
340
56A
340
569
340
568
340
567
340
566
340
565
340
564
340
563
340
562
340
561
340
560
340
55F
340
55E
340
55D
340
55C
340
55B
340
55A
340
559
340
558
340
557
340
556
340
555
340
554
340
553
340
552
340
551
340
550
340
54F
340
54E
340
54D
340
54C
340
54B
340
54A
340
549
340
548
340
547
340
546
340
545
340
544
340
543
340
542
340
541
340
540
340
53F
340
53E
340
53D
340
53C
340
53B
340
53A
340
539
340
538
340
537
340
536
340
535
340
534
340
533
340
532
340
531
  0
GROUP
  5
5D5
102
{ACAD_REACTORS
330
D
102
}
330
D
100
AcDbGroup
300

 70
     1
 71
     1
340
5CF
340
5CE
340
5CD
340
5CC
340
5CB
340
5CA
340
5C9
340
5C8
340
5C7
340
5C6
340
4AC
340
4AB
340
4A8
340
4A5
340
4A2
340
49F
340
49E
340
49D
340
49C
  0
GROUP
  5
660
102
{ACAD_REACTORS
330
D
102
}
330
D
100
AcDbGroup
300

 70
     1
 71
     1
340
5C5
340
5C4
340
5C3
340
5C2
340
5C1
340
5C0
340
5BF
340
5BE
340
5BD
340
5BC
340
499
340
496
340
493
340
490
340
48D
340
48C
340
48B
340
48A
340
487
340
486
340
485
340
484
340
483
340
482
340
481
340
47E
340
47D
340
47C
340
47B
340
47A
340
479
340
478
340
477
340
476
340
475
340
474
340
473
340
472
340
471
340
470
340
46F
340
46E
340
46D
340
46C
340
46B
340
46A
340
469
340
468
  0
LAYOUT
  5
1E
102
{ACAD_XDICTIONARY
360
6ED
102
}
102
{ACAD_REACTORS
330
1A
102
}
330
1A
100
AcDbPlotSettings
  1

  2
none_device
  4

  6

 40
0.0
 41
0.0
 42
0.0
 43
0.0
 44
0.0
 45
0.0
 46
0.0
 47
0.0
 48
0.0
 49
0.0
140
0.0
141
0.0
142
1.0
143
1.0
 70
   688
 72
     1
 73
     0
 74
     5
  7

 75
    16
147
1.0
148
0.0
149
0.0
100
AcDbLayout
  1
Layout1
 70
     1
 71
     1
 10
0.0
 20
0.0
 11
420.0
 21
297.0
 12
0.0
 22
0.0
 32
0.0
 14
1.000000000000000E+20
 24
1.000000000000000E+20
 34
1.000000000000000E+20
 15
-1.000000000000000E+20
 25
-1.000000000000000E+20
 35
-1.000000000000000E+20
146
0.0
 13
0.0
 23
0.0
 33
0.0
 16
1.0
 26
0.0
 36
0.0
 17
0.0
 27
1.0
 37
0.0
 76
     0
330
1B
  0
LAYOUT
  5
22
102
{ACAD_XDICTIONARY
360
6EF
102
}
102
{ACAD_REACTORS
330
1A
102
}
330
1A
100
AcDbPlotSettings
  1

  2
none_device
  4
Letter_(8.50_x_11.00_Inches)
  6

 40
6.349999999999997
 41
6.349999999999997
 42
6.350005079999997
 43
6.350005079999997
 44
215.9
 45
279.4
 46
0.0
 47
0.0
 48
0.0
 49
0.0
140
0.0
141
0.0
142
1.0
143
1.0
 70
  1712
 72
     1
 73
     0
 74
     0
  7

 75
     0
147
1.0
148
0.0
149
0.0
100
AcDbLayout
  1
Model
 70
     1
 71
     0
 10
-315.5297966003418
 20
-404.8475036621093
 11
599.6880534492166
 21
261.8365173339844
 12
0.0
 22
0.0
 32
0.0
 14
-315.5297966003418
 24
-404.8475036621093
 34
0.0
 15
599.6880534492166
 25
261.8365173339844
 35
0.0
146
0.0
 13
0.0
 23
0.0
 33
0.0
 16
1.0
 26
0.0
 36
0.0
 17
0.0
 27
1.0
 37
0.0
 76
     0
330
1F
331
29
  0
LAYOUT
  5
221
102
{ACAD_XDICTIONARY
360
726
102
}
102
{ACAD_REACTORS
330
1A
102
}
330
1A
100
AcDbPlotSettings
  1

  2
青梅 FX DocuCentre-V C2275 T2
  4

  6

 40
0.0
 41
0.0
 42
0.0
 43
0.0
 44
0.0
 45
0.0
 46
0.0
 47
0.0
 48
0.0
 49
0.0
140
0.0
141
0.0
142
1.0
143
1.0
 70
   688
 72
     0
 73
     0
 74
     5
  7
AutoCAD_PEN.ctb
 75
    16
147
1.0
148
0.0
149
0.0
100
AcDbLayout
  1
レイアウト1
 70
     1
 71
     2
 10
0.0
 20
0.0
 11
12.0
 21
9.0
 12
0.0
 22
0.0
 32
0.0
 14
0.0
 24
0.0
 34
0.0
 15
0.0
 25
0.0
 35
0.0
146
0.0
 13
0.0
 23
0.0
 33
0.0
 16
1.0
 26
0.0
 36
0.0
 17
0.0
 27
1.0
 37
0.0
 76
     0
330
23
  0
MATERIAL
  5
45
102
{ACAD_XDICTIONARY
360
213
102
}
102
{ACAD_REACTORS
330
43
102
}
330
43
100
AcDbMaterial
  1
ByBlock
  0
MATERIAL
  5
44
102
{ACAD_XDICTIONARY
360
211
102
}
102
{ACAD_REACTORS
330
43
102
}
330
43
100
AcDbMaterial
  1
ByLayer
  0
MATERIAL
  5
46
102
{ACAD_XDICTIONARY
360
215
102
}
102
{ACAD_REACTORS
330
43
102
}
330
43
100
AcDbMaterial
  1
Global
  0
MLEADERSTYLE
  5
5C
102
{ACAD_REACTORS
330
5B
102
}
330
5B
100
AcDbMLeaderStyle
170
     2
171
     1
172
     0
 90
        2
 40
0.0
 41
0.0
173
     1
 91
-1056964608
340
14
 92
       -2
290
     1
 42
2.0
291
     1
 43
8.0
  3
Standard
 44
4.0
300

342
11
174
     1
178
     6
175
     1
176
     0
 93
-1056964608
 45
4.0
292
     0
297
     0
 46
4.0
 94
-1056964608
 47
1.0
 49
1.0
140
1.0
293
     1
141
0.0
294
     1
177
     0
142
1.0
295
     0
296
     0
143
3.75
1001
ACAD_MLEADERVER
1070
     2
  0
MLINESTYLE
  5
18
102
{ACAD_REACTORS
330
17
102
}
330
17
100
AcDbMlineStyle
  2
STANDARD
 70
     0
  3

 62
   256
 51
90.0
 52
90.0
 71
     2
 49
0.5
 62
   256
  6
BYLAYER
 49
-0.5
 62
   256
  6
BYLAYER
  0
ACDBPLACEHOLDER
  5
F
102
{ACAD_REACTORS
330
E
102
}
330
E
  0
SCALE
  5
48
102
{ACAD_REACTORS
330
47
102
}
330
47
100
AcDbScale
 70
     0
300
1:1
140
1.0
141
1.0
290
     1
  0
SCALE
  5
49
102
{ACAD_REACTORS
330
47
102
}
330
47
100
AcDbScale
 70
     0
300
1:2
140
1.0
141
2.0
290
     0
  0
SCALE
  5
4A
102
{ACAD_REACTORS
330
47
102
}
330
47
100
AcDbScale
 70
     0
300
1:4
140
1.0
141
4.0
290
     0
  0
SCALE
  5
4B
102
{ACAD_REACTORS
330
47
102
}
330
47
100
AcDbScale
 70
     0
300
1:5
140
1.0
141
5.0
290
     0
  0
SCALE
  5
4C
102
{ACAD_REACTORS
330
47
102
}
330
47
100
AcDbScale
 70
     0
300
1:8
140
1.0
141
8.0
290
     0
  0
SCALE
  5
4D
102
{ACAD_REACTORS
330
47
102
}
330
47
100
AcDbScale
 70
     0
300
1:10
140
1.0
141
10.0
290
     0
  0
SCALE
  5
4E
102
{ACAD_REACTORS
330
47
102
}
330
47
100
AcDbScale
 70
     0
300
1:16
140
1.0
141
16.0
290
     0
  0
SCALE
  5
4F
102
{ACAD_REACTORS
330
47
102
}
330
47
100
AcDbScale
 70
     0
300
1:20
140
1.0
141
20.0
290
     0
  0
SCALE
  5
50
102
{ACAD_REACTORS
330
47
102
}
330
47
100
AcDbScale
 70
     0
300
1:30
140
1.0
141
30.0
290
     0
  0
SCALE
  5
51
102
{ACAD_REACTORS
330
47
102
}
330
47
100
AcDbScale
 70
     0
300
1:40
140
1.0
141
40.0
290
     0
  0
SCALE
  5
52
102
{ACAD_REACTORS
330
47
102
}
330
47
100
AcDbScale
 70
     0
300
1:50
140
1.0
141
50.0
290
     0
  0
SCALE
  5
53
102
{ACAD_REACTORS
330
47
102
}
330
47
100
AcDbScale
 70
     0
300
1:100
140
1.0
141
100.0
290
     0
  0
SCALE
  5
54
102
{ACAD_REACTORS
330
47
102
}
330
47
100
AcDbScale
 70
     0
300
2:1
140
2.0
141
1.0
290
     0
  0
SCALE
  5
55
102
{ACAD_REACTORS
330
47
102
}
330
47
100
AcDbScale
 70
     0
300
4:1
140
4.0
141
1.0
290
     0
  0
SCALE
  5
56
102
{ACAD_REACTORS
330
47
102
}
330
47
100
AcDbScale
 70
     0
300
8:1
140
8.0
141
1.0
290
     0
  0
SCALE
  5
57
102
{ACAD_REACTORS
330
47
102
}
330
47
100
AcDbScale
 70
     0
300
10:1
140
10.0
141
1.0
290
     0
  0
SCALE
  5
58
102
{ACAD_REACTORS
330
47
102
}
330
47
100
AcDbScale
 70
     0
300
100:1
140
100.0
141
1.0
290
     0
  0
ACDBSECTIONVIEWSTYLE
  5
21E
102
{ACAD_XDICTIONARY
360
722
102
}
102
{ACAD_REACTORS
330
21D
102
}
330
21D
100
AcDbModelDocViewStyle
 70
     0
  3
Metric50
290
     0
100
AcDbSectionViewStyle
 70
     0
 71
     0
 90
      102
 71
     1
340
11
 40
5.0
340
0
340
0
 40
5.0
300
I, O, Q, S, X, Z
 40
10.0
 90
        0
 40
2.5
 90
        0
 71
     2
340
16
 90
       25
340
16
 90
       50
 40
5.0
 40
2.5
 40
5.0
 71
     3
340
11
 40
5.0
 90
        0
 40
15.0
 90
        1
300
%<\AcVar ViewSectionStartId>%-%<\AcVar ViewSectionEndId>% (%<\AcVar ViewScale \f "%sn">%)
 71
     4
300
ANSI31
 40
1.0
 90
        0
290
     0
290
     0
 90
        6
 40
0.0
 40
1.570796326794896
 40
0.2617993877991494
 40
1.308996938995747
 40
-0.2617993877991494
 40
1.832595714594044
  0
TABLESTYLE
  5
5A
102
{ACAD_XDICTIONARY
360
5E1
102
}
102
{ACAD_REACTORS
330
59
102
}
330
59
100
AcDbTableStyle
  3
Standard
 70
     0
 71
     0
 40
1.5
 41
1.5
280
     0
281
     0
  7
Standard
140
4.5
170
     2
 62
     0
 63
     7
283
     0
274
    -2
284
     1
 64
     0
275
    -2
285
     1
 65
     0
276
    -2
286
     1
 66
     0
277
    -2
287
     1
 67
     0
278
    -2
288
     1
 68
     0
279
    -2
289
     1
 69
     0
  7
Standard
140
6.0
170
     5
 62
     0
 63
     7
283
     0
274
    -2
284
     1
 64
     0
275
    -2
285
     1
 65
     0
276
    -2
286
     1
 66
     0
277
    -2
287
     1
 67
     0
278
    -2
288
     1
 68
     0
279
    -2
289
     1
 69
     0
  7
Standard
140
4.5
170
     5
 62
     0
 63
     7
283
     0
274
    -2
284
     1
 64
     0
275
    -2
285
     1
 65
     0
276
    -2
286
     1
 66
     0
277
    -2
287
     1
 67
     0
278
    -2
288
     1
 68
     0
279
    -2
289
     1
 69
     0
  0
VISUALSTYLE
  5
2F
102
{ACAD_XDICTIONARY
360
6F9
102
}
102
{ACAD_REACTORS
330
2A
102
}
330
2A
100
AcDbVisualStyle
  2

 70
     4
 71
     0
 72
     2
 73
     0
 90
        0
 40
-0.6
 41
-30.0
 62
     5
 63
     7
 74
     1
 91
        4
 64
     7
 65
   257
 75
     1
175
     1
 42
1.0
 92
        0
 66
   257
 43
1.0
 76
     1
 77
     6
 78
     2
 67
     7
 79
     5
170
     0
171
     0
290
     0
174
     0
 93
        1
 44
0.0
173
     0
291
     0
 45
0.0
1001
ACAD
1000
AcDbSavedByObjectVersion
1070
     0
  0
VISUALSTYLE
  5
32
102
{ACAD_XDICTIONARY
360
6FF
102
}
102
{ACAD_REACTORS
330
2A
102
}
330
2A
100
AcDbVisualStyle
  2

 70
     7
 71
     1
 72
     0
 73
     1
 90
        0
 40
-0.6
 41
-30.0
 62
     5
 63
     7
 74
     0
 91
        4
 64
     7
 65
   257
 75
     1
175
     1
 42
1.0
 92
        8
 66
     7
 43
1.0
 76
     1
 77
     6
 78
     2
 67
     7
 79
     5
170
     0
171
     0
290
     0
174
     0
 93
        1
 44
0.0
173
     0
291
     1
 45
0.0
1001
ACAD
1000
AcDbSavedByObjectVersion
1070
     0
  0
VISUALSTYLE
  5
36
102
{ACAD_XDICTIONARY
360
707
102
}
102
{ACAD_REACTORS
330
2A
102
}
330
2A
100
AcDbVisualStyle
  2

 70
    12
 71
     2
 72
     2
 73
     0
 90
        0
 40
-0.6
 41
-30.0
 62
     5
 63
     7
 74
     1
 91
        4
 64
     7
 65
   257
 75
     1
175
     1
 42
1.0
 92
        8
 66
     7
 43
1.0
 76
     1
 77
     6
 78
     2
 67
     7
 79
     5
170
     0
171
     0
290
     0
174
     0
 93
        1
 44
50.0
173
     0
291
     1
 45
0.0
1001
ACAD
1000
AcDbSavedByObjectVersion
1070
     0
  0
VISUALSTYLE
  5
3A
102
{ACAD_XDICTIONARY
360
70F
102
}
102
{ACAD_REACTORS
330
2A
102
}
330
2A
100
AcDbVisualStyle
  2

 70
    16
 71
     2
 72
     2
 73
     3
 90
        0
 40
-0.6
 41
-30.0
 62
     5
 63
     8
 74
     1
 91
        4
 64
     7
 65
   257
 75
     1
175
     1
 42
1.0
 92
        8
 66
     8
 43
1.0
 76
     1
 77
     6
 78
     2
 67
     7
 79
     5
170
     0
171
     0
290
     0
174
     0
 93
        1
 44
0.0
173
     0
291
     1
 45
0.0
1001
ACAD
1000
AcDbSavedByObjectVersion
1070
     0
  0
VISUALSTYLE
  5
34
102
{ACAD_XDICTIONARY
360
703
102
}
102
{ACAD_REACTORS
330
2A
102
}
330
2A
100
AcDbVisualStyle
  2

 70
     9
 71
     3
 72
     2
 73
     0
 90
        0
 40
-0.6
 41
-30.0
 62
     5
 63
     7
 74
     2
 91
        2
 64
     7
 65
   257
 75
     1
175
     1
 42
179.0
 92
        8
 66
     7
 43
1.0
 76
     1
 77
     6
 78
     2
 67
     7
 79
     3
170
     0
171
     0
290
     0
174
     0
 93
        1
 44
0.0
173
     0
291
     0
 45
0.0
1001
ACAD
1000
AcDbSavedByObjectVersion
1070
     0
  0
VISUALSTYLE
  5
35
102
{ACAD_XDICTIONARY
360
705
102
}
102
{ACAD_REACTORS
330
2A
102
}
330
2A
100
AcDbVisualStyle
  2

 70
    11
 71
     2
 72
     2
 73
     0
 90
        0
 40
-0.6
 41
-30.0
 62
     5
 63
     7
 74
     1
 91
        4
 64
     7
 65
   257
 75
     1
175
     1
 42
1.0
 92
        8
 66
     7
 43
1.0
 76
     1
 77
     6
 78
     2
 67
     7
 79
     5
170
     0
171
     0
290
     0
174
     0
 93
        1
 44
-50.0
173
     0
291
     1
 45
0.0
1001
ACAD
1000
AcDbSavedByObjectVersion
1070
     0
  0
VISUALSTYLE
  5
3D
102
{ACAD_XDICTIONARY
360
715
102
}
102
{ACAD_REACTORS
330
2A
102
}
330
2A
100
AcDbVisualStyle
  2

 70
    22
 71
     2
 72
     2
 73
     0
 90
        0
 40
-0.6
 41
-30.0
 62
     5
 63
     7
 74
     1
 91
        4
 64
     7
 65
   257
 75
     1
175
     1
 42
1.0
 92
        8
 66
     7
 43
1.0
 76
     1
 77
     6
 78
     2
 67
     7
 79
     5
170
     0
171
     0
290
     0
174
     0
 93
        1
 44
0.0
173
     0
291
     1
 45
0.0
1001
ACAD
1000
AcDbSavedByObjectVersion
1070
     0
  0
VISUALSTYLE
  5
39
102
{ACAD_XDICTIONARY
360
70D
102
}
102
{ACAD_REACTORS
330
2A
102
}
330
2A
100
AcDbVisualStyle
  2

 70
    15
 71
     2
 72
     2
 73
     0
 90
        0
 40
-0.6
 41
-30.0
 62
     5
 63
     7
 74
     1
 91
        4
 64
     7
 65
   257
 75
     1
175
     1
 42
1.0
 92
        8
 66
     7
 43
1.0
 76
     1
 77
     6
 78
     2
 67
     7
 79
     5
170
     0
171
     0
290
     0
174
     0
 93
        1
 44
0.0
173
     0
291
     1
 45
0.0
1001
ACAD
1000
AcDbSavedByObjectVersion
1070
     0
  0
VISUALSTYLE
  5
2B
102
{ACAD_XDICTIONARY
360
6F1
102
}
102
{ACAD_REACTORS
330
2A
102
}
330
2A
100
AcDbVisualStyle
  2

 70
     0
 71
     2
 72
     1
 73
     1
 90
        2
 40
-0.6
 41
30.0
 62
     5
 63
     7
 74
     0
 91
        0
 64
     7
 65
   257
 75
     1
175
     1
 42
1.0
 92
        8
 66
     7
 43
1.0
 76
     1
 77
     6
 78
     2
 67
     7
 79
     5
170
     0
171
     0
290
     0
174
     0
 93
       13
 44
0.0
173
     0
291
     1
 45
0.0
1001
ACAD
1000
AcDbSavedByObjectVersion
1070
     0
  0
VISUALSTYLE
  5
2C
102
{ACAD_XDICTIONARY
360
6F3
102
}
102
{ACAD_REACTORS
330
2A
102
}
330
2A
100
AcDbVisualStyle
  2

 70
     1
 71
     2
 72
     1
 73
     1
 90
        2
 40
-0.6
 41
30.0
 62
     5
 63
     7
 74
     1
 91
        0
 64
     7
 65
   257
 75
     1
175
     1
 42
1.0
 92
        0
 66
   257
 43
1.0
 76
     1
 77
     6
 78
     2
 67
     7
 79
     5
170
     0
171
     0
290
     0
174
     0
 93
       13
 44
0.0
173
     0
291
     1
 45
0.0
1001
ACAD
1000
AcDbSavedByObjectVersion
1070
     0
  0
VISUALSTYLE
  5
2D
102
{ACAD_XDICTIONARY
360
6F5
102
}
102
{ACAD_REACTORS
330
2A
102
}
330
2A
100
AcDbVisualStyle
  2

 70
     2
 71
     2
 72
     2
 73
     1
 90
        2
 40
-0.6
 41
30.0
 62
     5
 63
     7
 74
     0
 91
        0
 64
     7
 65
   257
 75
     1
175
     1
 42
1.0
 92
        0
 66
     7
 43
1.0
 76
     1
 77
     6
 78
     2
 67
     7
 79
     5
170
     0
171
     0
290
     0
174
     0
 93
       13
 44
0.0
173
     0
291
     1
 45
0.0
1001
ACAD
1000
AcDbSavedByObjectVersion
1070
     0
  0
VISUALSTYLE
  5
2E
102
{ACAD_XDICTIONARY
360
6F7
102
}
102
{ACAD_REACTORS
330
2A
102
}
330
2A
100
AcDbVisualStyle
  2

 70
     3
 71
     2
 72
     2
 73
     1
 90
        2
 40
-0.6
 41
30.0
 62
     5
 63
     7
 74
     1
 91
        0
 64
     7
 65
   257
 75
     1
175
     1
 42
1.0
 92
        0
 66
   257
 43
1.0
 76
     1
 77
     6
 78
     2
 67
     7
 79
     5
170
     0
171
     0
290
     0
174
     0
 93
       13
 44
0.0
173
     0
291
     1
 45
0.0
1001
ACAD
1000
AcDbSavedByObjectVersion
1070
     0
  0
VISUALSTYLE
  5
31
102
{ACAD_XDICTIONARY
360
6FD
102
}
102
{ACAD_REACTORS
330
2A
102
}
330
2A
100
AcDbVisualStyle
  2

 70
     6
 71
     1
 72
     2
 73
     2
 90
        0
 40
-0.6
 41
-30.0
 62
     5
 63
     7
 74
     2
 91
        2
 64
     7
 65
   257
 75
     2
175
     1
 42
40.0
 92
        0
 66
   257
 43
1.0
 76
     1
 77
     6
 78
     2
 67
     7
 79
     3
170
     0
171
     0
290
     0
174
     0
 93
        1
 44
0.0
173
     0
291
     0
 45
0.0
1001
ACAD
1000
AcDbSavedByObjectVersion
1070
     0
  0
VISUALSTYLE
  5
3B
102
{ACAD_XDICTIONARY
360
711
102
}
102
{ACAD_REACTORS
330
2A
102
}
330
2A
100
AcDbVisualStyle
  2

 70
    20
 71
     2
 72
     2
 73
     0
 90
        0
 40
-0.6
 41
-30.0
 62
     5
 63
     7
 74
     1
 91
        4
 64
     7
 65
   257
 75
     1
175
     1
 42
1.0
 92
       10
 66
     7
 43
1.0
 76
     1
 77
     6
 78
     2
 67
     7
 79
     5
170
     0
171
     0
290
     0
174
     0
 93
        1
 44
0.0
173
     0
291
     1
 45
0.0
1001
ACAD
1000
AcDbSavedByObjectVersion
1070
     0
  0
VISUALSTYLE
  5
38
102
{ACAD_XDICTIONARY
360
70B
102
}
102
{ACAD_REACTORS
330
2A
102
}
330
2A
100
AcDbVisualStyle
  2

 70
    14
 71
     2
 72
     2
 73
     0
 90
        0
 40
-0.6
 41
-30.0
 62
     5
 63
     7
 74
     1
 91
        4
 64
     7
 65
   257
 75
     7
175
     7
 42
1.0
 92
        8
 66
     7
 43
1.0
 76
     1
 77
     6
 78
     2
 67
     7
 79
     5
170
     0
171
     0
290
     0
174
     0
 93
        1
 44
0.0
173
     0
291
     1
 45
0.0
1001
ACAD
1000
AcDbSavedByObjectVersion
1070
     0
  0
VISUALSTYLE
  5
3C
102
{ACAD_XDICTIONARY
360
713
102
}
102
{ACAD_REACTORS
330
2A
102
}
330
2A
100
AcDbVisualStyle
  2

 70
    21
 71
     2
 72
     2
 73
     0
 90
        0
 40
-0.6
 41
-30.0
 62
     5
 63
     7
 74
     1
 91
        4
 64
     7
 65
   257
 75
     1
175
     1
 42
1.0
 92
        9
 66
     7
 43
1.0
 76
     1
 77
     6
 78
     2
 67
     7
 79
     5
170
     0
171
     0
290
     0
174
     0
 93
        1
 44
0.0
173
     0
291
     1
 45
0.0
1001
ACAD
1000
AcDbSavedByObjectVersion
1070
     0
  0
VISUALSTYLE
  5
33
102
{ACAD_XDICTIONARY
360
701
102
}
102
{ACAD_REACTORS
330
2A
102
}
330
2A
100
AcDbVisualStyle
  2

 70
     8
 71
     2
 72
     3
 73
     0
 90
        2
 40
-0.6
 41
30.0
 62
     5
 63
     7
 74
     0
 91
        0
 64
     7
 65
   257
 75
     1
175
     1
 42
1.0
 92
        8
 66
   257
 43
1.0
 76
     1
 77
     6
 78
     2
 67
     7
 79
     3
170
     0
171
     0
290
     0
174
     0
 93
       13
 44
0.0
173
     0
291
     0
 45
0.0
1001
ACAD
1000
AcDbSavedByObjectVersion
1070
     0
  0
VISUALSTYLE
  5
42
102
{ACAD_XDICTIONARY
360
71F
102
}
102
{ACAD_REACTORS
330
2A
102
}
330
2A
100
AcDbVisualStyle
  2

 70
    27
 71
     2
 72
     2
 73
     1
 90
        2
 40
-0.6
 41
30.0
 62
     5
 63
     7
 74
     0
 91
        4
 64
     7
 65
   257
 75
     1
175
     1
 42
1.0
 92
        8
 66
   257
 43
1.0
 76
     1
 77
     6
 78
     2
 67
     8
 79
     3
170
     0
171
     0
290
     0
174
     0
 93
        5
 44
0.0
173
     0
291
     0
 45
0.0
1001
ACAD
1000
AcDbSavedByObjectVersion
1070
     0
  0
VISUALSTYLE
  5
41
102
{ACAD_XDICTIONARY
360
71D
102
}
102
{ACAD_REACTORS
330
2A
102
}
330
2A
100
AcDbVisualStyle
  2

 70
    26
 71
     2
 72
     2
 73
     1
 90
        2
 40
-0.6
 41
30.0
 62
     5
 63
     7
 74
     1
 91
       10
 64
     7
 65
   257
 75
     2
175
     1
 42
1.0
 92
        8
 66
   257
 43
1.0
 76
     1
 77
     6
 78
     2
 67
     7
 79
     3
170
     0
171
     0
290
     0
174
     0
 93
        5
 44
0.0
173
     0
291
     0
 45
0.0
1001
ACAD
1000
AcDbSavedByObjectVersion
1070
     0
  0
VISUALSTYLE
  5
3E
102
{ACAD_XDICTIONARY
360
717
102
}
102
{ACAD_REACTORS
330
2A
102
}
330
2A
100
AcDbVisualStyle
  2

 70
    23
 71
     2
 72
     2
 73
     3
 90
        0
 40
-0.6
 41
-30.0
 62
     5
 63
     7
 74
     2
 91
        2
 64
     7
 65
     7
 75
     1
175
     1
 42
40.0
 92
        8
 66
     7
 43
1.0
 76
     1
 77
     6
 78
     2
 67
     7
 79
     3
170
     0
171
     0
290
     0
174
     0
 93
        1
 44
0.0
173
     0
291
     0
 45
0.0
1001
ACAD
1000
AcDbSavedByObjectVersion
1070
     0
  0
VISUALSTYLE
  5
3F
102
{ACAD_XDICTIONARY
360
719
102
}
102
{ACAD_REACTORS
330
2A
102
}
330
2A
100
AcDbVisualStyle
  2

 70
    24
 71
     1
 72
     2
 73
     2
 90
        0
 40
-0.6
 41
-30.0
 62
     5
 63
     7
 74
     2
 91
        2
 64
     7
 65
     7
 75
     1
175
     1
 42
40.0
 92
       11
 66
     7
 43
1.0
 76
     1
 77
     6
 78
     2
 67
     7
 79
     6
170
     0
171
     0
290
     0
174
     0
 93
        1
 44
0.0
173
     0
291
     0
 45
0.0
1001
ACAD
1000
AcDbSavedByObjectVersion
1070
     0
  0
VISUALSTYLE
  5
37
102
{ACAD_XDICTIONARY
360
709
102
}
102
{ACAD_REACTORS
330
2A
102
}
330
2A
100
AcDbVisualStyle
  2

 70
    13
 71
     2
 72
     2
 73
     0
 90
        0
 40
-0.6
 41
-30.0
 62
     5
 63
     7
 74
     1
 91
        4
 64
     7
 65
   257
 75
     1
175
     1
 42
1.0
 92
       12
 66
     7
 43
1.0
 76
     1
 77
     6
 78
     2
 67
     7
 79
     5
170
     0
171
     0
290
     0
174
     0
 93
        1
 44
0.0
173
     0
291
     1
 45
0.0
1001
ACAD
1000
AcDbSavedByObjectVersion
1070
     0
  0
VISUALSTYLE
  5
30
102
{ACAD_XDICTIONARY
360
6FB
102
}
102
{ACAD_REACTORS
330
2A
102
}
330
2A
100
AcDbVisualStyle
  2

 70
     5
 71
     0
 72
     2
 73
     0
 90
        0
 40
-0.6
 41
-30.0
 62
     5
 63
     7
 74
     1
 91
        4
 64
     7
 65
   257
 75
     1
175
     1
 42
1.0
 92
        0
 66
   257
 43
1.0
 76
     1
 77
     6
 78
     2
 67
     7
 79
     3
170
     0
171
     0
290
     0
174
     0
 93
        1
 44
0.0
173
     0
291
     0
 45
0.0
1001
ACAD
1000
AcDbSavedByObjectVersion
1070
     0
  0
VISUALSTYLE
  5
40
102
{ACAD_XDICTIONARY
360
71B
102
}
102
{ACAD_REACTORS
330
2A
102
}
330
2A
100
AcDbVisualStyle
  2

 70
    25
 71
     2
 72
     2
 73
     1
 90
        1
 40
0.5
 41
-30.0
 62
     5
 63
     7
 74
     1
 91
        0
 64
     7
 65
   257
 75
     1
175
     1
 42
1.0
 92
        8
 66
     7
 43
1.0
 76
     1
 77
     6
 78
     2
 67
     7
 79
     3
170
     0
171
     0
290
     0
174
     0
 93
       13
 44
0.0
173
     0
291
     0
 45
0.0
1001
ACAD
1000
AcDbSavedByObjectVersion
1070
     0
  0
DICTIONARYVAR
  5
1DF
102
{ACAD_REACTORS
330
1D1
102
}
330
1D1
100
DictionaryVariables
280
     0
  1
1:1
  0
DICTIONARYVAR
  5
1D8
102
{ACAD_REACTORS
330
1D1
102
}
330
1D1
100
DictionaryVariables
280
     0
  1
3.500000
  0
DICTIONARYVAR
  5
1D9
102
{ACAD_REACTORS
330
1D1
102
}
330
1D1
100
DictionaryVariables
280
     0
  1
acadiso.lin
  0
DICTIONARYVAR
  5
1D3
102
{ACAD_REACTORS
330
1D1
102
}
330
1D1
100
DictionaryVariables
280
     0
  1
STANDARD
  0
DICTIONARYVAR
  5
1D2
102
{ACAD_REACTORS
330
1D1
102
}
330
1D1
100
DictionaryVariables
280
     0
  1
STANDARD
  0
DICTIONARYVAR
  5
5DC
102
{ACAD_REACTORS
330
1D1
102
}
330
1D1
100
DictionaryVariables
280
     0
  1
Metric50
  0
DICTIONARYVAR
  5
5DD
102
{ACAD_REACTORS
330
1D1
102
}
330
1D1
100
DictionaryVariables
280
     0
  1
Metric50
  0
DICTIONARYVAR
  5
1DA
102
{ACAD_REACTORS
330
1D1
102
}
330
1D1
100
DictionaryVariables
280
     0
  1
2
  0
DICTIONARYVAR
  5
1DB
102
{ACAD_REACTORS
330
1D1
102
}
330
1D1
100
DictionaryVariables
280
     0
  1
1
  0
DICTIONARYVAR
  5
666
102
{ACAD_REACTORS
330
1D1
102
}
330
1D1
100
DictionaryVariables
280
     0
  1
0
  0
DICTIONARYVAR
  5
5DF
102
{ACAD_REACTORS
330
1D1
102
}
330
1D1
100
DictionaryVariables
280
     0
  1
1
  0
DICTIONARYVAR
  5
5E0
102
{ACAD_REACTORS
330
1D1
102
}
330
1D1
100
DictionaryVariables
280
     0
  1
15
  0
DICTIONARYVAR
  5
5DE
102
{ACAD_REACTORS
330
1D1
102
}
330
1D1
100
DictionaryVariables
280
     0
  1
0
  0
DICTIONARYVAR
  5
669
102
{ACAD_REACTORS
330
1D1
102
}
330
1D1
100
DictionaryVariables
280
     0
  1
1.570796
  0
DICTIONARYVAR
  5
66A
102
{ACAD_REACTORS
330
1D1
102
}
330
1D1
100
DictionaryVariables
280
     0
  1
1.570796
  0
DICTIONARYVAR
  5
66B
102
{ACAD_REACTORS
330
1D1
102
}
330
1D1
100
DictionaryVariables
280
     0
  1
-122.394000
  0
DICTIONARYVAR
  5
1E0
102
{ACAD_REACTORS
330
1D1
102
}
330
1D1
100
DictionaryVariables
280
     0
  1
1
  0
DICTIONARYVAR
  5
668
102
{ACAD_REACTORS
330
1D1
102
}
330
1D1
100
DictionaryVariables
280
     0
  1
80.000000
  0
DICTIONARYVAR
  5
667
102
{ACAD_REACTORS
330
1D1
102
}
330
1D1
100
DictionaryVariables
280
     0
  1
5.000000
  0
DICTIONARYVAR
  5
665
102
{ACAD_REACTORS
330
1D1
102
}
330
1D1
100
DictionaryVariables
280
     0
  1
127
  0
DICTIONARYVAR
  5
66C
102
{ACAD_REACTORS
330
1D1
102
}
330
1D1
100
DictionaryVariables
280
     0
  1
2
  0
DICTIONARY
  5
724
330
220
100
AcDbDictionary
280
     1
281
     1
  3
ACAD_XREC_ROUNDTRIP
360
725
  0
DICTIONARY
  5
6ED
330
1E
100
AcDbDictionary
280
     1
281
     1
  3
ACAD_XREC_ROUNDTRIP
360
6EE
  0
DICTIONARY
  5
6EF
330
22
100
AcDbDictionary
280
     1
281
     1
  3
ACAD_XREC_ROUNDTRIP
360
6F0
  0
DICTIONARY
  5
726
330
221
100
AcDbDictionary
280
     1
281
     1
  3
ACAD_XREC_ROUNDTRIP
360
727
  0
DICTIONARY
  5
213
330
45
100
AcDbDictionary
280
     1
281
     1
  3
ACAD_XREC_ROUNDTRIP
360
214
  0
DICTIONARY
  5
211
330
44
100
AcDbDictionary
280
     1
281
     1
  3
ACAD_XREC_ROUNDTRIP
360
212
  0
DICTIONARY
  5
215
330
46
100
AcDbDictionary
280
     1
281
     1
  3
ACAD_XREC_ROUNDTRIP
360
216
  0
DICTIONARY
  5
722
330
21E
100
AcDbDictionary
280
     1
281
     1
  3
ACAD_XREC_ROUNDTRIP
360
723
  0
DICTIONARY
  5
5E1
330
5A
100
AcDbDictionary
280
     1
281
     1
  3
ACAD_ROUNDTRIP_2008_TABLESTYLE_CELLSTYLEMAP
360
6EA
  3
ACAD_XREC_ROUNDTRIP
360
721
  0
DICTIONARY
  5
6F9
330
2F
100
AcDbDictionary
280
     1
281
     1
  3
ACAD_XREC_ROUNDTRIP
360
6FA
  0
DICTIONARY
  5
6FF
330
32
100
AcDbDictionary
280
     1
281
     1
  3
ACAD_XREC_ROUNDTRIP
360
700
  0
DICTIONARY
  5
707
330
36
100
AcDbDictionary
280
     1
281
     1
  3
ACAD_XREC_ROUNDTRIP
360
708
  0
DICTIONARY
  5
70F
330
3A
100
AcDbDictionary
280
     1
281
     1
  3
ACAD_XREC_ROUNDTRIP
360
710
  0
DICTIONARY
  5
703
330
34
100
AcDbDictionary
280
     1
281
     1
  3
ACAD_XREC_ROUNDTRIP
360
704
  0
DICTIONARY
  5
705
330
35
100
AcDbDictionary
280
     1
281
     1
  3
ACAD_XREC_ROUNDTRIP
360
706
  0
DICTIONARY
  5
715
330
3D
100
AcDbDictionary
280
     1
281
     1
  3
ACAD_XREC_ROUNDTRIP
360
716
  0
DICTIONARY
  5
70D
330
39
100
AcDbDictionary
280
     1
281
     1
  3
ACAD_XREC_ROUNDTRIP
360
70E
  0
DICTIONARY
  5
6F1
330
2B
100
AcDbDictionary
280
     1
281
     1
  3
ACAD_XREC_ROUNDTRIP
360
6F2
  0
DICTIONARY
  5
6F3
330
2C
100
AcDbDictionary
280
     1
281
     1
  3
ACAD_XREC_ROUNDTRIP
360
6F4
  0
DICTIONARY
  5
6F5
330
2D
100
AcDbDictionary
280
     1
281
     1
  3
ACAD_XREC_ROUNDTRIP
360
6F6
  0
DICTIONARY
  5
6F7
330
2E
100
AcDbDictionary
280
     1
281
     1
  3
ACAD_XREC_ROUNDTRIP
360
6F8
  0
DICTIONARY
  5
6FD
330
31
100
AcDbDictionary
280
     1
281
     1
  3
ACAD_XREC_ROUNDTRIP
360
6FE
  0
DICTIONARY
  5
711
330
3B
100
AcDbDictionary
280
     1
281
     1
  3
ACAD_XREC_ROUNDTRIP
360
712
  0
DICTIONARY
  5
70B
330
38
100
AcDbDictionary
280
     1
281
     1
  3
ACAD_XREC_ROUNDTRIP
360
70C
  0
DICTIONARY
  5
713
330
3C
100
AcDbDictionary
280
     1
281
     1
  3
ACAD_XREC_ROUNDTRIP
360
714
  0
DICTIONARY
  5
701
330
33
100
AcDbDictionary
280
     1
281
     1
  3
ACAD_XREC_ROUNDTRIP
360
702
  0
DICTIONARY
  5
71F
330
42
100
AcDbDictionary
280
     1
281
     1
  3
ACAD_XREC_ROUNDTRIP
360
720
  0
DICTIONARY
  5
71D
330
41
100
AcDbDictionary
280
     1
281
     1
  3
ACAD_XREC_ROUNDTRIP
360
71E
  0
DICTIONARY
  5
717
330
3E
100
AcDbDictionary
280
     1
281
     1
  3
ACAD_XREC_ROUNDTRIP
360
718
  0
DICTIONARY
  5
719
330
3F
100
AcDbDictionary
280
     1
281
     1
  3
ACAD_XREC_ROUNDTRIP
360
71A
  0
DICTIONARY
  5
709
330
37
100
AcDbDictionary
280
     1
281
     1
  3
ACAD_XREC_ROUNDTRIP
360
70A
  0
DICTIONARY
  5
6FB
330
30
100
AcDbDictionary
280
     1
281
     1
  3
ACAD_XREC_ROUNDTRIP
360
6FC
  0
DICTIONARY
  5
71B
330
40
100
AcDbDictionary
280
     1
281
     1
  3
ACAD_XREC_ROUNDTRIP
360
71C
  0
XRECORD
  5
725
102
{ACAD_REACTORS
330
724
102
}
330
724
100
AcDbXrecord
280
     1
102
DISPLAYNAME
  1
Metric50
102
FLAGS
 90
        0
  0
XRECORD
  5
6EE
102
{ACAD_REACTORS
330
6ED
102
}
330
6ED
100
AcDbXrecord
280
     1
102
SHADEPLOT
 70
     0
102
SHADEPLOTRESLEVEL
 70
     2
102
SHADEPLOTCUSTOMDPI
 70
   300
  0
XRECORD
  5
6F0
102
{ACAD_REACTORS
330
6EF
102
}
330
6EF
100
AcDbXrecord
280
     1
102
SHADEPLOT
 70
     0
102
SHADEPLOTRESLEVEL
 70
     2
102
SHADEPLOTCUSTOMDPI
 70
   300
  0
XRECORD
  5
727
102
{ACAD_REACTORS
330
726
102
}
330
726
100
AcDbXrecord
280
     1
102
SHADEPLOT
 70
     0
102
SHADEPLOTRESLEVEL
 70
     2
102
SHADEPLOTCUSTOMDPI
 70
   300
  0
XRECORD
  5
214
102
{ACAD_REACTORS
330
213
102
}
330
213
100
AcDbXrecord
280
     1
102
MATERIAL
148
0.0
149
0.0
149
0.0
 93
        0
 94
      127
282
     0
 72
     1
 77
     1
171
     1
175
     1
179
     1
273
     0
  0
XRECORD
  5
212
102
{ACAD_REACTORS
330
211
102
}
330
211
100
AcDbXrecord
280
     1
102
MATERIAL
148
0.0
149
0.0
149
0.0
 93
        0
 94
      127
282
     0
 72
     1
 77
     1
171
     1
175
     1
179
     1
273
     0
  0
XRECORD
  5
216
102
{ACAD_REACTORS
330
215
102
}
330
215
100
AcDbXrecord
280
     1
102
MATERIAL
148
0.0
149
0.0
149
0.0
 93
        0
 94
      127
282
     0
 72
     1
 77
     1
171
     1
175
     1
179
     1
273
     0
  0
XRECORD
  5
723
102
{ACAD_REACTORS
330
722
102
}
330
722
100
AcDbXrecord
280
     1
102
DISPLAYNAME
  1
Metric50
102
FLAGS
 90
        0
  0
CELLSTYLEMAP
  5
6EA
102
{ACAD_REACTORS
330
5E1
102
}
330
5E1
100
AcDbCellStyleMap
 90
        3
300
CELLSTYLE
  1
TABLEFORMAT_BEGIN
 90
        5
170
     1
 91
        0
 92
    32768
 62
   257
 93
        1
300
CONTENTFORMAT
  1
CONTENTFORMAT_BEGIN
 90
        0
 91
        0
 92
        4
 93
        0
300

 40
0.0
140
1.0
 94
        5
 62
     0
340
11
144
6.0
309
CONTENTFORMAT_END
171
     1
301
MARGIN
  1
CELLMARGIN_BEGIN
 40
1.5
 40
1.5
 40
1.5
 40
1.5
 40
0.18
 40
0.18
309
CELLMARGIN_END
 94
        6
 95
        1
302
GRIDFORMAT
  1
GRIDFORMAT_BEGIN
 90
        0
 91
        1
 62
     0
 92
       -2
340
0
 93
        0
 40
0.045
309
GRIDFORMAT_END
 95
        2
302
GRIDFORMAT
  1
GRIDFORMAT_BEGIN
 90
        0
 91
        1
 62
     0
 92
       -2
340
0
 93
        0
 40
0.045
309
GRIDFORMAT_END
 95
        4
302
GRIDFORMAT
  1
GRIDFORMAT_BEGIN
 90
        0
 91
        1
 62
     0
 92
       -2
340
0
 93
        0
 40
0.045
309
GRIDFORMAT_END
 95
        8
302
GRIDFORMAT
  1
GRIDFORMAT_BEGIN
 90
        0
 91
        1
 62
     0
 92
       -2
340
0
 93
        0
 40
0.045
309
GRIDFORMAT_END
 95
       16
302
GRIDFORMAT
  1
GRIDFORMAT_BEGIN
 90
        0
 91
        1
 62
     0
 92
       -2
340
0
 93
        0
 40
0.045
309
GRIDFORMAT_END
 95
       32
302
GRIDFORMAT
  1
GRIDFORMAT_BEGIN
 90
        0
 91
        1
 62
     0
 92
       -2
340
0
 93
        0
 40
0.045
309
GRIDFORMAT_END
309
TABLEFORMAT_END
  1
CELLSTYLE_BEGIN
 90
        1
 91
        1
300
_TITLE
309
CELLSTYLE_END
300
CELLSTYLE
  1
TABLEFORMAT_BEGIN
 90
        5
170
     1
 91
        0
 92
        0
 62
   257
 93
        1
300
CONTENTFORMAT
  1
CONTENTFORMAT_BEGIN
 90
        0
 91
        0
 92
        4
 93
        0
300

 40
0.0
140
1.0
 94
        5
 62
     0
340
11
144
4.5
309
CONTENTFORMAT_END
171
     1
301
MARGIN
  1
CELLMARGIN_BEGIN
 40
1.5
 40
1.5
 40
1.5
 40
1.5
 40
0.18
 40
0.18
309
CELLMARGIN_END
 94
        6
 95
        1
302
GRIDFORMAT
  1
GRIDFORMAT_BEGIN
 90
        0
 91
        1
 62
     0
 92
       -2
340
0
 93
        0
 40
0.045
309
GRIDFORMAT_END
 95
        2
302
GRIDFORMAT
  1
GRIDFORMAT_BEGIN
 90
        0
 91
        1
 62
     0
 92
       -2
340
0
 93
        0
 40
0.045
309
GRIDFORMAT_END
 95
        4
302
GRIDFORMAT
  1
GRIDFORMAT_BEGIN
 90
        0
 91
        1
 62
     0
 92
       -2
340
0
 93
        0
 40
0.045
309
GRIDFORMAT_END
 95
        8
302
GRIDFORMAT
  1
GRIDFORMAT_BEGIN
 90
        0
 91
        1
 62
     0
 92
       -2
340
0
 93
        0
 40
0.045
309
GRIDFORMAT_END
 95
       16
302
GRIDFORMAT
  1
GRIDFORMAT_BEGIN
 90
        0
 91
        1
 62
     0
 92
       -2
340
0
 93
        0
 40
0.045
309
GRIDFORMAT_END
 95
       32
302
GRIDFORMAT
  1
GRIDFORMAT_BEGIN
 90
        0
 91
        1
 62
     0
 92
       -2
340
0
 93
        0
 40
0.045
309
GRIDFORMAT_END
309
TABLEFORMAT_END
  1
CELLSTYLE_BEGIN
 90
        2
 91
        1
300
_HEADER
309
CELLSTYLE_END
300
CELLSTYLE
  1
TABLEFORMAT_BEGIN
 90
        5
170
     1
 91
        0
 92
        0
 62
   257
 93
        1
300
CONTENTFORMAT
  1
CONTENTFORMAT_BEGIN
 90
        0
 91
        0
 92
        4
 93
        0
300

 40
0.0
140
1.0
 94
        2
 62
     0
340
11
144
4.5
309
CONTENTFORMAT_END
171
     1
301
MARGIN
  1
CELLMARGIN_BEGIN
 40
1.5
 40
1.5
 40
1.5
 40
1.5
 40
0.18
 40
0.18
309
CELLMARGIN_END
 94
        6
 95
        1
302
GRIDFORMAT
  1
GRIDFORMAT_BEGIN
 90
        0
 91
        1
 62
     0
 92
       -2
340
0
 93
        0
 40
0.045
309
GRIDFORMAT_END
 95
        2
302
GRIDFORMAT
  1
GRIDFORMAT_BEGIN
 90
        0
 91
        1
 62
     0
 92
       -2
340
0
 93
        0
 40
0.045
309
GRIDFORMAT_END
 95
        4
302
GRIDFORMAT
  1
GRIDFORMAT_BEGIN
 90
        0
 91
        1
 62
     0
 92
       -2
340
0
 93
        0
 40
0.045
309
GRIDFORMAT_END
 95
        8
302
GRIDFORMAT
  1
GRIDFORMAT_BEGIN
 90
        0
 91
        1
 62
     0
 92
       -2
340
0
 93
        0
 40
0.045
309
GRIDFORMAT_END
 95
       16
302
GRIDFORMAT
  1
GRIDFORMAT_BEGIN
 90
        0
 91
        1
 62
     0
 92
       -2
340
0
 93
        0
 40
0.045
309
GRIDFORMAT_END
 95
       32
302
GRIDFORMAT
  1
GRIDFORMAT_BEGIN
 90
        0
 91
        1
 62
     0
 92
       -2
340
0
 93
        0
 40
0.045
309
GRIDFORMAT_END
309
TABLEFORMAT_END
  1
CELLSTYLE_BEGIN
 90
        3
 91
        2
300
_DATA
309
CELLSTYLE_END
  0
XRECORD
  5
721
102
{ACAD_REACTORS
330
5E1
102
}
330
5E1
100
AcDbXrecord
280
     1
102
ACAD_ROUNDTRIP_PRE2007_TABLESTYLE
 90
        4
 91
        0
  1

 92
        4
 93
        0
  2

 94
        4
 95
        0
  3

  0
XRECORD
  5
6FA
102
{ACAD_REACTORS
330
6F9
102
}
330
6F9
100
AcDbXrecord
280
     1
102
RTVSPost2010Prop28
280
     1
102
RTVSPost2010PropOp28
 70
     1
102
RTVSPost2010Prop29
280
     1
102
RTVSPost2010PropOp29
 70
     1
102
RTVSPost2010Prop30
280
     0
102
RTVSPost2010PropOp30
 70
     1
102
RTVSPost2010Prop31
280
     0
102
RTVSPost2010PropOp31
 70
     1
102
RTVSPost2010Prop32
280
     0
102
RTVSPost2010PropOp32
 70
     1
102
RTVSPost2010Prop33
280
     0
102
RTVSPost2010PropOp33
 70
     1
102
RTVSPost2010Prop34
280
     0
102
RTVSPost2010PropOp34
 70
     1
102
RTVSPost2010Prop35
280
     0
102
RTVSPost2010PropOp35
 70
     1
102
RTVSPost2010Prop36
280
     0
102
RTVSPost2010PropOp36
 70
     1
102
RTVSPost2010Prop37
 90
       50
102
RTVSPost2010PropOp37
 70
     1
102
RTVSPost2010Prop38
140
0.0
102
RTVSPost2010PropOp38
 70
     1
102
RTVSPost2010Prop39
140
1.0
102
RTVSPost2010PropOp39
 70
     1
102
RTVSPost2010Prop40
 90
        0
102
RTVSPost2010PropOp40
 70
     1
102
RTVSPost2010Prop41ColorIndex
 90
       18
102
RTVSPost2010Prop41ColorRGB
 90
        0
102
RTVSPost2010PropOp41
 70
     1
102
RTVSPost2010Prop42
 90
       50
102
RTVSPost2010PropOp42
 70
     1
102
RTVSPost2010Prop43
 90
        3
102
RTVSPost2010PropOp43
 70
     1
102
RTVSPost2010Prop44ColorIndex
 90
        5
102
RTVSPost2010Prop44ColorRGB
 90
      255
102
RTVSPost2010PropOp44
 70
     1
102
RTVSPost2010Prop45
280
     0
102
RTVSPost2010PropOp45
 70
     1
102
RTVSPost2010Prop46
 90
       50
102
RTVSPost2010PropOp46
 70
     1
102
RTVSPost2010Prop47
 90
       50
102
RTVSPost2010PropOp47
 70
     1
102
RTVSPost2010Prop48
 90
       50
102
RTVSPost2010PropOp48
 70
     1
102
RTVSPost2010Prop49
280
     0
102
RTVSPost2010PropOp49
 70
     1
102
RTVSPost2010Prop50
 90
       50
102
RTVSPost2010PropOp50
 70
     1
102
RTVSPost2010Prop51ColorIndex
 90
      256
102
RTVSPost2010Prop51ColorRGB
 90
-16777216
102
RTVSPost2010PropOp51
 70
     0
102
RTVSPost2010Prop52
140
1.0
102
RTVSPost2010PropOp52
 70
     0
102
RTVSPost2010Prop53
 90
        2
102
RTVSPost2010PropOp53
 70
     1
102
RTVSPost2010Prop54
  1
strokes_ogs.tif
102
RTVSPost2010PropOp54
 70
     1
102
RTVSPost2010Prop55
280
     0
102
RTVSPost2010PropOp55
 70
     1
102
RTVSPost2010Prop56
140
1.0
102
RTVSPost2010PropOp56
 70
     1
102
RTVSPost2010Prop57
140
1.0
102
RTVSPost2010PropOp57
 70
     1
102
RTVSPropertyOp0
 70
     1
102
RTVSPropertyOp1
 70
     1
102
RTVSPropertyOp2
 70
     1
102
RTVSPropertyOp3
 70
     1
102
RTVSPropertyOp4
 70
     1
102
RTVSPropertyOp5
 70
     1
102
RTVSPropertyOp6
 70
     1
102
RTVSPropertyOp7
 70
     1
102
RTVSPropertyOp8
 70
     1
102
RTVSPropertyOp9
 70
     1
102
RTVSPropertyOp10
 70
     1
102
RTVSPropertyOp11
 70
     1
102
RTVSPropertyOp12
 70
     1
102
RTVSPropertyOp13
 70
     1
102
RTVSPropertyOp14
 70
     1
102
RTVSPropertyOp15
 70
     1
102
RTVSPropertyOp16
 70
     1
102
RTVSPropertyOp17
 70
     1
102
RTVSPropertyOp18
 70
     1
102
RTVSPropertyOp19
 70
     1
102
RTVSPropertyOp20
 70
     1
102
RTVSPropertyOp21
 70
     1
102
RTVSPropertyOp22
 70
     1
102
RTVSPropertyOp23
 70
     1
102
RTVSPropertyOp24
 70
     1
102
RTVSPropertyOp25
 70
     1
102
RTVSPropertyOp26
 70
     1
102
RTVSPropertyOp27
 70
     1
102
RTVSPropertyOp28
 70
     1
102
RTVSPropertyOp29
 70
     1
102
RTVSPropertyOp30
 70
     1
102
RTVSPropertyOp31
 70
     1
102
RTVSPropertyOp32
 70
     1
102
RTVSPropertyOp33
 70
     1
102
RTVSPropertyOp34
 70
     1
102
RTVSPropertyOp35
 70
     1
102
RTVSPropertyOp36
 70
     1
102
RTVSPropertyOp37
 70
     1
102
RTVSPropertyOp38
 70
     1
102
RTVSPropertyOp39
 70
     1
102
RTVSPropertyOp40
 70
     1
102
RTVSPropertyOp41
 70
     1
102
RTVSPropertyOp42
 70
     1
102
RTVSPropertyOp43
 70
     1
102
RTVSPropertyOp44
 70
     1
102
RTVSPropertyOp45
 70
     1
102
RTVSPropertyOp46
 70
     1
102
RTVSPropertyOp47
 70
     1
102
RTVSPropertyOp48
 70
     1
102
RTVSPropertyOp49
 70
     1
102
RTVSPropertyOp50
 70
     1
102
RTVSPropertyOp51
 70
     0
102
RTVSPropertyOp52
 70
     0
102
RTVSPropertyOp53
 70
     1
102
RTVSPropertyOp54
 70
     1
102
RTVSPropertyOp55
 70
     1
102
RTVSPropertyOp56
 70
     1
102
RTVSPropertyOp57
 70
     1
102
RTVSPropertyOp58
 70
     1
102
RTVSPropertyOp59
 70
     1
102
RTVSPropertyOp60
 70
     1
102
RTVSPropertyOp61
 70
     1
102
RTVSPropertyOp62
 70
     1
  0
XRECORD
  5
700
102
{ACAD_REACTORS
330
6FF
102
}
330
6FF
100
AcDbXrecord
280
     1
102
RTVSPost2010Prop28
280
     0
102
RTVSPost2010PropOp28
 70
     1
102
RTVSPost2010Prop29
280
     1
102
RTVSPost2010PropOp29
 70
     1
102
RTVSPost2010Prop30
280
     1
102
RTVSPost2010PropOp30
 70
     1
102
RTVSPost2010Prop31
280
     0
102
RTVSPost2010PropOp31
 70
     1
102
RTVSPost2010Prop32
280
     0
102
RTVSPost2010PropOp32
 70
     1
102
RTVSPost2010Prop33
280
     0
102
RTVSPost2010PropOp33
 70
     1
102
RTVSPost2010Prop34
280
     0
102
RTVSPost2010PropOp34
 70
     1
102
RTVSPost2010Prop35
280
     0
102
RTVSPost2010PropOp35
 70
     1
102
RTVSPost2010Prop36
280
     0
102
RTVSPost2010PropOp36
 70
     1
102
RTVSPost2010Prop37
 90
       50
102
RTVSPost2010PropOp37
 70
     1
102
RTVSPost2010Prop38
140
0.0
102
RTVSPost2010PropOp38
 70
     1
102
RTVSPost2010Prop39
140
1.0
102
RTVSPost2010PropOp39
 70
     1
102
RTVSPost2010Prop40
 90
        0
102
RTVSPost2010PropOp40
 70
     1
102
RTVSPost2010Prop41ColorIndex
 90
       18
102
RTVSPost2010Prop41ColorRGB
 90
        0
102
RTVSPost2010PropOp41
 70
     1
102
RTVSPost2010Prop42
 90
       50
102
RTVSPost2010PropOp42
 70
     1
102
RTVSPost2010Prop43
 90
        3
102
RTVSPost2010PropOp43
 70
     1
102
RTVSPost2010Prop44ColorIndex
 90
        5
102
RTVSPost2010Prop44ColorRGB
 90
      255
102
RTVSPost2010PropOp44
 70
     1
102
RTVSPost2010Prop45
280
     0
102
RTVSPost2010PropOp45
 70
     1
102
RTVSPost2010Prop46
 90
       50
102
RTVSPost2010PropOp46
 70
     1
102
RTVSPost2010Prop47
 90
       50
102
RTVSPost2010PropOp47
 70
     1
102
RTVSPost2010Prop48
 90
       50
102
RTVSPost2010PropOp48
 70
     1
102
RTVSPost2010Prop49
280
     0
102
RTVSPost2010PropOp49
 70
     1
102
RTVSPost2010Prop50
 90
       50
102
RTVSPost2010PropOp50
 70
     1
102
RTVSPost2010Prop51ColorIndex
 90
      256
102
RTVSPost2010Prop51ColorRGB
 90
-16777216
102
RTVSPost2010PropOp51
 70
     0
102
RTVSPost2010Prop52
140
1.0
102
RTVSPost2010PropOp52
 70
     0
102
RTVSPost2010Prop53
 90
        2
102
RTVSPost2010PropOp53
 70
     1
102
RTVSPost2010Prop54
  1
strokes_ogs.tif
102
RTVSPost2010PropOp54
 70
     1
102
RTVSPost2010Prop55
280
     0
102
RTVSPost2010PropOp55
 70
     1
102
RTVSPost2010Prop56
140
1.0
102
RTVSPost2010PropOp56
 70
     1
102
RTVSPost2010Prop57
140
1.0
102
RTVSPost2010PropOp57
 70
     1
102
RTVSPropertyOp0
 70
     1
102
RTVSPropertyOp1
 70
     1
102
RTVSPropertyOp2
 70
     1
102
RTVSPropertyOp3
 70
     1
102
RTVSPropertyOp4
 70
     1
102
RTVSPropertyOp5
 70
     1
102
RTVSPropertyOp6
 70
     1
102
RTVSPropertyOp7
 70
     1
102
RTVSPropertyOp8
 70
     1
102
RTVSPropertyOp9
 70
     1
102
RTVSPropertyOp10
 70
     1
102
RTVSPropertyOp11
 70
     1
102
RTVSPropertyOp12
 70
     1
102
RTVSPropertyOp13
 70
     1
102
RTVSPropertyOp14
 70
     1
102
RTVSPropertyOp15
 70
     1
102
RTVSPropertyOp16
 70
     1
102
RTVSPropertyOp17
 70
     1
102
RTVSPropertyOp18
 70
     1
102
RTVSPropertyOp19
 70
     1
102
RTVSPropertyOp20
 70
     1
102
RTVSPropertyOp21
 70
     1
102
RTVSPropertyOp22
 70
     1
102
RTVSPropertyOp23
 70
     1
102
RTVSPropertyOp24
 70
     1
102
RTVSPropertyOp25
 70
     1
102
RTVSPropertyOp26
 70
     1
102
RTVSPropertyOp27
 70
     1
102
RTVSPropertyOp28
 70
     1
102
RTVSPropertyOp29
 70
     1
102
RTVSPropertyOp30
 70
     1
102
RTVSPropertyOp31
 70
     1
102
RTVSPropertyOp32
 70
     1
102
RTVSPropertyOp33
 70
     1
102
RTVSPropertyOp34
 70
     1
102
RTVSPropertyOp35
 70
     1
102
RTVSPropertyOp36
 70
     1
102
RTVSPropertyOp37
 70
     1
102
RTVSPropertyOp38
 70
     1
102
RTVSPropertyOp39
 70
     1
102
RTVSPropertyOp40
 70
     1
102
RTVSPropertyOp41
 70
     1
102
RTVSPropertyOp42
 70
     1
102
RTVSPropertyOp43
 70
     1
102
RTVSPropertyOp44
 70
     1
102
RTVSPropertyOp45
 70
     1
102
RTVSPropertyOp46
 70
     1
102
RTVSPropertyOp47
 70
     1
102
RTVSPropertyOp48
 70
     1
102
RTVSPropertyOp49
 70
     1
102
RTVSPropertyOp50
 70
     1
102
RTVSPropertyOp51
 70
     0
102
RTVSPropertyOp52
 70
     0
102
RTVSPropertyOp53
 70
     1
102
RTVSPropertyOp54
 70
     1
102
RTVSPropertyOp55
 70
     1
102
RTVSPropertyOp56
 70
     1
102
RTVSPropertyOp57
 70
     1
102
RTVSPropertyOp58
 70
     1
102
RTVSPropertyOp59
 70
     1
102
RTVSPropertyOp60
 70
     1
102
RTVSPropertyOp61
 70
     1
102
RTVSPropertyOp62
 70
     1
  0
XRECORD
  5
708
102
{ACAD_REACTORS
330
707
102
}
330
707
100
AcDbXrecord
280
     1
102
RTVSPost2010Prop28
280
     0
102
RTVSPost2010PropOp28
 70
     1
102
RTVSPost2010Prop29
280
     1
102
RTVSPost2010PropOp29
 70
     1
102
RTVSPost2010Prop30
280
     1
102
RTVSPost2010PropOp30
 70
     1
102
RTVSPost2010Prop31
280
     0
102
RTVSPost2010PropOp31
 70
     1
102
RTVSPost2010Prop32
280
     0
102
RTVSPost2010PropOp32
 70
     1
102
RTVSPost2010Prop33
280
     0
102
RTVSPost2010PropOp33
 70
     1
102
RTVSPost2010Prop34
280
     0
102
RTVSPost2010PropOp34
 70
     1
102
RTVSPost2010Prop35
280
     0
102
RTVSPost2010PropOp35
 70
     1
102
RTVSPost2010Prop36
280
     0
102
RTVSPost2010PropOp36
 70
     1
102
RTVSPost2010Prop37
 90
       50
102
RTVSPost2010PropOp37
 70
     1
102
RTVSPost2010Prop38
140
0.0
102
RTVSPost2010PropOp38
 70
     1
102
RTVSPost2010Prop39
140
1.0
102
RTVSPost2010PropOp39
 70
     1
102
RTVSPost2010Prop40
 90
        0
102
RTVSPost2010PropOp40
 70
     1
102
RTVSPost2010Prop41ColorIndex
 90
       18
102
RTVSPost2010Prop41ColorRGB
 90
        0
102
RTVSPost2010PropOp41
 70
     1
102
RTVSPost2010Prop42
 90
       50
102
RTVSPost2010PropOp42
 70
     1
102
RTVSPost2010Prop43
 90
        3
102
RTVSPost2010PropOp43
 70
     1
102
RTVSPost2010Prop44ColorIndex
 90
        5
102
RTVSPost2010Prop44ColorRGB
 90
      255
102
RTVSPost2010PropOp44
 70
     1
102
RTVSPost2010Prop45
280
     0
102
RTVSPost2010PropOp45
 70
     1
102
RTVSPost2010Prop46
 90
       50
102
RTVSPost2010PropOp46
 70
     1
102
RTVSPost2010Prop47
 90
       50
102
RTVSPost2010PropOp47
 70
     1
102
RTVSPost2010Prop48
 90
       50
102
RTVSPost2010PropOp48
 70
     1
102
RTVSPost2010Prop49
280
     0
102
RTVSPost2010PropOp49
 70
     1
102
RTVSPost2010Prop50
 90
       50
102
RTVSPost2010PropOp50
 70
     1
102
RTVSPost2010Prop51ColorIndex
 90
      256
102
RTVSPost2010Prop51ColorRGB
 90
-16777216
102
RTVSPost2010PropOp51
 70
     0
102
RTVSPost2010Prop52
140
1.0
102
RTVSPost2010PropOp52
 70
     0
102
RTVSPost2010Prop53
 90
        2
102
RTVSPost2010PropOp53
 70
     1
102
RTVSPost2010Prop54
  1
strokes_ogs.tif
102
RTVSPost2010PropOp54
 70
     1
102
RTVSPost2010Prop55
280
     0
102
RTVSPost2010PropOp55
 70
     1
102
RTVSPost2010Prop56
140
1.0
102
RTVSPost2010PropOp56
 70
     1
102
RTVSPost2010Prop57
140
1.0
102
RTVSPost2010PropOp57
 70
     1
102
RTVSPropertyOp0
 70
     1
102
RTVSPropertyOp1
 70
     1
102
RTVSPropertyOp2
 70
     1
102
RTVSPropertyOp3
 70
     1
102
RTVSPropertyOp4
 70
     1
102
RTVSPropertyOp5
 70
     1
102
RTVSPropertyOp6
 70
     1
102
RTVSPropertyOp7
 70
     1
102
RTVSPropertyOp8
 70
     1
102
RTVSPropertyOp9
 70
     1
102
RTVSPropertyOp10
 70
     1
102
RTVSPropertyOp11
 70
     1
102
RTVSPropertyOp12
 70
     1
102
RTVSPropertyOp13
 70
     1
102
RTVSPropertyOp14
 70
     1
102
RTVSPropertyOp15
 70
     1
102
RTVSPropertyOp16
 70
     1
102
RTVSPropertyOp17
 70
     1
102
RTVSPropertyOp18
 70
     1
102
RTVSPropertyOp19
 70
     1
102
RTVSPropertyOp20
 70
     1
102
RTVSPropertyOp21
 70
     1
102
RTVSPropertyOp22
 70
     1
102
RTVSPropertyOp23
 70
     1
102
RTVSPropertyOp24
 70
     1
102
RTVSPropertyOp25
 70
     1
102
RTVSPropertyOp26
 70
     1
102
RTVSPropertyOp27
 70
     1
102
RTVSPropertyOp28
 70
     1
102
RTVSPropertyOp29
 70
     1
102
RTVSPropertyOp30
 70
     1
102
RTVSPropertyOp31
 70
     1
102
RTVSPropertyOp32
 70
     1
102
RTVSPropertyOp33
 70
     1
102
RTVSPropertyOp34
 70
     1
102
RTVSPropertyOp35
 70
     1
102
RTVSPropertyOp36
 70
     1
102
RTVSPropertyOp37
 70
     1
102
RTVSPropertyOp38
 70
     1
102
RTVSPropertyOp39
 70
     1
102
RTVSPropertyOp40
 70
     1
102
RTVSPropertyOp41
 70
     1
102
RTVSPropertyOp42
 70
     1
102
RTVSPropertyOp43
 70
     1
102
RTVSPropertyOp44
 70
     1
102
RTVSPropertyOp45
 70
     1
102
RTVSPropertyOp46
 70
     1
102
RTVSPropertyOp47
 70
     1
102
RTVSPropertyOp48
 70
     1
102
RTVSPropertyOp49
 70
     1
102
RTVSPropertyOp50
 70
     1
102
RTVSPropertyOp51
 70
     0
102
RTVSPropertyOp52
 70
     0
102
RTVSPropertyOp53
 70
     1
102
RTVSPropertyOp54
 70
     1
102
RTVSPropertyOp55
 70
     1
102
RTVSPropertyOp56
 70
     1
102
RTVSPropertyOp57
 70
     1
102
RTVSPropertyOp58
 70
     1
102
RTVSPropertyOp59
 70
     1
102
RTVSPropertyOp60
 70
     1
102
RTVSPropertyOp61
 70
     1
102
RTVSPropertyOp62
 70
     1
  0
XRECORD
  5
710
102
{ACAD_REACTORS
330
70F
102
}
330
70F
100
AcDbXrecord
280
     1
102
RTVSPost2010Prop28
280
     0
102
RTVSPost2010PropOp28
 70
     1
102
RTVSPost2010Prop29
280
     1
102
RTVSPost2010PropOp29
 70
     1
102
RTVSPost2010Prop30
280
     1
102
RTVSPost2010PropOp30
 70
     1
102
RTVSPost2010Prop31
280
     0
102
RTVSPost2010PropOp31
 70
     1
102
RTVSPost2010Prop32
280
     0
102
RTVSPost2010PropOp32
 70
     1
102
RTVSPost2010Prop33
280
     0
102
RTVSPost2010PropOp33
 70
     1
102
RTVSPost2010Prop34
280
     0
102
RTVSPost2010PropOp34
 70
     1
102
RTVSPost2010Prop35
280
     0
102
RTVSPost2010PropOp35
 70
     1
102
RTVSPost2010Prop36
280
     0
102
RTVSPost2010PropOp36
 70
     1
102
RTVSPost2010Prop37
 90
       50
102
RTVSPost2010PropOp37
 70
     1
102
RTVSPost2010Prop38
140
0.0
102
RTVSPost2010PropOp38
 70
     1
102
RTVSPost2010Prop39
140
1.0
102
RTVSPost2010PropOp39
 70
     1
102
RTVSPost2010Prop40
 90
        0
102
RTVSPost2010PropOp40
 70
     1
102
RTVSPost2010Prop41ColorIndex
 90
       18
102
RTVSPost2010Prop41ColorRGB
 90
        0
102
RTVSPost2010PropOp41
 70
     1
102
RTVSPost2010Prop42
 90
       50
102
RTVSPost2010PropOp42
 70
     1
102
RTVSPost2010Prop43
 90
        3
102
RTVSPost2010PropOp43
 70
     1
102
RTVSPost2010Prop44ColorIndex
 90
        5
102
RTVSPost2010Prop44ColorRGB
 90
      255
102
RTVSPost2010PropOp44
 70
     1
102
RTVSPost2010Prop45
280
     0
102
RTVSPost2010PropOp45
 70
     1
102
RTVSPost2010Prop46
 90
       50
102
RTVSPost2010PropOp46
 70
     1
102
RTVSPost2010Prop47
 90
       50
102
RTVSPost2010PropOp47
 70
     1
102
RTVSPost2010Prop48
 90
       50
102
RTVSPost2010PropOp48
 70
     1
102
RTVSPost2010Prop49
280
     0
102
RTVSPost2010PropOp49
 70
     1
102
RTVSPost2010Prop50
 90
       50
102
RTVSPost2010PropOp50
 70
     1
102
RTVSPost2010Prop51ColorIndex
 90
      256
102
RTVSPost2010Prop51ColorRGB
 90
-16777216
102
RTVSPost2010PropOp51
 70
     0
102
RTVSPost2010Prop52
140
1.0
102
RTVSPost2010PropOp52
 70
     0
102
RTVSPost2010Prop53
 90
        2
102
RTVSPost2010PropOp53
 70
     1
102
RTVSPost2010Prop54
  1
strokes_ogs.tif
102
RTVSPost2010PropOp54
 70
     1
102
RTVSPost2010Prop55
280
     0
102
RTVSPost2010PropOp55
 70
     1
102
RTVSPost2010Prop56
140
1.0
102
RTVSPost2010PropOp56
 70
     1
102
RTVSPost2010Prop57
140
1.0
102
RTVSPost2010PropOp57
 70
     1
102
RTVSPropertyOp0
 70
     1
102
RTVSPropertyOp1
 70
     1
102
RTVSPropertyOp2
 70
     1
102
RTVSPropertyOp3
 70
     1
102
RTVSPropertyOp4
 70
     1
102
RTVSPropertyOp5
 70
     1
102
RTVSPropertyOp6
 70
     1
102
RTVSPropertyOp7
 70
     1
102
RTVSPropertyOp8
 70
     1
102
RTVSPropertyOp9
 70
     1
102
RTVSPropertyOp10
 70
     1
102
RTVSPropertyOp11
 70
     1
102
RTVSPropertyOp12
 70
     1
102
RTVSPropertyOp13
 70
     1
102
RTVSPropertyOp14
 70
     1
102
RTVSPropertyOp15
 70
     1
102
RTVSPropertyOp16
 70
     1
102
RTVSPropertyOp17
 70
     1
102
RTVSPropertyOp18
 70
     1
102
RTVSPropertyOp19
 70
     1
102
RTVSPropertyOp20
 70
     1
102
RTVSPropertyOp21
 70
     1
102
RTVSPropertyOp22
 70
     1
102
RTVSPropertyOp23
 70
     1
102
RTVSPropertyOp24
 70
     1
102
RTVSPropertyOp25
 70
     1
102
RTVSPropertyOp26
 70
     1
102
RTVSPropertyOp27
 70
     1
102
RTVSPropertyOp28
 70
     1
102
RTVSPropertyOp29
 70
     1
102
RTVSPropertyOp30
 70
     1
102
RTVSPropertyOp31
 70
     1
102
RTVSPropertyOp32
 70
     1
102
RTVSPropertyOp33
 70
     1
102
RTVSPropertyOp34
 70
     1
102
RTVSPropertyOp35
 70
     1
102
RTVSPropertyOp36
 70
     1
102
RTVSPropertyOp37
 70
     1
102
RTVSPropertyOp38
 70
     1
102
RTVSPropertyOp39
 70
     1
102
RTVSPropertyOp40
 70
     1
102
RTVSPropertyOp41
 70
     1
102
RTVSPropertyOp42
 70
     1
102
RTVSPropertyOp43
 70
     1
102
RTVSPropertyOp44
 70
     1
102
RTVSPropertyOp45
 70
     1
102
RTVSPropertyOp46
 70
     1
102
RTVSPropertyOp47
 70
     1
102
RTVSPropertyOp48
 70
     1
102
RTVSPropertyOp49
 70
     1
102
RTVSPropertyOp50
 70
     1
102
RTVSPropertyOp51
 70
     0
102
RTVSPropertyOp52
 70
     0
102
RTVSPropertyOp53
 70
     1
102
RTVSPropertyOp54
 70
     1
102
RTVSPropertyOp55
 70
     1
102
RTVSPropertyOp56
 70
     1
102
RTVSPropertyOp57
 70
     1
102
RTVSPropertyOp58
 70
     1
102
RTVSPropertyOp59
 70
     1
102
RTVSPropertyOp60
 70
     1
102
RTVSPropertyOp61
 70
     1
102
RTVSPropertyOp62
 70
     1
  0
XRECORD
  5
704
102
{ACAD_REACTORS
330
703
102
}
330
703
100
AcDbXrecord
280
     1
102
RTVSPost2010Prop28
280
     0
102
RTVSPost2010PropOp28
 70
     1
102
RTVSPost2010Prop29
280
     1
102
RTVSPost2010PropOp29
 70
     1
102
RTVSPost2010Prop30
280
     1
102
RTVSPost2010PropOp30
 70
     1
102
RTVSPost2010Prop31
280
     0
102
RTVSPost2010PropOp31
 70
     1
102
RTVSPost2010Prop32
280
     0
102
RTVSPost2010PropOp32
 70
     1
102
RTVSPost2010Prop33
280
     0
102
RTVSPost2010PropOp33
 70
     1
102
RTVSPost2010Prop34
280
     0
102
RTVSPost2010PropOp34
 70
     1
102
RTVSPost2010Prop35
280
     0
102
RTVSPost2010PropOp35
 70
     1
102
RTVSPost2010Prop36
280
     0
102
RTVSPost2010PropOp36
 70
     1
102
RTVSPost2010Prop37
 90
       50
102
RTVSPost2010PropOp37
 70
     1
102
RTVSPost2010Prop38
140
0.0
102
RTVSPost2010PropOp38
 70
     1
102
RTVSPost2010Prop39
140
1.0
102
RTVSPost2010PropOp39
 70
     1
102
RTVSPost2010Prop40
 90
        0
102
RTVSPost2010PropOp40
 70
     1
102
RTVSPost2010Prop41ColorIndex
 90
       18
102
RTVSPost2010Prop41ColorRGB
 90
        0
102
RTVSPost2010PropOp41
 70
     1
102
RTVSPost2010Prop42
 90
       50
102
RTVSPost2010PropOp42
 70
     1
102
RTVSPost2010Prop43
 90
        3
102
RTVSPost2010PropOp43
 70
     1
102
RTVSPost2010Prop44ColorIndex
 90
        5
102
RTVSPost2010Prop44ColorRGB
 90
      255
102
RTVSPost2010PropOp44
 70
     1
102
RTVSPost2010Prop45
280
     0
102
RTVSPost2010PropOp45
 70
     1
102
RTVSPost2010Prop46
 90
       50
102
RTVSPost2010PropOp46
 70
     1
102
RTVSPost2010Prop47
 90
       50
102
RTVSPost2010PropOp47
 70
     1
102
RTVSPost2010Prop48
 90
       50
102
RTVSPost2010PropOp48
 70
     1
102
RTVSPost2010Prop49
280
     0
102
RTVSPost2010PropOp49
 70
     1
102
RTVSPost2010Prop50
 90
       50
102
RTVSPost2010PropOp50
 70
     1
102
RTVSPost2010Prop51ColorIndex
 90
      256
102
RTVSPost2010Prop51ColorRGB
 90
-16777216
102
RTVSPost2010PropOp51
 70
     0
102
RTVSPost2010Prop52
140
1.0
102
RTVSPost2010PropOp52
 70
     0
102
RTVSPost2010Prop53
 90
        2
102
RTVSPost2010PropOp53
 70
     1
102
RTVSPost2010Prop54
  1
strokes_ogs.tif
102
RTVSPost2010PropOp54
 70
     1
102
RTVSPost2010Prop55
280
     0
102
RTVSPost2010PropOp55
 70
     1
102
RTVSPost2010Prop56
140
1.0
102
RTVSPost2010PropOp56
 70
     1
102
RTVSPost2010Prop57
140
1.0
102
RTVSPost2010PropOp57
 70
     1
102
RTVSPropertyOp0
 70
     1
102
RTVSPropertyOp1
 70
     1
102
RTVSPropertyOp2
 70
     1
102
RTVSPropertyOp3
 70
     1
102
RTVSPropertyOp4
 70
     1
102
RTVSPropertyOp5
 70
     1
102
RTVSPropertyOp6
 70
     1
102
RTVSPropertyOp7
 70
     1
102
RTVSPropertyOp8
 70
     1
102
RTVSPropertyOp9
 70
     1
102
RTVSPropertyOp10
 70
     1
102
RTVSPropertyOp11
 70
     1
102
RTVSPropertyOp12
 70
     1
102
RTVSPropertyOp13
 70
     1
102
RTVSPropertyOp14
 70
     1
102
RTVSPropertyOp15
 70
     1
102
RTVSPropertyOp16
 70
     1
102
RTVSPropertyOp17
 70
     1
102
RTVSPropertyOp18
 70
     1
102
RTVSPropertyOp19
 70
     1
102
RTVSPropertyOp20
 70
     1
102
RTVSPropertyOp21
 70
     1
102
RTVSPropertyOp22
 70
     1
102
RTVSPropertyOp23
 70
     1
102
RTVSPropertyOp24
 70
     1
102
RTVSPropertyOp25
 70
     1
102
RTVSPropertyOp26
 70
     1
102
RTVSPropertyOp27
 70
     1
102
RTVSPropertyOp28
 70
     1
102
RTVSPropertyOp29
 70
     1
102
RTVSPropertyOp30
 70
     1
102
RTVSPropertyOp31
 70
     1
102
RTVSPropertyOp32
 70
     1
102
RTVSPropertyOp33
 70
     1
102
RTVSPropertyOp34
 70
     1
102
RTVSPropertyOp35
 70
     1
102
RTVSPropertyOp36
 70
     1
102
RTVSPropertyOp37
 70
     1
102
RTVSPropertyOp38
 70
     1
102
RTVSPropertyOp39
 70
     1
102
RTVSPropertyOp40
 70
     1
102
RTVSPropertyOp41
 70
     1
102
RTVSPropertyOp42
 70
     1
102
RTVSPropertyOp43
 70
     1
102
RTVSPropertyOp44
 70
     1
102
RTVSPropertyOp45
 70
     1
102
RTVSPropertyOp46
 70
     1
102
RTVSPropertyOp47
 70
     1
102
RTVSPropertyOp48
 70
     1
102
RTVSPropertyOp49
 70
     1
102
RTVSPropertyOp50
 70
     1
102
RTVSPropertyOp51
 70
     0
102
RTVSPropertyOp52
 70
     0
102
RTVSPropertyOp53
 70
     1
102
RTVSPropertyOp54
 70
     1
102
RTVSPropertyOp55
 70
     1
102
RTVSPropertyOp56
 70
     1
102
RTVSPropertyOp57
 70
     1
102
RTVSPropertyOp58
 70
     1
102
RTVSPropertyOp59
 70
     1
102
RTVSPropertyOp60
 70
     1
102
RTVSPropertyOp61
 70
     1
102
RTVSPropertyOp62
 70
     1
  0
XRECORD
  5
706
102
{ACAD_REACTORS
330
705
102
}
330
705
100
AcDbXrecord
280
     1
102
RTVSPost2010Prop28
280
     0
102
RTVSPost2010PropOp28
 70
     1
102
RTVSPost2010Prop29
280
     1
102
RTVSPost2010PropOp29
 70
     1
102
RTVSPost2010Prop30
280
     1
102
RTVSPost2010PropOp30
 70
     1
102
RTVSPost2010Prop31
280
     0
102
RTVSPost2010PropOp31
 70
     1
102
RTVSPost2010Prop32
280
     0
102
RTVSPost2010PropOp32
 70
     1
102
RTVSPost2010Prop33
280
     0
102
RTVSPost2010PropOp33
 70
     1
102
RTVSPost2010Prop34
280
     0
102
RTVSPost2010PropOp34
 70
     1
102
RTVSPost2010Prop35
280
     0
102
RTVSPost2010PropOp35
 70
     1
102
RTVSPost2010Prop36
280
     0
102
RTVSPost2010PropOp36
 70
     1
102
RTVSPost2010Prop37
 90
       50
102
RTVSPost2010PropOp37
 70
     1
102
RTVSPost2010Prop38
140
0.0
102
RTVSPost2010PropOp38
 70
     1
102
RTVSPost2010Prop39
140
1.0
102
RTVSPost2010PropOp39
 70
     1
102
RTVSPost2010Prop40
 90
        0
102
RTVSPost2010PropOp40
 70
     1
102
RTVSPost2010Prop41ColorIndex
 90
       18
102
RTVSPost2010Prop41ColorRGB
 90
        0
102
RTVSPost2010PropOp41
 70
     1
102
RTVSPost2010Prop42
 90
       50
102
RTVSPost2010PropOp42
 70
     1
102
RTVSPost2010Prop43
 90
        3
102
RTVSPost2010PropOp43
 70
     1
102
RTVSPost2010Prop44ColorIndex
 90
        5
102
RTVSPost2010Prop44ColorRGB
 90
      255
102
RTVSPost2010PropOp44
 70
     1
102
RTVSPost2010Prop45
280
     0
102
RTVSPost2010PropOp45
 70
     1
102
RTVSPost2010Prop46
 90
       50
102
RTVSPost2010PropOp46
 70
     1
102
RTVSPost2010Prop47
 90
       50
102
RTVSPost2010PropOp47
 70
     1
102
RTVSPost2010Prop48
 90
       50
102
RTVSPost2010PropOp48
 70
     1
102
RTVSPost2010Prop49
280
     0
102
RTVSPost2010PropOp49
 70
     1
102
RTVSPost2010Prop50
 90
       50
102
RTVSPost2010PropOp50
 70
     1
102
RTVSPost2010Prop51ColorIndex
 90
      256
102
RTVSPost2010Prop51ColorRGB
 90
-16777216
102
RTVSPost2010PropOp51
 70
     0
102
RTVSPost2010Prop52
140
1.0
102
RTVSPost2010PropOp52
 70
     0
102
RTVSPost2010Prop53
 90
        2
102
RTVSPost2010PropOp53
 70
     1
102
RTVSPost2010Prop54
  1
strokes_ogs.tif
102
RTVSPost2010PropOp54
 70
     1
102
RTVSPost2010Prop55
280
     0
102
RTVSPost2010PropOp55
 70
     1
102
RTVSPost2010Prop56
140
1.0
102
RTVSPost2010PropOp56
 70
     1
102
RTVSPost2010Prop57
140
1.0
102
RTVSPost2010PropOp57
 70
     1
102
RTVSPropertyOp0
 70
     1
102
RTVSPropertyOp1
 70
     1
102
RTVSPropertyOp2
 70
     1
102
RTVSPropertyOp3
 70
     1
102
RTVSPropertyOp4
 70
     1
102
RTVSPropertyOp5
 70
     1
102
RTVSPropertyOp6
 70
     1
102
RTVSPropertyOp7
 70
     1
102
RTVSPropertyOp8
 70
     1
102
RTVSPropertyOp9
 70
     1
102
RTVSPropertyOp10
 70
     1
102
RTVSPropertyOp11
 70
     1
102
RTVSPropertyOp12
 70
     1
102
RTVSPropertyOp13
 70
     1
102
RTVSPropertyOp14
 70
     1
102
RTVSPropertyOp15
 70
     1
102
RTVSPropertyOp16
 70
     1
102
RTVSPropertyOp17
 70
     1
102
RTVSPropertyOp18
 70
     1
102
RTVSPropertyOp19
 70
     1
102
RTVSPropertyOp20
 70
     1
102
RTVSPropertyOp21
 70
     1
102
RTVSPropertyOp22
 70
     1
102
RTVSPropertyOp23
 70
     1
102
RTVSPropertyOp24
 70
     1
102
RTVSPropertyOp25
 70
     1
102
RTVSPropertyOp26
 70
     1
102
RTVSPropertyOp27
 70
     1
102
RTVSPropertyOp28
 70
     1
102
RTVSPropertyOp29
 70
     1
102
RTVSPropertyOp30
 70
     1
102
RTVSPropertyOp31
 70
     1
102
RTVSPropertyOp32
 70
     1
102
RTVSPropertyOp33
 70
     1
102
RTVSPropertyOp34
 70
     1
102
RTVSPropertyOp35
 70
     1
102
RTVSPropertyOp36
 70
     1
102
RTVSPropertyOp37
 70
     1
102
RTVSPropertyOp38
 70
     1
102
RTVSPropertyOp39
 70
     1
102
RTVSPropertyOp40
 70
     1
102
RTVSPropertyOp41
 70
     1
102
RTVSPropertyOp42
 70
     1
102
RTVSPropertyOp43
 70
     1
102
RTVSPropertyOp44
 70
     1
102
RTVSPropertyOp45
 70
     1
102
RTVSPropertyOp46
 70
     1
102
RTVSPropertyOp47
 70
     1
102
RTVSPropertyOp48
 70
     1
102
RTVSPropertyOp49
 70
     1
102
RTVSPropertyOp50
 70
     1
102
RTVSPropertyOp51
 70
     0
102
RTVSPropertyOp52
 70
     0
102
RTVSPropertyOp53
 70
     1
102
RTVSPropertyOp54
 70
     1
102
RTVSPropertyOp55
 70
     1
102
RTVSPropertyOp56
 70
     1
102
RTVSPropertyOp57
 70
     1
102
RTVSPropertyOp58
 70
     1
102
RTVSPropertyOp59
 70
     1
102
RTVSPropertyOp60
 70
     1
102
RTVSPropertyOp61
 70
     1
102
RTVSPropertyOp62
 70
     1
  0
XRECORD
  5
716
102
{ACAD_REACTORS
330
715
102
}
330
715
100
AcDbXrecord
280
     1
102
RTVSPost2010Prop28
280
     0
102
RTVSPost2010PropOp28
 70
     0
102
RTVSPost2010Prop29
280
     1
102
RTVSPost2010PropOp29
 70
     0
102
RTVSPost2010Prop30
280
     1
102
RTVSPost2010PropOp30
 70
     0
102
RTVSPost2010Prop31
280
     0
102
RTVSPost2010PropOp31
 70
     0
102
RTVSPost2010Prop32
280
     0
102
RTVSPost2010PropOp32
 70
     0
102
RTVSPost2010Prop33
280
     0
102
RTVSPost2010PropOp33
 70
     0
102
RTVSPost2010Prop34
280
     0
102
RTVSPost2010PropOp34
 70
     0
102
RTVSPost2010Prop35
280
     0
102
RTVSPost2010PropOp35
 70
     0
102
RTVSPost2010Prop36
280
     0
102
RTVSPost2010PropOp36
 70
     0
102
RTVSPost2010Prop37
 90
       50
102
RTVSPost2010PropOp37
 70
     0
102
RTVSPost2010Prop38
140
0.0
102
RTVSPost2010PropOp38
 70
     0
102
RTVSPost2010Prop39
140
1.0
102
RTVSPost2010PropOp39
 70
     0
102
RTVSPost2010Prop40
 90
        0
102
RTVSPost2010PropOp40
 70
     0
102
RTVSPost2010Prop41ColorIndex
 90
       18
102
RTVSPost2010Prop41ColorRGB
 90
        0
102
RTVSPost2010PropOp41
 70
     0
102
RTVSPost2010Prop42
 90
       50
102
RTVSPost2010PropOp42
 70
     0
102
RTVSPost2010Prop43
 90
        3
102
RTVSPost2010PropOp43
 70
     0
102
RTVSPost2010Prop44ColorIndex
 90
        5
102
RTVSPost2010Prop44ColorRGB
 90
      255
102
RTVSPost2010PropOp44
 70
     0
102
RTVSPost2010Prop45
280
     0
102
RTVSPost2010PropOp45
 70
     0
102
RTVSPost2010Prop46
 90
       50
102
RTVSPost2010PropOp46
 70
     0
102
RTVSPost2010Prop47
 90
       50
102
RTVSPost2010PropOp47
 70
     0
102
RTVSPost2010Prop48
 90
       50
102
RTVSPost2010PropOp48
 70
     0
102
RTVSPost2010Prop49
280
     0
102
RTVSPost2010PropOp49
 70
     0
102
RTVSPost2010Prop50
 90
       50
102
RTVSPost2010PropOp50
 70
     0
102
RTVSPost2010Prop51ColorIndex
 90
      256
102
RTVSPost2010Prop51ColorRGB
 90
-16777216
102
RTVSPost2010PropOp51
 70
     0
102
RTVSPost2010Prop52
140
1.0
102
RTVSPost2010PropOp52
 70
     0
102
RTVSPost2010Prop53
 90
        2
102
RTVSPost2010PropOp53
 70
     0
102
RTVSPost2010Prop54
  1
strokes_ogs.tif
102
RTVSPost2010PropOp54
 70
     0
102
RTVSPost2010Prop55
280
     0
102
RTVSPost2010PropOp55
 70
     0
102
RTVSPost2010Prop56
140
1.0
102
RTVSPost2010PropOp56
 70
     0
102
RTVSPost2010Prop57
140
1.0
102
RTVSPost2010PropOp57
 70
     0
102
RTVSPropertyOp0
 70
     0
102
RTVSPropertyOp1
 70
     0
102
RTVSPropertyOp2
 70
     0
102
RTVSPropertyOp3
 70
     0
102
RTVSPropertyOp4
 70
     0
102
RTVSPropertyOp5
 70
     0
102
RTVSPropertyOp6
 70
     0
102
RTVSPropertyOp7
 70
     0
102
RTVSPropertyOp8
 70
     0
102
RTVSPropertyOp9
 70
     0
102
RTVSPropertyOp10
 70
     0
102
RTVSPropertyOp11
 70
     0
102
RTVSPropertyOp12
 70
     0
102
RTVSPropertyOp13
 70
     0
102
RTVSPropertyOp14
 70
     2
102
RTVSPropertyOp15
 70
     0
102
RTVSPropertyOp16
 70
     0
102
RTVSPropertyOp17
 70
     0
102
RTVSPropertyOp18
 70
     0
102
RTVSPropertyOp19
 70
     0
102
RTVSPropertyOp20
 70
     0
102
RTVSPropertyOp21
 70
     0
102
RTVSPropertyOp22
 70
     0
102
RTVSPropertyOp23
 70
     0
102
RTVSPropertyOp24
 70
     0
102
RTVSPropertyOp25
 70
     0
102
RTVSPropertyOp26
 70
     0
102
RTVSPropertyOp27
 70
     0
102
RTVSPropertyOp28
 70
     0
102
RTVSPropertyOp29
 70
     0
102
RTVSPropertyOp30
 70
     0
102
RTVSPropertyOp31
 70
     0
102
RTVSPropertyOp32
 70
     0
102
RTVSPropertyOp33
 70
     0
102
RTVSPropertyOp34
 70
     0
102
RTVSPropertyOp35
 70
     0
102
RTVSPropertyOp36
 70
     0
102
RTVSPropertyOp37
 70
     0
102
RTVSPropertyOp38
 70
     0
102
RTVSPropertyOp39
 70
     0
102
RTVSPropertyOp40
 70
     0
102
RTVSPropertyOp41
 70
     0
102
RTVSPropertyOp42
 70
     0
102
RTVSPropertyOp43
 70
     0
102
RTVSPropertyOp44
 70
     0
102
RTVSPropertyOp45
 70
     0
102
RTVSPropertyOp46
 70
     0
102
RTVSPropertyOp47
 70
     0
102
RTVSPropertyOp48
 70
     0
102
RTVSPropertyOp49
 70
     0
102
RTVSPropertyOp50
 70
     0
102
RTVSPropertyOp51
 70
     0
102
RTVSPropertyOp52
 70
     0
102
RTVSPropertyOp53
 70
     0
102
RTVSPropertyOp54
 70
     0
102
RTVSPropertyOp55
 70
     0
102
RTVSPropertyOp56
 70
     0
102
RTVSPropertyOp57
 70
     0
102
RTVSPropertyOp58
 70
     1
102
RTVSPropertyOp59
 70
     1
102
RTVSPropertyOp60
 70
     1
102
RTVSPropertyOp61
 70
     1
102
RTVSPropertyOp62
 70
     1
  0
XRECORD
  5
70E
102
{ACAD_REACTORS
330
70D
102
}
330
70D
100
AcDbXrecord
280
     1
102
RTVSPost2010Prop28
280
     0
102
RTVSPost2010PropOp28
 70
     1
102
RTVSPost2010Prop29
280
     1
102
RTVSPost2010PropOp29
 70
     1
102
RTVSPost2010Prop30
280
     1
102
RTVSPost2010PropOp30
 70
     1
102
RTVSPost2010Prop31
280
     0
102
RTVSPost2010PropOp31
 70
     1
102
RTVSPost2010Prop32
280
     0
102
RTVSPost2010PropOp32
 70
     1
102
RTVSPost2010Prop33
280
     0
102
RTVSPost2010PropOp33
 70
     1
102
RTVSPost2010Prop34
280
     0
102
RTVSPost2010PropOp34
 70
     1
102
RTVSPost2010Prop35
280
     0
102
RTVSPost2010PropOp35
 70
     1
102
RTVSPost2010Prop36
280
     0
102
RTVSPost2010PropOp36
 70
     1
102
RTVSPost2010Prop37
 90
       50
102
RTVSPost2010PropOp37
 70
     1
102
RTVSPost2010Prop38
140
0.0
102
RTVSPost2010PropOp38
 70
     1
102
RTVSPost2010Prop39
140
1.0
102
RTVSPost2010PropOp39
 70
     1
102
RTVSPost2010Prop40
 90
        0
102
RTVSPost2010PropOp40
 70
     1
102
RTVSPost2010Prop41ColorIndex
 90
       18
102
RTVSPost2010Prop41ColorRGB
 90
        0
102
RTVSPost2010PropOp41
 70
     1
102
RTVSPost2010Prop42
 90
       50
102
RTVSPost2010PropOp42
 70
     1
102
RTVSPost2010Prop43
 90
        3
102
RTVSPost2010PropOp43
 70
     1
102
RTVSPost2010Prop44ColorIndex
 90
        5
102
RTVSPost2010Prop44ColorRGB
 90
      255
102
RTVSPost2010PropOp44
 70
     1
102
RTVSPost2010Prop45
280
     0
102
RTVSPost2010PropOp45
 70
     1
102
RTVSPost2010Prop46
 90
       50
102
RTVSPost2010PropOp46
 70
     1
102
RTVSPost2010Prop47
 90
       50
102
RTVSPost2010PropOp47
 70
     1
102
RTVSPost2010Prop48
 90
       50
102
RTVSPost2010PropOp48
 70
     1
102
RTVSPost2010Prop49
280
     0
102
RTVSPost2010PropOp49
 70
     1
102
RTVSPost2010Prop50
 90
       50
102
RTVSPost2010PropOp50
 70
     1
102
RTVSPost2010Prop51ColorIndex
 90
      256
102
RTVSPost2010Prop51ColorRGB
 90
-16777216
102
RTVSPost2010PropOp51
 70
     0
102
RTVSPost2010Prop52
140
1.0
102
RTVSPost2010PropOp52
 70
     0
102
RTVSPost2010Prop53
 90
        2
102
RTVSPost2010PropOp53
 70
     1
102
RTVSPost2010Prop54
  1
strokes_ogs.tif
102
RTVSPost2010PropOp54
 70
     1
102
RTVSPost2010Prop55
280
     0
102
RTVSPost2010PropOp55
 70
     1
102
RTVSPost2010Prop56
140
1.0
102
RTVSPost2010PropOp56
 70
     1
102
RTVSPost2010Prop57
140
1.0
102
RTVSPost2010PropOp57
 70
     1
102
RTVSPropertyOp0
 70
     1
102
RTVSPropertyOp1
 70
     1
102
RTVSPropertyOp2
 70
     1
102
RTVSPropertyOp3
 70
     1
102
RTVSPropertyOp4
 70
     1
102
RTVSPropertyOp5
 70
     1
102
RTVSPropertyOp6
 70
     1
102
RTVSPropertyOp7
 70
     1
102
RTVSPropertyOp8
 70
     1
102
RTVSPropertyOp9
 70
     1
102
RTVSPropertyOp10
 70
     1
102
RTVSPropertyOp11
 70
     1
102
RTVSPropertyOp12
 70
     1
102
RTVSPropertyOp13
 70
     1
102
RTVSPropertyOp14
 70
     1
102
RTVSPropertyOp15
 70
     1
102
RTVSPropertyOp16
 70
     1
102
RTVSPropertyOp17
 70
     1
102
RTVSPropertyOp18
 70
     1
102
RTVSPropertyOp19
 70
     1
102
RTVSPropertyOp20
 70
     1
102
RTVSPropertyOp21
 70
     1
102
RTVSPropertyOp22
 70
     1
102
RTVSPropertyOp23
 70
     1
102
RTVSPropertyOp24
 70
     1
102
RTVSPropertyOp25
 70
     1
102
RTVSPropertyOp26
 70
     1
102
RTVSPropertyOp27
 70
     1
102
RTVSPropertyOp28
 70
     1
102
RTVSPropertyOp29
 70
     1
102
RTVSPropertyOp30
 70
     1
102
RTVSPropertyOp31
 70
     1
102
RTVSPropertyOp32
 70
     1
102
RTVSPropertyOp33
 70
     1
102
RTVSPropertyOp34
 70
     1
102
RTVSPropertyOp35
 70
     1
102
RTVSPropertyOp36
 70
     1
102
RTVSPropertyOp37
 70
     1
102
RTVSPropertyOp38
 70
     1
102
RTVSPropertyOp39
 70
     1
102
RTVSPropertyOp40
 70
     1
102
RTVSPropertyOp41
 70
     1
102
RTVSPropertyOp42
 70
     1
102
RTVSPropertyOp43
 70
     1
102
RTVSPropertyOp44
 70
     1
102
RTVSPropertyOp45
 70
     1
102
RTVSPropertyOp46
 70
     1
102
RTVSPropertyOp47
 70
     1
102
RTVSPropertyOp48
 70
     1
102
RTVSPropertyOp49
 70
     1
102
RTVSPropertyOp50
 70
     1
102
RTVSPropertyOp51
 70
     0
102
RTVSPropertyOp52
 70
     0
102
RTVSPropertyOp53
 70
     1
102
RTVSPropertyOp54
 70
     1
102
RTVSPropertyOp55
 70
     1
102
RTVSPropertyOp56
 70
     1
102
RTVSPropertyOp57
 70
     1
102
RTVSPropertyOp58
 70
     1
102
RTVSPropertyOp59
 70
     1
102
RTVSPropertyOp60
 70
     1
102
RTVSPropertyOp61
 70
     1
102
RTVSPropertyOp62
 70
     1
  0
XRECORD
  5
6F2
102
{ACAD_REACTORS
330
6F1
102
}
330
6F1
100
AcDbXrecord
280
     1
102
RTVSPost2010Prop28
280
     0
102
RTVSPost2010PropOp28
 70
     1
102
RTVSPost2010Prop29
280
     1
102
RTVSPost2010PropOp29
 70
     1
102
RTVSPost2010Prop30
280
     1
102
RTVSPost2010PropOp30
 70
     1
102
RTVSPost2010Prop31
280
     0
102
RTVSPost2010PropOp31
 70
     1
102
RTVSPost2010Prop32
280
     0
102
RTVSPost2010PropOp32
 70
     1
102
RTVSPost2010Prop33
280
     0
102
RTVSPost2010PropOp33
 70
     1
102
RTVSPost2010Prop34
280
     0
102
RTVSPost2010PropOp34
 70
     1
102
RTVSPost2010Prop35
280
     0
102
RTVSPost2010PropOp35
 70
     1
102
RTVSPost2010Prop36
280
     0
102
RTVSPost2010PropOp36
 70
     1
102
RTVSPost2010Prop37
 90
       50
102
RTVSPost2010PropOp37
 70
     1
102
RTVSPost2010Prop38
140
0.0
102
RTVSPost2010PropOp38
 70
     1
102
RTVSPost2010Prop39
140
1.0
102
RTVSPost2010PropOp39
 70
     1
102
RTVSPost2010Prop40
 90
        0
102
RTVSPost2010PropOp40
 70
     1
102
RTVSPost2010Prop41ColorIndex
 90
       18
102
RTVSPost2010Prop41ColorRGB
 90
        0
102
RTVSPost2010PropOp41
 70
     1
102
RTVSPost2010Prop42
 90
       50
102
RTVSPost2010PropOp42
 70
     1
102
RTVSPost2010Prop43
 90
        3
102
RTVSPost2010PropOp43
 70
     1
102
RTVSPost2010Prop44ColorIndex
 90
        5
102
RTVSPost2010Prop44ColorRGB
 90
      255
102
RTVSPost2010PropOp44
 70
     1
102
RTVSPost2010Prop45
280
     0
102
RTVSPost2010PropOp45
 70
     1
102
RTVSPost2010Prop46
 90
       50
102
RTVSPost2010PropOp46
 70
     1
102
RTVSPost2010Prop47
 90
       50
102
RTVSPost2010PropOp47
 70
     1
102
RTVSPost2010Prop48
 90
       50
102
RTVSPost2010PropOp48
 70
     1
102
RTVSPost2010Prop49
280
     0
102
RTVSPost2010PropOp49
 70
     1
102
RTVSPost2010Prop50
 90
       50
102
RTVSPost2010PropOp50
 70
     1
102
RTVSPost2010Prop51ColorIndex
 90
      256
102
RTVSPost2010Prop51ColorRGB
 90
-16777216
102
RTVSPost2010PropOp51
 70
     0
102
RTVSPost2010Prop52
140
1.0
102
RTVSPost2010PropOp52
 70
     0
102
RTVSPost2010Prop53
 90
        2
102
RTVSPost2010PropOp53
 70
     1
102
RTVSPost2010Prop54
  1
strokes_ogs.tif
102
RTVSPost2010PropOp54
 70
     1
102
RTVSPost2010Prop55
280
     0
102
RTVSPost2010PropOp55
 70
     1
102
RTVSPost2010Prop56
140
1.0
102
RTVSPost2010PropOp56
 70
     1
102
RTVSPost2010Prop57
140
1.0
102
RTVSPost2010PropOp57
 70
     1
102
RTVSPropertyOp0
 70
     1
102
RTVSPropertyOp1
 70
     1
102
RTVSPropertyOp2
 70
     1
102
RTVSPropertyOp3
 70
     1
102
RTVSPropertyOp4
 70
     1
102
RTVSPropertyOp5
 70
     1
102
RTVSPropertyOp6
 70
     1
102
RTVSPropertyOp7
 70
     1
102
RTVSPropertyOp8
 70
     1
102
RTVSPropertyOp9
 70
     1
102
RTVSPropertyOp10
 70
     1
102
RTVSPropertyOp11
 70
     1
102
RTVSPropertyOp12
 70
     1
102
RTVSPropertyOp13
 70
     1
102
RTVSPropertyOp14
 70
     1
102
RTVSPropertyOp15
 70
     1
102
RTVSPropertyOp16
 70
     1
102
RTVSPropertyOp17
 70
     1
102
RTVSPropertyOp18
 70
     1
102
RTVSPropertyOp19
 70
     1
102
RTVSPropertyOp20
 70
     1
102
RTVSPropertyOp21
 70
     1
102
RTVSPropertyOp22
 70
     1
102
RTVSPropertyOp23
 70
     1
102
RTVSPropertyOp24
 70
     1
102
RTVSPropertyOp25
 70
     1
102
RTVSPropertyOp26
 70
     1
102
RTVSPropertyOp27
 70
     1
102
RTVSPropertyOp28
 70
     1
102
RTVSPropertyOp29
 70
     1
102
RTVSPropertyOp30
 70
     1
102
RTVSPropertyOp31
 70
     1
102
RTVSPropertyOp32
 70
     1
102
RTVSPropertyOp33
 70
     1
102
RTVSPropertyOp34
 70
     1
102
RTVSPropertyOp35
 70
     1
102
RTVSPropertyOp36
 70
     1
102
RTVSPropertyOp37
 70
     1
102
RTVSPropertyOp38
 70
     1
102
RTVSPropertyOp39
 70
     1
102
RTVSPropertyOp40
 70
     1
102
RTVSPropertyOp41
 70
     1
102
RTVSPropertyOp42
 70
     1
102
RTVSPropertyOp43
 70
     1
102
RTVSPropertyOp44
 70
     1
102
RTVSPropertyOp45
 70
     1
102
RTVSPropertyOp46
 70
     1
102
RTVSPropertyOp47
 70
     1
102
RTVSPropertyOp48
 70
     1
102
RTVSPropertyOp49
 70
     1
102
RTVSPropertyOp50
 70
     1
102
RTVSPropertyOp51
 70
     0
102
RTVSPropertyOp52
 70
     0
102
RTVSPropertyOp53
 70
     1
102
RTVSPropertyOp54
 70
     1
102
RTVSPropertyOp55
 70
     1
102
RTVSPropertyOp56
 70
     1
102
RTVSPropertyOp57
 70
     1
102
RTVSPropertyOp58
 70
     1
102
RTVSPropertyOp59
 70
     1
102
RTVSPropertyOp60
 70
     1
102
RTVSPropertyOp61
 70
     1
102
RTVSPropertyOp62
 70
     1
  0
XRECORD
  5
6F4
102
{ACAD_REACTORS
330
6F3
102
}
330
6F3
100
AcDbXrecord
280
     1
102
RTVSPost2010Prop28
280
     0
102
RTVSPost2010PropOp28
 70
     1
102
RTVSPost2010Prop29
280
     1
102
RTVSPost2010PropOp29
 70
     1
102
RTVSPost2010Prop30
280
     1
102
RTVSPost2010PropOp30
 70
     1
102
RTVSPost2010Prop31
280
     0
102
RTVSPost2010PropOp31
 70
     1
102
RTVSPost2010Prop32
280
     0
102
RTVSPost2010PropOp32
 70
     1
102
RTVSPost2010Prop33
280
     0
102
RTVSPost2010PropOp33
 70
     1
102
RTVSPost2010Prop34
280
     0
102
RTVSPost2010PropOp34
 70
     1
102
RTVSPost2010Prop35
280
     0
102
RTVSPost2010PropOp35
 70
     1
102
RTVSPost2010Prop36
280
     0
102
RTVSPost2010PropOp36
 70
     1
102
RTVSPost2010Prop37
 90
       50
102
RTVSPost2010PropOp37
 70
     1
102
RTVSPost2010Prop38
140
0.0
102
RTVSPost2010PropOp38
 70
     1
102
RTVSPost2010Prop39
140
1.0
102
RTVSPost2010PropOp39
 70
     1
102
RTVSPost2010Prop40
 90
        0
102
RTVSPost2010PropOp40
 70
     1
102
RTVSPost2010Prop41ColorIndex
 90
       18
102
RTVSPost2010Prop41ColorRGB
 90
        0
102
RTVSPost2010PropOp41
 70
     1
102
RTVSPost2010Prop42
 90
       50
102
RTVSPost2010PropOp42
 70
     1
102
RTVSPost2010Prop43
 90
        3
102
RTVSPost2010PropOp43
 70
     1
102
RTVSPost2010Prop44ColorIndex
 90
        5
102
RTVSPost2010Prop44ColorRGB
 90
      255
102
RTVSPost2010PropOp44
 70
     1
102
RTVSPost2010Prop45
280
     0
102
RTVSPost2010PropOp45
 70
     1
102
RTVSPost2010Prop46
 90
       50
102
RTVSPost2010PropOp46
 70
     1
102
RTVSPost2010Prop47
 90
       50
102
RTVSPost2010PropOp47
 70
     1
102
RTVSPost2010Prop48
 90
       50
102
RTVSPost2010PropOp48
 70
     1
102
RTVSPost2010Prop49
280
     0
102
RTVSPost2010PropOp49
 70
     1
102
RTVSPost2010Prop50
 90
       50
102
RTVSPost2010PropOp50
 70
     1
102
RTVSPost2010Prop51ColorIndex
 90
      256
102
RTVSPost2010Prop51ColorRGB
 90
-16777216
102
RTVSPost2010PropOp51
 70
     0
102
RTVSPost2010Prop52
140
1.0
102
RTVSPost2010PropOp52
 70
     0
102
RTVSPost2010Prop53
 90
        2
102
RTVSPost2010PropOp53
 70
     1
102
RTVSPost2010Prop54
  1
strokes_ogs.tif
102
RTVSPost2010PropOp54
 70
     1
102
RTVSPost2010Prop55
280
     0
102
RTVSPost2010PropOp55
 70
     1
102
RTVSPost2010Prop56
140
1.0
102
RTVSPost2010PropOp56
 70
     1
102
RTVSPost2010Prop57
140
1.0
102
RTVSPost2010PropOp57
 70
     1
102
RTVSPropertyOp0
 70
     1
102
RTVSPropertyOp1
 70
     1
102
RTVSPropertyOp2
 70
     1
102
RTVSPropertyOp3
 70
     1
102
RTVSPropertyOp4
 70
     1
102
RTVSPropertyOp5
 70
     1
102
RTVSPropertyOp6
 70
     1
102
RTVSPropertyOp7
 70
     1
102
RTVSPropertyOp8
 70
     1
102
RTVSPropertyOp9
 70
     1
102
RTVSPropertyOp10
 70
     1
102
RTVSPropertyOp11
 70
     1
102
RTVSPropertyOp12
 70
     1
102
RTVSPropertyOp13
 70
     1
102
RTVSPropertyOp14
 70
     1
102
RTVSPropertyOp15
 70
     1
102
RTVSPropertyOp16
 70
     1
102
RTVSPropertyOp17
 70
     1
102
RTVSPropertyOp18
 70
     1
102
RTVSPropertyOp19
 70
     1
102
RTVSPropertyOp20
 70
     1
102
RTVSPropertyOp21
 70
     1
102
RTVSPropertyOp22
 70
     1
102
RTVSPropertyOp23
 70
     1
102
RTVSPropertyOp24
 70
     1
102
RTVSPropertyOp25
 70
     1
102
RTVSPropertyOp26
 70
     1
102
RTVSPropertyOp27
 70
     1
102
RTVSPropertyOp28
 70
     1
102
RTVSPropertyOp29
 70
     1
102
RTVSPropertyOp30
 70
     1
102
RTVSPropertyOp31
 70
     1
102
RTVSPropertyOp32
 70
     1
102
RTVSPropertyOp33
 70
     1
102
RTVSPropertyOp34
 70
     1
102
RTVSPropertyOp35
 70
     1
102
RTVSPropertyOp36
 70
     1
102
RTVSPropertyOp37
 70
     1
102
RTVSPropertyOp38
 70
     1
102
RTVSPropertyOp39
 70
     1
102
RTVSPropertyOp40
 70
     1
102
RTVSPropertyOp41
 70
     1
102
RTVSPropertyOp42
 70
     1
102
RTVSPropertyOp43
 70
     1
102
RTVSPropertyOp44
 70
     1
102
RTVSPropertyOp45
 70
     1
102
RTVSPropertyOp46
 70
     1
102
RTVSPropertyOp47
 70
     1
102
RTVSPropertyOp48
 70
     1
102
RTVSPropertyOp49
 70
     1
102
RTVSPropertyOp50
 70
     1
102
RTVSPropertyOp51
 70
     0
102
RTVSPropertyOp52
 70
     0
102
RTVSPropertyOp53
 70
     1
102
RTVSPropertyOp54
 70
     1
102
RTVSPropertyOp55
 70
     1
102
RTVSPropertyOp56
 70
     1
102
RTVSPropertyOp57
 70
     1
102
RTVSPropertyOp58
 70
     1
102
RTVSPropertyOp59
 70
     1
102
RTVSPropertyOp60
 70
     1
102
RTVSPropertyOp61
 70
     1
102
RTVSPropertyOp62
 70
     1
  0
XRECORD
  5
6F6
102
{ACAD_REACTORS
330
6F5
102
}
330
6F5
100
AcDbXrecord
280
     1
102
RTVSPost2010Prop28
280
     0
102
RTVSPost2010PropOp28
 70
     1
102
RTVSPost2010Prop29
280
     1
102
RTVSPost2010PropOp29
 70
     1
102
RTVSPost2010Prop30
280
     1
102
RTVSPost2010PropOp30
 70
     1
102
RTVSPost2010Prop31
280
     0
102
RTVSPost2010PropOp31
 70
     1
102
RTVSPost2010Prop32
280
     0
102
RTVSPost2010PropOp32
 70
     1
102
RTVSPost2010Prop33
280
     0
102
RTVSPost2010PropOp33
 70
     1
102
RTVSPost2010Prop34
280
     0
102
RTVSPost2010PropOp34
 70
     1
102
RTVSPost2010Prop35
280
     0
102
RTVSPost2010PropOp35
 70
     1
102
RTVSPost2010Prop36
280
     0
102
RTVSPost2010PropOp36
 70
     1
102
RTVSPost2010Prop37
 90
       50
102
RTVSPost2010PropOp37
 70
     1
102
RTVSPost2010Prop38
140
0.0
102
RTVSPost2010PropOp38
 70
     1
102
RTVSPost2010Prop39
140
1.0
102
RTVSPost2010PropOp39
 70
     1
102
RTVSPost2010Prop40
 90
        0
102
RTVSPost2010PropOp40
 70
     1
102
RTVSPost2010Prop41ColorIndex
 90
       18
102
RTVSPost2010Prop41ColorRGB
 90
        0
102
RTVSPost2010PropOp41
 70
     1
102
RTVSPost2010Prop42
 90
       50
102
RTVSPost2010PropOp42
 70
     1
102
RTVSPost2010Prop43
 90
        3
102
RTVSPost2010PropOp43
 70
     1
102
RTVSPost2010Prop44ColorIndex
 90
        5
102
RTVSPost2010Prop44ColorRGB
 90
      255
102
RTVSPost2010PropOp44
 70
     1
102
RTVSPost2010Prop45
280
     0
102
RTVSPost2010PropOp45
 70
     1
102
RTVSPost2010Prop46
 90
       50
102
RTVSPost2010PropOp46
 70
     1
102
RTVSPost2010Prop47
 90
       50
102
RTVSPost2010PropOp47
 70
     1
102
RTVSPost2010Prop48
 90
       50
102
RTVSPost2010PropOp48
 70
     1
102
RTVSPost2010Prop49
280
     0
102
RTVSPost2010PropOp49
 70
     1
102
RTVSPost2010Prop50
 90
       50
102
RTVSPost2010PropOp50
 70
     1
102
RTVSPost2010Prop51ColorIndex
 90
      256
102
RTVSPost2010Prop51ColorRGB
 90
-16777216
102
RTVSPost2010PropOp51
 70
     0
102
RTVSPost2010Prop52
140
1.0
102
RTVSPost2010PropOp52
 70
     0
102
RTVSPost2010Prop53
 90
        2
102
RTVSPost2010PropOp53
 70
     1
102
RTVSPost2010Prop54
  1
strokes_ogs.tif
102
RTVSPost2010PropOp54
 70
     1
102
RTVSPost2010Prop55
280
     0
102
RTVSPost2010PropOp55
 70
     1
102
RTVSPost2010Prop56
140
1.0
102
RTVSPost2010PropOp56
 70
     1
102
RTVSPost2010Prop57
140
1.0
102
RTVSPost2010PropOp57
 70
     1
102
RTVSPropertyOp0
 70
     1
102
RTVSPropertyOp1
 70
     1
102
RTVSPropertyOp2
 70
     1
102
RTVSPropertyOp3
 70
     1
102
RTVSPropertyOp4
 70
     1
102
RTVSPropertyOp5
 70
     1
102
RTVSPropertyOp6
 70
     1
102
RTVSPropertyOp7
 70
     1
102
RTVSPropertyOp8
 70
     1
102
RTVSPropertyOp9
 70
     1
102
RTVSPropertyOp10
 70
     1
102
RTVSPropertyOp11
 70
     1
102
RTVSPropertyOp12
 70
     1
102
RTVSPropertyOp13
 70
     1
102
RTVSPropertyOp14
 70
     1
102
RTVSPropertyOp15
 70
     1
102
RTVSPropertyOp16
 70
     1
102
RTVSPropertyOp17
 70
     1
102
RTVSPropertyOp18
 70
     1
102
RTVSPropertyOp19
 70
     1
102
RTVSPropertyOp20
 70
     1
102
RTVSPropertyOp21
 70
     1
102
RTVSPropertyOp22
 70
     1
102
RTVSPropertyOp23
 70
     1
102
RTVSPropertyOp24
 70
     1
102
RTVSPropertyOp25
 70
     1
102
RTVSPropertyOp26
 70
     1
102
RTVSPropertyOp27
 70
     1
102
RTVSPropertyOp28
 70
     1
102
RTVSPropertyOp29
 70
     1
102
RTVSPropertyOp30
 70
     1
102
RTVSPropertyOp31
 70
     1
102
RTVSPropertyOp32
 70
     1
102
RTVSPropertyOp33
 70
     1
102
RTVSPropertyOp34
 70
     1
102
RTVSPropertyOp35
 70
     1
102
RTVSPropertyOp36
 70
     1
102
RTVSPropertyOp37
 70
     1
102
RTVSPropertyOp38
 70
     1
102
RTVSPropertyOp39
 70
     1
102
RTVSPropertyOp40
 70
     1
102
RTVSPropertyOp41
 70
     1
102
RTVSPropertyOp42
 70
     1
102
RTVSPropertyOp43
 70
     1
102
RTVSPropertyOp44
 70
     1
102
RTVSPropertyOp45
 70
     1
102
RTVSPropertyOp46
 70
     1
102
RTVSPropertyOp47
 70
     1
102
RTVSPropertyOp48
 70
     1
102
RTVSPropertyOp49
 70
     1
102
RTVSPropertyOp50
 70
     1
102
RTVSPropertyOp51
 70
     0
102
RTVSPropertyOp52
 70
     0
102
RTVSPropertyOp53
 70
     1
102
RTVSPropertyOp54
 70
     1
102
RTVSPropertyOp55
 70
     1
102
RTVSPropertyOp56
 70
     1
102
RTVSPropertyOp57
 70
     1
102
RTVSPropertyOp58
 70
     1
102
RTVSPropertyOp59
 70
     1
102
RTVSPropertyOp60
 70
     1
102
RTVSPropertyOp61
 70
     1
102
RTVSPropertyOp62
 70
     1
  0
XRECORD
  5
6F8
102
{ACAD_REACTORS
330
6F7
102
}
330
6F7
100
AcDbXrecord
280
     1
102
RTVSPost2010Prop28
280
     0
102
RTVSPost2010PropOp28
 70
     1
102
RTVSPost2010Prop29
280
     1
102
RTVSPost2010PropOp29
 70
     1
102
RTVSPost2010Prop30
280
     1
102
RTVSPost2010PropOp30
 70
     1
102
RTVSPost2010Prop31
280
     0
102
RTVSPost2010PropOp31
 70
     1
102
RTVSPost2010Prop32
280
     0
102
RTVSPost2010PropOp32
 70
     1
102
RTVSPost2010Prop33
280
     0
102
RTVSPost2010PropOp33
 70
     1
102
RTVSPost2010Prop34
280
     0
102
RTVSPost2010PropOp34
 70
     1
102
RTVSPost2010Prop35
280
     0
102
RTVSPost2010PropOp35
 70
     1
102
RTVSPost2010Prop36
280
     0
102
RTVSPost2010PropOp36
 70
     1
102
RTVSPost2010Prop37
 90
       50
102
RTVSPost2010PropOp37
 70
     1
102
RTVSPost2010Prop38
140
0.0
102
RTVSPost2010PropOp38
 70
     1
102
RTVSPost2010Prop39
140
1.0
102
RTVSPost2010PropOp39
 70
     1
102
RTVSPost2010Prop40
 90
        0
102
RTVSPost2010PropOp40
 70
     1
102
RTVSPost2010Prop41ColorIndex
 90
       18
102
RTVSPost2010Prop41ColorRGB
 90
        0
102
RTVSPost2010PropOp41
 70
     1
102
RTVSPost2010Prop42
 90
       50
102
RTVSPost2010PropOp42
 70
     1
102
RTVSPost2010Prop43
 90
        3
102
RTVSPost2010PropOp43
 70
     1
102
RTVSPost2010Prop44ColorIndex
 90
        5
102
RTVSPost2010Prop44ColorRGB
 90
      255
102
RTVSPost2010PropOp44
 70
     1
102
RTVSPost2010Prop45
280
     0
102
RTVSPost2010PropOp45
 70
     1
102
RTVSPost2010Prop46
 90
       50
102
RTVSPost2010PropOp46
 70
     1
102
RTVSPost2010Prop47
 90
       50
102
RTVSPost2010PropOp47
 70
     1
102
RTVSPost2010Prop48
 90
       50
102
RTVSPost2010PropOp48
 70
     1
102
RTVSPost2010Prop49
280
     0
102
RTVSPost2010PropOp49
 70
     1
102
RTVSPost2010Prop50
 90
       50
102
RTVSPost2010PropOp50
 70
     1
102
RTVSPost2010Prop51ColorIndex
 90
      256
102
RTVSPost2010Prop51ColorRGB
 90
-16777216
102
RTVSPost2010PropOp51
 70
     0
102
RTVSPost2010Prop52
140
1.0
102
RTVSPost2010PropOp52
 70
     0
102
RTVSPost2010Prop53
 90
        2
102
RTVSPost2010PropOp53
 70
     1
102
RTVSPost2010Prop54
  1
strokes_ogs.tif
102
RTVSPost2010PropOp54
 70
     1
102
RTVSPost2010Prop55
280
     0
102
RTVSPost2010PropOp55
 70
     1
102
RTVSPost2010Prop56
140
1.0
102
RTVSPost2010PropOp56
 70
     1
102
RTVSPost2010Prop57
140
1.0
102
RTVSPost2010PropOp57
 70
     1
102
RTVSPropertyOp0
 70
     1
102
RTVSPropertyOp1
 70
     1
102
RTVSPropertyOp2
 70
     1
102
RTVSPropertyOp3
 70
     1
102
RTVSPropertyOp4
 70
     1
102
RTVSPropertyOp5
 70
     1
102
RTVSPropertyOp6
 70
     1
102
RTVSPropertyOp7
 70
     1
102
RTVSPropertyOp8
 70
     1
102
RTVSPropertyOp9
 70
     1
102
RTVSPropertyOp10
 70
     1
102
RTVSPropertyOp11
 70
     1
102
RTVSPropertyOp12
 70
     1
102
RTVSPropertyOp13
 70
     1
102
RTVSPropertyOp14
 70
     1
102
RTVSPropertyOp15
 70
     1
102
RTVSPropertyOp16
 70
     1
102
RTVSPropertyOp17
 70
     1
102
RTVSPropertyOp18
 70
     1
102
RTVSPropertyOp19
 70
     1
102
RTVSPropertyOp20
 70
     1
102
RTVSPropertyOp21
 70
     1
102
RTVSPropertyOp22
 70
     1
102
RTVSPropertyOp23
 70
     1
102
RTVSPropertyOp24
 70
     1
102
RTVSPropertyOp25
 70
     1
102
RTVSPropertyOp26
 70
     1
102
RTVSPropertyOp27
 70
     1
102
RTVSPropertyOp28
 70
     1
102
RTVSPropertyOp29
 70
     1
102
RTVSPropertyOp30
 70
     1
102
RTVSPropertyOp31
 70
     1
102
RTVSPropertyOp32
 70
     1
102
RTVSPropertyOp33
 70
     1
102
RTVSPropertyOp34
 70
     1
102
RTVSPropertyOp35
 70
     1
102
RTVSPropertyOp36
 70
     1
102
RTVSPropertyOp37
 70
     1
102
RTVSPropertyOp38
 70
     1
102
RTVSPropertyOp39
 70
     1
102
RTVSPropertyOp40
 70
     1
102
RTVSPropertyOp41
 70
     1
102
RTVSPropertyOp42
 70
     1
102
RTVSPropertyOp43
 70
     1
102
RTVSPropertyOp44
 70
     1
102
RTVSPropertyOp45
 70
     1
102
RTVSPropertyOp46
 70
     1
102
RTVSPropertyOp47
 70
     1
102
RTVSPropertyOp48
 70
     1
102
RTVSPropertyOp49
 70
     1
102
RTVSPropertyOp50
 70
     1
102
RTVSPropertyOp51
 70
     0
102
RTVSPropertyOp52
 70
     0
102
RTVSPropertyOp53
 70
     1
102
RTVSPropertyOp54
 70
     1
102
RTVSPropertyOp55
 70
     1
102
RTVSPropertyOp56
 70
     1
102
RTVSPropertyOp57
 70
     1
102
RTVSPropertyOp58
 70
     1
102
RTVSPropertyOp59
 70
     1
102
RTVSPropertyOp60
 70
     1
102
RTVSPropertyOp61
 70
     1
102
RTVSPropertyOp62
 70
     1
  0
XRECORD
  5
6FE
102
{ACAD_REACTORS
330
6FD
102
}
330
6FD
100
AcDbXrecord
280
     1
102
RTVSPost2010Prop28
280
     0
102
RTVSPost2010PropOp28
 70
     1
102
RTVSPost2010Prop29
280
     1
102
RTVSPost2010PropOp29
 70
     1
102
RTVSPost2010Prop30
280
     1
102
RTVSPost2010PropOp30
 70
     1
102
RTVSPost2010Prop31
280
     0
102
RTVSPost2010PropOp31
 70
     1
102
RTVSPost2010Prop32
280
     0
102
RTVSPost2010PropOp32
 70
     1
102
RTVSPost2010Prop33
280
     0
102
RTVSPost2010PropOp33
 70
     1
102
RTVSPost2010Prop34
280
     0
102
RTVSPost2010PropOp34
 70
     1
102
RTVSPost2010Prop35
280
     0
102
RTVSPost2010PropOp35
 70
     1
102
RTVSPost2010Prop36
280
     0
102
RTVSPost2010PropOp36
 70
     1
102
RTVSPost2010Prop37
 90
       50
102
RTVSPost2010PropOp37
 70
     1
102
RTVSPost2010Prop38
140
0.0
102
RTVSPost2010PropOp38
 70
     1
102
RTVSPost2010Prop39
140
1.0
102
RTVSPost2010PropOp39
 70
     1
102
RTVSPost2010Prop40
 90
        0
102
RTVSPost2010PropOp40
 70
     1
102
RTVSPost2010Prop41ColorIndex
 90
       18
102
RTVSPost2010Prop41ColorRGB
 90
        0
102
RTVSPost2010PropOp41
 70
     1
102
RTVSPost2010Prop42
 90
       50
102
RTVSPost2010PropOp42
 70
     1
102
RTVSPost2010Prop43
 90
        3
102
RTVSPost2010PropOp43
 70
     1
102
RTVSPost2010Prop44ColorIndex
 90
        5
102
RTVSPost2010Prop44ColorRGB
 90
      255
102
RTVSPost2010PropOp44
 70
     1
102
RTVSPost2010Prop45
280
     0
102
RTVSPost2010PropOp45
 70
     1
102
RTVSPost2010Prop46
 90
       50
102
RTVSPost2010PropOp46
 70
     1
102
RTVSPost2010Prop47
 90
       50
102
RTVSPost2010PropOp47
 70
     1
102
RTVSPost2010Prop48
 90
       50
102
RTVSPost2010PropOp48
 70
     1
102
RTVSPost2010Prop49
280
     0
102
RTVSPost2010PropOp49
 70
     1
102
RTVSPost2010Prop50
 90
       50
102
RTVSPost2010PropOp50
 70
     1
102
RTVSPost2010Prop51ColorIndex
 90
      256
102
RTVSPost2010Prop51ColorRGB
 90
-16777216
102
RTVSPost2010PropOp51
 70
     0
102
RTVSPost2010Prop52
140
1.0
102
RTVSPost2010PropOp52
 70
     0
102
RTVSPost2010Prop53
 90
        2
102
RTVSPost2010PropOp53
 70
     1
102
RTVSPost2010Prop54
  1
strokes_ogs.tif
102
RTVSPost2010PropOp54
 70
     1
102
RTVSPost2010Prop55
280
     0
102
RTVSPost2010PropOp55
 70
     1
102
RTVSPost2010Prop56
140
1.0
102
RTVSPost2010PropOp56
 70
     1
102
RTVSPost2010Prop57
140
1.0
102
RTVSPost2010PropOp57
 70
     1
102
RTVSPropertyOp0
 70
     1
102
RTVSPropertyOp1
 70
     1
102
RTVSPropertyOp2
 70
     1
102
RTVSPropertyOp3
 70
     1
102
RTVSPropertyOp4
 70
     1
102
RTVSPropertyOp5
 70
     1
102
RTVSPropertyOp6
 70
     1
102
RTVSPropertyOp7
 70
     1
102
RTVSPropertyOp8
 70
     1
102
RTVSPropertyOp9
 70
     1
102
RTVSPropertyOp10
 70
     1
102
RTVSPropertyOp11
 70
     1
102
RTVSPropertyOp12
 70
     1
102
RTVSPropertyOp13
 70
     1
102
RTVSPropertyOp14
 70
     1
102
RTVSPropertyOp15
 70
     1
102
RTVSPropertyOp16
 70
     1
102
RTVSPropertyOp17
 70
     1
102
RTVSPropertyOp18
 70
     1
102
RTVSPropertyOp19
 70
     1
102
RTVSPropertyOp20
 70
     1
102
RTVSPropertyOp21
 70
     1
102
RTVSPropertyOp22
 70
     1
102
RTVSPropertyOp23
 70
     1
102
RTVSPropertyOp24
 70
     1
102
RTVSPropertyOp25
 70
     1
102
RTVSPropertyOp26
 70
     1
102
RTVSPropertyOp27
 70
     1
102
RTVSPropertyOp28
 70
     1
102
RTVSPropertyOp29
 70
     1
102
RTVSPropertyOp30
 70
     1
102
RTVSPropertyOp31
 70
     1
102
RTVSPropertyOp32
 70
     1
102
RTVSPropertyOp33
 70
     1
102
RTVSPropertyOp34
 70
     1
102
RTVSPropertyOp35
 70
     1
102
RTVSPropertyOp36
 70
     1
102
RTVSPropertyOp37
 70
     1
102
RTVSPropertyOp38
 70
     1
102
RTVSPropertyOp39
 70
     1
102
RTVSPropertyOp40
 70
     1
102
RTVSPropertyOp41
 70
     1
102
RTVSPropertyOp42
 70
     1
102
RTVSPropertyOp43
 70
     1
102
RTVSPropertyOp44
 70
     1
102
RTVSPropertyOp45
 70
     1
102
RTVSPropertyOp46
 70
     1
102
RTVSPropertyOp47
 70
     1
102
RTVSPropertyOp48
 70
     1
102
RTVSPropertyOp49
 70
     1
102
RTVSPropertyOp50
 70
     1
102
RTVSPropertyOp51
 70
     0
102
RTVSPropertyOp52
 70
     0
102
RTVSPropertyOp53
 70
     1
102
RTVSPropertyOp54
 70
     1
102
RTVSPropertyOp55
 70
     1
102
RTVSPropertyOp56
 70
     1
102
RTVSPropertyOp57
 70
     1
102
RTVSPropertyOp58
 70
     1
102
RTVSPropertyOp59
 70
     1
102
RTVSPropertyOp60
 70
     1
102
RTVSPropertyOp61
 70
     1
102
RTVSPropertyOp62
 70
     1
  0
XRECORD
  5
712
102
{ACAD_REACTORS
330
711
102
}
330
711
100
AcDbXrecord
280
     1
102
RTVSPost2010Prop28
280
     0
102
RTVSPost2010PropOp28
 70
     0
102
RTVSPost2010Prop29
280
     1
102
RTVSPost2010PropOp29
 70
     0
102
RTVSPost2010Prop30
280
     1
102
RTVSPost2010PropOp30
 70
     0
102
RTVSPost2010Prop31
280
     0
102
RTVSPost2010PropOp31
 70
     0
102
RTVSPost2010Prop32
280
     0
102
RTVSPost2010PropOp32
 70
     0
102
RTVSPost2010Prop33
280
     0
102
RTVSPost2010PropOp33
 70
     0
102
RTVSPost2010Prop34
280
     0
102
RTVSPost2010PropOp34
 70
     0
102
RTVSPost2010Prop35
280
     0
102
RTVSPost2010PropOp35
 70
     0
102
RTVSPost2010Prop36
280
     0
102
RTVSPost2010PropOp36
 70
     0
102
RTVSPost2010Prop37
 90
       50
102
RTVSPost2010PropOp37
 70
     0
102
RTVSPost2010Prop38
140
0.0
102
RTVSPost2010PropOp38
 70
     0
102
RTVSPost2010Prop39
140
1.0
102
RTVSPost2010PropOp39
 70
     0
102
RTVSPost2010Prop40
 90
        0
102
RTVSPost2010PropOp40
 70
     0
102
RTVSPost2010Prop41ColorIndex
 90
       18
102
RTVSPost2010Prop41ColorRGB
 90
        0
102
RTVSPost2010PropOp41
 70
     0
102
RTVSPost2010Prop42
 90
       50
102
RTVSPost2010PropOp42
 70
     0
102
RTVSPost2010Prop43
 90
        3
102
RTVSPost2010PropOp43
 70
     0
102
RTVSPost2010Prop44ColorIndex
 90
        5
102
RTVSPost2010Prop44ColorRGB
 90
      255
102
RTVSPost2010PropOp44
 70
     0
102
RTVSPost2010Prop45
280
     0
102
RTVSPost2010PropOp45
 70
     0
102
RTVSPost2010Prop46
 90
       50
102
RTVSPost2010PropOp46
 70
     0
102
RTVSPost2010Prop47
 90
       50
102
RTVSPost2010PropOp47
 70
     0
102
RTVSPost2010Prop48
 90
       50
102
RTVSPost2010PropOp48
 70
     0
102
RTVSPost2010Prop49
280
     0
102
RTVSPost2010PropOp49
 70
     0
102
RTVSPost2010Prop50
 90
       50
102
RTVSPost2010PropOp50
 70
     0
102
RTVSPost2010Prop51ColorIndex
 90
      256
102
RTVSPost2010Prop51ColorRGB
 90
-16777216
102
RTVSPost2010PropOp51
 70
     0
102
RTVSPost2010Prop52
140
1.0
102
RTVSPost2010PropOp52
 70
     0
102
RTVSPost2010Prop53
 90
        2
102
RTVSPost2010PropOp53
 70
     0
102
RTVSPost2010Prop54
  1
strokes_ogs.tif
102
RTVSPost2010PropOp54
 70
     0
102
RTVSPost2010Prop55
280
     0
102
RTVSPost2010PropOp55
 70
     0
102
RTVSPost2010Prop56
140
1.0
102
RTVSPost2010PropOp56
 70
     0
102
RTVSPost2010Prop57
140
1.0
102
RTVSPost2010PropOp57
 70
     0
102
RTVSPropertyOp0
 70
     0
102
RTVSPropertyOp1
 70
     0
102
RTVSPropertyOp2
 70
     0
102
RTVSPropertyOp3
 70
     0
102
RTVSPropertyOp4
 70
     0
102
RTVSPropertyOp5
 70
     0
102
RTVSPropertyOp6
 70
     0
102
RTVSPropertyOp7
 70
     0
102
RTVSPropertyOp8
 70
     0
102
RTVSPropertyOp9
 70
     0
102
RTVSPropertyOp10
 70
     0
102
RTVSPropertyOp11
 70
     0
102
RTVSPropertyOp12
 70
     0
102
RTVSPropertyOp13
 70
     0
102
RTVSPropertyOp14
 70
     2
102
RTVSPropertyOp15
 70
     0
102
RTVSPropertyOp16
 70
     0
102
RTVSPropertyOp17
 70
     0
102
RTVSPropertyOp18
 70
     0
102
RTVSPropertyOp19
 70
     0
102
RTVSPropertyOp20
 70
     0
102
RTVSPropertyOp21
 70
     0
102
RTVSPropertyOp22
 70
     0
102
RTVSPropertyOp23
 70
     0
102
RTVSPropertyOp24
 70
     0
102
RTVSPropertyOp25
 70
     0
102
RTVSPropertyOp26
 70
     0
102
RTVSPropertyOp27
 70
     0
102
RTVSPropertyOp28
 70
     0
102
RTVSPropertyOp29
 70
     0
102
RTVSPropertyOp30
 70
     0
102
RTVSPropertyOp31
 70
     0
102
RTVSPropertyOp32
 70
     0
102
RTVSPropertyOp33
 70
     0
102
RTVSPropertyOp34
 70
     0
102
RTVSPropertyOp35
 70
     0
102
RTVSPropertyOp36
 70
     0
102
RTVSPropertyOp37
 70
     0
102
RTVSPropertyOp38
 70
     0
102
RTVSPropertyOp39
 70
     0
102
RTVSPropertyOp40
 70
     0
102
RTVSPropertyOp41
 70
     0
102
RTVSPropertyOp42
 70
     0
102
RTVSPropertyOp43
 70
     0
102
RTVSPropertyOp44
 70
     0
102
RTVSPropertyOp45
 70
     0
102
RTVSPropertyOp46
 70
     0
102
RTVSPropertyOp47
 70
     0
102
RTVSPropertyOp48
 70
     0
102
RTVSPropertyOp49
 70
     0
102
RTVSPropertyOp50
 70
     0
102
RTVSPropertyOp51
 70
     0
102
RTVSPropertyOp52
 70
     0
102
RTVSPropertyOp53
 70
     0
102
RTVSPropertyOp54
 70
     0
102
RTVSPropertyOp55
 70
     0
102
RTVSPropertyOp56
 70
     0
102
RTVSPropertyOp57
 70
     0
102
RTVSPropertyOp58
 70
     1
102
RTVSPropertyOp59
 70
     1
102
RTVSPropertyOp60
 70
     1
102
RTVSPropertyOp61
 70
     1
102
RTVSPropertyOp62
 70
     1
  0
XRECORD
  5
70C
102
{ACAD_REACTORS
330
70B
102
}
330
70B
100
AcDbXrecord
280
     1
102
RTVSPost2010Prop28
280
     0
102
RTVSPost2010PropOp28
 70
     1
102
RTVSPost2010Prop29
280
     1
102
RTVSPost2010PropOp29
 70
     1
102
RTVSPost2010Prop30
280
     1
102
RTVSPost2010PropOp30
 70
     1
102
RTVSPost2010Prop31
280
     0
102
RTVSPost2010PropOp31
 70
     1
102
RTVSPost2010Prop32
280
     0
102
RTVSPost2010PropOp32
 70
     1
102
RTVSPost2010Prop33
280
     0
102
RTVSPost2010PropOp33
 70
     1
102
RTVSPost2010Prop34
280
     0
102
RTVSPost2010PropOp34
 70
     1
102
RTVSPost2010Prop35
280
     0
102
RTVSPost2010PropOp35
 70
     1
102
RTVSPost2010Prop36
280
     0
102
RTVSPost2010PropOp36
 70
     1
102
RTVSPost2010Prop37
 90
       50
102
RTVSPost2010PropOp37
 70
     1
102
RTVSPost2010Prop38
140
0.0
102
RTVSPost2010PropOp38
 70
     1
102
RTVSPost2010Prop39
140
1.0
102
RTVSPost2010PropOp39
 70
     1
102
RTVSPost2010Prop40
 90
        0
102
RTVSPost2010PropOp40
 70
     1
102
RTVSPost2010Prop41ColorIndex
 90
       18
102
RTVSPost2010Prop41ColorRGB
 90
        0
102
RTVSPost2010PropOp41
 70
     1
102
RTVSPost2010Prop42
 90
       50
102
RTVSPost2010PropOp42
 70
     1
102
RTVSPost2010Prop43
 90
        3
102
RTVSPost2010PropOp43
 70
     1
102
RTVSPost2010Prop44ColorIndex
 90
        5
102
RTVSPost2010Prop44ColorRGB
 90
      255
102
RTVSPost2010PropOp44
 70
     1
102
RTVSPost2010Prop45
280
     0
102
RTVSPost2010PropOp45
 70
     1
102
RTVSPost2010Prop46
 90
       50
102
RTVSPost2010PropOp46
 70
     1
102
RTVSPost2010Prop47
 90
       50
102
RTVSPost2010PropOp47
 70
     1
102
RTVSPost2010Prop48
 90
       50
102
RTVSPost2010PropOp48
 70
     1
102
RTVSPost2010Prop49
280
     0
102
RTVSPost2010PropOp49
 70
     1
102
RTVSPost2010Prop50
 90
       50
102
RTVSPost2010PropOp50
 70
     1
102
RTVSPost2010Prop51ColorIndex
 90
      256
102
RTVSPost2010Prop51ColorRGB
 90
-16777216
102
RTVSPost2010PropOp51
 70
     0
102
RTVSPost2010Prop52
140
1.0
102
RTVSPost2010PropOp52
 70
     0
102
RTVSPost2010Prop53
 90
        2
102
RTVSPost2010PropOp53
 70
     1
102
RTVSPost2010Prop54
  1
strokes_ogs.tif
102
RTVSPost2010PropOp54
 70
     1
102
RTVSPost2010Prop55
280
     0
102
RTVSPost2010PropOp55
 70
     1
102
RTVSPost2010Prop56
140
1.0
102
RTVSPost2010PropOp56
 70
     1
102
RTVSPost2010Prop57
140
1.0
102
RTVSPost2010PropOp57
 70
     1
102
RTVSPropertyOp0
 70
     1
102
RTVSPropertyOp1
 70
     1
102
RTVSPropertyOp2
 70
     1
102
RTVSPropertyOp3
 70
     1
102
RTVSPropertyOp4
 70
     1
102
RTVSPropertyOp5
 70
     1
102
RTVSPropertyOp6
 70
     1
102
RTVSPropertyOp7
 70
     1
102
RTVSPropertyOp8
 70
     1
102
RTVSPropertyOp9
 70
     1
102
RTVSPropertyOp10
 70
     1
102
RTVSPropertyOp11
 70
     1
102
RTVSPropertyOp12
 70
     1
102
RTVSPropertyOp13
 70
     1
102
RTVSPropertyOp14
 70
     1
102
RTVSPropertyOp15
 70
     1
102
RTVSPropertyOp16
 70
     1
102
RTVSPropertyOp17
 70
     1
102
RTVSPropertyOp18
 70
     1
102
RTVSPropertyOp19
 70
     1
102
RTVSPropertyOp20
 70
     1
102
RTVSPropertyOp21
 70
     1
102
RTVSPropertyOp22
 70
     1
102
RTVSPropertyOp23
 70
     1
102
RTVSPropertyOp24
 70
     1
102
RTVSPropertyOp25
 70
     1
102
RTVSPropertyOp26
 70
     1
102
RTVSPropertyOp27
 70
     1
102
RTVSPropertyOp28
 70
     1
102
RTVSPropertyOp29
 70
     1
102
RTVSPropertyOp30
 70
     1
102
RTVSPropertyOp31
 70
     1
102
RTVSPropertyOp32
 70
     1
102
RTVSPropertyOp33
 70
     1
102
RTVSPropertyOp34
 70
     1
102
RTVSPropertyOp35
 70
     1
102
RTVSPropertyOp36
 70
     1
102
RTVSPropertyOp37
 70
     1
102
RTVSPropertyOp38
 70
     1
102
RTVSPropertyOp39
 70
     1
102
RTVSPropertyOp40
 70
     1
102
RTVSPropertyOp41
 70
     1
102
RTVSPropertyOp42
 70
     1
102
RTVSPropertyOp43
 70
     1
102
RTVSPropertyOp44
 70
     1
102
RTVSPropertyOp45
 70
     1
102
RTVSPropertyOp46
 70
     1
102
RTVSPropertyOp47
 70
     1
102
RTVSPropertyOp48
 70
     1
102
RTVSPropertyOp49
 70
     1
102
RTVSPropertyOp50
 70
     1
102
RTVSPropertyOp51
 70
     0
102
RTVSPropertyOp52
 70
     0
102
RTVSPropertyOp53
 70
     1
102
RTVSPropertyOp54
 70
     1
102
RTVSPropertyOp55
 70
     1
102
RTVSPropertyOp56
 70
     1
102
RTVSPropertyOp57
 70
     1
102
RTVSPropertyOp58
 70
     1
102
RTVSPropertyOp59
 70
     1
102
RTVSPropertyOp60
 70
     1
102
RTVSPropertyOp61
 70
     1
102
RTVSPropertyOp62
 70
     1
  0
XRECORD
  5
714
102
{ACAD_REACTORS
330
713
102
}
330
713
100
AcDbXrecord
280
     1
102
RTVSPost2010Prop28
280
     0
102
RTVSPost2010PropOp28
 70
     0
102
RTVSPost2010Prop29
280
     1
102
RTVSPost2010PropOp29
 70
     0
102
RTVSPost2010Prop30
280
     1
102
RTVSPost2010PropOp30
 70
     0
102
RTVSPost2010Prop31
280
     0
102
RTVSPost2010PropOp31
 70
     0
102
RTVSPost2010Prop32
280
     0
102
RTVSPost2010PropOp32
 70
     0
102
RTVSPost2010Prop33
280
     0
102
RTVSPost2010PropOp33
 70
     0
102
RTVSPost2010Prop34
280
     0
102
RTVSPost2010PropOp34
 70
     0
102
RTVSPost2010Prop35
280
     0
102
RTVSPost2010PropOp35
 70
     0
102
RTVSPost2010Prop36
280
     0
102
RTVSPost2010PropOp36
 70
     0
102
RTVSPost2010Prop37
 90
       50
102
RTVSPost2010PropOp37
 70
     0
102
RTVSPost2010Prop38
140
0.0
102
RTVSPost2010PropOp38
 70
     0
102
RTVSPost2010Prop39
140
1.0
102
RTVSPost2010PropOp39
 70
     0
102
RTVSPost2010Prop40
 90
        0
102
RTVSPost2010PropOp40
 70
     0
102
RTVSPost2010Prop41ColorIndex
 90
       18
102
RTVSPost2010Prop41ColorRGB
 90
        0
102
RTVSPost2010PropOp41
 70
     0
102
RTVSPost2010Prop42
 90
       50
102
RTVSPost2010PropOp42
 70
     0
102
RTVSPost2010Prop43
 90
        3
102
RTVSPost2010PropOp43
 70
     0
102
RTVSPost2010Prop44ColorIndex
 90
        5
102
RTVSPost2010Prop44ColorRGB
 90
      255
102
RTVSPost2010PropOp44
 70
     0
102
RTVSPost2010Prop45
280
     0
102
RTVSPost2010PropOp45
 70
     0
102
RTVSPost2010Prop46
 90
       50
102
RTVSPost2010PropOp46
 70
     0
102
RTVSPost2010Prop47
 90
       50
102
RTVSPost2010PropOp47
 70
     0
102
RTVSPost2010Prop48
 90
       50
102
RTVSPost2010PropOp48
 70
     0
102
RTVSPost2010Prop49
280
     0
102
RTVSPost2010PropOp49
 70
     0
102
RTVSPost2010Prop50
 90
       50
102
RTVSPost2010PropOp50
 70
     0
102
RTVSPost2010Prop51ColorIndex
 90
      256
102
RTVSPost2010Prop51ColorRGB
 90
-16777216
102
RTVSPost2010PropOp51
 70
     0
102
RTVSPost2010Prop52
140
1.0
102
RTVSPost2010PropOp52
 70
     0
102
RTVSPost2010Prop53
 90
        2
102
RTVSPost2010PropOp53
 70
     0
102
RTVSPost2010Prop54
  1
strokes_ogs.tif
102
RTVSPost2010PropOp54
 70
     0
102
RTVSPost2010Prop55
280
     0
102
RTVSPost2010PropOp55
 70
     0
102
RTVSPost2010Prop56
140
1.0
102
RTVSPost2010PropOp56
 70
     0
102
RTVSPost2010Prop57
140
1.0
102
RTVSPost2010PropOp57
 70
     0
102
RTVSPropertyOp0
 70
     0
102
RTVSPropertyOp1
 70
     0
102
RTVSPropertyOp2
 70
     0
102
RTVSPropertyOp3
 70
     0
102
RTVSPropertyOp4
 70
     0
102
RTVSPropertyOp5
 70
     0
102
RTVSPropertyOp6
 70
     0
102
RTVSPropertyOp7
 70
     0
102
RTVSPropertyOp8
 70
     0
102
RTVSPropertyOp9
 70
     0
102
RTVSPropertyOp10
 70
     0
102
RTVSPropertyOp11
 70
     0
102
RTVSPropertyOp12
 70
     0
102
RTVSPropertyOp13
 70
     0
102
RTVSPropertyOp14
 70
     2
102
RTVSPropertyOp15
 70
     0
102
RTVSPropertyOp16
 70
     0
102
RTVSPropertyOp17
 70
     0
102
RTVSPropertyOp18
 70
     0
102
RTVSPropertyOp19
 70
     0
102
RTVSPropertyOp20
 70
     0
102
RTVSPropertyOp21
 70
     0
102
RTVSPropertyOp22
 70
     0
102
RTVSPropertyOp23
 70
     0
102
RTVSPropertyOp24
 70
     0
102
RTVSPropertyOp25
 70
     0
102
RTVSPropertyOp26
 70
     0
102
RTVSPropertyOp27
 70
     0
102
RTVSPropertyOp28
 70
     0
102
RTVSPropertyOp29
 70
     0
102
RTVSPropertyOp30
 70
     0
102
RTVSPropertyOp31
 70
     0
102
RTVSPropertyOp32
 70
     0
102
RTVSPropertyOp33
 70
     0
102
RTVSPropertyOp34
 70
     0
102
RTVSPropertyOp35
 70
     0
102
RTVSPropertyOp36
 70
     0
102
RTVSPropertyOp37
 70
     0
102
RTVSPropertyOp38
 70
     0
102
RTVSPropertyOp39
 70
     0
102
RTVSPropertyOp40
 70
     0
102
RTVSPropertyOp41
 70
     0
102
RTVSPropertyOp42
 70
     0
102
RTVSPropertyOp43
 70
     0
102
RTVSPropertyOp44
 70
     0
102
RTVSPropertyOp45
 70
     0
102
RTVSPropertyOp46
 70
     0
102
RTVSPropertyOp47
 70
     0
102
RTVSPropertyOp48
 70
     0
102
RTVSPropertyOp49
 70
     0
102
RTVSPropertyOp50
 70
     0
102
RTVSPropertyOp51
 70
     0
102
RTVSPropertyOp52
 70
     0
102
RTVSPropertyOp53
 70
     0
102
RTVSPropertyOp54
 70
     0
102
RTVSPropertyOp55
 70
     0
102
RTVSPropertyOp56
 70
     0
102
RTVSPropertyOp57
 70
     0
102
RTVSPropertyOp58
 70
     1
102
RTVSPropertyOp59
 70
     1
102
RTVSPropertyOp60
 70
     1
102
RTVSPropertyOp61
 70
     1
102
RTVSPropertyOp62
 70
     1
  0
XRECORD
  5
702
102
{ACAD_REACTORS
330
701
102
}
330
701
100
AcDbXrecord
280
     1
102
RTVSPost2010Prop28
280
     0
102
RTVSPost2010PropOp28
 70
     1
102
RTVSPost2010Prop29
280
     1
102
RTVSPost2010PropOp29
 70
     1
102
RTVSPost2010Prop30
280
     1
102
RTVSPost2010PropOp30
 70
     1
102
RTVSPost2010Prop31
280
     0
102
RTVSPost2010PropOp31
 70
     1
102
RTVSPost2010Prop32
280
     0
102
RTVSPost2010PropOp32
 70
     1
102
RTVSPost2010Prop33
280
     0
102
RTVSPost2010PropOp33
 70
     1
102
RTVSPost2010Prop34
280
     0
102
RTVSPost2010PropOp34
 70
     1
102
RTVSPost2010Prop35
280
     0
102
RTVSPost2010PropOp35
 70
     1
102
RTVSPost2010Prop36
280
     0
102
RTVSPost2010PropOp36
 70
     1
102
RTVSPost2010Prop37
 90
       50
102
RTVSPost2010PropOp37
 70
     1
102
RTVSPost2010Prop38
140
0.0
102
RTVSPost2010PropOp38
 70
     1
102
RTVSPost2010Prop39
140
1.0
102
RTVSPost2010PropOp39
 70
     1
102
RTVSPost2010Prop40
 90
        0
102
RTVSPost2010PropOp40
 70
     1
102
RTVSPost2010Prop41ColorIndex
 90
       18
102
RTVSPost2010Prop41ColorRGB
 90
        0
102
RTVSPost2010PropOp41
 70
     1
102
RTVSPost2010Prop42
 90
       50
102
RTVSPost2010PropOp42
 70
     1
102
RTVSPost2010Prop43
 90
        3
102
RTVSPost2010PropOp43
 70
     1
102
RTVSPost2010Prop44ColorIndex
 90
        5
102
RTVSPost2010Prop44ColorRGB
 90
      255
102
RTVSPost2010PropOp44
 70
     1
102
RTVSPost2010Prop45
280
     0
102
RTVSPost2010PropOp45
 70
     1
102
RTVSPost2010Prop46
 90
       50
102
RTVSPost2010PropOp46
 70
     1
102
RTVSPost2010Prop47
 90
       50
102
RTVSPost2010PropOp47
 70
     1
102
RTVSPost2010Prop48
 90
       50
102
RTVSPost2010PropOp48
 70
     1
102
RTVSPost2010Prop49
280
     0
102
RTVSPost2010PropOp49
 70
     1
102
RTVSPost2010Prop50
 90
       50
102
RTVSPost2010PropOp50
 70
     1
102
RTVSPost2010Prop51ColorIndex
 90
      256
102
RTVSPost2010Prop51ColorRGB
 90
-16777216
102
RTVSPost2010PropOp51
 70
     0
102
RTVSPost2010Prop52
140
1.0
102
RTVSPost2010PropOp52
 70
     0
102
RTVSPost2010Prop53
 90
        2
102
RTVSPost2010PropOp53
 70
     1
102
RTVSPost2010Prop54
  1
strokes_ogs.tif
102
RTVSPost2010PropOp54
 70
     1
102
RTVSPost2010Prop55
280
     0
102
RTVSPost2010PropOp55
 70
     1
102
RTVSPost2010Prop56
140
1.0
102
RTVSPost2010PropOp56
 70
     1
102
RTVSPost2010Prop57
140
1.0
102
RTVSPost2010PropOp57
 70
     1
102
RTVSPropertyOp0
 70
     1
102
RTVSPropertyOp1
 70
     1
102
RTVSPropertyOp2
 70
     1
102
RTVSPropertyOp3
 70
     1
102
RTVSPropertyOp4
 70
     1
102
RTVSPropertyOp5
 70
     1
102
RTVSPropertyOp6
 70
     1
102
RTVSPropertyOp7
 70
     1
102
RTVSPropertyOp8
 70
     1
102
RTVSPropertyOp9
 70
     1
102
RTVSPropertyOp10
 70
     1
102
RTVSPropertyOp11
 70
     1
102
RTVSPropertyOp12
 70
     1
102
RTVSPropertyOp13
 70
     1
102
RTVSPropertyOp14
 70
     1
102
RTVSPropertyOp15
 70
     1
102
RTVSPropertyOp16
 70
     1
102
RTVSPropertyOp17
 70
     1
102
RTVSPropertyOp18
 70
     1
102
RTVSPropertyOp19
 70
     1
102
RTVSPropertyOp20
 70
     1
102
RTVSPropertyOp21
 70
     1
102
RTVSPropertyOp22
 70
     1
102
RTVSPropertyOp23
 70
     1
102
RTVSPropertyOp24
 70
     1
102
RTVSPropertyOp25
 70
     1
102
RTVSPropertyOp26
 70
     1
102
RTVSPropertyOp27
 70
     1
102
RTVSPropertyOp28
 70
     1
102
RTVSPropertyOp29
 70
     1
102
RTVSPropertyOp30
 70
     1
102
RTVSPropertyOp31
 70
     1
102
RTVSPropertyOp32
 70
     1
102
RTVSPropertyOp33
 70
     1
102
RTVSPropertyOp34
 70
     1
102
RTVSPropertyOp35
 70
     1
102
RTVSPropertyOp36
 70
     1
102
RTVSPropertyOp37
 70
     1
102
RTVSPropertyOp38
 70
     1
102
RTVSPropertyOp39
 70
     1
102
RTVSPropertyOp40
 70
     1
102
RTVSPropertyOp41
 70
     1
102
RTVSPropertyOp42
 70
     1
102
RTVSPropertyOp43
 70
     1
102
RTVSPropertyOp44
 70
     1
102
RTVSPropertyOp45
 70
     1
102
RTVSPropertyOp46
 70
     1
102
RTVSPropertyOp47
 70
     1
102
RTVSPropertyOp48
 70
     1
102
RTVSPropertyOp49
 70
     1
102
RTVSPropertyOp50
 70
     1
102
RTVSPropertyOp51
 70
     0
102
RTVSPropertyOp52
 70
     0
102
RTVSPropertyOp53
 70
     1
102
RTVSPropertyOp54
 70
     1
102
RTVSPropertyOp55
 70
     1
102
RTVSPropertyOp56
 70
     1
102
RTVSPropertyOp57
 70
     1
102
RTVSPropertyOp58
 70
     1
102
RTVSPropertyOp59
 70
     1
102
RTVSPropertyOp60
 70
     1
102
RTVSPropertyOp61
 70
     1
102
RTVSPropertyOp62
 70
     1
  0
XRECORD
  5
720
102
{ACAD_REACTORS
330
71F
102
}
330
71F
100
AcDbXrecord
280
     1
102
RTVSPost2010Prop28
280
     0
102
RTVSPost2010PropOp28
 70
     1
102
RTVSPost2010Prop29
280
     1
102
RTVSPost2010PropOp29
 70
     1
102
RTVSPost2010Prop30
280
     1
102
RTVSPost2010PropOp30
 70
     1
102
RTVSPost2010Prop31
280
     0
102
RTVSPost2010PropOp31
 70
     1
102
RTVSPost2010Prop32
280
     0
102
RTVSPost2010PropOp32
 70
     1
102
RTVSPost2010Prop33
280
     0
102
RTVSPost2010PropOp33
 70
     1
102
RTVSPost2010Prop34
280
     0
102
RTVSPost2010PropOp34
 70
     1
102
RTVSPost2010Prop35
280
     0
102
RTVSPost2010PropOp35
 70
     1
102
RTVSPost2010Prop36
280
     0
102
RTVSPost2010PropOp36
 70
     1
102
RTVSPost2010Prop37
 90
       50
102
RTVSPost2010PropOp37
 70
     1
102
RTVSPost2010Prop38
140
0.0
102
RTVSPost2010PropOp38
 70
     1
102
RTVSPost2010Prop39
140
1.0
102
RTVSPost2010PropOp39
 70
     1
102
RTVSPost2010Prop40
 90
        0
102
RTVSPost2010PropOp40
 70
     1
102
RTVSPost2010Prop41ColorIndex
 90
       18
102
RTVSPost2010Prop41ColorRGB
 90
        0
102
RTVSPost2010PropOp41
 70
     1
102
RTVSPost2010Prop42
 90
       50
102
RTVSPost2010PropOp42
 70
     1
102
RTVSPost2010Prop43
 90
        3
102
RTVSPost2010PropOp43
 70
     1
102
RTVSPost2010Prop44ColorIndex
 90
        5
102
RTVSPost2010Prop44ColorRGB
 90
      255
102
RTVSPost2010PropOp44
 70
     1
102
RTVSPost2010Prop45
280
     0
102
RTVSPost2010PropOp45
 70
     1
102
RTVSPost2010Prop46
 90
       50
102
RTVSPost2010PropOp46
 70
     1
102
RTVSPost2010Prop47
 90
       50
102
RTVSPost2010PropOp47
 70
     1
102
RTVSPost2010Prop48
 90
       50
102
RTVSPost2010PropOp48
 70
     1
102
RTVSPost2010Prop49
280
     0
102
RTVSPost2010PropOp49
 70
     1
102
RTVSPost2010Prop50
 90
       50
102
RTVSPost2010PropOp50
 70
     1
102
RTVSPost2010Prop51ColorIndex
 90
      256
102
RTVSPost2010Prop51ColorRGB
 90
-16777216
102
RTVSPost2010PropOp51
 70
     0
102
RTVSPost2010Prop52
140
1.0
102
RTVSPost2010PropOp52
 70
     0
102
RTVSPost2010Prop53
 90
        2
102
RTVSPost2010PropOp53
 70
     1
102
RTVSPost2010Prop54
  1
strokes_ogs.tif
102
RTVSPost2010PropOp54
 70
     1
102
RTVSPost2010Prop55
280
     0
102
RTVSPost2010PropOp55
 70
     1
102
RTVSPost2010Prop56
140
1.0
102
RTVSPost2010PropOp56
 70
     1
102
RTVSPost2010Prop57
140
1.0
102
RTVSPost2010PropOp57
 70
     1
102
RTVSPropertyOp0
 70
     1
102
RTVSPropertyOp1
 70
     1
102
RTVSPropertyOp2
 70
     1
102
RTVSPropertyOp3
 70
     1
102
RTVSPropertyOp4
 70
     1
102
RTVSPropertyOp5
 70
     1
102
RTVSPropertyOp6
 70
     1
102
RTVSPropertyOp7
 70
     1
102
RTVSPropertyOp8
 70
     1
102
RTVSPropertyOp9
 70
     1
102
RTVSPropertyOp10
 70
     1
102
RTVSPropertyOp11
 70
     1
102
RTVSPropertyOp12
 70
     1
102
RTVSPropertyOp13
 70
     1
102
RTVSPropertyOp14
 70
     1
102
RTVSPropertyOp15
 70
     1
102
RTVSPropertyOp16
 70
     1
102
RTVSPropertyOp17
 70
     1
102
RTVSPropertyOp18
 70
     1
102
RTVSPropertyOp19
 70
     1
102
RTVSPropertyOp20
 70
     1
102
RTVSPropertyOp21
 70
     1
102
RTVSPropertyOp22
 70
     1
102
RTVSPropertyOp23
 70
     1
102
RTVSPropertyOp24
 70
     1
102
RTVSPropertyOp25
 70
     1
102
RTVSPropertyOp26
 70
     1
102
RTVSPropertyOp27
 70
     1
102
RTVSPropertyOp28
 70
     1
102
RTVSPropertyOp29
 70
     1
102
RTVSPropertyOp30
 70
     1
102
RTVSPropertyOp31
 70
     1
102
RTVSPropertyOp32
 70
     1
102
RTVSPropertyOp33
 70
     1
102
RTVSPropertyOp34
 70
     1
102
RTVSPropertyOp35
 70
     1
102
RTVSPropertyOp36
 70
     1
102
RTVSPropertyOp37
 70
     1
102
RTVSPropertyOp38
 70
     1
102
RTVSPropertyOp39
 70
     1
102
RTVSPropertyOp40
 70
     1
102
RTVSPropertyOp41
 70
     1
102
RTVSPropertyOp42
 70
     1
102
RTVSPropertyOp43
 70
     1
102
RTVSPropertyOp44
 70
     1
102
RTVSPropertyOp45
 70
     1
102
RTVSPropertyOp46
 70
     1
102
RTVSPropertyOp47
 70
     1
102
RTVSPropertyOp48
 70
     1
102
RTVSPropertyOp49
 70
     1
102
RTVSPropertyOp50
 70
     1
102
RTVSPropertyOp51
 70
     0
102
RTVSPropertyOp52
 70
     0
102
RTVSPropertyOp53
 70
     1
102
RTVSPropertyOp54
 70
     1
102
RTVSPropertyOp55
 70
     1
102
RTVSPropertyOp56
 70
     1
102
RTVSPropertyOp57
 70
     1
102
RTVSPropertyOp58
 70
     1
102
RTVSPropertyOp59
 70
     1
102
RTVSPropertyOp60
 70
     1
102
RTVSPropertyOp61
 70
     1
102
RTVSPropertyOp62
 70
     1
  0
XRECORD
  5
71E
102
{ACAD_REACTORS
330
71D
102
}
330
71D
100
AcDbXrecord
280
     1
102
RTVSPost2010Prop28
280
     0
102
RTVSPost2010PropOp28
 70
     1
102
RTVSPost2010Prop29
280
     1
102
RTVSPost2010PropOp29
 70
     1
102
RTVSPost2010Prop30
280
     1
102
RTVSPost2010PropOp30
 70
     1
102
RTVSPost2010Prop31
280
     0
102
RTVSPost2010PropOp31
 70
     1
102
RTVSPost2010Prop32
280
     0
102
RTVSPost2010PropOp32
 70
     1
102
RTVSPost2010Prop33
280
     0
102
RTVSPost2010PropOp33
 70
     1
102
RTVSPost2010Prop34
280
     0
102
RTVSPost2010PropOp34
 70
     1
102
RTVSPost2010Prop35
280
     0
102
RTVSPost2010PropOp35
 70
     1
102
RTVSPost2010Prop36
280
     0
102
RTVSPost2010PropOp36
 70
     1
102
RTVSPost2010Prop37
 90
       50
102
RTVSPost2010PropOp37
 70
     1
102
RTVSPost2010Prop38
140
0.0
102
RTVSPost2010PropOp38
 70
     1
102
RTVSPost2010Prop39
140
1.0
102
RTVSPost2010PropOp39
 70
     1
102
RTVSPost2010Prop40
 90
        0
102
RTVSPost2010PropOp40
 70
     1
102
RTVSPost2010Prop41ColorIndex
 90
       18
102
RTVSPost2010Prop41ColorRGB
 90
        0
102
RTVSPost2010PropOp41
 70
     1
102
RTVSPost2010Prop42
 90
       50
102
RTVSPost2010PropOp42
 70
     1
102
RTVSPost2010Prop43
 90
        3
102
RTVSPost2010PropOp43
 70
     1
102
RTVSPost2010Prop44ColorIndex
 90
        5
102
RTVSPost2010Prop44ColorRGB
 90
      255
102
RTVSPost2010PropOp44
 70
     1
102
RTVSPost2010Prop45
280
     0
102
RTVSPost2010PropOp45
 70
     1
102
RTVSPost2010Prop46
 90
       50
102
RTVSPost2010PropOp46
 70
     1
102
RTVSPost2010Prop47
 90
       50
102
RTVSPost2010PropOp47
 70
     1
102
RTVSPost2010Prop48
 90
       50
102
RTVSPost2010PropOp48
 70
     1
102
RTVSPost2010Prop49
280
     0
102
RTVSPost2010PropOp49
 70
     1
102
RTVSPost2010Prop50
 90
       50
102
RTVSPost2010PropOp50
 70
     1
102
RTVSPost2010Prop51ColorIndex
 90
      256
102
RTVSPost2010Prop51ColorRGB
 90
-16777216
102
RTVSPost2010PropOp51
 70
     0
102
RTVSPost2010Prop52
140
1.0
102
RTVSPost2010PropOp52
 70
     0
102
RTVSPost2010Prop53
 90
        2
102
RTVSPost2010PropOp53
 70
     1
102
RTVSPost2010Prop54
  1
strokes_ogs.tif
102
RTVSPost2010PropOp54
 70
     1
102
RTVSPost2010Prop55
280
     0
102
RTVSPost2010PropOp55
 70
     1
102
RTVSPost2010Prop56
140
1.0
102
RTVSPost2010PropOp56
 70
     1
102
RTVSPost2010Prop57
140
1.0
102
RTVSPost2010PropOp57
 70
     1
102
RTVSPropertyOp0
 70
     1
102
RTVSPropertyOp1
 70
     1
102
RTVSPropertyOp2
 70
     1
102
RTVSPropertyOp3
 70
     1
102
RTVSPropertyOp4
 70
     1
102
RTVSPropertyOp5
 70
     1
102
RTVSPropertyOp6
 70
     1
102
RTVSPropertyOp7
 70
     1
102
RTVSPropertyOp8
 70
     1
102
RTVSPropertyOp9
 70
     1
102
RTVSPropertyOp10
 70
     1
102
RTVSPropertyOp11
 70
     1
102
RTVSPropertyOp12
 70
     1
102
RTVSPropertyOp13
 70
     1
102
RTVSPropertyOp14
 70
     1
102
RTVSPropertyOp15
 70
     1
102
RTVSPropertyOp16
 70
     1
102
RTVSPropertyOp17
 70
     1
102
RTVSPropertyOp18
 70
     1
102
RTVSPropertyOp19
 70
     1
102
RTVSPropertyOp20
 70
     1
102
RTVSPropertyOp21
 70
     1
102
RTVSPropertyOp22
 70
     1
102
RTVSPropertyOp23
 70
     1
102
RTVSPropertyOp24
 70
     1
102
RTVSPropertyOp25
 70
     1
102
RTVSPropertyOp26
 70
     1
102
RTVSPropertyOp27
 70
     1
102
RTVSPropertyOp28
 70
     1
102
RTVSPropertyOp29
 70
     1
102
RTVSPropertyOp30
 70
     1
102
RTVSPropertyOp31
 70
     1
102
RTVSPropertyOp32
 70
     1
102
RTVSPropertyOp33
 70
     1
102
RTVSPropertyOp34
 70
     1
102
RTVSPropertyOp35
 70
     1
102
RTVSPropertyOp36
 70
     1
102
RTVSPropertyOp37
 70
     1
102
RTVSPropertyOp38
 70
     1
102
RTVSPropertyOp39
 70
     1
102
RTVSPropertyOp40
 70
     1
102
RTVSPropertyOp41
 70
     1
102
RTVSPropertyOp42
 70
     1
102
RTVSPropertyOp43
 70
     1
102
RTVSPropertyOp44
 70
     1
102
RTVSPropertyOp45
 70
     1
102
RTVSPropertyOp46
 70
     1
102
RTVSPropertyOp47
 70
     1
102
RTVSPropertyOp48
 70
     1
102
RTVSPropertyOp49
 70
     1
102
RTVSPropertyOp50
 70
     1
102
RTVSPropertyOp51
 70
     0
102
RTVSPropertyOp52
 70
     0
102
RTVSPropertyOp53
 70
     1
102
RTVSPropertyOp54
 70
     1
102
RTVSPropertyOp55
 70
     1
102
RTVSPropertyOp56
 70
     1
102
RTVSPropertyOp57
 70
     1
102
RTVSPropertyOp58
 70
     1
102
RTVSPropertyOp59
 70
     1
102
RTVSPropertyOp60
 70
     1
102
RTVSPropertyOp61
 70
     1
102
RTVSPropertyOp62
 70
     1
  0
XRECORD
  5
718
102
{ACAD_REACTORS
330
717
102
}
330
717
100
AcDbXrecord
280
     1
102
RTVSPost2010Prop28
280
     0
102
RTVSPost2010PropOp28
 70
     1
102
RTVSPost2010Prop29
280
     1
102
RTVSPost2010PropOp29
 70
     1
102
RTVSPost2010Prop30
280
     1
102
RTVSPost2010PropOp30
 70
     1
102
RTVSPost2010Prop31
280
     0
102
RTVSPost2010PropOp31
 70
     1
102
RTVSPost2010Prop32
280
     0
102
RTVSPost2010PropOp32
 70
     1
102
RTVSPost2010Prop33
280
     0
102
RTVSPost2010PropOp33
 70
     1
102
RTVSPost2010Prop34
280
     0
102
RTVSPost2010PropOp34
 70
     1
102
RTVSPost2010Prop35
280
     0
102
RTVSPost2010PropOp35
 70
     1
102
RTVSPost2010Prop36
280
     0
102
RTVSPost2010PropOp36
 70
     1
102
RTVSPost2010Prop37
 90
       50
102
RTVSPost2010PropOp37
 70
     1
102
RTVSPost2010Prop38
140
0.0
102
RTVSPost2010PropOp38
 70
     1
102
RTVSPost2010Prop39
140
1.0
102
RTVSPost2010PropOp39
 70
     1
102
RTVSPost2010Prop40
 90
        0
102
RTVSPost2010PropOp40
 70
     1
102
RTVSPost2010Prop41ColorIndex
 90
       18
102
RTVSPost2010Prop41ColorRGB
 90
        0
102
RTVSPost2010PropOp41
 70
     1
102
RTVSPost2010Prop42
 90
       50
102
RTVSPost2010PropOp42
 70
     1
102
RTVSPost2010Prop43
 90
        3
102
RTVSPost2010PropOp43
 70
     1
102
RTVSPost2010Prop44ColorIndex
 90
        5
102
RTVSPost2010Prop44ColorRGB
 90
      255
102
RTVSPost2010PropOp44
 70
     1
102
RTVSPost2010Prop45
280
     0
102
RTVSPost2010PropOp45
 70
     1
102
RTVSPost2010Prop46
 90
       50
102
RTVSPost2010PropOp46
 70
     1
102
RTVSPost2010Prop47
 90
       50
102
RTVSPost2010PropOp47
 70
     1
102
RTVSPost2010Prop48
 90
       50
102
RTVSPost2010PropOp48
 70
     1
102
RTVSPost2010Prop49
280
     0
102
RTVSPost2010PropOp49
 70
     1
102
RTVSPost2010Prop50
 90
       50
102
RTVSPost2010PropOp50
 70
     1
102
RTVSPost2010Prop51ColorIndex
 90
      256
102
RTVSPost2010Prop51ColorRGB
 90
-16777216
102
RTVSPost2010PropOp51
 70
     0
102
RTVSPost2010Prop52
140
1.0
102
RTVSPost2010PropOp52
 70
     0
102
RTVSPost2010Prop53
 90
        2
102
RTVSPost2010PropOp53
 70
     1
102
RTVSPost2010Prop54
  1
strokes_ogs.tif
102
RTVSPost2010PropOp54
 70
     1
102
RTVSPost2010Prop55
280
     0
102
RTVSPost2010PropOp55
 70
     1
102
RTVSPost2010Prop56
140
1.0
102
RTVSPost2010PropOp56
 70
     1
102
RTVSPost2010Prop57
140
1.0
102
RTVSPost2010PropOp57
 70
     1
102
RTVSPropertyOp0
 70
     1
102
RTVSPropertyOp1
 70
     1
102
RTVSPropertyOp2
 70
     1
102
RTVSPropertyOp3
 70
     1
102
RTVSPropertyOp4
 70
     1
102
RTVSPropertyOp5
 70
     1
102
RTVSPropertyOp6
 70
     1
102
RTVSPropertyOp7
 70
     1
102
RTVSPropertyOp8
 70
     1
102
RTVSPropertyOp9
 70
     1
102
RTVSPropertyOp10
 70
     1
102
RTVSPropertyOp11
 70
     1
102
RTVSPropertyOp12
 70
     1
102
RTVSPropertyOp13
 70
     1
102
RTVSPropertyOp14
 70
     1
102
RTVSPropertyOp15
 70
     1
102
RTVSPropertyOp16
 70
     1
102
RTVSPropertyOp17
 70
     1
102
RTVSPropertyOp18
 70
     1
102
RTVSPropertyOp19
 70
     1
102
RTVSPropertyOp20
 70
     1
102
RTVSPropertyOp21
 70
     1
102
RTVSPropertyOp22
 70
     1
102
RTVSPropertyOp23
 70
     1
102
RTVSPropertyOp24
 70
     1
102
RTVSPropertyOp25
 70
     1
102
RTVSPropertyOp26
 70
     1
102
RTVSPropertyOp27
 70
     1
102
RTVSPropertyOp28
 70
     1
102
RTVSPropertyOp29
 70
     1
102
RTVSPropertyOp30
 70
     1
102
RTVSPropertyOp31
 70
     1
102
RTVSPropertyOp32
 70
     1
102
RTVSPropertyOp33
 70
     1
102
RTVSPropertyOp34
 70
     1
102
RTVSPropertyOp35
 70
     1
102
RTVSPropertyOp36
 70
     1
102
RTVSPropertyOp37
 70
     1
102
RTVSPropertyOp38
 70
     1
102
RTVSPropertyOp39
 70
     1
102
RTVSPropertyOp40
 70
     1
102
RTVSPropertyOp41
 70
     1
102
RTVSPropertyOp42
 70
     1
102
RTVSPropertyOp43
 70
     1
102
RTVSPropertyOp44
 70
     1
102
RTVSPropertyOp45
 70
     1
102
RTVSPropertyOp46
 70
     1
102
RTVSPropertyOp47
 70
     1
102
RTVSPropertyOp48
 70
     1
102
RTVSPropertyOp49
 70
     1
102
RTVSPropertyOp50
 70
     1
102
RTVSPropertyOp51
 70
     0
102
RTVSPropertyOp52
 70
     0
102
RTVSPropertyOp53
 70
     1
102
RTVSPropertyOp54
 70
     1
102
RTVSPropertyOp55
 70
     1
102
RTVSPropertyOp56
 70
     1
102
RTVSPropertyOp57
 70
     1
102
RTVSPropertyOp58
 70
     1
102
RTVSPropertyOp59
 70
     1
102
RTVSPropertyOp60
 70
     1
102
RTVSPropertyOp61
 70
     1
102
RTVSPropertyOp62
 70
     1
  0
XRECORD
  5
71A
102
{ACAD_REACTORS
330
719
102
}
330
719
100
AcDbXrecord
280
     1
102
RTVSPost2010Prop28
280
     0
102
RTVSPost2010PropOp28
 70
     1
102
RTVSPost2010Prop29
280
     1
102
RTVSPost2010PropOp29
 70
     1
102
RTVSPost2010Prop30
280
     1
102
RTVSPost2010PropOp30
 70
     1
102
RTVSPost2010Prop31
280
     0
102
RTVSPost2010PropOp31
 70
     1
102
RTVSPost2010Prop32
280
     0
102
RTVSPost2010PropOp32
 70
     1
102
RTVSPost2010Prop33
280
     0
102
RTVSPost2010PropOp33
 70
     1
102
RTVSPost2010Prop34
280
     0
102
RTVSPost2010PropOp34
 70
     1
102
RTVSPost2010Prop35
280
     0
102
RTVSPost2010PropOp35
 70
     1
102
RTVSPost2010Prop36
280
     0
102
RTVSPost2010PropOp36
 70
     1
102
RTVSPost2010Prop37
 90
       50
102
RTVSPost2010PropOp37
 70
     1
102
RTVSPost2010Prop38
140
0.0
102
RTVSPost2010PropOp38
 70
     1
102
RTVSPost2010Prop39
140
1.0
102
RTVSPost2010PropOp39
 70
     1
102
RTVSPost2010Prop40
 90
        0
102
RTVSPost2010PropOp40
 70
     1
102
RTVSPost2010Prop41ColorIndex
 90
       18
102
RTVSPost2010Prop41ColorRGB
 90
        0
102
RTVSPost2010PropOp41
 70
     1
102
RTVSPost2010Prop42
 90
       50
102
RTVSPost2010PropOp42
 70
     1
102
RTVSPost2010Prop43
 90
        3
102
RTVSPost2010PropOp43
 70
     1
102
RTVSPost2010Prop44ColorIndex
 90
        5
102
RTVSPost2010Prop44ColorRGB
 90
      255
102
RTVSPost2010PropOp44
 70
     1
102
RTVSPost2010Prop45
280
     0
102
RTVSPost2010PropOp45
 70
     1
102
RTVSPost2010Prop46
 90
       50
102
RTVSPost2010PropOp46
 70
     1
102
RTVSPost2010Prop47
 90
       50
102
RTVSPost2010PropOp47
 70
     1
102
RTVSPost2010Prop48
 90
       50
102
RTVSPost2010PropOp48
 70
     1
102
RTVSPost2010Prop49
280
     0
102
RTVSPost2010PropOp49
 70
     1
102
RTVSPost2010Prop50
 90
       50
102
RTVSPost2010PropOp50
 70
     1
102
RTVSPost2010Prop51ColorIndex
 90
      256
102
RTVSPost2010Prop51ColorRGB
 90
-16777216
102
RTVSPost2010PropOp51
 70
     0
102
RTVSPost2010Prop52
140
1.0
102
RTVSPost2010PropOp52
 70
     0
102
RTVSPost2010Prop53
 90
        2
102
RTVSPost2010PropOp53
 70
     1
102
RTVSPost2010Prop54
  1
strokes_ogs.tif
102
RTVSPost2010PropOp54
 70
     1
102
RTVSPost2010Prop55
280
     0
102
RTVSPost2010PropOp55
 70
     1
102
RTVSPost2010Prop56
140
1.0
102
RTVSPost2010PropOp56
 70
     1
102
RTVSPost2010Prop57
140
1.0
102
RTVSPost2010PropOp57
 70
     1
102
RTVSPropertyOp0
 70
     1
102
RTVSPropertyOp1
 70
     1
102
RTVSPropertyOp2
 70
     1
102
RTVSPropertyOp3
 70
     1
102
RTVSPropertyOp4
 70
     1
102
RTVSPropertyOp5
 70
     1
102
RTVSPropertyOp6
 70
     1
102
RTVSPropertyOp7
 70
     1
102
RTVSPropertyOp8
 70
     1
102
RTVSPropertyOp9
 70
     1
102
RTVSPropertyOp10
 70
     1
102
RTVSPropertyOp11
 70
     1
102
RTVSPropertyOp12
 70
     1
102
RTVSPropertyOp13
 70
     1
102
RTVSPropertyOp14
 70
     1
102
RTVSPropertyOp15
 70
     1
102
RTVSPropertyOp16
 70
     1
102
RTVSPropertyOp17
 70
     1
102
RTVSPropertyOp18
 70
     1
102
RTVSPropertyOp19
 70
     1
102
RTVSPropertyOp20
 70
     1
102
RTVSPropertyOp21
 70
     1
102
RTVSPropertyOp22
 70
     1
102
RTVSPropertyOp23
 70
     1
102
RTVSPropertyOp24
 70
     1
102
RTVSPropertyOp25
 70
     1
102
RTVSPropertyOp26
 70
     1
102
RTVSPropertyOp27
 70
     1
102
RTVSPropertyOp28
 70
     1
102
RTVSPropertyOp29
 70
     1
102
RTVSPropertyOp30
 70
     1
102
RTVSPropertyOp31
 70
     1
102
RTVSPropertyOp32
 70
     1
102
RTVSPropertyOp33
 70
     1
102
RTVSPropertyOp34
 70
     1
102
RTVSPropertyOp35
 70
     1
102
RTVSPropertyOp36
 70
     1
102
RTVSPropertyOp37
 70
     1
102
RTVSPropertyOp38
 70
     1
102
RTVSPropertyOp39
 70
     1
102
RTVSPropertyOp40
 70
     1
102
RTVSPropertyOp41
 70
     1
102
RTVSPropertyOp42
 70
     1
102
RTVSPropertyOp43
 70
     1
102
RTVSPropertyOp44
 70
     1
102
RTVSPropertyOp45
 70
     1
102
RTVSPropertyOp46
 70
     1
102
RTVSPropertyOp47
 70
     1
102
RTVSPropertyOp48
 70
     1
102
RTVSPropertyOp49
 70
     1
102
RTVSPropertyOp50
 70
     1
102
RTVSPropertyOp51
 70
     0
102
RTVSPropertyOp52
 70
     0
102
RTVSPropertyOp53
 70
     1
102
RTVSPropertyOp54
 70
     1
102
RTVSPropertyOp55
 70
     1
102
RTVSPropertyOp56
 70
     1
102
RTVSPropertyOp57
 70
     1
102
RTVSPropertyOp58
 70
     1
102
RTVSPropertyOp59
 70
     1
102
RTVSPropertyOp60
 70
     1
102
RTVSPropertyOp61
 70
     1
102
RTVSPropertyOp62
 70
     1
  0
XRECORD
  5
70A
102
{ACAD_REACTORS
330
709
102
}
330
709
100
AcDbXrecord
280
     1
102
RTVSPost2010Prop28
280
     0
102
RTVSPost2010PropOp28
 70
     1
102
RTVSPost2010Prop29
280
     1
102
RTVSPost2010PropOp29
 70
     1
102
RTVSPost2010Prop30
280
     1
102
RTVSPost2010PropOp30
 70
     1
102
RTVSPost2010Prop31
280
     0
102
RTVSPost2010PropOp31
 70
     1
102
RTVSPost2010Prop32
280
     0
102
RTVSPost2010PropOp32
 70
     1
102
RTVSPost2010Prop33
280
     0
102
RTVSPost2010PropOp33
 70
     1
102
RTVSPost2010Prop34
280
     0
102
RTVSPost2010PropOp34
 70
     1
102
RTVSPost2010Prop35
280
     0
102
RTVSPost2010PropOp35
 70
     1
102
RTVSPost2010Prop36
280
     0
102
RTVSPost2010PropOp36
 70
     1
102
RTVSPost2010Prop37
 90
       50
102
RTVSPost2010PropOp37
 70
     1
102
RTVSPost2010Prop38
140
0.0
102
RTVSPost2010PropOp38
 70
     1
102
RTVSPost2010Prop39
140
1.0
102
RTVSPost2010PropOp39
 70
     1
102
RTVSPost2010Prop40
 90
        0
102
RTVSPost2010PropOp40
 70
     1
102
RTVSPost2010Prop41ColorIndex
 90
       18
102
RTVSPost2010Prop41ColorRGB
 90
        0
102
RTVSPost2010PropOp41
 70
     1
102
RTVSPost2010Prop42
 90
       50
102
RTVSPost2010PropOp42
 70
     1
102
RTVSPost2010Prop43
 90
        3
102
RTVSPost2010PropOp43
 70
     1
102
RTVSPost2010Prop44ColorIndex
 90
        5
102
RTVSPost2010Prop44ColorRGB
 90
      255
102
RTVSPost2010PropOp44
 70
     1
102
RTVSPost2010Prop45
280
     0
102
RTVSPost2010PropOp45
 70
     1
102
RTVSPost2010Prop46
 90
       50
102
RTVSPost2010PropOp46
 70
     1
102
RTVSPost2010Prop47
 90
       50
102
RTVSPost2010PropOp47
 70
     1
102
RTVSPost2010Prop48
 90
       50
102
RTVSPost2010PropOp48
 70
     1
102
RTVSPost2010Prop49
280
     0
102
RTVSPost2010PropOp49
 70
     1
102
RTVSPost2010Prop50
 90
       50
102
RTVSPost2010PropOp50
 70
     1
102
RTVSPost2010Prop51ColorIndex
 90
      256
102
RTVSPost2010Prop51ColorRGB
 90
-16777216
102
RTVSPost2010PropOp51
 70
     0
102
RTVSPost2010Prop52
140
1.0
102
RTVSPost2010PropOp52
 70
     0
102
RTVSPost2010Prop53
 90
        2
102
RTVSPost2010PropOp53
 70
     1
102
RTVSPost2010Prop54
  1
strokes_ogs.tif
102
RTVSPost2010PropOp54
 70
     1
102
RTVSPost2010Prop55
280
     0
102
RTVSPost2010PropOp55
 70
     1
102
RTVSPost2010Prop56
140
1.0
102
RTVSPost2010PropOp56
 70
     1
102
RTVSPost2010Prop57
140
1.0
102
RTVSPost2010PropOp57
 70
     1
102
RTVSPropertyOp0
 70
     1
102
RTVSPropertyOp1
 70
     1
102
RTVSPropertyOp2
 70
     1
102
RTVSPropertyOp3
 70
     1
102
RTVSPropertyOp4
 70
     1
102
RTVSPropertyOp5
 70
     1
102
RTVSPropertyOp6
 70
     1
102
RTVSPropertyOp7
 70
     1
102
RTVSPropertyOp8
 70
     1
102
RTVSPropertyOp9
 70
     1
102
RTVSPropertyOp10
 70
     1
102
RTVSPropertyOp11
 70
     1
102
RTVSPropertyOp12
 70
     1
102
RTVSPropertyOp13
 70
     1
102
RTVSPropertyOp14
 70
     1
102
RTVSPropertyOp15
 70
     1
102
RTVSPropertyOp16
 70
     1
102
RTVSPropertyOp17
 70
     1
102
RTVSPropertyOp18
 70
     1
102
RTVSPropertyOp19
 70
     1
102
RTVSPropertyOp20
 70
     1
102
RTVSPropertyOp21
 70
     1
102
RTVSPropertyOp22
 70
     1
102
RTVSPropertyOp23
 70
     1
102
RTVSPropertyOp24
 70
     1
102
RTVSPropertyOp25
 70
     1
102
RTVSPropertyOp26
 70
     1
102
RTVSPropertyOp27
 70
     1
102
RTVSPropertyOp28
 70
     1
102
RTVSPropertyOp29
 70
     1
102
RTVSPropertyOp30
 70
     1
102
RTVSPropertyOp31
 70
     1
102
RTVSPropertyOp32
 70
     1
102
RTVSPropertyOp33
 70
     1
102
RTVSPropertyOp34
 70
     1
102
RTVSPropertyOp35
 70
     1
102
RTVSPropertyOp36
 70
     1
102
RTVSPropertyOp37
 70
     1
102
RTVSPropertyOp38
 70
     1
102
RTVSPropertyOp39
 70
     1
102
RTVSPropertyOp40
 70
     1
102
RTVSPropertyOp41
 70
     1
102
RTVSPropertyOp42
 70
     1
102
RTVSPropertyOp43
 70
     1
102
RTVSPropertyOp44
 70
     1
102
RTVSPropertyOp45
 70
     1
102
RTVSPropertyOp46
 70
     1
102
RTVSPropertyOp47
 70
     1
102
RTVSPropertyOp48
 70
     1
102
RTVSPropertyOp49
 70
     1
102
RTVSPropertyOp50
 70
     1
102
RTVSPropertyOp51
 70
     0
102
RTVSPropertyOp52
 70
     0
102
RTVSPropertyOp53
 70
     1
102
RTVSPropertyOp54
 70
     1
102
RTVSPropertyOp55
 70
     1
102
RTVSPropertyOp56
 70
     1
102
RTVSPropertyOp57
 70
     1
102
RTVSPropertyOp58
 70
     1
102
RTVSPropertyOp59
 70
     1
102
RTVSPropertyOp60
 70
     1
102
RTVSPropertyOp61
 70
     1
102
RTVSPropertyOp62
 70
     1
  0
XRECORD
  5
6FC
102
{ACAD_REACTORS
330
6FB
102
}
330
6FB
100
AcDbXrecord
280
     1
102
RTVSPost2010Prop28
280
     0
102
RTVSPost2010PropOp28
 70
     1
102
RTVSPost2010Prop29
280
     1
102
RTVSPost2010PropOp29
 70
     1
102
RTVSPost2010Prop30
280
     1
102
RTVSPost2010PropOp30
 70
     1
102
RTVSPost2010Prop31
280
     0
102
RTVSPost2010PropOp31
 70
     1
102
RTVSPost2010Prop32
280
     0
102
RTVSPost2010PropOp32
 70
     1
102
RTVSPost2010Prop33
280
     0
102
RTVSPost2010PropOp33
 70
     1
102
RTVSPost2010Prop34
280
     0
102
RTVSPost2010PropOp34
 70
     1
102
RTVSPost2010Prop35
280
     0
102
RTVSPost2010PropOp35
 70
     1
102
RTVSPost2010Prop36
280
     0
102
RTVSPost2010PropOp36
 70
     1
102
RTVSPost2010Prop37
 90
       50
102
RTVSPost2010PropOp37
 70
     1
102
RTVSPost2010Prop38
140
0.0
102
RTVSPost2010PropOp38
 70
     1
102
RTVSPost2010Prop39
140
1.0
102
RTVSPost2010PropOp39
 70
     1
102
RTVSPost2010Prop40
 90
        0
102
RTVSPost2010PropOp40
 70
     1
102
RTVSPost2010Prop41ColorIndex
 90
       18
102
RTVSPost2010Prop41ColorRGB
 90
        0
102
RTVSPost2010PropOp41
 70
     1
102
RTVSPost2010Prop42
 90
       50
102
RTVSPost2010PropOp42
 70
     1
102
RTVSPost2010Prop43
 90
        3
102
RTVSPost2010PropOp43
 70
     1
102
RTVSPost2010Prop44ColorIndex
 90
        5
102
RTVSPost2010Prop44ColorRGB
 90
      255
102
RTVSPost2010PropOp44
 70
     1
102
RTVSPost2010Prop45
280
     0
102
RTVSPost2010PropOp45
 70
     1
102
RTVSPost2010Prop46
 90
       50
102
RTVSPost2010PropOp46
 70
     1
102
RTVSPost2010Prop47
 90
       50
102
RTVSPost2010PropOp47
 70
     1
102
RTVSPost2010Prop48
 90
       50
102
RTVSPost2010PropOp48
 70
     1
102
RTVSPost2010Prop49
280
     0
102
RTVSPost2010PropOp49
 70
     1
102
RTVSPost2010Prop50
 90
       50
102
RTVSPost2010PropOp50
 70
     1
102
RTVSPost2010Prop51ColorIndex
 90
      256
102
RTVSPost2010Prop51ColorRGB
 90
-16777216
102
RTVSPost2010PropOp51
 70
     0
102
RTVSPost2010Prop52
140
1.0
102
RTVSPost2010PropOp52
 70
     0
102
RTVSPost2010Prop53
 90
        2
102
RTVSPost2010PropOp53
 70
     1
102
RTVSPost2010Prop54
  1
strokes_ogs.tif
102
RTVSPost2010PropOp54
 70
     1
102
RTVSPost2010Prop55
280
     0
102
RTVSPost2010PropOp55
 70
     1
102
RTVSPost2010Prop56
140
1.0
102
RTVSPost2010PropOp56
 70
     1
102
RTVSPost2010Prop57
140
1.0
102
RTVSPost2010PropOp57
 70
     1
102
RTVSPropertyOp0
 70
     1
102
RTVSPropertyOp1
 70
     1
102
RTVSPropertyOp2
 70
     1
102
RTVSPropertyOp3
 70
     1
102
RTVSPropertyOp4
 70
     1
102
RTVSPropertyOp5
 70
     1
102
RTVSPropertyOp6
 70
     1
102
RTVSPropertyOp7
 70
     1
102
RTVSPropertyOp8
 70
     1
102
RTVSPropertyOp9
 70
     1
102
RTVSPropertyOp10
 70
     1
102
RTVSPropertyOp11
 70
     1
102
RTVSPropertyOp12
 70
     1
102
RTVSPropertyOp13
 70
     1
102
RTVSPropertyOp14
 70
     1
102
RTVSPropertyOp15
 70
     1
102
RTVSPropertyOp16
 70
     1
102
RTVSPropertyOp17
 70
     1
102
RTVSPropertyOp18
 70
     1
102
RTVSPropertyOp19
 70
     1
102
RTVSPropertyOp20
 70
     1
102
RTVSPropertyOp21
 70
     1
102
RTVSPropertyOp22
 70
     1
102
RTVSPropertyOp23
 70
     1
102
RTVSPropertyOp24
 70
     1
102
RTVSPropertyOp25
 70
     1
102
RTVSPropertyOp26
 70
     1
102
RTVSPropertyOp27
 70
     1
102
RTVSPropertyOp28
 70
     1
102
RTVSPropertyOp29
 70
     1
102
RTVSPropertyOp30
 70
     1
102
RTVSPropertyOp31
 70
     1
102
RTVSPropertyOp32
 70
     1
102
RTVSPropertyOp33
 70
     1
102
RTVSPropertyOp34
 70
     1
102
RTVSPropertyOp35
 70
     1
102
RTVSPropertyOp36
 70
     1
102
RTVSPropertyOp37
 70
     1
102
RTVSPropertyOp38
 70
     1
102
RTVSPropertyOp39
 70
     1
102
RTVSPropertyOp40
 70
     1
102
RTVSPropertyOp41
 70
     1
102
RTVSPropertyOp42
 70
     1
102
RTVSPropertyOp43
 70
     1
102
RTVSPropertyOp44
 70
     1
102
RTVSPropertyOp45
 70
     1
102
RTVSPropertyOp46
 70
     1
102
RTVSPropertyOp47
 70
     1
102
RTVSPropertyOp48
 70
     1
102
RTVSPropertyOp49
 70
     1
102
RTVSPropertyOp50
 70
     1
102
RTVSPropertyOp51
 70
     0
102
RTVSPropertyOp52
 70
     0
102
RTVSPropertyOp53
 70
     1
102
RTVSPropertyOp54
 70
     1
102
RTVSPropertyOp55
 70
     1
102
RTVSPropertyOp56
 70
     1
102
RTVSPropertyOp57
 70
     1
102
RTVSPropertyOp58
 70
     1
102
RTVSPropertyOp59
 70
     1
102
RTVSPropertyOp60
 70
     1
102
RTVSPropertyOp61
 70
     1
102
RTVSPropertyOp62
 70
     1
  0
XRECORD
  5
71C
102
{ACAD_REACTORS
330
71B
102
}
330
71B
100
AcDbXrecord
280
     1
102
RTVSPost2010Prop28
280
     0
102
RTVSPost2010PropOp28
 70
     1
102
RTVSPost2010Prop29
280
     1
102
RTVSPost2010PropOp29
 70
     1
102
RTVSPost2010Prop30
280
     1
102
RTVSPost2010PropOp30
 70
     1
102
RTVSPost2010Prop31
280
     0
102
RTVSPost2010PropOp31
 70
     1
102
RTVSPost2010Prop32
280
     0
102
RTVSPost2010PropOp32
 70
     1
102
RTVSPost2010Prop33
280
     0
102
RTVSPost2010PropOp33
 70
     1
102
RTVSPost2010Prop34
280
     0
102
RTVSPost2010PropOp34
 70
     1
102
RTVSPost2010Prop35
280
     0
102
RTVSPost2010PropOp35
 70
     1
102
RTVSPost2010Prop36
280
     0
102
RTVSPost2010PropOp36
 70
     1
102
RTVSPost2010Prop37
 90
       50
102
RTVSPost2010PropOp37
 70
     1
102
RTVSPost2010Prop38
140
0.0
102
RTVSPost2010PropOp38
 70
     1
102
RTVSPost2010Prop39
140
1.0
102
RTVSPost2010PropOp39
 70
     1
102
RTVSPost2010Prop40
 90
        0
102
RTVSPost2010PropOp40
 70
     1
102
RTVSPost2010Prop41ColorIndex
 90
       18
102
RTVSPost2010Prop41ColorRGB
 90
        0
102
RTVSPost2010PropOp41
 70
     1
102
RTVSPost2010Prop42
 90
       50
102
RTVSPost2010PropOp42
 70
     1
102
RTVSPost2010Prop43
 90
        3
102
RTVSPost2010PropOp43
 70
     1
102
RTVSPost2010Prop44ColorIndex
 90
        5
102
RTVSPost2010Prop44ColorRGB
 90
      255
102
RTVSPost2010PropOp44
 70
     1
102
RTVSPost2010Prop45
280
     0
102
RTVSPost2010PropOp45
 70
     1
102
RTVSPost2010Prop46
 90
       50
102
RTVSPost2010PropOp46
 70
     1
102
RTVSPost2010Prop47
 90
       50
102
RTVSPost2010PropOp47
 70
     1
102
RTVSPost2010Prop48
 90
       50
102
RTVSPost2010PropOp48
 70
     1
102
RTVSPost2010Prop49
280
     0
102
RTVSPost2010PropOp49
 70
     1
102
RTVSPost2010Prop50
 90
       50
102
RTVSPost2010PropOp50
 70
     1
102
RTVSPost2010Prop51ColorIndex
 90
      256
102
RTVSPost2010Prop51ColorRGB
 90
-16777216
102
RTVSPost2010PropOp51
 70
     0
102
RTVSPost2010Prop52
140
1.0
102
RTVSPost2010PropOp52
 70
     0
102
RTVSPost2010Prop53
 90
        2
102
RTVSPost2010PropOp53
 70
     1
102
RTVSPost2010Prop54
  1
strokes_ogs.tif
102
RTVSPost2010PropOp54
 70
     1
102
RTVSPost2010Prop55
280
     0
102
RTVSPost2010PropOp55
 70
     1
102
RTVSPost2010Prop56
140
1.0
102
RTVSPost2010PropOp56
 70
     1
102
RTVSPost2010Prop57
140
1.0
102
RTVSPost2010PropOp57
 70
     1
102
RTVSPropertyOp0
 70
     1
102
RTVSPropertyOp1
 70
     1
102
RTVSPropertyOp2
 70
     1
102
RTVSPropertyOp3
 70
     1
102
RTVSPropertyOp4
 70
     1
102
RTVSPropertyOp5
 70
     1
102
RTVSPropertyOp6
 70
     1
102
RTVSPropertyOp7
 70
     1
102
RTVSPropertyOp8
 70
     1
102
RTVSPropertyOp9
 70
     1
102
RTVSPropertyOp10
 70
     1
102
RTVSPropertyOp11
 70
     1
102
RTVSPropertyOp12
 70
     1
102
RTVSPropertyOp13
 70
     1
102
RTVSPropertyOp14
 70
     1
102
RTVSPropertyOp15
 70
     1
102
RTVSPropertyOp16
 70
     1
102
RTVSPropertyOp17
 70
     1
102
RTVSPropertyOp18
 70
     1
102
RTVSPropertyOp19
 70
     1
102
RTVSPropertyOp20
 70
     1
102
RTVSPropertyOp21
 70
     1
102
RTVSPropertyOp22
 70
     1
102
RTVSPropertyOp23
 70
     1
102
RTVSPropertyOp24
 70
     1
102
RTVSPropertyOp25
 70
     1
102
RTVSPropertyOp26
 70
     1
102
RTVSPropertyOp27
 70
     1
102
RTVSPropertyOp28
 70
     1
102
RTVSPropertyOp29
 70
     1
102
RTVSPropertyOp30
 70
     1
102
RTVSPropertyOp31
 70
     1
102
RTVSPropertyOp32
 70
     1
102
RTVSPropertyOp33
 70
     1
102
RTVSPropertyOp34
 70
     1
102
RTVSPropertyOp35
 70
     1
102
RTVSPropertyOp36
 70
     1
102
RTVSPropertyOp37
 70
     1
102
RTVSPropertyOp38
 70
     1
102
RTVSPropertyOp39
 70
     1
102
RTVSPropertyOp40
 70
     1
102
RTVSPropertyOp41
 70
     1
102
RTVSPropertyOp42
 70
     1
102
RTVSPropertyOp43
 70
     1
102
RTVSPropertyOp44
 70
     1
102
RTVSPropertyOp45
 70
     1
102
RTVSPropertyOp46
 70
     1
102
RTVSPropertyOp47
 70
     1
102
RTVSPropertyOp48
 70
     1
102
RTVSPropertyOp49
 70
     1
102
RTVSPropertyOp50
 70
     1
102
RTVSPropertyOp51
 70
     0
102
RTVSPropertyOp52
 70
     0
102
RTVSPropertyOp53
 70
     1
102
RTVSPropertyOp54
 70
     1
102
RTVSPropertyOp55
 70
     1
102
RTVSPropertyOp56
 70
     1
102
RTVSPropertyOp57
 70
     1
102
RTVSPropertyOp58
 70
     1
102
RTVSPropertyOp59
 70
     1
102
RTVSPropertyOp60
 70
     1
102
RTVSPropertyOp61
 70
     1
102
RTVSPropertyOp62
 70
     1
  0
ENDSEC
  0
EOF
