  0
SECTION
  2
HEADER
  9
$ACADVER
  1
AC1015
  9
$ACADMAINTVER
 70
    20
  9
$DWGCODEPAGE
  3
ANSI_932
  9
$INSBASE
 10
0.0
 20
0.0
 30
0.0
  9
$EXTMIN
 10
66.23410969970615
 20
25.17630017540682
 30
0.0
  9
$EXTMAX
 10
1344.621164617128
 20
1013.18324400646
 30
0.0
  9
$LIMMIN
 10
-374.1220474243164
 20
-595.3714752197266
  9
$LIMMAX
 10
718.9447183785632
 20
314.1009979248047
  9
$ORTHOMODE
 70
     1
  9
$REGENMODE
 70
     1
  9
$FILLMODE
 70
     1
  9
$QTEXTMODE
 70
     0
  9
$MIRRTEXT
 70
     1
  9
$LTSCALE
 40
0.1264822231502984
  9
$ATTMODE
 70
     1
  9
$TEXTSIZE
 40
2.5
  9
$TRACEWID
 40
1.0
  9
$TEXTSTYLE
  7
Standard
  9
$CLAYER
  8
0
  9
$CELTYPE
  6
ByLayer
  9
$CECOLOR
 62
   256
  9
$CELTSCALE
 40
1.0
  9
$DISPSILH
 70
     0
  9
$DIMSCALE
 40
1.0
  9
$DIMASZ
 40
2.5
  9
$DIMEXO
 40
0.625
  9
$DIMDLI
 40
3.75
  9
$DIMRND
 40
0.0
  9
$DIMDLE
 40
0.0
  9
$DIMEXE
 40
1.25
  9
$DIMTP
 40
0.0
  9
$DIMTM
 40
0.0
  9
$DIMTXT
 40
2.5
  9
$DIMCEN
 40
2.5
  9
$DIMTSZ
 40
0.0
  9
$DIMTOL
 70
     0
  9
$DIMLIM
 70
     0
  9
$DIMTIH
 70
     0
  9
$DIMTOH
 70
     0
  9
$DIMSE1
 70
     0
  9
$DIMSE2
 70
     0
  9
$DIMTAD
 70
     1
  9
$DIMZIN
 70
     0
  9
$DIMBLK
  1

  9
$DIMASO
 70
     1
  9
$DIMSHO
 70
     1
  9
$DIMPOST
  1

  9
$DIMAPOST
  1

  9
$DIMALT
 70
     0
  9
$DIMALTD
 70
     3
  9
$DIMALTF
 40
0.03937007874016
  9
$DIMLFAC
 40
1.0
  9
$DIMTOFL
 70
     1
  9
$DIMTVP
 40
0.0
  9
$DIMTIX
 70
     0
  9
$DIMSOXD
 70
     0
  9
$DIMSAH
 70
     0
  9
$DIMBLK1
  1

  9
$DIMBLK2
  1

  9
$DIMSTYLE
  2
Standard
  9
$DIMCLRD
 70
     0
  9
$DIMCLRE
 70
     0
  9
$DIMCLRT
 70
     0
  9
$DIMTFAC
 40
0.75
  9
$DIMGAP
 40
0.625
  9
$DIMJUST
 70
     0
  9
$DIMSD1
 70
     0
  9
$DIMSD2
 70
     0
  9
$DIMTOLJ
 70
     0
  9
$DIMTZIN
 70
     8
  9
$DIMALTZ
 70
     0
  9
$DIMALTTZ
 70
     0
  9
$DIMUPT
 70
     0
  9
$DIMDEC
 70
     2
  9
$DIMTDEC
 70
     2
  9
$DIMALTU
 70
     2
  9
$DIMALTTD
 70
     3
  9
$DIMTXSTY
  7
Standard
  9
$DIMAUNIT
 70
     0
  9
$DIMADEC
 70
     0
  9
$DIMALTRND
 40
0.0
  9
$DIMAZIN
 70
     0
  9
$DIMDSEP
 70
    46
  9
$DIMATFIT
 70
     3
  9
$DIMFRAC
 70
     0
  9
$DIMLDRBLK
  1

  9
$DIMLUNIT
 70
     2
  9
$DIMLWD
 70
    -2
  9
$DIMLWE
 70
    -2
  9
$DIMTMOVE
 70
     0
  9
$LUNITS
 70
     2
  9
$LUPREC
 70
     4
  9
$SKETCHINC
 40
1.0
  9
$FILLETRAD
 40
0.0
  9
$AUNITS
 70
     0
  9
$AUPREC
 70
     0
  9
$MENU
  1
.
  9
$ELEVATION
 40
0.0
  9
$PELEVATION
 40
0.0
  9
$THICKNESS
 40
0.0
  9
$LIMCHECK
 70
     0
  9
$CHAMFERA
 40
10.0
  9
$CHAMFERB
 40
10.0
  9
$CHAMFERC
 40
20.0
  9
$CHAMFERD
 40
0.0
  9
$SKPOLY
 70
     0
  9
$TDCREATE
 40
2455188.750000000
  9
$TDUCREATE
 40
2455188.375000000
  9
$TDUPDATE
 40
2459752.604090475
  9
$TDUUPDATE
 40
2459752.229090474
  9
$TDINDWG
 40
0.0261589931
  9
$TDUSRTIMER
 40
0.0261588079
  9
$USRTIMER
 70
     1
  9
$ANGBASE
 50
0.0
  9
$ANGDIR
 70
     0
  9
$PDMODE
 70
     0
  9
$PDSIZE
 40
0.0
  9
$PLINEWID
 40
0.0
  9
$SPLFRAME
 70
     0
  9
$SPLINETYPE
 70
     6
  9
$SPLINESEGS
 70
     8
  9
$HANDSEED
  5
83E
  9
$SURFTAB1
 70
     6
  9
$SURFTAB2
 70
     6
  9
$SURFTYPE
 70
     6
  9
$SURFU
 70
     6
  9
$SURFV
 70
     6
  9
$UCSBASE
  2

  9
$UCSNAME
  2

  9
$UCSORG
 10
0.0
 20
0.0
 30
0.0
  9
$UCSXDIR
 10
1.0
 20
0.0
 30
0.0
  9
$UCSYDIR
 10
0.0
 20
1.0
 30
0.0
  9
$UCSORTHOREF
  2

  9
$UCSORTHOVIEW
 70
     0
  9
$UCSORGTOP
 10
0.0
 20
0.0
 30
0.0
  9
$UCSORGBOTTOM
 10
0.0
 20
0.0
 30
0.0
  9
$UCSORGLEFT
 10
0.0
 20
0.0
 30
0.0
  9
$UCSORGRIGHT
 10
0.0
 20
0.0
 30
0.0
  9
$UCSORGFRONT
 10
0.0
 20
0.0
 30
0.0
  9
$UCSORGBACK
 10
0.0
 20
0.0
 30
0.0
  9
$PUCSBASE
  2

  9
$PUCSNAME
  2

  9
$PUCSORG
 10
0.0
 20
0.0
 30
0.0
  9
$PUCSXDIR
 10
1.0
 20
0.0
 30
0.0
  9
$PUCSYDIR
 10
0.0
 20
1.0
 30
0.0
  9
$PUCSORTHOREF
  2

  9
$PUCSORTHOVIEW
 70
     0
  9
$PUCSORGTOP
 10
0.0
 20
0.0
 30
0.0
  9
$PUCSORGBOTTOM
 10
0.0
 20
0.0
 30
0.0
  9
$PUCSORGLEFT
 10
0.0
 20
0.0
 30
0.0
  9
$PUCSORGRIGHT
 10
0.0
 20
0.0
 30
0.0
  9
$PUCSORGFRONT
 10
0.0
 20
0.0
 30
0.0
  9
$PUCSORGBACK
 10
0.0
 20
0.0
 30
0.0
  9
$USERI1
 70
     0
  9
$USERI2
 70
     0
  9
$USERI3
 70
     0
  9
$USERI4
 70
     0
  9
$USERI5
 70
     0
  9
$USERR1
 40
0.0
  9
$USERR2
 40
0.0
  9
$USERR3
 40
0.0
  9
$USERR4
 40
0.0
  9
$USERR5
 40
0.0
  9
$WORLDVIEW
 70
     1
  9
$SHADEDGE
 70
     3
  9
$SHADEDIF
 70
    70
  9
$TILEMODE
 70
     1
  9
$MAXACTVP
 70
    64
  9
$PINSBASE
 10
0.0
 20
0.0
 30
0.0
  9
$PLIMCHECK
 70
     0
  9
$PEXTMIN
 10
1.000000000000000E+20
 20
1.000000000000000E+20
 30
1.000000000000000E+20
  9
$PEXTMAX
 10
-1.000000000000000E+20
 20
-1.000000000000000E+20
 30
-1.000000000000000E+20
  9
$PLIMMIN
 10
0.0
 20
0.0
  9
$PLIMMAX
 10
420.0
 20
297.0
  9
$UNITMODE
 70
     0
  9
$VISRETAIN
 70
     1
  9
$PLINEGEN
 70
     0
  9
$PSLTSCALE
 70
     1
  9
$TREEDEPTH
 70
  3020
  9
$CMLSTYLE
  2
Standard
  9
$CMLJUST
 70
     0
  9
$CMLSCALE
 40
20.0
  9
$PROXYGRAPHICS
 70
     1
  9
$MEASUREMENT
 70
     1
  9
$CELWEIGHT
370
    -1
  9
$ENDCAPS
280
     0
  9
$JOINSTYLE
280
     0
  9
$LWDISPLAY
290
     0
  9
$INSUNITS
 70
     4
  9
$HYPERLINKBASE
  1

  9
$STYLESHEET
  1

  9
$XEDIT
290
     1
  9
$CEPSNTYPE
380
     0
  9
$PSTYLEMODE
290
     1
  9
$FINGERPRINTGUID
  2
{4A8432C0-3A1E-42FE-85B3-8503F03FB136}
  9
$VERSIONGUID
  2
{BC3E25F5-1CD6-43E6-BC2E-061186A81DAB}
  9
$EXTNAMES
290
     1
  9
$PSVPSCALE
 40
0.0
  9
$OLESTARTUP
290
     0
  0
ENDSEC
  0
SECTION
  2
CLASSES
  0
CLASS
  1
ACDBDICTIONARYWDFLT
  2
AcDbDictionaryWithDefault
  3
ObjectDBX Classes
 90
        0
280
     0
281
     0
  0
CLASS
  1
VISUALSTYLE
  2
AcDbVisualStyle
  3
ObjectDBX Classes
 90
     4095
280
     0
281
     0
  0
CLASS
  1
MATERIAL
  2
AcDbMaterial
  3
ObjectDBX Classes
 90
     1153
280
     0
281
     0
  0
CLASS
  1
SCALE
  2
AcDbScale
  3
ObjectDBX Classes
 90
     1153
280
     0
281
     0
  0
CLASS
  1
TABLESTYLE
  2
AcDbTableStyle
  3
ObjectDBX Classes
 90
     4095
280
     0
281
     0
  0
CLASS
  1
MLEADERSTYLE
  2
AcDbMLeaderStyle
  3
ACDB_MLEADERSTYLE_CLASS
 90
     4095
280
     0
281
     0
  0
CLASS
  1
SUN
  2
AcDbSun
  3
SCENEOE
 90
    33921
280
     0
281
     0
  0
CLASS
  1
DICTIONARYVAR
  2
AcDbDictionaryVar
  3
ObjectDBX Classes
 90
        0
280
     0
281
     0
  0
CLASS
  1
ACDBSECTIONVIEWSTYLE
  2
AcDbSectionViewStyle
  3
ObjectDBX Classes
 90
     1025
280
     0
281
     0
  0
CLASS
  1
ACDBDETAILVIEWSTYLE
  2
AcDbDetailViewStyle
  3
ObjectDBX Classes
 90
     1025
280
     0
281
     0
  0
CLASS
  1
SORTENTSTABLE
  2
AcDbSortentsTable
  3
ObjectDBX Classes
 90
        0
280
     0
281
     0
  0
CLASS
  1
CELLSTYLEMAP
  2
AcDbCellStyleMap
  3
ObjectDBX Classes
 90
     1152
280
     0
281
     0
  0
CLASS
  1
ACDBPLACEHOLDER
  2
AcDbPlaceHolder
  3
ObjectDBX Classes
 90
        0
280
     0
281
     0
  0
CLASS
  1
LAYOUT
  2
AcDbLayout
  3
ObjectDBX Classes
 90
        0
280
     0
281
     0
  0
ENDSEC
  0
SECTION
  2
TABLES
  0
TABLE
  2
VPORT
  5
8
330
0
100
AcDbSymbolTable
 70
     1
  0
VPORT
  5
29
330
8
100
AcDbSymbolTableRecord
100
AcDbViewportTableRecord
  2
*Active
 70
     0
 10
0.0
 20
0.0
 11
1.0
 21
1.0
 12
997.5341452355838
 22
419.1584217899385
 13
0.0
 23
0.0
 14
10.0
 24
10.0
 15
10.0
 25
10.0
 16
0.0
 26
0.0
 36
1.0
 17
0.0
 27
0.0
 37
0.0
 40
1410.748835684127
 41
2.204301075268817
 42
50.0
 43
0.0
 44
0.0
 50
0.0
 51
0.0
 71
     0
 72
 20000
 73
     1
 74
     3
 75
     0
 76
     0
 77
     0
 78
     0
281
     0
 65
     1
110
0.0
120
0.0
130
0.0
111
1.0
121
0.0
131
0.0
112
0.0
122
1.0
132
0.0
 79
     0
146
0.0
1001
ACAD_NAV_VCDISPLAY
1070
     3
  0
ENDTAB
  0
TABLE
  2
LTYPE
  5
5
330
0
100
AcDbSymbolTable
 70
     2
  0
LTYPE
  5
14
330
5
100
AcDbSymbolTableRecord
100
AcDbLinetypeTableRecord
  2
ByBlock
 70
     0
  3

 72
    65
 73
     0
 40
0.0
  0
LTYPE
  5
15
330
5
100
AcDbSymbolTableRecord
100
AcDbLinetypeTableRecord
  2
ByLayer
 70
     0
  3

 72
    65
 73
     0
 40
0.0
  0
LTYPE
  5
16
330
5
100
AcDbSymbolTableRecord
100
AcDbLinetypeTableRecord
  2
Continuous
 70
     0
  3
Solid line
 72
    65
 73
     0
 40
0.0
  0
LTYPE
  5
435
330
5
100
AcDbSymbolTableRecord
100
AcDbLinetypeTableRecord
  2
CENTER2
 70
     0
  3
Center (.5x) ___ _ ___ _ ___ _ ___ _ ___ _ ___
 72
    65
 73
     4
 40
28.575
 49
19.05
 74
     0
 49
-3.174999999999998
 74
     0
 49
3.174999999999998
 74
     0
 49
-3.174999999999998
 74
     0
  0
ENDTAB
  0
TABLE
  2
LAYER
  5
2
102
{ACAD_XDICTIONARY
360
43B
102
}
330
0
100
AcDbSymbolTable
 70
     4
  0
LAYER
  5
10
102
{ACAD_XDICTIONARY
360
75C
102
}
330
2
100
AcDbSymbolTableRecord
100
AcDbLayerTableRecord
  2
0
 70
     0
 62
     7
  6
Continuous
370
    -3
390
F
  0
LAYER
  5
66
330
2
100
AcDbSymbolTableRecord
100
AcDbLayerTableRecord
  2
Defpoints
 70
     0
 62
     7
  6
Continuous
290
     0
370
    -3
390
F
  0
LAYER
  5
436
102
{ACAD_XDICTIONARY
360
437
102
}
330
2
100
AcDbSymbolTableRecord
100
AcDbLayerTableRecord
  2
中心線
 70
     0
 62
     3
  6
CENTER2
370
    -3
390
F
  0
LAYER
  5
438
102
{ACAD_XDICTIONARY
360
439
102
}
330
2
100
AcDbSymbolTableRecord
100
AcDbLayerTableRecord
  2
実線
 70
     0
 62
     7
  6
Continuous
370
    -3
390
F
  0
ENDTAB
  0
TABLE
  2
STYLE
  5
3
330
0
100
AcDbSymbolTable
 70
     1
  0
STYLE
  5
11
330
3
100
AcDbSymbolTableRecord
100
AcDbTextStyleTableRecord
  2
Standard
 70
     0
 40
0.0
 41
1.0
 50
0.0
 71
     0
 42
2.5
  3
txt
  4
extfont2
  0
ENDTAB
  0
TABLE
  2
VIEW
  5
6
330
0
100
AcDbSymbolTable
 70
     0
  0
ENDTAB
  0
TABLE
  2
UCS
  5
7
330
0
100
AcDbSymbolTable
 70
     0
  0
ENDTAB
  0
TABLE
  2
APPID
  5
9
330
0
100
AcDbSymbolTable
 70
     4
  0
APPID
  5
12
330
9
100
AcDbSymbolTableRecord
100
AcDbRegAppTableRecord
  2
ACAD
 70
     0
  0
APPID
  5
274
330
9
100
AcDbSymbolTableRecord
100
AcDbRegAppTableRecord
  2
ACAD_MLEADERVER
 70
     0
  0
APPID
  5
43A
330
9
100
AcDbSymbolTableRecord
100
AcDbRegAppTableRecord
  2
ACAD_NAV_VCDISPLAY
 70
     0
  0
APPID
  5
748
330
9
100
AcDbSymbolTableRecord
100
AcDbRegAppTableRecord
  2
ACAD_EXEMPT_FROM_CAD_STANDARDS
 70
     0
  0
ENDTAB
  0
TABLE
  2
DIMSTYLE
  5
A
330
0
100
AcDbSymbolTable
 70
     1
100
AcDbDimStyleTable
 71
     1
340
27
  0
DIMSTYLE
105
27
330
A
100
AcDbSymbolTableRecord
100
AcDbDimStyleTableRecord
  2
Standard
 70
     0
 41
2.5
 42
0.625
 43
3.75
 44
1.25
 73
     0
 74
     0
 77
     1
140
2.5
141
2.5
143
0.03937007874016
146
0.75
147
0.625
171
     3
172
     1
271
     2
272
     2
274
     3
283
     0
284
     8
340
11
  0
ENDTAB
  0
TABLE
  2
BLOCK_RECORD
  5
1
330
0
100
AcDbSymbolTable
 70
     1
  0
BLOCK_RECORD
  5
1F
102
{ACAD_XDICTIONARY
360
2C7
102
}
330
1
100
AcDbSymbolTableRecord
100
AcDbBlockTableRecord
  2
*Model_Space
340
22
  0
BLOCK_RECORD
  5
1B
330
1
100
AcDbSymbolTableRecord
100
AcDbBlockTableRecord
  2
*Paper_Space
340
1E
  0
BLOCK_RECORD
  5
23
330
1
100
AcDbSymbolTableRecord
100
AcDbBlockTableRecord
  2
*Paper_Space0
340
27E
  0
ENDTAB
  0
ENDSEC
  0
SECTION
  2
BLOCKS
  0
BLOCK
  5
20
330
1F
100
AcDbEntity
  8
0
100
AcDbBlockBegin
  2
*Model_Space
 70
     0
 10
0.0
 20
0.0
 30
0.0
  3
*Model_Space
  1

  0
ENDBLK
  5
21
330
1F
100
AcDbEntity
  8
0
100
AcDbBlockEnd
  0
BLOCK
  5
1C
330
1B
100
AcDbEntity
 67
     1
  8
0
100
AcDbBlockBegin
  2
*Paper_Space
 70
     0
 10
0.0
 20
0.0
 30
0.0
  3
*Paper_Space
  1

  0
ENDBLK
  5
1D
330
1B
100
AcDbEntity
 67
     1
  8
0
100
AcDbBlockEnd
  0
BLOCK
  5
24
330
23
100
AcDbEntity
 67
     1
  8
0
100
AcDbBlockBegin
  2
*Paper_Space0
 70
     0
 10
0.0
 20
0.0
 30
0.0
  3
*Paper_Space0
  1

  0
ENDBLK
  5
25
330
23
100
AcDbEntity
 67
     1
  8
0
100
AcDbBlockEnd
  0
ENDSEC
  0
SECTION
  2
ENTITIES
  0
CIRCLE
  5
284
102
{ACAD_REACTORS
330
75B
102
}
330
1F
100
AcDbEntity
  8
実線
100
AcDbCircle
 10
393.7341096997064
 20
125.1763001754068
 30
0.0
 40
35.0
  0
ARC
  5
285
102
{ACAD_REACTORS
330
75B
102
}
330
1F
100
AcDbEntity
  8
実線
100
AcDbCircle
 10
393.7341096997064
 20
125.1763001754068
 30
0.0
 40
25.0
100
AcDbArc
 50
233.1301023541538
 51
293.073918065635
  0
CIRCLE
  5
286
102
{ACAD_REACTORS
330
75B
102
}
330
1F
100
AcDbEntity
  8
実線
100
AcDbCircle
 10
393.7341096997064
 20
125.1763001754068
 30
0.0
 40
12.5
  0
LINE
  5
287
102
{ACAD_REACTORS
330
75B
102
}
330
1F
100
AcDbEntity
  8
実線
100
AcDbLine
 10
413.7341096997062
 20
106.6263001754067
 30
0.0
 11
420.2341096997064
 21
106.6263001754067
 31
0.0
  0
LINE
  5
288
102
{ACAD_REACTORS
330
75B
102
}
330
1F
100
AcDbEntity
  8
実線
100
AcDbLine
 10
420.2341096997064
 20
109.6263001754068
 30
0.0
 11
413.7341096997062
 21
109.6263001754068
 31
0.0
  0
LINE
  5
289
102
{ACAD_REACTORS
330
75B
102
}
330
1F
100
AcDbEntity
  8
実線
100
AcDbLine
 10
420.2341096997064
 20
106.6263001754067
 30
0.0
 11
420.2341096997064
 21
109.6263001754068
 31
0.0
  0
LINE
  5
28A
102
{ACAD_REACTORS
330
75B
102
}
330
1F
100
AcDbEntity
  8
実線
100
AcDbLine
 10
413.7341096997062
 20
104.1763001754068
 30
0.0
 11
413.7341096997062
 21
112.0763001754068
 31
0.0
  0
LINE
  5
28B
102
{ACAD_REACTORS
330
75B
102
}
330
1F
100
AcDbEntity
  8
実線
100
AcDbLine
 10
388.7341096997063
 20
112.0763001754068
 30
0.0
 11
413.7341096997062
 21
112.0763001754068
 31
0.0
  0
LINE
  5
28C
102
{ACAD_REACTORS
330
75B
102
}
330
1F
100
AcDbEntity
  8
実線
100
AcDbLine
 10
388.7341096997063
 20
112.0763001754068
 30
0.0
 11
388.7341096997063
 21
104.1763001754068
 31
0.0
  0
LINE
  5
28D
102
{ACAD_REACTORS
330
75B
102
}
330
1F
100
AcDbEntity
  8
実線
100
AcDbLine
 10
408.7341096997063
 20
104.1763001754068
 30
0.0
 11
413.7341096997062
 21
104.1763001754068
 31
0.0
  0
CIRCLE
  5
28E
102
{ACAD_REACTORS
330
75B
102
}
330
1F
100
AcDbEntity
  8
実線
100
AcDbCircle
 10
393.7341096997064
 20
125.1763001754068
 30
0.0
 40
7.5
  0
LINE
  5
28F
102
{ACAD_REACTORS
330
75B
102
}
330
1F
100
AcDbEntity
  8
実線
100
AcDbLine
 10
310.7394308121586
 20
106.126300175407
 30
0.0
 11
345.0341096997063
 21
106.126300175407
 31
0.0
  0
LINE
  5
290
102
{ACAD_REACTORS
330
75B
102
}
330
1F
100
AcDbEntity
  8
実線
100
AcDbLine
 10
345.0341096997063
 20
144.2263001754069
 30
0.0
 11
310.7394308121586
 21
144.2263001754069
 31
0.0
  0
ELLIPSE
  5
291
102
{ACAD_REACTORS
330
75B
102
}
330
1F
100
AcDbEntity
  8
実線
100
AcDbEllipse
 10
310.7394308121586
 20
125.1763001754069
 30
0.0
 11
0.0
 21
19.05
 31
0.0
210
0.0
220
0.0
230
1.0
 40
0.7071067811865475
 41
3.141592653589792
 42
6.283185307179584
  0
LINE
  5
292
102
{ACAD_REACTORS
330
75B
102
}
330
1F
100
AcDbEntity
  8
実線
100
AcDbLine
 10
345.0341096997063
 20
113.8488997675467
 30
0.0
 11
345.0341096997063
 21
106.126300175407
 31
0.0
  0
LINE
  5
293
102
{ACAD_REACTORS
330
75B
102
}
330
1F
100
AcDbEntity
  8
実線
100
AcDbLine
 10
307.4322000452152
 20
106.126300175407
 30
0.0
 11
310.7394308121586
 21
106.126300175407
 31
0.0
  0
LINE
  5
294
102
{ACAD_REACTORS
330
75B
102
}
330
1F
100
AcDbEntity
  8
実線
100
AcDbLine
 10
310.7394308121586
 20
144.2263001754069
 30
0.0
 11
307.4322000452152
 21
144.2263001754069
 31
0.0
  0
ELLIPSE
  5
295
102
{ACAD_REACTORS
330
75B
102
}
330
1F
100
AcDbEntity
  8
実線
100
AcDbEllipse
 10
310.7394308121586
 20
125.1763001754069
 30
0.0
 11
0.0
 21
19.05
 31
0.0
210
0.0
220
0.0
230
1.0
 40
0.7071067811865475
 41
3.141592653589792
 42
6.283185307179584
  0
LINE
  5
296
102
{ACAD_REACTORS
330
75B
102
}
330
1F
100
AcDbEntity
  8
実線
100
AcDbLine
 10
293.7688680636814
 20
99.9263001754069
 30
0.0
 11
295.7134117119446
 21
99.9263001754069
 31
0.0
  0
LINE
  5
297
102
{ACAD_REACTORS
330
75B
102
}
330
1F
100
AcDbEntity
  8
実線
100
AcDbLine
 10
295.7134117119446
 20
150.4263001754069
 30
0.0
 11
293.7688680636814
 21
150.4263001754069
 31
0.0
  0
ELLIPSE
  5
298
102
{ACAD_REACTORS
330
75B
102
}
330
1F
100
AcDbEntity
  8
実線
100
AcDbEllipse
 10
293.7688680636814
 20
125.1763001754069
 30
0.0
 11
0.0
 21
25.25
 31
0.0
210
0.0
220
0.0
230
1.0
 40
0.7071067811865475
 41
3.141592653589792
 42
6.283185307179584
  0
ELLIPSE
  5
299
102
{ACAD_REACTORS
330
75B
102
}
330
1F
100
AcDbEntity
  8
実線
100
AcDbEllipse
 10
293.7688680636814
 20
125.1763001754069
 30
0.0
 11
0.0
 21
25.25
 31
0.0
210
0.0
220
0.0
230
1.0
 40
0.7071067811865475
 41
1.570796326794897
 42
3.141592653589792
  0
ELLIPSE
  5
29A
102
{ACAD_REACTORS
330
75B
102
}
330
1F
100
AcDbEntity
  8
実線
100
AcDbEllipse
 10
295.7134117119446
 20
125.1763001754069
 30
0.0
 11
0.0
 21
25.25
 31
0.0
210
0.0
220
0.0
230
1.0
 40
0.7071067811865475
 41
3.141592653589792
 42
6.283185307179584
  0
ELLIPSE
  5
29B
102
{ACAD_REACTORS
330
75B
102
}
330
1F
100
AcDbEntity
  8
実線
100
AcDbEllipse
 10
293.7688680636814
 20
125.1763001754069
 30
0.0
 11
0.0
 21
25.25
 31
0.0
210
0.0
220
0.0
230
1.0
 40
0.7071067811865475
 41
0.0
 42
1.570796326794897
  0
LINE
  5
29C
102
{ACAD_REACTORS
330
75B
102
}
330
1F
100
AcDbEntity
  8
実線
100
AcDbLine
 10
345.0341096997063
 20
106.126300175407
 30
0.0
 11
347.5053578238443
 21
106.126300175407
 31
0.0
  0
LINE
  5
29D
102
{ACAD_REACTORS
330
75B
102
}
330
1F
100
AcDbEntity
  8
実線
100
AcDbLine
 10
347.5053578238446
 20
144.2263001754069
 30
0.0
 11
345.0341096997063
 21
144.2263001754069
 31
0.0
  0
LINE
  5
29E
102
{ACAD_REACTORS
330
75B
102
}
330
1F
100
AcDbEntity
  8
実線
100
AcDbLine
 10
345.0341096997063
 20
144.2263001754069
 30
0.0
 11
345.0341096997063
 21
136.5037005832668
 31
0.0
  0
ARC
  5
2A1
102
{ACAD_REACTORS
330
75B
102
}
330
1F
100
AcDbEntity
  8
実線
100
AcDbCircle
 10
443.2315843827669
 20
174.6737748584627
 30
0.0
 40
9.5
100
AcDbArc
 50
247.505059333153
 51
202.4949406668262
  0
ARC
  5
2A4
102
{ACAD_REACTORS
330
75B
102
}
330
1F
100
AcDbEntity
  8
実線
100
AcDbCircle
 10
443.2315843827618
 20
75.678825492346
 30
0.0
 40
9.5
100
AcDbArc
 50
157.505059333147
 51
112.4949406668418
  0
ARC
  5
2A7
102
{ACAD_REACTORS
330
75B
102
}
330
1F
100
AcDbEntity
  8
実線
100
AcDbCircle
 10
344.2366350166504
 20
174.6737748584678
 30
0.0
 40
9.5
100
AcDbArc
 50
337.5050593331465
 51
292.4949406668328
  0
ARC
  5
2AA
102
{ACAD_REACTORS
330
75B
102
}
330
1F
100
AcDbEntity
  8
実線
100
AcDbCircle
 10
344.2366350166453
 20
75.67882549235122
 30
0.0
 40
9.5
100
AcDbArc
 50
67.50505933314753
 51
22.49494066683276
  0
ARC
  5
2AB
102
{ACAD_REACTORS
330
75B
102
}
330
1F
100
AcDbEntity
  8
実線
100
AcDbCircle
 10
393.7341096997062
 20
125.1763001754069
 30
0.0
 40
87.5
100
AcDbArc
 50
192.5748173771454
 51
167.4251826228545
  0
ARC
  5
2AC
102
{ACAD_REACTORS
330
75B
102
}
330
1F
100
AcDbEntity
  8
実線
100
AcDbCircle
 10
432.7112794685901
 20
88.52892323233481
 30
0.0
 40
8.000000000000023
100
AcDbArc
 50
316.7645737428844
 51
34.9999999999977
  0
LINE
  5
2AD
102
{ACAD_REACTORS
330
75B
102
}
330
1F
100
AcDbEntity
  8
実線
100
AcDbLine
 10
439.2644958229022
 20
93.11753472314311
 30
0.0
 11
435.7718677797739
 21
98.10552450122822
 31
0.0
  0
ARC
  5
2AE
102
{ACAD_REACTORS
330
75B
102
}
330
1F
100
AcDbEntity
  8
実線
100
AcDbCircle
 10
393.734109699707
 20
125.1763001754059
 30
0.0
 40
61.49999999999885
100
AcDbArc
 50
313.235426257111
 51
316.7645737428892
  0
ARC
  5
2AF
102
{ACAD_REACTORS
330
75B
102
}
330
1F
100
AcDbEntity
  8
実線
100
AcDbCircle
 10
357.0867327566343
 20
164.1534699442906
 30
0.0
 40
8.000000000000008
100
AcDbArc
 50
55.00000000000287
 51
133.2354262571113
  0
ARC
  5
2B0
102
{ACAD_REACTORS
330
75B
102
}
330
1F
100
AcDbEntity
  8
実線
100
AcDbCircle
 10
354.7569399308224
 20
161.8236771184787
 30
0.0
 40
8.000000000000008
100
AcDbArc
 50
136.7645737428892
 51
214.9999999999977
  0
LINE
  5
2B1
102
{ACAD_REACTORS
330
75B
102
}
330
1F
100
AcDbEntity
  8
実線
100
AcDbLine
 10
348.2037235765106
 20
157.2350656276703
 30
0.0
 11
351.6963516196387
 21
152.2470758495854
 31
0.0
  0
ARC
  5
2B2
102
{ACAD_REACTORS
330
75B
102
}
330
1F
100
AcDbEntity
  8
実線
100
AcDbCircle
 10
393.7341096997073
 20
125.176300175406
 30
0.0
 40
61.50000000000114
100
AcDbArc
 50
133.2354262571113
 51
136.7645737428892
  0
LINE
  5
2B3
102
{ACAD_REACTORS
330
75B
102
}
330
1F
100
AcDbEntity
  8
実線
100
AcDbLine
 10
351.6963516196387
 20
98.10552450122822
 30
0.0
 11
348.2037235765106
 21
93.11753472314322
 31
0.0
  0
ARC
  5
2B4
102
{ACAD_REACTORS
330
75B
102
}
330
1F
100
AcDbEntity
  8
実線
100
AcDbCircle
 10
354.7569399308224
 20
88.52892323233481
 30
0.0
 40
7.999999999999996
100
AcDbArc
 50
145.0000000000023
 51
223.2354262571107
  0
ARC
  5
2B5
102
{ACAD_REACTORS
330
75B
102
}
330
1F
100
AcDbEntity
  8
実線
100
AcDbCircle
 10
393.7341096997067
 20
125.1763001754066
 30
0.0
 40
61.50000000000008
100
AcDbArc
 50
223.2354262571107
 51
226.7645737428889
  0
ARC
  5
2B6
102
{ACAD_REACTORS
330
75B
102
}
330
1F
100
AcDbEntity
  8
実線
100
AcDbCircle
 10
357.0867327566343
 20
86.19913040652281
 30
0.0
 40
8.000000000000021
100
AcDbArc
 50
226.7645737428889
 51
304.9999999999974
  0
LINE
  5
2B7
102
{ACAD_REACTORS
330
75B
102
}
330
1F
100
AcDbEntity
  8
実線
100
AcDbLine
 10
361.6753442474427
 20
79.64591405221103
 30
0.0
 11
366.6633340255278
 21
83.13854209533912
 31
0.0
  0
LINE
  5
2B8
102
{ACAD_REACTORS
330
75B
102
}
330
1F
100
AcDbEntity
  8
実線
100
AcDbLine
 10
366.6633340255278
 20
167.2140582554745
 30
0.0
 11
361.6753442474427
 21
170.7066862986026
 31
0.0
  0
ARC
  5
2B9
102
{ACAD_REACTORS
330
75B
102
}
330
1F
100
AcDbEntity
  8
実線
100
AcDbCircle
 10
430.3814866427784
 20
86.19913040652281
 30
0.0
 40
7.999999999999986
100
AcDbArc
 50
235.0000000000026
 51
313.235426257111
  0
ARC
  5
2BA
102
{ACAD_REACTORS
330
75B
102
}
330
1F
100
AcDbEntity
  8
実線
100
AcDbCircle
 10
430.3814866427784
 20
164.1534699442906
 30
0.0
 40
8.000000000000008
100
AcDbArc
 50
46.76457374288866
 51
124.9999999999971
  0
LINE
  5
2BB
102
{ACAD_REACTORS
330
75B
102
}
330
1F
100
AcDbEntity
  8
実線
100
AcDbLine
 10
425.7928751519699
 20
170.7066862986026
 30
0.0
 11
420.8048853738849
 21
167.2140582554745
 31
0.0
  0
LINE
  5
2BC
102
{ACAD_REACTORS
330
75B
102
}
330
1F
100
AcDbEntity
  8
実線
100
AcDbLine
 10
435.7718677797739
 20
152.2470758495854
 30
0.0
 11
439.2644958229022
 21
157.2350656276704
 31
0.0
  0
ARC
  5
2BD
102
{ACAD_REACTORS
330
75B
102
}
330
1F
100
AcDbEntity
  8
実線
100
AcDbCircle
 10
432.7112794685903
 20
161.8236771184787
 30
0.0
 40
7.999999999999995
100
AcDbArc
 50
325.0000000000023
 51
43.23542625711076
  0
ARC
  5
2BE
102
{ACAD_REACTORS
330
75B
102
}
330
1F
100
AcDbEntity
  8
実線
100
AcDbCircle
 10
393.7341096997066
 20
125.1763001754066
 30
0.0
 40
61.50000000000009
100
AcDbArc
 50
43.23542625711076
 51
46.76457374288866
  0
LINE
  5
2BF
102
{ACAD_REACTORS
330
75B
102
}
330
1F
100
AcDbEntity
  8
実線
100
AcDbLine
 10
420.8048853738849
 20
83.13854209533912
 30
0.0
 11
425.7928751519699
 21
79.64591405221103
 31
0.0
  0
CIRCLE
  5
2C0
102
{ACAD_REACTORS
330
75B
102
}
330
1F
100
AcDbEntity
  8
実線
100
AcDbCircle
 10
393.7341096997064
 20
125.1763001754068
 30
0.0
 40
50.0
  0
ARC
  5
2C1
102
{ACAD_REACTORS
330
75B
102
}
330
1F
100
AcDbEntity
  8
実線
100
AcDbCircle
 10
393.7341096997064
 20
125.1763001754068
 30
0.0
 40
25.0
100
AcDbArc
 50
323.1301023541537
 51
233.1301023541538
  0
LINE
  5
2C2
102
{ACAD_REACTORS
330
75B
102
}
330
1F
100
AcDbEntity
  8
実線
100
AcDbLine
 10
378.7341096997064
 20
105.1763001754067
 30
0.0
 11
388.7341096997063
 21
105.1763001754067
 31
0.0
  0
LINE
  5
2C3
102
{ACAD_REACTORS
330
75B
102
}
330
1F
100
AcDbEntity
  8
実線
100
AcDbLine
 10
408.7341096997063
 20
104.1763001754067
 30
0.0
 11
408.7341096997063
 21
102.1763001754067
 31
0.0
  0
LINE
  5
2C4
102
{ACAD_REACTORS
330
75B
102
}
330
1F
100
AcDbEntity
  8
実線
100
AcDbLine
 10
408.7341096997063
 20
102.1763001754067
 30
0.0
 11
388.7341096997063
 21
102.1763001754067
 31
0.0
  0
LINE
  5
2C5
102
{ACAD_REACTORS
330
75B
102
}
330
1F
100
AcDbEntity
  8
実線
100
AcDbLine
 10
388.7341096997063
 20
104.1763001754067
 30
0.0
 11
408.7341096997063
 21
104.1763001754067
 31
0.0
  0
LINE
  5
2C6
102
{ACAD_REACTORS
330
75B
102
}
330
1F
100
AcDbEntity
  8
実線
100
AcDbLine
 10
388.7341096997063
 20
102.1763001754067
 30
0.0
 11
388.7341096997063
 21
104.1763001754067
 31
0.0
  0
ELLIPSE
  5
2C9
102
{ACAD_REACTORS
330
75A
102
}
330
1F
100
AcDbEntity
  8
実線
100
AcDbEllipse
 10
310.7394308121585
 20
785.1763001754066
 30
0.0
 11
0.0
 21
19.05
 31
0.0
210
0.0
220
0.0
230
1.0
 40
0.7071067811865475
 41
0.1850360812483089
 42
2.956556572341482
  0
ELLIPSE
  5
2CA
102
{ACAD_REACTORS
330
75A
102
}
330
1F
100
AcDbEntity
  8
実線
100
AcDbEllipse
 10
293.7688680636812
 20
785.1763001754066
 30
0.0
 11
0.0
 21
25.25
 31
0.0
210
0.0
220
0.0
230
1.0
 40
0.7071067811865475
 41
1.570796326794897
 42
3.141592653589792
  0
ELLIPSE
  5
2CB
102
{ACAD_REACTORS
330
75A
102
}
330
1F
100
AcDbEntity
  8
実線
100
AcDbEllipse
 10
295.7134117119444
 20
785.1763001754066
 30
0.0
 11
0.0
 21
25.25
 31
0.0
210
0.0
220
0.0
230
1.0
 40
0.7071067811865475
 41
1.570796326794897
 42
3.141592653589792
  0
LINE
  5
2CC
102
{ACAD_REACTORS
330
75A
102
}
330
1F
100
AcDbEntity
  8
実線
100
AcDbLine
 10
293.7688680636812
 20
759.9263001754065
 30
0.0
 11
295.7134117119444
 21
759.9263001754065
 31
0.0
  0
LINE
  5
2CD
102
{ACAD_REACTORS
330
75A
102
}
330
1F
100
AcDbEntity
  8
実線
100
AcDbLine
 10
295.7134117119444
 20
810.4263001754066
 30
0.0
 11
293.7688680636812
 21
810.4263001754066
 31
0.0
  0
ELLIPSE
  5
2CE
102
{ACAD_REACTORS
330
75A
102
}
330
1F
100
AcDbEntity
  8
実線
100
AcDbEllipse
 10
293.7688680636812
 20
785.1763001754066
 30
0.0
 11
0.0
 21
25.25
 31
0.0
210
0.0
220
0.0
230
1.0
 40
0.7071067811865475
 41
0.0
 42
1.570796326794897
  0
ELLIPSE
  5
2CF
102
{ACAD_REACTORS
330
75A
102
}
330
1F
100
AcDbEntity
  8
実線
100
AcDbEllipse
 10
295.7134117119444
 20
785.1763001754066
 30
0.0
 11
0.0
 21
25.25
 31
0.0
210
0.0
220
0.0
230
1.0
 40
0.7071067811865475
 41
5.567213034553668
 42
6.283185307179584
  0
ELLIPSE
  5
2D0
102
{ACAD_REACTORS
330
75A
102
}
330
1F
100
AcDbEntity
  8
実線
100
AcDbEllipse
 10
295.7134117119444
 20
785.1763001754066
 30
0.0
 11
0.0
 21
25.25
 31
0.0
210
0.0
220
0.0
230
1.0
 40
0.7071067811865475
 41
3.141592653589792
 42
3.857564926215708
  0
ELLIPSE
  5
2D1
102
{ACAD_REACTORS
330
75A
102
}
330
1F
100
AcDbEntity
  8
実線
100
AcDbEllipse
 10
295.7134117119444
 20
785.1763001754066
 30
0.0
 11
0.0
 21
25.25
 31
0.0
210
0.0
220
0.0
230
1.0
 40
0.7071067811865475
 41
0.0
 42
1.570796326794897
  0
ELLIPSE
  5
2D2
102
{ACAD_REACTORS
330
75A
102
}
330
1F
100
AcDbEntity
  8
実線
100
AcDbEllipse
 10
297.3751126477326
 20
785.1763001754066
 30
0.0
 11
0.0
 21
19.05
 31
0.0
210
0.0
220
0.0
230
1.0
 40
0.7071067811865475
 41
1.570796326794897
 42
3.141592653589792
  0
ELLIPSE
  5
2D3
102
{ACAD_REACTORS
330
75A
102
}
330
1F
100
AcDbEntity
  8
実線
100
AcDbEllipse
 10
310.7394308121585
 20
785.1763001754066
 30
0.0
 11
0.0
 21
19.05
 31
0.0
210
0.0
220
0.0
230
1.0
 40
0.7071067811865475
 41
1.570796326794897
 42
2.956556572341486
  0
LINE
  5
2D4
102
{ACAD_REACTORS
330
75A
102
}
330
1F
100
AcDbEntity
  8
実線
100
AcDbLine
 10
297.3751126477326
 20
766.1263001754065
 30
0.0
 11
308.333011931586
 21
766.1263001754065
 31
0.0
  0
LINE
  5
2D5
102
{ACAD_REACTORS
330
75A
102
}
330
1F
100
AcDbEntity
  8
実線
100
AcDbLine
 10
308.333011931586
 20
804.2263001754063
 30
0.0
 11
297.3751126477326
 21
804.2263001754063
 31
0.0
  0
ELLIPSE
  5
2D6
102
{ACAD_REACTORS
330
75A
102
}
330
1F
100
AcDbEntity
  8
実線
100
AcDbEllipse
 10
297.3751126477326
 20
785.1763001754066
 30
0.0
 11
0.0
 21
19.05
 31
0.0
210
0.0
220
0.0
230
1.0
 40
0.7071067811865475
 41
0.0
 42
1.570796326794897
  0
ELLIPSE
  5
2D7
102
{ACAD_REACTORS
330
75A
102
}
330
1F
100
AcDbEntity
  8
実線
100
AcDbEllipse
 10
310.7394308121585
 20
785.1763001754066
 30
0.0
 11
0.0
 21
19.05
 31
0.0
210
0.0
220
0.0
230
1.0
 40
0.7071067811865475
 41
0.1850360812483048
 42
1.570796326794897
  0
ARC
  5
2D8
102
{ACAD_REACTORS
330
75A
102
}
330
1F
100
AcDbEntity
  8
実線
100
AcDbCircle
 10
357.086732756634
 20
824.1534699442903
 30
0.0
 40
8.000000000000021
100
AcDbArc
 50
120.6049082364352
 51
133.2354262571113
  0
ARC
  5
2D9
102
{ACAD_REACTORS
330
75A
102
}
330
1F
100
AcDbEntity
  8
実線
100
AcDbCircle
 10
393.7341096997063
 20
785.1763001754066
 30
0.0
 40
61.50000000000008
100
AcDbArc
 50
133.2354262571113
 51
136.7645737428892
  0
ARC
  5
2DA
102
{ACAD_REACTORS
330
75A
102
}
330
1F
100
AcDbEntity
  8
実線
100
AcDbCircle
 10
354.7569399308222
 20
821.8236771184784
 30
0.0
 40
7.999999999999996
100
AcDbArc
 50
136.7645737428892
 51
149.3950917635974
  0
ARC
  5
2DB
102
{ACAD_REACTORS
330
75A
102
}
330
1F
100
AcDbEntity
  8
実線
100
AcDbCircle
 10
430.3814866427781
 20
746.1991304065226
 30
0.0
 40
8.000000000000008
100
AcDbArc
 50
300.6049082364409
 51
313.235426257111
  0
ARC
  5
2DC
102
{ACAD_REACTORS
330
75A
102
}
330
1F
100
AcDbEntity
  8
実線
100
AcDbCircle
 10
393.7341096997062
 20
785.1763001754067
 30
0.0
 40
61.50000000000009
100
AcDbArc
 50
313.235426257111
 51
316.7645737428892
  0
ARC
  5
2DD
102
{ACAD_REACTORS
330
75A
102
}
330
1F
100
AcDbEntity
  8
実線
100
AcDbCircle
 10
432.71127946859
 20
748.5289232323345
 30
0.0
 40
7.999999999999995
100
AcDbArc
 50
316.7645737428892
 51
329.3950917635974
  0
ARC
  5
2DE
102
{ACAD_REACTORS
330
75A
102
}
330
1F
100
AcDbEntity
  8
実線
100
AcDbCircle
 10
354.7569399308222
 20
748.5289232323345
 30
0.0
 40
8.000000000000008
100
AcDbArc
 50
210.6049082364351
 51
223.2354262571107
  0
ARC
  5
2DF
102
{ACAD_REACTORS
330
75A
102
}
330
1F
100
AcDbEntity
  8
実線
100
AcDbCircle
 10
393.7341096997069
 20
785.1763001754071
 30
0.0
 40
61.50000000000114
100
AcDbArc
 50
223.2354262571107
 51
226.7645737428889
  0
ARC
  5
2E0
102
{ACAD_REACTORS
330
75A
102
}
330
1F
100
AcDbEntity
  8
実線
100
AcDbCircle
 10
357.086732756634
 20
746.1991304065226
 30
0.0
 40
8.000000000000008
100
AcDbArc
 50
226.7645737428889
 51
239.3950917635971
  0
ARC
  5
2E1
102
{ACAD_REACTORS
330
75A
102
}
330
1F
100
AcDbEntity
  8
実線
100
AcDbCircle
 10
432.7112794685898
 20
821.8236771184784
 30
0.0
 40
8.000000000000023
100
AcDbArc
 50
30.60490823642593
 51
43.23542625711566
  0
ARC
  5
2E2
102
{ACAD_REACTORS
330
75A
102
}
330
1F
100
AcDbEntity
  8
実線
100
AcDbCircle
 10
393.7341096997069
 20
785.1763001754075
 30
0.0
 40
61.49999999999885
100
AcDbArc
 50
43.23542625711076
 51
46.76457374288866
  0
ARC
  5
2E3
102
{ACAD_REACTORS
330
75A
102
}
330
1F
100
AcDbEntity
  8
実線
100
AcDbCircle
 10
430.3814866427781
 20
824.1534699442903
 30
0.0
 40
7.999999999999986
100
AcDbArc
 50
46.76457374288866
 51
59.3950917635969
  0
CIRCLE
  5
2E6
102
{ACAD_REACTORS
330
75A
102
}
330
1F
100
AcDbEntity
  8
実線
100
AcDbCircle
 10
344.2366350166452
 20
834.6737748584624
 30
0.0
 40
9.5
  0
CIRCLE
  5
2E9
102
{ACAD_REACTORS
330
75A
102
}
330
1F
100
AcDbEntity
  8
実線
100
AcDbCircle
 10
344.2366350166503
 20
735.6788254923458
 30
0.0
 40
9.5
  0
CIRCLE
  5
2EC
102
{ACAD_REACTORS
330
75A
102
}
330
1F
100
AcDbEntity
  8
実線
100
AcDbCircle
 10
443.2315843827669
 20
735.6788254923507
 30
0.0
 40
9.5
  0
CIRCLE
  5
2EF
102
{ACAD_REACTORS
330
75A
102
}
330
1F
100
AcDbEntity
  8
実線
100
AcDbCircle
 10
443.2315843827617
 20
834.6737748584674
 30
0.0
 40
9.5
  0
CIRCLE
  5
2F0
102
{ACAD_REACTORS
330
75A
102
}
330
1F
100
AcDbEntity
  8
実線
100
AcDbCircle
 10
393.7341096997061
 20
785.1763001754066
 30
0.0
 40
87.5
  0
LINE
  5
2F1
102
{ACAD_REACTORS
330
756
102
}
330
1F
100
AcDbEntity
  8
実線
100
AcDbLine
 10
823.7341096997061
 20
452.4763001754066
 30
0.0
 11
923.7341096997061
 21
452.4763001754066
 31
0.0
  0
LINE
  5
2F2
102
{ACAD_REACTORS
330
756
102
}
330
1F
100
AcDbEntity
  8
実線
100
AcDbLine
 10
823.7341096997061
 20
452.4763001754066
 30
0.0
 11
823.7341096997061
 21
376.4763001754066
 31
0.0
  0
LINE
  5
2F3
102
{ACAD_REACTORS
330
756
102
}
330
1F
100
AcDbEntity
  8
実線
100
AcDbLine
 10
923.7341096997061
 20
376.4763001754066
 30
0.0
 11
923.7341096997061
 21
452.4763001754066
 31
0.0
  0
LINE
  5
2F4
102
{ACAD_REACTORS
330
756
102
}
330
1F
100
AcDbEntity
  8
実線
100
AcDbLine
 10
823.7341096997061
 20
376.4763001754066
 30
0.0
 11
923.7341096997061
 21
376.4763001754066
 31
0.0
  0
LINE
  5
2F5
102
{ACAD_REACTORS
330
756
102
}
330
1F
100
AcDbEntity
  8
実線
100
AcDbLine
 10
838.734109699706
 20
371.9763001754066
 30
0.0
 11
838.734109699706
 21
361.4763001754067
 31
0.0
  0
LINE
  5
2F6
102
{ACAD_REACTORS
330
756
102
}
330
1F
100
AcDbEntity
  8
実線
100
AcDbLine
 10
908.7341096997061
 20
361.4763001754067
 30
0.0
 11
908.7341096997061
 21
371.9763001754066
 31
0.0
  0
LINE
  5
2F7
102
{ACAD_REACTORS
330
756
102
}
330
1F
100
AcDbEntity
  8
実線
100
AcDbLine
 10
838.734109699706
 20
361.4763001754067
 30
0.0
 11
908.7341096997061
 21
361.4763001754067
 31
0.0
  0
LINE
  5
2F8
102
{ACAD_REACTORS
330
756
102
}
330
1F
100
AcDbEntity
  8
実線
100
AcDbLine
 10
848.7341096997061
 20
361.4763001754067
 30
0.0
 11
848.7341096997061
 21
356.4763001754067
 31
0.0
  0
LINE
  5
2F9
102
{ACAD_REACTORS
330
756
102
}
330
1F
100
AcDbEntity
  8
実線
100
AcDbLine
 10
898.7341096997061
 20
356.4763001754067
 30
0.0
 11
898.7341096997061
 21
361.4763001754067
 31
0.0
  0
LINE
  5
2FA
102
{ACAD_REACTORS
330
756
102
}
330
1F
100
AcDbEntity
  8
実線
100
AcDbLine
 10
898.7341096997061
 20
356.4763001754067
 30
0.0
 11
863.936150728573
 21
356.4763001754067
 31
0.0
  0
LINE
  5
2FB
102
{ACAD_REACTORS
330
756
102
}
330
1F
100
AcDbEntity
  8
実線
100
AcDbLine
 10
879.734109699706
 20
332.9763001754067
 30
0.0
 11
879.734109699706
 21
354.4763001754066
 31
0.0
  0
LINE
  5
2FC
102
{ACAD_REACTORS
330
756
102
}
330
1F
100
AcDbEntity
  8
実線
100
AcDbLine
 10
886.2341096997061
 20
327.9763001754067
 30
0.0
 11
886.2341096997061
 21
332.9763001754067
 31
0.0
  0
LINE
  5
2FD
102
{ACAD_REACTORS
330
756
102
}
330
1F
100
AcDbEntity
  8
実線
100
AcDbLine
 10
878.734109699706
 20
327.9763001754067
 30
0.0
 11
886.2341096997061
 21
327.9763001754067
 31
0.0
  0
LINE
  5
2FE
102
{ACAD_REACTORS
330
756
102
}
330
1F
100
AcDbEntity
  8
実線
100
AcDbLine
 10
878.734109699706
 20
332.9763001754067
 30
0.0
 11
886.2341096997061
 21
332.9763001754067
 31
0.0
  0
LINE
  5
2FF
102
{ACAD_REACTORS
330
756
102
}
330
1F
100
AcDbEntity
  8
実線
100
AcDbLine
 10
867.7341096997061
 20
522.9763001754064
 30
0.0
 11
867.7341096997061
 21
495.9763001754065
 31
0.0
  0
LINE
  5
300
102
{ACAD_REACTORS
330
756
102
}
330
1F
100
AcDbEntity
  8
実線
100
AcDbLine
 10
879.734109699706
 20
495.9763001754065
 30
0.0
 11
879.734109699706
 21
522.9763001754064
 31
0.0
  0
LINE
  5
301
102
{ACAD_REACTORS
330
756
102
}
330
1F
100
AcDbEntity
  8
実線
100
AcDbLine
 10
853.734109699706
 20
331.9763001754067
 30
0.0
 11
847.2341096997061
 21
331.9763001754067
 31
0.0
  0
LINE
  5
302
102
{ACAD_REACTORS
330
756
102
}
330
1F
100
AcDbEntity
  8
実線
100
AcDbLine
 10
847.2341096997061
 20
328.9763001754067
 30
0.0
 11
853.734109699706
 21
328.9763001754067
 31
0.0
  0
LINE
  5
303
102
{ACAD_REACTORS
330
756
102
}
330
1F
100
AcDbEntity
  8
実線
100
AcDbLine
 10
847.2341096997061
 20
331.9763001754067
 30
0.0
 11
847.2341096997061
 21
328.9763001754067
 31
0.0
  0
LINE
  5
304
102
{ACAD_REACTORS
330
756
102
}
330
1F
100
AcDbEntity
  8
実線
100
AcDbLine
 10
853.734109699706
 20
345.9263001754067
 30
0.0
 11
853.734109699706
 21
338.0263001754066
 31
0.0
  0
LINE
  5
305
102
{ACAD_REACTORS
330
756
102
}
330
1F
100
AcDbEntity
  8
実線
100
AcDbLine
 10
858.7341096997061
 20
345.9263001754067
 30
0.0
 11
853.734109699706
 21
345.9263001754067
 31
0.0
  0
LINE
  5
306
102
{ACAD_REACTORS
330
756
102
}
330
1F
100
AcDbEntity
  8
実線
100
AcDbLine
 10
858.7341096997061
 20
338.0263001754067
 30
0.0
 11
853.734109699706
 21
338.0263001754067
 31
0.0
  0
LINE
  5
307
102
{ACAD_REACTORS
330
756
102
}
330
1F
100
AcDbEntity
  8
実線
100
AcDbLine
 10
853.734109699706
 20
343.4763001754066
 30
0.0
 11
847.2341096997061
 21
343.4763001754066
 31
0.0
  0
LINE
  5
308
102
{ACAD_REACTORS
330
756
102
}
330
1F
100
AcDbEntity
  8
実線
100
AcDbLine
 10
847.2341096997061
 20
340.4763001754067
 30
0.0
 11
853.734109699706
 21
340.4763001754067
 31
0.0
  0
LINE
  5
309
102
{ACAD_REACTORS
330
756
102
}
330
1F
100
AcDbEntity
  8
実線
100
AcDbLine
 10
847.2341096997061
 20
343.4763001754066
 30
0.0
 11
847.2341096997061
 21
340.4763001754067
 31
0.0
  0
LINE
  5
30A
102
{ACAD_REACTORS
330
756
102
}
330
1F
100
AcDbEntity
  8
実線
100
AcDbLine
 10
858.7341096997061
 20
334.4263001754066
 30
0.0
 11
853.734109699706
 21
334.4263001754066
 31
0.0
  0
LINE
  5
30B
102
{ACAD_REACTORS
330
756
102
}
330
1F
100
AcDbEntity
  8
実線
100
AcDbLine
 10
853.734109699706
 20
334.4263001754066
 30
0.0
 11
853.734109699706
 21
326.5263001754066
 31
0.0
  0
LINE
  5
30C
102
{ACAD_REACTORS
330
756
102
}
330
1F
100
AcDbEntity
  8
実線
100
AcDbLine
 10
858.7341096997061
 20
326.5263001754066
 30
0.0
 11
853.734109699706
 21
326.5263001754066
 31
0.0
  0
LINE
  5
30D
102
{ACAD_REACTORS
330
756
102
}
330
1F
100
AcDbEntity
  8
実線
100
AcDbLine
 10
866.234109699706
 20
325.4763001754067
 30
0.0
 11
866.234109699706
 21
322.6763001754067
 31
0.0
  0
LINE
  5
30E
102
{ACAD_REACTORS
330
756
102
}
330
1F
100
AcDbEntity
  8
実線
100
AcDbLine
 10
881.2341096997061
 20
322.6763001754066
 30
0.0
 11
881.2341096997061
 21
327.9763001754066
 31
0.0
  0
LINE
  5
30F
102
{ACAD_REACTORS
330
756
102
}
330
1F
100
AcDbEntity
  8
実線
100
AcDbLine
 10
866.234109699706
 20
322.6763001754066
 30
0.0
 11
881.2341096997061
 21
322.6763001754066
 31
0.0
  0
LINE
  5
310
102
{ACAD_REACTORS
330
756
102
}
330
1F
100
AcDbEntity
  8
実線
100
AcDbLine
 10
922.434109699706
 20
583.4263001754066
 30
0.0
 11
922.434109699706
 21
545.3263001754065
 31
0.0
  0
ARC
  5
311
102
{ACAD_REACTORS
330
756
102
}
330
1F
100
AcDbEntity
  8
実線
100
AcDbCircle
 10
922.434109699706
 20
515.8763001754065
 30
0.0
 40
67.54999999999999
100
AcDbArc
 50
44.99999999999971
 51
90.0
  0
ARC
  5
312
102
{ACAD_REACTORS
330
756
102
}
330
1F
100
AcDbEntity
  8
実線
100
AcDbCircle
 10
922.434109699706
 20
515.8763001754065
 30
0.0
 40
29.45
100
AcDbArc
 50
44.99999999999971
 51
90.0
  0
LINE
  5
313
102
{ACAD_REACTORS
330
756
102
}
330
1F
100
AcDbEntity
  8
実線
100
AcDbLine
 10
983.563490933283
 20
550.2770450801322
 30
0.0
 11
970.199172768858
 21
563.6413632445577
 31
0.0
  0
LINE
  5
314
102
{ACAD_REACTORS
330
756
102
}
330
1F
100
AcDbEntity
  8
実線
100
AcDbLine
 10
943.25840440565
 20
536.7005948813503
 30
0.0
 11
956.622722570076
 21
523.3362767169246
 31
0.0
  0
LINE
  5
315
102
{ACAD_REACTORS
330
756
102
}
330
1F
100
AcDbEntity
  8
実線
100
AcDbLine
 10
970.1991727688568
 20
563.6413632445577
 30
0.0
 11
943.25840440565
 21
536.7005948813503
 31
0.0
  0
LINE
  5
316
102
{ACAD_REACTORS
330
756
102
}
330
1F
100
AcDbEntity
  8
実線
100
AcDbLine
 10
956.622722570076
 20
523.3362767169246
 30
0.0
 11
953.900361462508
 21
517.2905137377797
 31
0.0
  0
LINE
  5
317
102
{ACAD_REACTORS
330
756
102
}
330
1F
100
AcDbEntity
  8
実線
100
AcDbLine
 10
989.609253912428
 20
552.9994061877004
 30
0.0
 11
983.563490933283
 21
550.2770450801322
 31
0.0
  0
LINE
  5
318
102
{ACAD_REACTORS
330
756
102
}
330
1F
100
AcDbEntity
  8
実線
100
AcDbLine
 10
956.622722570076
 20
523.3362767169246
 30
0.0
 11
983.563490933283
 21
550.2770450801322
 31
0.0
  0
LINE
  5
319
102
{ACAD_REACTORS
330
756
102
}
330
1F
100
AcDbEntity
  8
実線
100
AcDbLine
 10
991.5537975606909
 20
551.0548625394372
 30
0.0
 11
989.609253912428
 21
552.9994061877004
 31
0.0
  0
LINE
  5
31A
102
{ACAD_REACTORS
330
756
102
}
330
1F
100
AcDbEntity
  8
実線
100
AcDbLine
 10
953.900361462508
 20
517.2905137377797
 30
0.0
 11
955.84490511077
 21
515.3459700895166
 31
0.0
  0
LINE
  5
31B
102
{ACAD_REACTORS
330
756
102
}
330
1F
100
AcDbEntity
  8
実線
100
AcDbLine
 10
991.5537975606909
 20
551.0548625394372
 30
0.0
 11
955.84490511077
 21
515.3459700895166
 31
0.0
  0
LINE
  5
31C
102
{ACAD_REACTORS
330
756
102
}
330
1F
100
AcDbEntity
  8
実線
100
AcDbLine
 10
989.609253912428
 20
552.9994061877004
 30
0.0
 11
953.900361462508
 21
517.2905137377797
 31
0.0
  0
LINE
  5
31D
102
{ACAD_REACTORS
330
756
102
}
330
1F
100
AcDbEntity
  8
実線
100
AcDbLine
 10
922.434109699706
 20
583.4263001754066
 30
0.0
 11
909.8685226529289
 21
583.4263001754066
 31
0.0
  0
LINE
  5
31E
102
{ACAD_REACTORS
330
756
102
}
330
1F
100
AcDbEntity
  8
実線
100
AcDbLine
 10
920.7112794685899
 20
545.3263001754065
 30
0.0
 11
922.434109699706
 21
545.3263001754065
 31
0.0
  0
ARC
  5
31F
102
{ACAD_REACTORS
330
756
102
}
330
1F
100
AcDbEntity
  8
実線
100
AcDbCircle
 10
900.7341096997061
 20
574.1763001754065
 30
0.0
 40
13.0
100
AcDbArc
 50
45.36022704139527
 51
90.0
  0
ARC
  5
320
102
{ACAD_REACTORS
330
756
102
}
330
1F
100
AcDbEntity
  8
実線
100
AcDbCircle
 10
846.734109699706
 20
574.1763001754065
 30
0.0
 40
13.0
100
AcDbArc
 50
90.0
 51
180.0
  0
LINE
  5
321
102
{ACAD_REACTORS
330
756
102
}
330
1F
100
AcDbEntity
  8
実線
100
AcDbLine
 10
826.756939930822
 20
536.4763001754065
 30
0.0
 11
920.7112794685899
 21
536.4763001754065
 31
0.0
  0
LINE
  5
322
102
{ACAD_REACTORS
330
756
102
}
330
1F
100
AcDbEntity
  8
実線
100
AcDbLine
 10
833.7341096997061
 20
574.1763001754065
 30
0.0
 11
833.7341096997061
 21
546.4763001754065
 31
0.0
  0
LINE
  5
323
102
{ACAD_REACTORS
330
756
102
}
330
1F
100
AcDbEntity
  8
実線
100
AcDbLine
 10
920.7112794685899
 20
536.4763001754065
 30
0.0
 11
920.7112794685899
 21
546.4763001754065
 31
0.0
  0
LINE
  5
324
102
{ACAD_REACTORS
330
756
102
}
330
1F
100
AcDbEntity
  8
実線
100
AcDbLine
 10
920.7112794685899
 20
546.4763001754065
 30
0.0
 11
891.7630065101301
 21
546.4763001754065
 31
0.0
  0
LINE
  5
325
102
{ACAD_REACTORS
330
756
102
}
330
1F
100
AcDbEntity
  8
実線
100
AcDbLine
 10
826.756939930822
 20
546.4763001754065
 30
0.0
 11
855.7052128892822
 21
546.4763001754065
 31
0.0
  0
LINE
  5
326
102
{ACAD_REACTORS
330
756
102
}
330
1F
100
AcDbEntity
  8
実線
100
AcDbLine
 10
826.756939930822
 20
546.4763001754065
 30
0.0
 11
826.756939930822
 21
536.4763001754065
 31
0.0
  0
LINE
  5
327
102
{ACAD_REACTORS
330
756
102
}
330
1F
100
AcDbEntity
  8
実線
100
AcDbLine
 10
855.7052128892822
 20
536.4763001754065
 30
0.0
 11
855.7052128892822
 21
546.4763001754065
 31
0.0
  0
LINE
  5
328
102
{ACAD_REACTORS
330
756
102
}
330
1F
100
AcDbEntity
  8
実線
100
AcDbLine
 10
891.7630065101301
 20
536.4763001754065
 30
0.0
 11
891.7630065101301
 21
546.4763001754065
 31
0.0
  0
LINE
  5
329
102
{ACAD_REACTORS
330
756
102
}
330
1F
100
AcDbEntity
  8
実線
100
AcDbLine
 10
918.0341096997061
 20
452.4763001754064
 30
0.0
 11
918.0341096997061
 21
481.9763001754064
 31
0.0
  0
ARC
  5
32A
102
{ACAD_REACTORS
330
756
102
}
330
1F
100
AcDbEntity
  8
実線
100
AcDbCircle
 10
848.034109699706
 20
481.9763001754064
 30
0.0
 40
70.00000000000003
100
AcDbArc
 50
0.0
 51
35.85346706346567
  0
ARC
  5
32B
102
{ACAD_REACTORS
330
756
102
}
330
1F
100
AcDbEntity
  8
実線
100
AcDbCircle
 10
850.0341096997059
 20
481.9763001754067
 30
0.0
 40
57.99999999999997
100
AcDbArc
 50
13.96796267464757
 51
44.98296795989872
  0
ARC
  5
32C
102
{ACAD_REACTORS
330
756
102
}
330
1F
100
AcDbEntity
  8
実線
100
AcDbCircle
 10
897.434109699706
 20
481.9763001754067
 30
0.0
 40
57.99999999999997
100
AcDbArc
 50
135.0170320401013
 51
166.0320373253524
  0
ARC
  5
32D
102
{ACAD_REACTORS
330
756
102
}
330
1F
100
AcDbEntity
  8
実線
100
AcDbCircle
 10
899.4341096997059
 20
481.9763001754064
 30
0.0
 40
70.00000000000003
100
AcDbArc
 50
144.1465329365343
 51
180.0
  0
LINE
  5
32E
102
{ACAD_REACTORS
330
756
102
}
330
1F
100
AcDbEntity
  8
実線
100
AcDbLine
 10
829.4341096997058
 20
452.4763001754064
 30
0.0
 11
829.4341096997058
 21
481.9763001754064
 31
0.0
  0
LINE
  5
32F
102
{ACAD_REACTORS
330
756
102
}
330
1F
100
AcDbEntity
  8
実線
100
AcDbLine
 10
912.119491031666
 20
495.9763001754065
 30
0.0
 11
835.3487283677459
 21
495.9763001754065
 31
0.0
  0
LINE
  5
330
102
{ACAD_REACTORS
330
756
102
}
330
1F
100
AcDbEntity
  8
実線
100
AcDbLine
 10
912.119491031666
 20
452.4763001754064
 30
0.0
 11
912.119491031666
 21
495.9763001754065
 31
0.0
  0
LINE
  5
331
102
{ACAD_REACTORS
330
756
102
}
330
1F
100
AcDbEntity
  8
実線
100
AcDbLine
 10
835.3487283677459
 20
452.4763001754064
 30
0.0
 11
835.3487283677459
 21
495.9763001754065
 31
0.0
  0
LINE
  5
332
102
{ACAD_REACTORS
330
756
102
}
330
1F
100
AcDbEntity
  8
実線
100
AcDbLine
 10
961.2341096997061
 20
605.1763001754066
 30
0.0
 11
786.234109699706
 21
605.1763001754066
 31
0.0
  0
LINE
  5
333
102
{ACAD_REACTORS
330
756
102
}
330
1F
100
AcDbEntity
  8
実線
100
AcDbLine
 10
786.234109699706
 20
587.1763001754065
 30
0.0
 11
961.2341096997061
 21
587.1763001754065
 31
0.0
  0
LINE
  5
334
102
{ACAD_REACTORS
330
756
102
}
330
1F
100
AcDbEntity
  8
実線
100
AcDbLine
 10
961.2341096997061
 20
587.1763001754065
 30
0.0
 11
961.2341096997061
 21
605.1763001754066
 31
0.0
  0
LINE
  5
335
102
{ACAD_REACTORS
330
756
102
}
330
1F
100
AcDbEntity
  8
実線
100
AcDbLine
 10
786.234109699706
 20
605.1763001754066
 30
0.0
 11
786.234109699706
 21
587.1763001754065
 31
0.0
  0
LINE
  5
336
102
{ACAD_REACTORS
330
756
102
}
330
1F
100
AcDbEntity
  8
実線
100
AcDbLine
 10
826.756939930822
 20
522.9763001754064
 30
0.0
 11
920.7112794685899
 21
522.9763001754064
 31
0.0
  0
LINE
  5
337
102
{ACAD_REACTORS
330
756
102
}
330
1F
100
AcDbEntity
  8
実線
100
AcDbLine
 10
920.7112794685899
 20
522.9763001754064
 30
0.0
 11
920.7112794685899
 21
536.4763001754065
 31
0.0
  0
LINE
  5
338
102
{ACAD_REACTORS
330
756
102
}
330
1F
100
AcDbEntity
  8
実線
100
AcDbLine
 10
826.756939930822
 20
536.4763001754065
 30
0.0
 11
826.756939930822
 21
522.9763001754064
 31
0.0
  0
LINE
  5
339
102
{ACAD_REACTORS
330
756
102
}
330
1F
100
AcDbEntity
  8
実線
100
AcDbLine
 10
855.7052128892822
 20
522.9763001754064
 30
0.0
 11
855.7052128892822
 21
536.4763001754065
 31
0.0
  0
LINE
  5
33A
102
{ACAD_REACTORS
330
756
102
}
330
1F
100
AcDbEntity
  8
実線
100
AcDbLine
 10
891.7630065101301
 20
522.9763001754064
 30
0.0
 11
891.7630065101301
 21
536.4763001754065
 31
0.0
  0
LINE
  5
33B
102
{ACAD_REACTORS
330
756
102
}
330
1F
100
AcDbEntity
  8
実線
100
AcDbLine
 10
920.734109699706
 20
371.9763001754066
 30
0.0
 11
826.7341096997061
 21
371.9763001754066
 31
0.0
  0
ARC
  5
33C
102
{ACAD_REACTORS
330
756
102
}
330
1F
100
AcDbEntity
  8
実線
100
AcDbCircle
 10
826.7341096997061
 20
374.9763001754067
 30
0.0
 40
3.0
100
AcDbArc
 50
180.0
 51
270.0
  0
ARC
  5
33D
102
{ACAD_REACTORS
330
756
102
}
330
1F
100
AcDbEntity
  8
実線
100
AcDbCircle
 10
920.734109699706
 20
374.9763001754067
 30
0.0
 40
3.0
100
AcDbArc
 50
270.0
 51
0.0
  0
LINE
  5
33E
102
{ACAD_REACTORS
330
756
102
}
330
1F
100
AcDbEntity
  8
実線
100
AcDbLine
 10
823.7341096997061
 20
376.4763001754066
 30
0.0
 11
823.7341096997061
 21
374.9763001754067
 31
0.0
  0
LINE
  5
33F
102
{ACAD_REACTORS
330
756
102
}
330
1F
100
AcDbEntity
  8
実線
100
AcDbLine
 10
923.7341096997061
 20
374.9763001754067
 30
0.0
 11
923.7341096997061
 21
376.4763001754066
 31
0.0
  0
LINE
  5
340
102
{ACAD_REACTORS
330
756
102
}
330
1F
100
AcDbEntity
  8
実線
100
AcDbLine
 10
878.734109699706
 20
354.4763001754066
 30
0.0
 11
898.7341096997061
 21
354.4763001754066
 31
0.0
  0
LINE
  5
341
102
{ACAD_REACTORS
330
756
102
}
330
1F
100
AcDbEntity
  8
実線
100
AcDbLine
 10
848.7341096997061
 20
356.4763001754067
 30
0.0
 11
863.936150728573
 21
356.4763001754067
 31
0.0
  0
LINE
  5
342
102
{ACAD_REACTORS
330
756
102
}
330
1F
100
AcDbEntity
  8
実線
100
AcDbLine
 10
888.734109699706
 20
354.4763001754066
 30
0.0
 11
888.734109699706
 21
356.4763001754067
 31
0.0
  0
LINE
  5
343
102
{ACAD_REACTORS
330
756
102
}
330
1F
100
AcDbEntity
  8
実線
100
AcDbLine
 10
848.7341096997061
 20
356.4763001754067
 30
0.0
 11
848.7341096997061
 21
354.4763001754066
 31
0.0
  0
LINE
  5
344
102
{ACAD_REACTORS
330
756
102
}
330
1F
100
AcDbEntity
  8
実線
100
AcDbLine
 10
898.7341096997061
 20
354.4763001754066
 30
0.0
 11
898.7341096997061
 21
356.4763001754067
 31
0.0
  0
LINE
  5
345
102
{ACAD_REACTORS
330
756
102
}
330
1F
100
AcDbEntity
  8
実線
100
AcDbLine
 10
848.7341096997061
 20
354.4763001754066
 30
0.0
 11
858.7341096997061
 21
354.476300175454
 31
0.0
  0
LINE
  5
346
102
{ACAD_REACTORS
330
756
102
}
330
1F
100
AcDbEntity
  8
実線
100
AcDbLine
 10
858.7341096997061
 20
356.4763001754067
 30
0.0
 11
858.7341096997061
 21
325.4763001754067
 31
0.0
  0
LINE
  5
347
102
{ACAD_REACTORS
330
756
102
}
330
1F
100
AcDbEntity
  8
実線
100
AcDbLine
 10
858.7341096997061
 20
325.4763001754067
 30
0.0
 11
878.734109699706
 21
325.4763001754067
 31
0.0
  0
LINE
  5
348
102
{ACAD_REACTORS
330
756
102
}
330
1F
100
AcDbEntity
  8
実線
100
AcDbLine
 10
878.734109699706
 20
356.4763001754067
 30
0.0
 11
878.734109699706
 21
325.4763001754067
 31
0.0
  0
LINE
  5
349
102
{ACAD_REACTORS
330
757
102
}
330
1F
100
AcDbEntity
  8
実線
100
AcDbLine
 10
583.7341096997066
 20
376.4763001754066
 30
0.0
 11
683.7341096997066
 21
376.4763001754066
 31
0.0
  0
LINE
  5
34A
102
{ACAD_REACTORS
330
757
102
}
330
1F
100
AcDbEntity
  8
実線
100
AcDbLine
 10
683.7341096997066
 20
452.4763001754066
 30
0.0
 11
583.7341096997063
 21
452.4763001754066
 31
0.0
  0
LINE
  5
34B
102
{ACAD_REACTORS
330
757
102
}
330
1F
100
AcDbEntity
  8
実線
100
AcDbLine
 10
583.7341096997066
 20
452.4763001754066
 30
0.0
 11
583.7341096997066
 21
376.4763001754066
 31
0.0
  0
LINE
  5
34C
102
{ACAD_REACTORS
330
757
102
}
330
1F
100
AcDbEntity
  8
実線
100
AcDbLine
 10
683.7341096997066
 20
376.4763001754066
 30
0.0
 11
683.7341096997066
 21
452.4763001754066
 31
0.0
  0
LINE
  5
34D
102
{ACAD_REACTORS
330
757
102
}
330
1F
100
AcDbEntity
  8
実線
100
AcDbLine
 10
598.7341096997067
 20
361.4763001754067
 30
0.0
 11
668.7341096997066
 21
361.4763001754067
 31
0.0
  0
LINE
  5
34E
102
{ACAD_REACTORS
330
757
102
}
330
1F
100
AcDbEntity
  8
実線
100
AcDbLine
 10
598.7341096997067
 20
371.9763001754066
 30
0.0
 11
598.7341096997067
 21
361.4763001754067
 31
0.0
  0
LINE
  5
34F
102
{ACAD_REACTORS
330
757
102
}
330
1F
100
AcDbEntity
  8
実線
100
AcDbLine
 10
668.7341096997066
 20
361.4763001754067
 30
0.0
 11
668.7341096997066
 21
371.9763001754066
 31
0.0
  0
LINE
  5
350
102
{ACAD_REACTORS
330
757
102
}
330
1F
100
AcDbEntity
  8
実線
100
AcDbLine
 10
656.7341096997067
 20
356.4763001754067
 30
0.0
 11
658.7341096997066
 21
356.4763001754067
 31
0.0
  0
LINE
  5
351
102
{ACAD_REACTORS
330
757
102
}
330
1F
100
AcDbEntity
  8
実線
100
AcDbLine
 10
608.7341096997066
 20
361.4763001754067
 30
0.0
 11
608.7341096997066
 21
356.4763001754067
 31
0.0
  0
LINE
  5
352
102
{ACAD_REACTORS
330
757
102
}
330
1F
100
AcDbEntity
  8
実線
100
AcDbLine
 10
658.7341096997066
 20
356.4763001754067
 30
0.0
 11
658.7341096997066
 21
361.4763001754067
 31
0.0
  0
LINE
  5
353
102
{ACAD_REACTORS
330
757
102
}
330
1F
100
AcDbEntity
  8
実線
100
AcDbLine
 10
627.7341096997067
 20
354.4763001754066
 30
0.0
 11
627.7341096997067
 21
332.9763001754067
 31
0.0
  0
LINE
  5
354
102
{ACAD_REACTORS
330
757
102
}
330
1F
100
AcDbEntity
  8
実線
100
AcDbLine
 10
639.7341096997063
 20
332.9763001754067
 30
0.0
 11
639.7341096997063
 21
354.4763001754066
 31
0.0
  0
LINE
  5
355
102
{ACAD_REACTORS
330
757
102
}
330
1F
100
AcDbEntity
  8
実線
100
AcDbLine
 10
621.2341096997063
 20
327.9763001754067
 30
0.0
 11
646.2341096997066
 21
327.9763001754067
 31
0.0
  0
LINE
  5
356
102
{ACAD_REACTORS
330
757
102
}
330
1F
100
AcDbEntity
  8
実線
100
AcDbLine
 10
646.2341096997066
 20
332.9763001754067
 30
0.0
 11
621.2341096997063
 21
332.9763001754067
 31
0.0
  0
LINE
  5
357
102
{ACAD_REACTORS
330
757
102
}
330
1F
100
AcDbEntity
  8
実線
100
AcDbLine
 10
621.2341096997063
 20
332.9763001754067
 30
0.0
 11
621.2341096997063
 21
327.9763001754067
 31
0.0
  0
LINE
  5
358
102
{ACAD_REACTORS
330
757
102
}
330
1F
100
AcDbEntity
  8
実線
100
AcDbLine
 10
646.2341096997066
 20
327.9763001754067
 30
0.0
 11
646.2341096997066
 21
332.9763001754067
 31
0.0
  0
CIRCLE
  5
359
102
{ACAD_REACTORS
330
757
102
}
330
1F
100
AcDbEntity
  8
実線
100
AcDbCircle
 10
650.7841096997066
 20
330.4763001754067
 30
0.0
 40
1.5
  0
LINE
  5
35A
102
{ACAD_REACTORS
330
757
102
}
330
1F
100
AcDbEntity
  8
実線
100
AcDbLine
 10
646.8341096997063
 20
345.9263001754067
 30
0.0
 11
654.7341096997066
 21
345.9263001754067
 31
0.0
  0
LINE
  5
35B
102
{ACAD_REACTORS
330
757
102
}
330
1F
100
AcDbEntity
  8
実線
100
AcDbLine
 10
654.7341096997066
 20
345.9263001754067
 30
0.0
 11
654.7341096997066
 21
338.0263001754066
 31
0.0
  0
LINE
  5
35C
102
{ACAD_REACTORS
330
757
102
}
330
1F
100
AcDbEntity
  8
実線
100
AcDbLine
 10
646.8341096997063
 20
338.0263001754067
 30
0.0
 11
646.8341096997063
 21
345.9263001754067
 31
0.0
  0
LINE
  5
35D
102
{ACAD_REACTORS
330
757
102
}
330
1F
100
AcDbEntity
  8
実線
100
AcDbLine
 10
654.7341096997066
 20
338.0263001754067
 30
0.0
 11
646.8341096997063
 21
338.0263001754067
 31
0.0
  0
CIRCLE
  5
35E
102
{ACAD_REACTORS
330
757
102
}
330
1F
100
AcDbEntity
  8
実線
100
AcDbCircle
 10
650.7841096997066
 20
341.9763001754066
 30
0.0
 40
1.5
  0
LINE
  5
35F
102
{ACAD_REACTORS
330
757
102
}
330
1F
100
AcDbEntity
  8
実線
100
AcDbLine
 10
646.8341096997063
 20
334.4263001754066
 30
0.0
 11
654.7341096997066
 21
334.4263001754066
 31
0.0
  0
LINE
  5
360
102
{ACAD_REACTORS
330
757
102
}
330
1F
100
AcDbEntity
  8
実線
100
AcDbLine
 10
646.8341096997063
 20
326.5263001754066
 30
0.0
 11
646.8341096997063
 21
334.4263001754066
 31
0.0
  0
LINE
  5
361
102
{ACAD_REACTORS
330
757
102
}
330
1F
100
AcDbEntity
  8
実線
100
AcDbLine
 10
654.7341096997066
 20
326.5263001754066
 30
0.0
 11
646.8341096997063
 21
326.5263001754066
 31
0.0
  0
LINE
  5
362
102
{ACAD_REACTORS
330
757
102
}
330
1F
100
AcDbEntity
  8
実線
100
AcDbLine
 10
654.7341096997066
 20
334.4263001754066
 30
0.0
 11
654.7341096997066
 21
326.5263001754066
 31
0.0
  0
LINE
  5
363
102
{ACAD_REACTORS
330
757
102
}
330
1F
100
AcDbEntity
  8
実線
100
AcDbLine
 10
626.2341096997066
 20
322.6763001754066
 30
0.0
 11
641.2341096997066
 21
322.6763001754066
 31
0.0
  0
LINE
  5
364
102
{ACAD_REACTORS
330
757
102
}
330
1F
100
AcDbEntity
  8
実線
100
AcDbLine
 10
626.2341096997066
 20
327.9763001754067
 30
0.0
 11
626.2341096997066
 21
322.6763001754067
 31
0.0
  0
LINE
  5
365
102
{ACAD_REACTORS
330
757
102
}
330
1F
100
AcDbEntity
  8
実線
100
AcDbLine
 10
641.2341096997066
 20
322.6763001754066
 30
0.0
 11
641.2341096997066
 21
327.9763001754066
 31
0.0
  0
ELLIPSE
  5
366
102
{ACAD_REACTORS
330
757
102
}
330
1F
100
AcDbEntity
  8
実線
100
AcDbEllipse
 10
633.7341096997063
 20
533.2004163144772
 30
0.0
 11
25.25
 21
0.0
 31
0.0
210
0.0
220
0.0
230
1.0
 40
0.7071067811865476
 41
5.174171413407771
 42
5.673466475380191
  0
ELLIPSE
  5
367
102
{ACAD_REACTORS
330
757
102
}
330
1F
100
AcDbEntity
  8
実線
100
AcDbEllipse
 10
633.7341096997063
 20
533.2004163144772
 30
0.0
 11
25.25
 21
0.0
 31
0.0
210
0.0
220
0.0
230
1.0
 40
0.7071067811865476
 41
3.751311485389186
 42
4.250606547361623
  0
ELLIPSE
  5
368
102
{ACAD_REACTORS
330
757
102
}
330
1F
100
AcDbEntity
  8
実線
100
AcDbEllipse
 10
633.7341096997063
 20
535.1449599627401
 30
0.0
 11
25.25
 21
0.0
 31
0.0
210
0.0
220
0.0
230
1.0
 40
0.7071067811865476
 41
5.174171413407771
 42
5.533309520050448
  0
ELLIPSE
  5
369
102
{ACAD_REACTORS
330
757
102
}
330
1F
100
AcDbEntity
  8
実線
100
AcDbEllipse
 10
633.7341096997063
 20
535.1449599627401
 30
0.0
 11
25.25
 21
0.0
 31
0.0
210
0.0
220
0.0
230
1.0
 40
0.7071067811865476
 41
3.89146844071893
 42
4.250606547361623
  0
ARC
  5
36A
102
{ACAD_REACTORS
330
757
102
}
330
1F
100
AcDbEntity
  8
実線
100
AcDbCircle
 10
660.7341096997061
 20
574.1763001754065
 30
0.0
 40
13.0
100
AcDbArc
 50
0.0
 51
90.0
  0
ARC
  5
36B
102
{ACAD_REACTORS
330
757
102
}
330
1F
100
AcDbEntity
  8
実線
100
AcDbCircle
 10
606.7341096997063
 20
574.1763001754065
 30
0.0
 40
13.0
100
AcDbArc
 50
90.0
 51
180.0
  0
LINE
  5
36C
102
{ACAD_REACTORS
330
757
102
}
330
1F
100
AcDbEntity
  8
実線
100
AcDbLine
 10
593.7341096997061
 20
574.1763001754065
 30
0.0
 11
593.7341096997061
 21
546.4763001754065
 31
0.0
  0
LINE
  5
36D
102
{ACAD_REACTORS
330
757
102
}
330
1F
100
AcDbEntity
  8
実線
100
AcDbLine
 10
673.7341096997063
 20
546.4763001754065
 30
0.0
 11
673.7341096997063
 21
574.1763001754065
 31
0.0
  0
LINE
  5
36E
102
{ACAD_REACTORS
330
757
102
}
330
1F
100
AcDbEntity
  8
実線
100
AcDbLine
 10
680.7112794685901
 20
536.4763001754065
 30
0.0
 11
680.7112794685901
 21
546.4763001754065
 31
0.0
  0
LINE
  5
36F
102
{ACAD_REACTORS
330
757
102
}
330
1F
100
AcDbEntity
  8
実線
100
AcDbLine
 10
680.7112794685901
 20
546.4763001754065
 30
0.0
 11
651.7630065101301
 21
546.4763001754065
 31
0.0
  0
LINE
  5
370
102
{ACAD_REACTORS
330
757
102
}
330
1F
100
AcDbEntity
  8
実線
100
AcDbLine
 10
586.7569399308223
 20
546.4763001754065
 30
0.0
 11
615.7052128892822
 21
546.4763001754065
 31
0.0
  0
LINE
  5
371
102
{ACAD_REACTORS
330
757
102
}
330
1F
100
AcDbEntity
  8
実線
100
AcDbLine
 10
586.7569399308223
 20
546.4763001754065
 30
0.0
 11
586.7569399308223
 21
536.4763001754065
 31
0.0
  0
LINE
  5
372
102
{ACAD_REACTORS
330
757
102
}
330
1F
100
AcDbEntity
  8
実線
100
AcDbLine
 10
651.7630065101301
 20
536.4763001754065
 30
0.0
 11
651.7630065101301
 21
546.4763001754065
 31
0.0
  0
LINE
  5
373
102
{ACAD_REACTORS
330
757
102
}
330
1F
100
AcDbEntity
  8
実線
100
AcDbLine
 10
615.7052128892822
 20
536.4763001754065
 30
0.0
 11
615.7052128892822
 21
546.4763001754065
 31
0.0
  0
LINE
  5
374
102
{ACAD_REACTORS
330
757
102
}
330
1F
100
AcDbEntity
  8
実線
100
AcDbLine
 10
673.7341096997067
 20
452.4763001754064
 30
0.0
 11
673.7341096997067
 21
495.9763001754065
 31
0.0
  0
LINE
  5
375
102
{ACAD_REACTORS
330
757
102
}
330
1F
100
AcDbEntity
  8
実線
100
AcDbLine
 10
644.9841096997066
 20
495.9763001754065
 30
0.0
 11
673.7341096997067
 21
495.9763001754065
 31
0.0
  0
LINE
  5
376
102
{ACAD_REACTORS
330
757
102
}
330
1F
100
AcDbEntity
  8
実線
100
AcDbLine
 10
622.4841096997066
 20
495.9763001754065
 30
0.0
 11
593.7341096997064
 21
495.9763001754065
 31
0.0
  0
LINE
  5
377
102
{ACAD_REACTORS
330
757
102
}
330
1F
100
AcDbEntity
  8
実線
100
AcDbLine
 10
593.7341096997064
 20
495.9763001754065
 30
0.0
 11
593.7341096997064
 21
452.4763001754066
 31
0.0
  0
LINE
  5
378
102
{ACAD_REACTORS
330
757
102
}
330
1F
100
AcDbEntity
  8
実線
100
AcDbLine
 10
644.9841096997066
 20
452.4763001754064
 30
0.0
 11
644.9841096997066
 21
522.9763001754064
 31
0.0
  0
LINE
  5
379
102
{ACAD_REACTORS
330
757
102
}
330
1F
100
AcDbEntity
  8
実線
100
AcDbLine
 10
622.4841096997066
 20
452.4763001754064
 30
0.0
 11
622.4841096997066
 21
522.9763001754064
 31
0.0
  0
LINE
  5
37A
102
{ACAD_REACTORS
330
757
102
}
330
1F
100
AcDbEntity
  8
実線
100
AcDbLine
 10
721.2341096997059
 20
587.1763001754065
 30
0.0
 11
546.2341096997063
 21
587.1763001754065
 31
0.0
  0
LINE
  5
37B
102
{ACAD_REACTORS
330
757
102
}
330
1F
100
AcDbEntity
  8
実線
100
AcDbLine
 10
721.2341096997059
 20
587.1763001754065
 30
0.0
 11
721.2341096997059
 21
605.1763001754066
 31
0.0
  0
LINE
  5
37C
102
{ACAD_REACTORS
330
757
102
}
330
1F
100
AcDbEntity
  8
実線
100
AcDbLine
 10
546.2341096997063
 20
605.1763001754066
 30
0.0
 11
546.2341096997063
 21
587.1763001754065
 31
0.0
  0
LINE
  5
37D
102
{ACAD_REACTORS
330
757
102
}
330
1F
100
AcDbEntity
  8
実線
100
AcDbLine
 10
721.2341096997059
 20
605.1763001754066
 30
0.0
 11
546.2341096997063
 21
605.1763001754066
 31
0.0
  0
LINE
  5
37E
102
{ACAD_REACTORS
330
757
102
}
330
1F
100
AcDbEntity
  8
実線
100
AcDbLine
 10
586.7569399308226
 20
536.4763001754065
 30
0.0
 11
680.7112794685905
 21
536.4763001754065
 31
0.0
  0
LINE
  5
37F
102
{ACAD_REACTORS
330
757
102
}
330
1F
100
AcDbEntity
  8
実線
100
AcDbLine
 10
586.7569399308226
 20
522.9763001754064
 30
0.0
 11
680.7112794685905
 21
522.9763001754064
 31
0.0
  0
LINE
  5
380
102
{ACAD_REACTORS
330
757
102
}
330
1F
100
AcDbEntity
  8
実線
100
AcDbLine
 10
680.7112794685905
 20
522.9763001754064
 30
0.0
 11
680.7112794685905
 21
536.4763001754065
 31
0.0
  0
LINE
  5
381
102
{ACAD_REACTORS
330
757
102
}
330
1F
100
AcDbEntity
  8
実線
100
AcDbLine
 10
586.7569399308226
 20
536.4763001754065
 30
0.0
 11
586.7569399308226
 21
522.9763001754064
 31
0.0
  0
LINE
  5
382
102
{ACAD_REACTORS
330
757
102
}
330
1F
100
AcDbEntity
  8
実線
100
AcDbLine
 10
651.7630065101305
 20
522.9763001754064
 30
0.0
 11
651.7630065101305
 21
536.4763001754065
 31
0.0
  0
LINE
  5
383
102
{ACAD_REACTORS
330
757
102
}
330
1F
100
AcDbEntity
  8
実線
100
AcDbLine
 10
615.7052128892826
 20
522.9763001754064
 30
0.0
 11
615.7052128892826
 21
536.4763001754065
 31
0.0
  0
LINE
  5
384
102
{ACAD_REACTORS
330
757
102
}
330
1F
100
AcDbEntity
  8
実線
100
AcDbLine
 10
583.7341096997066
 20
376.4763001754066
 30
0.0
 11
583.7341096997066
 21
374.9763001754067
 31
0.0
  0
LINE
  5
385
102
{ACAD_REACTORS
330
757
102
}
330
1F
100
AcDbEntity
  8
実線
100
AcDbLine
 10
683.7341096997066
 20
374.9763001754067
 30
0.0
 11
683.7341096997066
 21
376.4763001754066
 31
0.0
  0
LINE
  5
386
102
{ACAD_REACTORS
330
757
102
}
330
1F
100
AcDbEntity
  8
実線
100
AcDbLine
 10
680.7341096971587
 20
371.9763001754066
 30
0.0
 11
586.7341096997064
 21
371.9763001754066
 31
0.0
  0
ARC
  5
387
102
{ACAD_REACTORS
330
757
102
}
330
1F
100
AcDbEntity
  8
実線
100
AcDbCircle
 10
586.7341096997064
 20
374.9763001754067
 30
0.0
 40
3.0
100
AcDbArc
 50
180.0
 51
270.0
  0
ARC
  5
388
102
{ACAD_REACTORS
330
757
102
}
330
1F
100
AcDbEntity
  8
実線
100
AcDbCircle
 10
680.7341096997066
 20
374.9763001754067
 30
0.0
 40
3.0
100
AcDbArc
 50
270.0
 51
0.0
  0
LINE
  5
389
102
{ACAD_REACTORS
330
757
102
}
330
1F
100
AcDbEntity
  8
実線
100
AcDbLine
 10
654.7341096997066
 20
354.476300175454
 30
0.0
 11
608.7341096997066
 21
354.476300175454
 31
0.0
  0
LINE
  5
38A
102
{ACAD_REACTORS
330
757
102
}
330
1F
100
AcDbEntity
  8
実線
100
AcDbLine
 10
656.7341096997067
 20
356.4763001754067
 30
0.0
 11
608.7341096997066
 21
356.4763001754067
 31
0.0
  0
LINE
  5
38B
102
{ACAD_REACTORS
330
757
102
}
330
1F
100
AcDbEntity
  8
実線
100
AcDbLine
 10
654.7341096997066
 20
326.5263001754066
 30
0.0
 11
654.7341096997066
 21
325.4763001754066
 31
0.0
  0
LINE
  5
38C
102
{ACAD_REACTORS
330
757
102
}
330
1F
100
AcDbEntity
  8
実線
100
AcDbLine
 10
654.7341096997066
 20
338.0263001754067
 30
0.0
 11
654.7341096997066
 21
334.4263001754066
 31
0.0
  0
LINE
  5
38D
102
{ACAD_REACTORS
330
757
102
}
330
1F
100
AcDbEntity
  8
実線
100
AcDbLine
 10
654.7341096997066
 20
354.476300175454
 30
0.0
 11
654.7341096997066
 21
345.9263001754067
 31
0.0
  0
LINE
  5
38E
102
{ACAD_REACTORS
330
757
102
}
330
1F
100
AcDbEntity
  8
実線
100
AcDbLine
 10
654.7341096997066
 20
325.4763001754067
 30
0.0
 11
656.7341096997067
 21
325.4763001754067
 31
0.0
  0
LINE
  5
38F
102
{ACAD_REACTORS
330
757
102
}
330
1F
100
AcDbEntity
  8
実線
100
AcDbLine
 10
656.7341096997067
 20
356.4763001754067
 30
0.0
 11
656.7341096997067
 21
325.4763001754067
 31
0.0
  0
LINE
  5
390
102
{ACAD_REACTORS
330
757
102
}
330
1F
100
AcDbEntity
  8
実線
100
AcDbLine
 10
653.7341096996883
 20
356.4763001754067
 30
0.0
 11
653.7341096996883
 21
354.476300175454
 31
0.0
  0
LINE
  5
391
102
{ACAD_REACTORS
330
757
102
}
330
1F
100
AcDbEntity
  8
実線
100
AcDbLine
 10
608.7341096997066
 20
356.4763001754067
 30
0.0
 11
608.7341096997066
 21
354.4763001754066
 31
0.0
  0
LINE
  5
392
102
{ACAD_REACTORS
330
759
102
}
330
1F
100
AcDbEntity
  8
実線
100
AcDbLine
 10
103.734109699706
 20
452.4763001754066
 30
0.0
 11
103.734109699706
 21
376.4763001754066
 31
0.0
  0
LINE
  5
393
102
{ACAD_REACTORS
330
759
102
}
330
1F
100
AcDbEntity
  8
実線
100
AcDbLine
 10
203.7341096997059
 20
376.4763001754066
 30
0.0
 11
203.7341096997059
 21
452.4763001754066
 31
0.0
  0
LINE
  5
394
102
{ACAD_REACTORS
330
759
102
}
330
1F
100
AcDbEntity
  8
実線
100
AcDbLine
 10
103.734109699706
 20
376.4763001754066
 30
0.0
 11
203.7341096997059
 21
376.4763001754066
 31
0.0
  0
LINE
  5
395
102
{ACAD_REACTORS
330
759
102
}
330
1F
100
AcDbEntity
  8
実線
100
AcDbLine
 10
103.734109699706
 20
452.4763001754066
 30
0.0
 11
203.7341096997059
 21
452.4763001754066
 31
0.0
  0
LINE
  5
396
102
{ACAD_REACTORS
330
759
102
}
330
1F
100
AcDbEntity
  8
実線
100
AcDbLine
 10
118.734109699706
 20
371.9763001754066
 30
0.0
 11
118.734109699706
 21
361.4763001754067
 31
0.0
  0
LINE
  5
397
102
{ACAD_REACTORS
330
759
102
}
330
1F
100
AcDbEntity
  8
実線
100
AcDbLine
 10
188.7341096997058
 20
361.4763001754067
 30
0.0
 11
188.7341096997058
 21
371.9763001754066
 31
0.0
  0
LINE
  5
398
102
{ACAD_REACTORS
330
759
102
}
330
1F
100
AcDbEntity
  8
実線
100
AcDbLine
 10
118.734109699706
 20
361.4763001754067
 30
0.0
 11
188.7341096997058
 21
361.4763001754067
 31
0.0
  0
LINE
  5
399
102
{ACAD_REACTORS
330
759
102
}
330
1F
100
AcDbEntity
  8
実線
100
AcDbLine
 10
128.7341096997059
 20
361.4763001754067
 30
0.0
 11
128.7341096997059
 21
356.4763001754067
 31
0.0
  0
LINE
  5
39A
102
{ACAD_REACTORS
330
759
102
}
330
1F
100
AcDbEntity
  8
実線
100
AcDbLine
 10
178.7341096997058
 20
356.4763001754067
 30
0.0
 11
178.7341096997058
 21
361.4763001754067
 31
0.0
  0
LINE
  5
39B
102
{ACAD_REACTORS
330
759
102
}
330
1F
100
AcDbEntity
  8
実線
100
AcDbLine
 10
178.7341096997058
 20
356.4763001754067
 30
0.0
 11
128.7341096997059
 21
356.4763001754067
 31
0.0
  0
LINE
  5
39C
102
{ACAD_REACTORS
330
759
102
}
330
1F
100
AcDbEntity
  8
実線
100
AcDbLine
 10
147.734109699706
 20
354.4763001754066
 30
0.0
 11
147.734109699706
 21
332.9763001754067
 31
0.0
  0
LINE
  5
39D
102
{ACAD_REACTORS
330
759
102
}
330
1F
100
AcDbEntity
  8
実線
100
AcDbLine
 10
159.734109699706
 20
332.9763001754067
 30
0.0
 11
159.734109699706
 21
354.4763001754066
 31
0.0
  0
LINE
  5
39E
102
{ACAD_REACTORS
330
759
102
}
330
1F
100
AcDbEntity
  8
実線
100
AcDbLine
 10
141.2341096997059
 20
332.9763001754067
 30
0.0
 11
141.2341096997059
 21
327.9763001754067
 31
0.0
  0
LINE
  5
39F
102
{ACAD_REACTORS
330
759
102
}
330
1F
100
AcDbEntity
  8
実線
100
AcDbLine
 10
166.2341096997059
 20
327.9763001754067
 30
0.0
 11
166.2341096997059
 21
332.9763001754067
 31
0.0
  0
LINE
  5
3A0
102
{ACAD_REACTORS
330
759
102
}
330
1F
100
AcDbEntity
  8
実線
100
AcDbLine
 10
141.2341096997059
 20
327.9763001754067
 30
0.0
 11
166.2341096997059
 21
327.9763001754067
 31
0.0
  0
LINE
  5
3A1
102
{ACAD_REACTORS
330
759
102
}
330
1F
100
AcDbEntity
  8
実線
100
AcDbLine
 10
141.2341096997059
 20
332.9763001754067
 30
0.0
 11
166.2341096997059
 21
332.9763001754067
 31
0.0
  0
LINE
  5
3A2
102
{ACAD_REACTORS
330
759
102
}
330
1F
100
AcDbEntity
  8
実線
100
AcDbLine
 10
140.6341096997059
 20
338.0263001754067
 30
0.0
 11
132.734109699706
 21
338.0263001754067
 31
0.0
  0
LINE
  5
3A3
102
{ACAD_REACTORS
330
759
102
}
330
1F
100
AcDbEntity
  8
実線
100
AcDbLine
 10
140.6341096997059
 20
345.9263001754067
 30
0.0
 11
140.6341096997059
 21
338.0263001754066
 31
0.0
  0
LINE
  5
3A4
102
{ACAD_REACTORS
330
759
102
}
330
1F
100
AcDbEntity
  8
実線
100
AcDbLine
 10
132.734109699706
 20
345.9263001754067
 30
0.0
 11
140.6341096997059
 21
345.9263001754067
 31
0.0
  0
LINE
  5
3A5
102
{ACAD_REACTORS
330
759
102
}
330
1F
100
AcDbEntity
  8
実線
100
AcDbLine
 10
140.6341096997059
 20
326.5263001754066
 30
0.0
 11
132.734109699706
 21
326.5263001754066
 31
0.0
  0
LINE
  5
3A6
102
{ACAD_REACTORS
330
759
102
}
330
1F
100
AcDbEntity
  8
実線
100
AcDbLine
 10
140.6341096997059
 20
334.4263001754066
 30
0.0
 11
140.6341096997059
 21
326.5263001754066
 31
0.0
  0
LINE
  5
3A7
102
{ACAD_REACTORS
330
759
102
}
330
1F
100
AcDbEntity
  8
実線
100
AcDbLine
 10
132.734109699706
 20
334.4263001754066
 30
0.0
 11
140.6341096997059
 21
334.4263001754066
 31
0.0
  0
LINE
  5
3A8
102
{ACAD_REACTORS
330
759
102
}
330
1F
100
AcDbEntity
  8
実線
100
AcDbLine
 10
146.234109699706
 20
327.9763001754067
 30
0.0
 11
146.234109699706
 21
322.6763001754067
 31
0.0
  0
LINE
  5
3A9
102
{ACAD_REACTORS
330
759
102
}
330
1F
100
AcDbEntity
  8
実線
100
AcDbLine
 10
161.234109699706
 20
322.6763001754066
 30
0.0
 11
161.234109699706
 21
327.9763001754066
 31
0.0
  0
LINE
  5
3AA
102
{ACAD_REACTORS
330
759
102
}
330
1F
100
AcDbEntity
  8
実線
100
AcDbLine
 10
146.234109699706
 20
322.6763001754066
 30
0.0
 11
161.234109699706
 21
322.6763001754066
 31
0.0
  0
ELLIPSE
  5
3AB
102
{ACAD_REACTORS
330
759
102
}
330
1F
100
AcDbEntity
  8
実線
100
AcDbEllipse
 10
153.7341096997061
 20
550.1709790629542
 30
0.0
 11
19.05
 21
0.0
 31
0.0
210
0.0
220
0.0
230
1.0
 40
0.7071067811865476
 41
0.0
 42
3.141592653589792
  0
ARC
  5
3AC
102
{ACAD_REACTORS
330
759
102
}
330
1F
100
AcDbEntity
  8
実線
100
AcDbCircle
 10
153.7341096997061
 20
564.3763001754067
 30
0.0
 40
19.05
100
AcDbArc
 50
0.0
 51
180.0
  0
LINE
  5
3AD
102
{ACAD_REACTORS
330
759
102
}
330
1F
100
AcDbEntity
  8
実線
100
AcDbLine
 10
134.6841096997061
 20
564.3763001754067
 30
0.0
 11
134.6841096997061
 21
550.1709790629542
 31
0.0
  0
LINE
  5
3AE
102
{ACAD_REACTORS
330
759
102
}
330
1F
100
AcDbEntity
  8
実線
100
AcDbLine
 10
172.7841096997061
 20
550.1709790629542
 30
0.0
 11
172.7841096997061
 21
564.3763001754067
 31
0.0
  0
ELLIPSE
  5
3AF
102
{ACAD_REACTORS
330
759
102
}
330
1F
100
AcDbEntity
  8
実線
100
AcDbEllipse
 10
153.7341096997061
 20
550.1709790629542
 30
0.0
 11
19.05
 21
0.0
 31
0.0
210
0.0
220
0.0
230
1.0
 40
0.7071067811865476
 41
0.0
 42
1.570796326794897
  0
LINE
  5
3B0
102
{ACAD_REACTORS
330
759
102
}
330
1F
100
AcDbEntity
  8
実線
100
AcDbLine
 10
172.7841096997061
 20
546.8637482960107
 30
0.0
 11
172.7841096997061
 21
550.1709790629542
 31
0.0
  0
LINE
  5
3B1
102
{ACAD_REACTORS
330
759
102
}
330
1F
100
AcDbEntity
  8
実線
100
AcDbLine
 10
134.684109699706
 20
550.1709790629542
 30
0.0
 11
134.684109699706
 21
546.8637482960107
 31
0.0
  0
ELLIPSE
  5
3B2
102
{ACAD_REACTORS
330
759
102
}
330
1F
100
AcDbEntity
  8
実線
100
AcDbEllipse
 10
153.7341096997061
 20
550.1709790629542
 30
0.0
 11
19.05
 21
0.0
 31
0.0
210
0.0
220
0.0
230
1.0
 40
0.7071067811865476
 41
1.570796326794897
 42
3.141592653589792
  0
ELLIPSE
  5
3B3
102
{ACAD_REACTORS
330
759
102
}
330
1F
100
AcDbEntity
  8
実線
100
AcDbEllipse
 10
153.7341096997061
 20
535.1449599627401
 30
0.0
 11
25.25
 21
0.0
 31
0.0
210
0.0
220
0.0
230
1.0
 40
0.7071067811865476
 41
0.0
 42
1.570796326794897
  0
LINE
  5
3B4
102
{ACAD_REACTORS
330
759
102
}
330
1F
100
AcDbEntity
  8
実線
100
AcDbLine
 10
178.9841096997061
 20
533.2004163144772
 30
0.0
 11
178.9841096997061
 21
535.1449599627401
 31
0.0
  0
LINE
  5
3B5
102
{ACAD_REACTORS
330
759
102
}
330
1F
100
AcDbEntity
  8
実線
100
AcDbLine
 10
128.4841096997061
 20
535.1449599627401
 30
0.0
 11
128.4841096997061
 21
533.2004163144772
 31
0.0
  0
ELLIPSE
  5
3B6
102
{ACAD_REACTORS
330
759
102
}
330
1F
100
AcDbEntity
  8
実線
100
AcDbEllipse
 10
153.7341096997061
 20
533.2004163144772
 30
0.0
 11
25.25
 21
0.0
 31
0.0
210
0.0
220
0.0
230
1.0
 40
0.7071067811865476
 41
3.141592653589792
 42
6.283185307179584
  0
ELLIPSE
  5
3B7
102
{ACAD_REACTORS
330
759
102
}
330
1F
100
AcDbEntity
  8
実線
100
AcDbEllipse
 10
153.7341096997061
 20
533.2004163144772
 30
0.0
 11
25.25
 21
0.0
 31
0.0
210
0.0
220
0.0
230
1.0
 40
0.7071067811865476
 41
1.570796326794897
 42
3.141592653589792
  0
ELLIPSE
  5
3B8
102
{ACAD_REACTORS
330
759
102
}
330
1F
100
AcDbEntity
  8
実線
100
AcDbEllipse
 10
153.7341096997061
 20
535.1449599627401
 30
0.0
 11
25.25
 21
0.0
 31
0.0
210
0.0
220
0.0
230
1.0
 40
0.7071067811865476
 41
1.570796326794897
 42
3.141592653589792
  0
ELLIPSE
  5
3B9
102
{ACAD_REACTORS
330
759
102
}
330
1F
100
AcDbEntity
  8
実線
100
AcDbEllipse
 10
153.7341096997061
 20
533.2004163144772
 30
0.0
 11
25.25
 21
0.0
 31
0.0
210
0.0
220
0.0
230
1.0
 40
0.7071067811865476
 41
0.0
 42
1.570796326794897
  0
ARC
  5
3BA
102
{ACAD_REACTORS
330
759
102
}
330
1F
100
AcDbEntity
  8
実線
100
AcDbCircle
 10
180.7341096997061
 20
574.1763001754065
 30
0.0
 40
13.0
100
AcDbArc
 50
0.0
 51
90.0
  0
ARC
  5
3BB
102
{ACAD_REACTORS
330
759
102
}
330
1F
100
AcDbEntity
  8
実線
100
AcDbCircle
 10
126.7341096997061
 20
574.1763001754065
 30
0.0
 40
13.0
100
AcDbArc
 50
90.0
 51
180.0
  0
LINE
  5
3BC
102
{ACAD_REACTORS
330
759
102
}
330
1F
100
AcDbEntity
  8
実線
100
AcDbLine
 10
113.7341096997061
 20
574.1763001754065
 30
0.0
 11
113.7341096997061
 21
546.4763001754065
 31
0.0
  0
LINE
  5
3BD
102
{ACAD_REACTORS
330
759
102
}
330
1F
100
AcDbEntity
  8
実線
100
AcDbLine
 10
193.7341096997061
 20
546.4763001754065
 30
0.0
 11
193.7341096997061
 21
574.1763001754065
 31
0.0
  0
LINE
  5
3BE
102
{ACAD_REACTORS
330
759
102
}
330
1F
100
AcDbEntity
  8
実線
100
AcDbLine
 10
200.7112794685901
 20
536.4763001754065
 30
0.0
 11
200.7112794685901
 21
546.4763001754065
 31
0.0
  0
LINE
  5
3BF
102
{ACAD_REACTORS
330
759
102
}
330
1F
100
AcDbEntity
  8
実線
100
AcDbLine
 10
200.7112794685901
 20
546.4763001754065
 30
0.0
 11
173.247283659101
 21
546.4763001754065
 31
0.0
  0
LINE
  5
3C0
102
{ACAD_REACTORS
330
759
102
}
330
1F
100
AcDbEntity
  8
実線
100
AcDbLine
 10
200.7112794685901
 20
536.4763001754065
 30
0.0
 11
178.9138151482666
 21
536.4763001754065
 31
0.0
  0
LINE
  5
3C1
102
{ACAD_REACTORS
330
759
102
}
330
1F
100
AcDbEntity
  8
実線
100
AcDbLine
 10
106.7569399308222
 20
546.4763001754065
 30
0.0
 11
134.220935740311
 21
546.4763001754065
 31
0.0
  0
LINE
  5
3C2
102
{ACAD_REACTORS
330
759
102
}
330
1F
100
AcDbEntity
  8
実線
100
AcDbLine
 10
106.7569399308222
 20
546.4763001754065
 30
0.0
 11
106.7569399308222
 21
536.4763001754065
 31
0.0
  0
LINE
  5
3C3
102
{ACAD_REACTORS
330
759
102
}
330
1F
100
AcDbEntity
  8
実線
100
AcDbLine
 10
142.4841096997059
 20
495.9763001754065
 30
0.0
 11
113.734109699706
 21
495.9763001754065
 31
0.0
  0
LINE
  5
3C4
102
{ACAD_REACTORS
330
759
102
}
330
1F
100
AcDbEntity
  8
実線
100
AcDbLine
 10
113.734109699706
 20
495.9763001754065
 30
0.0
 11
113.734109699706
 21
452.4763001754066
 31
0.0
  0
LINE
  5
3C5
102
{ACAD_REACTORS
330
759
102
}
330
1F
100
AcDbEntity
  8
実線
100
AcDbLine
 10
193.7341096997059
 20
452.4763001754064
 30
0.0
 11
193.7341096997059
 21
495.9763001754065
 31
0.0
  0
LINE
  5
3C6
102
{ACAD_REACTORS
330
759
102
}
330
1F
100
AcDbEntity
  8
実線
100
AcDbLine
 10
193.7341096997059
 20
495.9763001754065
 30
0.0
 11
164.984109699706
 21
495.9763001754065
 31
0.0
  0
LINE
  5
3C7
102
{ACAD_REACTORS
330
759
102
}
330
1F
100
AcDbEntity
  8
実線
100
AcDbLine
 10
142.4841096997059
 20
452.4763001754064
 30
0.0
 11
142.4841096997059
 21
517.2160489513312
 31
0.0
  0
LINE
  5
3C8
102
{ACAD_REACTORS
330
759
102
}
330
1F
100
AcDbEntity
  8
実線
100
AcDbLine
 10
164.984109699706
 20
452.4763001754064
 30
0.0
 11
164.984109699706
 21
517.2160489513312
 31
0.0
  0
LINE
  5
3C9
102
{ACAD_REACTORS
330
759
102
}
330
1F
100
AcDbEntity
  8
実線
100
AcDbLine
 10
66.23410969970615
 20
605.1763001754066
 30
0.0
 11
241.234109699706
 21
605.1763001754066
 31
0.0
  0
LINE
  5
3CA
102
{ACAD_REACTORS
330
759
102
}
330
1F
100
AcDbEntity
  8
実線
100
AcDbLine
 10
241.234109699706
 20
587.1763001754065
 30
0.0
 11
241.234109699706
 21
605.1763001754066
 31
0.0
  0
LINE
  5
3CB
102
{ACAD_REACTORS
330
759
102
}
330
1F
100
AcDbEntity
  8
実線
100
AcDbLine
 10
66.23410969970615
 20
605.1763001754066
 30
0.0
 11
66.23410969970615
 21
587.1763001754065
 31
0.0
  0
LINE
  5
3CC
102
{ACAD_REACTORS
330
759
102
}
330
1F
100
AcDbEntity
  8
実線
100
AcDbLine
 10
66.23410969970615
 20
587.1763001754065
 30
0.0
 11
241.234109699706
 21
587.1763001754065
 31
0.0
  0
LINE
  5
3CD
102
{ACAD_REACTORS
330
759
102
}
330
1F
100
AcDbEntity
  8
実線
100
AcDbLine
 10
200.7112794685899
 20
522.9763001754064
 30
0.0
 11
200.7112794685899
 21
536.4763001754065
 31
0.0
  0
LINE
  5
3CE
102
{ACAD_REACTORS
330
759
102
}
330
1F
100
AcDbEntity
  8
実線
100
AcDbLine
 10
200.7112794685899
 20
522.9763001754064
 30
0.0
 11
174.4342884030312
 21
522.9763001754064
 31
0.0
  0
LINE
  5
3CF
102
{ACAD_REACTORS
330
759
102
}
330
1F
100
AcDbEntity
  8
実線
100
AcDbLine
 10
106.756939930822
 20
536.4763001754065
 30
0.0
 11
128.5544042511454
 21
536.4763001754065
 31
0.0
  0
LINE
  5
3D0
102
{ACAD_REACTORS
330
759
102
}
330
1F
100
AcDbEntity
  8
実線
100
AcDbLine
 10
106.756939930822
 20
522.9763001754064
 30
0.0
 11
133.0339309963809
 21
522.9763001754064
 31
0.0
  0
LINE
  5
3D1
102
{ACAD_REACTORS
330
759
102
}
330
1F
100
AcDbEntity
  8
実線
100
AcDbLine
 10
106.756939930822
 20
536.4763001754065
 30
0.0
 11
106.756939930822
 21
522.9763001754064
 31
0.0
  0
LINE
  5
3D2
102
{ACAD_REACTORS
330
759
102
}
330
1F
100
AcDbEntity
  8
実線
100
AcDbLine
 10
200.7341096997059
 20
371.9763001754066
 30
0.0
 11
106.734109699706
 21
371.9763001754066
 31
0.0
  0
ARC
  5
3D3
102
{ACAD_REACTORS
330
759
102
}
330
1F
100
AcDbEntity
  8
実線
100
AcDbCircle
 10
106.734109699706
 20
374.9763001754067
 30
0.0
 40
3.0
100
AcDbArc
 50
180.0
 51
270.0
  0
ARC
  5
3D4
102
{ACAD_REACTORS
330
759
102
}
330
1F
100
AcDbEntity
  8
実線
100
AcDbCircle
 10
200.7341096997059
 20
374.9763001754067
 30
0.0
 40
3.0
100
AcDbArc
 50
270.0
 51
0.0
  0
LINE
  5
3D5
102
{ACAD_REACTORS
330
759
102
}
330
1F
100
AcDbEntity
  8
実線
100
AcDbLine
 10
103.734109699706
 20
376.4763001754066
 30
0.0
 11
103.734109699706
 21
374.9763001754067
 31
0.0
  0
LINE
  5
3D6
102
{ACAD_REACTORS
330
759
102
}
330
1F
100
AcDbEntity
  8
実線
100
AcDbLine
 10
203.7341096997059
 20
374.9763001754067
 30
0.0
 11
203.7341096997059
 21
376.4763001754066
 31
0.0
  0
LINE
  5
3D7
102
{ACAD_REACTORS
330
759
102
}
330
1F
100
AcDbEntity
  8
実線
100
AcDbLine
 10
132.734109699706
 20
354.476300175454
 30
0.0
 11
178.7341096997058
 21
354.476300175454
 31
0.0
  0
LINE
  5
3D8
102
{ACAD_REACTORS
330
759
102
}
330
1F
100
AcDbEntity
  8
実線
100
AcDbLine
 10
130.734109699706
 20
356.4763001754067
 30
0.0
 11
130.734109699706
 21
325.4763001754067
 31
0.0
  0
LINE
  5
3D9
102
{ACAD_REACTORS
330
759
102
}
330
1F
100
AcDbEntity
  8
実線
100
AcDbLine
 10
130.734109699706
 20
325.4763001754067
 30
0.0
 11
132.734109699706
 21
325.4763001754067
 31
0.0
  0
LINE
  5
3DA
102
{ACAD_REACTORS
330
759
102
}
330
1F
100
AcDbEntity
  8
実線
100
AcDbLine
 10
132.734109699706
 20
325.4763001754066
 30
0.0
 11
132.734109699706
 21
354.476300175454
 31
0.0
  0
LINE
  5
3DB
102
{ACAD_REACTORS
330
759
102
}
330
1F
100
AcDbEntity
  8
実線
100
AcDbLine
 10
133.7341096997058
 20
354.4763001754066
 30
0.0
 11
133.7341096997058
 21
356.4763001754067
 31
0.0
  0
LINE
  5
3DC
102
{ACAD_REACTORS
330
759
102
}
330
1F
100
AcDbEntity
  8
実線
100
AcDbLine
 10
178.7341096997058
 20
354.4763001754066
 30
0.0
 11
178.7341096997058
 21
356.4763001754067
 31
0.0
  0
LINE
  5
3DD
102
{ACAD_REACTORS
330
758
102
}
330
1F
100
AcDbEntity
  8
実線
100
AcDbLine
 10
443.7341096997063
 20
376.4763001754066
 30
0.0
 11
343.7341096997062
 21
376.4763001754066
 31
0.0
  0
LINE
  5
3DE
102
{ACAD_REACTORS
330
758
102
}
330
1F
100
AcDbEntity
  8
実線
100
AcDbLine
 10
343.7341096997062
 20
452.4763001754066
 30
0.0
 11
343.7341096997062
 21
376.4763001754066
 31
0.0
  0
LINE
  5
3DF
102
{ACAD_REACTORS
330
758
102
}
330
1F
100
AcDbEntity
  8
実線
100
AcDbLine
 10
443.7341096997063
 20
376.4763001754066
 30
0.0
 11
443.7341096997063
 21
452.4763001754066
 31
0.0
  0
LINE
  5
3E0
102
{ACAD_REACTORS
330
758
102
}
330
1F
100
AcDbEntity
  8
実線
100
AcDbLine
 10
443.7341096997063
 20
452.4763001754066
 30
0.0
 11
343.7341096997062
 21
452.4763001754066
 31
0.0
  0
LINE
  5
3E1
102
{ACAD_REACTORS
330
758
102
}
330
1F
100
AcDbEntity
  8
実線
100
AcDbLine
 10
428.7341096997063
 20
361.4763001754067
 30
0.0
 11
358.7341096997062
 21
361.4763001754067
 31
0.0
  0
LINE
  5
3E2
102
{ACAD_REACTORS
330
758
102
}
330
1F
100
AcDbEntity
  8
実線
100
AcDbLine
 10
358.7341096997062
 20
371.9763001754066
 30
0.0
 11
358.7341096997062
 21
361.4763001754067
 31
0.0
  0
LINE
  5
3E3
102
{ACAD_REACTORS
330
758
102
}
330
1F
100
AcDbEntity
  8
実線
100
AcDbLine
 10
428.7341096997063
 20
361.4763001754067
 30
0.0
 11
428.7341096997063
 21
371.9763001754066
 31
0.0
  0
LINE
  5
3E4
102
{ACAD_REACTORS
330
758
102
}
330
1F
100
AcDbEntity
  8
実線
100
AcDbLine
 10
368.7341096997063
 20
361.4763001754067
 30
0.0
 11
368.7341096997063
 21
356.4763001754067
 31
0.0
  0
LINE
  5
3E5
102
{ACAD_REACTORS
330
758
102
}
330
1F
100
AcDbEntity
  8
実線
100
AcDbLine
 10
418.7341096997063
 20
356.4763001754067
 30
0.0
 11
418.7341096997063
 21
361.4763001754067
 31
0.0
  0
LINE
  5
3E6
102
{ACAD_REACTORS
330
758
102
}
330
1F
100
AcDbEntity
  8
実線
100
AcDbLine
 10
387.7341096997062
 20
354.4763001754066
 30
0.0
 11
387.7341096997062
 21
332.9763001754067
 31
0.0
  0
LINE
  5
3E7
102
{ACAD_REACTORS
330
758
102
}
330
1F
100
AcDbEntity
  8
実線
100
AcDbLine
 10
399.7341096997062
 20
332.9763001754067
 30
0.0
 11
399.7341096997062
 21
354.4763001754066
 31
0.0
  0
LINE
  5
3E8
102
{ACAD_REACTORS
330
758
102
}
330
1F
100
AcDbEntity
  8
実線
100
AcDbLine
 10
406.2341096997063
 20
327.9763001754067
 30
0.0
 11
381.2341096997063
 21
327.9763001754067
 31
0.0
  0
LINE
  5
3E9
102
{ACAD_REACTORS
330
758
102
}
330
1F
100
AcDbEntity
  8
実線
100
AcDbLine
 10
381.2341096997063
 20
332.9763001754067
 30
0.0
 11
381.2341096997063
 21
327.9763001754067
 31
0.0
  0
LINE
  5
3EA
102
{ACAD_REACTORS
330
758
102
}
330
1F
100
AcDbEntity
  8
実線
100
AcDbLine
 10
406.2341096997063
 20
327.9763001754067
 30
0.0
 11
406.2341096997063
 21
332.9763001754067
 31
0.0
  0
LINE
  5
3EB
102
{ACAD_REACTORS
330
758
102
}
330
1F
100
AcDbEntity
  8
実線
100
AcDbLine
 10
381.2341096997063
 20
332.9763001754067
 30
0.0
 11
406.2341096997063
 21
332.9763001754067
 31
0.0
  0
LINE
  5
3EC
102
{ACAD_REACTORS
330
758
102
}
330
1F
100
AcDbEntity
  8
実線
100
AcDbLine
 10
387.7341096997062
 20
522.9763001754064
 30
0.0
 11
387.7341096997062
 21
495.9763001754065
 31
0.0
  0
LINE
  5
3ED
102
{ACAD_REACTORS
330
758
102
}
330
1F
100
AcDbEntity
  8
実線
100
AcDbLine
 10
399.7341096997062
 20
495.9763001754065
 30
0.0
 11
399.7341096997062
 21
522.9763001754064
 31
0.0
  0
LINE
  5
3EE
102
{ACAD_REACTORS
330
758
102
}
330
1F
100
AcDbEntity
  8
実線
100
AcDbLine
 10
420.2341096997063
 20
331.9763001754067
 30
0.0
 11
420.2341096997063
 21
328.9763001754067
 31
0.0
  0
LINE
  5
3EF
102
{ACAD_REACTORS
330
758
102
}
330
1F
100
AcDbEntity
  8
実線
100
AcDbLine
 10
413.7341096997062
 20
328.9763001754067
 30
0.0
 11
420.2341096997063
 21
328.9763001754067
 31
0.0
  0
LINE
  5
3F0
102
{ACAD_REACTORS
330
758
102
}
330
1F
100
AcDbEntity
  8
実線
100
AcDbLine
 10
420.2341096997063
 20
331.9763001754067
 30
0.0
 11
413.7341096997062
 21
331.9763001754067
 31
0.0
  0
LINE
  5
3F1
102
{ACAD_REACTORS
330
758
102
}
330
1F
100
AcDbEntity
  8
実線
100
AcDbLine
 10
399.7341096997062
 20
338.0263001754067
 30
0.0
 11
413.7341096997062
 21
338.0263001754067
 31
0.0
  0
LINE
  5
3F2
102
{ACAD_REACTORS
330
758
102
}
330
1F
100
AcDbEntity
  8
実線
100
AcDbLine
 10
399.7341096997062
 20
345.9263001754067
 30
0.0
 11
413.7341096997062
 21
345.9263001754067
 31
0.0
  0
LINE
  5
3F3
102
{ACAD_REACTORS
330
758
102
}
330
1F
100
AcDbEntity
  8
実線
100
AcDbLine
 10
413.7341096997062
 20
338.0263001754067
 30
0.0
 11
413.7341096997062
 21
345.9263001754067
 31
0.0
  0
LINE
  5
3F4
102
{ACAD_REACTORS
330
758
102
}
330
1F
100
AcDbEntity
  8
実線
100
AcDbLine
 10
420.2341096997063
 20
343.4763001754066
 30
0.0
 11
420.2341096997063
 21
340.4763001754067
 31
0.0
  0
LINE
  5
3F5
102
{ACAD_REACTORS
330
758
102
}
330
1F
100
AcDbEntity
  8
実線
100
AcDbLine
 10
413.7341096997062
 20
340.4763001754067
 30
0.0
 11
420.2341096997063
 21
340.4763001754067
 31
0.0
  0
LINE
  5
3F6
102
{ACAD_REACTORS
330
758
102
}
330
1F
100
AcDbEntity
  8
実線
100
AcDbLine
 10
420.2341096997063
 20
343.4763001754066
 30
0.0
 11
413.7341096997062
 21
343.4763001754066
 31
0.0
  0
LINE
  5
3F7
102
{ACAD_REACTORS
330
758
102
}
330
1F
100
AcDbEntity
  8
実線
100
AcDbLine
 10
401.2341096997062
 20
326.5263001754066
 30
0.0
 11
413.7341096997062
 21
326.5263001754066
 31
0.0
  0
LINE
  5
3F8
102
{ACAD_REACTORS
330
758
102
}
330
1F
100
AcDbEntity
  8
実線
100
AcDbLine
 10
399.7341096997062
 20
334.4263001754066
 30
0.0
 11
413.7341096997062
 21
334.4263001754066
 31
0.0
  0
LINE
  5
3F9
102
{ACAD_REACTORS
330
758
102
}
330
1F
100
AcDbEntity
  8
実線
100
AcDbLine
 10
413.7341096997062
 20
326.5263001754066
 30
0.0
 11
413.7341096997062
 21
334.4263001754066
 31
0.0
  0
LINE
  5
3FA
102
{ACAD_REACTORS
330
758
102
}
330
1F
100
AcDbEntity
  8
実線
100
AcDbLine
 10
401.2341096997062
 20
322.6763001754066
 30
0.0
 11
386.2341096997063
 21
322.6763001754066
 31
0.0
  0
LINE
  5
3FB
102
{ACAD_REACTORS
330
758
102
}
330
1F
100
AcDbEntity
  8
実線
100
AcDbLine
 10
386.2341096997063
 20
327.9763001754067
 30
0.0
 11
386.2341096997063
 21
322.6763001754067
 31
0.0
  0
LINE
  5
3FC
102
{ACAD_REACTORS
330
758
102
}
330
1F
100
AcDbEntity
  8
実線
100
AcDbLine
 10
401.2341096997062
 20
322.6763001754066
 30
0.0
 11
401.2341096997062
 21
327.9763001754066
 31
0.0
  0
ARC
  5
3FD
102
{ACAD_REACTORS
330
758
102
}
330
1F
100
AcDbEntity
  8
実線
100
AcDbCircle
 10
345.0341096997062
 20
515.8763001754065
 30
0.0
 40
67.54999999999999
100
AcDbArc
 50
90.0
 51
135.0000000000003
  0
ARC
  5
3FE
102
{ACAD_REACTORS
330
758
102
}
330
1F
100
AcDbEntity
  8
実線
100
AcDbCircle
 10
345.0341096997062
 20
515.8763001754065
 30
0.0
 40
29.45
100
AcDbArc
 50
90.0
 51
135.0000000000003
  0
LINE
  5
3FF
102
{ACAD_REACTORS
330
758
102
}
330
1F
100
AcDbEntity
  8
実線
100
AcDbLine
 10
297.2690466305547
 20
563.6413632445577
 30
0.0
 11
324.2098149937623
 21
536.7005948813503
 31
0.0
  0
LINE
  5
400
102
{ACAD_REACTORS
330
758
102
}
330
1F
100
AcDbEntity
  8
実線
100
AcDbLine
 10
310.8454968293366
 20
523.3362767169246
 30
0.0
 11
324.2098149937623
 21
536.7005948813505
 31
0.0
  0
LINE
  5
401
102
{ACAD_REACTORS
330
758
102
}
330
1F
100
AcDbEntity
  8
実線
100
AcDbLine
 10
297.2690466305547
 20
563.6413632445577
 30
0.0
 11
283.9047284661291
 21
550.2770450801322
 31
0.0
  0
LINE
  5
402
102
{ACAD_REACTORS
330
758
102
}
330
1F
100
AcDbEntity
  8
実線
100
AcDbLine
 10
275.9144218387211
 20
551.0548625394372
 30
0.0
 11
311.6233142886417
 21
515.3459700895166
 31
0.0
  0
LINE
  5
403
102
{ACAD_REACTORS
330
758
102
}
330
1F
100
AcDbEntity
  8
実線
100
AcDbLine
 10
311.6233142886417
 20
515.3459700895166
 30
0.0
 11
313.5678579369047
 21
517.2905137377797
 31
0.0
  0
LINE
  5
404
102
{ACAD_REACTORS
330
758
102
}
330
1F
100
AcDbEntity
  8
実線
100
AcDbLine
 10
277.8589654869841
 20
552.9994061877004
 30
0.0
 11
275.9144218387211
 21
551.0548625394372
 31
0.0
  0
LINE
  5
405
102
{ACAD_REACTORS
330
758
102
}
330
1F
100
AcDbEntity
  8
実線
100
AcDbLine
 10
277.8589654869841
 20
552.9994061877004
 30
0.0
 11
313.5678579369047
 21
517.2905137377797
 31
0.0
  0
LINE
  5
406
102
{ACAD_REACTORS
330
758
102
}
330
1F
100
AcDbEntity
  8
実線
100
AcDbLine
 10
283.904728466129
 20
550.2770450801322
 30
0.0
 11
310.8454968293366
 21
523.3362767169246
 31
0.0
  0
LINE
  5
407
102
{ACAD_REACTORS
330
758
102
}
330
1F
100
AcDbEntity
  8
実線
100
AcDbLine
 10
283.9047284661291
 20
550.2770450801322
 30
0.0
 11
277.8589654869841
 21
552.9994061877004
 31
0.0
  0
LINE
  5
408
102
{ACAD_REACTORS
330
758
102
}
330
1F
100
AcDbEntity
  8
実線
100
AcDbLine
 10
313.5678579369047
 20
517.2905137377797
 30
0.0
 11
310.8454968293366
 21
523.3362767169246
 31
0.0
  0
LINE
  5
409
102
{ACAD_REACTORS
330
758
102
}
330
1F
100
AcDbEntity
  8
実線
100
AcDbLine
 10
345.0341096997062
 20
545.3263001754065
 30
0.0
 11
346.7569399308222
 21
545.3263001754065
 31
0.0
  0
LINE
  5
40A
102
{ACAD_REACTORS
330
758
102
}
330
1F
100
AcDbEntity
  8
実線
100
AcDbLine
 10
357.5996967464836
 20
583.4263001754066
 30
0.0
 11
345.0341096997062
 21
583.4263001754066
 31
0.0
  0
LINE
  5
40B
102
{ACAD_REACTORS
330
758
102
}
330
1F
100
AcDbEntity
  8
実線
100
AcDbLine
 10
345.0341096997062
 20
545.3263001754065
 30
0.0
 11
345.0341096997062
 21
583.4263001754066
 31
0.0
  0
ARC
  5
40C
102
{ACAD_REACTORS
330
758
102
}
330
1F
100
AcDbEntity
  8
実線
100
AcDbCircle
 10
420.7341096997062
 20
574.1763001754065
 30
0.0
 40
13.0
100
AcDbArc
 50
0.0
 51
90.0
  0
ARC
  5
40D
102
{ACAD_REACTORS
330
758
102
}
330
1F
100
AcDbEntity
  8
実線
100
AcDbCircle
 10
366.7341096997062
 20
574.1763001754065
 30
0.0
 40
13.0
100
AcDbArc
 50
90.0
 51
134.6397729586047
  0
LINE
  5
40E
102
{ACAD_REACTORS
330
758
102
}
330
1F
100
AcDbEntity
  8
実線
100
AcDbLine
 10
433.7341096997062
 20
546.4763001754065
 30
0.0
 11
433.7341096997062
 21
574.1763001754065
 31
0.0
  0
LINE
  5
40F
102
{ACAD_REACTORS
330
758
102
}
330
1F
100
AcDbEntity
  8
実線
100
AcDbLine
 10
346.7569399308222
 20
546.4763001754065
 30
0.0
 11
375.7052128892822
 21
546.4763001754065
 31
0.0
  0
LINE
  5
410
102
{ACAD_REACTORS
330
758
102
}
330
1F
100
AcDbEntity
  8
実線
100
AcDbLine
 10
346.7569399308222
 20
546.4763001754065
 30
0.0
 11
346.7569399308222
 21
536.4763001754065
 31
0.0
  0
LINE
  5
411
102
{ACAD_REACTORS
330
758
102
}
330
1F
100
AcDbEntity
  8
実線
100
AcDbLine
 10
440.7112794685899
 20
536.4763001754065
 30
0.0
 11
440.7112794685899
 21
546.4763001754065
 31
0.0
  0
LINE
  5
412
102
{ACAD_REACTORS
330
758
102
}
330
1F
100
AcDbEntity
  8
実線
100
AcDbLine
 10
440.7112794685899
 20
546.4763001754065
 30
0.0
 11
411.7630065101302
 21
546.4763001754065
 31
0.0
  0
LINE
  5
413
102
{ACAD_REACTORS
330
758
102
}
330
1F
100
AcDbEntity
  8
実線
100
AcDbLine
 10
411.7630065101302
 20
536.4763001754065
 30
0.0
 11
411.7630065101302
 21
546.4763001754065
 31
0.0
  0
LINE
  5
414
102
{ACAD_REACTORS
330
758
102
}
330
1F
100
AcDbEntity
  8
実線
100
AcDbLine
 10
375.7052128892822
 20
536.4763001754065
 30
0.0
 11
375.7052128892822
 21
546.4763001754065
 31
0.0
  0
ARC
  5
415
102
{ACAD_REACTORS
330
758
102
}
330
1F
100
AcDbEntity
  8
実線
100
AcDbCircle
 10
419.4341096997061
 20
481.9763001754064
 30
0.0
 40
70.00000000000003
100
AcDbArc
 50
144.146532936534
 51
180.0
  0
LINE
  5
416
102
{ACAD_REACTORS
330
758
102
}
330
1F
100
AcDbEntity
  8
実線
100
AcDbLine
 10
349.4341096997061
 20
452.4763001754064
 30
0.0
 11
349.4341096997061
 21
481.9763001754064
 31
0.0
  0
ARC
  5
417
102
{ACAD_REACTORS
330
758
102
}
330
1F
100
AcDbEntity
  8
実線
100
AcDbCircle
 10
417.434109699706
 20
481.9763001754067
 30
0.0
 40
57.99999999999997
100
AcDbArc
 50
135.0170320400964
 51
166.0320373253524
  0
ARC
  5
418
102
{ACAD_REACTORS
330
758
102
}
330
1F
100
AcDbEntity
  8
実線
100
AcDbCircle
 10
368.0341096997062
 20
481.9763001754064
 30
0.0
 40
70.00000000000003
100
AcDbArc
 50
0.0
 51
35.85346706346567
  0
LINE
  5
419
102
{ACAD_REACTORS
330
758
102
}
330
1F
100
AcDbEntity
  8
実線
100
AcDbLine
 10
438.0341096997061
 20
452.4763001754064
 30
0.0
 11
438.0341096997061
 21
481.9763001754064
 31
0.0
  0
ARC
  5
41A
102
{ACAD_REACTORS
330
758
102
}
330
1F
100
AcDbEntity
  8
実線
100
AcDbCircle
 10
370.0341096997062
 20
481.9763001754067
 30
0.0
 40
57.99999999999997
100
AcDbArc
 50
13.96796267464757
 51
44.98296795990361
  0
LINE
  5
41B
102
{ACAD_REACTORS
330
758
102
}
330
1F
100
AcDbEntity
  8
実線
100
AcDbLine
 10
432.1194910316664
 20
495.9763001754065
 30
0.0
 11
355.3487283677461
 21
495.9763001754065
 31
0.0
  0
LINE
  5
41C
102
{ACAD_REACTORS
330
758
102
}
330
1F
100
AcDbEntity
  8
実線
100
AcDbLine
 10
355.3487283677461
 20
452.4763001754064
 30
0.0
 11
355.3487283677461
 21
495.9763001754065
 31
0.0
  0
LINE
  5
41D
102
{ACAD_REACTORS
330
758
102
}
330
1F
100
AcDbEntity
  8
実線
100
AcDbLine
 10
432.1194910316664
 20
452.4763001754064
 30
0.0
 11
432.1194910316664
 21
495.9763001754065
 31
0.0
  0
LINE
  5
41E
102
{ACAD_REACTORS
330
758
102
}
330
1F
100
AcDbEntity
  8
実線
100
AcDbLine
 10
481.2341096997061
 20
587.1763001754065
 30
0.0
 11
481.2341096997061
 21
605.1763001754066
 31
0.0
  0
LINE
  5
41F
102
{ACAD_REACTORS
330
758
102
}
330
1F
100
AcDbEntity
  8
実線
100
AcDbLine
 10
306.2341096997061
 20
605.1763001754066
 30
0.0
 11
306.2341096997061
 21
587.1763001754065
 31
0.0
  0
LINE
  5
420
102
{ACAD_REACTORS
330
758
102
}
330
1F
100
AcDbEntity
  8
実線
100
AcDbLine
 10
481.2341096997061
 20
605.1763001754066
 30
0.0
 11
306.2341096997061
 21
605.1763001754066
 31
0.0
  0
LINE
  5
421
102
{ACAD_REACTORS
330
758
102
}
330
1F
100
AcDbEntity
  8
実線
100
AcDbLine
 10
481.2341096997061
 20
587.1763001754065
 30
0.0
 11
306.2341096997061
 21
587.1763001754065
 31
0.0
  0
LINE
  5
422
102
{ACAD_REACTORS
330
758
102
}
330
1F
100
AcDbEntity
  8
実線
100
AcDbLine
 10
440.71127946859
 20
536.4763001754065
 30
0.0
 11
346.7569399308222
 21
536.4763001754065
 31
0.0
  0
LINE
  5
423
102
{ACAD_REACTORS
330
758
102
}
330
1F
100
AcDbEntity
  8
実線
100
AcDbLine
 10
440.71127946859
 20
522.9763001754064
 30
0.0
 11
346.7569399308222
 21
522.9763001754064
 31
0.0
  0
LINE
  5
424
102
{ACAD_REACTORS
330
758
102
}
330
1F
100
AcDbEntity
  8
実線
100
AcDbLine
 10
346.7569399308222
 20
536.4763001754065
 30
0.0
 11
346.7569399308222
 21
522.9763001754064
 31
0.0
  0
LINE
  5
425
102
{ACAD_REACTORS
330
758
102
}
330
1F
100
AcDbEntity
  8
実線
100
AcDbLine
 10
440.7112794685901
 20
522.9763001754064
 30
0.0
 11
440.7112794685901
 21
536.4763001754065
 31
0.0
  0
LINE
  5
426
102
{ACAD_REACTORS
330
758
102
}
330
1F
100
AcDbEntity
  8
実線
100
AcDbLine
 10
411.7630065101302
 20
522.9763001754064
 30
0.0
 11
411.7630065101302
 21
536.4763001754065
 31
0.0
  0
LINE
  5
427
102
{ACAD_REACTORS
330
758
102
}
330
1F
100
AcDbEntity
  8
実線
100
AcDbLine
 10
375.7052128892822
 20
522.9763001754064
 30
0.0
 11
375.7052128892822
 21
536.4763001754065
 31
0.0
  0
LINE
  5
428
102
{ACAD_REACTORS
330
758
102
}
330
1F
100
AcDbEntity
  8
実線
100
AcDbLine
 10
346.7341096997062
 20
371.9763001754066
 30
0.0
 11
440.7341096997063
 21
371.9763001754066
 31
0.0
  0
ARC
  5
429
102
{ACAD_REACTORS
330
758
102
}
330
1F
100
AcDbEntity
  8
実線
100
AcDbCircle
 10
346.7341096997062
 20
374.9763001754067
 30
0.0
 40
3.0
100
AcDbArc
 50
180.0
 51
270.0
  0
ARC
  5
42A
102
{ACAD_REACTORS
330
758
102
}
330
1F
100
AcDbEntity
  8
実線
100
AcDbCircle
 10
440.7341096997063
 20
374.9763001754067
 30
0.0
 40
3.0
100
AcDbArc
 50
270.0
 51
0.0
  0
LINE
  5
42B
102
{ACAD_REACTORS
330
758
102
}
330
1F
100
AcDbEntity
  8
実線
100
AcDbLine
 10
343.7341096997062
 20
376.4763001754066
 30
0.0
 11
343.7341096997062
 21
374.9763001754067
 31
0.0
  0
LINE
  5
42C
102
{ACAD_REACTORS
330
758
102
}
330
1F
100
AcDbEntity
  8
実線
100
AcDbLine
 10
443.7341096997063
 20
374.9763001754067
 30
0.0
 11
443.7341096997063
 21
376.4763001754066
 31
0.0
  0
LINE
  5
42D
102
{ACAD_REACTORS
330
758
102
}
330
1F
100
AcDbEntity
  8
実線
100
AcDbLine
 10
408.7341096997062
 20
326.5263001754066
 30
0.0
 11
408.7341096997062
 21
325.4763001754066
 31
0.0
  0
LINE
  5
42E
102
{ACAD_REACTORS
330
758
102
}
330
1F
100
AcDbEntity
  8
実線
100
AcDbLine
 10
408.7341096997062
 20
338.0263001754067
 30
0.0
 11
408.7341096997062
 21
334.4263001754066
 31
0.0
  0
LINE
  5
42F
102
{ACAD_REACTORS
330
758
102
}
330
1F
100
AcDbEntity
  8
実線
100
AcDbLine
 10
408.7341096997062
 20
354.476300175454
 30
0.0
 11
408.7341096997062
 21
345.9263001754067
 31
0.0
  0
LINE
  5
430
102
{ACAD_REACTORS
330
758
102
}
330
1F
100
AcDbEntity
  8
実線
100
AcDbLine
 10
401.2341096997062
 20
325.4763001754067
 30
0.0
 11
408.7341096997062
 21
325.4763001754067
 31
0.0
  0
LINE
  5
431
102
{ACAD_REACTORS
330
758
102
}
330
1F
100
AcDbEntity
  8
実線
100
AcDbLine
 10
368.7341096997063
 20
356.4763001754067
 30
0.0
 11
368.7341096997063
 21
354.4763001754066
 31
0.0
  0
LINE
  5
432
102
{ACAD_REACTORS
330
758
102
}
330
1F
100
AcDbEntity
  8
実線
100
AcDbLine
 10
418.7341096997063
 20
354.4763001754066
 30
0.0
 11
418.7341096997063
 21
356.4763001754067
 31
0.0
  0
LINE
  5
433
102
{ACAD_REACTORS
330
758
102
}
330
1F
100
AcDbEntity
  8
実線
100
AcDbLine
 10
368.7341096997063
 20
354.4763001754066
 30
0.0
 11
418.7341096997063
 21
354.4763001754066
 31
0.0
  0
LINE
  5
434
102
{ACAD_REACTORS
330
758
102
}
330
1F
100
AcDbEntity
  8
実線
100
AcDbLine
 10
368.7341096997063
 20
356.4763001754067
 30
0.0
 11
418.7341096997063
 21
356.4763001754067
 31
0.0
  0
LINE
  5
731
102
{ACAD_REACTORS
330
75B
102
}
330
1F
100
AcDbEntity
  8
中心線
100
AcDbLine
 10
344.2366350166494
 20
187.1737748584684
 30
0.0
 11
344.2366350166494
 21
162.1737748584683
 31
0.0
  0
LINE
  5
732
102
{ACAD_REACTORS
330
75B
102
}
330
1F
100
AcDbEntity
  8
中心線
100
AcDbLine
 10
331.7366350166494
 20
174.6737748584684
 30
0.0
 11
356.7366350166494
 21
174.6737748584684
 31
0.0
  0
LINE
  5
733
102
{ACAD_REACTORS
330
75B
102
}
330
1F
100
AcDbEntity
  8
中心線
100
AcDbLine
 10
344.2366350166444
 20
88.1788254923517
 30
0.0
 11
344.2366350166444
 21
63.17882549235178
 31
0.0
  0
LINE
  5
734
102
{ACAD_REACTORS
330
75B
102
}
330
1F
100
AcDbEntity
  8
中心線
100
AcDbLine
 10
331.7366350166444
 20
75.67882549235171
 30
0.0
 11
356.7366350166444
 21
75.67882549235171
 31
0.0
  0
LINE
  5
735
102
{ACAD_REACTORS
330
75B
102
}
330
1F
100
AcDbEntity
  8
中心線
100
AcDbLine
 10
443.2315843827658
 20
187.1737748584633
 30
0.0
 11
443.2315843827658
 21
162.1737748584632
 31
0.0
  0
LINE
  5
736
102
{ACAD_REACTORS
330
75B
102
}
330
1F
100
AcDbEntity
  8
中心線
100
AcDbLine
 10
430.7315843827658
 20
174.6737748584632
 30
0.0
 11
455.7315843827658
 21
174.6737748584632
 31
0.0
  0
LINE
  5
737
102
{ACAD_REACTORS
330
75B
102
}
330
1F
100
AcDbEntity
  8
中心線
100
AcDbLine
 10
443.231584382761
 20
88.17882549234651
 30
0.0
 11
443.231584382761
 21
63.17882549234653
 31
0.0
  0
LINE
  5
738
102
{ACAD_REACTORS
330
75B
102
}
330
1F
100
AcDbEntity
  8
中心線
100
AcDbLine
 10
430.731584382761
 20
75.6788254923465
 30
0.0
 11
455.731584382761
 21
75.6788254923465
 31
0.0
  0
LINE
  5
739
102
{ACAD_REACTORS
330
75B
102
}
330
1F
100
AcDbEntity
  8
中心線
100
AcDbLine
 10
273.7341096997064
 20
125.1763001754066
 30
0.0
 11
513.7341096997064
 21
125.1763001754066
 31
0.0
  0
LINE
  5
73A
102
{ACAD_REACTORS
330
75B
102
}
330
1F
100
AcDbEntity
  8
中心線
100
AcDbLine
 10
393.7341096997062
 20
25.17630017540682
 30
0.0
 11
393.7341096997062
 21
225.1763001754068
 31
0.0
  0
LINE
  5
73B
102
{ACAD_REACTORS
330
75A
102
}
330
1F
100
AcDbEntity
  8
中心線
100
AcDbLine
 10
344.2366350166493
 20
847.1737748584683
 30
0.0
 11
344.2366350166493
 21
822.1737748584683
 31
0.0
  0
LINE
  5
73C
102
{ACAD_REACTORS
330
75A
102
}
330
1F
100
AcDbEntity
  8
中心線
100
AcDbLine
 10
331.7366350166493
 20
834.6737748584683
 30
0.0
 11
356.7366350166493
 21
834.6737748584683
 31
0.0
  0
LINE
  5
73D
102
{ACAD_REACTORS
330
75A
102
}
330
1F
100
AcDbEntity
  8
中心線
100
AcDbLine
 10
344.2366350166443
 20
748.1788254923517
 30
0.0
 11
344.2366350166443
 21
723.1788254923517
 31
0.0
  0
LINE
  5
73E
102
{ACAD_REACTORS
330
75A
102
}
330
1F
100
AcDbEntity
  8
中心線
100
AcDbLine
 10
331.7366350166443
 20
735.6788254923517
 30
0.0
 11
356.7366350166443
 21
735.6788254923517
 31
0.0
  0
LINE
  5
73F
102
{ACAD_REACTORS
330
75A
102
}
330
1F
100
AcDbEntity
  8
中心線
100
AcDbLine
 10
443.2315843827657
 20
847.1737748584635
 30
0.0
 11
443.2315843827657
 21
822.1737748584633
 31
0.0
  0
LINE
  5
740
102
{ACAD_REACTORS
330
75A
102
}
330
1F
100
AcDbEntity
  8
中心線
100
AcDbLine
 10
430.7315843827657
 20
834.6737748584633
 30
0.0
 11
455.7315843827657
 21
834.6737748584633
 31
0.0
  0
LINE
  5
741
102
{ACAD_REACTORS
330
75A
102
}
330
1F
100
AcDbEntity
  8
中心線
100
AcDbLine
 10
443.2315843827609
 20
748.1788254923466
 30
0.0
 11
443.2315843827609
 21
723.1788254923466
 31
0.0
  0
LINE
  5
742
102
{ACAD_REACTORS
330
75A
102
}
330
1F
100
AcDbEntity
  8
中心線
100
AcDbLine
 10
430.7315843827609
 20
735.6788254923466
 30
0.0
 11
455.7315843827609
 21
735.6788254923466
 31
0.0
  0
LINE
  5
743
102
{ACAD_REACTORS
330
75A
102
}
330
1F
100
AcDbEntity
  8
中心線
100
AcDbLine
 10
273.7341096997061
 20
785.1763001754066
 30
0.0
 11
513.7341096997061
 21
785.1763001754066
 31
0.0
  0
LINE
  5
744
102
{ACAD_REACTORS
330
75A
102
}
330
1F
100
AcDbEntity
  8
中心線
100
AcDbLine
 10
393.7341096997061
 20
685.176300175407
 30
0.0
 11
393.7341096997061
 21
885.176300175407
 31
0.0
  0
LINE
  5
745
102
{ACAD_REACTORS
330
756
102
}
330
1F
100
AcDbEntity
  8
中心線
100
AcDbLine
 10
804.9447519246102
 20
564.3763001754067
 30
0.0
 11
942.5234674748018
 21
564.3763001754067
 31
0.0
  0
LINE
  5
746
102
{ACAD_REACTORS
330
756
102
}
330
1F
100
AcDbEntity
  8
中心線
100
AcDbLine
 10
873.7341096997058
 20
317.1655730883827
 30
0.0
 11
873.7341096997061
 21
619.1078084599241
 31
0.0
  0
LINE
  5
747
102
{ACAD_REACTORS
330
756
102
}
330
1F
100
AcDbEntity
  8
中心線
100
AcDbLine
 10
942.5234674748018
 20
564.3763001754067
 30
0.0
 11
975.1135648981039
 21
531.7862027521041
 31
0.0
  0
LINE
  5
74F
102
{ACAD_REACTORS
330
757
102
}
330
1F
100
AcDbEntity
  8
中心線
100
AcDbLine
 10
633.7341096997063
 20
317.1655730883827
 30
0.0
 11
633.7341096997063
 21
619.1078084599241
 31
0.0
  0
LINE
  5
750
102
{ACAD_REACTORS
330
757
102
}
330
1F
100
AcDbEntity
  8
中心線
100
AcDbLine
 10
578.7133626169589
 20
564.3763001754067
 30
0.0
 11
688.7548567824532
 21
564.3763001754067
 31
0.0
  0
LINE
  5
751
102
{ACAD_REACTORS
330
758
102
}
330
1F
100
AcDbEntity
  8
中心線
100
AcDbLine
 10
462.5234674748018
 20
564.3763001754067
 30
0.0
 11
324.9447519246104
 21
564.3763001754067
 31
0.0
  0
LINE
  5
752
102
{ACAD_REACTORS
330
758
102
}
330
1F
100
AcDbEntity
  8
中心線
100
AcDbLine
 10
393.7341096997061
 20
317.1655730883827
 30
0.0
 11
393.7341096997061
 21
619.1078084599241
 31
0.0
  0
LINE
  5
753
102
{ACAD_REACTORS
330
758
102
}
330
1F
100
AcDbEntity
  8
中心線
100
AcDbLine
 10
324.9447519246104
 20
564.3763001754067
 30
0.0
 11
292.3546545013082
 21
531.7862027521039
 31
0.0
  0
LINE
  5
754
102
{ACAD_REACTORS
330
759
102
}
330
1F
100
AcDbEntity
  8
中心線
100
AcDbLine
 10
153.7341096997061
 20
317.1655730883827
 30
0.0
 11
153.7341096997061
 21
619.1078084599241
 31
0.0
  0
LINE
  5
755
102
{ACAD_REACTORS
330
759
102
}
330
1F
100
AcDbEntity
  8
中心線
100
AcDbLine
 10
98.71336261695887
 20
564.3763001754067
 30
0.0
 11
208.7548567824534
 21
564.3763001754067
 31
0.0
  0
ENDSEC
  0
SECTION
  2
OBJECTS
  0
DICTIONARY
  5
C
330
0
100
AcDbDictionary
281
     1
  3
ACAD_CIP_PREVIOUS_PRODUCT_INFO
350
283
  3
ACAD_COLOR
350
279
  3
ACAD_DETAILVIEWSTYLE
350
27C
  3
ACAD_GROUP
350
D
  3
ACAD_LAYOUT
350
1A
  3
ACAD_MATERIAL
350
43
  3
ACAD_MLEADERSTYLE
350
5B
  3
ACAD_MLINESTYLE
350
17
  3
ACAD_PLOTSETTINGS
350
19
  3
ACAD_PLOTSTYLENAME
350
E
  3
ACAD_SCALELIST
350
47
  3
ACAD_SECTIONVIEWSTYLE
350
27A
  3
ACAD_TABLESTYLE
350
59
  3
ACAD_VISUALSTYLE
350
2A
  3
ACDB_RECOMPOSE_DATA
350
801
  3
AcDbVariableDictionary
350
22E
  3
DWGPROPS
350
802
  0
DICTIONARY
  5
43B
330
2
100
AcDbDictionary
280
     1
281
     1
  3
ACAD_LAYERSTATES
360
43C
  0
DICTIONARY
  5
75C
330
10
100
AcDbDictionary
280
     1
281
     1
  3
ADSK_XREC_LAYER_RECONCILED
360
75D
  0
DICTIONARY
  5
437
330
436
100
AcDbDictionary
280
     1
281
     1
  3
ADSK_XREC_LAYER_RECONCILED
360
75E
  0
DICTIONARY
  5
439
330
438
100
AcDbDictionary
280
     1
281
     1
  3
ADSK_XREC_LAYER_RECONCILED
360
75F
  0
DICTIONARY
  5
2C7
330
1F
100
AcDbDictionary
280
     1
281
     1
  3
ACAD_SORTENTS
360
2C8
  0
XRECORD
  5
283
102
{ACAD_REACTORS
330
C
102
}
330
C
100
AcDbXrecord
280
     1
300
ACDLT
300
2016
300
ACDLT_F_S
  0
DICTIONARY
  5
279
102
{ACAD_REACTORS
330
C
102
}
330
C
100
AcDbDictionary
281
     1
  0
DICTIONARY
  5
27C
102
{ACAD_REACTORS
330
C
102
}
330
C
100
AcDbDictionary
281
     1
  3
Metric50
350
27D
  0
DICTIONARY
  5
D
102
{ACAD_REACTORS
330
C
102
}
330
C
100
AcDbDictionary
281
     1
  3
*A1
350
756
  3
*A2
350
757
  3
*A3
350
758
  3
*A4
350
759
  3
*A5
350
75A
  3
*A6
350
75B
  0
DICTIONARY
  5
1A
102
{ACAD_REACTORS
330
C
102
}
330
C
100
AcDbDictionary
281
     1
  3
Layout1
350
1E
  3
Model
350
22
  3
レイアウト1
350
27E
  0
DICTIONARY
  5
43
102
{ACAD_REACTORS
330
C
102
}
330
C
100
AcDbDictionary
281
     1
  3
ByBlock
350
45
  3
ByLayer
350
44
  3
Global
350
46
  0
DICTIONARY
  5
5B
102
{ACAD_REACTORS
330
C
102
}
330
C
100
AcDbDictionary
281
     1
  3
Standard
350
5C
  0
DICTIONARY
  5
17
102
{ACAD_REACTORS
330
C
102
}
330
C
100
AcDbDictionary
281
     1
  3
Standard
350
18
  0
DICTIONARY
  5
19
102
{ACAD_REACTORS
330
C
102
}
330
C
100
AcDbDictionary
281
     1
  0
ACDBDICTIONARYWDFLT
  5
E
102
{ACAD_REACTORS
330
C
102
}
330
C
100
AcDbDictionary
281
     1
  3
Normal
350
F
100
AcDbDictionaryWithDefault
340
F
  0
DICTIONARY
  5
47
102
{ACAD_REACTORS
330
C
102
}
330
C
100
AcDbDictionary
281
     1
  3
A0
350
48
  3
A1
350
49
  3
A2
350
4A
  3
A3
350
4B
  3
A4
350
4C
  3
A5
350
4D
  3
A6
350
4E
  3
A7
350
4F
  3
A8
350
50
  3
A9
350
51
  3
B0
350
52
  3
B1
350
53
  3
B2
350
54
  3
B3
350
55
  3
B4
350
56
  3
B5
350
57
  3
B6
350
58
  0
DICTIONARY
  5
27A
102
{ACAD_REACTORS
330
C
102
}
330
C
100
AcDbDictionary
281
     1
  3
Metric50
350
27B
  0
DICTIONARY
  5
59
102
{ACAD_REACTORS
330
C
102
}
330
C
100
AcDbDictionary
281
     1
  3
Standard
350
5A
  0
DICTIONARY
  5
2A
102
{ACAD_REACTORS
330
C
102
}
330
C
100
AcDbDictionary
281
     1
  3
2dWireframe
350
2F
  3
Basic
350
32
  3
Brighten
350
36
  3
ColorChange
350
3A
  3
Conceptual
350
34
  3
Dim
350
35
  3
EdgeColorOff
350
3D
  3
Facepattern
350
39
  3
Flat
350
2B
  3
FlatWithEdges
350
2C
  3
Gouraud
350
2D
  3
GouraudWithEdges
350
2E
  3
Hidden
350
31
  3
JitterOff
350
3B
  3
Linepattern
350
38
  3
OverhangOff
350
3C
  3
Realistic
350
33
  3
Shaded
350
42
  3
Shaded with edges
350
41
  3
Shades of Gray
350
3E
  3
Sketchy
350
3F
  3
Thicken
350
37
  3
Wireframe
350
30
  3
X-Ray
350
40
  0
XRECORD
  5
801
102
{ACAD_REACTORS
330
C
102
}
330
C
100
AcDbXrecord
280
     1
 90
        1
330
5A
  0
DICTIONARY
  5
22E
102
{ACAD_REACTORS
330
C
102
}
330
C
100
AcDbDictionary
281
     1
  3
CANNOSCALE
350
23C
  3
CENTEREXE
350
235
  3
CENTERLTYPEFILE
350
236
  3
CMLEADERSTYLE
350
230
  3
CTABLESTYLE
350
22F
  3
CVIEWDETAILSTYLE
350
760
  3
CVIEWSECTIONSTYLE
350
761
  3
DIMASSOC
350
237
  3
HIDETEXT
350
238
  3
INDEXCTL
350
7F9
  3
LAYEREVAL
350
763
  3
LAYERNOTIFY
350
764
  3
LIGHTINGUNITS
350
762
  3
LOFTANG1
350
7FC
  3
LOFTANG2
350
7FD
  3
LONGITUDE
350
7FE
  3
MSLTSCALE
350
23D
  3
PSOLHEIGHT
350
7FB
  3
PSOLWIDTH
350
7FA
  3
SORTENTS
350
7F8
  3
XCLIPFRAME
350
7FF
  0
XRECORD
  5
802
102
{ACAD_REACTORS
330
C
102
}
330
C
100
AcDbXrecord
280
     1
  1
DWGPROPS COOKIE
  2

  3

  4

  6
File was created by TR2_DExp
  7

  8
fujino
  9

300
=
301
=
302
=
303
=
304
=
305
=
306
=
307
=
308
=
309
=
 40
0.0261580092592593
 41
2455188.75
 42
2459752.604090475
  1

 90
        0
  0
DICTIONARY
  5
43C
102
{ACAD_REACTORS
330
43B
102
}
330
43B
100
AcDbDictionary
281
     1
  0
XRECORD
  5
75D
102
{ACAD_REACTORS
330
75C
102
}
330
75C
100
AcDbXrecord
280
     1
290
     1
  0
XRECORD
  5
75E
102
{ACAD_REACTORS
330
437
102
}
330
437
100
AcDbXrecord
280
     1
290
     1
  0
XRECORD
  5
75F
102
{ACAD_REACTORS
330
439
102
}
330
439
100
AcDbXrecord
280
     1
290
     1
  0
SORTENTSTABLE
  5
2C8
102
{ACAD_REACTORS
330
2C7
102
}
330
2C7
100
AcDbSortentsTable
330
1F
331
738
  5
738
331
3F9
  5
2A0
331
734
  5
734
331
3F5
  5
29C
331
3F1
  5
298
331
356
  5
336
331
385
  5
365
331
3C4
  5
310
331
317
  5
398
331
3C0
  5
30C
331
313
  5
394
331
352
  5
332
331
381
  5
361
331
2EC
  5
3ED
331
37D
  5
35D
331
3BC
  5
308
331
30F
  5
390
331
34E
  5
32E
331
433
  5
2DC
331
2A1
  5
40F
331
379
  5
359
331
3B8
  5
304
331
29D
  5
40B
331
30B
  5
38C
331
34A
  5
32A
331
299
  5
407
331
2E0
  5
3E1
331
42C
  5
2D5
331
3ED
  5
294
331
428
  5
2D1
331
3E9
  5
290
331
3E5
  5
28C
331
424
  5
2CD
331
3E1
  5
288
331
420
  5
2C9
331
346
  5
3C7
331
375
  5
355
331
3B4
  5
300
331
307
  5
388
331
3B0
  5
2FC
331
303
  5
384
331
342
  5
3C3
331
371
  5
351
331
2C6
  5
434
331
2DC
  5
3DD
331
3AC
  5
2F8
331
2D8
  5
3D9
331
2C2
  5
430
331
33E
  5
3BF
331
3A8
  5
2F4
331
2D4
  5
3D5
331
33A
  5
3BB
331
2D0
  5
3D1
331
41C
  5
2C3
331
418
  5
2BF
331
414
  5
2BB
331
410
  5
2B7
331
336
  5
3B7
331
3A4
  5
2F0
331
3DF
  5
286
331
332
  5
3B3
331
2CC
  5
3CD
331
3A0
  5
2EC
331
39C
  5
2E8
331
3DB
  5
327
331
2FF
  5
380
331
32E
  5
3AF
331
36D
  5
34D
331
369
  5
349
331
398
  5
2E4
331
2BC
  5
42A
331
2FB
  5
37C
331
32A
  5
3AB
331
295
  5
403
331
291
  5
3FF
331
2B8
  5
426
331
40C
  5
2B3
331
747
  5
747
331
408
  5
2AF
331
743
  5
743
331
404
  5
2AB
331
400
  5
2A7
331
3D7
  5
323
331
326
  5
3A7
331
365
  5
345
331
394
  5
2E0
331
3D3
  5
31F
331
3CF
  5
31B
331
753
  5
753
331
322
  5
3A3
331
361
  5
341
331
28D
  5
3FB
331
2B4
  5
422
331
390
  5
370
331
38C
  5
36C
331
3CB
  5
317
331
2F7
  5
378
331
31E
  5
39F
331
35D
  5
33D
331
289
  5
3F7
331
2B0
  5
41E
331
359
  5
339
331
388
  5
368
331
2AC
  5
41A
331
2F3
  5
374
331
31A
  5
39B
331
285
  5
3F3
331
73F
  5
73F
331
73B
  5
73B
331
3FC
  5
2A3
331
737
  5
737
331
3F8
  5
29F
331
733
  5
733
331
3F4
  5
29B
331
3F0
  5
297
331
3C7
  5
313
331
316
  5
397
331
355
  5
335
331
384
  5
364
331
2EF
  5
3F0
331
3C3
  5
30F
331
3BF
  5
30B
331
312
  5
393
331
351
  5
331
331
2A4
  5
412
331
380
  5
360
331
37C
  5
35C
331
3BB
  5
307
331
432
  5
2DB
331
30E
  5
38F
331
34D
  5
32D
331
349
  5
329
331
378
  5
358
331
29C
  5
40A
331
2E3
  5
3E4
331
30A
  5
38B
331
298
  5
406
331
42F
  5
2D8
331
42B
  5
2D4
331
3EC
  5
293
331
3E8
  5
28F
331
427
  5
2D0
331
3E4
  5
28B
331
423
  5
2CC
331
3E0
  5
287
331
3B7
  5
303
331
345
  5
3C6
331
374
  5
354
331
3B3
  5
2FF
331
2DF
  5
3E0
331
306
  5
387
331
3AF
  5
2FB
331
302
  5
383
331
341
  5
3C2
331
370
  5
350
331
2C5
  5
433
331
2DB
  5
3DC
331
3AB
  5
2F7
331
2D7
  5
3D8
331
2C1
  5
42F
331
33D
  5
3BE
331
2D3
  5
3D4
331
339
  5
3BA
331
41F
  5
2C6
331
41B
  5
2C2
331
417
  5
2BE
331
413
  5
2BA
331
3A7
  5
2F3
331
335
  5
3B6
331
2CF
  5
3D0
331
3A3
  5
2EF
331
39F
  5
2EB
331
3DE
  5
285
331
331
  5
3B2
331
2CB
  5
3CC
331
39B
  5
2E7
331
3DA
  5
326
331
2BF
  5
42D
331
2FE
  5
37F
331
32D
  5
3AE
331
36C
  5
34C
331
368
  5
348
331
294
  5
402
331
2BB
  5
429
331
2FA
  5
37B
331
329
  5
3AA
331
290
  5
3FE
331
40F
  5
2B6
331
40B
  5
2B2
331
746
  5
746
331
407
  5
2AE
331
742
  5
742
331
403
  5
2AA
331
397
  5
2E3
331
3D6
  5
322
331
3D2
  5
31E
331
325
  5
3A6
331
364
  5
344
331
2B7
  5
425
331
393
  5
2DF
331
3CE
  5
31A
331
752
  5
752
331
321
  5
3A2
331
360
  5
340
331
28C
  5
3FA
331
2B3
  5
421
331
38F
  5
36F
331
38B
  5
36B
331
3CA
  5
316
331
2AF
  5
41D
331
2F6
  5
377
331
31D
  5
39E
331
288
  5
3F6
331
35C
  5
33C
331
358
  5
338
331
2AB
  5
419
331
2F2
  5
373
331
319
  5
39A
331
284
  5
3F2
331
73E
  5
73E
331
3FF
  5
2A6
331
73A
  5
73A
331
3FB
  5
2A2
331
736
  5
736
331
3F7
  5
29E
331
732
  5
732
331
3F3
  5
29A
331
387
  5
367
331
3C6
  5
312
331
315
  5
396
331
354
  5
334
331
2A7
  5
415
331
383
  5
363
331
3C2
  5
30E
331
3BE
  5
30A
331
311
  5
392
331
350
  5
330
331
37F
  5
35F
331
37B
  5
35B
331
3BA
  5
306
331
2E6
  5
3E7
331
431
  5
2DA
331
30D
  5
38E
331
34C
  5
32C
331
348
  5
3C9
331
29B
  5
409
331
2E2
  5
3E3
331
309
  5
38A
331
3EF
  5
296
331
42E
  5
2D7
331
42A
  5
2D3
331
3EB
  5
292
331
3E7
  5
28E
331
426
  5
2CF
331
3E3
  5
28A
331
422
  5
2CB
331
377
  5
357
331
3B6
  5
302
331
305
  5
386
331
344
  5
3C5
331
373
  5
353
331
2DE
  5
3DF
331
3B2
  5
2FE
331
3AE
  5
2FA
331
301
  5
382
331
340
  5
3C1
331
2C4
  5
432
331
2DA
  5
3DB
331
3AA
  5
2F6
331
2D6
  5
3D7
331
2C0
  5
42E
331
33C
  5
3BD
331
338
  5
3B9
331
2D2
  5
3D3
331
41E
  5
2C5
331
41A
  5
2C1
331
416
  5
2BD
331
412
  5
2B9
331
3A6
  5
2F2
331
334
  5
3B5
331
2CE
  5
3CF
331
3A2
  5
2EE
331
39E
  5
2EA
331
3DD
  5
284
331
330
  5
3B1
331
36F
  5
34F
331
2CA
  5
3CB
331
36B
  5
34B
331
39A
  5
2E6
331
3D9
  5
325
331
2BE
  5
42C
331
2FD
  5
37E
331
32C
  5
3AD
331
297
  5
405
331
293
  5
401
331
2BA
  5
428
331
2F9
  5
37A
331
328
  5
3A9
331
40E
  5
2B5
331
40A
  5
2B1
331
745
  5
745
331
406
  5
2AD
331
741
  5
741
331
402
  5
2A9
331
367
  5
347
331
396
  5
2E2
331
3D5
  5
321
331
3D1
  5
31D
331
755
  5
755
331
324
  5
3A5
331
363
  5
343
331
28F
  5
3FD
331
2B6
  5
424
331
392
  5
2DE
331
38E
  5
36E
331
3CD
  5
319
331
751
  5
751
331
320
  5
3A1
331
35F
  5
33F
331
28B
  5
3F9
331
2B2
  5
420
331
38A
  5
36A
331
3C9
  5
315
331
2AE
  5
41C
331
2F5
  5
376
331
31C
  5
39D
331
287
  5
3F5
331
35B
  5
33B
331
2AA
  5
418
331
2F1
  5
372
331
318
  5
399
331
73D
  5
73D
331
3FE
  5
2A5
331
739
  5
739
331
3FA
  5
2A1
331
735
  5
735
331
3F6
  5
29D
331
731
  5
731
331
3F2
  5
299
331
357
  5
337
331
386
  5
366
331
3C5
  5
311
331
3C1
  5
30D
331
314
  5
395
331
353
  5
333
331
382
  5
362
331
3BD
  5
309
331
2E9
  5
3EA
331
434
  5
2DD
331
310
  5
391
331
34F
  5
32F
331
37E
  5
35E
331
37A
  5
35A
331
3B9
  5
305
331
29E
  5
40C
331
430
  5
2D9
331
30C
  5
38D
331
34B
  5
32B
331
29A
  5
408
331
2E1
  5
3E2
331
308
  5
389
331
3EE
  5
295
331
42D
  5
2D6
331
429
  5
2D2
331
3EA
  5
291
331
3E6
  5
28D
331
425
  5
2CE
331
3E2
  5
289
331
421
  5
2CA
331
347
  5
3C8
331
376
  5
356
331
3B5
  5
301
331
304
  5
385
331
343
  5
3C4
331
372
  5
352
331
2DD
  5
3DE
331
3B1
  5
2FD
331
3AD
  5
2F9
331
2D9
  5
3DA
331
300
  5
381
331
2C3
  5
431
331
33F
  5
3C0
331
3A9
  5
2F5
331
2D5
  5
3D6
331
33B
  5
3BC
331
2D1
  5
3D2
331
41D
  5
2C4
331
419
  5
2C0
331
415
  5
2BC
331
411
  5
2B8
331
337
  5
3B8
331
3A5
  5
2F1
331
333
  5
3B4
331
2CD
  5
3CE
331
3A1
  5
2ED
331
39D
  5
2E9
331
3DC
  5
328
331
32F
  5
3B0
331
36E
  5
34E
331
2C9
  5
3CA
331
36A
  5
34A
331
399
  5
2E5
331
3D8
  5
324
331
2BD
  5
42B
331
2FC
  5
37D
331
32B
  5
3AC
331
74F
  5
74F
331
296
  5
404
331
292
  5
400
331
2B9
  5
427
331
2F8
  5
379
331
40D
  5
2B4
331
409
  5
2B0
331
744
  5
744
331
405
  5
2AC
331
740
  5
740
331
401
  5
2A8
331
327
  5
3A8
331
366
  5
346
331
395
  5
2E1
331
3D4
  5
320
331
3D0
  5
31C
331
754
  5
754
331
323
  5
3A4
331
362
  5
342
331
28E
  5
3FC
331
2B5
  5
423
331
391
  5
371
331
38D
  5
36D
331
3CC
  5
318
331
750
  5
750
331
31F
  5
3A0
331
35E
  5
33E
331
28A
  5
3F8
331
2B1
  5
41F
331
35A
  5
33A
331
389
  5
369
331
3C8
  5
314
331
2AD
  5
41B
331
2F4
  5
375
331
31B
  5
39C
331
286
  5
3F4
331
2F0
  5
3F1
331
73C
  5
73C
331
3FD
  5
2A4
  0
ACDBDETAILVIEWSTYLE
  5
27D
102
{ACAD_XDICTIONARY
360
83A
102
}
102
{ACAD_REACTORS
330
27C
102
}
330
27C
100
AcDbModelDocViewStyle
 70
     0
  3
Metric50
290
     0
100
AcDbDetailViewStyle
 70
     0
 71
     0
 90
        3
 71
     1
340
11
 40
5.0
340
0
 40
5.0
300

 40
0.0
280
     1
 71
     2
340
16
 90
       25
 71
     3
340
11
 40
5.0
 90
        0
 40
15.0
 90
        1
300
%<\AcVar ViewDetailId>% (%<\AcVar ViewScale \f "%sn">%)
 71
     4
340
16
 90
       25
340
16
 90
       25
280
     0
  0
GROUP
  5
756
102
{ACAD_REACTORS
330
D
102
}
330
D
100
AcDbGroup
300

 70
     1
 71
     1
340
747
340
746
340
745
340
348
340
347
340
346
340
345
340
344
340
343
340
342
340
341
340
340
340
33F
340
33E
340
33D
340
33C
340
33B
340
33A
340
339
340
338
340
337
340
336
340
335
340
334
340
333
340
332
340
331
340
330
340
32F
340
32E
340
32D
340
32C
340
32B
340
32A
340
329
340
328
340
327
340
326
340
325
340
324
340
323
340
322
340
321
340
320
340
31F
340
31E
340
31D
340
31C
340
31B
340
31A
340
319
340
318
340
317
340
316
340
315
340
314
340
313
340
312
340
311
340
310
340
30F
340
30E
340
30D
340
30C
340
30B
340
30A
340
309
340
308
340
307
340
306
340
305
340
304
340
303
340
302
340
301
340
300
340
2FF
340
2FE
340
2FD
340
2FC
340
2FB
340
2FA
340
2F9
340
2F8
340
2F7
340
2F6
340
2F5
340
2F4
340
2F3
340
2F2
340
2F1
  0
GROUP
  5
757
102
{ACAD_REACTORS
330
D
102
}
330
D
100
AcDbGroup
300

 70
     1
 71
     1
340
750
340
74F
340
391
340
390
340
38F
340
38E
340
38D
340
38C
340
38B
340
38A
340
389
340
388
340
387
340
386
340
385
340
384
340
383
340
382
340
381
340
380
340
37F
340
37E
340
37D
340
37C
340
37B
340
37A
340
379
340
378
340
377
340
376
340
375
340
374
340
373
340
372
340
371
340
370
340
36F
340
36E
340
36D
340
36C
340
36B
340
36A
340
369
340
368
340
367
340
366
340
365
340
364
340
363
340
362
340
361
340
360
340
35F
340
35E
340
35D
340
35C
340
35B
340
35A
340
359
340
358
340
357
340
356
340
355
340
354
340
353
340
352
340
351
340
350
340
34F
340
34E
340
34D
340
34C
340
34B
340
34A
340
349
  0
GROUP
  5
758
102
{ACAD_REACTORS
330
D
102
}
330
D
100
AcDbGroup
300

 70
     1
 71
     1
340
753
340
752
340
751
340
434
340
433
340
432
340
431
340
430
340
42F
340
42E
340
42D
340
42C
340
42B
340
42A
340
429
340
428
340
427
340
426
340
425
340
424
340
423
340
422
340
421
340
420
340
41F
340
41E
340
41D
340
41C
340
41B
340
41A
340
419
340
418
340
417
340
416
340
415
340
414
340
413
340
412
340
411
340
410
340
40F
340
40E
340
40D
340
40C
340
40B
340
40A
340
409
340
408
340
407
340
406
340
405
340
404
340
403
340
402
340
401
340
400
340
3FF
340
3FE
340
3FD
340
3FC
340
3FB
340
3FA
340
3F9
340
3F8
340
3F7
340
3F6
340
3F5
340
3F4
340
3F3
340
3F2
340
3F1
340
3F0
340
3EF
340
3EE
340
3ED
340
3EC
340
3EB
340
3EA
340
3E9
340
3E8
340
3E7
340
3E6
340
3E5
340
3E4
340
3E3
340
3E2
340
3E1
340
3E0
340
3DF
340
3DE
340
3DD
  0
GROUP
  5
759
102
{ACAD_REACTORS
330
D
102
}
330
D
100
AcDbGroup
300

 70
     1
 71
     1
340
755
340
754
340
3DC
340
3DB
340
3DA
340
3D9
340
3D8
340
3D7
340
3D6
340
3D5
340
3D4
340
3D3
340
3D2
340
3D1
340
3D0
340
3CF
340
3CE
340
3CD
340
3CC
340
3CB
340
3CA
340
3C9
340
3C8
340
3C7
340
3C6
340
3C5
340
3C4
340
3C3
340
3C2
340
3C1
340
3C0
340
3BF
340
3BE
340
3BD
340
3BC
340
3BB
340
3BA
340
3B9
340
3B8
340
3B7
340
3B6
340
3B5
340
3B4
340
3B3
340
3B2
340
3B1
340
3B0
340
3AF
340
3AE
340
3AD
340
3AC
340
3AB
340
3AA
340
3A9
340
3A8
340
3A7
340
3A6
340
3A5
340
3A4
340
3A3
340
3A2
340
3A1
340
3A0
340
39F
340
39E
340
39D
340
39C
340
39B
340
39A
340
399
340
398
340
397
340
396
340
395
340
394
340
393
340
392
  0
GROUP
  5
75A
102
{ACAD_REACTORS
330
D
102
}
330
D
100
AcDbGroup
300

 70
     1
 71
     1
340
744
340
743
340
742
340
741
340
740
340
73F
340
73E
340
73D
340
73C
340
73B
340
2F0
340
2EF
340
2EC
340
2E9
340
2E6
340
2E3
340
2E2
340
2E1
340
2E0
340
2DF
340
2DE
340
2DD
340
2DC
340
2DB
340
2DA
340
2D9
340
2D8
340
2D7
340
2D6
340
2D5
340
2D4
340
2D3
340
2D2
340
2D1
340
2D0
340
2CF
340
2CE
340
2CD
340
2CC
340
2CB
340
2CA
340
2C9
  0
GROUP
  5
75B
102
{ACAD_REACTORS
330
D
102
}
330
D
100
AcDbGroup
300

 70
     1
 71
     1
340
73A
340
739
340
738
340
737
340
736
340
735
340
734
340
733
340
732
340
731
340
2C6
340
2C5
340
2C4
340
2C3
340
2C2
340
2C1
340
2C0
340
2BF
340
2BE
340
2BD
340
2BC
340
2BB
340
2BA
340
2B9
340
2B8
340
2B7
340
2B6
340
2B5
340
2B4
340
2B3
340
2B2
340
2B1
340
2B0
340
2AF
340
2AE
340
2AD
340
2AC
340
2AB
340
2AA
340
2A7
340
2A4
340
2A1
340
29E
340
29D
340
29C
340
29B
340
29A
340
299
340
298
340
297
340
296
340
295
340
294
340
293
340
292
340
291
340
290
340
28F
340
28E
340
28D
340
28C
340
28B
340
28A
340
289
340
288
340
287
340
286
340
285
340
284
  0
LAYOUT
  5
1E
102
{ACAD_XDICTIONARY
360
803
102
}
102
{ACAD_REACTORS
330
1A
102
}
330
1A
100
AcDbPlotSettings
  1

  2
none_device
  4

  6

 40
0.0
 41
0.0
 42
0.0
 43
0.0
 44
0.0
 45
0.0
 46
0.0
 47
0.0
 48
0.0
 49
0.0
140
0.0
141
0.0
142
1.0
143
1.0
 70
   688
 72
     1
 73
     0
 74
     5
  7

 75
    16
147
1.0
148
0.0
149
0.0
100
AcDbLayout
  1
Layout1
 70
     1
 71
     1
 10
0.0
 20
0.0
 11
420.0
 21
297.0
 12
0.0
 22
0.0
 32
0.0
 14
1.000000000000000E+20
 24
1.000000000000000E+20
 34
1.000000000000000E+20
 15
-1.000000000000000E+20
 25
-1.000000000000000E+20
 35
-1.000000000000000E+20
146
0.0
 13
0.0
 23
0.0
 33
0.0
 16
1.0
 26
0.0
 36
0.0
 17
0.0
 27
1.0
 37
0.0
 76
     0
330
1B
  0
LAYOUT
  5
22
102
{ACAD_XDICTIONARY
360
805
102
}
102
{ACAD_REACTORS
330
1A
102
}
330
1A
100
AcDbPlotSettings
  1

  2
none_device
  4
Letter_(8.50_x_11.00_Inches)
  6

 40
6.349999999999998
 41
6.349999999999998
 42
6.350005079999998
 43
6.350005079999998
 44
215.9
 45
279.4
 46
0.0
 47
0.0
 48
0.0
 49
0.0
140
0.0
141
0.0
142
1.0
143
1.0
 70
  1712
 72
     1
 73
     0
 74
     0
  7

 75
     0
147
1.0
148
0.0
149
0.0
100
AcDbLayout
  1
Model
 70
     1
 71
     0
 10
-374.1220474243164
 20
-595.3714752197266
 11
718.9447183785632
 21
314.1009979248047
 12
0.0
 22
0.0
 32
0.0
 14
-374.1220474243164
 24
-595.3714752197266
 34
0.0
 15
718.9447183785632
 25
314.1009979248047
 35
0.0
146
0.0
 13
0.0
 23
0.0
 33
0.0
 16
1.0
 26
0.0
 36
0.0
 17
0.0
 27
1.0
 37
0.0
 76
     0
330
1F
331
29
  0
LAYOUT
  5
27E
102
{ACAD_XDICTIONARY
360
83C
102
}
102
{ACAD_REACTORS
330
1A
102
}
330
1A
100
AcDbPlotSettings
  1

  2
青梅 FX DocuCentre-V C2275 T2
  4

  6

 40
0.0
 41
0.0
 42
0.0
 43
0.0
 44
0.0
 45
0.0
 46
0.0
 47
0.0
 48
0.0
 49
0.0
140
0.0
141
0.0
142
1.0
143
1.0
 70
   688
 72
     0
 73
     0
 74
     5
  7
AutoCAD_PEN.ctb
 75
    16
147
1.0
148
0.0
149
0.0
100
AcDbLayout
  1
レイアウト1
 70
     1
 71
     2
 10
0.0
 20
0.0
 11
12.0
 21
9.0
 12
0.0
 22
0.0
 32
0.0
 14
0.0
 24
0.0
 34
0.0
 15
0.0
 25
0.0
 35
0.0
146
0.0
 13
0.0
 23
0.0
 33
0.0
 16
1.0
 26
0.0
 36
0.0
 17
0.0
 27
1.0
 37
0.0
 76
     0
330
23
  0
MATERIAL
  5
45
102
{ACAD_XDICTIONARY
360
270
102
}
102
{ACAD_REACTORS
330
43
102
}
330
43
100
AcDbMaterial
  1
ByBlock
  0
MATERIAL
  5
44
102
{ACAD_XDICTIONARY
360
26E
102
}
102
{ACAD_REACTORS
330
43
102
}
330
43
100
AcDbMaterial
  1
ByLayer
  0
MATERIAL
  5
46
102
{ACAD_XDICTIONARY
360
272
102
}
102
{ACAD_REACTORS
330
43
102
}
330
43
100
AcDbMaterial
  1
Global
  0
MLEADERSTYLE
  5
5C
102
{ACAD_REACTORS
330
5B
102
}
330
5B
100
AcDbMLeaderStyle
170
     2
171
     1
172
     0
 90
        2
 40
0.0
 41
0.0
173
     1
 91
-1056964608
340
14
 92
       -2
290
     1
 42
2.0
291
     1
 43
8.0
  3
Standard
 44
4.0
300

342
11
174
     1
178
     6
175
     1
176
     0
 93
-1056964608
 45
4.0
292
     0
297
     0
 46
4.0
 94
-1056964608
 47
1.0
 49
1.0
140
1.0
293
     1
141
0.0
294
     1
177
     0
142
1.0
295
     0
296
     0
143
3.75
1001
ACAD_MLEADERVER
1070
     2
  0
MLINESTYLE
  5
18
102
{ACAD_REACTORS
330
17
102
}
330
17
100
AcDbMlineStyle
  2
STANDARD
 70
     0
  3

 62
   256
 51
90.0
 52
90.0
 71
     2
 49
0.5
 62
   256
  6
BYLAYER
 49
-0.5
 62
   256
  6
BYLAYER
  0
ACDBPLACEHOLDER
  5
F
102
{ACAD_REACTORS
330
E
102
}
330
E
  0
SCALE
  5
48
102
{ACAD_REACTORS
330
47
102
}
330
47
100
AcDbScale
 70
     0
300
1:1
140
1.0
141
1.0
290
     1
  0
SCALE
  5
49
102
{ACAD_REACTORS
330
47
102
}
330
47
100
AcDbScale
 70
     0
300
1:2
140
1.0
141
2.0
290
     0
  0
SCALE
  5
4A
102
{ACAD_REACTORS
330
47
102
}
330
47
100
AcDbScale
 70
     0
300
1:4
140
1.0
141
4.0
290
     0
  0
SCALE
  5
4B
102
{ACAD_REACTORS
330
47
102
}
330
47
100
AcDbScale
 70
     0
300
1:5
140
1.0
141
5.0
290
     0
  0
SCALE
  5
4C
102
{ACAD_REACTORS
330
47
102
}
330
47
100
AcDbScale
 70
     0
300
1:8
140
1.0
141
8.0
290
     0
  0
SCALE
  5
4D
102
{ACAD_REACTORS
330
47
102
}
330
47
100
AcDbScale
 70
     0
300
1:10
140
1.0
141
10.0
290
     0
  0
SCALE
  5
4E
102
{ACAD_REACTORS
330
47
102
}
330
47
100
AcDbScale
 70
     0
300
1:16
140
1.0
141
16.0
290
     0
  0
SCALE
  5
4F
102
{ACAD_REACTORS
330
47
102
}
330
47
100
AcDbScale
 70
     0
300
1:20
140
1.0
141
20.0
290
     0
  0
SCALE
  5
50
102
{ACAD_REACTORS
330
47
102
}
330
47
100
AcDbScale
 70
     0
300
1:30
140
1.0
141
30.0
290
     0
  0
SCALE
  5
51
102
{ACAD_REACTORS
330
47
102
}
330
47
100
AcDbScale
 70
     0
300
1:40
140
1.0
141
40.0
290
     0
  0
SCALE
  5
52
102
{ACAD_REACTORS
330
47
102
}
330
47
100
AcDbScale
 70
     0
300
1:50
140
1.0
141
50.0
290
     0
  0
SCALE
  5
53
102
{ACAD_REACTORS
330
47
102
}
330
47
100
AcDbScale
 70
     0
300
1:100
140
1.0
141
100.0
290
     0
  0
SCALE
  5
54
102
{ACAD_REACTORS
330
47
102
}
330
47
100
AcDbScale
 70
     0
300
2:1
140
2.0
141
1.0
290
     0
  0
SCALE
  5
55
102
{ACAD_REACTORS
330
47
102
}
330
47
100
AcDbScale
 70
     0
300
4:1
140
4.0
141
1.0
290
     0
  0
SCALE
  5
56
102
{ACAD_REACTORS
330
47
102
}
330
47
100
AcDbScale
 70
     0
300
8:1
140
8.0
141
1.0
290
     0
  0
SCALE
  5
57
102
{ACAD_REACTORS
330
47
102
}
330
47
100
AcDbScale
 70
     0
300
10:1
140
10.0
141
1.0
290
     0
  0
SCALE
  5
58
102
{ACAD_REACTORS
330
47
102
}
330
47
100
AcDbScale
 70
     0
300
100:1
140
100.0
141
1.0
290
     0
  0
ACDBSECTIONVIEWSTYLE
  5
27B
102
{ACAD_XDICTIONARY
360
838
102
}
102
{ACAD_REACTORS
330
27A
102
}
330
27A
100
AcDbModelDocViewStyle
 70
     0
  3
Metric50
290
     0
100
AcDbSectionViewStyle
 70
     0
 71
     0
 90
      102
 71
     1
340
11
 40
5.0
340
0
340
0
 40
5.0
300
I, O, Q, S, X, Z
 40
10.0
 90
        0
 40
2.5
 90
        0
 71
     2
340
16
 90
       25
340
16
 90
       50
 40
5.0
 40
2.5
 40
5.0
 71
     3
340
11
 40
5.0
 90
        0
 40
15.0
 90
        1
300
%<\AcVar ViewSectionStartId>%-%<\AcVar ViewSectionEndId>% (%<\AcVar ViewScale \f "%sn">%)
 71
     4
300
ANSI31
 40
1.0
 90
        0
290
     0
290
     0
 90
        6
 40
0.0
 40
1.570796326794896
 40
0.2617993877991494
 40
1.308996938995747
 40
-0.2617993877991494
 40
1.832595714594045
  0
TABLESTYLE
  5
5A
102
{ACAD_XDICTIONARY
360
7A3
102
}
102
{ACAD_REACTORS
330
59
102
}
330
59
100
AcDbTableStyle
  3
Standard
 70
     0
 71
     0
 40
1.5
 41
1.5
280
     0
281
     0
  7
Standard
140
4.5
170
     2
 62
     0
 63
     7
283
     0
274
    -2
284
     1
 64
     0
275
    -2
285
     1
 65
     0
276
    -2
286
     1
 66
     0
277
    -2
287
     1
 67
     0
278
    -2
288
     1
 68
     0
279
    -2
289
     1
 69
     0
  7
Standard
140
6.0
170
     5
 62
     0
 63
     7
283
     0
274
    -2
284
     1
 64
     0
275
    -2
285
     1
 65
     0
276
    -2
286
     1
 66
     0
277
    -2
287
     1
 67
     0
278
    -2
288
     1
 68
     0
279
    -2
289
     1
 69
     0
  7
Standard
140
4.5
170
     5
 62
     0
 63
     7
283
     0
274
    -2
284
     1
 64
     0
275
    -2
285
     1
 65
     0
276
    -2
286
     1
 66
     0
277
    -2
287
     1
 67
     0
278
    -2
288
     1
 68
     0
279
    -2
289
     1
 69
     0
  0
VISUALSTYLE
  5
2F
102
{ACAD_XDICTIONARY
360
80F
102
}
102
{ACAD_REACTORS
330
2A
102
}
330
2A
100
AcDbVisualStyle
  2

 70
     4
 71
     0
 72
     2
 73
     0
 90
        0
 40
-0.6
 41
-30.0
 62
     5
 63
     7
 74
     1
 91
        4
 64
     7
 65
   257
 75
     1
175
     1
 42
1.0
 92
        0
 66
   257
 43
1.0
 76
     1
 77
     6
 78
     2
 67
     7
 79
     5
170
     0
171
     0
290
     0
174
     0
 93
        1
 44
0.0
173
     0
291
     0
 45
0.0
1001
ACAD
1000
AcDbSavedByObjectVersion
1070
     0
  0
VISUALSTYLE
  5
32
102
{ACAD_XDICTIONARY
360
815
102
}
102
{ACAD_REACTORS
330
2A
102
}
330
2A
100
AcDbVisualStyle
  2

 70
     7
 71
     1
 72
     0
 73
     1
 90
        0
 40
-0.6
 41
-30.0
 62
     5
 63
     7
 74
     0
 91
        4
 64
     7
 65
   257
 75
     1
175
     1
 42
1.0
 92
        8
 66
     7
 43
1.0
 76
     1
 77
     6
 78
     2
 67
     7
 79
     5
170
     0
171
     0
290
     0
174
     0
 93
        1
 44
0.0
173
     0
291
     1
 45
0.0
1001
ACAD
1000
AcDbSavedByObjectVersion
1070
     0
  0
VISUALSTYLE
  5
36
102
{ACAD_XDICTIONARY
360
81D
102
}
102
{ACAD_REACTORS
330
2A
102
}
330
2A
100
AcDbVisualStyle
  2

 70
    12
 71
     2
 72
     2
 73
     0
 90
        0
 40
-0.6
 41
-30.0
 62
     5
 63
     7
 74
     1
 91
        4
 64
     7
 65
   257
 75
     1
175
     1
 42
1.0
 92
        8
 66
     7
 43
1.0
 76
     1
 77
     6
 78
     2
 67
     7
 79
     5
170
     0
171
     0
290
     0
174
     0
 93
        1
 44
50.0
173
     0
291
     1
 45
0.0
1001
ACAD
1000
AcDbSavedByObjectVersion
1070
     0
  0
VISUALSTYLE
  5
3A
102
{ACAD_XDICTIONARY
360
825
102
}
102
{ACAD_REACTORS
330
2A
102
}
330
2A
100
AcDbVisualStyle
  2

 70
    16
 71
     2
 72
     2
 73
     3
 90
        0
 40
-0.6
 41
-30.0
 62
     5
 63
     8
 74
     1
 91
        4
 64
     7
 65
   257
 75
     1
175
     1
 42
1.0
 92
        8
 66
     8
 43
1.0
 76
     1
 77
     6
 78
     2
 67
     7
 79
     5
170
     0
171
     0
290
     0
174
     0
 93
        1
 44
0.0
173
     0
291
     1
 45
0.0
1001
ACAD
1000
AcDbSavedByObjectVersion
1070
     0
  0
VISUALSTYLE
  5
34
102
{ACAD_XDICTIONARY
360
819
102
}
102
{ACAD_REACTORS
330
2A
102
}
330
2A
100
AcDbVisualStyle
  2

 70
     9
 71
     3
 72
     2
 73
     0
 90
        0
 40
-0.6
 41
-30.0
 62
     5
 63
     7
 74
     2
 91
        2
 64
     7
 65
   257
 75
     1
175
     1
 42
179.0
 92
        8
 66
     7
 43
1.0
 76
     1
 77
     6
 78
     2
 67
     7
 79
     3
170
     0
171
     0
290
     0
174
     0
 93
        1
 44
0.0
173
     0
291
     0
 45
0.0
1001
ACAD
1000
AcDbSavedByObjectVersion
1070
     0
  0
VISUALSTYLE
  5
35
102
{ACAD_XDICTIONARY
360
81B
102
}
102
{ACAD_REACTORS
330
2A
102
}
330
2A
100
AcDbVisualStyle
  2

 70
    11
 71
     2
 72
     2
 73
     0
 90
        0
 40
-0.6
 41
-30.0
 62
     5
 63
     7
 74
     1
 91
        4
 64
     7
 65
   257
 75
     1
175
     1
 42
1.0
 92
        8
 66
     7
 43
1.0
 76
     1
 77
     6
 78
     2
 67
     7
 79
     5
170
     0
171
     0
290
     0
174
     0
 93
        1
 44
-50.0
173
     0
291
     1
 45
0.0
1001
ACAD
1000
AcDbSavedByObjectVersion
1070
     0
  0
VISUALSTYLE
  5
3D
102
{ACAD_XDICTIONARY
360
82B
102
}
102
{ACAD_REACTORS
330
2A
102
}
330
2A
100
AcDbVisualStyle
  2

 70
    22
 71
     2
 72
     2
 73
     0
 90
        0
 40
-0.6
 41
-30.0
 62
     5
 63
     7
 74
     1
 91
        4
 64
     7
 65
   257
 75
     1
175
     1
 42
1.0
 92
        8
 66
     7
 43
1.0
 76
     1
 77
     6
 78
     2
 67
     7
 79
     5
170
     0
171
     0
290
     0
174
     0
 93
        1
 44
0.0
173
     0
291
     1
 45
0.0
1001
ACAD
1000
AcDbSavedByObjectVersion
1070
     0
  0
VISUALSTYLE
  5
39
102
{ACAD_XDICTIONARY
360
823
102
}
102
{ACAD_REACTORS
330
2A
102
}
330
2A
100
AcDbVisualStyle
  2

 70
    15
 71
     2
 72
     2
 73
     0
 90
        0
 40
-0.6
 41
-30.0
 62
     5
 63
     7
 74
     1
 91
        4
 64
     7
 65
   257
 75
     1
175
     1
 42
1.0
 92
        8
 66
     7
 43
1.0
 76
     1
 77
     6
 78
     2
 67
     7
 79
     5
170
     0
171
     0
290
     0
174
     0
 93
        1
 44
0.0
173
     0
291
     1
 45
0.0
1001
ACAD
1000
AcDbSavedByObjectVersion
1070
     0
  0
VISUALSTYLE
  5
2B
102
{ACAD_XDICTIONARY
360
807
102
}
102
{ACAD_REACTORS
330
2A
102
}
330
2A
100
AcDbVisualStyle
  2

 70
     0
 71
     2
 72
     1
 73
     1
 90
        2
 40
-0.6
 41
30.0
 62
     5
 63
     7
 74
     0
 91
        0
 64
     7
 65
   257
 75
     1
175
     1
 42
1.0
 92
        8
 66
     7
 43
1.0
 76
     1
 77
     6
 78
     2
 67
     7
 79
     5
170
     0
171
     0
290
     0
174
     0
 93
       13
 44
0.0
173
     0
291
     1
 45
0.0
1001
ACAD
1000
AcDbSavedByObjectVersion
1070
     0
  0
VISUALSTYLE
  5
2C
102
{ACAD_XDICTIONARY
360
809
102
}
102
{ACAD_REACTORS
330
2A
102
}
330
2A
100
AcDbVisualStyle
  2

 70
     1
 71
     2
 72
     1
 73
     1
 90
        2
 40
-0.6
 41
30.0
 62
     5
 63
     7
 74
     1
 91
        0
 64
     7
 65
   257
 75
     1
175
     1
 42
1.0
 92
        0
 66
   257
 43
1.0
 76
     1
 77
     6
 78
     2
 67
     7
 79
     5
170
     0
171
     0
290
     0
174
     0
 93
       13
 44
0.0
173
     0
291
     1
 45
0.0
1001
ACAD
1000
AcDbSavedByObjectVersion
1070
     0
  0
VISUALSTYLE
  5
2D
102
{ACAD_XDICTIONARY
360
80B
102
}
102
{ACAD_REACTORS
330
2A
102
}
330
2A
100
AcDbVisualStyle
  2

 70
     2
 71
     2
 72
     2
 73
     1
 90
        2
 40
-0.6
 41
30.0
 62
     5
 63
     7
 74
     0
 91
        0
 64
     7
 65
   257
 75
     1
175
     1
 42
1.0
 92
        0
 66
     7
 43
1.0
 76
     1
 77
     6
 78
     2
 67
     7
 79
     5
170
     0
171
     0
290
     0
174
     0
 93
       13
 44
0.0
173
     0
291
     1
 45
0.0
1001
ACAD
1000
AcDbSavedByObjectVersion
1070
     0
  0
VISUALSTYLE
  5
2E
102
{ACAD_XDICTIONARY
360
80D
102
}
102
{ACAD_REACTORS
330
2A
102
}
330
2A
100
AcDbVisualStyle
  2

 70
     3
 71
     2
 72
     2
 73
     1
 90
        2
 40
-0.6
 41
30.0
 62
     5
 63
     7
 74
     1
 91
        0
 64
     7
 65
   257
 75
     1
175
     1
 42
1.0
 92
        0
 66
   257
 43
1.0
 76
     1
 77
     6
 78
     2
 67
     7
 79
     5
170
     0
171
     0
290
     0
174
     0
 93
       13
 44
0.0
173
     0
291
     1
 45
0.0
1001
ACAD
1000
AcDbSavedByObjectVersion
1070
     0
  0
VISUALSTYLE
  5
31
102
{ACAD_XDICTIONARY
360
813
102
}
102
{ACAD_REACTORS
330
2A
102
}
330
2A
100
AcDbVisualStyle
  2

 70
     6
 71
     1
 72
     2
 73
     2
 90
        0
 40
-0.6
 41
-30.0
 62
     5
 63
     7
 74
     2
 91
        2
 64
     7
 65
   257
 75
     2
175
     1
 42
40.0
 92
        0
 66
   257
 43
1.0
 76
     1
 77
     6
 78
     2
 67
     7
 79
     3
170
     0
171
     0
290
     0
174
     0
 93
        1
 44
0.0
173
     0
291
     0
 45
0.0
1001
ACAD
1000
AcDbSavedByObjectVersion
1070
     0
  0
VISUALSTYLE
  5
3B
102
{ACAD_XDICTIONARY
360
827
102
}
102
{ACAD_REACTORS
330
2A
102
}
330
2A
100
AcDbVisualStyle
  2

 70
    20
 71
     2
 72
     2
 73
     0
 90
        0
 40
-0.6
 41
-30.0
 62
     5
 63
     7
 74
     1
 91
        4
 64
     7
 65
   257
 75
     1
175
     1
 42
1.0
 92
       10
 66
     7
 43
1.0
 76
     1
 77
     6
 78
     2
 67
     7
 79
     5
170
     0
171
     0
290
     0
174
     0
 93
        1
 44
0.0
173
     0
291
     1
 45
0.0
1001
ACAD
1000
AcDbSavedByObjectVersion
1070
     0
  0
VISUALSTYLE
  5
38
102
{ACAD_XDICTIONARY
360
821
102
}
102
{ACAD_REACTORS
330
2A
102
}
330
2A
100
AcDbVisualStyle
  2

 70
    14
 71
     2
 72
     2
 73
     0
 90
        0
 40
-0.6
 41
-30.0
 62
     5
 63
     7
 74
     1
 91
        4
 64
     7
 65
   257
 75
     7
175
     7
 42
1.0
 92
        8
 66
     7
 43
1.0
 76
     1
 77
     6
 78
     2
 67
     7
 79
     5
170
     0
171
     0
290
     0
174
     0
 93
        1
 44
0.0
173
     0
291
     1
 45
0.0
1001
ACAD
1000
AcDbSavedByObjectVersion
1070
     0
  0
VISUALSTYLE
  5
3C
102
{ACAD_XDICTIONARY
360
829
102
}
102
{ACAD_REACTORS
330
2A
102
}
330
2A
100
AcDbVisualStyle
  2

 70
    21
 71
     2
 72
     2
 73
     0
 90
        0
 40
-0.6
 41
-30.0
 62
     5
 63
     7
 74
     1
 91
        4
 64
     7
 65
   257
 75
     1
175
     1
 42
1.0
 92
        9
 66
     7
 43
1.0
 76
     1
 77
     6
 78
     2
 67
     7
 79
     5
170
     0
171
     0
290
     0
174
     0
 93
        1
 44
0.0
173
     0
291
     1
 45
0.0
1001
ACAD
1000
AcDbSavedByObjectVersion
1070
     0
  0
VISUALSTYLE
  5
33
102
{ACAD_XDICTIONARY
360
817
102
}
102
{ACAD_REACTORS
330
2A
102
}
330
2A
100
AcDbVisualStyle
  2

 70
     8
 71
     2
 72
     3
 73
     0
 90
        2
 40
-0.6
 41
30.0
 62
     5
 63
     7
 74
     0
 91
        0
 64
     7
 65
   257
 75
     1
175
     1
 42
1.0
 92
        8
 66
   257
 43
1.0
 76
     1
 77
     6
 78
     2
 67
     7
 79
     3
170
     0
171
     0
290
     0
174
     0
 93
       13
 44
0.0
173
     0
291
     0
 45
0.0
1001
ACAD
1000
AcDbSavedByObjectVersion
1070
     0
  0
VISUALSTYLE
  5
42
102
{ACAD_XDICTIONARY
360
835
102
}
102
{ACAD_REACTORS
330
2A
102
}
330
2A
100
AcDbVisualStyle
  2

 70
    27
 71
     2
 72
     2
 73
     1
 90
        2
 40
-0.6
 41
30.0
 62
     5
 63
     7
 74
     0
 91
        4
 64
     7
 65
   257
 75
     1
175
     1
 42
1.0
 92
        8
 66
   257
 43
1.0
 76
     1
 77
     6
 78
     2
 67
     8
 79
     3
170
     0
171
     0
290
     0
174
     0
 93
        5
 44
0.0
173
     0
291
     0
 45
0.0
1001
ACAD
1000
AcDbSavedByObjectVersion
1070
     0
  0
VISUALSTYLE
  5
41
102
{ACAD_XDICTIONARY
360
833
102
}
102
{ACAD_REACTORS
330
2A
102
}
330
2A
100
AcDbVisualStyle
  2

 70
    26
 71
     2
 72
     2
 73
     1
 90
        2
 40
-0.6
 41
30.0
 62
     5
 63
     7
 74
     1
 91
       10
 64
     7
 65
   257
 75
     2
175
     1
 42
1.0
 92
        8
 66
   257
 43
1.0
 76
     1
 77
     6
 78
     2
 67
     7
 79
     3
170
     0
171
     0
290
     0
174
     0
 93
        5
 44
0.0
173
     0
291
     0
 45
0.0
1001
ACAD
1000
AcDbSavedByObjectVersion
1070
     0
  0
VISUALSTYLE
  5
3E
102
{ACAD_XDICTIONARY
360
82D
102
}
102
{ACAD_REACTORS
330
2A
102
}
330
2A
100
AcDbVisualStyle
  2

 70
    23
 71
     2
 72
     2
 73
     3
 90
        0
 40
-0.6
 41
-30.0
 62
     5
 63
     7
 74
     2
 91
        2
 64
     7
 65
     7
 75
     1
175
     1
 42
40.0
 92
        8
 66
     7
 43
1.0
 76
     1
 77
     6
 78
     2
 67
     7
 79
     3
170
     0
171
     0
290
     0
174
     0
 93
        1
 44
0.0
173
     0
291
     0
 45
0.0
1001
ACAD
1000
AcDbSavedByObjectVersion
1070
     0
  0
VISUALSTYLE
  5
3F
102
{ACAD_XDICTIONARY
360
82F
102
}
102
{ACAD_REACTORS
330
2A
102
}
330
2A
100
AcDbVisualStyle
  2

 70
    24
 71
     1
 72
     2
 73
     2
 90
        0
 40
-0.6
 41
-30.0
 62
     5
 63
     7
 74
     2
 91
        2
 64
     7
 65
     7
 75
     1
175
     1
 42
40.0
 92
       11
 66
     7
 43
1.0
 76
     1
 77
     6
 78
     2
 67
     7
 79
     6
170
     0
171
     0
290
     0
174
     0
 93
        1
 44
0.0
173
     0
291
     0
 45
0.0
1001
ACAD
1000
AcDbSavedByObjectVersion
1070
     0
  0
VISUALSTYLE
  5
37
102
{ACAD_XDICTIONARY
360
81F
102
}
102
{ACAD_REACTORS
330
2A
102
}
330
2A
100
AcDbVisualStyle
  2

 70
    13
 71
     2
 72
     2
 73
     0
 90
        0
 40
-0.6
 41
-30.0
 62
     5
 63
     7
 74
     1
 91
        4
 64
     7
 65
   257
 75
     1
175
     1
 42
1.0
 92
       12
 66
     7
 43
1.0
 76
     1
 77
     6
 78
     2
 67
     7
 79
     5
170
     0
171
     0
290
     0
174
     0
 93
        1
 44
0.0
173
     0
291
     1
 45
0.0
1001
ACAD
1000
AcDbSavedByObjectVersion
1070
     0
  0
VISUALSTYLE
  5
30
102
{ACAD_XDICTIONARY
360
811
102
}
102
{ACAD_REACTORS
330
2A
102
}
330
2A
100
AcDbVisualStyle
  2

 70
     5
 71
     0
 72
     2
 73
     0
 90
        0
 40
-0.6
 41
-30.0
 62
     5
 63
     7
 74
     1
 91
        4
 64
     7
 65
   257
 75
     1
175
     1
 42
1.0
 92
        0
 66
   257
 43
1.0
 76
     1
 77
     6
 78
     2
 67
     7
 79
     3
170
     0
171
     0
290
     0
174
     0
 93
        1
 44
0.0
173
     0
291
     0
 45
0.0
1001
ACAD
1000
AcDbSavedByObjectVersion
1070
     0
  0
VISUALSTYLE
  5
40
102
{ACAD_XDICTIONARY
360
831
102
}
102
{ACAD_REACTORS
330
2A
102
}
330
2A
100
AcDbVisualStyle
  2

 70
    25
 71
     2
 72
     2
 73
     1
 90
        1
 40
0.5
 41
-30.0
 62
     5
 63
     7
 74
     1
 91
        0
 64
     7
 65
   257
 75
     1
175
     1
 42
1.0
 92
        8
 66
     7
 43
1.0
 76
     1
 77
     6
 78
     2
 67
     7
 79
     3
170
     0
171
     0
290
     0
174
     0
 93
       13
 44
0.0
173
     0
291
     0
 45
0.0
1001
ACAD
1000
AcDbSavedByObjectVersion
1070
     0
  0
DICTIONARYVAR
  5
23C
102
{ACAD_REACTORS
330
22E
102
}
330
22E
100
DictionaryVariables
280
     0
  1
1:1
  0
DICTIONARYVAR
  5
235
102
{ACAD_REACTORS
330
22E
102
}
330
22E
100
DictionaryVariables
280
     0
  1
3.500000
  0
DICTIONARYVAR
  5
236
102
{ACAD_REACTORS
330
22E
102
}
330
22E
100
DictionaryVariables
280
     0
  1
acadiso.lin
  0
DICTIONARYVAR
  5
230
102
{ACAD_REACTORS
330
22E
102
}
330
22E
100
DictionaryVariables
280
     0
  1
STANDARD
  0
DICTIONARYVAR
  5
22F
102
{ACAD_REACTORS
330
22E
102
}
330
22E
100
DictionaryVariables
280
     0
  1
STANDARD
  0
DICTIONARYVAR
  5
760
102
{ACAD_REACTORS
330
22E
102
}
330
22E
100
DictionaryVariables
280
     0
  1
Metric50
  0
DICTIONARYVAR
  5
761
102
{ACAD_REACTORS
330
22E
102
}
330
22E
100
DictionaryVariables
280
     0
  1
Metric50
  0
DICTIONARYVAR
  5
237
102
{ACAD_REACTORS
330
22E
102
}
330
22E
100
DictionaryVariables
280
     0
  1
2
  0
DICTIONARYVAR
  5
238
102
{ACAD_REACTORS
330
22E
102
}
330
22E
100
DictionaryVariables
280
     0
  1
1
  0
DICTIONARYVAR
  5
7F9
102
{ACAD_REACTORS
330
22E
102
}
330
22E
100
DictionaryVariables
280
     0
  1
0
  0
DICTIONARYVAR
  5
763
102
{ACAD_REACTORS
330
22E
102
}
330
22E
100
DictionaryVariables
280
     0
  1
1
  0
DICTIONARYVAR
  5
764
102
{ACAD_REACTORS
330
22E
102
}
330
22E
100
DictionaryVariables
280
     0
  1
15
  0
DICTIONARYVAR
  5
762
102
{ACAD_REACTORS
330
22E
102
}
330
22E
100
DictionaryVariables
280
     0
  1
0
  0
DICTIONARYVAR
  5
7FC
102
{ACAD_REACTORS
330
22E
102
}
330
22E
100
DictionaryVariables
280
     0
  1
1.570796
  0
DICTIONARYVAR
  5
7FD
102
{ACAD_REACTORS
330
22E
102
}
330
22E
100
DictionaryVariables
280
     0
  1
1.570796
  0
DICTIONARYVAR
  5
7FE
102
{ACAD_REACTORS
330
22E
102
}
330
22E
100
DictionaryVariables
280
     0
  1
-122.394000
  0
DICTIONARYVAR
  5
23D
102
{ACAD_REACTORS
330
22E
102
}
330
22E
100
DictionaryVariables
280
     0
  1
1
  0
DICTIONARYVAR
  5
7FB
102
{ACAD_REACTORS
330
22E
102
}
330
22E
100
DictionaryVariables
280
     0
  1
80.000000
  0
DICTIONARYVAR
  5
7FA
102
{ACAD_REACTORS
330
22E
102
}
330
22E
100
DictionaryVariables
280
     0
  1
5.000000
  0
DICTIONARYVAR
  5
7F8
102
{ACAD_REACTORS
330
22E
102
}
330
22E
100
DictionaryVariables
280
     0
  1
127
  0
DICTIONARYVAR
  5
7FF
102
{ACAD_REACTORS
330
22E
102
}
330
22E
100
DictionaryVariables
280
     0
  1
2
  0
DICTIONARY
  5
83A
330
27D
100
AcDbDictionary
280
     1
281
     1
  3
ACAD_XREC_ROUNDTRIP
360
83B
  0
DICTIONARY
  5
803
330
1E
100
AcDbDictionary
280
     1
281
     1
  3
ACAD_XREC_ROUNDTRIP
360
804
  0
DICTIONARY
  5
805
330
22
100
AcDbDictionary
280
     1
281
     1
  3
ACAD_XREC_ROUNDTRIP
360
806
  0
DICTIONARY
  5
83C
330
27E
100
AcDbDictionary
280
     1
281
     1
  3
ACAD_XREC_ROUNDTRIP
360
83D
  0
DICTIONARY
  5
270
330
45
100
AcDbDictionary
280
     1
281
     1
  3
ACAD_XREC_ROUNDTRIP
360
271
  0
DICTIONARY
  5
26E
330
44
100
AcDbDictionary
280
     1
281
     1
  3
ACAD_XREC_ROUNDTRIP
360
26F
  0
DICTIONARY
  5
272
330
46
100
AcDbDictionary
280
     1
281
     1
  3
ACAD_XREC_ROUNDTRIP
360
273
  0
DICTIONARY
  5
838
330
27B
100
AcDbDictionary
280
     1
281
     1
  3
ACAD_XREC_ROUNDTRIP
360
839
  0
DICTIONARY
  5
7A3
330
5A
100
AcDbDictionary
280
     1
281
     1
  3
ACAD_ROUNDTRIP_2008_TABLESTYLE_CELLSTYLEMAP
360
800
  3
ACAD_XREC_ROUNDTRIP
360
837
  0
DICTIONARY
  5
80F
330
2F
100
AcDbDictionary
280
     1
281
     1
  3
ACAD_XREC_ROUNDTRIP
360
810
  0
DICTIONARY
  5
815
330
32
100
AcDbDictionary
280
     1
281
     1
  3
ACAD_XREC_ROUNDTRIP
360
816
  0
DICTIONARY
  5
81D
330
36
100
AcDbDictionary
280
     1
281
     1
  3
ACAD_XREC_ROUNDTRIP
360
81E
  0
DICTIONARY
  5
825
330
3A
100
AcDbDictionary
280
     1
281
     1
  3
ACAD_XREC_ROUNDTRIP
360
826
  0
DICTIONARY
  5
819
330
34
100
AcDbDictionary
280
     1
281
     1
  3
ACAD_XREC_ROUNDTRIP
360
81A
  0
DICTIONARY
  5
81B
330
35
100
AcDbDictionary
280
     1
281
     1
  3
ACAD_XREC_ROUNDTRIP
360
81C
  0
DICTIONARY
  5
82B
330
3D
100
AcDbDictionary
280
     1
281
     1
  3
ACAD_XREC_ROUNDTRIP
360
82C
  0
DICTIONARY
  5
823
330
39
100
AcDbDictionary
280
     1
281
     1
  3
ACAD_XREC_ROUNDTRIP
360
824
  0
DICTIONARY
  5
807
330
2B
100
AcDbDictionary
280
     1
281
     1
  3
ACAD_XREC_ROUNDTRIP
360
808
  0
DICTIONARY
  5
809
330
2C
100
AcDbDictionary
280
     1
281
     1
  3
ACAD_XREC_ROUNDTRIP
360
80A
  0
DICTIONARY
  5
80B
330
2D
100
AcDbDictionary
280
     1
281
     1
  3
ACAD_XREC_ROUNDTRIP
360
80C
  0
DICTIONARY
  5
80D
330
2E
100
AcDbDictionary
280
     1
281
     1
  3
ACAD_XREC_ROUNDTRIP
360
80E
  0
DICTIONARY
  5
813
330
31
100
AcDbDictionary
280
     1
281
     1
  3
ACAD_XREC_ROUNDTRIP
360
814
  0
DICTIONARY
  5
827
330
3B
100
AcDbDictionary
280
     1
281
     1
  3
ACAD_XREC_ROUNDTRIP
360
828
  0
DICTIONARY
  5
821
330
38
100
AcDbDictionary
280
     1
281
     1
  3
ACAD_XREC_ROUNDTRIP
360
822
  0
DICTIONARY
  5
829
330
3C
100
AcDbDictionary
280
     1
281
     1
  3
ACAD_XREC_ROUNDTRIP
360
82A
  0
DICTIONARY
  5
817
330
33
100
AcDbDictionary
280
     1
281
     1
  3
ACAD_XREC_ROUNDTRIP
360
818
  0
DICTIONARY
  5
835
330
42
100
AcDbDictionary
280
     1
281
     1
  3
ACAD_XREC_ROUNDTRIP
360
836
  0
DICTIONARY
  5
833
330
41
100
AcDbDictionary
280
     1
281
     1
  3
ACAD_XREC_ROUNDTRIP
360
834
  0
DICTIONARY
  5
82D
330
3E
100
AcDbDictionary
280
     1
281
     1
  3
ACAD_XREC_ROUNDTRIP
360
82E
  0
DICTIONARY
  5
82F
330
3F
100
AcDbDictionary
280
     1
281
     1
  3
ACAD_XREC_ROUNDTRIP
360
830
  0
DICTIONARY
  5
81F
330
37
100
AcDbDictionary
280
     1
281
     1
  3
ACAD_XREC_ROUNDTRIP
360
820
  0
DICTIONARY
  5
811
330
30
100
AcDbDictionary
280
     1
281
     1
  3
ACAD_XREC_ROUNDTRIP
360
812
  0
DICTIONARY
  5
831
330
40
100
AcDbDictionary
280
     1
281
     1
  3
ACAD_XREC_ROUNDTRIP
360
832
  0
XRECORD
  5
83B
102
{ACAD_REACTORS
330
83A
102
}
330
83A
100
AcDbXrecord
280
     1
102
DISPLAYNAME
  1
Metric50
102
FLAGS
 90
        0
  0
XRECORD
  5
804
102
{ACAD_REACTORS
330
803
102
}
330
803
100
AcDbXrecord
280
     1
102
SHADEPLOT
 70
     0
102
SHADEPLOTRESLEVEL
 70
     2
102
SHADEPLOTCUSTOMDPI
 70
   300
  0
XRECORD
  5
806
102
{ACAD_REACTORS
330
805
102
}
330
805
100
AcDbXrecord
280
     1
102
SHADEPLOT
 70
     0
102
SHADEPLOTRESLEVEL
 70
     2
102
SHADEPLOTCUSTOMDPI
 70
   300
  0
XRECORD
  5
83D
102
{ACAD_REACTORS
330
83C
102
}
330
83C
100
AcDbXrecord
280
     1
102
SHADEPLOT
 70
     0
102
SHADEPLOTRESLEVEL
 70
     2
102
SHADEPLOTCUSTOMDPI
 70
   300
  0
XRECORD
  5
271
102
{ACAD_REACTORS
330
270
102
}
330
270
100
AcDbXrecord
280
     1
102
MATERIAL
148
0.0
149
0.0
149
0.0
 93
        0
 94
      127
282
     0
 72
     1
 77
     1
171
     1
175
     1
179
     1
273
     0
  0
XRECORD
  5
26F
102
{ACAD_REACTORS
330
26E
102
}
330
26E
100
AcDbXrecord
280
     1
102
MATERIAL
148
0.0
149
0.0
149
0.0
 93
        0
 94
      127
282
     0
 72
     1
 77
     1
171
     1
175
     1
179
     1
273
     0
  0
XRECORD
  5
273
102
{ACAD_REACTORS
330
272
102
}
330
272
100
AcDbXrecord
280
     1
102
MATERIAL
148
0.0
149
0.0
149
0.0
 93
        0
 94
      127
282
     0
 72
     1
 77
     1
171
     1
175
     1
179
     1
273
     0
  0
XRECORD
  5
839
102
{ACAD_REACTORS
330
838
102
}
330
838
100
AcDbXrecord
280
     1
102
DISPLAYNAME
  1
Metric50
102
FLAGS
 90
        0
  0
CELLSTYLEMAP
  5
800
102
{ACAD_REACTORS
330
7A3
102
}
330
7A3
100
AcDbCellStyleMap
 90
        3
300
CELLSTYLE
  1
TABLEFORMAT_BEGIN
 90
        5
170
     1
 91
        0
 92
    32768
 62
   257
 93
        1
300
CONTENTFORMAT
  1
CONTENTFORMAT_BEGIN
 90
        0
 91
        0
 92
        4
 93
        0
300

 40
0.0
140
1.0
 94
        5
 62
     0
340
11
144
6.0
309
CONTENTFORMAT_END
171
     1
301
MARGIN
  1
CELLMARGIN_BEGIN
 40
1.5
 40
1.5
 40
1.5
 40
1.5
 40
0.18
 40
0.18
309
CELLMARGIN_END
 94
        6
 95
        1
302
GRIDFORMAT
  1
GRIDFORMAT_BEGIN
 90
        0
 91
        1
 62
     0
 92
       -2
340
0
 93
        0
 40
0.045
309
GRIDFORMAT_END
 95
        2
302
GRIDFORMAT
  1
GRIDFORMAT_BEGIN
 90
        0
 91
        1
 62
     0
 92
       -2
340
0
 93
        0
 40
0.045
309
GRIDFORMAT_END
 95
        4
302
GRIDFORMAT
  1
GRIDFORMAT_BEGIN
 90
        0
 91
        1
 62
     0
 92
       -2
340
0
 93
        0
 40
0.045
309
GRIDFORMAT_END
 95
        8
302
GRIDFORMAT
  1
GRIDFORMAT_BEGIN
 90
        0
 91
        1
 62
     0
 92
       -2
340
0
 93
        0
 40
0.045
309
GRIDFORMAT_END
 95
       16
302
GRIDFORMAT
  1
GRIDFORMAT_BEGIN
 90
        0
 91
        1
 62
     0
 92
       -2
340
0
 93
        0
 40
0.045
309
GRIDFORMAT_END
 95
       32
302
GRIDFORMAT
  1
GRIDFORMAT_BEGIN
 90
        0
 91
        1
 62
     0
 92
       -2
340
0
 93
        0
 40
0.045
309
GRIDFORMAT_END
309
TABLEFORMAT_END
  1
CELLSTYLE_BEGIN
 90
        1
 91
        1
300
_TITLE
309
CELLSTYLE_END
300
CELLSTYLE
  1
TABLEFORMAT_BEGIN
 90
        5
170
     1
 91
        0
 92
        0
 62
   257
 93
        1
300
CONTENTFORMAT
  1
CONTENTFORMAT_BEGIN
 90
        0
 91
        0
 92
        4
 93
        0
300

 40
0.0
140
1.0
 94
        5
 62
     0
340
11
144
4.5
309
CONTENTFORMAT_END
171
     1
301
MARGIN
  1
CELLMARGIN_BEGIN
 40
1.5
 40
1.5
 40
1.5
 40
1.5
 40
0.18
 40
0.18
309
CELLMARGIN_END
 94
        6
 95
        1
302
GRIDFORMAT
  1
GRIDFORMAT_BEGIN
 90
        0
 91
        1
 62
     0
 92
       -2
340
0
 93
        0
 40
0.045
309
GRIDFORMAT_END
 95
        2
302
GRIDFORMAT
  1
GRIDFORMAT_BEGIN
 90
        0
 91
        1
 62
     0
 92
       -2
340
0
 93
        0
 40
0.045
309
GRIDFORMAT_END
 95
        4
302
GRIDFORMAT
  1
GRIDFORMAT_BEGIN
 90
        0
 91
        1
 62
     0
 92
       -2
340
0
 93
        0
 40
0.045
309
GRIDFORMAT_END
 95
        8
302
GRIDFORMAT
  1
GRIDFORMAT_BEGIN
 90
        0
 91
        1
 62
     0
 92
       -2
340
0
 93
        0
 40
0.045
309
GRIDFORMAT_END
 95
       16
302
GRIDFORMAT
  1
GRIDFORMAT_BEGIN
 90
        0
 91
        1
 62
     0
 92
       -2
340
0
 93
        0
 40
0.045
309
GRIDFORMAT_END
 95
       32
302
GRIDFORMAT
  1
GRIDFORMAT_BEGIN
 90
        0
 91
        1
 62
     0
 92
       -2
340
0
 93
        0
 40
0.045
309
GRIDFORMAT_END
309
TABLEFORMAT_END
  1
CELLSTYLE_BEGIN
 90
        2
 91
        1
300
_HEADER
309
CELLSTYLE_END
300
CELLSTYLE
  1
TABLEFORMAT_BEGIN
 90
        5
170
     1
 91
        0
 92
        0
 62
   257
 93
        1
300
CONTENTFORMAT
  1
CONTENTFORMAT_BEGIN
 90
        0
 91
        0
 92
        4
 93
        0
300

 40
0.0
140
1.0
 94
        2
 62
     0
340
11
144
4.5
309
CONTENTFORMAT_END
171
     1
301
MARGIN
  1
CELLMARGIN_BEGIN
 40
1.5
 40
1.5
 40
1.5
 40
1.5
 40
0.18
 40
0.18
309
CELLMARGIN_END
 94
        6
 95
        1
302
GRIDFORMAT
  1
GRIDFORMAT_BEGIN
 90
        0
 91
        1
 62
     0
 92
       -2
340
0
 93
        0
 40
0.045
309
GRIDFORMAT_END
 95
        2
302
GRIDFORMAT
  1
GRIDFORMAT_BEGIN
 90
        0
 91
        1
 62
     0
 92
       -2
340
0
 93
        0
 40
0.045
309
GRIDFORMAT_END
 95
        4
302
GRIDFORMAT
  1
GRIDFORMAT_BEGIN
 90
        0
 91
        1
 62
     0
 92
       -2
340
0
 93
        0
 40
0.045
309
GRIDFORMAT_END
 95
        8
302
GRIDFORMAT
  1
GRIDFORMAT_BEGIN
 90
        0
 91
        1
 62
     0
 92
       -2
340
0
 93
        0
 40
0.045
309
GRIDFORMAT_END
 95
       16
302
GRIDFORMAT
  1
GRIDFORMAT_BEGIN
 90
        0
 91
        1
 62
     0
 92
       -2
340
0
 93
        0
 40
0.045
309
GRIDFORMAT_END
 95
       32
302
GRIDFORMAT
  1
GRIDFORMAT_BEGIN
 90
        0
 91
        1
 62
     0
 92
       -2
340
0
 93
        0
 40
0.045
309
GRIDFORMAT_END
309
TABLEFORMAT_END
  1
CELLSTYLE_BEGIN
 90
        3
 91
        2
300
_DATA
309
CELLSTYLE_END
  0
XRECORD
  5
837
102
{ACAD_REACTORS
330
7A3
102
}
330
7A3
100
AcDbXrecord
280
     1
102
ACAD_ROUNDTRIP_PRE2007_TABLESTYLE
 90
        4
 91
        0
  1

 92
        4
 93
        0
  2

 94
        4
 95
        0
  3

  0
XRECORD
  5
810
102
{ACAD_REACTORS
330
80F
102
}
330
80F
100
AcDbXrecord
280
     1
102
RTVSPost2010Prop28
280
     1
102
RTVSPost2010PropOp28
 70
     1
102
RTVSPost2010Prop29
280
     1
102
RTVSPost2010PropOp29
 70
     1
102
RTVSPost2010Prop30
280
     0
102
RTVSPost2010PropOp30
 70
     1
102
RTVSPost2010Prop31
280
     0
102
RTVSPost2010PropOp31
 70
     1
102
RTVSPost2010Prop32
280
     0
102
RTVSPost2010PropOp32
 70
     1
102
RTVSPost2010Prop33
280
     0
102
RTVSPost2010PropOp33
 70
     1
102
RTVSPost2010Prop34
280
     0
102
RTVSPost2010PropOp34
 70
     1
102
RTVSPost2010Prop35
280
     0
102
RTVSPost2010PropOp35
 70
     1
102
RTVSPost2010Prop36
280
     0
102
RTVSPost2010PropOp36
 70
     1
102
RTVSPost2010Prop37
 90
       50
102
RTVSPost2010PropOp37
 70
     1
102
RTVSPost2010Prop38
140
0.0
102
RTVSPost2010PropOp38
 70
     1
102
RTVSPost2010Prop39
140
1.0
102
RTVSPost2010PropOp39
 70
     1
102
RTVSPost2010Prop40
 90
        0
102
RTVSPost2010PropOp40
 70
     1
102
RTVSPost2010Prop41ColorIndex
 90
       18
102
RTVSPost2010Prop41ColorRGB
 90
        0
102
RTVSPost2010PropOp41
 70
     1
102
RTVSPost2010Prop42
 90
       50
102
RTVSPost2010PropOp42
 70
     1
102
RTVSPost2010Prop43
 90
        3
102
RTVSPost2010PropOp43
 70
     1
102
RTVSPost2010Prop44ColorIndex
 90
        5
102
RTVSPost2010Prop44ColorRGB
 90
      255
102
RTVSPost2010PropOp44
 70
     1
102
RTVSPost2010Prop45
280
     0
102
RTVSPost2010PropOp45
 70
     1
102
RTVSPost2010Prop46
 90
       50
102
RTVSPost2010PropOp46
 70
     1
102
RTVSPost2010Prop47
 90
       50
102
RTVSPost2010PropOp47
 70
     1
102
RTVSPost2010Prop48
 90
       50
102
RTVSPost2010PropOp48
 70
     1
102
RTVSPost2010Prop49
280
     0
102
RTVSPost2010PropOp49
 70
     1
102
RTVSPost2010Prop50
 90
       50
102
RTVSPost2010PropOp50
 70
     1
102
RTVSPost2010Prop51ColorIndex
 90
      256
102
RTVSPost2010Prop51ColorRGB
 90
-16777216
102
RTVSPost2010PropOp51
 70
     0
102
RTVSPost2010Prop52
140
1.0
102
RTVSPost2010PropOp52
 70
     0
102
RTVSPost2010Prop53
 90
        2
102
RTVSPost2010PropOp53
 70
     1
102
RTVSPost2010Prop54
  1
strokes_ogs.tif
102
RTVSPost2010PropOp54
 70
     1
102
RTVSPost2010Prop55
280
     0
102
RTVSPost2010PropOp55
 70
     1
102
RTVSPost2010Prop56
140
1.0
102
RTVSPost2010PropOp56
 70
     1
102
RTVSPost2010Prop57
140
1.0
102
RTVSPost2010PropOp57
 70
     1
102
RTVSPropertyOp0
 70
     1
102
RTVSPropertyOp1
 70
     1
102
RTVSPropertyOp2
 70
     1
102
RTVSPropertyOp3
 70
     1
102
RTVSPropertyOp4
 70
     1
102
RTVSPropertyOp5
 70
     1
102
RTVSPropertyOp6
 70
     1
102
RTVSPropertyOp7
 70
     1
102
RTVSPropertyOp8
 70
     1
102
RTVSPropertyOp9
 70
     1
102
RTVSPropertyOp10
 70
     1
102
RTVSPropertyOp11
 70
     1
102
RTVSPropertyOp12
 70
     1
102
RTVSPropertyOp13
 70
     1
102
RTVSPropertyOp14
 70
     1
102
RTVSPropertyOp15
 70
     1
102
RTVSPropertyOp16
 70
     1
102
RTVSPropertyOp17
 70
     1
102
RTVSPropertyOp18
 70
     1
102
RTVSPropertyOp19
 70
     1
102
RTVSPropertyOp20
 70
     1
102
RTVSPropertyOp21
 70
     1
102
RTVSPropertyOp22
 70
     1
102
RTVSPropertyOp23
 70
     1
102
RTVSPropertyOp24
 70
     1
102
RTVSPropertyOp25
 70
     1
102
RTVSPropertyOp26
 70
     1
102
RTVSPropertyOp27
 70
     1
102
RTVSPropertyOp28
 70
     1
102
RTVSPropertyOp29
 70
     1
102
RTVSPropertyOp30
 70
     1
102
RTVSPropertyOp31
 70
     1
102
RTVSPropertyOp32
 70
     1
102
RTVSPropertyOp33
 70
     1
102
RTVSPropertyOp34
 70
     1
102
RTVSPropertyOp35
 70
     1
102
RTVSPropertyOp36
 70
     1
102
RTVSPropertyOp37
 70
     1
102
RTVSPropertyOp38
 70
     1
102
RTVSPropertyOp39
 70
     1
102
RTVSPropertyOp40
 70
     1
102
RTVSPropertyOp41
 70
     1
102
RTVSPropertyOp42
 70
     1
102
RTVSPropertyOp43
 70
     1
102
RTVSPropertyOp44
 70
     1
102
RTVSPropertyOp45
 70
     1
102
RTVSPropertyOp46
 70
     1
102
RTVSPropertyOp47
 70
     1
102
RTVSPropertyOp48
 70
     1
102
RTVSPropertyOp49
 70
     1
102
RTVSPropertyOp50
 70
     1
102
RTVSPropertyOp51
 70
     0
102
RTVSPropertyOp52
 70
     0
102
RTVSPropertyOp53
 70
     1
102
RTVSPropertyOp54
 70
     1
102
RTVSPropertyOp55
 70
     1
102
RTVSPropertyOp56
 70
     1
102
RTVSPropertyOp57
 70
     1
102
RTVSPropertyOp58
 70
     1
102
RTVSPropertyOp59
 70
     1
102
RTVSPropertyOp60
 70
     1
102
RTVSPropertyOp61
 70
     1
102
RTVSPropertyOp62
 70
     1
  0
XRECORD
  5
816
102
{ACAD_REACTORS
330
815
102
}
330
815
100
AcDbXrecord
280
     1
102
RTVSPost2010Prop28
280
     0
102
RTVSPost2010PropOp28
 70
     1
102
RTVSPost2010Prop29
280
     1
102
RTVSPost2010PropOp29
 70
     1
102
RTVSPost2010Prop30
280
     1
102
RTVSPost2010PropOp30
 70
     1
102
RTVSPost2010Prop31
280
     0
102
RTVSPost2010PropOp31
 70
     1
102
RTVSPost2010Prop32
280
     0
102
RTVSPost2010PropOp32
 70
     1
102
RTVSPost2010Prop33
280
     0
102
RTVSPost2010PropOp33
 70
     1
102
RTVSPost2010Prop34
280
     0
102
RTVSPost2010PropOp34
 70
     1
102
RTVSPost2010Prop35
280
     0
102
RTVSPost2010PropOp35
 70
     1
102
RTVSPost2010Prop36
280
     0
102
RTVSPost2010PropOp36
 70
     1
102
RTVSPost2010Prop37
 90
       50
102
RTVSPost2010PropOp37
 70
     1
102
RTVSPost2010Prop38
140
0.0
102
RTVSPost2010PropOp38
 70
     1
102
RTVSPost2010Prop39
140
1.0
102
RTVSPost2010PropOp39
 70
     1
102
RTVSPost2010Prop40
 90
        0
102
RTVSPost2010PropOp40
 70
     1
102
RTVSPost2010Prop41ColorIndex
 90
       18
102
RTVSPost2010Prop41ColorRGB
 90
        0
102
RTVSPost2010PropOp41
 70
     1
102
RTVSPost2010Prop42
 90
       50
102
RTVSPost2010PropOp42
 70
     1
102
RTVSPost2010Prop43
 90
        3
102
RTVSPost2010PropOp43
 70
     1
102
RTVSPost2010Prop44ColorIndex
 90
        5
102
RTVSPost2010Prop44ColorRGB
 90
      255
102
RTVSPost2010PropOp44
 70
     1
102
RTVSPost2010Prop45
280
     0
102
RTVSPost2010PropOp45
 70
     1
102
RTVSPost2010Prop46
 90
       50
102
RTVSPost2010PropOp46
 70
     1
102
RTVSPost2010Prop47
 90
       50
102
RTVSPost2010PropOp47
 70
     1
102
RTVSPost2010Prop48
 90
       50
102
RTVSPost2010PropOp48
 70
     1
102
RTVSPost2010Prop49
280
     0
102
RTVSPost2010PropOp49
 70
     1
102
RTVSPost2010Prop50
 90
       50
102
RTVSPost2010PropOp50
 70
     1
102
RTVSPost2010Prop51ColorIndex
 90
      256
102
RTVSPost2010Prop51ColorRGB
 90
-16777216
102
RTVSPost2010PropOp51
 70
     0
102
RTVSPost2010Prop52
140
1.0
102
RTVSPost2010PropOp52
 70
     0
102
RTVSPost2010Prop53
 90
        2
102
RTVSPost2010PropOp53
 70
     1
102
RTVSPost2010Prop54
  1
strokes_ogs.tif
102
RTVSPost2010PropOp54
 70
     1
102
RTVSPost2010Prop55
280
     0
102
RTVSPost2010PropOp55
 70
     1
102
RTVSPost2010Prop56
140
1.0
102
RTVSPost2010PropOp56
 70
     1
102
RTVSPost2010Prop57
140
1.0
102
RTVSPost2010PropOp57
 70
     1
102
RTVSPropertyOp0
 70
     1
102
RTVSPropertyOp1
 70
     1
102
RTVSPropertyOp2
 70
     1
102
RTVSPropertyOp3
 70
     1
102
RTVSPropertyOp4
 70
     1
102
RTVSPropertyOp5
 70
     1
102
RTVSPropertyOp6
 70
     1
102
RTVSPropertyOp7
 70
     1
102
RTVSPropertyOp8
 70
     1
102
RTVSPropertyOp9
 70
     1
102
RTVSPropertyOp10
 70
     1
102
RTVSPropertyOp11
 70
     1
102
RTVSPropertyOp12
 70
     1
102
RTVSPropertyOp13
 70
     1
102
RTVSPropertyOp14
 70
     1
102
RTVSPropertyOp15
 70
     1
102
RTVSPropertyOp16
 70
     1
102
RTVSPropertyOp17
 70
     1
102
RTVSPropertyOp18
 70
     1
102
RTVSPropertyOp19
 70
     1
102
RTVSPropertyOp20
 70
     1
102
RTVSPropertyOp21
 70
     1
102
RTVSPropertyOp22
 70
     1
102
RTVSPropertyOp23
 70
     1
102
RTVSPropertyOp24
 70
     1
102
RTVSPropertyOp25
 70
     1
102
RTVSPropertyOp26
 70
     1
102
RTVSPropertyOp27
 70
     1
102
RTVSPropertyOp28
 70
     1
102
RTVSPropertyOp29
 70
     1
102
RTVSPropertyOp30
 70
     1
102
RTVSPropertyOp31
 70
     1
102
RTVSPropertyOp32
 70
     1
102
RTVSPropertyOp33
 70
     1
102
RTVSPropertyOp34
 70
     1
102
RTVSPropertyOp35
 70
     1
102
RTVSPropertyOp36
 70
     1
102
RTVSPropertyOp37
 70
     1
102
RTVSPropertyOp38
 70
     1
102
RTVSPropertyOp39
 70
     1
102
RTVSPropertyOp40
 70
     1
102
RTVSPropertyOp41
 70
     1
102
RTVSPropertyOp42
 70
     1
102
RTVSPropertyOp43
 70
     1
102
RTVSPropertyOp44
 70
     1
102
RTVSPropertyOp45
 70
     1
102
RTVSPropertyOp46
 70
     1
102
RTVSPropertyOp47
 70
     1
102
RTVSPropertyOp48
 70
     1
102
RTVSPropertyOp49
 70
     1
102
RTVSPropertyOp50
 70
     1
102
RTVSPropertyOp51
 70
     0
102
RTVSPropertyOp52
 70
     0
102
RTVSPropertyOp53
 70
     1
102
RTVSPropertyOp54
 70
     1
102
RTVSPropertyOp55
 70
     1
102
RTVSPropertyOp56
 70
     1
102
RTVSPropertyOp57
 70
     1
102
RTVSPropertyOp58
 70
     1
102
RTVSPropertyOp59
 70
     1
102
RTVSPropertyOp60
 70
     1
102
RTVSPropertyOp61
 70
     1
102
RTVSPropertyOp62
 70
     1
  0
XRECORD
  5
81E
102
{ACAD_REACTORS
330
81D
102
}
330
81D
100
AcDbXrecord
280
     1
102
RTVSPost2010Prop28
280
     0
102
RTVSPost2010PropOp28
 70
     1
102
RTVSPost2010Prop29
280
     1
102
RTVSPost2010PropOp29
 70
     1
102
RTVSPost2010Prop30
280
     1
102
RTVSPost2010PropOp30
 70
     1
102
RTVSPost2010Prop31
280
     0
102
RTVSPost2010PropOp31
 70
     1
102
RTVSPost2010Prop32
280
     0
102
RTVSPost2010PropOp32
 70
     1
102
RTVSPost2010Prop33
280
     0
102
RTVSPost2010PropOp33
 70
     1
102
RTVSPost2010Prop34
280
     0
102
RTVSPost2010PropOp34
 70
     1
102
RTVSPost2010Prop35
280
     0
102
RTVSPost2010PropOp35
 70
     1
102
RTVSPost2010Prop36
280
     0
102
RTVSPost2010PropOp36
 70
     1
102
RTVSPost2010Prop37
 90
       50
102
RTVSPost2010PropOp37
 70
     1
102
RTVSPost2010Prop38
140
0.0
102
RTVSPost2010PropOp38
 70
     1
102
RTVSPost2010Prop39
140
1.0
102
RTVSPost2010PropOp39
 70
     1
102
RTVSPost2010Prop40
 90
        0
102
RTVSPost2010PropOp40
 70
     1
102
RTVSPost2010Prop41ColorIndex
 90
       18
102
RTVSPost2010Prop41ColorRGB
 90
        0
102
RTVSPost2010PropOp41
 70
     1
102
RTVSPost2010Prop42
 90
       50
102
RTVSPost2010PropOp42
 70
     1
102
RTVSPost2010Prop43
 90
        3
102
RTVSPost2010PropOp43
 70
     1
102
RTVSPost2010Prop44ColorIndex
 90
        5
102
RTVSPost2010Prop44ColorRGB
 90
      255
102
RTVSPost2010PropOp44
 70
     1
102
RTVSPost2010Prop45
280
     0
102
RTVSPost2010PropOp45
 70
     1
102
RTVSPost2010Prop46
 90
       50
102
RTVSPost2010PropOp46
 70
     1
102
RTVSPost2010Prop47
 90
       50
102
RTVSPost2010PropOp47
 70
     1
102
RTVSPost2010Prop48
 90
       50
102
RTVSPost2010PropOp48
 70
     1
102
RTVSPost2010Prop49
280
     0
102
RTVSPost2010PropOp49
 70
     1
102
RTVSPost2010Prop50
 90
       50
102
RTVSPost2010PropOp50
 70
     1
102
RTVSPost2010Prop51ColorIndex
 90
      256
102
RTVSPost2010Prop51ColorRGB
 90
-16777216
102
RTVSPost2010PropOp51
 70
     0
102
RTVSPost2010Prop52
140
1.0
102
RTVSPost2010PropOp52
 70
     0
102
RTVSPost2010Prop53
 90
        2
102
RTVSPost2010PropOp53
 70
     1
102
RTVSPost2010Prop54
  1
strokes_ogs.tif
102
RTVSPost2010PropOp54
 70
     1
102
RTVSPost2010Prop55
280
     0
102
RTVSPost2010PropOp55
 70
     1
102
RTVSPost2010Prop56
140
1.0
102
RTVSPost2010PropOp56
 70
     1
102
RTVSPost2010Prop57
140
1.0
102
RTVSPost2010PropOp57
 70
     1
102
RTVSPropertyOp0
 70
     1
102
RTVSPropertyOp1
 70
     1
102
RTVSPropertyOp2
 70
     1
102
RTVSPropertyOp3
 70
     1
102
RTVSPropertyOp4
 70
     1
102
RTVSPropertyOp5
 70
     1
102
RTVSPropertyOp6
 70
     1
102
RTVSPropertyOp7
 70
     1
102
RTVSPropertyOp8
 70
     1
102
RTVSPropertyOp9
 70
     1
102
RTVSPropertyOp10
 70
     1
102
RTVSPropertyOp11
 70
     1
102
RTVSPropertyOp12
 70
     1
102
RTVSPropertyOp13
 70
     1
102
RTVSPropertyOp14
 70
     1
102
RTVSPropertyOp15
 70
     1
102
RTVSPropertyOp16
 70
     1
102
RTVSPropertyOp17
 70
     1
102
RTVSPropertyOp18
 70
     1
102
RTVSPropertyOp19
 70
     1
102
RTVSPropertyOp20
 70
     1
102
RTVSPropertyOp21
 70
     1
102
RTVSPropertyOp22
 70
     1
102
RTVSPropertyOp23
 70
     1
102
RTVSPropertyOp24
 70
     1
102
RTVSPropertyOp25
 70
     1
102
RTVSPropertyOp26
 70
     1
102
RTVSPropertyOp27
 70
     1
102
RTVSPropertyOp28
 70
     1
102
RTVSPropertyOp29
 70
     1
102
RTVSPropertyOp30
 70
     1
102
RTVSPropertyOp31
 70
     1
102
RTVSPropertyOp32
 70
     1
102
RTVSPropertyOp33
 70
     1
102
RTVSPropertyOp34
 70
     1
102
RTVSPropertyOp35
 70
     1
102
RTVSPropertyOp36
 70
     1
102
RTVSPropertyOp37
 70
     1
102
RTVSPropertyOp38
 70
     1
102
RTVSPropertyOp39
 70
     1
102
RTVSPropertyOp40
 70
     1
102
RTVSPropertyOp41
 70
     1
102
RTVSPropertyOp42
 70
     1
102
RTVSPropertyOp43
 70
     1
102
RTVSPropertyOp44
 70
     1
102
RTVSPropertyOp45
 70
     1
102
RTVSPropertyOp46
 70
     1
102
RTVSPropertyOp47
 70
     1
102
RTVSPropertyOp48
 70
     1
102
RTVSPropertyOp49
 70
     1
102
RTVSPropertyOp50
 70
     1
102
RTVSPropertyOp51
 70
     0
102
RTVSPropertyOp52
 70
     0
102
RTVSPropertyOp53
 70
     1
102
RTVSPropertyOp54
 70
     1
102
RTVSPropertyOp55
 70
     1
102
RTVSPropertyOp56
 70
     1
102
RTVSPropertyOp57
 70
     1
102
RTVSPropertyOp58
 70
     1
102
RTVSPropertyOp59
 70
     1
102
RTVSPropertyOp60
 70
     1
102
RTVSPropertyOp61
 70
     1
102
RTVSPropertyOp62
 70
     1
  0
XRECORD
  5
826
102
{ACAD_REACTORS
330
825
102
}
330
825
100
AcDbXrecord
280
     1
102
RTVSPost2010Prop28
280
     0
102
RTVSPost2010PropOp28
 70
     1
102
RTVSPost2010Prop29
280
     1
102
RTVSPost2010PropOp29
 70
     1
102
RTVSPost2010Prop30
280
     1
102
RTVSPost2010PropOp30
 70
     1
102
RTVSPost2010Prop31
280
     0
102
RTVSPost2010PropOp31
 70
     1
102
RTVSPost2010Prop32
280
     0
102
RTVSPost2010PropOp32
 70
     1
102
RTVSPost2010Prop33
280
     0
102
RTVSPost2010PropOp33
 70
     1
102
RTVSPost2010Prop34
280
     0
102
RTVSPost2010PropOp34
 70
     1
102
RTVSPost2010Prop35
280
     0
102
RTVSPost2010PropOp35
 70
     1
102
RTVSPost2010Prop36
280
     0
102
RTVSPost2010PropOp36
 70
     1
102
RTVSPost2010Prop37
 90
       50
102
RTVSPost2010PropOp37
 70
     1
102
RTVSPost2010Prop38
140
0.0
102
RTVSPost2010PropOp38
 70
     1
102
RTVSPost2010Prop39
140
1.0
102
RTVSPost2010PropOp39
 70
     1
102
RTVSPost2010Prop40
 90
        0
102
RTVSPost2010PropOp40
 70
     1
102
RTVSPost2010Prop41ColorIndex
 90
       18
102
RTVSPost2010Prop41ColorRGB
 90
        0
102
RTVSPost2010PropOp41
 70
     1
102
RTVSPost2010Prop42
 90
       50
102
RTVSPost2010PropOp42
 70
     1
102
RTVSPost2010Prop43
 90
        3
102
RTVSPost2010PropOp43
 70
     1
102
RTVSPost2010Prop44ColorIndex
 90
        5
102
RTVSPost2010Prop44ColorRGB
 90
      255
102
RTVSPost2010PropOp44
 70
     1
102
RTVSPost2010Prop45
280
     0
102
RTVSPost2010PropOp45
 70
     1
102
RTVSPost2010Prop46
 90
       50
102
RTVSPost2010PropOp46
 70
     1
102
RTVSPost2010Prop47
 90
       50
102
RTVSPost2010PropOp47
 70
     1
102
RTVSPost2010Prop48
 90
       50
102
RTVSPost2010PropOp48
 70
     1
102
RTVSPost2010Prop49
280
     0
102
RTVSPost2010PropOp49
 70
     1
102
RTVSPost2010Prop50
 90
       50
102
RTVSPost2010PropOp50
 70
     1
102
RTVSPost2010Prop51ColorIndex
 90
      256
102
RTVSPost2010Prop51ColorRGB
 90
-16777216
102
RTVSPost2010PropOp51
 70
     0
102
RTVSPost2010Prop52
140
1.0
102
RTVSPost2010PropOp52
 70
     0
102
RTVSPost2010Prop53
 90
        2
102
RTVSPost2010PropOp53
 70
     1
102
RTVSPost2010Prop54
  1
strokes_ogs.tif
102
RTVSPost2010PropOp54
 70
     1
102
RTVSPost2010Prop55
280
     0
102
RTVSPost2010PropOp55
 70
     1
102
RTVSPost2010Prop56
140
1.0
102
RTVSPost2010PropOp56
 70
     1
102
RTVSPost2010Prop57
140
1.0
102
RTVSPost2010PropOp57
 70
     1
102
RTVSPropertyOp0
 70
     1
102
RTVSPropertyOp1
 70
     1
102
RTVSPropertyOp2
 70
     1
102
RTVSPropertyOp3
 70
     1
102
RTVSPropertyOp4
 70
     1
102
RTVSPropertyOp5
 70
     1
102
RTVSPropertyOp6
 70
     1
102
RTVSPropertyOp7
 70
     1
102
RTVSPropertyOp8
 70
     1
102
RTVSPropertyOp9
 70
     1
102
RTVSPropertyOp10
 70
     1
102
RTVSPropertyOp11
 70
     1
102
RTVSPropertyOp12
 70
     1
102
RTVSPropertyOp13
 70
     1
102
RTVSPropertyOp14
 70
     1
102
RTVSPropertyOp15
 70
     1
102
RTVSPropertyOp16
 70
     1
102
RTVSPropertyOp17
 70
     1
102
RTVSPropertyOp18
 70
     1
102
RTVSPropertyOp19
 70
     1
102
RTVSPropertyOp20
 70
     1
102
RTVSPropertyOp21
 70
     1
102
RTVSPropertyOp22
 70
     1
102
RTVSPropertyOp23
 70
     1
102
RTVSPropertyOp24
 70
     1
102
RTVSPropertyOp25
 70
     1
102
RTVSPropertyOp26
 70
     1
102
RTVSPropertyOp27
 70
     1
102
RTVSPropertyOp28
 70
     1
102
RTVSPropertyOp29
 70
     1
102
RTVSPropertyOp30
 70
     1
102
RTVSPropertyOp31
 70
     1
102
RTVSPropertyOp32
 70
     1
102
RTVSPropertyOp33
 70
     1
102
RTVSPropertyOp34
 70
     1
102
RTVSPropertyOp35
 70
     1
102
RTVSPropertyOp36
 70
     1
102
RTVSPropertyOp37
 70
     1
102
RTVSPropertyOp38
 70
     1
102
RTVSPropertyOp39
 70
     1
102
RTVSPropertyOp40
 70
     1
102
RTVSPropertyOp41
 70
     1
102
RTVSPropertyOp42
 70
     1
102
RTVSPropertyOp43
 70
     1
102
RTVSPropertyOp44
 70
     1
102
RTVSPropertyOp45
 70
     1
102
RTVSPropertyOp46
 70
     1
102
RTVSPropertyOp47
 70
     1
102
RTVSPropertyOp48
 70
     1
102
RTVSPropertyOp49
 70
     1
102
RTVSPropertyOp50
 70
     1
102
RTVSPropertyOp51
 70
     0
102
RTVSPropertyOp52
 70
     0
102
RTVSPropertyOp53
 70
     1
102
RTVSPropertyOp54
 70
     1
102
RTVSPropertyOp55
 70
     1
102
RTVSPropertyOp56
 70
     1
102
RTVSPropertyOp57
 70
     1
102
RTVSPropertyOp58
 70
     1
102
RTVSPropertyOp59
 70
     1
102
RTVSPropertyOp60
 70
     1
102
RTVSPropertyOp61
 70
     1
102
RTVSPropertyOp62
 70
     1
  0
XRECORD
  5
81A
102
{ACAD_REACTORS
330
819
102
}
330
819
100
AcDbXrecord
280
     1
102
RTVSPost2010Prop28
280
     0
102
RTVSPost2010PropOp28
 70
     1
102
RTVSPost2010Prop29
280
     1
102
RTVSPost2010PropOp29
 70
     1
102
RTVSPost2010Prop30
280
     1
102
RTVSPost2010PropOp30
 70
     1
102
RTVSPost2010Prop31
280
     0
102
RTVSPost2010PropOp31
 70
     1
102
RTVSPost2010Prop32
280
     0
102
RTVSPost2010PropOp32
 70
     1
102
RTVSPost2010Prop33
280
     0
102
RTVSPost2010PropOp33
 70
     1
102
RTVSPost2010Prop34
280
     0
102
RTVSPost2010PropOp34
 70
     1
102
RTVSPost2010Prop35
280
     0
102
RTVSPost2010PropOp35
 70
     1
102
RTVSPost2010Prop36
280
     0
102
RTVSPost2010PropOp36
 70
     1
102
RTVSPost2010Prop37
 90
       50
102
RTVSPost2010PropOp37
 70
     1
102
RTVSPost2010Prop38
140
0.0
102
RTVSPost2010PropOp38
 70
     1
102
RTVSPost2010Prop39
140
1.0
102
RTVSPost2010PropOp39
 70
     1
102
RTVSPost2010Prop40
 90
        0
102
RTVSPost2010PropOp40
 70
     1
102
RTVSPost2010Prop41ColorIndex
 90
       18
102
RTVSPost2010Prop41ColorRGB
 90
        0
102
RTVSPost2010PropOp41
 70
     1
102
RTVSPost2010Prop42
 90
       50
102
RTVSPost2010PropOp42
 70
     1
102
RTVSPost2010Prop43
 90
        3
102
RTVSPost2010PropOp43
 70
     1
102
RTVSPost2010Prop44ColorIndex
 90
        5
102
RTVSPost2010Prop44ColorRGB
 90
      255
102
RTVSPost2010PropOp44
 70
     1
102
RTVSPost2010Prop45
280
     0
102
RTVSPost2010PropOp45
 70
     1
102
RTVSPost2010Prop46
 90
       50
102
RTVSPost2010PropOp46
 70
     1
102
RTVSPost2010Prop47
 90
       50
102
RTVSPost2010PropOp47
 70
     1
102
RTVSPost2010Prop48
 90
       50
102
RTVSPost2010PropOp48
 70
     1
102
RTVSPost2010Prop49
280
     0
102
RTVSPost2010PropOp49
 70
     1
102
RTVSPost2010Prop50
 90
       50
102
RTVSPost2010PropOp50
 70
     1
102
RTVSPost2010Prop51ColorIndex
 90
      256
102
RTVSPost2010Prop51ColorRGB
 90
-16777216
102
RTVSPost2010PropOp51
 70
     0
102
RTVSPost2010Prop52
140
1.0
102
RTVSPost2010PropOp52
 70
     0
102
RTVSPost2010Prop53
 90
        2
102
RTVSPost2010PropOp53
 70
     1
102
RTVSPost2010Prop54
  1
strokes_ogs.tif
102
RTVSPost2010PropOp54
 70
     1
102
RTVSPost2010Prop55
280
     0
102
RTVSPost2010PropOp55
 70
     1
102
RTVSPost2010Prop56
140
1.0
102
RTVSPost2010PropOp56
 70
     1
102
RTVSPost2010Prop57
140
1.0
102
RTVSPost2010PropOp57
 70
     1
102
RTVSPropertyOp0
 70
     1
102
RTVSPropertyOp1
 70
     1
102
RTVSPropertyOp2
 70
     1
102
RTVSPropertyOp3
 70
     1
102
RTVSPropertyOp4
 70
     1
102
RTVSPropertyOp5
 70
     1
102
RTVSPropertyOp6
 70
     1
102
RTVSPropertyOp7
 70
     1
102
RTVSPropertyOp8
 70
     1
102
RTVSPropertyOp9
 70
     1
102
RTVSPropertyOp10
 70
     1
102
RTVSPropertyOp11
 70
     1
102
RTVSPropertyOp12
 70
     1
102
RTVSPropertyOp13
 70
     1
102
RTVSPropertyOp14
 70
     1
102
RTVSPropertyOp15
 70
     1
102
RTVSPropertyOp16
 70
     1
102
RTVSPropertyOp17
 70
     1
102
RTVSPropertyOp18
 70
     1
102
RTVSPropertyOp19
 70
     1
102
RTVSPropertyOp20
 70
     1
102
RTVSPropertyOp21
 70
     1
102
RTVSPropertyOp22
 70
     1
102
RTVSPropertyOp23
 70
     1
102
RTVSPropertyOp24
 70
     1
102
RTVSPropertyOp25
 70
     1
102
RTVSPropertyOp26
 70
     1
102
RTVSPropertyOp27
 70
     1
102
RTVSPropertyOp28
 70
     1
102
RTVSPropertyOp29
 70
     1
102
RTVSPropertyOp30
 70
     1
102
RTVSPropertyOp31
 70
     1
102
RTVSPropertyOp32
 70
     1
102
RTVSPropertyOp33
 70
     1
102
RTVSPropertyOp34
 70
     1
102
RTVSPropertyOp35
 70
     1
102
RTVSPropertyOp36
 70
     1
102
RTVSPropertyOp37
 70
     1
102
RTVSPropertyOp38
 70
     1
102
RTVSPropertyOp39
 70
     1
102
RTVSPropertyOp40
 70
     1
102
RTVSPropertyOp41
 70
     1
102
RTVSPropertyOp42
 70
     1
102
RTVSPropertyOp43
 70
     1
102
RTVSPropertyOp44
 70
     1
102
RTVSPropertyOp45
 70
     1
102
RTVSPropertyOp46
 70
     1
102
RTVSPropertyOp47
 70
     1
102
RTVSPropertyOp48
 70
     1
102
RTVSPropertyOp49
 70
     1
102
RTVSPropertyOp50
 70
     1
102
RTVSPropertyOp51
 70
     0
102
RTVSPropertyOp52
 70
     0
102
RTVSPropertyOp53
 70
     1
102
RTVSPropertyOp54
 70
     1
102
RTVSPropertyOp55
 70
     1
102
RTVSPropertyOp56
 70
     1
102
RTVSPropertyOp57
 70
     1
102
RTVSPropertyOp58
 70
     1
102
RTVSPropertyOp59
 70
     1
102
RTVSPropertyOp60
 70
     1
102
RTVSPropertyOp61
 70
     1
102
RTVSPropertyOp62
 70
     1
  0
XRECORD
  5
81C
102
{ACAD_REACTORS
330
81B
102
}
330
81B
100
AcDbXrecord
280
     1
102
RTVSPost2010Prop28
280
     0
102
RTVSPost2010PropOp28
 70
     1
102
RTVSPost2010Prop29
280
     1
102
RTVSPost2010PropOp29
 70
     1
102
RTVSPost2010Prop30
280
     1
102
RTVSPost2010PropOp30
 70
     1
102
RTVSPost2010Prop31
280
     0
102
RTVSPost2010PropOp31
 70
     1
102
RTVSPost2010Prop32
280
     0
102
RTVSPost2010PropOp32
 70
     1
102
RTVSPost2010Prop33
280
     0
102
RTVSPost2010PropOp33
 70
     1
102
RTVSPost2010Prop34
280
     0
102
RTVSPost2010PropOp34
 70
     1
102
RTVSPost2010Prop35
280
     0
102
RTVSPost2010PropOp35
 70
     1
102
RTVSPost2010Prop36
280
     0
102
RTVSPost2010PropOp36
 70
     1
102
RTVSPost2010Prop37
 90
       50
102
RTVSPost2010PropOp37
 70
     1
102
RTVSPost2010Prop38
140
0.0
102
RTVSPost2010PropOp38
 70
     1
102
RTVSPost2010Prop39
140
1.0
102
RTVSPost2010PropOp39
 70
     1
102
RTVSPost2010Prop40
 90
        0
102
RTVSPost2010PropOp40
 70
     1
102
RTVSPost2010Prop41ColorIndex
 90
       18
102
RTVSPost2010Prop41ColorRGB
 90
        0
102
RTVSPost2010PropOp41
 70
     1
102
RTVSPost2010Prop42
 90
       50
102
RTVSPost2010PropOp42
 70
     1
102
RTVSPost2010Prop43
 90
        3
102
RTVSPost2010PropOp43
 70
     1
102
RTVSPost2010Prop44ColorIndex
 90
        5
102
RTVSPost2010Prop44ColorRGB
 90
      255
102
RTVSPost2010PropOp44
 70
     1
102
RTVSPost2010Prop45
280
     0
102
RTVSPost2010PropOp45
 70
     1
102
RTVSPost2010Prop46
 90
       50
102
RTVSPost2010PropOp46
 70
     1
102
RTVSPost2010Prop47
 90
       50
102
RTVSPost2010PropOp47
 70
     1
102
RTVSPost2010Prop48
 90
       50
102
RTVSPost2010PropOp48
 70
     1
102
RTVSPost2010Prop49
280
     0
102
RTVSPost2010PropOp49
 70
     1
102
RTVSPost2010Prop50
 90
       50
102
RTVSPost2010PropOp50
 70
     1
102
RTVSPost2010Prop51ColorIndex
 90
      256
102
RTVSPost2010Prop51ColorRGB
 90
-16777216
102
RTVSPost2010PropOp51
 70
     0
102
RTVSPost2010Prop52
140
1.0
102
RTVSPost2010PropOp52
 70
     0
102
RTVSPost2010Prop53
 90
        2
102
RTVSPost2010PropOp53
 70
     1
102
RTVSPost2010Prop54
  1
strokes_ogs.tif
102
RTVSPost2010PropOp54
 70
     1
102
RTVSPost2010Prop55
280
     0
102
RTVSPost2010PropOp55
 70
     1
102
RTVSPost2010Prop56
140
1.0
102
RTVSPost2010PropOp56
 70
     1
102
RTVSPost2010Prop57
140
1.0
102
RTVSPost2010PropOp57
 70
     1
102
RTVSPropertyOp0
 70
     1
102
RTVSPropertyOp1
 70
     1
102
RTVSPropertyOp2
 70
     1
102
RTVSPropertyOp3
 70
     1
102
RTVSPropertyOp4
 70
     1
102
RTVSPropertyOp5
 70
     1
102
RTVSPropertyOp6
 70
     1
102
RTVSPropertyOp7
 70
     1
102
RTVSPropertyOp8
 70
     1
102
RTVSPropertyOp9
 70
     1
102
RTVSPropertyOp10
 70
     1
102
RTVSPropertyOp11
 70
     1
102
RTVSPropertyOp12
 70
     1
102
RTVSPropertyOp13
 70
     1
102
RTVSPropertyOp14
 70
     1
102
RTVSPropertyOp15
 70
     1
102
RTVSPropertyOp16
 70
     1
102
RTVSPropertyOp17
 70
     1
102
RTVSPropertyOp18
 70
     1
102
RTVSPropertyOp19
 70
     1
102
RTVSPropertyOp20
 70
     1
102
RTVSPropertyOp21
 70
     1
102
RTVSPropertyOp22
 70
     1
102
RTVSPropertyOp23
 70
     1
102
RTVSPropertyOp24
 70
     1
102
RTVSPropertyOp25
 70
     1
102
RTVSPropertyOp26
 70
     1
102
RTVSPropertyOp27
 70
     1
102
RTVSPropertyOp28
 70
     1
102
RTVSPropertyOp29
 70
     1
102
RTVSPropertyOp30
 70
     1
102
RTVSPropertyOp31
 70
     1
102
RTVSPropertyOp32
 70
     1
102
RTVSPropertyOp33
 70
     1
102
RTVSPropertyOp34
 70
     1
102
RTVSPropertyOp35
 70
     1
102
RTVSPropertyOp36
 70
     1
102
RTVSPropertyOp37
 70
     1
102
RTVSPropertyOp38
 70
     1
102
RTVSPropertyOp39
 70
     1
102
RTVSPropertyOp40
 70
     1
102
RTVSPropertyOp41
 70
     1
102
RTVSPropertyOp42
 70
     1
102
RTVSPropertyOp43
 70
     1
102
RTVSPropertyOp44
 70
     1
102
RTVSPropertyOp45
 70
     1
102
RTVSPropertyOp46
 70
     1
102
RTVSPropertyOp47
 70
     1
102
RTVSPropertyOp48
 70
     1
102
RTVSPropertyOp49
 70
     1
102
RTVSPropertyOp50
 70
     1
102
RTVSPropertyOp51
 70
     0
102
RTVSPropertyOp52
 70
     0
102
RTVSPropertyOp53
 70
     1
102
RTVSPropertyOp54
 70
     1
102
RTVSPropertyOp55
 70
     1
102
RTVSPropertyOp56
 70
     1
102
RTVSPropertyOp57
 70
     1
102
RTVSPropertyOp58
 70
     1
102
RTVSPropertyOp59
 70
     1
102
RTVSPropertyOp60
 70
     1
102
RTVSPropertyOp61
 70
     1
102
RTVSPropertyOp62
 70
     1
  0
XRECORD
  5
82C
102
{ACAD_REACTORS
330
82B
102
}
330
82B
100
AcDbXrecord
280
     1
102
RTVSPost2010Prop28
280
     0
102
RTVSPost2010PropOp28
 70
     0
102
RTVSPost2010Prop29
280
     1
102
RTVSPost2010PropOp29
 70
     0
102
RTVSPost2010Prop30
280
     1
102
RTVSPost2010PropOp30
 70
     0
102
RTVSPost2010Prop31
280
     0
102
RTVSPost2010PropOp31
 70
     0
102
RTVSPost2010Prop32
280
     0
102
RTVSPost2010PropOp32
 70
     0
102
RTVSPost2010Prop33
280
     0
102
RTVSPost2010PropOp33
 70
     0
102
RTVSPost2010Prop34
280
     0
102
RTVSPost2010PropOp34
 70
     0
102
RTVSPost2010Prop35
280
     0
102
RTVSPost2010PropOp35
 70
     0
102
RTVSPost2010Prop36
280
     0
102
RTVSPost2010PropOp36
 70
     0
102
RTVSPost2010Prop37
 90
       50
102
RTVSPost2010PropOp37
 70
     0
102
RTVSPost2010Prop38
140
0.0
102
RTVSPost2010PropOp38
 70
     0
102
RTVSPost2010Prop39
140
1.0
102
RTVSPost2010PropOp39
 70
     0
102
RTVSPost2010Prop40
 90
        0
102
RTVSPost2010PropOp40
 70
     0
102
RTVSPost2010Prop41ColorIndex
 90
       18
102
RTVSPost2010Prop41ColorRGB
 90
        0
102
RTVSPost2010PropOp41
 70
     0
102
RTVSPost2010Prop42
 90
       50
102
RTVSPost2010PropOp42
 70
     0
102
RTVSPost2010Prop43
 90
        3
102
RTVSPost2010PropOp43
 70
     0
102
RTVSPost2010Prop44ColorIndex
 90
        5
102
RTVSPost2010Prop44ColorRGB
 90
      255
102
RTVSPost2010PropOp44
 70
     0
102
RTVSPost2010Prop45
280
     0
102
RTVSPost2010PropOp45
 70
     0
102
RTVSPost2010Prop46
 90
       50
102
RTVSPost2010PropOp46
 70
     0
102
RTVSPost2010Prop47
 90
       50
102
RTVSPost2010PropOp47
 70
     0
102
RTVSPost2010Prop48
 90
       50
102
RTVSPost2010PropOp48
 70
     0
102
RTVSPost2010Prop49
280
     0
102
RTVSPost2010PropOp49
 70
     0
102
RTVSPost2010Prop50
 90
       50
102
RTVSPost2010PropOp50
 70
     0
102
RTVSPost2010Prop51ColorIndex
 90
      256
102
RTVSPost2010Prop51ColorRGB
 90
-16777216
102
RTVSPost2010PropOp51
 70
     0
102
RTVSPost2010Prop52
140
1.0
102
RTVSPost2010PropOp52
 70
     0
102
RTVSPost2010Prop53
 90
        2
102
RTVSPost2010PropOp53
 70
     0
102
RTVSPost2010Prop54
  1
strokes_ogs.tif
102
RTVSPost2010PropOp54
 70
     0
102
RTVSPost2010Prop55
280
     0
102
RTVSPost2010PropOp55
 70
     0
102
RTVSPost2010Prop56
140
1.0
102
RTVSPost2010PropOp56
 70
     0
102
RTVSPost2010Prop57
140
1.0
102
RTVSPost2010PropOp57
 70
     0
102
RTVSPropertyOp0
 70
     0
102
RTVSPropertyOp1
 70
     0
102
RTVSPropertyOp2
 70
     0
102
RTVSPropertyOp3
 70
     0
102
RTVSPropertyOp4
 70
     0
102
RTVSPropertyOp5
 70
     0
102
RTVSPropertyOp6
 70
     0
102
RTVSPropertyOp7
 70
     0
102
RTVSPropertyOp8
 70
     0
102
RTVSPropertyOp9
 70
     0
102
RTVSPropertyOp10
 70
     0
102
RTVSPropertyOp11
 70
     0
102
RTVSPropertyOp12
 70
     0
102
RTVSPropertyOp13
 70
     0
102
RTVSPropertyOp14
 70
     2
102
RTVSPropertyOp15
 70
     0
102
RTVSPropertyOp16
 70
     0
102
RTVSPropertyOp17
 70
     0
102
RTVSPropertyOp18
 70
     0
102
RTVSPropertyOp19
 70
     0
102
RTVSPropertyOp20
 70
     0
102
RTVSPropertyOp21
 70
     0
102
RTVSPropertyOp22
 70
     0
102
RTVSPropertyOp23
 70
     0
102
RTVSPropertyOp24
 70
     0
102
RTVSPropertyOp25
 70
     0
102
RTVSPropertyOp26
 70
     0
102
RTVSPropertyOp27
 70
     0
102
RTVSPropertyOp28
 70
     0
102
RTVSPropertyOp29
 70
     0
102
RTVSPropertyOp30
 70
     0
102
RTVSPropertyOp31
 70
     0
102
RTVSPropertyOp32
 70
     0
102
RTVSPropertyOp33
 70
     0
102
RTVSPropertyOp34
 70
     0
102
RTVSPropertyOp35
 70
     0
102
RTVSPropertyOp36
 70
     0
102
RTVSPropertyOp37
 70
     0
102
RTVSPropertyOp38
 70
     0
102
RTVSPropertyOp39
 70
     0
102
RTVSPropertyOp40
 70
     0
102
RTVSPropertyOp41
 70
     0
102
RTVSPropertyOp42
 70
     0
102
RTVSPropertyOp43
 70
     0
102
RTVSPropertyOp44
 70
     0
102
RTVSPropertyOp45
 70
     0
102
RTVSPropertyOp46
 70
     0
102
RTVSPropertyOp47
 70
     0
102
RTVSPropertyOp48
 70
     0
102
RTVSPropertyOp49
 70
     0
102
RTVSPropertyOp50
 70
     0
102
RTVSPropertyOp51
 70
     0
102
RTVSPropertyOp52
 70
     0
102
RTVSPropertyOp53
 70
     0
102
RTVSPropertyOp54
 70
     0
102
RTVSPropertyOp55
 70
     0
102
RTVSPropertyOp56
 70
     0
102
RTVSPropertyOp57
 70
     0
102
RTVSPropertyOp58
 70
     1
102
RTVSPropertyOp59
 70
     1
102
RTVSPropertyOp60
 70
     1
102
RTVSPropertyOp61
 70
     1
102
RTVSPropertyOp62
 70
     1
  0
XRECORD
  5
824
102
{ACAD_REACTORS
330
823
102
}
330
823
100
AcDbXrecord
280
     1
102
RTVSPost2010Prop28
280
     0
102
RTVSPost2010PropOp28
 70
     1
102
RTVSPost2010Prop29
280
     1
102
RTVSPost2010PropOp29
 70
     1
102
RTVSPost2010Prop30
280
     1
102
RTVSPost2010PropOp30
 70
     1
102
RTVSPost2010Prop31
280
     0
102
RTVSPost2010PropOp31
 70
     1
102
RTVSPost2010Prop32
280
     0
102
RTVSPost2010PropOp32
 70
     1
102
RTVSPost2010Prop33
280
     0
102
RTVSPost2010PropOp33
 70
     1
102
RTVSPost2010Prop34
280
     0
102
RTVSPost2010PropOp34
 70
     1
102
RTVSPost2010Prop35
280
     0
102
RTVSPost2010PropOp35
 70
     1
102
RTVSPost2010Prop36
280
     0
102
RTVSPost2010PropOp36
 70
     1
102
RTVSPost2010Prop37
 90
       50
102
RTVSPost2010PropOp37
 70
     1
102
RTVSPost2010Prop38
140
0.0
102
RTVSPost2010PropOp38
 70
     1
102
RTVSPost2010Prop39
140
1.0
102
RTVSPost2010PropOp39
 70
     1
102
RTVSPost2010Prop40
 90
        0
102
RTVSPost2010PropOp40
 70
     1
102
RTVSPost2010Prop41ColorIndex
 90
       18
102
RTVSPost2010Prop41ColorRGB
 90
        0
102
RTVSPost2010PropOp41
 70
     1
102
RTVSPost2010Prop42
 90
       50
102
RTVSPost2010PropOp42
 70
     1
102
RTVSPost2010Prop43
 90
        3
102
RTVSPost2010PropOp43
 70
     1
102
RTVSPost2010Prop44ColorIndex
 90
        5
102
RTVSPost2010Prop44ColorRGB
 90
      255
102
RTVSPost2010PropOp44
 70
     1
102
RTVSPost2010Prop45
280
     0
102
RTVSPost2010PropOp45
 70
     1
102
RTVSPost2010Prop46
 90
       50
102
RTVSPost2010PropOp46
 70
     1
102
RTVSPost2010Prop47
 90
       50
102
RTVSPost2010PropOp47
 70
     1
102
RTVSPost2010Prop48
 90
       50
102
RTVSPost2010PropOp48
 70
     1
102
RTVSPost2010Prop49
280
     0
102
RTVSPost2010PropOp49
 70
     1
102
RTVSPost2010Prop50
 90
       50
102
RTVSPost2010PropOp50
 70
     1
102
RTVSPost2010Prop51ColorIndex
 90
      256
102
RTVSPost2010Prop51ColorRGB
 90
-16777216
102
RTVSPost2010PropOp51
 70
     0
102
RTVSPost2010Prop52
140
1.0
102
RTVSPost2010PropOp52
 70
     0
102
RTVSPost2010Prop53
 90
        2
102
RTVSPost2010PropOp53
 70
     1
102
RTVSPost2010Prop54
  1
strokes_ogs.tif
102
RTVSPost2010PropOp54
 70
     1
102
RTVSPost2010Prop55
280
     0
102
RTVSPost2010PropOp55
 70
     1
102
RTVSPost2010Prop56
140
1.0
102
RTVSPost2010PropOp56
 70
     1
102
RTVSPost2010Prop57
140
1.0
102
RTVSPost2010PropOp57
 70
     1
102
RTVSPropertyOp0
 70
     1
102
RTVSPropertyOp1
 70
     1
102
RTVSPropertyOp2
 70
     1
102
RTVSPropertyOp3
 70
     1
102
RTVSPropertyOp4
 70
     1
102
RTVSPropertyOp5
 70
     1
102
RTVSPropertyOp6
 70
     1
102
RTVSPropertyOp7
 70
     1
102
RTVSPropertyOp8
 70
     1
102
RTVSPropertyOp9
 70
     1
102
RTVSPropertyOp10
 70
     1
102
RTVSPropertyOp11
 70
     1
102
RTVSPropertyOp12
 70
     1
102
RTVSPropertyOp13
 70
     1
102
RTVSPropertyOp14
 70
     1
102
RTVSPropertyOp15
 70
     1
102
RTVSPropertyOp16
 70
     1
102
RTVSPropertyOp17
 70
     1
102
RTVSPropertyOp18
 70
     1
102
RTVSPropertyOp19
 70
     1
102
RTVSPropertyOp20
 70
     1
102
RTVSPropertyOp21
 70
     1
102
RTVSPropertyOp22
 70
     1
102
RTVSPropertyOp23
 70
     1
102
RTVSPropertyOp24
 70
     1
102
RTVSPropertyOp25
 70
     1
102
RTVSPropertyOp26
 70
     1
102
RTVSPropertyOp27
 70
     1
102
RTVSPropertyOp28
 70
     1
102
RTVSPropertyOp29
 70
     1
102
RTVSPropertyOp30
 70
     1
102
RTVSPropertyOp31
 70
     1
102
RTVSPropertyOp32
 70
     1
102
RTVSPropertyOp33
 70
     1
102
RTVSPropertyOp34
 70
     1
102
RTVSPropertyOp35
 70
     1
102
RTVSPropertyOp36
 70
     1
102
RTVSPropertyOp37
 70
     1
102
RTVSPropertyOp38
 70
     1
102
RTVSPropertyOp39
 70
     1
102
RTVSPropertyOp40
 70
     1
102
RTVSPropertyOp41
 70
     1
102
RTVSPropertyOp42
 70
     1
102
RTVSPropertyOp43
 70
     1
102
RTVSPropertyOp44
 70
     1
102
RTVSPropertyOp45
 70
     1
102
RTVSPropertyOp46
 70
     1
102
RTVSPropertyOp47
 70
     1
102
RTVSPropertyOp48
 70
     1
102
RTVSPropertyOp49
 70
     1
102
RTVSPropertyOp50
 70
     1
102
RTVSPropertyOp51
 70
     0
102
RTVSPropertyOp52
 70
     0
102
RTVSPropertyOp53
 70
     1
102
RTVSPropertyOp54
 70
     1
102
RTVSPropertyOp55
 70
     1
102
RTVSPropertyOp56
 70
     1
102
RTVSPropertyOp57
 70
     1
102
RTVSPropertyOp58
 70
     1
102
RTVSPropertyOp59
 70
     1
102
RTVSPropertyOp60
 70
     1
102
RTVSPropertyOp61
 70
     1
102
RTVSPropertyOp62
 70
     1
  0
XRECORD
  5
808
102
{ACAD_REACTORS
330
807
102
}
330
807
100
AcDbXrecord
280
     1
102
RTVSPost2010Prop28
280
     0
102
RTVSPost2010PropOp28
 70
     1
102
RTVSPost2010Prop29
280
     1
102
RTVSPost2010PropOp29
 70
     1
102
RTVSPost2010Prop30
280
     1
102
RTVSPost2010PropOp30
 70
     1
102
RTVSPost2010Prop31
280
     0
102
RTVSPost2010PropOp31
 70
     1
102
RTVSPost2010Prop32
280
     0
102
RTVSPost2010PropOp32
 70
     1
102
RTVSPost2010Prop33
280
     0
102
RTVSPost2010PropOp33
 70
     1
102
RTVSPost2010Prop34
280
     0
102
RTVSPost2010PropOp34
 70
     1
102
RTVSPost2010Prop35
280
     0
102
RTVSPost2010PropOp35
 70
     1
102
RTVSPost2010Prop36
280
     0
102
RTVSPost2010PropOp36
 70
     1
102
RTVSPost2010Prop37
 90
       50
102
RTVSPost2010PropOp37
 70
     1
102
RTVSPost2010Prop38
140
0.0
102
RTVSPost2010PropOp38
 70
     1
102
RTVSPost2010Prop39
140
1.0
102
RTVSPost2010PropOp39
 70
     1
102
RTVSPost2010Prop40
 90
        0
102
RTVSPost2010PropOp40
 70
     1
102
RTVSPost2010Prop41ColorIndex
 90
       18
102
RTVSPost2010Prop41ColorRGB
 90
        0
102
RTVSPost2010PropOp41
 70
     1
102
RTVSPost2010Prop42
 90
       50
102
RTVSPost2010PropOp42
 70
     1
102
RTVSPost2010Prop43
 90
        3
102
RTVSPost2010PropOp43
 70
     1
102
RTVSPost2010Prop44ColorIndex
 90
        5
102
RTVSPost2010Prop44ColorRGB
 90
      255
102
RTVSPost2010PropOp44
 70
     1
102
RTVSPost2010Prop45
280
     0
102
RTVSPost2010PropOp45
 70
     1
102
RTVSPost2010Prop46
 90
       50
102
RTVSPost2010PropOp46
 70
     1
102
RTVSPost2010Prop47
 90
       50
102
RTVSPost2010PropOp47
 70
     1
102
RTVSPost2010Prop48
 90
       50
102
RTVSPost2010PropOp48
 70
     1
102
RTVSPost2010Prop49
280
     0
102
RTVSPost2010PropOp49
 70
     1
102
RTVSPost2010Prop50
 90
       50
102
RTVSPost2010PropOp50
 70
     1
102
RTVSPost2010Prop51ColorIndex
 90
      256
102
RTVSPost2010Prop51ColorRGB
 90
-16777216
102
RTVSPost2010PropOp51
 70
     0
102
RTVSPost2010Prop52
140
1.0
102
RTVSPost2010PropOp52
 70
     0
102
RTVSPost2010Prop53
 90
        2
102
RTVSPost2010PropOp53
 70
     1
102
RTVSPost2010Prop54
  1
strokes_ogs.tif
102
RTVSPost2010PropOp54
 70
     1
102
RTVSPost2010Prop55
280
     0
102
RTVSPost2010PropOp55
 70
     1
102
RTVSPost2010Prop56
140
1.0
102
RTVSPost2010PropOp56
 70
     1
102
RTVSPost2010Prop57
140
1.0
102
RTVSPost2010PropOp57
 70
     1
102
RTVSPropertyOp0
 70
     1
102
RTVSPropertyOp1
 70
     1
102
RTVSPropertyOp2
 70
     1
102
RTVSPropertyOp3
 70
     1
102
RTVSPropertyOp4
 70
     1
102
RTVSPropertyOp5
 70
     1
102
RTVSPropertyOp6
 70
     1
102
RTVSPropertyOp7
 70
     1
102
RTVSPropertyOp8
 70
     1
102
RTVSPropertyOp9
 70
     1
102
RTVSPropertyOp10
 70
     1
102
RTVSPropertyOp11
 70
     1
102
RTVSPropertyOp12
 70
     1
102
RTVSPropertyOp13
 70
     1
102
RTVSPropertyOp14
 70
     1
102
RTVSPropertyOp15
 70
     1
102
RTVSPropertyOp16
 70
     1
102
RTVSPropertyOp17
 70
     1
102
RTVSPropertyOp18
 70
     1
102
RTVSPropertyOp19
 70
     1
102
RTVSPropertyOp20
 70
     1
102
RTVSPropertyOp21
 70
     1
102
RTVSPropertyOp22
 70
     1
102
RTVSPropertyOp23
 70
     1
102
RTVSPropertyOp24
 70
     1
102
RTVSPropertyOp25
 70
     1
102
RTVSPropertyOp26
 70
     1
102
RTVSPropertyOp27
 70
     1
102
RTVSPropertyOp28
 70
     1
102
RTVSPropertyOp29
 70
     1
102
RTVSPropertyOp30
 70
     1
102
RTVSPropertyOp31
 70
     1
102
RTVSPropertyOp32
 70
     1
102
RTVSPropertyOp33
 70
     1
102
RTVSPropertyOp34
 70
     1
102
RTVSPropertyOp35
 70
     1
102
RTVSPropertyOp36
 70
     1
102
RTVSPropertyOp37
 70
     1
102
RTVSPropertyOp38
 70
     1
102
RTVSPropertyOp39
 70
     1
102
RTVSPropertyOp40
 70
     1
102
RTVSPropertyOp41
 70
     1
102
RTVSPropertyOp42
 70
     1
102
RTVSPropertyOp43
 70
     1
102
RTVSPropertyOp44
 70
     1
102
RTVSPropertyOp45
 70
     1
102
RTVSPropertyOp46
 70
     1
102
RTVSPropertyOp47
 70
     1
102
RTVSPropertyOp48
 70
     1
102
RTVSPropertyOp49
 70
     1
102
RTVSPropertyOp50
 70
     1
102
RTVSPropertyOp51
 70
     0
102
RTVSPropertyOp52
 70
     0
102
RTVSPropertyOp53
 70
     1
102
RTVSPropertyOp54
 70
     1
102
RTVSPropertyOp55
 70
     1
102
RTVSPropertyOp56
 70
     1
102
RTVSPropertyOp57
 70
     1
102
RTVSPropertyOp58
 70
     1
102
RTVSPropertyOp59
 70
     1
102
RTVSPropertyOp60
 70
     1
102
RTVSPropertyOp61
 70
     1
102
RTVSPropertyOp62
 70
     1
  0
XRECORD
  5
80A
102
{ACAD_REACTORS
330
809
102
}
330
809
100
AcDbXrecord
280
     1
102
RTVSPost2010Prop28
280
     0
102
RTVSPost2010PropOp28
 70
     1
102
RTVSPost2010Prop29
280
     1
102
RTVSPost2010PropOp29
 70
     1
102
RTVSPost2010Prop30
280
     1
102
RTVSPost2010PropOp30
 70
     1
102
RTVSPost2010Prop31
280
     0
102
RTVSPost2010PropOp31
 70
     1
102
RTVSPost2010Prop32
280
     0
102
RTVSPost2010PropOp32
 70
     1
102
RTVSPost2010Prop33
280
     0
102
RTVSPost2010PropOp33
 70
     1
102
RTVSPost2010Prop34
280
     0
102
RTVSPost2010PropOp34
 70
     1
102
RTVSPost2010Prop35
280
     0
102
RTVSPost2010PropOp35
 70
     1
102
RTVSPost2010Prop36
280
     0
102
RTVSPost2010PropOp36
 70
     1
102
RTVSPost2010Prop37
 90
       50
102
RTVSPost2010PropOp37
 70
     1
102
RTVSPost2010Prop38
140
0.0
102
RTVSPost2010PropOp38
 70
     1
102
RTVSPost2010Prop39
140
1.0
102
RTVSPost2010PropOp39
 70
     1
102
RTVSPost2010Prop40
 90
        0
102
RTVSPost2010PropOp40
 70
     1
102
RTVSPost2010Prop41ColorIndex
 90
       18
102
RTVSPost2010Prop41ColorRGB
 90
        0
102
RTVSPost2010PropOp41
 70
     1
102
RTVSPost2010Prop42
 90
       50
102
RTVSPost2010PropOp42
 70
     1
102
RTVSPost2010Prop43
 90
        3
102
RTVSPost2010PropOp43
 70
     1
102
RTVSPost2010Prop44ColorIndex
 90
        5
102
RTVSPost2010Prop44ColorRGB
 90
      255
102
RTVSPost2010PropOp44
 70
     1
102
RTVSPost2010Prop45
280
     0
102
RTVSPost2010PropOp45
 70
     1
102
RTVSPost2010Prop46
 90
       50
102
RTVSPost2010PropOp46
 70
     1
102
RTVSPost2010Prop47
 90
       50
102
RTVSPost2010PropOp47
 70
     1
102
RTVSPost2010Prop48
 90
       50
102
RTVSPost2010PropOp48
 70
     1
102
RTVSPost2010Prop49
280
     0
102
RTVSPost2010PropOp49
 70
     1
102
RTVSPost2010Prop50
 90
       50
102
RTVSPost2010PropOp50
 70
     1
102
RTVSPost2010Prop51ColorIndex
 90
      256
102
RTVSPost2010Prop51ColorRGB
 90
-16777216
102
RTVSPost2010PropOp51
 70
     0
102
RTVSPost2010Prop52
140
1.0
102
RTVSPost2010PropOp52
 70
     0
102
RTVSPost2010Prop53
 90
        2
102
RTVSPost2010PropOp53
 70
     1
102
RTVSPost2010Prop54
  1
strokes_ogs.tif
102
RTVSPost2010PropOp54
 70
     1
102
RTVSPost2010Prop55
280
     0
102
RTVSPost2010PropOp55
 70
     1
102
RTVSPost2010Prop56
140
1.0
102
RTVSPost2010PropOp56
 70
     1
102
RTVSPost2010Prop57
140
1.0
102
RTVSPost2010PropOp57
 70
     1
102
RTVSPropertyOp0
 70
     1
102
RTVSPropertyOp1
 70
     1
102
RTVSPropertyOp2
 70
     1
102
RTVSPropertyOp3
 70
     1
102
RTVSPropertyOp4
 70
     1
102
RTVSPropertyOp5
 70
     1
102
RTVSPropertyOp6
 70
     1
102
RTVSPropertyOp7
 70
     1
102
RTVSPropertyOp8
 70
     1
102
RTVSPropertyOp9
 70
     1
102
RTVSPropertyOp10
 70
     1
102
RTVSPropertyOp11
 70
     1
102
RTVSPropertyOp12
 70
     1
102
RTVSPropertyOp13
 70
     1
102
RTVSPropertyOp14
 70
     1
102
RTVSPropertyOp15
 70
     1
102
RTVSPropertyOp16
 70
     1
102
RTVSPropertyOp17
 70
     1
102
RTVSPropertyOp18
 70
     1
102
RTVSPropertyOp19
 70
     1
102
RTVSPropertyOp20
 70
     1
102
RTVSPropertyOp21
 70
     1
102
RTVSPropertyOp22
 70
     1
102
RTVSPropertyOp23
 70
     1
102
RTVSPropertyOp24
 70
     1
102
RTVSPropertyOp25
 70
     1
102
RTVSPropertyOp26
 70
     1
102
RTVSPropertyOp27
 70
     1
102
RTVSPropertyOp28
 70
     1
102
RTVSPropertyOp29
 70
     1
102
RTVSPropertyOp30
 70
     1
102
RTVSPropertyOp31
 70
     1
102
RTVSPropertyOp32
 70
     1
102
RTVSPropertyOp33
 70
     1
102
RTVSPropertyOp34
 70
     1
102
RTVSPropertyOp35
 70
     1
102
RTVSPropertyOp36
 70
     1
102
RTVSPropertyOp37
 70
     1
102
RTVSPropertyOp38
 70
     1
102
RTVSPropertyOp39
 70
     1
102
RTVSPropertyOp40
 70
     1
102
RTVSPropertyOp41
 70
     1
102
RTVSPropertyOp42
 70
     1
102
RTVSPropertyOp43
 70
     1
102
RTVSPropertyOp44
 70
     1
102
RTVSPropertyOp45
 70
     1
102
RTVSPropertyOp46
 70
     1
102
RTVSPropertyOp47
 70
     1
102
RTVSPropertyOp48
 70
     1
102
RTVSPropertyOp49
 70
     1
102
RTVSPropertyOp50
 70
     1
102
RTVSPropertyOp51
 70
     0
102
RTVSPropertyOp52
 70
     0
102
RTVSPropertyOp53
 70
     1
102
RTVSPropertyOp54
 70
     1
102
RTVSPropertyOp55
 70
     1
102
RTVSPropertyOp56
 70
     1
102
RTVSPropertyOp57
 70
     1
102
RTVSPropertyOp58
 70
     1
102
RTVSPropertyOp59
 70
     1
102
RTVSPropertyOp60
 70
     1
102
RTVSPropertyOp61
 70
     1
102
RTVSPropertyOp62
 70
     1
  0
XRECORD
  5
80C
102
{ACAD_REACTORS
330
80B
102
}
330
80B
100
AcDbXrecord
280
     1
102
RTVSPost2010Prop28
280
     0
102
RTVSPost2010PropOp28
 70
     1
102
RTVSPost2010Prop29
280
     1
102
RTVSPost2010PropOp29
 70
     1
102
RTVSPost2010Prop30
280
     1
102
RTVSPost2010PropOp30
 70
     1
102
RTVSPost2010Prop31
280
     0
102
RTVSPost2010PropOp31
 70
     1
102
RTVSPost2010Prop32
280
     0
102
RTVSPost2010PropOp32
 70
     1
102
RTVSPost2010Prop33
280
     0
102
RTVSPost2010PropOp33
 70
     1
102
RTVSPost2010Prop34
280
     0
102
RTVSPost2010PropOp34
 70
     1
102
RTVSPost2010Prop35
280
     0
102
RTVSPost2010PropOp35
 70
     1
102
RTVSPost2010Prop36
280
     0
102
RTVSPost2010PropOp36
 70
     1
102
RTVSPost2010Prop37
 90
       50
102
RTVSPost2010PropOp37
 70
     1
102
RTVSPost2010Prop38
140
0.0
102
RTVSPost2010PropOp38
 70
     1
102
RTVSPost2010Prop39
140
1.0
102
RTVSPost2010PropOp39
 70
     1
102
RTVSPost2010Prop40
 90
        0
102
RTVSPost2010PropOp40
 70
     1
102
RTVSPost2010Prop41ColorIndex
 90
       18
102
RTVSPost2010Prop41ColorRGB
 90
        0
102
RTVSPost2010PropOp41
 70
     1
102
RTVSPost2010Prop42
 90
       50
102
RTVSPost2010PropOp42
 70
     1
102
RTVSPost2010Prop43
 90
        3
102
RTVSPost2010PropOp43
 70
     1
102
RTVSPost2010Prop44ColorIndex
 90
        5
102
RTVSPost2010Prop44ColorRGB
 90
      255
102
RTVSPost2010PropOp44
 70
     1
102
RTVSPost2010Prop45
280
     0
102
RTVSPost2010PropOp45
 70
     1
102
RTVSPost2010Prop46
 90
       50
102
RTVSPost2010PropOp46
 70
     1
102
RTVSPost2010Prop47
 90
       50
102
RTVSPost2010PropOp47
 70
     1
102
RTVSPost2010Prop48
 90
       50
102
RTVSPost2010PropOp48
 70
     1
102
RTVSPost2010Prop49
280
     0
102
RTVSPost2010PropOp49
 70
     1
102
RTVSPost2010Prop50
 90
       50
102
RTVSPost2010PropOp50
 70
     1
102
RTVSPost2010Prop51ColorIndex
 90
      256
102
RTVSPost2010Prop51ColorRGB
 90
-16777216
102
RTVSPost2010PropOp51
 70
     0
102
RTVSPost2010Prop52
140
1.0
102
RTVSPost2010PropOp52
 70
     0
102
RTVSPost2010Prop53
 90
        2
102
RTVSPost2010PropOp53
 70
     1
102
RTVSPost2010Prop54
  1
strokes_ogs.tif
102
RTVSPost2010PropOp54
 70
     1
102
RTVSPost2010Prop55
280
     0
102
RTVSPost2010PropOp55
 70
     1
102
RTVSPost2010Prop56
140
1.0
102
RTVSPost2010PropOp56
 70
     1
102
RTVSPost2010Prop57
140
1.0
102
RTVSPost2010PropOp57
 70
     1
102
RTVSPropertyOp0
 70
     1
102
RTVSPropertyOp1
 70
     1
102
RTVSPropertyOp2
 70
     1
102
RTVSPropertyOp3
 70
     1
102
RTVSPropertyOp4
 70
     1
102
RTVSPropertyOp5
 70
     1
102
RTVSPropertyOp6
 70
     1
102
RTVSPropertyOp7
 70
     1
102
RTVSPropertyOp8
 70
     1
102
RTVSPropertyOp9
 70
     1
102
RTVSPropertyOp10
 70
     1
102
RTVSPropertyOp11
 70
     1
102
RTVSPropertyOp12
 70
     1
102
RTVSPropertyOp13
 70
     1
102
RTVSPropertyOp14
 70
     1
102
RTVSPropertyOp15
 70
     1
102
RTVSPropertyOp16
 70
     1
102
RTVSPropertyOp17
 70
     1
102
RTVSPropertyOp18
 70
     1
102
RTVSPropertyOp19
 70
     1
102
RTVSPropertyOp20
 70
     1
102
RTVSPropertyOp21
 70
     1
102
RTVSPropertyOp22
 70
     1
102
RTVSPropertyOp23
 70
     1
102
RTVSPropertyOp24
 70
     1
102
RTVSPropertyOp25
 70
     1
102
RTVSPropertyOp26
 70
     1
102
RTVSPropertyOp27
 70
     1
102
RTVSPropertyOp28
 70
     1
102
RTVSPropertyOp29
 70
     1
102
RTVSPropertyOp30
 70
     1
102
RTVSPropertyOp31
 70
     1
102
RTVSPropertyOp32
 70
     1
102
RTVSPropertyOp33
 70
     1
102
RTVSPropertyOp34
 70
     1
102
RTVSPropertyOp35
 70
     1
102
RTVSPropertyOp36
 70
     1
102
RTVSPropertyOp37
 70
     1
102
RTVSPropertyOp38
 70
     1
102
RTVSPropertyOp39
 70
     1
102
RTVSPropertyOp40
 70
     1
102
RTVSPropertyOp41
 70
     1
102
RTVSPropertyOp42
 70
     1
102
RTVSPropertyOp43
 70
     1
102
RTVSPropertyOp44
 70
     1
102
RTVSPropertyOp45
 70
     1
102
RTVSPropertyOp46
 70
     1
102
RTVSPropertyOp47
 70
     1
102
RTVSPropertyOp48
 70
     1
102
RTVSPropertyOp49
 70
     1
102
RTVSPropertyOp50
 70
     1
102
RTVSPropertyOp51
 70
     0
102
RTVSPropertyOp52
 70
     0
102
RTVSPropertyOp53
 70
     1
102
RTVSPropertyOp54
 70
     1
102
RTVSPropertyOp55
 70
     1
102
RTVSPropertyOp56
 70
     1
102
RTVSPropertyOp57
 70
     1
102
RTVSPropertyOp58
 70
     1
102
RTVSPropertyOp59
 70
     1
102
RTVSPropertyOp60
 70
     1
102
RTVSPropertyOp61
 70
     1
102
RTVSPropertyOp62
 70
     1
  0
XRECORD
  5
80E
102
{ACAD_REACTORS
330
80D
102
}
330
80D
100
AcDbXrecord
280
     1
102
RTVSPost2010Prop28
280
     0
102
RTVSPost2010PropOp28
 70
     1
102
RTVSPost2010Prop29
280
     1
102
RTVSPost2010PropOp29
 70
     1
102
RTVSPost2010Prop30
280
     1
102
RTVSPost2010PropOp30
 70
     1
102
RTVSPost2010Prop31
280
     0
102
RTVSPost2010PropOp31
 70
     1
102
RTVSPost2010Prop32
280
     0
102
RTVSPost2010PropOp32
 70
     1
102
RTVSPost2010Prop33
280
     0
102
RTVSPost2010PropOp33
 70
     1
102
RTVSPost2010Prop34
280
     0
102
RTVSPost2010PropOp34
 70
     1
102
RTVSPost2010Prop35
280
     0
102
RTVSPost2010PropOp35
 70
     1
102
RTVSPost2010Prop36
280
     0
102
RTVSPost2010PropOp36
 70
     1
102
RTVSPost2010Prop37
 90
       50
102
RTVSPost2010PropOp37
 70
     1
102
RTVSPost2010Prop38
140
0.0
102
RTVSPost2010PropOp38
 70
     1
102
RTVSPost2010Prop39
140
1.0
102
RTVSPost2010PropOp39
 70
     1
102
RTVSPost2010Prop40
 90
        0
102
RTVSPost2010PropOp40
 70
     1
102
RTVSPost2010Prop41ColorIndex
 90
       18
102
RTVSPost2010Prop41ColorRGB
 90
        0
102
RTVSPost2010PropOp41
 70
     1
102
RTVSPost2010Prop42
 90
       50
102
RTVSPost2010PropOp42
 70
     1
102
RTVSPost2010Prop43
 90
        3
102
RTVSPost2010PropOp43
 70
     1
102
RTVSPost2010Prop44ColorIndex
 90
        5
102
RTVSPost2010Prop44ColorRGB
 90
      255
102
RTVSPost2010PropOp44
 70
     1
102
RTVSPost2010Prop45
280
     0
102
RTVSPost2010PropOp45
 70
     1
102
RTVSPost2010Prop46
 90
       50
102
RTVSPost2010PropOp46
 70
     1
102
RTVSPost2010Prop47
 90
       50
102
RTVSPost2010PropOp47
 70
     1
102
RTVSPost2010Prop48
 90
       50
102
RTVSPost2010PropOp48
 70
     1
102
RTVSPost2010Prop49
280
     0
102
RTVSPost2010PropOp49
 70
     1
102
RTVSPost2010Prop50
 90
       50
102
RTVSPost2010PropOp50
 70
     1
102
RTVSPost2010Prop51ColorIndex
 90
      256
102
RTVSPost2010Prop51ColorRGB
 90
-16777216
102
RTVSPost2010PropOp51
 70
     0
102
RTVSPost2010Prop52
140
1.0
102
RTVSPost2010PropOp52
 70
     0
102
RTVSPost2010Prop53
 90
        2
102
RTVSPost2010PropOp53
 70
     1
102
RTVSPost2010Prop54
  1
strokes_ogs.tif
102
RTVSPost2010PropOp54
 70
     1
102
RTVSPost2010Prop55
280
     0
102
RTVSPost2010PropOp55
 70
     1
102
RTVSPost2010Prop56
140
1.0
102
RTVSPost2010PropOp56
 70
     1
102
RTVSPost2010Prop57
140
1.0
102
RTVSPost2010PropOp57
 70
     1
102
RTVSPropertyOp0
 70
     1
102
RTVSPropertyOp1
 70
     1
102
RTVSPropertyOp2
 70
     1
102
RTVSPropertyOp3
 70
     1
102
RTVSPropertyOp4
 70
     1
102
RTVSPropertyOp5
 70
     1
102
RTVSPropertyOp6
 70
     1
102
RTVSPropertyOp7
 70
     1
102
RTVSPropertyOp8
 70
     1
102
RTVSPropertyOp9
 70
     1
102
RTVSPropertyOp10
 70
     1
102
RTVSPropertyOp11
 70
     1
102
RTVSPropertyOp12
 70
     1
102
RTVSPropertyOp13
 70
     1
102
RTVSPropertyOp14
 70
     1
102
RTVSPropertyOp15
 70
     1
102
RTVSPropertyOp16
 70
     1
102
RTVSPropertyOp17
 70
     1
102
RTVSPropertyOp18
 70
     1
102
RTVSPropertyOp19
 70
     1
102
RTVSPropertyOp20
 70
     1
102
RTVSPropertyOp21
 70
     1
102
RTVSPropertyOp22
 70
     1
102
RTVSPropertyOp23
 70
     1
102
RTVSPropertyOp24
 70
     1
102
RTVSPropertyOp25
 70
     1
102
RTVSPropertyOp26
 70
     1
102
RTVSPropertyOp27
 70
     1
102
RTVSPropertyOp28
 70
     1
102
RTVSPropertyOp29
 70
     1
102
RTVSPropertyOp30
 70
     1
102
RTVSPropertyOp31
 70
     1
102
RTVSPropertyOp32
 70
     1
102
RTVSPropertyOp33
 70
     1
102
RTVSPropertyOp34
 70
     1
102
RTVSPropertyOp35
 70
     1
102
RTVSPropertyOp36
 70
     1
102
RTVSPropertyOp37
 70
     1
102
RTVSPropertyOp38
 70
     1
102
RTVSPropertyOp39
 70
     1
102
RTVSPropertyOp40
 70
     1
102
RTVSPropertyOp41
 70
     1
102
RTVSPropertyOp42
 70
     1
102
RTVSPropertyOp43
 70
     1
102
RTVSPropertyOp44
 70
     1
102
RTVSPropertyOp45
 70
     1
102
RTVSPropertyOp46
 70
     1
102
RTVSPropertyOp47
 70
     1
102
RTVSPropertyOp48
 70
     1
102
RTVSPropertyOp49
 70
     1
102
RTVSPropertyOp50
 70
     1
102
RTVSPropertyOp51
 70
     0
102
RTVSPropertyOp52
 70
     0
102
RTVSPropertyOp53
 70
     1
102
RTVSPropertyOp54
 70
     1
102
RTVSPropertyOp55
 70
     1
102
RTVSPropertyOp56
 70
     1
102
RTVSPropertyOp57
 70
     1
102
RTVSPropertyOp58
 70
     1
102
RTVSPropertyOp59
 70
     1
102
RTVSPropertyOp60
 70
     1
102
RTVSPropertyOp61
 70
     1
102
RTVSPropertyOp62
 70
     1
  0
XRECORD
  5
814
102
{ACAD_REACTORS
330
813
102
}
330
813
100
AcDbXrecord
280
     1
102
RTVSPost2010Prop28
280
     0
102
RTVSPost2010PropOp28
 70
     1
102
RTVSPost2010Prop29
280
     1
102
RTVSPost2010PropOp29
 70
     1
102
RTVSPost2010Prop30
280
     1
102
RTVSPost2010PropOp30
 70
     1
102
RTVSPost2010Prop31
280
     0
102
RTVSPost2010PropOp31
 70
     1
102
RTVSPost2010Prop32
280
     0
102
RTVSPost2010PropOp32
 70
     1
102
RTVSPost2010Prop33
280
     0
102
RTVSPost2010PropOp33
 70
     1
102
RTVSPost2010Prop34
280
     0
102
RTVSPost2010PropOp34
 70
     1
102
RTVSPost2010Prop35
280
     0
102
RTVSPost2010PropOp35
 70
     1
102
RTVSPost2010Prop36
280
     0
102
RTVSPost2010PropOp36
 70
     1
102
RTVSPost2010Prop37
 90
       50
102
RTVSPost2010PropOp37
 70
     1
102
RTVSPost2010Prop38
140
0.0
102
RTVSPost2010PropOp38
 70
     1
102
RTVSPost2010Prop39
140
1.0
102
RTVSPost2010PropOp39
 70
     1
102
RTVSPost2010Prop40
 90
        0
102
RTVSPost2010PropOp40
 70
     1
102
RTVSPost2010Prop41ColorIndex
 90
       18
102
RTVSPost2010Prop41ColorRGB
 90
        0
102
RTVSPost2010PropOp41
 70
     1
102
RTVSPost2010Prop42
 90
       50
102
RTVSPost2010PropOp42
 70
     1
102
RTVSPost2010Prop43
 90
        3
102
RTVSPost2010PropOp43
 70
     1
102
RTVSPost2010Prop44ColorIndex
 90
        5
102
RTVSPost2010Prop44ColorRGB
 90
      255
102
RTVSPost2010PropOp44
 70
     1
102
RTVSPost2010Prop45
280
     0
102
RTVSPost2010PropOp45
 70
     1
102
RTVSPost2010Prop46
 90
       50
102
RTVSPost2010PropOp46
 70
     1
102
RTVSPost2010Prop47
 90
       50
102
RTVSPost2010PropOp47
 70
     1
102
RTVSPost2010Prop48
 90
       50
102
RTVSPost2010PropOp48
 70
     1
102
RTVSPost2010Prop49
280
     0
102
RTVSPost2010PropOp49
 70
     1
102
RTVSPost2010Prop50
 90
       50
102
RTVSPost2010PropOp50
 70
     1
102
RTVSPost2010Prop51ColorIndex
 90
      256
102
RTVSPost2010Prop51ColorRGB
 90
-16777216
102
RTVSPost2010PropOp51
 70
     0
102
RTVSPost2010Prop52
140
1.0
102
RTVSPost2010PropOp52
 70
     0
102
RTVSPost2010Prop53
 90
        2
102
RTVSPost2010PropOp53
 70
     1
102
RTVSPost2010Prop54
  1
strokes_ogs.tif
102
RTVSPost2010PropOp54
 70
     1
102
RTVSPost2010Prop55
280
     0
102
RTVSPost2010PropOp55
 70
     1
102
RTVSPost2010Prop56
140
1.0
102
RTVSPost2010PropOp56
 70
     1
102
RTVSPost2010Prop57
140
1.0
102
RTVSPost2010PropOp57
 70
     1
102
RTVSPropertyOp0
 70
     1
102
RTVSPropertyOp1
 70
     1
102
RTVSPropertyOp2
 70
     1
102
RTVSPropertyOp3
 70
     1
102
RTVSPropertyOp4
 70
     1
102
RTVSPropertyOp5
 70
     1
102
RTVSPropertyOp6
 70
     1
102
RTVSPropertyOp7
 70
     1
102
RTVSPropertyOp8
 70
     1
102
RTVSPropertyOp9
 70
     1
102
RTVSPropertyOp10
 70
     1
102
RTVSPropertyOp11
 70
     1
102
RTVSPropertyOp12
 70
     1
102
RTVSPropertyOp13
 70
     1
102
RTVSPropertyOp14
 70
     1
102
RTVSPropertyOp15
 70
     1
102
RTVSPropertyOp16
 70
     1
102
RTVSPropertyOp17
 70
     1
102
RTVSPropertyOp18
 70
     1
102
RTVSPropertyOp19
 70
     1
102
RTVSPropertyOp20
 70
     1
102
RTVSPropertyOp21
 70
     1
102
RTVSPropertyOp22
 70
     1
102
RTVSPropertyOp23
 70
     1
102
RTVSPropertyOp24
 70
     1
102
RTVSPropertyOp25
 70
     1
102
RTVSPropertyOp26
 70
     1
102
RTVSPropertyOp27
 70
     1
102
RTVSPropertyOp28
 70
     1
102
RTVSPropertyOp29
 70
     1
102
RTVSPropertyOp30
 70
     1
102
RTVSPropertyOp31
 70
     1
102
RTVSPropertyOp32
 70
     1
102
RTVSPropertyOp33
 70
     1
102
RTVSPropertyOp34
 70
     1
102
RTVSPropertyOp35
 70
     1
102
RTVSPropertyOp36
 70
     1
102
RTVSPropertyOp37
 70
     1
102
RTVSPropertyOp38
 70
     1
102
RTVSPropertyOp39
 70
     1
102
RTVSPropertyOp40
 70
     1
102
RTVSPropertyOp41
 70
     1
102
RTVSPropertyOp42
 70
     1
102
RTVSPropertyOp43
 70
     1
102
RTVSPropertyOp44
 70
     1
102
RTVSPropertyOp45
 70
     1
102
RTVSPropertyOp46
 70
     1
102
RTVSPropertyOp47
 70
     1
102
RTVSPropertyOp48
 70
     1
102
RTVSPropertyOp49
 70
     1
102
RTVSPropertyOp50
 70
     1
102
RTVSPropertyOp51
 70
     0
102
RTVSPropertyOp52
 70
     0
102
RTVSPropertyOp53
 70
     1
102
RTVSPropertyOp54
 70
     1
102
RTVSPropertyOp55
 70
     1
102
RTVSPropertyOp56
 70
     1
102
RTVSPropertyOp57
 70
     1
102
RTVSPropertyOp58
 70
     1
102
RTVSPropertyOp59
 70
     1
102
RTVSPropertyOp60
 70
     1
102
RTVSPropertyOp61
 70
     1
102
RTVSPropertyOp62
 70
     1
  0
XRECORD
  5
828
102
{ACAD_REACTORS
330
827
102
}
330
827
100
AcDbXrecord
280
     1
102
RTVSPost2010Prop28
280
     0
102
RTVSPost2010PropOp28
 70
     0
102
RTVSPost2010Prop29
280
     1
102
RTVSPost2010PropOp29
 70
     0
102
RTVSPost2010Prop30
280
     1
102
RTVSPost2010PropOp30
 70
     0
102
RTVSPost2010Prop31
280
     0
102
RTVSPost2010PropOp31
 70
     0
102
RTVSPost2010Prop32
280
     0
102
RTVSPost2010PropOp32
 70
     0
102
RTVSPost2010Prop33
280
     0
102
RTVSPost2010PropOp33
 70
     0
102
RTVSPost2010Prop34
280
     0
102
RTVSPost2010PropOp34
 70
     0
102
RTVSPost2010Prop35
280
     0
102
RTVSPost2010PropOp35
 70
     0
102
RTVSPost2010Prop36
280
     0
102
RTVSPost2010PropOp36
 70
     0
102
RTVSPost2010Prop37
 90
       50
102
RTVSPost2010PropOp37
 70
     0
102
RTVSPost2010Prop38
140
0.0
102
RTVSPost2010PropOp38
 70
     0
102
RTVSPost2010Prop39
140
1.0
102
RTVSPost2010PropOp39
 70
     0
102
RTVSPost2010Prop40
 90
        0
102
RTVSPost2010PropOp40
 70
     0
102
RTVSPost2010Prop41ColorIndex
 90
       18
102
RTVSPost2010Prop41ColorRGB
 90
        0
102
RTVSPost2010PropOp41
 70
     0
102
RTVSPost2010Prop42
 90
       50
102
RTVSPost2010PropOp42
 70
     0
102
RTVSPost2010Prop43
 90
        3
102
RTVSPost2010PropOp43
 70
     0
102
RTVSPost2010Prop44ColorIndex
 90
        5
102
RTVSPost2010Prop44ColorRGB
 90
      255
102
RTVSPost2010PropOp44
 70
     0
102
RTVSPost2010Prop45
280
     0
102
RTVSPost2010PropOp45
 70
     0
102
RTVSPost2010Prop46
 90
       50
102
RTVSPost2010PropOp46
 70
     0
102
RTVSPost2010Prop47
 90
       50
102
RTVSPost2010PropOp47
 70
     0
102
RTVSPost2010Prop48
 90
       50
102
RTVSPost2010PropOp48
 70
     0
102
RTVSPost2010Prop49
280
     0
102
RTVSPost2010PropOp49
 70
     0
102
RTVSPost2010Prop50
 90
       50
102
RTVSPost2010PropOp50
 70
     0
102
RTVSPost2010Prop51ColorIndex
 90
      256
102
RTVSPost2010Prop51ColorRGB
 90
-16777216
102
RTVSPost2010PropOp51
 70
     0
102
RTVSPost2010Prop52
140
1.0
102
RTVSPost2010PropOp52
 70
     0
102
RTVSPost2010Prop53
 90
        2
102
RTVSPost2010PropOp53
 70
     0
102
RTVSPost2010Prop54
  1
strokes_ogs.tif
102
RTVSPost2010PropOp54
 70
     0
102
RTVSPost2010Prop55
280
     0
102
RTVSPost2010PropOp55
 70
     0
102
RTVSPost2010Prop56
140
1.0
102
RTVSPost2010PropOp56
 70
     0
102
RTVSPost2010Prop57
140
1.0
102
RTVSPost2010PropOp57
 70
     0
102
RTVSPropertyOp0
 70
     0
102
RTVSPropertyOp1
 70
     0
102
RTVSPropertyOp2
 70
     0
102
RTVSPropertyOp3
 70
     0
102
RTVSPropertyOp4
 70
     0
102
RTVSPropertyOp5
 70
     0
102
RTVSPropertyOp6
 70
     0
102
RTVSPropertyOp7
 70
     0
102
RTVSPropertyOp8
 70
     0
102
RTVSPropertyOp9
 70
     0
102
RTVSPropertyOp10
 70
     0
102
RTVSPropertyOp11
 70
     0
102
RTVSPropertyOp12
 70
     0
102
RTVSPropertyOp13
 70
     0
102
RTVSPropertyOp14
 70
     2
102
RTVSPropertyOp15
 70
     0
102
RTVSPropertyOp16
 70
     0
102
RTVSPropertyOp17
 70
     0
102
RTVSPropertyOp18
 70
     0
102
RTVSPropertyOp19
 70
     0
102
RTVSPropertyOp20
 70
     0
102
RTVSPropertyOp21
 70
     0
102
RTVSPropertyOp22
 70
     0
102
RTVSPropertyOp23
 70
     0
102
RTVSPropertyOp24
 70
     0
102
RTVSPropertyOp25
 70
     0
102
RTVSPropertyOp26
 70
     0
102
RTVSPropertyOp27
 70
     0
102
RTVSPropertyOp28
 70
     0
102
RTVSPropertyOp29
 70
     0
102
RTVSPropertyOp30
 70
     0
102
RTVSPropertyOp31
 70
     0
102
RTVSPropertyOp32
 70
     0
102
RTVSPropertyOp33
 70
     0
102
RTVSPropertyOp34
 70
     0
102
RTVSPropertyOp35
 70
     0
102
RTVSPropertyOp36
 70
     0
102
RTVSPropertyOp37
 70
     0
102
RTVSPropertyOp38
 70
     0
102
RTVSPropertyOp39
 70
     0
102
RTVSPropertyOp40
 70
     0
102
RTVSPropertyOp41
 70
     0
102
RTVSPropertyOp42
 70
     0
102
RTVSPropertyOp43
 70
     0
102
RTVSPropertyOp44
 70
     0
102
RTVSPropertyOp45
 70
     0
102
RTVSPropertyOp46
 70
     0
102
RTVSPropertyOp47
 70
     0
102
RTVSPropertyOp48
 70
     0
102
RTVSPropertyOp49
 70
     0
102
RTVSPropertyOp50
 70
     0
102
RTVSPropertyOp51
 70
     0
102
RTVSPropertyOp52
 70
     0
102
RTVSPropertyOp53
 70
     0
102
RTVSPropertyOp54
 70
     0
102
RTVSPropertyOp55
 70
     0
102
RTVSPropertyOp56
 70
     0
102
RTVSPropertyOp57
 70
     0
102
RTVSPropertyOp58
 70
     1
102
RTVSPropertyOp59
 70
     1
102
RTVSPropertyOp60
 70
     1
102
RTVSPropertyOp61
 70
     1
102
RTVSPropertyOp62
 70
     1
  0
XRECORD
  5
822
102
{ACAD_REACTORS
330
821
102
}
330
821
100
AcDbXrecord
280
     1
102
RTVSPost2010Prop28
280
     0
102
RTVSPost2010PropOp28
 70
     1
102
RTVSPost2010Prop29
280
     1
102
RTVSPost2010PropOp29
 70
     1
102
RTVSPost2010Prop30
280
     1
102
RTVSPost2010PropOp30
 70
     1
102
RTVSPost2010Prop31
280
     0
102
RTVSPost2010PropOp31
 70
     1
102
RTVSPost2010Prop32
280
     0
102
RTVSPost2010PropOp32
 70
     1
102
RTVSPost2010Prop33
280
     0
102
RTVSPost2010PropOp33
 70
     1
102
RTVSPost2010Prop34
280
     0
102
RTVSPost2010PropOp34
 70
     1
102
RTVSPost2010Prop35
280
     0
102
RTVSPost2010PropOp35
 70
     1
102
RTVSPost2010Prop36
280
     0
102
RTVSPost2010PropOp36
 70
     1
102
RTVSPost2010Prop37
 90
       50
102
RTVSPost2010PropOp37
 70
     1
102
RTVSPost2010Prop38
140
0.0
102
RTVSPost2010PropOp38
 70
     1
102
RTVSPost2010Prop39
140
1.0
102
RTVSPost2010PropOp39
 70
     1
102
RTVSPost2010Prop40
 90
        0
102
RTVSPost2010PropOp40
 70
     1
102
RTVSPost2010Prop41ColorIndex
 90
       18
102
RTVSPost2010Prop41ColorRGB
 90
        0
102
RTVSPost2010PropOp41
 70
     1
102
RTVSPost2010Prop42
 90
       50
102
RTVSPost2010PropOp42
 70
     1
102
RTVSPost2010Prop43
 90
        3
102
RTVSPost2010PropOp43
 70
     1
102
RTVSPost2010Prop44ColorIndex
 90
        5
102
RTVSPost2010Prop44ColorRGB
 90
      255
102
RTVSPost2010PropOp44
 70
     1
102
RTVSPost2010Prop45
280
     0
102
RTVSPost2010PropOp45
 70
     1
102
RTVSPost2010Prop46
 90
       50
102
RTVSPost2010PropOp46
 70
     1
102
RTVSPost2010Prop47
 90
       50
102
RTVSPost2010PropOp47
 70
     1
102
RTVSPost2010Prop48
 90
       50
102
RTVSPost2010PropOp48
 70
     1
102
RTVSPost2010Prop49
280
     0
102
RTVSPost2010PropOp49
 70
     1
102
RTVSPost2010Prop50
 90
       50
102
RTVSPost2010PropOp50
 70
     1
102
RTVSPost2010Prop51ColorIndex
 90
      256
102
RTVSPost2010Prop51ColorRGB
 90
-16777216
102
RTVSPost2010PropOp51
 70
     0
102
RTVSPost2010Prop52
140
1.0
102
RTVSPost2010PropOp52
 70
     0
102
RTVSPost2010Prop53
 90
        2
102
RTVSPost2010PropOp53
 70
     1
102
RTVSPost2010Prop54
  1
strokes_ogs.tif
102
RTVSPost2010PropOp54
 70
     1
102
RTVSPost2010Prop55
280
     0
102
RTVSPost2010PropOp55
 70
     1
102
RTVSPost2010Prop56
140
1.0
102
RTVSPost2010PropOp56
 70
     1
102
RTVSPost2010Prop57
140
1.0
102
RTVSPost2010PropOp57
 70
     1
102
RTVSPropertyOp0
 70
     1
102
RTVSPropertyOp1
 70
     1
102
RTVSPropertyOp2
 70
     1
102
RTVSPropertyOp3
 70
     1
102
RTVSPropertyOp4
 70
     1
102
RTVSPropertyOp5
 70
     1
102
RTVSPropertyOp6
 70
     1
102
RTVSPropertyOp7
 70
     1
102
RTVSPropertyOp8
 70
     1
102
RTVSPropertyOp9
 70
     1
102
RTVSPropertyOp10
 70
     1
102
RTVSPropertyOp11
 70
     1
102
RTVSPropertyOp12
 70
     1
102
RTVSPropertyOp13
 70
     1
102
RTVSPropertyOp14
 70
     1
102
RTVSPropertyOp15
 70
     1
102
RTVSPropertyOp16
 70
     1
102
RTVSPropertyOp17
 70
     1
102
RTVSPropertyOp18
 70
     1
102
RTVSPropertyOp19
 70
     1
102
RTVSPropertyOp20
 70
     1
102
RTVSPropertyOp21
 70
     1
102
RTVSPropertyOp22
 70
     1
102
RTVSPropertyOp23
 70
     1
102
RTVSPropertyOp24
 70
     1
102
RTVSPropertyOp25
 70
     1
102
RTVSPropertyOp26
 70
     1
102
RTVSPropertyOp27
 70
     1
102
RTVSPropertyOp28
 70
     1
102
RTVSPropertyOp29
 70
     1
102
RTVSPropertyOp30
 70
     1
102
RTVSPropertyOp31
 70
     1
102
RTVSPropertyOp32
 70
     1
102
RTVSPropertyOp33
 70
     1
102
RTVSPropertyOp34
 70
     1
102
RTVSPropertyOp35
 70
     1
102
RTVSPropertyOp36
 70
     1
102
RTVSPropertyOp37
 70
     1
102
RTVSPropertyOp38
 70
     1
102
RTVSPropertyOp39
 70
     1
102
RTVSPropertyOp40
 70
     1
102
RTVSPropertyOp41
 70
     1
102
RTVSPropertyOp42
 70
     1
102
RTVSPropertyOp43
 70
     1
102
RTVSPropertyOp44
 70
     1
102
RTVSPropertyOp45
 70
     1
102
RTVSPropertyOp46
 70
     1
102
RTVSPropertyOp47
 70
     1
102
RTVSPropertyOp48
 70
     1
102
RTVSPropertyOp49
 70
     1
102
RTVSPropertyOp50
 70
     1
102
RTVSPropertyOp51
 70
     0
102
RTVSPropertyOp52
 70
     0
102
RTVSPropertyOp53
 70
     1
102
RTVSPropertyOp54
 70
     1
102
RTVSPropertyOp55
 70
     1
102
RTVSPropertyOp56
 70
     1
102
RTVSPropertyOp57
 70
     1
102
RTVSPropertyOp58
 70
     1
102
RTVSPropertyOp59
 70
     1
102
RTVSPropertyOp60
 70
     1
102
RTVSPropertyOp61
 70
     1
102
RTVSPropertyOp62
 70
     1
  0
XRECORD
  5
82A
102
{ACAD_REACTORS
330
829
102
}
330
829
100
AcDbXrecord
280
     1
102
RTVSPost2010Prop28
280
     0
102
RTVSPost2010PropOp28
 70
     0
102
RTVSPost2010Prop29
280
     1
102
RTVSPost2010PropOp29
 70
     0
102
RTVSPost2010Prop30
280
     1
102
RTVSPost2010PropOp30
 70
     0
102
RTVSPost2010Prop31
280
     0
102
RTVSPost2010PropOp31
 70
     0
102
RTVSPost2010Prop32
280
     0
102
RTVSPost2010PropOp32
 70
     0
102
RTVSPost2010Prop33
280
     0
102
RTVSPost2010PropOp33
 70
     0
102
RTVSPost2010Prop34
280
     0
102
RTVSPost2010PropOp34
 70
     0
102
RTVSPost2010Prop35
280
     0
102
RTVSPost2010PropOp35
 70
     0
102
RTVSPost2010Prop36
280
     0
102
RTVSPost2010PropOp36
 70
     0
102
RTVSPost2010Prop37
 90
       50
102
RTVSPost2010PropOp37
 70
     0
102
RTVSPost2010Prop38
140
0.0
102
RTVSPost2010PropOp38
 70
     0
102
RTVSPost2010Prop39
140
1.0
102
RTVSPost2010PropOp39
 70
     0
102
RTVSPost2010Prop40
 90
        0
102
RTVSPost2010PropOp40
 70
     0
102
RTVSPost2010Prop41ColorIndex
 90
       18
102
RTVSPost2010Prop41ColorRGB
 90
        0
102
RTVSPost2010PropOp41
 70
     0
102
RTVSPost2010Prop42
 90
       50
102
RTVSPost2010PropOp42
 70
     0
102
RTVSPost2010Prop43
 90
        3
102
RTVSPost2010PropOp43
 70
     0
102
RTVSPost2010Prop44ColorIndex
 90
        5
102
RTVSPost2010Prop44ColorRGB
 90
      255
102
RTVSPost2010PropOp44
 70
     0
102
RTVSPost2010Prop45
280
     0
102
RTVSPost2010PropOp45
 70
     0
102
RTVSPost2010Prop46
 90
       50
102
RTVSPost2010PropOp46
 70
     0
102
RTVSPost2010Prop47
 90
       50
102
RTVSPost2010PropOp47
 70
     0
102
RTVSPost2010Prop48
 90
       50
102
RTVSPost2010PropOp48
 70
     0
102
RTVSPost2010Prop49
280
     0
102
RTVSPost2010PropOp49
 70
     0
102
RTVSPost2010Prop50
 90
       50
102
RTVSPost2010PropOp50
 70
     0
102
RTVSPost2010Prop51ColorIndex
 90
      256
102
RTVSPost2010Prop51ColorRGB
 90
-16777216
102
RTVSPost2010PropOp51
 70
     0
102
RTVSPost2010Prop52
140
1.0
102
RTVSPost2010PropOp52
 70
     0
102
RTVSPost2010Prop53
 90
        2
102
RTVSPost2010PropOp53
 70
     0
102
RTVSPost2010Prop54
  1
strokes_ogs.tif
102
RTVSPost2010PropOp54
 70
     0
102
RTVSPost2010Prop55
280
     0
102
RTVSPost2010PropOp55
 70
     0
102
RTVSPost2010Prop56
140
1.0
102
RTVSPost2010PropOp56
 70
     0
102
RTVSPost2010Prop57
140
1.0
102
RTVSPost2010PropOp57
 70
     0
102
RTVSPropertyOp0
 70
     0
102
RTVSPropertyOp1
 70
     0
102
RTVSPropertyOp2
 70
     0
102
RTVSPropertyOp3
 70
     0
102
RTVSPropertyOp4
 70
     0
102
RTVSPropertyOp5
 70
     0
102
RTVSPropertyOp6
 70
     0
102
RTVSPropertyOp7
 70
     0
102
RTVSPropertyOp8
 70
     0
102
RTVSPropertyOp9
 70
     0
102
RTVSPropertyOp10
 70
     0
102
RTVSPropertyOp11
 70
     0
102
RTVSPropertyOp12
 70
     0
102
RTVSPropertyOp13
 70
     0
102
RTVSPropertyOp14
 70
     2
102
RTVSPropertyOp15
 70
     0
102
RTVSPropertyOp16
 70
     0
102
RTVSPropertyOp17
 70
     0
102
RTVSPropertyOp18
 70
     0
102
RTVSPropertyOp19
 70
     0
102
RTVSPropertyOp20
 70
     0
102
RTVSPropertyOp21
 70
     0
102
RTVSPropertyOp22
 70
     0
102
RTVSPropertyOp23
 70
     0
102
RTVSPropertyOp24
 70
     0
102
RTVSPropertyOp25
 70
     0
102
RTVSPropertyOp26
 70
     0
102
RTVSPropertyOp27
 70
     0
102
RTVSPropertyOp28
 70
     0
102
RTVSPropertyOp29
 70
     0
102
RTVSPropertyOp30
 70
     0
102
RTVSPropertyOp31
 70
     0
102
RTVSPropertyOp32
 70
     0
102
RTVSPropertyOp33
 70
     0
102
RTVSPropertyOp34
 70
     0
102
RTVSPropertyOp35
 70
     0
102
RTVSPropertyOp36
 70
     0
102
RTVSPropertyOp37
 70
     0
102
RTVSPropertyOp38
 70
     0
102
RTVSPropertyOp39
 70
     0
102
RTVSPropertyOp40
 70
     0
102
RTVSPropertyOp41
 70
     0
102
RTVSPropertyOp42
 70
     0
102
RTVSPropertyOp43
 70
     0
102
RTVSPropertyOp44
 70
     0
102
RTVSPropertyOp45
 70
     0
102
RTVSPropertyOp46
 70
     0
102
RTVSPropertyOp47
 70
     0
102
RTVSPropertyOp48
 70
     0
102
RTVSPropertyOp49
 70
     0
102
RTVSPropertyOp50
 70
     0
102
RTVSPropertyOp51
 70
     0
102
RTVSPropertyOp52
 70
     0
102
RTVSPropertyOp53
 70
     0
102
RTVSPropertyOp54
 70
     0
102
RTVSPropertyOp55
 70
     0
102
RTVSPropertyOp56
 70
     0
102
RTVSPropertyOp57
 70
     0
102
RTVSPropertyOp58
 70
     1
102
RTVSPropertyOp59
 70
     1
102
RTVSPropertyOp60
 70
     1
102
RTVSPropertyOp61
 70
     1
102
RTVSPropertyOp62
 70
     1
  0
XRECORD
  5
818
102
{ACAD_REACTORS
330
817
102
}
330
817
100
AcDbXrecord
280
     1
102
RTVSPost2010Prop28
280
     0
102
RTVSPost2010PropOp28
 70
     1
102
RTVSPost2010Prop29
280
     1
102
RTVSPost2010PropOp29
 70
     1
102
RTVSPost2010Prop30
280
     1
102
RTVSPost2010PropOp30
 70
     1
102
RTVSPost2010Prop31
280
     0
102
RTVSPost2010PropOp31
 70
     1
102
RTVSPost2010Prop32
280
     0
102
RTVSPost2010PropOp32
 70
     1
102
RTVSPost2010Prop33
280
     0
102
RTVSPost2010PropOp33
 70
     1
102
RTVSPost2010Prop34
280
     0
102
RTVSPost2010PropOp34
 70
     1
102
RTVSPost2010Prop35
280
     0
102
RTVSPost2010PropOp35
 70
     1
102
RTVSPost2010Prop36
280
     0
102
RTVSPost2010PropOp36
 70
     1
102
RTVSPost2010Prop37
 90
       50
102
RTVSPost2010PropOp37
 70
     1
102
RTVSPost2010Prop38
140
0.0
102
RTVSPost2010PropOp38
 70
     1
102
RTVSPost2010Prop39
140
1.0
102
RTVSPost2010PropOp39
 70
     1
102
RTVSPost2010Prop40
 90
        0
102
RTVSPost2010PropOp40
 70
     1
102
RTVSPost2010Prop41ColorIndex
 90
       18
102
RTVSPost2010Prop41ColorRGB
 90
        0
102
RTVSPost2010PropOp41
 70
     1
102
RTVSPost2010Prop42
 90
       50
102
RTVSPost2010PropOp42
 70
     1
102
RTVSPost2010Prop43
 90
        3
102
RTVSPost2010PropOp43
 70
     1
102
RTVSPost2010Prop44ColorIndex
 90
        5
102
RTVSPost2010Prop44ColorRGB
 90
      255
102
RTVSPost2010PropOp44
 70
     1
102
RTVSPost2010Prop45
280
     0
102
RTVSPost2010PropOp45
 70
     1
102
RTVSPost2010Prop46
 90
       50
102
RTVSPost2010PropOp46
 70
     1
102
RTVSPost2010Prop47
 90
       50
102
RTVSPost2010PropOp47
 70
     1
102
RTVSPost2010Prop48
 90
       50
102
RTVSPost2010PropOp48
 70
     1
102
RTVSPost2010Prop49
280
     0
102
RTVSPost2010PropOp49
 70
     1
102
RTVSPost2010Prop50
 90
       50
102
RTVSPost2010PropOp50
 70
     1
102
RTVSPost2010Prop51ColorIndex
 90
      256
102
RTVSPost2010Prop51ColorRGB
 90
-16777216
102
RTVSPost2010PropOp51
 70
     0
102
RTVSPost2010Prop52
140
1.0
102
RTVSPost2010PropOp52
 70
     0
102
RTVSPost2010Prop53
 90
        2
102
RTVSPost2010PropOp53
 70
     1
102
RTVSPost2010Prop54
  1
strokes_ogs.tif
102
RTVSPost2010PropOp54
 70
     1
102
RTVSPost2010Prop55
280
     0
102
RTVSPost2010PropOp55
 70
     1
102
RTVSPost2010Prop56
140
1.0
102
RTVSPost2010PropOp56
 70
     1
102
RTVSPost2010Prop57
140
1.0
102
RTVSPost2010PropOp57
 70
     1
102
RTVSPropertyOp0
 70
     1
102
RTVSPropertyOp1
 70
     1
102
RTVSPropertyOp2
 70
     1
102
RTVSPropertyOp3
 70
     1
102
RTVSPropertyOp4
 70
     1
102
RTVSPropertyOp5
 70
     1
102
RTVSPropertyOp6
 70
     1
102
RTVSPropertyOp7
 70
     1
102
RTVSPropertyOp8
 70
     1
102
RTVSPropertyOp9
 70
     1
102
RTVSPropertyOp10
 70
     1
102
RTVSPropertyOp11
 70
     1
102
RTVSPropertyOp12
 70
     1
102
RTVSPropertyOp13
 70
     1
102
RTVSPropertyOp14
 70
     1
102
RTVSPropertyOp15
 70
     1
102
RTVSPropertyOp16
 70
     1
102
RTVSPropertyOp17
 70
     1
102
RTVSPropertyOp18
 70
     1
102
RTVSPropertyOp19
 70
     1
102
RTVSPropertyOp20
 70
     1
102
RTVSPropertyOp21
 70
     1
102
RTVSPropertyOp22
 70
     1
102
RTVSPropertyOp23
 70
     1
102
RTVSPropertyOp24
 70
     1
102
RTVSPropertyOp25
 70
     1
102
RTVSPropertyOp26
 70
     1
102
RTVSPropertyOp27
 70
     1
102
RTVSPropertyOp28
 70
     1
102
RTVSPropertyOp29
 70
     1
102
RTVSPropertyOp30
 70
     1
102
RTVSPropertyOp31
 70
     1
102
RTVSPropertyOp32
 70
     1
102
RTVSPropertyOp33
 70
     1
102
RTVSPropertyOp34
 70
     1
102
RTVSPropertyOp35
 70
     1
102
RTVSPropertyOp36
 70
     1
102
RTVSPropertyOp37
 70
     1
102
RTVSPropertyOp38
 70
     1
102
RTVSPropertyOp39
 70
     1
102
RTVSPropertyOp40
 70
     1
102
RTVSPropertyOp41
 70
     1
102
RTVSPropertyOp42
 70
     1
102
RTVSPropertyOp43
 70
     1
102
RTVSPropertyOp44
 70
     1
102
RTVSPropertyOp45
 70
     1
102
RTVSPropertyOp46
 70
     1
102
RTVSPropertyOp47
 70
     1
102
RTVSPropertyOp48
 70
     1
102
RTVSPropertyOp49
 70
     1
102
RTVSPropertyOp50
 70
     1
102
RTVSPropertyOp51
 70
     0
102
RTVSPropertyOp52
 70
     0
102
RTVSPropertyOp53
 70
     1
102
RTVSPropertyOp54
 70
     1
102
RTVSPropertyOp55
 70
     1
102
RTVSPropertyOp56
 70
     1
102
RTVSPropertyOp57
 70
     1
102
RTVSPropertyOp58
 70
     1
102
RTVSPropertyOp59
 70
     1
102
RTVSPropertyOp60
 70
     1
102
RTVSPropertyOp61
 70
     1
102
RTVSPropertyOp62
 70
     1
  0
XRECORD
  5
836
102
{ACAD_REACTORS
330
835
102
}
330
835
100
AcDbXrecord
280
     1
102
RTVSPost2010Prop28
280
     0
102
RTVSPost2010PropOp28
 70
     1
102
RTVSPost2010Prop29
280
     1
102
RTVSPost2010PropOp29
 70
     1
102
RTVSPost2010Prop30
280
     1
102
RTVSPost2010PropOp30
 70
     1
102
RTVSPost2010Prop31
280
     0
102
RTVSPost2010PropOp31
 70
     1
102
RTVSPost2010Prop32
280
     0
102
RTVSPost2010PropOp32
 70
     1
102
RTVSPost2010Prop33
280
     0
102
RTVSPost2010PropOp33
 70
     1
102
RTVSPost2010Prop34
280
     0
102
RTVSPost2010PropOp34
 70
     1
102
RTVSPost2010Prop35
280
     0
102
RTVSPost2010PropOp35
 70
     1
102
RTVSPost2010Prop36
280
     0
102
RTVSPost2010PropOp36
 70
     1
102
RTVSPost2010Prop37
 90
       50
102
RTVSPost2010PropOp37
 70
     1
102
RTVSPost2010Prop38
140
0.0
102
RTVSPost2010PropOp38
 70
     1
102
RTVSPost2010Prop39
140
1.0
102
RTVSPost2010PropOp39
 70
     1
102
RTVSPost2010Prop40
 90
        0
102
RTVSPost2010PropOp40
 70
     1
102
RTVSPost2010Prop41ColorIndex
 90
       18
102
RTVSPost2010Prop41ColorRGB
 90
        0
102
RTVSPost2010PropOp41
 70
     1
102
RTVSPost2010Prop42
 90
       50
102
RTVSPost2010PropOp42
 70
     1
102
RTVSPost2010Prop43
 90
        3
102
RTVSPost2010PropOp43
 70
     1
102
RTVSPost2010Prop44ColorIndex
 90
        5
102
RTVSPost2010Prop44ColorRGB
 90
      255
102
RTVSPost2010PropOp44
 70
     1
102
RTVSPost2010Prop45
280
     0
102
RTVSPost2010PropOp45
 70
     1
102
RTVSPost2010Prop46
 90
       50
102
RTVSPost2010PropOp46
 70
     1
102
RTVSPost2010Prop47
 90
       50
102
RTVSPost2010PropOp47
 70
     1
102
RTVSPost2010Prop48
 90
       50
102
RTVSPost2010PropOp48
 70
     1
102
RTVSPost2010Prop49
280
     0
102
RTVSPost2010PropOp49
 70
     1
102
RTVSPost2010Prop50
 90
       50
102
RTVSPost2010PropOp50
 70
     1
102
RTVSPost2010Prop51ColorIndex
 90
      256
102
RTVSPost2010Prop51ColorRGB
 90
-16777216
102
RTVSPost2010PropOp51
 70
     0
102
RTVSPost2010Prop52
140
1.0
102
RTVSPost2010PropOp52
 70
     0
102
RTVSPost2010Prop53
 90
        2
102
RTVSPost2010PropOp53
 70
     1
102
RTVSPost2010Prop54
  1
strokes_ogs.tif
102
RTVSPost2010PropOp54
 70
     1
102
RTVSPost2010Prop55
280
     0
102
RTVSPost2010PropOp55
 70
     1
102
RTVSPost2010Prop56
140
1.0
102
RTVSPost2010PropOp56
 70
     1
102
RTVSPost2010Prop57
140
1.0
102
RTVSPost2010PropOp57
 70
     1
102
RTVSPropertyOp0
 70
     1
102
RTVSPropertyOp1
 70
     1
102
RTVSPropertyOp2
 70
     1
102
RTVSPropertyOp3
 70
     1
102
RTVSPropertyOp4
 70
     1
102
RTVSPropertyOp5
 70
     1
102
RTVSPropertyOp6
 70
     1
102
RTVSPropertyOp7
 70
     1
102
RTVSPropertyOp8
 70
     1
102
RTVSPropertyOp9
 70
     1
102
RTVSPropertyOp10
 70
     1
102
RTVSPropertyOp11
 70
     1
102
RTVSPropertyOp12
 70
     1
102
RTVSPropertyOp13
 70
     1
102
RTVSPropertyOp14
 70
     1
102
RTVSPropertyOp15
 70
     1
102
RTVSPropertyOp16
 70
     1
102
RTVSPropertyOp17
 70
     1
102
RTVSPropertyOp18
 70
     1
102
RTVSPropertyOp19
 70
     1
102
RTVSPropertyOp20
 70
     1
102
RTVSPropertyOp21
 70
     1
102
RTVSPropertyOp22
 70
     1
102
RTVSPropertyOp23
 70
     1
102
RTVSPropertyOp24
 70
     1
102
RTVSPropertyOp25
 70
     1
102
RTVSPropertyOp26
 70
     1
102
RTVSPropertyOp27
 70
     1
102
RTVSPropertyOp28
 70
     1
102
RTVSPropertyOp29
 70
     1
102
RTVSPropertyOp30
 70
     1
102
RTVSPropertyOp31
 70
     1
102
RTVSPropertyOp32
 70
     1
102
RTVSPropertyOp33
 70
     1
102
RTVSPropertyOp34
 70
     1
102
RTVSPropertyOp35
 70
     1
102
RTVSPropertyOp36
 70
     1
102
RTVSPropertyOp37
 70
     1
102
RTVSPropertyOp38
 70
     1
102
RTVSPropertyOp39
 70
     1
102
RTVSPropertyOp40
 70
     1
102
RTVSPropertyOp41
 70
     1
102
RTVSPropertyOp42
 70
     1
102
RTVSPropertyOp43
 70
     1
102
RTVSPropertyOp44
 70
     1
102
RTVSPropertyOp45
 70
     1
102
RTVSPropertyOp46
 70
     1
102
RTVSPropertyOp47
 70
     1
102
RTVSPropertyOp48
 70
     1
102
RTVSPropertyOp49
 70
     1
102
RTVSPropertyOp50
 70
     1
102
RTVSPropertyOp51
 70
     0
102
RTVSPropertyOp52
 70
     0
102
RTVSPropertyOp53
 70
     1
102
RTVSPropertyOp54
 70
     1
102
RTVSPropertyOp55
 70
     1
102
RTVSPropertyOp56
 70
     1
102
RTVSPropertyOp57
 70
     1
102
RTVSPropertyOp58
 70
     1
102
RTVSPropertyOp59
 70
     1
102
RTVSPropertyOp60
 70
     1
102
RTVSPropertyOp61
 70
     1
102
RTVSPropertyOp62
 70
     1
  0
XRECORD
  5
834
102
{ACAD_REACTORS
330
833
102
}
330
833
100
AcDbXrecord
280
     1
102
RTVSPost2010Prop28
280
     0
102
RTVSPost2010PropOp28
 70
     1
102
RTVSPost2010Prop29
280
     1
102
RTVSPost2010PropOp29
 70
     1
102
RTVSPost2010Prop30
280
     1
102
RTVSPost2010PropOp30
 70
     1
102
RTVSPost2010Prop31
280
     0
102
RTVSPost2010PropOp31
 70
     1
102
RTVSPost2010Prop32
280
     0
102
RTVSPost2010PropOp32
 70
     1
102
RTVSPost2010Prop33
280
     0
102
RTVSPost2010PropOp33
 70
     1
102
RTVSPost2010Prop34
280
     0
102
RTVSPost2010PropOp34
 70
     1
102
RTVSPost2010Prop35
280
     0
102
RTVSPost2010PropOp35
 70
     1
102
RTVSPost2010Prop36
280
     0
102
RTVSPost2010PropOp36
 70
     1
102
RTVSPost2010Prop37
 90
       50
102
RTVSPost2010PropOp37
 70
     1
102
RTVSPost2010Prop38
140
0.0
102
RTVSPost2010PropOp38
 70
     1
102
RTVSPost2010Prop39
140
1.0
102
RTVSPost2010PropOp39
 70
     1
102
RTVSPost2010Prop40
 90
        0
102
RTVSPost2010PropOp40
 70
     1
102
RTVSPost2010Prop41ColorIndex
 90
       18
102
RTVSPost2010Prop41ColorRGB
 90
        0
102
RTVSPost2010PropOp41
 70
     1
102
RTVSPost2010Prop42
 90
       50
102
RTVSPost2010PropOp42
 70
     1
102
RTVSPost2010Prop43
 90
        3
102
RTVSPost2010PropOp43
 70
     1
102
RTVSPost2010Prop44ColorIndex
 90
        5
102
RTVSPost2010Prop44ColorRGB
 90
      255
102
RTVSPost2010PropOp44
 70
     1
102
RTVSPost2010Prop45
280
     0
102
RTVSPost2010PropOp45
 70
     1
102
RTVSPost2010Prop46
 90
       50
102
RTVSPost2010PropOp46
 70
     1
102
RTVSPost2010Prop47
 90
       50
102
RTVSPost2010PropOp47
 70
     1
102
RTVSPost2010Prop48
 90
       50
102
RTVSPost2010PropOp48
 70
     1
102
RTVSPost2010Prop49
280
     0
102
RTVSPost2010PropOp49
 70
     1
102
RTVSPost2010Prop50
 90
       50
102
RTVSPost2010PropOp50
 70
     1
102
RTVSPost2010Prop51ColorIndex
 90
      256
102
RTVSPost2010Prop51ColorRGB
 90
-16777216
102
RTVSPost2010PropOp51
 70
     0
102
RTVSPost2010Prop52
140
1.0
102
RTVSPost2010PropOp52
 70
     0
102
RTVSPost2010Prop53
 90
        2
102
RTVSPost2010PropOp53
 70
     1
102
RTVSPost2010Prop54
  1
strokes_ogs.tif
102
RTVSPost2010PropOp54
 70
     1
102
RTVSPost2010Prop55
280
     0
102
RTVSPost2010PropOp55
 70
     1
102
RTVSPost2010Prop56
140
1.0
102
RTVSPost2010PropOp56
 70
     1
102
RTVSPost2010Prop57
140
1.0
102
RTVSPost2010PropOp57
 70
     1
102
RTVSPropertyOp0
 70
     1
102
RTVSPropertyOp1
 70
     1
102
RTVSPropertyOp2
 70
     1
102
RTVSPropertyOp3
 70
     1
102
RTVSPropertyOp4
 70
     1
102
RTVSPropertyOp5
 70
     1
102
RTVSPropertyOp6
 70
     1
102
RTVSPropertyOp7
 70
     1
102
RTVSPropertyOp8
 70
     1
102
RTVSPropertyOp9
 70
     1
102
RTVSPropertyOp10
 70
     1
102
RTVSPropertyOp11
 70
     1
102
RTVSPropertyOp12
 70
     1
102
RTVSPropertyOp13
 70
     1
102
RTVSPropertyOp14
 70
     1
102
RTVSPropertyOp15
 70
     1
102
RTVSPropertyOp16
 70
     1
102
RTVSPropertyOp17
 70
     1
102
RTVSPropertyOp18
 70
     1
102
RTVSPropertyOp19
 70
     1
102
RTVSPropertyOp20
 70
     1
102
RTVSPropertyOp21
 70
     1
102
RTVSPropertyOp22
 70
     1
102
RTVSPropertyOp23
 70
     1
102
RTVSPropertyOp24
 70
     1
102
RTVSPropertyOp25
 70
     1
102
RTVSPropertyOp26
 70
     1
102
RTVSPropertyOp27
 70
     1
102
RTVSPropertyOp28
 70
     1
102
RTVSPropertyOp29
 70
     1
102
RTVSPropertyOp30
 70
     1
102
RTVSPropertyOp31
 70
     1
102
RTVSPropertyOp32
 70
     1
102
RTVSPropertyOp33
 70
     1
102
RTVSPropertyOp34
 70
     1
102
RTVSPropertyOp35
 70
     1
102
RTVSPropertyOp36
 70
     1
102
RTVSPropertyOp37
 70
     1
102
RTVSPropertyOp38
 70
     1
102
RTVSPropertyOp39
 70
     1
102
RTVSPropertyOp40
 70
     1
102
RTVSPropertyOp41
 70
     1
102
RTVSPropertyOp42
 70
     1
102
RTVSPropertyOp43
 70
     1
102
RTVSPropertyOp44
 70
     1
102
RTVSPropertyOp45
 70
     1
102
RTVSPropertyOp46
 70
     1
102
RTVSPropertyOp47
 70
     1
102
RTVSPropertyOp48
 70
     1
102
RTVSPropertyOp49
 70
     1
102
RTVSPropertyOp50
 70
     1
102
RTVSPropertyOp51
 70
     0
102
RTVSPropertyOp52
 70
     0
102
RTVSPropertyOp53
 70
     1
102
RTVSPropertyOp54
 70
     1
102
RTVSPropertyOp55
 70
     1
102
RTVSPropertyOp56
 70
     1
102
RTVSPropertyOp57
 70
     1
102
RTVSPropertyOp58
 70
     1
102
RTVSPropertyOp59
 70
     1
102
RTVSPropertyOp60
 70
     1
102
RTVSPropertyOp61
 70
     1
102
RTVSPropertyOp62
 70
     1
  0
XRECORD
  5
82E
102
{ACAD_REACTORS
330
82D
102
}
330
82D
100
AcDbXrecord
280
     1
102
RTVSPost2010Prop28
280
     0
102
RTVSPost2010PropOp28
 70
     1
102
RTVSPost2010Prop29
280
     1
102
RTVSPost2010PropOp29
 70
     1
102
RTVSPost2010Prop30
280
     1
102
RTVSPost2010PropOp30
 70
     1
102
RTVSPost2010Prop31
280
     0
102
RTVSPost2010PropOp31
 70
     1
102
RTVSPost2010Prop32
280
     0
102
RTVSPost2010PropOp32
 70
     1
102
RTVSPost2010Prop33
280
     0
102
RTVSPost2010PropOp33
 70
     1
102
RTVSPost2010Prop34
280
     0
102
RTVSPost2010PropOp34
 70
     1
102
RTVSPost2010Prop35
280
     0
102
RTVSPost2010PropOp35
 70
     1
102
RTVSPost2010Prop36
280
     0
102
RTVSPost2010PropOp36
 70
     1
102
RTVSPost2010Prop37
 90
       50
102
RTVSPost2010PropOp37
 70
     1
102
RTVSPost2010Prop38
140
0.0
102
RTVSPost2010PropOp38
 70
     1
102
RTVSPost2010Prop39
140
1.0
102
RTVSPost2010PropOp39
 70
     1
102
RTVSPost2010Prop40
 90
        0
102
RTVSPost2010PropOp40
 70
     1
102
RTVSPost2010Prop41ColorIndex
 90
       18
102
RTVSPost2010Prop41ColorRGB
 90
        0
102
RTVSPost2010PropOp41
 70
     1
102
RTVSPost2010Prop42
 90
       50
102
RTVSPost2010PropOp42
 70
     1
102
RTVSPost2010Prop43
 90
        3
102
RTVSPost2010PropOp43
 70
     1
102
RTVSPost2010Prop44ColorIndex
 90
        5
102
RTVSPost2010Prop44ColorRGB
 90
      255
102
RTVSPost2010PropOp44
 70
     1
102
RTVSPost2010Prop45
280
     0
102
RTVSPost2010PropOp45
 70
     1
102
RTVSPost2010Prop46
 90
       50
102
RTVSPost2010PropOp46
 70
     1
102
RTVSPost2010Prop47
 90
       50
102
RTVSPost2010PropOp47
 70
     1
102
RTVSPost2010Prop48
 90
       50
102
RTVSPost2010PropOp48
 70
     1
102
RTVSPost2010Prop49
280
     0
102
RTVSPost2010PropOp49
 70
     1
102
RTVSPost2010Prop50
 90
       50
102
RTVSPost2010PropOp50
 70
     1
102
RTVSPost2010Prop51ColorIndex
 90
      256
102
RTVSPost2010Prop51ColorRGB
 90
-16777216
102
RTVSPost2010PropOp51
 70
     0
102
RTVSPost2010Prop52
140
1.0
102
RTVSPost2010PropOp52
 70
     0
102
RTVSPost2010Prop53
 90
        2
102
RTVSPost2010PropOp53
 70
     1
102
RTVSPost2010Prop54
  1
strokes_ogs.tif
102
RTVSPost2010PropOp54
 70
     1
102
RTVSPost2010Prop55
280
     0
102
RTVSPost2010PropOp55
 70
     1
102
RTVSPost2010Prop56
140
1.0
102
RTVSPost2010PropOp56
 70
     1
102
RTVSPost2010Prop57
140
1.0
102
RTVSPost2010PropOp57
 70
     1
102
RTVSPropertyOp0
 70
     1
102
RTVSPropertyOp1
 70
     1
102
RTVSPropertyOp2
 70
     1
102
RTVSPropertyOp3
 70
     1
102
RTVSPropertyOp4
 70
     1
102
RTVSPropertyOp5
 70
     1
102
RTVSPropertyOp6
 70
     1
102
RTVSPropertyOp7
 70
     1
102
RTVSPropertyOp8
 70
     1
102
RTVSPropertyOp9
 70
     1
102
RTVSPropertyOp10
 70
     1
102
RTVSPropertyOp11
 70
     1
102
RTVSPropertyOp12
 70
     1
102
RTVSPropertyOp13
 70
     1
102
RTVSPropertyOp14
 70
     1
102
RTVSPropertyOp15
 70
     1
102
RTVSPropertyOp16
 70
     1
102
RTVSPropertyOp17
 70
     1
102
RTVSPropertyOp18
 70
     1
102
RTVSPropertyOp19
 70
     1
102
RTVSPropertyOp20
 70
     1
102
RTVSPropertyOp21
 70
     1
102
RTVSPropertyOp22
 70
     1
102
RTVSPropertyOp23
 70
     1
102
RTVSPropertyOp24
 70
     1
102
RTVSPropertyOp25
 70
     1
102
RTVSPropertyOp26
 70
     1
102
RTVSPropertyOp27
 70
     1
102
RTVSPropertyOp28
 70
     1
102
RTVSPropertyOp29
 70
     1
102
RTVSPropertyOp30
 70
     1
102
RTVSPropertyOp31
 70
     1
102
RTVSPropertyOp32
 70
     1
102
RTVSPropertyOp33
 70
     1
102
RTVSPropertyOp34
 70
     1
102
RTVSPropertyOp35
 70
     1
102
RTVSPropertyOp36
 70
     1
102
RTVSPropertyOp37
 70
     1
102
RTVSPropertyOp38
 70
     1
102
RTVSPropertyOp39
 70
     1
102
RTVSPropertyOp40
 70
     1
102
RTVSPropertyOp41
 70
     1
102
RTVSPropertyOp42
 70
     1
102
RTVSPropertyOp43
 70
     1
102
RTVSPropertyOp44
 70
     1
102
RTVSPropertyOp45
 70
     1
102
RTVSPropertyOp46
 70
     1
102
RTVSPropertyOp47
 70
     1
102
RTVSPropertyOp48
 70
     1
102
RTVSPropertyOp49
 70
     1
102
RTVSPropertyOp50
 70
     1
102
RTVSPropertyOp51
 70
     0
102
RTVSPropertyOp52
 70
     0
102
RTVSPropertyOp53
 70
     1
102
RTVSPropertyOp54
 70
     1
102
RTVSPropertyOp55
 70
     1
102
RTVSPropertyOp56
 70
     1
102
RTVSPropertyOp57
 70
     1
102
RTVSPropertyOp58
 70
     1
102
RTVSPropertyOp59
 70
     1
102
RTVSPropertyOp60
 70
     1
102
RTVSPropertyOp61
 70
     1
102
RTVSPropertyOp62
 70
     1
  0
XRECORD
  5
830
102
{ACAD_REACTORS
330
82F
102
}
330
82F
100
AcDbXrecord
280
     1
102
RTVSPost2010Prop28
280
     0
102
RTVSPost2010PropOp28
 70
     1
102
RTVSPost2010Prop29
280
     1
102
RTVSPost2010PropOp29
 70
     1
102
RTVSPost2010Prop30
280
     1
102
RTVSPost2010PropOp30
 70
     1
102
RTVSPost2010Prop31
280
     0
102
RTVSPost2010PropOp31
 70
     1
102
RTVSPost2010Prop32
280
     0
102
RTVSPost2010PropOp32
 70
     1
102
RTVSPost2010Prop33
280
     0
102
RTVSPost2010PropOp33
 70
     1
102
RTVSPost2010Prop34
280
     0
102
RTVSPost2010PropOp34
 70
     1
102
RTVSPost2010Prop35
280
     0
102
RTVSPost2010PropOp35
 70
     1
102
RTVSPost2010Prop36
280
     0
102
RTVSPost2010PropOp36
 70
     1
102
RTVSPost2010Prop37
 90
       50
102
RTVSPost2010PropOp37
 70
     1
102
RTVSPost2010Prop38
140
0.0
102
RTVSPost2010PropOp38
 70
     1
102
RTVSPost2010Prop39
140
1.0
102
RTVSPost2010PropOp39
 70
     1
102
RTVSPost2010Prop40
 90
        0
102
RTVSPost2010PropOp40
 70
     1
102
RTVSPost2010Prop41ColorIndex
 90
       18
102
RTVSPost2010Prop41ColorRGB
 90
        0
102
RTVSPost2010PropOp41
 70
     1
102
RTVSPost2010Prop42
 90
       50
102
RTVSPost2010PropOp42
 70
     1
102
RTVSPost2010Prop43
 90
        3
102
RTVSPost2010PropOp43
 70
     1
102
RTVSPost2010Prop44ColorIndex
 90
        5
102
RTVSPost2010Prop44ColorRGB
 90
      255
102
RTVSPost2010PropOp44
 70
     1
102
RTVSPost2010Prop45
280
     0
102
RTVSPost2010PropOp45
 70
     1
102
RTVSPost2010Prop46
 90
       50
102
RTVSPost2010PropOp46
 70
     1
102
RTVSPost2010Prop47
 90
       50
102
RTVSPost2010PropOp47
 70
     1
102
RTVSPost2010Prop48
 90
       50
102
RTVSPost2010PropOp48
 70
     1
102
RTVSPost2010Prop49
280
     0
102
RTVSPost2010PropOp49
 70
     1
102
RTVSPost2010Prop50
 90
       50
102
RTVSPost2010PropOp50
 70
     1
102
RTVSPost2010Prop51ColorIndex
 90
      256
102
RTVSPost2010Prop51ColorRGB
 90
-16777216
102
RTVSPost2010PropOp51
 70
     0
102
RTVSPost2010Prop52
140
1.0
102
RTVSPost2010PropOp52
 70
     0
102
RTVSPost2010Prop53
 90
        2
102
RTVSPost2010PropOp53
 70
     1
102
RTVSPost2010Prop54
  1
strokes_ogs.tif
102
RTVSPost2010PropOp54
 70
     1
102
RTVSPost2010Prop55
280
     0
102
RTVSPost2010PropOp55
 70
     1
102
RTVSPost2010Prop56
140
1.0
102
RTVSPost2010PropOp56
 70
     1
102
RTVSPost2010Prop57
140
1.0
102
RTVSPost2010PropOp57
 70
     1
102
RTVSPropertyOp0
 70
     1
102
RTVSPropertyOp1
 70
     1
102
RTVSPropertyOp2
 70
     1
102
RTVSPropertyOp3
 70
     1
102
RTVSPropertyOp4
 70
     1
102
RTVSPropertyOp5
 70
     1
102
RTVSPropertyOp6
 70
     1
102
RTVSPropertyOp7
 70
     1
102
RTVSPropertyOp8
 70
     1
102
RTVSPropertyOp9
 70
     1
102
RTVSPropertyOp10
 70
     1
102
RTVSPropertyOp11
 70
     1
102
RTVSPropertyOp12
 70
     1
102
RTVSPropertyOp13
 70
     1
102
RTVSPropertyOp14
 70
     1
102
RTVSPropertyOp15
 70
     1
102
RTVSPropertyOp16
 70
     1
102
RTVSPropertyOp17
 70
     1
102
RTVSPropertyOp18
 70
     1
102
RTVSPropertyOp19
 70
     1
102
RTVSPropertyOp20
 70
     1
102
RTVSPropertyOp21
 70
     1
102
RTVSPropertyOp22
 70
     1
102
RTVSPropertyOp23
 70
     1
102
RTVSPropertyOp24
 70
     1
102
RTVSPropertyOp25
 70
     1
102
RTVSPropertyOp26
 70
     1
102
RTVSPropertyOp27
 70
     1
102
RTVSPropertyOp28
 70
     1
102
RTVSPropertyOp29
 70
     1
102
RTVSPropertyOp30
 70
     1
102
RTVSPropertyOp31
 70
     1
102
RTVSPropertyOp32
 70
     1
102
RTVSPropertyOp33
 70
     1
102
RTVSPropertyOp34
 70
     1
102
RTVSPropertyOp35
 70
     1
102
RTVSPropertyOp36
 70
     1
102
RTVSPropertyOp37
 70
     1
102
RTVSPropertyOp38
 70
     1
102
RTVSPropertyOp39
 70
     1
102
RTVSPropertyOp40
 70
     1
102
RTVSPropertyOp41
 70
     1
102
RTVSPropertyOp42
 70
     1
102
RTVSPropertyOp43
 70
     1
102
RTVSPropertyOp44
 70
     1
102
RTVSPropertyOp45
 70
     1
102
RTVSPropertyOp46
 70
     1
102
RTVSPropertyOp47
 70
     1
102
RTVSPropertyOp48
 70
     1
102
RTVSPropertyOp49
 70
     1
102
RTVSPropertyOp50
 70
     1
102
RTVSPropertyOp51
 70
     0
102
RTVSPropertyOp52
 70
     0
102
RTVSPropertyOp53
 70
     1
102
RTVSPropertyOp54
 70
     1
102
RTVSPropertyOp55
 70
     1
102
RTVSPropertyOp56
 70
     1
102
RTVSPropertyOp57
 70
     1
102
RTVSPropertyOp58
 70
     1
102
RTVSPropertyOp59
 70
     1
102
RTVSPropertyOp60
 70
     1
102
RTVSPropertyOp61
 70
     1
102
RTVSPropertyOp62
 70
     1
  0
XRECORD
  5
820
102
{ACAD_REACTORS
330
81F
102
}
330
81F
100
AcDbXrecord
280
     1
102
RTVSPost2010Prop28
280
     0
102
RTVSPost2010PropOp28
 70
     1
102
RTVSPost2010Prop29
280
     1
102
RTVSPost2010PropOp29
 70
     1
102
RTVSPost2010Prop30
280
     1
102
RTVSPost2010PropOp30
 70
     1
102
RTVSPost2010Prop31
280
     0
102
RTVSPost2010PropOp31
 70
     1
102
RTVSPost2010Prop32
280
     0
102
RTVSPost2010PropOp32
 70
     1
102
RTVSPost2010Prop33
280
     0
102
RTVSPost2010PropOp33
 70
     1
102
RTVSPost2010Prop34
280
     0
102
RTVSPost2010PropOp34
 70
     1
102
RTVSPost2010Prop35
280
     0
102
RTVSPost2010PropOp35
 70
     1
102
RTVSPost2010Prop36
280
     0
102
RTVSPost2010PropOp36
 70
     1
102
RTVSPost2010Prop37
 90
       50
102
RTVSPost2010PropOp37
 70
     1
102
RTVSPost2010Prop38
140
0.0
102
RTVSPost2010PropOp38
 70
     1
102
RTVSPost2010Prop39
140
1.0
102
RTVSPost2010PropOp39
 70
     1
102
RTVSPost2010Prop40
 90
        0
102
RTVSPost2010PropOp40
 70
     1
102
RTVSPost2010Prop41ColorIndex
 90
       18
102
RTVSPost2010Prop41ColorRGB
 90
        0
102
RTVSPost2010PropOp41
 70
     1
102
RTVSPost2010Prop42
 90
       50
102
RTVSPost2010PropOp42
 70
     1
102
RTVSPost2010Prop43
 90
        3
102
RTVSPost2010PropOp43
 70
     1
102
RTVSPost2010Prop44ColorIndex
 90
        5
102
RTVSPost2010Prop44ColorRGB
 90
      255
102
RTVSPost2010PropOp44
 70
     1
102
RTVSPost2010Prop45
280
     0
102
RTVSPost2010PropOp45
 70
     1
102
RTVSPost2010Prop46
 90
       50
102
RTVSPost2010PropOp46
 70
     1
102
RTVSPost2010Prop47
 90
       50
102
RTVSPost2010PropOp47
 70
     1
102
RTVSPost2010Prop48
 90
       50
102
RTVSPost2010PropOp48
 70
     1
102
RTVSPost2010Prop49
280
     0
102
RTVSPost2010PropOp49
 70
     1
102
RTVSPost2010Prop50
 90
       50
102
RTVSPost2010PropOp50
 70
     1
102
RTVSPost2010Prop51ColorIndex
 90
      256
102
RTVSPost2010Prop51ColorRGB
 90
-16777216
102
RTVSPost2010PropOp51
 70
     0
102
RTVSPost2010Prop52
140
1.0
102
RTVSPost2010PropOp52
 70
     0
102
RTVSPost2010Prop53
 90
        2
102
RTVSPost2010PropOp53
 70
     1
102
RTVSPost2010Prop54
  1
strokes_ogs.tif
102
RTVSPost2010PropOp54
 70
     1
102
RTVSPost2010Prop55
280
     0
102
RTVSPost2010PropOp55
 70
     1
102
RTVSPost2010Prop56
140
1.0
102
RTVSPost2010PropOp56
 70
     1
102
RTVSPost2010Prop57
140
1.0
102
RTVSPost2010PropOp57
 70
     1
102
RTVSPropertyOp0
 70
     1
102
RTVSPropertyOp1
 70
     1
102
RTVSPropertyOp2
 70
     1
102
RTVSPropertyOp3
 70
     1
102
RTVSPropertyOp4
 70
     1
102
RTVSPropertyOp5
 70
     1
102
RTVSPropertyOp6
 70
     1
102
RTVSPropertyOp7
 70
     1
102
RTVSPropertyOp8
 70
     1
102
RTVSPropertyOp9
 70
     1
102
RTVSPropertyOp10
 70
     1
102
RTVSPropertyOp11
 70
     1
102
RTVSPropertyOp12
 70
     1
102
RTVSPropertyOp13
 70
     1
102
RTVSPropertyOp14
 70
     1
102
RTVSPropertyOp15
 70
     1
102
RTVSPropertyOp16
 70
     1
102
RTVSPropertyOp17
 70
     1
102
RTVSPropertyOp18
 70
     1
102
RTVSPropertyOp19
 70
     1
102
RTVSPropertyOp20
 70
     1
102
RTVSPropertyOp21
 70
     1
102
RTVSPropertyOp22
 70
     1
102
RTVSPropertyOp23
 70
     1
102
RTVSPropertyOp24
 70
     1
102
RTVSPropertyOp25
 70
     1
102
RTVSPropertyOp26
 70
     1
102
RTVSPropertyOp27
 70
     1
102
RTVSPropertyOp28
 70
     1
102
RTVSPropertyOp29
 70
     1
102
RTVSPropertyOp30
 70
     1
102
RTVSPropertyOp31
 70
     1
102
RTVSPropertyOp32
 70
     1
102
RTVSPropertyOp33
 70
     1
102
RTVSPropertyOp34
 70
     1
102
RTVSPropertyOp35
 70
     1
102
RTVSPropertyOp36
 70
     1
102
RTVSPropertyOp37
 70
     1
102
RTVSPropertyOp38
 70
     1
102
RTVSPropertyOp39
 70
     1
102
RTVSPropertyOp40
 70
     1
102
RTVSPropertyOp41
 70
     1
102
RTVSPropertyOp42
 70
     1
102
RTVSPropertyOp43
 70
     1
102
RTVSPropertyOp44
 70
     1
102
RTVSPropertyOp45
 70
     1
102
RTVSPropertyOp46
 70
     1
102
RTVSPropertyOp47
 70
     1
102
RTVSPropertyOp48
 70
     1
102
RTVSPropertyOp49
 70
     1
102
RTVSPropertyOp50
 70
     1
102
RTVSPropertyOp51
 70
     0
102
RTVSPropertyOp52
 70
     0
102
RTVSPropertyOp53
 70
     1
102
RTVSPropertyOp54
 70
     1
102
RTVSPropertyOp55
 70
     1
102
RTVSPropertyOp56
 70
     1
102
RTVSPropertyOp57
 70
     1
102
RTVSPropertyOp58
 70
     1
102
RTVSPropertyOp59
 70
     1
102
RTVSPropertyOp60
 70
     1
102
RTVSPropertyOp61
 70
     1
102
RTVSPropertyOp62
 70
     1
  0
XRECORD
  5
812
102
{ACAD_REACTORS
330
811
102
}
330
811
100
AcDbXrecord
280
     1
102
RTVSPost2010Prop28
280
     0
102
RTVSPost2010PropOp28
 70
     1
102
RTVSPost2010Prop29
280
     1
102
RTVSPost2010PropOp29
 70
     1
102
RTVSPost2010Prop30
280
     1
102
RTVSPost2010PropOp30
 70
     1
102
RTVSPost2010Prop31
280
     0
102
RTVSPost2010PropOp31
 70
     1
102
RTVSPost2010Prop32
280
     0
102
RTVSPost2010PropOp32
 70
     1
102
RTVSPost2010Prop33
280
     0
102
RTVSPost2010PropOp33
 70
     1
102
RTVSPost2010Prop34
280
     0
102
RTVSPost2010PropOp34
 70
     1
102
RTVSPost2010Prop35
280
     0
102
RTVSPost2010PropOp35
 70
     1
102
RTVSPost2010Prop36
280
     0
102
RTVSPost2010PropOp36
 70
     1
102
RTVSPost2010Prop37
 90
       50
102
RTVSPost2010PropOp37
 70
     1
102
RTVSPost2010Prop38
140
0.0
102
RTVSPost2010PropOp38
 70
     1
102
RTVSPost2010Prop39
140
1.0
102
RTVSPost2010PropOp39
 70
     1
102
RTVSPost2010Prop40
 90
        0
102
RTVSPost2010PropOp40
 70
     1
102
RTVSPost2010Prop41ColorIndex
 90
       18
102
RTVSPost2010Prop41ColorRGB
 90
        0
102
RTVSPost2010PropOp41
 70
     1
102
RTVSPost2010Prop42
 90
       50
102
RTVSPost2010PropOp42
 70
     1
102
RTVSPost2010Prop43
 90
        3
102
RTVSPost2010PropOp43
 70
     1
102
RTVSPost2010Prop44ColorIndex
 90
        5
102
RTVSPost2010Prop44ColorRGB
 90
      255
102
RTVSPost2010PropOp44
 70
     1
102
RTVSPost2010Prop45
280
     0
102
RTVSPost2010PropOp45
 70
     1
102
RTVSPost2010Prop46
 90
       50
102
RTVSPost2010PropOp46
 70
     1
102
RTVSPost2010Prop47
 90
       50
102
RTVSPost2010PropOp47
 70
     1
102
RTVSPost2010Prop48
 90
       50
102
RTVSPost2010PropOp48
 70
     1
102
RTVSPost2010Prop49
280
     0
102
RTVSPost2010PropOp49
 70
     1
102
RTVSPost2010Prop50
 90
       50
102
RTVSPost2010PropOp50
 70
     1
102
RTVSPost2010Prop51ColorIndex
 90
      256
102
RTVSPost2010Prop51ColorRGB
 90
-16777216
102
RTVSPost2010PropOp51
 70
     0
102
RTVSPost2010Prop52
140
1.0
102
RTVSPost2010PropOp52
 70
     0
102
RTVSPost2010Prop53
 90
        2
102
RTVSPost2010PropOp53
 70
     1
102
RTVSPost2010Prop54
  1
strokes_ogs.tif
102
RTVSPost2010PropOp54
 70
     1
102
RTVSPost2010Prop55
280
     0
102
RTVSPost2010PropOp55
 70
     1
102
RTVSPost2010Prop56
140
1.0
102
RTVSPost2010PropOp56
 70
     1
102
RTVSPost2010Prop57
140
1.0
102
RTVSPost2010PropOp57
 70
     1
102
RTVSPropertyOp0
 70
     1
102
RTVSPropertyOp1
 70
     1
102
RTVSPropertyOp2
 70
     1
102
RTVSPropertyOp3
 70
     1
102
RTVSPropertyOp4
 70
     1
102
RTVSPropertyOp5
 70
     1
102
RTVSPropertyOp6
 70
     1
102
RTVSPropertyOp7
 70
     1
102
RTVSPropertyOp8
 70
     1
102
RTVSPropertyOp9
 70
     1
102
RTVSPropertyOp10
 70
     1
102
RTVSPropertyOp11
 70
     1
102
RTVSPropertyOp12
 70
     1
102
RTVSPropertyOp13
 70
     1
102
RTVSPropertyOp14
 70
     1
102
RTVSPropertyOp15
 70
     1
102
RTVSPropertyOp16
 70
     1
102
RTVSPropertyOp17
 70
     1
102
RTVSPropertyOp18
 70
     1
102
RTVSPropertyOp19
 70
     1
102
RTVSPropertyOp20
 70
     1
102
RTVSPropertyOp21
 70
     1
102
RTVSPropertyOp22
 70
     1
102
RTVSPropertyOp23
 70
     1
102
RTVSPropertyOp24
 70
     1
102
RTVSPropertyOp25
 70
     1
102
RTVSPropertyOp26
 70
     1
102
RTVSPropertyOp27
 70
     1
102
RTVSPropertyOp28
 70
     1
102
RTVSPropertyOp29
 70
     1
102
RTVSPropertyOp30
 70
     1
102
RTVSPropertyOp31
 70
     1
102
RTVSPropertyOp32
 70
     1
102
RTVSPropertyOp33
 70
     1
102
RTVSPropertyOp34
 70
     1
102
RTVSPropertyOp35
 70
     1
102
RTVSPropertyOp36
 70
     1
102
RTVSPropertyOp37
 70
     1
102
RTVSPropertyOp38
 70
     1
102
RTVSPropertyOp39
 70
     1
102
RTVSPropertyOp40
 70
     1
102
RTVSPropertyOp41
 70
     1
102
RTVSPropertyOp42
 70
     1
102
RTVSPropertyOp43
 70
     1
102
RTVSPropertyOp44
 70
     1
102
RTVSPropertyOp45
 70
     1
102
RTVSPropertyOp46
 70
     1
102
RTVSPropertyOp47
 70
     1
102
RTVSPropertyOp48
 70
     1
102
RTVSPropertyOp49
 70
     1
102
RTVSPropertyOp50
 70
     1
102
RTVSPropertyOp51
 70
     0
102
RTVSPropertyOp52
 70
     0
102
RTVSPropertyOp53
 70
     1
102
RTVSPropertyOp54
 70
     1
102
RTVSPropertyOp55
 70
     1
102
RTVSPropertyOp56
 70
     1
102
RTVSPropertyOp57
 70
     1
102
RTVSPropertyOp58
 70
     1
102
RTVSPropertyOp59
 70
     1
102
RTVSPropertyOp60
 70
     1
102
RTVSPropertyOp61
 70
     1
102
RTVSPropertyOp62
 70
     1
  0
XRECORD
  5
832
102
{ACAD_REACTORS
330
831
102
}
330
831
100
AcDbXrecord
280
     1
102
RTVSPost2010Prop28
280
     0
102
RTVSPost2010PropOp28
 70
     1
102
RTVSPost2010Prop29
280
     1
102
RTVSPost2010PropOp29
 70
     1
102
RTVSPost2010Prop30
280
     1
102
RTVSPost2010PropOp30
 70
     1
102
RTVSPost2010Prop31
280
     0
102
RTVSPost2010PropOp31
 70
     1
102
RTVSPost2010Prop32
280
     0
102
RTVSPost2010PropOp32
 70
     1
102
RTVSPost2010Prop33
280
     0
102
RTVSPost2010PropOp33
 70
     1
102
RTVSPost2010Prop34
280
     0
102
RTVSPost2010PropOp34
 70
     1
102
RTVSPost2010Prop35
280
     0
102
RTVSPost2010PropOp35
 70
     1
102
RTVSPost2010Prop36
280
     0
102
RTVSPost2010PropOp36
 70
     1
102
RTVSPost2010Prop37
 90
       50
102
RTVSPost2010PropOp37
 70
     1
102
RTVSPost2010Prop38
140
0.0
102
RTVSPost2010PropOp38
 70
     1
102
RTVSPost2010Prop39
140
1.0
102
RTVSPost2010PropOp39
 70
     1
102
RTVSPost2010Prop40
 90
        0
102
RTVSPost2010PropOp40
 70
     1
102
RTVSPost2010Prop41ColorIndex
 90
       18
102
RTVSPost2010Prop41ColorRGB
 90
        0
102
RTVSPost2010PropOp41
 70
     1
102
RTVSPost2010Prop42
 90
       50
102
RTVSPost2010PropOp42
 70
     1
102
RTVSPost2010Prop43
 90
        3
102
RTVSPost2010PropOp43
 70
     1
102
RTVSPost2010Prop44ColorIndex
 90
        5
102
RTVSPost2010Prop44ColorRGB
 90
      255
102
RTVSPost2010PropOp44
 70
     1
102
RTVSPost2010Prop45
280
     0
102
RTVSPost2010PropOp45
 70
     1
102
RTVSPost2010Prop46
 90
       50
102
RTVSPost2010PropOp46
 70
     1
102
RTVSPost2010Prop47
 90
       50
102
RTVSPost2010PropOp47
 70
     1
102
RTVSPost2010Prop48
 90
       50
102
RTVSPost2010PropOp48
 70
     1
102
RTVSPost2010Prop49
280
     0
102
RTVSPost2010PropOp49
 70
     1
102
RTVSPost2010Prop50
 90
       50
102
RTVSPost2010PropOp50
 70
     1
102
RTVSPost2010Prop51ColorIndex
 90
      256
102
RTVSPost2010Prop51ColorRGB
 90
-16777216
102
RTVSPost2010PropOp51
 70
     0
102
RTVSPost2010Prop52
140
1.0
102
RTVSPost2010PropOp52
 70
     0
102
RTVSPost2010Prop53
 90
        2
102
RTVSPost2010PropOp53
 70
     1
102
RTVSPost2010Prop54
  1
strokes_ogs.tif
102
RTVSPost2010PropOp54
 70
     1
102
RTVSPost2010Prop55
280
     0
102
RTVSPost2010PropOp55
 70
     1
102
RTVSPost2010Prop56
140
1.0
102
RTVSPost2010PropOp56
 70
     1
102
RTVSPost2010Prop57
140
1.0
102
RTVSPost2010PropOp57
 70
     1
102
RTVSPropertyOp0
 70
     1
102
RTVSPropertyOp1
 70
     1
102
RTVSPropertyOp2
 70
     1
102
RTVSPropertyOp3
 70
     1
102
RTVSPropertyOp4
 70
     1
102
RTVSPropertyOp5
 70
     1
102
RTVSPropertyOp6
 70
     1
102
RTVSPropertyOp7
 70
     1
102
RTVSPropertyOp8
 70
     1
102
RTVSPropertyOp9
 70
     1
102
RTVSPropertyOp10
 70
     1
102
RTVSPropertyOp11
 70
     1
102
RTVSPropertyOp12
 70
     1
102
RTVSPropertyOp13
 70
     1
102
RTVSPropertyOp14
 70
     1
102
RTVSPropertyOp15
 70
     1
102
RTVSPropertyOp16
 70
     1
102
RTVSPropertyOp17
 70
     1
102
RTVSPropertyOp18
 70
     1
102
RTVSPropertyOp19
 70
     1
102
RTVSPropertyOp20
 70
     1
102
RTVSPropertyOp21
 70
     1
102
RTVSPropertyOp22
 70
     1
102
RTVSPropertyOp23
 70
     1
102
RTVSPropertyOp24
 70
     1
102
RTVSPropertyOp25
 70
     1
102
RTVSPropertyOp26
 70
     1
102
RTVSPropertyOp27
 70
     1
102
RTVSPropertyOp28
 70
     1
102
RTVSPropertyOp29
 70
     1
102
RTVSPropertyOp30
 70
     1
102
RTVSPropertyOp31
 70
     1
102
RTVSPropertyOp32
 70
     1
102
RTVSPropertyOp33
 70
     1
102
RTVSPropertyOp34
 70
     1
102
RTVSPropertyOp35
 70
     1
102
RTVSPropertyOp36
 70
     1
102
RTVSPropertyOp37
 70
     1
102
RTVSPropertyOp38
 70
     1
102
RTVSPropertyOp39
 70
     1
102
RTVSPropertyOp40
 70
     1
102
RTVSPropertyOp41
 70
     1
102
RTVSPropertyOp42
 70
     1
102
RTVSPropertyOp43
 70
     1
102
RTVSPropertyOp44
 70
     1
102
RTVSPropertyOp45
 70
     1
102
RTVSPropertyOp46
 70
     1
102
RTVSPropertyOp47
 70
     1
102
RTVSPropertyOp48
 70
     1
102
RTVSPropertyOp49
 70
     1
102
RTVSPropertyOp50
 70
     1
102
RTVSPropertyOp51
 70
     0
102
RTVSPropertyOp52
 70
     0
102
RTVSPropertyOp53
 70
     1
102
RTVSPropertyOp54
 70
     1
102
RTVSPropertyOp55
 70
     1
102
RTVSPropertyOp56
 70
     1
102
RTVSPropertyOp57
 70
     1
102
RTVSPropertyOp58
 70
     1
102
RTVSPropertyOp59
 70
     1
102
RTVSPropertyOp60
 70
     1
102
RTVSPropertyOp61
 70
     1
102
RTVSPropertyOp62
 70
     1
  0
ENDSEC
  0
EOF
