  0
SECTION
  2
HEADER
  9
$ACADVER
  1
AC1015
  9
$ACADMAINTVER
 70
    20
  9
$DWGCODEPAGE
  3
ANSI_932
  9
$INSBASE
 10
0.0
 20
0.0
 30
0.0
  9
$EXTMIN
 10
67.69574706495951
 20
12.07038372793124
 30
0.0
  9
$EXTMAX
 10
1434.173733176945
 20
1382.149689959467
 30
0.0
  9
$LIMMIN
 10
-435.470031738281
 20
-777.7690887451171
  9
$LIMMAX
 10
829.2339563546374
 20
374.7675933837891
  9
$ORTHOMODE
 70
     1
  9
$REGENMODE
 70
     1
  9
$FILLMODE
 70
     1
  9
$QTEXTMODE
 70
     0
  9
$MIRRTEXT
 70
     1
  9
$LTSCALE
 40
0.227673093540462
  9
$ATTMODE
 70
     1
  9
$TEXTSIZE
 40
2.5
  9
$TRACEWID
 40
1.0
  9
$TEXTSTYLE
  7
Standard
  9
$CLAYER
  8
0
  9
$CELTYPE
  6
ByLayer
  9
$CECOLOR
 62
   256
  9
$CELTSCALE
 40
1.0
  9
$DISPSILH
 70
     0
  9
$DIMSCALE
 40
1.0
  9
$DIMASZ
 40
2.5
  9
$DIMEXO
 40
0.625
  9
$DIMDLI
 40
3.75
  9
$DIMRND
 40
0.0
  9
$DIMDLE
 40
0.0
  9
$DIMEXE
 40
1.25
  9
$DIMTP
 40
0.0
  9
$DIMTM
 40
0.0
  9
$DIMTXT
 40
2.5
  9
$DIMCEN
 40
2.5
  9
$DIMTSZ
 40
0.0
  9
$DIMTOL
 70
     0
  9
$DIMLIM
 70
     0
  9
$DIMTIH
 70
     0
  9
$DIMTOH
 70
     0
  9
$DIMSE1
 70
     0
  9
$DIMSE2
 70
     0
  9
$DIMTAD
 70
     1
  9
$DIMZIN
 70
     0
  9
$DIMBLK
  1

  9
$DIMASO
 70
     1
  9
$DIMSHO
 70
     1
  9
$DIMPOST
  1

  9
$DIMAPOST
  1

  9
$DIMALT
 70
     0
  9
$DIMALTD
 70
     3
  9
$DIMALTF
 40
0.03937007874016
  9
$DIMLFAC
 40
1.0
  9
$DIMTOFL
 70
     1
  9
$DIMTVP
 40
0.0
  9
$DIMTIX
 70
     0
  9
$DIMSOXD
 70
     0
  9
$DIMSAH
 70
     0
  9
$DIMBLK1
  1

  9
$DIMBLK2
  1

  9
$DIMSTYLE
  2
Standard
  9
$DIMCLRD
 70
     0
  9
$DIMCLRE
 70
     0
  9
$DIMCLRT
 70
     0
  9
$DIMTFAC
 40
0.75
  9
$DIMGAP
 40
0.625
  9
$DIMJUST
 70
     0
  9
$DIMSD1
 70
     0
  9
$DIMSD2
 70
     0
  9
$DIMTOLJ
 70
     0
  9
$DIMTZIN
 70
     8
  9
$DIMALTZ
 70
     0
  9
$DIMALTTZ
 70
     0
  9
$DIMUPT
 70
     0
  9
$DIMDEC
 70
     2
  9
$DIMTDEC
 70
     2
  9
$DIMALTU
 70
     2
  9
$DIMALTTD
 70
     3
  9
$DIMTXSTY
  7
Standard
  9
$DIMAUNIT
 70
     0
  9
$DIMADEC
 70
     0
  9
$DIMALTRND
 40
0.0
  9
$DIMAZIN
 70
     0
  9
$DIMDSEP
 70
    46
  9
$DIMATFIT
 70
     3
  9
$DIMFRAC
 70
     0
  9
$DIMLDRBLK
  1

  9
$DIMLUNIT
 70
     2
  9
$DIMLWD
 70
    -2
  9
$DIMLWE
 70
    -2
  9
$DIMTMOVE
 70
     0
  9
$LUNITS
 70
     2
  9
$LUPREC
 70
     4
  9
$SKETCHINC
 40
1.0
  9
$FILLETRAD
 40
0.0
  9
$AUNITS
 70
     0
  9
$AUPREC
 70
     0
  9
$MENU
  1
.
  9
$ELEVATION
 40
0.0
  9
$PELEVATION
 40
0.0
  9
$THICKNESS
 40
0.0
  9
$LIMCHECK
 70
     0
  9
$CHAMFERA
 40
10.0
  9
$CHAMFERB
 40
10.0
  9
$CHAMFERC
 40
20.0
  9
$CHAMFERD
 40
0.0
  9
$SKPOLY
 70
     0
  9
$TDCREATE
 40
2455188.750000000
  9
$TDUCREATE
 40
2455188.375000000
  9
$TDUPDATE
 40
2459752.589943577
  9
$TDUUPDATE
 40
2459752.214943577
  9
$TDINDWG
 40
0.0229917824
  9
$TDUSRTIMER
 40
0.0229916319
  9
$USRTIMER
 70
     1
  9
$ANGBASE
 50
0.0
  9
$ANGDIR
 70
     0
  9
$PDMODE
 70
     0
  9
$PDSIZE
 40
0.0
  9
$PLINEWID
 40
0.0
  9
$SPLFRAME
 70
     0
  9
$SPLINETYPE
 70
     6
  9
$SPLINESEGS
 70
     8
  9
$HANDSEED
  5
70F
  9
$SURFTAB1
 70
     6
  9
$SURFTAB2
 70
     6
  9
$SURFTYPE
 70
     6
  9
$SURFU
 70
     6
  9
$SURFV
 70
     6
  9
$UCSBASE
  2

  9
$UCSNAME
  2

  9
$UCSORG
 10
0.0
 20
0.0
 30
0.0
  9
$UCSXDIR
 10
1.0
 20
0.0
 30
0.0
  9
$UCSYDIR
 10
0.0
 20
1.0
 30
0.0
  9
$UCSORTHOREF
  2

  9
$UCSORTHOVIEW
 70
     0
  9
$UCSORGTOP
 10
0.0
 20
0.0
 30
0.0
  9
$UCSORGBOTTOM
 10
0.0
 20
0.0
 30
0.0
  9
$UCSORGLEFT
 10
0.0
 20
0.0
 30
0.0
  9
$UCSORGRIGHT
 10
0.0
 20
0.0
 30
0.0
  9
$UCSORGFRONT
 10
0.0
 20
0.0
 30
0.0
  9
$UCSORGBACK
 10
0.0
 20
0.0
 30
0.0
  9
$PUCSBASE
  2

  9
$PUCSNAME
  2

  9
$PUCSORG
 10
0.0
 20
0.0
 30
0.0
  9
$PUCSXDIR
 10
1.0
 20
0.0
 30
0.0
  9
$PUCSYDIR
 10
0.0
 20
1.0
 30
0.0
  9
$PUCSORTHOREF
  2

  9
$PUCSORTHOVIEW
 70
     0
  9
$PUCSORGTOP
 10
0.0
 20
0.0
 30
0.0
  9
$PUCSORGBOTTOM
 10
0.0
 20
0.0
 30
0.0
  9
$PUCSORGLEFT
 10
0.0
 20
0.0
 30
0.0
  9
$PUCSORGRIGHT
 10
0.0
 20
0.0
 30
0.0
  9
$PUCSORGFRONT
 10
0.0
 20
0.0
 30
0.0
  9
$PUCSORGBACK
 10
0.0
 20
0.0
 30
0.0
  9
$USERI1
 70
     0
  9
$USERI2
 70
     0
  9
$USERI3
 70
     0
  9
$USERI4
 70
     0
  9
$USERI5
 70
     0
  9
$USERR1
 40
0.0
  9
$USERR2
 40
0.0
  9
$USERR3
 40
0.0
  9
$USERR4
 40
0.0
  9
$USERR5
 40
0.0
  9
$WORLDVIEW
 70
     1
  9
$SHADEDGE
 70
     3
  9
$SHADEDIF
 70
    70
  9
$TILEMODE
 70
     1
  9
$MAXACTVP
 70
    64
  9
$PINSBASE
 10
0.0
 20
0.0
 30
0.0
  9
$PLIMCHECK
 70
     0
  9
$PEXTMIN
 10
1.000000000000000E+20
 20
1.000000000000000E+20
 30
1.000000000000000E+20
  9
$PEXTMAX
 10
-1.000000000000000E+20
 20
-1.000000000000000E+20
 30
-1.000000000000000E+20
  9
$PLIMMIN
 10
0.0
 20
0.0
  9
$PLIMMAX
 10
420.0
 20
297.0
  9
$UNITMODE
 70
     0
  9
$VISRETAIN
 70
     1
  9
$PLINEGEN
 70
     0
  9
$PSLTSCALE
 70
     1
  9
$TREEDEPTH
 70
  3020
  9
$CMLSTYLE
  2
Standard
  9
$CMLJUST
 70
     0
  9
$CMLSCALE
 40
20.0
  9
$PROXYGRAPHICS
 70
     1
  9
$MEASUREMENT
 70
     1
  9
$CELWEIGHT
370
    -1
  9
$ENDCAPS
280
     0
  9
$JOINSTYLE
280
     0
  9
$LWDISPLAY
290
     0
  9
$INSUNITS
 70
     4
  9
$HYPERLINKBASE
  1

  9
$STYLESHEET
  1

  9
$XEDIT
290
     1
  9
$CEPSNTYPE
380
     0
  9
$PSTYLEMODE
290
     1
  9
$FINGERPRINTGUID
  2
{A19C6609-FC7F-4B1D-A697-FB9A6EE02378}
  9
$VERSIONGUID
  2
{B50C535B-B24D-4E13-BD6C-FE23108A02FD}
  9
$EXTNAMES
290
     1
  9
$PSVPSCALE
 40
0.0
  9
$OLESTARTUP
290
     0
  0
ENDSEC
  0
SECTION
  2
CLASSES
  0
CLASS
  1
ACDBDICTIONARYWDFLT
  2
AcDbDictionaryWithDefault
  3
ObjectDBX Classes
 90
        0
280
     0
281
     0
  0
CLASS
  1
VISUALSTYLE
  2
AcDbVisualStyle
  3
ObjectDBX Classes
 90
     4095
280
     0
281
     0
  0
CLASS
  1
MATERIAL
  2
AcDbMaterial
  3
ObjectDBX Classes
 90
     1153
280
     0
281
     0
  0
CLASS
  1
SCALE
  2
AcDbScale
  3
ObjectDBX Classes
 90
     1153
280
     0
281
     0
  0
CLASS
  1
TABLESTYLE
  2
AcDbTableStyle
  3
ObjectDBX Classes
 90
     4095
280
     0
281
     0
  0
CLASS
  1
MLEADERSTYLE
  2
AcDbMLeaderStyle
  3
ACDB_MLEADERSTYLE_CLASS
 90
     4095
280
     0
281
     0
  0
CLASS
  1
SUN
  2
AcDbSun
  3
SCENEOE
 90
    33921
280
     0
281
     0
  0
CLASS
  1
DICTIONARYVAR
  2
AcDbDictionaryVar
  3
ObjectDBX Classes
 90
        0
280
     0
281
     0
  0
CLASS
  1
ACDBSECTIONVIEWSTYLE
  2
AcDbSectionViewStyle
  3
ObjectDBX Classes
 90
     1025
280
     0
281
     0
  0
CLASS
  1
ACDBDETAILVIEWSTYLE
  2
AcDbDetailViewStyle
  3
ObjectDBX Classes
 90
     1025
280
     0
281
     0
  0
CLASS
  1
SORTENTSTABLE
  2
AcDbSortentsTable
  3
ObjectDBX Classes
 90
        0
280
     0
281
     0
  0
CLASS
  1
CELLSTYLEMAP
  2
AcDbCellStyleMap
  3
ObjectDBX Classes
 90
     1152
280
     0
281
     0
  0
CLASS
  1
ACDBPLACEHOLDER
  2
AcDbPlaceHolder
  3
ObjectDBX Classes
 90
        0
280
     0
281
     0
  0
CLASS
  1
LAYOUT
  2
AcDbLayout
  3
ObjectDBX Classes
 90
        0
280
     0
281
     0
  0
ENDSEC
  0
SECTION
  2
TABLES
  0
TABLE
  2
VPORT
  5
8
330
0
100
AcDbSymbolTable
 70
     1
  0
VPORT
  5
29
330
8
100
AcDbSymbolTableRecord
100
AcDbViewportTableRecord
  2
*Active
 70
     0
 10
0.0
 20
0.0
 11
1.0
 21
1.0
 12
990.3688603880933
 22
329.0779878359753
 13
0.0
 23
0.0
 14
10.0
 24
10.0
 15
10.0
 25
10.0
 16
0.0
 26
0.0
 36
1.0
 17
0.0
 27
0.0
 37
0.0
 40
1226.571295533795
 41
2.204301075268817
 42
50.0
 43
0.0
 44
0.0
 50
0.0
 51
0.0
 71
     0
 72
 20000
 73
     1
 74
     3
 75
     0
 76
     0
 77
     0
 78
     0
281
     0
 65
     1
110
0.0
120
0.0
130
0.0
111
1.0
121
0.0
131
0.0
112
0.0
122
1.0
132
0.0
 79
     0
146
0.0
1001
ACAD_NAV_VCDISPLAY
1070
     3
  0
ENDTAB
  0
TABLE
  2
LTYPE
  5
5
330
0
100
AcDbSymbolTable
 70
     3
  0
LTYPE
  5
14
330
5
100
AcDbSymbolTableRecord
100
AcDbLinetypeTableRecord
  2
ByBlock
 70
     0
  3

 72
    65
 73
     0
 40
0.0
  0
LTYPE
  5
15
330
5
100
AcDbSymbolTableRecord
100
AcDbLinetypeTableRecord
  2
ByLayer
 70
     0
  3

 72
    65
 73
     0
 40
0.0
  0
LTYPE
  5
16
330
5
100
AcDbSymbolTableRecord
100
AcDbLinetypeTableRecord
  2
Continuous
 70
     0
  3
Solid line
 72
    65
 73
     0
 40
0.0
  0
LTYPE
  5
23E
330
5
100
AcDbSymbolTableRecord
100
AcDbLinetypeTableRecord
  2
CENTER2
 70
     0
  3
Center (.5x) ___ _ ___ _ ___ _ ___ _ ___ _ ___
 72
    65
 73
     4
 40
28.575
 49
19.05
 74
     0
 49
-3.174999999999998
 74
     0
 49
3.174999999999998
 74
     0
 49
-3.174999999999998
 74
     0
  0
ENDTAB
  0
TABLE
  2
LAYER
  5
2
102
{ACAD_XDICTIONARY
360
244
102
}
330
0
100
AcDbSymbolTable
 70
     4
  0
LAYER
  5
10
102
{ACAD_XDICTIONARY
360
66D
102
}
330
2
100
AcDbSymbolTableRecord
100
AcDbLayerTableRecord
  2
0
 70
     0
 62
     7
  6
Continuous
370
    -3
390
F
  0
LAYER
  5
66
330
2
100
AcDbSymbolTableRecord
100
AcDbLayerTableRecord
  2
Defpoints
 70
     0
 62
     7
  6
Continuous
290
     0
370
    -3
390
F
  0
LAYER
  5
23F
102
{ACAD_XDICTIONARY
360
240
102
}
330
2
100
AcDbSymbolTableRecord
100
AcDbLayerTableRecord
  2
中心線
 70
     0
 62
     3
  6
CENTER2
370
    -3
390
F
  0
LAYER
  5
241
102
{ACAD_XDICTIONARY
360
242
102
}
330
2
100
AcDbSymbolTableRecord
100
AcDbLayerTableRecord
  2
実線
 70
     0
 62
     7
  6
Continuous
370
    -3
390
F
  0
ENDTAB
  0
TABLE
  2
STYLE
  5
3
330
0
100
AcDbSymbolTable
 70
     1
  0
STYLE
  5
11
330
3
100
AcDbSymbolTableRecord
100
AcDbTextStyleTableRecord
  2
Standard
 70
     0
 40
0.0
 41
1.0
 50
0.0
 71
     0
 42
2.5
  3
txt
  4
extfont2
  0
ENDTAB
  0
TABLE
  2
VIEW
  5
6
330
0
100
AcDbSymbolTable
 70
     0
  0
ENDTAB
  0
TABLE
  2
UCS
  5
7
330
0
100
AcDbSymbolTable
 70
     0
  0
ENDTAB
  0
TABLE
  2
APPID
  5
9
330
0
100
AcDbSymbolTable
 70
     4
  0
APPID
  5
12
330
9
100
AcDbSymbolTableRecord
100
AcDbRegAppTableRecord
  2
ACAD
 70
     0
  0
APPID
  5
22E
330
9
100
AcDbSymbolTableRecord
100
AcDbRegAppTableRecord
  2
ACAD_MLEADERVER
 70
     0
  0
APPID
  5
243
330
9
100
AcDbSymbolTableRecord
100
AcDbRegAppTableRecord
  2
ACAD_NAV_VCDISPLAY
 70
     0
  0
APPID
  5
65A
330
9
100
AcDbSymbolTableRecord
100
AcDbRegAppTableRecord
  2
ACAD_EXEMPT_FROM_CAD_STANDARDS
 70
     0
  0
ENDTAB
  0
TABLE
  2
DIMSTYLE
  5
A
330
0
100
AcDbSymbolTable
 70
     2
100
AcDbDimStyleTable
 71
     1
340
27
  0
DIMSTYLE
105
27
330
A
100
AcDbSymbolTableRecord
100
AcDbDimStyleTableRecord
  2
Standard
 70
     0
 41
2.5
 42
0.625
 43
3.75
 44
1.25
 73
     0
 74
     0
 77
     1
140
2.5
141
2.5
143
0.03937007874016
146
0.75
147
0.625
171
     3
172
     1
271
     2
272
     2
274
     3
283
     0
284
     8
340
11
  0
ENDTAB
  0
TABLE
  2
BLOCK_RECORD
  5
1
330
0
100
AcDbSymbolTable
 70
     2
  0
BLOCK_RECORD
  5
1F
102
{ACAD_XDICTIONARY
360
4FE
102
}
330
1
100
AcDbSymbolTableRecord
100
AcDbBlockTableRecord
  2
*Model_Space
340
22
  0
BLOCK_RECORD
  5
1B
330
1
100
AcDbSymbolTableRecord
100
AcDbBlockTableRecord
  2
*Paper_Space
340
1E
  0
BLOCK_RECORD
  5
23
330
1
100
AcDbSymbolTableRecord
100
AcDbBlockTableRecord
  2
*Paper_Space0
340
238
  0
ENDTAB
  0
ENDSEC
  0
SECTION
  2
BLOCKS
  0
BLOCK
  5
20
330
1F
100
AcDbEntity
  8
0
100
AcDbBlockBegin
  2
*Model_Space
 70
     0
 10
0.0
 20
0.0
 30
0.0
  3
*Model_Space
  1

  0
ENDBLK
  5
21
330
1F
100
AcDbEntity
  8
0
100
AcDbBlockEnd
  0
BLOCK
  5
1C
330
1B
100
AcDbEntity
 67
     1
  8
0
100
AcDbBlockBegin
  2
*Paper_Space
 70
     0
 10
0.0
 20
0.0
 30
0.0
  3
*Paper_Space
  1

  0
ENDBLK
  5
1D
330
1B
100
AcDbEntity
 67
     1
  8
0
100
AcDbBlockEnd
  0
BLOCK
  5
24
330
23
100
AcDbEntity
 67
     1
  8
0
100
AcDbBlockBegin
  2
*Paper_Space0
 70
     0
 10
0.0
 20
0.0
 30
0.0
  3
*Paper_Space0
  1

  0
ENDBLK
  5
25
330
23
100
AcDbEntity
 67
     1
  8
0
100
AcDbBlockEnd
  0
ENDSEC
  0
SECTION
  2
ENTITIES
  0
ELLIPSE
  5
4D6
102
{ACAD_REACTORS
330
66C
102
}
330
1F
100
AcDbEntity
  8
実線
100
AcDbEllipse
 10
312.201068177412
 20
832.0703837279307
 30
0.0
 11
0.0
 21
19.05
 31
0.0
210
0.0
220
0.0
230
1.0
 40
0.7071067811865475
 41
0.1850360812483089
 42
2.956556572341482
  0
ELLIPSE
  5
4D7
102
{ACAD_REACTORS
330
66C
102
}
330
1F
100
AcDbEntity
  8
実線
100
AcDbEllipse
 10
295.2305054289348
 20
832.0703837279307
 30
0.0
 11
0.0
 21
25.25
 31
0.0
210
0.0
220
0.0
230
1.0
 40
0.7071067811865475
 41
1.570796326794897
 42
3.141592653589792
  0
ELLIPSE
  5
4D8
102
{ACAD_REACTORS
330
66C
102
}
330
1F
100
AcDbEntity
  8
実線
100
AcDbEllipse
 10
297.1750490771977
 20
832.0703837279307
 30
0.0
 11
0.0
 21
25.25
 31
0.0
210
0.0
220
0.0
230
1.0
 40
0.7071067811865475
 41
1.570796326794897
 42
3.141592653589792
  0
LINE
  5
4D9
102
{ACAD_REACTORS
330
66C
102
}
330
1F
100
AcDbEntity
  8
実線
100
AcDbLine
 10
295.2305054289348
 20
806.8203837279316
 30
0.0
 11
297.1750490771977
 21
806.8203837279316
 31
0.0
  0
LINE
  5
4DA
102
{ACAD_REACTORS
330
66C
102
}
330
1F
100
AcDbEntity
  8
実線
100
AcDbLine
 10
297.1750490771977
 20
857.3203837279306
 30
0.0
 11
295.2305054289348
 21
857.3203837279306
 31
0.0
  0
ELLIPSE
  5
4DB
102
{ACAD_REACTORS
330
66C
102
}
330
1F
100
AcDbEntity
  8
実線
100
AcDbEllipse
 10
295.2305054289348
 20
832.0703837279307
 30
0.0
 11
0.0
 21
25.25
 31
0.0
210
0.0
220
0.0
230
1.0
 40
0.7071067811865475
 41
0.0
 42
1.570796326794897
  0
ELLIPSE
  5
4DC
102
{ACAD_REACTORS
330
66C
102
}
330
1F
100
AcDbEntity
  8
実線
100
AcDbEllipse
 10
297.1750490771977
 20
832.0703837279307
 30
0.0
 11
0.0
 21
25.25
 31
0.0
210
0.0
220
0.0
230
1.0
 40
0.7071067811865475
 41
5.567213034553668
 42
6.283185307179584
  0
ELLIPSE
  5
4DD
102
{ACAD_REACTORS
330
66C
102
}
330
1F
100
AcDbEntity
  8
実線
100
AcDbEllipse
 10
297.1750490771977
 20
832.0703837279307
 30
0.0
 11
0.0
 21
25.25
 31
0.0
210
0.0
220
0.0
230
1.0
 40
0.7071067811865475
 41
3.141592653589792
 42
3.857564926215708
  0
ELLIPSE
  5
4DE
102
{ACAD_REACTORS
330
66C
102
}
330
1F
100
AcDbEntity
  8
実線
100
AcDbEllipse
 10
297.1750490771977
 20
832.0703837279307
 30
0.0
 11
0.0
 21
25.25
 31
0.0
210
0.0
220
0.0
230
1.0
 40
0.7071067811865475
 41
0.0
 42
1.570796326794897
  0
ELLIPSE
  5
4DF
102
{ACAD_REACTORS
330
66C
102
}
330
1F
100
AcDbEntity
  8
実線
100
AcDbEllipse
 10
298.8367500129861
 20
832.0703837279307
 30
0.0
 11
0.0
 21
19.05
 31
0.0
210
0.0
220
0.0
230
1.0
 40
0.7071067811865475
 41
1.570796326794897
 42
3.141592653589792
  0
ELLIPSE
  5
4E0
102
{ACAD_REACTORS
330
66C
102
}
330
1F
100
AcDbEntity
  8
実線
100
AcDbEllipse
 10
312.2010681774119
 20
832.0703837279307
 30
0.0
 11
0.0
 21
19.05
 31
0.0
210
0.0
220
0.0
230
1.0
 40
0.7071067811865475
 41
1.570796326794897
 42
2.956556572341486
  0
LINE
  5
4E1
102
{ACAD_REACTORS
330
66C
102
}
330
1F
100
AcDbEntity
  8
実線
100
AcDbLine
 10
298.8367500129861
 20
813.0203837279307
 30
0.0
 11
309.7946492968394
 21
813.0203837279307
 31
0.0
  0
LINE
  5
4E2
102
{ACAD_REACTORS
330
66C
102
}
330
1F
100
AcDbEntity
  8
実線
100
AcDbLine
 10
309.7946492968394
 20
851.1203837279307
 30
0.0
 11
298.8367500129861
 21
851.1203837279307
 31
0.0
  0
ELLIPSE
  5
4E3
102
{ACAD_REACTORS
330
66C
102
}
330
1F
100
AcDbEntity
  8
実線
100
AcDbEllipse
 10
298.8367500129861
 20
832.0703837279307
 30
0.0
 11
0.0
 21
19.05
 31
0.0
210
0.0
220
0.0
230
1.0
 40
0.7071067811865475
 41
0.0
 42
1.570796326794897
  0
ELLIPSE
  5
4E4
102
{ACAD_REACTORS
330
66C
102
}
330
1F
100
AcDbEntity
  8
実線
100
AcDbEllipse
 10
312.2010681774119
 20
832.0703837279307
 30
0.0
 11
0.0
 21
19.05
 31
0.0
210
0.0
220
0.0
230
1.0
 40
0.7071067811865475
 41
0.1850360812483048
 42
1.570796326794897
  0
CIRCLE
  5
4E7
102
{ACAD_REACTORS
330
66C
102
}
330
1F
100
AcDbEntity
  8
実線
100
AcDbCircle
 10
345.6982723818986
 20
881.5678584109866
 30
0.0
 40
9.5
  0
CIRCLE
  5
4EA
102
{ACAD_REACTORS
330
66C
102
}
330
1F
100
AcDbEntity
  8
実線
100
AcDbCircle
 10
345.6982723819036
 20
782.5729090448706
 30
0.0
 40
9.5
  0
CIRCLE
  5
4ED
102
{ACAD_REACTORS
330
66C
102
}
330
1F
100
AcDbEntity
  8
実線
100
AcDbCircle
 10
444.6932217480203
 20
782.5729090448755
 30
0.0
 40
9.5
  0
CIRCLE
  5
4F0
102
{ACAD_REACTORS
330
66C
102
}
330
1F
100
AcDbEntity
  8
実線
100
AcDbCircle
 10
444.6932217480152
 20
881.5678584109926
 30
0.0
 40
9.5
  0
CIRCLE
  5
4F1
102
{ACAD_REACTORS
330
66C
102
}
330
1F
100
AcDbEntity
  8
実線
100
AcDbCircle
 10
395.1957470649595
 20
832.0703837279307
 30
0.0
 40
87.5
  0
ARC
  5
4F2
102
{ACAD_REACTORS
330
66C
102
}
330
1F
100
AcDbEntity
  8
実線
100
AcDbCircle
 10
358.5483701218875
 20
871.0475534968145
 30
0.0
 40
8.000000000000021
100
AcDbArc
 50
120.6049082364346
 51
133.2354262571121
  0
ARC
  5
4F3
102
{ACAD_REACTORS
330
66C
102
}
330
1F
100
AcDbEntity
  8
実線
100
AcDbCircle
 10
395.1957470649596
 20
832.0703837279316
 30
0.0
 40
61.50000000000008
100
AcDbArc
 50
133.2354262571121
 51
136.7645737428901
  0
ARC
  5
4F4
102
{ACAD_REACTORS
330
66C
102
}
330
1F
100
AcDbEntity
  8
実線
100
AcDbCircle
 10
356.2185772960755
 20
868.7177606710026
 30
0.0
 40
7.999999999999996
100
AcDbArc
 50
136.7645737428901
 51
149.3950917635967
  0
ARC
  5
4F5
102
{ACAD_REACTORS
330
66C
102
}
330
1F
100
AcDbEntity
  8
実線
100
AcDbCircle
 10
434.1729168338433
 20
868.7177606710026
 30
0.0
 40
8.000000000000023
100
AcDbArc
 50
30.60490823642593
 51
43.23542625711447
  0
ARC
  5
4F6
102
{ACAD_REACTORS
330
66C
102
}
330
1F
100
AcDbEntity
  8
実線
100
AcDbCircle
 10
395.1957470649603
 20
832.0703837279316
 30
0.0
 40
61.49999999999885
100
AcDbArc
 50
43.23542625710987
 51
46.76457374288783
  0
ARC
  5
4F7
102
{ACAD_REACTORS
330
66C
102
}
330
1F
100
AcDbEntity
  8
実線
100
AcDbCircle
 10
431.8431240080315
 20
871.0475534968145
 30
0.0
 40
7.999999999999986
100
AcDbArc
 50
46.76457374288783
 51
59.39509176359893
  0
ARC
  5
4F8
102
{ACAD_REACTORS
330
66C
102
}
330
1F
100
AcDbEntity
  8
実線
100
AcDbCircle
 10
431.8431240080315
 20
793.0932139590475
 30
0.0
 40
8.000000000000008
100
AcDbArc
 50
300.6049082364405
 51
313.2354262571122
  0
ARC
  5
4F9
102
{ACAD_REACTORS
330
66C
102
}
330
1F
100
AcDbEntity
  8
実線
100
AcDbCircle
 10
395.1957470649595
 20
832.0703837279316
 30
0.0
 40
61.50000000000009
100
AcDbArc
 50
313.2354262571122
 51
316.7645737428902
  0
ARC
  5
4FA
102
{ACAD_REACTORS
330
66C
102
}
330
1F
100
AcDbEntity
  8
実線
100
AcDbCircle
 10
434.1729168338434
 20
795.4230067848595
 30
0.0
 40
7.999999999999995
100
AcDbArc
 50
316.7645737428902
 51
329.3950917635967
  0
ARC
  5
4FB
102
{ACAD_REACTORS
330
66C
102
}
330
1F
100
AcDbEntity
  8
実線
100
AcDbCircle
 10
356.2185772960755
 20
795.4230067848595
 30
0.0
 40
8.000000000000008
100
AcDbArc
 50
210.604908236434
 51
223.2354262571099
  0
ARC
  5
4FC
102
{ACAD_REACTORS
330
66C
102
}
330
1F
100
AcDbEntity
  8
実線
100
AcDbCircle
 10
395.1957470649604
 20
832.0703837279316
 30
0.0
 40
61.50000000000114
100
AcDbArc
 50
223.2354262571099
 51
226.7645737428878
  0
ARC
  5
4FD
102
{ACAD_REACTORS
330
66C
102
}
330
1F
100
AcDbEntity
  8
実線
100
AcDbCircle
 10
358.5483701218875
 20
793.0932139590475
 30
0.0
 40
8.000000000000008
100
AcDbArc
 50
226.7645737428878
 51
239.3950917635975
  0
CIRCLE
  5
500
102
{ACAD_REACTORS
330
66B
102
}
330
1F
100
AcDbEntity
  8
実線
100
AcDbCircle
 10
395.1957470649604
 20
112.0703837279309
 30
0.0
 40
44.0
  0
CIRCLE
  5
501
102
{ACAD_REACTORS
330
66B
102
}
330
1F
100
AcDbEntity
  8
実線
100
AcDbCircle
 10
395.1957470649604
 20
112.0703837279309
 30
0.0
 40
42.5
  0
CIRCLE
  5
502
102
{ACAD_REACTORS
330
66B
102
}
330
1F
100
AcDbEntity
  8
実線
100
AcDbCircle
 10
395.1957470649604
 20
112.0703837279309
 30
0.0
 40
16.5
  0
CIRCLE
  5
503
102
{ACAD_REACTORS
330
66B
102
}
330
1F
100
AcDbEntity
  8
実線
100
AcDbCircle
 10
395.1957470649604
 20
112.0703837279309
 30
0.0
 40
43.3
  0
LINE
  5
504
102
{ACAD_REACTORS
330
66B
102
}
330
1F
100
AcDbEntity
  8
実線
100
AcDbLine
 10
312.201068177412
 20
93.02038372793157
 30
0.0
 11
346.4957470649596
 21
93.02038372793157
 31
0.0
  0
LINE
  5
505
102
{ACAD_REACTORS
330
66B
102
}
330
1F
100
AcDbEntity
  8
実線
100
AcDbLine
 10
346.4957470649596
 20
131.1203837279315
 30
0.0
 11
312.201068177412
 21
131.1203837279315
 31
0.0
  0
ELLIPSE
  5
506
102
{ACAD_REACTORS
330
66B
102
}
330
1F
100
AcDbEntity
  8
実線
100
AcDbEllipse
 10
312.201068177412
 20
112.0703837279316
 30
0.0
 11
0.0
 21
19.05
 31
0.0
210
0.0
220
0.0
230
1.0
 40
0.7071067811865475
 41
3.141592653589792
 42
6.283185307179584
  0
LINE
  5
507
102
{ACAD_REACTORS
330
66B
102
}
330
1F
100
AcDbEntity
  8
実線
100
AcDbLine
 10
308.8938374104685
 20
93.02038372793157
 30
0.0
 11
312.2010681774119
 21
93.02038372793157
 31
0.0
  0
LINE
  5
508
102
{ACAD_REACTORS
330
66B
102
}
330
1F
100
AcDbEntity
  8
実線
100
AcDbLine
 10
312.2010681774119
 20
131.1203837279315
 30
0.0
 11
308.8938374104685
 21
131.1203837279315
 31
0.0
  0
ELLIPSE
  5
509
102
{ACAD_REACTORS
330
66B
102
}
330
1F
100
AcDbEntity
  8
実線
100
AcDbEllipse
 10
312.2010681774119
 20
112.0703837279316
 30
0.0
 11
0.0
 21
19.05
 31
0.0
210
0.0
220
0.0
230
1.0
 40
0.7071067811865475
 41
3.141592653589792
 42
6.283185307179584
  0
LINE
  5
50A
102
{ACAD_REACTORS
330
66B
102
}
330
1F
100
AcDbEntity
  8
実線
100
AcDbLine
 10
295.2305054289348
 20
86.82038372793158
 30
0.0
 11
297.1750490771977
 21
86.82038372793158
 31
0.0
  0
LINE
  5
50B
102
{ACAD_REACTORS
330
66B
102
}
330
1F
100
AcDbEntity
  8
実線
100
AcDbLine
 10
297.1750490771977
 20
137.3203837279316
 30
0.0
 11
295.2305054289348
 21
137.3203837279316
 31
0.0
  0
ELLIPSE
  5
50C
102
{ACAD_REACTORS
330
66B
102
}
330
1F
100
AcDbEntity
  8
実線
100
AcDbEllipse
 10
295.2305054289348
 20
112.0703837279316
 30
0.0
 11
0.0
 21
25.25
 31
0.0
210
0.0
220
0.0
230
1.0
 40
0.7071067811865475
 41
3.141592653589792
 42
6.283185307179584
  0
ELLIPSE
  5
50D
102
{ACAD_REACTORS
330
66B
102
}
330
1F
100
AcDbEntity
  8
実線
100
AcDbEllipse
 10
295.2305054289348
 20
112.0703837279316
 30
0.0
 11
0.0
 21
25.25
 31
0.0
210
0.0
220
0.0
230
1.0
 40
0.7071067811865475
 41
1.570796326794897
 42
3.141592653589792
  0
ELLIPSE
  5
50E
102
{ACAD_REACTORS
330
66B
102
}
330
1F
100
AcDbEntity
  8
実線
100
AcDbEllipse
 10
297.1750490771977
 20
112.0703837279316
 30
0.0
 11
0.0
 21
25.25
 31
0.0
210
0.0
220
0.0
230
1.0
 40
0.7071067811865475
 41
3.141592653589792
 42
6.283185307179584
  0
ELLIPSE
  5
50F
102
{ACAD_REACTORS
330
66B
102
}
330
1F
100
AcDbEntity
  8
実線
100
AcDbEllipse
 10
295.2305054289348
 20
112.0703837279316
 30
0.0
 11
0.0
 21
25.25
 31
0.0
210
0.0
220
0.0
230
1.0
 40
0.7071067811865475
 41
0.0
 42
1.570796326794897
  0
LINE
  5
510
102
{ACAD_REACTORS
330
66B
102
}
330
1F
100
AcDbEntity
  8
実線
100
AcDbLine
 10
346.4957470649596
 20
93.02038372793157
 30
0.0
 11
348.9669951890982
 21
93.02038372793157
 31
0.0
  0
LINE
  5
511
102
{ACAD_REACTORS
330
66B
102
}
330
1F
100
AcDbEntity
  8
実線
100
AcDbLine
 10
348.966995189099
 20
131.1203837279315
 30
0.0
 11
346.4957470649596
 21
131.1203837279315
 31
0.0
  0
LINE
  5
512
102
{ACAD_REACTORS
330
66B
102
}
330
1F
100
AcDbEntity
  8
実線
100
AcDbLine
 10
346.4957470649596
 20
100.7429833200742
 30
0.0
 11
346.4957470649596
 21
93.02038372793157
 31
0.0
  0
LINE
  5
513
102
{ACAD_REACTORS
330
66B
102
}
330
1F
100
AcDbEntity
  8
実線
100
AcDbLine
 10
346.4957470649596
 20
131.1203837279315
 30
0.0
 11
346.4957470649596
 21
123.3977841357874
 31
0.0
  0
ARC
  5
516
102
{ACAD_REACTORS
330
66B
102
}
330
1F
100
AcDbEntity
  8
実線
100
AcDbCircle
 10
345.6982723819036
 20
161.5678584109924
 30
0.0
 40
9.5
100
AcDbArc
 50
337.5050593331463
 51
292.4949406668325
  0
ARC
  5
519
102
{ACAD_REACTORS
330
66B
102
}
330
1F
100
AcDbEntity
  8
実線
100
AcDbCircle
 10
345.6982723818986
 20
62.57290904487581
 30
0.0
 40
9.5
100
AcDbArc
 50
67.5050593331472
 51
22.49494066683313
  0
ARC
  5
51C
102
{ACAD_REACTORS
330
66B
102
}
330
1F
100
AcDbEntity
  8
実線
100
AcDbCircle
 10
444.6932217480203
 20
161.5678584109873
 30
0.0
 40
9.5
100
AcDbArc
 50
247.505059333153
 51
202.4949406668258
  0
ARC
  5
51F
102
{ACAD_REACTORS
330
66B
102
}
330
1F
100
AcDbEntity
  8
実線
100
AcDbCircle
 10
444.6932217480152
 20
62.5729090448707
 30
0.0
 40
9.5
100
AcDbArc
 50
157.5050593331463
 51
112.4949406668413
  0
ARC
  5
520
102
{ACAD_REACTORS
330
66B
102
}
330
1F
100
AcDbEntity
  8
実線
100
AcDbCircle
 10
395.1957470649595
 20
112.0703837279316
 30
0.0
 40
87.5
100
AcDbArc
 50
192.5748173771462
 51
167.4251826228538
  0
ARC
  5
521
102
{ACAD_REACTORS
330
66B
102
}
330
1F
100
AcDbEntity
  8
実線
100
AcDbCircle
 10
395.1957470649595
 20
112.0703837279316
 30
0.0
 40
61.50000000000114
100
AcDbArc
 50
313.2354262571122
 51
316.7645737428902
  0
LINE
  5
522
102
{ACAD_REACTORS
330
66B
102
}
330
1F
100
AcDbEntity
  8
実線
100
AcDbLine
 10
440.7261331881561
 20
80.01161827566727
 30
0.0
 11
437.2335051450281
 21
84.99960805375218
 31
0.0
  0
ARC
  5
523
102
{ACAD_REACTORS
330
66B
102
}
330
1F
100
AcDbEntity
  8
実線
100
AcDbCircle
 10
434.1729168338442
 20
75.4230067848589
 30
0.0
 40
8.000000000000008
100
AcDbArc
 50
316.7645737428902
 51
34.99999999999737
  0
LINE
  5
524
102
{ACAD_REACTORS
330
66B
102
}
330
1F
100
AcDbEntity
  8
実線
100
AcDbLine
 10
353.1579889848928
 20
84.99960805375218
 30
0.0
 11
349.6653609417647
 21
80.0116182756671
 31
0.0
  0
ARC
  5
525
102
{ACAD_REACTORS
330
66B
102
}
330
1F
100
AcDbEntity
  8
実線
100
AcDbCircle
 10
356.2185772960765
 20
75.4230067848589
 30
0.0
 40
7.999999999999995
100
AcDbArc
 50
145.0000000000026
 51
223.2354262571099
  0
ARC
  5
526
102
{ACAD_REACTORS
330
66B
102
}
330
1F
100
AcDbEntity
  8
実線
100
AcDbCircle
 10
395.1957470649603
 20
112.0703837279309
 30
0.0
 40
61.50000000000009
100
AcDbArc
 50
223.2354262571099
 51
226.7645737428878
  0
LINE
  5
527
102
{ACAD_REACTORS
330
66B
102
}
330
1F
100
AcDbEntity
  8
実線
100
AcDbLine
 10
422.2665227391391
 20
70.03262564786314
 30
0.0
 11
427.2545125172241
 21
66.53999760473505
 31
0.0
  0
ARC
  5
528
102
{ACAD_REACTORS
330
66B
102
}
330
1F
100
AcDbEntity
  8
実線
100
AcDbCircle
 10
431.8431240080325
 20
73.09321395904703
 30
0.0
 40
8.000000000000008
100
AcDbArc
 50
235.0000000000026
 51
313.2354262571122
  0
ARC
  5
529
102
{ACAD_REACTORS
330
66B
102
}
330
1F
100
AcDbEntity
  8
実線
100
AcDbCircle
 10
358.5483701218884
 20
151.0475534968148
 30
0.0
 40
7.999999999999986
100
AcDbArc
 50
55.00000000000264
 51
133.2354262571121
  0
ARC
  5
52A
102
{ACAD_REACTORS
330
66B
102
}
330
1F
100
AcDbEntity
  8
実線
100
AcDbCircle
 10
395.1957470649596
 20
112.0703837279317
 30
0.0
 40
61.49999999999885
100
AcDbArc
 50
133.2354262571121
 51
136.7645737428901
  0
ARC
  5
52B
102
{ACAD_REACTORS
330
66B
102
}
330
1F
100
AcDbEntity
  8
実線
100
AcDbCircle
 10
356.2185772960765
 20
148.7177606710029
 30
0.0
 40
8.000000000000023
100
AcDbArc
 50
136.7645737428855
 51
214.9999999999974
  0
LINE
  5
52C
102
{ACAD_REACTORS
330
66B
102
}
330
1F
100
AcDbEntity
  8
実線
100
AcDbLine
 10
437.2335051450281
 20
139.1411594021094
 30
0.0
 11
440.7261331881561
 21
144.1291491801945
 31
0.0
  0
ARC
  5
52D
102
{ACAD_REACTORS
330
66B
102
}
330
1F
100
AcDbEntity
  8
実線
100
AcDbCircle
 10
434.1729168338442
 20
148.7177606710029
 30
0.0
 40
7.999999999999996
100
AcDbArc
 50
325.0000000000026
 51
43.23542625710987
  0
ARC
  5
52E
102
{ACAD_REACTORS
330
66B
102
}
330
1F
100
AcDbEntity
  8
実線
100
AcDbCircle
 10
395.1957470649601
 20
112.0703837279309
 30
0.0
 40
61.50000000000008
100
AcDbArc
 50
43.23542625710987
 51
46.76457374288783
  0
ARC
  5
52F
102
{ACAD_REACTORS
330
66B
102
}
330
1F
100
AcDbEntity
  8
実線
100
AcDbCircle
 10
431.8431240080325
 20
151.0475534968146
 30
0.0
 40
8.000000000000021
100
AcDbArc
 50
46.76457374288783
 51
124.9999999999974
  0
LINE
  5
530
102
{ACAD_REACTORS
330
66B
102
}
330
1F
100
AcDbEntity
  8
実線
100
AcDbLine
 10
427.2545125172241
 20
157.6007698511266
 30
0.0
 11
422.2665227391391
 21
154.1081418079986
 31
0.0
  0
LINE
  5
531
102
{ACAD_REACTORS
330
66B
102
}
330
1F
100
AcDbEntity
  8
実線
100
AcDbLine
 10
368.1249713907819
 20
154.1081418079986
 30
0.0
 11
363.1369816126967
 21
157.6007698511266
 31
0.0
  0
LINE
  5
532
102
{ACAD_REACTORS
330
66B
102
}
330
1F
100
AcDbEntity
  8
実線
100
AcDbLine
 10
349.6653609417647
 20
144.1291491801945
 30
0.0
 11
353.1579889848928
 21
139.1411594021094
 31
0.0
  0
ARC
  5
533
102
{ACAD_REACTORS
330
66B
102
}
330
1F
100
AcDbEntity
  8
実線
100
AcDbCircle
 10
358.5483701218884
 20
73.09321395904703
 30
0.0
 40
8.000000000000008
100
AcDbArc
 50
226.7645737428878
 51
304.9999999999974
  0
LINE
  5
534
102
{ACAD_REACTORS
330
66B
102
}
330
1F
100
AcDbEntity
  8
実線
100
AcDbLine
 10
363.1369816126967
 20
66.53999760473505
 30
0.0
 11
368.1249713907819
 21
70.03262564786314
 31
0.0
  0
CIRCLE
  5
535
102
{ACAD_REACTORS
330
66B
102
}
330
1F
100
AcDbEntity
  8
実線
100
AcDbCircle
 10
395.1957470649604
 20
112.0703837279309
 30
0.0
 40
50.0
  0
LINE
  5
536
102
{ACAD_REACTORS
330
667
102
}
330
1F
100
AcDbEntity
  8
実線
100
AcDbLine
 10
825.1957470649584
 20
499.3703837279307
 30
0.0
 11
925.1957470649584
 21
499.3703837279307
 31
0.0
  0
LINE
  5
537
102
{ACAD_REACTORS
330
667
102
}
330
1F
100
AcDbEntity
  8
実線
100
AcDbLine
 10
825.1957470649584
 20
499.3703837279307
 30
0.0
 11
825.1957470649584
 21
423.3703837279307
 31
0.0
  0
LINE
  5
538
102
{ACAD_REACTORS
330
667
102
}
330
1F
100
AcDbEntity
  8
実線
100
AcDbLine
 10
925.1957470649584
 20
423.370383727931
 30
0.0
 11
925.1957470649584
 21
499.3703837279307
 31
0.0
  0
LINE
  5
539
102
{ACAD_REACTORS
330
667
102
}
330
1F
100
AcDbEntity
  8
実線
100
AcDbLine
 10
869.1957470649583
 20
569.8703837279307
 30
0.0
 11
869.1957470649583
 21
542.8703837279307
 31
0.0
  0
LINE
  5
53A
102
{ACAD_REACTORS
330
667
102
}
330
1F
100
AcDbEntity
  8
実線
100
AcDbLine
 10
881.1957470649584
 20
542.8703837279307
 30
0.0
 11
881.1957470649584
 21
569.8703837279307
 31
0.0
  0
LINE
  5
53B
102
{ACAD_REACTORS
330
667
102
}
330
1F
100
AcDbEntity
  8
実線
100
AcDbLine
 10
831.1957470649584
 20
394.370383727931
 30
0.0
 11
919.1957470649583
 21
394.370383727931
 31
0.0
  0
LINE
  5
53C
102
{ACAD_REACTORS
330
667
102
}
330
1F
100
AcDbEntity
  8
実線
100
AcDbLine
 10
918.4957470649584
 20
390.6703837279309
 30
0.0
 11
919.1957470649583
 21
394.370383727931
 31
0.0
  0
LINE
  5
53D
102
{ACAD_REACTORS
330
667
102
}
330
1F
100
AcDbEntity
  8
実線
100
AcDbLine
 10
831.1957470649584
 20
394.370383727931
 30
0.0
 11
831.8957470649584
 21
390.6703837279309
 31
0.0
  0
LINE
  5
53E
102
{ACAD_REACTORS
330
667
102
}
330
1F
100
AcDbEntity
  8
実線
100
AcDbLine
 10
831.8957470649584
 20
390.6703837279309
 30
0.0
 11
918.4957470649584
 21
390.6703837279309
 31
0.0
  0
LINE
  5
53F
102
{ACAD_REACTORS
330
667
102
}
330
1F
100
AcDbEntity
  8
実線
100
AcDbLine
 10
832.6957470649583
 20
277.670383727931
 30
0.0
 11
917.6957470649583
 21
277.670383727931
 31
0.0
  0
LINE
  5
540
102
{ACAD_REACTORS
330
667
102
}
330
1F
100
AcDbEntity
  8
実線
100
AcDbLine
 10
891.6957470649583
 20
268.470383727931
 30
0.0
 11
917.6957470649583
 21
277.670383727931
 31
0.0
  0
LINE
  5
541
102
{ACAD_REACTORS
330
667
102
}
330
1F
100
AcDbEntity
  8
実線
100
AcDbLine
 10
832.6957470649583
 20
277.670383727931
 30
0.0
 11
858.6957470649583
 21
268.470383727931
 31
0.0
  0
LINE
  5
542
102
{ACAD_REACTORS
330
667
102
}
330
1F
100
AcDbEntity
  8
実線
100
AcDbLine
 10
858.6957470649583
 20
268.470383727931
 30
0.0
 11
891.6957470649583
 21
268.470383727931
 31
0.0
  0
LINE
  5
543
102
{ACAD_REACTORS
330
667
102
}
330
1F
100
AcDbEntity
  8
実線
100
AcDbLine
 10
832.6957470649583
 20
354.6703837279309
 30
0.0
 11
832.6957470649583
 21
277.670383727931
 31
0.0
  0
LINE
  5
544
102
{ACAD_REACTORS
330
667
102
}
330
1F
100
AcDbEntity
  8
実線
100
AcDbLine
 10
917.6957470649583
 20
277.6703837279309
 30
0.0
 11
917.6957470649583
 21
354.6703837279307
 31
0.0
  0
LINE
  5
545
102
{ACAD_REACTORS
330
667
102
}
330
1F
100
AcDbEntity
  8
実線
100
AcDbLine
 10
831.8957470649584
 20
390.6703837279308
 30
0.0
 11
831.8957470649584
 21
354.6703837279309
 31
0.0
  0
LINE
  5
546
102
{ACAD_REACTORS
330
667
102
}
330
1F
100
AcDbEntity
  8
実線
100
AcDbLine
 10
918.4957470649584
 20
354.670383727931
 30
0.0
 11
918.4957470649584
 21
390.6703837279309
 31
0.0
  0
LINE
  5
547
102
{ACAD_REACTORS
330
667
102
}
330
1F
100
AcDbEntity
  8
実線
100
AcDbLine
 10
831.8957470649584
 20
354.670383727931
 30
0.0
 11
918.4957470649584
 21
354.670383727931
 31
0.0
  0
LINE
  5
548
102
{ACAD_REACTORS
330
667
102
}
330
1F
100
AcDbEntity
  8
実線
100
AcDbLine
 10
862.1957470649583
 20
407.3703837279309
 30
0.0
 11
862.1957470649583
 21
394.3703837279307
 31
0.0
  0
LINE
  5
549
102
{ACAD_REACTORS
330
667
102
}
330
1F
100
AcDbEntity
  8
実線
100
AcDbLine
 10
888.1957470649583
 20
394.3703837279307
 30
0.0
 11
888.1957470649583
 21
407.3703837279307
 31
0.0
  0
LINE
  5
54A
102
{ACAD_REACTORS
330
667
102
}
330
1F
100
AcDbEntity
  8
実線
100
AcDbLine
 10
840.1957470649584
 20
418.870383727931
 30
0.0
 11
840.1957470649584
 21
407.3703837279309
 31
0.0
  0
LINE
  5
54B
102
{ACAD_REACTORS
330
667
102
}
330
1F
100
AcDbEntity
  8
実線
100
AcDbLine
 10
910.1957470649583
 20
407.3703837279309
 30
0.0
 11
910.1957470649583
 21
418.870383727931
 31
0.0
  0
LINE
  5
54C
102
{ACAD_REACTORS
330
667
102
}
330
1F
100
AcDbEntity
  8
実線
100
AcDbLine
 10
840.1957470649584
 20
407.3703837279309
 30
0.0
 11
910.1957470649583
 21
407.3703837279309
 31
0.0
  0
LINE
  5
54D
102
{ACAD_REACTORS
330
667
102
}
330
1F
100
AcDbEntity
  8
実線
100
AcDbLine
 10
923.8957470649594
 20
630.3203837279307
 30
0.0
 11
923.8957470649594
 21
592.2203837279307
 31
0.0
  0
ARC
  5
54E
102
{ACAD_REACTORS
330
667
102
}
330
1F
100
AcDbEntity
  8
実線
100
AcDbCircle
 10
923.8957470649594
 20
562.7703837279309
 30
0.0
 40
67.54999999999999
100
AcDbArc
 50
45.0
 51
90.0
  0
ARC
  5
54F
102
{ACAD_REACTORS
330
667
102
}
330
1F
100
AcDbEntity
  8
実線
100
AcDbCircle
 10
923.8957470649594
 20
562.7703837279309
 30
0.0
 40
29.45
100
AcDbArc
 50
45.0
 51
90.0
  0
LINE
  5
550
102
{ACAD_REACTORS
330
667
102
}
330
1F
100
AcDbEntity
  8
実線
100
AcDbLine
 10
985.0251282985366
 20
597.1711286326564
 30
0.0
 11
971.6608101341103
 21
610.5354467970823
 31
0.0
  0
LINE
  5
551
102
{ACAD_REACTORS
330
667
102
}
330
1F
100
AcDbEntity
  8
実線
100
AcDbLine
 10
944.7200417709034
 20
583.5946784338745
 30
0.0
 11
958.0843599353286
 21
570.2303602694491
 31
0.0
  0
LINE
  5
552
102
{ACAD_REACTORS
330
667
102
}
330
1F
100
AcDbEntity
  8
実線
100
AcDbLine
 10
971.6608101341103
 20
610.5354467970823
 30
0.0
 11
944.7200417709034
 21
583.5946784338748
 31
0.0
  0
LINE
  5
553
102
{ACAD_REACTORS
330
667
102
}
330
1F
100
AcDbEntity
  8
実線
100
AcDbLine
 10
958.0843599353286
 20
570.2303602694491
 30
0.0
 11
955.3619988277604
 21
564.1845972903039
 31
0.0
  0
LINE
  5
554
102
{ACAD_REACTORS
330
667
102
}
330
1F
100
AcDbEntity
  8
実線
100
AcDbLine
 10
991.0708912776815
 20
599.8934897402245
 30
0.0
 11
985.0251282985366
 21
597.1711286326563
 31
0.0
  0
LINE
  5
555
102
{ACAD_REACTORS
330
667
102
}
330
1F
100
AcDbEntity
  8
実線
100
AcDbLine
 10
958.0843599353286
 20
570.2303602694491
 30
0.0
 11
985.0251282985366
 21
597.1711286326563
 31
0.0
  0
LINE
  5
556
102
{ACAD_REACTORS
330
667
102
}
330
1F
100
AcDbEntity
  8
実線
100
AcDbLine
 10
993.0154349259444
 20
597.9489460919616
 30
0.0
 11
991.0708912776815
 21
599.8934897402245
 31
0.0
  0
LINE
  5
557
102
{ACAD_REACTORS
330
667
102
}
330
1F
100
AcDbEntity
  8
実線
100
AcDbLine
 10
955.3619988277604
 20
564.1845972903039
 30
0.0
 11
957.3065424760233
 21
562.2400536420411
 31
0.0
  0
LINE
  5
558
102
{ACAD_REACTORS
330
667
102
}
330
1F
100
AcDbEntity
  8
実線
100
AcDbLine
 10
993.0154349259444
 20
597.9489460919616
 30
0.0
 11
957.3065424760233
 21
562.2400536420411
 31
0.0
  0
LINE
  5
559
102
{ACAD_REACTORS
330
667
102
}
330
1F
100
AcDbEntity
  8
実線
100
AcDbLine
 10
991.0708912776815
 20
599.8934897402245
 30
0.0
 11
955.3619988277604
 21
564.1845972903039
 31
0.0
  0
LINE
  5
55A
102
{ACAD_REACTORS
330
667
102
}
330
1F
100
AcDbEntity
  8
実線
100
AcDbLine
 10
923.8957470649594
 20
630.3203837279307
 30
0.0
 11
911.3301600181824
 21
630.3203837279307
 31
0.0
  0
LINE
  5
55B
102
{ACAD_REACTORS
330
667
102
}
330
1F
100
AcDbEntity
  8
実線
100
AcDbLine
 10
922.1729168338434
 20
592.220383727931
 30
0.0
 11
923.8957470649594
 21
592.220383727931
 31
0.0
  0
LINE
  5
55C
102
{ACAD_REACTORS
330
667
102
}
330
1F
100
AcDbEntity
  8
実線
100
AcDbLine
 10
787.6957470649594
 20
634.0703837279307
 30
0.0
 11
962.6957470649593
 21
634.0703837279307
 31
0.0
  0
LINE
  5
55D
102
{ACAD_REACTORS
330
667
102
}
330
1F
100
AcDbEntity
  8
実線
100
AcDbLine
 10
962.6957470649593
 20
652.0703837279308
 30
0.0
 11
787.6957470649594
 21
652.0703837279308
 31
0.0
  0
LINE
  5
55E
102
{ACAD_REACTORS
330
667
102
}
330
1F
100
AcDbEntity
  8
実線
100
AcDbLine
 10
962.6957470649593
 20
634.0703837279307
 30
0.0
 11
962.6957470649593
 21
652.0703837279308
 31
0.0
  0
LINE
  5
55F
102
{ACAD_REACTORS
330
667
102
}
330
1F
100
AcDbEntity
  8
実線
100
AcDbLine
 10
787.6957470649594
 20
652.0703837279308
 30
0.0
 11
787.6957470649594
 21
634.0703837279307
 31
0.0
  0
ARC
  5
560
102
{ACAD_REACTORS
330
667
102
}
330
1F
100
AcDbEntity
  8
実線
100
AcDbCircle
 10
902.1957470649594
 20
621.0703837279309
 30
0.0
 40
13.0
100
AcDbArc
 50
45.36022704139554
 51
90.0
  0
ARC
  5
561
102
{ACAD_REACTORS
330
667
102
}
330
1F
100
AcDbEntity
  8
実線
100
AcDbCircle
 10
848.1957470649595
 20
621.0703837279309
 30
0.0
 40
13.0
100
AcDbArc
 50
90.0
 51
180.0
  0
LINE
  5
562
102
{ACAD_REACTORS
330
667
102
}
330
1F
100
AcDbEntity
  8
実線
100
AcDbLine
 10
835.1957470649594
 20
621.0703837279309
 30
0.0
 11
835.1957470649594
 21
593.3703837279307
 31
0.0
  0
LINE
  5
563
102
{ACAD_REACTORS
330
667
102
}
330
1F
100
AcDbEntity
  8
実線
100
AcDbLine
 10
922.1729168338434
 20
583.3703837279307
 30
0.0
 11
922.1729168338434
 21
593.3703837279307
 31
0.0
  0
LINE
  5
564
102
{ACAD_REACTORS
330
667
102
}
330
1F
100
AcDbEntity
  8
実線
100
AcDbLine
 10
922.1729168338434
 20
593.3703837279307
 30
0.0
 11
893.2246438753834
 21
593.3703837279307
 31
0.0
  0
LINE
  5
565
102
{ACAD_REACTORS
330
667
102
}
330
1F
100
AcDbEntity
  8
実線
100
AcDbLine
 10
828.2185772960755
 20
593.3703837279307
 30
0.0
 11
857.1668502545353
 21
593.3703837279307
 31
0.0
  0
LINE
  5
566
102
{ACAD_REACTORS
330
667
102
}
330
1F
100
AcDbEntity
  8
実線
100
AcDbLine
 10
828.2185772960755
 20
593.3703837279307
 30
0.0
 11
828.2185772960755
 21
583.3703837279307
 31
0.0
  0
LINE
  5
567
102
{ACAD_REACTORS
330
667
102
}
330
1F
100
AcDbEntity
  8
実線
100
AcDbLine
 10
857.1668502545353
 20
583.3703837279307
 30
0.0
 11
857.1668502545353
 21
593.3703837279307
 31
0.0
  0
LINE
  5
568
102
{ACAD_REACTORS
330
667
102
}
330
1F
100
AcDbEntity
  8
実線
100
AcDbLine
 10
893.2246438753834
 20
583.3703837279307
 30
0.0
 11
893.2246438753834
 21
593.3703837279307
 31
0.0
  0
ARC
  5
569
102
{ACAD_REACTORS
330
667
102
}
330
1F
100
AcDbEntity
  8
実線
100
AcDbCircle
 10
898.8957470649584
 20
528.8703837279307
 30
0.0
 40
57.99999999999997
100
AcDbArc
 50
135.0170320401021
 51
166.0320373253524
  0
LINE
  5
56A
102
{ACAD_REACTORS
330
667
102
}
330
1F
100
AcDbEntity
  8
実線
100
AcDbLine
 10
830.8957470649584
 20
499.3703837279307
 30
0.0
 11
830.8957470649584
 21
528.8703837279307
 31
0.0
  0
ARC
  5
56B
102
{ACAD_REACTORS
330
667
102
}
330
1F
100
AcDbEntity
  8
実線
100
AcDbCircle
 10
900.8957470649583
 20
528.8703837279307
 30
0.0
 40
70.00000000000003
100
AcDbArc
 50
144.1465329365336
 51
180.0
  0
ARC
  5
56C
102
{ACAD_REACTORS
330
667
102
}
330
1F
100
AcDbEntity
  8
実線
100
AcDbCircle
 10
851.4957470649584
 20
528.8703837279307
 30
0.0
 40
57.99999999999997
100
AcDbArc
 50
13.96796267464757
 51
44.98296795989785
  0
LINE
  5
56D
102
{ACAD_REACTORS
330
667
102
}
330
1F
100
AcDbEntity
  8
実線
100
AcDbLine
 10
919.4957470649583
 20
499.3703837279307
 30
0.0
 11
919.4957470649583
 21
528.8703837279307
 31
0.0
  0
ARC
  5
56E
102
{ACAD_REACTORS
330
667
102
}
330
1F
100
AcDbEntity
  8
実線
100
AcDbCircle
 10
849.4957470649582
 20
528.8703837279307
 30
0.0
 40
70.00000000000003
100
AcDbArc
 50
0.0
 51
35.85346706346634
  0
LINE
  5
56F
102
{ACAD_REACTORS
330
667
102
}
330
1F
100
AcDbEntity
  8
実線
100
AcDbLine
 10
836.8103657329983
 20
499.3703837279307
 30
0.0
 11
836.8103657329983
 21
542.8703837279307
 31
0.0
  0
LINE
  5
570
102
{ACAD_REACTORS
330
667
102
}
330
1F
100
AcDbEntity
  8
実線
100
AcDbLine
 10
913.5811283969182
 20
499.3703837279307
 30
0.0
 11
913.5811283969182
 21
542.8703837279307
 31
0.0
  0
LINE
  5
571
102
{ACAD_REACTORS
330
667
102
}
330
1F
100
AcDbEntity
  8
実線
100
AcDbLine
 10
913.5811283969182
 20
542.8703837279309
 30
0.0
 11
836.8103657329983
 21
542.8703837279309
 31
0.0
  0
LINE
  5
572
102
{ACAD_REACTORS
330
667
102
}
330
1F
100
AcDbEntity
  8
実線
100
AcDbLine
 10
922.1729168338425
 20
583.3703837279307
 30
0.0
 11
828.2185772960744
 21
583.3703837279307
 31
0.0
  0
LINE
  5
573
102
{ACAD_REACTORS
330
667
102
}
330
1F
100
AcDbEntity
  8
実線
100
AcDbLine
 10
922.1729168338425
 20
569.8703837279307
 30
0.0
 11
828.2185772960744
 21
569.8703837279307
 31
0.0
  0
LINE
  5
574
102
{ACAD_REACTORS
330
667
102
}
330
1F
100
AcDbEntity
  8
実線
100
AcDbLine
 10
828.2185772960744
 20
583.3703837279307
 30
0.0
 11
828.2185772960744
 21
569.8703837279307
 31
0.0
  0
LINE
  5
575
102
{ACAD_REACTORS
330
667
102
}
330
1F
100
AcDbEntity
  8
実線
100
AcDbLine
 10
922.1729168338425
 20
569.8703837279307
 30
0.0
 11
922.1729168338425
 21
583.3703837279307
 31
0.0
  0
LINE
  5
576
102
{ACAD_REACTORS
330
667
102
}
330
1F
100
AcDbEntity
  8
実線
100
AcDbLine
 10
893.2246438753825
 20
569.8703837279307
 30
0.0
 11
893.2246438753825
 21
583.3703837279307
 31
0.0
  0
LINE
  5
577
102
{ACAD_REACTORS
330
667
102
}
330
1F
100
AcDbEntity
  8
実線
100
AcDbLine
 10
857.1668502545344
 20
569.8703837279307
 30
0.0
 11
857.1668502545344
 21
583.3703837279307
 31
0.0
  0
LINE
  5
578
102
{ACAD_REACTORS
330
667
102
}
330
1F
100
AcDbEntity
  8
実線
100
AcDbLine
 10
925.1957470649584
 20
423.370383727931
 30
0.0
 11
825.1957470649584
 21
423.370383727931
 31
0.0
  0
LINE
  5
579
102
{ACAD_REACTORS
330
667
102
}
330
1F
100
AcDbEntity
  8
実線
100
AcDbLine
 10
825.1957470649584
 20
423.370383727931
 30
0.0
 11
825.1957470649584
 21
421.8703837279309
 31
0.0
  0
LINE
  5
57A
102
{ACAD_REACTORS
330
667
102
}
330
1F
100
AcDbEntity
  8
実線
100
AcDbLine
 10
925.1957470649584
 20
421.8703837279309
 30
0.0
 11
925.1957470649584
 21
423.370383727931
 31
0.0
  0
LINE
  5
57B
102
{ACAD_REACTORS
330
667
102
}
330
1F
100
AcDbEntity
  8
実線
100
AcDbLine
 10
922.1957470649583
 20
418.870383727931
 30
0.0
 11
828.1957470649583
 21
418.870383727931
 31
0.0
  0
ARC
  5
57C
102
{ACAD_REACTORS
330
667
102
}
330
1F
100
AcDbEntity
  8
実線
100
AcDbCircle
 10
828.1957470649583
 20
421.8703837279309
 30
0.0
 40
3.0
100
AcDbArc
 50
180.0
 51
270.0
  0
ARC
  5
57D
102
{ACAD_REACTORS
330
667
102
}
330
1F
100
AcDbEntity
  8
実線
100
AcDbCircle
 10
922.1957470649583
 20
421.8703837279309
 30
0.0
 40
3.0
100
AcDbArc
 50
270.0
 51
0.0
  0
LINE
  5
57E
102
{ACAD_REACTORS
330
668
102
}
330
1F
100
AcDbEntity
  8
実線
100
AcDbLine
 10
585.1957470649601
 20
423.370383727931
 30
0.0
 11
685.1957470649601
 21
423.370383727931
 31
0.0
  0
LINE
  5
57F
102
{ACAD_REACTORS
330
668
102
}
330
1F
100
AcDbEntity
  8
実線
100
AcDbLine
 10
685.1957470649601
 20
499.3703837279307
 30
0.0
 11
585.1957470649601
 21
499.3703837279307
 31
0.0
  0
LINE
  5
580
102
{ACAD_REACTORS
330
668
102
}
330
1F
100
AcDbEntity
  8
実線
100
AcDbLine
 10
585.1957470649601
 20
499.3703837279307
 30
0.0
 11
585.1957470649601
 21
423.3703837279307
 31
0.0
  0
LINE
  5
581
102
{ACAD_REACTORS
330
668
102
}
330
1F
100
AcDbEntity
  8
実線
100
AcDbLine
 10
685.1957470649601
 20
423.370383727931
 30
0.0
 11
685.1957470649601
 21
499.3703837279307
 31
0.0
  0
LINE
  5
582
102
{ACAD_REACTORS
330
668
102
}
330
1F
100
AcDbEntity
  8
実線
100
AcDbLine
 10
679.1957470649601
 20
394.370383727931
 30
0.0
 11
591.1957470649602
 21
394.370383727931
 31
0.0
  0
LINE
  5
583
102
{ACAD_REACTORS
330
668
102
}
330
1F
100
AcDbEntity
  8
実線
100
AcDbLine
 10
591.8957470649602
 20
390.6703837279309
 30
0.0
 11
678.4957470649602
 21
390.6703837279309
 31
0.0
  0
LINE
  5
584
102
{ACAD_REACTORS
330
668
102
}
330
1F
100
AcDbEntity
  8
実線
100
AcDbLine
 10
678.4957470649602
 20
390.6703837279309
 30
0.0
 11
679.1957470649601
 21
394.370383727931
 31
0.0
  0
LINE
  5
585
102
{ACAD_REACTORS
330
668
102
}
330
1F
100
AcDbEntity
  8
実線
100
AcDbLine
 10
591.1957470649602
 20
394.370383727931
 30
0.0
 11
591.8957470649602
 21
390.6703837279309
 31
0.0
  0
LINE
  5
586
102
{ACAD_REACTORS
330
668
102
}
330
1F
100
AcDbEntity
  8
実線
100
AcDbLine
 10
677.6957470649602
 20
277.670383727931
 30
0.0
 11
592.69574706496
 21
277.670383727931
 31
0.0
  0
LINE
  5
587
102
{ACAD_REACTORS
330
668
102
}
330
1F
100
AcDbEntity
  8
実線
100
AcDbLine
 10
618.6957470649602
 20
268.470383727931
 30
0.0
 11
651.6957470649601
 21
268.470383727931
 31
0.0
  0
LINE
  5
588
102
{ACAD_REACTORS
330
668
102
}
330
1F
100
AcDbEntity
  8
実線
100
AcDbLine
 10
651.6957470649601
 20
268.470383727931
 30
0.0
 11
677.6957470649602
 21
277.670383727931
 31
0.0
  0
LINE
  5
589
102
{ACAD_REACTORS
330
668
102
}
330
1F
100
AcDbEntity
  8
実線
100
AcDbLine
 10
592.69574706496
 20
277.670383727931
 30
0.0
 11
618.6957470649602
 21
268.470383727931
 31
0.0
  0
LINE
  5
58A
102
{ACAD_REACTORS
330
668
102
}
330
1F
100
AcDbEntity
  8
実線
100
AcDbLine
 10
592.69574706496
 20
354.6703837279309
 30
0.0
 11
592.69574706496
 21
277.670383727931
 31
0.0
  0
LINE
  5
58B
102
{ACAD_REACTORS
330
668
102
}
330
1F
100
AcDbEntity
  8
実線
100
AcDbLine
 10
677.6957470649602
 20
277.6703837279309
 30
0.0
 11
677.6957470649602
 21
354.6703837279307
 31
0.0
  0
LINE
  5
58C
102
{ACAD_REACTORS
330
668
102
}
330
1F
100
AcDbEntity
  8
実線
100
AcDbLine
 10
591.8957470649602
 20
354.670383727931
 30
0.0
 11
678.4957470649602
 21
354.670383727931
 31
0.0
  0
LINE
  5
58D
102
{ACAD_REACTORS
330
668
102
}
330
1F
100
AcDbEntity
  8
実線
100
AcDbLine
 10
591.8957470649602
 20
390.6703837279308
 30
0.0
 11
591.8957470649602
 21
354.6703837279309
 31
0.0
  0
LINE
  5
58E
102
{ACAD_REACTORS
330
668
102
}
330
1F
100
AcDbEntity
  8
実線
100
AcDbLine
 10
678.4957470649602
 20
354.670383727931
 30
0.0
 11
678.4957470649602
 21
390.6703837279309
 31
0.0
  0
LINE
  5
58F
102
{ACAD_REACTORS
330
668
102
}
330
1F
100
AcDbEntity
  8
実線
100
AcDbLine
 10
622.1957470649601
 20
407.3703837279309
 30
0.0
 11
622.1957470649601
 21
394.3703837279307
 31
0.0
  0
LINE
  5
590
102
{ACAD_REACTORS
330
668
102
}
330
1F
100
AcDbEntity
  8
実線
100
AcDbLine
 10
648.1957470649602
 20
394.3703837279307
 30
0.0
 11
648.1957470649602
 21
407.3703837279307
 31
0.0
  0
LINE
  5
591
102
{ACAD_REACTORS
330
668
102
}
330
1F
100
AcDbEntity
  8
実線
100
AcDbLine
 10
600.1957470649601
 20
407.3703837279309
 30
0.0
 11
670.1957470649601
 21
407.3703837279309
 31
0.0
  0
LINE
  5
592
102
{ACAD_REACTORS
330
668
102
}
330
1F
100
AcDbEntity
  8
実線
100
AcDbLine
 10
600.1957470649601
 20
418.870383727931
 30
0.0
 11
600.1957470649601
 21
407.3703837279309
 31
0.0
  0
LINE
  5
593
102
{ACAD_REACTORS
330
668
102
}
330
1F
100
AcDbEntity
  8
実線
100
AcDbLine
 10
670.1957470649601
 20
407.3703837279309
 30
0.0
 11
670.1957470649601
 21
418.870383727931
 31
0.0
  0
ELLIPSE
  5
594
102
{ACAD_REACTORS
330
668
102
}
330
1F
100
AcDbEntity
  8
実線
100
AcDbEllipse
 10
635.1957470649594
 20
580.0944998670015
 30
0.0
 11
25.25
 21
0.0
 31
0.0
210
0.0
220
0.0
230
1.0
 40
0.7071067811865476
 41
5.174171413407794
 42
5.673466475380191
  0
ELLIPSE
  5
595
102
{ACAD_REACTORS
330
668
102
}
330
1F
100
AcDbEntity
  8
実線
100
AcDbEllipse
 10
635.1957470649594
 20
580.0944998670015
 30
0.0
 11
25.25
 21
0.0
 31
0.0
210
0.0
220
0.0
230
1.0
 40
0.7071067811865476
 41
3.751311485389186
 42
4.250606547361647
  0
ELLIPSE
  5
596
102
{ACAD_REACTORS
330
668
102
}
330
1F
100
AcDbEntity
  8
実線
100
AcDbEllipse
 10
635.1957470649594
 20
582.0390435152642
 30
0.0
 11
25.25
 21
0.0
 31
0.0
210
0.0
220
0.0
230
1.0
 40
0.7071067811865476
 41
5.174171413407794
 42
5.533309520050448
  0
ELLIPSE
  5
597
102
{ACAD_REACTORS
330
668
102
}
330
1F
100
AcDbEntity
  8
実線
100
AcDbEllipse
 10
635.1957470649594
 20
582.0390435152642
 30
0.0
 11
25.25
 21
0.0
 31
0.0
210
0.0
220
0.0
230
1.0
 40
0.7071067811865476
 41
3.89146844071893
 42
4.250606547361647
  0
LINE
  5
598
102
{ACAD_REACTORS
330
668
102
}
330
1F
100
AcDbEntity
  8
実線
100
AcDbLine
 10
722.6957470649595
 20
634.0703837279307
 30
0.0
 11
547.6957470649593
 21
634.0703837279307
 31
0.0
  0
LINE
  5
599
102
{ACAD_REACTORS
330
668
102
}
330
1F
100
AcDbEntity
  8
実線
100
AcDbLine
 10
722.6957470649595
 20
634.0703837279307
 30
0.0
 11
722.6957470649595
 21
652.0703837279308
 31
0.0
  0
LINE
  5
59A
102
{ACAD_REACTORS
330
668
102
}
330
1F
100
AcDbEntity
  8
実線
100
AcDbLine
 10
547.6957470649593
 20
652.0703837279308
 30
0.0
 11
547.6957470649593
 21
634.0703837279307
 31
0.0
  0
LINE
  5
59B
102
{ACAD_REACTORS
330
668
102
}
330
1F
100
AcDbEntity
  8
実線
100
AcDbLine
 10
722.6957470649595
 20
652.0703837279308
 30
0.0
 11
547.6957470649593
 21
652.0703837279308
 31
0.0
  0
ARC
  5
59C
102
{ACAD_REACTORS
330
668
102
}
330
1F
100
AcDbEntity
  8
実線
100
AcDbCircle
 10
662.1957470649594
 20
621.0703837279309
 30
0.0
 40
13.0
100
AcDbArc
 50
0.0
 51
90.0
  0
ARC
  5
59D
102
{ACAD_REACTORS
330
668
102
}
330
1F
100
AcDbEntity
  8
実線
100
AcDbCircle
 10
608.1957470649594
 20
621.0703837279309
 30
0.0
 40
13.0
100
AcDbArc
 50
90.0
 51
180.0
  0
LINE
  5
59E
102
{ACAD_REACTORS
330
668
102
}
330
1F
100
AcDbEntity
  8
実線
100
AcDbLine
 10
595.1957470649593
 20
621.0703837279309
 30
0.0
 11
595.1957470649593
 21
593.3703837279307
 31
0.0
  0
LINE
  5
59F
102
{ACAD_REACTORS
330
668
102
}
330
1F
100
AcDbEntity
  8
実線
100
AcDbLine
 10
675.1957470649593
 20
593.3703837279307
 30
0.0
 11
675.1957470649593
 21
621.0703837279309
 31
0.0
  0
LINE
  5
5A0
102
{ACAD_REACTORS
330
668
102
}
330
1F
100
AcDbEntity
  8
実線
100
AcDbLine
 10
682.1729168338434
 20
583.3703837279307
 30
0.0
 11
682.1729168338434
 21
593.3703837279307
 31
0.0
  0
LINE
  5
5A1
102
{ACAD_REACTORS
330
668
102
}
330
1F
100
AcDbEntity
  8
実線
100
AcDbLine
 10
682.1729168338434
 20
593.3703837279307
 30
0.0
 11
653.2246438753834
 21
593.3703837279307
 31
0.0
  0
LINE
  5
5A2
102
{ACAD_REACTORS
330
668
102
}
330
1F
100
AcDbEntity
  8
実線
100
AcDbLine
 10
588.2185772960757
 20
593.3703837279307
 30
0.0
 11
617.1668502545353
 21
593.3703837279307
 31
0.0
  0
LINE
  5
5A3
102
{ACAD_REACTORS
330
668
102
}
330
1F
100
AcDbEntity
  8
実線
100
AcDbLine
 10
588.2185772960757
 20
593.3703837279307
 30
0.0
 11
588.2185772960757
 21
583.3703837279307
 31
0.0
  0
LINE
  5
5A4
102
{ACAD_REACTORS
330
668
102
}
330
1F
100
AcDbEntity
  8
実線
100
AcDbLine
 10
653.2246438753834
 20
583.3703837279307
 30
0.0
 11
653.2246438753834
 21
593.3703837279307
 31
0.0
  0
LINE
  5
5A5
102
{ACAD_REACTORS
330
668
102
}
330
1F
100
AcDbEntity
  8
実線
100
AcDbLine
 10
617.1668502545353
 20
583.3703837279307
 30
0.0
 11
617.1668502545353
 21
593.3703837279307
 31
0.0
  0
LINE
  5
5A6
102
{ACAD_REACTORS
330
668
102
}
330
1F
100
AcDbEntity
  8
実線
100
AcDbLine
 10
675.1957470649601
 20
499.3703837279307
 30
0.0
 11
675.1957470649601
 21
542.8703837279307
 31
0.0
  0
LINE
  5
5A7
102
{ACAD_REACTORS
330
668
102
}
330
1F
100
AcDbEntity
  8
実線
100
AcDbLine
 10
675.1957470649601
 20
542.8703837279309
 30
0.0
 11
646.4457470649602
 21
542.8703837279309
 31
0.0
  0
LINE
  5
5A8
102
{ACAD_REACTORS
330
668
102
}
330
1F
100
AcDbEntity
  8
実線
100
AcDbLine
 10
623.94574706496
 20
542.8703837279309
 30
0.0
 11
595.1957470649601
 21
542.8703837279309
 31
0.0
  0
LINE
  5
5A9
102
{ACAD_REACTORS
330
668
102
}
330
1F
100
AcDbEntity
  8
実線
100
AcDbLine
 10
595.1957470649601
 20
542.8703837279309
 30
0.0
 11
595.1957470649601
 21
499.3703837279307
 31
0.0
  0
LINE
  5
5AA
102
{ACAD_REACTORS
330
668
102
}
330
1F
100
AcDbEntity
  8
実線
100
AcDbLine
 10
623.94574706496
 20
499.3703837279307
 30
0.0
 11
623.94574706496
 21
569.8703837279307
 31
0.0
  0
LINE
  5
5AB
102
{ACAD_REACTORS
330
668
102
}
330
1F
100
AcDbEntity
  8
実線
100
AcDbLine
 10
646.4457470649602
 20
499.3703837279307
 30
0.0
 11
646.4457470649602
 21
569.8703837279307
 31
0.0
  0
LINE
  5
5AC
102
{ACAD_REACTORS
330
668
102
}
330
1F
100
AcDbEntity
  8
実線
100
AcDbLine
 10
588.2185772960764
 20
569.8703837279307
 30
0.0
 11
682.1729168338438
 21
569.8703837279307
 31
0.0
  0
LINE
  5
5AD
102
{ACAD_REACTORS
330
668
102
}
330
1F
100
AcDbEntity
  8
実線
100
AcDbLine
 10
588.2185772960764
 20
583.3703837279307
 30
0.0
 11
682.1729168338438
 21
583.3703837279307
 31
0.0
  0
LINE
  5
5AE
102
{ACAD_REACTORS
330
668
102
}
330
1F
100
AcDbEntity
  8
実線
100
AcDbLine
 10
682.1729168338438
 20
569.8703837279307
 30
0.0
 11
682.1729168338438
 21
583.3703837279307
 31
0.0
  0
LINE
  5
5AF
102
{ACAD_REACTORS
330
668
102
}
330
1F
100
AcDbEntity
  8
実線
100
AcDbLine
 10
588.2185772960764
 20
583.3703837279307
 30
0.0
 11
588.2185772960764
 21
569.8703837279307
 31
0.0
  0
LINE
  5
5B0
102
{ACAD_REACTORS
330
668
102
}
330
1F
100
AcDbEntity
  8
実線
100
AcDbLine
 10
653.2246438753842
 20
569.8703837279307
 30
0.0
 11
653.2246438753842
 21
583.3703837279307
 31
0.0
  0
LINE
  5
5B1
102
{ACAD_REACTORS
330
668
102
}
330
1F
100
AcDbEntity
  8
実線
100
AcDbLine
 10
617.1668502545361
 20
569.8703837279307
 30
0.0
 11
617.1668502545361
 21
583.3703837279307
 31
0.0
  0
LINE
  5
5B2
102
{ACAD_REACTORS
330
668
102
}
330
1F
100
AcDbEntity
  8
実線
100
AcDbLine
 10
682.1957470649602
 20
418.870383727931
 30
0.0
 11
588.19574706496
 21
418.870383727931
 31
0.0
  0
ARC
  5
5B3
102
{ACAD_REACTORS
330
668
102
}
330
1F
100
AcDbEntity
  8
実線
100
AcDbCircle
 10
588.19574706496
 20
421.8703837279309
 30
0.0
 40
3.0
100
AcDbArc
 50
180.0
 51
270.0
  0
ARC
  5
5B4
102
{ACAD_REACTORS
330
668
102
}
330
1F
100
AcDbEntity
  8
実線
100
AcDbCircle
 10
682.1957470649602
 20
421.8703837279309
 30
0.0
 40
3.0
100
AcDbArc
 50
270.0
 51
0.0
  0
LINE
  5
5B5
102
{ACAD_REACTORS
330
668
102
}
330
1F
100
AcDbEntity
  8
実線
100
AcDbLine
 10
585.1957470649601
 20
423.370383727931
 30
0.0
 11
585.1957470649601
 21
421.8703837279309
 31
0.0
  0
LINE
  5
5B6
102
{ACAD_REACTORS
330
668
102
}
330
1F
100
AcDbEntity
  8
実線
100
AcDbLine
 10
685.1957470649601
 20
421.8703837279309
 30
0.0
 11
685.1957470649601
 21
423.370383727931
 31
0.0
  0
LINE
  5
5B7
102
{ACAD_REACTORS
330
66A
102
}
330
1F
100
AcDbEntity
  8
実線
100
AcDbLine
 10
105.1957470649588
 20
499.3703837279307
 30
0.0
 11
105.1957470649588
 21
423.3703837279307
 31
0.0
  0
LINE
  5
5B8
102
{ACAD_REACTORS
330
66A
102
}
330
1F
100
AcDbEntity
  8
実線
100
AcDbLine
 10
205.1957470649588
 20
423.370383727931
 30
0.0
 11
205.1957470649588
 21
499.3703837279307
 31
0.0
  0
LINE
  5
5B9
102
{ACAD_REACTORS
330
66A
102
}
330
1F
100
AcDbEntity
  8
実線
100
AcDbLine
 10
105.1957470649588
 20
499.3703837279307
 30
0.0
 11
205.1957470649588
 21
499.3703837279307
 31
0.0
  0
LINE
  5
5BA
102
{ACAD_REACTORS
330
66A
102
}
330
1F
100
AcDbEntity
  8
実線
100
AcDbLine
 10
198.4957470649589
 20
390.6703837279309
 30
0.0
 11
199.1957470649588
 21
394.370383727931
 31
0.0
  0
LINE
  5
5BB
102
{ACAD_REACTORS
330
66A
102
}
330
1F
100
AcDbEntity
  8
実線
100
AcDbLine
 10
111.1957470649588
 20
394.370383727931
 30
0.0
 11
111.8957470649588
 21
390.6703837279309
 31
0.0
  0
LINE
  5
5BC
102
{ACAD_REACTORS
330
66A
102
}
330
1F
100
AcDbEntity
  8
実線
100
AcDbLine
 10
199.1957470649588
 20
394.370383727931
 30
0.0
 11
111.1957470649588
 21
394.370383727931
 31
0.0
  0
LINE
  5
5BD
102
{ACAD_REACTORS
330
66A
102
}
330
1F
100
AcDbEntity
  8
実線
100
AcDbLine
 10
111.8957470649588
 20
390.6703837279309
 30
0.0
 11
198.4957470649589
 21
390.6703837279309
 31
0.0
  0
LINE
  5
5BE
102
{ACAD_REACTORS
330
66A
102
}
330
1F
100
AcDbEntity
  8
実線
100
AcDbLine
 10
171.6957470649588
 20
268.470383727931
 30
0.0
 11
197.6957470649588
 21
277.670383727931
 31
0.0
  0
LINE
  5
5BF
102
{ACAD_REACTORS
330
66A
102
}
330
1F
100
AcDbEntity
  8
実線
100
AcDbLine
 10
112.6957470649588
 20
277.670383727931
 30
0.0
 11
138.6957470649588
 21
268.470383727931
 31
0.0
  0
LINE
  5
5C0
102
{ACAD_REACTORS
330
66A
102
}
330
1F
100
AcDbEntity
  8
実線
100
AcDbLine
 10
197.6957470649588
 20
277.670383727931
 30
0.0
 11
112.6957470649588
 21
277.670383727931
 31
0.0
  0
LINE
  5
5C1
102
{ACAD_REACTORS
330
66A
102
}
330
1F
100
AcDbEntity
  8
実線
100
AcDbLine
 10
138.6957470649588
 20
268.470383727931
 30
0.0
 11
171.6957470649588
 21
268.470383727931
 31
0.0
  0
LINE
  5
5C2
102
{ACAD_REACTORS
330
66A
102
}
330
1F
100
AcDbEntity
  8
実線
100
AcDbLine
 10
112.6957470649588
 20
354.6703837279309
 30
0.0
 11
112.6957470649588
 21
277.670383727931
 31
0.0
  0
LINE
  5
5C3
102
{ACAD_REACTORS
330
66A
102
}
330
1F
100
AcDbEntity
  8
実線
100
AcDbLine
 10
197.6957470649588
 20
277.6703837279309
 30
0.0
 11
197.6957470649588
 21
354.6703837279307
 31
0.0
  0
LINE
  5
5C4
102
{ACAD_REACTORS
330
66A
102
}
330
1F
100
AcDbEntity
  8
実線
100
AcDbLine
 10
111.8957470649588
 20
390.6703837279308
 30
0.0
 11
111.8957470649588
 21
354.6703837279309
 31
0.0
  0
LINE
  5
5C5
102
{ACAD_REACTORS
330
66A
102
}
330
1F
100
AcDbEntity
  8
実線
100
AcDbLine
 10
198.4957470649589
 20
354.670383727931
 30
0.0
 11
198.4957470649589
 21
390.6703837279309
 31
0.0
  0
LINE
  5
5C6
102
{ACAD_REACTORS
330
66A
102
}
330
1F
100
AcDbEntity
  8
実線
100
AcDbLine
 10
111.8957470649588
 20
354.670383727931
 30
0.0
 11
198.4957470649589
 21
354.670383727931
 31
0.0
  0
LINE
  5
5C7
102
{ACAD_REACTORS
330
66A
102
}
330
1F
100
AcDbEntity
  8
実線
100
AcDbLine
 10
142.1957470649588
 20
407.3703837279309
 30
0.0
 11
142.1957470649588
 21
394.3703837279307
 31
0.0
  0
LINE
  5
5C8
102
{ACAD_REACTORS
330
66A
102
}
330
1F
100
AcDbEntity
  8
実線
100
AcDbLine
 10
168.1957470649588
 20
394.3703837279307
 30
0.0
 11
168.1957470649588
 21
407.3703837279307
 31
0.0
  0
LINE
  5
5C9
102
{ACAD_REACTORS
330
66A
102
}
330
1F
100
AcDbEntity
  8
実線
100
AcDbLine
 10
120.1957470649588
 20
418.870383727931
 30
0.0
 11
120.1957470649588
 21
407.3703837279309
 31
0.0
  0
LINE
  5
5CA
102
{ACAD_REACTORS
330
66A
102
}
330
1F
100
AcDbEntity
  8
実線
100
AcDbLine
 10
190.1957470649588
 20
407.3703837279309
 30
0.0
 11
190.1957470649588
 21
418.870383727931
 31
0.0
  0
LINE
  5
5CB
102
{ACAD_REACTORS
330
66A
102
}
330
1F
100
AcDbEntity
  8
実線
100
AcDbLine
 10
120.1957470649588
 20
407.3703837279309
 30
0.0
 11
190.1957470649588
 21
407.3703837279309
 31
0.0
  0
ELLIPSE
  5
5CC
102
{ACAD_REACTORS
330
66A
102
}
330
1F
100
AcDbEntity
  8
実線
100
AcDbEllipse
 10
155.1957470649595
 20
597.0650626154785
 30
0.0
 11
19.05
 21
0.0
 31
0.0
210
0.0
220
0.0
230
1.0
 40
0.7071067811865476
 41
0.0
 42
3.141592653589792
  0
ARC
  5
5CD
102
{ACAD_REACTORS
330
66A
102
}
330
1F
100
AcDbEntity
  8
実線
100
AcDbCircle
 10
155.1957470649595
 20
611.2703837279308
 30
0.0
 40
19.05
100
AcDbArc
 50
0.0
 51
180.0
  0
LINE
  5
5CE
102
{ACAD_REACTORS
330
66A
102
}
330
1F
100
AcDbEntity
  8
実線
100
AcDbLine
 10
136.1457470649595
 20
611.2703837279308
 30
0.0
 11
136.1457470649595
 21
597.0650626154785
 31
0.0
  0
LINE
  5
5CF
102
{ACAD_REACTORS
330
66A
102
}
330
1F
100
AcDbEntity
  8
実線
100
AcDbLine
 10
174.2457470649595
 20
597.0650626154785
 30
0.0
 11
174.2457470649595
 21
611.2703837279308
 31
0.0
  0
ELLIPSE
  5
5D0
102
{ACAD_REACTORS
330
66A
102
}
330
1F
100
AcDbEntity
  8
実線
100
AcDbEllipse
 10
155.1957470649595
 20
597.0650626154785
 30
0.0
 11
19.05
 21
0.0
 31
0.0
210
0.0
220
0.0
230
1.0
 40
0.7071067811865476
 41
0.0
 42
1.570796326794897
  0
LINE
  5
5D1
102
{ACAD_REACTORS
330
66A
102
}
330
1F
100
AcDbEntity
  8
実線
100
AcDbLine
 10
174.2457470649595
 20
593.757831848535
 30
0.0
 11
174.2457470649595
 21
597.0650626154785
 31
0.0
  0
LINE
  5
5D2
102
{ACAD_REACTORS
330
66A
102
}
330
1F
100
AcDbEntity
  8
実線
100
AcDbLine
 10
136.1457470649595
 20
597.0650626154785
 30
0.0
 11
136.1457470649595
 21
593.757831848535
 31
0.0
  0
ELLIPSE
  5
5D3
102
{ACAD_REACTORS
330
66A
102
}
330
1F
100
AcDbEntity
  8
実線
100
AcDbEllipse
 10
155.1957470649595
 20
597.0650626154785
 30
0.0
 11
19.05
 21
0.0
 31
0.0
210
0.0
220
0.0
230
1.0
 40
0.7071067811865476
 41
1.570796326794897
 42
3.141592653589792
  0
ELLIPSE
  5
5D4
102
{ACAD_REACTORS
330
66A
102
}
330
1F
100
AcDbEntity
  8
実線
100
AcDbEllipse
 10
155.1957470649595
 20
580.0944998670015
 30
0.0
 11
25.25
 21
0.0
 31
0.0
210
0.0
220
0.0
230
1.0
 40
0.7071067811865476
 41
0.0
 42
1.570796326794897
  0
ELLIPSE
  5
5D5
102
{ACAD_REACTORS
330
66A
102
}
330
1F
100
AcDbEntity
  8
実線
100
AcDbEllipse
 10
155.1957470649595
 20
582.0390435152642
 30
0.0
 11
25.25
 21
0.0
 31
0.0
210
0.0
220
0.0
230
1.0
 40
0.7071067811865476
 41
0.0
 42
1.570796326794897
  0
LINE
  5
5D6
102
{ACAD_REACTORS
330
66A
102
}
330
1F
100
AcDbEntity
  8
実線
100
AcDbLine
 10
180.4457470649595
 20
580.0944998670015
 30
0.0
 11
180.4457470649595
 21
582.0390435152642
 31
0.0
  0
LINE
  5
5D7
102
{ACAD_REACTORS
330
66A
102
}
330
1F
100
AcDbEntity
  8
実線
100
AcDbLine
 10
129.9457470649595
 20
582.0390435152642
 30
0.0
 11
129.9457470649595
 21
580.0944998670015
 31
0.0
  0
ELLIPSE
  5
5D8
102
{ACAD_REACTORS
330
66A
102
}
330
1F
100
AcDbEntity
  8
実線
100
AcDbEllipse
 10
155.1957470649595
 20
580.0944998670015
 30
0.0
 11
25.25
 21
0.0
 31
0.0
210
0.0
220
0.0
230
1.0
 40
0.7071067811865476
 41
3.141592653589792
 42
6.283185307179584
  0
ELLIPSE
  5
5D9
102
{ACAD_REACTORS
330
66A
102
}
330
1F
100
AcDbEntity
  8
実線
100
AcDbEllipse
 10
155.1957470649595
 20
580.0944998670015
 30
0.0
 11
25.25
 21
0.0
 31
0.0
210
0.0
220
0.0
230
1.0
 40
0.7071067811865476
 41
1.570796326794897
 42
3.141592653589792
  0
ELLIPSE
  5
5DA
102
{ACAD_REACTORS
330
66A
102
}
330
1F
100
AcDbEntity
  8
実線
100
AcDbEllipse
 10
155.1957470649595
 20
582.0390435152642
 30
0.0
 11
25.25
 21
0.0
 31
0.0
210
0.0
220
0.0
230
1.0
 40
0.7071067811865476
 41
1.570796326794897
 42
3.141592653589792
  0
LINE
  5
5DB
102
{ACAD_REACTORS
330
66A
102
}
330
1F
100
AcDbEntity
  8
実線
100
AcDbLine
 10
67.69574706495951
 20
652.0703837279308
 30
0.0
 11
242.6957470649595
 21
652.0703837279308
 31
0.0
  0
LINE
  5
5DC
102
{ACAD_REACTORS
330
66A
102
}
330
1F
100
AcDbEntity
  8
実線
100
AcDbLine
 10
242.6957470649595
 20
634.0703837279307
 30
0.0
 11
242.6957470649595
 21
652.0703837279308
 31
0.0
  0
LINE
  5
5DD
102
{ACAD_REACTORS
330
66A
102
}
330
1F
100
AcDbEntity
  8
実線
100
AcDbLine
 10
67.69574706495951
 20
652.0703837279308
 30
0.0
 11
67.69574706495951
 21
634.0703837279307
 31
0.0
  0
LINE
  5
5DE
102
{ACAD_REACTORS
330
66A
102
}
330
1F
100
AcDbEntity
  8
実線
100
AcDbLine
 10
67.69574706495951
 20
634.0703837279307
 30
0.0
 11
242.6957470649595
 21
634.0703837279307
 31
0.0
  0
ARC
  5
5DF
102
{ACAD_REACTORS
330
66A
102
}
330
1F
100
AcDbEntity
  8
実線
100
AcDbCircle
 10
182.1957470649595
 20
621.0703837279309
 30
0.0
 40
13.0
100
AcDbArc
 50
0.0
 51
90.0
  0
ARC
  5
5E0
102
{ACAD_REACTORS
330
66A
102
}
330
1F
100
AcDbEntity
  8
実線
100
AcDbCircle
 10
128.1957470649595
 20
621.0703837279309
 30
0.0
 40
13.0
100
AcDbArc
 50
90.0
 51
180.0
  0
LINE
  5
5E1
102
{ACAD_REACTORS
330
66A
102
}
330
1F
100
AcDbEntity
  8
実線
100
AcDbLine
 10
115.1957470649595
 20
621.0703837279309
 30
0.0
 11
115.1957470649595
 21
593.3703837279307
 31
0.0
  0
LINE
  5
5E2
102
{ACAD_REACTORS
330
66A
102
}
330
1F
100
AcDbEntity
  8
実線
100
AcDbLine
 10
195.1957470649595
 20
593.3703837279307
 30
0.0
 11
195.1957470649595
 21
621.0703837279309
 31
0.0
  0
LINE
  5
5E3
102
{ACAD_REACTORS
330
66A
102
}
330
1F
100
AcDbEntity
  8
実線
100
AcDbLine
 10
202.1729168338435
 20
583.3703837279307
 30
0.0
 11
202.1729168338435
 21
593.3703837279307
 31
0.0
  0
LINE
  5
5E4
102
{ACAD_REACTORS
330
66A
102
}
330
1F
100
AcDbEntity
  8
実線
100
AcDbLine
 10
202.1729168338435
 20
593.3703837279307
 30
0.0
 11
174.7089210243546
 21
593.3703837279307
 31
0.0
  0
LINE
  5
5E5
102
{ACAD_REACTORS
330
66A
102
}
330
1F
100
AcDbEntity
  8
実線
100
AcDbLine
 10
202.1729168338435
 20
583.3703837279307
 30
0.0
 11
180.3754525135201
 21
583.3703837279307
 31
0.0
  0
LINE
  5
5E6
102
{ACAD_REACTORS
330
66A
102
}
330
1F
100
AcDbEntity
  8
実線
100
AcDbLine
 10
108.2185772960756
 20
593.3703837279307
 30
0.0
 11
135.6825731055645
 21
593.3703837279307
 31
0.0
  0
LINE
  5
5E7
102
{ACAD_REACTORS
330
66A
102
}
330
1F
100
AcDbEntity
  8
実線
100
AcDbLine
 10
108.2185772960756
 20
593.3703837279307
 30
0.0
 11
108.2185772960756
 21
583.3703837279307
 31
0.0
  0
LINE
  5
5E8
102
{ACAD_REACTORS
330
66A
102
}
330
1F
100
AcDbEntity
  8
実線
100
AcDbLine
 10
143.9457470649588
 20
542.8703837279309
 30
0.0
 11
115.1957470649588
 21
542.8703837279309
 31
0.0
  0
LINE
  5
5E9
102
{ACAD_REACTORS
330
66A
102
}
330
1F
100
AcDbEntity
  8
実線
100
AcDbLine
 10
115.1957470649588
 20
542.8703837279309
 30
0.0
 11
115.1957470649588
 21
499.3703837279307
 31
0.0
  0
LINE
  5
5EA
102
{ACAD_REACTORS
330
66A
102
}
330
1F
100
AcDbEntity
  8
実線
100
AcDbLine
 10
195.1957470649588
 20
499.3703837279307
 30
0.0
 11
195.1957470649588
 21
542.8703837279307
 31
0.0
  0
LINE
  5
5EB
102
{ACAD_REACTORS
330
66A
102
}
330
1F
100
AcDbEntity
  8
実線
100
AcDbLine
 10
166.4457470649588
 20
542.8703837279309
 30
0.0
 11
195.1957470649588
 21
542.8703837279309
 31
0.0
  0
LINE
  5
5EC
102
{ACAD_REACTORS
330
66A
102
}
330
1F
100
AcDbEntity
  8
実線
100
AcDbLine
 10
143.9457470649588
 20
499.3703837279307
 30
0.0
 11
143.9457470649588
 21
564.1101325038556
 31
0.0
  0
LINE
  5
5ED
102
{ACAD_REACTORS
330
66A
102
}
330
1F
100
AcDbEntity
  8
実線
100
AcDbLine
 10
166.4457470649588
 20
499.3703837279307
 30
0.0
 11
166.4457470649588
 21
564.1101325038553
 31
0.0
  0
LINE
  5
5EE
102
{ACAD_REACTORS
330
66A
102
}
330
1F
100
AcDbEntity
  8
実線
100
AcDbLine
 10
202.1729168338429
 20
569.8703837279307
 30
0.0
 11
202.1729168338429
 21
583.3703837279307
 31
0.0
  0
LINE
  5
5EF
102
{ACAD_REACTORS
330
66A
102
}
330
1F
100
AcDbEntity
  8
実線
100
AcDbLine
 10
202.1729168338429
 20
569.8703837279307
 30
0.0
 11
175.8959257682847
 21
569.8703837279307
 31
0.0
  0
LINE
  5
5F0
102
{ACAD_REACTORS
330
66A
102
}
330
1F
100
AcDbEntity
  8
実線
100
AcDbLine
 10
108.2185772960749
 20
583.3703837279307
 30
0.0
 11
130.0160416163989
 21
583.3703837279307
 31
0.0
  0
LINE
  5
5F1
102
{ACAD_REACTORS
330
66A
102
}
330
1F
100
AcDbEntity
  8
実線
100
AcDbLine
 10
108.2185772960749
 20
569.8703837279307
 30
0.0
 11
134.4955683616343
 21
569.8703837279307
 31
0.0
  0
LINE
  5
5F2
102
{ACAD_REACTORS
330
66A
102
}
330
1F
100
AcDbEntity
  8
実線
100
AcDbLine
 10
108.2185772960749
 20
583.3703837279307
 30
0.0
 11
108.2185772960749
 21
569.8703837279307
 31
0.0
  0
LINE
  5
5F3
102
{ACAD_REACTORS
330
66A
102
}
330
1F
100
AcDbEntity
  8
実線
100
AcDbLine
 10
105.1957470649588
 20
423.370383727931
 30
0.0
 11
205.1957470649588
 21
423.370383727931
 31
0.0
  0
LINE
  5
5F4
102
{ACAD_REACTORS
330
66A
102
}
330
1F
100
AcDbEntity
  8
実線
100
AcDbLine
 10
105.1957470649588
 20
423.370383727931
 30
0.0
 11
105.1957470649588
 21
421.8703837279309
 31
0.0
  0
LINE
  5
5F5
102
{ACAD_REACTORS
330
66A
102
}
330
1F
100
AcDbEntity
  8
実線
100
AcDbLine
 10
205.1957470649588
 20
421.8703837279309
 30
0.0
 11
205.1957470649588
 21
423.370383727931
 31
0.0
  0
LINE
  5
5F6
102
{ACAD_REACTORS
330
66A
102
}
330
1F
100
AcDbEntity
  8
実線
100
AcDbLine
 10
108.1957470649588
 20
418.870383727931
 30
0.0
 11
202.1957470649588
 21
418.870383727931
 31
0.0
  0
ARC
  5
5F7
102
{ACAD_REACTORS
330
66A
102
}
330
1F
100
AcDbEntity
  8
実線
100
AcDbCircle
 10
108.1957470649588
 20
421.8703837279309
 30
0.0
 40
3.0
100
AcDbArc
 50
180.0
 51
270.0
  0
ARC
  5
5F8
102
{ACAD_REACTORS
330
66A
102
}
330
1F
100
AcDbEntity
  8
実線
100
AcDbCircle
 10
202.1957470649588
 20
421.8703837279309
 30
0.0
 40
3.0
100
AcDbArc
 50
270.0
 51
0.0
  0
LINE
  5
5F9
102
{ACAD_REACTORS
330
669
102
}
330
1F
100
AcDbEntity
  8
実線
100
AcDbLine
 10
445.1957470649603
 20
423.370383727931
 30
0.0
 11
345.1957470649604
 21
423.370383727931
 31
0.0
  0
LINE
  5
5FA
102
{ACAD_REACTORS
330
669
102
}
330
1F
100
AcDbEntity
  8
実線
100
AcDbLine
 10
345.1957470649604
 20
499.3703837279307
 30
0.0
 11
345.1957470649604
 21
423.3703837279307
 31
0.0
  0
LINE
  5
5FB
102
{ACAD_REACTORS
330
669
102
}
330
1F
100
AcDbEntity
  8
実線
100
AcDbLine
 10
445.1957470649603
 20
423.370383727931
 30
0.0
 11
445.1957470649603
 21
499.3703837279307
 31
0.0
  0
LINE
  5
5FC
102
{ACAD_REACTORS
330
669
102
}
330
1F
100
AcDbEntity
  8
実線
100
AcDbLine
 10
445.1957470649603
 20
499.3703837279307
 30
0.0
 11
345.1957470649604
 21
499.3703837279307
 31
0.0
  0
LINE
  5
5FD
102
{ACAD_REACTORS
330
669
102
}
330
1F
100
AcDbEntity
  8
実線
100
AcDbLine
 10
389.1957470649604
 20
569.8703837279307
 30
0.0
 11
389.1957470649604
 21
542.8703837279307
 31
0.0
  0
LINE
  5
5FE
102
{ACAD_REACTORS
330
669
102
}
330
1F
100
AcDbEntity
  8
実線
100
AcDbLine
 10
401.1957470649604
 20
542.8703837279307
 30
0.0
 11
401.1957470649604
 21
569.8703837279307
 31
0.0
  0
LINE
  5
5FF
102
{ACAD_REACTORS
330
669
102
}
330
1F
100
AcDbEntity
  8
実線
100
AcDbLine
 10
438.4957470649604
 20
390.6703837279309
 30
0.0
 11
351.8957470649604
 21
390.6703837279309
 31
0.0
  0
LINE
  5
600
102
{ACAD_REACTORS
330
669
102
}
330
1F
100
AcDbEntity
  8
実線
100
AcDbLine
 10
438.4957470649604
 20
390.6703837279309
 30
0.0
 11
439.1957470649604
 21
394.370383727931
 31
0.0
  0
LINE
  5
601
102
{ACAD_REACTORS
330
669
102
}
330
1F
100
AcDbEntity
  8
実線
100
AcDbLine
 10
351.1957470649604
 20
394.370383727931
 30
0.0
 11
351.8957470649604
 21
390.6703837279309
 31
0.0
  0
LINE
  5
602
102
{ACAD_REACTORS
330
669
102
}
330
1F
100
AcDbEntity
  8
実線
100
AcDbLine
 10
439.1957470649604
 20
394.370383727931
 30
0.0
 11
351.1957470649604
 21
394.370383727931
 31
0.0
  0
LINE
  5
603
102
{ACAD_REACTORS
330
669
102
}
330
1F
100
AcDbEntity
  8
実線
100
AcDbLine
 10
411.6957470649603
 20
268.470383727931
 30
0.0
 11
378.6957470649604
 21
268.470383727931
 31
0.0
  0
LINE
  5
604
102
{ACAD_REACTORS
330
669
102
}
330
1F
100
AcDbEntity
  8
実線
100
AcDbLine
 10
411.6957470649603
 20
268.470383727931
 30
0.0
 11
437.6957470649605
 21
277.670383727931
 31
0.0
  0
LINE
  5
605
102
{ACAD_REACTORS
330
669
102
}
330
1F
100
AcDbEntity
  8
実線
100
AcDbLine
 10
352.6957470649604
 20
277.670383727931
 30
0.0
 11
378.6957470649604
 21
268.470383727931
 31
0.0
  0
LINE
  5
606
102
{ACAD_REACTORS
330
669
102
}
330
1F
100
AcDbEntity
  8
実線
100
AcDbLine
 10
437.6957470649605
 20
277.670383727931
 30
0.0
 11
352.6957470649604
 21
277.670383727931
 31
0.0
  0
LINE
  5
607
102
{ACAD_REACTORS
330
669
102
}
330
1F
100
AcDbEntity
  8
実線
100
AcDbLine
 10
352.6957470649604
 20
354.6703837279309
 30
0.0
 11
352.6957470649604
 21
277.670383727931
 31
0.0
  0
LINE
  5
608
102
{ACAD_REACTORS
330
669
102
}
330
1F
100
AcDbEntity
  8
実線
100
AcDbLine
 10
437.6957470649604
 20
277.6703837279309
 30
0.0
 11
437.6957470649604
 21
354.6703837279307
 31
0.0
  0
LINE
  5
609
102
{ACAD_REACTORS
330
669
102
}
330
1F
100
AcDbEntity
  8
実線
100
AcDbLine
 10
438.4957470649604
 20
354.670383727931
 30
0.0
 11
351.8957470649604
 21
354.670383727931
 31
0.0
  0
LINE
  5
60A
102
{ACAD_REACTORS
330
669
102
}
330
1F
100
AcDbEntity
  8
実線
100
AcDbLine
 10
351.8957470649604
 20
390.6703837279308
 30
0.0
 11
351.8957470649604
 21
354.6703837279309
 31
0.0
  0
LINE
  5
60B
102
{ACAD_REACTORS
330
669
102
}
330
1F
100
AcDbEntity
  8
実線
100
AcDbLine
 10
438.4957470649604
 20
354.670383727931
 30
0.0
 11
438.4957470649604
 21
390.6703837279309
 31
0.0
  0
LINE
  5
60C
102
{ACAD_REACTORS
330
669
102
}
330
1F
100
AcDbEntity
  8
実線
100
AcDbLine
 10
382.1957470649604
 20
407.3703837279309
 30
0.0
 11
382.1957470649604
 21
394.3703837279307
 31
0.0
  0
LINE
  5
60D
102
{ACAD_REACTORS
330
669
102
}
330
1F
100
AcDbEntity
  8
実線
100
AcDbLine
 10
408.1957470649603
 20
394.3703837279307
 30
0.0
 11
408.1957470649603
 21
407.3703837279307
 31
0.0
  0
LINE
  5
60E
102
{ACAD_REACTORS
330
669
102
}
330
1F
100
AcDbEntity
  8
実線
100
AcDbLine
 10
430.1957470649604
 20
407.3703837279309
 30
0.0
 11
360.1957470649604
 21
407.3703837279309
 31
0.0
  0
LINE
  5
60F
102
{ACAD_REACTORS
330
669
102
}
330
1F
100
AcDbEntity
  8
実線
100
AcDbLine
 10
360.1957470649604
 20
418.870383727931
 30
0.0
 11
360.1957470649604
 21
407.3703837279309
 31
0.0
  0
LINE
  5
610
102
{ACAD_REACTORS
330
669
102
}
330
1F
100
AcDbEntity
  8
実線
100
AcDbLine
 10
430.1957470649604
 20
407.3703837279309
 30
0.0
 11
430.1957470649604
 21
418.870383727931
 31
0.0
  0
ARC
  5
611
102
{ACAD_REACTORS
330
669
102
}
330
1F
100
AcDbEntity
  8
実線
100
AcDbCircle
 10
346.4957470649596
 20
562.7703837279309
 30
0.0
 40
67.54999999999999
100
AcDbArc
 50
90.0
 51
135.0
  0
ARC
  5
612
102
{ACAD_REACTORS
330
669
102
}
330
1F
100
AcDbEntity
  8
実線
100
AcDbCircle
 10
346.4957470649596
 20
562.7703837279309
 30
0.0
 40
29.45
100
AcDbArc
 50
90.0
 51
135.0
  0
LINE
  5
613
102
{ACAD_REACTORS
330
669
102
}
330
1F
100
AcDbEntity
  8
実線
100
AcDbLine
 10
298.7306839958081
 20
610.5354467970823
 30
0.0
 11
325.6714523590157
 21
583.5946784338745
 31
0.0
  0
LINE
  5
614
102
{ACAD_REACTORS
330
669
102
}
330
1F
100
AcDbEntity
  8
実線
100
AcDbLine
 10
312.3071341945898
 20
570.2303602694491
 30
0.0
 11
325.6714523590157
 21
583.5946784338748
 31
0.0
  0
LINE
  5
615
102
{ACAD_REACTORS
330
669
102
}
330
1F
100
AcDbEntity
  8
実線
100
AcDbLine
 10
298.7306839958081
 20
610.5354467970823
 30
0.0
 11
285.3663658313824
 21
597.1711286326564
 31
0.0
  0
LINE
  5
616
102
{ACAD_REACTORS
330
669
102
}
330
1F
100
AcDbEntity
  8
実線
100
AcDbLine
 10
285.3663658313824
 20
597.1711286326564
 30
0.0
 11
312.3071341945898
 21
570.2303602694491
 31
0.0
  0
LINE
  5
617
102
{ACAD_REACTORS
330
669
102
}
330
1F
100
AcDbEntity
  8
実線
100
AcDbLine
 10
285.3663658313824
 20
597.1711286326564
 30
0.0
 11
279.3206028522374
 21
599.8934897402245
 31
0.0
  0
LINE
  5
618
102
{ACAD_REACTORS
330
669
102
}
330
1F
100
AcDbEntity
  8
実線
100
AcDbLine
 10
315.0294953021581
 20
564.1845972903039
 30
0.0
 11
312.3071341945898
 21
570.2303602694491
 31
0.0
  0
LINE
  5
619
102
{ACAD_REACTORS
330
669
102
}
330
1F
100
AcDbEntity
  8
実線
100
AcDbLine
 10
277.3760592039745
 20
597.9489460919616
 30
0.0
 11
313.084951653895
 21
562.2400536420411
 31
0.0
  0
LINE
  5
61A
102
{ACAD_REACTORS
330
669
102
}
330
1F
100
AcDbEntity
  8
実線
100
AcDbLine
 10
279.3206028522374
 20
599.8934897402245
 30
0.0
 11
315.0294953021581
 21
564.1845972903039
 31
0.0
  0
LINE
  5
61B
102
{ACAD_REACTORS
330
669
102
}
330
1F
100
AcDbEntity
  8
実線
100
AcDbLine
 10
313.084951653895
 20
562.2400536420411
 30
0.0
 11
315.0294953021581
 21
564.1845972903039
 31
0.0
  0
LINE
  5
61C
102
{ACAD_REACTORS
330
669
102
}
330
1F
100
AcDbEntity
  8
実線
100
AcDbLine
 10
279.3206028522374
 20
599.8934897402245
 30
0.0
 11
277.3760592039745
 21
597.9489460919616
 31
0.0
  0
LINE
  5
61D
102
{ACAD_REACTORS
330
669
102
}
330
1F
100
AcDbEntity
  8
実線
100
AcDbLine
 10
346.4957470649596
 20
592.220383727931
 30
0.0
 11
348.2185772960757
 21
592.220383727931
 31
0.0
  0
LINE
  5
61E
102
{ACAD_REACTORS
330
669
102
}
330
1F
100
AcDbEntity
  8
実線
100
AcDbLine
 10
359.0613341117369
 20
630.3203837279307
 30
0.0
 11
346.4957470649596
 21
630.3203837279307
 31
0.0
  0
LINE
  5
61F
102
{ACAD_REACTORS
330
669
102
}
330
1F
100
AcDbEntity
  8
実線
100
AcDbLine
 10
346.4957470649596
 20
592.220383727931
 30
0.0
 11
346.4957470649596
 21
630.3203837279307
 31
0.0
  0
LINE
  5
620
102
{ACAD_REACTORS
330
669
102
}
330
1F
100
AcDbEntity
  8
実線
100
AcDbLine
 10
482.6957470649595
 20
634.0703837279307
 30
0.0
 11
482.6957470649595
 21
652.0703837279308
 31
0.0
  0
LINE
  5
621
102
{ACAD_REACTORS
330
669
102
}
330
1F
100
AcDbEntity
  8
実線
100
AcDbLine
 10
307.6957470649594
 20
652.0703837279308
 30
0.0
 11
307.6957470649594
 21
634.0703837279307
 31
0.0
  0
LINE
  5
622
102
{ACAD_REACTORS
330
669
102
}
330
1F
100
AcDbEntity
  8
実線
100
AcDbLine
 10
482.6957470649595
 20
652.0703837279308
 30
0.0
 11
307.6957470649594
 21
652.0703837279308
 31
0.0
  0
LINE
  5
623
102
{ACAD_REACTORS
330
669
102
}
330
1F
100
AcDbEntity
  8
実線
100
AcDbLine
 10
482.6957470649595
 20
634.0703837279307
 30
0.0
 11
307.6957470649594
 21
634.0703837279307
 31
0.0
  0
ARC
  5
624
102
{ACAD_REACTORS
330
669
102
}
330
1F
100
AcDbEntity
  8
実線
100
AcDbCircle
 10
422.1957470649595
 20
621.0703837279309
 30
0.0
 40
13.0
100
AcDbArc
 50
0.0
 51
90.0
  0
ARC
  5
625
102
{ACAD_REACTORS
330
669
102
}
330
1F
100
AcDbEntity
  8
実線
100
AcDbCircle
 10
368.1957470649595
 20
621.0703837279309
 30
0.0
 40
13.0
100
AcDbArc
 50
90.0
 51
134.6397729586044
  0
LINE
  5
626
102
{ACAD_REACTORS
330
669
102
}
330
1F
100
AcDbEntity
  8
実線
100
AcDbLine
 10
442.1729168338433
 20
583.3703837279307
 30
0.0
 11
348.2185772960757
 21
583.3703837279307
 31
0.0
  0
LINE
  5
627
102
{ACAD_REACTORS
330
669
102
}
330
1F
100
AcDbEntity
  8
実線
100
AcDbLine
 10
435.1957470649595
 20
593.3703837279307
 30
0.0
 11
435.1957470649595
 21
621.0703837279309
 31
0.0
  0
LINE
  5
628
102
{ACAD_REACTORS
330
669
102
}
330
1F
100
AcDbEntity
  8
実線
100
AcDbLine
 10
348.2185772960757
 20
593.3703837279307
 30
0.0
 11
377.1668502545356
 21
593.3703837279307
 31
0.0
  0
LINE
  5
629
102
{ACAD_REACTORS
330
669
102
}
330
1F
100
AcDbEntity
  8
実線
100
AcDbLine
 10
348.2185772960757
 20
593.3703837279307
 30
0.0
 11
348.2185772960757
 21
583.3703837279307
 31
0.0
  0
LINE
  5
62A
102
{ACAD_REACTORS
330
669
102
}
330
1F
100
AcDbEntity
  8
実線
100
AcDbLine
 10
442.1729168338433
 20
583.3703837279307
 30
0.0
 11
442.1729168338433
 21
593.3703837279307
 31
0.0
  0
LINE
  5
62B
102
{ACAD_REACTORS
330
669
102
}
330
1F
100
AcDbEntity
  8
実線
100
AcDbLine
 10
442.1729168338433
 20
593.3703837279307
 30
0.0
 11
413.2246438753835
 21
593.3703837279307
 31
0.0
  0
LINE
  5
62C
102
{ACAD_REACTORS
330
669
102
}
330
1F
100
AcDbEntity
  8
実線
100
AcDbLine
 10
413.2246438753835
 20
583.3703837279307
 30
0.0
 11
413.2246438753835
 21
593.3703837279307
 31
0.0
  0
LINE
  5
62D
102
{ACAD_REACTORS
330
669
102
}
330
1F
100
AcDbEntity
  8
実線
100
AcDbLine
 10
377.1668502545356
 20
583.3703837279307
 30
0.0
 11
377.1668502545356
 21
593.3703837279307
 31
0.0
  0
ARC
  5
62E
102
{ACAD_REACTORS
330
669
102
}
330
1F
100
AcDbEntity
  8
実線
100
AcDbCircle
 10
420.8957470649604
 20
528.8703837279307
 30
0.0
 40
70.00000000000003
100
AcDbArc
 50
144.1465329365336
 51
180.0
  0
LINE
  5
62F
102
{ACAD_REACTORS
330
669
102
}
330
1F
100
AcDbEntity
  8
実線
100
AcDbLine
 10
350.8957470649605
 20
499.3703837279307
 30
0.0
 11
350.8957470649605
 21
528.8703837279307
 31
0.0
  0
ARC
  5
630
102
{ACAD_REACTORS
330
669
102
}
330
1F
100
AcDbEntity
  8
実線
100
AcDbCircle
 10
418.8957470649604
 20
528.8703837279307
 30
0.0
 40
57.99999999999997
100
AcDbArc
 50
135.0170320400975
 51
166.0320373253524
  0
LINE
  5
631
102
{ACAD_REACTORS
330
669
102
}
330
1F
100
AcDbEntity
  8
実線
100
AcDbLine
 10
439.4957470649605
 20
499.3703837279307
 30
0.0
 11
439.4957470649605
 21
528.8703837279307
 31
0.0
  0
ARC
  5
632
102
{ACAD_REACTORS
330
669
102
}
330
1F
100
AcDbEntity
  8
実線
100
AcDbCircle
 10
369.4957470649605
 20
528.8703837279307
 30
0.0
 40
70.00000000000003
100
AcDbArc
 50
0.0
 51
35.85346706346634
  0
ARC
  5
633
102
{ACAD_REACTORS
330
669
102
}
330
1F
100
AcDbEntity
  8
実線
100
AcDbCircle
 10
371.4957470649605
 20
528.8703837279307
 30
0.0
 40
57.99999999999997
100
AcDbArc
 50
13.96796267464757
 51
44.98296795990245
  0
LINE
  5
634
102
{ACAD_REACTORS
330
669
102
}
330
1F
100
AcDbEntity
  8
実線
100
AcDbLine
 10
433.5811283969206
 20
499.3703837279307
 30
0.0
 11
433.5811283969206
 21
542.8703837279307
 31
0.0
  0
LINE
  5
635
102
{ACAD_REACTORS
330
669
102
}
330
1F
100
AcDbEntity
  8
実線
100
AcDbLine
 10
433.5811283969206
 20
542.8703837279309
 30
0.0
 11
356.8103657330003
 21
542.8703837279309
 31
0.0
  0
LINE
  5
636
102
{ACAD_REACTORS
330
669
102
}
330
1F
100
AcDbEntity
  8
実線
100
AcDbLine
 10
356.8103657330003
 20
499.3703837279307
 30
0.0
 11
356.8103657330003
 21
542.8703837279307
 31
0.0
  0
LINE
  5
637
102
{ACAD_REACTORS
330
669
102
}
330
1F
100
AcDbEntity
  8
実線
100
AcDbLine
 10
348.2185772960765
 20
569.8703837279307
 30
0.0
 11
442.1729168338442
 21
569.8703837279307
 31
0.0
  0
LINE
  5
638
102
{ACAD_REACTORS
330
669
102
}
330
1F
100
AcDbEntity
  8
実線
100
AcDbLine
 10
442.1729168338442
 20
569.8703837279307
 30
0.0
 11
442.1729168338442
 21
583.3703837279307
 31
0.0
  0
LINE
  5
639
102
{ACAD_REACTORS
330
669
102
}
330
1F
100
AcDbEntity
  8
実線
100
AcDbLine
 10
348.2185772960765
 20
583.3703837279307
 30
0.0
 11
348.2185772960765
 21
569.8703837279307
 31
0.0
  0
LINE
  5
63A
102
{ACAD_REACTORS
330
669
102
}
330
1F
100
AcDbEntity
  8
実線
100
AcDbLine
 10
377.1668502545366
 20
569.8703837279307
 30
0.0
 11
377.1668502545366
 21
583.3703837279307
 31
0.0
  0
LINE
  5
63B
102
{ACAD_REACTORS
330
669
102
}
330
1F
100
AcDbEntity
  8
実線
100
AcDbLine
 10
413.2246438753843
 20
569.8703837279307
 30
0.0
 11
413.2246438753843
 21
583.3703837279307
 31
0.0
  0
LINE
  5
63C
102
{ACAD_REACTORS
330
669
102
}
330
1F
100
AcDbEntity
  8
実線
100
AcDbLine
 10
442.1957470644746
 20
418.870383727931
 30
0.0
 11
348.1957470649604
 21
418.870383727931
 31
0.0
  0
ARC
  5
63D
102
{ACAD_REACTORS
330
669
102
}
330
1F
100
AcDbEntity
  8
実線
100
AcDbCircle
 10
348.1957470649604
 20
421.8703837279309
 30
0.0
 40
3.0
100
AcDbArc
 50
180.0
 51
270.0
  0
ARC
  5
63E
102
{ACAD_REACTORS
330
669
102
}
330
1F
100
AcDbEntity
  8
実線
100
AcDbCircle
 10
442.1957470649604
 20
421.8703837279309
 30
0.0
 40
3.0
100
AcDbArc
 50
270.0
 51
0.0
  0
LINE
  5
63F
102
{ACAD_REACTORS
330
669
102
}
330
1F
100
AcDbEntity
  8
実線
100
AcDbLine
 10
345.1957470649604
 20
423.370383727931
 30
0.0
 11
345.1957470649604
 21
421.8703837279309
 31
0.0
  0
LINE
  5
640
102
{ACAD_REACTORS
330
669
102
}
330
1F
100
AcDbEntity
  8
実線
100
AcDbLine
 10
445.1957470649603
 20
421.8703837279309
 30
0.0
 11
445.1957470649603
 21
423.370383727931
 31
0.0
  0
LINE
  5
641
102
{ACAD_REACTORS
330
66B
102
}
330
1F
100
AcDbEntity
  8
中心線
100
AcDbLine
 10
345.6982723819036
 20
174.0678584109924
 30
0.0
 11
345.6982723819036
 21
149.0678584109924
 31
0.0
  0
LINE
  5
642
102
{ACAD_REACTORS
330
66B
102
}
330
1F
100
AcDbEntity
  8
中心線
100
AcDbLine
 10
333.1982723819036
 20
161.5678584109924
 30
0.0
 11
358.1982723819036
 21
161.5678584109924
 31
0.0
  0
LINE
  5
643
102
{ACAD_REACTORS
330
66B
102
}
330
1F
100
AcDbEntity
  8
中心線
100
AcDbLine
 10
345.6982723818987
 20
75.07290904487581
 30
0.0
 11
345.6982723818987
 21
50.07290904487581
 31
0.0
  0
LINE
  5
644
102
{ACAD_REACTORS
330
66B
102
}
330
1F
100
AcDbEntity
  8
中心線
100
AcDbLine
 10
333.1982723818987
 20
62.57290904487581
 30
0.0
 11
358.1982723818987
 21
62.57290904487581
 31
0.0
  0
LINE
  5
645
102
{ACAD_REACTORS
330
66B
102
}
330
1F
100
AcDbEntity
  8
中心線
100
AcDbLine
 10
444.6932217480202
 20
174.0678584109875
 30
0.0
 11
444.6932217480202
 21
149.0678584109873
 31
0.0
  0
LINE
  5
646
102
{ACAD_REACTORS
330
66B
102
}
330
1F
100
AcDbEntity
  8
中心線
100
AcDbLine
 10
432.1932217480202
 20
161.5678584109873
 30
0.0
 11
457.1932217480202
 21
161.5678584109873
 31
0.0
  0
LINE
  5
647
102
{ACAD_REACTORS
330
66B
102
}
330
1F
100
AcDbEntity
  8
中心線
100
AcDbLine
 10
444.6932217480152
 20
75.0729090448707
 30
0.0
 11
444.6932217480152
 21
50.0729090448707
 31
0.0
  0
LINE
  5
648
102
{ACAD_REACTORS
330
66B
102
}
330
1F
100
AcDbEntity
  8
中心線
100
AcDbLine
 10
432.1932217480152
 20
62.5729090448707
 30
0.0
 11
457.1932217480152
 21
62.5729090448707
 31
0.0
  0
LINE
  5
649
102
{ACAD_REACTORS
330
66B
102
}
330
1F
100
AcDbEntity
  8
中心線
100
AcDbLine
 10
275.1957470649604
 20
112.0703837279308
 30
0.0
 11
515.1957470649604
 21
112.0703837279308
 31
0.0
  0
LINE
  5
64A
102
{ACAD_REACTORS
330
66B
102
}
330
1F
100
AcDbEntity
  8
中心線
100
AcDbLine
 10
395.1957470649604
 20
12.07038372793124
 30
0.0
 11
395.1957470649604
 21
212.0703837279312
 31
0.0
  0
LINE
  5
64B
102
{ACAD_REACTORS
330
66C
102
}
330
1F
100
AcDbEntity
  8
中心線
100
AcDbLine
 10
345.6982723819028
 20
894.0678584109926
 30
0.0
 11
345.6982723819028
 21
869.0678584109926
 31
0.0
  0
LINE
  5
64C
102
{ACAD_REACTORS
330
66C
102
}
330
1F
100
AcDbEntity
  8
中心線
100
AcDbLine
 10
333.1982723819028
 20
881.5678584109926
 30
0.0
 11
358.1982723819028
 21
881.5678584109926
 31
0.0
  0
LINE
  5
64D
102
{ACAD_REACTORS
330
66C
102
}
330
1F
100
AcDbEntity
  8
中心線
100
AcDbLine
 10
345.6982723818977
 20
795.0729090448755
 30
0.0
 11
345.6982723818977
 21
770.0729090448764
 31
0.0
  0
LINE
  5
64E
102
{ACAD_REACTORS
330
66C
102
}
330
1F
100
AcDbEntity
  8
中心線
100
AcDbLine
 10
333.1982723818977
 20
782.5729090448755
 30
0.0
 11
358.1982723818977
 21
782.5729090448755
 31
0.0
  0
LINE
  5
64F
102
{ACAD_REACTORS
330
66C
102
}
330
1F
100
AcDbEntity
  8
中心線
100
AcDbLine
 10
444.6932217480192
 20
894.0678584109875
 30
0.0
 11
444.6932217480192
 21
869.0678584109875
 31
0.0
  0
LINE
  5
650
102
{ACAD_REACTORS
330
66C
102
}
330
1F
100
AcDbEntity
  8
中心線
100
AcDbLine
 10
432.1932217480192
 20
881.5678584109875
 30
0.0
 11
457.1932217480192
 21
881.5678584109875
 31
0.0
  0
LINE
  5
651
102
{ACAD_REACTORS
330
66C
102
}
330
1F
100
AcDbEntity
  8
中心線
100
AcDbLine
 10
444.6932217480143
 20
795.0729090448706
 30
0.0
 11
444.6932217480143
 21
770.0729090448706
 31
0.0
  0
LINE
  5
652
102
{ACAD_REACTORS
330
66C
102
}
330
1F
100
AcDbEntity
  8
中心線
100
AcDbLine
 10
432.1932217480143
 20
782.5729090448706
 30
0.0
 11
457.1932217480143
 21
782.5729090448706
 31
0.0
  0
LINE
  5
653
102
{ACAD_REACTORS
330
66C
102
}
330
1F
100
AcDbEntity
  8
中心線
100
AcDbLine
 10
275.1957470649595
 20
832.0703837279307
 30
0.0
 11
515.1957470649595
 21
832.0703837279307
 31
0.0
  0
LINE
  5
654
102
{ACAD_REACTORS
330
66C
102
}
330
1F
100
AcDbEntity
  8
中心線
100
AcDbLine
 10
395.1957470649595
 20
732.0703837279311
 30
0.0
 11
395.1957470649595
 21
932.070383727931
 31
0.0
  0
LINE
  5
655
102
{ACAD_REACTORS
330
667
102
}
330
1F
100
AcDbEntity
  8
中心線
100
AcDbLine
 10
806.4069322482383
 20
611.2703837279309
 30
0.0
 11
943.9851048400553
 21
611.2703837279309
 31
0.0
  0
LINE
  5
656
102
{ACAD_REACTORS
330
667
102
}
330
1F
100
AcDbEntity
  8
中心線
100
AcDbLine
 10
875.1957470649594
 20
252.9727032465744
 30
0.0
 11
875.1957470649594
 21
666.0018920124484
 31
0.0
  0
LINE
  5
657
102
{ACAD_REACTORS
330
667
102
}
330
1F
100
AcDbEntity
  8
中心線
100
AcDbLine
 10
943.9851048400553
 20
611.2703837279309
 30
0.0
 11
976.5752022633572
 21
578.6802863046282
 31
0.0
  0
LINE
  5
658
102
{ACAD_REACTORS
330
668
102
}
330
1F
100
AcDbEntity
  8
中心線
100
AcDbLine
 10
635.1957470649595
 20
252.9727032465744
 30
0.0
 11
635.1957470649594
 21
666.0018920124484
 31
0.0
  0
LINE
  5
659
102
{ACAD_REACTORS
330
668
102
}
330
1F
100
AcDbEntity
  8
中心線
100
AcDbLine
 10
580.1957470649595
 20
611.2703837279309
 30
0.0
 11
690.1957470649595
 21
611.2703837279309
 31
0.0
  0
LINE
  5
662
102
{ACAD_REACTORS
330
66A
102
}
330
1F
100
AcDbEntity
  8
中心線
100
AcDbLine
 10
155.1957470649595
 20
252.9727032465744
 30
0.0
 11
155.1957470649595
 21
666.0018920124484
 31
0.0
  0
LINE
  5
663
102
{ACAD_REACTORS
330
66A
102
}
330
1F
100
AcDbEntity
  8
中心線
100
AcDbLine
 10
100.1957470649595
 20
611.2703837279309
 30
0.0
 11
210.2164941477067
 21
611.2703837279309
 31
0.0
  0
LINE
  5
664
102
{ACAD_REACTORS
330
669
102
}
330
1F
100
AcDbEntity
  8
中心線
100
AcDbLine
 10
463.9851048400569
 20
611.2703837279309
 30
0.0
 11
326.4063892898639
 21
611.2703837279309
 31
0.0
  0
LINE
  5
665
102
{ACAD_REACTORS
330
669
102
}
330
1F
100
AcDbEntity
  8
中心線
100
AcDbLine
 10
395.1957470649595
 20
252.9727032465744
 30
0.0
 11
395.1957470649595
 21
666.0018920124484
 31
0.0
  0
LINE
  5
666
102
{ACAD_REACTORS
330
669
102
}
330
1F
100
AcDbEntity
  8
中心線
100
AcDbLine
 10
326.4063892898639
 20
611.2703837279309
 30
0.0
 11
293.8162918665616
 21
578.6802863046282
 31
0.0
  0
LINE
  5
6B2
330
1F
100
AcDbEntity
  8
0
100
AcDbLine
 10
395.1957470649595
 20
652.0703837279308
 30
0.0
 11
395.1957470649595
 21
652.0703837279308
 31
0.0
  0
ENDSEC
  0
SECTION
  2
OBJECTS
  0
DICTIONARY
  5
C
330
0
100
AcDbDictionary
281
     1
  3
ACAD_CIP_PREVIOUS_PRODUCT_INFO
350
23D
  3
ACAD_COLOR
350
233
  3
ACAD_DETAILVIEWSTYLE
350
236
  3
ACAD_GROUP
350
D
  3
ACAD_LAYOUT
350
1A
  3
ACAD_MATERIAL
350
43
  3
ACAD_MLEADERSTYLE
350
5B
  3
ACAD_MLINESTYLE
350
17
  3
ACAD_PLOTSETTINGS
350
19
  3
ACAD_PLOTSTYLENAME
350
E
  3
ACAD_SCALELIST
350
47
  3
ACAD_SECTIONVIEWSTYLE
350
234
  3
ACAD_TABLESTYLE
350
59
  3
ACAD_VISUALSTYLE
350
2A
  3
ACDB_RECOMPOSE_DATA
350
6D2
  3
AcDbVariableDictionary
350
1E8
  3
DWGPROPS
350
6D3
  0
DICTIONARY
  5
244
330
2
100
AcDbDictionary
280
     1
281
     1
  3
ACAD_LAYERSTATES
360
245
  0
DICTIONARY
  5
66D
330
10
100
AcDbDictionary
280
     1
281
     1
  3
ADSK_XREC_LAYER_RECONCILED
360
66E
  0
DICTIONARY
  5
240
330
23F
100
AcDbDictionary
280
     1
281
     1
  3
ADSK_XREC_LAYER_RECONCILED
360
66F
  0
DICTIONARY
  5
242
330
241
100
AcDbDictionary
280
     1
281
     1
  3
ADSK_XREC_LAYER_RECONCILED
360
670
  0
DICTIONARY
  5
4FE
330
1F
100
AcDbDictionary
280
     1
281
     1
  3
ACAD_SORTENTS
360
4FF
  0
XRECORD
  5
23D
102
{ACAD_REACTORS
330
C
102
}
330
C
100
AcDbXrecord
280
     1
300
ACDLT
300
2016
300
ACDLT_F_S
  0
DICTIONARY
  5
233
102
{ACAD_REACTORS
330
C
102
}
330
C
100
AcDbDictionary
281
     1
  0
DICTIONARY
  5
236
102
{ACAD_REACTORS
330
C
102
}
330
C
100
AcDbDictionary
281
     1
  3
Metric50
350
237
  0
DICTIONARY
  5
D
102
{ACAD_REACTORS
330
C
102
}
330
C
100
AcDbDictionary
281
     1
  3
*A1
350
667
  3
*A2
350
668
  3
*A3
350
669
  3
*A4
350
66A
  3
*A5
350
66B
  3
*A6
350
66C
  0
DICTIONARY
  5
1A
102
{ACAD_REACTORS
330
C
102
}
330
C
100
AcDbDictionary
281
     1
  3
Layout1
350
1E
  3
Model
350
22
  3
レイアウト1
350
238
  0
DICTIONARY
  5
43
102
{ACAD_REACTORS
330
C
102
}
330
C
100
AcDbDictionary
281
     1
  3
ByBlock
350
45
  3
ByLayer
350
44
  3
Global
350
46
  0
DICTIONARY
  5
5B
102
{ACAD_REACTORS
330
C
102
}
330
C
100
AcDbDictionary
281
     1
  3
Standard
350
5C
  0
DICTIONARY
  5
17
102
{ACAD_REACTORS
330
C
102
}
330
C
100
AcDbDictionary
281
     1
  3
Standard
350
18
  0
DICTIONARY
  5
19
102
{ACAD_REACTORS
330
C
102
}
330
C
100
AcDbDictionary
281
     1
  0
ACDBDICTIONARYWDFLT
  5
E
102
{ACAD_REACTORS
330
C
102
}
330
C
100
AcDbDictionary
281
     1
  3
Normal
350
F
100
AcDbDictionaryWithDefault
340
F
  0
DICTIONARY
  5
47
102
{ACAD_REACTORS
330
C
102
}
330
C
100
AcDbDictionary
281
     1
  3
A0
350
48
  3
A1
350
49
  3
A2
350
4A
  3
A3
350
4B
  3
A4
350
4C
  3
A5
350
4D
  3
A6
350
4E
  3
A7
350
4F
  3
A8
350
50
  3
A9
350
51
  3
B0
350
52
  3
B1
350
53
  3
B2
350
54
  3
B3
350
55
  3
B4
350
56
  3
B5
350
57
  3
B6
350
58
  0
DICTIONARY
  5
234
102
{ACAD_REACTORS
330
C
102
}
330
C
100
AcDbDictionary
281
     1
  3
Metric50
350
235
  0
DICTIONARY
  5
59
102
{ACAD_REACTORS
330
C
102
}
330
C
100
AcDbDictionary
281
     1
  3
Standard
350
5A
  0
DICTIONARY
  5
2A
102
{ACAD_REACTORS
330
C
102
}
330
C
100
AcDbDictionary
281
     1
  3
2dWireframe
350
2F
  3
Basic
350
32
  3
Brighten
350
36
  3
ColorChange
350
3A
  3
Conceptual
350
34
  3
Dim
350
35
  3
EdgeColorOff
350
3D
  3
Facepattern
350
39
  3
Flat
350
2B
  3
FlatWithEdges
350
2C
  3
Gouraud
350
2D
  3
GouraudWithEdges
350
2E
  3
Hidden
350
31
  3
JitterOff
350
3B
  3
Linepattern
350
38
  3
OverhangOff
350
3C
  3
Realistic
350
33
  3
Shaded
350
42
  3
Shaded with edges
350
41
  3
Shades of Gray
350
3E
  3
Sketchy
350
3F
  3
Thicken
350
37
  3
Wireframe
350
30
  3
X-Ray
350
40
  0
XRECORD
  5
6D2
102
{ACAD_REACTORS
330
C
102
}
330
C
100
AcDbXrecord
280
     1
 90
        1
330
5A
  0
DICTIONARY
  5
1E8
102
{ACAD_REACTORS
330
C
102
}
330
C
100
AcDbDictionary
281
     1
  3
CANNOSCALE
350
1F6
  3
CENTEREXE
350
1EF
  3
CENTERLTYPEFILE
350
1F0
  3
CMLEADERSTYLE
350
1EA
  3
CTABLESTYLE
350
1E9
  3
CVIEWDETAILSTYLE
350
671
  3
CVIEWSECTIONSTYLE
350
672
  3
DIMASSOC
350
1F1
  3
HIDETEXT
350
1F2
  3
INDEXCTL
350
6CA
  3
LAYEREVAL
350
674
  3
LAYERNOTIFY
350
675
  3
LIGHTINGUNITS
350
673
  3
LOFTANG1
350
6CD
  3
LOFTANG2
350
6CE
  3
LONGITUDE
350
6CF
  3
MSLTSCALE
350
1F7
  3
PSOLHEIGHT
350
6CC
  3
PSOLWIDTH
350
6CB
  3
SORTENTS
350
6C9
  3
XCLIPFRAME
350
6D0
  0
XRECORD
  5
6D3
102
{ACAD_REACTORS
330
C
102
}
330
C
100
AcDbXrecord
280
     1
  1
DWGPROPS COOKIE
  2

  3

  4

  6
File was created by TR2_DExp
  7

  8
fujino
  9

300
=
301
=
302
=
303
=
304
=
305
=
306
=
307
=
308
=
309
=
 40
0.0229909837962963
 41
2455188.75
 42
2459752.589943577
  1

 90
        0
  0
DICTIONARY
  5
245
102
{ACAD_REACTORS
330
244
102
}
330
244
100
AcDbDictionary
281
     1
  0
XRECORD
  5
66E
102
{ACAD_REACTORS
330
66D
102
}
330
66D
100
AcDbXrecord
280
     1
290
     1
  0
XRECORD
  5
66F
102
{ACAD_REACTORS
330
240
102
}
330
240
100
AcDbXrecord
280
     1
290
     1
  0
XRECORD
  5
670
102
{ACAD_REACTORS
330
242
102
}
330
242
100
AcDbXrecord
280
     1
290
     1
  0
SORTENTSTABLE
  5
4FF
102
{ACAD_REACTORS
330
4FE
102
}
330
4FE
100
AcDbSortentsTable
330
1F
331
5DD
  5
3FF
331
61C
  5
3B4
331
56F
  5
48D
331
5AE
  5
44B
331
5AA
  5
447
331
5D9
  5
3FB
331
618
  5
3B0
331
505
  5
4A1
331
53C
  5
45A
331
56B
  5
489
331
4D6
  5
4D2
331
567
  5
485
331
5A6
  5
443
331
5D5
  5
3F7
331
655
  5
655
331
501
  5
49D
331
538
  5
456
331
614
  5
3AC
331
610
  5
3A8
331
664
  5
664
331
563
  5
481
331
5A2
  5
43F
331
651
  5
651
331
4F5
  5
4F1
331
5D1
  5
3F3
331
64D
  5
64D
331
4F1
  5
4ED
331
649
  5
649
331
5CD
  5
3EF
331
60C
  5
3A4
331
55F
  5
47D
331
59E
  5
43B
331
59A
  5
437
331
5C9
  5
3EB
331
608
  5
3A0
331
534
  5
4D0
331
55B
  5
479
331
596
  5
433
331
645
  5
645
331
4FA
  5
4F6
331
530
  5
4CC
331
604
  5
39C
331
600
  5
398
331
592
  5
42F
331
641
  5
641
331
52C
  5
4C8
331
528
  5
4C4
331
63D
  5
3D5
331
639
  5
3D1
331
5FC
  5
394
331
58E
  5
42B
331
58A
  5
427
331
524
  5
4C0
331
5F8
  5
41A
331
637
  5
3CF
331
633
  5
3CB
331
586
  5
423
331
5C5
  5
3E7
331
5F4
  5
416
331
520
  5
4BC
331
557
  5
475
331
5F0
  5
412
331
553
  5
471
331
582
  5
41F
331
5C1
  5
3E3
331
4ED
  5
4E9
331
51C
  5
4B8
331
62F
  5
3C7
331
5BD
  5
3DF
331
5EC
  5
40E
331
62B
  5
3C3
331
54F
  5
46D
331
57E
  5
41B
331
5B9
  5
3DB
331
5E8
  5
40A
331
627
  5
3BF
331
54B
  5
469
331
57A
  5
498
331
623
  5
3BB
331
576
  5
494
331
5B5
  5
452
331
5E4
  5
406
331
4E1
  5
4DD
331
510
  5
4AC
331
547
  5
465
331
5E0
  5
402
331
543
  5
461
331
572
  5
490
331
5B1
  5
44E
331
4DD
  5
4D9
331
50C
  5
4A8
331
508
  5
4A4
331
4D9
  5
4D5
331
61F
  5
3B7
331
5DC
  5
3FE
331
61B
  5
3B3
331
53F
  5
45D
331
56E
  5
48C
331
5AD
  5
44A
331
5A9
  5
446
331
5D8
  5
3FA
331
617
  5
3AF
331
504
  5
4A0
331
53B
  5
459
331
56A
  5
488
331
613
  5
3AB
331
566
  5
484
331
5A5
  5
442
331
654
  5
654
331
500
  5
49C
331
5D4
  5
3F6
331
663
  5
663
331
562
  5
480
331
5A1
  5
43E
331
650
  5
650
331
4F4
  5
4F0
331
5D0
  5
3F2
331
64C
  5
64C
331
4F0
  5
4EC
331
648
  5
648
331
60F
  5
3A7
331
5CC
  5
3EE
331
60B
  5
3A3
331
537
  5
455
331
55E
  5
47C
331
59D
  5
43A
331
599
  5
436
331
5C8
  5
3EA
331
607
  5
39F
331
533
  5
4CF
331
55A
  5
478
331
4FD
  5
4F9
331
595
  5
432
331
644
  5
644
331
4F9
  5
4F5
331
52F
  5
4CB
331
603
  5
39B
331
52B
  5
4C7
331
640
  5
3D8
331
591
  5
42E
331
63C
  5
3D4
331
638
  5
3D0
331
5FF
  5
397
331
5FB
  5
393
331
527
  5
4C3
331
58D
  5
42A
331
589
  5
426
331
523
  5
4BF
331
5F7
  5
419
331
636
  5
3CE
331
632
  5
3CA
331
556
  5
474
331
585
  5
422
331
5C4
  5
3E6
331
51F
  5
4BB
331
5F3
  5
415
331
552
  5
470
331
581
  5
41E
331
5C0
  5
3E2
331
5EF
  5
411
331
62E
  5
3C6
331
5BC
  5
3DE
331
5EB
  5
40D
331
62A
  5
3C2
331
54E
  5
46C
331
57D
  5
49B
331
579
  5
497
331
5B8
  5
3DA
331
5E7
  5
409
331
4E4
  5
4E0
331
513
  5
4AF
331
54A
  5
468
331
626
  5
3BE
331
622
  5
3BA
331
575
  5
493
331
5B4
  5
451
331
5E3
  5
405
331
659
  5
659
331
4E0
  5
4DC
331
50F
  5
4AB
331
546
  5
464
331
542
  5
460
331
571
  5
48F
331
5B0
  5
44D
331
4DC
  5
4D8
331
50B
  5
4A7
331
4D8
  5
4D4
331
5DF
  5
401
331
61E
  5
3B6
331
5AC
  5
449
331
5DB
  5
3FD
331
61A
  5
3B2
331
507
  5
4A3
331
53E
  5
45C
331
56D
  5
48B
331
5A8
  5
445
331
5D7
  5
3F9
331
616
  5
3AE
331
657
  5
657
331
503
  5
49F
331
53A
  5
458
331
569
  5
487
331
612
  5
3AA
331
666
  5
666
331
565
  5
483
331
5A4
  5
441
331
653
  5
653
331
4F7
  5
4F3
331
5D3
  5
3F5
331
662
  5
662
331
561
  5
47F
331
5A0
  5
43D
331
64F
  5
64F
331
4F3
  5
4EF
331
64B
  5
64B
331
5CF
  5
3F1
331
60E
  5
3A6
331
5CB
  5
3ED
331
60A
  5
3A2
331
536
  5
454
331
55D
  5
47B
331
59C
  5
439
331
598
  5
435
331
606
  5
39E
331
647
  5
647
331
4FC
  5
4F8
331
532
  5
4CE
331
559
  5
477
331
602
  5
39A
331
594
  5
431
331
643
  5
643
331
4F8
  5
4F4
331
52E
  5
4CA
331
52A
  5
4C6
331
63F
  5
3D7
331
590
  5
42D
331
63B
  5
3D3
331
5FE
  5
396
331
5FA
  5
392
331
526
  5
4C2
331
58C
  5
429
331
635
  5
3CD
331
588
  5
425
331
5C7
  5
3E9
331
522
  5
4BE
331
5F6
  5
418
331
631
  5
3C9
331
555
  5
473
331
584
  5
421
331
5C3
  5
3E5
331
5F2
  5
414
331
551
  5
46F
331
580
  5
41D
331
6B2
  5
6B2
331
5EE
  5
410
331
62D
  5
3C5
331
5BF
  5
3E1
331
5BB
  5
3DD
331
5EA
  5
40C
331
629
  5
3C1
331
516
  5
4B2
331
54D
  5
46B
331
57C
  5
49A
331
4E7
  5
4E3
331
578
  5
496
331
5B7
  5
3D9
331
5E6
  5
408
331
4E3
  5
4DF
331
512
  5
4AE
331
549
  5
467
331
625
  5
3BD
331
621
  5
3B9
331
545
  5
463
331
574
  5
492
331
5B3
  5
450
331
658
  5
658
331
4DF
  5
4DB
331
50E
  5
4AA
331
5E2
  5
404
331
541
  5
45F
331
570
  5
48E
331
4DB
  5
4D7
331
50A
  5
4A6
331
5DE
  5
400
331
61D
  5
3B5
331
5AF
  5
44C
331
5AB
  5
448
331
5DA
  5
3FC
331
619
  5
3B1
331
506
  5
4A2
331
53D
  5
45B
331
56C
  5
48A
331
4D7
  5
4D3
331
568
  5
486
331
5A7
  5
444
331
5D6
  5
3F8
331
656
  5
656
331
502
  5
49E
331
539
  5
457
331
615
  5
3AD
331
611
  5
3A9
331
665
  5
665
331
564
  5
482
331
5A3
  5
440
331
652
  5
652
331
4F6
  5
4F2
331
5D2
  5
3F4
331
560
  5
47E
331
64E
  5
64E
331
4F2
  5
4EE
331
64A
  5
64A
331
5CE
  5
3F0
331
60D
  5
3A5
331
59F
  5
43C
331
59B
  5
438
331
5CA
  5
3EC
331
609
  5
3A1
331
535
  5
4D1
331
55C
  5
47A
331
597
  5
434
331
605
  5
39D
331
646
  5
646
331
4FB
  5
4F7
331
531
  5
4CD
331
558
  5
476
331
601
  5
399
331
593
  5
430
331
642
  5
642
331
52D
  5
4C9
331
529
  5
4C5
331
63E
  5
3D6
331
63A
  5
3D2
331
5FD
  5
395
331
58F
  5
42C
331
5F9
  5
391
331
525
  5
4C1
331
58B
  5
428
331
634
  5
3CC
331
587
  5
424
331
5C6
  5
3E8
331
521
  5
4BD
331
5F5
  5
417
331
5F1
  5
413
331
630
  5
3C8
331
554
  5
472
331
583
  5
420
331
5C2
  5
3E4
331
519
  5
4B5
331
550
  5
46E
331
4EA
  5
4E6
331
5ED
  5
40F
331
62C
  5
3C4
331
57F
  5
41C
331
5BE
  5
3E0
331
5BA
  5
3DC
331
5E9
  5
40B
331
628
  5
3C0
331
54C
  5
46A
331
57B
  5
499
331
624
  5
3BC
331
577
  5
495
331
5B6
  5
453
331
5E5
  5
407
331
4E2
  5
4DE
331
511
  5
4AD
331
548
  5
466
331
620
  5
3B8
331
544
  5
462
331
573
  5
491
331
5B2
  5
44F
331
4DE
  5
4DA
331
50D
  5
4A9
331
5E1
  5
403
331
509
  5
4A5
331
540
  5
45E
331
4DA
  5
4D6
  0
ACDBDETAILVIEWSTYLE
  5
237
102
{ACAD_XDICTIONARY
360
70B
102
}
102
{ACAD_REACTORS
330
236
102
}
330
236
100
AcDbModelDocViewStyle
 70
     0
  3
Metric50
290
     0
100
AcDbDetailViewStyle
 70
     0
 71
     0
 90
        3
 71
     1
340
11
 40
5.0
340
0
 40
5.0
300

 40
0.0
280
     1
 71
     2
340
16
 90
       25
 71
     3
340
11
 40
5.0
 90
        0
 40
15.0
 90
        1
300
%<\AcVar ViewDetailId>% (%<\AcVar ViewScale \f "%sn">%)
 71
     4
340
16
 90
       25
340
16
 90
       25
280
     0
  0
GROUP
  5
667
102
{ACAD_REACTORS
330
D
102
}
330
D
100
AcDbGroup
300

 70
     1
 71
     1
340
657
340
656
340
655
340
57D
340
57C
340
57B
340
57A
340
579
340
578
340
577
340
576
340
575
340
574
340
573
340
572
340
571
340
570
340
56F
340
56E
340
56D
340
56C
340
56B
340
56A
340
569
340
568
340
567
340
566
340
565
340
564
340
563
340
562
340
561
340
560
340
55F
340
55E
340
55D
340
55C
340
55B
340
55A
340
559
340
558
340
557
340
556
340
555
340
554
340
553
340
552
340
551
340
550
340
54F
340
54E
340
54D
340
54C
340
54B
340
54A
340
549
340
548
340
547
340
546
340
545
340
544
340
543
340
542
340
541
340
540
340
53F
340
53E
340
53D
340
53C
340
53B
340
53A
340
539
340
538
340
537
340
536
  0
GROUP
  5
668
102
{ACAD_REACTORS
330
D
102
}
330
D
100
AcDbGroup
300

 70
     1
 71
     1
340
659
340
658
340
5B6
340
5B5
340
5B4
340
5B3
340
5B2
340
5B1
340
5B0
340
5AF
340
5AE
340
5AD
340
5AC
340
5AB
340
5AA
340
5A9
340
5A8
340
5A7
340
5A6
340
5A5
340
5A4
340
5A3
340
5A2
340
5A1
340
5A0
340
59F
340
59E
340
59D
340
59C
340
59B
340
59A
340
599
340
598
340
597
340
596
340
595
340
594
340
593
340
592
340
591
340
590
340
58F
340
58E
340
58D
340
58C
340
58B
340
58A
340
589
340
588
340
587
340
586
340
585
340
584
340
583
340
582
340
581
340
580
340
57F
340
57E
  0
GROUP
  5
669
102
{ACAD_REACTORS
330
D
102
}
330
D
100
AcDbGroup
300

 70
     1
 71
     1
340
666
340
665
340
664
340
640
340
63F
340
63E
340
63D
340
63C
340
63B
340
63A
340
639
340
638
340
637
340
636
340
635
340
634
340
633
340
632
340
631
340
630
340
62F
340
62E
340
62D
340
62C
340
62B
340
62A
340
629
340
628
340
627
340
626
340
625
340
624
340
623
340
622
340
621
340
620
340
61F
340
61E
340
61D
340
61C
340
61B
340
61A
340
619
340
618
340
617
340
616
340
615
340
614
340
613
340
612
340
611
340
610
340
60F
340
60E
340
60D
340
60C
340
60B
340
60A
340
609
340
608
340
607
340
606
340
605
340
604
340
603
340
602
340
601
340
600
340
5FF
340
5FE
340
5FD
340
5FC
340
5FB
340
5FA
340
5F9
  0
GROUP
  5
66A
102
{ACAD_REACTORS
330
D
102
}
330
D
100
AcDbGroup
300

 70
     1
 71
     1
340
663
340
662
340
5F8
340
5F7
340
5F6
340
5F5
340
5F4
340
5F3
340
5F2
340
5F1
340
5F0
340
5EF
340
5EE
340
5ED
340
5EC
340
5EB
340
5EA
340
5E9
340
5E8
340
5E7
340
5E6
340
5E5
340
5E4
340
5E3
340
5E2
340
5E1
340
5E0
340
5DF
340
5DE
340
5DD
340
5DC
340
5DB
340
5DA
340
5D9
340
5D8
340
5D7
340
5D6
340
5D5
340
5D4
340
5D3
340
5D2
340
5D1
340
5D0
340
5CF
340
5CE
340
5CD
340
5CC
340
5CB
340
5CA
340
5C9
340
5C8
340
5C7
340
5C6
340
5C5
340
5C4
340
5C3
340
5C2
340
5C1
340
5C0
340
5BF
340
5BE
340
5BD
340
5BC
340
5BB
340
5BA
340
5B9
340
5B8
340
5B7
  0
GROUP
  5
66B
102
{ACAD_REACTORS
330
D
102
}
330
D
100
AcDbGroup
300

 70
     1
 71
     1
340
64A
340
649
340
648
340
647
340
646
340
645
340
644
340
643
340
642
340
641
340
535
340
534
340
533
340
532
340
531
340
530
340
52F
340
52E
340
52D
340
52C
340
52B
340
52A
340
529
340
528
340
527
340
526
340
525
340
524
340
523
340
522
340
521
340
520
340
51F
340
51C
340
519
340
516
340
513
340
512
340
511
340
510
340
50F
340
50E
340
50D
340
50C
340
50B
340
50A
340
509
340
508
340
507
340
506
340
505
340
504
340
503
340
502
340
501
340
500
  0
GROUP
  5
66C
102
{ACAD_REACTORS
330
D
102
}
330
D
100
AcDbGroup
300

 70
     1
 71
     1
340
654
340
653
340
652
340
651
340
650
340
64F
340
64E
340
64D
340
64C
340
64B
340
4FD
340
4FC
340
4FB
340
4FA
340
4F9
340
4F8
340
4F7
340
4F6
340
4F5
340
4F4
340
4F3
340
4F2
340
4F1
340
4F0
340
4ED
340
4EA
340
4E7
340
4E4
340
4E3
340
4E2
340
4E1
340
4E0
340
4DF
340
4DE
340
4DD
340
4DC
340
4DB
340
4DA
340
4D9
340
4D8
340
4D7
340
4D6
  0
LAYOUT
  5
1E
102
{ACAD_XDICTIONARY
360
6D4
102
}
102
{ACAD_REACTORS
330
1A
102
}
330
1A
100
AcDbPlotSettings
  1

  2
none_device
  4

  6

 40
0.0
 41
0.0
 42
0.0
 43
0.0
 44
0.0
 45
0.0
 46
0.0
 47
0.0
 48
0.0
 49
0.0
140
0.0
141
0.0
142
1.0
143
1.0
 70
   688
 72
     1
 73
     0
 74
     5
  7

 75
    16
147
1.0
148
0.0
149
0.0
100
AcDbLayout
  1
Layout1
 70
     1
 71
     1
 10
0.0
 20
0.0
 11
420.0
 21
297.0
 12
0.0
 22
0.0
 32
0.0
 14
1.000000000000000E+20
 24
1.000000000000000E+20
 34
1.000000000000000E+20
 15
-1.000000000000000E+20
 25
-1.000000000000000E+20
 35
-1.000000000000000E+20
146
0.0
 13
0.0
 23
0.0
 33
0.0
 16
1.0
 26
0.0
 36
0.0
 17
0.0
 27
1.0
 37
0.0
 76
     0
330
1B
  0
LAYOUT
  5
22
102
{ACAD_XDICTIONARY
360
6D6
102
}
102
{ACAD_REACTORS
330
1A
102
}
330
1A
100
AcDbPlotSettings
  1

  2
none_device
  4
Letter_(8.50_x_11.00_Inches)
  6

 40
6.349999999999998
 41
6.349999999999998
 42
6.350005079999998
 43
6.350005079999998
 44
215.9
 45
279.4
 46
0.0
 47
0.0
 48
0.0
 49
0.0
140
0.0
141
0.0
142
1.0
143
1.0
 70
  1712
 72
     1
 73
     0
 74
     0
  7

 75
     0
147
1.0
148
0.0
149
0.0
100
AcDbLayout
  1
Model
 70
     1
 71
     0
 10
-435.470031738281
 20
-777.7690887451171
 11
829.2339563546374
 21
374.7675933837891
 12
0.0
 22
0.0
 32
0.0
 14
-435.470031738281
 24
-777.7690887451171
 34
0.0
 15
829.2339563546374
 25
374.7675933837891
 35
0.0
146
0.0
 13
0.0
 23
0.0
 33
0.0
 16
1.0
 26
0.0
 36
0.0
 17
0.0
 27
1.0
 37
0.0
 76
     0
330
1F
331
29
  0
LAYOUT
  5
238
102
{ACAD_XDICTIONARY
360
70D
102
}
102
{ACAD_REACTORS
330
1A
102
}
330
1A
100
AcDbPlotSettings
  1

  2
青梅 FX DocuCentre-V C2275 T2
  4

  6

 40
0.0
 41
0.0
 42
0.0
 43
0.0
 44
0.0
 45
0.0
 46
0.0
 47
0.0
 48
0.0
 49
0.0
140
0.0
141
0.0
142
1.0
143
1.0
 70
   688
 72
     0
 73
     0
 74
     5
  7
AutoCAD_PEN.ctb
 75
    16
147
1.0
148
0.0
149
0.0
100
AcDbLayout
  1
レイアウト1
 70
     1
 71
     2
 10
0.0
 20
0.0
 11
12.0
 21
9.0
 12
0.0
 22
0.0
 32
0.0
 14
0.0
 24
0.0
 34
0.0
 15
0.0
 25
0.0
 35
0.0
146
0.0
 13
0.0
 23
0.0
 33
0.0
 16
1.0
 26
0.0
 36
0.0
 17
0.0
 27
1.0
 37
0.0
 76
     0
330
23
  0
MATERIAL
  5
45
102
{ACAD_XDICTIONARY
360
22A
102
}
102
{ACAD_REACTORS
330
43
102
}
330
43
100
AcDbMaterial
  1
ByBlock
  0
MATERIAL
  5
44
102
{ACAD_XDICTIONARY
360
228
102
}
102
{ACAD_REACTORS
330
43
102
}
330
43
100
AcDbMaterial
  1
ByLayer
  0
MATERIAL
  5
46
102
{ACAD_XDICTIONARY
360
22C
102
}
102
{ACAD_REACTORS
330
43
102
}
330
43
100
AcDbMaterial
  1
Global
  0
MLEADERSTYLE
  5
5C
102
{ACAD_REACTORS
330
5B
102
}
330
5B
100
AcDbMLeaderStyle
170
     2
171
     1
172
     0
 90
        2
 40
0.0
 41
0.0
173
     1
 91
-1056964608
340
14
 92
       -2
290
     1
 42
2.0
291
     1
 43
8.0
  3
Standard
 44
4.0
300

342
11
174
     1
178
     6
175
     1
176
     0
 93
-1056964608
 45
4.0
292
     0
297
     0
 46
4.0
 94
-1056964608
 47
1.0
 49
1.0
140
1.0
293
     1
141
0.0
294
     1
177
     0
142
1.0
295
     0
296
     0
143
3.75
1001
ACAD_MLEADERVER
1070
     2
  0
MLINESTYLE
  5
18
102
{ACAD_REACTORS
330
17
102
}
330
17
100
AcDbMlineStyle
  2
STANDARD
 70
     0
  3

 62
   256
 51
90.0
 52
90.0
 71
     2
 49
0.5
 62
   256
  6
BYLAYER
 49
-0.5
 62
   256
  6
BYLAYER
  0
ACDBPLACEHOLDER
  5
F
102
{ACAD_REACTORS
330
E
102
}
330
E
  0
SCALE
  5
48
102
{ACAD_REACTORS
330
47
102
}
330
47
100
AcDbScale
 70
     0
300
1:1
140
1.0
141
1.0
290
     1
  0
SCALE
  5
49
102
{ACAD_REACTORS
330
47
102
}
330
47
100
AcDbScale
 70
     0
300
1:2
140
1.0
141
2.0
290
     0
  0
SCALE
  5
4A
102
{ACAD_REACTORS
330
47
102
}
330
47
100
AcDbScale
 70
     0
300
1:4
140
1.0
141
4.0
290
     0
  0
SCALE
  5
4B
102
{ACAD_REACTORS
330
47
102
}
330
47
100
AcDbScale
 70
     0
300
1:5
140
1.0
141
5.0
290
     0
  0
SCALE
  5
4C
102
{ACAD_REACTORS
330
47
102
}
330
47
100
AcDbScale
 70
     0
300
1:8
140
1.0
141
8.0
290
     0
  0
SCALE
  5
4D
102
{ACAD_REACTORS
330
47
102
}
330
47
100
AcDbScale
 70
     0
300
1:10
140
1.0
141
10.0
290
     0
  0
SCALE
  5
4E
102
{ACAD_REACTORS
330
47
102
}
330
47
100
AcDbScale
 70
     0
300
1:16
140
1.0
141
16.0
290
     0
  0
SCALE
  5
4F
102
{ACAD_REACTORS
330
47
102
}
330
47
100
AcDbScale
 70
     0
300
1:20
140
1.0
141
20.0
290
     0
  0
SCALE
  5
50
102
{ACAD_REACTORS
330
47
102
}
330
47
100
AcDbScale
 70
     0
300
1:30
140
1.0
141
30.0
290
     0
  0
SCALE
  5
51
102
{ACAD_REACTORS
330
47
102
}
330
47
100
AcDbScale
 70
     0
300
1:40
140
1.0
141
40.0
290
     0
  0
SCALE
  5
52
102
{ACAD_REACTORS
330
47
102
}
330
47
100
AcDbScale
 70
     0
300
1:50
140
1.0
141
50.0
290
     0
  0
SCALE
  5
53
102
{ACAD_REACTORS
330
47
102
}
330
47
100
AcDbScale
 70
     0
300
1:100
140
1.0
141
100.0
290
     0
  0
SCALE
  5
54
102
{ACAD_REACTORS
330
47
102
}
330
47
100
AcDbScale
 70
     0
300
2:1
140
2.0
141
1.0
290
     0
  0
SCALE
  5
55
102
{ACAD_REACTORS
330
47
102
}
330
47
100
AcDbScale
 70
     0
300
4:1
140
4.0
141
1.0
290
     0
  0
SCALE
  5
56
102
{ACAD_REACTORS
330
47
102
}
330
47
100
AcDbScale
 70
     0
300
8:1
140
8.0
141
1.0
290
     0
  0
SCALE
  5
57
102
{ACAD_REACTORS
330
47
102
}
330
47
100
AcDbScale
 70
     0
300
10:1
140
10.0
141
1.0
290
     0
  0
SCALE
  5
58
102
{ACAD_REACTORS
330
47
102
}
330
47
100
AcDbScale
 70
     0
300
100:1
140
100.0
141
1.0
290
     0
  0
ACDBSECTIONVIEWSTYLE
  5
235
102
{ACAD_XDICTIONARY
360
709
102
}
102
{ACAD_REACTORS
330
234
102
}
330
234
100
AcDbModelDocViewStyle
 70
     0
  3
Metric50
290
     0
100
AcDbSectionViewStyle
 70
     0
 71
     0
 90
      102
 71
     1
340
11
 40
5.0
340
0
340
0
 40
5.0
300
I, O, Q, S, X, Z
 40
10.0
 90
        0
 40
2.5
 90
        0
 71
     2
340
16
 90
       25
340
16
 90
       50
 40
5.0
 40
2.5
 40
5.0
 71
     3
340
11
 40
5.0
 90
        0
 40
15.0
 90
        1
300
%<\AcVar ViewSectionStartId>%-%<\AcVar ViewSectionEndId>% (%<\AcVar ViewScale \f "%sn">%)
 71
     4
300
ANSI31
 40
1.0
 90
        0
290
     0
290
     0
 90
        6
 40
0.0
 40
1.570796326794896
 40
0.2617993877991494
 40
1.308996938995747
 40
-0.2617993877991494
 40
1.832595714594045
  0
TABLESTYLE
  5
5A
102
{ACAD_XDICTIONARY
360
676
102
}
102
{ACAD_REACTORS
330
59
102
}
330
59
100
AcDbTableStyle
  3
Standard
 70
     0
 71
     0
 40
1.5
 41
1.5
280
     0
281
     0
  7
Standard
140
4.5
170
     2
 62
     0
 63
     7
283
     0
274
    -2
284
     1
 64
     0
275
    -2
285
     1
 65
     0
276
    -2
286
     1
 66
     0
277
    -2
287
     1
 67
     0
278
    -2
288
     1
 68
     0
279
    -2
289
     1
 69
     0
  7
Standard
140
6.0
170
     5
 62
     0
 63
     7
283
     0
274
    -2
284
     1
 64
     0
275
    -2
285
     1
 65
     0
276
    -2
286
     1
 66
     0
277
    -2
287
     1
 67
     0
278
    -2
288
     1
 68
     0
279
    -2
289
     1
 69
     0
  7
Standard
140
4.5
170
     5
 62
     0
 63
     7
283
     0
274
    -2
284
     1
 64
     0
275
    -2
285
     1
 65
     0
276
    -2
286
     1
 66
     0
277
    -2
287
     1
 67
     0
278
    -2
288
     1
 68
     0
279
    -2
289
     1
 69
     0
  0
VISUALSTYLE
  5
2F
102
{ACAD_XDICTIONARY
360
6E0
102
}
102
{ACAD_REACTORS
330
2A
102
}
330
2A
100
AcDbVisualStyle
  2

 70
     4
 71
     0
 72
     2
 73
     0
 90
        0
 40
-0.6
 41
-30.0
 62
     5
 63
     7
 74
     1
 91
        4
 64
     7
 65
   257
 75
     1
175
     1
 42
1.0
 92
        0
 66
   257
 43
1.0
 76
     1
 77
     6
 78
     2
 67
     7
 79
     5
170
     0
171
     0
290
     0
174
     0
 93
        1
 44
0.0
173
     0
291
     0
 45
0.0
1001
ACAD
1000
AcDbSavedByObjectVersion
1070
     0
  0
VISUALSTYLE
  5
32
102
{ACAD_XDICTIONARY
360
6E6
102
}
102
{ACAD_REACTORS
330
2A
102
}
330
2A
100
AcDbVisualStyle
  2

 70
     7
 71
     1
 72
     0
 73
     1
 90
        0
 40
-0.6
 41
-30.0
 62
     5
 63
     7
 74
     0
 91
        4
 64
     7
 65
   257
 75
     1
175
     1
 42
1.0
 92
        8
 66
     7
 43
1.0
 76
     1
 77
     6
 78
     2
 67
     7
 79
     5
170
     0
171
     0
290
     0
174
     0
 93
        1
 44
0.0
173
     0
291
     1
 45
0.0
1001
ACAD
1000
AcDbSavedByObjectVersion
1070
     0
  0
VISUALSTYLE
  5
36
102
{ACAD_XDICTIONARY
360
6EE
102
}
102
{ACAD_REACTORS
330
2A
102
}
330
2A
100
AcDbVisualStyle
  2

 70
    12
 71
     2
 72
     2
 73
     0
 90
        0
 40
-0.6
 41
-30.0
 62
     5
 63
     7
 74
     1
 91
        4
 64
     7
 65
   257
 75
     1
175
     1
 42
1.0
 92
        8
 66
     7
 43
1.0
 76
     1
 77
     6
 78
     2
 67
     7
 79
     5
170
     0
171
     0
290
     0
174
     0
 93
        1
 44
50.0
173
     0
291
     1
 45
0.0
1001
ACAD
1000
AcDbSavedByObjectVersion
1070
     0
  0
VISUALSTYLE
  5
3A
102
{ACAD_XDICTIONARY
360
6F6
102
}
102
{ACAD_REACTORS
330
2A
102
}
330
2A
100
AcDbVisualStyle
  2

 70
    16
 71
     2
 72
     2
 73
     3
 90
        0
 40
-0.6
 41
-30.0
 62
     5
 63
     8
 74
     1
 91
        4
 64
     7
 65
   257
 75
     1
175
     1
 42
1.0
 92
        8
 66
     8
 43
1.0
 76
     1
 77
     6
 78
     2
 67
     7
 79
     5
170
     0
171
     0
290
     0
174
     0
 93
        1
 44
0.0
173
     0
291
     1
 45
0.0
1001
ACAD
1000
AcDbSavedByObjectVersion
1070
     0
  0
VISUALSTYLE
  5
34
102
{ACAD_XDICTIONARY
360
6EA
102
}
102
{ACAD_REACTORS
330
2A
102
}
330
2A
100
AcDbVisualStyle
  2

 70
     9
 71
     3
 72
     2
 73
     0
 90
        0
 40
-0.6
 41
-30.0
 62
     5
 63
     7
 74
     2
 91
        2
 64
     7
 65
   257
 75
     1
175
     1
 42
179.0
 92
        8
 66
     7
 43
1.0
 76
     1
 77
     6
 78
     2
 67
     7
 79
     3
170
     0
171
     0
290
     0
174
     0
 93
        1
 44
0.0
173
     0
291
     0
 45
0.0
1001
ACAD
1000
AcDbSavedByObjectVersion
1070
     0
  0
VISUALSTYLE
  5
35
102
{ACAD_XDICTIONARY
360
6EC
102
}
102
{ACAD_REACTORS
330
2A
102
}
330
2A
100
AcDbVisualStyle
  2

 70
    11
 71
     2
 72
     2
 73
     0
 90
        0
 40
-0.6
 41
-30.0
 62
     5
 63
     7
 74
     1
 91
        4
 64
     7
 65
   257
 75
     1
175
     1
 42
1.0
 92
        8
 66
     7
 43
1.0
 76
     1
 77
     6
 78
     2
 67
     7
 79
     5
170
     0
171
     0
290
     0
174
     0
 93
        1
 44
-50.0
173
     0
291
     1
 45
0.0
1001
ACAD
1000
AcDbSavedByObjectVersion
1070
     0
  0
VISUALSTYLE
  5
3D
102
{ACAD_XDICTIONARY
360
6FC
102
}
102
{ACAD_REACTORS
330
2A
102
}
330
2A
100
AcDbVisualStyle
  2

 70
    22
 71
     2
 72
     2
 73
     0
 90
        0
 40
-0.6
 41
-30.0
 62
     5
 63
     7
 74
     1
 91
        4
 64
     7
 65
   257
 75
     1
175
     1
 42
1.0
 92
        8
 66
     7
 43
1.0
 76
     1
 77
     6
 78
     2
 67
     7
 79
     5
170
     0
171
     0
290
     0
174
     0
 93
        1
 44
0.0
173
     0
291
     1
 45
0.0
1001
ACAD
1000
AcDbSavedByObjectVersion
1070
     0
  0
VISUALSTYLE
  5
39
102
{ACAD_XDICTIONARY
360
6F4
102
}
102
{ACAD_REACTORS
330
2A
102
}
330
2A
100
AcDbVisualStyle
  2

 70
    15
 71
     2
 72
     2
 73
     0
 90
        0
 40
-0.6
 41
-30.0
 62
     5
 63
     7
 74
     1
 91
        4
 64
     7
 65
   257
 75
     1
175
     1
 42
1.0
 92
        8
 66
     7
 43
1.0
 76
     1
 77
     6
 78
     2
 67
     7
 79
     5
170
     0
171
     0
290
     0
174
     0
 93
        1
 44
0.0
173
     0
291
     1
 45
0.0
1001
ACAD
1000
AcDbSavedByObjectVersion
1070
     0
  0
VISUALSTYLE
  5
2B
102
{ACAD_XDICTIONARY
360
6D8
102
}
102
{ACAD_REACTORS
330
2A
102
}
330
2A
100
AcDbVisualStyle
  2

 70
     0
 71
     2
 72
     1
 73
     1
 90
        2
 40
-0.6
 41
30.0
 62
     5
 63
     7
 74
     0
 91
        0
 64
     7
 65
   257
 75
     1
175
     1
 42
1.0
 92
        8
 66
     7
 43
1.0
 76
     1
 77
     6
 78
     2
 67
     7
 79
     5
170
     0
171
     0
290
     0
174
     0
 93
       13
 44
0.0
173
     0
291
     1
 45
0.0
1001
ACAD
1000
AcDbSavedByObjectVersion
1070
     0
  0
VISUALSTYLE
  5
2C
102
{ACAD_XDICTIONARY
360
6DA
102
}
102
{ACAD_REACTORS
330
2A
102
}
330
2A
100
AcDbVisualStyle
  2

 70
     1
 71
     2
 72
     1
 73
     1
 90
        2
 40
-0.6
 41
30.0
 62
     5
 63
     7
 74
     1
 91
        0
 64
     7
 65
   257
 75
     1
175
     1
 42
1.0
 92
        0
 66
   257
 43
1.0
 76
     1
 77
     6
 78
     2
 67
     7
 79
     5
170
     0
171
     0
290
     0
174
     0
 93
       13
 44
0.0
173
     0
291
     1
 45
0.0
1001
ACAD
1000
AcDbSavedByObjectVersion
1070
     0
  0
VISUALSTYLE
  5
2D
102
{ACAD_XDICTIONARY
360
6DC
102
}
102
{ACAD_REACTORS
330
2A
102
}
330
2A
100
AcDbVisualStyle
  2

 70
     2
 71
     2
 72
     2
 73
     1
 90
        2
 40
-0.6
 41
30.0
 62
     5
 63
     7
 74
     0
 91
        0
 64
     7
 65
   257
 75
     1
175
     1
 42
1.0
 92
        0
 66
     7
 43
1.0
 76
     1
 77
     6
 78
     2
 67
     7
 79
     5
170
     0
171
     0
290
     0
174
     0
 93
       13
 44
0.0
173
     0
291
     1
 45
0.0
1001
ACAD
1000
AcDbSavedByObjectVersion
1070
     0
  0
VISUALSTYLE
  5
2E
102
{ACAD_XDICTIONARY
360
6DE
102
}
102
{ACAD_REACTORS
330
2A
102
}
330
2A
100
AcDbVisualStyle
  2

 70
     3
 71
     2
 72
     2
 73
     1
 90
        2
 40
-0.6
 41
30.0
 62
     5
 63
     7
 74
     1
 91
        0
 64
     7
 65
   257
 75
     1
175
     1
 42
1.0
 92
        0
 66
   257
 43
1.0
 76
     1
 77
     6
 78
     2
 67
     7
 79
     5
170
     0
171
     0
290
     0
174
     0
 93
       13
 44
0.0
173
     0
291
     1
 45
0.0
1001
ACAD
1000
AcDbSavedByObjectVersion
1070
     0
  0
VISUALSTYLE
  5
31
102
{ACAD_XDICTIONARY
360
6E4
102
}
102
{ACAD_REACTORS
330
2A
102
}
330
2A
100
AcDbVisualStyle
  2

 70
     6
 71
     1
 72
     2
 73
     2
 90
        0
 40
-0.6
 41
-30.0
 62
     5
 63
     7
 74
     2
 91
        2
 64
     7
 65
   257
 75
     2
175
     1
 42
40.0
 92
        0
 66
   257
 43
1.0
 76
     1
 77
     6
 78
     2
 67
     7
 79
     3
170
     0
171
     0
290
     0
174
     0
 93
        1
 44
0.0
173
     0
291
     0
 45
0.0
1001
ACAD
1000
AcDbSavedByObjectVersion
1070
     0
  0
VISUALSTYLE
  5
3B
102
{ACAD_XDICTIONARY
360
6F8
102
}
102
{ACAD_REACTORS
330
2A
102
}
330
2A
100
AcDbVisualStyle
  2

 70
    20
 71
     2
 72
     2
 73
     0
 90
        0
 40
-0.6
 41
-30.0
 62
     5
 63
     7
 74
     1
 91
        4
 64
     7
 65
   257
 75
     1
175
     1
 42
1.0
 92
       10
 66
     7
 43
1.0
 76
     1
 77
     6
 78
     2
 67
     7
 79
     5
170
     0
171
     0
290
     0
174
     0
 93
        1
 44
0.0
173
     0
291
     1
 45
0.0
1001
ACAD
1000
AcDbSavedByObjectVersion
1070
     0
  0
VISUALSTYLE
  5
38
102
{ACAD_XDICTIONARY
360
6F2
102
}
102
{ACAD_REACTORS
330
2A
102
}
330
2A
100
AcDbVisualStyle
  2

 70
    14
 71
     2
 72
     2
 73
     0
 90
        0
 40
-0.6
 41
-30.0
 62
     5
 63
     7
 74
     1
 91
        4
 64
     7
 65
   257
 75
     7
175
     7
 42
1.0
 92
        8
 66
     7
 43
1.0
 76
     1
 77
     6
 78
     2
 67
     7
 79
     5
170
     0
171
     0
290
     0
174
     0
 93
        1
 44
0.0
173
     0
291
     1
 45
0.0
1001
ACAD
1000
AcDbSavedByObjectVersion
1070
     0
  0
VISUALSTYLE
  5
3C
102
{ACAD_XDICTIONARY
360
6FA
102
}
102
{ACAD_REACTORS
330
2A
102
}
330
2A
100
AcDbVisualStyle
  2

 70
    21
 71
     2
 72
     2
 73
     0
 90
        0
 40
-0.6
 41
-30.0
 62
     5
 63
     7
 74
     1
 91
        4
 64
     7
 65
   257
 75
     1
175
     1
 42
1.0
 92
        9
 66
     7
 43
1.0
 76
     1
 77
     6
 78
     2
 67
     7
 79
     5
170
     0
171
     0
290
     0
174
     0
 93
        1
 44
0.0
173
     0
291
     1
 45
0.0
1001
ACAD
1000
AcDbSavedByObjectVersion
1070
     0
  0
VISUALSTYLE
  5
33
102
{ACAD_XDICTIONARY
360
6E8
102
}
102
{ACAD_REACTORS
330
2A
102
}
330
2A
100
AcDbVisualStyle
  2

 70
     8
 71
     2
 72
     3
 73
     0
 90
        2
 40
-0.6
 41
30.0
 62
     5
 63
     7
 74
     0
 91
        0
 64
     7
 65
   257
 75
     1
175
     1
 42
1.0
 92
        8
 66
   257
 43
1.0
 76
     1
 77
     6
 78
     2
 67
     7
 79
     3
170
     0
171
     0
290
     0
174
     0
 93
       13
 44
0.0
173
     0
291
     0
 45
0.0
1001
ACAD
1000
AcDbSavedByObjectVersion
1070
     0
  0
VISUALSTYLE
  5
42
102
{ACAD_XDICTIONARY
360
706
102
}
102
{ACAD_REACTORS
330
2A
102
}
330
2A
100
AcDbVisualStyle
  2

 70
    27
 71
     2
 72
     2
 73
     1
 90
        2
 40
-0.6
 41
30.0
 62
     5
 63
     7
 74
     0
 91
        4
 64
     7
 65
   257
 75
     1
175
     1
 42
1.0
 92
        8
 66
   257
 43
1.0
 76
     1
 77
     6
 78
     2
 67
     8
 79
     3
170
     0
171
     0
290
     0
174
     0
 93
        5
 44
0.0
173
     0
291
     0
 45
0.0
1001
ACAD
1000
AcDbSavedByObjectVersion
1070
     0
  0
VISUALSTYLE
  5
41
102
{ACAD_XDICTIONARY
360
704
102
}
102
{ACAD_REACTORS
330
2A
102
}
330
2A
100
AcDbVisualStyle
  2

 70
    26
 71
     2
 72
     2
 73
     1
 90
        2
 40
-0.6
 41
30.0
 62
     5
 63
     7
 74
     1
 91
       10
 64
     7
 65
   257
 75
     2
175
     1
 42
1.0
 92
        8
 66
   257
 43
1.0
 76
     1
 77
     6
 78
     2
 67
     7
 79
     3
170
     0
171
     0
290
     0
174
     0
 93
        5
 44
0.0
173
     0
291
     0
 45
0.0
1001
ACAD
1000
AcDbSavedByObjectVersion
1070
     0
  0
VISUALSTYLE
  5
3E
102
{ACAD_XDICTIONARY
360
6FE
102
}
102
{ACAD_REACTORS
330
2A
102
}
330
2A
100
AcDbVisualStyle
  2

 70
    23
 71
     2
 72
     2
 73
     3
 90
        0
 40
-0.6
 41
-30.0
 62
     5
 63
     7
 74
     2
 91
        2
 64
     7
 65
     7
 75
     1
175
     1
 42
40.0
 92
        8
 66
     7
 43
1.0
 76
     1
 77
     6
 78
     2
 67
     7
 79
     3
170
     0
171
     0
290
     0
174
     0
 93
        1
 44
0.0
173
     0
291
     0
 45
0.0
1001
ACAD
1000
AcDbSavedByObjectVersion
1070
     0
  0
VISUALSTYLE
  5
3F
102
{ACAD_XDICTIONARY
360
700
102
}
102
{ACAD_REACTORS
330
2A
102
}
330
2A
100
AcDbVisualStyle
  2

 70
    24
 71
     1
 72
     2
 73
     2
 90
        0
 40
-0.6
 41
-30.0
 62
     5
 63
     7
 74
     2
 91
        2
 64
     7
 65
     7
 75
     1
175
     1
 42
40.0
 92
       11
 66
     7
 43
1.0
 76
     1
 77
     6
 78
     2
 67
     7
 79
     6
170
     0
171
     0
290
     0
174
     0
 93
        1
 44
0.0
173
     0
291
     0
 45
0.0
1001
ACAD
1000
AcDbSavedByObjectVersion
1070
     0
  0
VISUALSTYLE
  5
37
102
{ACAD_XDICTIONARY
360
6F0
102
}
102
{ACAD_REACTORS
330
2A
102
}
330
2A
100
AcDbVisualStyle
  2

 70
    13
 71
     2
 72
     2
 73
     0
 90
        0
 40
-0.6
 41
-30.0
 62
     5
 63
     7
 74
     1
 91
        4
 64
     7
 65
   257
 75
     1
175
     1
 42
1.0
 92
       12
 66
     7
 43
1.0
 76
     1
 77
     6
 78
     2
 67
     7
 79
     5
170
     0
171
     0
290
     0
174
     0
 93
        1
 44
0.0
173
     0
291
     1
 45
0.0
1001
ACAD
1000
AcDbSavedByObjectVersion
1070
     0
  0
VISUALSTYLE
  5
30
102
{ACAD_XDICTIONARY
360
6E2
102
}
102
{ACAD_REACTORS
330
2A
102
}
330
2A
100
AcDbVisualStyle
  2

 70
     5
 71
     0
 72
     2
 73
     0
 90
        0
 40
-0.6
 41
-30.0
 62
     5
 63
     7
 74
     1
 91
        4
 64
     7
 65
   257
 75
     1
175
     1
 42
1.0
 92
        0
 66
   257
 43
1.0
 76
     1
 77
     6
 78
     2
 67
     7
 79
     3
170
     0
171
     0
290
     0
174
     0
 93
        1
 44
0.0
173
     0
291
     0
 45
0.0
1001
ACAD
1000
AcDbSavedByObjectVersion
1070
     0
  0
VISUALSTYLE
  5
40
102
{ACAD_XDICTIONARY
360
702
102
}
102
{ACAD_REACTORS
330
2A
102
}
330
2A
100
AcDbVisualStyle
  2

 70
    25
 71
     2
 72
     2
 73
     1
 90
        1
 40
0.5
 41
-30.0
 62
     5
 63
     7
 74
     1
 91
        0
 64
     7
 65
   257
 75
     1
175
     1
 42
1.0
 92
        8
 66
     7
 43
1.0
 76
     1
 77
     6
 78
     2
 67
     7
 79
     3
170
     0
171
     0
290
     0
174
     0
 93
       13
 44
0.0
173
     0
291
     0
 45
0.0
1001
ACAD
1000
AcDbSavedByObjectVersion
1070
     0
  0
DICTIONARYVAR
  5
1F6
102
{ACAD_REACTORS
330
1E8
102
}
330
1E8
100
DictionaryVariables
280
     0
  1
1:1
  0
DICTIONARYVAR
  5
1EF
102
{ACAD_REACTORS
330
1E8
102
}
330
1E8
100
DictionaryVariables
280
     0
  1
3.500000
  0
DICTIONARYVAR
  5
1F0
102
{ACAD_REACTORS
330
1E8
102
}
330
1E8
100
DictionaryVariables
280
     0
  1
acadiso.lin
  0
DICTIONARYVAR
  5
1EA
102
{ACAD_REACTORS
330
1E8
102
}
330
1E8
100
DictionaryVariables
280
     0
  1
STANDARD
  0
DICTIONARYVAR
  5
1E9
102
{ACAD_REACTORS
330
1E8
102
}
330
1E8
100
DictionaryVariables
280
     0
  1
STANDARD
  0
DICTIONARYVAR
  5
671
102
{ACAD_REACTORS
330
1E8
102
}
330
1E8
100
DictionaryVariables
280
     0
  1
Metric50
  0
DICTIONARYVAR
  5
672
102
{ACAD_REACTORS
330
1E8
102
}
330
1E8
100
DictionaryVariables
280
     0
  1
Metric50
  0
DICTIONARYVAR
  5
1F1
102
{ACAD_REACTORS
330
1E8
102
}
330
1E8
100
DictionaryVariables
280
     0
  1
2
  0
DICTIONARYVAR
  5
1F2
102
{ACAD_REACTORS
330
1E8
102
}
330
1E8
100
DictionaryVariables
280
     0
  1
1
  0
DICTIONARYVAR
  5
6CA
102
{ACAD_REACTORS
330
1E8
102
}
330
1E8
100
DictionaryVariables
280
     0
  1
0
  0
DICTIONARYVAR
  5
674
102
{ACAD_REACTORS
330
1E8
102
}
330
1E8
100
DictionaryVariables
280
     0
  1
1
  0
DICTIONARYVAR
  5
675
102
{ACAD_REACTORS
330
1E8
102
}
330
1E8
100
DictionaryVariables
280
     0
  1
15
  0
DICTIONARYVAR
  5
673
102
{ACAD_REACTORS
330
1E8
102
}
330
1E8
100
DictionaryVariables
280
     0
  1
0
  0
DICTIONARYVAR
  5
6CD
102
{ACAD_REACTORS
330
1E8
102
}
330
1E8
100
DictionaryVariables
280
     0
  1
1.570796
  0
DICTIONARYVAR
  5
6CE
102
{ACAD_REACTORS
330
1E8
102
}
330
1E8
100
DictionaryVariables
280
     0
  1
1.570796
  0
DICTIONARYVAR
  5
6CF
102
{ACAD_REACTORS
330
1E8
102
}
330
1E8
100
DictionaryVariables
280
     0
  1
-122.394000
  0
DICTIONARYVAR
  5
1F7
102
{ACAD_REACTORS
330
1E8
102
}
330
1E8
100
DictionaryVariables
280
     0
  1
1
  0
DICTIONARYVAR
  5
6CC
102
{ACAD_REACTORS
330
1E8
102
}
330
1E8
100
DictionaryVariables
280
     0
  1
80.000000
  0
DICTIONARYVAR
  5
6CB
102
{ACAD_REACTORS
330
1E8
102
}
330
1E8
100
DictionaryVariables
280
     0
  1
5.000000
  0
DICTIONARYVAR
  5
6C9
102
{ACAD_REACTORS
330
1E8
102
}
330
1E8
100
DictionaryVariables
280
     0
  1
127
  0
DICTIONARYVAR
  5
6D0
102
{ACAD_REACTORS
330
1E8
102
}
330
1E8
100
DictionaryVariables
280
     0
  1
2
  0
DICTIONARY
  5
70B
330
237
100
AcDbDictionary
280
     1
281
     1
  3
ACAD_XREC_ROUNDTRIP
360
70C
  0
DICTIONARY
  5
6D4
330
1E
100
AcDbDictionary
280
     1
281
     1
  3
ACAD_XREC_ROUNDTRIP
360
6D5
  0
DICTIONARY
  5
6D6
330
22
100
AcDbDictionary
280
     1
281
     1
  3
ACAD_XREC_ROUNDTRIP
360
6D7
  0
DICTIONARY
  5
70D
330
238
100
AcDbDictionary
280
     1
281
     1
  3
ACAD_XREC_ROUNDTRIP
360
70E
  0
DICTIONARY
  5
22A
330
45
100
AcDbDictionary
280
     1
281
     1
  3
ACAD_XREC_ROUNDTRIP
360
22B
  0
DICTIONARY
  5
228
330
44
100
AcDbDictionary
280
     1
281
     1
  3
ACAD_XREC_ROUNDTRIP
360
229
  0
DICTIONARY
  5
22C
330
46
100
AcDbDictionary
280
     1
281
     1
  3
ACAD_XREC_ROUNDTRIP
360
22D
  0
DICTIONARY
  5
709
330
235
100
AcDbDictionary
280
     1
281
     1
  3
ACAD_XREC_ROUNDTRIP
360
70A
  0
DICTIONARY
  5
676
330
5A
100
AcDbDictionary
280
     1
281
     1
  3
ACAD_ROUNDTRIP_2008_TABLESTYLE_CELLSTYLEMAP
360
6D1
  3
ACAD_XREC_ROUNDTRIP
360
708
  0
DICTIONARY
  5
6E0
330
2F
100
AcDbDictionary
280
     1
281
     1
  3
ACAD_XREC_ROUNDTRIP
360
6E1
  0
DICTIONARY
  5
6E6
330
32
100
AcDbDictionary
280
     1
281
     1
  3
ACAD_XREC_ROUNDTRIP
360
6E7
  0
DICTIONARY
  5
6EE
330
36
100
AcDbDictionary
280
     1
281
     1
  3
ACAD_XREC_ROUNDTRIP
360
6EF
  0
DICTIONARY
  5
6F6
330
3A
100
AcDbDictionary
280
     1
281
     1
  3
ACAD_XREC_ROUNDTRIP
360
6F7
  0
DICTIONARY
  5
6EA
330
34
100
AcDbDictionary
280
     1
281
     1
  3
ACAD_XREC_ROUNDTRIP
360
6EB
  0
DICTIONARY
  5
6EC
330
35
100
AcDbDictionary
280
     1
281
     1
  3
ACAD_XREC_ROUNDTRIP
360
6ED
  0
DICTIONARY
  5
6FC
330
3D
100
AcDbDictionary
280
     1
281
     1
  3
ACAD_XREC_ROUNDTRIP
360
6FD
  0
DICTIONARY
  5
6F4
330
39
100
AcDbDictionary
280
     1
281
     1
  3
ACAD_XREC_ROUNDTRIP
360
6F5
  0
DICTIONARY
  5
6D8
330
2B
100
AcDbDictionary
280
     1
281
     1
  3
ACAD_XREC_ROUNDTRIP
360
6D9
  0
DICTIONARY
  5
6DA
330
2C
100
AcDbDictionary
280
     1
281
     1
  3
ACAD_XREC_ROUNDTRIP
360
6DB
  0
DICTIONARY
  5
6DC
330
2D
100
AcDbDictionary
280
     1
281
     1
  3
ACAD_XREC_ROUNDTRIP
360
6DD
  0
DICTIONARY
  5
6DE
330
2E
100
AcDbDictionary
280
     1
281
     1
  3
ACAD_XREC_ROUNDTRIP
360
6DF
  0
DICTIONARY
  5
6E4
330
31
100
AcDbDictionary
280
     1
281
     1
  3
ACAD_XREC_ROUNDTRIP
360
6E5
  0
DICTIONARY
  5
6F8
330
3B
100
AcDbDictionary
280
     1
281
     1
  3
ACAD_XREC_ROUNDTRIP
360
6F9
  0
DICTIONARY
  5
6F2
330
38
100
AcDbDictionary
280
     1
281
     1
  3
ACAD_XREC_ROUNDTRIP
360
6F3
  0
DICTIONARY
  5
6FA
330
3C
100
AcDbDictionary
280
     1
281
     1
  3
ACAD_XREC_ROUNDTRIP
360
6FB
  0
DICTIONARY
  5
6E8
330
33
100
AcDbDictionary
280
     1
281
     1
  3
ACAD_XREC_ROUNDTRIP
360
6E9
  0
DICTIONARY
  5
706
330
42
100
AcDbDictionary
280
     1
281
     1
  3
ACAD_XREC_ROUNDTRIP
360
707
  0
DICTIONARY
  5
704
330
41
100
AcDbDictionary
280
     1
281
     1
  3
ACAD_XREC_ROUNDTRIP
360
705
  0
DICTIONARY
  5
6FE
330
3E
100
AcDbDictionary
280
     1
281
     1
  3
ACAD_XREC_ROUNDTRIP
360
6FF
  0
DICTIONARY
  5
700
330
3F
100
AcDbDictionary
280
     1
281
     1
  3
ACAD_XREC_ROUNDTRIP
360
701
  0
DICTIONARY
  5
6F0
330
37
100
AcDbDictionary
280
     1
281
     1
  3
ACAD_XREC_ROUNDTRIP
360
6F1
  0
DICTIONARY
  5
6E2
330
30
100
AcDbDictionary
280
     1
281
     1
  3
ACAD_XREC_ROUNDTRIP
360
6E3
  0
DICTIONARY
  5
702
330
40
100
AcDbDictionary
280
     1
281
     1
  3
ACAD_XREC_ROUNDTRIP
360
703
  0
XRECORD
  5
70C
102
{ACAD_REACTORS
330
70B
102
}
330
70B
100
AcDbXrecord
280
     1
102
DISPLAYNAME
  1
Metric50
102
FLAGS
 90
        0
  0
XRECORD
  5
6D5
102
{ACAD_REACTORS
330
6D4
102
}
330
6D4
100
AcDbXrecord
280
     1
102
SHADEPLOT
 70
     0
102
SHADEPLOTRESLEVEL
 70
     2
102
SHADEPLOTCUSTOMDPI
 70
   300
  0
XRECORD
  5
6D7
102
{ACAD_REACTORS
330
6D6
102
}
330
6D6
100
AcDbXrecord
280
     1
102
SHADEPLOT
 70
     0
102
SHADEPLOTRESLEVEL
 70
     2
102
SHADEPLOTCUSTOMDPI
 70
   300
  0
XRECORD
  5
70E
102
{ACAD_REACTORS
330
70D
102
}
330
70D
100
AcDbXrecord
280
     1
102
SHADEPLOT
 70
     0
102
SHADEPLOTRESLEVEL
 70
     2
102
SHADEPLOTCUSTOMDPI
 70
   300
  0
XRECORD
  5
22B
102
{ACAD_REACTORS
330
22A
102
}
330
22A
100
AcDbXrecord
280
     1
102
MATERIAL
148
0.0
149
0.0
149
0.0
 93
        0
 94
      127
282
     0
 72
     1
 77
     1
171
     1
175
     1
179
     1
273
     0
  0
XRECORD
  5
229
102
{ACAD_REACTORS
330
228
102
}
330
228
100
AcDbXrecord
280
     1
102
MATERIAL
148
0.0
149
0.0
149
0.0
 93
        0
 94
      127
282
     0
 72
     1
 77
     1
171
     1
175
     1
179
     1
273
     0
  0
XRECORD
  5
22D
102
{ACAD_REACTORS
330
22C
102
}
330
22C
100
AcDbXrecord
280
     1
102
MATERIAL
148
0.0
149
0.0
149
0.0
 93
        0
 94
      127
282
     0
 72
     1
 77
     1
171
     1
175
     1
179
     1
273
     0
  0
XRECORD
  5
70A
102
{ACAD_REACTORS
330
709
102
}
330
709
100
AcDbXrecord
280
     1
102
DISPLAYNAME
  1
Metric50
102
FLAGS
 90
        0
  0
CELLSTYLEMAP
  5
6D1
102
{ACAD_REACTORS
330
676
102
}
330
676
100
AcDbCellStyleMap
 90
        3
300
CELLSTYLE
  1
TABLEFORMAT_BEGIN
 90
        5
170
     1
 91
        0
 92
    32768
 62
   257
 93
        1
300
CONTENTFORMAT
  1
CONTENTFORMAT_BEGIN
 90
        0
 91
        0
 92
        4
 93
        0
300

 40
0.0
140
1.0
 94
        5
 62
     0
340
11
144
6.0
309
CONTENTFORMAT_END
171
     1
301
MARGIN
  1
CELLMARGIN_BEGIN
 40
1.5
 40
1.5
 40
1.5
 40
1.5
 40
0.18
 40
0.18
309
CELLMARGIN_END
 94
        6
 95
        1
302
GRIDFORMAT
  1
GRIDFORMAT_BEGIN
 90
        0
 91
        1
 62
     0
 92
       -2
340
0
 93
        0
 40
0.045
309
GRIDFORMAT_END
 95
        2
302
GRIDFORMAT
  1
GRIDFORMAT_BEGIN
 90
        0
 91
        1
 62
     0
 92
       -2
340
0
 93
        0
 40
0.045
309
GRIDFORMAT_END
 95
        4
302
GRIDFORMAT
  1
GRIDFORMAT_BEGIN
 90
        0
 91
        1
 62
     0
 92
       -2
340
0
 93
        0
 40
0.045
309
GRIDFORMAT_END
 95
        8
302
GRIDFORMAT
  1
GRIDFORMAT_BEGIN
 90
        0
 91
        1
 62
     0
 92
       -2
340
0
 93
        0
 40
0.045
309
GRIDFORMAT_END
 95
       16
302
GRIDFORMAT
  1
GRIDFORMAT_BEGIN
 90
        0
 91
        1
 62
     0
 92
       -2
340
0
 93
        0
 40
0.045
309
GRIDFORMAT_END
 95
       32
302
GRIDFORMAT
  1
GRIDFORMAT_BEGIN
 90
        0
 91
        1
 62
     0
 92
       -2
340
0
 93
        0
 40
0.045
309
GRIDFORMAT_END
309
TABLEFORMAT_END
  1
CELLSTYLE_BEGIN
 90
        1
 91
        1
300
_TITLE
309
CELLSTYLE_END
300
CELLSTYLE
  1
TABLEFORMAT_BEGIN
 90
        5
170
     1
 91
        0
 92
        0
 62
   257
 93
        1
300
CONTENTFORMAT
  1
CONTENTFORMAT_BEGIN
 90
        0
 91
        0
 92
        4
 93
        0
300

 40
0.0
140
1.0
 94
        5
 62
     0
340
11
144
4.5
309
CONTENTFORMAT_END
171
     1
301
MARGIN
  1
CELLMARGIN_BEGIN
 40
1.5
 40
1.5
 40
1.5
 40
1.5
 40
0.18
 40
0.18
309
CELLMARGIN_END
 94
        6
 95
        1
302
GRIDFORMAT
  1
GRIDFORMAT_BEGIN
 90
        0
 91
        1
 62
     0
 92
       -2
340
0
 93
        0
 40
0.045
309
GRIDFORMAT_END
 95
        2
302
GRIDFORMAT
  1
GRIDFORMAT_BEGIN
 90
        0
 91
        1
 62
     0
 92
       -2
340
0
 93
        0
 40
0.045
309
GRIDFORMAT_END
 95
        4
302
GRIDFORMAT
  1
GRIDFORMAT_BEGIN
 90
        0
 91
        1
 62
     0
 92
       -2
340
0
 93
        0
 40
0.045
309
GRIDFORMAT_END
 95
        8
302
GRIDFORMAT
  1
GRIDFORMAT_BEGIN
 90
        0
 91
        1
 62
     0
 92
       -2
340
0
 93
        0
 40
0.045
309
GRIDFORMAT_END
 95
       16
302
GRIDFORMAT
  1
GRIDFORMAT_BEGIN
 90
        0
 91
        1
 62
     0
 92
       -2
340
0
 93
        0
 40
0.045
309
GRIDFORMAT_END
 95
       32
302
GRIDFORMAT
  1
GRIDFORMAT_BEGIN
 90
        0
 91
        1
 62
     0
 92
       -2
340
0
 93
        0
 40
0.045
309
GRIDFORMAT_END
309
TABLEFORMAT_END
  1
CELLSTYLE_BEGIN
 90
        2
 91
        1
300
_HEADER
309
CELLSTYLE_END
300
CELLSTYLE
  1
TABLEFORMAT_BEGIN
 90
        5
170
     1
 91
        0
 92
        0
 62
   257
 93
        1
300
CONTENTFORMAT
  1
CONTENTFORMAT_BEGIN
 90
        0
 91
        0
 92
        4
 93
        0
300

 40
0.0
140
1.0
 94
        2
 62
     0
340
11
144
4.5
309
CONTENTFORMAT_END
171
     1
301
MARGIN
  1
CELLMARGIN_BEGIN
 40
1.5
 40
1.5
 40
1.5
 40
1.5
 40
0.18
 40
0.18
309
CELLMARGIN_END
 94
        6
 95
        1
302
GRIDFORMAT
  1
GRIDFORMAT_BEGIN
 90
        0
 91
        1
 62
     0
 92
       -2
340
0
 93
        0
 40
0.045
309
GRIDFORMAT_END
 95
        2
302
GRIDFORMAT
  1
GRIDFORMAT_BEGIN
 90
        0
 91
        1
 62
     0
 92
       -2
340
0
 93
        0
 40
0.045
309
GRIDFORMAT_END
 95
        4
302
GRIDFORMAT
  1
GRIDFORMAT_BEGIN
 90
        0
 91
        1
 62
     0
 92
       -2
340
0
 93
        0
 40
0.045
309
GRIDFORMAT_END
 95
        8
302
GRIDFORMAT
  1
GRIDFORMAT_BEGIN
 90
        0
 91
        1
 62
     0
 92
       -2
340
0
 93
        0
 40
0.045
309
GRIDFORMAT_END
 95
       16
302
GRIDFORMAT
  1
GRIDFORMAT_BEGIN
 90
        0
 91
        1
 62
     0
 92
       -2
340
0
 93
        0
 40
0.045
309
GRIDFORMAT_END
 95
       32
302
GRIDFORMAT
  1
GRIDFORMAT_BEGIN
 90
        0
 91
        1
 62
     0
 92
       -2
340
0
 93
        0
 40
0.045
309
GRIDFORMAT_END
309
TABLEFORMAT_END
  1
CELLSTYLE_BEGIN
 90
        3
 91
        2
300
_DATA
309
CELLSTYLE_END
  0
XRECORD
  5
708
102
{ACAD_REACTORS
330
676
102
}
330
676
100
AcDbXrecord
280
     1
102
ACAD_ROUNDTRIP_PRE2007_TABLESTYLE
 90
        4
 91
        0
  1

 92
        4
 93
        0
  2

 94
        4
 95
        0
  3

  0
XRECORD
  5
6E1
102
{ACAD_REACTORS
330
6E0
102
}
330
6E0
100
AcDbXrecord
280
     1
102
RTVSPost2010Prop28
280
     1
102
RTVSPost2010PropOp28
 70
     1
102
RTVSPost2010Prop29
280
     1
102
RTVSPost2010PropOp29
 70
     1
102
RTVSPost2010Prop30
280
     0
102
RTVSPost2010PropOp30
 70
     1
102
RTVSPost2010Prop31
280
     0
102
RTVSPost2010PropOp31
 70
     1
102
RTVSPost2010Prop32
280
     0
102
RTVSPost2010PropOp32
 70
     1
102
RTVSPost2010Prop33
280
     0
102
RTVSPost2010PropOp33
 70
     1
102
RTVSPost2010Prop34
280
     0
102
RTVSPost2010PropOp34
 70
     1
102
RTVSPost2010Prop35
280
     0
102
RTVSPost2010PropOp35
 70
     1
102
RTVSPost2010Prop36
280
     0
102
RTVSPost2010PropOp36
 70
     1
102
RTVSPost2010Prop37
 90
       50
102
RTVSPost2010PropOp37
 70
     1
102
RTVSPost2010Prop38
140
0.0
102
RTVSPost2010PropOp38
 70
     1
102
RTVSPost2010Prop39
140
1.0
102
RTVSPost2010PropOp39
 70
     1
102
RTVSPost2010Prop40
 90
        0
102
RTVSPost2010PropOp40
 70
     1
102
RTVSPost2010Prop41ColorIndex
 90
       18
102
RTVSPost2010Prop41ColorRGB
 90
        0
102
RTVSPost2010PropOp41
 70
     1
102
RTVSPost2010Prop42
 90
       50
102
RTVSPost2010PropOp42
 70
     1
102
RTVSPost2010Prop43
 90
        3
102
RTVSPost2010PropOp43
 70
     1
102
RTVSPost2010Prop44ColorIndex
 90
        5
102
RTVSPost2010Prop44ColorRGB
 90
      255
102
RTVSPost2010PropOp44
 70
     1
102
RTVSPost2010Prop45
280
     0
102
RTVSPost2010PropOp45
 70
     1
102
RTVSPost2010Prop46
 90
       50
102
RTVSPost2010PropOp46
 70
     1
102
RTVSPost2010Prop47
 90
       50
102
RTVSPost2010PropOp47
 70
     1
102
RTVSPost2010Prop48
 90
       50
102
RTVSPost2010PropOp48
 70
     1
102
RTVSPost2010Prop49
280
     0
102
RTVSPost2010PropOp49
 70
     1
102
RTVSPost2010Prop50
 90
       50
102
RTVSPost2010PropOp50
 70
     1
102
RTVSPost2010Prop51ColorIndex
 90
      256
102
RTVSPost2010Prop51ColorRGB
 90
-16777216
102
RTVSPost2010PropOp51
 70
     0
102
RTVSPost2010Prop52
140
1.0
102
RTVSPost2010PropOp52
 70
     0
102
RTVSPost2010Prop53
 90
        2
102
RTVSPost2010PropOp53
 70
     1
102
RTVSPost2010Prop54
  1
strokes_ogs.tif
102
RTVSPost2010PropOp54
 70
     1
102
RTVSPost2010Prop55
280
     0
102
RTVSPost2010PropOp55
 70
     1
102
RTVSPost2010Prop56
140
1.0
102
RTVSPost2010PropOp56
 70
     1
102
RTVSPost2010Prop57
140
1.0
102
RTVSPost2010PropOp57
 70
     1
102
RTVSPropertyOp0
 70
     1
102
RTVSPropertyOp1
 70
     1
102
RTVSPropertyOp2
 70
     1
102
RTVSPropertyOp3
 70
     1
102
RTVSPropertyOp4
 70
     1
102
RTVSPropertyOp5
 70
     1
102
RTVSPropertyOp6
 70
     1
102
RTVSPropertyOp7
 70
     1
102
RTVSPropertyOp8
 70
     1
102
RTVSPropertyOp9
 70
     1
102
RTVSPropertyOp10
 70
     1
102
RTVSPropertyOp11
 70
     1
102
RTVSPropertyOp12
 70
     1
102
RTVSPropertyOp13
 70
     1
102
RTVSPropertyOp14
 70
     1
102
RTVSPropertyOp15
 70
     1
102
RTVSPropertyOp16
 70
     1
102
RTVSPropertyOp17
 70
     1
102
RTVSPropertyOp18
 70
     1
102
RTVSPropertyOp19
 70
     1
102
RTVSPropertyOp20
 70
     1
102
RTVSPropertyOp21
 70
     1
102
RTVSPropertyOp22
 70
     1
102
RTVSPropertyOp23
 70
     1
102
RTVSPropertyOp24
 70
     1
102
RTVSPropertyOp25
 70
     1
102
RTVSPropertyOp26
 70
     1
102
RTVSPropertyOp27
 70
     1
102
RTVSPropertyOp28
 70
     1
102
RTVSPropertyOp29
 70
     1
102
RTVSPropertyOp30
 70
     1
102
RTVSPropertyOp31
 70
     1
102
RTVSPropertyOp32
 70
     1
102
RTVSPropertyOp33
 70
     1
102
RTVSPropertyOp34
 70
     1
102
RTVSPropertyOp35
 70
     1
102
RTVSPropertyOp36
 70
     1
102
RTVSPropertyOp37
 70
     1
102
RTVSPropertyOp38
 70
     1
102
RTVSPropertyOp39
 70
     1
102
RTVSPropertyOp40
 70
     1
102
RTVSPropertyOp41
 70
     1
102
RTVSPropertyOp42
 70
     1
102
RTVSPropertyOp43
 70
     1
102
RTVSPropertyOp44
 70
     1
102
RTVSPropertyOp45
 70
     1
102
RTVSPropertyOp46
 70
     1
102
RTVSPropertyOp47
 70
     1
102
RTVSPropertyOp48
 70
     1
102
RTVSPropertyOp49
 70
     1
102
RTVSPropertyOp50
 70
     1
102
RTVSPropertyOp51
 70
     0
102
RTVSPropertyOp52
 70
     0
102
RTVSPropertyOp53
 70
     1
102
RTVSPropertyOp54
 70
     1
102
RTVSPropertyOp55
 70
     1
102
RTVSPropertyOp56
 70
     1
102
RTVSPropertyOp57
 70
     1
102
RTVSPropertyOp58
 70
     1
102
RTVSPropertyOp59
 70
     1
102
RTVSPropertyOp60
 70
     1
102
RTVSPropertyOp61
 70
     1
102
RTVSPropertyOp62
 70
     1
  0
XRECORD
  5
6E7
102
{ACAD_REACTORS
330
6E6
102
}
330
6E6
100
AcDbXrecord
280
     1
102
RTVSPost2010Prop28
280
     0
102
RTVSPost2010PropOp28
 70
     1
102
RTVSPost2010Prop29
280
     1
102
RTVSPost2010PropOp29
 70
     1
102
RTVSPost2010Prop30
280
     1
102
RTVSPost2010PropOp30
 70
     1
102
RTVSPost2010Prop31
280
     0
102
RTVSPost2010PropOp31
 70
     1
102
RTVSPost2010Prop32
280
     0
102
RTVSPost2010PropOp32
 70
     1
102
RTVSPost2010Prop33
280
     0
102
RTVSPost2010PropOp33
 70
     1
102
RTVSPost2010Prop34
280
     0
102
RTVSPost2010PropOp34
 70
     1
102
RTVSPost2010Prop35
280
     0
102
RTVSPost2010PropOp35
 70
     1
102
RTVSPost2010Prop36
280
     0
102
RTVSPost2010PropOp36
 70
     1
102
RTVSPost2010Prop37
 90
       50
102
RTVSPost2010PropOp37
 70
     1
102
RTVSPost2010Prop38
140
0.0
102
RTVSPost2010PropOp38
 70
     1
102
RTVSPost2010Prop39
140
1.0
102
RTVSPost2010PropOp39
 70
     1
102
RTVSPost2010Prop40
 90
        0
102
RTVSPost2010PropOp40
 70
     1
102
RTVSPost2010Prop41ColorIndex
 90
       18
102
RTVSPost2010Prop41ColorRGB
 90
        0
102
RTVSPost2010PropOp41
 70
     1
102
RTVSPost2010Prop42
 90
       50
102
RTVSPost2010PropOp42
 70
     1
102
RTVSPost2010Prop43
 90
        3
102
RTVSPost2010PropOp43
 70
     1
102
RTVSPost2010Prop44ColorIndex
 90
        5
102
RTVSPost2010Prop44ColorRGB
 90
      255
102
RTVSPost2010PropOp44
 70
     1
102
RTVSPost2010Prop45
280
     0
102
RTVSPost2010PropOp45
 70
     1
102
RTVSPost2010Prop46
 90
       50
102
RTVSPost2010PropOp46
 70
     1
102
RTVSPost2010Prop47
 90
       50
102
RTVSPost2010PropOp47
 70
     1
102
RTVSPost2010Prop48
 90
       50
102
RTVSPost2010PropOp48
 70
     1
102
RTVSPost2010Prop49
280
     0
102
RTVSPost2010PropOp49
 70
     1
102
RTVSPost2010Prop50
 90
       50
102
RTVSPost2010PropOp50
 70
     1
102
RTVSPost2010Prop51ColorIndex
 90
      256
102
RTVSPost2010Prop51ColorRGB
 90
-16777216
102
RTVSPost2010PropOp51
 70
     0
102
RTVSPost2010Prop52
140
1.0
102
RTVSPost2010PropOp52
 70
     0
102
RTVSPost2010Prop53
 90
        2
102
RTVSPost2010PropOp53
 70
     1
102
RTVSPost2010Prop54
  1
strokes_ogs.tif
102
RTVSPost2010PropOp54
 70
     1
102
RTVSPost2010Prop55
280
     0
102
RTVSPost2010PropOp55
 70
     1
102
RTVSPost2010Prop56
140
1.0
102
RTVSPost2010PropOp56
 70
     1
102
RTVSPost2010Prop57
140
1.0
102
RTVSPost2010PropOp57
 70
     1
102
RTVSPropertyOp0
 70
     1
102
RTVSPropertyOp1
 70
     1
102
RTVSPropertyOp2
 70
     1
102
RTVSPropertyOp3
 70
     1
102
RTVSPropertyOp4
 70
     1
102
RTVSPropertyOp5
 70
     1
102
RTVSPropertyOp6
 70
     1
102
RTVSPropertyOp7
 70
     1
102
RTVSPropertyOp8
 70
     1
102
RTVSPropertyOp9
 70
     1
102
RTVSPropertyOp10
 70
     1
102
RTVSPropertyOp11
 70
     1
102
RTVSPropertyOp12
 70
     1
102
RTVSPropertyOp13
 70
     1
102
RTVSPropertyOp14
 70
     1
102
RTVSPropertyOp15
 70
     1
102
RTVSPropertyOp16
 70
     1
102
RTVSPropertyOp17
 70
     1
102
RTVSPropertyOp18
 70
     1
102
RTVSPropertyOp19
 70
     1
102
RTVSPropertyOp20
 70
     1
102
RTVSPropertyOp21
 70
     1
102
RTVSPropertyOp22
 70
     1
102
RTVSPropertyOp23
 70
     1
102
RTVSPropertyOp24
 70
     1
102
RTVSPropertyOp25
 70
     1
102
RTVSPropertyOp26
 70
     1
102
RTVSPropertyOp27
 70
     1
102
RTVSPropertyOp28
 70
     1
102
RTVSPropertyOp29
 70
     1
102
RTVSPropertyOp30
 70
     1
102
RTVSPropertyOp31
 70
     1
102
RTVSPropertyOp32
 70
     1
102
RTVSPropertyOp33
 70
     1
102
RTVSPropertyOp34
 70
     1
102
RTVSPropertyOp35
 70
     1
102
RTVSPropertyOp36
 70
     1
102
RTVSPropertyOp37
 70
     1
102
RTVSPropertyOp38
 70
     1
102
RTVSPropertyOp39
 70
     1
102
RTVSPropertyOp40
 70
     1
102
RTVSPropertyOp41
 70
     1
102
RTVSPropertyOp42
 70
     1
102
RTVSPropertyOp43
 70
     1
102
RTVSPropertyOp44
 70
     1
102
RTVSPropertyOp45
 70
     1
102
RTVSPropertyOp46
 70
     1
102
RTVSPropertyOp47
 70
     1
102
RTVSPropertyOp48
 70
     1
102
RTVSPropertyOp49
 70
     1
102
RTVSPropertyOp50
 70
     1
102
RTVSPropertyOp51
 70
     0
102
RTVSPropertyOp52
 70
     0
102
RTVSPropertyOp53
 70
     1
102
RTVSPropertyOp54
 70
     1
102
RTVSPropertyOp55
 70
     1
102
RTVSPropertyOp56
 70
     1
102
RTVSPropertyOp57
 70
     1
102
RTVSPropertyOp58
 70
     1
102
RTVSPropertyOp59
 70
     1
102
RTVSPropertyOp60
 70
     1
102
RTVSPropertyOp61
 70
     1
102
RTVSPropertyOp62
 70
     1
  0
XRECORD
  5
6EF
102
{ACAD_REACTORS
330
6EE
102
}
330
6EE
100
AcDbXrecord
280
     1
102
RTVSPost2010Prop28
280
     0
102
RTVSPost2010PropOp28
 70
     1
102
RTVSPost2010Prop29
280
     1
102
RTVSPost2010PropOp29
 70
     1
102
RTVSPost2010Prop30
280
     1
102
RTVSPost2010PropOp30
 70
     1
102
RTVSPost2010Prop31
280
     0
102
RTVSPost2010PropOp31
 70
     1
102
RTVSPost2010Prop32
280
     0
102
RTVSPost2010PropOp32
 70
     1
102
RTVSPost2010Prop33
280
     0
102
RTVSPost2010PropOp33
 70
     1
102
RTVSPost2010Prop34
280
     0
102
RTVSPost2010PropOp34
 70
     1
102
RTVSPost2010Prop35
280
     0
102
RTVSPost2010PropOp35
 70
     1
102
RTVSPost2010Prop36
280
     0
102
RTVSPost2010PropOp36
 70
     1
102
RTVSPost2010Prop37
 90
       50
102
RTVSPost2010PropOp37
 70
     1
102
RTVSPost2010Prop38
140
0.0
102
RTVSPost2010PropOp38
 70
     1
102
RTVSPost2010Prop39
140
1.0
102
RTVSPost2010PropOp39
 70
     1
102
RTVSPost2010Prop40
 90
        0
102
RTVSPost2010PropOp40
 70
     1
102
RTVSPost2010Prop41ColorIndex
 90
       18
102
RTVSPost2010Prop41ColorRGB
 90
        0
102
RTVSPost2010PropOp41
 70
     1
102
RTVSPost2010Prop42
 90
       50
102
RTVSPost2010PropOp42
 70
     1
102
RTVSPost2010Prop43
 90
        3
102
RTVSPost2010PropOp43
 70
     1
102
RTVSPost2010Prop44ColorIndex
 90
        5
102
RTVSPost2010Prop44ColorRGB
 90
      255
102
RTVSPost2010PropOp44
 70
     1
102
RTVSPost2010Prop45
280
     0
102
RTVSPost2010PropOp45
 70
     1
102
RTVSPost2010Prop46
 90
       50
102
RTVSPost2010PropOp46
 70
     1
102
RTVSPost2010Prop47
 90
       50
102
RTVSPost2010PropOp47
 70
     1
102
RTVSPost2010Prop48
 90
       50
102
RTVSPost2010PropOp48
 70
     1
102
RTVSPost2010Prop49
280
     0
102
RTVSPost2010PropOp49
 70
     1
102
RTVSPost2010Prop50
 90
       50
102
RTVSPost2010PropOp50
 70
     1
102
RTVSPost2010Prop51ColorIndex
 90
      256
102
RTVSPost2010Prop51ColorRGB
 90
-16777216
102
RTVSPost2010PropOp51
 70
     0
102
RTVSPost2010Prop52
140
1.0
102
RTVSPost2010PropOp52
 70
     0
102
RTVSPost2010Prop53
 90
        2
102
RTVSPost2010PropOp53
 70
     1
102
RTVSPost2010Prop54
  1
strokes_ogs.tif
102
RTVSPost2010PropOp54
 70
     1
102
RTVSPost2010Prop55
280
     0
102
RTVSPost2010PropOp55
 70
     1
102
RTVSPost2010Prop56
140
1.0
102
RTVSPost2010PropOp56
 70
     1
102
RTVSPost2010Prop57
140
1.0
102
RTVSPost2010PropOp57
 70
     1
102
RTVSPropertyOp0
 70
     1
102
RTVSPropertyOp1
 70
     1
102
RTVSPropertyOp2
 70
     1
102
RTVSPropertyOp3
 70
     1
102
RTVSPropertyOp4
 70
     1
102
RTVSPropertyOp5
 70
     1
102
RTVSPropertyOp6
 70
     1
102
RTVSPropertyOp7
 70
     1
102
RTVSPropertyOp8
 70
     1
102
RTVSPropertyOp9
 70
     1
102
RTVSPropertyOp10
 70
     1
102
RTVSPropertyOp11
 70
     1
102
RTVSPropertyOp12
 70
     1
102
RTVSPropertyOp13
 70
     1
102
RTVSPropertyOp14
 70
     1
102
RTVSPropertyOp15
 70
     1
102
RTVSPropertyOp16
 70
     1
102
RTVSPropertyOp17
 70
     1
102
RTVSPropertyOp18
 70
     1
102
RTVSPropertyOp19
 70
     1
102
RTVSPropertyOp20
 70
     1
102
RTVSPropertyOp21
 70
     1
102
RTVSPropertyOp22
 70
     1
102
RTVSPropertyOp23
 70
     1
102
RTVSPropertyOp24
 70
     1
102
RTVSPropertyOp25
 70
     1
102
RTVSPropertyOp26
 70
     1
102
RTVSPropertyOp27
 70
     1
102
RTVSPropertyOp28
 70
     1
102
RTVSPropertyOp29
 70
     1
102
RTVSPropertyOp30
 70
     1
102
RTVSPropertyOp31
 70
     1
102
RTVSPropertyOp32
 70
     1
102
RTVSPropertyOp33
 70
     1
102
RTVSPropertyOp34
 70
     1
102
RTVSPropertyOp35
 70
     1
102
RTVSPropertyOp36
 70
     1
102
RTVSPropertyOp37
 70
     1
102
RTVSPropertyOp38
 70
     1
102
RTVSPropertyOp39
 70
     1
102
RTVSPropertyOp40
 70
     1
102
RTVSPropertyOp41
 70
     1
102
RTVSPropertyOp42
 70
     1
102
RTVSPropertyOp43
 70
     1
102
RTVSPropertyOp44
 70
     1
102
RTVSPropertyOp45
 70
     1
102
RTVSPropertyOp46
 70
     1
102
RTVSPropertyOp47
 70
     1
102
RTVSPropertyOp48
 70
     1
102
RTVSPropertyOp49
 70
     1
102
RTVSPropertyOp50
 70
     1
102
RTVSPropertyOp51
 70
     0
102
RTVSPropertyOp52
 70
     0
102
RTVSPropertyOp53
 70
     1
102
RTVSPropertyOp54
 70
     1
102
RTVSPropertyOp55
 70
     1
102
RTVSPropertyOp56
 70
     1
102
RTVSPropertyOp57
 70
     1
102
RTVSPropertyOp58
 70
     1
102
RTVSPropertyOp59
 70
     1
102
RTVSPropertyOp60
 70
     1
102
RTVSPropertyOp61
 70
     1
102
RTVSPropertyOp62
 70
     1
  0
XRECORD
  5
6F7
102
{ACAD_REACTORS
330
6F6
102
}
330
6F6
100
AcDbXrecord
280
     1
102
RTVSPost2010Prop28
280
     0
102
RTVSPost2010PropOp28
 70
     1
102
RTVSPost2010Prop29
280
     1
102
RTVSPost2010PropOp29
 70
     1
102
RTVSPost2010Prop30
280
     1
102
RTVSPost2010PropOp30
 70
     1
102
RTVSPost2010Prop31
280
     0
102
RTVSPost2010PropOp31
 70
     1
102
RTVSPost2010Prop32
280
     0
102
RTVSPost2010PropOp32
 70
     1
102
RTVSPost2010Prop33
280
     0
102
RTVSPost2010PropOp33
 70
     1
102
RTVSPost2010Prop34
280
     0
102
RTVSPost2010PropOp34
 70
     1
102
RTVSPost2010Prop35
280
     0
102
RTVSPost2010PropOp35
 70
     1
102
RTVSPost2010Prop36
280
     0
102
RTVSPost2010PropOp36
 70
     1
102
RTVSPost2010Prop37
 90
       50
102
RTVSPost2010PropOp37
 70
     1
102
RTVSPost2010Prop38
140
0.0
102
RTVSPost2010PropOp38
 70
     1
102
RTVSPost2010Prop39
140
1.0
102
RTVSPost2010PropOp39
 70
     1
102
RTVSPost2010Prop40
 90
        0
102
RTVSPost2010PropOp40
 70
     1
102
RTVSPost2010Prop41ColorIndex
 90
       18
102
RTVSPost2010Prop41ColorRGB
 90
        0
102
RTVSPost2010PropOp41
 70
     1
102
RTVSPost2010Prop42
 90
       50
102
RTVSPost2010PropOp42
 70
     1
102
RTVSPost2010Prop43
 90
        3
102
RTVSPost2010PropOp43
 70
     1
102
RTVSPost2010Prop44ColorIndex
 90
        5
102
RTVSPost2010Prop44ColorRGB
 90
      255
102
RTVSPost2010PropOp44
 70
     1
102
RTVSPost2010Prop45
280
     0
102
RTVSPost2010PropOp45
 70
     1
102
RTVSPost2010Prop46
 90
       50
102
RTVSPost2010PropOp46
 70
     1
102
RTVSPost2010Prop47
 90
       50
102
RTVSPost2010PropOp47
 70
     1
102
RTVSPost2010Prop48
 90
       50
102
RTVSPost2010PropOp48
 70
     1
102
RTVSPost2010Prop49
280
     0
102
RTVSPost2010PropOp49
 70
     1
102
RTVSPost2010Prop50
 90
       50
102
RTVSPost2010PropOp50
 70
     1
102
RTVSPost2010Prop51ColorIndex
 90
      256
102
RTVSPost2010Prop51ColorRGB
 90
-16777216
102
RTVSPost2010PropOp51
 70
     0
102
RTVSPost2010Prop52
140
1.0
102
RTVSPost2010PropOp52
 70
     0
102
RTVSPost2010Prop53
 90
        2
102
RTVSPost2010PropOp53
 70
     1
102
RTVSPost2010Prop54
  1
strokes_ogs.tif
102
RTVSPost2010PropOp54
 70
     1
102
RTVSPost2010Prop55
280
     0
102
RTVSPost2010PropOp55
 70
     1
102
RTVSPost2010Prop56
140
1.0
102
RTVSPost2010PropOp56
 70
     1
102
RTVSPost2010Prop57
140
1.0
102
RTVSPost2010PropOp57
 70
     1
102
RTVSPropertyOp0
 70
     1
102
RTVSPropertyOp1
 70
     1
102
RTVSPropertyOp2
 70
     1
102
RTVSPropertyOp3
 70
     1
102
RTVSPropertyOp4
 70
     1
102
RTVSPropertyOp5
 70
     1
102
RTVSPropertyOp6
 70
     1
102
RTVSPropertyOp7
 70
     1
102
RTVSPropertyOp8
 70
     1
102
RTVSPropertyOp9
 70
     1
102
RTVSPropertyOp10
 70
     1
102
RTVSPropertyOp11
 70
     1
102
RTVSPropertyOp12
 70
     1
102
RTVSPropertyOp13
 70
     1
102
RTVSPropertyOp14
 70
     1
102
RTVSPropertyOp15
 70
     1
102
RTVSPropertyOp16
 70
     1
102
RTVSPropertyOp17
 70
     1
102
RTVSPropertyOp18
 70
     1
102
RTVSPropertyOp19
 70
     1
102
RTVSPropertyOp20
 70
     1
102
RTVSPropertyOp21
 70
     1
102
RTVSPropertyOp22
 70
     1
102
RTVSPropertyOp23
 70
     1
102
RTVSPropertyOp24
 70
     1
102
RTVSPropertyOp25
 70
     1
102
RTVSPropertyOp26
 70
     1
102
RTVSPropertyOp27
 70
     1
102
RTVSPropertyOp28
 70
     1
102
RTVSPropertyOp29
 70
     1
102
RTVSPropertyOp30
 70
     1
102
RTVSPropertyOp31
 70
     1
102
RTVSPropertyOp32
 70
     1
102
RTVSPropertyOp33
 70
     1
102
RTVSPropertyOp34
 70
     1
102
RTVSPropertyOp35
 70
     1
102
RTVSPropertyOp36
 70
     1
102
RTVSPropertyOp37
 70
     1
102
RTVSPropertyOp38
 70
     1
102
RTVSPropertyOp39
 70
     1
102
RTVSPropertyOp40
 70
     1
102
RTVSPropertyOp41
 70
     1
102
RTVSPropertyOp42
 70
     1
102
RTVSPropertyOp43
 70
     1
102
RTVSPropertyOp44
 70
     1
102
RTVSPropertyOp45
 70
     1
102
RTVSPropertyOp46
 70
     1
102
RTVSPropertyOp47
 70
     1
102
RTVSPropertyOp48
 70
     1
102
RTVSPropertyOp49
 70
     1
102
RTVSPropertyOp50
 70
     1
102
RTVSPropertyOp51
 70
     0
102
RTVSPropertyOp52
 70
     0
102
RTVSPropertyOp53
 70
     1
102
RTVSPropertyOp54
 70
     1
102
RTVSPropertyOp55
 70
     1
102
RTVSPropertyOp56
 70
     1
102
RTVSPropertyOp57
 70
     1
102
RTVSPropertyOp58
 70
     1
102
RTVSPropertyOp59
 70
     1
102
RTVSPropertyOp60
 70
     1
102
RTVSPropertyOp61
 70
     1
102
RTVSPropertyOp62
 70
     1
  0
XRECORD
  5
6EB
102
{ACAD_REACTORS
330
6EA
102
}
330
6EA
100
AcDbXrecord
280
     1
102
RTVSPost2010Prop28
280
     0
102
RTVSPost2010PropOp28
 70
     1
102
RTVSPost2010Prop29
280
     1
102
RTVSPost2010PropOp29
 70
     1
102
RTVSPost2010Prop30
280
     1
102
RTVSPost2010PropOp30
 70
     1
102
RTVSPost2010Prop31
280
     0
102
RTVSPost2010PropOp31
 70
     1
102
RTVSPost2010Prop32
280
     0
102
RTVSPost2010PropOp32
 70
     1
102
RTVSPost2010Prop33
280
     0
102
RTVSPost2010PropOp33
 70
     1
102
RTVSPost2010Prop34
280
     0
102
RTVSPost2010PropOp34
 70
     1
102
RTVSPost2010Prop35
280
     0
102
RTVSPost2010PropOp35
 70
     1
102
RTVSPost2010Prop36
280
     0
102
RTVSPost2010PropOp36
 70
     1
102
RTVSPost2010Prop37
 90
       50
102
RTVSPost2010PropOp37
 70
     1
102
RTVSPost2010Prop38
140
0.0
102
RTVSPost2010PropOp38
 70
     1
102
RTVSPost2010Prop39
140
1.0
102
RTVSPost2010PropOp39
 70
     1
102
RTVSPost2010Prop40
 90
        0
102
RTVSPost2010PropOp40
 70
     1
102
RTVSPost2010Prop41ColorIndex
 90
       18
102
RTVSPost2010Prop41ColorRGB
 90
        0
102
RTVSPost2010PropOp41
 70
     1
102
RTVSPost2010Prop42
 90
       50
102
RTVSPost2010PropOp42
 70
     1
102
RTVSPost2010Prop43
 90
        3
102
RTVSPost2010PropOp43
 70
     1
102
RTVSPost2010Prop44ColorIndex
 90
        5
102
RTVSPost2010Prop44ColorRGB
 90
      255
102
RTVSPost2010PropOp44
 70
     1
102
RTVSPost2010Prop45
280
     0
102
RTVSPost2010PropOp45
 70
     1
102
RTVSPost2010Prop46
 90
       50
102
RTVSPost2010PropOp46
 70
     1
102
RTVSPost2010Prop47
 90
       50
102
RTVSPost2010PropOp47
 70
     1
102
RTVSPost2010Prop48
 90
       50
102
RTVSPost2010PropOp48
 70
     1
102
RTVSPost2010Prop49
280
     0
102
RTVSPost2010PropOp49
 70
     1
102
RTVSPost2010Prop50
 90
       50
102
RTVSPost2010PropOp50
 70
     1
102
RTVSPost2010Prop51ColorIndex
 90
      256
102
RTVSPost2010Prop51ColorRGB
 90
-16777216
102
RTVSPost2010PropOp51
 70
     0
102
RTVSPost2010Prop52
140
1.0
102
RTVSPost2010PropOp52
 70
     0
102
RTVSPost2010Prop53
 90
        2
102
RTVSPost2010PropOp53
 70
     1
102
RTVSPost2010Prop54
  1
strokes_ogs.tif
102
RTVSPost2010PropOp54
 70
     1
102
RTVSPost2010Prop55
280
     0
102
RTVSPost2010PropOp55
 70
     1
102
RTVSPost2010Prop56
140
1.0
102
RTVSPost2010PropOp56
 70
     1
102
RTVSPost2010Prop57
140
1.0
102
RTVSPost2010PropOp57
 70
     1
102
RTVSPropertyOp0
 70
     1
102
RTVSPropertyOp1
 70
     1
102
RTVSPropertyOp2
 70
     1
102
RTVSPropertyOp3
 70
     1
102
RTVSPropertyOp4
 70
     1
102
RTVSPropertyOp5
 70
     1
102
RTVSPropertyOp6
 70
     1
102
RTVSPropertyOp7
 70
     1
102
RTVSPropertyOp8
 70
     1
102
RTVSPropertyOp9
 70
     1
102
RTVSPropertyOp10
 70
     1
102
RTVSPropertyOp11
 70
     1
102
RTVSPropertyOp12
 70
     1
102
RTVSPropertyOp13
 70
     1
102
RTVSPropertyOp14
 70
     1
102
RTVSPropertyOp15
 70
     1
102
RTVSPropertyOp16
 70
     1
102
RTVSPropertyOp17
 70
     1
102
RTVSPropertyOp18
 70
     1
102
RTVSPropertyOp19
 70
     1
102
RTVSPropertyOp20
 70
     1
102
RTVSPropertyOp21
 70
     1
102
RTVSPropertyOp22
 70
     1
102
RTVSPropertyOp23
 70
     1
102
RTVSPropertyOp24
 70
     1
102
RTVSPropertyOp25
 70
     1
102
RTVSPropertyOp26
 70
     1
102
RTVSPropertyOp27
 70
     1
102
RTVSPropertyOp28
 70
     1
102
RTVSPropertyOp29
 70
     1
102
RTVSPropertyOp30
 70
     1
102
RTVSPropertyOp31
 70
     1
102
RTVSPropertyOp32
 70
     1
102
RTVSPropertyOp33
 70
     1
102
RTVSPropertyOp34
 70
     1
102
RTVSPropertyOp35
 70
     1
102
RTVSPropertyOp36
 70
     1
102
RTVSPropertyOp37
 70
     1
102
RTVSPropertyOp38
 70
     1
102
RTVSPropertyOp39
 70
     1
102
RTVSPropertyOp40
 70
     1
102
RTVSPropertyOp41
 70
     1
102
RTVSPropertyOp42
 70
     1
102
RTVSPropertyOp43
 70
     1
102
RTVSPropertyOp44
 70
     1
102
RTVSPropertyOp45
 70
     1
102
RTVSPropertyOp46
 70
     1
102
RTVSPropertyOp47
 70
     1
102
RTVSPropertyOp48
 70
     1
102
RTVSPropertyOp49
 70
     1
102
RTVSPropertyOp50
 70
     1
102
RTVSPropertyOp51
 70
     0
102
RTVSPropertyOp52
 70
     0
102
RTVSPropertyOp53
 70
     1
102
RTVSPropertyOp54
 70
     1
102
RTVSPropertyOp55
 70
     1
102
RTVSPropertyOp56
 70
     1
102
RTVSPropertyOp57
 70
     1
102
RTVSPropertyOp58
 70
     1
102
RTVSPropertyOp59
 70
     1
102
RTVSPropertyOp60
 70
     1
102
RTVSPropertyOp61
 70
     1
102
RTVSPropertyOp62
 70
     1
  0
XRECORD
  5
6ED
102
{ACAD_REACTORS
330
6EC
102
}
330
6EC
100
AcDbXrecord
280
     1
102
RTVSPost2010Prop28
280
     0
102
RTVSPost2010PropOp28
 70
     1
102
RTVSPost2010Prop29
280
     1
102
RTVSPost2010PropOp29
 70
     1
102
RTVSPost2010Prop30
280
     1
102
RTVSPost2010PropOp30
 70
     1
102
RTVSPost2010Prop31
280
     0
102
RTVSPost2010PropOp31
 70
     1
102
RTVSPost2010Prop32
280
     0
102
RTVSPost2010PropOp32
 70
     1
102
RTVSPost2010Prop33
280
     0
102
RTVSPost2010PropOp33
 70
     1
102
RTVSPost2010Prop34
280
     0
102
RTVSPost2010PropOp34
 70
     1
102
RTVSPost2010Prop35
280
     0
102
RTVSPost2010PropOp35
 70
     1
102
RTVSPost2010Prop36
280
     0
102
RTVSPost2010PropOp36
 70
     1
102
RTVSPost2010Prop37
 90
       50
102
RTVSPost2010PropOp37
 70
     1
102
RTVSPost2010Prop38
140
0.0
102
RTVSPost2010PropOp38
 70
     1
102
RTVSPost2010Prop39
140
1.0
102
RTVSPost2010PropOp39
 70
     1
102
RTVSPost2010Prop40
 90
        0
102
RTVSPost2010PropOp40
 70
     1
102
RTVSPost2010Prop41ColorIndex
 90
       18
102
RTVSPost2010Prop41ColorRGB
 90
        0
102
RTVSPost2010PropOp41
 70
     1
102
RTVSPost2010Prop42
 90
       50
102
RTVSPost2010PropOp42
 70
     1
102
RTVSPost2010Prop43
 90
        3
102
RTVSPost2010PropOp43
 70
     1
102
RTVSPost2010Prop44ColorIndex
 90
        5
102
RTVSPost2010Prop44ColorRGB
 90
      255
102
RTVSPost2010PropOp44
 70
     1
102
RTVSPost2010Prop45
280
     0
102
RTVSPost2010PropOp45
 70
     1
102
RTVSPost2010Prop46
 90
       50
102
RTVSPost2010PropOp46
 70
     1
102
RTVSPost2010Prop47
 90
       50
102
RTVSPost2010PropOp47
 70
     1
102
RTVSPost2010Prop48
 90
       50
102
RTVSPost2010PropOp48
 70
     1
102
RTVSPost2010Prop49
280
     0
102
RTVSPost2010PropOp49
 70
     1
102
RTVSPost2010Prop50
 90
       50
102
RTVSPost2010PropOp50
 70
     1
102
RTVSPost2010Prop51ColorIndex
 90
      256
102
RTVSPost2010Prop51ColorRGB
 90
-16777216
102
RTVSPost2010PropOp51
 70
     0
102
RTVSPost2010Prop52
140
1.0
102
RTVSPost2010PropOp52
 70
     0
102
RTVSPost2010Prop53
 90
        2
102
RTVSPost2010PropOp53
 70
     1
102
RTVSPost2010Prop54
  1
strokes_ogs.tif
102
RTVSPost2010PropOp54
 70
     1
102
RTVSPost2010Prop55
280
     0
102
RTVSPost2010PropOp55
 70
     1
102
RTVSPost2010Prop56
140
1.0
102
RTVSPost2010PropOp56
 70
     1
102
RTVSPost2010Prop57
140
1.0
102
RTVSPost2010PropOp57
 70
     1
102
RTVSPropertyOp0
 70
     1
102
RTVSPropertyOp1
 70
     1
102
RTVSPropertyOp2
 70
     1
102
RTVSPropertyOp3
 70
     1
102
RTVSPropertyOp4
 70
     1
102
RTVSPropertyOp5
 70
     1
102
RTVSPropertyOp6
 70
     1
102
RTVSPropertyOp7
 70
     1
102
RTVSPropertyOp8
 70
     1
102
RTVSPropertyOp9
 70
     1
102
RTVSPropertyOp10
 70
     1
102
RTVSPropertyOp11
 70
     1
102
RTVSPropertyOp12
 70
     1
102
RTVSPropertyOp13
 70
     1
102
RTVSPropertyOp14
 70
     1
102
RTVSPropertyOp15
 70
     1
102
RTVSPropertyOp16
 70
     1
102
RTVSPropertyOp17
 70
     1
102
RTVSPropertyOp18
 70
     1
102
RTVSPropertyOp19
 70
     1
102
RTVSPropertyOp20
 70
     1
102
RTVSPropertyOp21
 70
     1
102
RTVSPropertyOp22
 70
     1
102
RTVSPropertyOp23
 70
     1
102
RTVSPropertyOp24
 70
     1
102
RTVSPropertyOp25
 70
     1
102
RTVSPropertyOp26
 70
     1
102
RTVSPropertyOp27
 70
     1
102
RTVSPropertyOp28
 70
     1
102
RTVSPropertyOp29
 70
     1
102
RTVSPropertyOp30
 70
     1
102
RTVSPropertyOp31
 70
     1
102
RTVSPropertyOp32
 70
     1
102
RTVSPropertyOp33
 70
     1
102
RTVSPropertyOp34
 70
     1
102
RTVSPropertyOp35
 70
     1
102
RTVSPropertyOp36
 70
     1
102
RTVSPropertyOp37
 70
     1
102
RTVSPropertyOp38
 70
     1
102
RTVSPropertyOp39
 70
     1
102
RTVSPropertyOp40
 70
     1
102
RTVSPropertyOp41
 70
     1
102
RTVSPropertyOp42
 70
     1
102
RTVSPropertyOp43
 70
     1
102
RTVSPropertyOp44
 70
     1
102
RTVSPropertyOp45
 70
     1
102
RTVSPropertyOp46
 70
     1
102
RTVSPropertyOp47
 70
     1
102
RTVSPropertyOp48
 70
     1
102
RTVSPropertyOp49
 70
     1
102
RTVSPropertyOp50
 70
     1
102
RTVSPropertyOp51
 70
     0
102
RTVSPropertyOp52
 70
     0
102
RTVSPropertyOp53
 70
     1
102
RTVSPropertyOp54
 70
     1
102
RTVSPropertyOp55
 70
     1
102
RTVSPropertyOp56
 70
     1
102
RTVSPropertyOp57
 70
     1
102
RTVSPropertyOp58
 70
     1
102
RTVSPropertyOp59
 70
     1
102
RTVSPropertyOp60
 70
     1
102
RTVSPropertyOp61
 70
     1
102
RTVSPropertyOp62
 70
     1
  0
XRECORD
  5
6FD
102
{ACAD_REACTORS
330
6FC
102
}
330
6FC
100
AcDbXrecord
280
     1
102
RTVSPost2010Prop28
280
     0
102
RTVSPost2010PropOp28
 70
     0
102
RTVSPost2010Prop29
280
     1
102
RTVSPost2010PropOp29
 70
     0
102
RTVSPost2010Prop30
280
     1
102
RTVSPost2010PropOp30
 70
     0
102
RTVSPost2010Prop31
280
     0
102
RTVSPost2010PropOp31
 70
     0
102
RTVSPost2010Prop32
280
     0
102
RTVSPost2010PropOp32
 70
     0
102
RTVSPost2010Prop33
280
     0
102
RTVSPost2010PropOp33
 70
     0
102
RTVSPost2010Prop34
280
     0
102
RTVSPost2010PropOp34
 70
     0
102
RTVSPost2010Prop35
280
     0
102
RTVSPost2010PropOp35
 70
     0
102
RTVSPost2010Prop36
280
     0
102
RTVSPost2010PropOp36
 70
     0
102
RTVSPost2010Prop37
 90
       50
102
RTVSPost2010PropOp37
 70
     0
102
RTVSPost2010Prop38
140
0.0
102
RTVSPost2010PropOp38
 70
     0
102
RTVSPost2010Prop39
140
1.0
102
RTVSPost2010PropOp39
 70
     0
102
RTVSPost2010Prop40
 90
        0
102
RTVSPost2010PropOp40
 70
     0
102
RTVSPost2010Prop41ColorIndex
 90
       18
102
RTVSPost2010Prop41ColorRGB
 90
        0
102
RTVSPost2010PropOp41
 70
     0
102
RTVSPost2010Prop42
 90
       50
102
RTVSPost2010PropOp42
 70
     0
102
RTVSPost2010Prop43
 90
        3
102
RTVSPost2010PropOp43
 70
     0
102
RTVSPost2010Prop44ColorIndex
 90
        5
102
RTVSPost2010Prop44ColorRGB
 90
      255
102
RTVSPost2010PropOp44
 70
     0
102
RTVSPost2010Prop45
280
     0
102
RTVSPost2010PropOp45
 70
     0
102
RTVSPost2010Prop46
 90
       50
102
RTVSPost2010PropOp46
 70
     0
102
RTVSPost2010Prop47
 90
       50
102
RTVSPost2010PropOp47
 70
     0
102
RTVSPost2010Prop48
 90
       50
102
RTVSPost2010PropOp48
 70
     0
102
RTVSPost2010Prop49
280
     0
102
RTVSPost2010PropOp49
 70
     0
102
RTVSPost2010Prop50
 90
       50
102
RTVSPost2010PropOp50
 70
     0
102
RTVSPost2010Prop51ColorIndex
 90
      256
102
RTVSPost2010Prop51ColorRGB
 90
-16777216
102
RTVSPost2010PropOp51
 70
     0
102
RTVSPost2010Prop52
140
1.0
102
RTVSPost2010PropOp52
 70
     0
102
RTVSPost2010Prop53
 90
        2
102
RTVSPost2010PropOp53
 70
     0
102
RTVSPost2010Prop54
  1
strokes_ogs.tif
102
RTVSPost2010PropOp54
 70
     0
102
RTVSPost2010Prop55
280
     0
102
RTVSPost2010PropOp55
 70
     0
102
RTVSPost2010Prop56
140
1.0
102
RTVSPost2010PropOp56
 70
     0
102
RTVSPost2010Prop57
140
1.0
102
RTVSPost2010PropOp57
 70
     0
102
RTVSPropertyOp0
 70
     0
102
RTVSPropertyOp1
 70
     0
102
RTVSPropertyOp2
 70
     0
102
RTVSPropertyOp3
 70
     0
102
RTVSPropertyOp4
 70
     0
102
RTVSPropertyOp5
 70
     0
102
RTVSPropertyOp6
 70
     0
102
RTVSPropertyOp7
 70
     0
102
RTVSPropertyOp8
 70
     0
102
RTVSPropertyOp9
 70
     0
102
RTVSPropertyOp10
 70
     0
102
RTVSPropertyOp11
 70
     0
102
RTVSPropertyOp12
 70
     0
102
RTVSPropertyOp13
 70
     0
102
RTVSPropertyOp14
 70
     2
102
RTVSPropertyOp15
 70
     0
102
RTVSPropertyOp16
 70
     0
102
RTVSPropertyOp17
 70
     0
102
RTVSPropertyOp18
 70
     0
102
RTVSPropertyOp19
 70
     0
102
RTVSPropertyOp20
 70
     0
102
RTVSPropertyOp21
 70
     0
102
RTVSPropertyOp22
 70
     0
102
RTVSPropertyOp23
 70
     0
102
RTVSPropertyOp24
 70
     0
102
RTVSPropertyOp25
 70
     0
102
RTVSPropertyOp26
 70
     0
102
RTVSPropertyOp27
 70
     0
102
RTVSPropertyOp28
 70
     0
102
RTVSPropertyOp29
 70
     0
102
RTVSPropertyOp30
 70
     0
102
RTVSPropertyOp31
 70
     0
102
RTVSPropertyOp32
 70
     0
102
RTVSPropertyOp33
 70
     0
102
RTVSPropertyOp34
 70
     0
102
RTVSPropertyOp35
 70
     0
102
RTVSPropertyOp36
 70
     0
102
RTVSPropertyOp37
 70
     0
102
RTVSPropertyOp38
 70
     0
102
RTVSPropertyOp39
 70
     0
102
RTVSPropertyOp40
 70
     0
102
RTVSPropertyOp41
 70
     0
102
RTVSPropertyOp42
 70
     0
102
RTVSPropertyOp43
 70
     0
102
RTVSPropertyOp44
 70
     0
102
RTVSPropertyOp45
 70
     0
102
RTVSPropertyOp46
 70
     0
102
RTVSPropertyOp47
 70
     0
102
RTVSPropertyOp48
 70
     0
102
RTVSPropertyOp49
 70
     0
102
RTVSPropertyOp50
 70
     0
102
RTVSPropertyOp51
 70
     0
102
RTVSPropertyOp52
 70
     0
102
RTVSPropertyOp53
 70
     0
102
RTVSPropertyOp54
 70
     0
102
RTVSPropertyOp55
 70
     0
102
RTVSPropertyOp56
 70
     0
102
RTVSPropertyOp57
 70
     0
102
RTVSPropertyOp58
 70
     1
102
RTVSPropertyOp59
 70
     1
102
RTVSPropertyOp60
 70
     1
102
RTVSPropertyOp61
 70
     1
102
RTVSPropertyOp62
 70
     1
  0
XRECORD
  5
6F5
102
{ACAD_REACTORS
330
6F4
102
}
330
6F4
100
AcDbXrecord
280
     1
102
RTVSPost2010Prop28
280
     0
102
RTVSPost2010PropOp28
 70
     1
102
RTVSPost2010Prop29
280
     1
102
RTVSPost2010PropOp29
 70
     1
102
RTVSPost2010Prop30
280
     1
102
RTVSPost2010PropOp30
 70
     1
102
RTVSPost2010Prop31
280
     0
102
RTVSPost2010PropOp31
 70
     1
102
RTVSPost2010Prop32
280
     0
102
RTVSPost2010PropOp32
 70
     1
102
RTVSPost2010Prop33
280
     0
102
RTVSPost2010PropOp33
 70
     1
102
RTVSPost2010Prop34
280
     0
102
RTVSPost2010PropOp34
 70
     1
102
RTVSPost2010Prop35
280
     0
102
RTVSPost2010PropOp35
 70
     1
102
RTVSPost2010Prop36
280
     0
102
RTVSPost2010PropOp36
 70
     1
102
RTVSPost2010Prop37
 90
       50
102
RTVSPost2010PropOp37
 70
     1
102
RTVSPost2010Prop38
140
0.0
102
RTVSPost2010PropOp38
 70
     1
102
RTVSPost2010Prop39
140
1.0
102
RTVSPost2010PropOp39
 70
     1
102
RTVSPost2010Prop40
 90
        0
102
RTVSPost2010PropOp40
 70
     1
102
RTVSPost2010Prop41ColorIndex
 90
       18
102
RTVSPost2010Prop41ColorRGB
 90
        0
102
RTVSPost2010PropOp41
 70
     1
102
RTVSPost2010Prop42
 90
       50
102
RTVSPost2010PropOp42
 70
     1
102
RTVSPost2010Prop43
 90
        3
102
RTVSPost2010PropOp43
 70
     1
102
RTVSPost2010Prop44ColorIndex
 90
        5
102
RTVSPost2010Prop44ColorRGB
 90
      255
102
RTVSPost2010PropOp44
 70
     1
102
RTVSPost2010Prop45
280
     0
102
RTVSPost2010PropOp45
 70
     1
102
RTVSPost2010Prop46
 90
       50
102
RTVSPost2010PropOp46
 70
     1
102
RTVSPost2010Prop47
 90
       50
102
RTVSPost2010PropOp47
 70
     1
102
RTVSPost2010Prop48
 90
       50
102
RTVSPost2010PropOp48
 70
     1
102
RTVSPost2010Prop49
280
     0
102
RTVSPost2010PropOp49
 70
     1
102
RTVSPost2010Prop50
 90
       50
102
RTVSPost2010PropOp50
 70
     1
102
RTVSPost2010Prop51ColorIndex
 90
      256
102
RTVSPost2010Prop51ColorRGB
 90
-16777216
102
RTVSPost2010PropOp51
 70
     0
102
RTVSPost2010Prop52
140
1.0
102
RTVSPost2010PropOp52
 70
     0
102
RTVSPost2010Prop53
 90
        2
102
RTVSPost2010PropOp53
 70
     1
102
RTVSPost2010Prop54
  1
strokes_ogs.tif
102
RTVSPost2010PropOp54
 70
     1
102
RTVSPost2010Prop55
280
     0
102
RTVSPost2010PropOp55
 70
     1
102
RTVSPost2010Prop56
140
1.0
102
RTVSPost2010PropOp56
 70
     1
102
RTVSPost2010Prop57
140
1.0
102
RTVSPost2010PropOp57
 70
     1
102
RTVSPropertyOp0
 70
     1
102
RTVSPropertyOp1
 70
     1
102
RTVSPropertyOp2
 70
     1
102
RTVSPropertyOp3
 70
     1
102
RTVSPropertyOp4
 70
     1
102
RTVSPropertyOp5
 70
     1
102
RTVSPropertyOp6
 70
     1
102
RTVSPropertyOp7
 70
     1
102
RTVSPropertyOp8
 70
     1
102
RTVSPropertyOp9
 70
     1
102
RTVSPropertyOp10
 70
     1
102
RTVSPropertyOp11
 70
     1
102
RTVSPropertyOp12
 70
     1
102
RTVSPropertyOp13
 70
     1
102
RTVSPropertyOp14
 70
     1
102
RTVSPropertyOp15
 70
     1
102
RTVSPropertyOp16
 70
     1
102
RTVSPropertyOp17
 70
     1
102
RTVSPropertyOp18
 70
     1
102
RTVSPropertyOp19
 70
     1
102
RTVSPropertyOp20
 70
     1
102
RTVSPropertyOp21
 70
     1
102
RTVSPropertyOp22
 70
     1
102
RTVSPropertyOp23
 70
     1
102
RTVSPropertyOp24
 70
     1
102
RTVSPropertyOp25
 70
     1
102
RTVSPropertyOp26
 70
     1
102
RTVSPropertyOp27
 70
     1
102
RTVSPropertyOp28
 70
     1
102
RTVSPropertyOp29
 70
     1
102
RTVSPropertyOp30
 70
     1
102
RTVSPropertyOp31
 70
     1
102
RTVSPropertyOp32
 70
     1
102
RTVSPropertyOp33
 70
     1
102
RTVSPropertyOp34
 70
     1
102
RTVSPropertyOp35
 70
     1
102
RTVSPropertyOp36
 70
     1
102
RTVSPropertyOp37
 70
     1
102
RTVSPropertyOp38
 70
     1
102
RTVSPropertyOp39
 70
     1
102
RTVSPropertyOp40
 70
     1
102
RTVSPropertyOp41
 70
     1
102
RTVSPropertyOp42
 70
     1
102
RTVSPropertyOp43
 70
     1
102
RTVSPropertyOp44
 70
     1
102
RTVSPropertyOp45
 70
     1
102
RTVSPropertyOp46
 70
     1
102
RTVSPropertyOp47
 70
     1
102
RTVSPropertyOp48
 70
     1
102
RTVSPropertyOp49
 70
     1
102
RTVSPropertyOp50
 70
     1
102
RTVSPropertyOp51
 70
     0
102
RTVSPropertyOp52
 70
     0
102
RTVSPropertyOp53
 70
     1
102
RTVSPropertyOp54
 70
     1
102
RTVSPropertyOp55
 70
     1
102
RTVSPropertyOp56
 70
     1
102
RTVSPropertyOp57
 70
     1
102
RTVSPropertyOp58
 70
     1
102
RTVSPropertyOp59
 70
     1
102
RTVSPropertyOp60
 70
     1
102
RTVSPropertyOp61
 70
     1
102
RTVSPropertyOp62
 70
     1
  0
XRECORD
  5
6D9
102
{ACAD_REACTORS
330
6D8
102
}
330
6D8
100
AcDbXrecord
280
     1
102
RTVSPost2010Prop28
280
     0
102
RTVSPost2010PropOp28
 70
     1
102
RTVSPost2010Prop29
280
     1
102
RTVSPost2010PropOp29
 70
     1
102
RTVSPost2010Prop30
280
     1
102
RTVSPost2010PropOp30
 70
     1
102
RTVSPost2010Prop31
280
     0
102
RTVSPost2010PropOp31
 70
     1
102
RTVSPost2010Prop32
280
     0
102
RTVSPost2010PropOp32
 70
     1
102
RTVSPost2010Prop33
280
     0
102
RTVSPost2010PropOp33
 70
     1
102
RTVSPost2010Prop34
280
     0
102
RTVSPost2010PropOp34
 70
     1
102
RTVSPost2010Prop35
280
     0
102
RTVSPost2010PropOp35
 70
     1
102
RTVSPost2010Prop36
280
     0
102
RTVSPost2010PropOp36
 70
     1
102
RTVSPost2010Prop37
 90
       50
102
RTVSPost2010PropOp37
 70
     1
102
RTVSPost2010Prop38
140
0.0
102
RTVSPost2010PropOp38
 70
     1
102
RTVSPost2010Prop39
140
1.0
102
RTVSPost2010PropOp39
 70
     1
102
RTVSPost2010Prop40
 90
        0
102
RTVSPost2010PropOp40
 70
     1
102
RTVSPost2010Prop41ColorIndex
 90
       18
102
RTVSPost2010Prop41ColorRGB
 90
        0
102
RTVSPost2010PropOp41
 70
     1
102
RTVSPost2010Prop42
 90
       50
102
RTVSPost2010PropOp42
 70
     1
102
RTVSPost2010Prop43
 90
        3
102
RTVSPost2010PropOp43
 70
     1
102
RTVSPost2010Prop44ColorIndex
 90
        5
102
RTVSPost2010Prop44ColorRGB
 90
      255
102
RTVSPost2010PropOp44
 70
     1
102
RTVSPost2010Prop45
280
     0
102
RTVSPost2010PropOp45
 70
     1
102
RTVSPost2010Prop46
 90
       50
102
RTVSPost2010PropOp46
 70
     1
102
RTVSPost2010Prop47
 90
       50
102
RTVSPost2010PropOp47
 70
     1
102
RTVSPost2010Prop48
 90
       50
102
RTVSPost2010PropOp48
 70
     1
102
RTVSPost2010Prop49
280
     0
102
RTVSPost2010PropOp49
 70
     1
102
RTVSPost2010Prop50
 90
       50
102
RTVSPost2010PropOp50
 70
     1
102
RTVSPost2010Prop51ColorIndex
 90
      256
102
RTVSPost2010Prop51ColorRGB
 90
-16777216
102
RTVSPost2010PropOp51
 70
     0
102
RTVSPost2010Prop52
140
1.0
102
RTVSPost2010PropOp52
 70
     0
102
RTVSPost2010Prop53
 90
        2
102
RTVSPost2010PropOp53
 70
     1
102
RTVSPost2010Prop54
  1
strokes_ogs.tif
102
RTVSPost2010PropOp54
 70
     1
102
RTVSPost2010Prop55
280
     0
102
RTVSPost2010PropOp55
 70
     1
102
RTVSPost2010Prop56
140
1.0
102
RTVSPost2010PropOp56
 70
     1
102
RTVSPost2010Prop57
140
1.0
102
RTVSPost2010PropOp57
 70
     1
102
RTVSPropertyOp0
 70
     1
102
RTVSPropertyOp1
 70
     1
102
RTVSPropertyOp2
 70
     1
102
RTVSPropertyOp3
 70
     1
102
RTVSPropertyOp4
 70
     1
102
RTVSPropertyOp5
 70
     1
102
RTVSPropertyOp6
 70
     1
102
RTVSPropertyOp7
 70
     1
102
RTVSPropertyOp8
 70
     1
102
RTVSPropertyOp9
 70
     1
102
RTVSPropertyOp10
 70
     1
102
RTVSPropertyOp11
 70
     1
102
RTVSPropertyOp12
 70
     1
102
RTVSPropertyOp13
 70
     1
102
RTVSPropertyOp14
 70
     1
102
RTVSPropertyOp15
 70
     1
102
RTVSPropertyOp16
 70
     1
102
RTVSPropertyOp17
 70
     1
102
RTVSPropertyOp18
 70
     1
102
RTVSPropertyOp19
 70
     1
102
RTVSPropertyOp20
 70
     1
102
RTVSPropertyOp21
 70
     1
102
RTVSPropertyOp22
 70
     1
102
RTVSPropertyOp23
 70
     1
102
RTVSPropertyOp24
 70
     1
102
RTVSPropertyOp25
 70
     1
102
RTVSPropertyOp26
 70
     1
102
RTVSPropertyOp27
 70
     1
102
RTVSPropertyOp28
 70
     1
102
RTVSPropertyOp29
 70
     1
102
RTVSPropertyOp30
 70
     1
102
RTVSPropertyOp31
 70
     1
102
RTVSPropertyOp32
 70
     1
102
RTVSPropertyOp33
 70
     1
102
RTVSPropertyOp34
 70
     1
102
RTVSPropertyOp35
 70
     1
102
RTVSPropertyOp36
 70
     1
102
RTVSPropertyOp37
 70
     1
102
RTVSPropertyOp38
 70
     1
102
RTVSPropertyOp39
 70
     1
102
RTVSPropertyOp40
 70
     1
102
RTVSPropertyOp41
 70
     1
102
RTVSPropertyOp42
 70
     1
102
RTVSPropertyOp43
 70
     1
102
RTVSPropertyOp44
 70
     1
102
RTVSPropertyOp45
 70
     1
102
RTVSPropertyOp46
 70
     1
102
RTVSPropertyOp47
 70
     1
102
RTVSPropertyOp48
 70
     1
102
RTVSPropertyOp49
 70
     1
102
RTVSPropertyOp50
 70
     1
102
RTVSPropertyOp51
 70
     0
102
RTVSPropertyOp52
 70
     0
102
RTVSPropertyOp53
 70
     1
102
RTVSPropertyOp54
 70
     1
102
RTVSPropertyOp55
 70
     1
102
RTVSPropertyOp56
 70
     1
102
RTVSPropertyOp57
 70
     1
102
RTVSPropertyOp58
 70
     1
102
RTVSPropertyOp59
 70
     1
102
RTVSPropertyOp60
 70
     1
102
RTVSPropertyOp61
 70
     1
102
RTVSPropertyOp62
 70
     1
  0
XRECORD
  5
6DB
102
{ACAD_REACTORS
330
6DA
102
}
330
6DA
100
AcDbXrecord
280
     1
102
RTVSPost2010Prop28
280
     0
102
RTVSPost2010PropOp28
 70
     1
102
RTVSPost2010Prop29
280
     1
102
RTVSPost2010PropOp29
 70
     1
102
RTVSPost2010Prop30
280
     1
102
RTVSPost2010PropOp30
 70
     1
102
RTVSPost2010Prop31
280
     0
102
RTVSPost2010PropOp31
 70
     1
102
RTVSPost2010Prop32
280
     0
102
RTVSPost2010PropOp32
 70
     1
102
RTVSPost2010Prop33
280
     0
102
RTVSPost2010PropOp33
 70
     1
102
RTVSPost2010Prop34
280
     0
102
RTVSPost2010PropOp34
 70
     1
102
RTVSPost2010Prop35
280
     0
102
RTVSPost2010PropOp35
 70
     1
102
RTVSPost2010Prop36
280
     0
102
RTVSPost2010PropOp36
 70
     1
102
RTVSPost2010Prop37
 90
       50
102
RTVSPost2010PropOp37
 70
     1
102
RTVSPost2010Prop38
140
0.0
102
RTVSPost2010PropOp38
 70
     1
102
RTVSPost2010Prop39
140
1.0
102
RTVSPost2010PropOp39
 70
     1
102
RTVSPost2010Prop40
 90
        0
102
RTVSPost2010PropOp40
 70
     1
102
RTVSPost2010Prop41ColorIndex
 90
       18
102
RTVSPost2010Prop41ColorRGB
 90
        0
102
RTVSPost2010PropOp41
 70
     1
102
RTVSPost2010Prop42
 90
       50
102
RTVSPost2010PropOp42
 70
     1
102
RTVSPost2010Prop43
 90
        3
102
RTVSPost2010PropOp43
 70
     1
102
RTVSPost2010Prop44ColorIndex
 90
        5
102
RTVSPost2010Prop44ColorRGB
 90
      255
102
RTVSPost2010PropOp44
 70
     1
102
RTVSPost2010Prop45
280
     0
102
RTVSPost2010PropOp45
 70
     1
102
RTVSPost2010Prop46
 90
       50
102
RTVSPost2010PropOp46
 70
     1
102
RTVSPost2010Prop47
 90
       50
102
RTVSPost2010PropOp47
 70
     1
102
RTVSPost2010Prop48
 90
       50
102
RTVSPost2010PropOp48
 70
     1
102
RTVSPost2010Prop49
280
     0
102
RTVSPost2010PropOp49
 70
     1
102
RTVSPost2010Prop50
 90
       50
102
RTVSPost2010PropOp50
 70
     1
102
RTVSPost2010Prop51ColorIndex
 90
      256
102
RTVSPost2010Prop51ColorRGB
 90
-16777216
102
RTVSPost2010PropOp51
 70
     0
102
RTVSPost2010Prop52
140
1.0
102
RTVSPost2010PropOp52
 70
     0
102
RTVSPost2010Prop53
 90
        2
102
RTVSPost2010PropOp53
 70
     1
102
RTVSPost2010Prop54
  1
strokes_ogs.tif
102
RTVSPost2010PropOp54
 70
     1
102
RTVSPost2010Prop55
280
     0
102
RTVSPost2010PropOp55
 70
     1
102
RTVSPost2010Prop56
140
1.0
102
RTVSPost2010PropOp56
 70
     1
102
RTVSPost2010Prop57
140
1.0
102
RTVSPost2010PropOp57
 70
     1
102
RTVSPropertyOp0
 70
     1
102
RTVSPropertyOp1
 70
     1
102
RTVSPropertyOp2
 70
     1
102
RTVSPropertyOp3
 70
     1
102
RTVSPropertyOp4
 70
     1
102
RTVSPropertyOp5
 70
     1
102
RTVSPropertyOp6
 70
     1
102
RTVSPropertyOp7
 70
     1
102
RTVSPropertyOp8
 70
     1
102
RTVSPropertyOp9
 70
     1
102
RTVSPropertyOp10
 70
     1
102
RTVSPropertyOp11
 70
     1
102
RTVSPropertyOp12
 70
     1
102
RTVSPropertyOp13
 70
     1
102
RTVSPropertyOp14
 70
     1
102
RTVSPropertyOp15
 70
     1
102
RTVSPropertyOp16
 70
     1
102
RTVSPropertyOp17
 70
     1
102
RTVSPropertyOp18
 70
     1
102
RTVSPropertyOp19
 70
     1
102
RTVSPropertyOp20
 70
     1
102
RTVSPropertyOp21
 70
     1
102
RTVSPropertyOp22
 70
     1
102
RTVSPropertyOp23
 70
     1
102
RTVSPropertyOp24
 70
     1
102
RTVSPropertyOp25
 70
     1
102
RTVSPropertyOp26
 70
     1
102
RTVSPropertyOp27
 70
     1
102
RTVSPropertyOp28
 70
     1
102
RTVSPropertyOp29
 70
     1
102
RTVSPropertyOp30
 70
     1
102
RTVSPropertyOp31
 70
     1
102
RTVSPropertyOp32
 70
     1
102
RTVSPropertyOp33
 70
     1
102
RTVSPropertyOp34
 70
     1
102
RTVSPropertyOp35
 70
     1
102
RTVSPropertyOp36
 70
     1
102
RTVSPropertyOp37
 70
     1
102
RTVSPropertyOp38
 70
     1
102
RTVSPropertyOp39
 70
     1
102
RTVSPropertyOp40
 70
     1
102
RTVSPropertyOp41
 70
     1
102
RTVSPropertyOp42
 70
     1
102
RTVSPropertyOp43
 70
     1
102
RTVSPropertyOp44
 70
     1
102
RTVSPropertyOp45
 70
     1
102
RTVSPropertyOp46
 70
     1
102
RTVSPropertyOp47
 70
     1
102
RTVSPropertyOp48
 70
     1
102
RTVSPropertyOp49
 70
     1
102
RTVSPropertyOp50
 70
     1
102
RTVSPropertyOp51
 70
     0
102
RTVSPropertyOp52
 70
     0
102
RTVSPropertyOp53
 70
     1
102
RTVSPropertyOp54
 70
     1
102
RTVSPropertyOp55
 70
     1
102
RTVSPropertyOp56
 70
     1
102
RTVSPropertyOp57
 70
     1
102
RTVSPropertyOp58
 70
     1
102
RTVSPropertyOp59
 70
     1
102
RTVSPropertyOp60
 70
     1
102
RTVSPropertyOp61
 70
     1
102
RTVSPropertyOp62
 70
     1
  0
XRECORD
  5
6DD
102
{ACAD_REACTORS
330
6DC
102
}
330
6DC
100
AcDbXrecord
280
     1
102
RTVSPost2010Prop28
280
     0
102
RTVSPost2010PropOp28
 70
     1
102
RTVSPost2010Prop29
280
     1
102
RTVSPost2010PropOp29
 70
     1
102
RTVSPost2010Prop30
280
     1
102
RTVSPost2010PropOp30
 70
     1
102
RTVSPost2010Prop31
280
     0
102
RTVSPost2010PropOp31
 70
     1
102
RTVSPost2010Prop32
280
     0
102
RTVSPost2010PropOp32
 70
     1
102
RTVSPost2010Prop33
280
     0
102
RTVSPost2010PropOp33
 70
     1
102
RTVSPost2010Prop34
280
     0
102
RTVSPost2010PropOp34
 70
     1
102
RTVSPost2010Prop35
280
     0
102
RTVSPost2010PropOp35
 70
     1
102
RTVSPost2010Prop36
280
     0
102
RTVSPost2010PropOp36
 70
     1
102
RTVSPost2010Prop37
 90
       50
102
RTVSPost2010PropOp37
 70
     1
102
RTVSPost2010Prop38
140
0.0
102
RTVSPost2010PropOp38
 70
     1
102
RTVSPost2010Prop39
140
1.0
102
RTVSPost2010PropOp39
 70
     1
102
RTVSPost2010Prop40
 90
        0
102
RTVSPost2010PropOp40
 70
     1
102
RTVSPost2010Prop41ColorIndex
 90
       18
102
RTVSPost2010Prop41ColorRGB
 90
        0
102
RTVSPost2010PropOp41
 70
     1
102
RTVSPost2010Prop42
 90
       50
102
RTVSPost2010PropOp42
 70
     1
102
RTVSPost2010Prop43
 90
        3
102
RTVSPost2010PropOp43
 70
     1
102
RTVSPost2010Prop44ColorIndex
 90
        5
102
RTVSPost2010Prop44ColorRGB
 90
      255
102
RTVSPost2010PropOp44
 70
     1
102
RTVSPost2010Prop45
280
     0
102
RTVSPost2010PropOp45
 70
     1
102
RTVSPost2010Prop46
 90
       50
102
RTVSPost2010PropOp46
 70
     1
102
RTVSPost2010Prop47
 90
       50
102
RTVSPost2010PropOp47
 70
     1
102
RTVSPost2010Prop48
 90
       50
102
RTVSPost2010PropOp48
 70
     1
102
RTVSPost2010Prop49
280
     0
102
RTVSPost2010PropOp49
 70
     1
102
RTVSPost2010Prop50
 90
       50
102
RTVSPost2010PropOp50
 70
     1
102
RTVSPost2010Prop51ColorIndex
 90
      256
102
RTVSPost2010Prop51ColorRGB
 90
-16777216
102
RTVSPost2010PropOp51
 70
     0
102
RTVSPost2010Prop52
140
1.0
102
RTVSPost2010PropOp52
 70
     0
102
RTVSPost2010Prop53
 90
        2
102
RTVSPost2010PropOp53
 70
     1
102
RTVSPost2010Prop54
  1
strokes_ogs.tif
102
RTVSPost2010PropOp54
 70
     1
102
RTVSPost2010Prop55
280
     0
102
RTVSPost2010PropOp55
 70
     1
102
RTVSPost2010Prop56
140
1.0
102
RTVSPost2010PropOp56
 70
     1
102
RTVSPost2010Prop57
140
1.0
102
RTVSPost2010PropOp57
 70
     1
102
RTVSPropertyOp0
 70
     1
102
RTVSPropertyOp1
 70
     1
102
RTVSPropertyOp2
 70
     1
102
RTVSPropertyOp3
 70
     1
102
RTVSPropertyOp4
 70
     1
102
RTVSPropertyOp5
 70
     1
102
RTVSPropertyOp6
 70
     1
102
RTVSPropertyOp7
 70
     1
102
RTVSPropertyOp8
 70
     1
102
RTVSPropertyOp9
 70
     1
102
RTVSPropertyOp10
 70
     1
102
RTVSPropertyOp11
 70
     1
102
RTVSPropertyOp12
 70
     1
102
RTVSPropertyOp13
 70
     1
102
RTVSPropertyOp14
 70
     1
102
RTVSPropertyOp15
 70
     1
102
RTVSPropertyOp16
 70
     1
102
RTVSPropertyOp17
 70
     1
102
RTVSPropertyOp18
 70
     1
102
RTVSPropertyOp19
 70
     1
102
RTVSPropertyOp20
 70
     1
102
RTVSPropertyOp21
 70
     1
102
RTVSPropertyOp22
 70
     1
102
RTVSPropertyOp23
 70
     1
102
RTVSPropertyOp24
 70
     1
102
RTVSPropertyOp25
 70
     1
102
RTVSPropertyOp26
 70
     1
102
RTVSPropertyOp27
 70
     1
102
RTVSPropertyOp28
 70
     1
102
RTVSPropertyOp29
 70
     1
102
RTVSPropertyOp30
 70
     1
102
RTVSPropertyOp31
 70
     1
102
RTVSPropertyOp32
 70
     1
102
RTVSPropertyOp33
 70
     1
102
RTVSPropertyOp34
 70
     1
102
RTVSPropertyOp35
 70
     1
102
RTVSPropertyOp36
 70
     1
102
RTVSPropertyOp37
 70
     1
102
RTVSPropertyOp38
 70
     1
102
RTVSPropertyOp39
 70
     1
102
RTVSPropertyOp40
 70
     1
102
RTVSPropertyOp41
 70
     1
102
RTVSPropertyOp42
 70
     1
102
RTVSPropertyOp43
 70
     1
102
RTVSPropertyOp44
 70
     1
102
RTVSPropertyOp45
 70
     1
102
RTVSPropertyOp46
 70
     1
102
RTVSPropertyOp47
 70
     1
102
RTVSPropertyOp48
 70
     1
102
RTVSPropertyOp49
 70
     1
102
RTVSPropertyOp50
 70
     1
102
RTVSPropertyOp51
 70
     0
102
RTVSPropertyOp52
 70
     0
102
RTVSPropertyOp53
 70
     1
102
RTVSPropertyOp54
 70
     1
102
RTVSPropertyOp55
 70
     1
102
RTVSPropertyOp56
 70
     1
102
RTVSPropertyOp57
 70
     1
102
RTVSPropertyOp58
 70
     1
102
RTVSPropertyOp59
 70
     1
102
RTVSPropertyOp60
 70
     1
102
RTVSPropertyOp61
 70
     1
102
RTVSPropertyOp62
 70
     1
  0
XRECORD
  5
6DF
102
{ACAD_REACTORS
330
6DE
102
}
330
6DE
100
AcDbXrecord
280
     1
102
RTVSPost2010Prop28
280
     0
102
RTVSPost2010PropOp28
 70
     1
102
RTVSPost2010Prop29
280
     1
102
RTVSPost2010PropOp29
 70
     1
102
RTVSPost2010Prop30
280
     1
102
RTVSPost2010PropOp30
 70
     1
102
RTVSPost2010Prop31
280
     0
102
RTVSPost2010PropOp31
 70
     1
102
RTVSPost2010Prop32
280
     0
102
RTVSPost2010PropOp32
 70
     1
102
RTVSPost2010Prop33
280
     0
102
RTVSPost2010PropOp33
 70
     1
102
RTVSPost2010Prop34
280
     0
102
RTVSPost2010PropOp34
 70
     1
102
RTVSPost2010Prop35
280
     0
102
RTVSPost2010PropOp35
 70
     1
102
RTVSPost2010Prop36
280
     0
102
RTVSPost2010PropOp36
 70
     1
102
RTVSPost2010Prop37
 90
       50
102
RTVSPost2010PropOp37
 70
     1
102
RTVSPost2010Prop38
140
0.0
102
RTVSPost2010PropOp38
 70
     1
102
RTVSPost2010Prop39
140
1.0
102
RTVSPost2010PropOp39
 70
     1
102
RTVSPost2010Prop40
 90
        0
102
RTVSPost2010PropOp40
 70
     1
102
RTVSPost2010Prop41ColorIndex
 90
       18
102
RTVSPost2010Prop41ColorRGB
 90
        0
102
RTVSPost2010PropOp41
 70
     1
102
RTVSPost2010Prop42
 90
       50
102
RTVSPost2010PropOp42
 70
     1
102
RTVSPost2010Prop43
 90
        3
102
RTVSPost2010PropOp43
 70
     1
102
RTVSPost2010Prop44ColorIndex
 90
        5
102
RTVSPost2010Prop44ColorRGB
 90
      255
102
RTVSPost2010PropOp44
 70
     1
102
RTVSPost2010Prop45
280
     0
102
RTVSPost2010PropOp45
 70
     1
102
RTVSPost2010Prop46
 90
       50
102
RTVSPost2010PropOp46
 70
     1
102
RTVSPost2010Prop47
 90
       50
102
RTVSPost2010PropOp47
 70
     1
102
RTVSPost2010Prop48
 90
       50
102
RTVSPost2010PropOp48
 70
     1
102
RTVSPost2010Prop49
280
     0
102
RTVSPost2010PropOp49
 70
     1
102
RTVSPost2010Prop50
 90
       50
102
RTVSPost2010PropOp50
 70
     1
102
RTVSPost2010Prop51ColorIndex
 90
      256
102
RTVSPost2010Prop51ColorRGB
 90
-16777216
102
RTVSPost2010PropOp51
 70
     0
102
RTVSPost2010Prop52
140
1.0
102
RTVSPost2010PropOp52
 70
     0
102
RTVSPost2010Prop53
 90
        2
102
RTVSPost2010PropOp53
 70
     1
102
RTVSPost2010Prop54
  1
strokes_ogs.tif
102
RTVSPost2010PropOp54
 70
     1
102
RTVSPost2010Prop55
280
     0
102
RTVSPost2010PropOp55
 70
     1
102
RTVSPost2010Prop56
140
1.0
102
RTVSPost2010PropOp56
 70
     1
102
RTVSPost2010Prop57
140
1.0
102
RTVSPost2010PropOp57
 70
     1
102
RTVSPropertyOp0
 70
     1
102
RTVSPropertyOp1
 70
     1
102
RTVSPropertyOp2
 70
     1
102
RTVSPropertyOp3
 70
     1
102
RTVSPropertyOp4
 70
     1
102
RTVSPropertyOp5
 70
     1
102
RTVSPropertyOp6
 70
     1
102
RTVSPropertyOp7
 70
     1
102
RTVSPropertyOp8
 70
     1
102
RTVSPropertyOp9
 70
     1
102
RTVSPropertyOp10
 70
     1
102
RTVSPropertyOp11
 70
     1
102
RTVSPropertyOp12
 70
     1
102
RTVSPropertyOp13
 70
     1
102
RTVSPropertyOp14
 70
     1
102
RTVSPropertyOp15
 70
     1
102
RTVSPropertyOp16
 70
     1
102
RTVSPropertyOp17
 70
     1
102
RTVSPropertyOp18
 70
     1
102
RTVSPropertyOp19
 70
     1
102
RTVSPropertyOp20
 70
     1
102
RTVSPropertyOp21
 70
     1
102
RTVSPropertyOp22
 70
     1
102
RTVSPropertyOp23
 70
     1
102
RTVSPropertyOp24
 70
     1
102
RTVSPropertyOp25
 70
     1
102
RTVSPropertyOp26
 70
     1
102
RTVSPropertyOp27
 70
     1
102
RTVSPropertyOp28
 70
     1
102
RTVSPropertyOp29
 70
     1
102
RTVSPropertyOp30
 70
     1
102
RTVSPropertyOp31
 70
     1
102
RTVSPropertyOp32
 70
     1
102
RTVSPropertyOp33
 70
     1
102
RTVSPropertyOp34
 70
     1
102
RTVSPropertyOp35
 70
     1
102
RTVSPropertyOp36
 70
     1
102
RTVSPropertyOp37
 70
     1
102
RTVSPropertyOp38
 70
     1
102
RTVSPropertyOp39
 70
     1
102
RTVSPropertyOp40
 70
     1
102
RTVSPropertyOp41
 70
     1
102
RTVSPropertyOp42
 70
     1
102
RTVSPropertyOp43
 70
     1
102
RTVSPropertyOp44
 70
     1
102
RTVSPropertyOp45
 70
     1
102
RTVSPropertyOp46
 70
     1
102
RTVSPropertyOp47
 70
     1
102
RTVSPropertyOp48
 70
     1
102
RTVSPropertyOp49
 70
     1
102
RTVSPropertyOp50
 70
     1
102
RTVSPropertyOp51
 70
     0
102
RTVSPropertyOp52
 70
     0
102
RTVSPropertyOp53
 70
     1
102
RTVSPropertyOp54
 70
     1
102
RTVSPropertyOp55
 70
     1
102
RTVSPropertyOp56
 70
     1
102
RTVSPropertyOp57
 70
     1
102
RTVSPropertyOp58
 70
     1
102
RTVSPropertyOp59
 70
     1
102
RTVSPropertyOp60
 70
     1
102
RTVSPropertyOp61
 70
     1
102
RTVSPropertyOp62
 70
     1
  0
XRECORD
  5
6E5
102
{ACAD_REACTORS
330
6E4
102
}
330
6E4
100
AcDbXrecord
280
     1
102
RTVSPost2010Prop28
280
     0
102
RTVSPost2010PropOp28
 70
     1
102
RTVSPost2010Prop29
280
     1
102
RTVSPost2010PropOp29
 70
     1
102
RTVSPost2010Prop30
280
     1
102
RTVSPost2010PropOp30
 70
     1
102
RTVSPost2010Prop31
280
     0
102
RTVSPost2010PropOp31
 70
     1
102
RTVSPost2010Prop32
280
     0
102
RTVSPost2010PropOp32
 70
     1
102
RTVSPost2010Prop33
280
     0
102
RTVSPost2010PropOp33
 70
     1
102
RTVSPost2010Prop34
280
     0
102
RTVSPost2010PropOp34
 70
     1
102
RTVSPost2010Prop35
280
     0
102
RTVSPost2010PropOp35
 70
     1
102
RTVSPost2010Prop36
280
     0
102
RTVSPost2010PropOp36
 70
     1
102
RTVSPost2010Prop37
 90
       50
102
RTVSPost2010PropOp37
 70
     1
102
RTVSPost2010Prop38
140
0.0
102
RTVSPost2010PropOp38
 70
     1
102
RTVSPost2010Prop39
140
1.0
102
RTVSPost2010PropOp39
 70
     1
102
RTVSPost2010Prop40
 90
        0
102
RTVSPost2010PropOp40
 70
     1
102
RTVSPost2010Prop41ColorIndex
 90
       18
102
RTVSPost2010Prop41ColorRGB
 90
        0
102
RTVSPost2010PropOp41
 70
     1
102
RTVSPost2010Prop42
 90
       50
102
RTVSPost2010PropOp42
 70
     1
102
RTVSPost2010Prop43
 90
        3
102
RTVSPost2010PropOp43
 70
     1
102
RTVSPost2010Prop44ColorIndex
 90
        5
102
RTVSPost2010Prop44ColorRGB
 90
      255
102
RTVSPost2010PropOp44
 70
     1
102
RTVSPost2010Prop45
280
     0
102
RTVSPost2010PropOp45
 70
     1
102
RTVSPost2010Prop46
 90
       50
102
RTVSPost2010PropOp46
 70
     1
102
RTVSPost2010Prop47
 90
       50
102
RTVSPost2010PropOp47
 70
     1
102
RTVSPost2010Prop48
 90
       50
102
RTVSPost2010PropOp48
 70
     1
102
RTVSPost2010Prop49
280
     0
102
RTVSPost2010PropOp49
 70
     1
102
RTVSPost2010Prop50
 90
       50
102
RTVSPost2010PropOp50
 70
     1
102
RTVSPost2010Prop51ColorIndex
 90
      256
102
RTVSPost2010Prop51ColorRGB
 90
-16777216
102
RTVSPost2010PropOp51
 70
     0
102
RTVSPost2010Prop52
140
1.0
102
RTVSPost2010PropOp52
 70
     0
102
RTVSPost2010Prop53
 90
        2
102
RTVSPost2010PropOp53
 70
     1
102
RTVSPost2010Prop54
  1
strokes_ogs.tif
102
RTVSPost2010PropOp54
 70
     1
102
RTVSPost2010Prop55
280
     0
102
RTVSPost2010PropOp55
 70
     1
102
RTVSPost2010Prop56
140
1.0
102
RTVSPost2010PropOp56
 70
     1
102
RTVSPost2010Prop57
140
1.0
102
RTVSPost2010PropOp57
 70
     1
102
RTVSPropertyOp0
 70
     1
102
RTVSPropertyOp1
 70
     1
102
RTVSPropertyOp2
 70
     1
102
RTVSPropertyOp3
 70
     1
102
RTVSPropertyOp4
 70
     1
102
RTVSPropertyOp5
 70
     1
102
RTVSPropertyOp6
 70
     1
102
RTVSPropertyOp7
 70
     1
102
RTVSPropertyOp8
 70
     1
102
RTVSPropertyOp9
 70
     1
102
RTVSPropertyOp10
 70
     1
102
RTVSPropertyOp11
 70
     1
102
RTVSPropertyOp12
 70
     1
102
RTVSPropertyOp13
 70
     1
102
RTVSPropertyOp14
 70
     1
102
RTVSPropertyOp15
 70
     1
102
RTVSPropertyOp16
 70
     1
102
RTVSPropertyOp17
 70
     1
102
RTVSPropertyOp18
 70
     1
102
RTVSPropertyOp19
 70
     1
102
RTVSPropertyOp20
 70
     1
102
RTVSPropertyOp21
 70
     1
102
RTVSPropertyOp22
 70
     1
102
RTVSPropertyOp23
 70
     1
102
RTVSPropertyOp24
 70
     1
102
RTVSPropertyOp25
 70
     1
102
RTVSPropertyOp26
 70
     1
102
RTVSPropertyOp27
 70
     1
102
RTVSPropertyOp28
 70
     1
102
RTVSPropertyOp29
 70
     1
102
RTVSPropertyOp30
 70
     1
102
RTVSPropertyOp31
 70
     1
102
RTVSPropertyOp32
 70
     1
102
RTVSPropertyOp33
 70
     1
102
RTVSPropertyOp34
 70
     1
102
RTVSPropertyOp35
 70
     1
102
RTVSPropertyOp36
 70
     1
102
RTVSPropertyOp37
 70
     1
102
RTVSPropertyOp38
 70
     1
102
RTVSPropertyOp39
 70
     1
102
RTVSPropertyOp40
 70
     1
102
RTVSPropertyOp41
 70
     1
102
RTVSPropertyOp42
 70
     1
102
RTVSPropertyOp43
 70
     1
102
RTVSPropertyOp44
 70
     1
102
RTVSPropertyOp45
 70
     1
102
RTVSPropertyOp46
 70
     1
102
RTVSPropertyOp47
 70
     1
102
RTVSPropertyOp48
 70
     1
102
RTVSPropertyOp49
 70
     1
102
RTVSPropertyOp50
 70
     1
102
RTVSPropertyOp51
 70
     0
102
RTVSPropertyOp52
 70
     0
102
RTVSPropertyOp53
 70
     1
102
RTVSPropertyOp54
 70
     1
102
RTVSPropertyOp55
 70
     1
102
RTVSPropertyOp56
 70
     1
102
RTVSPropertyOp57
 70
     1
102
RTVSPropertyOp58
 70
     1
102
RTVSPropertyOp59
 70
     1
102
RTVSPropertyOp60
 70
     1
102
RTVSPropertyOp61
 70
     1
102
RTVSPropertyOp62
 70
     1
  0
XRECORD
  5
6F9
102
{ACAD_REACTORS
330
6F8
102
}
330
6F8
100
AcDbXrecord
280
     1
102
RTVSPost2010Prop28
280
     0
102
RTVSPost2010PropOp28
 70
     0
102
RTVSPost2010Prop29
280
     1
102
RTVSPost2010PropOp29
 70
     0
102
RTVSPost2010Prop30
280
     1
102
RTVSPost2010PropOp30
 70
     0
102
RTVSPost2010Prop31
280
     0
102
RTVSPost2010PropOp31
 70
     0
102
RTVSPost2010Prop32
280
     0
102
RTVSPost2010PropOp32
 70
     0
102
RTVSPost2010Prop33
280
     0
102
RTVSPost2010PropOp33
 70
     0
102
RTVSPost2010Prop34
280
     0
102
RTVSPost2010PropOp34
 70
     0
102
RTVSPost2010Prop35
280
     0
102
RTVSPost2010PropOp35
 70
     0
102
RTVSPost2010Prop36
280
     0
102
RTVSPost2010PropOp36
 70
     0
102
RTVSPost2010Prop37
 90
       50
102
RTVSPost2010PropOp37
 70
     0
102
RTVSPost2010Prop38
140
0.0
102
RTVSPost2010PropOp38
 70
     0
102
RTVSPost2010Prop39
140
1.0
102
RTVSPost2010PropOp39
 70
     0
102
RTVSPost2010Prop40
 90
        0
102
RTVSPost2010PropOp40
 70
     0
102
RTVSPost2010Prop41ColorIndex
 90
       18
102
RTVSPost2010Prop41ColorRGB
 90
        0
102
RTVSPost2010PropOp41
 70
     0
102
RTVSPost2010Prop42
 90
       50
102
RTVSPost2010PropOp42
 70
     0
102
RTVSPost2010Prop43
 90
        3
102
RTVSPost2010PropOp43
 70
     0
102
RTVSPost2010Prop44ColorIndex
 90
        5
102
RTVSPost2010Prop44ColorRGB
 90
      255
102
RTVSPost2010PropOp44
 70
     0
102
RTVSPost2010Prop45
280
     0
102
RTVSPost2010PropOp45
 70
     0
102
RTVSPost2010Prop46
 90
       50
102
RTVSPost2010PropOp46
 70
     0
102
RTVSPost2010Prop47
 90
       50
102
RTVSPost2010PropOp47
 70
     0
102
RTVSPost2010Prop48
 90
       50
102
RTVSPost2010PropOp48
 70
     0
102
RTVSPost2010Prop49
280
     0
102
RTVSPost2010PropOp49
 70
     0
102
RTVSPost2010Prop50
 90
       50
102
RTVSPost2010PropOp50
 70
     0
102
RTVSPost2010Prop51ColorIndex
 90
      256
102
RTVSPost2010Prop51ColorRGB
 90
-16777216
102
RTVSPost2010PropOp51
 70
     0
102
RTVSPost2010Prop52
140
1.0
102
RTVSPost2010PropOp52
 70
     0
102
RTVSPost2010Prop53
 90
        2
102
RTVSPost2010PropOp53
 70
     0
102
RTVSPost2010Prop54
  1
strokes_ogs.tif
102
RTVSPost2010PropOp54
 70
     0
102
RTVSPost2010Prop55
280
     0
102
RTVSPost2010PropOp55
 70
     0
102
RTVSPost2010Prop56
140
1.0
102
RTVSPost2010PropOp56
 70
     0
102
RTVSPost2010Prop57
140
1.0
102
RTVSPost2010PropOp57
 70
     0
102
RTVSPropertyOp0
 70
     0
102
RTVSPropertyOp1
 70
     0
102
RTVSPropertyOp2
 70
     0
102
RTVSPropertyOp3
 70
     0
102
RTVSPropertyOp4
 70
     0
102
RTVSPropertyOp5
 70
     0
102
RTVSPropertyOp6
 70
     0
102
RTVSPropertyOp7
 70
     0
102
RTVSPropertyOp8
 70
     0
102
RTVSPropertyOp9
 70
     0
102
RTVSPropertyOp10
 70
     0
102
RTVSPropertyOp11
 70
     0
102
RTVSPropertyOp12
 70
     0
102
RTVSPropertyOp13
 70
     0
102
RTVSPropertyOp14
 70
     2
102
RTVSPropertyOp15
 70
     0
102
RTVSPropertyOp16
 70
     0
102
RTVSPropertyOp17
 70
     0
102
RTVSPropertyOp18
 70
     0
102
RTVSPropertyOp19
 70
     0
102
RTVSPropertyOp20
 70
     0
102
RTVSPropertyOp21
 70
     0
102
RTVSPropertyOp22
 70
     0
102
RTVSPropertyOp23
 70
     0
102
RTVSPropertyOp24
 70
     0
102
RTVSPropertyOp25
 70
     0
102
RTVSPropertyOp26
 70
     0
102
RTVSPropertyOp27
 70
     0
102
RTVSPropertyOp28
 70
     0
102
RTVSPropertyOp29
 70
     0
102
RTVSPropertyOp30
 70
     0
102
RTVSPropertyOp31
 70
     0
102
RTVSPropertyOp32
 70
     0
102
RTVSPropertyOp33
 70
     0
102
RTVSPropertyOp34
 70
     0
102
RTVSPropertyOp35
 70
     0
102
RTVSPropertyOp36
 70
     0
102
RTVSPropertyOp37
 70
     0
102
RTVSPropertyOp38
 70
     0
102
RTVSPropertyOp39
 70
     0
102
RTVSPropertyOp40
 70
     0
102
RTVSPropertyOp41
 70
     0
102
RTVSPropertyOp42
 70
     0
102
RTVSPropertyOp43
 70
     0
102
RTVSPropertyOp44
 70
     0
102
RTVSPropertyOp45
 70
     0
102
RTVSPropertyOp46
 70
     0
102
RTVSPropertyOp47
 70
     0
102
RTVSPropertyOp48
 70
     0
102
RTVSPropertyOp49
 70
     0
102
RTVSPropertyOp50
 70
     0
102
RTVSPropertyOp51
 70
     0
102
RTVSPropertyOp52
 70
     0
102
RTVSPropertyOp53
 70
     0
102
RTVSPropertyOp54
 70
     0
102
RTVSPropertyOp55
 70
     0
102
RTVSPropertyOp56
 70
     0
102
RTVSPropertyOp57
 70
     0
102
RTVSPropertyOp58
 70
     1
102
RTVSPropertyOp59
 70
     1
102
RTVSPropertyOp60
 70
     1
102
RTVSPropertyOp61
 70
     1
102
RTVSPropertyOp62
 70
     1
  0
XRECORD
  5
6F3
102
{ACAD_REACTORS
330
6F2
102
}
330
6F2
100
AcDbXrecord
280
     1
102
RTVSPost2010Prop28
280
     0
102
RTVSPost2010PropOp28
 70
     1
102
RTVSPost2010Prop29
280
     1
102
RTVSPost2010PropOp29
 70
     1
102
RTVSPost2010Prop30
280
     1
102
RTVSPost2010PropOp30
 70
     1
102
RTVSPost2010Prop31
280
     0
102
RTVSPost2010PropOp31
 70
     1
102
RTVSPost2010Prop32
280
     0
102
RTVSPost2010PropOp32
 70
     1
102
RTVSPost2010Prop33
280
     0
102
RTVSPost2010PropOp33
 70
     1
102
RTVSPost2010Prop34
280
     0
102
RTVSPost2010PropOp34
 70
     1
102
RTVSPost2010Prop35
280
     0
102
RTVSPost2010PropOp35
 70
     1
102
RTVSPost2010Prop36
280
     0
102
RTVSPost2010PropOp36
 70
     1
102
RTVSPost2010Prop37
 90
       50
102
RTVSPost2010PropOp37
 70
     1
102
RTVSPost2010Prop38
140
0.0
102
RTVSPost2010PropOp38
 70
     1
102
RTVSPost2010Prop39
140
1.0
102
RTVSPost2010PropOp39
 70
     1
102
RTVSPost2010Prop40
 90
        0
102
RTVSPost2010PropOp40
 70
     1
102
RTVSPost2010Prop41ColorIndex
 90
       18
102
RTVSPost2010Prop41ColorRGB
 90
        0
102
RTVSPost2010PropOp41
 70
     1
102
RTVSPost2010Prop42
 90
       50
102
RTVSPost2010PropOp42
 70
     1
102
RTVSPost2010Prop43
 90
        3
102
RTVSPost2010PropOp43
 70
     1
102
RTVSPost2010Prop44ColorIndex
 90
        5
102
RTVSPost2010Prop44ColorRGB
 90
      255
102
RTVSPost2010PropOp44
 70
     1
102
RTVSPost2010Prop45
280
     0
102
RTVSPost2010PropOp45
 70
     1
102
RTVSPost2010Prop46
 90
       50
102
RTVSPost2010PropOp46
 70
     1
102
RTVSPost2010Prop47
 90
       50
102
RTVSPost2010PropOp47
 70
     1
102
RTVSPost2010Prop48
 90
       50
102
RTVSPost2010PropOp48
 70
     1
102
RTVSPost2010Prop49
280
     0
102
RTVSPost2010PropOp49
 70
     1
102
RTVSPost2010Prop50
 90
       50
102
RTVSPost2010PropOp50
 70
     1
102
RTVSPost2010Prop51ColorIndex
 90
      256
102
RTVSPost2010Prop51ColorRGB
 90
-16777216
102
RTVSPost2010PropOp51
 70
     0
102
RTVSPost2010Prop52
140
1.0
102
RTVSPost2010PropOp52
 70
     0
102
RTVSPost2010Prop53
 90
        2
102
RTVSPost2010PropOp53
 70
     1
102
RTVSPost2010Prop54
  1
strokes_ogs.tif
102
RTVSPost2010PropOp54
 70
     1
102
RTVSPost2010Prop55
280
     0
102
RTVSPost2010PropOp55
 70
     1
102
RTVSPost2010Prop56
140
1.0
102
RTVSPost2010PropOp56
 70
     1
102
RTVSPost2010Prop57
140
1.0
102
RTVSPost2010PropOp57
 70
     1
102
RTVSPropertyOp0
 70
     1
102
RTVSPropertyOp1
 70
     1
102
RTVSPropertyOp2
 70
     1
102
RTVSPropertyOp3
 70
     1
102
RTVSPropertyOp4
 70
     1
102
RTVSPropertyOp5
 70
     1
102
RTVSPropertyOp6
 70
     1
102
RTVSPropertyOp7
 70
     1
102
RTVSPropertyOp8
 70
     1
102
RTVSPropertyOp9
 70
     1
102
RTVSPropertyOp10
 70
     1
102
RTVSPropertyOp11
 70
     1
102
RTVSPropertyOp12
 70
     1
102
RTVSPropertyOp13
 70
     1
102
RTVSPropertyOp14
 70
     1
102
RTVSPropertyOp15
 70
     1
102
RTVSPropertyOp16
 70
     1
102
RTVSPropertyOp17
 70
     1
102
RTVSPropertyOp18
 70
     1
102
RTVSPropertyOp19
 70
     1
102
RTVSPropertyOp20
 70
     1
102
RTVSPropertyOp21
 70
     1
102
RTVSPropertyOp22
 70
     1
102
RTVSPropertyOp23
 70
     1
102
RTVSPropertyOp24
 70
     1
102
RTVSPropertyOp25
 70
     1
102
RTVSPropertyOp26
 70
     1
102
RTVSPropertyOp27
 70
     1
102
RTVSPropertyOp28
 70
     1
102
RTVSPropertyOp29
 70
     1
102
RTVSPropertyOp30
 70
     1
102
RTVSPropertyOp31
 70
     1
102
RTVSPropertyOp32
 70
     1
102
RTVSPropertyOp33
 70
     1
102
RTVSPropertyOp34
 70
     1
102
RTVSPropertyOp35
 70
     1
102
RTVSPropertyOp36
 70
     1
102
RTVSPropertyOp37
 70
     1
102
RTVSPropertyOp38
 70
     1
102
RTVSPropertyOp39
 70
     1
102
RTVSPropertyOp40
 70
     1
102
RTVSPropertyOp41
 70
     1
102
RTVSPropertyOp42
 70
     1
102
RTVSPropertyOp43
 70
     1
102
RTVSPropertyOp44
 70
     1
102
RTVSPropertyOp45
 70
     1
102
RTVSPropertyOp46
 70
     1
102
RTVSPropertyOp47
 70
     1
102
RTVSPropertyOp48
 70
     1
102
RTVSPropertyOp49
 70
     1
102
RTVSPropertyOp50
 70
     1
102
RTVSPropertyOp51
 70
     0
102
RTVSPropertyOp52
 70
     0
102
RTVSPropertyOp53
 70
     1
102
RTVSPropertyOp54
 70
     1
102
RTVSPropertyOp55
 70
     1
102
RTVSPropertyOp56
 70
     1
102
RTVSPropertyOp57
 70
     1
102
RTVSPropertyOp58
 70
     1
102
RTVSPropertyOp59
 70
     1
102
RTVSPropertyOp60
 70
     1
102
RTVSPropertyOp61
 70
     1
102
RTVSPropertyOp62
 70
     1
  0
XRECORD
  5
6FB
102
{ACAD_REACTORS
330
6FA
102
}
330
6FA
100
AcDbXrecord
280
     1
102
RTVSPost2010Prop28
280
     0
102
RTVSPost2010PropOp28
 70
     0
102
RTVSPost2010Prop29
280
     1
102
RTVSPost2010PropOp29
 70
     0
102
RTVSPost2010Prop30
280
     1
102
RTVSPost2010PropOp30
 70
     0
102
RTVSPost2010Prop31
280
     0
102
RTVSPost2010PropOp31
 70
     0
102
RTVSPost2010Prop32
280
     0
102
RTVSPost2010PropOp32
 70
     0
102
RTVSPost2010Prop33
280
     0
102
RTVSPost2010PropOp33
 70
     0
102
RTVSPost2010Prop34
280
     0
102
RTVSPost2010PropOp34
 70
     0
102
RTVSPost2010Prop35
280
     0
102
RTVSPost2010PropOp35
 70
     0
102
RTVSPost2010Prop36
280
     0
102
RTVSPost2010PropOp36
 70
     0
102
RTVSPost2010Prop37
 90
       50
102
RTVSPost2010PropOp37
 70
     0
102
RTVSPost2010Prop38
140
0.0
102
RTVSPost2010PropOp38
 70
     0
102
RTVSPost2010Prop39
140
1.0
102
RTVSPost2010PropOp39
 70
     0
102
RTVSPost2010Prop40
 90
        0
102
RTVSPost2010PropOp40
 70
     0
102
RTVSPost2010Prop41ColorIndex
 90
       18
102
RTVSPost2010Prop41ColorRGB
 90
        0
102
RTVSPost2010PropOp41
 70
     0
102
RTVSPost2010Prop42
 90
       50
102
RTVSPost2010PropOp42
 70
     0
102
RTVSPost2010Prop43
 90
        3
102
RTVSPost2010PropOp43
 70
     0
102
RTVSPost2010Prop44ColorIndex
 90
        5
102
RTVSPost2010Prop44ColorRGB
 90
      255
102
RTVSPost2010PropOp44
 70
     0
102
RTVSPost2010Prop45
280
     0
102
RTVSPost2010PropOp45
 70
     0
102
RTVSPost2010Prop46
 90
       50
102
RTVSPost2010PropOp46
 70
     0
102
RTVSPost2010Prop47
 90
       50
102
RTVSPost2010PropOp47
 70
     0
102
RTVSPost2010Prop48
 90
       50
102
RTVSPost2010PropOp48
 70
     0
102
RTVSPost2010Prop49
280
     0
102
RTVSPost2010PropOp49
 70
     0
102
RTVSPost2010Prop50
 90
       50
102
RTVSPost2010PropOp50
 70
     0
102
RTVSPost2010Prop51ColorIndex
 90
      256
102
RTVSPost2010Prop51ColorRGB
 90
-16777216
102
RTVSPost2010PropOp51
 70
     0
102
RTVSPost2010Prop52
140
1.0
102
RTVSPost2010PropOp52
 70
     0
102
RTVSPost2010Prop53
 90
        2
102
RTVSPost2010PropOp53
 70
     0
102
RTVSPost2010Prop54
  1
strokes_ogs.tif
102
RTVSPost2010PropOp54
 70
     0
102
RTVSPost2010Prop55
280
     0
102
RTVSPost2010PropOp55
 70
     0
102
RTVSPost2010Prop56
140
1.0
102
RTVSPost2010PropOp56
 70
     0
102
RTVSPost2010Prop57
140
1.0
102
RTVSPost2010PropOp57
 70
     0
102
RTVSPropertyOp0
 70
     0
102
RTVSPropertyOp1
 70
     0
102
RTVSPropertyOp2
 70
     0
102
RTVSPropertyOp3
 70
     0
102
RTVSPropertyOp4
 70
     0
102
RTVSPropertyOp5
 70
     0
102
RTVSPropertyOp6
 70
     0
102
RTVSPropertyOp7
 70
     0
102
RTVSPropertyOp8
 70
     0
102
RTVSPropertyOp9
 70
     0
102
RTVSPropertyOp10
 70
     0
102
RTVSPropertyOp11
 70
     0
102
RTVSPropertyOp12
 70
     0
102
RTVSPropertyOp13
 70
     0
102
RTVSPropertyOp14
 70
     2
102
RTVSPropertyOp15
 70
     0
102
RTVSPropertyOp16
 70
     0
102
RTVSPropertyOp17
 70
     0
102
RTVSPropertyOp18
 70
     0
102
RTVSPropertyOp19
 70
     0
102
RTVSPropertyOp20
 70
     0
102
RTVSPropertyOp21
 70
     0
102
RTVSPropertyOp22
 70
     0
102
RTVSPropertyOp23
 70
     0
102
RTVSPropertyOp24
 70
     0
102
RTVSPropertyOp25
 70
     0
102
RTVSPropertyOp26
 70
     0
102
RTVSPropertyOp27
 70
     0
102
RTVSPropertyOp28
 70
     0
102
RTVSPropertyOp29
 70
     0
102
RTVSPropertyOp30
 70
     0
102
RTVSPropertyOp31
 70
     0
102
RTVSPropertyOp32
 70
     0
102
RTVSPropertyOp33
 70
     0
102
RTVSPropertyOp34
 70
     0
102
RTVSPropertyOp35
 70
     0
102
RTVSPropertyOp36
 70
     0
102
RTVSPropertyOp37
 70
     0
102
RTVSPropertyOp38
 70
     0
102
RTVSPropertyOp39
 70
     0
102
RTVSPropertyOp40
 70
     0
102
RTVSPropertyOp41
 70
     0
102
RTVSPropertyOp42
 70
     0
102
RTVSPropertyOp43
 70
     0
102
RTVSPropertyOp44
 70
     0
102
RTVSPropertyOp45
 70
     0
102
RTVSPropertyOp46
 70
     0
102
RTVSPropertyOp47
 70
     0
102
RTVSPropertyOp48
 70
     0
102
RTVSPropertyOp49
 70
     0
102
RTVSPropertyOp50
 70
     0
102
RTVSPropertyOp51
 70
     0
102
RTVSPropertyOp52
 70
     0
102
RTVSPropertyOp53
 70
     0
102
RTVSPropertyOp54
 70
     0
102
RTVSPropertyOp55
 70
     0
102
RTVSPropertyOp56
 70
     0
102
RTVSPropertyOp57
 70
     0
102
RTVSPropertyOp58
 70
     1
102
RTVSPropertyOp59
 70
     1
102
RTVSPropertyOp60
 70
     1
102
RTVSPropertyOp61
 70
     1
102
RTVSPropertyOp62
 70
     1
  0
XRECORD
  5
6E9
102
{ACAD_REACTORS
330
6E8
102
}
330
6E8
100
AcDbXrecord
280
     1
102
RTVSPost2010Prop28
280
     0
102
RTVSPost2010PropOp28
 70
     1
102
RTVSPost2010Prop29
280
     1
102
RTVSPost2010PropOp29
 70
     1
102
RTVSPost2010Prop30
280
     1
102
RTVSPost2010PropOp30
 70
     1
102
RTVSPost2010Prop31
280
     0
102
RTVSPost2010PropOp31
 70
     1
102
RTVSPost2010Prop32
280
     0
102
RTVSPost2010PropOp32
 70
     1
102
RTVSPost2010Prop33
280
     0
102
RTVSPost2010PropOp33
 70
     1
102
RTVSPost2010Prop34
280
     0
102
RTVSPost2010PropOp34
 70
     1
102
RTVSPost2010Prop35
280
     0
102
RTVSPost2010PropOp35
 70
     1
102
RTVSPost2010Prop36
280
     0
102
RTVSPost2010PropOp36
 70
     1
102
RTVSPost2010Prop37
 90
       50
102
RTVSPost2010PropOp37
 70
     1
102
RTVSPost2010Prop38
140
0.0
102
RTVSPost2010PropOp38
 70
     1
102
RTVSPost2010Prop39
140
1.0
102
RTVSPost2010PropOp39
 70
     1
102
RTVSPost2010Prop40
 90
        0
102
RTVSPost2010PropOp40
 70
     1
102
RTVSPost2010Prop41ColorIndex
 90
       18
102
RTVSPost2010Prop41ColorRGB
 90
        0
102
RTVSPost2010PropOp41
 70
     1
102
RTVSPost2010Prop42
 90
       50
102
RTVSPost2010PropOp42
 70
     1
102
RTVSPost2010Prop43
 90
        3
102
RTVSPost2010PropOp43
 70
     1
102
RTVSPost2010Prop44ColorIndex
 90
        5
102
RTVSPost2010Prop44ColorRGB
 90
      255
102
RTVSPost2010PropOp44
 70
     1
102
RTVSPost2010Prop45
280
     0
102
RTVSPost2010PropOp45
 70
     1
102
RTVSPost2010Prop46
 90
       50
102
RTVSPost2010PropOp46
 70
     1
102
RTVSPost2010Prop47
 90
       50
102
RTVSPost2010PropOp47
 70
     1
102
RTVSPost2010Prop48
 90
       50
102
RTVSPost2010PropOp48
 70
     1
102
RTVSPost2010Prop49
280
     0
102
RTVSPost2010PropOp49
 70
     1
102
RTVSPost2010Prop50
 90
       50
102
RTVSPost2010PropOp50
 70
     1
102
RTVSPost2010Prop51ColorIndex
 90
      256
102
RTVSPost2010Prop51ColorRGB
 90
-16777216
102
RTVSPost2010PropOp51
 70
     0
102
RTVSPost2010Prop52
140
1.0
102
RTVSPost2010PropOp52
 70
     0
102
RTVSPost2010Prop53
 90
        2
102
RTVSPost2010PropOp53
 70
     1
102
RTVSPost2010Prop54
  1
strokes_ogs.tif
102
RTVSPost2010PropOp54
 70
     1
102
RTVSPost2010Prop55
280
     0
102
RTVSPost2010PropOp55
 70
     1
102
RTVSPost2010Prop56
140
1.0
102
RTVSPost2010PropOp56
 70
     1
102
RTVSPost2010Prop57
140
1.0
102
RTVSPost2010PropOp57
 70
     1
102
RTVSPropertyOp0
 70
     1
102
RTVSPropertyOp1
 70
     1
102
RTVSPropertyOp2
 70
     1
102
RTVSPropertyOp3
 70
     1
102
RTVSPropertyOp4
 70
     1
102
RTVSPropertyOp5
 70
     1
102
RTVSPropertyOp6
 70
     1
102
RTVSPropertyOp7
 70
     1
102
RTVSPropertyOp8
 70
     1
102
RTVSPropertyOp9
 70
     1
102
RTVSPropertyOp10
 70
     1
102
RTVSPropertyOp11
 70
     1
102
RTVSPropertyOp12
 70
     1
102
RTVSPropertyOp13
 70
     1
102
RTVSPropertyOp14
 70
     1
102
RTVSPropertyOp15
 70
     1
102
RTVSPropertyOp16
 70
     1
102
RTVSPropertyOp17
 70
     1
102
RTVSPropertyOp18
 70
     1
102
RTVSPropertyOp19
 70
     1
102
RTVSPropertyOp20
 70
     1
102
RTVSPropertyOp21
 70
     1
102
RTVSPropertyOp22
 70
     1
102
RTVSPropertyOp23
 70
     1
102
RTVSPropertyOp24
 70
     1
102
RTVSPropertyOp25
 70
     1
102
RTVSPropertyOp26
 70
     1
102
RTVSPropertyOp27
 70
     1
102
RTVSPropertyOp28
 70
     1
102
RTVSPropertyOp29
 70
     1
102
RTVSPropertyOp30
 70
     1
102
RTVSPropertyOp31
 70
     1
102
RTVSPropertyOp32
 70
     1
102
RTVSPropertyOp33
 70
     1
102
RTVSPropertyOp34
 70
     1
102
RTVSPropertyOp35
 70
     1
102
RTVSPropertyOp36
 70
     1
102
RTVSPropertyOp37
 70
     1
102
RTVSPropertyOp38
 70
     1
102
RTVSPropertyOp39
 70
     1
102
RTVSPropertyOp40
 70
     1
102
RTVSPropertyOp41
 70
     1
102
RTVSPropertyOp42
 70
     1
102
RTVSPropertyOp43
 70
     1
102
RTVSPropertyOp44
 70
     1
102
RTVSPropertyOp45
 70
     1
102
RTVSPropertyOp46
 70
     1
102
RTVSPropertyOp47
 70
     1
102
RTVSPropertyOp48
 70
     1
102
RTVSPropertyOp49
 70
     1
102
RTVSPropertyOp50
 70
     1
102
RTVSPropertyOp51
 70
     0
102
RTVSPropertyOp52
 70
     0
102
RTVSPropertyOp53
 70
     1
102
RTVSPropertyOp54
 70
     1
102
RTVSPropertyOp55
 70
     1
102
RTVSPropertyOp56
 70
     1
102
RTVSPropertyOp57
 70
     1
102
RTVSPropertyOp58
 70
     1
102
RTVSPropertyOp59
 70
     1
102
RTVSPropertyOp60
 70
     1
102
RTVSPropertyOp61
 70
     1
102
RTVSPropertyOp62
 70
     1
  0
XRECORD
  5
707
102
{ACAD_REACTORS
330
706
102
}
330
706
100
AcDbXrecord
280
     1
102
RTVSPost2010Prop28
280
     0
102
RTVSPost2010PropOp28
 70
     1
102
RTVSPost2010Prop29
280
     1
102
RTVSPost2010PropOp29
 70
     1
102
RTVSPost2010Prop30
280
     1
102
RTVSPost2010PropOp30
 70
     1
102
RTVSPost2010Prop31
280
     0
102
RTVSPost2010PropOp31
 70
     1
102
RTVSPost2010Prop32
280
     0
102
RTVSPost2010PropOp32
 70
     1
102
RTVSPost2010Prop33
280
     0
102
RTVSPost2010PropOp33
 70
     1
102
RTVSPost2010Prop34
280
     0
102
RTVSPost2010PropOp34
 70
     1
102
RTVSPost2010Prop35
280
     0
102
RTVSPost2010PropOp35
 70
     1
102
RTVSPost2010Prop36
280
     0
102
RTVSPost2010PropOp36
 70
     1
102
RTVSPost2010Prop37
 90
       50
102
RTVSPost2010PropOp37
 70
     1
102
RTVSPost2010Prop38
140
0.0
102
RTVSPost2010PropOp38
 70
     1
102
RTVSPost2010Prop39
140
1.0
102
RTVSPost2010PropOp39
 70
     1
102
RTVSPost2010Prop40
 90
        0
102
RTVSPost2010PropOp40
 70
     1
102
RTVSPost2010Prop41ColorIndex
 90
       18
102
RTVSPost2010Prop41ColorRGB
 90
        0
102
RTVSPost2010PropOp41
 70
     1
102
RTVSPost2010Prop42
 90
       50
102
RTVSPost2010PropOp42
 70
     1
102
RTVSPost2010Prop43
 90
        3
102
RTVSPost2010PropOp43
 70
     1
102
RTVSPost2010Prop44ColorIndex
 90
        5
102
RTVSPost2010Prop44ColorRGB
 90
      255
102
RTVSPost2010PropOp44
 70
     1
102
RTVSPost2010Prop45
280
     0
102
RTVSPost2010PropOp45
 70
     1
102
RTVSPost2010Prop46
 90
       50
102
RTVSPost2010PropOp46
 70
     1
102
RTVSPost2010Prop47
 90
       50
102
RTVSPost2010PropOp47
 70
     1
102
RTVSPost2010Prop48
 90
       50
102
RTVSPost2010PropOp48
 70
     1
102
RTVSPost2010Prop49
280
     0
102
RTVSPost2010PropOp49
 70
     1
102
RTVSPost2010Prop50
 90
       50
102
RTVSPost2010PropOp50
 70
     1
102
RTVSPost2010Prop51ColorIndex
 90
      256
102
RTVSPost2010Prop51ColorRGB
 90
-16777216
102
RTVSPost2010PropOp51
 70
     0
102
RTVSPost2010Prop52
140
1.0
102
RTVSPost2010PropOp52
 70
     0
102
RTVSPost2010Prop53
 90
        2
102
RTVSPost2010PropOp53
 70
     1
102
RTVSPost2010Prop54
  1
strokes_ogs.tif
102
RTVSPost2010PropOp54
 70
     1
102
RTVSPost2010Prop55
280
     0
102
RTVSPost2010PropOp55
 70
     1
102
RTVSPost2010Prop56
140
1.0
102
RTVSPost2010PropOp56
 70
     1
102
RTVSPost2010Prop57
140
1.0
102
RTVSPost2010PropOp57
 70
     1
102
RTVSPropertyOp0
 70
     1
102
RTVSPropertyOp1
 70
     1
102
RTVSPropertyOp2
 70
     1
102
RTVSPropertyOp3
 70
     1
102
RTVSPropertyOp4
 70
     1
102
RTVSPropertyOp5
 70
     1
102
RTVSPropertyOp6
 70
     1
102
RTVSPropertyOp7
 70
     1
102
RTVSPropertyOp8
 70
     1
102
RTVSPropertyOp9
 70
     1
102
RTVSPropertyOp10
 70
     1
102
RTVSPropertyOp11
 70
     1
102
RTVSPropertyOp12
 70
     1
102
RTVSPropertyOp13
 70
     1
102
RTVSPropertyOp14
 70
     1
102
RTVSPropertyOp15
 70
     1
102
RTVSPropertyOp16
 70
     1
102
RTVSPropertyOp17
 70
     1
102
RTVSPropertyOp18
 70
     1
102
RTVSPropertyOp19
 70
     1
102
RTVSPropertyOp20
 70
     1
102
RTVSPropertyOp21
 70
     1
102
RTVSPropertyOp22
 70
     1
102
RTVSPropertyOp23
 70
     1
102
RTVSPropertyOp24
 70
     1
102
RTVSPropertyOp25
 70
     1
102
RTVSPropertyOp26
 70
     1
102
RTVSPropertyOp27
 70
     1
102
RTVSPropertyOp28
 70
     1
102
RTVSPropertyOp29
 70
     1
102
RTVSPropertyOp30
 70
     1
102
RTVSPropertyOp31
 70
     1
102
RTVSPropertyOp32
 70
     1
102
RTVSPropertyOp33
 70
     1
102
RTVSPropertyOp34
 70
     1
102
RTVSPropertyOp35
 70
     1
102
RTVSPropertyOp36
 70
     1
102
RTVSPropertyOp37
 70
     1
102
RTVSPropertyOp38
 70
     1
102
RTVSPropertyOp39
 70
     1
102
RTVSPropertyOp40
 70
     1
102
RTVSPropertyOp41
 70
     1
102
RTVSPropertyOp42
 70
     1
102
RTVSPropertyOp43
 70
     1
102
RTVSPropertyOp44
 70
     1
102
RTVSPropertyOp45
 70
     1
102
RTVSPropertyOp46
 70
     1
102
RTVSPropertyOp47
 70
     1
102
RTVSPropertyOp48
 70
     1
102
RTVSPropertyOp49
 70
     1
102
RTVSPropertyOp50
 70
     1
102
RTVSPropertyOp51
 70
     0
102
RTVSPropertyOp52
 70
     0
102
RTVSPropertyOp53
 70
     1
102
RTVSPropertyOp54
 70
     1
102
RTVSPropertyOp55
 70
     1
102
RTVSPropertyOp56
 70
     1
102
RTVSPropertyOp57
 70
     1
102
RTVSPropertyOp58
 70
     1
102
RTVSPropertyOp59
 70
     1
102
RTVSPropertyOp60
 70
     1
102
RTVSPropertyOp61
 70
     1
102
RTVSPropertyOp62
 70
     1
  0
XRECORD
  5
705
102
{ACAD_REACTORS
330
704
102
}
330
704
100
AcDbXrecord
280
     1
102
RTVSPost2010Prop28
280
     0
102
RTVSPost2010PropOp28
 70
     1
102
RTVSPost2010Prop29
280
     1
102
RTVSPost2010PropOp29
 70
     1
102
RTVSPost2010Prop30
280
     1
102
RTVSPost2010PropOp30
 70
     1
102
RTVSPost2010Prop31
280
     0
102
RTVSPost2010PropOp31
 70
     1
102
RTVSPost2010Prop32
280
     0
102
RTVSPost2010PropOp32
 70
     1
102
RTVSPost2010Prop33
280
     0
102
RTVSPost2010PropOp33
 70
     1
102
RTVSPost2010Prop34
280
     0
102
RTVSPost2010PropOp34
 70
     1
102
RTVSPost2010Prop35
280
     0
102
RTVSPost2010PropOp35
 70
     1
102
RTVSPost2010Prop36
280
     0
102
RTVSPost2010PropOp36
 70
     1
102
RTVSPost2010Prop37
 90
       50
102
RTVSPost2010PropOp37
 70
     1
102
RTVSPost2010Prop38
140
0.0
102
RTVSPost2010PropOp38
 70
     1
102
RTVSPost2010Prop39
140
1.0
102
RTVSPost2010PropOp39
 70
     1
102
RTVSPost2010Prop40
 90
        0
102
RTVSPost2010PropOp40
 70
     1
102
RTVSPost2010Prop41ColorIndex
 90
       18
102
RTVSPost2010Prop41ColorRGB
 90
        0
102
RTVSPost2010PropOp41
 70
     1
102
RTVSPost2010Prop42
 90
       50
102
RTVSPost2010PropOp42
 70
     1
102
RTVSPost2010Prop43
 90
        3
102
RTVSPost2010PropOp43
 70
     1
102
RTVSPost2010Prop44ColorIndex
 90
        5
102
RTVSPost2010Prop44ColorRGB
 90
      255
102
RTVSPost2010PropOp44
 70
     1
102
RTVSPost2010Prop45
280
     0
102
RTVSPost2010PropOp45
 70
     1
102
RTVSPost2010Prop46
 90
       50
102
RTVSPost2010PropOp46
 70
     1
102
RTVSPost2010Prop47
 90
       50
102
RTVSPost2010PropOp47
 70
     1
102
RTVSPost2010Prop48
 90
       50
102
RTVSPost2010PropOp48
 70
     1
102
RTVSPost2010Prop49
280
     0
102
RTVSPost2010PropOp49
 70
     1
102
RTVSPost2010Prop50
 90
       50
102
RTVSPost2010PropOp50
 70
     1
102
RTVSPost2010Prop51ColorIndex
 90
      256
102
RTVSPost2010Prop51ColorRGB
 90
-16777216
102
RTVSPost2010PropOp51
 70
     0
102
RTVSPost2010Prop52
140
1.0
102
RTVSPost2010PropOp52
 70
     0
102
RTVSPost2010Prop53
 90
        2
102
RTVSPost2010PropOp53
 70
     1
102
RTVSPost2010Prop54
  1
strokes_ogs.tif
102
RTVSPost2010PropOp54
 70
     1
102
RTVSPost2010Prop55
280
     0
102
RTVSPost2010PropOp55
 70
     1
102
RTVSPost2010Prop56
140
1.0
102
RTVSPost2010PropOp56
 70
     1
102
RTVSPost2010Prop57
140
1.0
102
RTVSPost2010PropOp57
 70
     1
102
RTVSPropertyOp0
 70
     1
102
RTVSPropertyOp1
 70
     1
102
RTVSPropertyOp2
 70
     1
102
RTVSPropertyOp3
 70
     1
102
RTVSPropertyOp4
 70
     1
102
RTVSPropertyOp5
 70
     1
102
RTVSPropertyOp6
 70
     1
102
RTVSPropertyOp7
 70
     1
102
RTVSPropertyOp8
 70
     1
102
RTVSPropertyOp9
 70
     1
102
RTVSPropertyOp10
 70
     1
102
RTVSPropertyOp11
 70
     1
102
RTVSPropertyOp12
 70
     1
102
RTVSPropertyOp13
 70
     1
102
RTVSPropertyOp14
 70
     1
102
RTVSPropertyOp15
 70
     1
102
RTVSPropertyOp16
 70
     1
102
RTVSPropertyOp17
 70
     1
102
RTVSPropertyOp18
 70
     1
102
RTVSPropertyOp19
 70
     1
102
RTVSPropertyOp20
 70
     1
102
RTVSPropertyOp21
 70
     1
102
RTVSPropertyOp22
 70
     1
102
RTVSPropertyOp23
 70
     1
102
RTVSPropertyOp24
 70
     1
102
RTVSPropertyOp25
 70
     1
102
RTVSPropertyOp26
 70
     1
102
RTVSPropertyOp27
 70
     1
102
RTVSPropertyOp28
 70
     1
102
RTVSPropertyOp29
 70
     1
102
RTVSPropertyOp30
 70
     1
102
RTVSPropertyOp31
 70
     1
102
RTVSPropertyOp32
 70
     1
102
RTVSPropertyOp33
 70
     1
102
RTVSPropertyOp34
 70
     1
102
RTVSPropertyOp35
 70
     1
102
RTVSPropertyOp36
 70
     1
102
RTVSPropertyOp37
 70
     1
102
RTVSPropertyOp38
 70
     1
102
RTVSPropertyOp39
 70
     1
102
RTVSPropertyOp40
 70
     1
102
RTVSPropertyOp41
 70
     1
102
RTVSPropertyOp42
 70
     1
102
RTVSPropertyOp43
 70
     1
102
RTVSPropertyOp44
 70
     1
102
RTVSPropertyOp45
 70
     1
102
RTVSPropertyOp46
 70
     1
102
RTVSPropertyOp47
 70
     1
102
RTVSPropertyOp48
 70
     1
102
RTVSPropertyOp49
 70
     1
102
RTVSPropertyOp50
 70
     1
102
RTVSPropertyOp51
 70
     0
102
RTVSPropertyOp52
 70
     0
102
RTVSPropertyOp53
 70
     1
102
RTVSPropertyOp54
 70
     1
102
RTVSPropertyOp55
 70
     1
102
RTVSPropertyOp56
 70
     1
102
RTVSPropertyOp57
 70
     1
102
RTVSPropertyOp58
 70
     1
102
RTVSPropertyOp59
 70
     1
102
RTVSPropertyOp60
 70
     1
102
RTVSPropertyOp61
 70
     1
102
RTVSPropertyOp62
 70
     1
  0
XRECORD
  5
6FF
102
{ACAD_REACTORS
330
6FE
102
}
330
6FE
100
AcDbXrecord
280
     1
102
RTVSPost2010Prop28
280
     0
102
RTVSPost2010PropOp28
 70
     1
102
RTVSPost2010Prop29
280
     1
102
RTVSPost2010PropOp29
 70
     1
102
RTVSPost2010Prop30
280
     1
102
RTVSPost2010PropOp30
 70
     1
102
RTVSPost2010Prop31
280
     0
102
RTVSPost2010PropOp31
 70
     1
102
RTVSPost2010Prop32
280
     0
102
RTVSPost2010PropOp32
 70
     1
102
RTVSPost2010Prop33
280
     0
102
RTVSPost2010PropOp33
 70
     1
102
RTVSPost2010Prop34
280
     0
102
RTVSPost2010PropOp34
 70
     1
102
RTVSPost2010Prop35
280
     0
102
RTVSPost2010PropOp35
 70
     1
102
RTVSPost2010Prop36
280
     0
102
RTVSPost2010PropOp36
 70
     1
102
RTVSPost2010Prop37
 90
       50
102
RTVSPost2010PropOp37
 70
     1
102
RTVSPost2010Prop38
140
0.0
102
RTVSPost2010PropOp38
 70
     1
102
RTVSPost2010Prop39
140
1.0
102
RTVSPost2010PropOp39
 70
     1
102
RTVSPost2010Prop40
 90
        0
102
RTVSPost2010PropOp40
 70
     1
102
RTVSPost2010Prop41ColorIndex
 90
       18
102
RTVSPost2010Prop41ColorRGB
 90
        0
102
RTVSPost2010PropOp41
 70
     1
102
RTVSPost2010Prop42
 90
       50
102
RTVSPost2010PropOp42
 70
     1
102
RTVSPost2010Prop43
 90
        3
102
RTVSPost2010PropOp43
 70
     1
102
RTVSPost2010Prop44ColorIndex
 90
        5
102
RTVSPost2010Prop44ColorRGB
 90
      255
102
RTVSPost2010PropOp44
 70
     1
102
RTVSPost2010Prop45
280
     0
102
RTVSPost2010PropOp45
 70
     1
102
RTVSPost2010Prop46
 90
       50
102
RTVSPost2010PropOp46
 70
     1
102
RTVSPost2010Prop47
 90
       50
102
RTVSPost2010PropOp47
 70
     1
102
RTVSPost2010Prop48
 90
       50
102
RTVSPost2010PropOp48
 70
     1
102
RTVSPost2010Prop49
280
     0
102
RTVSPost2010PropOp49
 70
     1
102
RTVSPost2010Prop50
 90
       50
102
RTVSPost2010PropOp50
 70
     1
102
RTVSPost2010Prop51ColorIndex
 90
      256
102
RTVSPost2010Prop51ColorRGB
 90
-16777216
102
RTVSPost2010PropOp51
 70
     0
102
RTVSPost2010Prop52
140
1.0
102
RTVSPost2010PropOp52
 70
     0
102
RTVSPost2010Prop53
 90
        2
102
RTVSPost2010PropOp53
 70
     1
102
RTVSPost2010Prop54
  1
strokes_ogs.tif
102
RTVSPost2010PropOp54
 70
     1
102
RTVSPost2010Prop55
280
     0
102
RTVSPost2010PropOp55
 70
     1
102
RTVSPost2010Prop56
140
1.0
102
RTVSPost2010PropOp56
 70
     1
102
RTVSPost2010Prop57
140
1.0
102
RTVSPost2010PropOp57
 70
     1
102
RTVSPropertyOp0
 70
     1
102
RTVSPropertyOp1
 70
     1
102
RTVSPropertyOp2
 70
     1
102
RTVSPropertyOp3
 70
     1
102
RTVSPropertyOp4
 70
     1
102
RTVSPropertyOp5
 70
     1
102
RTVSPropertyOp6
 70
     1
102
RTVSPropertyOp7
 70
     1
102
RTVSPropertyOp8
 70
     1
102
RTVSPropertyOp9
 70
     1
102
RTVSPropertyOp10
 70
     1
102
RTVSPropertyOp11
 70
     1
102
RTVSPropertyOp12
 70
     1
102
RTVSPropertyOp13
 70
     1
102
RTVSPropertyOp14
 70
     1
102
RTVSPropertyOp15
 70
     1
102
RTVSPropertyOp16
 70
     1
102
RTVSPropertyOp17
 70
     1
102
RTVSPropertyOp18
 70
     1
102
RTVSPropertyOp19
 70
     1
102
RTVSPropertyOp20
 70
     1
102
RTVSPropertyOp21
 70
     1
102
RTVSPropertyOp22
 70
     1
102
RTVSPropertyOp23
 70
     1
102
RTVSPropertyOp24
 70
     1
102
RTVSPropertyOp25
 70
     1
102
RTVSPropertyOp26
 70
     1
102
RTVSPropertyOp27
 70
     1
102
RTVSPropertyOp28
 70
     1
102
RTVSPropertyOp29
 70
     1
102
RTVSPropertyOp30
 70
     1
102
RTVSPropertyOp31
 70
     1
102
RTVSPropertyOp32
 70
     1
102
RTVSPropertyOp33
 70
     1
102
RTVSPropertyOp34
 70
     1
102
RTVSPropertyOp35
 70
     1
102
RTVSPropertyOp36
 70
     1
102
RTVSPropertyOp37
 70
     1
102
RTVSPropertyOp38
 70
     1
102
RTVSPropertyOp39
 70
     1
102
RTVSPropertyOp40
 70
     1
102
RTVSPropertyOp41
 70
     1
102
RTVSPropertyOp42
 70
     1
102
RTVSPropertyOp43
 70
     1
102
RTVSPropertyOp44
 70
     1
102
RTVSPropertyOp45
 70
     1
102
RTVSPropertyOp46
 70
     1
102
RTVSPropertyOp47
 70
     1
102
RTVSPropertyOp48
 70
     1
102
RTVSPropertyOp49
 70
     1
102
RTVSPropertyOp50
 70
     1
102
RTVSPropertyOp51
 70
     0
102
RTVSPropertyOp52
 70
     0
102
RTVSPropertyOp53
 70
     1
102
RTVSPropertyOp54
 70
     1
102
RTVSPropertyOp55
 70
     1
102
RTVSPropertyOp56
 70
     1
102
RTVSPropertyOp57
 70
     1
102
RTVSPropertyOp58
 70
     1
102
RTVSPropertyOp59
 70
     1
102
RTVSPropertyOp60
 70
     1
102
RTVSPropertyOp61
 70
     1
102
RTVSPropertyOp62
 70
     1
  0
XRECORD
  5
701
102
{ACAD_REACTORS
330
700
102
}
330
700
100
AcDbXrecord
280
     1
102
RTVSPost2010Prop28
280
     0
102
RTVSPost2010PropOp28
 70
     1
102
RTVSPost2010Prop29
280
     1
102
RTVSPost2010PropOp29
 70
     1
102
RTVSPost2010Prop30
280
     1
102
RTVSPost2010PropOp30
 70
     1
102
RTVSPost2010Prop31
280
     0
102
RTVSPost2010PropOp31
 70
     1
102
RTVSPost2010Prop32
280
     0
102
RTVSPost2010PropOp32
 70
     1
102
RTVSPost2010Prop33
280
     0
102
RTVSPost2010PropOp33
 70
     1
102
RTVSPost2010Prop34
280
     0
102
RTVSPost2010PropOp34
 70
     1
102
RTVSPost2010Prop35
280
     0
102
RTVSPost2010PropOp35
 70
     1
102
RTVSPost2010Prop36
280
     0
102
RTVSPost2010PropOp36
 70
     1
102
RTVSPost2010Prop37
 90
       50
102
RTVSPost2010PropOp37
 70
     1
102
RTVSPost2010Prop38
140
0.0
102
RTVSPost2010PropOp38
 70
     1
102
RTVSPost2010Prop39
140
1.0
102
RTVSPost2010PropOp39
 70
     1
102
RTVSPost2010Prop40
 90
        0
102
RTVSPost2010PropOp40
 70
     1
102
RTVSPost2010Prop41ColorIndex
 90
       18
102
RTVSPost2010Prop41ColorRGB
 90
        0
102
RTVSPost2010PropOp41
 70
     1
102
RTVSPost2010Prop42
 90
       50
102
RTVSPost2010PropOp42
 70
     1
102
RTVSPost2010Prop43
 90
        3
102
RTVSPost2010PropOp43
 70
     1
102
RTVSPost2010Prop44ColorIndex
 90
        5
102
RTVSPost2010Prop44ColorRGB
 90
      255
102
RTVSPost2010PropOp44
 70
     1
102
RTVSPost2010Prop45
280
     0
102
RTVSPost2010PropOp45
 70
     1
102
RTVSPost2010Prop46
 90
       50
102
RTVSPost2010PropOp46
 70
     1
102
RTVSPost2010Prop47
 90
       50
102
RTVSPost2010PropOp47
 70
     1
102
RTVSPost2010Prop48
 90
       50
102
RTVSPost2010PropOp48
 70
     1
102
RTVSPost2010Prop49
280
     0
102
RTVSPost2010PropOp49
 70
     1
102
RTVSPost2010Prop50
 90
       50
102
RTVSPost2010PropOp50
 70
     1
102
RTVSPost2010Prop51ColorIndex
 90
      256
102
RTVSPost2010Prop51ColorRGB
 90
-16777216
102
RTVSPost2010PropOp51
 70
     0
102
RTVSPost2010Prop52
140
1.0
102
RTVSPost2010PropOp52
 70
     0
102
RTVSPost2010Prop53
 90
        2
102
RTVSPost2010PropOp53
 70
     1
102
RTVSPost2010Prop54
  1
strokes_ogs.tif
102
RTVSPost2010PropOp54
 70
     1
102
RTVSPost2010Prop55
280
     0
102
RTVSPost2010PropOp55
 70
     1
102
RTVSPost2010Prop56
140
1.0
102
RTVSPost2010PropOp56
 70
     1
102
RTVSPost2010Prop57
140
1.0
102
RTVSPost2010PropOp57
 70
     1
102
RTVSPropertyOp0
 70
     1
102
RTVSPropertyOp1
 70
     1
102
RTVSPropertyOp2
 70
     1
102
RTVSPropertyOp3
 70
     1
102
RTVSPropertyOp4
 70
     1
102
RTVSPropertyOp5
 70
     1
102
RTVSPropertyOp6
 70
     1
102
RTVSPropertyOp7
 70
     1
102
RTVSPropertyOp8
 70
     1
102
RTVSPropertyOp9
 70
     1
102
RTVSPropertyOp10
 70
     1
102
RTVSPropertyOp11
 70
     1
102
RTVSPropertyOp12
 70
     1
102
RTVSPropertyOp13
 70
     1
102
RTVSPropertyOp14
 70
     1
102
RTVSPropertyOp15
 70
     1
102
RTVSPropertyOp16
 70
     1
102
RTVSPropertyOp17
 70
     1
102
RTVSPropertyOp18
 70
     1
102
RTVSPropertyOp19
 70
     1
102
RTVSPropertyOp20
 70
     1
102
RTVSPropertyOp21
 70
     1
102
RTVSPropertyOp22
 70
     1
102
RTVSPropertyOp23
 70
     1
102
RTVSPropertyOp24
 70
     1
102
RTVSPropertyOp25
 70
     1
102
RTVSPropertyOp26
 70
     1
102
RTVSPropertyOp27
 70
     1
102
RTVSPropertyOp28
 70
     1
102
RTVSPropertyOp29
 70
     1
102
RTVSPropertyOp30
 70
     1
102
RTVSPropertyOp31
 70
     1
102
RTVSPropertyOp32
 70
     1
102
RTVSPropertyOp33
 70
     1
102
RTVSPropertyOp34
 70
     1
102
RTVSPropertyOp35
 70
     1
102
RTVSPropertyOp36
 70
     1
102
RTVSPropertyOp37
 70
     1
102
RTVSPropertyOp38
 70
     1
102
RTVSPropertyOp39
 70
     1
102
RTVSPropertyOp40
 70
     1
102
RTVSPropertyOp41
 70
     1
102
RTVSPropertyOp42
 70
     1
102
RTVSPropertyOp43
 70
     1
102
RTVSPropertyOp44
 70
     1
102
RTVSPropertyOp45
 70
     1
102
RTVSPropertyOp46
 70
     1
102
RTVSPropertyOp47
 70
     1
102
RTVSPropertyOp48
 70
     1
102
RTVSPropertyOp49
 70
     1
102
RTVSPropertyOp50
 70
     1
102
RTVSPropertyOp51
 70
     0
102
RTVSPropertyOp52
 70
     0
102
RTVSPropertyOp53
 70
     1
102
RTVSPropertyOp54
 70
     1
102
RTVSPropertyOp55
 70
     1
102
RTVSPropertyOp56
 70
     1
102
RTVSPropertyOp57
 70
     1
102
RTVSPropertyOp58
 70
     1
102
RTVSPropertyOp59
 70
     1
102
RTVSPropertyOp60
 70
     1
102
RTVSPropertyOp61
 70
     1
102
RTVSPropertyOp62
 70
     1
  0
XRECORD
  5
6F1
102
{ACAD_REACTORS
330
6F0
102
}
330
6F0
100
AcDbXrecord
280
     1
102
RTVSPost2010Prop28
280
     0
102
RTVSPost2010PropOp28
 70
     1
102
RTVSPost2010Prop29
280
     1
102
RTVSPost2010PropOp29
 70
     1
102
RTVSPost2010Prop30
280
     1
102
RTVSPost2010PropOp30
 70
     1
102
RTVSPost2010Prop31
280
     0
102
RTVSPost2010PropOp31
 70
     1
102
RTVSPost2010Prop32
280
     0
102
RTVSPost2010PropOp32
 70
     1
102
RTVSPost2010Prop33
280
     0
102
RTVSPost2010PropOp33
 70
     1
102
RTVSPost2010Prop34
280
     0
102
RTVSPost2010PropOp34
 70
     1
102
RTVSPost2010Prop35
280
     0
102
RTVSPost2010PropOp35
 70
     1
102
RTVSPost2010Prop36
280
     0
102
RTVSPost2010PropOp36
 70
     1
102
RTVSPost2010Prop37
 90
       50
102
RTVSPost2010PropOp37
 70
     1
102
RTVSPost2010Prop38
140
0.0
102
RTVSPost2010PropOp38
 70
     1
102
RTVSPost2010Prop39
140
1.0
102
RTVSPost2010PropOp39
 70
     1
102
RTVSPost2010Prop40
 90
        0
102
RTVSPost2010PropOp40
 70
     1
102
RTVSPost2010Prop41ColorIndex
 90
       18
102
RTVSPost2010Prop41ColorRGB
 90
        0
102
RTVSPost2010PropOp41
 70
     1
102
RTVSPost2010Prop42
 90
       50
102
RTVSPost2010PropOp42
 70
     1
102
RTVSPost2010Prop43
 90
        3
102
RTVSPost2010PropOp43
 70
     1
102
RTVSPost2010Prop44ColorIndex
 90
        5
102
RTVSPost2010Prop44ColorRGB
 90
      255
102
RTVSPost2010PropOp44
 70
     1
102
RTVSPost2010Prop45
280
     0
102
RTVSPost2010PropOp45
 70
     1
102
RTVSPost2010Prop46
 90
       50
102
RTVSPost2010PropOp46
 70
     1
102
RTVSPost2010Prop47
 90
       50
102
RTVSPost2010PropOp47
 70
     1
102
RTVSPost2010Prop48
 90
       50
102
RTVSPost2010PropOp48
 70
     1
102
RTVSPost2010Prop49
280
     0
102
RTVSPost2010PropOp49
 70
     1
102
RTVSPost2010Prop50
 90
       50
102
RTVSPost2010PropOp50
 70
     1
102
RTVSPost2010Prop51ColorIndex
 90
      256
102
RTVSPost2010Prop51ColorRGB
 90
-16777216
102
RTVSPost2010PropOp51
 70
     0
102
RTVSPost2010Prop52
140
1.0
102
RTVSPost2010PropOp52
 70
     0
102
RTVSPost2010Prop53
 90
        2
102
RTVSPost2010PropOp53
 70
     1
102
RTVSPost2010Prop54
  1
strokes_ogs.tif
102
RTVSPost2010PropOp54
 70
     1
102
RTVSPost2010Prop55
280
     0
102
RTVSPost2010PropOp55
 70
     1
102
RTVSPost2010Prop56
140
1.0
102
RTVSPost2010PropOp56
 70
     1
102
RTVSPost2010Prop57
140
1.0
102
RTVSPost2010PropOp57
 70
     1
102
RTVSPropertyOp0
 70
     1
102
RTVSPropertyOp1
 70
     1
102
RTVSPropertyOp2
 70
     1
102
RTVSPropertyOp3
 70
     1
102
RTVSPropertyOp4
 70
     1
102
RTVSPropertyOp5
 70
     1
102
RTVSPropertyOp6
 70
     1
102
RTVSPropertyOp7
 70
     1
102
RTVSPropertyOp8
 70
     1
102
RTVSPropertyOp9
 70
     1
102
RTVSPropertyOp10
 70
     1
102
RTVSPropertyOp11
 70
     1
102
RTVSPropertyOp12
 70
     1
102
RTVSPropertyOp13
 70
     1
102
RTVSPropertyOp14
 70
     1
102
RTVSPropertyOp15
 70
     1
102
RTVSPropertyOp16
 70
     1
102
RTVSPropertyOp17
 70
     1
102
RTVSPropertyOp18
 70
     1
102
RTVSPropertyOp19
 70
     1
102
RTVSPropertyOp20
 70
     1
102
RTVSPropertyOp21
 70
     1
102
RTVSPropertyOp22
 70
     1
102
RTVSPropertyOp23
 70
     1
102
RTVSPropertyOp24
 70
     1
102
RTVSPropertyOp25
 70
     1
102
RTVSPropertyOp26
 70
     1
102
RTVSPropertyOp27
 70
     1
102
RTVSPropertyOp28
 70
     1
102
RTVSPropertyOp29
 70
     1
102
RTVSPropertyOp30
 70
     1
102
RTVSPropertyOp31
 70
     1
102
RTVSPropertyOp32
 70
     1
102
RTVSPropertyOp33
 70
     1
102
RTVSPropertyOp34
 70
     1
102
RTVSPropertyOp35
 70
     1
102
RTVSPropertyOp36
 70
     1
102
RTVSPropertyOp37
 70
     1
102
RTVSPropertyOp38
 70
     1
102
RTVSPropertyOp39
 70
     1
102
RTVSPropertyOp40
 70
     1
102
RTVSPropertyOp41
 70
     1
102
RTVSPropertyOp42
 70
     1
102
RTVSPropertyOp43
 70
     1
102
RTVSPropertyOp44
 70
     1
102
RTVSPropertyOp45
 70
     1
102
RTVSPropertyOp46
 70
     1
102
RTVSPropertyOp47
 70
     1
102
RTVSPropertyOp48
 70
     1
102
RTVSPropertyOp49
 70
     1
102
RTVSPropertyOp50
 70
     1
102
RTVSPropertyOp51
 70
     0
102
RTVSPropertyOp52
 70
     0
102
RTVSPropertyOp53
 70
     1
102
RTVSPropertyOp54
 70
     1
102
RTVSPropertyOp55
 70
     1
102
RTVSPropertyOp56
 70
     1
102
RTVSPropertyOp57
 70
     1
102
RTVSPropertyOp58
 70
     1
102
RTVSPropertyOp59
 70
     1
102
RTVSPropertyOp60
 70
     1
102
RTVSPropertyOp61
 70
     1
102
RTVSPropertyOp62
 70
     1
  0
XRECORD
  5
6E3
102
{ACAD_REACTORS
330
6E2
102
}
330
6E2
100
AcDbXrecord
280
     1
102
RTVSPost2010Prop28
280
     0
102
RTVSPost2010PropOp28
 70
     1
102
RTVSPost2010Prop29
280
     1
102
RTVSPost2010PropOp29
 70
     1
102
RTVSPost2010Prop30
280
     1
102
RTVSPost2010PropOp30
 70
     1
102
RTVSPost2010Prop31
280
     0
102
RTVSPost2010PropOp31
 70
     1
102
RTVSPost2010Prop32
280
     0
102
RTVSPost2010PropOp32
 70
     1
102
RTVSPost2010Prop33
280
     0
102
RTVSPost2010PropOp33
 70
     1
102
RTVSPost2010Prop34
280
     0
102
RTVSPost2010PropOp34
 70
     1
102
RTVSPost2010Prop35
280
     0
102
RTVSPost2010PropOp35
 70
     1
102
RTVSPost2010Prop36
280
     0
102
RTVSPost2010PropOp36
 70
     1
102
RTVSPost2010Prop37
 90
       50
102
RTVSPost2010PropOp37
 70
     1
102
RTVSPost2010Prop38
140
0.0
102
RTVSPost2010PropOp38
 70
     1
102
RTVSPost2010Prop39
140
1.0
102
RTVSPost2010PropOp39
 70
     1
102
RTVSPost2010Prop40
 90
        0
102
RTVSPost2010PropOp40
 70
     1
102
RTVSPost2010Prop41ColorIndex
 90
       18
102
RTVSPost2010Prop41ColorRGB
 90
        0
102
RTVSPost2010PropOp41
 70
     1
102
RTVSPost2010Prop42
 90
       50
102
RTVSPost2010PropOp42
 70
     1
102
RTVSPost2010Prop43
 90
        3
102
RTVSPost2010PropOp43
 70
     1
102
RTVSPost2010Prop44ColorIndex
 90
        5
102
RTVSPost2010Prop44ColorRGB
 90
      255
102
RTVSPost2010PropOp44
 70
     1
102
RTVSPost2010Prop45
280
     0
102
RTVSPost2010PropOp45
 70
     1
102
RTVSPost2010Prop46
 90
       50
102
RTVSPost2010PropOp46
 70
     1
102
RTVSPost2010Prop47
 90
       50
102
RTVSPost2010PropOp47
 70
     1
102
RTVSPost2010Prop48
 90
       50
102
RTVSPost2010PropOp48
 70
     1
102
RTVSPost2010Prop49
280
     0
102
RTVSPost2010PropOp49
 70
     1
102
RTVSPost2010Prop50
 90
       50
102
RTVSPost2010PropOp50
 70
     1
102
RTVSPost2010Prop51ColorIndex
 90
      256
102
RTVSPost2010Prop51ColorRGB
 90
-16777216
102
RTVSPost2010PropOp51
 70
     0
102
RTVSPost2010Prop52
140
1.0
102
RTVSPost2010PropOp52
 70
     0
102
RTVSPost2010Prop53
 90
        2
102
RTVSPost2010PropOp53
 70
     1
102
RTVSPost2010Prop54
  1
strokes_ogs.tif
102
RTVSPost2010PropOp54
 70
     1
102
RTVSPost2010Prop55
280
     0
102
RTVSPost2010PropOp55
 70
     1
102
RTVSPost2010Prop56
140
1.0
102
RTVSPost2010PropOp56
 70
     1
102
RTVSPost2010Prop57
140
1.0
102
RTVSPost2010PropOp57
 70
     1
102
RTVSPropertyOp0
 70
     1
102
RTVSPropertyOp1
 70
     1
102
RTVSPropertyOp2
 70
     1
102
RTVSPropertyOp3
 70
     1
102
RTVSPropertyOp4
 70
     1
102
RTVSPropertyOp5
 70
     1
102
RTVSPropertyOp6
 70
     1
102
RTVSPropertyOp7
 70
     1
102
RTVSPropertyOp8
 70
     1
102
RTVSPropertyOp9
 70
     1
102
RTVSPropertyOp10
 70
     1
102
RTVSPropertyOp11
 70
     1
102
RTVSPropertyOp12
 70
     1
102
RTVSPropertyOp13
 70
     1
102
RTVSPropertyOp14
 70
     1
102
RTVSPropertyOp15
 70
     1
102
RTVSPropertyOp16
 70
     1
102
RTVSPropertyOp17
 70
     1
102
RTVSPropertyOp18
 70
     1
102
RTVSPropertyOp19
 70
     1
102
RTVSPropertyOp20
 70
     1
102
RTVSPropertyOp21
 70
     1
102
RTVSPropertyOp22
 70
     1
102
RTVSPropertyOp23
 70
     1
102
RTVSPropertyOp24
 70
     1
102
RTVSPropertyOp25
 70
     1
102
RTVSPropertyOp26
 70
     1
102
RTVSPropertyOp27
 70
     1
102
RTVSPropertyOp28
 70
     1
102
RTVSPropertyOp29
 70
     1
102
RTVSPropertyOp30
 70
     1
102
RTVSPropertyOp31
 70
     1
102
RTVSPropertyOp32
 70
     1
102
RTVSPropertyOp33
 70
     1
102
RTVSPropertyOp34
 70
     1
102
RTVSPropertyOp35
 70
     1
102
RTVSPropertyOp36
 70
     1
102
RTVSPropertyOp37
 70
     1
102
RTVSPropertyOp38
 70
     1
102
RTVSPropertyOp39
 70
     1
102
RTVSPropertyOp40
 70
     1
102
RTVSPropertyOp41
 70
     1
102
RTVSPropertyOp42
 70
     1
102
RTVSPropertyOp43
 70
     1
102
RTVSPropertyOp44
 70
     1
102
RTVSPropertyOp45
 70
     1
102
RTVSPropertyOp46
 70
     1
102
RTVSPropertyOp47
 70
     1
102
RTVSPropertyOp48
 70
     1
102
RTVSPropertyOp49
 70
     1
102
RTVSPropertyOp50
 70
     1
102
RTVSPropertyOp51
 70
     0
102
RTVSPropertyOp52
 70
     0
102
RTVSPropertyOp53
 70
     1
102
RTVSPropertyOp54
 70
     1
102
RTVSPropertyOp55
 70
     1
102
RTVSPropertyOp56
 70
     1
102
RTVSPropertyOp57
 70
     1
102
RTVSPropertyOp58
 70
     1
102
RTVSPropertyOp59
 70
     1
102
RTVSPropertyOp60
 70
     1
102
RTVSPropertyOp61
 70
     1
102
RTVSPropertyOp62
 70
     1
  0
XRECORD
  5
703
102
{ACAD_REACTORS
330
702
102
}
330
702
100
AcDbXrecord
280
     1
102
RTVSPost2010Prop28
280
     0
102
RTVSPost2010PropOp28
 70
     1
102
RTVSPost2010Prop29
280
     1
102
RTVSPost2010PropOp29
 70
     1
102
RTVSPost2010Prop30
280
     1
102
RTVSPost2010PropOp30
 70
     1
102
RTVSPost2010Prop31
280
     0
102
RTVSPost2010PropOp31
 70
     1
102
RTVSPost2010Prop32
280
     0
102
RTVSPost2010PropOp32
 70
     1
102
RTVSPost2010Prop33
280
     0
102
RTVSPost2010PropOp33
 70
     1
102
RTVSPost2010Prop34
280
     0
102
RTVSPost2010PropOp34
 70
     1
102
RTVSPost2010Prop35
280
     0
102
RTVSPost2010PropOp35
 70
     1
102
RTVSPost2010Prop36
280
     0
102
RTVSPost2010PropOp36
 70
     1
102
RTVSPost2010Prop37
 90
       50
102
RTVSPost2010PropOp37
 70
     1
102
RTVSPost2010Prop38
140
0.0
102
RTVSPost2010PropOp38
 70
     1
102
RTVSPost2010Prop39
140
1.0
102
RTVSPost2010PropOp39
 70
     1
102
RTVSPost2010Prop40
 90
        0
102
RTVSPost2010PropOp40
 70
     1
102
RTVSPost2010Prop41ColorIndex
 90
       18
102
RTVSPost2010Prop41ColorRGB
 90
        0
102
RTVSPost2010PropOp41
 70
     1
102
RTVSPost2010Prop42
 90
       50
102
RTVSPost2010PropOp42
 70
     1
102
RTVSPost2010Prop43
 90
        3
102
RTVSPost2010PropOp43
 70
     1
102
RTVSPost2010Prop44ColorIndex
 90
        5
102
RTVSPost2010Prop44ColorRGB
 90
      255
102
RTVSPost2010PropOp44
 70
     1
102
RTVSPost2010Prop45
280
     0
102
RTVSPost2010PropOp45
 70
     1
102
RTVSPost2010Prop46
 90
       50
102
RTVSPost2010PropOp46
 70
     1
102
RTVSPost2010Prop47
 90
       50
102
RTVSPost2010PropOp47
 70
     1
102
RTVSPost2010Prop48
 90
       50
102
RTVSPost2010PropOp48
 70
     1
102
RTVSPost2010Prop49
280
     0
102
RTVSPost2010PropOp49
 70
     1
102
RTVSPost2010Prop50
 90
       50
102
RTVSPost2010PropOp50
 70
     1
102
RTVSPost2010Prop51ColorIndex
 90
      256
102
RTVSPost2010Prop51ColorRGB
 90
-16777216
102
RTVSPost2010PropOp51
 70
     0
102
RTVSPost2010Prop52
140
1.0
102
RTVSPost2010PropOp52
 70
     0
102
RTVSPost2010Prop53
 90
        2
102
RTVSPost2010PropOp53
 70
     1
102
RTVSPost2010Prop54
  1
strokes_ogs.tif
102
RTVSPost2010PropOp54
 70
     1
102
RTVSPost2010Prop55
280
     0
102
RTVSPost2010PropOp55
 70
     1
102
RTVSPost2010Prop56
140
1.0
102
RTVSPost2010PropOp56
 70
     1
102
RTVSPost2010Prop57
140
1.0
102
RTVSPost2010PropOp57
 70
     1
102
RTVSPropertyOp0
 70
     1
102
RTVSPropertyOp1
 70
     1
102
RTVSPropertyOp2
 70
     1
102
RTVSPropertyOp3
 70
     1
102
RTVSPropertyOp4
 70
     1
102
RTVSPropertyOp5
 70
     1
102
RTVSPropertyOp6
 70
     1
102
RTVSPropertyOp7
 70
     1
102
RTVSPropertyOp8
 70
     1
102
RTVSPropertyOp9
 70
     1
102
RTVSPropertyOp10
 70
     1
102
RTVSPropertyOp11
 70
     1
102
RTVSPropertyOp12
 70
     1
102
RTVSPropertyOp13
 70
     1
102
RTVSPropertyOp14
 70
     1
102
RTVSPropertyOp15
 70
     1
102
RTVSPropertyOp16
 70
     1
102
RTVSPropertyOp17
 70
     1
102
RTVSPropertyOp18
 70
     1
102
RTVSPropertyOp19
 70
     1
102
RTVSPropertyOp20
 70
     1
102
RTVSPropertyOp21
 70
     1
102
RTVSPropertyOp22
 70
     1
102
RTVSPropertyOp23
 70
     1
102
RTVSPropertyOp24
 70
     1
102
RTVSPropertyOp25
 70
     1
102
RTVSPropertyOp26
 70
     1
102
RTVSPropertyOp27
 70
     1
102
RTVSPropertyOp28
 70
     1
102
RTVSPropertyOp29
 70
     1
102
RTVSPropertyOp30
 70
     1
102
RTVSPropertyOp31
 70
     1
102
RTVSPropertyOp32
 70
     1
102
RTVSPropertyOp33
 70
     1
102
RTVSPropertyOp34
 70
     1
102
RTVSPropertyOp35
 70
     1
102
RTVSPropertyOp36
 70
     1
102
RTVSPropertyOp37
 70
     1
102
RTVSPropertyOp38
 70
     1
102
RTVSPropertyOp39
 70
     1
102
RTVSPropertyOp40
 70
     1
102
RTVSPropertyOp41
 70
     1
102
RTVSPropertyOp42
 70
     1
102
RTVSPropertyOp43
 70
     1
102
RTVSPropertyOp44
 70
     1
102
RTVSPropertyOp45
 70
     1
102
RTVSPropertyOp46
 70
     1
102
RTVSPropertyOp47
 70
     1
102
RTVSPropertyOp48
 70
     1
102
RTVSPropertyOp49
 70
     1
102
RTVSPropertyOp50
 70
     1
102
RTVSPropertyOp51
 70
     0
102
RTVSPropertyOp52
 70
     0
102
RTVSPropertyOp53
 70
     1
102
RTVSPropertyOp54
 70
     1
102
RTVSPropertyOp55
 70
     1
102
RTVSPropertyOp56
 70
     1
102
RTVSPropertyOp57
 70
     1
102
RTVSPropertyOp58
 70
     1
102
RTVSPropertyOp59
 70
     1
102
RTVSPropertyOp60
 70
     1
102
RTVSPropertyOp61
 70
     1
102
RTVSPropertyOp62
 70
     1
  0
ENDSEC
  0
EOF
