  0
SECTION
  2
HEADER
  9
$ACADVER
  1
AC1015
  9
$ACADMAINTVER
 70
    20
  9
$DWGCODEPAGE
  3
ANSI_932
  9
$INSBASE
 10
0.0
 20
0.0
 30
0.0
  9
$EXTMIN
 10
-86.37947368272945
 20
11.84395352247267
 30
0.0
  9
$EXTMAX
 10
1023.153272053145
 20
721.8439535224726
 30
0.0
  9
$LIMMIN
 10
-323.7259712219238
 20
-434.365291595459
  9
$LIMMAX
 10
626.3006454238172
 20
297.0984954833984
  9
$ORTHOMODE
 70
     0
  9
$REGENMODE
 70
     1
  9
$FILLMODE
 70
     1
  9
$QTEXTMODE
 70
     0
  9
$MIRRTEXT
 70
     1
  9
$LTSCALE
 40
0.1171118848905789
  9
$ATTMODE
 70
     1
  9
$TEXTSIZE
 40
2.5
  9
$TRACEWID
 40
1.0
  9
$TEXTSTYLE
  7
Standard
  9
$CLAYER
  8
0
  9
$CELTYPE
  6
ByLayer
  9
$CECOLOR
 62
   256
  9
$CELTSCALE
 40
1.0
  9
$DISPSILH
 70
     0
  9
$DIMSCALE
 40
1.0
  9
$DIMASZ
 40
2.5
  9
$DIMEXO
 40
0.625
  9
$DIMDLI
 40
3.75
  9
$DIMRND
 40
0.0
  9
$DIMDLE
 40
0.0
  9
$DIMEXE
 40
1.25
  9
$DIMTP
 40
0.0
  9
$DIMTM
 40
0.0
  9
$DIMTXT
 40
2.5
  9
$DIMCEN
 40
2.5
  9
$DIMTSZ
 40
0.0
  9
$DIMTOL
 70
     0
  9
$DIMLIM
 70
     0
  9
$DIMTIH
 70
     0
  9
$DIMTOH
 70
     0
  9
$DIMSE1
 70
     0
  9
$DIMSE2
 70
     0
  9
$DIMTAD
 70
     1
  9
$DIMZIN
 70
     0
  9
$DIMBLK
  1

  9
$DIMASO
 70
     1
  9
$DIMSHO
 70
     1
  9
$DIMPOST
  1

  9
$DIMAPOST
  1

  9
$DIMALT
 70
     0
  9
$DIMALTD
 70
     3
  9
$DIMALTF
 40
0.03937007874016
  9
$DIMLFAC
 40
1.0
  9
$DIMTOFL
 70
     1
  9
$DIMTVP
 40
0.0
  9
$DIMTIX
 70
     0
  9
$DIMSOXD
 70
     0
  9
$DIMSAH
 70
     0
  9
$DIMBLK1
  1

  9
$DIMBLK2
  1

  9
$DIMSTYLE
  2
Standard
  9
$DIMCLRD
 70
     0
  9
$DIMCLRE
 70
     0
  9
$DIMCLRT
 70
     0
  9
$DIMTFAC
 40
0.75
  9
$DIMGAP
 40
0.625
  9
$DIMJUST
 70
     0
  9
$DIMSD1
 70
     0
  9
$DIMSD2
 70
     0
  9
$DIMTOLJ
 70
     0
  9
$DIMTZIN
 70
     8
  9
$DIMALTZ
 70
     0
  9
$DIMALTTZ
 70
     0
  9
$DIMUPT
 70
     0
  9
$DIMDEC
 70
     2
  9
$DIMTDEC
 70
     2
  9
$DIMALTU
 70
     2
  9
$DIMALTTD
 70
     3
  9
$DIMTXSTY
  7
Standard
  9
$DIMAUNIT
 70
     0
  9
$DIMADEC
 70
     0
  9
$DIMALTRND
 40
0.0
  9
$DIMAZIN
 70
     0
  9
$DIMDSEP
 70
    46
  9
$DIMATFIT
 70
     3
  9
$DIMFRAC
 70
     0
  9
$DIMLDRBLK
  1

  9
$DIMLUNIT
 70
     2
  9
$DIMLWD
 70
    -2
  9
$DIMLWE
 70
    -2
  9
$DIMTMOVE
 70
     0
  9
$LUNITS
 70
     2
  9
$LUPREC
 70
     4
  9
$SKETCHINC
 40
1.0
  9
$FILLETRAD
 40
0.0
  9
$AUNITS
 70
     0
  9
$AUPREC
 70
     0
  9
$MENU
  1
.
  9
$ELEVATION
 40
0.0
  9
$PELEVATION
 40
0.0
  9
$THICKNESS
 40
0.0
  9
$LIMCHECK
 70
     0
  9
$CHAMFERA
 40
10.0
  9
$CHAMFERB
 40
10.0
  9
$CHAMFERC
 40
20.0
  9
$CHAMFERD
 40
0.0
  9
$SKPOLY
 70
     0
  9
$TDCREATE
 40
2455188.750000000
  9
$TDUCREATE
 40
2455188.375000000
  9
$TDUPDATE
 40
2459741.570511111
  9
$TDUUPDATE
 40
2459741.195511111
  9
$TDINDWG
 40
0.0280295023
  9
$TDUSRTIMER
 40
0.0280292014
  9
$USRTIMER
 70
     1
  9
$ANGBASE
 50
0.0
  9
$ANGDIR
 70
     0
  9
$PDMODE
 70
     0
  9
$PDSIZE
 40
0.0
  9
$PLINEWID
 40
0.0
  9
$SPLFRAME
 70
     0
  9
$SPLINETYPE
 70
     6
  9
$SPLINESEGS
 70
     8
  9
$HANDSEED
  5
7A8
  9
$SURFTAB1
 70
     6
  9
$SURFTAB2
 70
     6
  9
$SURFTYPE
 70
     6
  9
$SURFU
 70
     6
  9
$SURFV
 70
     6
  9
$UCSBASE
  2

  9
$UCSNAME
  2

  9
$UCSORG
 10
0.0
 20
0.0
 30
0.0
  9
$UCSXDIR
 10
1.0
 20
0.0
 30
0.0
  9
$UCSYDIR
 10
0.0
 20
1.0
 30
0.0
  9
$UCSORTHOREF
  2

  9
$UCSORTHOVIEW
 70
     0
  9
$UCSORGTOP
 10
0.0
 20
0.0
 30
0.0
  9
$UCSORGBOTTOM
 10
0.0
 20
0.0
 30
0.0
  9
$UCSORGLEFT
 10
0.0
 20
0.0
 30
0.0
  9
$UCSORGRIGHT
 10
0.0
 20
0.0
 30
0.0
  9
$UCSORGFRONT
 10
0.0
 20
0.0
 30
0.0
  9
$UCSORGBACK
 10
0.0
 20
0.0
 30
0.0
  9
$PUCSBASE
  2

  9
$PUCSNAME
  2

  9
$PUCSORG
 10
0.0
 20
0.0
 30
0.0
  9
$PUCSXDIR
 10
1.0
 20
0.0
 30
0.0
  9
$PUCSYDIR
 10
0.0
 20
1.0
 30
0.0
  9
$PUCSORTHOREF
  2

  9
$PUCSORTHOVIEW
 70
     0
  9
$PUCSORGTOP
 10
0.0
 20
0.0
 30
0.0
  9
$PUCSORGBOTTOM
 10
0.0
 20
0.0
 30
0.0
  9
$PUCSORGLEFT
 10
0.0
 20
0.0
 30
0.0
  9
$PUCSORGRIGHT
 10
0.0
 20
0.0
 30
0.0
  9
$PUCSORGFRONT
 10
0.0
 20
0.0
 30
0.0
  9
$PUCSORGBACK
 10
0.0
 20
0.0
 30
0.0
  9
$USERI1
 70
     0
  9
$USERI2
 70
     0
  9
$USERI3
 70
     0
  9
$USERI4
 70
     0
  9
$USERI5
 70
     0
  9
$USERR1
 40
0.0
  9
$USERR2
 40
0.0
  9
$USERR3
 40
0.0
  9
$USERR4
 40
0.0
  9
$USERR5
 40
0.0
  9
$WORLDVIEW
 70
     1
  9
$SHADEDGE
 70
     3
  9
$SHADEDIF
 70
    70
  9
$TILEMODE
 70
     1
  9
$MAXACTVP
 70
    64
  9
$PINSBASE
 10
0.0
 20
0.0
 30
0.0
  9
$PLIMCHECK
 70
     0
  9
$PEXTMIN
 10
1.000000000000000E+20
 20
1.000000000000000E+20
 30
1.000000000000000E+20
  9
$PEXTMAX
 10
-1.000000000000000E+20
 20
-1.000000000000000E+20
 30
-1.000000000000000E+20
  9
$PLIMMIN
 10
0.0
 20
0.0
  9
$PLIMMAX
 10
420.0
 20
297.0
  9
$UNITMODE
 70
     0
  9
$VISRETAIN
 70
     1
  9
$PLINEGEN
 70
     0
  9
$PSLTSCALE
 70
     1
  9
$TREEDEPTH
 70
  3020
  9
$CMLSTYLE
  2
Standard
  9
$CMLJUST
 70
     0
  9
$CMLSCALE
 40
20.0
  9
$PROXYGRAPHICS
 70
     1
  9
$MEASUREMENT
 70
     1
  9
$CELWEIGHT
370
    -1
  9
$ENDCAPS
280
     0
  9
$JOINSTYLE
280
     0
  9
$LWDISPLAY
290
     0
  9
$INSUNITS
 70
     4
  9
$HYPERLINKBASE
  1

  9
$STYLESHEET
  1

  9
$XEDIT
290
     1
  9
$CEPSNTYPE
380
     0
  9
$PSTYLEMODE
290
     1
  9
$FINGERPRINTGUID
  2
{B1405A3D-5DD6-4E09-826E-0C4A707A41EC}
  9
$VERSIONGUID
  2
{CB16119B-1BA1-4373-B9D5-170842C8EFC5}
  9
$EXTNAMES
290
     1
  9
$PSVPSCALE
 40
0.0
  9
$OLESTARTUP
290
     0
  0
ENDSEC
  0
SECTION
  2
CLASSES
  0
CLASS
  1
ACDBDICTIONARYWDFLT
  2
AcDbDictionaryWithDefault
  3
ObjectDBX Classes
 90
        0
280
     0
281
     0
  0
CLASS
  1
VISUALSTYLE
  2
AcDbVisualStyle
  3
ObjectDBX Classes
 90
     4095
280
     0
281
     0
  0
CLASS
  1
MATERIAL
  2
AcDbMaterial
  3
ObjectDBX Classes
 90
     1153
280
     0
281
     0
  0
CLASS
  1
SCALE
  2
AcDbScale
  3
ObjectDBX Classes
 90
     1153
280
     0
281
     0
  0
CLASS
  1
TABLESTYLE
  2
AcDbTableStyle
  3
ObjectDBX Classes
 90
     4095
280
     0
281
     0
  0
CLASS
  1
MLEADERSTYLE
  2
AcDbMLeaderStyle
  3
ACDB_MLEADERSTYLE_CLASS
 90
     4095
280
     0
281
     0
  0
CLASS
  1
SUN
  2
AcDbSun
  3
SCENEOE
 90
    33921
280
     0
281
     0
  0
CLASS
  1
DICTIONARYVAR
  2
AcDbDictionaryVar
  3
ObjectDBX Classes
 90
        0
280
     0
281
     0
  0
CLASS
  1
ACDBSECTIONVIEWSTYLE
  2
AcDbSectionViewStyle
  3
ObjectDBX Classes
 90
     1025
280
     0
281
     0
  0
CLASS
  1
ACDBDETAILVIEWSTYLE
  2
AcDbDetailViewStyle
  3
ObjectDBX Classes
 90
     1025
280
     0
281
     0
  0
CLASS
  1
SORTENTSTABLE
  2
AcDbSortentsTable
  3
ObjectDBX Classes
 90
        0
280
     0
281
     0
  0
CLASS
  1
CELLSTYLEMAP
  2
AcDbCellStyleMap
  3
ObjectDBX Classes
 90
     1152
280
     0
281
     0
  0
CLASS
  1
ACDBPLACEHOLDER
  2
AcDbPlaceHolder
  3
ObjectDBX Classes
 90
        0
280
     0
281
     0
  0
CLASS
  1
LAYOUT
  2
AcDbLayout
  3
ObjectDBX Classes
 90
        0
280
     0
281
     0
  0
ENDSEC
  0
SECTION
  2
TABLES
  0
TABLE
  2
VPORT
  5
8
330
0
100
AcDbSymbolTable
 70
     1
  0
VPORT
  5
29
330
8
100
AcDbSymbolTableRecord
100
AcDbViewportTableRecord
  2
*Active
 70
     0
 10
0.0
 20
0.0
 11
1.0
 21
1.0
 12
151.187256754439
 22
210.6668977836339
 13
0.0
 23
0.0
 14
10.0
 24
10.0
 15
10.0
 25
10.0
 16
0.0
 26
0.0
 36
1.0
 17
0.0
 27
0.0
 37
0.0
 40
983.3334645701516
 41
2.204301075268817
 42
50.0
 43
0.0
 44
0.0
 50
0.0
 51
0.0
 71
     0
 72
 20000
 73
     1
 74
     3
 75
     0
 76
     0
 77
     0
 78
     0
281
     0
 65
     1
110
0.0
120
0.0
130
0.0
111
1.0
121
0.0
131
0.0
112
0.0
122
1.0
132
0.0
 79
     0
146
0.0
1001
ACAD_NAV_VCDISPLAY
1070
     3
  0
ENDTAB
  0
TABLE
  2
LTYPE
  5
5
330
0
100
AcDbSymbolTable
 70
     2
  0
LTYPE
  5
14
330
5
100
AcDbSymbolTableRecord
100
AcDbLinetypeTableRecord
  2
ByBlock
 70
     0
  3

 72
    65
 73
     0
 40
0.0
  0
LTYPE
  5
15
330
5
100
AcDbSymbolTableRecord
100
AcDbLinetypeTableRecord
  2
ByLayer
 70
     0
  3

 72
    65
 73
     0
 40
0.0
  0
LTYPE
  5
16
330
5
100
AcDbSymbolTableRecord
100
AcDbLinetypeTableRecord
  2
Continuous
 70
     0
  3
Solid line
 72
    65
 73
     0
 40
0.0
  0
LTYPE
  5
221
330
5
100
AcDbSymbolTableRecord
100
AcDbLinetypeTableRecord
  2
CENTER2
 70
     0
  3
Center (.5x) ___ _ ___ _ ___ _ ___ _ ___ _ ___
 72
    65
 73
     4
 40
28.575
 49
19.05
 74
     0
 49
-3.174999999999998
 74
     0
 49
3.174999999999998
 74
     0
 49
-3.174999999999998
 74
     0
  0
ENDTAB
  0
TABLE
  2
LAYER
  5
2
102
{ACAD_XDICTIONARY
360
227
102
}
330
0
100
AcDbSymbolTable
 70
     4
  0
LAYER
  5
10
102
{ACAD_XDICTIONARY
360
5C1
102
}
330
2
100
AcDbSymbolTableRecord
100
AcDbLayerTableRecord
  2
0
 70
     0
 62
     7
  6
Continuous
370
    -3
390
F
  0
LAYER
  5
66
330
2
100
AcDbSymbolTableRecord
100
AcDbLayerTableRecord
  2
Defpoints
 70
     0
 62
     7
  6
Continuous
290
     0
370
    -3
390
F
  0
LAYER
  5
222
102
{ACAD_XDICTIONARY
360
223
102
}
330
2
100
AcDbSymbolTableRecord
100
AcDbLayerTableRecord
  2
中心線
 70
     0
 62
     3
  6
CENTER2
370
    -3
390
F
  0
LAYER
  5
224
102
{ACAD_XDICTIONARY
360
225
102
}
330
2
100
AcDbSymbolTableRecord
100
AcDbLayerTableRecord
  2
実線
 70
     0
 62
     7
  6
Continuous
370
    -3
390
F
  0
ENDTAB
  0
TABLE
  2
STYLE
  5
3
330
0
100
AcDbSymbolTable
 70
     1
  0
STYLE
  5
11
330
3
100
AcDbSymbolTableRecord
100
AcDbTextStyleTableRecord
  2
Standard
 70
     0
 40
0.0
 41
1.0
 50
0.0
 71
     0
 42
2.5
  3
txt
  4
extfont2
  0
ENDTAB
  0
TABLE
  2
VIEW
  5
6
330
0
100
AcDbSymbolTable
 70
     0
  0
ENDTAB
  0
TABLE
  2
UCS
  5
7
330
0
100
AcDbSymbolTable
 70
     0
  0
ENDTAB
  0
TABLE
  2
APPID
  5
9
330
0
100
AcDbSymbolTable
 70
     4
  0
APPID
  5
12
330
9
100
AcDbSymbolTableRecord
100
AcDbRegAppTableRecord
  2
ACAD
 70
     0
  0
APPID
  5
211
330
9
100
AcDbSymbolTableRecord
100
AcDbRegAppTableRecord
  2
ACAD_MLEADERVER
 70
     0
  0
APPID
  5
226
330
9
100
AcDbSymbolTableRecord
100
AcDbRegAppTableRecord
  2
ACAD_NAV_VCDISPLAY
 70
     0
  0
APPID
  5
5A7
330
9
100
AcDbSymbolTableRecord
100
AcDbRegAppTableRecord
  2
ACAD_EXEMPT_FROM_CAD_STANDARDS
 70
     0
  0
ENDTAB
  0
TABLE
  2
DIMSTYLE
  5
A
330
0
100
AcDbSymbolTable
 70
     1
100
AcDbDimStyleTable
 71
     1
340
27
  0
DIMSTYLE
105
27
330
A
100
AcDbSymbolTableRecord
100
AcDbDimStyleTableRecord
  2
Standard
 70
     0
 41
2.5
 42
0.625
 43
3.75
 44
1.25
 73
     0
 74
     0
 77
     1
140
2.5
141
2.5
143
0.03937007874016
146
0.75
147
0.625
171
     3
172
     1
271
     2
272
     2
274
     3
283
     0
284
     8
340
11
  0
ENDTAB
  0
TABLE
  2
BLOCK_RECORD
  5
1
330
0
100
AcDbSymbolTable
 70
     1
  0
BLOCK_RECORD
  5
1F
102
{ACAD_XDICTIONARY
360
348
102
}
330
1
100
AcDbSymbolTableRecord
100
AcDbBlockTableRecord
  2
*Model_Space
340
22
  0
BLOCK_RECORD
  5
1B
330
1
100
AcDbSymbolTableRecord
100
AcDbBlockTableRecord
  2
*Paper_Space
340
1E
  0
BLOCK_RECORD
  5
23
330
1
100
AcDbSymbolTableRecord
100
AcDbBlockTableRecord
  2
*Paper_Space0
340
21B
  0
ENDTAB
  0
ENDSEC
  0
SECTION
  2
BLOCKS
  0
BLOCK
  5
20
330
1F
100
AcDbEntity
  8
0
100
AcDbBlockBegin
  2
*Model_Space
 70
     0
 10
0.0
 20
0.0
 30
0.0
  3
*Model_Space
  1

  0
ENDBLK
  5
21
330
1F
100
AcDbEntity
  8
0
100
AcDbBlockEnd
  0
BLOCK
  5
1C
330
1B
100
AcDbEntity
 67
     1
  8
0
100
AcDbBlockBegin
  2
*Paper_Space
 70
     0
 10
0.0
 20
0.0
 30
0.0
  3
*Paper_Space
  1

  0
ENDBLK
  5
1D
330
1B
100
AcDbEntity
 67
     1
  8
0
100
AcDbBlockEnd
  0
BLOCK
  5
24
330
23
100
AcDbEntity
 67
     1
  8
0
100
AcDbBlockBegin
  2
*Paper_Space0
 70
     0
 10
0.0
 20
0.0
 30
0.0
  3
*Paper_Space0
  1

  0
ENDBLK
  5
25
330
23
100
AcDbEntity
 67
     1
  8
0
100
AcDbBlockEnd
  0
ENDSEC
  0
SECTION
  2
ENTITIES
  0
ELLIPSE
  5
331
102
{ACAD_REACTORS
330
5BF
102
}
330
1F
100
AcDbEntity
  8
実線
100
AcDbEllipse
 10
246.3220225112104
 20
626.8439535224728
 30
0.0
 11
0.0
 21
25.25
 31
0.0
210
0.0
220
0.0
230
1.0
 40
0.7071067811865475
 41
1.570796326794897
 42
3.141592653589792
  0
LINE
  5
332
102
{ACAD_REACTORS
330
5BF
102
}
330
1F
100
AcDbEntity
  8
実線
100
AcDbLine
 10
246.3220225112104
 20
601.5939535224728
 30
0.0
 11
248.3372768375921
 21
601.5939535224728
 31
0.0
  0
LINE
  5
333
102
{ACAD_REACTORS
330
5BF
102
}
330
1F
100
AcDbEntity
  8
実線
100
AcDbLine
 10
248.3372768375921
 20
652.0939535224727
 30
0.0
 11
246.3220225112104
 21
652.0939535224727
 31
0.0
  0
ELLIPSE
  5
334
102
{ACAD_REACTORS
330
5BF
102
}
330
1F
100
AcDbEntity
  8
実線
100
AcDbEllipse
 10
246.3220225112104
 20
626.8439535224728
 30
0.0
 11
0.0
 21
25.25
 31
0.0
210
0.0
220
0.0
230
1.0
 40
0.7071067811865475
 41
0.0
 42
1.570796326794897
  0
ELLIPSE
  5
335
102
{ACAD_REACTORS
330
5BF
102
}
330
1F
100
AcDbEntity
  8
実線
100
AcDbEllipse
 10
248.3372768375921
 20
626.8439535224728
 30
0.0
 11
0.0
 21
25.25
 31
0.0
210
0.0
220
0.0
230
1.0
 40
0.7071067811865475
 41
6.266933877408638
 42
6.283185307179584
  0
ELLIPSE
  5
336
102
{ACAD_REACTORS
330
5BF
102
}
330
1F
100
AcDbEntity
  8
実線
100
AcDbEllipse
 10
248.3372768375921
 20
626.8439535224728
 30
0.0
 11
0.0
 21
25.25
 31
0.0
210
0.0
220
0.0
230
1.0
 40
0.7071067811865475
 41
3.141592653589792
 42
3.157844083360738
  0
ELLIPSE
  5
337
102
{ACAD_REACTORS
330
5BF
102
}
330
1F
100
AcDbEntity
  8
実線
100
AcDbEllipse
 10
248.3372768375921
 20
626.8439535224728
 30
0.0
 11
0.0
 21
25.25
 31
0.0
210
0.0
220
0.0
230
1.0
 40
0.7071067811865475
 41
0.0
 42
1.570796326794897
  0
ELLIPSE
  5
338
102
{ACAD_REACTORS
330
5BF
102
}
330
1F
100
AcDbEntity
  8
実線
100
AcDbEllipse
 10
248.3372768375921
 20
626.8439535224728
 30
0.0
 11
0.0
 21
25.25
 31
0.0
210
0.0
220
0.0
230
1.0
 40
0.7071067811865475
 41
1.570796326794897
 42
3.141592653589792
  0
ELLIPSE
  5
339
102
{ACAD_REACTORS
330
5BF
102
}
330
1F
100
AcDbEntity
  8
実線
100
AcDbEllipse
 10
251.9788767607029
 20
626.8439535224728
 30
0.0
 11
0.0
 21
12.7
 31
0.0
210
0.0
220
0.0
230
0.9999999999999998
 40
0.7071067811865476
 41
1.570796326794897
 42
2.209891805158451
  0
ELLIPSE
  5
33A
102
{ACAD_REACTORS
330
5BF
102
}
330
1F
100
AcDbEntity
  8
実線
100
AcDbEllipse
 10
251.9788767607029
 20
626.8439535224728
 30
0.0
 11
0.0
 21
12.7
 31
0.0
210
0.0
220
0.0
230
0.9999999999999998
 40
0.7071067811865476
 41
0.9317008484313415
 42
1.570796326794897
  0
CIRCLE
  5
33D
102
{ACAD_REACTORS
330
5BF
102
}
330
1F
100
AcDbEntity
  8
実線
100
AcDbCircle
 10
279.4734943737721
 20
669.2703603936819
 30
0.0
 40
9.5
  0
CIRCLE
  5
340
102
{ACAD_REACTORS
330
5BF
102
}
330
1F
100
AcDbEntity
  8
実線
100
AcDbCircle
 10
279.4734943737702
 20
584.4175466512654
 30
0.0
 40
9.5
  0
CIRCLE
  5
343
102
{ACAD_REACTORS
330
5BF
102
}
330
1F
100
AcDbEntity
  8
実線
100
AcDbCircle
 10
364.3263081161868
 20
584.4175466512632
 30
0.0
 40
9.5
  0
CIRCLE
  5
346
102
{ACAD_REACTORS
330
5BF
102
}
330
1F
100
AcDbEntity
  8
実線
100
AcDbCircle
 10
364.3263081161887
 20
669.2703603936799
 30
0.0
 40
9.5
  0
CIRCLE
  5
347
102
{ACAD_REACTORS
330
5BF
102
}
330
1F
100
AcDbEntity
  8
実線
100
AcDbCircle
 10
321.8999012449796
 20
626.8439535224728
 30
0.0
 40
77.5
  0
ELLIPSE
  5
34A
102
{ACAD_REACTORS
330
60D
102
}
330
1F
100
AcDbEntity
  8
実線
100
AcDbEllipse
 10
260.959132881772
 20
106.8439535224724
 30
0.0
 11
0.0
 21
12.7
 31
0.0
210
0.0
220
0.0
230
0.9999999999999998
 40
0.7071067811865476
 41
3.496724394589699
 42
5.928053566179677
  0
ELLIPSE
  5
34B
102
{ACAD_REACTORS
330
60D
102
}
330
1F
100
AcDbEntity
  8
実線
100
AcDbEllipse
 10
246.3220225112104
 20
106.8439535224724
 30
0.0
 11
0.0
 21
25.25
 31
0.0
210
0.0
220
0.0
230
1.0
 40
0.7071067811865475
 41
0.0
 42
1.570796326794897
  0
LINE
  5
34C
102
{ACAD_REACTORS
330
60D
102
}
330
1F
100
AcDbEntity
  8
実線
100
AcDbLine
 10
246.3220225112104
 20
81.59395352247242
 30
0.0
 11
248.3372768375921
 21
81.59395352247242
 31
0.0
  0
LINE
  5
34D
102
{ACAD_REACTORS
330
60D
102
}
330
1F
100
AcDbEntity
  8
実線
100
AcDbLine
 10
248.3372768375921
 20
132.0939535224725
 30
0.0
 11
246.3220225112104
 21
132.0939535224725
 31
0.0
  0
ELLIPSE
  5
34E
102
{ACAD_REACTORS
330
60D
102
}
330
1F
100
AcDbEntity
  8
実線
100
AcDbEllipse
 10
246.3220225112104
 20
106.8439535224724
 30
0.0
 11
0.0
 21
25.25
 31
0.0
210
0.0
220
0.0
230
1.0
 40
0.7071067811865475
 41
3.141592653589792
 42
6.283185307179584
  0
ELLIPSE
  5
34F
102
{ACAD_REACTORS
330
60D
102
}
330
1F
100
AcDbEntity
  8
実線
100
AcDbEllipse
 10
246.3220225112104
 20
106.8439535224724
 30
0.0
 11
0.0
 21
25.25
 31
0.0
210
0.0
220
0.0
230
1.0
 40
0.7071067811865475
 41
1.570796326794897
 42
3.141592653589792
  0
ELLIPSE
  5
350
102
{ACAD_REACTORS
330
60D
102
}
330
1F
100
AcDbEntity
  8
実線
100
AcDbEllipse
 10
248.3372768375921
 20
106.8439535224724
 30
0.0
 11
0.0
 21
25.25
 31
0.0
210
0.0
220
0.0
230
1.0
 40
0.7071067811865475
 41
3.141592653589792
 42
6.283185307179584
  0
LINE
  5
351
102
{ACAD_REACTORS
330
60D
102
}
330
1F
100
AcDbEntity
  8
実線
100
AcDbLine
 10
263.7689407141804
 20
94.14395352247256
 30
0.0
 11
283.9695703737623
 21
94.14395352247256
 31
0.0
  0
LINE
  5
352
102
{ACAD_REACTORS
330
60D
102
}
330
1F
100
AcDbEntity
  8
実線
100
AcDbLine
 10
283.9695703737623
 20
119.5439535224724
 30
0.0
 11
263.7689407141804
 21
119.5439535224724
 31
0.0
  0
ELLIPSE
  5
353
102
{ACAD_REACTORS
330
60D
102
}
330
1F
100
AcDbEntity
  8
実線
100
AcDbEllipse
 10
260.959132881772
 20
106.8439535224724
 30
0.0
 11
0.0
 21
12.69999999999999
 31
0.0
210
0.0
220
0.0
230
0.9999999999999998
 40
0.7071067811865475
 41
3.496724394589703
 42
5.928053566179677
  0
CIRCLE
  5
354
102
{ACAD_REACTORS
330
60D
102
}
330
1F
100
AcDbEntity
  8
実線
100
AcDbCircle
 10
321.8999012449796
 20
106.8439535224724
 30
0.0
 40
8.0
  0
LINE
  5
355
102
{ACAD_REACTORS
330
60D
102
}
330
1F
100
AcDbEntity
  8
実線
100
AcDbLine
 10
345.1115030729437
 20
87.91908954045066
 30
0.0
 11
315.1507093785817
 21
89.45233485803177
 31
0.0
  0
LINE
  5
356
102
{ACAD_REACTORS
330
60D
102
}
330
1F
100
AcDbEntity
  8
実線
100
AcDbLine
 10
345.1728328856469
 20
89.11752128822515
 30
0.0
 11
345.1115030729437
 21
87.91908954045066
 31
0.0
  0
LINE
  5
357
102
{ACAD_REACTORS
330
60D
102
}
330
1F
100
AcDbEntity
  8
実線
100
AcDbLine
 10
315.2120391912851
 20
90.65076660580627
 30
0.0
 11
345.1728328856469
 21
89.11752128822515
 31
0.0
  0
LINE
  5
358
102
{ACAD_REACTORS
330
60D
102
}
330
1F
100
AcDbEntity
  8
実線
100
AcDbLine
 10
315.1507093785817
 20
89.45233485803177
 30
0.0
 11
315.2120391912851
 21
90.65076660580627
 31
0.0
  0
LINE
  5
359
102
{ACAD_REACTORS
330
60D
102
}
330
1F
100
AcDbEntity
  8
実線
100
AcDbLine
 10
340.3045823041891
 20
91.81986032619496
 30
0.0
 11
346.7960876046342
 21
91.48765717405238
 31
0.0
  0
LINE
  5
35A
102
{ACAD_REACTORS
330
60D
102
}
330
1F
100
AcDbEntity
  8
実線
100
AcDbLine
 10
346.9494121363922
 20
94.48373654348849
 30
0.0
 11
340.4579068359473
 21
94.81593969563105
 31
0.0
  0
LINE
  5
35B
102
{ACAD_REACTORS
330
60D
102
}
330
1F
100
AcDbEntity
  8
実線
100
AcDbLine
 10
346.7960876046342
 20
91.48765717405238
 30
0.0
 11
346.9494121363922
 21
94.48373654348854
 31
0.0
  0
LINE
  5
35C
102
{ACAD_REACTORS
330
60D
102
}
330
1F
100
AcDbEntity
  8
実線
100
AcDbLine
 10
315.6157937915814
 20
98.54044227865488
 30
0.0
 11
340.5831218702163
 21
97.26273784733738
 31
0.0
  0
LINE
  5
35D
102
{ACAD_REACTORS
330
60D
102
}
330
1F
100
AcDbEntity
  8
実線
100
AcDbLine
 10
340.17936726992
 20
89.37306217448869
 30
0.0
 11
340.5831218702163
 21
97.26273784733738
 31
0.0
  0
LINE
  5
35E
102
{ACAD_REACTORS
330
60D
102
}
330
1F
100
AcDbEntity
  8
実線
100
AcDbLine
 10
315.6157937915814
 20
98.54044227865488
 30
0.0
 11
315.2120391912851
 21
90.65076660580627
 31
0.0
  0
CIRCLE
  5
35F
102
{ACAD_REACTORS
330
60D
102
}
330
1F
100
AcDbEntity
  8
実線
100
AcDbCircle
 10
321.8999012449796
 20
106.8439535224724
 30
0.0
 40
40.0
  0
CIRCLE
  5
362
102
{ACAD_REACTORS
330
60D
102
}
330
1F
100
AcDbEntity
  8
実線
100
AcDbCircle
 10
279.4734943737721
 20
64.41754665126331
 30
0.0
 40
9.5
  0
CIRCLE
  5
365
102
{ACAD_REACTORS
330
60D
102
}
330
1F
100
AcDbEntity
  8
実線
100
AcDbCircle
 10
279.4734943737702
 20
149.2703603936798
 30
0.0
 40
9.5
  0
CIRCLE
  5
368
102
{ACAD_REACTORS
330
60D
102
}
330
1F
100
AcDbEntity
  8
実線
100
AcDbCircle
 10
364.3263081161887
 20
64.41754665126524
 30
0.0
 40
9.5
  0
CIRCLE
  5
36B
102
{ACAD_REACTORS
330
60D
102
}
330
1F
100
AcDbEntity
  8
実線
100
AcDbCircle
 10
364.3263081161868
 20
149.2703603936818
 30
0.0
 40
9.5
  0
ARC
  5
36C
102
{ACAD_REACTORS
330
60D
102
}
330
1F
100
AcDbEntity
  8
実線
100
AcDbCircle
 10
321.8999012449796
 20
106.8439535224724
 30
0.0
 40
77.5
100
AcDbArc
 50
199.0118334726643
 51
160.9881665273355
  0
LINE
  5
36D
102
{ACAD_REACTORS
330
60D
102
}
330
1F
100
AcDbEntity
  8
実線
100
AcDbLine
 10
335.6714293380936
 20
99.11618773063343
 30
0.0
 11
345.6583605695475
 21
98.60510595810644
 31
0.0
  0
ARC
  5
370
102
{ACAD_REACTORS
330
60D
102
}
330
1F
100
AcDbEntity
  8
実線
100
AcDbCircle
 10
341.2594167433261
 20
94.82498780998616
 30
0.0
 40
2.0
100
AcDbArc
 50
355.6378971050043
 51
110.6486193207728
  0
LINE
  5
371
102
{ACAD_REACTORS
330
60D
102
}
330
1F
100
AcDbEntity
  8
実線
100
AcDbLine
 10
345.298047919916
 20
91.56431943993146
 30
0.0
 11
345.1728328856469
 21
89.11752128822515
 31
0.0
  0
LINE
  5
372
102
{ACAD_REACTORS
330
60D
102
}
330
1F
100
AcDbEntity
  8
実線
100
AcDbLine
 10
345.6583605695475
 20
98.60510595810644
 30
0.0
 11
345.4513724516742
 21
94.56039880936769
 31
0.0
  0
LINE
  5
373
102
{ACAD_REACTORS
330
60D
102
}
330
1F
100
AcDbEntity
  8
実線
100
AcDbLine
 10
335.5896562544893
 20
97.51827873360086
 30
0.0
 11
335.6714293380936
 21
99.11618773063343
 31
0.0
  0
LINE
  5
374
102
{ACAD_REACTORS
330
60D
102
}
330
1F
100
AcDbEntity
  8
実線
100
AcDbLine
 10
325.1376406100358
 20
88.94125308550476
 30
0.0
 11
324.6623345615856
 21
79.65340704025255
 31
0.0
  0
CIRCLE
  5
377
102
{ACAD_REACTORS
330
60D
102
}
330
1F
100
AcDbEntity
  8
実線
100
AcDbCircle
 10
319.0999012449796
 20
84.44395352247246
 30
0.0
 40
2.0
  0
LINE
  5
378
102
{ACAD_REACTORS
330
60D
102
}
330
1F
100
AcDbEntity
  8
実線
100
AcDbLine
 10
324.6623345615856
 20
79.65340704025255
 30
0.0
 11
314.6754033301318
 21
80.16448881277955
 31
0.0
  0
LINE
  5
379
102
{ACAD_REACTORS
330
60D
102
}
330
1F
100
AcDbEntity
  8
実線
100
AcDbLine
 10
314.6754033301318
 20
80.16448881277955
 30
0.0
 11
315.1507093785817
 21
89.45233485803177
 31
0.0
  0
LINE
  5
37A
102
{ACAD_REACTORS
330
5B1
102
}
330
1F
100
AcDbEntity
  8
実線
100
AcDbLine
 10
840.8011818503249
 20
425.1847218856798
 30
0.0
 11
831.8209257292556
 21
434.164978006749
 31
0.0
  0
LINE
  5
37B
102
{ACAD_REACTORS
330
5B1
102
}
330
1F
100
AcDbEntity
  8
実線
100
AcDbLine
 10
813.8604134871172
 20
416.2044657646108
 30
0.0
 11
822.8406696081867
 21
407.2242096435416
 31
0.0
  0
LINE
  5
37C
102
{ACAD_REACTORS
330
5B1
102
}
330
1F
100
AcDbEntity
  8
実線
100
AcDbLine
 10
831.8209257292556
 20
434.164978006749
 30
0.0
 11
813.8604134871172
 21
416.2044657646108
 31
0.0
  0
LINE
  5
37D
102
{ACAD_REACTORS
330
5B1
102
}
330
1F
100
AcDbEntity
  8
実線
100
AcDbLine
 10
855.3322262037085
 20
428.4020577400788
 30
0.0
 11
853.3169718773269
 21
430.4173120664603
 31
0.0
  0
LINE
  5
37E
102
{ACAD_REACTORS
330
5B1
102
}
330
1F
100
AcDbEntity
  8
実線
100
AcDbLine
 10
817.608079427406
 20
394.7084196165397
 30
0.0
 11
819.6233337537877
 21
392.6931652901582
 31
0.0
  0
LINE
  5
37F
102
{ACAD_REACTORS
330
5B1
102
}
330
1F
100
AcDbEntity
  8
実線
100
AcDbLine
 10
855.3322262037085
 20
428.4020577400788
 30
0.0
 11
819.6233337537877
 21
392.6931652901582
 31
0.0
  0
LINE
  5
380
102
{ACAD_REACTORS
330
5B1
102
}
330
1F
100
AcDbEntity
  8
実線
100
AcDbLine
 10
822.8406696081867
 20
407.2242096435416
 30
0.0
 11
817.608079427406
 21
394.7084196165397
 31
0.0
  0
LINE
  5
381
102
{ACAD_REACTORS
330
5B1
102
}
330
1F
100
AcDbEntity
  8
実線
100
AcDbLine
 10
853.3169718773269
 20
430.4173120664603
 30
0.0
 11
840.8011818503249
 21
425.1847218856798
 31
0.0
  0
LINE
  5
382
102
{ACAD_REACTORS
330
5B1
102
}
330
1F
100
AcDbEntity
  8
実線
100
AcDbLine
 10
817.608079427406
 20
394.7084196165397
 30
0.0
 11
853.3169718773269
 21
430.4173120664603
 31
0.0
  0
LINE
  5
383
102
{ACAD_REACTORS
330
5B1
102
}
330
1F
100
AcDbEntity
  8
実線
100
AcDbLine
 10
822.8406696081867
 20
407.2242096435416
 30
0.0
 11
840.8011818503249
 21
425.1847218856798
 31
0.0
  0
LINE
  5
384
102
{ACAD_REACTORS
330
5B1
102
}
330
1F
100
AcDbEntity
  8
実線
100
AcDbLine
 10
795.8999012449792
 20
449.0439535224724
 30
0.0
 11
795.8999012449792
 21
423.6439535224723
 31
0.0
  0
LINE
  5
385
102
{ACAD_REACTORS
330
5B1
102
}
330
1F
100
AcDbEntity
  8
実線
100
AcDbLine
 10
789.8999012449792
 20
423.6439535224723
 30
0.0
 11
795.8999012449792
 21
423.6439535224723
 31
0.0
  0
LINE
  5
386
102
{ACAD_REACTORS
330
5B1
102
}
330
1F
100
AcDbEntity
  8
実線
100
AcDbLine
 10
795.8999012449792
 20
449.0439535224724
 30
0.0
 11
789.8999012449792
 21
449.0439535224724
 31
0.0
  0
ARC
  5
387
102
{ACAD_REACTORS
330
5B1
102
}
330
1F
100
AcDbEntity
  8
実線
100
AcDbCircle
 10
795.8999012449792
 20
398.2439535224725
 30
0.0
 40
50.8
100
AcDbArc
 50
44.99999999999984
 51
90.0
  0
ARC
  5
388
102
{ACAD_REACTORS
330
5B1
102
}
330
1F
100
AcDbEntity
  8
実線
100
AcDbCircle
 10
795.8999012449792
 20
398.2439535224725
 30
0.0
 40
25.40000000000001
100
AcDbArc
 50
44.99999999999984
 51
90.0
  0
LINE
  5
389
102
{ACAD_REACTORS
330
5B1
102
}
330
1F
100
AcDbEntity
  8
実線
100
AcDbLine
 10
721.8999012449792
 20
402.6439535224723
 30
0.0
 11
721.8999012449792
 21
316.7439535224725
 31
0.0
  0
LINE
  5
38A
102
{ACAD_REACTORS
330
5B1
102
}
330
1F
100
AcDbEntity
  8
実線
100
AcDbLine
 10
801.8999012449793
 20
316.7439535224725
 30
0.0
 11
801.8999012449793
 21
402.6439535224723
 31
0.0
  0
LINE
  5
38B
102
{ACAD_REACTORS
330
5B1
102
}
330
1F
100
AcDbEntity
  8
実線
100
AcDbLine
 10
769.8999012449792
 20
290.7439535224725
 30
0.0
 11
769.8999012449792
 21
297.2439535224725
 31
0.0
  0
LINE
  5
38C
102
{ACAD_REACTORS
330
5B1
102
}
330
1F
100
AcDbEntity
  8
実線
100
AcDbLine
 10
768.6490931113771
 20
290.7439535224725
 30
0.0
 11
769.8999012449792
 21
290.7439535224725
 31
0.0
  0
LINE
  5
38D
102
{ACAD_REACTORS
330
5B1
102
}
330
1F
100
AcDbEntity
  8
実線
100
AcDbLine
 10
768.6490931113771
 20
297.2439535224725
 30
0.0
 11
769.8999012449792
 21
297.2439535224725
 31
0.0
  0
LINE
  5
38E
102
{ACAD_REACTORS
330
5B1
102
}
330
1F
100
AcDbEntity
  8
実線
100
AcDbLine
 10
738.6269696043116
 20
286.7439535224725
 30
0.0
 11
768.6490931113771
 21
286.7439535224725
 31
0.0
  0
LINE
  5
38F
102
{ACAD_REACTORS
330
5B1
102
}
330
1F
100
AcDbEntity
  8
実線
100
AcDbLine
 10
738.6269696043116
 20
286.7439535224725
 30
0.0
 11
738.6269696043116
 21
311.7439535224725
 31
0.0
  0
LINE
  5
390
102
{ACAD_REACTORS
330
5B1
102
}
330
1F
100
AcDbEntity
  8
実線
100
AcDbLine
 10
738.688299417015
 20
311.7439535224725
 30
0.0
 11
738.688299417015
 21
286.7439535224725
 31
0.0
  0
LINE
  5
391
102
{ACAD_REACTORS
330
5B1
102
}
330
1F
100
AcDbEntity
  8
実線
100
AcDbLine
 10
768.6490931113771
 20
310.5439535224725
 30
0.0
 11
768.6490931113771
 21
286.7439535224725
 31
0.0
  0
ELLIPSE
  5
392
102
{ACAD_REACTORS
330
5B1
102
}
330
1F
100
AcDbEntity
  8
実線
100
AcDbEllipse
 10
736.9270526194455
 20
304.2439535224725
 30
0.0
 11
0.0
 21
1.5
 31
0.0
210
0.0
220
0.0
230
1.0
 40
0.051108177252701
 41
0.0
 42
1.570796326794897
  0
LINE
  5
393
102
{ACAD_REACTORS
330
5B1
102
}
330
1F
100
AcDbEntity
  8
実線
100
AcDbLine
 10
738.6269696043116
 20
305.7439535224725
 30
0.0
 11
736.9270526194455
 21
305.7439535224725
 31
0.0
  0
LINE
  5
394
102
{ACAD_REACTORS
330
5B1
102
}
330
1F
100
AcDbEntity
  8
実線
100
AcDbLine
 10
736.9270526194455
 20
302.7439535224726
 30
0.0
 11
738.6269696043116
 21
302.7439535224726
 31
0.0
  0
ELLIPSE
  5
395
102
{ACAD_REACTORS
330
5B1
102
}
330
1F
100
AcDbEntity
  8
実線
100
AcDbEllipse
 10
736.9270526194455
 20
304.2439535224725
 30
0.0
 11
0.0
 21
1.5
 31
0.0
210
0.0
220
0.0
230
1.0
 40
0.051108177252701
 41
3.14159265358979
 42
6.283185307179584
  0
ELLIPSE
  5
396
102
{ACAD_REACTORS
330
5B1
102
}
330
1F
100
AcDbEntity
  8
実線
100
AcDbEllipse
 10
736.9270526194455
 20
304.2439535224725
 30
0.0
 11
0.0
 21
1.5
 31
0.0
210
0.0
220
0.0
230
1.0
 40
0.051108177252701
 41
1.570796326794897
 42
3.14159265358979
  0
LINE
  5
397
102
{ACAD_REACTORS
330
5B1
102
}
330
1F
100
AcDbEntity
  8
実線
100
AcDbLine
 10
738.6269696043116
 20
295.2439535224725
 30
0.0
 11
736.9270526194455
 21
295.2439535224725
 31
0.0
  0
LINE
  5
398
102
{ACAD_REACTORS
330
5B1
102
}
330
1F
100
AcDbEntity
  8
実線
100
AcDbLine
 10
736.9270526194455
 20
292.2439535224726
 30
0.0
 11
738.6269696043116
 21
292.2439535224726
 31
0.0
  0
ELLIPSE
  5
399
102
{ACAD_REACTORS
330
5B1
102
}
330
1F
100
AcDbEntity
  8
実線
100
AcDbEllipse
 10
736.9270526194455
 20
293.7439535224725
 30
0.0
 11
0.0
 21
1.5
 31
0.0
210
0.0
220
0.0
230
1.0
 40
0.051108177252701
 41
3.14159265358979
 42
6.283185307179584
  0
ELLIPSE
  5
39A
102
{ACAD_REACTORS
330
5B1
102
}
330
1F
100
AcDbEntity
  8
実線
100
AcDbEllipse
 10
736.9270526194455
 20
293.7439535224725
 30
0.0
 11
0.0
 21
1.5
 31
0.0
210
0.0
220
0.0
230
1.0
 40
0.051108177252701
 41
1.570796326794897
 42
3.14159265358979
  0
ELLIPSE
  5
39B
102
{ACAD_REACTORS
330
5B1
102
}
330
1F
100
AcDbEntity
  8
実線
100
AcDbEllipse
 10
736.9270526194455
 20
293.7439535224725
 30
0.0
 11
0.0
 21
1.5
 31
0.0
210
0.0
220
0.0
230
1.0
 40
0.051108177252701
 41
0.0
 42
1.570796326794897
  0
LINE
  5
39C
102
{ACAD_REACTORS
330
5B1
102
}
330
1F
100
AcDbEntity
  8
実線
100
AcDbLine
 10
789.8999012449792
 20
450.8439535224725
 30
0.0
 11
789.8999012449792
 21
415.6439535224722
 31
0.0
  0
LINE
  5
39D
102
{ACAD_REACTORS
330
5B1
102
}
330
1F
100
AcDbEntity
  8
実線
100
AcDbLine
 10
733.8999012449789
 20
450.8439535224725
 30
0.0
 11
733.8999012449789
 21
415.6439535224722
 31
0.0
  0
LINE
  5
39E
102
{ACAD_REACTORS
330
5B1
102
}
330
1F
100
AcDbEntity
  8
実線
100
AcDbLine
 10
755.8999012449792
 20
425.6439535224723
 30
0.0
 11
733.8999012449789
 21
425.6439535224723
 31
0.0
  0
LINE
  5
39F
102
{ACAD_REACTORS
330
5B1
102
}
330
1F
100
AcDbEntity
  8
実線
100
AcDbLine
 10
733.8999012449789
 20
415.6439535224722
 30
0.0
 11
789.8999012449792
 21
415.6439535224722
 31
0.0
  0
LINE
  5
3A0
102
{ACAD_REACTORS
330
5B1
102
}
330
1F
100
AcDbEntity
  8
実線
100
AcDbLine
 10
767.8999012449792
 20
425.6439535224723
 30
0.0
 11
789.8999012449792
 21
425.6439535224723
 31
0.0
  0
LINE
  5
3A1
102
{ACAD_REACTORS
330
5B1
102
}
330
1F
100
AcDbEntity
  8
実線
100
AcDbLine
 10
767.8999012449792
 20
450.8439535224725
 30
0.0
 11
767.8999012449792
 21
425.6439535224723
 31
0.0
  0
LINE
  5
3A2
102
{ACAD_REACTORS
330
5B1
102
}
330
1F
100
AcDbEntity
  8
実線
100
AcDbLine
 10
755.8999012449792
 20
450.8439535224725
 30
0.0
 11
755.8999012449792
 21
425.6439535224723
 31
0.0
  0
LINE
  5
3A3
102
{ACAD_REACTORS
330
5B1
102
}
330
1F
100
AcDbEntity
  8
実線
100
AcDbLine
 10
801.8999012449793
 20
403.6439535224722
 30
0.0
 11
789.8999012449792
 21
415.6439535224722
 31
0.0
  0
LINE
  5
3A4
102
{ACAD_REACTORS
330
5B1
102
}
330
1F
100
AcDbEntity
  8
実線
100
AcDbLine
 10
721.8999012449792
 20
403.6439535224722
 30
0.0
 11
721.8999012449792
 21
402.6439535224723
 31
0.0
  0
LINE
  5
3A5
102
{ACAD_REACTORS
330
5B1
102
}
330
1F
100
AcDbEntity
  8
実線
100
AcDbLine
 10
801.8999012449793
 20
402.6439535224723
 30
0.0
 11
801.8999012449793
 21
403.6439535224722
 31
0.0
  0
LINE
  5
3A6
102
{ACAD_REACTORS
330
5B1
102
}
330
1F
100
AcDbEntity
  8
実線
100
AcDbLine
 10
721.8999012449792
 20
403.6439535224722
 30
0.0
 11
733.8999012449789
 21
415.6439535224722
 31
0.0
  0
LINE
  5
3A7
102
{ACAD_REACTORS
330
5B1
102
}
330
1F
100
AcDbEntity
  8
実線
100
AcDbLine
 10
721.8999012449792
 20
402.6439535224723
 30
0.0
 11
801.8999012449793
 21
402.6439535224723
 31
0.0
  0
ARC
  5
3A8
102
{ACAD_REACTORS
330
5B1
102
}
330
1F
100
AcDbEntity
  8
実線
100
AcDbCircle
 10
761.8999012449791
 20
443.6439535224724
 30
0.0
 40
40.0
100
AcDbArc
 50
224.9999999999999
 51
315.0000000000002
  0
LINE
  5
3A9
102
{ACAD_REACTORS
330
5B1
102
}
330
1F
100
AcDbEntity
  8
実線
100
AcDbLine
 10
726.8999012449792
 20
311.7439535224725
 30
0.0
 11
796.8999012449792
 21
311.7439535224725
 31
0.0
  0
ARC
  5
3AA
102
{ACAD_REACTORS
330
5B1
102
}
330
1F
100
AcDbEntity
  8
実線
100
AcDbCircle
 10
726.8999012449792
 20
316.7439535224725
 30
0.0
 40
5.0
100
AcDbArc
 50
180.0
 51
270.0
  0
ARC
  5
3AB
102
{ACAD_REACTORS
330
5B1
102
}
330
1F
100
AcDbEntity
  8
実線
100
AcDbCircle
 10
796.8999012449792
 20
316.7439535224725
 30
0.0
 40
5.0
100
AcDbArc
 50
270.0
 51
0.0
  0
LINE
  5
3AC
102
{ACAD_REACTORS
330
5B1
102
}
330
1F
100
AcDbEntity
  8
実線
100
AcDbLine
 10
721.8999012449792
 20
316.7439535224725
 30
0.0
 11
801.8999012449793
 21
316.7439535224725
 31
0.0
  0
LINE
  5
3AD
102
{ACAD_REACTORS
330
5B1
102
}
330
1F
100
AcDbEntity
  8
実線
100
AcDbLine
 10
684.3999012449792
 20
450.8439535224725
 30
0.0
 11
839.3999012449793
 21
450.8439535224725
 31
0.0
  0
LINE
  5
3AE
102
{ACAD_REACTORS
330
5B1
102
}
330
1F
100
AcDbEntity
  8
実線
100
AcDbLine
 10
839.3999012449793
 20
466.8439535224726
 30
0.0
 11
684.3999012449792
 21
466.8439535224726
 31
0.0
  0
LINE
  5
3AF
102
{ACAD_REACTORS
330
5B1
102
}
330
1F
100
AcDbEntity
  8
実線
100
AcDbLine
 10
839.3999012449793
 20
450.8439535224725
 30
0.0
 11
839.3999012449793
 21
466.8439535224726
 31
0.0
  0
LINE
  5
3B0
102
{ACAD_REACTORS
330
5B1
102
}
330
1F
100
AcDbEntity
  8
実線
100
AcDbLine
 10
684.3999012449792
 20
466.8439535224726
 30
0.0
 11
684.3999012449792
 21
450.8439535224725
 31
0.0
  0
LINE
  5
3B1
102
{ACAD_REACTORS
330
5B1
102
}
330
1F
100
AcDbEntity
  8
実線
100
AcDbLine
 10
738.1414419204111
 20
310.5439535224725
 30
0.0
 11
738.6269696043116
 21
310.5439535224725
 31
0.0
  0
LINE
  5
3B2
102
{ACAD_REACTORS
330
5B1
102
}
330
1F
100
AcDbEntity
  8
実線
100
AcDbLine
 10
738.1414419204111
 20
311.7439535224725
 30
0.0
 11
738.1414419204111
 21
310.5439535224725
 31
0.0
  0
LINE
  5
3B3
102
{ACAD_REACTORS
330
5B1
102
}
330
1F
100
AcDbEntity
  8
実線
100
AcDbLine
 10
758.6621618799227
 20
310.5439535224725
 30
0.0
 11
769.1243991598271
 21
310.5439535224725
 31
0.0
  0
LINE
  5
3B4
102
{ACAD_REACTORS
330
5B1
102
}
330
1F
100
AcDbEntity
  8
実線
100
AcDbLine
 10
758.6621618799227
 20
311.7439535224725
 30
0.0
 11
758.6621618799227
 21
310.5439535224725
 31
0.0
  0
LINE
  5
3B5
102
{ACAD_REACTORS
330
5B1
102
}
330
1F
100
AcDbEntity
  8
実線
100
AcDbLine
 10
759.1374679283727
 20
311.7439535224725
 30
0.0
 11
759.1374679283727
 21
310.5439535224725
 31
0.0
  0
LINE
  5
3B6
102
{ACAD_REACTORS
330
5B1
102
}
330
1F
100
AcDbEntity
  8
実線
100
AcDbLine
 10
769.1243991598271
 20
311.7439535224725
 30
0.0
 11
769.1243991598271
 21
310.5439535224725
 31
0.0
  0
LINE
  5
3B7
102
{ACAD_REACTORS
330
6E6
102
}
330
1F
100
AcDbEntity
  8
実線
100
AcDbLine
 10
535.8999012449794
 20
311.7439535224725
 30
0.0
 11
535.8999012449794
 21
297.2439535224724
 31
0.0
  0
LINE
  5
3B8
102
{ACAD_REACTORS
330
6E6
102
}
330
1F
100
AcDbEntity
  8
実線
100
AcDbLine
 10
547.8999012449794
 20
297.2439535224724
 30
0.0
 11
547.8999012449794
 21
311.7439535224725
 31
0.0
  0
LINE
  5
3B9
102
{ACAD_REACTORS
330
6E6
102
}
330
1F
100
AcDbEntity
  8
実線
100
AcDbLine
 10
501.8999012449794
 20
402.6439535224723
 30
0.0
 11
501.8999012449794
 21
316.7439535224724
 31
0.0
  0
LINE
  5
3BA
102
{ACAD_REACTORS
330
6E6
102
}
330
1F
100
AcDbEntity
  8
実線
100
AcDbLine
 10
581.8999012449794
 20
316.7439535224724
 30
0.0
 11
581.8999012449794
 21
402.6439535224723
 31
0.0
  0
LINE
  5
3BB
102
{ACAD_REACTORS
330
6E6
102
}
330
1F
100
AcDbEntity
  8
実線
100
AcDbLine
 10
533.8999012449794
 20
290.7439535224725
 30
0.0
 11
549.8999012449794
 21
290.7439535224725
 31
0.0
  0
LINE
  5
3BC
102
{ACAD_REACTORS
330
6E6
102
}
330
1F
100
AcDbEntity
  8
実線
100
AcDbLine
 10
549.8999012449794
 20
297.2439535224724
 30
0.0
 11
533.8999012449794
 21
297.2439535224724
 31
0.0
  0
LINE
  5
3BD
102
{ACAD_REACTORS
330
6E6
102
}
330
1F
100
AcDbEntity
  8
実線
100
AcDbLine
 10
533.8999012449794
 20
297.2439535224724
 30
0.0
 11
533.8999012449794
 21
290.7439535224725
 31
0.0
  0
LINE
  5
3BE
102
{ACAD_REACTORS
330
6E6
102
}
330
1F
100
AcDbEntity
  8
実線
100
AcDbLine
 10
549.8999012449794
 20
290.7439535224725
 30
0.0
 11
549.8999012449794
 21
297.2439535224724
 31
0.0
  0
LINE
  5
3BF
102
{ACAD_REACTORS
330
6E6
102
}
330
1F
100
AcDbEntity
  8
実線
100
AcDbLine
 10
558.0930881616458
 20
286.7439535224725
 30
0.0
 11
560.824765227001
 21
286.7439535224725
 31
0.0
  0
LINE
  5
3C0
102
{ACAD_REACTORS
330
6E6
102
}
330
1F
100
AcDbEntity
  8
実線
100
AcDbLine
 10
558.0930881616458
 20
289.7939535224724
 30
0.0
 11
558.0930881616458
 21
286.7439535224725
 31
0.0
  0
LINE
  5
3C1
102
{ACAD_REACTORS
330
6E6
102
}
330
1F
100
AcDbEntity
  8
実線
100
AcDbLine
 10
558.0930881616458
 20
300.2939535224724
 30
0.0
 11
558.0930881616458
 21
297.6939535224724
 31
0.0
  0
LINE
  5
3C2
102
{ACAD_REACTORS
330
6E6
102
}
330
1F
100
AcDbEntity
  8
実線
100
AcDbLine
 10
558.0930881616458
 20
310.5439535224724
 30
0.0
 11
558.0930881616458
 21
308.1939535224726
 31
0.0
  0
LINE
  5
3C3
102
{ACAD_REACTORS
330
6E6
102
}
330
1F
100
AcDbEntity
  8
実線
100
AcDbLine
 10
559.6263334792268
 20
286.7439535224725
 30
0.0
 11
559.6263334792268
 21
311.7439535224725
 31
0.0
  0
LINE
  5
3C4
102
{ACAD_REACTORS
330
6E6
102
}
330
1F
100
AcDbEntity
  8
実線
100
AcDbLine
 10
560.824765227001
 20
311.7439535224725
 30
0.0
 11
560.824765227001
 21
286.7439535224725
 31
0.0
  0
LINE
  5
3C5
102
{ACAD_REACTORS
330
6E6
102
}
330
1F
100
AcDbEntity
  8
実線
100
AcDbLine
 10
559.370792592963
 20
308.1939535224726
 30
0.0
 11
550.2034124887972
 21
308.1939535224726
 31
0.0
  0
LINE
  5
3C6
102
{ACAD_REACTORS
330
6E6
102
}
330
1F
100
AcDbEntity
  8
実線
100
AcDbLine
 10
559.370792592963
 20
300.2939535224724
 30
0.0
 11
550.2034124887972
 21
300.2939535224724
 31
0.0
  0
LINE
  5
3C7
102
{ACAD_REACTORS
330
6E6
102
}
330
1F
100
AcDbEntity
  8
実線
100
AcDbLine
 10
559.370792592963
 20
308.1939535224726
 30
0.0
 11
559.370792592963
 21
300.2939535224724
 31
0.0
  0
LINE
  5
3C8
102
{ACAD_REACTORS
330
6E6
102
}
330
1F
100
AcDbEntity
  8
実線
100
AcDbLine
 10
551.4811169201147
 20
300.2939535224724
 30
0.0
 11
551.4811169201147
 21
308.1939535224724
 31
0.0
  0
LINE
  5
3C9
102
{ACAD_REACTORS
330
6E6
102
}
330
1F
100
AcDbEntity
  8
実線
100
AcDbLine
 10
550.2034124887972
 20
308.1939535224726
 30
0.0
 11
550.2034124887972
 21
300.2939535224724
 31
0.0
  0
ELLIPSE
  5
3CA
102
{ACAD_REACTORS
330
6E6
102
}
330
1F
100
AcDbEntity
  8
実線
100
AcDbEllipse
 10
555.7581579086813
 20
304.2439535224724
 30
0.0
 11
0.0
 21
1.5
 31
0.0
210
0.0
220
0.0
230
1.0
 40
0.9986931231453969
 41
0.0
 42
1.570796326794897
  0
LINE
  5
3CB
102
{ACAD_REACTORS
330
6E6
102
}
330
1F
100
AcDbEntity
  8
実線
100
AcDbLine
 10
555.4259547565388
 20
302.7439535224726
 30
0.0
 11
555.7581579086813
 21
302.7439535224726
 31
0.0
  0
LINE
  5
3CC
102
{ACAD_REACTORS
330
6E6
102
}
330
1F
100
AcDbEntity
  8
実線
100
AcDbLine
 10
555.7581579086813
 20
305.7439535224725
 30
0.0
 11
555.4259547565388
 21
305.7439535224725
 31
0.0
  0
ELLIPSE
  5
3CD
102
{ACAD_REACTORS
330
6E6
102
}
330
1F
100
AcDbEntity
  8
実線
100
AcDbEllipse
 10
555.7581579086813
 20
304.2439535224724
 30
0.0
 11
0.0
 21
1.5
 31
0.0
210
0.0
220
0.0
230
1.0
 40
0.9986931231453969
 41
3.141592653589792
 42
6.283185307179584
  0
ELLIPSE
  5
3CE
102
{ACAD_REACTORS
330
6E6
102
}
330
1F
100
AcDbEntity
  8
実線
100
AcDbEllipse
 10
555.7581579086813
 20
304.2439535224724
 30
0.0
 11
0.0
 21
1.5
 31
0.0
210
0.0
220
0.0
230
1.0
 40
0.9986931231453969
 41
1.570796326794897
 42
3.141592653589792
  0
ELLIPSE
  5
3CF
102
{ACAD_REACTORS
330
6E6
102
}
330
1F
100
AcDbEntity
  8
実線
100
AcDbEllipse
 10
555.4259547565388
 20
304.2439535224724
 30
0.0
 11
0.0
 21
1.5
 31
0.0
210
0.0
220
0.0
230
1.0
 40
0.9986931231453969
 41
0.0
 42
3.141592653589792
  0
ELLIPSE
  5
3D0
102
{ACAD_REACTORS
330
6E6
102
}
330
1F
100
AcDbEntity
  8
実線
100
AcDbEllipse
 10
555.7581579086813
 20
293.7439535224724
 30
0.0
 11
0.0
 21
1.5
 31
0.0
210
0.0
220
0.0
230
1.0
 40
0.9986931231453969
 41
0.0
 42
1.570796326794897
  0
LINE
  5
3D1
102
{ACAD_REACTORS
330
6E6
102
}
330
1F
100
AcDbEntity
  8
実線
100
AcDbLine
 10
555.4259547565388
 20
292.2439535224726
 30
0.0
 11
555.7581579086813
 21
292.2439535224726
 31
0.0
  0
LINE
  5
3D2
102
{ACAD_REACTORS
330
6E6
102
}
330
1F
100
AcDbEntity
  8
実線
100
AcDbLine
 10
555.7581579086813
 20
295.2439535224725
 30
0.0
 11
555.4259547565388
 21
295.2439535224725
 31
0.0
  0
ELLIPSE
  5
3D3
102
{ACAD_REACTORS
330
6E6
102
}
330
1F
100
AcDbEntity
  8
実線
100
AcDbEllipse
 10
555.7581579086813
 20
293.7439535224724
 30
0.0
 11
0.0
 21
1.5
 31
0.0
210
0.0
220
0.0
230
1.0
 40
0.9986931231453969
 41
3.141592653589792
 42
6.283185307179584
  0
ELLIPSE
  5
3D4
102
{ACAD_REACTORS
330
6E6
102
}
330
1F
100
AcDbEntity
  8
実線
100
AcDbEllipse
 10
555.7581579086813
 20
293.7439535224724
 30
0.0
 11
0.0
 21
1.5
 31
0.0
210
0.0
220
0.0
230
1.0
 40
0.9986931231453969
 41
1.570796326794897
 42
3.141592653589792
  0
ELLIPSE
  5
3D5
102
{ACAD_REACTORS
330
6E6
102
}
330
1F
100
AcDbEntity
  8
実線
100
AcDbEllipse
 10
555.4259547565388
 20
293.7439535224724
 30
0.0
 11
0.0
 21
1.5
 31
0.0
210
0.0
220
0.0
230
1.0
 40
0.9986931231453969
 41
0.0
 42
3.141592653589792
  0
LINE
  5
3D6
102
{ACAD_REACTORS
330
6E6
102
}
330
1F
100
AcDbEntity
  8
実線
100
AcDbLine
 10
559.370792592963
 20
297.6939535224724
 30
0.0
 11
550.2034124887972
 21
297.6939535224724
 31
0.0
  0
LINE
  5
3D7
102
{ACAD_REACTORS
330
6E6
102
}
330
1F
100
AcDbEntity
  8
実線
100
AcDbLine
 10
559.370792592963
 20
289.7939535224724
 30
0.0
 11
550.2034124887972
 21
289.7939535224724
 31
0.0
  0
LINE
  5
3D8
102
{ACAD_REACTORS
330
6E6
102
}
330
1F
100
AcDbEntity
  8
実線
100
AcDbLine
 10
559.370792592963
 20
297.6939535224724
 30
0.0
 11
559.370792592963
 21
289.7939535224724
 31
0.0
  0
LINE
  5
3D9
102
{ACAD_REACTORS
330
6E6
102
}
330
1F
100
AcDbEntity
  8
実線
100
AcDbLine
 10
551.4811169201147
 20
289.7939535224724
 30
0.0
 11
551.4811169201147
 21
297.6939535224724
 31
0.0
  0
LINE
  5
3DA
102
{ACAD_REACTORS
330
6E6
102
}
330
1F
100
AcDbEntity
  8
実線
100
AcDbLine
 10
550.2034124887972
 20
297.6939535224724
 30
0.0
 11
550.2034124887972
 21
289.7939535224724
 31
0.0
  0
LINE
  5
3DB
102
{ACAD_REACTORS
330
6E6
102
}
330
1F
100
AcDbEntity
  8
実線
100
AcDbLine
 10
569.8999012449794
 20
450.8439535224723
 30
0.0
 11
569.8999012449794
 21
415.6439535224721
 31
0.0
  0
LINE
  5
3DC
102
{ACAD_REACTORS
330
6E6
102
}
330
1F
100
AcDbEntity
  8
実線
100
AcDbLine
 10
513.8999012449794
 20
450.8439535224723
 30
0.0
 11
513.8999012449794
 21
415.6439535224721
 31
0.0
  0
LINE
  5
3DD
102
{ACAD_REACTORS
330
6E6
102
}
330
1F
100
AcDbEntity
  8
実線
100
AcDbLine
 10
527.8999012449794
 20
450.8439535224723
 30
0.0
 11
527.8999012449794
 21
425.6439535224723
 31
0.0
  0
LINE
  5
3DE
102
{ACAD_REACTORS
330
6E6
102
}
330
1F
100
AcDbEntity
  8
実線
100
AcDbLine
 10
569.8999012449794
 20
425.6439535224723
 30
0.0
 11
555.8999012449794
 21
425.6439535224723
 31
0.0
  0
LINE
  5
3DF
102
{ACAD_REACTORS
330
6E6
102
}
330
1F
100
AcDbEntity
  8
実線
100
AcDbLine
 10
555.8999012449794
 20
450.8439535224723
 30
0.0
 11
555.8999012449794
 21
425.6439535224723
 31
0.0
  0
LINE
  5
3E0
102
{ACAD_REACTORS
330
6E6
102
}
330
1F
100
AcDbEntity
  8
実線
100
AcDbLine
 10
513.8999012449794
 20
425.6439535224723
 30
0.0
 11
527.8999012449794
 21
425.6439535224723
 31
0.0
  0
LINE
  5
3E1
102
{ACAD_REACTORS
330
6E6
102
}
330
1F
100
AcDbEntity
  8
実線
100
AcDbLine
 10
513.8999012449794
 20
415.6439535224721
 30
0.0
 11
569.8999012449794
 21
415.6439535224721
 31
0.0
  0
LINE
  5
3E2
102
{ACAD_REACTORS
330
6E6
102
}
330
1F
100
AcDbEntity
  8
実線
100
AcDbLine
 10
581.8999012449794
 20
403.6439535224721
 30
0.0
 11
569.8999012449794
 21
415.6439535224721
 31
0.0
  0
LINE
  5
3E3
102
{ACAD_REACTORS
330
6E6
102
}
330
1F
100
AcDbEntity
  8
実線
100
AcDbLine
 10
501.8999012449794
 20
403.6439535224721
 30
0.0
 11
501.8999012449794
 21
402.6439535224723
 31
0.0
  0
LINE
  5
3E4
102
{ACAD_REACTORS
330
6E6
102
}
330
1F
100
AcDbEntity
  8
実線
100
AcDbLine
 10
581.8999012449794
 20
402.6439535224723
 30
0.0
 11
581.8999012449794
 21
403.6439535224721
 31
0.0
  0
LINE
  5
3E5
102
{ACAD_REACTORS
330
6E6
102
}
330
1F
100
AcDbEntity
  8
実線
100
AcDbLine
 10
501.8999012449794
 20
403.6439535224721
 30
0.0
 11
513.8999012449794
 21
415.6439535224721
 31
0.0
  0
LINE
  5
3E6
102
{ACAD_REACTORS
330
6E6
102
}
330
1F
100
AcDbEntity
  8
実線
100
AcDbLine
 10
501.8999012449794
 20
402.6439535224723
 30
0.0
 11
581.8999012449794
 21
402.6439535224723
 31
0.0
  0
ARC
  5
3E7
102
{ACAD_REACTORS
330
6E6
102
}
330
1F
100
AcDbEntity
  8
実線
100
AcDbCircle
 10
541.8999012449794
 20
443.6439535224723
 30
0.0
 40
40.0
100
AcDbArc
 50
225.0000000000001
 51
314.9999999999999
  0
LINE
  5
3E8
102
{ACAD_REACTORS
330
6E6
102
}
330
1F
100
AcDbEntity
  8
実線
100
AcDbLine
 10
506.8999012449793
 20
311.7439535224725
 30
0.0
 11
576.8999012449794
 21
311.7439535224725
 31
0.0
  0
LINE
  5
3E9
102
{ACAD_REACTORS
330
6E6
102
}
330
1F
100
AcDbEntity
  8
実線
100
AcDbLine
 10
501.8999012449794
 20
316.7439535224724
 30
0.0
 11
581.8999012449794
 21
316.7439535224724
 31
0.0
  0
ARC
  5
3EA
102
{ACAD_REACTORS
330
6E6
102
}
330
1F
100
AcDbEntity
  8
実線
100
AcDbCircle
 10
506.8999012449793
 20
316.7439535224724
 30
0.0
 40
5.0
100
AcDbArc
 50
180.0
 51
270.0
  0
ARC
  5
3EB
102
{ACAD_REACTORS
330
6E6
102
}
330
1F
100
AcDbEntity
  8
実線
100
AcDbCircle
 10
576.8999012449794
 20
316.7439535224724
 30
0.0
 40
5.0
100
AcDbArc
 50
270.0
 51
0.0
  0
LINE
  5
3EC
102
{ACAD_REACTORS
330
6E6
102
}
330
1F
100
AcDbEntity
  8
実線
100
AcDbLine
 10
619.3999012449794
 20
450.8439535224723
 30
0.0
 11
464.3999012449794
 21
450.8439535224723
 31
0.0
  0
LINE
  5
3ED
102
{ACAD_REACTORS
330
6E6
102
}
330
1F
100
AcDbEntity
  8
実線
100
AcDbLine
 10
619.3999012449794
 20
450.8439535224723
 30
0.0
 11
619.3999012449794
 21
466.8439535224725
 31
0.0
  0
LINE
  5
3EE
102
{ACAD_REACTORS
330
6E6
102
}
330
1F
100
AcDbEntity
  8
実線
100
AcDbLine
 10
464.3999012449794
 20
466.8439535224725
 30
0.0
 11
464.3999012449794
 21
450.8439535224723
 31
0.0
  0
LINE
  5
3EF
102
{ACAD_REACTORS
330
6E6
102
}
330
1F
100
AcDbEntity
  8
実線
100
AcDbLine
 10
619.3999012449794
 20
466.8439535224725
 30
0.0
 11
464.3999012449794
 21
466.8439535224725
 31
0.0
  0
LINE
  5
3F0
102
{ACAD_REACTORS
330
6E6
102
}
330
1F
100
AcDbEntity
  8
実線
100
AcDbLine
 10
559.6263334792268
 20
310.5439535224724
 30
0.0
 11
549.6276670368184
 21
310.5439535224724
 31
0.0
  0
LINE
  5
3F1
102
{ACAD_REACTORS
330
6E6
102
}
330
1F
100
AcDbEntity
  8
実線
100
AcDbLine
 10
549.6276670368184
 20
311.7439535224725
 30
0.0
 11
549.6276670368184
 21
310.5439535224724
 31
0.0
  0
LINE
  5
3F2
102
{ACAD_REACTORS
330
6E6
102
}
330
1F
100
AcDbEntity
  8
実線
100
AcDbLine
 10
550.1387488093454
 20
311.7439535224725
 30
0.0
 11
550.1387488093454
 21
310.5439535224724
 31
0.0
  0
LINE
  5
3F3
102
{ACAD_REACTORS
330
6E6
102
}
330
1F
100
AcDbEntity
  8
実線
100
AcDbLine
 10
560.824765227001
 20
310.5439535224724
 30
0.0
 11
569.0904477271991
 21
310.5439535224724
 31
0.0
  0
LINE
  5
3F4
102
{ACAD_REACTORS
330
6E6
102
}
330
1F
100
AcDbEntity
  8
実線
100
AcDbLine
 10
569.0904477271994
 20
311.7439535224725
 30
0.0
 11
569.0904477271994
 21
310.5439535224724
 31
0.0
  0
ELLIPSE
  5
3F5
102
{ACAD_REACTORS
330
6E7
102
}
330
1F
100
AcDbEntity
  8
実線
100
AcDbEllipse
 10
101.8999012449795
 20
425.1847218856798
 30
0.0
 11
12.7
 21
0.0
 31
0.0
210
0.0
220
0.0
230
0.9999999999999998
 40
0.7071067811865476
 41
0.3551317409999049
 42
1.570796326794897
  0
ELLIPSE
  5
3F6
102
{ACAD_REACTORS
330
6E7
102
}
330
1F
100
AcDbEntity
  8
実線
100
AcDbEllipse
 10
101.8999012449795
 20
425.1847218856798
 30
0.0
 11
12.7
 21
0.0
 31
0.0
210
0.0
220
0.0
230
0.9999999999999998
 40
0.7071067811865476
 41
1.570796326794897
 42
2.786460912589884
  0
ELLIPSE
  5
3F7
102
{ACAD_REACTORS
330
6E7
102
}
330
1F
100
AcDbEntity
  8
実線
100
AcDbEllipse
 10
101.8999012449795
 20
412.5628658415
 30
0.0
 11
25.25
 21
0.0
 31
0.0
210
0.0
220
0.0
230
1.0
 40
0.7071067811865476
 41
0.0
 42
1.570796326794897
  0
LINE
  5
3F8
102
{ACAD_REACTORS
330
6E7
102
}
330
1F
100
AcDbEntity
  8
実線
100
AcDbLine
 10
127.1499012449796
 20
410.5476115151184
 30
0.0
 11
127.1499012449796
 21
412.5628658415
 31
0.0
  0
LINE
  5
3F9
102
{ACAD_REACTORS
330
6E7
102
}
330
1F
100
AcDbEntity
  8
実線
100
AcDbLine
 10
76.64990124497959
 20
412.5628658415
 30
0.0
 11
76.64990124497959
 21
410.5476115151184
 31
0.0
  0
ELLIPSE
  5
3FA
102
{ACAD_REACTORS
330
6E7
102
}
330
1F
100
AcDbEntity
  8
実線
100
AcDbEllipse
 10
101.8999012449795
 20
410.5476115151184
 30
0.0
 11
25.25
 21
0.0
 31
0.0
210
0.0
220
0.0
230
1.0
 40
0.7071067811865476
 41
3.141592653589792
 42
6.283185307179584
  0
ELLIPSE
  5
3FB
102
{ACAD_REACTORS
330
6E7
102
}
330
1F
100
AcDbEntity
  8
実線
100
AcDbEllipse
 10
101.8999012449795
 20
410.5476115151184
 30
0.0
 11
25.25
 21
0.0
 31
0.0
210
0.0
220
0.0
230
1.0
 40
0.7071067811865476
 41
1.570796326794897
 42
3.141592653589792
  0
ELLIPSE
  5
3FC
102
{ACAD_REACTORS
330
6E7
102
}
330
1F
100
AcDbEntity
  8
実線
100
AcDbEllipse
 10
101.8999012449795
 20
412.5628658415
 30
0.0
 11
25.25
 21
0.0
 31
0.0
210
0.0
220
0.0
230
1.0
 40
0.7071067811865476
 41
1.570796326794897
 42
3.141592653589792
  0
ELLIPSE
  5
3FD
102
{ACAD_REACTORS
330
6E7
102
}
330
1F
100
AcDbEntity
  8
実線
100
AcDbEllipse
 10
101.8999012449795
 20
410.5476115151184
 30
0.0
 11
25.25
 21
0.0
 31
0.0
210
0.0
220
0.0
230
1.0
 40
0.7071067811865476
 41
0.0
 42
1.570796326794897
  0
ARC
  5
3FE
102
{ACAD_REACTORS
330
6E7
102
}
330
1F
100
AcDbEntity
  8
実線
100
AcDbCircle
 10
101.8999012449795
 20
436.3439535224722
 30
0.0
 40
12.7
100
AcDbArc
 50
0.0
 51
180.0
  0
LINE
  5
3FF
102
{ACAD_REACTORS
330
6E7
102
}
330
1F
100
AcDbEntity
  8
実線
100
AcDbLine
 10
89.19990124497957
 20
436.3439535224722
 30
0.0
 11
89.19990124497957
 21
427.9945297180883
 31
0.0
  0
LINE
  5
400
102
{ACAD_REACTORS
330
6E7
102
}
330
1F
100
AcDbEntity
  8
実線
100
AcDbLine
 10
114.5999012449796
 20
427.9945297180883
 30
0.0
 11
114.5999012449796
 21
436.3439535224722
 31
0.0
  0
ELLIPSE
  5
401
102
{ACAD_REACTORS
330
6E7
102
}
330
1F
100
AcDbEntity
  8
実線
100
AcDbEllipse
 10
101.8999012449795
 20
425.1847218856798
 30
0.0
 11
12.69999999999999
 21
0.0
 31
0.0
210
0.0
220
0.0
230
0.9999999999999998
 40
0.7071067811865479
 41
0.3551317409999105
 42
2.786460912589879
  0
LINE
  5
402
102
{ACAD_REACTORS
330
6E7
102
}
330
1F
100
AcDbEntity
  8
実線
100
AcDbLine
 10
95.89990124497957
 20
311.7439535224725
 30
0.0
 11
95.89990124497957
 21
297.2439535224724
 31
0.0
  0
LINE
  5
403
102
{ACAD_REACTORS
330
6E7
102
}
330
1F
100
AcDbEntity
  8
実線
100
AcDbLine
 10
107.8999012449795
 20
297.2439535224724
 30
0.0
 11
107.8999012449795
 21
311.7439535224725
 31
0.0
  0
LINE
  5
404
102
{ACAD_REACTORS
330
6E7
102
}
330
1F
100
AcDbEntity
  8
実線
100
AcDbLine
 10
61.89990124497959
 20
402.6439535224723
 30
0.0
 11
61.89990124497959
 21
316.7439535224724
 31
0.0
  0
LINE
  5
405
102
{ACAD_REACTORS
330
6E7
102
}
330
1F
100
AcDbEntity
  8
実線
100
AcDbLine
 10
141.8999012449795
 20
316.7439535224724
 30
0.0
 11
141.8999012449795
 21
402.6439535224723
 31
0.0
  0
LINE
  5
406
102
{ACAD_REACTORS
330
6E7
102
}
330
1F
100
AcDbEntity
  8
実線
100
AcDbLine
 10
79.2586362478429
 20
402.6439535224723
 30
0.0
 11
61.89990124497959
 21
402.6439535224723
 31
0.0
  0
LINE
  5
407
102
{ACAD_REACTORS
330
6E7
102
}
330
1F
100
AcDbEntity
  8
実線
100
AcDbLine
 10
124.5411662421163
 20
402.6439535224723
 30
0.0
 11
141.8999012449795
 21
402.6439535224723
 31
0.0
  0
LINE
  5
408
102
{ACAD_REACTORS
330
6E7
102
}
330
1F
100
AcDbEntity
  8
実線
100
AcDbLine
 10
93.89990124497956
 20
297.2439535224724
 30
0.0
 11
93.89990124497956
 21
290.7439535224725
 31
0.0
  0
LINE
  5
409
102
{ACAD_REACTORS
330
6E7
102
}
330
1F
100
AcDbEntity
  8
実線
100
AcDbLine
 10
109.8999012449795
 20
290.7439535224725
 30
0.0
 11
109.8999012449795
 21
297.2439535224724
 31
0.0
  0
LINE
  5
40A
102
{ACAD_REACTORS
330
6E7
102
}
330
1F
100
AcDbEntity
  8
実線
100
AcDbLine
 10
93.89990124497956
 20
290.7439535224725
 30
0.0
 11
109.8999012449795
 21
290.7439535224725
 31
0.0
  0
LINE
  5
40B
102
{ACAD_REACTORS
330
6E7
102
}
330
1F
100
AcDbEntity
  8
実線
100
AcDbLine
 10
93.89990124497956
 20
297.2439535224724
 30
0.0
 11
109.8999012449795
 21
297.2439535224724
 31
0.0
  0
LINE
  5
40C
102
{ACAD_REACTORS
330
6E7
102
}
330
1F
100
AcDbEntity
  8
実線
100
AcDbLine
 10
82.97503726295778
 20
310.5439535224724
 30
0.0
 11
82.97503726295778
 21
286.7439535224725
 31
0.0
  0
LINE
  5
40D
102
{ACAD_REACTORS
330
6E7
102
}
330
1F
100
AcDbEntity
  8
実線
100
AcDbLine
 10
82.97503726295778
 20
286.7439535224725
 30
0.0
 11
85.7067143283133
 21
286.7439535224725
 31
0.0
  0
LINE
  5
40E
102
{ACAD_REACTORS
330
6E7
102
}
330
1F
100
AcDbEntity
  8
実線
100
AcDbLine
 10
84.50828258053881
 20
286.7439535224725
 30
0.0
 11
84.50828258053881
 21
311.7439535224725
 31
0.0
  0
LINE
  5
40F
102
{ACAD_REACTORS
330
6E7
102
}
330
1F
100
AcDbEntity
  8
実線
100
AcDbLine
 10
85.7067143283133
 20
286.7439535224725
 30
0.0
 11
85.7067143283133
 21
311.7439535224725
 31
0.0
  0
LINE
  5
410
102
{ACAD_REACTORS
330
6E7
102
}
330
1F
100
AcDbEntity
  8
実線
100
AcDbLine
 10
85.7067143283133
 20
308.1939535224726
 30
0.0
 11
93.59639000116194
 21
308.1939535224726
 31
0.0
  0
LINE
  5
411
102
{ACAD_REACTORS
330
6E7
102
}
330
1F
100
AcDbEntity
  8
実線
100
AcDbLine
 10
93.59639000116194
 20
300.2939535224724
 30
0.0
 11
85.7067143283133
 21
300.2939535224724
 31
0.0
  0
LINE
  5
412
102
{ACAD_REACTORS
330
6E7
102
}
330
1F
100
AcDbEntity
  8
実線
100
AcDbLine
 10
93.59639000116194
 20
308.1939535224726
 30
0.0
 11
93.59639000116194
 21
300.2939535224724
 31
0.0
  0
LINE
  5
413
102
{ACAD_REACTORS
330
6E7
102
}
330
1F
100
AcDbEntity
  8
実線
100
AcDbLine
 10
93.59639000116194
 20
289.7939535224724
 30
0.0
 11
85.7067143283133
 21
289.7939535224724
 31
0.0
  0
LINE
  5
414
102
{ACAD_REACTORS
330
6E7
102
}
330
1F
100
AcDbEntity
  8
実線
100
AcDbLine
 10
93.59639000116194
 20
297.6939535224724
 30
0.0
 11
93.59639000116194
 21
289.7939535224724
 31
0.0
  0
LINE
  5
415
102
{ACAD_REACTORS
330
6E7
102
}
330
1F
100
AcDbEntity
  8
実線
100
AcDbLine
 10
85.7067143283133
 20
297.6939535224724
 30
0.0
 11
93.59639000116194
 21
297.6939535224724
 31
0.0
  0
LINE
  5
416
102
{ACAD_REACTORS
330
6E7
102
}
330
1F
100
AcDbEntity
  8
実線
100
AcDbLine
 10
129.8999012449796
 20
450.8439535224723
 30
0.0
 11
129.8999012449796
 21
415.6439535224721
 31
0.0
  0
LINE
  5
417
102
{ACAD_REACTORS
330
6E7
102
}
330
1F
100
AcDbEntity
  8
実線
100
AcDbLine
 10
73.89990124497956
 20
450.8439535224723
 30
0.0
 11
73.89990124497956
 21
415.6439535224721
 31
0.0
  0
LINE
  5
418
102
{ACAD_REACTORS
330
6E7
102
}
330
1F
100
AcDbEntity
  8
実線
100
AcDbLine
 10
87.89990124497958
 20
450.8439535224723
 30
0.0
 11
87.89990124497958
 21
427.4215754086191
 31
0.0
  0
LINE
  5
419
102
{ACAD_REACTORS
330
6E7
102
}
330
1F
100
AcDbEntity
  8
実線
100
AcDbLine
 10
115.8999012449795
 20
450.8439535224723
 30
0.0
 11
115.8999012449795
 21
427.4215754086191
 31
0.0
  0
LINE
  5
41A
102
{ACAD_REACTORS
330
6E7
102
}
330
1F
100
AcDbEntity
  8
実線
100
AcDbLine
 10
73.89990124497956
 20
425.6439535224723
 30
0.0
 11
84.7146520420898
 21
425.6439535224723
 31
0.0
  0
LINE
  5
41B
102
{ACAD_REACTORS
330
6E7
102
}
330
1F
100
AcDbEntity
  8
実線
100
AcDbLine
 10
129.8999012449796
 20
425.6439535224723
 30
0.0
 11
119.0851504478693
 21
425.6439535224723
 31
0.0
  0
LINE
  5
41C
102
{ACAD_REACTORS
330
6E7
102
}
330
1F
100
AcDbEntity
  8
実線
100
AcDbLine
 10
126.771095374018
 20
415.6439535224721
 30
0.0
 11
129.8999012449796
 21
415.6439535224721
 31
0.0
  0
LINE
  5
41D
102
{ACAD_REACTORS
330
6E7
102
}
330
1F
100
AcDbEntity
  8
実線
100
AcDbLine
 10
141.8999012449795
 20
403.6439535224721
 30
0.0
 11
129.8999012449796
 21
415.6439535224721
 31
0.0
  0
LINE
  5
41E
102
{ACAD_REACTORS
330
6E7
102
}
330
1F
100
AcDbEntity
  8
実線
100
AcDbLine
 10
61.89990124497959
 20
403.6439535224721
 30
0.0
 11
61.89990124497959
 21
402.6439535224723
 31
0.0
  0
LINE
  5
41F
102
{ACAD_REACTORS
330
6E7
102
}
330
1F
100
AcDbEntity
  8
実線
100
AcDbLine
 10
141.8999012449795
 20
402.6439535224723
 30
0.0
 11
141.8999012449795
 21
403.6439535224721
 31
0.0
  0
LINE
  5
420
102
{ACAD_REACTORS
330
6E7
102
}
330
1F
100
AcDbEntity
  8
実線
100
AcDbLine
 10
61.89990124497959
 20
403.6439535224721
 30
0.0
 11
73.89990124497956
 21
415.6439535224721
 31
0.0
  0
ARC
  5
421
102
{ACAD_REACTORS
330
6E7
102
}
330
1F
100
AcDbEntity
  8
実線
100
AcDbCircle
 10
101.8999012449795
 20
443.6439535224723
 30
0.0
 40
40.0
100
AcDbArc
 50
309.1421612091632
 51
314.9999999999999
  0
ARC
  5
422
102
{ACAD_REACTORS
330
6E7
102
}
330
1F
100
AcDbEntity
  8
実線
100
AcDbCircle
 10
101.8999012449795
 20
443.6439535224723
 30
0.0
 40
40.0
100
AcDbArc
 50
225.0000000000001
 51
230.8578387908368
  0
LINE
  5
423
102
{ACAD_REACTORS
330
6E7
102
}
330
1F
100
AcDbEntity
  8
実線
100
AcDbLine
 10
77.02870711594105
 20
415.6439535224721
 30
0.0
 11
73.89990124497956
 21
415.6439535224721
 31
0.0
  0
LINE
  5
424
102
{ACAD_REACTORS
330
6E7
102
}
330
1F
100
AcDbEntity
  8
実線
100
AcDbLine
 10
136.8999012449796
 20
311.7439535224725
 30
0.0
 11
66.89990124497959
 21
311.7439535224725
 31
0.0
  0
ARC
  5
425
102
{ACAD_REACTORS
330
6E7
102
}
330
1F
100
AcDbEntity
  8
実線
100
AcDbCircle
 10
66.89990124497959
 20
316.7439535224724
 30
0.0
 40
5.0
100
AcDbArc
 50
180.0
 51
270.0
  0
ARC
  5
426
102
{ACAD_REACTORS
330
6E7
102
}
330
1F
100
AcDbEntity
  8
実線
100
AcDbCircle
 10
136.8999012449796
 20
316.7439535224724
 30
0.0
 40
5.0
100
AcDbArc
 50
270.0
 51
0.0
  0
LINE
  5
427
102
{ACAD_REACTORS
330
6E7
102
}
330
1F
100
AcDbEntity
  8
実線
100
AcDbLine
 10
141.8999012449795
 20
316.7439535224724
 30
0.0
 11
61.89990124497959
 21
316.7439535224724
 31
0.0
  0
LINE
  5
428
102
{ACAD_REACTORS
330
6E7
102
}
330
1F
100
AcDbEntity
  8
実線
100
AcDbLine
 10
24.39990124497959
 20
466.8439535224725
 30
0.0
 11
179.3999012449795
 21
466.8439535224725
 31
0.0
  0
LINE
  5
429
102
{ACAD_REACTORS
330
6E7
102
}
330
1F
100
AcDbEntity
  8
実線
100
AcDbLine
 10
179.3999012449795
 20
450.8439535224723
 30
0.0
 11
179.3999012449795
 21
466.8439535224725
 31
0.0
  0
LINE
  5
42A
102
{ACAD_REACTORS
330
6E7
102
}
330
1F
100
AcDbEntity
  8
実線
100
AcDbLine
 10
24.39990124497959
 20
466.8439535224725
 30
0.0
 11
24.39990124497959
 21
450.8439535224723
 31
0.0
  0
LINE
  5
42B
102
{ACAD_REACTORS
330
6E7
102
}
330
1F
100
AcDbEntity
  8
実線
100
AcDbLine
 10
24.39990124497959
 20
450.8439535224723
 30
0.0
 11
179.3999012449795
 21
450.8439535224723
 31
0.0
  0
LINE
  5
42C
102
{ACAD_REACTORS
330
6E7
102
}
330
1F
100
AcDbEntity
  8
実線
100
AcDbLine
 10
85.7067143283133
 20
310.5439535224724
 30
0.0
 11
94.17213545314057
 21
310.5439535224724
 31
0.0
  0
LINE
  5
42D
102
{ACAD_REACTORS
330
6E7
102
}
330
1F
100
AcDbEntity
  8
実線
100
AcDbLine
 10
94.17213545314057
 20
311.7439535224725
 30
0.0
 11
94.17213545314057
 21
310.5439535224724
 31
0.0
  0
LINE
  5
42E
102
{ACAD_REACTORS
330
6E7
102
}
330
1F
100
AcDbEntity
  8
実線
100
AcDbLine
 10
84.50828258053881
 20
310.5439535224724
 30
0.0
 11
74.70935476275958
 21
310.5439535224724
 31
0.0
  0
LINE
  5
42F
102
{ACAD_REACTORS
330
6E7
102
}
330
1F
100
AcDbEntity
  8
実線
100
AcDbLine
 10
74.70935476275958
 20
311.7439535224725
 30
0.0
 11
74.70935476275958
 21
310.5439535224724
 31
0.0
  0
LINE
  5
430
102
{ACAD_REACTORS
330
6E7
102
}
330
1F
100
AcDbEntity
  8
実線
100
AcDbLine
 10
75.22043653528661
 20
311.7439535224725
 30
0.0
 11
75.22043653528661
 21
310.5439535224724
 31
0.0
  0
LINE
  5
431
102
{ACAD_REACTORS
330
5B3
102
}
330
1F
100
AcDbEntity
  8
実線
100
AcDbLine
 10
251.9788767607029
 20
434.164978006749
 30
0.0
 11
269.9393890028412
 21
416.2044657646107
 31
0.0
  0
LINE
  5
432
102
{ACAD_REACTORS
330
5B3
102
}
330
1F
100
AcDbEntity
  8
実線
100
AcDbLine
 10
260.959132881772
 20
407.2242096435416
 30
0.0
 11
269.9393890028412
 21
416.2044657646107
 31
0.0
  0
LINE
  5
433
102
{ACAD_REACTORS
330
5B3
102
}
330
1F
100
AcDbEntity
  8
実線
100
AcDbLine
 10
251.9788767607029
 20
434.164978006749
 30
0.0
 11
242.9986206396337
 21
425.1847218856798
 31
0.0
  0
LINE
  5
434
102
{ACAD_REACTORS
330
5B3
102
}
330
1F
100
AcDbEntity
  8
実線
100
AcDbLine
 10
228.4675762862502
 20
428.4020577400788
 30
0.0
 11
264.1764687361708
 21
392.6931652901582
 31
0.0
  0
LINE
  5
435
102
{ACAD_REACTORS
330
5B3
102
}
330
1F
100
AcDbEntity
  8
実線
100
AcDbLine
 10
264.1764687361708
 20
392.6931652901582
 30
0.0
 11
266.1917230625525
 21
394.7084196165397
 31
0.0
  0
LINE
  5
436
102
{ACAD_REACTORS
330
5B3
102
}
330
1F
100
AcDbEntity
  8
実線
100
AcDbLine
 10
230.4828306126318
 20
430.4173120664603
 30
0.0
 11
228.4675762862502
 21
428.4020577400788
 31
0.0
  0
LINE
  5
437
102
{ACAD_REACTORS
330
5B3
102
}
330
1F
100
AcDbEntity
  8
実線
100
AcDbLine
 10
230.4828306126318
 20
430.4173120664603
 30
0.0
 11
266.1917230625525
 21
394.7084196165397
 31
0.0
  0
LINE
  5
438
102
{ACAD_REACTORS
330
5B3
102
}
330
1F
100
AcDbEntity
  8
実線
100
AcDbLine
 10
242.9986206396337
 20
425.1847218856798
 30
0.0
 11
260.959132881772
 21
407.2242096435416
 31
0.0
  0
LINE
  5
439
102
{ACAD_REACTORS
330
5B3
102
}
330
1F
100
AcDbEntity
  8
実線
100
AcDbLine
 10
242.9986206396337
 20
425.1847218856798
 30
0.0
 11
230.4828306126319
 21
430.4173120664603
 31
0.0
  0
LINE
  5
43A
102
{ACAD_REACTORS
330
5B3
102
}
330
1F
100
AcDbEntity
  8
実線
100
AcDbLine
 10
266.1917230625525
 20
394.7084196165397
 30
0.0
 11
260.959132881772
 21
407.2242096435416
 31
0.0
  0
LINE
  5
43B
102
{ACAD_REACTORS
330
5B3
102
}
330
1F
100
AcDbEntity
  8
実線
100
AcDbLine
 10
293.8999012449794
 20
449.0439535224724
 30
0.0
 11
287.8999012449796
 21
449.0439535224724
 31
0.0
  0
LINE
  5
43C
102
{ACAD_REACTORS
330
5B3
102
}
330
1F
100
AcDbEntity
  8
実線
100
AcDbLine
 10
287.8999012449796
 20
423.6439535224723
 30
0.0
 11
293.8999012449794
 21
423.6439535224723
 31
0.0
  0
LINE
  5
43D
102
{ACAD_REACTORS
330
5B3
102
}
330
1F
100
AcDbEntity
  8
実線
100
AcDbLine
 10
287.8999012449796
 20
449.0439535224724
 30
0.0
 11
287.8999012449796
 21
423.6439535224723
 31
0.0
  0
ARC
  5
43E
102
{ACAD_REACTORS
330
5B3
102
}
330
1F
100
AcDbEntity
  8
実線
100
AcDbCircle
 10
287.8999012449794
 20
398.2439535224724
 30
0.0
 40
50.8
100
AcDbArc
 50
90.0
 51
135.0
  0
ARC
  5
43F
102
{ACAD_REACTORS
330
5B3
102
}
330
1F
100
AcDbEntity
  8
実線
100
AcDbCircle
 10
287.8999012449794
 20
398.2439535224724
 30
0.0
 40
25.40000000000001
100
AcDbArc
 50
90.0
 51
135.0
  0
LINE
  5
440
102
{ACAD_REACTORS
330
5B3
102
}
330
1F
100
AcDbEntity
  8
実線
100
AcDbLine
 10
315.8999012449795
 20
311.7439535224725
 30
0.0
 11
315.8999012449795
 21
297.2439535224724
 31
0.0
  0
LINE
  5
441
102
{ACAD_REACTORS
330
5B3
102
}
330
1F
100
AcDbEntity
  8
実線
100
AcDbLine
 10
327.8999012449796
 20
297.2439535224724
 30
0.0
 11
327.8999012449796
 21
311.7439535224725
 31
0.0
  0
LINE
  5
442
102
{ACAD_REACTORS
330
5B3
102
}
330
1F
100
AcDbEntity
  8
実線
100
AcDbLine
 10
281.8999012449796
 20
402.6439535224723
 30
0.0
 11
281.8999012449796
 21
316.7439535224724
 31
0.0
  0
LINE
  5
443
102
{ACAD_REACTORS
330
5B3
102
}
330
1F
100
AcDbEntity
  8
実線
100
AcDbLine
 10
361.8999012449795
 20
316.7439535224724
 30
0.0
 11
361.8999012449795
 21
402.6439535224723
 31
0.0
  0
LINE
  5
444
102
{ACAD_REACTORS
330
5B3
102
}
330
1F
100
AcDbEntity
  8
実線
100
AcDbLine
 10
329.8999012449796
 20
290.7439535224725
 30
0.0
 11
313.8999012449795
 21
290.7439535224725
 31
0.0
  0
LINE
  5
445
102
{ACAD_REACTORS
330
5B3
102
}
330
1F
100
AcDbEntity
  8
実線
100
AcDbLine
 10
313.8999012449795
 20
297.2439535224724
 30
0.0
 11
313.8999012449795
 21
290.7439535224725
 31
0.0
  0
LINE
  5
446
102
{ACAD_REACTORS
330
5B3
102
}
330
1F
100
AcDbEntity
  8
実線
100
AcDbLine
 10
329.8999012449796
 20
290.7439535224725
 30
0.0
 11
329.8999012449796
 21
297.2439535224724
 31
0.0
  0
LINE
  5
447
102
{ACAD_REACTORS
330
5B3
102
}
330
1F
100
AcDbEntity
  8
実線
100
AcDbLine
 10
313.8999012449795
 20
297.2439535224724
 30
0.0
 11
329.8999012449796
 21
297.2439535224724
 31
0.0
  0
LINE
  5
448
102
{ACAD_REACTORS
330
5B3
102
}
330
1F
100
AcDbEntity
  8
実線
100
AcDbLine
 10
315.1507093785817
 20
290.7439535224725
 30
0.0
 11
315.1507093785817
 21
286.7439535224725
 31
0.0
  0
LINE
  5
449
102
{ACAD_REACTORS
330
5B3
102
}
330
1F
100
AcDbEntity
  8
実線
100
AcDbLine
 10
315.1507093785817
 20
297.2439535224724
 30
0.0
 11
315.1507093785817
 21
311.7439535224725
 31
0.0
  0
LINE
  5
44A
102
{ACAD_REACTORS
330
5B3
102
}
330
1F
100
AcDbEntity
  8
実線
100
AcDbLine
 10
315.1507093785817
 20
286.7439535224725
 30
0.0
 11
345.1728328856469
 21
286.7439535224725
 31
0.0
  0
LINE
  5
44B
102
{ACAD_REACTORS
330
5B3
102
}
330
1F
100
AcDbEntity
  8
実線
100
AcDbLine
 10
315.2120391912851
 20
286.7439535224725
 30
0.0
 11
315.2120391912851
 21
290.7439535224725
 31
0.0
  0
LINE
  5
44C
102
{ACAD_REACTORS
330
5B3
102
}
330
1F
100
AcDbEntity
  8
実線
100
AcDbLine
 10
315.2120391912851
 20
297.2439535224724
 30
0.0
 11
315.2120391912851
 21
311.7439535224725
 31
0.0
  0
LINE
  5
44D
102
{ACAD_REACTORS
330
5B3
102
}
330
1F
100
AcDbEntity
  8
実線
100
AcDbLine
 10
345.1728328856469
 20
292.2439535224726
 30
0.0
 11
345.1728328856469
 21
286.7439535224725
 31
0.0
  0
LINE
  5
44E
102
{ACAD_REACTORS
330
5B3
102
}
330
1F
100
AcDbEntity
  8
実線
100
AcDbLine
 10
345.1728328856469
 20
302.7439535224726
 30
0.0
 11
345.1728328856469
 21
295.2439535224725
 31
0.0
  0
LINE
  5
44F
102
{ACAD_REACTORS
330
5B3
102
}
330
1F
100
AcDbEntity
  8
実線
100
AcDbLine
 10
345.1728328856469
 20
310.5439535224724
 30
0.0
 11
345.1728328856469
 21
305.7439535224725
 31
0.0
  0
LINE
  5
450
102
{ACAD_REACTORS
330
5B3
102
}
330
1F
100
AcDbEntity
  8
実線
100
AcDbLine
 10
327.8999012449796
 20
308.1939535224726
 30
0.0
 11
340.5831218702163
 21
308.1939535224726
 31
0.0
  0
LINE
  5
451
102
{ACAD_REACTORS
330
5B3
102
}
330
1F
100
AcDbEntity
  8
実線
100
AcDbLine
 10
315.8999012449795
 20
308.1939535224726
 30
0.0
 11
315.2120391912851
 21
308.1939535224726
 31
0.0
  0
LINE
  5
452
102
{ACAD_REACTORS
330
5B3
102
}
330
1F
100
AcDbEntity
  8
実線
100
AcDbLine
 10
327.8999012449796
 20
300.2939535224724
 30
0.0
 11
340.5831218702163
 21
300.2939535224724
 31
0.0
  0
LINE
  5
453
102
{ACAD_REACTORS
330
5B3
102
}
330
1F
100
AcDbEntity
  8
実線
100
AcDbLine
 10
315.8999012449795
 20
300.2939535224724
 30
0.0
 11
315.2120391912851
 21
300.2939535224724
 31
0.0
  0
LINE
  5
454
102
{ACAD_REACTORS
330
5B3
102
}
330
1F
100
AcDbEntity
  8
実線
100
AcDbLine
 10
340.5831218702163
 20
300.2939535224724
 30
0.0
 11
340.5831218702163
 21
308.1939535224724
 31
0.0
  0
LINE
  5
455
102
{ACAD_REACTORS
330
5B3
102
}
330
1F
100
AcDbEntity
  8
実線
100
AcDbLine
 10
315.6157937915814
 20
308.1939535224726
 30
0.0
 11
315.6157937915814
 21
300.2939535224724
 31
0.0
  0
ELLIPSE
  5
456
102
{ACAD_REACTORS
330
5B3
102
}
330
1F
100
AcDbEntity
  8
実線
100
AcDbEllipse
 10
346.8727498705133
 20
304.2439535224724
 30
0.0
 11
0.0
 21
1.5
 31
0.0
210
0.0
220
0.0
230
1.0
 40
0.051108177252701
 41
4.71238898038469
 42
6.283185307179584
  0
LINE
  5
457
102
{ACAD_REACTORS
330
5B3
102
}
330
1F
100
AcDbEntity
  8
実線
100
AcDbLine
 10
340.5831218702163
 20
302.7439535224726
 30
0.0
 11
346.8727498705133
 21
302.7439535224726
 31
0.0
  0
LINE
  5
458
102
{ACAD_REACTORS
330
5B3
102
}
330
1F
100
AcDbEntity
  8
実線
100
AcDbLine
 10
346.8727498705133
 20
305.7439535224725
 30
0.0
 11
340.5831218702163
 21
305.7439535224725
 31
0.0
  0
ELLIPSE
  5
459
102
{ACAD_REACTORS
330
5B3
102
}
330
1F
100
AcDbEntity
  8
実線
100
AcDbEllipse
 10
346.8727498705133
 20
304.2439535224724
 30
0.0
 11
0.0
 21
1.5
 31
0.0
210
0.0
220
0.0
230
1.0
 40
0.051108177252701
 41
3.14159265358979
 42
4.71238898038469
  0
ELLIPSE
  5
45A
102
{ACAD_REACTORS
330
5B3
102
}
330
1F
100
AcDbEntity
  8
実線
100
AcDbEllipse
 10
346.8727498705133
 20
293.7439535224724
 30
0.0
 11
0.0
 21
1.5
 31
0.0
210
0.0
220
0.0
230
1.0
 40
0.051108177252701
 41
4.71238898038469
 42
6.283185307179584
  0
LINE
  5
45B
102
{ACAD_REACTORS
330
5B3
102
}
330
1F
100
AcDbEntity
  8
実線
100
AcDbLine
 10
340.5831218702163
 20
292.2439535224726
 30
0.0
 11
346.8727498705133
 21
292.2439535224726
 31
0.0
  0
LINE
  5
45C
102
{ACAD_REACTORS
330
5B3
102
}
330
1F
100
AcDbEntity
  8
実線
100
AcDbLine
 10
346.8727498705133
 20
295.2439535224725
 30
0.0
 11
340.5831218702163
 21
295.2439535224725
 31
0.0
  0
ELLIPSE
  5
45D
102
{ACAD_REACTORS
330
5B3
102
}
330
1F
100
AcDbEntity
  8
実線
100
AcDbEllipse
 10
346.8727498705133
 20
293.7439535224724
 30
0.0
 11
0.0
 21
1.5
 31
0.0
210
0.0
220
0.0
230
1.0
 40
0.051108177252701
 41
3.14159265358979
 42
4.71238898038469
  0
LINE
  5
45E
102
{ACAD_REACTORS
330
5B3
102
}
330
1F
100
AcDbEntity
  8
実線
100
AcDbLine
 10
327.8999012449796
 20
297.6939535224724
 30
0.0
 11
340.5831218702163
 21
297.6939535224724
 31
0.0
  0
LINE
  5
45F
102
{ACAD_REACTORS
330
5B3
102
}
330
1F
100
AcDbEntity
  8
実線
100
AcDbLine
 10
315.8999012449795
 20
297.6939535224724
 30
0.0
 11
315.2120391912851
 21
297.6939535224724
 31
0.0
  0
LINE
  5
460
102
{ACAD_REACTORS
330
5B3
102
}
330
1F
100
AcDbEntity
  8
実線
100
AcDbLine
 10
340.5831218702163
 20
289.7939535224724
 30
0.0
 11
315.2120391912851
 21
289.7939535224724
 31
0.0
  0
LINE
  5
461
102
{ACAD_REACTORS
330
5B3
102
}
330
1F
100
AcDbEntity
  8
実線
100
AcDbLine
 10
340.5831218702163
 20
289.7939535224724
 30
0.0
 11
340.5831218702163
 21
297.6939535224724
 31
0.0
  0
LINE
  5
462
102
{ACAD_REACTORS
330
5B3
102
}
330
1F
100
AcDbEntity
  8
実線
100
AcDbLine
 10
315.6157937915814
 20
290.7439535224725
 30
0.0
 11
315.6157937915814
 21
289.7939535224724
 31
0.0
  0
LINE
  5
463
102
{ACAD_REACTORS
330
5B3
102
}
330
1F
100
AcDbEntity
  8
実線
100
AcDbLine
 10
315.6157937915814
 20
297.6939535224724
 30
0.0
 11
315.6157937915814
 21
297.2439535224724
 31
0.0
  0
LINE
  5
464
102
{ACAD_REACTORS
330
5B3
102
}
330
1F
100
AcDbEntity
  8
実線
100
AcDbLine
 10
349.8999012449796
 20
450.8439535224723
 30
0.0
 11
349.8999012449796
 21
415.6439535224721
 31
0.0
  0
LINE
  5
465
102
{ACAD_REACTORS
330
5B3
102
}
330
1F
100
AcDbEntity
  8
実線
100
AcDbLine
 10
293.8999012449794
 20
450.8439535224723
 30
0.0
 11
293.8999012449794
 21
415.6439535224721
 31
0.0
  0
LINE
  5
466
102
{ACAD_REACTORS
330
5B3
102
}
330
1F
100
AcDbEntity
  8
実線
100
AcDbLine
 10
315.8999012449795
 20
425.6439535224723
 30
0.0
 11
293.8999012449794
 21
425.6439535224723
 31
0.0
  0
LINE
  5
467
102
{ACAD_REACTORS
330
5B3
102
}
330
1F
100
AcDbEntity
  8
実線
100
AcDbLine
 10
327.8999012449796
 20
425.6439535224723
 30
0.0
 11
349.8999012449796
 21
425.6439535224723
 31
0.0
  0
LINE
  5
468
102
{ACAD_REACTORS
330
5B3
102
}
330
1F
100
AcDbEntity
  8
実線
100
AcDbLine
 10
315.8999012449795
 20
450.8439535224723
 30
0.0
 11
315.8999012449795
 21
425.6439535224723
 31
0.0
  0
LINE
  5
469
102
{ACAD_REACTORS
330
5B3
102
}
330
1F
100
AcDbEntity
  8
実線
100
AcDbLine
 10
293.8999012449794
 20
415.6439535224721
 30
0.0
 11
349.8999012449796
 21
415.6439535224721
 31
0.0
  0
LINE
  5
46A
102
{ACAD_REACTORS
330
5B3
102
}
330
1F
100
AcDbEntity
  8
実線
100
AcDbLine
 10
327.8999012449796
 20
450.8439535224723
 30
0.0
 11
327.8999012449796
 21
425.6439535224723
 31
0.0
  0
LINE
  5
46B
102
{ACAD_REACTORS
330
5B3
102
}
330
1F
100
AcDbEntity
  8
実線
100
AcDbLine
 10
349.8999012449796
 20
415.6439535224721
 30
0.0
 11
361.8999012449795
 21
403.6439535224721
 31
0.0
  0
LINE
  5
46C
102
{ACAD_REACTORS
330
5B3
102
}
330
1F
100
AcDbEntity
  8
実線
100
AcDbLine
 10
293.8999012449796
 20
415.6439535224721
 30
0.0
 11
281.8999012449796
 21
403.6439535224721
 31
0.0
  0
LINE
  5
46D
102
{ACAD_REACTORS
330
5B3
102
}
330
1F
100
AcDbEntity
  8
実線
100
AcDbLine
 10
281.8999012449796
 20
402.6439535224723
 30
0.0
 11
361.8999012449795
 21
402.6439535224723
 31
0.0
  0
ARC
  5
46E
102
{ACAD_REACTORS
330
5B3
102
}
330
1F
100
AcDbEntity
  8
実線
100
AcDbCircle
 10
321.8999012449796
 20
443.6439535224723
 30
0.0
 40
40.0
100
AcDbArc
 50
225.0
 51
315.0
  0
LINE
  5
46F
102
{ACAD_REACTORS
330
5B3
102
}
330
1F
100
AcDbEntity
  8
実線
100
AcDbLine
 10
281.8999012449796
 20
403.6439535224721
 30
0.0
 11
281.8999012449796
 21
402.6439535224723
 31
0.0
  0
LINE
  5
470
102
{ACAD_REACTORS
330
5B3
102
}
330
1F
100
AcDbEntity
  8
実線
100
AcDbLine
 10
361.8999012449795
 20
402.6439535224723
 30
0.0
 11
361.8999012449795
 21
403.6439535224721
 31
0.0
  0
LINE
  5
471
102
{ACAD_REACTORS
330
5B3
102
}
330
1F
100
AcDbEntity
  8
実線
100
AcDbLine
 10
356.8999012449794
 20
311.7439535224725
 30
0.0
 11
286.8999012481363
 21
311.7439535224725
 31
0.0
  0
LINE
  5
472
102
{ACAD_REACTORS
330
5B3
102
}
330
1F
100
AcDbEntity
  8
実線
100
AcDbLine
 10
361.8999012449795
 20
316.7439535224724
 30
0.0
 11
281.8999012449796
 21
316.7439535224724
 31
0.0
  0
ARC
  5
473
102
{ACAD_REACTORS
330
5B3
102
}
330
1F
100
AcDbEntity
  8
実線
100
AcDbCircle
 10
286.8999012449796
 20
316.7439535224724
 30
0.0
 40
5.0
100
AcDbArc
 50
180.0
 51
270.0
  0
ARC
  5
474
102
{ACAD_REACTORS
330
5B3
102
}
330
1F
100
AcDbEntity
  8
実線
100
AcDbCircle
 10
356.8999012449794
 20
316.7439535224724
 30
0.0
 40
5.0
100
AcDbArc
 50
270.0
 51
0.0
  0
LINE
  5
475
102
{ACAD_REACTORS
330
5B3
102
}
330
1F
100
AcDbEntity
  8
実線
100
AcDbLine
 10
399.3999012449794
 20
450.8439535224723
 30
0.0
 11
399.3999012449794
 21
466.8439535224725
 31
0.0
  0
LINE
  5
476
102
{ACAD_REACTORS
330
5B3
102
}
330
1F
100
AcDbEntity
  8
実線
100
AcDbLine
 10
244.3999012449794
 20
466.8439535224725
 30
0.0
 11
244.3999012449794
 21
450.8439535224723
 31
0.0
  0
LINE
  5
477
102
{ACAD_REACTORS
330
5B3
102
}
330
1F
100
AcDbEntity
  8
実線
100
AcDbLine
 10
399.3999012449794
 20
466.8439535224725
 30
0.0
 11
244.3999012449794
 21
466.8439535224725
 31
0.0
  0
LINE
  5
478
102
{ACAD_REACTORS
330
5B3
102
}
330
1F
100
AcDbEntity
  8
実線
100
AcDbLine
 10
399.3999012449794
 20
450.8439535224723
 30
0.0
 11
244.3999012449794
 21
450.8439535224723
 31
0.0
  0
LINE
  5
479
102
{ACAD_REACTORS
330
5B3
102
}
330
1F
100
AcDbEntity
  8
実線
100
AcDbLine
 10
335.1859016541929
 20
310.5439535224724
 30
0.0
 11
345.6583605695475
 21
310.5439535224724
 31
0.0
  0
LINE
  5
47A
102
{ACAD_REACTORS
330
5B3
102
}
330
1F
100
AcDbEntity
  8
実線
100
AcDbLine
 10
335.1859016541929
 20
311.7439535224725
 30
0.0
 11
335.1859016541929
 21
310.5439535224724
 31
0.0
  0
LINE
  5
47B
102
{ACAD_REACTORS
330
5B3
102
}
330
1F
100
AcDbEntity
  8
実線
100
AcDbLine
 10
335.6714293380936
 20
311.7439535224725
 30
0.0
 11
335.6714293380936
 21
310.5439535224724
 31
0.0
  0
LINE
  5
47C
102
{ACAD_REACTORS
330
5B3
102
}
330
1F
100
AcDbEntity
  8
実線
100
AcDbLine
 10
345.6583605695475
 20
311.7439535224725
 30
0.0
 11
345.6583605695475
 21
310.5439535224724
 31
0.0
  0
LINE
  5
47D
102
{ACAD_REACTORS
330
5B3
102
}
330
1F
100
AcDbEntity
  8
実線
100
AcDbLine
 10
314.6754033301318
 20
311.7439535224725
 30
0.0
 11
314.6754033301318
 21
310.5439535224724
 31
0.0
  0
LINE
  5
47E
102
{ACAD_REACTORS
330
5B3
102
}
330
1F
100
AcDbEntity
  8
実線
100
AcDbLine
 10
314.6754033301318
 20
310.5439535224724
 30
0.0
 11
315.1507093785817
 21
310.5439535224724
 31
0.0
  0
LINE
  5
581
102
{ACAD_REACTORS
330
60D
102
}
330
1F
100
AcDbEntity
  8
中心線
100
AcDbLine
 10
279.4734943737721
 20
76.91754665126325
 30
0.0
 11
279.4734943737721
 21
51.91754665126332
 31
0.0
  0
LINE
  5
582
102
{ACAD_REACTORS
330
60D
102
}
330
1F
100
AcDbEntity
  8
中心線
100
AcDbLine
 10
266.9734943737721
 20
64.41754665126331
 30
0.0
 11
291.9734943737721
 21
64.41754665126331
 31
0.0
  0
LINE
  5
583
102
{ACAD_REACTORS
330
60D
102
}
330
1F
100
AcDbEntity
  8
中心線
100
AcDbLine
 10
279.4734943737704
 20
161.7703603936799
 30
0.0
 11
279.4734943737704
 21
136.7703603936798
 31
0.0
  0
LINE
  5
584
102
{ACAD_REACTORS
330
60D
102
}
330
1F
100
AcDbEntity
  8
中心線
100
AcDbLine
 10
266.9734943737703
 20
149.2703603936799
 30
0.0
 11
291.9734943737704
 21
149.2703603936799
 31
0.0
  0
LINE
  5
585
102
{ACAD_REACTORS
330
60D
102
}
330
1F
100
AcDbEntity
  8
中心線
100
AcDbLine
 10
364.3263081161868
 20
161.770360393682
 30
0.0
 11
364.3263081161868
 21
136.7703603936819
 31
0.0
  0
LINE
  5
586
102
{ACAD_REACTORS
330
60D
102
}
330
1F
100
AcDbEntity
  8
中心線
100
AcDbLine
 10
351.8263081161868
 20
149.270360393682
 30
0.0
 11
376.8263081161868
 21
149.270360393682
 31
0.0
  0
LINE
  5
587
102
{ACAD_REACTORS
330
60D
102
}
330
1F
100
AcDbEntity
  8
中心線
100
AcDbLine
 10
364.3263081161888
 20
76.91754665126537
 30
0.0
 11
364.3263081161888
 21
51.91754665126535
 31
0.0
  0
LINE
  5
588
102
{ACAD_REACTORS
330
60D
102
}
330
1F
100
AcDbEntity
  8
中心線
100
AcDbLine
 10
351.8263081161888
 20
64.41754665126535
 30
0.0
 11
376.8263081161887
 21
64.41754665126535
 31
0.0
  0
LINE
  5
589
102
{ACAD_REACTORS
330
60D
102
}
330
1F
100
AcDbEntity
  8
中心線
100
AcDbLine
 10
226.8999012449794
 20
106.8439535224726
 30
0.0
 11
416.8999012449793
 21
106.8439535224726
 31
0.0
  0
LINE
  5
58A
102
{ACAD_REACTORS
330
60D
102
}
330
1F
100
AcDbEntity
  8
中心線
100
AcDbLine
 10
321.8999012449796
 20
11.84395352247267
 30
0.0
 11
321.8999012449795
 21
201.8439535224727
 31
0.0
  0
LINE
  5
58B
102
{ACAD_REACTORS
330
5BF
102
}
330
1F
100
AcDbEntity
  8
中心線
100
AcDbLine
 10
279.4734943737721
 20
596.9175466512632
 30
0.0
 11
279.4734943737721
 21
571.9175466512632
 31
0.0
  0
LINE
  5
58C
102
{ACAD_REACTORS
330
5BF
102
}
330
1F
100
AcDbEntity
  8
中心線
100
AcDbLine
 10
266.9734943737721
 20
584.4175466512632
 30
0.0
 11
291.9734943737721
 21
584.4175466512632
 31
0.0
  0
LINE
  5
58D
102
{ACAD_REACTORS
330
5BF
102
}
330
1F
100
AcDbEntity
  8
中心線
100
AcDbLine
 10
279.4734943737704
 20
681.7703603936799
 30
0.0
 11
279.4734943737704
 21
656.7703603936799
 31
0.0
  0
LINE
  5
58E
102
{ACAD_REACTORS
330
5BF
102
}
330
1F
100
AcDbEntity
  8
中心線
100
AcDbLine
 10
266.9734943737703
 20
669.2703603936799
 30
0.0
 11
291.9734943737704
 21
669.2703603936799
 31
0.0
  0
LINE
  5
58F
102
{ACAD_REACTORS
330
5BF
102
}
330
1F
100
AcDbEntity
  8
中心線
100
AcDbLine
 10
364.3263081161868
 20
681.7703603936821
 30
0.0
 11
364.3263081161868
 21
656.7703603936821
 31
0.0
  0
LINE
  5
590
102
{ACAD_REACTORS
330
5BF
102
}
330
1F
100
AcDbEntity
  8
中心線
100
AcDbLine
 10
351.8263081161868
 20
669.2703603936821
 30
0.0
 11
376.8263081161868
 21
669.2703603936821
 31
0.0
  0
LINE
  5
591
102
{ACAD_REACTORS
330
5BF
102
}
330
1F
100
AcDbEntity
  8
中心線
100
AcDbLine
 10
364.3263081161888
 20
596.9175466512654
 30
0.0
 11
364.3263081161888
 21
571.9175466512654
 31
0.0
  0
LINE
  5
592
102
{ACAD_REACTORS
330
5BF
102
}
330
1F
100
AcDbEntity
  8
中心線
100
AcDbLine
 10
351.8263081161888
 20
584.4175466512654
 30
0.0
 11
376.8263081161887
 21
584.4175466512654
 31
0.0
  0
LINE
  5
593
102
{ACAD_REACTORS
330
5BF
102
}
330
1F
100
AcDbEntity
  8
中心線
100
AcDbLine
 10
226.8999012449794
 20
626.8439535224728
 30
0.0
 11
416.8999012449793
 21
626.8439535224728
 31
0.0
  0
LINE
  5
594
102
{ACAD_REACTORS
330
5BF
102
}
330
1F
100
AcDbEntity
  8
中心線
100
AcDbLine
 10
321.8999012449796
 20
531.8439535224727
 30
0.0
 11
321.8999012449796
 21
721.8439535224726
 31
0.0
  0
LINE
  5
595
102
{ACAD_REACTORS
330
5B1
102
}
330
1F
100
AcDbEntity
  8
中心線
100
AcDbLine
 10
712.1183645185642
 20
436.3439535224727
 30
0.0
 11
811.681437971395
 21
436.3439535224727
 31
0.0
  0
LINE
  5
596
102
{ACAD_REACTORS
330
5B1
102
}
330
1F
100
AcDbEntity
  8
中心線
100
AcDbLine
 10
761.8999012449797
 20
280.4914302928641
 30
0.0
 11
761.8999012449795
 21
474.149167509184
 31
0.0
  0
LINE
  5
597
102
{ACAD_REACTORS
330
5B1
102
}
330
1F
100
AcDbEntity
  8
中心線
100
AcDbLine
 10
811.681437971395
 20
436.3439535224727
 30
0.0
 11
838.8919935411216
 21
409.1333979527457
 31
0.0
  0
LINE
  5
598
102
{ACAD_REACTORS
330
5B3
102
}
330
1F
100
AcDbEntity
  8
中心線
100
AcDbLine
 10
272.1183645185643
 20
436.3439535224726
 30
0.0
 11
371.6814379713949
 21
436.3439535224726
 31
0.0
  0
LINE
  5
599
102
{ACAD_REACTORS
330
5B3
102
}
330
1F
100
AcDbEntity
  8
中心線
100
AcDbLine
 10
272.1183645185643
 20
436.3439535224726
 30
0.0
 11
244.9078089488373
 21
409.1333979527452
 31
0.0
  0
LINE
  5
59A
102
{ACAD_REACTORS
330
5B3
102
}
330
1F
100
AcDbEntity
  8
中心線
100
AcDbLine
 10
321.8999012449795
 20
280.4914302928641
 30
0.0
 11
321.8999012449796
 21
474.149167509184
 31
0.0
  0
LINE
  5
59B
102
{ACAD_REACTORS
330
6E6
102
}
330
1F
100
AcDbEntity
  8
中心線
100
AcDbLine
 10
541.8999012449794
 20
280.4914302928641
 30
0.0
 11
541.8999012449794
 21
474.149167509184
 31
0.0
  0
LINE
  5
59C
102
{ACAD_REACTORS
330
6E6
102
}
330
1F
100
AcDbEntity
  8
中心線
100
AcDbLine
 10
496.8999012449796
 20
436.3439535224727
 30
0.0
 11
586.8999012449794
 21
436.3439535224727
 31
0.0
  0
LINE
  5
5AF
102
{ACAD_REACTORS
330
6E7
102
}
330
1F
100
AcDbEntity
  8
中心線
100
AcDbLine
 10
101.8999012449794
 20
280.4914302928641
 30
0.0
 11
101.8999012449795
 21
474.149167509184
 31
0.0
  0
LINE
  5
5B0
102
{ACAD_REACTORS
330
6E7
102
}
330
1F
100
AcDbEntity
  8
中心線
100
AcDbLine
 10
56.89990124497959
 20
436.3439535224727
 30
0.0
 11
146.8999012449796
 21
436.3439535224727
 31
0.0
  0
ENDSEC
  0
SECTION
  2
OBJECTS
  0
DICTIONARY
  5
C
330
0
100
AcDbDictionary
281
     1
  3
ACAD_CIP_PREVIOUS_PRODUCT_INFO
350
220
  3
ACAD_COLOR
350
216
  3
ACAD_DETAILVIEWSTYLE
350
219
  3
ACAD_GROUP
350
D
  3
ACAD_LAYOUT
350
1A
  3
ACAD_MATERIAL
350
43
  3
ACAD_MLEADERSTYLE
350
5B
  3
ACAD_MLINESTYLE
350
17
  3
ACAD_PLOTSETTINGS
350
19
  3
ACAD_PLOTSTYLENAME
350
E
  3
ACAD_SCALELIST
350
47
  3
ACAD_SECTIONVIEWSTYLE
350
217
  3
ACAD_TABLESTYLE
350
59
  3
ACAD_VISUALSTYLE
350
2A
  3
ACDB_RECOMPOSE_DATA
350
76B
  3
AcDbVariableDictionary
350
1CB
  3
DWGPROPS
350
76C
  0
DICTIONARY
  5
227
330
2
100
AcDbDictionary
280
     1
281
     1
  3
ACAD_LAYERSTATES
360
228
  0
DICTIONARY
  5
5C1
330
10
100
AcDbDictionary
280
     1
281
     1
  3
ADSK_XREC_LAYER_RECONCILED
360
5C2
  0
DICTIONARY
  5
223
330
222
100
AcDbDictionary
280
     1
281
     1
  3
ADSK_XREC_LAYER_RECONCILED
360
5C3
  0
DICTIONARY
  5
225
330
224
100
AcDbDictionary
280
     1
281
     1
  3
ADSK_XREC_LAYER_RECONCILED
360
5C4
  0
DICTIONARY
  5
348
330
1F
100
AcDbDictionary
280
     1
281
     1
  3
ACAD_SORTENTS
360
349
  0
XRECORD
  5
220
102
{ACAD_REACTORS
330
C
102
}
330
C
100
AcDbXrecord
280
     1
300
ACDLT
300
2016
300
ACDLT_F_S
  0
DICTIONARY
  5
216
102
{ACAD_REACTORS
330
C
102
}
330
C
100
AcDbDictionary
281
     1
  0
DICTIONARY
  5
219
102
{ACAD_REACTORS
330
C
102
}
330
C
100
AcDbDictionary
281
     1
  3
Metric50
350
21A
  0
DICTIONARY
  5
D
102
{ACAD_REACTORS
330
C
102
}
330
C
100
AcDbDictionary
281
     1
  3
*A1
350
5B1
  3
*A3
350
5B3
  3
*A5
350
5BF
  3
*A6
350
60D
  3
*A7
350
6E6
  3
*A8
350
6E7
  0
DICTIONARY
  5
1A
102
{ACAD_REACTORS
330
C
102
}
330
C
100
AcDbDictionary
281
     1
  3
Layout1
350
1E
  3
Model
350
22
  3
レイアウト1
350
21B
  0
DICTIONARY
  5
43
102
{ACAD_REACTORS
330
C
102
}
330
C
100
AcDbDictionary
281
     1
  3
ByBlock
350
45
  3
ByLayer
350
44
  3
Global
350
46
  0
DICTIONARY
  5
5B
102
{ACAD_REACTORS
330
C
102
}
330
C
100
AcDbDictionary
281
     1
  3
Standard
350
5C
  0
DICTIONARY
  5
17
102
{ACAD_REACTORS
330
C
102
}
330
C
100
AcDbDictionary
281
     1
  3
Standard
350
18
  0
DICTIONARY
  5
19
102
{ACAD_REACTORS
330
C
102
}
330
C
100
AcDbDictionary
281
     1
  0
ACDBDICTIONARYWDFLT
  5
E
102
{ACAD_REACTORS
330
C
102
}
330
C
100
AcDbDictionary
281
     1
  3
Normal
350
F
100
AcDbDictionaryWithDefault
340
F
  0
DICTIONARY
  5
47
102
{ACAD_REACTORS
330
C
102
}
330
C
100
AcDbDictionary
281
     1
  3
A0
350
48
  3
A1
350
49
  3
A2
350
4A
  3
A3
350
4B
  3
A4
350
4C
  3
A5
350
4D
  3
A6
350
4E
  3
A7
350
4F
  3
A8
350
50
  3
A9
350
51
  3
B0
350
52
  3
B1
350
53
  3
B2
350
54
  3
B3
350
55
  3
B4
350
56
  3
B5
350
57
  3
B6
350
58
  0
DICTIONARY
  5
217
102
{ACAD_REACTORS
330
C
102
}
330
C
100
AcDbDictionary
281
     1
  3
Metric50
350
218
  0
DICTIONARY
  5
59
102
{ACAD_REACTORS
330
C
102
}
330
C
100
AcDbDictionary
281
     1
  3
Standard
350
5A
  0
DICTIONARY
  5
2A
102
{ACAD_REACTORS
330
C
102
}
330
C
100
AcDbDictionary
281
     1
  3
2dWireframe
350
2F
  3
Basic
350
32
  3
Brighten
350
36
  3
ColorChange
350
3A
  3
Conceptual
350
34
  3
Dim
350
35
  3
EdgeColorOff
350
3D
  3
Facepattern
350
39
  3
Flat
350
2B
  3
FlatWithEdges
350
2C
  3
Gouraud
350
2D
  3
GouraudWithEdges
350
2E
  3
Hidden
350
31
  3
JitterOff
350
3B
  3
Linepattern
350
38
  3
OverhangOff
350
3C
  3
Realistic
350
33
  3
Shaded
350
42
  3
Shaded with edges
350
41
  3
Shades of Gray
350
3E
  3
Sketchy
350
3F
  3
Thicken
350
37
  3
Wireframe
350
30
  3
X-Ray
350
40
  0
XRECORD
  5
76B
102
{ACAD_REACTORS
330
C
102
}
330
C
100
AcDbXrecord
280
     1
 90
        1
330
5A
  0
DICTIONARY
  5
1CB
102
{ACAD_REACTORS
330
C
102
}
330
C
100
AcDbDictionary
281
     1
  3
CANNOSCALE
350
1D9
  3
CENTEREXE
350
1D2
  3
CENTERLTYPEFILE
350
1D3
  3
CMLEADERSTYLE
350
1CD
  3
CTABLESTYLE
350
1CC
  3
CVIEWDETAILSTYLE
350
5C5
  3
CVIEWSECTIONSTYLE
350
5C6
  3
DIMASSOC
350
1D4
  3
HIDETEXT
350
1D5
  3
INDEXCTL
350
614
  3
LAYEREVAL
350
5C8
  3
LAYERNOTIFY
350
5C9
  3
LIGHTINGUNITS
350
5C7
  3
LOFTANG1
350
6EA
  3
LOFTANG2
350
6EB
  3
MSLTSCALE
350
1DA
  3
PSOLHEIGHT
350
6E9
  3
PSOLWIDTH
350
6E8
  3
SORTENTS
350
613
  3
XCLIPFRAME
350
6EC
  0
XRECORD
  5
76C
102
{ACAD_REACTORS
330
C
102
}
330
C
100
AcDbXrecord
280
     1
  1
DWGPROPS COOKIE
  2

  3

  4

  6
File was created by TR2_DExp
  7

  8
fujino
  9

300
=
301
=
302
=
303
=
304
=
305
=
306
=
307
=
308
=
309
=
 40
0.0280286574074074
 41
2455188.75
 42
2459741.570511111
  1

 90
        0
  0
DICTIONARY
  5
228
102
{ACAD_REACTORS
330
227
102
}
330
227
100
AcDbDictionary
281
     1
  0
XRECORD
  5
5C2
102
{ACAD_REACTORS
330
5C1
102
}
330
5C1
100
AcDbXrecord
280
     1
290
     1
  0
XRECORD
  5
5C3
102
{ACAD_REACTORS
330
223
102
}
330
223
100
AcDbXrecord
280
     1
290
     1
  0
XRECORD
  5
5C4
102
{ACAD_REACTORS
330
225
102
}
330
225
100
AcDbXrecord
280
     1
290
     1
  0
SORTENTSTABLE
  5
349
102
{ACAD_REACTORS
330
348
102
}
330
348
100
AcDbSortentsTable
330
1F
331
39C
  5
41C
331
365
  5
452
331
398
  5
418
331
3D7
  5
3DC
331
416
  5
3A1
331
35D
  5
44A
331
394
  5
414
331
58D
  5
58D
331
3D3
  5
3D8
331
337
  5
46D
331
44E
  5
34F
331
412
  5
39D
331
40E
  5
399
331
359
  5
446
331
44A
  5
34B
331
589
  5
589
331
333
  5
469
331
3CF
  5
3D4
331
390
  5
410
331
3CB
  5
3D0
331
40A
  5
395
331
446
  5
345
331
585
  5
585
331
442
  5
341
331
581
  5
581
331
38C
  5
40C
331
355
  5
442
331
351
  5
43E
331
388
  5
408
331
3C7
  5
3CC
331
406
  5
391
331
384
  5
404
331
47D
  5
37E
331
3C3
  5
3C8
331
43E
  5
33D
331
402
  5
38D
331
3FE
  5
389
331
43A
  5
339
331
479
  5
37A
331
3BF
  5
3C4
331
380
  5
400
331
3BB
  5
3C0
331
3FA
  5
385
331
436
  5
335
331
475
  5
376
331
432
  5
331
331
471
  5
372
331
5AF
  5
5AF
331
5B0
  5
5B0
331
3B7
  5
3BC
331
3F6
  5
381
331
37C
  5
3FC
331
46D
  5
36E
331
3B3
  5
433
331
34F
  5
43C
331
42E
  5
3B9
331
3F2
  5
3F7
331
378
  5
465
331
3EE
  5
3F3
331
42A
  5
3B5
331
469
  5
36A
331
34B
  5
438
331
3AF
  5
42F
331
59B
  5
59B
331
3AB
  5
42B
331
3EA
  5
3EF
331
426
  5
3B1
331
465
  5
366
331
422
  5
3AD
331
461
  5
362
331
374
  5
461
331
370
  5
45D
331
3E6
  5
3EB
331
3A7
  5
427
331
36C
  5
459
331
45D
  5
35E
331
3E2
  5
3E7
331
3A3
  5
423
331
3DE
  5
3E3
331
459
  5
35A
331
41D
  5
3A8
331
368
  5
455
331
3DA
  5
3DF
331
419
  5
3A4
331
455
  5
356
331
594
  5
594
331
590
  5
590
331
33A
  5
470
331
451
  5
352
331
39F
  5
41F
331
39B
  5
41B
331
397
  5
417
331
3D6
  5
3DB
331
415
  5
3A0
331
411
  5
39C
331
35C
  5
449
331
44D
  5
34E
331
58C
  5
58C
331
3D2
  5
3D7
331
336
  5
46C
331
393
  5
413
331
40D
  5
398
331
358
  5
445
331
449
  5
34A
331
588
  5
588
331
3CE
  5
3D3
331
332
  5
468
331
3CA
  5
3CF
331
409
  5
394
331
445
  5
344
331
584
  5
584
331
441
  5
340
331
38F
  5
40F
331
38B
  5
40B
331
354
  5
441
331
350
  5
43D
331
387
  5
407
331
3C6
  5
3CB
331
405
  5
390
331
383
  5
403
331
47C
  5
37D
331
3C2
  5
3C7
331
401
  5
38C
331
43D
  5
33C
331
3FD
  5
388
331
439
  5
338
331
478
  5
379
331
3BE
  5
3C3
331
3BA
  5
3BF
331
3F9
  5
384
331
435
  5
334
331
474
  5
375
331
431
  5
330
331
470
  5
371
331
340
  5
476
331
37F
  5
3FF
331
3B6
  5
436
331
3F5
  5
380
331
37B
  5
3FB
331
46C
  5
36D
331
3B2
  5
432
331
3F1
  5
3F6
331
34E
  5
43B
331
42D
  5
3B8
331
59A
  5
59A
331
3ED
  5
3F2
331
429
  5
3B4
331
468
  5
369
331
3AE
  5
42E
331
34A
  5
437
331
3AA
  5
42A
331
3E9
  5
3EE
331
425
  5
3B0
331
464
  5
365
331
421
  5
3AC
331
460
  5
361
331
377
  5
464
331
373
  5
460
331
3E5
  5
3EA
331
3A6
  5
426
331
36B
  5
458
331
45C
  5
35D
331
3E1
  5
3E6
331
3A2
  5
422
331
3DD
  5
3E2
331
41C
  5
3A7
331
458
  5
359
331
597
  5
597
331
3D9
  5
3DE
331
418
  5
3A3
331
33D
  5
473
331
454
  5
355
331
593
  5
593
331
339
  5
46F
331
450
  5
351
331
39E
  5
41E
331
39A
  5
41A
331
35F
  5
44C
331
396
  5
416
331
58F
  5
58F
331
3D5
  5
3DA
331
414
  5
39F
331
410
  5
39B
331
35B
  5
448
331
44C
  5
34D
331
58B
  5
58B
331
3D1
  5
3D6
331
335
  5
46B
331
392
  5
412
331
3CD
  5
3D2
331
40C
  5
397
331
331
  5
467
331
448
  5
347
331
587
  5
587
331
3C9
  5
3CE
331
408
  5
393
331
444
  5
343
331
583
  5
583
331
440
  5
33F
331
38E
  5
40E
331
357
  5
444
331
353
  5
440
331
38A
  5
40A
331
386
  5
406
331
3C5
  5
3CA
331
404
  5
38F
331
400
  5
38B
331
43C
  5
33B
331
47B
  5
37C
331
3C1
  5
3C6
331
382
  5
402
331
3FC
  5
387
331
438
  5
337
331
477
  5
378
331
3BD
  5
3C2
331
3B9
  5
3BE
331
3F8
  5
383
331
434
  5
333
331
473
  5
374
331
430
  5
3BB
331
347
  5
47D
331
343
  5
479
331
37E
  5
3FE
331
46F
  5
370
331
3B5
  5
435
331
3F4
  5
3F9
331
37A
  5
3FA
331
46B
  5
36C
331
3B1
  5
431
331
34D
  5
43A
331
42C
  5
3B7
331
3F0
  5
3F5
331
599
  5
599
331
3EC
  5
3F1
331
428
  5
3B3
331
467
  5
368
331
3AD
  5
42D
331
3A9
  5
429
331
3E8
  5
3ED
331
424
  5
3AF
331
463
  5
364
331
420
  5
3AB
331
372
  5
45F
331
3E4
  5
3E9
331
3A5
  5
425
331
45F
  5
360
331
41F
  5
3AA
331
45B
  5
35C
331
3E0
  5
3E5
331
3A1
  5
421
331
3DC
  5
3E1
331
41B
  5
3A6
331
457
  5
358
331
596
  5
596
331
3D8
  5
3DD
331
453
  5
354
331
592
  5
592
331
338
  5
46E
331
39D
  5
41D
331
362
  5
44F
331
399
  5
419
331
417
  5
3A2
331
35E
  5
44B
331
395
  5
415
331
58E
  5
58E
331
3D4
  5
3D9
331
44F
  5
350
331
413
  5
39E
331
40F
  5
39A
331
35A
  5
447
331
44B
  5
34C
331
58A
  5
58A
331
334
  5
46A
331
3D0
  5
3D5
331
391
  5
411
331
3CC
  5
3D1
331
40B
  5
396
331
447
  5
346
331
586
  5
586
331
3C8
  5
3CD
331
443
  5
342
331
582
  5
582
331
38D
  5
40D
331
356
  5
443
331
352
  5
43F
331
389
  5
409
331
407
  5
392
331
385
  5
405
331
47E
  5
37F
331
3C4
  5
3C9
331
43F
  5
33E
331
403
  5
38E
331
3FF
  5
38A
331
43B
  5
33A
331
47A
  5
37B
331
3C0
  5
3C5
331
381
  5
401
331
3BC
  5
3C1
331
3FB
  5
386
331
437
  5
336
331
476
  5
377
331
3B8
  5
3BD
331
433
  5
332
331
472
  5
373
331
346
  5
47C
331
3F7
  5
382
331
37D
  5
3FD
331
46E
  5
36F
331
3B4
  5
434
331
42F
  5
3BA
331
3F3
  5
3F8
331
379
  5
466
331
3EF
  5
3F4
331
42B
  5
3B6
331
46A
  5
36B
331
34C
  5
439
331
3B0
  5
430
331
59C
  5
59C
331
598
  5
598
331
3EB
  5
3F0
331
427
  5
3B2
331
466
  5
367
331
3AC
  5
42C
331
3A8
  5
428
331
423
  5
3AE
331
462
  5
363
331
371
  5
45E
331
3E7
  5
3EC
331
36D
  5
45A
331
45E
  5
35F
331
3E3
  5
3E8
331
3A4
  5
424
331
3A0
  5
420
331
41E
  5
3A9
331
45A
  5
35B
331
3DF
  5
3E4
331
3DB
  5
3E0
331
41A
  5
3A5
331
456
  5
357
331
595
  5
595
331
591
  5
591
331
452
  5
353
  0
ACDBDETAILVIEWSTYLE
  5
21A
102
{ACAD_XDICTIONARY
360
7A4
102
}
102
{ACAD_REACTORS
330
219
102
}
330
219
100
AcDbModelDocViewStyle
 70
     0
  3
Metric50
290
     0
100
AcDbDetailViewStyle
 70
     0
 71
     0
 90
        3
 71
     1
340
11
 40
5.0
340
0
 40
5.0
300

 40
0.0
280
     1
 71
     2
340
16
 90
       25
 71
     3
340
11
 40
5.0
 90
        0
 40
15.0
 90
        1
300
%<\AcVar ViewDetailId>% (%<\AcVar ViewScale \f "%sn">%)
 71
     4
340
16
 90
       25
340
16
 90
       25
280
     0
  0
GROUP
  5
5B1
102
{ACAD_REACTORS
330
D
102
}
330
D
100
AcDbGroup
300

 70
     1
 71
     1
340
597
340
596
340
595
340
3B6
340
3B5
340
3B4
340
3B3
340
3B2
340
3B1
340
3B0
340
3AF
340
3AE
340
3AD
340
3AC
340
3AB
340
3AA
340
3A9
340
3A8
340
3A7
340
3A6
340
3A5
340
3A4
340
3A3
340
3A2
340
3A1
340
3A0
340
39F
340
39E
340
39D
340
39C
340
39B
340
39A
340
399
340
398
340
397
340
396
340
395
340
394
340
393
340
392
340
391
340
390
340
38F
340
38E
340
38D
340
38C
340
38B
340
38A
340
389
340
388
340
387
340
386
340
385
340
384
340
383
340
382
340
381
340
380
340
37F
340
37E
340
37D
340
37C
340
37B
340
37A
  0
GROUP
  5
5B3
102
{ACAD_REACTORS
330
D
102
}
330
D
100
AcDbGroup
300

 70
     1
 71
     1
340
59A
340
599
340
598
340
47E
340
47D
340
47C
340
47B
340
47A
340
479
340
478
340
477
340
476
340
475
340
474
340
473
340
472
340
471
340
470
340
46F
340
46E
340
46D
340
46C
340
46B
340
46A
340
469
340
468
340
467
340
466
340
465
340
464
340
463
340
462
340
461
340
460
340
45F
340
45E
340
45D
340
45C
340
45B
340
45A
340
459
340
458
340
457
340
456
340
455
340
454
340
453
340
452
340
451
340
450
340
44F
340
44E
340
44D
340
44C
340
44B
340
44A
340
449
340
448
340
447
340
446
340
445
340
444
340
443
340
442
340
441
340
440
340
43F
340
43E
340
43D
340
43C
340
43B
340
43A
340
439
340
438
340
437
340
436
340
435
340
434
340
433
340
432
340
431
  0
GROUP
  5
5BF
102
{ACAD_REACTORS
330
D
102
}
330
D
100
AcDbGroup
300

 70
     1
 71
     1
340
594
340
593
340
592
340
591
340
58F
340
58C
340
347
340
343
340
590
340
58E
340
58D
340
58B
340
346
340
340
340
33D
340
33A
340
339
340
338
340
337
340
336
340
335
340
334
340
333
340
332
340
331
  0
GROUP
  5
60D
102
{ACAD_REACTORS
330
D
102
}
330
D
100
AcDbGroup
300

 70
     1
 71
     1
340
58A
340
589
340
588
340
587
340
586
340
585
340
584
340
583
340
582
340
581
340
379
340
378
340
377
340
374
340
373
340
372
340
371
340
370
340
36D
340
36C
340
36B
340
368
340
365
340
362
340
35F
340
35E
340
35D
340
35C
340
35B
340
35A
340
359
340
358
340
357
340
356
340
355
340
354
340
353
340
352
340
351
340
350
340
34F
340
34E
340
34D
340
34C
340
34B
340
34A
  0
GROUP
  5
6E6
102
{ACAD_REACTORS
330
D
102
}
330
D
100
AcDbGroup
300

 70
     1
 71
     1
340
59C
340
59B
340
3F4
340
3F3
340
3F2
340
3F1
340
3F0
340
3EF
340
3EE
340
3ED
340
3EC
340
3EB
340
3EA
340
3E9
340
3E8
340
3E7
340
3E6
340
3E5
340
3E4
340
3E3
340
3E2
340
3E1
340
3E0
340
3DF
340
3DE
340
3DD
340
3DC
340
3DB
340
3DA
340
3D9
340
3D8
340
3D7
340
3D6
340
3D5
340
3D4
340
3D3
340
3D2
340
3D1
340
3D0
340
3CF
340
3CE
340
3CD
340
3CC
340
3CB
340
3CA
340
3C9
340
3C8
340
3C7
340
3C6
340
3C5
340
3C4
340
3C3
340
3C2
340
3C1
340
3C0
340
3BF
340
3BE
340
3BD
340
3BC
340
3BB
340
3BA
340
3B9
340
3B8
340
3B7
  0
GROUP
  5
6E7
102
{ACAD_REACTORS
330
D
102
}
330
D
100
AcDbGroup
300

 70
     1
 71
     1
340
5B0
340
5AF
340
430
340
42F
340
42E
340
42D
340
42C
340
42B
340
42A
340
429
340
428
340
427
340
426
340
425
340
424
340
423
340
422
340
421
340
420
340
41F
340
41E
340
41D
340
41C
340
41B
340
41A
340
419
340
418
340
417
340
416
340
415
340
414
340
413
340
412
340
411
340
410
340
40F
340
40E
340
40D
340
40C
340
40B
340
40A
340
409
340
408
340
407
340
406
340
405
340
404
340
403
340
402
340
401
340
400
340
3FF
340
3FE
340
3FD
340
3FC
340
3FB
340
3FA
340
3F9
340
3F8
340
3F7
340
3F6
340
3F5
  0
LAYOUT
  5
1E
102
{ACAD_XDICTIONARY
360
76D
102
}
102
{ACAD_REACTORS
330
1A
102
}
330
1A
100
AcDbPlotSettings
  1

  2
none_device
  4

  6

 40
0.0
 41
0.0
 42
0.0
 43
0.0
 44
0.0
 45
0.0
 46
0.0
 47
0.0
 48
0.0
 49
0.0
140
0.0
141
0.0
142
1.0
143
1.0
 70
   688
 72
     1
 73
     0
 74
     5
  7

 75
    16
147
1.0
148
0.0
149
0.0
100
AcDbLayout
  1
Layout1
 70
     1
 71
     1
 10
0.0
 20
0.0
 11
420.0
 21
297.0
 12
0.0
 22
0.0
 32
0.0
 14
1.000000000000000E+20
 24
1.000000000000000E+20
 34
1.000000000000000E+20
 15
-1.000000000000000E+20
 25
-1.000000000000000E+20
 35
-1.000000000000000E+20
146
0.0
 13
0.0
 23
0.0
 33
0.0
 16
1.0
 26
0.0
 36
0.0
 17
0.0
 27
1.0
 37
0.0
 76
     0
330
1B
  0
LAYOUT
  5
22
102
{ACAD_XDICTIONARY
360
76F
102
}
102
{ACAD_REACTORS
330
1A
102
}
330
1A
100
AcDbPlotSettings
  1

  2
none_device
  4
Letter_(8.50_x_11.00_Inches)
  6

 40
6.349999999999997
 41
6.349999999999997
 42
6.350005079999997
 43
6.350005079999997
 44
215.9
 45
279.4
 46
0.0
 47
0.0
 48
0.0
 49
0.0
140
0.0
141
0.0
142
1.0
143
1.0
 70
  1712
 72
     1
 73
     0
 74
     0
  7

 75
     0
147
1.0
148
0.0
149
0.0
100
AcDbLayout
  1
Model
 70
     1
 71
     0
 10
-323.7259712219238
 20
-434.365291595459
 11
626.3006454238172
 21
297.0984954833984
 12
0.0
 22
0.0
 32
0.0
 14
-323.7259712219238
 24
-434.365291595459
 34
0.0
 15
626.3006454238172
 25
297.0984954833984
 35
0.0
146
0.0
 13
0.0
 23
0.0
 33
0.0
 16
1.0
 26
0.0
 36
0.0
 17
0.0
 27
1.0
 37
0.0
 76
     0
330
1F
331
29
  0
LAYOUT
  5
21B
102
{ACAD_XDICTIONARY
360
7A6
102
}
102
{ACAD_REACTORS
330
1A
102
}
330
1A
100
AcDbPlotSettings
  1

  2
青梅 FX DocuCentre-V C2275 T2
  4

  6

 40
0.0
 41
0.0
 42
0.0
 43
0.0
 44
0.0
 45
0.0
 46
0.0
 47
0.0
 48
0.0
 49
0.0
140
0.0
141
0.0
142
1.0
143
1.0
 70
   688
 72
     0
 73
     0
 74
     5
  7
AutoCAD_PEN.ctb
 75
    16
147
1.0
148
0.0
149
0.0
100
AcDbLayout
  1
レイアウト1
 70
     1
 71
     2
 10
0.0
 20
0.0
 11
12.0
 21
9.0
 12
0.0
 22
0.0
 32
0.0
 14
0.0
 24
0.0
 34
0.0
 15
0.0
 25
0.0
 35
0.0
146
0.0
 13
0.0
 23
0.0
 33
0.0
 16
1.0
 26
0.0
 36
0.0
 17
0.0
 27
1.0
 37
0.0
 76
     0
330
23
  0
MATERIAL
  5
45
102
{ACAD_XDICTIONARY
360
20D
102
}
102
{ACAD_REACTORS
330
43
102
}
330
43
100
AcDbMaterial
  1
ByBlock
  0
MATERIAL
  5
44
102
{ACAD_XDICTIONARY
360
20B
102
}
102
{ACAD_REACTORS
330
43
102
}
330
43
100
AcDbMaterial
  1
ByLayer
  0
MATERIAL
  5
46
102
{ACAD_XDICTIONARY
360
20F
102
}
102
{ACAD_REACTORS
330
43
102
}
330
43
100
AcDbMaterial
  1
Global
  0
MLEADERSTYLE
  5
5C
102
{ACAD_REACTORS
330
5B
102
}
330
5B
100
AcDbMLeaderStyle
170
     2
171
     1
172
     0
 90
        2
 40
0.0
 41
0.0
173
     1
 91
-1056964608
340
14
 92
       -2
290
     1
 42
2.0
291
     1
 43
8.0
  3
Standard
 44
4.0
300

342
11
174
     1
178
     6
175
     1
176
     0
 93
-1056964608
 45
4.0
292
     0
297
     0
 46
4.0
 94
-1056964608
 47
1.0
 49
1.0
140
1.0
293
     1
141
0.0
294
     1
177
     0
142
1.0
295
     0
296
     0
143
3.75
1001
ACAD_MLEADERVER
1070
     2
  0
MLINESTYLE
  5
18
102
{ACAD_REACTORS
330
17
102
}
330
17
100
AcDbMlineStyle
  2
STANDARD
 70
     0
  3

 62
   256
 51
90.0
 52
90.0
 71
     2
 49
0.5
 62
   256
  6
BYLAYER
 49
-0.5
 62
   256
  6
BYLAYER
  0
ACDBPLACEHOLDER
  5
F
102
{ACAD_REACTORS
330
E
102
}
330
E
  0
SCALE
  5
48
102
{ACAD_REACTORS
330
47
102
}
330
47
100
AcDbScale
 70
     0
300
1:1
140
1.0
141
1.0
290
     1
  0
SCALE
  5
49
102
{ACAD_REACTORS
330
47
102
}
330
47
100
AcDbScale
 70
     0
300
1:2
140
1.0
141
2.0
290
     0
  0
SCALE
  5
4A
102
{ACAD_REACTORS
330
47
102
}
330
47
100
AcDbScale
 70
     0
300
1:4
140
1.0
141
4.0
290
     0
  0
SCALE
  5
4B
102
{ACAD_REACTORS
330
47
102
}
330
47
100
AcDbScale
 70
     0
300
1:5
140
1.0
141
5.0
290
     0
  0
SCALE
  5
4C
102
{ACAD_REACTORS
330
47
102
}
330
47
100
AcDbScale
 70
     0
300
1:8
140
1.0
141
8.0
290
     0
  0
SCALE
  5
4D
102
{ACAD_REACTORS
330
47
102
}
330
47
100
AcDbScale
 70
     0
300
1:10
140
1.0
141
10.0
290
     0
  0
SCALE
  5
4E
102
{ACAD_REACTORS
330
47
102
}
330
47
100
AcDbScale
 70
     0
300
1:16
140
1.0
141
16.0
290
     0
  0
SCALE
  5
4F
102
{ACAD_REACTORS
330
47
102
}
330
47
100
AcDbScale
 70
     0
300
1:20
140
1.0
141
20.0
290
     0
  0
SCALE
  5
50
102
{ACAD_REACTORS
330
47
102
}
330
47
100
AcDbScale
 70
     0
300
1:30
140
1.0
141
30.0
290
     0
  0
SCALE
  5
51
102
{ACAD_REACTORS
330
47
102
}
330
47
100
AcDbScale
 70
     0
300
1:40
140
1.0
141
40.0
290
     0
  0
SCALE
  5
52
102
{ACAD_REACTORS
330
47
102
}
330
47
100
AcDbScale
 70
     0
300
1:50
140
1.0
141
50.0
290
     0
  0
SCALE
  5
53
102
{ACAD_REACTORS
330
47
102
}
330
47
100
AcDbScale
 70
     0
300
1:100
140
1.0
141
100.0
290
     0
  0
SCALE
  5
54
102
{ACAD_REACTORS
330
47
102
}
330
47
100
AcDbScale
 70
     0
300
2:1
140
2.0
141
1.0
290
     0
  0
SCALE
  5
55
102
{ACAD_REACTORS
330
47
102
}
330
47
100
AcDbScale
 70
     0
300
4:1
140
4.0
141
1.0
290
     0
  0
SCALE
  5
56
102
{ACAD_REACTORS
330
47
102
}
330
47
100
AcDbScale
 70
     0
300
8:1
140
8.0
141
1.0
290
     0
  0
SCALE
  5
57
102
{ACAD_REACTORS
330
47
102
}
330
47
100
AcDbScale
 70
     0
300
10:1
140
10.0
141
1.0
290
     0
  0
SCALE
  5
58
102
{ACAD_REACTORS
330
47
102
}
330
47
100
AcDbScale
 70
     0
300
100:1
140
100.0
141
1.0
290
     0
  0
ACDBSECTIONVIEWSTYLE
  5
218
102
{ACAD_XDICTIONARY
360
7A2
102
}
102
{ACAD_REACTORS
330
217
102
}
330
217
100
AcDbModelDocViewStyle
 70
     0
  3
Metric50
290
     0
100
AcDbSectionViewStyle
 70
     0
 71
     0
 90
      102
 71
     1
340
11
 40
5.0
340
0
340
0
 40
5.0
300
I, O, Q, S, X, Z
 40
10.0
 90
        0
 40
2.5
 90
        0
 71
     2
340
16
 90
       25
340
16
 90
       50
 40
5.0
 40
2.5
 40
5.0
 71
     3
340
11
 40
5.0
 90
        0
 40
15.0
 90
        1
300
%<\AcVar ViewSectionStartId>%-%<\AcVar ViewSectionEndId>% (%<\AcVar ViewScale \f "%sn">%)
 71
     4
300
ANSI31
 40
1.0
 90
        0
290
     0
290
     0
 90
        6
 40
0.0
 40
1.570796326794896
 40
0.2617993877991494
 40
1.308996938995747
 40
-0.2617993877991494
 40
1.832595714594044
  0
TABLESTYLE
  5
5A
102
{ACAD_XDICTIONARY
360
5CA
102
}
102
{ACAD_REACTORS
330
59
102
}
330
59
100
AcDbTableStyle
  3
Standard
 70
     0
 71
     0
 40
1.5
 41
1.5
280
     0
281
     0
  7
Standard
140
4.5
170
     2
 62
     0
 63
     7
283
     0
274
    -2
284
     1
 64
     0
275
    -2
285
     1
 65
     0
276
    -2
286
     1
 66
     0
277
    -2
287
     1
 67
     0
278
    -2
288
     1
 68
     0
279
    -2
289
     1
 69
     0
  7
Standard
140
6.0
170
     5
 62
     0
 63
     7
283
     0
274
    -2
284
     1
 64
     0
275
    -2
285
     1
 65
     0
276
    -2
286
     1
 66
     0
277
    -2
287
     1
 67
     0
278
    -2
288
     1
 68
     0
279
    -2
289
     1
 69
     0
  7
Standard
140
4.5
170
     5
 62
     0
 63
     7
283
     0
274
    -2
284
     1
 64
     0
275
    -2
285
     1
 65
     0
276
    -2
286
     1
 66
     0
277
    -2
287
     1
 67
     0
278
    -2
288
     1
 68
     0
279
    -2
289
     1
 69
     0
  0
VISUALSTYLE
  5
2F
102
{ACAD_XDICTIONARY
360
779
102
}
102
{ACAD_REACTORS
330
2A
102
}
330
2A
100
AcDbVisualStyle
  2

 70
     4
 71
     0
 72
     2
 73
     0
 90
        0
 40
-0.6
 41
-30.0
 62
     5
 63
     7
 74
     1
 91
        4
 64
     7
 65
   257
 75
     1
175
     1
 42
1.0
 92
        0
 66
   257
 43
1.0
 76
     1
 77
     6
 78
     2
 67
     7
 79
     5
170
     0
171
     0
290
     0
174
     0
 93
        1
 44
0.0
173
     0
291
     0
 45
0.0
1001
ACAD
1000
AcDbSavedByObjectVersion
1070
     0
  0
VISUALSTYLE
  5
32
102
{ACAD_XDICTIONARY
360
77F
102
}
102
{ACAD_REACTORS
330
2A
102
}
330
2A
100
AcDbVisualStyle
  2

 70
     7
 71
     1
 72
     0
 73
     1
 90
        0
 40
-0.6
 41
-30.0
 62
     5
 63
     7
 74
     0
 91
        4
 64
     7
 65
   257
 75
     1
175
     1
 42
1.0
 92
        8
 66
     7
 43
1.0
 76
     1
 77
     6
 78
     2
 67
     7
 79
     5
170
     0
171
     0
290
     0
174
     0
 93
        1
 44
0.0
173
     0
291
     1
 45
0.0
1001
ACAD
1000
AcDbSavedByObjectVersion
1070
     0
  0
VISUALSTYLE
  5
36
102
{ACAD_XDICTIONARY
360
787
102
}
102
{ACAD_REACTORS
330
2A
102
}
330
2A
100
AcDbVisualStyle
  2

 70
    12
 71
     2
 72
     2
 73
     0
 90
        0
 40
-0.6
 41
-30.0
 62
     5
 63
     7
 74
     1
 91
        4
 64
     7
 65
   257
 75
     1
175
     1
 42
1.0
 92
        8
 66
     7
 43
1.0
 76
     1
 77
     6
 78
     2
 67
     7
 79
     5
170
     0
171
     0
290
     0
174
     0
 93
        1
 44
50.0
173
     0
291
     1
 45
0.0
1001
ACAD
1000
AcDbSavedByObjectVersion
1070
     0
  0
VISUALSTYLE
  5
3A
102
{ACAD_XDICTIONARY
360
78F
102
}
102
{ACAD_REACTORS
330
2A
102
}
330
2A
100
AcDbVisualStyle
  2

 70
    16
 71
     2
 72
     2
 73
     3
 90
        0
 40
-0.6
 41
-30.0
 62
     5
 63
     8
 74
     1
 91
        4
 64
     7
 65
   257
 75
     1
175
     1
 42
1.0
 92
        8
 66
     8
 43
1.0
 76
     1
 77
     6
 78
     2
 67
     7
 79
     5
170
     0
171
     0
290
     0
174
     0
 93
        1
 44
0.0
173
     0
291
     1
 45
0.0
1001
ACAD
1000
AcDbSavedByObjectVersion
1070
     0
  0
VISUALSTYLE
  5
34
102
{ACAD_XDICTIONARY
360
783
102
}
102
{ACAD_REACTORS
330
2A
102
}
330
2A
100
AcDbVisualStyle
  2

 70
     9
 71
     3
 72
     2
 73
     0
 90
        0
 40
-0.6
 41
-30.0
 62
     5
 63
     7
 74
     2
 91
        2
 64
     7
 65
   257
 75
     1
175
     1
 42
179.0
 92
        8
 66
     7
 43
1.0
 76
     1
 77
     6
 78
     2
 67
     7
 79
     3
170
     0
171
     0
290
     0
174
     0
 93
        1
 44
0.0
173
     0
291
     0
 45
0.0
1001
ACAD
1000
AcDbSavedByObjectVersion
1070
     0
  0
VISUALSTYLE
  5
35
102
{ACAD_XDICTIONARY
360
785
102
}
102
{ACAD_REACTORS
330
2A
102
}
330
2A
100
AcDbVisualStyle
  2

 70
    11
 71
     2
 72
     2
 73
     0
 90
        0
 40
-0.6
 41
-30.0
 62
     5
 63
     7
 74
     1
 91
        4
 64
     7
 65
   257
 75
     1
175
     1
 42
1.0
 92
        8
 66
     7
 43
1.0
 76
     1
 77
     6
 78
     2
 67
     7
 79
     5
170
     0
171
     0
290
     0
174
     0
 93
        1
 44
-50.0
173
     0
291
     1
 45
0.0
1001
ACAD
1000
AcDbSavedByObjectVersion
1070
     0
  0
VISUALSTYLE
  5
3D
102
{ACAD_XDICTIONARY
360
795
102
}
102
{ACAD_REACTORS
330
2A
102
}
330
2A
100
AcDbVisualStyle
  2

 70
    22
 71
     2
 72
     2
 73
     0
 90
        0
 40
-0.6
 41
-30.0
 62
     5
 63
     7
 74
     1
 91
        4
 64
     7
 65
   257
 75
     1
175
     1
 42
1.0
 92
        8
 66
     7
 43
1.0
 76
     1
 77
     6
 78
     2
 67
     7
 79
     5
170
     0
171
     0
290
     0
174
     0
 93
        1
 44
0.0
173
     0
291
     1
 45
0.0
1001
ACAD
1000
AcDbSavedByObjectVersion
1070
     0
  0
VISUALSTYLE
  5
39
102
{ACAD_XDICTIONARY
360
78D
102
}
102
{ACAD_REACTORS
330
2A
102
}
330
2A
100
AcDbVisualStyle
  2

 70
    15
 71
     2
 72
     2
 73
     0
 90
        0
 40
-0.6
 41
-30.0
 62
     5
 63
     7
 74
     1
 91
        4
 64
     7
 65
   257
 75
     1
175
     1
 42
1.0
 92
        8
 66
     7
 43
1.0
 76
     1
 77
     6
 78
     2
 67
     7
 79
     5
170
     0
171
     0
290
     0
174
     0
 93
        1
 44
0.0
173
     0
291
     1
 45
0.0
1001
ACAD
1000
AcDbSavedByObjectVersion
1070
     0
  0
VISUALSTYLE
  5
2B
102
{ACAD_XDICTIONARY
360
771
102
}
102
{ACAD_REACTORS
330
2A
102
}
330
2A
100
AcDbVisualStyle
  2

 70
     0
 71
     2
 72
     1
 73
     1
 90
        2
 40
-0.6
 41
30.0
 62
     5
 63
     7
 74
     0
 91
        0
 64
     7
 65
   257
 75
     1
175
     1
 42
1.0
 92
        8
 66
     7
 43
1.0
 76
     1
 77
     6
 78
     2
 67
     7
 79
     5
170
     0
171
     0
290
     0
174
     0
 93
       13
 44
0.0
173
     0
291
     1
 45
0.0
1001
ACAD
1000
AcDbSavedByObjectVersion
1070
     0
  0
VISUALSTYLE
  5
2C
102
{ACAD_XDICTIONARY
360
773
102
}
102
{ACAD_REACTORS
330
2A
102
}
330
2A
100
AcDbVisualStyle
  2

 70
     1
 71
     2
 72
     1
 73
     1
 90
        2
 40
-0.6
 41
30.0
 62
     5
 63
     7
 74
     1
 91
        0
 64
     7
 65
   257
 75
     1
175
     1
 42
1.0
 92
        0
 66
   257
 43
1.0
 76
     1
 77
     6
 78
     2
 67
     7
 79
     5
170
     0
171
     0
290
     0
174
     0
 93
       13
 44
0.0
173
     0
291
     1
 45
0.0
1001
ACAD
1000
AcDbSavedByObjectVersion
1070
     0
  0
VISUALSTYLE
  5
2D
102
{ACAD_XDICTIONARY
360
775
102
}
102
{ACAD_REACTORS
330
2A
102
}
330
2A
100
AcDbVisualStyle
  2

 70
     2
 71
     2
 72
     2
 73
     1
 90
        2
 40
-0.6
 41
30.0
 62
     5
 63
     7
 74
     0
 91
        0
 64
     7
 65
   257
 75
     1
175
     1
 42
1.0
 92
        0
 66
     7
 43
1.0
 76
     1
 77
     6
 78
     2
 67
     7
 79
     5
170
     0
171
     0
290
     0
174
     0
 93
       13
 44
0.0
173
     0
291
     1
 45
0.0
1001
ACAD
1000
AcDbSavedByObjectVersion
1070
     0
  0
VISUALSTYLE
  5
2E
102
{ACAD_XDICTIONARY
360
777
102
}
102
{ACAD_REACTORS
330
2A
102
}
330
2A
100
AcDbVisualStyle
  2

 70
     3
 71
     2
 72
     2
 73
     1
 90
        2
 40
-0.6
 41
30.0
 62
     5
 63
     7
 74
     1
 91
        0
 64
     7
 65
   257
 75
     1
175
     1
 42
1.0
 92
        0
 66
   257
 43
1.0
 76
     1
 77
     6
 78
     2
 67
     7
 79
     5
170
     0
171
     0
290
     0
174
     0
 93
       13
 44
0.0
173
     0
291
     1
 45
0.0
1001
ACAD
1000
AcDbSavedByObjectVersion
1070
     0
  0
VISUALSTYLE
  5
31
102
{ACAD_XDICTIONARY
360
77D
102
}
102
{ACAD_REACTORS
330
2A
102
}
330
2A
100
AcDbVisualStyle
  2

 70
     6
 71
     1
 72
     2
 73
     2
 90
        0
 40
-0.6
 41
-30.0
 62
     5
 63
     7
 74
     2
 91
        2
 64
     7
 65
   257
 75
     2
175
     1
 42
40.0
 92
        0
 66
   257
 43
1.0
 76
     1
 77
     6
 78
     2
 67
     7
 79
     3
170
     0
171
     0
290
     0
174
     0
 93
        1
 44
0.0
173
     0
291
     0
 45
0.0
1001
ACAD
1000
AcDbSavedByObjectVersion
1070
     0
  0
VISUALSTYLE
  5
3B
102
{ACAD_XDICTIONARY
360
791
102
}
102
{ACAD_REACTORS
330
2A
102
}
330
2A
100
AcDbVisualStyle
  2

 70
    20
 71
     2
 72
     2
 73
     0
 90
        0
 40
-0.6
 41
-30.0
 62
     5
 63
     7
 74
     1
 91
        4
 64
     7
 65
   257
 75
     1
175
     1
 42
1.0
 92
       10
 66
     7
 43
1.0
 76
     1
 77
     6
 78
     2
 67
     7
 79
     5
170
     0
171
     0
290
     0
174
     0
 93
        1
 44
0.0
173
     0
291
     1
 45
0.0
1001
ACAD
1000
AcDbSavedByObjectVersion
1070
     0
  0
VISUALSTYLE
  5
38
102
{ACAD_XDICTIONARY
360
78B
102
}
102
{ACAD_REACTORS
330
2A
102
}
330
2A
100
AcDbVisualStyle
  2

 70
    14
 71
     2
 72
     2
 73
     0
 90
        0
 40
-0.6
 41
-30.0
 62
     5
 63
     7
 74
     1
 91
        4
 64
     7
 65
   257
 75
     7
175
     7
 42
1.0
 92
        8
 66
     7
 43
1.0
 76
     1
 77
     6
 78
     2
 67
     7
 79
     5
170
     0
171
     0
290
     0
174
     0
 93
        1
 44
0.0
173
     0
291
     1
 45
0.0
1001
ACAD
1000
AcDbSavedByObjectVersion
1070
     0
  0
VISUALSTYLE
  5
3C
102
{ACAD_XDICTIONARY
360
793
102
}
102
{ACAD_REACTORS
330
2A
102
}
330
2A
100
AcDbVisualStyle
  2

 70
    21
 71
     2
 72
     2
 73
     0
 90
        0
 40
-0.6
 41
-30.0
 62
     5
 63
     7
 74
     1
 91
        4
 64
     7
 65
   257
 75
     1
175
     1
 42
1.0
 92
        9
 66
     7
 43
1.0
 76
     1
 77
     6
 78
     2
 67
     7
 79
     5
170
     0
171
     0
290
     0
174
     0
 93
        1
 44
0.0
173
     0
291
     1
 45
0.0
1001
ACAD
1000
AcDbSavedByObjectVersion
1070
     0
  0
VISUALSTYLE
  5
33
102
{ACAD_XDICTIONARY
360
781
102
}
102
{ACAD_REACTORS
330
2A
102
}
330
2A
100
AcDbVisualStyle
  2

 70
     8
 71
     2
 72
     3
 73
     0
 90
        2
 40
-0.6
 41
30.0
 62
     5
 63
     7
 74
     0
 91
        0
 64
     7
 65
   257
 75
     1
175
     1
 42
1.0
 92
        8
 66
   257
 43
1.0
 76
     1
 77
     6
 78
     2
 67
     7
 79
     3
170
     0
171
     0
290
     0
174
     0
 93
       13
 44
0.0
173
     0
291
     0
 45
0.0
1001
ACAD
1000
AcDbSavedByObjectVersion
1070
     0
  0
VISUALSTYLE
  5
42
102
{ACAD_XDICTIONARY
360
79F
102
}
102
{ACAD_REACTORS
330
2A
102
}
330
2A
100
AcDbVisualStyle
  2

 70
    27
 71
     2
 72
     2
 73
     1
 90
        2
 40
-0.6
 41
30.0
 62
     5
 63
     7
 74
     0
 91
        4
 64
     7
 65
   257
 75
     1
175
     1
 42
1.0
 92
        8
 66
   257
 43
1.0
 76
     1
 77
     6
 78
     2
 67
     8
 79
     3
170
     0
171
     0
290
     0
174
     0
 93
        5
 44
0.0
173
     0
291
     0
 45
0.0
1001
ACAD
1000
AcDbSavedByObjectVersion
1070
     0
  0
VISUALSTYLE
  5
41
102
{ACAD_XDICTIONARY
360
79D
102
}
102
{ACAD_REACTORS
330
2A
102
}
330
2A
100
AcDbVisualStyle
  2

 70
    26
 71
     2
 72
     2
 73
     1
 90
        2
 40
-0.6
 41
30.0
 62
     5
 63
     7
 74
     1
 91
       10
 64
     7
 65
   257
 75
     2
175
     1
 42
1.0
 92
        8
 66
   257
 43
1.0
 76
     1
 77
     6
 78
     2
 67
     7
 79
     3
170
     0
171
     0
290
     0
174
     0
 93
        5
 44
0.0
173
     0
291
     0
 45
0.0
1001
ACAD
1000
AcDbSavedByObjectVersion
1070
     0
  0
VISUALSTYLE
  5
3E
102
{ACAD_XDICTIONARY
360
797
102
}
102
{ACAD_REACTORS
330
2A
102
}
330
2A
100
AcDbVisualStyle
  2

 70
    23
 71
     2
 72
     2
 73
     3
 90
        0
 40
-0.6
 41
-30.0
 62
     5
 63
     7
 74
     2
 91
        2
 64
     7
 65
     7
 75
     1
175
     1
 42
40.0
 92
        8
 66
     7
 43
1.0
 76
     1
 77
     6
 78
     2
 67
     7
 79
     3
170
     0
171
     0
290
     0
174
     0
 93
        1
 44
0.0
173
     0
291
     0
 45
0.0
1001
ACAD
1000
AcDbSavedByObjectVersion
1070
     0
  0
VISUALSTYLE
  5
3F
102
{ACAD_XDICTIONARY
360
799
102
}
102
{ACAD_REACTORS
330
2A
102
}
330
2A
100
AcDbVisualStyle
  2

 70
    24
 71
     1
 72
     2
 73
     2
 90
        0
 40
-0.6
 41
-30.0
 62
     5
 63
     7
 74
     2
 91
        2
 64
     7
 65
     7
 75
     1
175
     1
 42
40.0
 92
       11
 66
     7
 43
1.0
 76
     1
 77
     6
 78
     2
 67
     7
 79
     6
170
     0
171
     0
290
     0
174
     0
 93
        1
 44
0.0
173
     0
291
     0
 45
0.0
1001
ACAD
1000
AcDbSavedByObjectVersion
1070
     0
  0
VISUALSTYLE
  5
37
102
{ACAD_XDICTIONARY
360
789
102
}
102
{ACAD_REACTORS
330
2A
102
}
330
2A
100
AcDbVisualStyle
  2

 70
    13
 71
     2
 72
     2
 73
     0
 90
        0
 40
-0.6
 41
-30.0
 62
     5
 63
     7
 74
     1
 91
        4
 64
     7
 65
   257
 75
     1
175
     1
 42
1.0
 92
       12
 66
     7
 43
1.0
 76
     1
 77
     6
 78
     2
 67
     7
 79
     5
170
     0
171
     0
290
     0
174
     0
 93
        1
 44
0.0
173
     0
291
     1
 45
0.0
1001
ACAD
1000
AcDbSavedByObjectVersion
1070
     0
  0
VISUALSTYLE
  5
30
102
{ACAD_XDICTIONARY
360
77B
102
}
102
{ACAD_REACTORS
330
2A
102
}
330
2A
100
AcDbVisualStyle
  2

 70
     5
 71
     0
 72
     2
 73
     0
 90
        0
 40
-0.6
 41
-30.0
 62
     5
 63
     7
 74
     1
 91
        4
 64
     7
 65
   257
 75
     1
175
     1
 42
1.0
 92
        0
 66
   257
 43
1.0
 76
     1
 77
     6
 78
     2
 67
     7
 79
     3
170
     0
171
     0
290
     0
174
     0
 93
        1
 44
0.0
173
     0
291
     0
 45
0.0
1001
ACAD
1000
AcDbSavedByObjectVersion
1070
     0
  0
VISUALSTYLE
  5
40
102
{ACAD_XDICTIONARY
360
79B
102
}
102
{ACAD_REACTORS
330
2A
102
}
330
2A
100
AcDbVisualStyle
  2

 70
    25
 71
     2
 72
     2
 73
     1
 90
        1
 40
0.5
 41
-30.0
 62
     5
 63
     7
 74
     1
 91
        0
 64
     7
 65
   257
 75
     1
175
     1
 42
1.0
 92
        8
 66
     7
 43
1.0
 76
     1
 77
     6
 78
     2
 67
     7
 79
     3
170
     0
171
     0
290
     0
174
     0
 93
       13
 44
0.0
173
     0
291
     0
 45
0.0
1001
ACAD
1000
AcDbSavedByObjectVersion
1070
     0
  0
DICTIONARYVAR
  5
1D9
102
{ACAD_REACTORS
330
1CB
102
}
330
1CB
100
DictionaryVariables
280
     0
  1
1:1
  0
DICTIONARYVAR
  5
1D2
102
{ACAD_REACTORS
330
1CB
102
}
330
1CB
100
DictionaryVariables
280
     0
  1
3.500000
  0
DICTIONARYVAR
  5
1D3
102
{ACAD_REACTORS
330
1CB
102
}
330
1CB
100
DictionaryVariables
280
     0
  1
acadiso.lin
  0
DICTIONARYVAR
  5
1CD
102
{ACAD_REACTORS
330
1CB
102
}
330
1CB
100
DictionaryVariables
280
     0
  1
STANDARD
  0
DICTIONARYVAR
  5
1CC
102
{ACAD_REACTORS
330
1CB
102
}
330
1CB
100
DictionaryVariables
280
     0
  1
STANDARD
  0
DICTIONARYVAR
  5
5C5
102
{ACAD_REACTORS
330
1CB
102
}
330
1CB
100
DictionaryVariables
280
     0
  1
Metric50
  0
DICTIONARYVAR
  5
5C6
102
{ACAD_REACTORS
330
1CB
102
}
330
1CB
100
DictionaryVariables
280
     0
  1
Metric50
  0
DICTIONARYVAR
  5
1D4
102
{ACAD_REACTORS
330
1CB
102
}
330
1CB
100
DictionaryVariables
280
     0
  1
2
  0
DICTIONARYVAR
  5
1D5
102
{ACAD_REACTORS
330
1CB
102
}
330
1CB
100
DictionaryVariables
280
     0
  1
1
  0
DICTIONARYVAR
  5
614
102
{ACAD_REACTORS
330
1CB
102
}
330
1CB
100
DictionaryVariables
280
     0
  1
0
  0
DICTIONARYVAR
  5
5C8
102
{ACAD_REACTORS
330
1CB
102
}
330
1CB
100
DictionaryVariables
280
     0
  1
1
  0
DICTIONARYVAR
  5
5C9
102
{ACAD_REACTORS
330
1CB
102
}
330
1CB
100
DictionaryVariables
280
     0
  1
15
  0
DICTIONARYVAR
  5
5C7
102
{ACAD_REACTORS
330
1CB
102
}
330
1CB
100
DictionaryVariables
280
     0
  1
0
  0
DICTIONARYVAR
  5
6EA
102
{ACAD_REACTORS
330
1CB
102
}
330
1CB
100
DictionaryVariables
280
     0
  1
1.570796
  0
DICTIONARYVAR
  5
6EB
102
{ACAD_REACTORS
330
1CB
102
}
330
1CB
100
DictionaryVariables
280
     0
  1
1.570796
  0
DICTIONARYVAR
  5
1DA
102
{ACAD_REACTORS
330
1CB
102
}
330
1CB
100
DictionaryVariables
280
     0
  1
1
  0
DICTIONARYVAR
  5
6E9
102
{ACAD_REACTORS
330
1CB
102
}
330
1CB
100
DictionaryVariables
280
     0
  1
80.000000
  0
DICTIONARYVAR
  5
6E8
102
{ACAD_REACTORS
330
1CB
102
}
330
1CB
100
DictionaryVariables
280
     0
  1
5.000000
  0
DICTIONARYVAR
  5
613
102
{ACAD_REACTORS
330
1CB
102
}
330
1CB
100
DictionaryVariables
280
     0
  1
127
  0
DICTIONARYVAR
  5
6EC
102
{ACAD_REACTORS
330
1CB
102
}
330
1CB
100
DictionaryVariables
280
     0
  1
2
  0
DICTIONARY
  5
7A4
330
21A
100
AcDbDictionary
280
     1
281
     1
  3
ACAD_XREC_ROUNDTRIP
360
7A5
  0
DICTIONARY
  5
76D
330
1E
100
AcDbDictionary
280
     1
281
     1
  3
ACAD_XREC_ROUNDTRIP
360
76E
  0
DICTIONARY
  5
76F
330
22
100
AcDbDictionary
280
     1
281
     1
  3
ACAD_XREC_ROUNDTRIP
360
770
  0
DICTIONARY
  5
7A6
330
21B
100
AcDbDictionary
280
     1
281
     1
  3
ACAD_XREC_ROUNDTRIP
360
7A7
  0
DICTIONARY
  5
20D
330
45
100
AcDbDictionary
280
     1
281
     1
  3
ACAD_XREC_ROUNDTRIP
360
20E
  0
DICTIONARY
  5
20B
330
44
100
AcDbDictionary
280
     1
281
     1
  3
ACAD_XREC_ROUNDTRIP
360
20C
  0
DICTIONARY
  5
20F
330
46
100
AcDbDictionary
280
     1
281
     1
  3
ACAD_XREC_ROUNDTRIP
360
210
  0
DICTIONARY
  5
7A2
330
218
100
AcDbDictionary
280
     1
281
     1
  3
ACAD_XREC_ROUNDTRIP
360
7A3
  0
DICTIONARY
  5
5CA
330
5A
100
AcDbDictionary
280
     1
281
     1
  3
ACAD_ROUNDTRIP_2008_TABLESTYLE_CELLSTYLEMAP
360
76A
  3
ACAD_XREC_ROUNDTRIP
360
7A1
  0
DICTIONARY
  5
779
330
2F
100
AcDbDictionary
280
     1
281
     1
  3
ACAD_XREC_ROUNDTRIP
360
77A
  0
DICTIONARY
  5
77F
330
32
100
AcDbDictionary
280
     1
281
     1
  3
ACAD_XREC_ROUNDTRIP
360
780
  0
DICTIONARY
  5
787
330
36
100
AcDbDictionary
280
     1
281
     1
  3
ACAD_XREC_ROUNDTRIP
360
788
  0
DICTIONARY
  5
78F
330
3A
100
AcDbDictionary
280
     1
281
     1
  3
ACAD_XREC_ROUNDTRIP
360
790
  0
DICTIONARY
  5
783
330
34
100
AcDbDictionary
280
     1
281
     1
  3
ACAD_XREC_ROUNDTRIP
360
784
  0
DICTIONARY
  5
785
330
35
100
AcDbDictionary
280
     1
281
     1
  3
ACAD_XREC_ROUNDTRIP
360
786
  0
DICTIONARY
  5
795
330
3D
100
AcDbDictionary
280
     1
281
     1
  3
ACAD_XREC_ROUNDTRIP
360
796
  0
DICTIONARY
  5
78D
330
39
100
AcDbDictionary
280
     1
281
     1
  3
ACAD_XREC_ROUNDTRIP
360
78E
  0
DICTIONARY
  5
771
330
2B
100
AcDbDictionary
280
     1
281
     1
  3
ACAD_XREC_ROUNDTRIP
360
772
  0
DICTIONARY
  5
773
330
2C
100
AcDbDictionary
280
     1
281
     1
  3
ACAD_XREC_ROUNDTRIP
360
774
  0
DICTIONARY
  5
775
330
2D
100
AcDbDictionary
280
     1
281
     1
  3
ACAD_XREC_ROUNDTRIP
360
776
  0
DICTIONARY
  5
777
330
2E
100
AcDbDictionary
280
     1
281
     1
  3
ACAD_XREC_ROUNDTRIP
360
778
  0
DICTIONARY
  5
77D
330
31
100
AcDbDictionary
280
     1
281
     1
  3
ACAD_XREC_ROUNDTRIP
360
77E
  0
DICTIONARY
  5
791
330
3B
100
AcDbDictionary
280
     1
281
     1
  3
ACAD_XREC_ROUNDTRIP
360
792
  0
DICTIONARY
  5
78B
330
38
100
AcDbDictionary
280
     1
281
     1
  3
ACAD_XREC_ROUNDTRIP
360
78C
  0
DICTIONARY
  5
793
330
3C
100
AcDbDictionary
280
     1
281
     1
  3
ACAD_XREC_ROUNDTRIP
360
794
  0
DICTIONARY
  5
781
330
33
100
AcDbDictionary
280
     1
281
     1
  3
ACAD_XREC_ROUNDTRIP
360
782
  0
DICTIONARY
  5
79F
330
42
100
AcDbDictionary
280
     1
281
     1
  3
ACAD_XREC_ROUNDTRIP
360
7A0
  0
DICTIONARY
  5
79D
330
41
100
AcDbDictionary
280
     1
281
     1
  3
ACAD_XREC_ROUNDTRIP
360
79E
  0
DICTIONARY
  5
797
330
3E
100
AcDbDictionary
280
     1
281
     1
  3
ACAD_XREC_ROUNDTRIP
360
798
  0
DICTIONARY
  5
799
330
3F
100
AcDbDictionary
280
     1
281
     1
  3
ACAD_XREC_ROUNDTRIP
360
79A
  0
DICTIONARY
  5
789
330
37
100
AcDbDictionary
280
     1
281
     1
  3
ACAD_XREC_ROUNDTRIP
360
78A
  0
DICTIONARY
  5
77B
330
30
100
AcDbDictionary
280
     1
281
     1
  3
ACAD_XREC_ROUNDTRIP
360
77C
  0
DICTIONARY
  5
79B
330
40
100
AcDbDictionary
280
     1
281
     1
  3
ACAD_XREC_ROUNDTRIP
360
79C
  0
XRECORD
  5
7A5
102
{ACAD_REACTORS
330
7A4
102
}
330
7A4
100
AcDbXrecord
280
     1
102
DISPLAYNAME
  1
Metric50
102
FLAGS
 90
        0
  0
XRECORD
  5
76E
102
{ACAD_REACTORS
330
76D
102
}
330
76D
100
AcDbXrecord
280
     1
102
SHADEPLOT
 70
     0
102
SHADEPLOTRESLEVEL
 70
     2
102
SHADEPLOTCUSTOMDPI
 70
   300
  0
XRECORD
  5
770
102
{ACAD_REACTORS
330
76F
102
}
330
76F
100
AcDbXrecord
280
     1
102
SHADEPLOT
 70
     0
102
SHADEPLOTRESLEVEL
 70
     2
102
SHADEPLOTCUSTOMDPI
 70
   300
  0
XRECORD
  5
7A7
102
{ACAD_REACTORS
330
7A6
102
}
330
7A6
100
AcDbXrecord
280
     1
102
SHADEPLOT
 70
     0
102
SHADEPLOTRESLEVEL
 70
     2
102
SHADEPLOTCUSTOMDPI
 70
   300
  0
XRECORD
  5
20E
102
{ACAD_REACTORS
330
20D
102
}
330
20D
100
AcDbXrecord
280
     1
102
MATERIAL
148
0.0
149
0.0
149
0.0
 93
        0
 94
      127
282
     0
 72
     1
 77
     1
171
     1
175
     1
179
     1
273
     0
  0
XRECORD
  5
20C
102
{ACAD_REACTORS
330
20B
102
}
330
20B
100
AcDbXrecord
280
     1
102
MATERIAL
148
0.0
149
0.0
149
0.0
 93
        0
 94
      127
282
     0
 72
     1
 77
     1
171
     1
175
     1
179
     1
273
     0
  0
XRECORD
  5
210
102
{ACAD_REACTORS
330
20F
102
}
330
20F
100
AcDbXrecord
280
     1
102
MATERIAL
148
0.0
149
0.0
149
0.0
 93
        0
 94
      127
282
     0
 72
     1
 77
     1
171
     1
175
     1
179
     1
273
     0
  0
XRECORD
  5
7A3
102
{ACAD_REACTORS
330
7A2
102
}
330
7A2
100
AcDbXrecord
280
     1
102
DISPLAYNAME
  1
Metric50
102
FLAGS
 90
        0
  0
CELLSTYLEMAP
  5
76A
102
{ACAD_REACTORS
330
5CA
102
}
330
5CA
100
AcDbCellStyleMap
 90
        3
300
CELLSTYLE
  1
TABLEFORMAT_BEGIN
 90
        5
170
     1
 91
        0
 92
    32768
 62
   257
 93
        1
300
CONTENTFORMAT
  1
CONTENTFORMAT_BEGIN
 90
        0
 91
        0
 92
        4
 93
        0
300

 40
0.0
140
1.0
 94
        5
 62
     0
340
11
144
6.0
309
CONTENTFORMAT_END
171
     1
301
MARGIN
  1
CELLMARGIN_BEGIN
 40
1.5
 40
1.5
 40
1.5
 40
1.5
 40
0.18
 40
0.18
309
CELLMARGIN_END
 94
        6
 95
        1
302
GRIDFORMAT
  1
GRIDFORMAT_BEGIN
 90
        0
 91
        1
 62
     0
 92
       -2
340
0
 93
        0
 40
0.045
309
GRIDFORMAT_END
 95
        2
302
GRIDFORMAT
  1
GRIDFORMAT_BEGIN
 90
        0
 91
        1
 62
     0
 92
       -2
340
0
 93
        0
 40
0.045
309
GRIDFORMAT_END
 95
        4
302
GRIDFORMAT
  1
GRIDFORMAT_BEGIN
 90
        0
 91
        1
 62
     0
 92
       -2
340
0
 93
        0
 40
0.045
309
GRIDFORMAT_END
 95
        8
302
GRIDFORMAT
  1
GRIDFORMAT_BEGIN
 90
        0
 91
        1
 62
     0
 92
       -2
340
0
 93
        0
 40
0.045
309
GRIDFORMAT_END
 95
       16
302
GRIDFORMAT
  1
GRIDFORMAT_BEGIN
 90
        0
 91
        1
 62
     0
 92
       -2
340
0
 93
        0
 40
0.045
309
GRIDFORMAT_END
 95
       32
302
GRIDFORMAT
  1
GRIDFORMAT_BEGIN
 90
        0
 91
        1
 62
     0
 92
       -2
340
0
 93
        0
 40
0.045
309
GRIDFORMAT_END
309
TABLEFORMAT_END
  1
CELLSTYLE_BEGIN
 90
        1
 91
        1
300
_TITLE
309
CELLSTYLE_END
300
CELLSTYLE
  1
TABLEFORMAT_BEGIN
 90
        5
170
     1
 91
        0
 92
        0
 62
   257
 93
        1
300
CONTENTFORMAT
  1
CONTENTFORMAT_BEGIN
 90
        0
 91
        0
 92
        4
 93
        0
300

 40
0.0
140
1.0
 94
        5
 62
     0
340
11
144
4.5
309
CONTENTFORMAT_END
171
     1
301
MARGIN
  1
CELLMARGIN_BEGIN
 40
1.5
 40
1.5
 40
1.5
 40
1.5
 40
0.18
 40
0.18
309
CELLMARGIN_END
 94
        6
 95
        1
302
GRIDFORMAT
  1
GRIDFORMAT_BEGIN
 90
        0
 91
        1
 62
     0
 92
       -2
340
0
 93
        0
 40
0.045
309
GRIDFORMAT_END
 95
        2
302
GRIDFORMAT
  1
GRIDFORMAT_BEGIN
 90
        0
 91
        1
 62
     0
 92
       -2
340
0
 93
        0
 40
0.045
309
GRIDFORMAT_END
 95
        4
302
GRIDFORMAT
  1
GRIDFORMAT_BEGIN
 90
        0
 91
        1
 62
     0
 92
       -2
340
0
 93
        0
 40
0.045
309
GRIDFORMAT_END
 95
        8
302
GRIDFORMAT
  1
GRIDFORMAT_BEGIN
 90
        0
 91
        1
 62
     0
 92
       -2
340
0
 93
        0
 40
0.045
309
GRIDFORMAT_END
 95
       16
302
GRIDFORMAT
  1
GRIDFORMAT_BEGIN
 90
        0
 91
        1
 62
     0
 92
       -2
340
0
 93
        0
 40
0.045
309
GRIDFORMAT_END
 95
       32
302
GRIDFORMAT
  1
GRIDFORMAT_BEGIN
 90
        0
 91
        1
 62
     0
 92
       -2
340
0
 93
        0
 40
0.045
309
GRIDFORMAT_END
309
TABLEFORMAT_END
  1
CELLSTYLE_BEGIN
 90
        2
 91
        1
300
_HEADER
309
CELLSTYLE_END
300
CELLSTYLE
  1
TABLEFORMAT_BEGIN
 90
        5
170
     1
 91
        0
 92
        0
 62
   257
 93
        1
300
CONTENTFORMAT
  1
CONTENTFORMAT_BEGIN
 90
        0
 91
        0
 92
        4
 93
        0
300

 40
0.0
140
1.0
 94
        2
 62
     0
340
11
144
4.5
309
CONTENTFORMAT_END
171
     1
301
MARGIN
  1
CELLMARGIN_BEGIN
 40
1.5
 40
1.5
 40
1.5
 40
1.5
 40
0.18
 40
0.18
309
CELLMARGIN_END
 94
        6
 95
        1
302
GRIDFORMAT
  1
GRIDFORMAT_BEGIN
 90
        0
 91
        1
 62
     0
 92
       -2
340
0
 93
        0
 40
0.045
309
GRIDFORMAT_END
 95
        2
302
GRIDFORMAT
  1
GRIDFORMAT_BEGIN
 90
        0
 91
        1
 62
     0
 92
       -2
340
0
 93
        0
 40
0.045
309
GRIDFORMAT_END
 95
        4
302
GRIDFORMAT
  1
GRIDFORMAT_BEGIN
 90
        0
 91
        1
 62
     0
 92
       -2
340
0
 93
        0
 40
0.045
309
GRIDFORMAT_END
 95
        8
302
GRIDFORMAT
  1
GRIDFORMAT_BEGIN
 90
        0
 91
        1
 62
     0
 92
       -2
340
0
 93
        0
 40
0.045
309
GRIDFORMAT_END
 95
       16
302
GRIDFORMAT
  1
GRIDFORMAT_BEGIN
 90
        0
 91
        1
 62
     0
 92
       -2
340
0
 93
        0
 40
0.045
309
GRIDFORMAT_END
 95
       32
302
GRIDFORMAT
  1
GRIDFORMAT_BEGIN
 90
        0
 91
        1
 62
     0
 92
       -2
340
0
 93
        0
 40
0.045
309
GRIDFORMAT_END
309
TABLEFORMAT_END
  1
CELLSTYLE_BEGIN
 90
        3
 91
        2
300
_DATA
309
CELLSTYLE_END
  0
XRECORD
  5
7A1
102
{ACAD_REACTORS
330
5CA
102
}
330
5CA
100
AcDbXrecord
280
     1
102
ACAD_ROUNDTRIP_PRE2007_TABLESTYLE
 90
        4
 91
        0
  1

 92
        4
 93
        0
  2

 94
        4
 95
        0
  3

  0
XRECORD
  5
77A
102
{ACAD_REACTORS
330
779
102
}
330
779
100
AcDbXrecord
280
     1
102
RTVSPost2010Prop28
280
     1
102
RTVSPost2010PropOp28
 70
     1
102
RTVSPost2010Prop29
280
     1
102
RTVSPost2010PropOp29
 70
     1
102
RTVSPost2010Prop30
280
     0
102
RTVSPost2010PropOp30
 70
     1
102
RTVSPost2010Prop31
280
     0
102
RTVSPost2010PropOp31
 70
     1
102
RTVSPost2010Prop32
280
     0
102
RTVSPost2010PropOp32
 70
     1
102
RTVSPost2010Prop33
280
     0
102
RTVSPost2010PropOp33
 70
     1
102
RTVSPost2010Prop34
280
     0
102
RTVSPost2010PropOp34
 70
     1
102
RTVSPost2010Prop35
280
     0
102
RTVSPost2010PropOp35
 70
     1
102
RTVSPost2010Prop36
280
     0
102
RTVSPost2010PropOp36
 70
     1
102
RTVSPost2010Prop37
 90
       50
102
RTVSPost2010PropOp37
 70
     1
102
RTVSPost2010Prop38
140
0.0
102
RTVSPost2010PropOp38
 70
     1
102
RTVSPost2010Prop39
140
1.0
102
RTVSPost2010PropOp39
 70
     1
102
RTVSPost2010Prop40
 90
        0
102
RTVSPost2010PropOp40
 70
     1
102
RTVSPost2010Prop41ColorIndex
 90
       18
102
RTVSPost2010Prop41ColorRGB
 90
        0
102
RTVSPost2010PropOp41
 70
     1
102
RTVSPost2010Prop42
 90
       50
102
RTVSPost2010PropOp42
 70
     1
102
RTVSPost2010Prop43
 90
        3
102
RTVSPost2010PropOp43
 70
     1
102
RTVSPost2010Prop44ColorIndex
 90
        5
102
RTVSPost2010Prop44ColorRGB
 90
      255
102
RTVSPost2010PropOp44
 70
     1
102
RTVSPost2010Prop45
280
     0
102
RTVSPost2010PropOp45
 70
     1
102
RTVSPost2010Prop46
 90
       50
102
RTVSPost2010PropOp46
 70
     1
102
RTVSPost2010Prop47
 90
       50
102
RTVSPost2010PropOp47
 70
     1
102
RTVSPost2010Prop48
 90
       50
102
RTVSPost2010PropOp48
 70
     1
102
RTVSPost2010Prop49
280
     0
102
RTVSPost2010PropOp49
 70
     1
102
RTVSPost2010Prop50
 90
       50
102
RTVSPost2010PropOp50
 70
     1
102
RTVSPost2010Prop51ColorIndex
 90
      256
102
RTVSPost2010Prop51ColorRGB
 90
-16777216
102
RTVSPost2010PropOp51
 70
     0
102
RTVSPost2010Prop52
140
1.0
102
RTVSPost2010PropOp52
 70
     0
102
RTVSPost2010Prop53
 90
        2
102
RTVSPost2010PropOp53
 70
     1
102
RTVSPost2010Prop54
  1
strokes_ogs.tif
102
RTVSPost2010PropOp54
 70
     1
102
RTVSPost2010Prop55
280
     0
102
RTVSPost2010PropOp55
 70
     1
102
RTVSPost2010Prop56
140
1.0
102
RTVSPost2010PropOp56
 70
     1
102
RTVSPost2010Prop57
140
1.0
102
RTVSPost2010PropOp57
 70
     1
102
RTVSPropertyOp0
 70
     1
102
RTVSPropertyOp1
 70
     1
102
RTVSPropertyOp2
 70
     1
102
RTVSPropertyOp3
 70
     1
102
RTVSPropertyOp4
 70
     1
102
RTVSPropertyOp5
 70
     1
102
RTVSPropertyOp6
 70
     1
102
RTVSPropertyOp7
 70
     1
102
RTVSPropertyOp8
 70
     1
102
RTVSPropertyOp9
 70
     1
102
RTVSPropertyOp10
 70
     1
102
RTVSPropertyOp11
 70
     1
102
RTVSPropertyOp12
 70
     1
102
RTVSPropertyOp13
 70
     1
102
RTVSPropertyOp14
 70
     1
102
RTVSPropertyOp15
 70
     1
102
RTVSPropertyOp16
 70
     1
102
RTVSPropertyOp17
 70
     1
102
RTVSPropertyOp18
 70
     1
102
RTVSPropertyOp19
 70
     1
102
RTVSPropertyOp20
 70
     1
102
RTVSPropertyOp21
 70
     1
102
RTVSPropertyOp22
 70
     1
102
RTVSPropertyOp23
 70
     1
102
RTVSPropertyOp24
 70
     1
102
RTVSPropertyOp25
 70
     1
102
RTVSPropertyOp26
 70
     1
102
RTVSPropertyOp27
 70
     1
102
RTVSPropertyOp28
 70
     1
102
RTVSPropertyOp29
 70
     1
102
RTVSPropertyOp30
 70
     1
102
RTVSPropertyOp31
 70
     1
102
RTVSPropertyOp32
 70
     1
102
RTVSPropertyOp33
 70
     1
102
RTVSPropertyOp34
 70
     1
102
RTVSPropertyOp35
 70
     1
102
RTVSPropertyOp36
 70
     1
102
RTVSPropertyOp37
 70
     1
102
RTVSPropertyOp38
 70
     1
102
RTVSPropertyOp39
 70
     1
102
RTVSPropertyOp40
 70
     1
102
RTVSPropertyOp41
 70
     1
102
RTVSPropertyOp42
 70
     1
102
RTVSPropertyOp43
 70
     1
102
RTVSPropertyOp44
 70
     1
102
RTVSPropertyOp45
 70
     1
102
RTVSPropertyOp46
 70
     1
102
RTVSPropertyOp47
 70
     1
102
RTVSPropertyOp48
 70
     1
102
RTVSPropertyOp49
 70
     1
102
RTVSPropertyOp50
 70
     1
102
RTVSPropertyOp51
 70
     0
102
RTVSPropertyOp52
 70
     0
102
RTVSPropertyOp53
 70
     1
102
RTVSPropertyOp54
 70
     1
102
RTVSPropertyOp55
 70
     1
102
RTVSPropertyOp56
 70
     1
102
RTVSPropertyOp57
 70
     1
102
RTVSPropertyOp58
 70
     1
102
RTVSPropertyOp59
 70
     1
102
RTVSPropertyOp60
 70
     1
102
RTVSPropertyOp61
 70
     1
102
RTVSPropertyOp62
 70
     1
  0
XRECORD
  5
780
102
{ACAD_REACTORS
330
77F
102
}
330
77F
100
AcDbXrecord
280
     1
102
RTVSPost2010Prop28
280
     0
102
RTVSPost2010PropOp28
 70
     1
102
RTVSPost2010Prop29
280
     1
102
RTVSPost2010PropOp29
 70
     1
102
RTVSPost2010Prop30
280
     1
102
RTVSPost2010PropOp30
 70
     1
102
RTVSPost2010Prop31
280
     0
102
RTVSPost2010PropOp31
 70
     1
102
RTVSPost2010Prop32
280
     0
102
RTVSPost2010PropOp32
 70
     1
102
RTVSPost2010Prop33
280
     0
102
RTVSPost2010PropOp33
 70
     1
102
RTVSPost2010Prop34
280
     0
102
RTVSPost2010PropOp34
 70
     1
102
RTVSPost2010Prop35
280
     0
102
RTVSPost2010PropOp35
 70
     1
102
RTVSPost2010Prop36
280
     0
102
RTVSPost2010PropOp36
 70
     1
102
RTVSPost2010Prop37
 90
       50
102
RTVSPost2010PropOp37
 70
     1
102
RTVSPost2010Prop38
140
0.0
102
RTVSPost2010PropOp38
 70
     1
102
RTVSPost2010Prop39
140
1.0
102
RTVSPost2010PropOp39
 70
     1
102
RTVSPost2010Prop40
 90
        0
102
RTVSPost2010PropOp40
 70
     1
102
RTVSPost2010Prop41ColorIndex
 90
       18
102
RTVSPost2010Prop41ColorRGB
 90
        0
102
RTVSPost2010PropOp41
 70
     1
102
RTVSPost2010Prop42
 90
       50
102
RTVSPost2010PropOp42
 70
     1
102
RTVSPost2010Prop43
 90
        3
102
RTVSPost2010PropOp43
 70
     1
102
RTVSPost2010Prop44ColorIndex
 90
        5
102
RTVSPost2010Prop44ColorRGB
 90
      255
102
RTVSPost2010PropOp44
 70
     1
102
RTVSPost2010Prop45
280
     0
102
RTVSPost2010PropOp45
 70
     1
102
RTVSPost2010Prop46
 90
       50
102
RTVSPost2010PropOp46
 70
     1
102
RTVSPost2010Prop47
 90
       50
102
RTVSPost2010PropOp47
 70
     1
102
RTVSPost2010Prop48
 90
       50
102
RTVSPost2010PropOp48
 70
     1
102
RTVSPost2010Prop49
280
     0
102
RTVSPost2010PropOp49
 70
     1
102
RTVSPost2010Prop50
 90
       50
102
RTVSPost2010PropOp50
 70
     1
102
RTVSPost2010Prop51ColorIndex
 90
      256
102
RTVSPost2010Prop51ColorRGB
 90
-16777216
102
RTVSPost2010PropOp51
 70
     0
102
RTVSPost2010Prop52
140
1.0
102
RTVSPost2010PropOp52
 70
     0
102
RTVSPost2010Prop53
 90
        2
102
RTVSPost2010PropOp53
 70
     1
102
RTVSPost2010Prop54
  1
strokes_ogs.tif
102
RTVSPost2010PropOp54
 70
     1
102
RTVSPost2010Prop55
280
     0
102
RTVSPost2010PropOp55
 70
     1
102
RTVSPost2010Prop56
140
1.0
102
RTVSPost2010PropOp56
 70
     1
102
RTVSPost2010Prop57
140
1.0
102
RTVSPost2010PropOp57
 70
     1
102
RTVSPropertyOp0
 70
     1
102
RTVSPropertyOp1
 70
     1
102
RTVSPropertyOp2
 70
     1
102
RTVSPropertyOp3
 70
     1
102
RTVSPropertyOp4
 70
     1
102
RTVSPropertyOp5
 70
     1
102
RTVSPropertyOp6
 70
     1
102
RTVSPropertyOp7
 70
     1
102
RTVSPropertyOp8
 70
     1
102
RTVSPropertyOp9
 70
     1
102
RTVSPropertyOp10
 70
     1
102
RTVSPropertyOp11
 70
     1
102
RTVSPropertyOp12
 70
     1
102
RTVSPropertyOp13
 70
     1
102
RTVSPropertyOp14
 70
     1
102
RTVSPropertyOp15
 70
     1
102
RTVSPropertyOp16
 70
     1
102
RTVSPropertyOp17
 70
     1
102
RTVSPropertyOp18
 70
     1
102
RTVSPropertyOp19
 70
     1
102
RTVSPropertyOp20
 70
     1
102
RTVSPropertyOp21
 70
     1
102
RTVSPropertyOp22
 70
     1
102
RTVSPropertyOp23
 70
     1
102
RTVSPropertyOp24
 70
     1
102
RTVSPropertyOp25
 70
     1
102
RTVSPropertyOp26
 70
     1
102
RTVSPropertyOp27
 70
     1
102
RTVSPropertyOp28
 70
     1
102
RTVSPropertyOp29
 70
     1
102
RTVSPropertyOp30
 70
     1
102
RTVSPropertyOp31
 70
     1
102
RTVSPropertyOp32
 70
     1
102
RTVSPropertyOp33
 70
     1
102
RTVSPropertyOp34
 70
     1
102
RTVSPropertyOp35
 70
     1
102
RTVSPropertyOp36
 70
     1
102
RTVSPropertyOp37
 70
     1
102
RTVSPropertyOp38
 70
     1
102
RTVSPropertyOp39
 70
     1
102
RTVSPropertyOp40
 70
     1
102
RTVSPropertyOp41
 70
     1
102
RTVSPropertyOp42
 70
     1
102
RTVSPropertyOp43
 70
     1
102
RTVSPropertyOp44
 70
     1
102
RTVSPropertyOp45
 70
     1
102
RTVSPropertyOp46
 70
     1
102
RTVSPropertyOp47
 70
     1
102
RTVSPropertyOp48
 70
     1
102
RTVSPropertyOp49
 70
     1
102
RTVSPropertyOp50
 70
     1
102
RTVSPropertyOp51
 70
     0
102
RTVSPropertyOp52
 70
     0
102
RTVSPropertyOp53
 70
     1
102
RTVSPropertyOp54
 70
     1
102
RTVSPropertyOp55
 70
     1
102
RTVSPropertyOp56
 70
     1
102
RTVSPropertyOp57
 70
     1
102
RTVSPropertyOp58
 70
     1
102
RTVSPropertyOp59
 70
     1
102
RTVSPropertyOp60
 70
     1
102
RTVSPropertyOp61
 70
     1
102
RTVSPropertyOp62
 70
     1
  0
XRECORD
  5
788
102
{ACAD_REACTORS
330
787
102
}
330
787
100
AcDbXrecord
280
     1
102
RTVSPost2010Prop28
280
     0
102
RTVSPost2010PropOp28
 70
     1
102
RTVSPost2010Prop29
280
     1
102
RTVSPost2010PropOp29
 70
     1
102
RTVSPost2010Prop30
280
     1
102
RTVSPost2010PropOp30
 70
     1
102
RTVSPost2010Prop31
280
     0
102
RTVSPost2010PropOp31
 70
     1
102
RTVSPost2010Prop32
280
     0
102
RTVSPost2010PropOp32
 70
     1
102
RTVSPost2010Prop33
280
     0
102
RTVSPost2010PropOp33
 70
     1
102
RTVSPost2010Prop34
280
     0
102
RTVSPost2010PropOp34
 70
     1
102
RTVSPost2010Prop35
280
     0
102
RTVSPost2010PropOp35
 70
     1
102
RTVSPost2010Prop36
280
     0
102
RTVSPost2010PropOp36
 70
     1
102
RTVSPost2010Prop37
 90
       50
102
RTVSPost2010PropOp37
 70
     1
102
RTVSPost2010Prop38
140
0.0
102
RTVSPost2010PropOp38
 70
     1
102
RTVSPost2010Prop39
140
1.0
102
RTVSPost2010PropOp39
 70
     1
102
RTVSPost2010Prop40
 90
        0
102
RTVSPost2010PropOp40
 70
     1
102
RTVSPost2010Prop41ColorIndex
 90
       18
102
RTVSPost2010Prop41ColorRGB
 90
        0
102
RTVSPost2010PropOp41
 70
     1
102
RTVSPost2010Prop42
 90
       50
102
RTVSPost2010PropOp42
 70
     1
102
RTVSPost2010Prop43
 90
        3
102
RTVSPost2010PropOp43
 70
     1
102
RTVSPost2010Prop44ColorIndex
 90
        5
102
RTVSPost2010Prop44ColorRGB
 90
      255
102
RTVSPost2010PropOp44
 70
     1
102
RTVSPost2010Prop45
280
     0
102
RTVSPost2010PropOp45
 70
     1
102
RTVSPost2010Prop46
 90
       50
102
RTVSPost2010PropOp46
 70
     1
102
RTVSPost2010Prop47
 90
       50
102
RTVSPost2010PropOp47
 70
     1
102
RTVSPost2010Prop48
 90
       50
102
RTVSPost2010PropOp48
 70
     1
102
RTVSPost2010Prop49
280
     0
102
RTVSPost2010PropOp49
 70
     1
102
RTVSPost2010Prop50
 90
       50
102
RTVSPost2010PropOp50
 70
     1
102
RTVSPost2010Prop51ColorIndex
 90
      256
102
RTVSPost2010Prop51ColorRGB
 90
-16777216
102
RTVSPost2010PropOp51
 70
     0
102
RTVSPost2010Prop52
140
1.0
102
RTVSPost2010PropOp52
 70
     0
102
RTVSPost2010Prop53
 90
        2
102
RTVSPost2010PropOp53
 70
     1
102
RTVSPost2010Prop54
  1
strokes_ogs.tif
102
RTVSPost2010PropOp54
 70
     1
102
RTVSPost2010Prop55
280
     0
102
RTVSPost2010PropOp55
 70
     1
102
RTVSPost2010Prop56
140
1.0
102
RTVSPost2010PropOp56
 70
     1
102
RTVSPost2010Prop57
140
1.0
102
RTVSPost2010PropOp57
 70
     1
102
RTVSPropertyOp0
 70
     1
102
RTVSPropertyOp1
 70
     1
102
RTVSPropertyOp2
 70
     1
102
RTVSPropertyOp3
 70
     1
102
RTVSPropertyOp4
 70
     1
102
RTVSPropertyOp5
 70
     1
102
RTVSPropertyOp6
 70
     1
102
RTVSPropertyOp7
 70
     1
102
RTVSPropertyOp8
 70
     1
102
RTVSPropertyOp9
 70
     1
102
RTVSPropertyOp10
 70
     1
102
RTVSPropertyOp11
 70
     1
102
RTVSPropertyOp12
 70
     1
102
RTVSPropertyOp13
 70
     1
102
RTVSPropertyOp14
 70
     1
102
RTVSPropertyOp15
 70
     1
102
RTVSPropertyOp16
 70
     1
102
RTVSPropertyOp17
 70
     1
102
RTVSPropertyOp18
 70
     1
102
RTVSPropertyOp19
 70
     1
102
RTVSPropertyOp20
 70
     1
102
RTVSPropertyOp21
 70
     1
102
RTVSPropertyOp22
 70
     1
102
RTVSPropertyOp23
 70
     1
102
RTVSPropertyOp24
 70
     1
102
RTVSPropertyOp25
 70
     1
102
RTVSPropertyOp26
 70
     1
102
RTVSPropertyOp27
 70
     1
102
RTVSPropertyOp28
 70
     1
102
RTVSPropertyOp29
 70
     1
102
RTVSPropertyOp30
 70
     1
102
RTVSPropertyOp31
 70
     1
102
RTVSPropertyOp32
 70
     1
102
RTVSPropertyOp33
 70
     1
102
RTVSPropertyOp34
 70
     1
102
RTVSPropertyOp35
 70
     1
102
RTVSPropertyOp36
 70
     1
102
RTVSPropertyOp37
 70
     1
102
RTVSPropertyOp38
 70
     1
102
RTVSPropertyOp39
 70
     1
102
RTVSPropertyOp40
 70
     1
102
RTVSPropertyOp41
 70
     1
102
RTVSPropertyOp42
 70
     1
102
RTVSPropertyOp43
 70
     1
102
RTVSPropertyOp44
 70
     1
102
RTVSPropertyOp45
 70
     1
102
RTVSPropertyOp46
 70
     1
102
RTVSPropertyOp47
 70
     1
102
RTVSPropertyOp48
 70
     1
102
RTVSPropertyOp49
 70
     1
102
RTVSPropertyOp50
 70
     1
102
RTVSPropertyOp51
 70
     0
102
RTVSPropertyOp52
 70
     0
102
RTVSPropertyOp53
 70
     1
102
RTVSPropertyOp54
 70
     1
102
RTVSPropertyOp55
 70
     1
102
RTVSPropertyOp56
 70
     1
102
RTVSPropertyOp57
 70
     1
102
RTVSPropertyOp58
 70
     1
102
RTVSPropertyOp59
 70
     1
102
RTVSPropertyOp60
 70
     1
102
RTVSPropertyOp61
 70
     1
102
RTVSPropertyOp62
 70
     1
  0
XRECORD
  5
790
102
{ACAD_REACTORS
330
78F
102
}
330
78F
100
AcDbXrecord
280
     1
102
RTVSPost2010Prop28
280
     0
102
RTVSPost2010PropOp28
 70
     1
102
RTVSPost2010Prop29
280
     1
102
RTVSPost2010PropOp29
 70
     1
102
RTVSPost2010Prop30
280
     1
102
RTVSPost2010PropOp30
 70
     1
102
RTVSPost2010Prop31
280
     0
102
RTVSPost2010PropOp31
 70
     1
102
RTVSPost2010Prop32
280
     0
102
RTVSPost2010PropOp32
 70
     1
102
RTVSPost2010Prop33
280
     0
102
RTVSPost2010PropOp33
 70
     1
102
RTVSPost2010Prop34
280
     0
102
RTVSPost2010PropOp34
 70
     1
102
RTVSPost2010Prop35
280
     0
102
RTVSPost2010PropOp35
 70
     1
102
RTVSPost2010Prop36
280
     0
102
RTVSPost2010PropOp36
 70
     1
102
RTVSPost2010Prop37
 90
       50
102
RTVSPost2010PropOp37
 70
     1
102
RTVSPost2010Prop38
140
0.0
102
RTVSPost2010PropOp38
 70
     1
102
RTVSPost2010Prop39
140
1.0
102
RTVSPost2010PropOp39
 70
     1
102
RTVSPost2010Prop40
 90
        0
102
RTVSPost2010PropOp40
 70
     1
102
RTVSPost2010Prop41ColorIndex
 90
       18
102
RTVSPost2010Prop41ColorRGB
 90
        0
102
RTVSPost2010PropOp41
 70
     1
102
RTVSPost2010Prop42
 90
       50
102
RTVSPost2010PropOp42
 70
     1
102
RTVSPost2010Prop43
 90
        3
102
RTVSPost2010PropOp43
 70
     1
102
RTVSPost2010Prop44ColorIndex
 90
        5
102
RTVSPost2010Prop44ColorRGB
 90
      255
102
RTVSPost2010PropOp44
 70
     1
102
RTVSPost2010Prop45
280
     0
102
RTVSPost2010PropOp45
 70
     1
102
RTVSPost2010Prop46
 90
       50
102
RTVSPost2010PropOp46
 70
     1
102
RTVSPost2010Prop47
 90
       50
102
RTVSPost2010PropOp47
 70
     1
102
RTVSPost2010Prop48
 90
       50
102
RTVSPost2010PropOp48
 70
     1
102
RTVSPost2010Prop49
280
     0
102
RTVSPost2010PropOp49
 70
     1
102
RTVSPost2010Prop50
 90
       50
102
RTVSPost2010PropOp50
 70
     1
102
RTVSPost2010Prop51ColorIndex
 90
      256
102
RTVSPost2010Prop51ColorRGB
 90
-16777216
102
RTVSPost2010PropOp51
 70
     0
102
RTVSPost2010Prop52
140
1.0
102
RTVSPost2010PropOp52
 70
     0
102
RTVSPost2010Prop53
 90
        2
102
RTVSPost2010PropOp53
 70
     1
102
RTVSPost2010Prop54
  1
strokes_ogs.tif
102
RTVSPost2010PropOp54
 70
     1
102
RTVSPost2010Prop55
280
     0
102
RTVSPost2010PropOp55
 70
     1
102
RTVSPost2010Prop56
140
1.0
102
RTVSPost2010PropOp56
 70
     1
102
RTVSPost2010Prop57
140
1.0
102
RTVSPost2010PropOp57
 70
     1
102
RTVSPropertyOp0
 70
     1
102
RTVSPropertyOp1
 70
     1
102
RTVSPropertyOp2
 70
     1
102
RTVSPropertyOp3
 70
     1
102
RTVSPropertyOp4
 70
     1
102
RTVSPropertyOp5
 70
     1
102
RTVSPropertyOp6
 70
     1
102
RTVSPropertyOp7
 70
     1
102
RTVSPropertyOp8
 70
     1
102
RTVSPropertyOp9
 70
     1
102
RTVSPropertyOp10
 70
     1
102
RTVSPropertyOp11
 70
     1
102
RTVSPropertyOp12
 70
     1
102
RTVSPropertyOp13
 70
     1
102
RTVSPropertyOp14
 70
     1
102
RTVSPropertyOp15
 70
     1
102
RTVSPropertyOp16
 70
     1
102
RTVSPropertyOp17
 70
     1
102
RTVSPropertyOp18
 70
     1
102
RTVSPropertyOp19
 70
     1
102
RTVSPropertyOp20
 70
     1
102
RTVSPropertyOp21
 70
     1
102
RTVSPropertyOp22
 70
     1
102
RTVSPropertyOp23
 70
     1
102
RTVSPropertyOp24
 70
     1
102
RTVSPropertyOp25
 70
     1
102
RTVSPropertyOp26
 70
     1
102
RTVSPropertyOp27
 70
     1
102
RTVSPropertyOp28
 70
     1
102
RTVSPropertyOp29
 70
     1
102
RTVSPropertyOp30
 70
     1
102
RTVSPropertyOp31
 70
     1
102
RTVSPropertyOp32
 70
     1
102
RTVSPropertyOp33
 70
     1
102
RTVSPropertyOp34
 70
     1
102
RTVSPropertyOp35
 70
     1
102
RTVSPropertyOp36
 70
     1
102
RTVSPropertyOp37
 70
     1
102
RTVSPropertyOp38
 70
     1
102
RTVSPropertyOp39
 70
     1
102
RTVSPropertyOp40
 70
     1
102
RTVSPropertyOp41
 70
     1
102
RTVSPropertyOp42
 70
     1
102
RTVSPropertyOp43
 70
     1
102
RTVSPropertyOp44
 70
     1
102
RTVSPropertyOp45
 70
     1
102
RTVSPropertyOp46
 70
     1
102
RTVSPropertyOp47
 70
     1
102
RTVSPropertyOp48
 70
     1
102
RTVSPropertyOp49
 70
     1
102
RTVSPropertyOp50
 70
     1
102
RTVSPropertyOp51
 70
     0
102
RTVSPropertyOp52
 70
     0
102
RTVSPropertyOp53
 70
     1
102
RTVSPropertyOp54
 70
     1
102
RTVSPropertyOp55
 70
     1
102
RTVSPropertyOp56
 70
     1
102
RTVSPropertyOp57
 70
     1
102
RTVSPropertyOp58
 70
     1
102
RTVSPropertyOp59
 70
     1
102
RTVSPropertyOp60
 70
     1
102
RTVSPropertyOp61
 70
     1
102
RTVSPropertyOp62
 70
     1
  0
XRECORD
  5
784
102
{ACAD_REACTORS
330
783
102
}
330
783
100
AcDbXrecord
280
     1
102
RTVSPost2010Prop28
280
     0
102
RTVSPost2010PropOp28
 70
     1
102
RTVSPost2010Prop29
280
     1
102
RTVSPost2010PropOp29
 70
     1
102
RTVSPost2010Prop30
280
     1
102
RTVSPost2010PropOp30
 70
     1
102
RTVSPost2010Prop31
280
     0
102
RTVSPost2010PropOp31
 70
     1
102
RTVSPost2010Prop32
280
     0
102
RTVSPost2010PropOp32
 70
     1
102
RTVSPost2010Prop33
280
     0
102
RTVSPost2010PropOp33
 70
     1
102
RTVSPost2010Prop34
280
     0
102
RTVSPost2010PropOp34
 70
     1
102
RTVSPost2010Prop35
280
     0
102
RTVSPost2010PropOp35
 70
     1
102
RTVSPost2010Prop36
280
     0
102
RTVSPost2010PropOp36
 70
     1
102
RTVSPost2010Prop37
 90
       50
102
RTVSPost2010PropOp37
 70
     1
102
RTVSPost2010Prop38
140
0.0
102
RTVSPost2010PropOp38
 70
     1
102
RTVSPost2010Prop39
140
1.0
102
RTVSPost2010PropOp39
 70
     1
102
RTVSPost2010Prop40
 90
        0
102
RTVSPost2010PropOp40
 70
     1
102
RTVSPost2010Prop41ColorIndex
 90
       18
102
RTVSPost2010Prop41ColorRGB
 90
        0
102
RTVSPost2010PropOp41
 70
     1
102
RTVSPost2010Prop42
 90
       50
102
RTVSPost2010PropOp42
 70
     1
102
RTVSPost2010Prop43
 90
        3
102
RTVSPost2010PropOp43
 70
     1
102
RTVSPost2010Prop44ColorIndex
 90
        5
102
RTVSPost2010Prop44ColorRGB
 90
      255
102
RTVSPost2010PropOp44
 70
     1
102
RTVSPost2010Prop45
280
     0
102
RTVSPost2010PropOp45
 70
     1
102
RTVSPost2010Prop46
 90
       50
102
RTVSPost2010PropOp46
 70
     1
102
RTVSPost2010Prop47
 90
       50
102
RTVSPost2010PropOp47
 70
     1
102
RTVSPost2010Prop48
 90
       50
102
RTVSPost2010PropOp48
 70
     1
102
RTVSPost2010Prop49
280
     0
102
RTVSPost2010PropOp49
 70
     1
102
RTVSPost2010Prop50
 90
       50
102
RTVSPost2010PropOp50
 70
     1
102
RTVSPost2010Prop51ColorIndex
 90
      256
102
RTVSPost2010Prop51ColorRGB
 90
-16777216
102
RTVSPost2010PropOp51
 70
     0
102
RTVSPost2010Prop52
140
1.0
102
RTVSPost2010PropOp52
 70
     0
102
RTVSPost2010Prop53
 90
        2
102
RTVSPost2010PropOp53
 70
     1
102
RTVSPost2010Prop54
  1
strokes_ogs.tif
102
RTVSPost2010PropOp54
 70
     1
102
RTVSPost2010Prop55
280
     0
102
RTVSPost2010PropOp55
 70
     1
102
RTVSPost2010Prop56
140
1.0
102
RTVSPost2010PropOp56
 70
     1
102
RTVSPost2010Prop57
140
1.0
102
RTVSPost2010PropOp57
 70
     1
102
RTVSPropertyOp0
 70
     1
102
RTVSPropertyOp1
 70
     1
102
RTVSPropertyOp2
 70
     1
102
RTVSPropertyOp3
 70
     1
102
RTVSPropertyOp4
 70
     1
102
RTVSPropertyOp5
 70
     1
102
RTVSPropertyOp6
 70
     1
102
RTVSPropertyOp7
 70
     1
102
RTVSPropertyOp8
 70
     1
102
RTVSPropertyOp9
 70
     1
102
RTVSPropertyOp10
 70
     1
102
RTVSPropertyOp11
 70
     1
102
RTVSPropertyOp12
 70
     1
102
RTVSPropertyOp13
 70
     1
102
RTVSPropertyOp14
 70
     1
102
RTVSPropertyOp15
 70
     1
102
RTVSPropertyOp16
 70
     1
102
RTVSPropertyOp17
 70
     1
102
RTVSPropertyOp18
 70
     1
102
RTVSPropertyOp19
 70
     1
102
RTVSPropertyOp20
 70
     1
102
RTVSPropertyOp21
 70
     1
102
RTVSPropertyOp22
 70
     1
102
RTVSPropertyOp23
 70
     1
102
RTVSPropertyOp24
 70
     1
102
RTVSPropertyOp25
 70
     1
102
RTVSPropertyOp26
 70
     1
102
RTVSPropertyOp27
 70
     1
102
RTVSPropertyOp28
 70
     1
102
RTVSPropertyOp29
 70
     1
102
RTVSPropertyOp30
 70
     1
102
RTVSPropertyOp31
 70
     1
102
RTVSPropertyOp32
 70
     1
102
RTVSPropertyOp33
 70
     1
102
RTVSPropertyOp34
 70
     1
102
RTVSPropertyOp35
 70
     1
102
RTVSPropertyOp36
 70
     1
102
RTVSPropertyOp37
 70
     1
102
RTVSPropertyOp38
 70
     1
102
RTVSPropertyOp39
 70
     1
102
RTVSPropertyOp40
 70
     1
102
RTVSPropertyOp41
 70
     1
102
RTVSPropertyOp42
 70
     1
102
RTVSPropertyOp43
 70
     1
102
RTVSPropertyOp44
 70
     1
102
RTVSPropertyOp45
 70
     1
102
RTVSPropertyOp46
 70
     1
102
RTVSPropertyOp47
 70
     1
102
RTVSPropertyOp48
 70
     1
102
RTVSPropertyOp49
 70
     1
102
RTVSPropertyOp50
 70
     1
102
RTVSPropertyOp51
 70
     0
102
RTVSPropertyOp52
 70
     0
102
RTVSPropertyOp53
 70
     1
102
RTVSPropertyOp54
 70
     1
102
RTVSPropertyOp55
 70
     1
102
RTVSPropertyOp56
 70
     1
102
RTVSPropertyOp57
 70
     1
102
RTVSPropertyOp58
 70
     1
102
RTVSPropertyOp59
 70
     1
102
RTVSPropertyOp60
 70
     1
102
RTVSPropertyOp61
 70
     1
102
RTVSPropertyOp62
 70
     1
  0
XRECORD
  5
786
102
{ACAD_REACTORS
330
785
102
}
330
785
100
AcDbXrecord
280
     1
102
RTVSPost2010Prop28
280
     0
102
RTVSPost2010PropOp28
 70
     1
102
RTVSPost2010Prop29
280
     1
102
RTVSPost2010PropOp29
 70
     1
102
RTVSPost2010Prop30
280
     1
102
RTVSPost2010PropOp30
 70
     1
102
RTVSPost2010Prop31
280
     0
102
RTVSPost2010PropOp31
 70
     1
102
RTVSPost2010Prop32
280
     0
102
RTVSPost2010PropOp32
 70
     1
102
RTVSPost2010Prop33
280
     0
102
RTVSPost2010PropOp33
 70
     1
102
RTVSPost2010Prop34
280
     0
102
RTVSPost2010PropOp34
 70
     1
102
RTVSPost2010Prop35
280
     0
102
RTVSPost2010PropOp35
 70
     1
102
RTVSPost2010Prop36
280
     0
102
RTVSPost2010PropOp36
 70
     1
102
RTVSPost2010Prop37
 90
       50
102
RTVSPost2010PropOp37
 70
     1
102
RTVSPost2010Prop38
140
0.0
102
RTVSPost2010PropOp38
 70
     1
102
RTVSPost2010Prop39
140
1.0
102
RTVSPost2010PropOp39
 70
     1
102
RTVSPost2010Prop40
 90
        0
102
RTVSPost2010PropOp40
 70
     1
102
RTVSPost2010Prop41ColorIndex
 90
       18
102
RTVSPost2010Prop41ColorRGB
 90
        0
102
RTVSPost2010PropOp41
 70
     1
102
RTVSPost2010Prop42
 90
       50
102
RTVSPost2010PropOp42
 70
     1
102
RTVSPost2010Prop43
 90
        3
102
RTVSPost2010PropOp43
 70
     1
102
RTVSPost2010Prop44ColorIndex
 90
        5
102
RTVSPost2010Prop44ColorRGB
 90
      255
102
RTVSPost2010PropOp44
 70
     1
102
RTVSPost2010Prop45
280
     0
102
RTVSPost2010PropOp45
 70
     1
102
RTVSPost2010Prop46
 90
       50
102
RTVSPost2010PropOp46
 70
     1
102
RTVSPost2010Prop47
 90
       50
102
RTVSPost2010PropOp47
 70
     1
102
RTVSPost2010Prop48
 90
       50
102
RTVSPost2010PropOp48
 70
     1
102
RTVSPost2010Prop49
280
     0
102
RTVSPost2010PropOp49
 70
     1
102
RTVSPost2010Prop50
 90
       50
102
RTVSPost2010PropOp50
 70
     1
102
RTVSPost2010Prop51ColorIndex
 90
      256
102
RTVSPost2010Prop51ColorRGB
 90
-16777216
102
RTVSPost2010PropOp51
 70
     0
102
RTVSPost2010Prop52
140
1.0
102
RTVSPost2010PropOp52
 70
     0
102
RTVSPost2010Prop53
 90
        2
102
RTVSPost2010PropOp53
 70
     1
102
RTVSPost2010Prop54
  1
strokes_ogs.tif
102
RTVSPost2010PropOp54
 70
     1
102
RTVSPost2010Prop55
280
     0
102
RTVSPost2010PropOp55
 70
     1
102
RTVSPost2010Prop56
140
1.0
102
RTVSPost2010PropOp56
 70
     1
102
RTVSPost2010Prop57
140
1.0
102
RTVSPost2010PropOp57
 70
     1
102
RTVSPropertyOp0
 70
     1
102
RTVSPropertyOp1
 70
     1
102
RTVSPropertyOp2
 70
     1
102
RTVSPropertyOp3
 70
     1
102
RTVSPropertyOp4
 70
     1
102
RTVSPropertyOp5
 70
     1
102
RTVSPropertyOp6
 70
     1
102
RTVSPropertyOp7
 70
     1
102
RTVSPropertyOp8
 70
     1
102
RTVSPropertyOp9
 70
     1
102
RTVSPropertyOp10
 70
     1
102
RTVSPropertyOp11
 70
     1
102
RTVSPropertyOp12
 70
     1
102
RTVSPropertyOp13
 70
     1
102
RTVSPropertyOp14
 70
     1
102
RTVSPropertyOp15
 70
     1
102
RTVSPropertyOp16
 70
     1
102
RTVSPropertyOp17
 70
     1
102
RTVSPropertyOp18
 70
     1
102
RTVSPropertyOp19
 70
     1
102
RTVSPropertyOp20
 70
     1
102
RTVSPropertyOp21
 70
     1
102
RTVSPropertyOp22
 70
     1
102
RTVSPropertyOp23
 70
     1
102
RTVSPropertyOp24
 70
     1
102
RTVSPropertyOp25
 70
     1
102
RTVSPropertyOp26
 70
     1
102
RTVSPropertyOp27
 70
     1
102
RTVSPropertyOp28
 70
     1
102
RTVSPropertyOp29
 70
     1
102
RTVSPropertyOp30
 70
     1
102
RTVSPropertyOp31
 70
     1
102
RTVSPropertyOp32
 70
     1
102
RTVSPropertyOp33
 70
     1
102
RTVSPropertyOp34
 70
     1
102
RTVSPropertyOp35
 70
     1
102
RTVSPropertyOp36
 70
     1
102
RTVSPropertyOp37
 70
     1
102
RTVSPropertyOp38
 70
     1
102
RTVSPropertyOp39
 70
     1
102
RTVSPropertyOp40
 70
     1
102
RTVSPropertyOp41
 70
     1
102
RTVSPropertyOp42
 70
     1
102
RTVSPropertyOp43
 70
     1
102
RTVSPropertyOp44
 70
     1
102
RTVSPropertyOp45
 70
     1
102
RTVSPropertyOp46
 70
     1
102
RTVSPropertyOp47
 70
     1
102
RTVSPropertyOp48
 70
     1
102
RTVSPropertyOp49
 70
     1
102
RTVSPropertyOp50
 70
     1
102
RTVSPropertyOp51
 70
     0
102
RTVSPropertyOp52
 70
     0
102
RTVSPropertyOp53
 70
     1
102
RTVSPropertyOp54
 70
     1
102
RTVSPropertyOp55
 70
     1
102
RTVSPropertyOp56
 70
     1
102
RTVSPropertyOp57
 70
     1
102
RTVSPropertyOp58
 70
     1
102
RTVSPropertyOp59
 70
     1
102
RTVSPropertyOp60
 70
     1
102
RTVSPropertyOp61
 70
     1
102
RTVSPropertyOp62
 70
     1
  0
XRECORD
  5
796
102
{ACAD_REACTORS
330
795
102
}
330
795
100
AcDbXrecord
280
     1
102
RTVSPost2010Prop28
280
     0
102
RTVSPost2010PropOp28
 70
     0
102
RTVSPost2010Prop29
280
     1
102
RTVSPost2010PropOp29
 70
     0
102
RTVSPost2010Prop30
280
     1
102
RTVSPost2010PropOp30
 70
     0
102
RTVSPost2010Prop31
280
     0
102
RTVSPost2010PropOp31
 70
     0
102
RTVSPost2010Prop32
280
     0
102
RTVSPost2010PropOp32
 70
     0
102
RTVSPost2010Prop33
280
     0
102
RTVSPost2010PropOp33
 70
     0
102
RTVSPost2010Prop34
280
     0
102
RTVSPost2010PropOp34
 70
     0
102
RTVSPost2010Prop35
280
     0
102
RTVSPost2010PropOp35
 70
     0
102
RTVSPost2010Prop36
280
     0
102
RTVSPost2010PropOp36
 70
     0
102
RTVSPost2010Prop37
 90
       50
102
RTVSPost2010PropOp37
 70
     0
102
RTVSPost2010Prop38
140
0.0
102
RTVSPost2010PropOp38
 70
     0
102
RTVSPost2010Prop39
140
1.0
102
RTVSPost2010PropOp39
 70
     0
102
RTVSPost2010Prop40
 90
        0
102
RTVSPost2010PropOp40
 70
     0
102
RTVSPost2010Prop41ColorIndex
 90
       18
102
RTVSPost2010Prop41ColorRGB
 90
        0
102
RTVSPost2010PropOp41
 70
     0
102
RTVSPost2010Prop42
 90
       50
102
RTVSPost2010PropOp42
 70
     0
102
RTVSPost2010Prop43
 90
        3
102
RTVSPost2010PropOp43
 70
     0
102
RTVSPost2010Prop44ColorIndex
 90
        5
102
RTVSPost2010Prop44ColorRGB
 90
      255
102
RTVSPost2010PropOp44
 70
     0
102
RTVSPost2010Prop45
280
     0
102
RTVSPost2010PropOp45
 70
     0
102
RTVSPost2010Prop46
 90
       50
102
RTVSPost2010PropOp46
 70
     0
102
RTVSPost2010Prop47
 90
       50
102
RTVSPost2010PropOp47
 70
     0
102
RTVSPost2010Prop48
 90
       50
102
RTVSPost2010PropOp48
 70
     0
102
RTVSPost2010Prop49
280
     0
102
RTVSPost2010PropOp49
 70
     0
102
RTVSPost2010Prop50
 90
       50
102
RTVSPost2010PropOp50
 70
     0
102
RTVSPost2010Prop51ColorIndex
 90
      256
102
RTVSPost2010Prop51ColorRGB
 90
-16777216
102
RTVSPost2010PropOp51
 70
     0
102
RTVSPost2010Prop52
140
1.0
102
RTVSPost2010PropOp52
 70
     0
102
RTVSPost2010Prop53
 90
        2
102
RTVSPost2010PropOp53
 70
     0
102
RTVSPost2010Prop54
  1
strokes_ogs.tif
102
RTVSPost2010PropOp54
 70
     0
102
RTVSPost2010Prop55
280
     0
102
RTVSPost2010PropOp55
 70
     0
102
RTVSPost2010Prop56
140
1.0
102
RTVSPost2010PropOp56
 70
     0
102
RTVSPost2010Prop57
140
1.0
102
RTVSPost2010PropOp57
 70
     0
102
RTVSPropertyOp0
 70
     0
102
RTVSPropertyOp1
 70
     0
102
RTVSPropertyOp2
 70
     0
102
RTVSPropertyOp3
 70
     0
102
RTVSPropertyOp4
 70
     0
102
RTVSPropertyOp5
 70
     0
102
RTVSPropertyOp6
 70
     0
102
RTVSPropertyOp7
 70
     0
102
RTVSPropertyOp8
 70
     0
102
RTVSPropertyOp9
 70
     0
102
RTVSPropertyOp10
 70
     0
102
RTVSPropertyOp11
 70
     0
102
RTVSPropertyOp12
 70
     0
102
RTVSPropertyOp13
 70
     0
102
RTVSPropertyOp14
 70
     2
102
RTVSPropertyOp15
 70
     0
102
RTVSPropertyOp16
 70
     0
102
RTVSPropertyOp17
 70
     0
102
RTVSPropertyOp18
 70
     0
102
RTVSPropertyOp19
 70
     0
102
RTVSPropertyOp20
 70
     0
102
RTVSPropertyOp21
 70
     0
102
RTVSPropertyOp22
 70
     0
102
RTVSPropertyOp23
 70
     0
102
RTVSPropertyOp24
 70
     0
102
RTVSPropertyOp25
 70
     0
102
RTVSPropertyOp26
 70
     0
102
RTVSPropertyOp27
 70
     0
102
RTVSPropertyOp28
 70
     0
102
RTVSPropertyOp29
 70
     0
102
RTVSPropertyOp30
 70
     0
102
RTVSPropertyOp31
 70
     0
102
RTVSPropertyOp32
 70
     0
102
RTVSPropertyOp33
 70
     0
102
RTVSPropertyOp34
 70
     0
102
RTVSPropertyOp35
 70
     0
102
RTVSPropertyOp36
 70
     0
102
RTVSPropertyOp37
 70
     0
102
RTVSPropertyOp38
 70
     0
102
RTVSPropertyOp39
 70
     0
102
RTVSPropertyOp40
 70
     0
102
RTVSPropertyOp41
 70
     0
102
RTVSPropertyOp42
 70
     0
102
RTVSPropertyOp43
 70
     0
102
RTVSPropertyOp44
 70
     0
102
RTVSPropertyOp45
 70
     0
102
RTVSPropertyOp46
 70
     0
102
RTVSPropertyOp47
 70
     0
102
RTVSPropertyOp48
 70
     0
102
RTVSPropertyOp49
 70
     0
102
RTVSPropertyOp50
 70
     0
102
RTVSPropertyOp51
 70
     0
102
RTVSPropertyOp52
 70
     0
102
RTVSPropertyOp53
 70
     0
102
RTVSPropertyOp54
 70
     0
102
RTVSPropertyOp55
 70
     0
102
RTVSPropertyOp56
 70
     0
102
RTVSPropertyOp57
 70
     0
102
RTVSPropertyOp58
 70
     1
102
RTVSPropertyOp59
 70
     1
102
RTVSPropertyOp60
 70
     1
102
RTVSPropertyOp61
 70
     1
102
RTVSPropertyOp62
 70
     1
  0
XRECORD
  5
78E
102
{ACAD_REACTORS
330
78D
102
}
330
78D
100
AcDbXrecord
280
     1
102
RTVSPost2010Prop28
280
     0
102
RTVSPost2010PropOp28
 70
     1
102
RTVSPost2010Prop29
280
     1
102
RTVSPost2010PropOp29
 70
     1
102
RTVSPost2010Prop30
280
     1
102
RTVSPost2010PropOp30
 70
     1
102
RTVSPost2010Prop31
280
     0
102
RTVSPost2010PropOp31
 70
     1
102
RTVSPost2010Prop32
280
     0
102
RTVSPost2010PropOp32
 70
     1
102
RTVSPost2010Prop33
280
     0
102
RTVSPost2010PropOp33
 70
     1
102
RTVSPost2010Prop34
280
     0
102
RTVSPost2010PropOp34
 70
     1
102
RTVSPost2010Prop35
280
     0
102
RTVSPost2010PropOp35
 70
     1
102
RTVSPost2010Prop36
280
     0
102
RTVSPost2010PropOp36
 70
     1
102
RTVSPost2010Prop37
 90
       50
102
RTVSPost2010PropOp37
 70
     1
102
RTVSPost2010Prop38
140
0.0
102
RTVSPost2010PropOp38
 70
     1
102
RTVSPost2010Prop39
140
1.0
102
RTVSPost2010PropOp39
 70
     1
102
RTVSPost2010Prop40
 90
        0
102
RTVSPost2010PropOp40
 70
     1
102
RTVSPost2010Prop41ColorIndex
 90
       18
102
RTVSPost2010Prop41ColorRGB
 90
        0
102
RTVSPost2010PropOp41
 70
     1
102
RTVSPost2010Prop42
 90
       50
102
RTVSPost2010PropOp42
 70
     1
102
RTVSPost2010Prop43
 90
        3
102
RTVSPost2010PropOp43
 70
     1
102
RTVSPost2010Prop44ColorIndex
 90
        5
102
RTVSPost2010Prop44ColorRGB
 90
      255
102
RTVSPost2010PropOp44
 70
     1
102
RTVSPost2010Prop45
280
     0
102
RTVSPost2010PropOp45
 70
     1
102
RTVSPost2010Prop46
 90
       50
102
RTVSPost2010PropOp46
 70
     1
102
RTVSPost2010Prop47
 90
       50
102
RTVSPost2010PropOp47
 70
     1
102
RTVSPost2010Prop48
 90
       50
102
RTVSPost2010PropOp48
 70
     1
102
RTVSPost2010Prop49
280
     0
102
RTVSPost2010PropOp49
 70
     1
102
RTVSPost2010Prop50
 90
       50
102
RTVSPost2010PropOp50
 70
     1
102
RTVSPost2010Prop51ColorIndex
 90
      256
102
RTVSPost2010Prop51ColorRGB
 90
-16777216
102
RTVSPost2010PropOp51
 70
     0
102
RTVSPost2010Prop52
140
1.0
102
RTVSPost2010PropOp52
 70
     0
102
RTVSPost2010Prop53
 90
        2
102
RTVSPost2010PropOp53
 70
     1
102
RTVSPost2010Prop54
  1
strokes_ogs.tif
102
RTVSPost2010PropOp54
 70
     1
102
RTVSPost2010Prop55
280
     0
102
RTVSPost2010PropOp55
 70
     1
102
RTVSPost2010Prop56
140
1.0
102
RTVSPost2010PropOp56
 70
     1
102
RTVSPost2010Prop57
140
1.0
102
RTVSPost2010PropOp57
 70
     1
102
RTVSPropertyOp0
 70
     1
102
RTVSPropertyOp1
 70
     1
102
RTVSPropertyOp2
 70
     1
102
RTVSPropertyOp3
 70
     1
102
RTVSPropertyOp4
 70
     1
102
RTVSPropertyOp5
 70
     1
102
RTVSPropertyOp6
 70
     1
102
RTVSPropertyOp7
 70
     1
102
RTVSPropertyOp8
 70
     1
102
RTVSPropertyOp9
 70
     1
102
RTVSPropertyOp10
 70
     1
102
RTVSPropertyOp11
 70
     1
102
RTVSPropertyOp12
 70
     1
102
RTVSPropertyOp13
 70
     1
102
RTVSPropertyOp14
 70
     1
102
RTVSPropertyOp15
 70
     1
102
RTVSPropertyOp16
 70
     1
102
RTVSPropertyOp17
 70
     1
102
RTVSPropertyOp18
 70
     1
102
RTVSPropertyOp19
 70
     1
102
RTVSPropertyOp20
 70
     1
102
RTVSPropertyOp21
 70
     1
102
RTVSPropertyOp22
 70
     1
102
RTVSPropertyOp23
 70
     1
102
RTVSPropertyOp24
 70
     1
102
RTVSPropertyOp25
 70
     1
102
RTVSPropertyOp26
 70
     1
102
RTVSPropertyOp27
 70
     1
102
RTVSPropertyOp28
 70
     1
102
RTVSPropertyOp29
 70
     1
102
RTVSPropertyOp30
 70
     1
102
RTVSPropertyOp31
 70
     1
102
RTVSPropertyOp32
 70
     1
102
RTVSPropertyOp33
 70
     1
102
RTVSPropertyOp34
 70
     1
102
RTVSPropertyOp35
 70
     1
102
RTVSPropertyOp36
 70
     1
102
RTVSPropertyOp37
 70
     1
102
RTVSPropertyOp38
 70
     1
102
RTVSPropertyOp39
 70
     1
102
RTVSPropertyOp40
 70
     1
102
RTVSPropertyOp41
 70
     1
102
RTVSPropertyOp42
 70
     1
102
RTVSPropertyOp43
 70
     1
102
RTVSPropertyOp44
 70
     1
102
RTVSPropertyOp45
 70
     1
102
RTVSPropertyOp46
 70
     1
102
RTVSPropertyOp47
 70
     1
102
RTVSPropertyOp48
 70
     1
102
RTVSPropertyOp49
 70
     1
102
RTVSPropertyOp50
 70
     1
102
RTVSPropertyOp51
 70
     0
102
RTVSPropertyOp52
 70
     0
102
RTVSPropertyOp53
 70
     1
102
RTVSPropertyOp54
 70
     1
102
RTVSPropertyOp55
 70
     1
102
RTVSPropertyOp56
 70
     1
102
RTVSPropertyOp57
 70
     1
102
RTVSPropertyOp58
 70
     1
102
RTVSPropertyOp59
 70
     1
102
RTVSPropertyOp60
 70
     1
102
RTVSPropertyOp61
 70
     1
102
RTVSPropertyOp62
 70
     1
  0
XRECORD
  5
772
102
{ACAD_REACTORS
330
771
102
}
330
771
100
AcDbXrecord
280
     1
102
RTVSPost2010Prop28
280
     0
102
RTVSPost2010PropOp28
 70
     1
102
RTVSPost2010Prop29
280
     1
102
RTVSPost2010PropOp29
 70
     1
102
RTVSPost2010Prop30
280
     1
102
RTVSPost2010PropOp30
 70
     1
102
RTVSPost2010Prop31
280
     0
102
RTVSPost2010PropOp31
 70
     1
102
RTVSPost2010Prop32
280
     0
102
RTVSPost2010PropOp32
 70
     1
102
RTVSPost2010Prop33
280
     0
102
RTVSPost2010PropOp33
 70
     1
102
RTVSPost2010Prop34
280
     0
102
RTVSPost2010PropOp34
 70
     1
102
RTVSPost2010Prop35
280
     0
102
RTVSPost2010PropOp35
 70
     1
102
RTVSPost2010Prop36
280
     0
102
RTVSPost2010PropOp36
 70
     1
102
RTVSPost2010Prop37
 90
       50
102
RTVSPost2010PropOp37
 70
     1
102
RTVSPost2010Prop38
140
0.0
102
RTVSPost2010PropOp38
 70
     1
102
RTVSPost2010Prop39
140
1.0
102
RTVSPost2010PropOp39
 70
     1
102
RTVSPost2010Prop40
 90
        0
102
RTVSPost2010PropOp40
 70
     1
102
RTVSPost2010Prop41ColorIndex
 90
       18
102
RTVSPost2010Prop41ColorRGB
 90
        0
102
RTVSPost2010PropOp41
 70
     1
102
RTVSPost2010Prop42
 90
       50
102
RTVSPost2010PropOp42
 70
     1
102
RTVSPost2010Prop43
 90
        3
102
RTVSPost2010PropOp43
 70
     1
102
RTVSPost2010Prop44ColorIndex
 90
        5
102
RTVSPost2010Prop44ColorRGB
 90
      255
102
RTVSPost2010PropOp44
 70
     1
102
RTVSPost2010Prop45
280
     0
102
RTVSPost2010PropOp45
 70
     1
102
RTVSPost2010Prop46
 90
       50
102
RTVSPost2010PropOp46
 70
     1
102
RTVSPost2010Prop47
 90
       50
102
RTVSPost2010PropOp47
 70
     1
102
RTVSPost2010Prop48
 90
       50
102
RTVSPost2010PropOp48
 70
     1
102
RTVSPost2010Prop49
280
     0
102
RTVSPost2010PropOp49
 70
     1
102
RTVSPost2010Prop50
 90
       50
102
RTVSPost2010PropOp50
 70
     1
102
RTVSPost2010Prop51ColorIndex
 90
      256
102
RTVSPost2010Prop51ColorRGB
 90
-16777216
102
RTVSPost2010PropOp51
 70
     0
102
RTVSPost2010Prop52
140
1.0
102
RTVSPost2010PropOp52
 70
     0
102
RTVSPost2010Prop53
 90
        2
102
RTVSPost2010PropOp53
 70
     1
102
RTVSPost2010Prop54
  1
strokes_ogs.tif
102
RTVSPost2010PropOp54
 70
     1
102
RTVSPost2010Prop55
280
     0
102
RTVSPost2010PropOp55
 70
     1
102
RTVSPost2010Prop56
140
1.0
102
RTVSPost2010PropOp56
 70
     1
102
RTVSPost2010Prop57
140
1.0
102
RTVSPost2010PropOp57
 70
     1
102
RTVSPropertyOp0
 70
     1
102
RTVSPropertyOp1
 70
     1
102
RTVSPropertyOp2
 70
     1
102
RTVSPropertyOp3
 70
     1
102
RTVSPropertyOp4
 70
     1
102
RTVSPropertyOp5
 70
     1
102
RTVSPropertyOp6
 70
     1
102
RTVSPropertyOp7
 70
     1
102
RTVSPropertyOp8
 70
     1
102
RTVSPropertyOp9
 70
     1
102
RTVSPropertyOp10
 70
     1
102
RTVSPropertyOp11
 70
     1
102
RTVSPropertyOp12
 70
     1
102
RTVSPropertyOp13
 70
     1
102
RTVSPropertyOp14
 70
     1
102
RTVSPropertyOp15
 70
     1
102
RTVSPropertyOp16
 70
     1
102
RTVSPropertyOp17
 70
     1
102
RTVSPropertyOp18
 70
     1
102
RTVSPropertyOp19
 70
     1
102
RTVSPropertyOp20
 70
     1
102
RTVSPropertyOp21
 70
     1
102
RTVSPropertyOp22
 70
     1
102
RTVSPropertyOp23
 70
     1
102
RTVSPropertyOp24
 70
     1
102
RTVSPropertyOp25
 70
     1
102
RTVSPropertyOp26
 70
     1
102
RTVSPropertyOp27
 70
     1
102
RTVSPropertyOp28
 70
     1
102
RTVSPropertyOp29
 70
     1
102
RTVSPropertyOp30
 70
     1
102
RTVSPropertyOp31
 70
     1
102
RTVSPropertyOp32
 70
     1
102
RTVSPropertyOp33
 70
     1
102
RTVSPropertyOp34
 70
     1
102
RTVSPropertyOp35
 70
     1
102
RTVSPropertyOp36
 70
     1
102
RTVSPropertyOp37
 70
     1
102
RTVSPropertyOp38
 70
     1
102
RTVSPropertyOp39
 70
     1
102
RTVSPropertyOp40
 70
     1
102
RTVSPropertyOp41
 70
     1
102
RTVSPropertyOp42
 70
     1
102
RTVSPropertyOp43
 70
     1
102
RTVSPropertyOp44
 70
     1
102
RTVSPropertyOp45
 70
     1
102
RTVSPropertyOp46
 70
     1
102
RTVSPropertyOp47
 70
     1
102
RTVSPropertyOp48
 70
     1
102
RTVSPropertyOp49
 70
     1
102
RTVSPropertyOp50
 70
     1
102
RTVSPropertyOp51
 70
     0
102
RTVSPropertyOp52
 70
     0
102
RTVSPropertyOp53
 70
     1
102
RTVSPropertyOp54
 70
     1
102
RTVSPropertyOp55
 70
     1
102
RTVSPropertyOp56
 70
     1
102
RTVSPropertyOp57
 70
     1
102
RTVSPropertyOp58
 70
     1
102
RTVSPropertyOp59
 70
     1
102
RTVSPropertyOp60
 70
     1
102
RTVSPropertyOp61
 70
     1
102
RTVSPropertyOp62
 70
     1
  0
XRECORD
  5
774
102
{ACAD_REACTORS
330
773
102
}
330
773
100
AcDbXrecord
280
     1
102
RTVSPost2010Prop28
280
     0
102
RTVSPost2010PropOp28
 70
     1
102
RTVSPost2010Prop29
280
     1
102
RTVSPost2010PropOp29
 70
     1
102
RTVSPost2010Prop30
280
     1
102
RTVSPost2010PropOp30
 70
     1
102
RTVSPost2010Prop31
280
     0
102
RTVSPost2010PropOp31
 70
     1
102
RTVSPost2010Prop32
280
     0
102
RTVSPost2010PropOp32
 70
     1
102
RTVSPost2010Prop33
280
     0
102
RTVSPost2010PropOp33
 70
     1
102
RTVSPost2010Prop34
280
     0
102
RTVSPost2010PropOp34
 70
     1
102
RTVSPost2010Prop35
280
     0
102
RTVSPost2010PropOp35
 70
     1
102
RTVSPost2010Prop36
280
     0
102
RTVSPost2010PropOp36
 70
     1
102
RTVSPost2010Prop37
 90
       50
102
RTVSPost2010PropOp37
 70
     1
102
RTVSPost2010Prop38
140
0.0
102
RTVSPost2010PropOp38
 70
     1
102
RTVSPost2010Prop39
140
1.0
102
RTVSPost2010PropOp39
 70
     1
102
RTVSPost2010Prop40
 90
        0
102
RTVSPost2010PropOp40
 70
     1
102
RTVSPost2010Prop41ColorIndex
 90
       18
102
RTVSPost2010Prop41ColorRGB
 90
        0
102
RTVSPost2010PropOp41
 70
     1
102
RTVSPost2010Prop42
 90
       50
102
RTVSPost2010PropOp42
 70
     1
102
RTVSPost2010Prop43
 90
        3
102
RTVSPost2010PropOp43
 70
     1
102
RTVSPost2010Prop44ColorIndex
 90
        5
102
RTVSPost2010Prop44ColorRGB
 90
      255
102
RTVSPost2010PropOp44
 70
     1
102
RTVSPost2010Prop45
280
     0
102
RTVSPost2010PropOp45
 70
     1
102
RTVSPost2010Prop46
 90
       50
102
RTVSPost2010PropOp46
 70
     1
102
RTVSPost2010Prop47
 90
       50
102
RTVSPost2010PropOp47
 70
     1
102
RTVSPost2010Prop48
 90
       50
102
RTVSPost2010PropOp48
 70
     1
102
RTVSPost2010Prop49
280
     0
102
RTVSPost2010PropOp49
 70
     1
102
RTVSPost2010Prop50
 90
       50
102
RTVSPost2010PropOp50
 70
     1
102
RTVSPost2010Prop51ColorIndex
 90
      256
102
RTVSPost2010Prop51ColorRGB
 90
-16777216
102
RTVSPost2010PropOp51
 70
     0
102
RTVSPost2010Prop52
140
1.0
102
RTVSPost2010PropOp52
 70
     0
102
RTVSPost2010Prop53
 90
        2
102
RTVSPost2010PropOp53
 70
     1
102
RTVSPost2010Prop54
  1
strokes_ogs.tif
102
RTVSPost2010PropOp54
 70
     1
102
RTVSPost2010Prop55
280
     0
102
RTVSPost2010PropOp55
 70
     1
102
RTVSPost2010Prop56
140
1.0
102
RTVSPost2010PropOp56
 70
     1
102
RTVSPost2010Prop57
140
1.0
102
RTVSPost2010PropOp57
 70
     1
102
RTVSPropertyOp0
 70
     1
102
RTVSPropertyOp1
 70
     1
102
RTVSPropertyOp2
 70
     1
102
RTVSPropertyOp3
 70
     1
102
RTVSPropertyOp4
 70
     1
102
RTVSPropertyOp5
 70
     1
102
RTVSPropertyOp6
 70
     1
102
RTVSPropertyOp7
 70
     1
102
RTVSPropertyOp8
 70
     1
102
RTVSPropertyOp9
 70
     1
102
RTVSPropertyOp10
 70
     1
102
RTVSPropertyOp11
 70
     1
102
RTVSPropertyOp12
 70
     1
102
RTVSPropertyOp13
 70
     1
102
RTVSPropertyOp14
 70
     1
102
RTVSPropertyOp15
 70
     1
102
RTVSPropertyOp16
 70
     1
102
RTVSPropertyOp17
 70
     1
102
RTVSPropertyOp18
 70
     1
102
RTVSPropertyOp19
 70
     1
102
RTVSPropertyOp20
 70
     1
102
RTVSPropertyOp21
 70
     1
102
RTVSPropertyOp22
 70
     1
102
RTVSPropertyOp23
 70
     1
102
RTVSPropertyOp24
 70
     1
102
RTVSPropertyOp25
 70
     1
102
RTVSPropertyOp26
 70
     1
102
RTVSPropertyOp27
 70
     1
102
RTVSPropertyOp28
 70
     1
102
RTVSPropertyOp29
 70
     1
102
RTVSPropertyOp30
 70
     1
102
RTVSPropertyOp31
 70
     1
102
RTVSPropertyOp32
 70
     1
102
RTVSPropertyOp33
 70
     1
102
RTVSPropertyOp34
 70
     1
102
RTVSPropertyOp35
 70
     1
102
RTVSPropertyOp36
 70
     1
102
RTVSPropertyOp37
 70
     1
102
RTVSPropertyOp38
 70
     1
102
RTVSPropertyOp39
 70
     1
102
RTVSPropertyOp40
 70
     1
102
RTVSPropertyOp41
 70
     1
102
RTVSPropertyOp42
 70
     1
102
RTVSPropertyOp43
 70
     1
102
RTVSPropertyOp44
 70
     1
102
RTVSPropertyOp45
 70
     1
102
RTVSPropertyOp46
 70
     1
102
RTVSPropertyOp47
 70
     1
102
RTVSPropertyOp48
 70
     1
102
RTVSPropertyOp49
 70
     1
102
RTVSPropertyOp50
 70
     1
102
RTVSPropertyOp51
 70
     0
102
RTVSPropertyOp52
 70
     0
102
RTVSPropertyOp53
 70
     1
102
RTVSPropertyOp54
 70
     1
102
RTVSPropertyOp55
 70
     1
102
RTVSPropertyOp56
 70
     1
102
RTVSPropertyOp57
 70
     1
102
RTVSPropertyOp58
 70
     1
102
RTVSPropertyOp59
 70
     1
102
RTVSPropertyOp60
 70
     1
102
RTVSPropertyOp61
 70
     1
102
RTVSPropertyOp62
 70
     1
  0
XRECORD
  5
776
102
{ACAD_REACTORS
330
775
102
}
330
775
100
AcDbXrecord
280
     1
102
RTVSPost2010Prop28
280
     0
102
RTVSPost2010PropOp28
 70
     1
102
RTVSPost2010Prop29
280
     1
102
RTVSPost2010PropOp29
 70
     1
102
RTVSPost2010Prop30
280
     1
102
RTVSPost2010PropOp30
 70
     1
102
RTVSPost2010Prop31
280
     0
102
RTVSPost2010PropOp31
 70
     1
102
RTVSPost2010Prop32
280
     0
102
RTVSPost2010PropOp32
 70
     1
102
RTVSPost2010Prop33
280
     0
102
RTVSPost2010PropOp33
 70
     1
102
RTVSPost2010Prop34
280
     0
102
RTVSPost2010PropOp34
 70
     1
102
RTVSPost2010Prop35
280
     0
102
RTVSPost2010PropOp35
 70
     1
102
RTVSPost2010Prop36
280
     0
102
RTVSPost2010PropOp36
 70
     1
102
RTVSPost2010Prop37
 90
       50
102
RTVSPost2010PropOp37
 70
     1
102
RTVSPost2010Prop38
140
0.0
102
RTVSPost2010PropOp38
 70
     1
102
RTVSPost2010Prop39
140
1.0
102
RTVSPost2010PropOp39
 70
     1
102
RTVSPost2010Prop40
 90
        0
102
RTVSPost2010PropOp40
 70
     1
102
RTVSPost2010Prop41ColorIndex
 90
       18
102
RTVSPost2010Prop41ColorRGB
 90
        0
102
RTVSPost2010PropOp41
 70
     1
102
RTVSPost2010Prop42
 90
       50
102
RTVSPost2010PropOp42
 70
     1
102
RTVSPost2010Prop43
 90
        3
102
RTVSPost2010PropOp43
 70
     1
102
RTVSPost2010Prop44ColorIndex
 90
        5
102
RTVSPost2010Prop44ColorRGB
 90
      255
102
RTVSPost2010PropOp44
 70
     1
102
RTVSPost2010Prop45
280
     0
102
RTVSPost2010PropOp45
 70
     1
102
RTVSPost2010Prop46
 90
       50
102
RTVSPost2010PropOp46
 70
     1
102
RTVSPost2010Prop47
 90
       50
102
RTVSPost2010PropOp47
 70
     1
102
RTVSPost2010Prop48
 90
       50
102
RTVSPost2010PropOp48
 70
     1
102
RTVSPost2010Prop49
280
     0
102
RTVSPost2010PropOp49
 70
     1
102
RTVSPost2010Prop50
 90
       50
102
RTVSPost2010PropOp50
 70
     1
102
RTVSPost2010Prop51ColorIndex
 90
      256
102
RTVSPost2010Prop51ColorRGB
 90
-16777216
102
RTVSPost2010PropOp51
 70
     0
102
RTVSPost2010Prop52
140
1.0
102
RTVSPost2010PropOp52
 70
     0
102
RTVSPost2010Prop53
 90
        2
102
RTVSPost2010PropOp53
 70
     1
102
RTVSPost2010Prop54
  1
strokes_ogs.tif
102
RTVSPost2010PropOp54
 70
     1
102
RTVSPost2010Prop55
280
     0
102
RTVSPost2010PropOp55
 70
     1
102
RTVSPost2010Prop56
140
1.0
102
RTVSPost2010PropOp56
 70
     1
102
RTVSPost2010Prop57
140
1.0
102
RTVSPost2010PropOp57
 70
     1
102
RTVSPropertyOp0
 70
     1
102
RTVSPropertyOp1
 70
     1
102
RTVSPropertyOp2
 70
     1
102
RTVSPropertyOp3
 70
     1
102
RTVSPropertyOp4
 70
     1
102
RTVSPropertyOp5
 70
     1
102
RTVSPropertyOp6
 70
     1
102
RTVSPropertyOp7
 70
     1
102
RTVSPropertyOp8
 70
     1
102
RTVSPropertyOp9
 70
     1
102
RTVSPropertyOp10
 70
     1
102
RTVSPropertyOp11
 70
     1
102
RTVSPropertyOp12
 70
     1
102
RTVSPropertyOp13
 70
     1
102
RTVSPropertyOp14
 70
     1
102
RTVSPropertyOp15
 70
     1
102
RTVSPropertyOp16
 70
     1
102
RTVSPropertyOp17
 70
     1
102
RTVSPropertyOp18
 70
     1
102
RTVSPropertyOp19
 70
     1
102
RTVSPropertyOp20
 70
     1
102
RTVSPropertyOp21
 70
     1
102
RTVSPropertyOp22
 70
     1
102
RTVSPropertyOp23
 70
     1
102
RTVSPropertyOp24
 70
     1
102
RTVSPropertyOp25
 70
     1
102
RTVSPropertyOp26
 70
     1
102
RTVSPropertyOp27
 70
     1
102
RTVSPropertyOp28
 70
     1
102
RTVSPropertyOp29
 70
     1
102
RTVSPropertyOp30
 70
     1
102
RTVSPropertyOp31
 70
     1
102
RTVSPropertyOp32
 70
     1
102
RTVSPropertyOp33
 70
     1
102
RTVSPropertyOp34
 70
     1
102
RTVSPropertyOp35
 70
     1
102
RTVSPropertyOp36
 70
     1
102
RTVSPropertyOp37
 70
     1
102
RTVSPropertyOp38
 70
     1
102
RTVSPropertyOp39
 70
     1
102
RTVSPropertyOp40
 70
     1
102
RTVSPropertyOp41
 70
     1
102
RTVSPropertyOp42
 70
     1
102
RTVSPropertyOp43
 70
     1
102
RTVSPropertyOp44
 70
     1
102
RTVSPropertyOp45
 70
     1
102
RTVSPropertyOp46
 70
     1
102
RTVSPropertyOp47
 70
     1
102
RTVSPropertyOp48
 70
     1
102
RTVSPropertyOp49
 70
     1
102
RTVSPropertyOp50
 70
     1
102
RTVSPropertyOp51
 70
     0
102
RTVSPropertyOp52
 70
     0
102
RTVSPropertyOp53
 70
     1
102
RTVSPropertyOp54
 70
     1
102
RTVSPropertyOp55
 70
     1
102
RTVSPropertyOp56
 70
     1
102
RTVSPropertyOp57
 70
     1
102
RTVSPropertyOp58
 70
     1
102
RTVSPropertyOp59
 70
     1
102
RTVSPropertyOp60
 70
     1
102
RTVSPropertyOp61
 70
     1
102
RTVSPropertyOp62
 70
     1
  0
XRECORD
  5
778
102
{ACAD_REACTORS
330
777
102
}
330
777
100
AcDbXrecord
280
     1
102
RTVSPost2010Prop28
280
     0
102
RTVSPost2010PropOp28
 70
     1
102
RTVSPost2010Prop29
280
     1
102
RTVSPost2010PropOp29
 70
     1
102
RTVSPost2010Prop30
280
     1
102
RTVSPost2010PropOp30
 70
     1
102
RTVSPost2010Prop31
280
     0
102
RTVSPost2010PropOp31
 70
     1
102
RTVSPost2010Prop32
280
     0
102
RTVSPost2010PropOp32
 70
     1
102
RTVSPost2010Prop33
280
     0
102
RTVSPost2010PropOp33
 70
     1
102
RTVSPost2010Prop34
280
     0
102
RTVSPost2010PropOp34
 70
     1
102
RTVSPost2010Prop35
280
     0
102
RTVSPost2010PropOp35
 70
     1
102
RTVSPost2010Prop36
280
     0
102
RTVSPost2010PropOp36
 70
     1
102
RTVSPost2010Prop37
 90
       50
102
RTVSPost2010PropOp37
 70
     1
102
RTVSPost2010Prop38
140
0.0
102
RTVSPost2010PropOp38
 70
     1
102
RTVSPost2010Prop39
140
1.0
102
RTVSPost2010PropOp39
 70
     1
102
RTVSPost2010Prop40
 90
        0
102
RTVSPost2010PropOp40
 70
     1
102
RTVSPost2010Prop41ColorIndex
 90
       18
102
RTVSPost2010Prop41ColorRGB
 90
        0
102
RTVSPost2010PropOp41
 70
     1
102
RTVSPost2010Prop42
 90
       50
102
RTVSPost2010PropOp42
 70
     1
102
RTVSPost2010Prop43
 90
        3
102
RTVSPost2010PropOp43
 70
     1
102
RTVSPost2010Prop44ColorIndex
 90
        5
102
RTVSPost2010Prop44ColorRGB
 90
      255
102
RTVSPost2010PropOp44
 70
     1
102
RTVSPost2010Prop45
280
     0
102
RTVSPost2010PropOp45
 70
     1
102
RTVSPost2010Prop46
 90
       50
102
RTVSPost2010PropOp46
 70
     1
102
RTVSPost2010Prop47
 90
       50
102
RTVSPost2010PropOp47
 70
     1
102
RTVSPost2010Prop48
 90
       50
102
RTVSPost2010PropOp48
 70
     1
102
RTVSPost2010Prop49
280
     0
102
RTVSPost2010PropOp49
 70
     1
102
RTVSPost2010Prop50
 90
       50
102
RTVSPost2010PropOp50
 70
     1
102
RTVSPost2010Prop51ColorIndex
 90
      256
102
RTVSPost2010Prop51ColorRGB
 90
-16777216
102
RTVSPost2010PropOp51
 70
     0
102
RTVSPost2010Prop52
140
1.0
102
RTVSPost2010PropOp52
 70
     0
102
RTVSPost2010Prop53
 90
        2
102
RTVSPost2010PropOp53
 70
     1
102
RTVSPost2010Prop54
  1
strokes_ogs.tif
102
RTVSPost2010PropOp54
 70
     1
102
RTVSPost2010Prop55
280
     0
102
RTVSPost2010PropOp55
 70
     1
102
RTVSPost2010Prop56
140
1.0
102
RTVSPost2010PropOp56
 70
     1
102
RTVSPost2010Prop57
140
1.0
102
RTVSPost2010PropOp57
 70
     1
102
RTVSPropertyOp0
 70
     1
102
RTVSPropertyOp1
 70
     1
102
RTVSPropertyOp2
 70
     1
102
RTVSPropertyOp3
 70
     1
102
RTVSPropertyOp4
 70
     1
102
RTVSPropertyOp5
 70
     1
102
RTVSPropertyOp6
 70
     1
102
RTVSPropertyOp7
 70
     1
102
RTVSPropertyOp8
 70
     1
102
RTVSPropertyOp9
 70
     1
102
RTVSPropertyOp10
 70
     1
102
RTVSPropertyOp11
 70
     1
102
RTVSPropertyOp12
 70
     1
102
RTVSPropertyOp13
 70
     1
102
RTVSPropertyOp14
 70
     1
102
RTVSPropertyOp15
 70
     1
102
RTVSPropertyOp16
 70
     1
102
RTVSPropertyOp17
 70
     1
102
RTVSPropertyOp18
 70
     1
102
RTVSPropertyOp19
 70
     1
102
RTVSPropertyOp20
 70
     1
102
RTVSPropertyOp21
 70
     1
102
RTVSPropertyOp22
 70
     1
102
RTVSPropertyOp23
 70
     1
102
RTVSPropertyOp24
 70
     1
102
RTVSPropertyOp25
 70
     1
102
RTVSPropertyOp26
 70
     1
102
RTVSPropertyOp27
 70
     1
102
RTVSPropertyOp28
 70
     1
102
RTVSPropertyOp29
 70
     1
102
RTVSPropertyOp30
 70
     1
102
RTVSPropertyOp31
 70
     1
102
RTVSPropertyOp32
 70
     1
102
RTVSPropertyOp33
 70
     1
102
RTVSPropertyOp34
 70
     1
102
RTVSPropertyOp35
 70
     1
102
RTVSPropertyOp36
 70
     1
102
RTVSPropertyOp37
 70
     1
102
RTVSPropertyOp38
 70
     1
102
RTVSPropertyOp39
 70
     1
102
RTVSPropertyOp40
 70
     1
102
RTVSPropertyOp41
 70
     1
102
RTVSPropertyOp42
 70
     1
102
RTVSPropertyOp43
 70
     1
102
RTVSPropertyOp44
 70
     1
102
RTVSPropertyOp45
 70
     1
102
RTVSPropertyOp46
 70
     1
102
RTVSPropertyOp47
 70
     1
102
RTVSPropertyOp48
 70
     1
102
RTVSPropertyOp49
 70
     1
102
RTVSPropertyOp50
 70
     1
102
RTVSPropertyOp51
 70
     0
102
RTVSPropertyOp52
 70
     0
102
RTVSPropertyOp53
 70
     1
102
RTVSPropertyOp54
 70
     1
102
RTVSPropertyOp55
 70
     1
102
RTVSPropertyOp56
 70
     1
102
RTVSPropertyOp57
 70
     1
102
RTVSPropertyOp58
 70
     1
102
RTVSPropertyOp59
 70
     1
102
RTVSPropertyOp60
 70
     1
102
RTVSPropertyOp61
 70
     1
102
RTVSPropertyOp62
 70
     1
  0
XRECORD
  5
77E
102
{ACAD_REACTORS
330
77D
102
}
330
77D
100
AcDbXrecord
280
     1
102
RTVSPost2010Prop28
280
     0
102
RTVSPost2010PropOp28
 70
     1
102
RTVSPost2010Prop29
280
     1
102
RTVSPost2010PropOp29
 70
     1
102
RTVSPost2010Prop30
280
     1
102
RTVSPost2010PropOp30
 70
     1
102
RTVSPost2010Prop31
280
     0
102
RTVSPost2010PropOp31
 70
     1
102
RTVSPost2010Prop32
280
     0
102
RTVSPost2010PropOp32
 70
     1
102
RTVSPost2010Prop33
280
     0
102
RTVSPost2010PropOp33
 70
     1
102
RTVSPost2010Prop34
280
     0
102
RTVSPost2010PropOp34
 70
     1
102
RTVSPost2010Prop35
280
     0
102
RTVSPost2010PropOp35
 70
     1
102
RTVSPost2010Prop36
280
     0
102
RTVSPost2010PropOp36
 70
     1
102
RTVSPost2010Prop37
 90
       50
102
RTVSPost2010PropOp37
 70
     1
102
RTVSPost2010Prop38
140
0.0
102
RTVSPost2010PropOp38
 70
     1
102
RTVSPost2010Prop39
140
1.0
102
RTVSPost2010PropOp39
 70
     1
102
RTVSPost2010Prop40
 90
        0
102
RTVSPost2010PropOp40
 70
     1
102
RTVSPost2010Prop41ColorIndex
 90
       18
102
RTVSPost2010Prop41ColorRGB
 90
        0
102
RTVSPost2010PropOp41
 70
     1
102
RTVSPost2010Prop42
 90
       50
102
RTVSPost2010PropOp42
 70
     1
102
RTVSPost2010Prop43
 90
        3
102
RTVSPost2010PropOp43
 70
     1
102
RTVSPost2010Prop44ColorIndex
 90
        5
102
RTVSPost2010Prop44ColorRGB
 90
      255
102
RTVSPost2010PropOp44
 70
     1
102
RTVSPost2010Prop45
280
     0
102
RTVSPost2010PropOp45
 70
     1
102
RTVSPost2010Prop46
 90
       50
102
RTVSPost2010PropOp46
 70
     1
102
RTVSPost2010Prop47
 90
       50
102
RTVSPost2010PropOp47
 70
     1
102
RTVSPost2010Prop48
 90
       50
102
RTVSPost2010PropOp48
 70
     1
102
RTVSPost2010Prop49
280
     0
102
RTVSPost2010PropOp49
 70
     1
102
RTVSPost2010Prop50
 90
       50
102
RTVSPost2010PropOp50
 70
     1
102
RTVSPost2010Prop51ColorIndex
 90
      256
102
RTVSPost2010Prop51ColorRGB
 90
-16777216
102
RTVSPost2010PropOp51
 70
     0
102
RTVSPost2010Prop52
140
1.0
102
RTVSPost2010PropOp52
 70
     0
102
RTVSPost2010Prop53
 90
        2
102
RTVSPost2010PropOp53
 70
     1
102
RTVSPost2010Prop54
  1
strokes_ogs.tif
102
RTVSPost2010PropOp54
 70
     1
102
RTVSPost2010Prop55
280
     0
102
RTVSPost2010PropOp55
 70
     1
102
RTVSPost2010Prop56
140
1.0
102
RTVSPost2010PropOp56
 70
     1
102
RTVSPost2010Prop57
140
1.0
102
RTVSPost2010PropOp57
 70
     1
102
RTVSPropertyOp0
 70
     1
102
RTVSPropertyOp1
 70
     1
102
RTVSPropertyOp2
 70
     1
102
RTVSPropertyOp3
 70
     1
102
RTVSPropertyOp4
 70
     1
102
RTVSPropertyOp5
 70
     1
102
RTVSPropertyOp6
 70
     1
102
RTVSPropertyOp7
 70
     1
102
RTVSPropertyOp8
 70
     1
102
RTVSPropertyOp9
 70
     1
102
RTVSPropertyOp10
 70
     1
102
RTVSPropertyOp11
 70
     1
102
RTVSPropertyOp12
 70
     1
102
RTVSPropertyOp13
 70
     1
102
RTVSPropertyOp14
 70
     1
102
RTVSPropertyOp15
 70
     1
102
RTVSPropertyOp16
 70
     1
102
RTVSPropertyOp17
 70
     1
102
RTVSPropertyOp18
 70
     1
102
RTVSPropertyOp19
 70
     1
102
RTVSPropertyOp20
 70
     1
102
RTVSPropertyOp21
 70
     1
102
RTVSPropertyOp22
 70
     1
102
RTVSPropertyOp23
 70
     1
102
RTVSPropertyOp24
 70
     1
102
RTVSPropertyOp25
 70
     1
102
RTVSPropertyOp26
 70
     1
102
RTVSPropertyOp27
 70
     1
102
RTVSPropertyOp28
 70
     1
102
RTVSPropertyOp29
 70
     1
102
RTVSPropertyOp30
 70
     1
102
RTVSPropertyOp31
 70
     1
102
RTVSPropertyOp32
 70
     1
102
RTVSPropertyOp33
 70
     1
102
RTVSPropertyOp34
 70
     1
102
RTVSPropertyOp35
 70
     1
102
RTVSPropertyOp36
 70
     1
102
RTVSPropertyOp37
 70
     1
102
RTVSPropertyOp38
 70
     1
102
RTVSPropertyOp39
 70
     1
102
RTVSPropertyOp40
 70
     1
102
RTVSPropertyOp41
 70
     1
102
RTVSPropertyOp42
 70
     1
102
RTVSPropertyOp43
 70
     1
102
RTVSPropertyOp44
 70
     1
102
RTVSPropertyOp45
 70
     1
102
RTVSPropertyOp46
 70
     1
102
RTVSPropertyOp47
 70
     1
102
RTVSPropertyOp48
 70
     1
102
RTVSPropertyOp49
 70
     1
102
RTVSPropertyOp50
 70
     1
102
RTVSPropertyOp51
 70
     0
102
RTVSPropertyOp52
 70
     0
102
RTVSPropertyOp53
 70
     1
102
RTVSPropertyOp54
 70
     1
102
RTVSPropertyOp55
 70
     1
102
RTVSPropertyOp56
 70
     1
102
RTVSPropertyOp57
 70
     1
102
RTVSPropertyOp58
 70
     1
102
RTVSPropertyOp59
 70
     1
102
RTVSPropertyOp60
 70
     1
102
RTVSPropertyOp61
 70
     1
102
RTVSPropertyOp62
 70
     1
  0
XRECORD
  5
792
102
{ACAD_REACTORS
330
791
102
}
330
791
100
AcDbXrecord
280
     1
102
RTVSPost2010Prop28
280
     0
102
RTVSPost2010PropOp28
 70
     0
102
RTVSPost2010Prop29
280
     1
102
RTVSPost2010PropOp29
 70
     0
102
RTVSPost2010Prop30
280
     1
102
RTVSPost2010PropOp30
 70
     0
102
RTVSPost2010Prop31
280
     0
102
RTVSPost2010PropOp31
 70
     0
102
RTVSPost2010Prop32
280
     0
102
RTVSPost2010PropOp32
 70
     0
102
RTVSPost2010Prop33
280
     0
102
RTVSPost2010PropOp33
 70
     0
102
RTVSPost2010Prop34
280
     0
102
RTVSPost2010PropOp34
 70
     0
102
RTVSPost2010Prop35
280
     0
102
RTVSPost2010PropOp35
 70
     0
102
RTVSPost2010Prop36
280
     0
102
RTVSPost2010PropOp36
 70
     0
102
RTVSPost2010Prop37
 90
       50
102
RTVSPost2010PropOp37
 70
     0
102
RTVSPost2010Prop38
140
0.0
102
RTVSPost2010PropOp38
 70
     0
102
RTVSPost2010Prop39
140
1.0
102
RTVSPost2010PropOp39
 70
     0
102
RTVSPost2010Prop40
 90
        0
102
RTVSPost2010PropOp40
 70
     0
102
RTVSPost2010Prop41ColorIndex
 90
       18
102
RTVSPost2010Prop41ColorRGB
 90
        0
102
RTVSPost2010PropOp41
 70
     0
102
RTVSPost2010Prop42
 90
       50
102
RTVSPost2010PropOp42
 70
     0
102
RTVSPost2010Prop43
 90
        3
102
RTVSPost2010PropOp43
 70
     0
102
RTVSPost2010Prop44ColorIndex
 90
        5
102
RTVSPost2010Prop44ColorRGB
 90
      255
102
RTVSPost2010PropOp44
 70
     0
102
RTVSPost2010Prop45
280
     0
102
RTVSPost2010PropOp45
 70
     0
102
RTVSPost2010Prop46
 90
       50
102
RTVSPost2010PropOp46
 70
     0
102
RTVSPost2010Prop47
 90
       50
102
RTVSPost2010PropOp47
 70
     0
102
RTVSPost2010Prop48
 90
       50
102
RTVSPost2010PropOp48
 70
     0
102
RTVSPost2010Prop49
280
     0
102
RTVSPost2010PropOp49
 70
     0
102
RTVSPost2010Prop50
 90
       50
102
RTVSPost2010PropOp50
 70
     0
102
RTVSPost2010Prop51ColorIndex
 90
      256
102
RTVSPost2010Prop51ColorRGB
 90
-16777216
102
RTVSPost2010PropOp51
 70
     0
102
RTVSPost2010Prop52
140
1.0
102
RTVSPost2010PropOp52
 70
     0
102
RTVSPost2010Prop53
 90
        2
102
RTVSPost2010PropOp53
 70
     0
102
RTVSPost2010Prop54
  1
strokes_ogs.tif
102
RTVSPost2010PropOp54
 70
     0
102
RTVSPost2010Prop55
280
     0
102
RTVSPost2010PropOp55
 70
     0
102
RTVSPost2010Prop56
140
1.0
102
RTVSPost2010PropOp56
 70
     0
102
RTVSPost2010Prop57
140
1.0
102
RTVSPost2010PropOp57
 70
     0
102
RTVSPropertyOp0
 70
     0
102
RTVSPropertyOp1
 70
     0
102
RTVSPropertyOp2
 70
     0
102
RTVSPropertyOp3
 70
     0
102
RTVSPropertyOp4
 70
     0
102
RTVSPropertyOp5
 70
     0
102
RTVSPropertyOp6
 70
     0
102
RTVSPropertyOp7
 70
     0
102
RTVSPropertyOp8
 70
     0
102
RTVSPropertyOp9
 70
     0
102
RTVSPropertyOp10
 70
     0
102
RTVSPropertyOp11
 70
     0
102
RTVSPropertyOp12
 70
     0
102
RTVSPropertyOp13
 70
     0
102
RTVSPropertyOp14
 70
     2
102
RTVSPropertyOp15
 70
     0
102
RTVSPropertyOp16
 70
     0
102
RTVSPropertyOp17
 70
     0
102
RTVSPropertyOp18
 70
     0
102
RTVSPropertyOp19
 70
     0
102
RTVSPropertyOp20
 70
     0
102
RTVSPropertyOp21
 70
     0
102
RTVSPropertyOp22
 70
     0
102
RTVSPropertyOp23
 70
     0
102
RTVSPropertyOp24
 70
     0
102
RTVSPropertyOp25
 70
     0
102
RTVSPropertyOp26
 70
     0
102
RTVSPropertyOp27
 70
     0
102
RTVSPropertyOp28
 70
     0
102
RTVSPropertyOp29
 70
     0
102
RTVSPropertyOp30
 70
     0
102
RTVSPropertyOp31
 70
     0
102
RTVSPropertyOp32
 70
     0
102
RTVSPropertyOp33
 70
     0
102
RTVSPropertyOp34
 70
     0
102
RTVSPropertyOp35
 70
     0
102
RTVSPropertyOp36
 70
     0
102
RTVSPropertyOp37
 70
     0
102
RTVSPropertyOp38
 70
     0
102
RTVSPropertyOp39
 70
     0
102
RTVSPropertyOp40
 70
     0
102
RTVSPropertyOp41
 70
     0
102
RTVSPropertyOp42
 70
     0
102
RTVSPropertyOp43
 70
     0
102
RTVSPropertyOp44
 70
     0
102
RTVSPropertyOp45
 70
     0
102
RTVSPropertyOp46
 70
     0
102
RTVSPropertyOp47
 70
     0
102
RTVSPropertyOp48
 70
     0
102
RTVSPropertyOp49
 70
     0
102
RTVSPropertyOp50
 70
     0
102
RTVSPropertyOp51
 70
     0
102
RTVSPropertyOp52
 70
     0
102
RTVSPropertyOp53
 70
     0
102
RTVSPropertyOp54
 70
     0
102
RTVSPropertyOp55
 70
     0
102
RTVSPropertyOp56
 70
     0
102
RTVSPropertyOp57
 70
     0
102
RTVSPropertyOp58
 70
     1
102
RTVSPropertyOp59
 70
     1
102
RTVSPropertyOp60
 70
     1
102
RTVSPropertyOp61
 70
     1
102
RTVSPropertyOp62
 70
     1
  0
XRECORD
  5
78C
102
{ACAD_REACTORS
330
78B
102
}
330
78B
100
AcDbXrecord
280
     1
102
RTVSPost2010Prop28
280
     0
102
RTVSPost2010PropOp28
 70
     1
102
RTVSPost2010Prop29
280
     1
102
RTVSPost2010PropOp29
 70
     1
102
RTVSPost2010Prop30
280
     1
102
RTVSPost2010PropOp30
 70
     1
102
RTVSPost2010Prop31
280
     0
102
RTVSPost2010PropOp31
 70
     1
102
RTVSPost2010Prop32
280
     0
102
RTVSPost2010PropOp32
 70
     1
102
RTVSPost2010Prop33
280
     0
102
RTVSPost2010PropOp33
 70
     1
102
RTVSPost2010Prop34
280
     0
102
RTVSPost2010PropOp34
 70
     1
102
RTVSPost2010Prop35
280
     0
102
RTVSPost2010PropOp35
 70
     1
102
RTVSPost2010Prop36
280
     0
102
RTVSPost2010PropOp36
 70
     1
102
RTVSPost2010Prop37
 90
       50
102
RTVSPost2010PropOp37
 70
     1
102
RTVSPost2010Prop38
140
0.0
102
RTVSPost2010PropOp38
 70
     1
102
RTVSPost2010Prop39
140
1.0
102
RTVSPost2010PropOp39
 70
     1
102
RTVSPost2010Prop40
 90
        0
102
RTVSPost2010PropOp40
 70
     1
102
RTVSPost2010Prop41ColorIndex
 90
       18
102
RTVSPost2010Prop41ColorRGB
 90
        0
102
RTVSPost2010PropOp41
 70
     1
102
RTVSPost2010Prop42
 90
       50
102
RTVSPost2010PropOp42
 70
     1
102
RTVSPost2010Prop43
 90
        3
102
RTVSPost2010PropOp43
 70
     1
102
RTVSPost2010Prop44ColorIndex
 90
        5
102
RTVSPost2010Prop44ColorRGB
 90
      255
102
RTVSPost2010PropOp44
 70
     1
102
RTVSPost2010Prop45
280
     0
102
RTVSPost2010PropOp45
 70
     1
102
RTVSPost2010Prop46
 90
       50
102
RTVSPost2010PropOp46
 70
     1
102
RTVSPost2010Prop47
 90
       50
102
RTVSPost2010PropOp47
 70
     1
102
RTVSPost2010Prop48
 90
       50
102
RTVSPost2010PropOp48
 70
     1
102
RTVSPost2010Prop49
280
     0
102
RTVSPost2010PropOp49
 70
     1
102
RTVSPost2010Prop50
 90
       50
102
RTVSPost2010PropOp50
 70
     1
102
RTVSPost2010Prop51ColorIndex
 90
      256
102
RTVSPost2010Prop51ColorRGB
 90
-16777216
102
RTVSPost2010PropOp51
 70
     0
102
RTVSPost2010Prop52
140
1.0
102
RTVSPost2010PropOp52
 70
     0
102
RTVSPost2010Prop53
 90
        2
102
RTVSPost2010PropOp53
 70
     1
102
RTVSPost2010Prop54
  1
strokes_ogs.tif
102
RTVSPost2010PropOp54
 70
     1
102
RTVSPost2010Prop55
280
     0
102
RTVSPost2010PropOp55
 70
     1
102
RTVSPost2010Prop56
140
1.0
102
RTVSPost2010PropOp56
 70
     1
102
RTVSPost2010Prop57
140
1.0
102
RTVSPost2010PropOp57
 70
     1
102
RTVSPropertyOp0
 70
     1
102
RTVSPropertyOp1
 70
     1
102
RTVSPropertyOp2
 70
     1
102
RTVSPropertyOp3
 70
     1
102
RTVSPropertyOp4
 70
     1
102
RTVSPropertyOp5
 70
     1
102
RTVSPropertyOp6
 70
     1
102
RTVSPropertyOp7
 70
     1
102
RTVSPropertyOp8
 70
     1
102
RTVSPropertyOp9
 70
     1
102
RTVSPropertyOp10
 70
     1
102
RTVSPropertyOp11
 70
     1
102
RTVSPropertyOp12
 70
     1
102
RTVSPropertyOp13
 70
     1
102
RTVSPropertyOp14
 70
     1
102
RTVSPropertyOp15
 70
     1
102
RTVSPropertyOp16
 70
     1
102
RTVSPropertyOp17
 70
     1
102
RTVSPropertyOp18
 70
     1
102
RTVSPropertyOp19
 70
     1
102
RTVSPropertyOp20
 70
     1
102
RTVSPropertyOp21
 70
     1
102
RTVSPropertyOp22
 70
     1
102
RTVSPropertyOp23
 70
     1
102
RTVSPropertyOp24
 70
     1
102
RTVSPropertyOp25
 70
     1
102
RTVSPropertyOp26
 70
     1
102
RTVSPropertyOp27
 70
     1
102
RTVSPropertyOp28
 70
     1
102
RTVSPropertyOp29
 70
     1
102
RTVSPropertyOp30
 70
     1
102
RTVSPropertyOp31
 70
     1
102
RTVSPropertyOp32
 70
     1
102
RTVSPropertyOp33
 70
     1
102
RTVSPropertyOp34
 70
     1
102
RTVSPropertyOp35
 70
     1
102
RTVSPropertyOp36
 70
     1
102
RTVSPropertyOp37
 70
     1
102
RTVSPropertyOp38
 70
     1
102
RTVSPropertyOp39
 70
     1
102
RTVSPropertyOp40
 70
     1
102
RTVSPropertyOp41
 70
     1
102
RTVSPropertyOp42
 70
     1
102
RTVSPropertyOp43
 70
     1
102
RTVSPropertyOp44
 70
     1
102
RTVSPropertyOp45
 70
     1
102
RTVSPropertyOp46
 70
     1
102
RTVSPropertyOp47
 70
     1
102
RTVSPropertyOp48
 70
     1
102
RTVSPropertyOp49
 70
     1
102
RTVSPropertyOp50
 70
     1
102
RTVSPropertyOp51
 70
     0
102
RTVSPropertyOp52
 70
     0
102
RTVSPropertyOp53
 70
     1
102
RTVSPropertyOp54
 70
     1
102
RTVSPropertyOp55
 70
     1
102
RTVSPropertyOp56
 70
     1
102
RTVSPropertyOp57
 70
     1
102
RTVSPropertyOp58
 70
     1
102
RTVSPropertyOp59
 70
     1
102
RTVSPropertyOp60
 70
     1
102
RTVSPropertyOp61
 70
     1
102
RTVSPropertyOp62
 70
     1
  0
XRECORD
  5
794
102
{ACAD_REACTORS
330
793
102
}
330
793
100
AcDbXrecord
280
     1
102
RTVSPost2010Prop28
280
     0
102
RTVSPost2010PropOp28
 70
     0
102
RTVSPost2010Prop29
280
     1
102
RTVSPost2010PropOp29
 70
     0
102
RTVSPost2010Prop30
280
     1
102
RTVSPost2010PropOp30
 70
     0
102
RTVSPost2010Prop31
280
     0
102
RTVSPost2010PropOp31
 70
     0
102
RTVSPost2010Prop32
280
     0
102
RTVSPost2010PropOp32
 70
     0
102
RTVSPost2010Prop33
280
     0
102
RTVSPost2010PropOp33
 70
     0
102
RTVSPost2010Prop34
280
     0
102
RTVSPost2010PropOp34
 70
     0
102
RTVSPost2010Prop35
280
     0
102
RTVSPost2010PropOp35
 70
     0
102
RTVSPost2010Prop36
280
     0
102
RTVSPost2010PropOp36
 70
     0
102
RTVSPost2010Prop37
 90
       50
102
RTVSPost2010PropOp37
 70
     0
102
RTVSPost2010Prop38
140
0.0
102
RTVSPost2010PropOp38
 70
     0
102
RTVSPost2010Prop39
140
1.0
102
RTVSPost2010PropOp39
 70
     0
102
RTVSPost2010Prop40
 90
        0
102
RTVSPost2010PropOp40
 70
     0
102
RTVSPost2010Prop41ColorIndex
 90
       18
102
RTVSPost2010Prop41ColorRGB
 90
        0
102
RTVSPost2010PropOp41
 70
     0
102
RTVSPost2010Prop42
 90
       50
102
RTVSPost2010PropOp42
 70
     0
102
RTVSPost2010Prop43
 90
        3
102
RTVSPost2010PropOp43
 70
     0
102
RTVSPost2010Prop44ColorIndex
 90
        5
102
RTVSPost2010Prop44ColorRGB
 90
      255
102
RTVSPost2010PropOp44
 70
     0
102
RTVSPost2010Prop45
280
     0
102
RTVSPost2010PropOp45
 70
     0
102
RTVSPost2010Prop46
 90
       50
102
RTVSPost2010PropOp46
 70
     0
102
RTVSPost2010Prop47
 90
       50
102
RTVSPost2010PropOp47
 70
     0
102
RTVSPost2010Prop48
 90
       50
102
RTVSPost2010PropOp48
 70
     0
102
RTVSPost2010Prop49
280
     0
102
RTVSPost2010PropOp49
 70
     0
102
RTVSPost2010Prop50
 90
       50
102
RTVSPost2010PropOp50
 70
     0
102
RTVSPost2010Prop51ColorIndex
 90
      256
102
RTVSPost2010Prop51ColorRGB
 90
-16777216
102
RTVSPost2010PropOp51
 70
     0
102
RTVSPost2010Prop52
140
1.0
102
RTVSPost2010PropOp52
 70
     0
102
RTVSPost2010Prop53
 90
        2
102
RTVSPost2010PropOp53
 70
     0
102
RTVSPost2010Prop54
  1
strokes_ogs.tif
102
RTVSPost2010PropOp54
 70
     0
102
RTVSPost2010Prop55
280
     0
102
RTVSPost2010PropOp55
 70
     0
102
RTVSPost2010Prop56
140
1.0
102
RTVSPost2010PropOp56
 70
     0
102
RTVSPost2010Prop57
140
1.0
102
RTVSPost2010PropOp57
 70
     0
102
RTVSPropertyOp0
 70
     0
102
RTVSPropertyOp1
 70
     0
102
RTVSPropertyOp2
 70
     0
102
RTVSPropertyOp3
 70
     0
102
RTVSPropertyOp4
 70
     0
102
RTVSPropertyOp5
 70
     0
102
RTVSPropertyOp6
 70
     0
102
RTVSPropertyOp7
 70
     0
102
RTVSPropertyOp8
 70
     0
102
RTVSPropertyOp9
 70
     0
102
RTVSPropertyOp10
 70
     0
102
RTVSPropertyOp11
 70
     0
102
RTVSPropertyOp12
 70
     0
102
RTVSPropertyOp13
 70
     0
102
RTVSPropertyOp14
 70
     2
102
RTVSPropertyOp15
 70
     0
102
RTVSPropertyOp16
 70
     0
102
RTVSPropertyOp17
 70
     0
102
RTVSPropertyOp18
 70
     0
102
RTVSPropertyOp19
 70
     0
102
RTVSPropertyOp20
 70
     0
102
RTVSPropertyOp21
 70
     0
102
RTVSPropertyOp22
 70
     0
102
RTVSPropertyOp23
 70
     0
102
RTVSPropertyOp24
 70
     0
102
RTVSPropertyOp25
 70
     0
102
RTVSPropertyOp26
 70
     0
102
RTVSPropertyOp27
 70
     0
102
RTVSPropertyOp28
 70
     0
102
RTVSPropertyOp29
 70
     0
102
RTVSPropertyOp30
 70
     0
102
RTVSPropertyOp31
 70
     0
102
RTVSPropertyOp32
 70
     0
102
RTVSPropertyOp33
 70
     0
102
RTVSPropertyOp34
 70
     0
102
RTVSPropertyOp35
 70
     0
102
RTVSPropertyOp36
 70
     0
102
RTVSPropertyOp37
 70
     0
102
RTVSPropertyOp38
 70
     0
102
RTVSPropertyOp39
 70
     0
102
RTVSPropertyOp40
 70
     0
102
RTVSPropertyOp41
 70
     0
102
RTVSPropertyOp42
 70
     0
102
RTVSPropertyOp43
 70
     0
102
RTVSPropertyOp44
 70
     0
102
RTVSPropertyOp45
 70
     0
102
RTVSPropertyOp46
 70
     0
102
RTVSPropertyOp47
 70
     0
102
RTVSPropertyOp48
 70
     0
102
RTVSPropertyOp49
 70
     0
102
RTVSPropertyOp50
 70
     0
102
RTVSPropertyOp51
 70
     0
102
RTVSPropertyOp52
 70
     0
102
RTVSPropertyOp53
 70
     0
102
RTVSPropertyOp54
 70
     0
102
RTVSPropertyOp55
 70
     0
102
RTVSPropertyOp56
 70
     0
102
RTVSPropertyOp57
 70
     0
102
RTVSPropertyOp58
 70
     1
102
RTVSPropertyOp59
 70
     1
102
RTVSPropertyOp60
 70
     1
102
RTVSPropertyOp61
 70
     1
102
RTVSPropertyOp62
 70
     1
  0
XRECORD
  5
782
102
{ACAD_REACTORS
330
781
102
}
330
781
100
AcDbXrecord
280
     1
102
RTVSPost2010Prop28
280
     0
102
RTVSPost2010PropOp28
 70
     1
102
RTVSPost2010Prop29
280
     1
102
RTVSPost2010PropOp29
 70
     1
102
RTVSPost2010Prop30
280
     1
102
RTVSPost2010PropOp30
 70
     1
102
RTVSPost2010Prop31
280
     0
102
RTVSPost2010PropOp31
 70
     1
102
RTVSPost2010Prop32
280
     0
102
RTVSPost2010PropOp32
 70
     1
102
RTVSPost2010Prop33
280
     0
102
RTVSPost2010PropOp33
 70
     1
102
RTVSPost2010Prop34
280
     0
102
RTVSPost2010PropOp34
 70
     1
102
RTVSPost2010Prop35
280
     0
102
RTVSPost2010PropOp35
 70
     1
102
RTVSPost2010Prop36
280
     0
102
RTVSPost2010PropOp36
 70
     1
102
RTVSPost2010Prop37
 90
       50
102
RTVSPost2010PropOp37
 70
     1
102
RTVSPost2010Prop38
140
0.0
102
RTVSPost2010PropOp38
 70
     1
102
RTVSPost2010Prop39
140
1.0
102
RTVSPost2010PropOp39
 70
     1
102
RTVSPost2010Prop40
 90
        0
102
RTVSPost2010PropOp40
 70
     1
102
RTVSPost2010Prop41ColorIndex
 90
       18
102
RTVSPost2010Prop41ColorRGB
 90
        0
102
RTVSPost2010PropOp41
 70
     1
102
RTVSPost2010Prop42
 90
       50
102
RTVSPost2010PropOp42
 70
     1
102
RTVSPost2010Prop43
 90
        3
102
RTVSPost2010PropOp43
 70
     1
102
RTVSPost2010Prop44ColorIndex
 90
        5
102
RTVSPost2010Prop44ColorRGB
 90
      255
102
RTVSPost2010PropOp44
 70
     1
102
RTVSPost2010Prop45
280
     0
102
RTVSPost2010PropOp45
 70
     1
102
RTVSPost2010Prop46
 90
       50
102
RTVSPost2010PropOp46
 70
     1
102
RTVSPost2010Prop47
 90
       50
102
RTVSPost2010PropOp47
 70
     1
102
RTVSPost2010Prop48
 90
       50
102
RTVSPost2010PropOp48
 70
     1
102
RTVSPost2010Prop49
280
     0
102
RTVSPost2010PropOp49
 70
     1
102
RTVSPost2010Prop50
 90
       50
102
RTVSPost2010PropOp50
 70
     1
102
RTVSPost2010Prop51ColorIndex
 90
      256
102
RTVSPost2010Prop51ColorRGB
 90
-16777216
102
RTVSPost2010PropOp51
 70
     0
102
RTVSPost2010Prop52
140
1.0
102
RTVSPost2010PropOp52
 70
     0
102
RTVSPost2010Prop53
 90
        2
102
RTVSPost2010PropOp53
 70
     1
102
RTVSPost2010Prop54
  1
strokes_ogs.tif
102
RTVSPost2010PropOp54
 70
     1
102
RTVSPost2010Prop55
280
     0
102
RTVSPost2010PropOp55
 70
     1
102
RTVSPost2010Prop56
140
1.0
102
RTVSPost2010PropOp56
 70
     1
102
RTVSPost2010Prop57
140
1.0
102
RTVSPost2010PropOp57
 70
     1
102
RTVSPropertyOp0
 70
     1
102
RTVSPropertyOp1
 70
     1
102
RTVSPropertyOp2
 70
     1
102
RTVSPropertyOp3
 70
     1
102
RTVSPropertyOp4
 70
     1
102
RTVSPropertyOp5
 70
     1
102
RTVSPropertyOp6
 70
     1
102
RTVSPropertyOp7
 70
     1
102
RTVSPropertyOp8
 70
     1
102
RTVSPropertyOp9
 70
     1
102
RTVSPropertyOp10
 70
     1
102
RTVSPropertyOp11
 70
     1
102
RTVSPropertyOp12
 70
     1
102
RTVSPropertyOp13
 70
     1
102
RTVSPropertyOp14
 70
     1
102
RTVSPropertyOp15
 70
     1
102
RTVSPropertyOp16
 70
     1
102
RTVSPropertyOp17
 70
     1
102
RTVSPropertyOp18
 70
     1
102
RTVSPropertyOp19
 70
     1
102
RTVSPropertyOp20
 70
     1
102
RTVSPropertyOp21
 70
     1
102
RTVSPropertyOp22
 70
     1
102
RTVSPropertyOp23
 70
     1
102
RTVSPropertyOp24
 70
     1
102
RTVSPropertyOp25
 70
     1
102
RTVSPropertyOp26
 70
     1
102
RTVSPropertyOp27
 70
     1
102
RTVSPropertyOp28
 70
     1
102
RTVSPropertyOp29
 70
     1
102
RTVSPropertyOp30
 70
     1
102
RTVSPropertyOp31
 70
     1
102
RTVSPropertyOp32
 70
     1
102
RTVSPropertyOp33
 70
     1
102
RTVSPropertyOp34
 70
     1
102
RTVSPropertyOp35
 70
     1
102
RTVSPropertyOp36
 70
     1
102
RTVSPropertyOp37
 70
     1
102
RTVSPropertyOp38
 70
     1
102
RTVSPropertyOp39
 70
     1
102
RTVSPropertyOp40
 70
     1
102
RTVSPropertyOp41
 70
     1
102
RTVSPropertyOp42
 70
     1
102
RTVSPropertyOp43
 70
     1
102
RTVSPropertyOp44
 70
     1
102
RTVSPropertyOp45
 70
     1
102
RTVSPropertyOp46
 70
     1
102
RTVSPropertyOp47
 70
     1
102
RTVSPropertyOp48
 70
     1
102
RTVSPropertyOp49
 70
     1
102
RTVSPropertyOp50
 70
     1
102
RTVSPropertyOp51
 70
     0
102
RTVSPropertyOp52
 70
     0
102
RTVSPropertyOp53
 70
     1
102
RTVSPropertyOp54
 70
     1
102
RTVSPropertyOp55
 70
     1
102
RTVSPropertyOp56
 70
     1
102
RTVSPropertyOp57
 70
     1
102
RTVSPropertyOp58
 70
     1
102
RTVSPropertyOp59
 70
     1
102
RTVSPropertyOp60
 70
     1
102
RTVSPropertyOp61
 70
     1
102
RTVSPropertyOp62
 70
     1
  0
XRECORD
  5
7A0
102
{ACAD_REACTORS
330
79F
102
}
330
79F
100
AcDbXrecord
280
     1
102
RTVSPost2010Prop28
280
     0
102
RTVSPost2010PropOp28
 70
     1
102
RTVSPost2010Prop29
280
     1
102
RTVSPost2010PropOp29
 70
     1
102
RTVSPost2010Prop30
280
     1
102
RTVSPost2010PropOp30
 70
     1
102
RTVSPost2010Prop31
280
     0
102
RTVSPost2010PropOp31
 70
     1
102
RTVSPost2010Prop32
280
     0
102
RTVSPost2010PropOp32
 70
     1
102
RTVSPost2010Prop33
280
     0
102
RTVSPost2010PropOp33
 70
     1
102
RTVSPost2010Prop34
280
     0
102
RTVSPost2010PropOp34
 70
     1
102
RTVSPost2010Prop35
280
     0
102
RTVSPost2010PropOp35
 70
     1
102
RTVSPost2010Prop36
280
     0
102
RTVSPost2010PropOp36
 70
     1
102
RTVSPost2010Prop37
 90
       50
102
RTVSPost2010PropOp37
 70
     1
102
RTVSPost2010Prop38
140
0.0
102
RTVSPost2010PropOp38
 70
     1
102
RTVSPost2010Prop39
140
1.0
102
RTVSPost2010PropOp39
 70
     1
102
RTVSPost2010Prop40
 90
        0
102
RTVSPost2010PropOp40
 70
     1
102
RTVSPost2010Prop41ColorIndex
 90
       18
102
RTVSPost2010Prop41ColorRGB
 90
        0
102
RTVSPost2010PropOp41
 70
     1
102
RTVSPost2010Prop42
 90
       50
102
RTVSPost2010PropOp42
 70
     1
102
RTVSPost2010Prop43
 90
        3
102
RTVSPost2010PropOp43
 70
     1
102
RTVSPost2010Prop44ColorIndex
 90
        5
102
RTVSPost2010Prop44ColorRGB
 90
      255
102
RTVSPost2010PropOp44
 70
     1
102
RTVSPost2010Prop45
280
     0
102
RTVSPost2010PropOp45
 70
     1
102
RTVSPost2010Prop46
 90
       50
102
RTVSPost2010PropOp46
 70
     1
102
RTVSPost2010Prop47
 90
       50
102
RTVSPost2010PropOp47
 70
     1
102
RTVSPost2010Prop48
 90
       50
102
RTVSPost2010PropOp48
 70
     1
102
RTVSPost2010Prop49
280
     0
102
RTVSPost2010PropOp49
 70
     1
102
RTVSPost2010Prop50
 90
       50
102
RTVSPost2010PropOp50
 70
     1
102
RTVSPost2010Prop51ColorIndex
 90
      256
102
RTVSPost2010Prop51ColorRGB
 90
-16777216
102
RTVSPost2010PropOp51
 70
     0
102
RTVSPost2010Prop52
140
1.0
102
RTVSPost2010PropOp52
 70
     0
102
RTVSPost2010Prop53
 90
        2
102
RTVSPost2010PropOp53
 70
     1
102
RTVSPost2010Prop54
  1
strokes_ogs.tif
102
RTVSPost2010PropOp54
 70
     1
102
RTVSPost2010Prop55
280
     0
102
RTVSPost2010PropOp55
 70
     1
102
RTVSPost2010Prop56
140
1.0
102
RTVSPost2010PropOp56
 70
     1
102
RTVSPost2010Prop57
140
1.0
102
RTVSPost2010PropOp57
 70
     1
102
RTVSPropertyOp0
 70
     1
102
RTVSPropertyOp1
 70
     1
102
RTVSPropertyOp2
 70
     1
102
RTVSPropertyOp3
 70
     1
102
RTVSPropertyOp4
 70
     1
102
RTVSPropertyOp5
 70
     1
102
RTVSPropertyOp6
 70
     1
102
RTVSPropertyOp7
 70
     1
102
RTVSPropertyOp8
 70
     1
102
RTVSPropertyOp9
 70
     1
102
RTVSPropertyOp10
 70
     1
102
RTVSPropertyOp11
 70
     1
102
RTVSPropertyOp12
 70
     1
102
RTVSPropertyOp13
 70
     1
102
RTVSPropertyOp14
 70
     1
102
RTVSPropertyOp15
 70
     1
102
RTVSPropertyOp16
 70
     1
102
RTVSPropertyOp17
 70
     1
102
RTVSPropertyOp18
 70
     1
102
RTVSPropertyOp19
 70
     1
102
RTVSPropertyOp20
 70
     1
102
RTVSPropertyOp21
 70
     1
102
RTVSPropertyOp22
 70
     1
102
RTVSPropertyOp23
 70
     1
102
RTVSPropertyOp24
 70
     1
102
RTVSPropertyOp25
 70
     1
102
RTVSPropertyOp26
 70
     1
102
RTVSPropertyOp27
 70
     1
102
RTVSPropertyOp28
 70
     1
102
RTVSPropertyOp29
 70
     1
102
RTVSPropertyOp30
 70
     1
102
RTVSPropertyOp31
 70
     1
102
RTVSPropertyOp32
 70
     1
102
RTVSPropertyOp33
 70
     1
102
RTVSPropertyOp34
 70
     1
102
RTVSPropertyOp35
 70
     1
102
RTVSPropertyOp36
 70
     1
102
RTVSPropertyOp37
 70
     1
102
RTVSPropertyOp38
 70
     1
102
RTVSPropertyOp39
 70
     1
102
RTVSPropertyOp40
 70
     1
102
RTVSPropertyOp41
 70
     1
102
RTVSPropertyOp42
 70
     1
102
RTVSPropertyOp43
 70
     1
102
RTVSPropertyOp44
 70
     1
102
RTVSPropertyOp45
 70
     1
102
RTVSPropertyOp46
 70
     1
102
RTVSPropertyOp47
 70
     1
102
RTVSPropertyOp48
 70
     1
102
RTVSPropertyOp49
 70
     1
102
RTVSPropertyOp50
 70
     1
102
RTVSPropertyOp51
 70
     0
102
RTVSPropertyOp52
 70
     0
102
RTVSPropertyOp53
 70
     1
102
RTVSPropertyOp54
 70
     1
102
RTVSPropertyOp55
 70
     1
102
RTVSPropertyOp56
 70
     1
102
RTVSPropertyOp57
 70
     1
102
RTVSPropertyOp58
 70
     1
102
RTVSPropertyOp59
 70
     1
102
RTVSPropertyOp60
 70
     1
102
RTVSPropertyOp61
 70
     1
102
RTVSPropertyOp62
 70
     1
  0
XRECORD
  5
79E
102
{ACAD_REACTORS
330
79D
102
}
330
79D
100
AcDbXrecord
280
     1
102
RTVSPost2010Prop28
280
     0
102
RTVSPost2010PropOp28
 70
     1
102
RTVSPost2010Prop29
280
     1
102
RTVSPost2010PropOp29
 70
     1
102
RTVSPost2010Prop30
280
     1
102
RTVSPost2010PropOp30
 70
     1
102
RTVSPost2010Prop31
280
     0
102
RTVSPost2010PropOp31
 70
     1
102
RTVSPost2010Prop32
280
     0
102
RTVSPost2010PropOp32
 70
     1
102
RTVSPost2010Prop33
280
     0
102
RTVSPost2010PropOp33
 70
     1
102
RTVSPost2010Prop34
280
     0
102
RTVSPost2010PropOp34
 70
     1
102
RTVSPost2010Prop35
280
     0
102
RTVSPost2010PropOp35
 70
     1
102
RTVSPost2010Prop36
280
     0
102
RTVSPost2010PropOp36
 70
     1
102
RTVSPost2010Prop37
 90
       50
102
RTVSPost2010PropOp37
 70
     1
102
RTVSPost2010Prop38
140
0.0
102
RTVSPost2010PropOp38
 70
     1
102
RTVSPost2010Prop39
140
1.0
102
RTVSPost2010PropOp39
 70
     1
102
RTVSPost2010Prop40
 90
        0
102
RTVSPost2010PropOp40
 70
     1
102
RTVSPost2010Prop41ColorIndex
 90
       18
102
RTVSPost2010Prop41ColorRGB
 90
        0
102
RTVSPost2010PropOp41
 70
     1
102
RTVSPost2010Prop42
 90
       50
102
RTVSPost2010PropOp42
 70
     1
102
RTVSPost2010Prop43
 90
        3
102
RTVSPost2010PropOp43
 70
     1
102
RTVSPost2010Prop44ColorIndex
 90
        5
102
RTVSPost2010Prop44ColorRGB
 90
      255
102
RTVSPost2010PropOp44
 70
     1
102
RTVSPost2010Prop45
280
     0
102
RTVSPost2010PropOp45
 70
     1
102
RTVSPost2010Prop46
 90
       50
102
RTVSPost2010PropOp46
 70
     1
102
RTVSPost2010Prop47
 90
       50
102
RTVSPost2010PropOp47
 70
     1
102
RTVSPost2010Prop48
 90
       50
102
RTVSPost2010PropOp48
 70
     1
102
RTVSPost2010Prop49
280
     0
102
RTVSPost2010PropOp49
 70
     1
102
RTVSPost2010Prop50
 90
       50
102
RTVSPost2010PropOp50
 70
     1
102
RTVSPost2010Prop51ColorIndex
 90
      256
102
RTVSPost2010Prop51ColorRGB
 90
-16777216
102
RTVSPost2010PropOp51
 70
     0
102
RTVSPost2010Prop52
140
1.0
102
RTVSPost2010PropOp52
 70
     0
102
RTVSPost2010Prop53
 90
        2
102
RTVSPost2010PropOp53
 70
     1
102
RTVSPost2010Prop54
  1
strokes_ogs.tif
102
RTVSPost2010PropOp54
 70
     1
102
RTVSPost2010Prop55
280
     0
102
RTVSPost2010PropOp55
 70
     1
102
RTVSPost2010Prop56
140
1.0
102
RTVSPost2010PropOp56
 70
     1
102
RTVSPost2010Prop57
140
1.0
102
RTVSPost2010PropOp57
 70
     1
102
RTVSPropertyOp0
 70
     1
102
RTVSPropertyOp1
 70
     1
102
RTVSPropertyOp2
 70
     1
102
RTVSPropertyOp3
 70
     1
102
RTVSPropertyOp4
 70
     1
102
RTVSPropertyOp5
 70
     1
102
RTVSPropertyOp6
 70
     1
102
RTVSPropertyOp7
 70
     1
102
RTVSPropertyOp8
 70
     1
102
RTVSPropertyOp9
 70
     1
102
RTVSPropertyOp10
 70
     1
102
RTVSPropertyOp11
 70
     1
102
RTVSPropertyOp12
 70
     1
102
RTVSPropertyOp13
 70
     1
102
RTVSPropertyOp14
 70
     1
102
RTVSPropertyOp15
 70
     1
102
RTVSPropertyOp16
 70
     1
102
RTVSPropertyOp17
 70
     1
102
RTVSPropertyOp18
 70
     1
102
RTVSPropertyOp19
 70
     1
102
RTVSPropertyOp20
 70
     1
102
RTVSPropertyOp21
 70
     1
102
RTVSPropertyOp22
 70
     1
102
RTVSPropertyOp23
 70
     1
102
RTVSPropertyOp24
 70
     1
102
RTVSPropertyOp25
 70
     1
102
RTVSPropertyOp26
 70
     1
102
RTVSPropertyOp27
 70
     1
102
RTVSPropertyOp28
 70
     1
102
RTVSPropertyOp29
 70
     1
102
RTVSPropertyOp30
 70
     1
102
RTVSPropertyOp31
 70
     1
102
RTVSPropertyOp32
 70
     1
102
RTVSPropertyOp33
 70
     1
102
RTVSPropertyOp34
 70
     1
102
RTVSPropertyOp35
 70
     1
102
RTVSPropertyOp36
 70
     1
102
RTVSPropertyOp37
 70
     1
102
RTVSPropertyOp38
 70
     1
102
RTVSPropertyOp39
 70
     1
102
RTVSPropertyOp40
 70
     1
102
RTVSPropertyOp41
 70
     1
102
RTVSPropertyOp42
 70
     1
102
RTVSPropertyOp43
 70
     1
102
RTVSPropertyOp44
 70
     1
102
RTVSPropertyOp45
 70
     1
102
RTVSPropertyOp46
 70
     1
102
RTVSPropertyOp47
 70
     1
102
RTVSPropertyOp48
 70
     1
102
RTVSPropertyOp49
 70
     1
102
RTVSPropertyOp50
 70
     1
102
RTVSPropertyOp51
 70
     0
102
RTVSPropertyOp52
 70
     0
102
RTVSPropertyOp53
 70
     1
102
RTVSPropertyOp54
 70
     1
102
RTVSPropertyOp55
 70
     1
102
RTVSPropertyOp56
 70
     1
102
RTVSPropertyOp57
 70
     1
102
RTVSPropertyOp58
 70
     1
102
RTVSPropertyOp59
 70
     1
102
RTVSPropertyOp60
 70
     1
102
RTVSPropertyOp61
 70
     1
102
RTVSPropertyOp62
 70
     1
  0
XRECORD
  5
798
102
{ACAD_REACTORS
330
797
102
}
330
797
100
AcDbXrecord
280
     1
102
RTVSPost2010Prop28
280
     0
102
RTVSPost2010PropOp28
 70
     1
102
RTVSPost2010Prop29
280
     1
102
RTVSPost2010PropOp29
 70
     1
102
RTVSPost2010Prop30
280
     1
102
RTVSPost2010PropOp30
 70
     1
102
RTVSPost2010Prop31
280
     0
102
RTVSPost2010PropOp31
 70
     1
102
RTVSPost2010Prop32
280
     0
102
RTVSPost2010PropOp32
 70
     1
102
RTVSPost2010Prop33
280
     0
102
RTVSPost2010PropOp33
 70
     1
102
RTVSPost2010Prop34
280
     0
102
RTVSPost2010PropOp34
 70
     1
102
RTVSPost2010Prop35
280
     0
102
RTVSPost2010PropOp35
 70
     1
102
RTVSPost2010Prop36
280
     0
102
RTVSPost2010PropOp36
 70
     1
102
RTVSPost2010Prop37
 90
       50
102
RTVSPost2010PropOp37
 70
     1
102
RTVSPost2010Prop38
140
0.0
102
RTVSPost2010PropOp38
 70
     1
102
RTVSPost2010Prop39
140
1.0
102
RTVSPost2010PropOp39
 70
     1
102
RTVSPost2010Prop40
 90
        0
102
RTVSPost2010PropOp40
 70
     1
102
RTVSPost2010Prop41ColorIndex
 90
       18
102
RTVSPost2010Prop41ColorRGB
 90
        0
102
RTVSPost2010PropOp41
 70
     1
102
RTVSPost2010Prop42
 90
       50
102
RTVSPost2010PropOp42
 70
     1
102
RTVSPost2010Prop43
 90
        3
102
RTVSPost2010PropOp43
 70
     1
102
RTVSPost2010Prop44ColorIndex
 90
        5
102
RTVSPost2010Prop44ColorRGB
 90
      255
102
RTVSPost2010PropOp44
 70
     1
102
RTVSPost2010Prop45
280
     0
102
RTVSPost2010PropOp45
 70
     1
102
RTVSPost2010Prop46
 90
       50
102
RTVSPost2010PropOp46
 70
     1
102
RTVSPost2010Prop47
 90
       50
102
RTVSPost2010PropOp47
 70
     1
102
RTVSPost2010Prop48
 90
       50
102
RTVSPost2010PropOp48
 70
     1
102
RTVSPost2010Prop49
280
     0
102
RTVSPost2010PropOp49
 70
     1
102
RTVSPost2010Prop50
 90
       50
102
RTVSPost2010PropOp50
 70
     1
102
RTVSPost2010Prop51ColorIndex
 90
      256
102
RTVSPost2010Prop51ColorRGB
 90
-16777216
102
RTVSPost2010PropOp51
 70
     0
102
RTVSPost2010Prop52
140
1.0
102
RTVSPost2010PropOp52
 70
     0
102
RTVSPost2010Prop53
 90
        2
102
RTVSPost2010PropOp53
 70
     1
102
RTVSPost2010Prop54
  1
strokes_ogs.tif
102
RTVSPost2010PropOp54
 70
     1
102
RTVSPost2010Prop55
280
     0
102
RTVSPost2010PropOp55
 70
     1
102
RTVSPost2010Prop56
140
1.0
102
RTVSPost2010PropOp56
 70
     1
102
RTVSPost2010Prop57
140
1.0
102
RTVSPost2010PropOp57
 70
     1
102
RTVSPropertyOp0
 70
     1
102
RTVSPropertyOp1
 70
     1
102
RTVSPropertyOp2
 70
     1
102
RTVSPropertyOp3
 70
     1
102
RTVSPropertyOp4
 70
     1
102
RTVSPropertyOp5
 70
     1
102
RTVSPropertyOp6
 70
     1
102
RTVSPropertyOp7
 70
     1
102
RTVSPropertyOp8
 70
     1
102
RTVSPropertyOp9
 70
     1
102
RTVSPropertyOp10
 70
     1
102
RTVSPropertyOp11
 70
     1
102
RTVSPropertyOp12
 70
     1
102
RTVSPropertyOp13
 70
     1
102
RTVSPropertyOp14
 70
     1
102
RTVSPropertyOp15
 70
     1
102
RTVSPropertyOp16
 70
     1
102
RTVSPropertyOp17
 70
     1
102
RTVSPropertyOp18
 70
     1
102
RTVSPropertyOp19
 70
     1
102
RTVSPropertyOp20
 70
     1
102
RTVSPropertyOp21
 70
     1
102
RTVSPropertyOp22
 70
     1
102
RTVSPropertyOp23
 70
     1
102
RTVSPropertyOp24
 70
     1
102
RTVSPropertyOp25
 70
     1
102
RTVSPropertyOp26
 70
     1
102
RTVSPropertyOp27
 70
     1
102
RTVSPropertyOp28
 70
     1
102
RTVSPropertyOp29
 70
     1
102
RTVSPropertyOp30
 70
     1
102
RTVSPropertyOp31
 70
     1
102
RTVSPropertyOp32
 70
     1
102
RTVSPropertyOp33
 70
     1
102
RTVSPropertyOp34
 70
     1
102
RTVSPropertyOp35
 70
     1
102
RTVSPropertyOp36
 70
     1
102
RTVSPropertyOp37
 70
     1
102
RTVSPropertyOp38
 70
     1
102
RTVSPropertyOp39
 70
     1
102
RTVSPropertyOp40
 70
     1
102
RTVSPropertyOp41
 70
     1
102
RTVSPropertyOp42
 70
     1
102
RTVSPropertyOp43
 70
     1
102
RTVSPropertyOp44
 70
     1
102
RTVSPropertyOp45
 70
     1
102
RTVSPropertyOp46
 70
     1
102
RTVSPropertyOp47
 70
     1
102
RTVSPropertyOp48
 70
     1
102
RTVSPropertyOp49
 70
     1
102
RTVSPropertyOp50
 70
     1
102
RTVSPropertyOp51
 70
     0
102
RTVSPropertyOp52
 70
     0
102
RTVSPropertyOp53
 70
     1
102
RTVSPropertyOp54
 70
     1
102
RTVSPropertyOp55
 70
     1
102
RTVSPropertyOp56
 70
     1
102
RTVSPropertyOp57
 70
     1
102
RTVSPropertyOp58
 70
     1
102
RTVSPropertyOp59
 70
     1
102
RTVSPropertyOp60
 70
     1
102
RTVSPropertyOp61
 70
     1
102
RTVSPropertyOp62
 70
     1
  0
XRECORD
  5
79A
102
{ACAD_REACTORS
330
799
102
}
330
799
100
AcDbXrecord
280
     1
102
RTVSPost2010Prop28
280
     0
102
RTVSPost2010PropOp28
 70
     1
102
RTVSPost2010Prop29
280
     1
102
RTVSPost2010PropOp29
 70
     1
102
RTVSPost2010Prop30
280
     1
102
RTVSPost2010PropOp30
 70
     1
102
RTVSPost2010Prop31
280
     0
102
RTVSPost2010PropOp31
 70
     1
102
RTVSPost2010Prop32
280
     0
102
RTVSPost2010PropOp32
 70
     1
102
RTVSPost2010Prop33
280
     0
102
RTVSPost2010PropOp33
 70
     1
102
RTVSPost2010Prop34
280
     0
102
RTVSPost2010PropOp34
 70
     1
102
RTVSPost2010Prop35
280
     0
102
RTVSPost2010PropOp35
 70
     1
102
RTVSPost2010Prop36
280
     0
102
RTVSPost2010PropOp36
 70
     1
102
RTVSPost2010Prop37
 90
       50
102
RTVSPost2010PropOp37
 70
     1
102
RTVSPost2010Prop38
140
0.0
102
RTVSPost2010PropOp38
 70
     1
102
RTVSPost2010Prop39
140
1.0
102
RTVSPost2010PropOp39
 70
     1
102
RTVSPost2010Prop40
 90
        0
102
RTVSPost2010PropOp40
 70
     1
102
RTVSPost2010Prop41ColorIndex
 90
       18
102
RTVSPost2010Prop41ColorRGB
 90
        0
102
RTVSPost2010PropOp41
 70
     1
102
RTVSPost2010Prop42
 90
       50
102
RTVSPost2010PropOp42
 70
     1
102
RTVSPost2010Prop43
 90
        3
102
RTVSPost2010PropOp43
 70
     1
102
RTVSPost2010Prop44ColorIndex
 90
        5
102
RTVSPost2010Prop44ColorRGB
 90
      255
102
RTVSPost2010PropOp44
 70
     1
102
RTVSPost2010Prop45
280
     0
102
RTVSPost2010PropOp45
 70
     1
102
RTVSPost2010Prop46
 90
       50
102
RTVSPost2010PropOp46
 70
     1
102
RTVSPost2010Prop47
 90
       50
102
RTVSPost2010PropOp47
 70
     1
102
RTVSPost2010Prop48
 90
       50
102
RTVSPost2010PropOp48
 70
     1
102
RTVSPost2010Prop49
280
     0
102
RTVSPost2010PropOp49
 70
     1
102
RTVSPost2010Prop50
 90
       50
102
RTVSPost2010PropOp50
 70
     1
102
RTVSPost2010Prop51ColorIndex
 90
      256
102
RTVSPost2010Prop51ColorRGB
 90
-16777216
102
RTVSPost2010PropOp51
 70
     0
102
RTVSPost2010Prop52
140
1.0
102
RTVSPost2010PropOp52
 70
     0
102
RTVSPost2010Prop53
 90
        2
102
RTVSPost2010PropOp53
 70
     1
102
RTVSPost2010Prop54
  1
strokes_ogs.tif
102
RTVSPost2010PropOp54
 70
     1
102
RTVSPost2010Prop55
280
     0
102
RTVSPost2010PropOp55
 70
     1
102
RTVSPost2010Prop56
140
1.0
102
RTVSPost2010PropOp56
 70
     1
102
RTVSPost2010Prop57
140
1.0
102
RTVSPost2010PropOp57
 70
     1
102
RTVSPropertyOp0
 70
     1
102
RTVSPropertyOp1
 70
     1
102
RTVSPropertyOp2
 70
     1
102
RTVSPropertyOp3
 70
     1
102
RTVSPropertyOp4
 70
     1
102
RTVSPropertyOp5
 70
     1
102
RTVSPropertyOp6
 70
     1
102
RTVSPropertyOp7
 70
     1
102
RTVSPropertyOp8
 70
     1
102
RTVSPropertyOp9
 70
     1
102
RTVSPropertyOp10
 70
     1
102
RTVSPropertyOp11
 70
     1
102
RTVSPropertyOp12
 70
     1
102
RTVSPropertyOp13
 70
     1
102
RTVSPropertyOp14
 70
     1
102
RTVSPropertyOp15
 70
     1
102
RTVSPropertyOp16
 70
     1
102
RTVSPropertyOp17
 70
     1
102
RTVSPropertyOp18
 70
     1
102
RTVSPropertyOp19
 70
     1
102
RTVSPropertyOp20
 70
     1
102
RTVSPropertyOp21
 70
     1
102
RTVSPropertyOp22
 70
     1
102
RTVSPropertyOp23
 70
     1
102
RTVSPropertyOp24
 70
     1
102
RTVSPropertyOp25
 70
     1
102
RTVSPropertyOp26
 70
     1
102
RTVSPropertyOp27
 70
     1
102
RTVSPropertyOp28
 70
     1
102
RTVSPropertyOp29
 70
     1
102
RTVSPropertyOp30
 70
     1
102
RTVSPropertyOp31
 70
     1
102
RTVSPropertyOp32
 70
     1
102
RTVSPropertyOp33
 70
     1
102
RTVSPropertyOp34
 70
     1
102
RTVSPropertyOp35
 70
     1
102
RTVSPropertyOp36
 70
     1
102
RTVSPropertyOp37
 70
     1
102
RTVSPropertyOp38
 70
     1
102
RTVSPropertyOp39
 70
     1
102
RTVSPropertyOp40
 70
     1
102
RTVSPropertyOp41
 70
     1
102
RTVSPropertyOp42
 70
     1
102
RTVSPropertyOp43
 70
     1
102
RTVSPropertyOp44
 70
     1
102
RTVSPropertyOp45
 70
     1
102
RTVSPropertyOp46
 70
     1
102
RTVSPropertyOp47
 70
     1
102
RTVSPropertyOp48
 70
     1
102
RTVSPropertyOp49
 70
     1
102
RTVSPropertyOp50
 70
     1
102
RTVSPropertyOp51
 70
     0
102
RTVSPropertyOp52
 70
     0
102
RTVSPropertyOp53
 70
     1
102
RTVSPropertyOp54
 70
     1
102
RTVSPropertyOp55
 70
     1
102
RTVSPropertyOp56
 70
     1
102
RTVSPropertyOp57
 70
     1
102
RTVSPropertyOp58
 70
     1
102
RTVSPropertyOp59
 70
     1
102
RTVSPropertyOp60
 70
     1
102
RTVSPropertyOp61
 70
     1
102
RTVSPropertyOp62
 70
     1
  0
XRECORD
  5
78A
102
{ACAD_REACTORS
330
789
102
}
330
789
100
AcDbXrecord
280
     1
102
RTVSPost2010Prop28
280
     0
102
RTVSPost2010PropOp28
 70
     1
102
RTVSPost2010Prop29
280
     1
102
RTVSPost2010PropOp29
 70
     1
102
RTVSPost2010Prop30
280
     1
102
RTVSPost2010PropOp30
 70
     1
102
RTVSPost2010Prop31
280
     0
102
RTVSPost2010PropOp31
 70
     1
102
RTVSPost2010Prop32
280
     0
102
RTVSPost2010PropOp32
 70
     1
102
RTVSPost2010Prop33
280
     0
102
RTVSPost2010PropOp33
 70
     1
102
RTVSPost2010Prop34
280
     0
102
RTVSPost2010PropOp34
 70
     1
102
RTVSPost2010Prop35
280
     0
102
RTVSPost2010PropOp35
 70
     1
102
RTVSPost2010Prop36
280
     0
102
RTVSPost2010PropOp36
 70
     1
102
RTVSPost2010Prop37
 90
       50
102
RTVSPost2010PropOp37
 70
     1
102
RTVSPost2010Prop38
140
0.0
102
RTVSPost2010PropOp38
 70
     1
102
RTVSPost2010Prop39
140
1.0
102
RTVSPost2010PropOp39
 70
     1
102
RTVSPost2010Prop40
 90
        0
102
RTVSPost2010PropOp40
 70
     1
102
RTVSPost2010Prop41ColorIndex
 90
       18
102
RTVSPost2010Prop41ColorRGB
 90
        0
102
RTVSPost2010PropOp41
 70
     1
102
RTVSPost2010Prop42
 90
       50
102
RTVSPost2010PropOp42
 70
     1
102
RTVSPost2010Prop43
 90
        3
102
RTVSPost2010PropOp43
 70
     1
102
RTVSPost2010Prop44ColorIndex
 90
        5
102
RTVSPost2010Prop44ColorRGB
 90
      255
102
RTVSPost2010PropOp44
 70
     1
102
RTVSPost2010Prop45
280
     0
102
RTVSPost2010PropOp45
 70
     1
102
RTVSPost2010Prop46
 90
       50
102
RTVSPost2010PropOp46
 70
     1
102
RTVSPost2010Prop47
 90
       50
102
RTVSPost2010PropOp47
 70
     1
102
RTVSPost2010Prop48
 90
       50
102
RTVSPost2010PropOp48
 70
     1
102
RTVSPost2010Prop49
280
     0
102
RTVSPost2010PropOp49
 70
     1
102
RTVSPost2010Prop50
 90
       50
102
RTVSPost2010PropOp50
 70
     1
102
RTVSPost2010Prop51ColorIndex
 90
      256
102
RTVSPost2010Prop51ColorRGB
 90
-16777216
102
RTVSPost2010PropOp51
 70
     0
102
RTVSPost2010Prop52
140
1.0
102
RTVSPost2010PropOp52
 70
     0
102
RTVSPost2010Prop53
 90
        2
102
RTVSPost2010PropOp53
 70
     1
102
RTVSPost2010Prop54
  1
strokes_ogs.tif
102
RTVSPost2010PropOp54
 70
     1
102
RTVSPost2010Prop55
280
     0
102
RTVSPost2010PropOp55
 70
     1
102
RTVSPost2010Prop56
140
1.0
102
RTVSPost2010PropOp56
 70
     1
102
RTVSPost2010Prop57
140
1.0
102
RTVSPost2010PropOp57
 70
     1
102
RTVSPropertyOp0
 70
     1
102
RTVSPropertyOp1
 70
     1
102
RTVSPropertyOp2
 70
     1
102
RTVSPropertyOp3
 70
     1
102
RTVSPropertyOp4
 70
     1
102
RTVSPropertyOp5
 70
     1
102
RTVSPropertyOp6
 70
     1
102
RTVSPropertyOp7
 70
     1
102
RTVSPropertyOp8
 70
     1
102
RTVSPropertyOp9
 70
     1
102
RTVSPropertyOp10
 70
     1
102
RTVSPropertyOp11
 70
     1
102
RTVSPropertyOp12
 70
     1
102
RTVSPropertyOp13
 70
     1
102
RTVSPropertyOp14
 70
     1
102
RTVSPropertyOp15
 70
     1
102
RTVSPropertyOp16
 70
     1
102
RTVSPropertyOp17
 70
     1
102
RTVSPropertyOp18
 70
     1
102
RTVSPropertyOp19
 70
     1
102
RTVSPropertyOp20
 70
     1
102
RTVSPropertyOp21
 70
     1
102
RTVSPropertyOp22
 70
     1
102
RTVSPropertyOp23
 70
     1
102
RTVSPropertyOp24
 70
     1
102
RTVSPropertyOp25
 70
     1
102
RTVSPropertyOp26
 70
     1
102
RTVSPropertyOp27
 70
     1
102
RTVSPropertyOp28
 70
     1
102
RTVSPropertyOp29
 70
     1
102
RTVSPropertyOp30
 70
     1
102
RTVSPropertyOp31
 70
     1
102
RTVSPropertyOp32
 70
     1
102
RTVSPropertyOp33
 70
     1
102
RTVSPropertyOp34
 70
     1
102
RTVSPropertyOp35
 70
     1
102
RTVSPropertyOp36
 70
     1
102
RTVSPropertyOp37
 70
     1
102
RTVSPropertyOp38
 70
     1
102
RTVSPropertyOp39
 70
     1
102
RTVSPropertyOp40
 70
     1
102
RTVSPropertyOp41
 70
     1
102
RTVSPropertyOp42
 70
     1
102
RTVSPropertyOp43
 70
     1
102
RTVSPropertyOp44
 70
     1
102
RTVSPropertyOp45
 70
     1
102
RTVSPropertyOp46
 70
     1
102
RTVSPropertyOp47
 70
     1
102
RTVSPropertyOp48
 70
     1
102
RTVSPropertyOp49
 70
     1
102
RTVSPropertyOp50
 70
     1
102
RTVSPropertyOp51
 70
     0
102
RTVSPropertyOp52
 70
     0
102
RTVSPropertyOp53
 70
     1
102
RTVSPropertyOp54
 70
     1
102
RTVSPropertyOp55
 70
     1
102
RTVSPropertyOp56
 70
     1
102
RTVSPropertyOp57
 70
     1
102
RTVSPropertyOp58
 70
     1
102
RTVSPropertyOp59
 70
     1
102
RTVSPropertyOp60
 70
     1
102
RTVSPropertyOp61
 70
     1
102
RTVSPropertyOp62
 70
     1
  0
XRECORD
  5
77C
102
{ACAD_REACTORS
330
77B
102
}
330
77B
100
AcDbXrecord
280
     1
102
RTVSPost2010Prop28
280
     0
102
RTVSPost2010PropOp28
 70
     1
102
RTVSPost2010Prop29
280
     1
102
RTVSPost2010PropOp29
 70
     1
102
RTVSPost2010Prop30
280
     1
102
RTVSPost2010PropOp30
 70
     1
102
RTVSPost2010Prop31
280
     0
102
RTVSPost2010PropOp31
 70
     1
102
RTVSPost2010Prop32
280
     0
102
RTVSPost2010PropOp32
 70
     1
102
RTVSPost2010Prop33
280
     0
102
RTVSPost2010PropOp33
 70
     1
102
RTVSPost2010Prop34
280
     0
102
RTVSPost2010PropOp34
 70
     1
102
RTVSPost2010Prop35
280
     0
102
RTVSPost2010PropOp35
 70
     1
102
RTVSPost2010Prop36
280
     0
102
RTVSPost2010PropOp36
 70
     1
102
RTVSPost2010Prop37
 90
       50
102
RTVSPost2010PropOp37
 70
     1
102
RTVSPost2010Prop38
140
0.0
102
RTVSPost2010PropOp38
 70
     1
102
RTVSPost2010Prop39
140
1.0
102
RTVSPost2010PropOp39
 70
     1
102
RTVSPost2010Prop40
 90
        0
102
RTVSPost2010PropOp40
 70
     1
102
RTVSPost2010Prop41ColorIndex
 90
       18
102
RTVSPost2010Prop41ColorRGB
 90
        0
102
RTVSPost2010PropOp41
 70
     1
102
RTVSPost2010Prop42
 90
       50
102
RTVSPost2010PropOp42
 70
     1
102
RTVSPost2010Prop43
 90
        3
102
RTVSPost2010PropOp43
 70
     1
102
RTVSPost2010Prop44ColorIndex
 90
        5
102
RTVSPost2010Prop44ColorRGB
 90
      255
102
RTVSPost2010PropOp44
 70
     1
102
RTVSPost2010Prop45
280
     0
102
RTVSPost2010PropOp45
 70
     1
102
RTVSPost2010Prop46
 90
       50
102
RTVSPost2010PropOp46
 70
     1
102
RTVSPost2010Prop47
 90
       50
102
RTVSPost2010PropOp47
 70
     1
102
RTVSPost2010Prop48
 90
       50
102
RTVSPost2010PropOp48
 70
     1
102
RTVSPost2010Prop49
280
     0
102
RTVSPost2010PropOp49
 70
     1
102
RTVSPost2010Prop50
 90
       50
102
RTVSPost2010PropOp50
 70
     1
102
RTVSPost2010Prop51ColorIndex
 90
      256
102
RTVSPost2010Prop51ColorRGB
 90
-16777216
102
RTVSPost2010PropOp51
 70
     0
102
RTVSPost2010Prop52
140
1.0
102
RTVSPost2010PropOp52
 70
     0
102
RTVSPost2010Prop53
 90
        2
102
RTVSPost2010PropOp53
 70
     1
102
RTVSPost2010Prop54
  1
strokes_ogs.tif
102
RTVSPost2010PropOp54
 70
     1
102
RTVSPost2010Prop55
280
     0
102
RTVSPost2010PropOp55
 70
     1
102
RTVSPost2010Prop56
140
1.0
102
RTVSPost2010PropOp56
 70
     1
102
RTVSPost2010Prop57
140
1.0
102
RTVSPost2010PropOp57
 70
     1
102
RTVSPropertyOp0
 70
     1
102
RTVSPropertyOp1
 70
     1
102
RTVSPropertyOp2
 70
     1
102
RTVSPropertyOp3
 70
     1
102
RTVSPropertyOp4
 70
     1
102
RTVSPropertyOp5
 70
     1
102
RTVSPropertyOp6
 70
     1
102
RTVSPropertyOp7
 70
     1
102
RTVSPropertyOp8
 70
     1
102
RTVSPropertyOp9
 70
     1
102
RTVSPropertyOp10
 70
     1
102
RTVSPropertyOp11
 70
     1
102
RTVSPropertyOp12
 70
     1
102
RTVSPropertyOp13
 70
     1
102
RTVSPropertyOp14
 70
     1
102
RTVSPropertyOp15
 70
     1
102
RTVSPropertyOp16
 70
     1
102
RTVSPropertyOp17
 70
     1
102
RTVSPropertyOp18
 70
     1
102
RTVSPropertyOp19
 70
     1
102
RTVSPropertyOp20
 70
     1
102
RTVSPropertyOp21
 70
     1
102
RTVSPropertyOp22
 70
     1
102
RTVSPropertyOp23
 70
     1
102
RTVSPropertyOp24
 70
     1
102
RTVSPropertyOp25
 70
     1
102
RTVSPropertyOp26
 70
     1
102
RTVSPropertyOp27
 70
     1
102
RTVSPropertyOp28
 70
     1
102
RTVSPropertyOp29
 70
     1
102
RTVSPropertyOp30
 70
     1
102
RTVSPropertyOp31
 70
     1
102
RTVSPropertyOp32
 70
     1
102
RTVSPropertyOp33
 70
     1
102
RTVSPropertyOp34
 70
     1
102
RTVSPropertyOp35
 70
     1
102
RTVSPropertyOp36
 70
     1
102
RTVSPropertyOp37
 70
     1
102
RTVSPropertyOp38
 70
     1
102
RTVSPropertyOp39
 70
     1
102
RTVSPropertyOp40
 70
     1
102
RTVSPropertyOp41
 70
     1
102
RTVSPropertyOp42
 70
     1
102
RTVSPropertyOp43
 70
     1
102
RTVSPropertyOp44
 70
     1
102
RTVSPropertyOp45
 70
     1
102
RTVSPropertyOp46
 70
     1
102
RTVSPropertyOp47
 70
     1
102
RTVSPropertyOp48
 70
     1
102
RTVSPropertyOp49
 70
     1
102
RTVSPropertyOp50
 70
     1
102
RTVSPropertyOp51
 70
     0
102
RTVSPropertyOp52
 70
     0
102
RTVSPropertyOp53
 70
     1
102
RTVSPropertyOp54
 70
     1
102
RTVSPropertyOp55
 70
     1
102
RTVSPropertyOp56
 70
     1
102
RTVSPropertyOp57
 70
     1
102
RTVSPropertyOp58
 70
     1
102
RTVSPropertyOp59
 70
     1
102
RTVSPropertyOp60
 70
     1
102
RTVSPropertyOp61
 70
     1
102
RTVSPropertyOp62
 70
     1
  0
XRECORD
  5
79C
102
{ACAD_REACTORS
330
79B
102
}
330
79B
100
AcDbXrecord
280
     1
102
RTVSPost2010Prop28
280
     0
102
RTVSPost2010PropOp28
 70
     1
102
RTVSPost2010Prop29
280
     1
102
RTVSPost2010PropOp29
 70
     1
102
RTVSPost2010Prop30
280
     1
102
RTVSPost2010PropOp30
 70
     1
102
RTVSPost2010Prop31
280
     0
102
RTVSPost2010PropOp31
 70
     1
102
RTVSPost2010Prop32
280
     0
102
RTVSPost2010PropOp32
 70
     1
102
RTVSPost2010Prop33
280
     0
102
RTVSPost2010PropOp33
 70
     1
102
RTVSPost2010Prop34
280
     0
102
RTVSPost2010PropOp34
 70
     1
102
RTVSPost2010Prop35
280
     0
102
RTVSPost2010PropOp35
 70
     1
102
RTVSPost2010Prop36
280
     0
102
RTVSPost2010PropOp36
 70
     1
102
RTVSPost2010Prop37
 90
       50
102
RTVSPost2010PropOp37
 70
     1
102
RTVSPost2010Prop38
140
0.0
102
RTVSPost2010PropOp38
 70
     1
102
RTVSPost2010Prop39
140
1.0
102
RTVSPost2010PropOp39
 70
     1
102
RTVSPost2010Prop40
 90
        0
102
RTVSPost2010PropOp40
 70
     1
102
RTVSPost2010Prop41ColorIndex
 90
       18
102
RTVSPost2010Prop41ColorRGB
 90
        0
102
RTVSPost2010PropOp41
 70
     1
102
RTVSPost2010Prop42
 90
       50
102
RTVSPost2010PropOp42
 70
     1
102
RTVSPost2010Prop43
 90
        3
102
RTVSPost2010PropOp43
 70
     1
102
RTVSPost2010Prop44ColorIndex
 90
        5
102
RTVSPost2010Prop44ColorRGB
 90
      255
102
RTVSPost2010PropOp44
 70
     1
102
RTVSPost2010Prop45
280
     0
102
RTVSPost2010PropOp45
 70
     1
102
RTVSPost2010Prop46
 90
       50
102
RTVSPost2010PropOp46
 70
     1
102
RTVSPost2010Prop47
 90
       50
102
RTVSPost2010PropOp47
 70
     1
102
RTVSPost2010Prop48
 90
       50
102
RTVSPost2010PropOp48
 70
     1
102
RTVSPost2010Prop49
280
     0
102
RTVSPost2010PropOp49
 70
     1
102
RTVSPost2010Prop50
 90
       50
102
RTVSPost2010PropOp50
 70
     1
102
RTVSPost2010Prop51ColorIndex
 90
      256
102
RTVSPost2010Prop51ColorRGB
 90
-16777216
102
RTVSPost2010PropOp51
 70
     0
102
RTVSPost2010Prop52
140
1.0
102
RTVSPost2010PropOp52
 70
     0
102
RTVSPost2010Prop53
 90
        2
102
RTVSPost2010PropOp53
 70
     1
102
RTVSPost2010Prop54
  1
strokes_ogs.tif
102
RTVSPost2010PropOp54
 70
     1
102
RTVSPost2010Prop55
280
     0
102
RTVSPost2010PropOp55
 70
     1
102
RTVSPost2010Prop56
140
1.0
102
RTVSPost2010PropOp56
 70
     1
102
RTVSPost2010Prop57
140
1.0
102
RTVSPost2010PropOp57
 70
     1
102
RTVSPropertyOp0
 70
     1
102
RTVSPropertyOp1
 70
     1
102
RTVSPropertyOp2
 70
     1
102
RTVSPropertyOp3
 70
     1
102
RTVSPropertyOp4
 70
     1
102
RTVSPropertyOp5
 70
     1
102
RTVSPropertyOp6
 70
     1
102
RTVSPropertyOp7
 70
     1
102
RTVSPropertyOp8
 70
     1
102
RTVSPropertyOp9
 70
     1
102
RTVSPropertyOp10
 70
     1
102
RTVSPropertyOp11
 70
     1
102
RTVSPropertyOp12
 70
     1
102
RTVSPropertyOp13
 70
     1
102
RTVSPropertyOp14
 70
     1
102
RTVSPropertyOp15
 70
     1
102
RTVSPropertyOp16
 70
     1
102
RTVSPropertyOp17
 70
     1
102
RTVSPropertyOp18
 70
     1
102
RTVSPropertyOp19
 70
     1
102
RTVSPropertyOp20
 70
     1
102
RTVSPropertyOp21
 70
     1
102
RTVSPropertyOp22
 70
     1
102
RTVSPropertyOp23
 70
     1
102
RTVSPropertyOp24
 70
     1
102
RTVSPropertyOp25
 70
     1
102
RTVSPropertyOp26
 70
     1
102
RTVSPropertyOp27
 70
     1
102
RTVSPropertyOp28
 70
     1
102
RTVSPropertyOp29
 70
     1
102
RTVSPropertyOp30
 70
     1
102
RTVSPropertyOp31
 70
     1
102
RTVSPropertyOp32
 70
     1
102
RTVSPropertyOp33
 70
     1
102
RTVSPropertyOp34
 70
     1
102
RTVSPropertyOp35
 70
     1
102
RTVSPropertyOp36
 70
     1
102
RTVSPropertyOp37
 70
     1
102
RTVSPropertyOp38
 70
     1
102
RTVSPropertyOp39
 70
     1
102
RTVSPropertyOp40
 70
     1
102
RTVSPropertyOp41
 70
     1
102
RTVSPropertyOp42
 70
     1
102
RTVSPropertyOp43
 70
     1
102
RTVSPropertyOp44
 70
     1
102
RTVSPropertyOp45
 70
     1
102
RTVSPropertyOp46
 70
     1
102
RTVSPropertyOp47
 70
     1
102
RTVSPropertyOp48
 70
     1
102
RTVSPropertyOp49
 70
     1
102
RTVSPropertyOp50
 70
     1
102
RTVSPropertyOp51
 70
     0
102
RTVSPropertyOp52
 70
     0
102
RTVSPropertyOp53
 70
     1
102
RTVSPropertyOp54
 70
     1
102
RTVSPropertyOp55
 70
     1
102
RTVSPropertyOp56
 70
     1
102
RTVSPropertyOp57
 70
     1
102
RTVSPropertyOp58
 70
     1
102
RTVSPropertyOp59
 70
     1
102
RTVSPropertyOp60
 70
     1
102
RTVSPropertyOp61
 70
     1
102
RTVSPropertyOp62
 70
     1
  0
ENDSEC
  0
EOF
