  0
SECTION
  2
HEADER
  9
$ACADVER
  1
AC1015
  9
$ACADMAINTVER
 70
    20
  9
$DWGCODEPAGE
  3
ANSI_932
  9
$INSBASE
 10
0.0
 20
0.0
 30
0.0
  9
$EXTMIN
 10
32.47229351698584
 20
8.932062258193241
 30
0.0
  9
$EXTMAX
 10
954.5500984868093
 20
768.0341211689373
 30
0.0
  9
$LIMMIN
 10
-174.535888671875
 20
-162.7524013519287
  9
$LIMMAX
 10
506.8910827636718
 20
385.7289276123047
  9
$ORTHOMODE
 70
     0
  9
$REGENMODE
 70
     1
  9
$FILLMODE
 70
     1
  9
$QTEXTMODE
 70
     0
  9
$MIRRTEXT
 70
     1
  9
$LTSCALE
 40
0.3167083789294786
  9
$ATTMODE
 70
     1
  9
$TEXTSIZE
 40
2.5
  9
$TRACEWID
 40
1.0
  9
$TEXTSTYLE
  7
Standard
  9
$CLAYER
  8
0
  9
$CELTYPE
  6
ByLayer
  9
$CECOLOR
 62
   256
  9
$CELTSCALE
 40
1.0
  9
$DISPSILH
 70
     0
  9
$DIMSCALE
 40
1.0
  9
$DIMASZ
 40
2.5
  9
$DIMEXO
 40
0.625
  9
$DIMDLI
 40
3.75
  9
$DIMRND
 40
0.0
  9
$DIMDLE
 40
0.0
  9
$DIMEXE
 40
1.25
  9
$DIMTP
 40
0.0
  9
$DIMTM
 40
0.0
  9
$DIMTXT
 40
2.5
  9
$DIMCEN
 40
2.5
  9
$DIMTSZ
 40
0.0
  9
$DIMTOL
 70
     0
  9
$DIMLIM
 70
     0
  9
$DIMTIH
 70
     0
  9
$DIMTOH
 70
     0
  9
$DIMSE1
 70
     0
  9
$DIMSE2
 70
     0
  9
$DIMTAD
 70
     1
  9
$DIMZIN
 70
     0
  9
$DIMBLK
  1

  9
$DIMASO
 70
     1
  9
$DIMSHO
 70
     1
  9
$DIMPOST
  1

  9
$DIMAPOST
  1

  9
$DIMALT
 70
     0
  9
$DIMALTD
 70
     3
  9
$DIMALTF
 40
0.03937007874016
  9
$DIMLFAC
 40
1.0
  9
$DIMTOFL
 70
     1
  9
$DIMTVP
 40
0.0
  9
$DIMTIX
 70
     0
  9
$DIMSOXD
 70
     0
  9
$DIMSAH
 70
     0
  9
$DIMBLK1
  1

  9
$DIMBLK2
  1

  9
$DIMSTYLE
  2
Standard
  9
$DIMCLRD
 70
     0
  9
$DIMCLRE
 70
     0
  9
$DIMCLRT
 70
     0
  9
$DIMTFAC
 40
0.75
  9
$DIMGAP
 40
0.625
  9
$DIMJUST
 70
     0
  9
$DIMSD1
 70
     0
  9
$DIMSD2
 70
     0
  9
$DIMTOLJ
 70
     0
  9
$DIMTZIN
 70
     8
  9
$DIMALTZ
 70
     0
  9
$DIMALTTZ
 70
     0
  9
$DIMUPT
 70
     0
  9
$DIMDEC
 70
     2
  9
$DIMTDEC
 70
     2
  9
$DIMALTU
 70
     2
  9
$DIMALTTD
 70
     3
  9
$DIMTXSTY
  7
Standard
  9
$DIMAUNIT
 70
     0
  9
$DIMADEC
 70
     0
  9
$DIMALTRND
 40
0.0
  9
$DIMAZIN
 70
     0
  9
$DIMDSEP
 70
    46
  9
$DIMATFIT
 70
     3
  9
$DIMFRAC
 70
     0
  9
$DIMLDRBLK
  1

  9
$DIMLUNIT
 70
     2
  9
$DIMLWD
 70
    -2
  9
$DIMLWE
 70
    -2
  9
$DIMTMOVE
 70
     0
  9
$LUNITS
 70
     2
  9
$LUPREC
 70
     4
  9
$SKETCHINC
 40
1.0
  9
$FILLETRAD
 40
0.0
  9
$AUNITS
 70
     0
  9
$AUPREC
 70
     0
  9
$MENU
  1
.
  9
$ELEVATION
 40
0.0
  9
$PELEVATION
 40
0.0
  9
$THICKNESS
 40
0.0
  9
$LIMCHECK
 70
     0
  9
$CHAMFERA
 40
10.0
  9
$CHAMFERB
 40
10.0
  9
$CHAMFERC
 40
20.0
  9
$CHAMFERD
 40
0.0
  9
$SKPOLY
 70
     0
  9
$TDCREATE
 40
2455188.750000000
  9
$TDUCREATE
 40
2455188.375000000
  9
$TDUPDATE
 40
2459738.468463102
  9
$TDUUPDATE
 40
2459738.093463102
  9
$TDINDWG
 40
0.0122915046
  9
$TDUSRTIMER
 40
0.0122912616
  9
$USRTIMER
 70
     1
  9
$ANGBASE
 50
0.0
  9
$ANGDIR
 70
     0
  9
$PDMODE
 70
     0
  9
$PDSIZE
 40
0.0
  9
$PLINEWID
 40
0.0
  9
$SPLFRAME
 70
     0
  9
$SPLINETYPE
 70
     6
  9
$SPLINESEGS
 70
     8
  9
$HANDSEED
  5
5A8
  9
$SURFTAB1
 70
     6
  9
$SURFTAB2
 70
     6
  9
$SURFTYPE
 70
     6
  9
$SURFU
 70
     6
  9
$SURFV
 70
     6
  9
$UCSBASE
  2

  9
$UCSNAME
  2

  9
$UCSORG
 10
0.0
 20
0.0
 30
0.0
  9
$UCSXDIR
 10
1.0
 20
0.0
 30
0.0
  9
$UCSYDIR
 10
0.0
 20
1.0
 30
0.0
  9
$UCSORTHOREF
  2

  9
$UCSORTHOVIEW
 70
     0
  9
$UCSORGTOP
 10
0.0
 20
0.0
 30
0.0
  9
$UCSORGBOTTOM
 10
0.0
 20
0.0
 30
0.0
  9
$UCSORGLEFT
 10
0.0
 20
0.0
 30
0.0
  9
$UCSORGRIGHT
 10
0.0
 20
0.0
 30
0.0
  9
$UCSORGFRONT
 10
0.0
 20
0.0
 30
0.0
  9
$UCSORGBACK
 10
0.0
 20
0.0
 30
0.0
  9
$PUCSBASE
  2

  9
$PUCSNAME
  2

  9
$PUCSORG
 10
0.0
 20
0.0
 30
0.0
  9
$PUCSXDIR
 10
1.0
 20
0.0
 30
0.0
  9
$PUCSYDIR
 10
0.0
 20
1.0
 30
0.0
  9
$PUCSORTHOREF
  2

  9
$PUCSORTHOVIEW
 70
     0
  9
$PUCSORGTOP
 10
0.0
 20
0.0
 30
0.0
  9
$PUCSORGBOTTOM
 10
0.0
 20
0.0
 30
0.0
  9
$PUCSORGLEFT
 10
0.0
 20
0.0
 30
0.0
  9
$PUCSORGRIGHT
 10
0.0
 20
0.0
 30
0.0
  9
$PUCSORGFRONT
 10
0.0
 20
0.0
 30
0.0
  9
$PUCSORGBACK
 10
0.0
 20
0.0
 30
0.0
  9
$USERI1
 70
     0
  9
$USERI2
 70
     0
  9
$USERI3
 70
     0
  9
$USERI4
 70
     0
  9
$USERI5
 70
     0
  9
$USERR1
 40
0.0
  9
$USERR2
 40
0.0
  9
$USERR3
 40
0.0
  9
$USERR4
 40
0.0
  9
$USERR5
 40
0.0
  9
$WORLDVIEW
 70
     1
  9
$SHADEDGE
 70
     3
  9
$SHADEDIF
 70
    70
  9
$TILEMODE
 70
     1
  9
$MAXACTVP
 70
    64
  9
$PINSBASE
 10
0.0
 20
0.0
 30
0.0
  9
$PLIMCHECK
 70
     0
  9
$PEXTMIN
 10
1.000000000000000E+20
 20
1.000000000000000E+20
 30
1.000000000000000E+20
  9
$PEXTMAX
 10
-1.000000000000000E+20
 20
-1.000000000000000E+20
 30
-1.000000000000000E+20
  9
$PLIMMIN
 10
0.0
 20
0.0
  9
$PLIMMAX
 10
420.0
 20
297.0
  9
$UNITMODE
 70
     0
  9
$VISRETAIN
 70
     1
  9
$PLINEGEN
 70
     0
  9
$PSLTSCALE
 70
     1
  9
$TREEDEPTH
 70
  3020
  9
$CMLSTYLE
  2
Standard
  9
$CMLJUST
 70
     0
  9
$CMLSCALE
 40
20.0
  9
$PROXYGRAPHICS
 70
     1
  9
$MEASUREMENT
 70
     1
  9
$CELWEIGHT
370
    -1
  9
$ENDCAPS
280
     0
  9
$JOINSTYLE
280
     0
  9
$LWDISPLAY
290
     0
  9
$INSUNITS
 70
     4
  9
$HYPERLINKBASE
  1

  9
$STYLESHEET
  1

  9
$XEDIT
290
     1
  9
$CEPSNTYPE
380
     0
  9
$PSTYLEMODE
290
     1
  9
$FINGERPRINTGUID
  2
{6525A937-0AED-49AB-9C6C-F80E55545C63}
  9
$VERSIONGUID
  2
{29524CD1-37AC-44BA-8897-24A51CE43DFB}
  9
$EXTNAMES
290
     1
  9
$PSVPSCALE
 40
0.0
  9
$OLESTARTUP
290
     0
  0
ENDSEC
  0
SECTION
  2
CLASSES
  0
CLASS
  1
ACDBDICTIONARYWDFLT
  2
AcDbDictionaryWithDefault
  3
ObjectDBX Classes
 90
        0
280
     0
281
     0
  0
CLASS
  1
VISUALSTYLE
  2
AcDbVisualStyle
  3
ObjectDBX Classes
 90
     4095
280
     0
281
     0
  0
CLASS
  1
MATERIAL
  2
AcDbMaterial
  3
ObjectDBX Classes
 90
     1153
280
     0
281
     0
  0
CLASS
  1
SCALE
  2
AcDbScale
  3
ObjectDBX Classes
 90
     1153
280
     0
281
     0
  0
CLASS
  1
TABLESTYLE
  2
AcDbTableStyle
  3
ObjectDBX Classes
 90
     4095
280
     0
281
     0
  0
CLASS
  1
MLEADERSTYLE
  2
AcDbMLeaderStyle
  3
ACDB_MLEADERSTYLE_CLASS
 90
     4095
280
     0
281
     0
  0
CLASS
  1
SUN
  2
AcDbSun
  3
SCENEOE
 90
    33921
280
     0
281
     0
  0
CLASS
  1
DICTIONARYVAR
  2
AcDbDictionaryVar
  3
ObjectDBX Classes
 90
        0
280
     0
281
     0
  0
CLASS
  1
ACDBSECTIONVIEWSTYLE
  2
AcDbSectionViewStyle
  3
ObjectDBX Classes
 90
     1025
280
     0
281
     0
  0
CLASS
  1
ACDBDETAILVIEWSTYLE
  2
AcDbDetailViewStyle
  3
ObjectDBX Classes
 90
     1025
280
     0
281
     0
  0
CLASS
  1
SORTENTSTABLE
  2
AcDbSortentsTable
  3
ObjectDBX Classes
 90
        0
280
     0
281
     0
  0
CLASS
  1
CELLSTYLEMAP
  2
AcDbCellStyleMap
  3
ObjectDBX Classes
 90
     1152
280
     0
281
     0
  0
CLASS
  1
ACDBPLACEHOLDER
  2
AcDbPlaceHolder
  3
ObjectDBX Classes
 90
        0
280
     0
281
     0
  0
CLASS
  1
LAYOUT
  2
AcDbLayout
  3
ObjectDBX Classes
 90
        0
280
     0
281
     0
  0
ENDSEC
  0
SECTION
  2
TABLES
  0
TABLE
  2
VPORT
  5
8
330
0
100
AcDbSymbolTable
 70
     1
  0
VPORT
  5
29
330
8
100
AcDbSymbolTableRecord
100
AcDbViewportTableRecord
  2
*Active
 70
     0
 10
0.0
 20
0.0
 11
1.0
 21
1.0
 12
552.6596336652437
 22
215.2885984552677
 13
0.0
 23
0.0
 14
10.0
 24
10.0
 15
10.0
 25
10.0
 16
0.0
 26
0.0
 36
1.0
 17
0.0
 27
0.0
 37
0.0
 40
916.2643886460045
 41
2.204301075268817
 42
50.0
 43
0.0
 44
0.0
 50
0.0
 51
0.0
 71
     0
 72
 20000
 73
     1
 74
     3
 75
     0
 76
     0
 77
     0
 78
     0
281
     0
 65
     1
110
0.0
120
0.0
130
0.0
111
1.0
121
0.0
131
0.0
112
0.0
122
1.0
132
0.0
 79
     0
146
0.0
1001
ACAD_NAV_VCDISPLAY
1070
     3
  0
ENDTAB
  0
TABLE
  2
LTYPE
  5
5
330
0
100
AcDbSymbolTable
 70
     2
  0
LTYPE
  5
14
330
5
100
AcDbSymbolTableRecord
100
AcDbLinetypeTableRecord
  2
ByBlock
 70
     0
  3

 72
    65
 73
     0
 40
0.0
  0
LTYPE
  5
15
330
5
100
AcDbSymbolTableRecord
100
AcDbLinetypeTableRecord
  2
ByLayer
 70
     0
  3

 72
    65
 73
     0
 40
0.0
  0
LTYPE
  5
16
330
5
100
AcDbSymbolTableRecord
100
AcDbLinetypeTableRecord
  2
Continuous
 70
     0
  3
Solid line
 72
    65
 73
     0
 40
0.0
  0
LTYPE
  5
25E
330
5
100
AcDbSymbolTableRecord
100
AcDbLinetypeTableRecord
  2
CENTER2
 70
     0
  3
Center (.5x) ___ _ ___ _ ___ _ ___ _ ___ _ ___
 72
    65
 73
     4
 40
28.575
 49
19.05
 74
     0
 49
-3.174999999999998
 74
     0
 49
3.174999999999998
 74
     0
 49
-3.174999999999998
 74
     0
  0
ENDTAB
  0
TABLE
  2
LAYER
  5
2
102
{ACAD_XDICTIONARY
360
264
102
}
330
0
100
AcDbSymbolTable
 70
     4
  0
LAYER
  5
10
102
{ACAD_XDICTIONARY
360
4D1
102
}
330
2
100
AcDbSymbolTableRecord
100
AcDbLayerTableRecord
  2
0
 70
     0
 62
     7
  6
Continuous
370
    -3
390
F
  0
LAYER
  5
66
330
2
100
AcDbSymbolTableRecord
100
AcDbLayerTableRecord
  2
Defpoints
 70
     0
 62
     7
  6
Continuous
290
     0
370
    -3
390
F
  0
LAYER
  5
25F
102
{ACAD_XDICTIONARY
360
260
102
}
330
2
100
AcDbSymbolTableRecord
100
AcDbLayerTableRecord
  2
中心線
 70
     0
 62
     3
  6
CENTER2
370
    -3
390
F
  0
LAYER
  5
261
102
{ACAD_XDICTIONARY
360
262
102
}
330
2
100
AcDbSymbolTableRecord
100
AcDbLayerTableRecord
  2
実線
 70
     0
 62
     7
  6
Continuous
370
    -3
390
F
  0
ENDTAB
  0
TABLE
  2
STYLE
  5
3
330
0
100
AcDbSymbolTable
 70
     1
  0
STYLE
  5
11
330
3
100
AcDbSymbolTableRecord
100
AcDbTextStyleTableRecord
  2
Standard
 70
     0
 40
0.0
 41
1.0
 50
0.0
 71
     0
 42
2.5
  3
txt
  4
extfont2
  0
ENDTAB
  0
TABLE
  2
VIEW
  5
6
330
0
100
AcDbSymbolTable
 70
     0
  0
ENDTAB
  0
TABLE
  2
UCS
  5
7
330
0
100
AcDbSymbolTable
 70
     0
  0
ENDTAB
  0
TABLE
  2
APPID
  5
9
330
0
100
AcDbSymbolTable
 70
     3
  0
APPID
  5
12
330
9
100
AcDbSymbolTableRecord
100
AcDbRegAppTableRecord
  2
ACAD
 70
     0
  0
APPID
  5
24E
330
9
100
AcDbSymbolTableRecord
100
AcDbRegAppTableRecord
  2
ACAD_MLEADERVER
 70
     0
  0
APPID
  5
263
330
9
100
AcDbSymbolTableRecord
100
AcDbRegAppTableRecord
  2
ACAD_NAV_VCDISPLAY
 70
     0
  0
ENDTAB
  0
TABLE
  2
DIMSTYLE
  5
A
330
0
100
AcDbSymbolTable
 70
     1
100
AcDbDimStyleTable
 71
     0
  0
DIMSTYLE
105
27
330
A
100
AcDbSymbolTableRecord
100
AcDbDimStyleTableRecord
  2
Standard
 70
     0
 41
2.5
 42
0.625
 43
3.75
 44
1.25
 73
     0
 74
     0
 77
     1
140
2.5
141
2.5
143
0.03937007874016
146
0.75
147
0.625
171
     3
172
     1
271
     2
272
     2
274
     3
283
     0
284
     8
340
11
  0
ENDTAB
  0
TABLE
  2
BLOCK_RECORD
  5
1
330
0
100
AcDbSymbolTable
 70
     1
  0
BLOCK_RECORD
  5
1F
102
{ACAD_XDICTIONARY
360
365
102
}
330
1
100
AcDbSymbolTableRecord
100
AcDbBlockTableRecord
  2
*Model_Space
340
22
  0
BLOCK_RECORD
  5
1B
330
1
100
AcDbSymbolTableRecord
100
AcDbBlockTableRecord
  2
*Paper_Space
340
1E
  0
BLOCK_RECORD
  5
23
330
1
100
AcDbSymbolTableRecord
100
AcDbBlockTableRecord
  2
*Paper_Space0
340
258
  0
ENDTAB
  0
ENDSEC
  0
SECTION
  2
BLOCKS
  0
BLOCK
  5
20
330
1F
100
AcDbEntity
  8
0
100
AcDbBlockBegin
  2
*Model_Space
 70
     0
 10
0.0
 20
0.0
 30
0.0
  3
*Model_Space
  1

  0
ENDBLK
  5
21
330
1F
100
AcDbEntity
  8
0
100
AcDbBlockEnd
  0
BLOCK
  5
1C
330
1B
100
AcDbEntity
 67
     1
  8
0
100
AcDbBlockBegin
  2
*Paper_Space
 70
     0
 10
0.0
 20
0.0
 30
0.0
  3
*Paper_Space
  1

  0
ENDBLK
  5
1D
330
1B
100
AcDbEntity
 67
     1
  8
0
100
AcDbBlockEnd
  0
BLOCK
  5
24
330
23
100
AcDbEntity
 67
     1
  8
0
100
AcDbBlockBegin
  2
*Paper_Space0
 70
     0
 10
0.0
 20
0.0
 30
0.0
  3
*Paper_Space0
  1

  0
ENDBLK
  5
25
330
23
100
AcDbEntity
 67
     1
  8
0
100
AcDbBlockEnd
  0
ENDSEC
  0
SECTION
  2
ENTITIES
  0
LINE
  5
33A
102
{ACAD_REACTORS
330
516
102
}
330
1F
100
AcDbEntity
  8
実線
100
AcDbLine
 10
335.4722935169858
 20
52.2820622581932
 30
0.0
 11
305.9722935169858
 21
52.2820622581932
 31
0.0
  0
LINE
  5
33B
102
{ACAD_REACTORS
330
516
102
}
330
1F
100
AcDbEntity
  8
実線
100
AcDbLine
 10
305.9722935169858
 20
30.58206225819322
 30
0.0
 11
335.4722935169858
 21
30.58206225819322
 31
0.0
  0
LINE
  5
33C
102
{ACAD_REACTORS
330
516
102
}
330
1F
100
AcDbEntity
  8
実線
100
AcDbLine
 10
339.9722935169858
 20
58.43206225819321
 30
0.0
 11
339.9722935169858
 21
24.43206225819321
 31
0.0
  0
LINE
  5
33D
102
{ACAD_REACTORS
330
516
102
}
330
1F
100
AcDbEntity
  8
実線
100
AcDbLine
 10
339.9722935169858
 20
58.43206225819321
 30
0.0
 11
337.8222935169858
 21
58.43206225819321
 31
0.0
  0
LINE
  5
33E
102
{ACAD_REACTORS
330
516
102
}
330
1F
100
AcDbEntity
  8
実線
100
AcDbLine
 10
337.8222935169858
 20
24.43206225819321
 30
0.0
 11
339.9722935169858
 21
24.43206225819321
 31
0.0
  0
LINE
  5
33F
102
{ACAD_REACTORS
330
516
102
}
330
1F
100
AcDbEntity
  8
実線
100
AcDbLine
 10
337.8222935169858
 20
58.43206225819321
 30
0.0
 11
337.8222935169858
 21
24.43206225819321
 31
0.0
  0
LINE
  5
340
102
{ACAD_REACTORS
330
516
102
}
330
1F
100
AcDbEntity
  8
実線
100
AcDbLine
 10
335.4722935169858
 20
52.2820622581932
 30
0.0
 11
335.4722935169858
 21
30.58206225819322
 31
0.0
  0
LINE
  5
341
102
{ACAD_REACTORS
330
516
102
}
330
1F
100
AcDbEntity
  8
実線
100
AcDbLine
 10
335.4722935169858
 20
30.58206225819322
 30
0.0
 11
337.8222935169858
 21
24.43206225819321
 31
0.0
  0
LINE
  5
342
102
{ACAD_REACTORS
330
516
102
}
330
1F
100
AcDbEntity
  8
実線
100
AcDbLine
 10
337.8222935169858
 20
58.43206225819321
 30
0.0
 11
335.4722935169858
 21
52.2820622581932
 31
0.0
  0
LINE
  5
343
102
{ACAD_REACTORS
330
516
102
}
330
1F
100
AcDbEntity
  8
実線
100
AcDbLine
 10
234.4722935169858
 20
30.58206225819322
 30
0.0
 11
263.9722935169858
 21
30.58206225819322
 31
0.0
  0
LINE
  5
344
102
{ACAD_REACTORS
330
516
102
}
330
1F
100
AcDbEntity
  8
実線
100
AcDbLine
 10
263.9722935169858
 20
52.2820622581932
 30
0.0
 11
234.4722935169858
 21
52.2820622581932
 31
0.0
  0
LINE
  5
345
102
{ACAD_REACTORS
330
516
102
}
330
1F
100
AcDbEntity
  8
実線
100
AcDbLine
 10
234.4722935169858
 20
30.58206225819322
 30
0.0
 11
234.4722935169858
 21
52.2820622581932
 31
0.0
  0
LINE
  5
346
102
{ACAD_REACTORS
330
516
102
}
330
1F
100
AcDbEntity
  8
実線
100
AcDbLine
 10
234.4722935169858
 20
52.2820622581932
 30
0.0
 11
232.1222935169858
 21
58.43206225819321
 31
0.0
  0
LINE
  5
347
102
{ACAD_REACTORS
330
516
102
}
330
1F
100
AcDbEntity
  8
実線
100
AcDbLine
 10
232.1222935169858
 20
24.43206225819321
 30
0.0
 11
234.4722935169858
 21
30.58206225819322
 31
0.0
  0
LINE
  5
348
102
{ACAD_REACTORS
330
516
102
}
330
1F
100
AcDbEntity
  8
実線
100
AcDbLine
 10
229.9722935169858
 20
24.43206225819321
 30
0.0
 11
229.9722935169858
 21
58.43206225819321
 31
0.0
  0
LINE
  5
349
102
{ACAD_REACTORS
330
516
102
}
330
1F
100
AcDbEntity
  8
実線
100
AcDbLine
 10
232.1222935169858
 20
24.43206225819321
 30
0.0
 11
232.1222935169858
 21
58.43206225819321
 31
0.0
  0
LINE
  5
34A
102
{ACAD_REACTORS
330
516
102
}
330
1F
100
AcDbEntity
  8
実線
100
AcDbLine
 10
229.9722935169858
 20
24.43206225819321
 30
0.0
 11
232.1222935169858
 21
24.43206225819321
 31
0.0
  0
LINE
  5
34B
102
{ACAD_REACTORS
330
516
102
}
330
1F
100
AcDbEntity
  8
実線
100
AcDbLine
 10
232.1222935169858
 20
58.43206225819321
 30
0.0
 11
229.9722935169858
 21
58.43206225819321
 31
0.0
  0
CIRCLE
  5
34C
102
{ACAD_REACTORS
330
516
102
}
330
1F
100
AcDbEntity
  8
実線
100
AcDbCircle
 10
284.9722935169858
 20
41.43206225819321
 30
0.0
 40
17.0
  0
LINE
  5
34D
102
{ACAD_REACTORS
330
516
102
}
330
1F
100
AcDbEntity
  8
実線
100
AcDbLine
 10
311.3722935169858
 20
56.48206225819319
 30
0.0
 11
310.924123895593
 21
56.48206225819319
 31
0.0
  0
LINE
  5
34E
102
{ACAD_REACTORS
330
516
102
}
330
1F
100
AcDbEntity
  8
実線
100
AcDbLine
 10
311.3722935169858
 20
55.68127276263871
 30
0.0
 11
311.3722935169858
 21
56.48206225819319
 31
0.0
  0
LINE
  5
34F
102
{ACAD_REACTORS
330
516
102
}
330
1F
100
AcDbEntity
  8
実線
100
AcDbLine
 10
305.9722935169858
 20
62.43206225819321
 30
0.0
 11
263.9722935169858
 21
62.43206225819321
 31
0.0
  0
LINE
  5
350
102
{ACAD_REACTORS
330
516
102
}
330
1F
100
AcDbEntity
  8
実線
100
AcDbLine
 10
305.9722935169858
 20
62.43206225819321
 30
0.0
 11
305.9722935169858
 21
20.43206225819321
 31
0.0
  0
LINE
  5
351
102
{ACAD_REACTORS
330
516
102
}
330
1F
100
AcDbEntity
  8
実線
100
AcDbLine
 10
263.9722935169858
 20
20.43206225819321
 30
0.0
 11
263.9722935169858
 21
62.43206225819321
 31
0.0
  0
LINE
  5
352
102
{ACAD_REACTORS
330
516
102
}
330
1F
100
AcDbEntity
  8
実線
100
AcDbLine
 10
263.9722935169858
 20
20.43206225819321
 30
0.0
 11
305.9722935169858
 21
20.43206225819321
 31
0.0
  0
LINE
  5
353
102
{ACAD_REACTORS
330
516
102
}
330
1F
100
AcDbEntity
  8
実線
100
AcDbLine
 10
272.1867596110528
 20
28.71759616412592
 30
0.0
 11
280.4722935169858
 21
20.43206225819321
 31
0.0
  0
LINE
  5
354
102
{ACAD_REACTORS
330
516
102
}
330
1F
100
AcDbEntity
  8
実線
100
AcDbLine
 10
263.9722935169858
 20
52.68206225819321
 30
0.0
 11
268.6512257051203
 21
52.68206225819321
 31
0.0
  0
ARC
  5
355
102
{ACAD_REACTORS
330
516
102
}
330
1F
100
AcDbEntity
  8
実線
100
AcDbCircle
 10
301.2933613288512
 20
25.18206225819322
 30
0.0
 40
5.0
100
AcDbArc
 50
90.0
 51
135.0
  0
LINE
  5
356
102
{ACAD_REACTORS
330
516
102
}
330
1F
100
AcDbEntity
  8
実線
100
AcDbLine
 10
297.7578274229184
 20
54.1465283522605
 30
0.0
 11
289.4722935169858
 21
62.43206225819321
 31
0.0
  0
ARC
  5
357
102
{ACAD_REACTORS
330
516
102
}
330
1F
100
AcDbEntity
  8
実線
100
AcDbCircle
 10
268.6512257051203
 20
25.18206225819322
 30
0.0
 40
5.0
100
AcDbArc
 50
45.0
 51
90.0
  0
ARC
  5
358
102
{ACAD_REACTORS
330
516
102
}
330
1F
100
AcDbEntity
  8
実線
100
AcDbCircle
 10
301.2933613288512
 20
57.68206225819321
 30
0.0
 40
5.0
100
AcDbArc
 50
225.0
 51
270.0
  0
ARC
  5
359
102
{ACAD_REACTORS
330
516
102
}
330
1F
100
AcDbEntity
  8
実線
100
AcDbCircle
 10
268.6512257051203
 20
57.68206225819321
 30
0.0
 40
5.0
100
AcDbArc
 50
270.0
 51
315.0
  0
LINE
  5
35A
102
{ACAD_REACTORS
330
516
102
}
330
1F
100
AcDbEntity
  8
実線
100
AcDbLine
 10
305.9722935169858
 20
30.18206225819322
 30
0.0
 11
301.2933613288512
 21
30.18206225819322
 31
0.0
  0
LINE
  5
35B
102
{ACAD_REACTORS
330
516
102
}
330
1F
100
AcDbEntity
  8
実線
100
AcDbLine
 10
305.9722935169858
 20
52.68206225819321
 30
0.0
 11
301.2933613288512
 21
52.68206225819321
 31
0.0
  0
LINE
  5
35C
102
{ACAD_REACTORS
330
516
102
}
330
1F
100
AcDbEntity
  8
実線
100
AcDbLine
 10
272.1867596110528
 20
54.1465283522605
 30
0.0
 11
280.4722935169858
 21
62.43206225819321
 31
0.0
  0
LINE
  5
35D
102
{ACAD_REACTORS
330
516
102
}
330
1F
100
AcDbEntity
  8
実線
100
AcDbLine
 10
263.9722935169858
 20
30.18206225819322
 30
0.0
 11
268.6512257051203
 21
30.18206225819322
 31
0.0
  0
LINE
  5
35E
102
{ACAD_REACTORS
330
516
102
}
330
1F
100
AcDbEntity
  8
実線
100
AcDbLine
 10
297.7578274229184
 20
28.71759616412592
 30
0.0
 11
289.4722935169858
 21
20.43206225819321
 31
0.0
  0
ARC
  5
35F
102
{ACAD_REACTORS
330
516
102
}
330
1F
100
AcDbEntity
  8
実線
100
AcDbCircle
 10
284.9722935169858
 20
41.43206225819321
 30
0.0
 40
30.0
100
AcDbArc
 50
21.20258706014759
 51
158.7974129398524
  0
ARC
  5
360
102
{ACAD_REACTORS
330
516
102
}
330
1F
100
AcDbEntity
  8
実線
100
AcDbCircle
 10
284.9722935169858
 20
41.43206225819321
 30
0.0
 40
30.0
100
AcDbArc
 50
201.2025870601476
 51
338.7974129398525
  0
LINE
  5
361
102
{ACAD_REACTORS
330
516
102
}
330
1F
100
AcDbEntity
  8
実線
100
AcDbLine
 10
263.7590900813893
 20
62.64526569378958
 30
0.0
 11
263.9722935169858
 21
62.43206225819321
 31
0.0
  0
LINE
  5
362
102
{ACAD_REACTORS
330
516
102
}
330
1F
100
AcDbEntity
  8
実線
100
AcDbLine
 10
305.9722935169858
 20
62.43206225819321
 30
0.0
 11
306.1854969525823
 21
62.64526569378958
 31
0.0
  0
LINE
  5
363
102
{ACAD_REACTORS
330
516
102
}
330
1F
100
AcDbEntity
  8
実線
100
AcDbLine
 10
306.1854969525823
 20
20.21885882259681
 30
0.0
 11
305.9722935169858
 21
20.43206225819321
 31
0.0
  0
LINE
  5
364
102
{ACAD_REACTORS
330
516
102
}
330
1F
100
AcDbEntity
  8
実線
100
AcDbLine
 10
263.7590900813893
 20
20.21885882259681
 30
0.0
 11
263.9722935169858
 21
20.43206225819321
 31
0.0
  0
LINE
  5
367
102
{ACAD_REACTORS
330
55E
102
}
330
1F
100
AcDbEntity
  8
実線
100
AcDbLine
 10
335.4722935169858
 20
572.2820622581935
 30
0.0
 11
312.9415176749777
 21
572.2820622581935
 31
0.0
  0
LINE
  5
368
102
{ACAD_REACTORS
330
55E
102
}
330
1F
100
AcDbEntity
  8
実線
100
AcDbLine
 10
312.9415176749777
 20
550.5820622581937
 30
0.0
 11
335.4722935169858
 21
550.5820622581937
 31
0.0
  0
LINE
  5
369
102
{ACAD_REACTORS
330
55E
102
}
330
1F
100
AcDbEntity
  8
実線
100
AcDbLine
 10
339.9722935169858
 20
578.4320622581937
 30
0.0
 11
337.8222935169858
 21
578.4320622581937
 31
0.0
  0
LINE
  5
36A
102
{ACAD_REACTORS
330
55E
102
}
330
1F
100
AcDbEntity
  8
実線
100
AcDbLine
 10
337.8222935169858
 20
544.4320622581933
 30
0.0
 11
339.9722935169858
 21
544.4320622581933
 31
0.0
  0
LINE
  5
36B
102
{ACAD_REACTORS
330
55E
102
}
330
1F
100
AcDbEntity
  8
実線
100
AcDbLine
 10
339.9722935169858
 20
578.4320622581937
 30
0.0
 11
339.9722935169858
 21
544.4320622581933
 31
0.0
  0
LINE
  5
36C
102
{ACAD_REACTORS
330
55E
102
}
330
1F
100
AcDbEntity
  8
実線
100
AcDbLine
 10
335.4722935169858
 20
550.5820622581937
 30
0.0
 11
337.8222935169858
 21
544.4320622581933
 31
0.0
  0
LINE
  5
36D
102
{ACAD_REACTORS
330
55E
102
}
330
1F
100
AcDbEntity
  8
実線
100
AcDbLine
 10
337.8222935169858
 20
578.4320622581937
 30
0.0
 11
335.4722935169858
 21
572.2820622581935
 31
0.0
  0
LINE
  5
36E
102
{ACAD_REACTORS
330
55E
102
}
330
1F
100
AcDbEntity
  8
実線
100
AcDbLine
 10
337.8222935169858
 20
544.4320622581933
 30
0.0
 11
337.8222935169858
 21
578.4320622581937
 31
0.0
  0
LINE
  5
36F
102
{ACAD_REACTORS
330
55E
102
}
330
1F
100
AcDbEntity
  8
実線
100
AcDbLine
 10
335.4722935169858
 20
550.5820622581937
 30
0.0
 11
335.4722935169858
 21
572.2820622581935
 31
0.0
  0
LINE
  5
370
102
{ACAD_REACTORS
330
55E
102
}
330
1F
100
AcDbEntity
  8
実線
100
AcDbLine
 10
234.4722935169858
 20
550.5820622581937
 30
0.0
 11
257.0030693589938
 21
550.5820622581937
 31
0.0
  0
LINE
  5
371
102
{ACAD_REACTORS
330
55E
102
}
330
1F
100
AcDbEntity
  8
実線
100
AcDbLine
 10
257.0030693589938
 20
572.2820622581935
 30
0.0
 11
234.4722935169858
 21
572.2820622581935
 31
0.0
  0
LINE
  5
372
102
{ACAD_REACTORS
330
55E
102
}
330
1F
100
AcDbEntity
  8
実線
100
AcDbLine
 10
234.4722935169858
 20
572.2820622581935
 30
0.0
 11
232.1222935169858
 21
578.4320622581937
 31
0.0
  0
LINE
  5
373
102
{ACAD_REACTORS
330
55E
102
}
330
1F
100
AcDbEntity
  8
実線
100
AcDbLine
 10
232.1222935169858
 20
544.4320622581933
 30
0.0
 11
234.4722935169858
 21
550.5820622581937
 31
0.0
  0
LINE
  5
374
102
{ACAD_REACTORS
330
55E
102
}
330
1F
100
AcDbEntity
  8
実線
100
AcDbLine
 10
234.4722935169858
 20
572.2820622581935
 30
0.0
 11
234.4722935169858
 21
550.5820622581937
 31
0.0
  0
LINE
  5
375
102
{ACAD_REACTORS
330
55E
102
}
330
1F
100
AcDbEntity
  8
実線
100
AcDbLine
 10
229.9722935169858
 20
544.4320622581933
 30
0.0
 11
232.1222935169858
 21
544.4320622581933
 31
0.0
  0
LINE
  5
376
102
{ACAD_REACTORS
330
55E
102
}
330
1F
100
AcDbEntity
  8
実線
100
AcDbLine
 10
232.1222935169858
 20
578.4320622581937
 30
0.0
 11
229.9722935169858
 21
578.4320622581937
 31
0.0
  0
LINE
  5
377
102
{ACAD_REACTORS
330
55E
102
}
330
1F
100
AcDbEntity
  8
実線
100
AcDbLine
 10
229.9722935169858
 20
544.4320622581933
 30
0.0
 11
229.9722935169858
 21
578.4320622581937
 31
0.0
  0
LINE
  5
378
102
{ACAD_REACTORS
330
55E
102
}
330
1F
100
AcDbEntity
  8
実線
100
AcDbLine
 10
232.1222935169858
 20
544.4320622581933
 30
0.0
 11
232.1222935169858
 21
578.4320622581937
 31
0.0
  0
LINE
  5
379
102
{ACAD_REACTORS
330
55E
102
}
330
1F
100
AcDbEntity
  8
実線
100
AcDbLine
 10
279.8722935169858
 20
551.8320622581934
 30
0.0
 11
279.8722935169858
 21
543.9320622581933
 31
0.0
  0
LINE
  5
37A
102
{ACAD_REACTORS
330
55E
102
}
330
1F
100
AcDbEntity
  8
実線
100
AcDbLine
 10
304.8722935169858
 20
543.9320622581933
 30
0.0
 11
304.8722935169858
 21
551.8320622581934
 31
0.0
  0
LINE
  5
37B
102
{ACAD_REACTORS
330
55E
102
}
330
1F
100
AcDbEntity
  8
実線
100
AcDbLine
 10
279.8722935169858
 20
551.8320622581934
 30
0.0
 11
304.8722935169858
 21
551.8320622581934
 31
0.0
  0
CIRCLE
  5
37C
102
{ACAD_REACTORS
330
55E
102
}
330
1F
100
AcDbEntity
  8
実線
100
AcDbCircle
 10
284.9722935169858
 20
561.4320622581932
 30
0.0
 40
8.5
  0
LINE
  5
37D
102
{ACAD_REACTORS
330
55E
102
}
330
1F
100
AcDbEntity
  8
実線
100
AcDbLine
 10
311.3722935169858
 20
546.3820622581935
 30
0.0
 11
311.3722935169858
 21
549.3820622581934
 31
0.0
  0
LINE
  5
37E
102
{ACAD_REACTORS
330
55E
102
}
330
1F
100
AcDbEntity
  8
実線
100
AcDbLine
 10
304.8722935169858
 20
546.3820622581935
 30
0.0
 11
311.3722935169858
 21
546.3820622581935
 31
0.0
  0
LINE
  5
37F
102
{ACAD_REACTORS
330
55E
102
}
330
1F
100
AcDbEntity
  8
実線
100
AcDbLine
 10
311.3722935169858
 20
549.3820622581934
 30
0.0
 11
304.8722935169858
 21
549.3820622581934
 31
0.0
  0
LINE
  5
380
102
{ACAD_REACTORS
330
55E
102
}
330
1F
100
AcDbEntity
  8
実線
100
AcDbLine
 10
271.3722935169858
 20
542.4320622581933
 30
0.0
 11
306.3722935169858
 21
542.4320622581933
 31
0.0
  0
LINE
  5
381
102
{ACAD_REACTORS
330
55E
102
}
330
1F
100
AcDbEntity
  8
実線
100
AcDbLine
 10
306.3722935169858
 20
546.3820622581935
 30
0.0
 11
306.3722935169858
 21
542.4320622581933
 31
0.0
  0
LINE
  5
382
102
{ACAD_REACTORS
330
55E
102
}
330
1F
100
AcDbEntity
  8
実線
100
AcDbLine
 10
306.3722935169858
 20
552.9320622581933
 30
0.0
 11
306.3722935169858
 21
549.3820622581934
 31
0.0
  0
CIRCLE
  5
385
102
{ACAD_REACTORS
330
55E
102
}
330
1F
100
AcDbEntity
  8
実線
100
AcDbCircle
 10
276.3722935169858
 20
549.4320622581938
 30
0.0
 40
2.0
  0
LINE
  5
386
102
{ACAD_REACTORS
330
55E
102
}
330
1F
100
AcDbEntity
  8
実線
100
AcDbLine
 10
271.3722935169858
 20
542.4320622581933
 30
0.0
 11
271.3722935169858
 21
552.9320622581933
 31
0.0
  0
LINE
  5
387
102
{ACAD_REACTORS
330
55E
102
}
330
1F
100
AcDbEntity
  8
実線
100
AcDbLine
 10
306.3722935169858
 20
552.9320622581933
 30
0.0
 11
271.3722935169858
 21
552.9320622581933
 31
0.0
  0
LINE
  5
388
102
{ACAD_REACTORS
330
55E
102
}
330
1F
100
AcDbEntity
  8
実線
100
AcDbLine
 10
279.8722935169858
 20
543.9320622581933
 30
0.0
 11
306.3722935169858
 21
543.9320622581933
 31
0.0
  0
LINE
  5
389
102
{ACAD_REACTORS
330
55E
102
}
330
1F
100
AcDbEntity
  8
実線
100
AcDbLine
 10
279.8722935169858
 20
542.4320622581933
 30
0.0
 11
279.8722935169858
 21
543.9320622581933
 31
0.0
  0
ARC
  5
38A
102
{ACAD_REACTORS
330
55E
102
}
330
1F
100
AcDbEntity
  8
実線
100
AcDbCircle
 10
284.9722935169858
 20
561.4320622581935
 30
0.0
 40
30.0
100
AcDbArc
 50
331.6423634236731
 51
329.8896728257533
  0
LINE
  5
38B
102
{ACAD_REACTORS
330
517
102
}
330
1F
100
AcDbEntity
  8
実線
100
AcDbLine
 10
674.4722935169861
 20
190.5820622581931
 30
0.0
 11
703.9722935169861
 21
190.5820622581931
 31
0.0
  0
LINE
  5
38C
102
{ACAD_REACTORS
330
517
102
}
330
1F
100
AcDbEntity
  8
実線
100
AcDbLine
 10
703.9722935169861
 20
212.2820622581932
 30
0.0
 11
674.4722935169861
 21
212.2820622581932
 31
0.0
  0
LINE
  5
38D
102
{ACAD_REACTORS
330
517
102
}
330
1F
100
AcDbEntity
  8
実線
100
AcDbLine
 10
674.4722935169861
 20
212.2820622581932
 30
0.0
 11
672.1222935169861
 21
218.4320622581932
 31
0.0
  0
LINE
  5
38E
102
{ACAD_REACTORS
330
517
102
}
330
1F
100
AcDbEntity
  8
実線
100
AcDbLine
 10
672.1222935169861
 20
184.4320622581932
 30
0.0
 11
674.4722935169861
 21
190.5820622581931
 31
0.0
  0
LINE
  5
38F
102
{ACAD_REACTORS
330
517
102
}
330
1F
100
AcDbEntity
  8
実線
100
AcDbLine
 10
674.4722935169861
 20
212.2820622581932
 30
0.0
 11
674.4722935169861
 21
190.5820622581931
 31
0.0
  0
LINE
  5
390
102
{ACAD_REACTORS
330
517
102
}
330
1F
100
AcDbEntity
  8
実線
100
AcDbLine
 10
669.9722935169861
 20
184.4320622581932
 30
0.0
 11
672.1222935169861
 21
184.4320622581932
 31
0.0
  0
LINE
  5
391
102
{ACAD_REACTORS
330
517
102
}
330
1F
100
AcDbEntity
  8
実線
100
AcDbLine
 10
672.1222935169861
 20
218.4320622581932
 30
0.0
 11
669.9722935169861
 21
218.4320622581932
 31
0.0
  0
LINE
  5
392
102
{ACAD_REACTORS
330
517
102
}
330
1F
100
AcDbEntity
  8
実線
100
AcDbLine
 10
669.9722935169861
 20
184.4320622581932
 30
0.0
 11
669.9722935169861
 21
218.4320622581932
 31
0.0
  0
LINE
  5
393
102
{ACAD_REACTORS
330
517
102
}
330
1F
100
AcDbEntity
  8
実線
100
AcDbLine
 10
672.1222935169861
 20
184.4320622581932
 30
0.0
 11
672.1222935169861
 21
218.4320622581932
 31
0.0
  0
LINE
  5
394
102
{ACAD_REACTORS
330
517
102
}
330
1F
100
AcDbEntity
  8
実線
100
AcDbLine
 10
775.4722935169861
 20
212.2820622581932
 30
0.0
 11
745.9722935169861
 21
212.2820622581932
 31
0.0
  0
LINE
  5
395
102
{ACAD_REACTORS
330
517
102
}
330
1F
100
AcDbEntity
  8
実線
100
AcDbLine
 10
745.9722935169861
 20
190.5820622581931
 30
0.0
 11
775.4722935169861
 21
190.5820622581931
 31
0.0
  0
LINE
  5
396
102
{ACAD_REACTORS
330
517
102
}
330
1F
100
AcDbEntity
  8
実線
100
AcDbLine
 10
779.9722935169861
 20
184.4320622581932
 30
0.0
 11
779.9722935169861
 21
218.4320622581932
 31
0.0
  0
LINE
  5
397
102
{ACAD_REACTORS
330
517
102
}
330
1F
100
AcDbEntity
  8
実線
100
AcDbLine
 10
779.9722935169861
 20
218.4320622581932
 30
0.0
 11
777.8222935169861
 21
218.4320622581932
 31
0.0
  0
LINE
  5
398
102
{ACAD_REACTORS
330
517
102
}
330
1F
100
AcDbEntity
  8
実線
100
AcDbLine
 10
777.8222935169861
 20
184.4320622581932
 30
0.0
 11
779.9722935169861
 21
184.4320622581932
 31
0.0
  0
LINE
  5
399
102
{ACAD_REACTORS
330
517
102
}
330
1F
100
AcDbEntity
  8
実線
100
AcDbLine
 10
777.8222935169861
 20
184.4320622581932
 30
0.0
 11
777.8222935169861
 21
218.4320622581932
 31
0.0
  0
LINE
  5
39A
102
{ACAD_REACTORS
330
517
102
}
330
1F
100
AcDbEntity
  8
実線
100
AcDbLine
 10
775.4722935169861
 20
190.5820622581931
 30
0.0
 11
775.4722935169861
 21
212.2820622581932
 31
0.0
  0
LINE
  5
39B
102
{ACAD_REACTORS
330
517
102
}
330
1F
100
AcDbEntity
  8
実線
100
AcDbLine
 10
775.4722935169861
 20
190.5820622581931
 30
0.0
 11
777.8222935169861
 21
184.4320622581932
 31
0.0
  0
LINE
  5
39C
102
{ACAD_REACTORS
330
517
102
}
330
1F
100
AcDbEntity
  8
実線
100
AcDbLine
 10
777.8222935169861
 20
218.4320622581932
 30
0.0
 11
775.4722935169861
 21
212.2820622581932
 31
0.0
  0
LINE
  5
39D
102
{ACAD_REACTORS
330
517
102
}
330
1F
100
AcDbEntity
  8
実線
100
AcDbLine
 10
735.8222935169862
 20
182.4320622581932
 30
0.0
 11
735.8222935169862
 21
189.4320622581932
 31
0.0
  0
LINE
  5
39E
102
{ACAD_REACTORS
330
517
102
}
330
1F
100
AcDbEntity
  8
実線
100
AcDbLine
 10
714.1222935169861
 20
189.4320622581932
 30
0.0
 11
714.1222935169861
 21
182.4320622581932
 31
0.0
  0
LINE
  5
39F
102
{ACAD_REACTORS
330
517
102
}
330
1F
100
AcDbEntity
  8
実線
100
AcDbLine
 10
714.1222935169861
 20
182.4320622581932
 30
0.0
 11
735.8222935169862
 21
182.4320622581932
 31
0.0
  0
LINE
  5
3A0
102
{ACAD_REACTORS
330
517
102
}
330
1F
100
AcDbEntity
  8
実線
100
AcDbLine
 10
714.1222935169861
 20
182.4320622581932
 30
0.0
 11
707.9722935169858
 21
180.0820622581932
 31
0.0
  0
LINE
  5
3A1
102
{ACAD_REACTORS
330
517
102
}
330
1F
100
AcDbEntity
  8
実線
100
AcDbLine
 10
741.9722935169862
 20
180.0820622581932
 30
0.0
 11
735.8222935169862
 21
182.4320622581932
 31
0.0
  0
LINE
  5
3A2
102
{ACAD_REACTORS
330
517
102
}
330
1F
100
AcDbEntity
  8
実線
100
AcDbLine
 10
707.9722935169858
 20
177.9320622581932
 30
0.0
 11
741.9722935169862
 21
177.9320622581932
 31
0.0
  0
LINE
  5
3A3
102
{ACAD_REACTORS
330
517
102
}
330
1F
100
AcDbEntity
  8
実線
100
AcDbLine
 10
707.9722935169858
 20
180.0820622581932
 30
0.0
 11
741.9722935169862
 21
180.0820622581932
 31
0.0
  0
LINE
  5
3A4
102
{ACAD_REACTORS
330
517
102
}
330
1F
100
AcDbEntity
  8
実線
100
AcDbLine
 10
741.9722935169862
 20
177.9320622581932
 30
0.0
 11
741.9722935169862
 21
180.0820622581932
 31
0.0
  0
LINE
  5
3A5
102
{ACAD_REACTORS
330
517
102
}
330
1F
100
AcDbEntity
  8
実線
100
AcDbLine
 10
707.9722935169858
 20
180.0820622581932
 30
0.0
 11
707.9722935169858
 21
177.9320622581932
 31
0.0
  0
LINE
  5
3A6
102
{ACAD_REACTORS
330
517
102
}
330
1F
100
AcDbEntity
  8
実線
100
AcDbLine
 10
754.9722935169861
 20
231.6820622581932
 30
0.0
 11
754.9722935169861
 21
305.2820622581931
 31
0.0
  0
LINE
  5
3A7
102
{ACAD_REACTORS
330
517
102
}
330
1F
100
AcDbEntity
  8
実線
100
AcDbLine
 10
694.9722935169861
 20
305.2820622581931
 30
0.0
 11
694.9722935169861
 21
231.6820622581932
 31
0.0
  0
LINE
  5
3A8
102
{ACAD_REACTORS
330
517
102
}
330
1F
100
AcDbEntity
  8
実線
100
AcDbLine
 10
705.0722935169861
 20
424.2320622581932
 30
0.0
 11
705.0722935169861
 21
416.3320622581931
 31
0.0
  0
LINE
  5
3A9
102
{ACAD_REACTORS
330
517
102
}
330
1F
100
AcDbEntity
  8
実線
100
AcDbLine
 10
730.0722935169861
 20
419.782062258193
 30
0.0
 11
730.0722935169861
 21
424.2320622581932
 31
0.0
  0
LINE
  5
3AA
102
{ACAD_REACTORS
330
517
102
}
330
1F
100
AcDbEntity
  8
実線
100
AcDbLine
 10
730.0722935169861
 20
424.2320622581932
 30
0.0
 11
705.0722935169861
 21
424.2320622581932
 31
0.0
  0
LINE
  5
3AB
102
{ACAD_REACTORS
330
517
102
}
330
1F
100
AcDbEntity
  8
実線
100
AcDbLine
 10
716.4722935169861
 20
416.3320622581931
 30
0.0
 11
705.0722935169861
 21
416.3320622581931
 31
0.0
  0
LINE
  5
3AC
102
{ACAD_REACTORS
330
517
102
}
330
1F
100
AcDbEntity
  8
実線
100
AcDbLine
 10
705.0722935169861
 20
411.782062258193
 30
0.0
 11
698.5722935169861
 21
411.782062258193
 31
0.0
  0
LINE
  5
3AD
102
{ACAD_REACTORS
330
517
102
}
330
1F
100
AcDbEntity
  8
実線
100
AcDbLine
 10
698.5722935169861
 20
408.7820622581932
 30
0.0
 11
705.0722935169861
 21
408.7820622581932
 31
0.0
  0
LINE
  5
3AE
102
{ACAD_REACTORS
330
517
102
}
330
1F
100
AcDbEntity
  8
実線
100
AcDbLine
 10
698.5722935169861
 20
411.782062258193
 30
0.0
 11
698.5722935169861
 21
408.7820622581932
 31
0.0
  0
LINE
  5
3AF
102
{ACAD_REACTORS
330
517
102
}
330
1F
100
AcDbEntity
  8
実線
100
AcDbLine
 10
718.9722935169863
 20
414.2320622581932
 30
0.0
 11
705.0722935169861
 21
414.2320622581932
 31
0.0
  0
LINE
  5
3B0
102
{ACAD_REACTORS
330
517
102
}
330
1F
100
AcDbEntity
  8
実線
100
AcDbLine
 10
705.0722935169861
 20
414.2320622581932
 30
0.0
 11
705.0722935169861
 21
406.332062258193
 31
0.0
  0
LINE
  5
3B1
102
{ACAD_REACTORS
330
517
102
}
330
1F
100
AcDbEntity
  8
実線
100
AcDbLine
 10
720.9722935169861
 20
406.332062258193
 30
0.0
 11
705.0722935169861
 21
406.332062258193
 31
0.0
  0
LINE
  5
3B2
102
{ACAD_REACTORS
330
517
102
}
330
1F
100
AcDbEntity
  8
実線
100
AcDbLine
 10
730.0722935169861
 20
406.332062258193
 30
0.0
 11
728.9722935169861
 21
406.332062258193
 31
0.0
  0
LINE
  5
3B3
102
{ACAD_REACTORS
330
517
102
}
330
1F
100
AcDbEntity
  8
実線
100
AcDbLine
 10
730.0722935169861
 20
406.332062258193
 30
0.0
 11
730.0722935169861
 21
409.7820622581933
 31
0.0
  0
LINE
  5
3B4
102
{ACAD_REACTORS
330
517
102
}
330
1F
100
AcDbEntity
  8
実線
100
AcDbLine
 10
716.4722935169861
 20
419.782062258193
 30
0.0
 11
733.4722935169861
 21
419.782062258193
 31
0.0
  0
LINE
  5
3B5
102
{ACAD_REACTORS
330
517
102
}
330
1F
100
AcDbEntity
  8
実線
100
AcDbLine
 10
733.4722935169861
 20
415.282062258193
 30
0.0
 11
733.4722935169861
 21
419.782062258193
 31
0.0
  0
LINE
  5
3B6
102
{ACAD_REACTORS
330
517
102
}
330
1F
100
AcDbEntity
  8
実線
100
AcDbLine
 10
716.4722935169861
 20
419.782062258193
 30
0.0
 11
716.4722935169861
 21
415.282062258193
 31
0.0
  0
LINE
  5
3B7
102
{ACAD_REACTORS
330
517
102
}
330
1F
100
AcDbEntity
  8
実線
100
AcDbLine
 10
733.4722935169861
 20
415.282062258193
 30
0.0
 11
716.4722935169861
 21
415.282062258193
 31
0.0
  0
LINE
  5
3B8
102
{ACAD_REACTORS
330
517
102
}
330
1F
100
AcDbEntity
  8
実線
100
AcDbLine
 10
730.9722935169861
 20
409.7820622581933
 30
0.0
 11
730.9722935169861
 21
415.282062258193
 31
0.0
  0
LINE
  5
3B9
102
{ACAD_REACTORS
330
517
102
}
330
1F
100
AcDbEntity
  8
実線
100
AcDbLine
 10
718.9722935169863
 20
415.282062258193
 30
0.0
 11
718.9722935169863
 21
409.7820622581933
 31
0.0
  0
LINE
  5
3BA
102
{ACAD_REACTORS
330
517
102
}
330
1F
100
AcDbEntity
  8
実線
100
AcDbLine
 10
730.9722935169861
 20
409.7820622581933
 30
0.0
 11
718.9722935169863
 21
409.7820622581933
 31
0.0
  0
LINE
  5
3BB
102
{ACAD_REACTORS
330
517
102
}
330
1F
100
AcDbEntity
  8
実線
100
AcDbLine
 10
716.9722935169858
 20
382.2820622581931
 30
0.0
 11
732.9722935169858
 21
382.2820622581931
 31
0.0
  0
LINE
  5
3BC
102
{ACAD_REACTORS
330
517
102
}
330
1F
100
AcDbEntity
  8
実線
100
AcDbLine
 10
732.9722935169858
 20
371.2820622581932
 30
0.0
 11
732.9722935169858
 21
382.2820622581931
 31
0.0
  0
LINE
  5
3BD
102
{ACAD_REACTORS
330
517
102
}
330
1F
100
AcDbEntity
  8
実線
100
AcDbLine
 10
716.9722935169858
 20
382.2820622581931
 30
0.0
 11
716.9722935169858
 21
371.2820622581932
 31
0.0
  0
LINE
  5
3BE
102
{ACAD_REACTORS
330
517
102
}
330
1F
100
AcDbEntity
  8
実線
100
AcDbLine
 10
717.9722935169863
 20
394.0820622581931
 30
0.0
 11
731.9722935169862
 21
394.0820622581931
 31
0.0
  0
LINE
  5
3BF
102
{ACAD_REACTORS
330
517
102
}
330
1F
100
AcDbEntity
  8
実線
100
AcDbLine
 10
731.9722935169862
 20
389.0820622581931
 30
0.0
 11
731.9722935169862
 21
394.0820622581931
 31
0.0
  0
LINE
  5
3C0
102
{ACAD_REACTORS
330
517
102
}
330
1F
100
AcDbEntity
  8
実線
100
AcDbLine
 10
717.9722935169863
 20
394.0820622581931
 30
0.0
 11
717.9722935169863
 21
389.0820622581931
 31
0.0
  0
LINE
  5
3C1
102
{ACAD_REACTORS
330
517
102
}
330
1F
100
AcDbEntity
  8
実線
100
AcDbLine
 10
717.9722935169863
 20
389.0820622581931
 30
0.0
 11
731.9722935169862
 21
389.0820622581931
 31
0.0
  0
LINE
  5
3C2
102
{ACAD_REACTORS
330
517
102
}
330
1F
100
AcDbEntity
  8
実線
100
AcDbLine
 10
731.9722935169862
 20
382.2820622581931
 30
0.0
 11
731.9722935169862
 21
389.0820622581931
 31
0.0
  0
LINE
  5
3C3
102
{ACAD_REACTORS
330
517
102
}
330
1F
100
AcDbEntity
  8
実線
100
AcDbLine
 10
717.9722935169863
 20
389.0820622581931
 30
0.0
 11
717.9722935169863
 21
382.2820622581931
 31
0.0
  0
LINE
  5
3C4
102
{ACAD_REACTORS
330
517
102
}
330
1F
100
AcDbEntity
  8
実線
100
AcDbLine
 10
728.9722935169861
 20
394.0820622581931
 30
0.0
 11
728.9722935169861
 21
409.7820622581933
 31
0.0
  0
LINE
  5
3C5
102
{ACAD_REACTORS
330
517
102
}
330
1F
100
AcDbEntity
  8
実線
100
AcDbLine
 10
720.9722935169861
 20
409.7820622581933
 30
0.0
 11
720.9722935169861
 21
394.0820622581931
 31
0.0
  0
LINE
  5
3C6
102
{ACAD_REACTORS
330
517
102
}
330
1F
100
AcDbEntity
  8
実線
100
AcDbLine
 10
754.9722935169861
 20
319.2820622581931
 30
0.0
 11
754.9722935169861
 21
367.2820622581931
 31
0.0
  0
LINE
  5
3C7
102
{ACAD_REACTORS
330
517
102
}
330
1F
100
AcDbEntity
  8
実線
100
AcDbLine
 10
694.9722935169861
 20
367.2820622581931
 30
0.0
 11
694.9722935169861
 21
319.2820622581931
 31
0.0
  0
LINE
  5
3C8
102
{ACAD_REACTORS
330
517
102
}
330
1F
100
AcDbEntity
  8
実線
100
AcDbLine
 10
694.9722935169861
 20
319.2820622581931
 30
0.0
 11
754.9722935169861
 21
319.2820622581931
 31
0.0
  0
LINE
  5
3C9
102
{ACAD_REACTORS
330
517
102
}
330
1F
100
AcDbEntity
  8
実線
100
AcDbLine
 10
754.9722935169861
 20
305.2820622581931
 30
0.0
 11
754.9722935169861
 21
319.2820622581931
 31
0.0
  0
LINE
  5
3CA
102
{ACAD_REACTORS
330
517
102
}
330
1F
100
AcDbEntity
  8
実線
100
AcDbLine
 10
694.9722935169861
 20
319.2820622581931
 30
0.0
 11
694.9722935169861
 21
305.2820622581931
 31
0.0
  0
LINE
  5
3CB
102
{ACAD_REACTORS
330
517
102
}
330
1F
100
AcDbEntity
  8
実線
100
AcDbLine
 10
754.9722935169861
 20
305.2820622581931
 30
0.0
 11
694.9722935169861
 21
305.2820622581931
 31
0.0
  0
LINE
  5
3CC
102
{ACAD_REACTORS
330
517
102
}
330
1F
100
AcDbEntity
  8
実線
100
AcDbLine
 10
705.0722935169861
 20
421.7820622581932
 30
0.0
 11
698.5722935169861
 21
421.7820622581932
 31
0.0
  0
LINE
  5
3CD
102
{ACAD_REACTORS
330
517
102
}
330
1F
100
AcDbEntity
  8
実線
100
AcDbLine
 10
698.5722935169861
 20
418.7820622581932
 30
0.0
 11
705.0722935169861
 21
418.7820622581932
 31
0.0
  0
LINE
  5
3CE
102
{ACAD_REACTORS
330
517
102
}
330
1F
100
AcDbEntity
  8
実線
100
AcDbLine
 10
698.5722935169861
 20
421.7820622581932
 30
0.0
 11
698.5722935169861
 21
418.7820622581932
 31
0.0
  0
LINE
  5
3CF
102
{ACAD_REACTORS
330
517
102
}
330
1F
100
AcDbEntity
  8
実線
100
AcDbLine
 10
703.5722935169863
 20
421.7820622581932
 30
0.0
 11
703.5722935169863
 21
428.2820622581931
 31
0.0
  0
LINE
  5
3D0
102
{ACAD_REACTORS
330
517
102
}
330
1F
100
AcDbEntity
  8
実線
100
AcDbLine
 10
703.5722935169863
 20
411.782062258193
 30
0.0
 11
703.5722935169863
 21
418.7820622581932
 31
0.0
  0
LINE
  5
3D1
102
{ACAD_REACTORS
330
517
102
}
330
1F
100
AcDbEntity
  8
実線
100
AcDbLine
 10
703.5722935169863
 20
408.7820622581932
 30
0.0
 11
703.5722935169863
 21
371.2820622581932
 31
0.0
  0
LINE
  5
3D2
102
{ACAD_REACTORS
330
517
102
}
330
1F
100
AcDbEntity
  8
実線
100
AcDbLine
 10
730.0722935169861
 20
424.2320622581932
 30
0.0
 11
730.0722935169861
 21
428.2820622581931
 31
0.0
  0
LINE
  5
3D3
102
{ACAD_REACTORS
330
517
102
}
330
1F
100
AcDbEntity
  8
実線
100
AcDbLine
 10
730.0722935169861
 20
394.0820622581931
 30
0.0
 11
730.0722935169861
 21
406.332062258193
 31
0.0
  0
LINE
  5
3D4
102
{ACAD_REACTORS
330
517
102
}
330
1F
100
AcDbEntity
  8
実線
100
AcDbLine
 10
730.0722935169861
 20
428.2820622581931
 30
0.0
 11
703.5722935169863
 21
428.2820622581931
 31
0.0
  0
LINE
  5
3D5
102
{ACAD_REACTORS
330
517
102
}
330
1F
100
AcDbEntity
  8
実線
100
AcDbLine
 10
716.9722935169858
 20
372.7820622581932
 30
0.0
 11
703.5722935169863
 21
372.7820622581932
 31
0.0
  0
LINE
  5
3D6
102
{ACAD_REACTORS
330
517
102
}
330
1F
100
AcDbEntity
  8
実線
100
AcDbLine
 10
738.5722935169861
 20
372.7820622581932
 30
0.0
 11
732.9722935169858
 21
372.7820622581932
 31
0.0
  0
LINE
  5
3D7
102
{ACAD_REACTORS
330
517
102
}
330
1F
100
AcDbEntity
  8
実線
100
AcDbLine
 10
738.5722935169861
 20
371.2820622581932
 30
0.0
 11
738.5722935169861
 21
372.7820622581932
 31
0.0
  0
LINE
  5
3D8
102
{ACAD_REACTORS
330
517
102
}
330
1F
100
AcDbEntity
  8
実線
100
AcDbLine
 10
745.9722935169861
 20
189.4320622581932
 30
0.0
 11
703.9722935169861
 21
189.4320622581932
 31
0.0
  0
LINE
  5
3D9
102
{ACAD_REACTORS
330
517
102
}
330
1F
100
AcDbEntity
  8
実線
100
AcDbLine
 10
745.9722935169861
 20
189.4320622581932
 30
0.0
 11
745.9722935169861
 21
218.1820622581932
 31
0.0
  0
LINE
  5
3DA
102
{ACAD_REACTORS
330
517
102
}
330
1F
100
AcDbEntity
  8
実線
100
AcDbLine
 10
703.9722935169861
 20
189.4320622581932
 30
0.0
 11
703.9722935169861
 21
218.1820622581932
 31
0.0
  0
LINE
  5
3DB
102
{ACAD_REACTORS
330
517
102
}
330
1F
100
AcDbEntity
  8
実線
100
AcDbLine
 10
720.4722935169858
 20
209.9320622581932
 30
0.0
 11
703.9722935169861
 21
209.9320622581932
 31
0.0
  0
LINE
  5
3DC
102
{ACAD_REACTORS
330
517
102
}
330
1F
100
AcDbEntity
  8
実線
100
AcDbLine
 10
729.4722935169858
 20
209.9320622581932
 30
0.0
 11
745.9722935169861
 21
209.9320622581932
 31
0.0
  0
LINE
  5
3DD
102
{ACAD_REACTORS
330
517
102
}
330
1F
100
AcDbEntity
  8
実線
100
AcDbLine
 10
745.9722935169861
 20
218.1820622581932
 30
0.0
 11
703.9722935169861
 21
218.1820622581932
 31
0.0
  0
LINE
  5
3DE
102
{ACAD_REACTORS
330
517
102
}
330
1F
100
AcDbEntity
  8
実線
100
AcDbLine
 10
729.4722935169858
 20
209.9320622581932
 30
0.0
 11
729.4722935169858
 21
189.4320622581932
 31
0.0
  0
LINE
  5
3DF
102
{ACAD_REACTORS
330
517
102
}
330
1F
100
AcDbEntity
  8
実線
100
AcDbLine
 10
720.4722935169858
 20
209.9320622581932
 30
0.0
 11
720.4722935169858
 21
189.4320622581932
 31
0.0
  0
LINE
  5
3E0
102
{ACAD_REACTORS
330
517
102
}
330
1F
100
AcDbEntity
  8
実線
100
AcDbLine
 10
752.9722935169862
 20
371.2820622581932
 30
0.0
 11
696.9722935169861
 21
371.2820622581932
 31
0.0
  0
ARC
  5
3E1
102
{ACAD_REACTORS
330
517
102
}
330
1F
100
AcDbEntity
  8
実線
100
AcDbCircle
 10
752.9722935169862
 20
369.2820622581931
 30
0.0
 40
2.0
100
AcDbArc
 50
0.0
 51
90.0
  0
ARC
  5
3E2
102
{ACAD_REACTORS
330
517
102
}
330
1F
100
AcDbEntity
  8
実線
100
AcDbCircle
 10
696.9722935169861
 20
369.2820622581931
 30
0.0
 40
2.0
100
AcDbArc
 50
90.0
 51
180.0
  0
LINE
  5
3E3
102
{ACAD_REACTORS
330
517
102
}
330
1F
100
AcDbEntity
  8
実線
100
AcDbLine
 10
754.9722935169861
 20
367.2820622581931
 30
0.0
 11
754.9722935169861
 21
369.2820622581931
 31
0.0
  0
LINE
  5
3E4
102
{ACAD_REACTORS
330
517
102
}
330
1F
100
AcDbEntity
  8
実線
100
AcDbLine
 10
694.9722935169861
 20
369.2820622581931
 30
0.0
 11
694.9722935169861
 21
367.2820622581931
 31
0.0
  0
LINE
  5
3E5
102
{ACAD_REACTORS
330
517
102
}
330
1F
100
AcDbEntity
  8
実線
100
AcDbLine
 10
754.9722935169861
 20
367.2820622581931
 30
0.0
 11
694.9722935169861
 21
367.2820622581931
 31
0.0
  0
LINE
  5
3E6
102
{ACAD_REACTORS
330
517
102
}
330
1F
100
AcDbEntity
  8
実線
100
AcDbLine
 10
703.9722935169861
 20
218.1820622581932
 30
0.0
 11
694.9722935169859
 21
227.1820622581931
 31
0.0
  0
LINE
  5
3E7
102
{ACAD_REACTORS
330
517
102
}
330
1F
100
AcDbEntity
  8
実線
100
AcDbLine
 10
745.9722935169861
 20
218.1820622581932
 30
0.0
 11
754.9722935169861
 21
227.1820622581933
 31
0.0
  0
LINE
  5
3E8
102
{ACAD_REACTORS
330
517
102
}
330
1F
100
AcDbEntity
  8
実線
100
AcDbLine
 10
754.9722935169861
 20
231.6820622581932
 30
0.0
 11
694.9722935169861
 21
231.6820622581932
 31
0.0
  0
ARC
  5
3E9
102
{ACAD_REACTORS
330
517
102
}
330
1F
100
AcDbEntity
  8
実線
100
AcDbCircle
 10
724.9722935169858
 20
197.1820622581932
 30
0.0
 40
30.0
100
AcDbArc
 50
45.0
 51
135.0
  0
LINE
  5
3EA
102
{ACAD_REACTORS
330
517
102
}
330
1F
100
AcDbEntity
  8
実線
100
AcDbLine
 10
754.9722935169861
 20
227.1820622581933
 30
0.0
 11
754.9722935169861
 21
231.6820622581932
 31
0.0
  0
LINE
  5
3EB
102
{ACAD_REACTORS
330
517
102
}
330
1F
100
AcDbEntity
  8
実線
100
AcDbLine
 10
694.9722935169861
 20
231.6820622581932
 30
0.0
 11
694.9722935169861
 21
227.1820622581933
 31
0.0
  0
CIRCLE
  5
3EC
102
{ACAD_REACTORS
330
518
102
}
330
1F
100
AcDbEntity
  8
実線
100
AcDbCircle
 10
504.9722935169858
 20
201.4320622581932
 30
0.0
 40
17.0
  0
LINE
  5
3ED
102
{ACAD_REACTORS
330
518
102
}
330
1F
100
AcDbEntity
  8
実線
100
AcDbLine
 10
515.8222935169858
 20
182.4320622581932
 30
0.0
 11
515.8222935169858
 21
188.3447592510799
 31
0.0
  0
LINE
  5
3EE
102
{ACAD_REACTORS
330
518
102
}
330
1F
100
AcDbEntity
  8
実線
100
AcDbLine
 10
494.1222935169859
 20
188.3447592510799
 30
0.0
 11
494.1222935169859
 21
182.4320622581932
 31
0.0
  0
LINE
  5
3EF
102
{ACAD_REACTORS
330
518
102
}
330
1F
100
AcDbEntity
  8
実線
100
AcDbLine
 10
515.8222935169858
 20
182.4320622581932
 30
0.0
 11
494.1222935169859
 21
182.4320622581932
 31
0.0
  0
LINE
  5
3F0
102
{ACAD_REACTORS
330
518
102
}
330
1F
100
AcDbEntity
  8
実線
100
AcDbLine
 10
494.1222935169859
 20
182.4320622581932
 30
0.0
 11
487.9722935169858
 21
180.0820622581932
 31
0.0
  0
LINE
  5
3F1
102
{ACAD_REACTORS
330
518
102
}
330
1F
100
AcDbEntity
  8
実線
100
AcDbLine
 10
521.9722935169856
 20
180.0820622581932
 30
0.0
 11
515.8222935169858
 21
182.4320622581932
 31
0.0
  0
LINE
  5
3F2
102
{ACAD_REACTORS
330
518
102
}
330
1F
100
AcDbEntity
  8
実線
100
AcDbLine
 10
521.9722935169856
 20
177.9320622581932
 30
0.0
 11
487.9722935169858
 21
177.9320622581932
 31
0.0
  0
LINE
  5
3F3
102
{ACAD_REACTORS
330
518
102
}
330
1F
100
AcDbEntity
  8
実線
100
AcDbLine
 10
521.9722935169856
 20
180.0820622581932
 30
0.0
 11
487.9722935169858
 21
180.0820622581932
 31
0.0
  0
LINE
  5
3F4
102
{ACAD_REACTORS
330
518
102
}
330
1F
100
AcDbEntity
  8
実線
100
AcDbLine
 10
521.9722935169856
 20
177.9320622581932
 30
0.0
 11
521.9722935169856
 21
180.0820622581932
 31
0.0
  0
LINE
  5
3F5
102
{ACAD_REACTORS
330
518
102
}
330
1F
100
AcDbEntity
  8
実線
100
AcDbLine
 10
487.9722935169858
 20
180.0820622581932
 30
0.0
 11
487.9722935169858
 21
177.9320622581932
 31
0.0
  0
LINE
  5
3F6
102
{ACAD_REACTORS
330
518
102
}
330
1F
100
AcDbEntity
  8
実線
100
AcDbLine
 10
534.9722935169857
 20
231.6820622581932
 30
0.0
 11
534.9722935169857
 21
305.2820622581931
 31
0.0
  0
LINE
  5
3F7
102
{ACAD_REACTORS
330
518
102
}
330
1F
100
AcDbEntity
  8
実線
100
AcDbLine
 10
474.9722935169858
 20
305.2820622581931
 30
0.0
 11
474.9722935169858
 21
231.6820622581932
 31
0.0
  0
LINE
  5
3F8
102
{ACAD_REACTORS
330
518
102
}
330
1F
100
AcDbEntity
  8
実線
100
AcDbLine
 10
495.3722935169858
 20
424.2320622581932
 30
0.0
 11
495.3722935169858
 21
416.3320622581931
 31
0.0
  0
LINE
  5
3F9
102
{ACAD_REACTORS
330
518
102
}
330
1F
100
AcDbEntity
  8
実線
100
AcDbLine
 10
487.4722935169858
 20
424.2320622581932
 30
0.0
 11
495.3722935169858
 21
424.2320622581932
 31
0.0
  0
LINE
  5
3FA
102
{ACAD_REACTORS
330
518
102
}
330
1F
100
AcDbEntity
  8
実線
100
AcDbLine
 10
495.3722935169858
 20
416.3320622581931
 30
0.0
 11
487.4722935169858
 21
416.3320622581931
 31
0.0
  0
CIRCLE
  5
3FB
102
{ACAD_REACTORS
330
518
102
}
330
1F
100
AcDbEntity
  8
実線
100
AcDbCircle
 10
491.4222935169856
 20
410.2820622581933
 30
0.0
 40
1.5
  0
LINE
  5
3FC
102
{ACAD_REACTORS
330
518
102
}
330
1F
100
AcDbEntity
  8
実線
100
AcDbLine
 10
487.4722935169858
 20
414.2320622581932
 30
0.0
 11
495.3722935169858
 21
414.2320622581932
 31
0.0
  0
LINE
  5
3FD
102
{ACAD_REACTORS
330
518
102
}
330
1F
100
AcDbEntity
  8
実線
100
AcDbLine
 10
495.3722935169858
 20
414.2320622581932
 30
0.0
 11
495.3722935169858
 21
406.332062258193
 31
0.0
  0
LINE
  5
3FE
102
{ACAD_REACTORS
330
518
102
}
330
1F
100
AcDbEntity
  8
実線
100
AcDbLine
 10
495.3722935169858
 20
406.332062258193
 30
0.0
 11
487.4722935169858
 21
406.332062258193
 31
0.0
  0
LINE
  5
3FF
102
{ACAD_REACTORS
330
518
102
}
330
1F
100
AcDbEntity
  8
実線
100
AcDbLine
 10
496.4722935169858
 20
415.282062258193
 30
0.0
 11
513.4722935169858
 21
415.282062258193
 31
0.0
  0
LINE
  5
400
102
{ACAD_REACTORS
330
518
102
}
330
1F
100
AcDbEntity
  8
実線
100
AcDbLine
 10
513.4722935169858
 20
419.782062258193
 30
0.0
 11
496.4722935169858
 21
419.782062258193
 31
0.0
  0
LINE
  5
401
102
{ACAD_REACTORS
330
518
102
}
330
1F
100
AcDbEntity
  8
実線
100
AcDbLine
 10
513.4722935169858
 20
415.282062258193
 30
0.0
 11
513.4722935169858
 21
419.782062258193
 31
0.0
  0
LINE
  5
402
102
{ACAD_REACTORS
330
518
102
}
330
1F
100
AcDbEntity
  8
実線
100
AcDbLine
 10
496.4722935169858
 20
419.782062258193
 30
0.0
 11
496.4722935169858
 21
415.282062258193
 31
0.0
  0
LINE
  5
403
102
{ACAD_REACTORS
330
518
102
}
330
1F
100
AcDbEntity
  8
実線
100
AcDbLine
 10
498.9722935169858
 20
409.7820622581933
 30
0.0
 11
510.9722935169858
 21
409.7820622581933
 31
0.0
  0
LINE
  5
404
102
{ACAD_REACTORS
330
518
102
}
330
1F
100
AcDbEntity
  8
実線
100
AcDbLine
 10
510.9722935169858
 20
409.7820622581933
 30
0.0
 11
510.9722935169858
 21
415.282062258193
 31
0.0
  0
LINE
  5
405
102
{ACAD_REACTORS
330
518
102
}
330
1F
100
AcDbEntity
  8
実線
100
AcDbLine
 10
498.9722935169858
 20
415.282062258193
 30
0.0
 11
498.9722935169858
 21
409.7820622581933
 31
0.0
  0
LINE
  5
406
102
{ACAD_REACTORS
330
518
102
}
330
1F
100
AcDbEntity
  8
実線
100
AcDbLine
 10
512.9722935169858
 20
382.2820622581931
 30
0.0
 11
496.9722935169856
 21
382.2820622581931
 31
0.0
  0
LINE
  5
407
102
{ACAD_REACTORS
330
518
102
}
330
1F
100
AcDbEntity
  8
実線
100
AcDbLine
 10
512.9722935169858
 20
371.2820622581932
 30
0.0
 11
512.9722935169858
 21
382.2820622581931
 31
0.0
  0
LINE
  5
408
102
{ACAD_REACTORS
330
518
102
}
330
1F
100
AcDbEntity
  8
実線
100
AcDbLine
 10
496.9722935169856
 20
382.2820622581931
 30
0.0
 11
496.9722935169856
 21
371.2820622581932
 31
0.0
  0
LINE
  5
409
102
{ACAD_REACTORS
330
518
102
}
330
1F
100
AcDbEntity
  8
実線
100
AcDbLine
 10
511.9722935169858
 20
394.0820622581931
 30
0.0
 11
497.9722935169858
 21
394.0820622581931
 31
0.0
  0
LINE
  5
40A
102
{ACAD_REACTORS
330
518
102
}
330
1F
100
AcDbEntity
  8
実線
100
AcDbLine
 10
511.9722935169858
 20
389.0820622581931
 30
0.0
 11
511.9722935169858
 21
394.0820622581931
 31
0.0
  0
LINE
  5
40B
102
{ACAD_REACTORS
330
518
102
}
330
1F
100
AcDbEntity
  8
実線
100
AcDbLine
 10
497.9722935169858
 20
394.0820622581931
 30
0.0
 11
497.9722935169858
 21
389.0820622581931
 31
0.0
  0
LINE
  5
40C
102
{ACAD_REACTORS
330
518
102
}
330
1F
100
AcDbEntity
  8
実線
100
AcDbLine
 10
511.9722935169858
 20
389.0820622581931
 30
0.0
 11
497.9722935169858
 21
389.0820622581931
 31
0.0
  0
LINE
  5
40D
102
{ACAD_REACTORS
330
518
102
}
330
1F
100
AcDbEntity
  8
実線
100
AcDbLine
 10
511.9722935169858
 20
382.2820622581931
 30
0.0
 11
511.9722935169858
 21
389.0820622581931
 31
0.0
  0
LINE
  5
40E
102
{ACAD_REACTORS
330
518
102
}
330
1F
100
AcDbEntity
  8
実線
100
AcDbLine
 10
497.9722935169858
 20
389.0820622581931
 30
0.0
 11
497.9722935169858
 21
382.2820622581931
 31
0.0
  0
LINE
  5
40F
102
{ACAD_REACTORS
330
518
102
}
330
1F
100
AcDbEntity
  8
実線
100
AcDbLine
 10
508.9722935169858
 20
394.0820622581931
 30
0.0
 11
508.9722935169858
 21
409.7820622581933
 31
0.0
  0
LINE
  5
410
102
{ACAD_REACTORS
330
518
102
}
330
1F
100
AcDbEntity
  8
実線
100
AcDbLine
 10
500.9722935169858
 20
409.7820622581933
 30
0.0
 11
500.9722935169858
 21
394.0820622581931
 31
0.0
  0
LINE
  5
411
102
{ACAD_REACTORS
330
518
102
}
330
1F
100
AcDbEntity
  8
実線
100
AcDbLine
 10
474.9722935169858
 20
319.2820622581931
 30
0.0
 11
534.9722935169857
 21
319.2820622581931
 31
0.0
  0
LINE
  5
412
102
{ACAD_REACTORS
330
518
102
}
330
1F
100
AcDbEntity
  8
実線
100
AcDbLine
 10
534.9722935169857
 20
319.2820622581931
 30
0.0
 11
534.9722935169857
 21
367.2820622581931
 31
0.0
  0
LINE
  5
413
102
{ACAD_REACTORS
330
518
102
}
330
1F
100
AcDbEntity
  8
実線
100
AcDbLine
 10
474.9722935169858
 20
367.2820622581931
 30
0.0
 11
474.9722935169858
 21
319.2820622581931
 31
0.0
  0
LINE
  5
414
102
{ACAD_REACTORS
330
518
102
}
330
1F
100
AcDbEntity
  8
実線
100
AcDbLine
 10
474.9722935169858
 20
305.2820622581931
 30
0.0
 11
534.9722935169857
 21
305.2820622581931
 31
0.0
  0
LINE
  5
415
102
{ACAD_REACTORS
330
518
102
}
330
1F
100
AcDbEntity
  8
実線
100
AcDbLine
 10
534.9722935169857
 20
305.2820622581931
 30
0.0
 11
534.9722935169857
 21
319.2820622581931
 31
0.0
  0
LINE
  5
416
102
{ACAD_REACTORS
330
518
102
}
330
1F
100
AcDbEntity
  8
実線
100
AcDbLine
 10
474.9722935169858
 20
319.2820622581931
 30
0.0
 11
474.9722935169858
 21
305.2820622581931
 31
0.0
  0
CIRCLE
  5
417
102
{ACAD_REACTORS
330
518
102
}
330
1F
100
AcDbEntity
  8
実線
100
AcDbCircle
 10
491.4222935169856
 20
420.282062258193
 30
0.0
 40
1.5
  0
LINE
  5
418
102
{ACAD_REACTORS
330
518
102
}
330
1F
100
AcDbEntity
  8
実線
100
AcDbLine
 10
496.4722935169858
 20
372.7820622581932
 30
0.0
 11
487.4722935169858
 21
372.7820622581932
 31
0.0
  0
LINE
  5
419
102
{ACAD_REACTORS
330
518
102
}
330
1F
100
AcDbEntity
  8
実線
100
AcDbLine
 10
485.9722935169858
 20
371.2820622581932
 30
0.0
 11
485.9722935169858
 21
428.2820622581931
 31
0.0
  0
LINE
  5
41A
102
{ACAD_REACTORS
330
518
102
}
330
1F
100
AcDbEntity
  8
実線
100
AcDbLine
 10
487.4722935169858
 20
372.7820622581932
 30
0.0
 11
487.4722935169858
 21
428.2820622581931
 31
0.0
  0
LINE
  5
41B
102
{ACAD_REACTORS
330
518
102
}
330
1F
100
AcDbEntity
  8
実線
100
AcDbLine
 10
487.4722935169858
 20
428.2820622581931
 30
0.0
 11
485.9722935169858
 21
428.2820622581931
 31
0.0
  0
LINE
  5
41C
102
{ACAD_REACTORS
330
518
102
}
330
1F
100
AcDbEntity
  8
実線
100
AcDbLine
 10
485.9722935169858
 20
371.2820622581932
 30
0.0
 11
486.9157157681431
 21
371.2820622581932
 31
0.0
  0
LINE
  5
41D
102
{ACAD_REACTORS
330
518
102
}
330
1F
100
AcDbEntity
  8
実線
100
AcDbLine
 10
496.4722935169858
 20
371.2820622581932
 30
0.0
 11
496.4722935169858
 21
372.7820622581932
 31
0.0
  0
LINE
  5
41E
102
{ACAD_REACTORS
330
518
102
}
330
1F
100
AcDbEntity
  8
実線
100
AcDbLine
 10
483.9722935169858
 20
189.4320622581932
 30
0.0
 11
492.9306989381935
 21
189.4320622581932
 31
0.0
  0
LINE
  5
41F
102
{ACAD_REACTORS
330
518
102
}
330
1F
100
AcDbEntity
  8
実線
100
AcDbLine
 10
483.9722935169858
 20
189.4320622581932
 30
0.0
 11
483.9722935169858
 21
218.1820622581932
 31
0.0
  0
LINE
  5
420
102
{ACAD_REACTORS
330
518
102
}
330
1F
100
AcDbEntity
  8
実線
100
AcDbLine
 10
525.9722935169858
 20
189.4320622581932
 30
0.0
 11
517.0138880957781
 21
189.4320622581932
 31
0.0
  0
LINE
  5
421
102
{ACAD_REACTORS
330
518
102
}
330
1F
100
AcDbEntity
  8
実線
100
AcDbLine
 10
525.9722935169858
 20
189.4320622581932
 30
0.0
 11
525.9722935169858
 21
218.1820622581932
 31
0.0
  0
LINE
  5
422
102
{ACAD_REACTORS
330
518
102
}
330
1F
100
AcDbEntity
  8
実線
100
AcDbLine
 10
483.9722935169858
 20
209.9320622581932
 30
0.0
 11
490.2498616526502
 21
209.9320622581932
 31
0.0
  0
LINE
  5
423
102
{ACAD_REACTORS
330
518
102
}
330
1F
100
AcDbEntity
  8
実線
100
AcDbLine
 10
525.9722935169858
 20
209.9320622581932
 30
0.0
 11
519.6947253813213
 21
209.9320622581932
 31
0.0
  0
LINE
  5
424
102
{ACAD_REACTORS
330
518
102
}
330
1F
100
AcDbEntity
  8
実線
100
AcDbLine
 10
486.9157157681431
 20
371.2820622581932
 30
0.0
 11
532.9722935169858
 21
371.2820622581932
 31
0.0
  0
LINE
  5
425
102
{ACAD_REACTORS
330
518
102
}
330
1F
100
AcDbEntity
  8
実線
100
AcDbLine
 10
476.9722935169858
 20
371.2820622581932
 30
0.0
 11
485.9722935169858
 21
371.2820622581932
 31
0.0
  0
ARC
  5
426
102
{ACAD_REACTORS
330
518
102
}
330
1F
100
AcDbEntity
  8
実線
100
AcDbCircle
 10
532.9722935169858
 20
369.2820622581931
 30
0.0
 40
2.0
100
AcDbArc
 50
0.0
 51
90.0
  0
ARC
  5
427
102
{ACAD_REACTORS
330
518
102
}
330
1F
100
AcDbEntity
  8
実線
100
AcDbCircle
 10
476.9722935169858
 20
369.2820622581931
 30
0.0
 40
2.0
100
AcDbArc
 50
90.0
 51
180.0
  0
LINE
  5
428
102
{ACAD_REACTORS
330
518
102
}
330
1F
100
AcDbEntity
  8
実線
100
AcDbLine
 10
534.9722935169857
 20
367.2820622581931
 30
0.0
 11
534.9722935169857
 21
369.2820622581931
 31
0.0
  0
LINE
  5
429
102
{ACAD_REACTORS
330
518
102
}
330
1F
100
AcDbEntity
  8
実線
100
AcDbLine
 10
474.9722935169858
 20
369.2820622581931
 30
0.0
 11
474.9722935169858
 21
367.2820622581931
 31
0.0
  0
LINE
  5
42A
102
{ACAD_REACTORS
330
518
102
}
330
1F
100
AcDbEntity
  8
実線
100
AcDbLine
 10
534.9722935169857
 20
367.2820622581931
 30
0.0
 11
474.9722935169858
 21
367.2820622581931
 31
0.0
  0
LINE
  5
42B
102
{ACAD_REACTORS
330
518
102
}
330
1F
100
AcDbEntity
  8
実線
100
AcDbLine
 10
483.9722935169858
 20
218.1820622581932
 30
0.0
 11
474.9722935169858
 21
227.1820622581933
 31
0.0
  0
LINE
  5
42C
102
{ACAD_REACTORS
330
518
102
}
330
1F
100
AcDbEntity
  8
実線
100
AcDbLine
 10
507.8770310266413
 20
218.1820622581932
 30
0.0
 11
525.9722935169858
 21
218.1820622581932
 31
0.0
  0
LINE
  5
42D
102
{ACAD_REACTORS
330
518
102
}
330
1F
100
AcDbEntity
  8
実線
100
AcDbLine
 10
483.9722935169858
 20
218.1820622581932
 30
0.0
 11
502.0675560073303
 21
218.1820622581932
 31
0.0
  0
LINE
  5
42E
102
{ACAD_REACTORS
330
518
102
}
330
1F
100
AcDbEntity
  8
実線
100
AcDbLine
 10
525.9722935169858
 20
218.1820622581932
 30
0.0
 11
534.9722935169857
 21
227.1820622581933
 31
0.0
  0
ARC
  5
42F
102
{ACAD_REACTORS
330
518
102
}
330
1F
100
AcDbEntity
  8
実線
100
AcDbCircle
 10
504.9722935169858
 20
197.1820622581932
 30
0.0
 40
30.0
100
AcDbArc
 50
45.0
 51
135.0
  0
LINE
  5
430
102
{ACAD_REACTORS
330
518
102
}
330
1F
100
AcDbEntity
  8
実線
100
AcDbLine
 10
534.9722935169857
 20
227.1820622581933
 30
0.0
 11
534.9722935169857
 21
231.6820622581932
 31
0.0
  0
LINE
  5
431
102
{ACAD_REACTORS
330
518
102
}
330
1F
100
AcDbEntity
  8
実線
100
AcDbLine
 10
474.9722935169858
 20
231.6820622581932
 30
0.0
 11
474.9722935169858
 21
227.1820622581933
 31
0.0
  0
LINE
  5
432
102
{ACAD_REACTORS
330
518
102
}
330
1F
100
AcDbEntity
  8
実線
100
AcDbLine
 10
534.9722935169857
 20
231.6820622581932
 30
0.0
 11
474.9722935169858
 21
231.6820622581932
 31
0.0
  0
CIRCLE
  5
433
102
{ACAD_REACTORS
330
51A
102
}
330
1F
100
AcDbEntity
  8
実線
100
AcDbCircle
 10
64.97229351698582
 20
201.4320622581932
 30
0.0
 40
17.0
  0
LINE
  5
434
102
{ACAD_REACTORS
330
51A
102
}
330
1F
100
AcDbEntity
  8
実線
100
AcDbLine
 10
75.82229351698583
 20
182.4320622581932
 30
0.0
 11
75.82229351698583
 21
188.3447592510799
 31
0.0
  0
LINE
  5
435
102
{ACAD_REACTORS
330
51A
102
}
330
1F
100
AcDbEntity
  8
実線
100
AcDbLine
 10
54.12229351698582
 20
188.3447592510799
 30
0.0
 11
54.12229351698582
 21
182.4320622581932
 31
0.0
  0
LINE
  5
436
102
{ACAD_REACTORS
330
51A
102
}
330
1F
100
AcDbEntity
  8
実線
100
AcDbLine
 10
54.12229351698582
 20
182.4320622581932
 30
0.0
 11
47.97229351698582
 21
180.0820622581932
 31
0.0
  0
LINE
  5
437
102
{ACAD_REACTORS
330
51A
102
}
330
1F
100
AcDbEntity
  8
実線
100
AcDbLine
 10
81.97229351698581
 20
180.0820622581932
 30
0.0
 11
75.82229351698583
 21
182.4320622581932
 31
0.0
  0
LINE
  5
438
102
{ACAD_REACTORS
330
51A
102
}
330
1F
100
AcDbEntity
  8
実線
100
AcDbLine
 10
54.12229351698582
 20
182.4320622581932
 30
0.0
 11
75.82229351698583
 21
182.4320622581932
 31
0.0
  0
LINE
  5
439
102
{ACAD_REACTORS
330
51A
102
}
330
1F
100
AcDbEntity
  8
実線
100
AcDbLine
 10
81.97229351698581
 20
177.9320622581932
 30
0.0
 11
81.97229351698581
 21
180.0820622581932
 31
0.0
  0
LINE
  5
43A
102
{ACAD_REACTORS
330
51A
102
}
330
1F
100
AcDbEntity
  8
実線
100
AcDbLine
 10
47.97229351698582
 20
180.0820622581932
 30
0.0
 11
47.97229351698582
 21
177.9320622581932
 31
0.0
  0
LINE
  5
43B
102
{ACAD_REACTORS
330
51A
102
}
330
1F
100
AcDbEntity
  8
実線
100
AcDbLine
 10
47.97229351698582
 20
177.9320622581932
 30
0.0
 11
81.97229351698581
 21
177.9320622581932
 31
0.0
  0
LINE
  5
43C
102
{ACAD_REACTORS
330
51A
102
}
330
1F
100
AcDbEntity
  8
実線
100
AcDbLine
 10
47.97229351698582
 20
180.0820622581932
 30
0.0
 11
81.97229351698581
 21
180.0820622581932
 31
0.0
  0
LINE
  5
43D
102
{ACAD_REACTORS
330
51A
102
}
330
1F
100
AcDbEntity
  8
実線
100
AcDbLine
 10
94.97229351698582
 20
231.6820622581932
 30
0.0
 11
94.97229351698582
 21
305.2820622581931
 31
0.0
  0
LINE
  5
43E
102
{ACAD_REACTORS
330
51A
102
}
330
1F
100
AcDbEntity
  8
実線
100
AcDbLine
 10
34.97229351698582
 20
305.2820622581931
 30
0.0
 11
34.97229351698582
 21
231.6820622581932
 31
0.0
  0
LINE
  5
43F
102
{ACAD_REACTORS
330
51A
102
}
330
1F
100
AcDbEntity
  8
実線
100
AcDbLine
 10
74.57229351698583
 20
416.3320622581931
 30
0.0
 11
74.57229351698583
 21
424.2320622581932
 31
0.0
  0
LINE
  5
440
102
{ACAD_REACTORS
330
51A
102
}
330
1F
100
AcDbEntity
  8
実線
100
AcDbLine
 10
74.57229351698583
 20
424.2320622581932
 30
0.0
 11
82.47229351698582
 21
424.2320622581932
 31
0.0
  0
LINE
  5
441
102
{ACAD_REACTORS
330
51A
102
}
330
1F
100
AcDbEntity
  8
実線
100
AcDbLine
 10
82.47229351698582
 20
416.3320622581931
 30
0.0
 11
74.57229351698583
 21
416.3320622581931
 31
0.0
  0
LINE
  5
442
102
{ACAD_REACTORS
330
51A
102
}
330
1F
100
AcDbEntity
  8
実線
100
AcDbLine
 10
74.57229351698583
 20
414.2320622581932
 30
0.0
 11
82.47229351698582
 21
414.2320622581932
 31
0.0
  0
LINE
  5
443
102
{ACAD_REACTORS
330
51A
102
}
330
1F
100
AcDbEntity
  8
実線
100
AcDbLine
 10
82.47229351698582
 20
406.332062258193
 30
0.0
 11
74.57229351698583
 21
406.332062258193
 31
0.0
  0
LINE
  5
444
102
{ACAD_REACTORS
330
51A
102
}
330
1F
100
AcDbEntity
  8
実線
100
AcDbLine
 10
74.57229351698583
 20
406.332062258193
 30
0.0
 11
74.57229351698583
 21
414.2320622581932
 31
0.0
  0
LINE
  5
445
102
{ACAD_REACTORS
330
51A
102
}
330
1F
100
AcDbEntity
  8
実線
100
AcDbLine
 10
73.47229351698581
 20
415.282062258193
 30
0.0
 11
73.47229351698581
 21
419.782062258193
 31
0.0
  0
LINE
  5
446
102
{ACAD_REACTORS
330
51A
102
}
330
1F
100
AcDbEntity
  8
実線
100
AcDbLine
 10
56.47229351698581
 20
419.782062258193
 30
0.0
 11
56.47229351698581
 21
415.282062258193
 31
0.0
  0
LINE
  5
447
102
{ACAD_REACTORS
330
51A
102
}
330
1F
100
AcDbEntity
  8
実線
100
AcDbLine
 10
73.47229351698581
 20
419.782062258193
 30
0.0
 11
56.47229351698581
 21
419.782062258193
 31
0.0
  0
LINE
  5
448
102
{ACAD_REACTORS
330
51A
102
}
330
1F
100
AcDbEntity
  8
実線
100
AcDbLine
 10
56.47229351698581
 20
415.282062258193
 30
0.0
 11
73.47229351698581
 21
415.282062258193
 31
0.0
  0
LINE
  5
449
102
{ACAD_REACTORS
330
51A
102
}
330
1F
100
AcDbEntity
  8
実線
100
AcDbLine
 10
70.97229351698581
 20
409.7820622581933
 30
0.0
 11
70.97229351698581
 21
415.282062258193
 31
0.0
  0
LINE
  5
44A
102
{ACAD_REACTORS
330
51A
102
}
330
1F
100
AcDbEntity
  8
実線
100
AcDbLine
 10
58.97229351698581
 20
415.282062258193
 30
0.0
 11
58.97229351698581
 21
409.7820622581933
 31
0.0
  0
LINE
  5
44B
102
{ACAD_REACTORS
330
51A
102
}
330
1F
100
AcDbEntity
  8
実線
100
AcDbLine
 10
58.97229351698581
 20
409.7820622581933
 30
0.0
 11
70.97229351698581
 21
409.7820622581933
 31
0.0
  0
LINE
  5
44C
102
{ACAD_REACTORS
330
51A
102
}
330
1F
100
AcDbEntity
  8
実線
100
AcDbLine
 10
72.97229351698582
 20
371.2820622581932
 30
0.0
 11
72.97229351698582
 21
382.2820622581931
 31
0.0
  0
LINE
  5
44D
102
{ACAD_REACTORS
330
51A
102
}
330
1F
100
AcDbEntity
  8
実線
100
AcDbLine
 10
56.97229351698581
 20
382.2820622581931
 30
0.0
 11
56.97229351698581
 21
371.2820622581932
 31
0.0
  0
LINE
  5
44E
102
{ACAD_REACTORS
330
51A
102
}
330
1F
100
AcDbEntity
  8
実線
100
AcDbLine
 10
72.97229351698582
 20
382.2820622581931
 30
0.0
 11
56.97229351698581
 21
382.2820622581931
 31
0.0
  0
LINE
  5
44F
102
{ACAD_REACTORS
330
51A
102
}
330
1F
100
AcDbEntity
  8
実線
100
AcDbLine
 10
71.97229351698581
 20
389.0820622581931
 30
0.0
 11
71.97229351698581
 21
394.0820622581931
 31
0.0
  0
LINE
  5
450
102
{ACAD_REACTORS
330
51A
102
}
330
1F
100
AcDbEntity
  8
実線
100
AcDbLine
 10
57.97229351698582
 20
394.0820622581931
 30
0.0
 11
57.97229351698582
 21
389.0820622581931
 31
0.0
  0
LINE
  5
451
102
{ACAD_REACTORS
330
51A
102
}
330
1F
100
AcDbEntity
  8
実線
100
AcDbLine
 10
71.97229351698581
 20
394.0820622581931
 30
0.0
 11
57.97229351698582
 21
394.0820622581931
 31
0.0
  0
LINE
  5
452
102
{ACAD_REACTORS
330
51A
102
}
330
1F
100
AcDbEntity
  8
実線
100
AcDbLine
 10
71.97229351698581
 20
382.2820622581931
 30
0.0
 11
71.97229351698581
 21
389.0820622581931
 31
0.0
  0
LINE
  5
453
102
{ACAD_REACTORS
330
51A
102
}
330
1F
100
AcDbEntity
  8
実線
100
AcDbLine
 10
57.97229351698582
 20
389.0820622581931
 30
0.0
 11
57.97229351698582
 21
382.2820622581931
 31
0.0
  0
LINE
  5
454
102
{ACAD_REACTORS
330
51A
102
}
330
1F
100
AcDbEntity
  8
実線
100
AcDbLine
 10
71.97229351698581
 20
389.0820622581931
 30
0.0
 11
57.97229351698582
 21
389.0820622581931
 31
0.0
  0
LINE
  5
455
102
{ACAD_REACTORS
330
51A
102
}
330
1F
100
AcDbEntity
  8
実線
100
AcDbLine
 10
68.97229351698581
 20
394.0820622581931
 30
0.0
 11
68.97229351698581
 21
409.7820622581933
 31
0.0
  0
LINE
  5
456
102
{ACAD_REACTORS
330
51A
102
}
330
1F
100
AcDbEntity
  8
実線
100
AcDbLine
 10
60.97229351698581
 20
409.7820622581933
 30
0.0
 11
60.97229351698581
 21
394.0820622581931
 31
0.0
  0
LINE
  5
457
102
{ACAD_REACTORS
330
51A
102
}
330
1F
100
AcDbEntity
  8
実線
100
AcDbLine
 10
94.97229351698582
 20
319.2820622581931
 30
0.0
 11
94.97229351698582
 21
367.2820622581931
 31
0.0
  0
LINE
  5
458
102
{ACAD_REACTORS
330
51A
102
}
330
1F
100
AcDbEntity
  8
実線
100
AcDbLine
 10
34.97229351698582
 20
367.2820622581931
 30
0.0
 11
34.97229351698582
 21
319.2820622581931
 31
0.0
  0
LINE
  5
459
102
{ACAD_REACTORS
330
51A
102
}
330
1F
100
AcDbEntity
  8
実線
100
AcDbLine
 10
94.97229351698582
 20
367.2820622581931
 30
0.0
 11
34.97229351698582
 21
367.2820622581931
 31
0.0
  0
LINE
  5
45A
102
{ACAD_REACTORS
330
51A
102
}
330
1F
100
AcDbEntity
  8
実線
100
AcDbLine
 10
94.97229351698582
 20
305.2820622581931
 30
0.0
 11
94.97229351698582
 21
319.2820622581931
 31
0.0
  0
LINE
  5
45B
102
{ACAD_REACTORS
330
51A
102
}
330
1F
100
AcDbEntity
  8
実線
100
AcDbLine
 10
34.97229351698582
 20
319.2820622581931
 30
0.0
 11
34.97229351698582
 21
305.2820622581931
 31
0.0
  0
LINE
  5
45C
102
{ACAD_REACTORS
330
51A
102
}
330
1F
100
AcDbEntity
  8
実線
100
AcDbLine
 10
94.97229351698582
 20
319.2820622581931
 30
0.0
 11
34.97229351698582
 21
319.2820622581931
 31
0.0
  0
LINE
  5
45D
102
{ACAD_REACTORS
330
51A
102
}
330
1F
100
AcDbEntity
  8
実線
100
AcDbLine
 10
94.97229351698582
 20
305.2820622581931
 30
0.0
 11
34.97229351698582
 21
305.2820622581931
 31
0.0
  0
LINE
  5
45E
102
{ACAD_REACTORS
330
51A
102
}
330
1F
100
AcDbEntity
  8
実線
100
AcDbLine
 10
83.97229351698582
 20
428.2820622581931
 30
0.0
 11
83.97229351698582
 21
371.2820622581932
 31
0.0
  0
LINE
  5
45F
102
{ACAD_REACTORS
330
51A
102
}
330
1F
100
AcDbEntity
  8
実線
100
AcDbLine
 10
83.97229351698582
 20
428.2820622581931
 30
0.0
 11
82.47229351698582
 21
428.2820622581931
 31
0.0
  0
LINE
  5
460
102
{ACAD_REACTORS
330
51A
102
}
330
1F
100
AcDbEntity
  8
実線
100
AcDbLine
 10
82.47229351698582
 20
428.2820622581931
 30
0.0
 11
82.47229351698582
 21
372.7820622581932
 31
0.0
  0
LINE
  5
461
102
{ACAD_REACTORS
330
51A
102
}
330
1F
100
AcDbEntity
  8
実線
100
AcDbLine
 10
83.97229351698582
 20
372.7820622581932
 30
0.0
 11
73.47229351698581
 21
372.7820622581932
 31
0.0
  0
LINE
  5
462
102
{ACAD_REACTORS
330
51A
102
}
330
1F
100
AcDbEntity
  8
実線
100
AcDbLine
 10
73.47229351698581
 20
371.2820622581932
 30
0.0
 11
73.47229351698581
 21
372.7820622581932
 31
0.0
  0
LINE
  5
463
102
{ACAD_REACTORS
330
51A
102
}
330
1F
100
AcDbEntity
  8
実線
100
AcDbLine
 10
85.97229351698581
 20
189.4320622581932
 30
0.0
 11
77.01388809577804
 21
189.4320622581932
 31
0.0
  0
LINE
  5
464
102
{ACAD_REACTORS
330
51A
102
}
330
1F
100
AcDbEntity
  8
実線
100
AcDbLine
 10
85.97229351698581
 20
189.4320622581932
 30
0.0
 11
85.97229351698581
 21
218.1820622581932
 31
0.0
  0
LINE
  5
465
102
{ACAD_REACTORS
330
51A
102
}
330
1F
100
AcDbEntity
  8
実線
100
AcDbLine
 10
43.97229351698581
 20
189.4320622581932
 30
0.0
 11
52.93069893819356
 21
189.4320622581932
 31
0.0
  0
LINE
  5
466
102
{ACAD_REACTORS
330
51A
102
}
330
1F
100
AcDbEntity
  8
実線
100
AcDbLine
 10
43.97229351698581
 20
189.4320622581932
 30
0.0
 11
43.97229351698581
 21
218.1820622581932
 31
0.0
  0
LINE
  5
467
102
{ACAD_REACTORS
330
51A
102
}
330
1F
100
AcDbEntity
  8
実線
100
AcDbLine
 10
62.06755600733021
 20
218.1820622581932
 30
0.0
 11
43.97229351698581
 21
218.1820622581932
 31
0.0
  0
LINE
  5
468
102
{ACAD_REACTORS
330
51A
102
}
330
1F
100
AcDbEntity
  8
実線
100
AcDbLine
 10
85.97229351698581
 20
218.1820622581932
 30
0.0
 11
67.87703102664145
 21
218.1820622581932
 31
0.0
  0
LINE
  5
469
102
{ACAD_REACTORS
330
51A
102
}
330
1F
100
AcDbEntity
  8
実線
100
AcDbLine
 10
43.97229351698581
 20
209.9320622581932
 30
0.0
 11
50.24986165265031
 21
209.9320622581932
 31
0.0
  0
LINE
  5
46A
102
{ACAD_REACTORS
330
51A
102
}
330
1F
100
AcDbEntity
  8
実線
100
AcDbLine
 10
85.97229351698581
 20
209.9320622581932
 30
0.0
 11
79.69472538132129
 21
209.9320622581932
 31
0.0
  0
LINE
  5
46B
102
{ACAD_REACTORS
330
51A
102
}
330
1F
100
AcDbEntity
  8
実線
100
AcDbLine
 10
92.97229351698581
 20
371.2820622581932
 30
0.0
 11
36.97229351698581
 21
371.2820622581932
 31
0.0
  0
ARC
  5
46C
102
{ACAD_REACTORS
330
51A
102
}
330
1F
100
AcDbEntity
  8
実線
100
AcDbCircle
 10
92.97229351698581
 20
369.2820622581931
 30
0.0
 40
2.0
100
AcDbArc
 50
0.0
 51
90.0
  0
ARC
  5
46D
102
{ACAD_REACTORS
330
51A
102
}
330
1F
100
AcDbEntity
  8
実線
100
AcDbCircle
 10
36.97229351698581
 20
369.2820622581931
 30
0.0
 40
2.0
100
AcDbArc
 50
90.0
 51
180.0
  0
LINE
  5
46E
102
{ACAD_REACTORS
330
51A
102
}
330
1F
100
AcDbEntity
  8
実線
100
AcDbLine
 10
94.97229351698582
 20
367.2820622581931
 30
0.0
 11
94.97229351698582
 21
369.2820622581931
 31
0.0
  0
LINE
  5
46F
102
{ACAD_REACTORS
330
51A
102
}
330
1F
100
AcDbEntity
  8
実線
100
AcDbLine
 10
34.97229351698582
 20
369.2820622581931
 30
0.0
 11
34.97229351698582
 21
367.2820622581931
 31
0.0
  0
LINE
  5
470
102
{ACAD_REACTORS
330
51A
102
}
330
1F
100
AcDbEntity
  8
実線
100
AcDbLine
 10
34.97229351698582
 20
227.1820622581933
 30
0.0
 11
43.97229351698581
 21
218.1820622581932
 31
0.0
  0
LINE
  5
471
102
{ACAD_REACTORS
330
51A
102
}
330
1F
100
AcDbEntity
  8
実線
100
AcDbLine
 10
34.97229351698582
 20
231.6820622581932
 30
0.0
 11
94.97229351698582
 21
231.6820622581932
 31
0.0
  0
LINE
  5
472
102
{ACAD_REACTORS
330
51A
102
}
330
1F
100
AcDbEntity
  8
実線
100
AcDbLine
 10
94.97229351698582
 20
227.1820622581933
 30
0.0
 11
94.97229351698582
 21
231.6820622581932
 31
0.0
  0
LINE
  5
473
102
{ACAD_REACTORS
330
51A
102
}
330
1F
100
AcDbEntity
  8
実線
100
AcDbLine
 10
34.97229351698582
 20
231.6820622581932
 30
0.0
 11
34.97229351698582
 21
227.1820622581933
 31
0.0
  0
LINE
  5
474
102
{ACAD_REACTORS
330
51A
102
}
330
1F
100
AcDbEntity
  8
実線
100
AcDbLine
 10
94.97229351698582
 20
227.1820622581933
 30
0.0
 11
85.97229351698581
 21
218.1820622581932
 31
0.0
  0
ARC
  5
475
102
{ACAD_REACTORS
330
51A
102
}
330
1F
100
AcDbEntity
  8
実線
100
AcDbCircle
 10
64.97229351698582
 20
197.1820622581932
 30
0.0
 40
30.0
100
AcDbArc
 50
45.0
 51
135.0
  0
LINE
  5
476
102
{ACAD_REACTORS
330
519
102
}
330
1F
100
AcDbEntity
  8
実線
100
AcDbLine
 10
335.4722935169858
 20
212.2820622581932
 30
0.0
 11
305.9722935169858
 21
212.2820622581932
 31
0.0
  0
LINE
  5
477
102
{ACAD_REACTORS
330
519
102
}
330
1F
100
AcDbEntity
  8
実線
100
AcDbLine
 10
305.9722935169858
 20
190.5820622581931
 30
0.0
 11
335.4722935169858
 21
190.5820622581931
 31
0.0
  0
LINE
  5
478
102
{ACAD_REACTORS
330
519
102
}
330
1F
100
AcDbEntity
  8
実線
100
AcDbLine
 10
335.4722935169858
 20
190.5820622581931
 30
0.0
 11
335.4722935169858
 21
212.2820622581932
 31
0.0
  0
LINE
  5
479
102
{ACAD_REACTORS
330
519
102
}
330
1F
100
AcDbEntity
  8
実線
100
AcDbLine
 10
335.4722935169858
 20
190.5820622581931
 30
0.0
 11
337.8222935169858
 21
184.4320622581932
 31
0.0
  0
LINE
  5
47A
102
{ACAD_REACTORS
330
519
102
}
330
1F
100
AcDbEntity
  8
実線
100
AcDbLine
 10
337.8222935169858
 20
218.4320622581932
 30
0.0
 11
335.4722935169858
 21
212.2820622581932
 31
0.0
  0
LINE
  5
47B
102
{ACAD_REACTORS
330
519
102
}
330
1F
100
AcDbEntity
  8
実線
100
AcDbLine
 10
339.9722935169858
 20
184.4320622581932
 30
0.0
 11
339.9722935169858
 21
218.4320622581932
 31
0.0
  0
LINE
  5
47C
102
{ACAD_REACTORS
330
519
102
}
330
1F
100
AcDbEntity
  8
実線
100
AcDbLine
 10
337.8222935169858
 20
184.4320622581932
 30
0.0
 11
337.8222935169858
 21
218.4320622581932
 31
0.0
  0
LINE
  5
47D
102
{ACAD_REACTORS
330
519
102
}
330
1F
100
AcDbEntity
  8
実線
100
AcDbLine
 10
339.9722935169858
 20
218.4320622581932
 30
0.0
 11
337.8222935169858
 21
218.4320622581932
 31
0.0
  0
LINE
  5
47E
102
{ACAD_REACTORS
330
519
102
}
330
1F
100
AcDbEntity
  8
実線
100
AcDbLine
 10
337.8222935169858
 20
184.4320622581932
 30
0.0
 11
339.9722935169858
 21
184.4320622581932
 31
0.0
  0
LINE
  5
47F
102
{ACAD_REACTORS
330
519
102
}
330
1F
100
AcDbEntity
  8
実線
100
AcDbLine
 10
234.4722935169858
 20
190.5820622581931
 30
0.0
 11
263.9722935169858
 21
190.5820622581931
 31
0.0
  0
LINE
  5
480
102
{ACAD_REACTORS
330
519
102
}
330
1F
100
AcDbEntity
  8
実線
100
AcDbLine
 10
263.9722935169858
 20
212.2820622581932
 30
0.0
 11
234.4722935169858
 21
212.2820622581932
 31
0.0
  0
LINE
  5
481
102
{ACAD_REACTORS
330
519
102
}
330
1F
100
AcDbEntity
  8
実線
100
AcDbLine
 10
229.9722935169858
 20
184.4320622581932
 30
0.0
 11
232.1222935169858
 21
184.4320622581932
 31
0.0
  0
LINE
  5
482
102
{ACAD_REACTORS
330
519
102
}
330
1F
100
AcDbEntity
  8
実線
100
AcDbLine
 10
232.1222935169858
 20
218.4320622581932
 30
0.0
 11
229.9722935169858
 21
218.4320622581932
 31
0.0
  0
LINE
  5
483
102
{ACAD_REACTORS
330
519
102
}
330
1F
100
AcDbEntity
  8
実線
100
AcDbLine
 10
229.9722935169858
 20
184.4320622581932
 30
0.0
 11
229.9722935169858
 21
218.4320622581932
 31
0.0
  0
LINE
  5
484
102
{ACAD_REACTORS
330
519
102
}
330
1F
100
AcDbEntity
  8
実線
100
AcDbLine
 10
234.4722935169858
 20
212.2820622581932
 30
0.0
 11
232.1222935169858
 21
218.4320622581932
 31
0.0
  0
LINE
  5
485
102
{ACAD_REACTORS
330
519
102
}
330
1F
100
AcDbEntity
  8
実線
100
AcDbLine
 10
232.1222935169858
 20
184.4320622581932
 30
0.0
 11
234.4722935169858
 21
190.5820622581931
 31
0.0
  0
LINE
  5
486
102
{ACAD_REACTORS
330
519
102
}
330
1F
100
AcDbEntity
  8
実線
100
AcDbLine
 10
232.1222935169858
 20
218.4320622581932
 30
0.0
 11
232.1222935169858
 21
184.4320622581932
 31
0.0
  0
LINE
  5
487
102
{ACAD_REACTORS
330
519
102
}
330
1F
100
AcDbEntity
  8
実線
100
AcDbLine
 10
234.4722935169858
 20
212.2820622581932
 30
0.0
 11
234.4722935169858
 21
190.5820622581931
 31
0.0
  0
LINE
  5
488
102
{ACAD_REACTORS
330
519
102
}
330
1F
100
AcDbEntity
  8
実線
100
AcDbLine
 10
295.8222935169858
 20
182.4320622581932
 30
0.0
 11
295.8222935169858
 21
189.4320622581932
 31
0.0
  0
LINE
  5
489
102
{ACAD_REACTORS
330
519
102
}
330
1F
100
AcDbEntity
  8
実線
100
AcDbLine
 10
274.1222935169858
 20
189.4320622581932
 30
0.0
 11
274.1222935169858
 21
182.4320622581932
 31
0.0
  0
LINE
  5
48A
102
{ACAD_REACTORS
330
519
102
}
330
1F
100
AcDbEntity
  8
実線
100
AcDbLine
 10
301.9722935169858
 20
177.9320622581932
 30
0.0
 11
301.9722935169858
 21
180.0820622581932
 31
0.0
  0
LINE
  5
48B
102
{ACAD_REACTORS
330
519
102
}
330
1F
100
AcDbEntity
  8
実線
100
AcDbLine
 10
267.9722935169858
 20
180.0820622581932
 30
0.0
 11
267.9722935169858
 21
177.9320622581932
 31
0.0
  0
LINE
  5
48C
102
{ACAD_REACTORS
330
519
102
}
330
1F
100
AcDbEntity
  8
実線
100
AcDbLine
 10
301.9722935169858
 20
177.9320622581932
 30
0.0
 11
267.9722935169858
 21
177.9320622581932
 31
0.0
  0
LINE
  5
48D
102
{ACAD_REACTORS
330
519
102
}
330
1F
100
AcDbEntity
  8
実線
100
AcDbLine
 10
274.1222935169858
 20
182.4320622581932
 30
0.0
 11
267.9722935169858
 21
180.0820622581932
 31
0.0
  0
LINE
  5
48E
102
{ACAD_REACTORS
330
519
102
}
330
1F
100
AcDbEntity
  8
実線
100
AcDbLine
 10
301.9722935169858
 20
180.0820622581932
 30
0.0
 11
295.8222935169858
 21
182.4320622581932
 31
0.0
  0
LINE
  5
48F
102
{ACAD_REACTORS
330
519
102
}
330
1F
100
AcDbEntity
  8
実線
100
AcDbLine
 10
267.9722935169858
 20
180.0820622581932
 30
0.0
 11
301.9722935169858
 21
180.0820622581932
 31
0.0
  0
LINE
  5
490
102
{ACAD_REACTORS
330
519
102
}
330
1F
100
AcDbEntity
  8
実線
100
AcDbLine
 10
274.1222935169858
 20
182.4320622581932
 30
0.0
 11
295.8222935169858
 21
182.4320622581932
 31
0.0
  0
LINE
  5
491
102
{ACAD_REACTORS
330
519
102
}
330
1F
100
AcDbEntity
  8
実線
100
AcDbLine
 10
314.9722935169858
 20
231.6820622581932
 30
0.0
 11
254.9722935169858
 21
231.6820622581932
 31
0.0
  0
LINE
  5
492
102
{ACAD_REACTORS
330
519
102
}
330
1F
100
AcDbEntity
  8
実線
100
AcDbLine
 10
314.9722935169858
 20
231.6820622581932
 30
0.0
 11
314.9722935169858
 21
305.2820622581931
 31
0.0
  0
LINE
  5
493
102
{ACAD_REACTORS
330
519
102
}
330
1F
100
AcDbEntity
  8
実線
100
AcDbLine
 10
254.9722935169858
 20
305.2820622581931
 30
0.0
 11
254.9722935169858
 21
231.6820622581932
 31
0.0
  0
LINE
  5
494
102
{ACAD_REACTORS
330
519
102
}
330
1F
100
AcDbEntity
  8
実線
100
AcDbLine
 10
314.9722935169858
 20
305.2820622581931
 30
0.0
 11
254.9722935169858
 21
305.2820622581931
 31
0.0
  0
LINE
  5
495
102
{ACAD_REACTORS
330
519
102
}
330
1F
100
AcDbEntity
  8
実線
100
AcDbLine
 10
311.3722935169858
 20
411.782062258193
 30
0.0
 11
311.3722935169858
 21
408.7820622581932
 31
0.0
  0
LINE
  5
496
102
{ACAD_REACTORS
330
519
102
}
330
1F
100
AcDbEntity
  8
実線
100
AcDbLine
 10
306.3722935169858
 20
408.7820622581932
 30
0.0
 11
311.3722935169858
 21
408.7820622581932
 31
0.0
  0
LINE
  5
497
102
{ACAD_REACTORS
330
519
102
}
330
1F
100
AcDbEntity
  8
実線
100
AcDbLine
 10
311.3722935169858
 20
411.782062258193
 30
0.0
 11
306.3722935169858
 21
411.782062258193
 31
0.0
  0
LINE
  5
498
102
{ACAD_REACTORS
330
519
102
}
330
1F
100
AcDbEntity
  8
実線
100
AcDbLine
 10
276.4722935169858
 20
419.782062258193
 30
0.0
 11
276.4722935169858
 21
415.282062258193
 31
0.0
  0
LINE
  5
499
102
{ACAD_REACTORS
330
519
102
}
330
1F
100
AcDbEntity
  8
実線
100
AcDbLine
 10
279.8722935169858
 20
419.782062258193
 30
0.0
 11
276.4722935169858
 21
419.782062258193
 31
0.0
  0
LINE
  5
49A
102
{ACAD_REACTORS
330
519
102
}
330
1F
100
AcDbEntity
  8
実線
100
AcDbLine
 10
279.8722935169858
 20
415.282062258193
 30
0.0
 11
276.4722935169858
 21
415.282062258193
 31
0.0
  0
LINE
  5
49B
102
{ACAD_REACTORS
330
519
102
}
330
1F
100
AcDbEntity
  8
実線
100
AcDbLine
 10
278.9722935169858
 20
415.282062258193
 30
0.0
 11
278.9722935169858
 21
409.7820622581933
 31
0.0
  0
LINE
  5
49C
102
{ACAD_REACTORS
330
519
102
}
330
1F
100
AcDbEntity
  8
実線
100
AcDbLine
 10
279.8722935169858
 20
409.7820622581933
 30
0.0
 11
278.9722935169858
 21
409.7820622581933
 31
0.0
  0
LINE
  5
49D
102
{ACAD_REACTORS
330
519
102
}
330
1F
100
AcDbEntity
  8
実線
100
AcDbLine
 10
276.9722935169858
 20
382.2820622581931
 30
0.0
 11
276.9722935169858
 21
372.7820622581932
 31
0.0
  0
LINE
  5
49E
102
{ACAD_REACTORS
330
519
102
}
330
1F
100
AcDbEntity
  8
実線
100
AcDbLine
 10
279.8722935169858
 20
382.2820622581931
 30
0.0
 11
276.9722935169858
 21
382.2820622581931
 31
0.0
  0
LINE
  5
49F
102
{ACAD_REACTORS
330
519
102
}
330
1F
100
AcDbEntity
  8
実線
100
AcDbLine
 10
277.9722935169858
 20
394.0820622581931
 30
0.0
 11
277.9722935169858
 21
389.0820622581931
 31
0.0
  0
LINE
  5
4A0
102
{ACAD_REACTORS
330
519
102
}
330
1F
100
AcDbEntity
  8
実線
100
AcDbLine
 10
279.8722935169858
 20
394.0820622581931
 30
0.0
 11
277.9722935169858
 21
394.0820622581931
 31
0.0
  0
LINE
  5
4A1
102
{ACAD_REACTORS
330
519
102
}
330
1F
100
AcDbEntity
  8
実線
100
AcDbLine
 10
277.9722935169858
 20
389.0820622581931
 30
0.0
 11
277.9722935169858
 21
382.2820622581931
 31
0.0
  0
LINE
  5
4A2
102
{ACAD_REACTORS
330
519
102
}
330
1F
100
AcDbEntity
  8
実線
100
AcDbLine
 10
279.8722935169858
 20
389.0820622581931
 30
0.0
 11
277.9722935169858
 21
389.0820622581931
 31
0.0
  0
LINE
  5
4A3
102
{ACAD_REACTORS
330
519
102
}
330
1F
100
AcDbEntity
  8
実線
100
AcDbLine
 10
314.9722935169858
 20
319.2820622581931
 30
0.0
 11
254.9722935169858
 21
319.2820622581931
 31
0.0
  0
LINE
  5
4A4
102
{ACAD_REACTORS
330
519
102
}
330
1F
100
AcDbEntity
  8
実線
100
AcDbLine
 10
314.9722935169858
 20
319.2820622581931
 30
0.0
 11
314.9722935169858
 21
367.2820622581931
 31
0.0
  0
LINE
  5
4A5
102
{ACAD_REACTORS
330
519
102
}
330
1F
100
AcDbEntity
  8
実線
100
AcDbLine
 10
254.9722935169858
 20
367.2820622581931
 30
0.0
 11
254.9722935169858
 21
319.2820622581931
 31
0.0
  0
LINE
  5
4A6
102
{ACAD_REACTORS
330
519
102
}
330
1F
100
AcDbEntity
  8
実線
100
AcDbLine
 10
314.9722935169858
 20
367.2820622581931
 30
0.0
 11
254.9722935169858
 21
367.2820622581931
 31
0.0
  0
LINE
  5
4A7
102
{ACAD_REACTORS
330
519
102
}
330
1F
100
AcDbEntity
  8
実線
100
AcDbLine
 10
314.9722935169858
 20
305.2820622581931
 30
0.0
 11
314.9722935169858
 21
319.2820622581931
 31
0.0
  0
LINE
  5
4A8
102
{ACAD_REACTORS
330
519
102
}
330
1F
100
AcDbEntity
  8
実線
100
AcDbLine
 10
254.9722935169858
 20
319.2820622581931
 30
0.0
 11
254.9722935169858
 21
305.2820622581931
 31
0.0
  0
LINE
  5
4A9
102
{ACAD_REACTORS
330
519
102
}
330
1F
100
AcDbEntity
  8
実線
100
AcDbLine
 10
311.3722935169858
 20
421.7820622581932
 30
0.0
 11
311.3722935169858
 21
418.7820622581932
 31
0.0
  0
LINE
  5
4AA
102
{ACAD_REACTORS
330
519
102
}
330
1F
100
AcDbEntity
  8
実線
100
AcDbLine
 10
306.3722935169858
 20
418.7820622581932
 30
0.0
 11
311.3722935169858
 21
418.7820622581932
 31
0.0
  0
LINE
  5
4AB
102
{ACAD_REACTORS
330
519
102
}
330
1F
100
AcDbEntity
  8
実線
100
AcDbLine
 10
311.3722935169858
 20
421.7820622581932
 30
0.0
 11
306.3722935169858
 21
421.7820622581932
 31
0.0
  0
LINE
  5
4AC
102
{ACAD_REACTORS
330
519
102
}
330
1F
100
AcDbEntity
  8
実線
100
AcDbLine
 10
305.539257318189
 20
371.2820622581932
 30
0.0
 11
306.3722935169858
 21
371.2820622581932
 31
0.0
  0
LINE
  5
4AD
102
{ACAD_REACTORS
330
519
102
}
330
1F
100
AcDbEntity
  8
実線
100
AcDbLine
 10
271.3722935169858
 20
371.2820622581932
 30
0.0
 11
271.3722935169858
 21
372.7820622581932
 31
0.0
  0
LINE
  5
4AE
102
{ACAD_REACTORS
330
519
102
}
330
1F
100
AcDbEntity
  8
実線
100
AcDbLine
 10
306.3722935169858
 20
371.2820622581932
 30
0.0
 11
306.3722935169858
 21
428.2820622581931
 31
0.0
  0
LINE
  5
4AF
102
{ACAD_REACTORS
330
519
102
}
330
1F
100
AcDbEntity
  8
実線
100
AcDbLine
 10
306.3722935169858
 20
428.2820622581931
 30
0.0
 11
279.8722935169858
 21
428.2820622581931
 31
0.0
  0
LINE
  5
4B0
102
{ACAD_REACTORS
330
519
102
}
330
1F
100
AcDbEntity
  8
実線
100
AcDbLine
 10
279.8722935169858
 20
372.7820622581932
 30
0.0
 11
279.8722935169858
 21
428.2820622581931
 31
0.0
  0
LINE
  5
4B1
102
{ACAD_REACTORS
330
519
102
}
330
1F
100
AcDbEntity
  8
実線
100
AcDbLine
 10
279.8722935169858
 20
372.7820622581932
 30
0.0
 11
271.3722935169858
 21
372.7820622581932
 31
0.0
  0
LINE
  5
4B2
102
{ACAD_REACTORS
330
519
102
}
330
1F
100
AcDbEntity
  8
実線
100
AcDbLine
 10
305.9722935169858
 20
189.4320622581932
 30
0.0
 11
263.9722935169858
 21
189.4320622581932
 31
0.0
  0
LINE
  5
4B3
102
{ACAD_REACTORS
330
519
102
}
330
1F
100
AcDbEntity
  8
実線
100
AcDbLine
 10
305.9722935169858
 20
189.4320622581932
 30
0.0
 11
305.9722935169858
 21
218.1820622581932
 31
0.0
  0
LINE
  5
4B4
102
{ACAD_REACTORS
330
519
102
}
330
1F
100
AcDbEntity
  8
実線
100
AcDbLine
 10
263.9722935169858
 20
189.4320622581932
 30
0.0
 11
263.9722935169858
 21
218.1820622581932
 31
0.0
  0
LINE
  5
4B5
102
{ACAD_REACTORS
330
519
102
}
330
1F
100
AcDbEntity
  8
実線
100
AcDbLine
 10
280.4722935169858
 20
209.9320622581932
 30
0.0
 11
263.9722935169858
 21
209.9320622581932
 31
0.0
  0
LINE
  5
4B6
102
{ACAD_REACTORS
330
519
102
}
330
1F
100
AcDbEntity
  8
実線
100
AcDbLine
 10
280.4722935169858
 20
209.9320622581932
 30
0.0
 11
280.4722935169858
 21
189.4320622581932
 31
0.0
  0
LINE
  5
4B7
102
{ACAD_REACTORS
330
519
102
}
330
1F
100
AcDbEntity
  8
実線
100
AcDbLine
 10
289.4722935169858
 20
209.9320622581932
 30
0.0
 11
289.4722935169858
 21
189.4320622581932
 31
0.0
  0
LINE
  5
4B8
102
{ACAD_REACTORS
330
519
102
}
330
1F
100
AcDbEntity
  8
実線
100
AcDbLine
 10
289.4722935169858
 20
209.9320622581932
 30
0.0
 11
305.9722935169858
 21
209.9320622581932
 31
0.0
  0
LINE
  5
4B9
102
{ACAD_REACTORS
330
519
102
}
330
1F
100
AcDbEntity
  8
実線
100
AcDbLine
 10
305.9722935169858
 20
218.1820622581932
 30
0.0
 11
263.9722935169858
 21
218.1820622581932
 31
0.0
  0
LINE
  5
4BA
102
{ACAD_REACTORS
330
519
102
}
330
1F
100
AcDbEntity
  8
実線
100
AcDbLine
 10
314.9722935169858
 20
367.2820622581931
 30
0.0
 11
314.9722935169858
 21
369.2820622581931
 31
0.0
  0
LINE
  5
4BB
102
{ACAD_REACTORS
330
519
102
}
330
1F
100
AcDbEntity
  8
実線
100
AcDbLine
 10
254.9722935169858
 20
369.2820622581931
 30
0.0
 11
254.9722935169858
 21
367.2820622581931
 31
0.0
  0
LINE
  5
4BC
102
{ACAD_REACTORS
330
519
102
}
330
1F
100
AcDbEntity
  8
実線
100
AcDbLine
 10
306.3722935169858
 20
371.2820622581932
 30
0.0
 11
312.9722935169428
 21
371.2820622581932
 31
0.0
  0
LINE
  5
4BD
102
{ACAD_REACTORS
330
519
102
}
330
1F
100
AcDbEntity
  8
実線
100
AcDbLine
 10
256.9722935169858
 20
371.2820622581932
 30
0.0
 11
305.539257318189
 21
371.2820622581932
 31
0.0
  0
ARC
  5
4BE
102
{ACAD_REACTORS
330
519
102
}
330
1F
100
AcDbEntity
  8
実線
100
AcDbCircle
 10
312.9722935169858
 20
369.2820622581931
 30
0.0
 40
2.0
100
AcDbArc
 50
0.0
 51
90.0
  0
ARC
  5
4BF
102
{ACAD_REACTORS
330
519
102
}
330
1F
100
AcDbEntity
  8
実線
100
AcDbCircle
 10
256.9722935169858
 20
369.2820622581931
 30
0.0
 40
2.0
100
AcDbArc
 50
90.0
 51
180.0
  0
LINE
  5
4C0
102
{ACAD_REACTORS
330
519
102
}
330
1F
100
AcDbEntity
  8
実線
100
AcDbLine
 10
263.9722935169858
 20
218.1820622581932
 30
0.0
 11
254.9722935169858
 21
227.1820622581931
 31
0.0
  0
LINE
  5
4C1
102
{ACAD_REACTORS
330
519
102
}
330
1F
100
AcDbEntity
  8
実線
100
AcDbLine
 10
305.9722935169858
 20
218.1820622581932
 30
0.0
 11
314.9722935169859
 21
227.1820622581931
 31
0.0
  0
ARC
  5
4C2
102
{ACAD_REACTORS
330
519
102
}
330
1F
100
AcDbEntity
  8
実線
100
AcDbCircle
 10
284.9722935169858
 20
197.1820622581932
 30
0.0
 40
30.0
100
AcDbArc
 50
45.0
 51
135.0
  0
LINE
  5
4C3
102
{ACAD_REACTORS
330
519
102
}
330
1F
100
AcDbEntity
  8
実線
100
AcDbLine
 10
314.9722935169858
 20
227.1820622581933
 30
0.0
 11
314.9722935169858
 21
231.6820622581932
 31
0.0
  0
LINE
  5
4C4
102
{ACAD_REACTORS
330
519
102
}
330
1F
100
AcDbEntity
  8
実線
100
AcDbLine
 10
254.9722935169858
 20
231.6820622581932
 30
0.0
 11
254.9722935169858
 21
227.1820622581933
 31
0.0
  0
LINE
  5
4C5
102
{ACAD_REACTORS
330
516
102
}
330
1F
100
AcDbEntity
  8
中心線
100
AcDbLine
 10
227.9722935169858
 20
41.43206225819321
 30
0.0
 11
341.9722935169858
 21
41.43206225819321
 31
0.0
  0
LINE
  5
4C6
102
{ACAD_REACTORS
330
516
102
}
330
1F
100
AcDbEntity
  8
中心線
100
AcDbLine
 10
284.9722935169858
 20
8.932062258193241
 30
0.0
 11
284.9722935169858
 21
73.93206225819324
 31
0.0
  0
LINE
  5
4C7
102
{ACAD_REACTORS
330
55E
102
}
330
1F
100
AcDbEntity
  8
中心線
100
AcDbLine
 10
227.9722935169858
 20
561.4320622581932
 30
0.0
 11
341.9722935169858
 21
561.4320622581932
 31
0.0
  0
LINE
  5
4C8
102
{ACAD_REACTORS
330
55E
102
}
330
1F
100
AcDbEntity
  8
中心線
100
AcDbLine
 10
284.9722935169858
 20
528.9320622581932
 30
0.0
 11
284.9722935169858
 21
593.9320622581932
 31
0.0
  0
LINE
  5
4C9
102
{ACAD_REACTORS
330
517
102
}
330
1F
100
AcDbEntity
  8
中心線
100
AcDbLine
 10
667.9722935169857
 20
201.4320622581932
 30
0.0
 11
781.9722935169858
 21
201.4320622581932
 31
0.0
  0
LINE
  5
4CA
102
{ACAD_REACTORS
330
517
102
}
330
1F
100
AcDbEntity
  8
中心線
100
AcDbLine
 10
724.9722935169858
 20
168.9320622581929
 30
0.0
 11
724.9722935169859
 21
433.1851838763505
 31
0.0
  0
LINE
  5
4CB
102
{ACAD_REACTORS
330
518
102
}
330
1F
100
AcDbEntity
  8
中心線
100
AcDbLine
 10
472.4722935169857
 20
201.4320622581932
 30
0.0
 11
537.4722935169858
 21
201.4320622581933
 31
0.0
  0
LINE
  5
4CC
102
{ACAD_REACTORS
330
518
102
}
330
1F
100
AcDbEntity
  8
中心線
100
AcDbLine
 10
504.9722935169858
 20
168.9320622581931
 30
0.0
 11
504.9722935169859
 21
433.1851838763505
 31
0.0
  0
LINE
  5
4CD
102
{ACAD_REACTORS
330
519
102
}
330
1F
100
AcDbEntity
  8
中心線
100
AcDbLine
 10
227.9722935169858
 20
201.4320622581932
 30
0.0
 11
341.9722935169858
 21
201.4320622581932
 31
0.0
  0
LINE
  5
4CE
102
{ACAD_REACTORS
330
519
102
}
330
1F
100
AcDbEntity
  8
中心線
100
AcDbLine
 10
284.9722935169858
 20
168.9320622581932
 30
0.0
 11
284.9722935169857
 21
433.1851838763505
 31
0.0
  0
LINE
  5
4CF
102
{ACAD_REACTORS
330
51A
102
}
330
1F
100
AcDbEntity
  8
中心線
100
AcDbLine
 10
32.47229351698584
 20
201.4320622581932
 30
0.0
 11
97.47229351698582
 21
201.4320622581932
 31
0.0
  0
LINE
  5
4D0
102
{ACAD_REACTORS
330
51A
102
}
330
1F
100
AcDbEntity
  8
中心線
100
AcDbLine
 10
64.97229351698582
 20
168.9320622581932
 30
0.0
 11
64.97229351698582
 21
433.1851838763505
 31
0.0
  0
ENDSEC
  0
SECTION
  2
OBJECTS
  0
DICTIONARY
  5
C
330
0
100
AcDbDictionary
281
     1
  3
ACAD_CIP_PREVIOUS_PRODUCT_INFO
350
25D
  3
ACAD_COLOR
350
253
  3
ACAD_DETAILVIEWSTYLE
350
256
  3
ACAD_GROUP
350
D
  3
ACAD_LAYOUT
350
1A
  3
ACAD_MATERIAL
350
43
  3
ACAD_MLEADERSTYLE
350
5B
  3
ACAD_MLINESTYLE
350
17
  3
ACAD_PLOTSETTINGS
350
19
  3
ACAD_PLOTSTYLENAME
350
E
  3
ACAD_SCALELIST
350
47
  3
ACAD_SECTIONVIEWSTYLE
350
254
  3
ACAD_TABLESTYLE
350
59
  3
ACAD_VISUALSTYLE
350
2A
  3
ACDB_RECOMPOSE_DATA
350
56B
  3
AcDbVariableDictionary
350
208
  3
DWGPROPS
350
56C
  0
DICTIONARY
  5
264
330
2
100
AcDbDictionary
280
     1
281
     1
  3
ACAD_LAYERSTATES
360
265
  0
DICTIONARY
  5
4D1
330
10
100
AcDbDictionary
280
     1
281
     1
  3
ADSK_XREC_LAYER_RECONCILED
360
4D2
  0
DICTIONARY
  5
260
330
25F
100
AcDbDictionary
280
     1
281
     1
  3
ADSK_XREC_LAYER_RECONCILED
360
4D3
  0
DICTIONARY
  5
262
330
261
100
AcDbDictionary
280
     1
281
     1
  3
ADSK_XREC_LAYER_RECONCILED
360
4D4
  0
DICTIONARY
  5
365
330
1F
100
AcDbDictionary
280
     1
281
     1
  3
ACAD_SORTENTS
360
366
  0
XRECORD
  5
25D
102
{ACAD_REACTORS
330
C
102
}
330
C
100
AcDbXrecord
280
     1
300
ACDLT
300
2016
300
ACDLT_F_S
  0
DICTIONARY
  5
253
102
{ACAD_REACTORS
330
C
102
}
330
C
100
AcDbDictionary
281
     1
  0
DICTIONARY
  5
256
102
{ACAD_REACTORS
330
C
102
}
330
C
100
AcDbDictionary
281
     1
  3
Metric50
350
257
  0
DICTIONARY
  5
D
102
{ACAD_REACTORS
330
C
102
}
330
C
100
AcDbDictionary
281
     1
  3
*A1
350
516
  3
*A2
350
517
  3
*A3
350
518
  3
*A4
350
519
  3
*A5
350
51A
  3
*A7
350
55E
  0
DICTIONARY
  5
1A
102
{ACAD_REACTORS
330
C
102
}
330
C
100
AcDbDictionary
281
     1
  3
Layout1
350
1E
  3
Model
350
22
  3
レイアウト1
350
258
  0
DICTIONARY
  5
43
102
{ACAD_REACTORS
330
C
102
}
330
C
100
AcDbDictionary
281
     1
  3
ByBlock
350
45
  3
ByLayer
350
44
  3
Global
350
46
  0
DICTIONARY
  5
5B
102
{ACAD_REACTORS
330
C
102
}
330
C
100
AcDbDictionary
281
     1
  3
Standard
350
5C
  0
DICTIONARY
  5
17
102
{ACAD_REACTORS
330
C
102
}
330
C
100
AcDbDictionary
281
     1
  3
Standard
350
18
  0
DICTIONARY
  5
19
102
{ACAD_REACTORS
330
C
102
}
330
C
100
AcDbDictionary
281
     1
  0
ACDBDICTIONARYWDFLT
  5
E
102
{ACAD_REACTORS
330
C
102
}
330
C
100
AcDbDictionary
281
     1
  3
Normal
350
F
100
AcDbDictionaryWithDefault
340
F
  0
DICTIONARY
  5
47
102
{ACAD_REACTORS
330
C
102
}
330
C
100
AcDbDictionary
281
     1
  3
A0
350
48
  3
A1
350
49
  3
A2
350
4A
  3
A3
350
4B
  3
A4
350
4C
  3
A5
350
4D
  3
A6
350
4E
  3
A7
350
4F
  3
A8
350
50
  3
A9
350
51
  3
B0
350
52
  3
B1
350
53
  3
B2
350
54
  3
B3
350
55
  3
B4
350
56
  3
B5
350
57
  3
B6
350
58
  0
DICTIONARY
  5
254
102
{ACAD_REACTORS
330
C
102
}
330
C
100
AcDbDictionary
281
     1
  3
Metric50
350
255
  0
DICTIONARY
  5
59
102
{ACAD_REACTORS
330
C
102
}
330
C
100
AcDbDictionary
281
     1
  3
Standard
350
5A
  0
DICTIONARY
  5
2A
102
{ACAD_REACTORS
330
C
102
}
330
C
100
AcDbDictionary
281
     1
  3
2dWireframe
350
2F
  3
Basic
350
32
  3
Brighten
350
36
  3
ColorChange
350
3A
  3
Conceptual
350
34
  3
Dim
350
35
  3
EdgeColorOff
350
3D
  3
Facepattern
350
39
  3
Flat
350
2B
  3
FlatWithEdges
350
2C
  3
Gouraud
350
2D
  3
GouraudWithEdges
350
2E
  3
Hidden
350
31
  3
JitterOff
350
3B
  3
Linepattern
350
38
  3
OverhangOff
350
3C
  3
Realistic
350
33
  3
Shaded
350
42
  3
Shaded with edges
350
41
  3
Shades of Gray
350
3E
  3
Sketchy
350
3F
  3
Thicken
350
37
  3
Wireframe
350
30
  3
X-Ray
350
40
  0
XRECORD
  5
56B
102
{ACAD_REACTORS
330
C
102
}
330
C
100
AcDbXrecord
280
     1
 90
        1
330
5A
  0
DICTIONARY
  5
208
102
{ACAD_REACTORS
330
C
102
}
330
C
100
AcDbDictionary
281
     1
  3
CANNOSCALE
350
216
  3
CENTEREXE
350
20F
  3
CENTERLTYPEFILE
350
210
  3
CMLEADERSTYLE
350
20A
  3
CTABLESTYLE
350
209
  3
CVIEWDETAILSTYLE
350
4D5
  3
CVIEWSECTIONSTYLE
350
4D6
  3
DIMASSOC
350
211
  3
HIDETEXT
350
212
  3
INDEXCTL
350
563
  3
LAYEREVAL
350
4D8
  3
LAYERNOTIFY
350
4D9
  3
LIGHTINGUNITS
350
4D7
  3
LOFTANG1
350
566
  3
LOFTANG2
350
567
  3
LONGITUDE
350
568
  3
MSLTSCALE
350
217
  3
PSOLHEIGHT
350
565
  3
PSOLWIDTH
350
564
  3
SORTENTS
350
562
  3
XCLIPFRAME
350
569
  0
XRECORD
  5
56C
102
{ACAD_REACTORS
330
C
102
}
330
C
100
AcDbXrecord
280
     1
  1
DWGPROPS COOKIE
  2

  3

  4

  6
File was created by TR2_DExp
  7

  8
fujino
  9

300
=
301
=
302
=
303
=
304
=
305
=
306
=
307
=
308
=
309
=
 40
0.012290625
 41
2455188.75
 42
2459738.468463102
  1

 90
        0
  0
DICTIONARY
  5
265
102
{ACAD_REACTORS
330
264
102
}
330
264
100
AcDbDictionary
281
     1
  0
XRECORD
  5
4D2
102
{ACAD_REACTORS
330
4D1
102
}
330
4D1
100
AcDbXrecord
280
     1
290
     1
  0
XRECORD
  5
4D3
102
{ACAD_REACTORS
330
260
102
}
330
260
100
AcDbXrecord
280
     1
290
     1
  0
XRECORD
  5
4D4
102
{ACAD_REACTORS
330
262
102
}
330
262
100
AcDbXrecord
280
     1
290
     1
  0
SORTENTSTABLE
  5
366
102
{ACAD_REACTORS
330
365
102
}
330
365
100
AcDbSortentsTable
330
1F
331
3F5
  5
374
331
3F1
  5
370
331
387
  5
433
331
3ED
  5
36C
331
42C
  5
3AB
331
3BE
  5
3E5
331
3E9
  5
410
331
37F
  5
42B
331
428
  5
3A7
331
464
  5
357
331
357
  5
454
331
3BA
  5
3E1
331
353
  5
450
331
460
  5
353
331
49F
  5
2F6
331
37B
  5
427
331
49B
  5
2F2
331
45C
  5
34F
331
458
  5
34B
331
424
  5
3A3
331
3E5
  5
40C
331
420
  5
39F
331
4CD
  5
4CD
331
377
  5
423
331
34F
  5
44C
331
3B6
  5
3DD
331
3E1
  5
408
331
4C9
  5
4C9
331
3DD
  5
404
331
41C
  5
39B
331
373
  5
41F
331
497
  5
2EE
331
34B
  5
448
331
3B2
  5
3D9
331
4C5
  5
4C5
331
3D9
  5
400
331
418
  5
397
331
36F
  5
41B
331
454
  5
347
331
493
  5
2EA
331
347
  5
444
331
3AE
  5
3D5
331
3AA
  5
3D1
331
4C1
  5
318
331
343
  5
440
331
450
  5
343
331
48F
  5
2E6
331
36B
  5
417
331
48B
  5
2E2
331
44C
  5
33F
331
448
  5
33B
331
3D5
  5
3FC
331
414
  5
393
331
410
  5
38F
331
33F
  5
43C
331
3A6
  5
3CD
331
4BD
  5
314
331
3D1
  5
3F8
331
3CD
  5
3F4
331
40C
  5
38B
331
487
  5
2DE
331
33B
  5
438
331
3A2
  5
3C9
331
4B9
  5
310
331
4B5
  5
30C
331
3C9
  5
3F0
331
408
  5
387
331
444
  5
32D
331
483
  5
2DA
331
35F
  5
45C
331
39E
  5
3C5
331
39A
  5
3C1
331
4B1
  5
308
331
35B
  5
458
331
440
  5
329
331
47F
  5
2D6
331
4D0
  5
4D0
331
47B
  5
2D2
331
43C
  5
325
331
438
  5
321
331
3C5
  5
3EC
331
404
  5
383
331
400
  5
37F
331
396
  5
3BD
331
4AD
  5
304
331
3C1
  5
3E8
331
3FC
  5
37B
331
477
  5
2CE
331
392
  5
3B9
331
4A9
  5
300
331
4A5
  5
2FC
331
3F8
  5
377
331
434
  5
31D
331
473
  5
368
331
367
  5
413
331
38E
  5
3B5
331
38A
  5
436
331
4A1
  5
2F8
331
430
  5
3AF
331
46F
  5
362
331
363
  5
460
331
46B
  5
35E
331
3F4
  5
373
331
3F0
  5
36F
331
386
  5
432
331
42F
  5
3AE
331
3EC
  5
36B
331
467
  5
35A
331
382
  5
42E
331
42B
  5
3AA
331
3BD
  5
3E4
331
3E8
  5
40F
331
37E
  5
42A
331
463
  5
356
331
356
  5
453
331
37A
  5
426
331
49E
  5
2F5
331
352
  5
44F
331
3B9
  5
3E0
331
45F
  5
352
331
49A
  5
2F1
331
45B
  5
34E
331
427
  5
3A6
331
423
  5
3A2
331
3E4
  5
40B
331
4CC
  5
4CC
331
3E0
  5
407
331
41F
  5
39E
331
376
  5
422
331
34E
  5
44B
331
3B5
  5
3DC
331
4C8
  5
4C8
331
3DC
  5
403
331
41B
  5
39A
331
372
  5
41E
331
457
  5
34A
331
496
  5
2ED
331
34A
  5
447
331
3B1
  5
3D8
331
3AD
  5
3D4
331
4C4
  5
31B
331
3D8
  5
3FF
331
36E
  5
41A
331
453
  5
346
331
492
  5
2E9
331
346
  5
443
331
3A9
  5
3D0
331
4C0
  5
317
331
342
  5
43F
331
44F
  5
342
331
48E
  5
2E5
331
36A
  5
416
331
48A
  5
2E1
331
44B
  5
33E
331
417
  5
396
331
413
  5
392
331
3D4
  5
3FB
331
40F
  5
38E
331
33E
  5
43B
331
3A5
  5
3CC
331
4BC
  5
313
331
3D0
  5
3F7
331
4B8
  5
30F
331
3CC
  5
3F3
331
40B
  5
38A
331
447
  5
33A
331
486
  5
2DD
331
33A
  5
437
331
3A1
  5
3C8
331
4B4
  5
30B
331
3C8
  5
3EF
331
443
  5
32C
331
482
  5
2D9
331
35E
  5
45B
331
39D
  5
3C4
331
399
  5
3C0
331
4B0
  5
307
331
43F
  5
328
331
47E
  5
2D5
331
35A
  5
457
331
47A
  5
2D1
331
43B
  5
324
331
407
  5
386
331
3C4
  5
3EB
331
403
  5
382
331
3FF
  5
37E
331
395
  5
3BC
331
4AC
  5
303
331
3C0
  5
3E7
331
3FB
  5
37A
331
437
  5
320
331
476
  5
2CD
331
391
  5
3B8
331
4A8
  5
2FF
331
4A4
  5
2FB
331
433
  5
31C
331
472
  5
367
331
38D
  5
3B4
331
362
  5
45F
331
389
  5
435
331
4A0
  5
2F7
331
46E
  5
361
331
46A
  5
35D
331
3F7
  5
376
331
3F3
  5
372
331
3EF
  5
36E
331
385
  5
431
331
42E
  5
3AD
331
3EB
  5
412
331
466
  5
359
331
381
  5
42D
331
42A
  5
3A9
331
3BC
  5
3E3
331
355
  5
452
331
462
  5
355
331
37D
  5
429
331
379
  5
425
331
49D
  5
2F4
331
351
  5
44E
331
3B8
  5
3DF
331
45E
  5
351
331
45A
  5
34D
331
499
  5
2F0
331
3E7
  5
40E
331
426
  5
3A5
331
422
  5
3A1
331
4CF
  5
4CF
331
3E3
  5
40A
331
4CB
  5
4CB
331
3DF
  5
406
331
41E
  5
39D
331
375
  5
421
331
34D
  5
44A
331
3B4
  5
3DB
331
4C7
  5
4C7
331
3DB
  5
402
331
41A
  5
399
331
371
  5
41D
331
456
  5
349
331
495
  5
2EC
331
349
  5
446
331
3B0
  5
3D7
331
3AC
  5
3D3
331
4C3
  5
31A
331
36D
  5
419
331
452
  5
345
331
491
  5
2E8
331
345
  5
442
331
369
  5
415
331
48D
  5
2E4
331
341
  5
43E
331
3A8
  5
3CF
331
44E
  5
341
331
489
  5
2E0
331
44A
  5
33D
331
3D7
  5
3FE
331
416
  5
395
331
412
  5
391
331
4BF
  5
316
331
3D3
  5
3FA
331
3CF
  5
3F6
331
40E
  5
38D
331
33D
  5
43A
331
3A4
  5
3CB
331
4BB
  5
312
331
4B7
  5
30E
331
3CB
  5
3F2
331
40A
  5
389
331
446
  5
32F
331
485
  5
2DC
331
3A0
  5
3C7
331
39C
  5
3C3
331
4B3
  5
30A
331
442
  5
32B
331
481
  5
2D8
331
35D
  5
45A
331
398
  5
3BF
331
43E
  5
327
331
47D
  5
2D4
331
359
  5
456
331
479
  5
2D0
331
43A
  5
323
331
3C7
  5
3EE
331
406
  5
385
331
402
  5
381
331
4AF
  5
306
331
3C3
  5
3EA
331
3FE
  5
37D
331
394
  5
3BB
331
4AB
  5
302
331
4A7
  5
2FE
331
3FA
  5
379
331
436
  5
31F
331
475
  5
36A
331
390
  5
3B7
331
4A3
  5
2FA
331
432
  5
3B1
331
471
  5
364
331
38C
  5
3B3
331
361
  5
45E
331
388
  5
434
331
46D
  5
360
331
469
  5
35C
331
3F6
  5
375
331
3F2
  5
371
331
3EE
  5
36D
331
42D
  5
3AC
331
3EA
  5
411
331
429
  5
3A8
331
465
  5
358
331
380
  5
42C
331
3BF
  5
3E6
331
3BB
  5
3E2
331
354
  5
451
331
461
  5
354
331
37C
  5
428
331
378
  5
424
331
49C
  5
2F3
331
350
  5
44D
331
45D
  5
350
331
459
  5
34C
331
498
  5
2EF
331
3E6
  5
40D
331
425
  5
3A4
331
421
  5
3A0
331
4CE
  5
4CE
331
3B7
  5
3DE
331
3E2
  5
409
331
4CA
  5
4CA
331
3DE
  5
405
331
41D
  5
39C
331
374
  5
420
331
34C
  5
449
331
3B3
  5
3DA
331
4C6
  5
4C6
331
3DA
  5
401
331
419
  5
398
331
370
  5
41C
331
455
  5
348
331
494
  5
2EB
331
348
  5
445
331
3AF
  5
3D6
331
3AB
  5
3D2
331
4C2
  5
319
331
344
  5
441
331
451
  5
344
331
490
  5
2E7
331
36C
  5
418
331
368
  5
414
331
48C
  5
2E3
331
340
  5
43D
331
44D
  5
340
331
449
  5
33C
331
488
  5
2DF
331
3D6
  5
3FD
331
415
  5
394
331
411
  5
390
331
3A7
  5
3CE
331
4BE
  5
315
331
3D2
  5
3F9
331
3CE
  5
3F5
331
40D
  5
38C
331
33C
  5
439
331
3A3
  5
3CA
331
4BA
  5
311
331
4B6
  5
30D
331
3CA
  5
3F1
331
409
  5
388
331
445
  5
32E
331
484
  5
2DB
331
39F
  5
3C6
331
39B
  5
3C2
331
4B2
  5
309
331
441
  5
32A
331
480
  5
2D7
331
35C
  5
459
331
47C
  5
2D3
331
358
  5
455
331
43D
  5
326
331
478
  5
2CF
331
439
  5
322
331
3C6
  5
3ED
331
405
  5
384
331
401
  5
380
331
397
  5
3BE
331
4AE
  5
305
331
3C2
  5
3E9
331
3FD
  5
37C
331
393
  5
3BA
331
4AA
  5
301
331
4A6
  5
2FD
331
3F9
  5
378
331
435
  5
31E
331
474
  5
369
331
38F
  5
3B6
331
38B
  5
3B2
331
4A2
  5
2F9
331
431
  5
3B0
331
470
  5
363
331
364
  5
461
331
360
  5
45D
331
46C
  5
35F
331
468
  5
35B
  0
ACDBDETAILVIEWSTYLE
  5
257
102
{ACAD_XDICTIONARY
360
5A4
102
}
102
{ACAD_REACTORS
330
256
102
}
330
256
100
AcDbModelDocViewStyle
 70
     0
  3
Metric50
290
     0
100
AcDbDetailViewStyle
 70
     0
 71
     0
 90
        3
 71
     1
340
11
 40
5.0
340
0
 40
5.0
300

 40
0.0
280
     1
 71
     2
340
16
 90
       25
 71
     3
340
11
 40
5.0
 90
        0
 40
15.0
 90
        1
300
%<\AcVar ViewDetailId>% (%<\AcVar ViewScale \f "%sn">%)
 71
     4
340
16
 90
       25
340
16
 90
       25
280
     0
  0
GROUP
  5
516
102
{ACAD_REACTORS
330
D
102
}
330
D
100
AcDbGroup
300

 70
     1
 71
     1
340
4C6
340
4C5
340
364
340
363
340
362
340
361
340
360
340
35F
340
35E
340
35D
340
35C
340
35B
340
35A
340
359
340
358
340
357
340
356
340
355
340
354
340
353
340
352
340
351
340
350
340
34F
340
34E
340
34D
340
34C
340
34B
340
34A
340
349
340
348
340
347
340
346
340
345
340
344
340
343
340
342
340
341
340
340
340
33F
340
33E
340
33D
340
33C
340
33B
340
33A
  0
GROUP
  5
517
102
{ACAD_REACTORS
330
D
102
}
330
D
100
AcDbGroup
300

 70
     1
 71
     1
340
4CA
340
4C9
340
3EB
340
3EA
340
3E9
340
3E8
340
3E7
340
3E6
340
3E5
340
3E4
340
3E3
340
3E2
340
3E1
340
3E0
340
3DF
340
3DE
340
3DD
340
3DC
340
3DB
340
3DA
340
3D9
340
3D8
340
3D7
340
3D6
340
3D5
340
3D4
340
3D3
340
3D2
340
3D1
340
3D0
340
3CF
340
3CE
340
3CD
340
3CC
340
3CB
340
3CA
340
3C9
340
3C8
340
3C7
340
3C6
340
3C5
340
3C4
340
3C3
340
3C2
340
3C1
340
3C0
340
3BF
340
3BE
340
3BD
340
3BC
340
3BB
340
3BA
340
3B9
340
3B8
340
3B7
340
3B6
340
3B5
340
3B4
340
3B3
340
3B2
340
3B1
340
3B0
340
3AF
340
3AE
340
3AD
340
3AC
340
3AB
340
3AA
340
3A9
340
3A8
340
3A7
340
3A6
340
3A5
340
3A4
340
3A3
340
3A2
340
3A1
340
3A0
340
39F
340
39E
340
39D
340
39C
340
39B
340
39A
340
399
340
398
340
397
340
396
340
395
340
394
340
393
340
392
340
391
340
390
340
38F
340
38E
340
38D
340
38C
340
38B
  0
GROUP
  5
518
102
{ACAD_REACTORS
330
D
102
}
330
D
100
AcDbGroup
300

 70
     1
 71
     1
340
4CC
340
4CB
340
432
340
431
340
430
340
42F
340
42E
340
42D
340
42C
340
42B
340
42A
340
429
340
428
340
427
340
426
340
425
340
424
340
423
340
422
340
421
340
420
340
41F
340
41E
340
41D
340
41C
340
41B
340
41A
340
419
340
418
340
417
340
416
340
415
340
414
340
413
340
412
340
411
340
410
340
40F
340
40E
340
40D
340
40C
340
40B
340
40A
340
409
340
408
340
407
340
406
340
405
340
404
340
403
340
402
340
401
340
400
340
3FF
340
3FE
340
3FD
340
3FC
340
3FB
340
3FA
340
3F9
340
3F8
340
3F7
340
3F6
340
3F5
340
3F4
340
3F3
340
3F2
340
3F1
340
3F0
340
3EF
340
3EE
340
3ED
340
3EC
  0
GROUP
  5
519
102
{ACAD_REACTORS
330
D
102
}
330
D
100
AcDbGroup
300

 70
     1
 71
     1
340
4CE
340
4CD
340
4C4
340
4C3
340
4C2
340
4C1
340
4C0
340
4BF
340
4BE
340
4BD
340
4BC
340
4BB
340
4BA
340
4B9
340
4B8
340
4B7
340
4B6
340
4B5
340
4B4
340
4B3
340
4B2
340
4B1
340
4B0
340
4AF
340
4AE
340
4AD
340
4AC
340
4AB
340
4AA
340
4A9
340
4A8
340
4A7
340
4A6
340
4A5
340
4A4
340
4A3
340
4A2
340
4A1
340
4A0
340
49F
340
49E
340
49D
340
49C
340
49B
340
49A
340
499
340
498
340
497
340
496
340
495
340
494
340
493
340
492
340
491
340
490
340
48F
340
48E
340
48D
340
48C
340
48B
340
48A
340
489
340
488
340
487
340
486
340
485
340
484
340
483
340
482
340
481
340
480
340
47F
340
47E
340
47D
340
47C
340
47B
340
47A
340
479
340
478
340
477
340
476
  0
GROUP
  5
51A
102
{ACAD_REACTORS
330
D
102
}
330
D
100
AcDbGroup
300

 70
     1
 71
     1
340
4D0
340
4CF
340
475
340
474
340
473
340
472
340
471
340
470
340
46F
340
46E
340
46D
340
46C
340
46B
340
46A
340
469
340
468
340
467
340
466
340
465
340
464
340
463
340
462
340
461
340
460
340
45F
340
45E
340
45D
340
45C
340
45B
340
45A
340
459
340
458
340
457
340
456
340
455
340
454
340
453
340
452
340
451
340
450
340
44F
340
44E
340
44D
340
44C
340
44B
340
44A
340
449
340
448
340
447
340
446
340
445
340
444
340
443
340
442
340
441
340
440
340
43F
340
43E
340
43D
340
43C
340
43B
340
43A
340
439
340
438
340
437
340
436
340
435
340
434
340
433
  0
GROUP
  5
55E
102
{ACAD_REACTORS
330
D
102
}
330
D
100
AcDbGroup
300

 70
     1
 71
     1
340
38A
340
389
340
388
340
387
340
386
340
385
340
382
340
381
340
380
340
37F
340
37E
340
37D
340
37C
340
37B
340
37A
340
379
340
378
340
377
340
376
340
375
340
374
340
373
340
372
340
371
340
370
340
36F
340
36E
340
36D
340
36C
340
36B
340
36A
340
369
340
368
340
367
340
4C8
340
4C7
  0
LAYOUT
  5
1E
102
{ACAD_XDICTIONARY
360
56D
102
}
102
{ACAD_REACTORS
330
1A
102
}
330
1A
100
AcDbPlotSettings
  1

  2
none_device
  4

  6

 40
0.0
 41
0.0
 42
0.0
 43
0.0
 44
0.0
 45
0.0
 46
0.0
 47
0.0
 48
0.0
 49
0.0
140
0.0
141
0.0
142
1.0
143
1.0
 70
   688
 72
     1
 73
     0
 74
     5
  7

 75
    16
147
1.0
148
0.0
149
0.0
100
AcDbLayout
  1
Layout1
 70
     1
 71
     1
 10
0.0
 20
0.0
 11
420.0
 21
297.0
 12
0.0
 22
0.0
 32
0.0
 14
1.000000000000000E+20
 24
1.000000000000000E+20
 34
1.000000000000000E+20
 15
-1.000000000000000E+20
 25
-1.000000000000000E+20
 35
-1.000000000000000E+20
146
0.0
 13
0.0
 23
0.0
 33
0.0
 16
1.0
 26
0.0
 36
0.0
 17
0.0
 27
1.0
 37
0.0
 76
     0
330
1B
  0
LAYOUT
  5
22
102
{ACAD_XDICTIONARY
360
56F
102
}
102
{ACAD_REACTORS
330
1A
102
}
330
1A
100
AcDbPlotSettings
  1

  2
none_device
  4
Letter_(8.50_x_11.00_Inches)
  6

 40
6.349999999999997
 41
6.349999999999997
 42
6.350005079999997
 43
6.350005079999997
 44
215.9
 45
279.4
 46
0.0
 47
0.0
 48
0.0
 49
0.0
140
0.0
141
0.0
142
1.0
143
1.0
 70
  1712
 72
     1
 73
     0
 74
     0
  7

 75
     0
147
1.0
148
0.0
149
0.0
100
AcDbLayout
  1
Model
 70
     1
 71
     0
 10
-174.535888671875
 20
-162.7524013519287
 11
506.8910827636718
 21
385.7289276123047
 12
0.0
 22
0.0
 32
0.0
 14
-174.535888671875
 24
-162.7524013519287
 34
0.0
 15
506.8910827636718
 25
385.7289276123047
 35
0.0
146
0.0
 13
0.0
 23
0.0
 33
0.0
 16
1.0
 26
0.0
 36
0.0
 17
0.0
 27
1.0
 37
0.0
 76
     0
330
1F
331
29
  0
LAYOUT
  5
258
102
{ACAD_XDICTIONARY
360
5A6
102
}
102
{ACAD_REACTORS
330
1A
102
}
330
1A
100
AcDbPlotSettings
  1

  2
青梅 FX DocuCentre-V C2275 T2
  4

  6

 40
0.0
 41
0.0
 42
0.0
 43
0.0
 44
0.0
 45
0.0
 46
0.0
 47
0.0
 48
0.0
 49
0.0
140
0.0
141
0.0
142
1.0
143
1.0
 70
   688
 72
     0
 73
     0
 74
     5
  7
AutoCAD_PEN.ctb
 75
    16
147
1.0
148
0.0
149
0.0
100
AcDbLayout
  1
レイアウト1
 70
     1
 71
     2
 10
0.0
 20
0.0
 11
12.0
 21
9.0
 12
0.0
 22
0.0
 32
0.0
 14
0.0
 24
0.0
 34
0.0
 15
0.0
 25
0.0
 35
0.0
146
0.0
 13
0.0
 23
0.0
 33
0.0
 16
1.0
 26
0.0
 36
0.0
 17
0.0
 27
1.0
 37
0.0
 76
     0
330
23
  0
MATERIAL
  5
45
102
{ACAD_XDICTIONARY
360
24A
102
}
102
{ACAD_REACTORS
330
43
102
}
330
43
100
AcDbMaterial
  1
ByBlock
  0
MATERIAL
  5
44
102
{ACAD_XDICTIONARY
360
248
102
}
102
{ACAD_REACTORS
330
43
102
}
330
43
100
AcDbMaterial
  1
ByLayer
  0
MATERIAL
  5
46
102
{ACAD_XDICTIONARY
360
24C
102
}
102
{ACAD_REACTORS
330
43
102
}
330
43
100
AcDbMaterial
  1
Global
  0
MLEADERSTYLE
  5
5C
102
{ACAD_REACTORS
330
5B
102
}
330
5B
100
AcDbMLeaderStyle
170
     2
171
     1
172
     0
 90
        2
 40
0.0
 41
0.0
173
     1
 91
-1056964608
340
14
 92
       -2
290
     1
 42
2.0
291
     1
 43
8.0
  3
Standard
 44
4.0
300

342
11
174
     1
178
     6
175
     1
176
     0
 93
-1056964608
 45
4.0
292
     0
297
     0
 46
4.0
 94
-1056964608
 47
1.0
 49
1.0
140
1.0
293
     1
141
0.0
294
     1
177
     0
142
1.0
295
     0
296
     0
143
3.75
1001
ACAD_MLEADERVER
1070
     2
  0
MLINESTYLE
  5
18
102
{ACAD_REACTORS
330
17
102
}
330
17
100
AcDbMlineStyle
  2
STANDARD
 70
     0
  3

 62
   256
 51
90.0
 52
90.0
 71
     2
 49
0.5
 62
   256
  6
BYLAYER
 49
-0.5
 62
   256
  6
BYLAYER
  0
ACDBPLACEHOLDER
  5
F
102
{ACAD_REACTORS
330
E
102
}
330
E
  0
SCALE
  5
48
102
{ACAD_REACTORS
330
47
102
}
330
47
100
AcDbScale
 70
     0
300
1:1
140
1.0
141
1.0
290
     1
  0
SCALE
  5
49
102
{ACAD_REACTORS
330
47
102
}
330
47
100
AcDbScale
 70
     0
300
1:2
140
1.0
141
2.0
290
     0
  0
SCALE
  5
4A
102
{ACAD_REACTORS
330
47
102
}
330
47
100
AcDbScale
 70
     0
300
1:4
140
1.0
141
4.0
290
     0
  0
SCALE
  5
4B
102
{ACAD_REACTORS
330
47
102
}
330
47
100
AcDbScale
 70
     0
300
1:5
140
1.0
141
5.0
290
     0
  0
SCALE
  5
4C
102
{ACAD_REACTORS
330
47
102
}
330
47
100
AcDbScale
 70
     0
300
1:8
140
1.0
141
8.0
290
     0
  0
SCALE
  5
4D
102
{ACAD_REACTORS
330
47
102
}
330
47
100
AcDbScale
 70
     0
300
1:10
140
1.0
141
10.0
290
     0
  0
SCALE
  5
4E
102
{ACAD_REACTORS
330
47
102
}
330
47
100
AcDbScale
 70
     0
300
1:16
140
1.0
141
16.0
290
     0
  0
SCALE
  5
4F
102
{ACAD_REACTORS
330
47
102
}
330
47
100
AcDbScale
 70
     0
300
1:20
140
1.0
141
20.0
290
     0
  0
SCALE
  5
50
102
{ACAD_REACTORS
330
47
102
}
330
47
100
AcDbScale
 70
     0
300
1:30
140
1.0
141
30.0
290
     0
  0
SCALE
  5
51
102
{ACAD_REACTORS
330
47
102
}
330
47
100
AcDbScale
 70
     0
300
1:40
140
1.0
141
40.0
290
     0
  0
SCALE
  5
52
102
{ACAD_REACTORS
330
47
102
}
330
47
100
AcDbScale
 70
     0
300
1:50
140
1.0
141
50.0
290
     0
  0
SCALE
  5
53
102
{ACAD_REACTORS
330
47
102
}
330
47
100
AcDbScale
 70
     0
300
1:100
140
1.0
141
100.0
290
     0
  0
SCALE
  5
54
102
{ACAD_REACTORS
330
47
102
}
330
47
100
AcDbScale
 70
     0
300
2:1
140
2.0
141
1.0
290
     0
  0
SCALE
  5
55
102
{ACAD_REACTORS
330
47
102
}
330
47
100
AcDbScale
 70
     0
300
4:1
140
4.0
141
1.0
290
     0
  0
SCALE
  5
56
102
{ACAD_REACTORS
330
47
102
}
330
47
100
AcDbScale
 70
     0
300
8:1
140
8.0
141
1.0
290
     0
  0
SCALE
  5
57
102
{ACAD_REACTORS
330
47
102
}
330
47
100
AcDbScale
 70
     0
300
10:1
140
10.0
141
1.0
290
     0
  0
SCALE
  5
58
102
{ACAD_REACTORS
330
47
102
}
330
47
100
AcDbScale
 70
     0
300
100:1
140
100.0
141
1.0
290
     0
  0
ACDBSECTIONVIEWSTYLE
  5
255
102
{ACAD_XDICTIONARY
360
5A2
102
}
102
{ACAD_REACTORS
330
254
102
}
330
254
100
AcDbModelDocViewStyle
 70
     0
  3
Metric50
290
     0
100
AcDbSectionViewStyle
 70
     0
 71
     0
 90
      102
 71
     1
340
11
 40
5.0
340
0
340
0
 40
5.0
300
I, O, Q, S, X, Z
 40
10.0
 90
        0
 40
2.5
 90
        0
 71
     2
340
16
 90
       25
340
16
 90
       50
 40
5.0
 40
2.5
 40
5.0
 71
     3
340
11
 40
5.0
 90
        0
 40
15.0
 90
        1
300
%<\AcVar ViewSectionStartId>%-%<\AcVar ViewSectionEndId>% (%<\AcVar ViewScale \f "%sn">%)
 71
     4
300
ANSI31
 40
1.0
 90
        0
290
     0
290
     0
 90
        6
 40
0.0
 40
1.570796326794896
 40
0.2617993877991494
 40
1.308996938995747
 40
-0.2617993877991494
 40
1.832595714594044
  0
TABLESTYLE
  5
5A
102
{ACAD_XDICTIONARY
360
4DA
102
}
102
{ACAD_REACTORS
330
59
102
}
330
59
100
AcDbTableStyle
  3
Standard
 70
     0
 71
     0
 40
1.5
 41
1.5
280
     0
281
     0
  7
Standard
140
4.5
170
     2
 62
     0
 63
     7
283
     0
274
    -2
284
     1
 64
     0
275
    -2
285
     1
 65
     0
276
    -2
286
     1
 66
     0
277
    -2
287
     1
 67
     0
278
    -2
288
     1
 68
     0
279
    -2
289
     1
 69
     0
  7
Standard
140
6.0
170
     5
 62
     0
 63
     7
283
     0
274
    -2
284
     1
 64
     0
275
    -2
285
     1
 65
     0
276
    -2
286
     1
 66
     0
277
    -2
287
     1
 67
     0
278
    -2
288
     1
 68
     0
279
    -2
289
     1
 69
     0
  7
Standard
140
4.5
170
     5
 62
     0
 63
     7
283
     0
274
    -2
284
     1
 64
     0
275
    -2
285
     1
 65
     0
276
    -2
286
     1
 66
     0
277
    -2
287
     1
 67
     0
278
    -2
288
     1
 68
     0
279
    -2
289
     1
 69
     0
  0
VISUALSTYLE
  5
2F
102
{ACAD_XDICTIONARY
360
579
102
}
102
{ACAD_REACTORS
330
2A
102
}
330
2A
100
AcDbVisualStyle
  2

 70
     4
 71
     0
 72
     2
 73
     0
 90
        0
 40
-0.6
 41
-30.0
 62
     5
 63
     7
 74
     1
 91
        4
 64
     7
 65
   257
 75
     1
175
     1
 42
1.0
 92
        0
 66
   257
 43
1.0
 76
     1
 77
     6
 78
     2
 67
     7
 79
     5
170
     0
171
     0
290
     0
174
     0
 93
        1
 44
0.0
173
     0
291
     0
 45
0.0
1001
ACAD
1000
AcDbSavedByObjectVersion
1070
     0
  0
VISUALSTYLE
  5
32
102
{ACAD_XDICTIONARY
360
57F
102
}
102
{ACAD_REACTORS
330
2A
102
}
330
2A
100
AcDbVisualStyle
  2

 70
     7
 71
     1
 72
     0
 73
     1
 90
        0
 40
-0.6
 41
-30.0
 62
     5
 63
     7
 74
     0
 91
        4
 64
     7
 65
   257
 75
     1
175
     1
 42
1.0
 92
        8
 66
     7
 43
1.0
 76
     1
 77
     6
 78
     2
 67
     7
 79
     5
170
     0
171
     0
290
     0
174
     0
 93
        1
 44
0.0
173
     0
291
     1
 45
0.0
1001
ACAD
1000
AcDbSavedByObjectVersion
1070
     0
  0
VISUALSTYLE
  5
36
102
{ACAD_XDICTIONARY
360
587
102
}
102
{ACAD_REACTORS
330
2A
102
}
330
2A
100
AcDbVisualStyle
  2

 70
    12
 71
     2
 72
     2
 73
     0
 90
        0
 40
-0.6
 41
-30.0
 62
     5
 63
     7
 74
     1
 91
        4
 64
     7
 65
   257
 75
     1
175
     1
 42
1.0
 92
        8
 66
     7
 43
1.0
 76
     1
 77
     6
 78
     2
 67
     7
 79
     5
170
     0
171
     0
290
     0
174
     0
 93
        1
 44
50.0
173
     0
291
     1
 45
0.0
1001
ACAD
1000
AcDbSavedByObjectVersion
1070
     0
  0
VISUALSTYLE
  5
3A
102
{ACAD_XDICTIONARY
360
58F
102
}
102
{ACAD_REACTORS
330
2A
102
}
330
2A
100
AcDbVisualStyle
  2

 70
    16
 71
     2
 72
     2
 73
     3
 90
        0
 40
-0.6
 41
-30.0
 62
     5
 63
     8
 74
     1
 91
        4
 64
     7
 65
   257
 75
     1
175
     1
 42
1.0
 92
        8
 66
     8
 43
1.0
 76
     1
 77
     6
 78
     2
 67
     7
 79
     5
170
     0
171
     0
290
     0
174
     0
 93
        1
 44
0.0
173
     0
291
     1
 45
0.0
1001
ACAD
1000
AcDbSavedByObjectVersion
1070
     0
  0
VISUALSTYLE
  5
34
102
{ACAD_XDICTIONARY
360
583
102
}
102
{ACAD_REACTORS
330
2A
102
}
330
2A
100
AcDbVisualStyle
  2

 70
     9
 71
     3
 72
     2
 73
     0
 90
        0
 40
-0.6
 41
-30.0
 62
     5
 63
     7
 74
     2
 91
        2
 64
     7
 65
   257
 75
     1
175
     1
 42
179.0
 92
        8
 66
     7
 43
1.0
 76
     1
 77
     6
 78
     2
 67
     7
 79
     3
170
     0
171
     0
290
     0
174
     0
 93
        1
 44
0.0
173
     0
291
     0
 45
0.0
1001
ACAD
1000
AcDbSavedByObjectVersion
1070
     0
  0
VISUALSTYLE
  5
35
102
{ACAD_XDICTIONARY
360
585
102
}
102
{ACAD_REACTORS
330
2A
102
}
330
2A
100
AcDbVisualStyle
  2

 70
    11
 71
     2
 72
     2
 73
     0
 90
        0
 40
-0.6
 41
-30.0
 62
     5
 63
     7
 74
     1
 91
        4
 64
     7
 65
   257
 75
     1
175
     1
 42
1.0
 92
        8
 66
     7
 43
1.0
 76
     1
 77
     6
 78
     2
 67
     7
 79
     5
170
     0
171
     0
290
     0
174
     0
 93
        1
 44
-50.0
173
     0
291
     1
 45
0.0
1001
ACAD
1000
AcDbSavedByObjectVersion
1070
     0
  0
VISUALSTYLE
  5
3D
102
{ACAD_XDICTIONARY
360
595
102
}
102
{ACAD_REACTORS
330
2A
102
}
330
2A
100
AcDbVisualStyle
  2

 70
    22
 71
     2
 72
     2
 73
     0
 90
        0
 40
-0.6
 41
-30.0
 62
     5
 63
     7
 74
     1
 91
        4
 64
     7
 65
   257
 75
     1
175
     1
 42
1.0
 92
        8
 66
     7
 43
1.0
 76
     1
 77
     6
 78
     2
 67
     7
 79
     5
170
     0
171
     0
290
     0
174
     0
 93
        1
 44
0.0
173
     0
291
     1
 45
0.0
1001
ACAD
1000
AcDbSavedByObjectVersion
1070
     0
  0
VISUALSTYLE
  5
39
102
{ACAD_XDICTIONARY
360
58D
102
}
102
{ACAD_REACTORS
330
2A
102
}
330
2A
100
AcDbVisualStyle
  2

 70
    15
 71
     2
 72
     2
 73
     0
 90
        0
 40
-0.6
 41
-30.0
 62
     5
 63
     7
 74
     1
 91
        4
 64
     7
 65
   257
 75
     1
175
     1
 42
1.0
 92
        8
 66
     7
 43
1.0
 76
     1
 77
     6
 78
     2
 67
     7
 79
     5
170
     0
171
     0
290
     0
174
     0
 93
        1
 44
0.0
173
     0
291
     1
 45
0.0
1001
ACAD
1000
AcDbSavedByObjectVersion
1070
     0
  0
VISUALSTYLE
  5
2B
102
{ACAD_XDICTIONARY
360
571
102
}
102
{ACAD_REACTORS
330
2A
102
}
330
2A
100
AcDbVisualStyle
  2

 70
     0
 71
     2
 72
     1
 73
     1
 90
        2
 40
-0.6
 41
30.0
 62
     5
 63
     7
 74
     0
 91
        0
 64
     7
 65
   257
 75
     1
175
     1
 42
1.0
 92
        8
 66
     7
 43
1.0
 76
     1
 77
     6
 78
     2
 67
     7
 79
     5
170
     0
171
     0
290
     0
174
     0
 93
       13
 44
0.0
173
     0
291
     1
 45
0.0
1001
ACAD
1000
AcDbSavedByObjectVersion
1070
     0
  0
VISUALSTYLE
  5
2C
102
{ACAD_XDICTIONARY
360
573
102
}
102
{ACAD_REACTORS
330
2A
102
}
330
2A
100
AcDbVisualStyle
  2

 70
     1
 71
     2
 72
     1
 73
     1
 90
        2
 40
-0.6
 41
30.0
 62
     5
 63
     7
 74
     1
 91
        0
 64
     7
 65
   257
 75
     1
175
     1
 42
1.0
 92
        0
 66
   257
 43
1.0
 76
     1
 77
     6
 78
     2
 67
     7
 79
     5
170
     0
171
     0
290
     0
174
     0
 93
       13
 44
0.0
173
     0
291
     1
 45
0.0
1001
ACAD
1000
AcDbSavedByObjectVersion
1070
     0
  0
VISUALSTYLE
  5
2D
102
{ACAD_XDICTIONARY
360
575
102
}
102
{ACAD_REACTORS
330
2A
102
}
330
2A
100
AcDbVisualStyle
  2

 70
     2
 71
     2
 72
     2
 73
     1
 90
        2
 40
-0.6
 41
30.0
 62
     5
 63
     7
 74
     0
 91
        0
 64
     7
 65
   257
 75
     1
175
     1
 42
1.0
 92
        0
 66
     7
 43
1.0
 76
     1
 77
     6
 78
     2
 67
     7
 79
     5
170
     0
171
     0
290
     0
174
     0
 93
       13
 44
0.0
173
     0
291
     1
 45
0.0
1001
ACAD
1000
AcDbSavedByObjectVersion
1070
     0
  0
VISUALSTYLE
  5
2E
102
{ACAD_XDICTIONARY
360
577
102
}
102
{ACAD_REACTORS
330
2A
102
}
330
2A
100
AcDbVisualStyle
  2

 70
     3
 71
     2
 72
     2
 73
     1
 90
        2
 40
-0.6
 41
30.0
 62
     5
 63
     7
 74
     1
 91
        0
 64
     7
 65
   257
 75
     1
175
     1
 42
1.0
 92
        0
 66
   257
 43
1.0
 76
     1
 77
     6
 78
     2
 67
     7
 79
     5
170
     0
171
     0
290
     0
174
     0
 93
       13
 44
0.0
173
     0
291
     1
 45
0.0
1001
ACAD
1000
AcDbSavedByObjectVersion
1070
     0
  0
VISUALSTYLE
  5
31
102
{ACAD_XDICTIONARY
360
57D
102
}
102
{ACAD_REACTORS
330
2A
102
}
330
2A
100
AcDbVisualStyle
  2

 70
     6
 71
     1
 72
     2
 73
     2
 90
        0
 40
-0.6
 41
-30.0
 62
     5
 63
     7
 74
     2
 91
        2
 64
     7
 65
   257
 75
     2
175
     1
 42
40.0
 92
        0
 66
   257
 43
1.0
 76
     1
 77
     6
 78
     2
 67
     7
 79
     3
170
     0
171
     0
290
     0
174
     0
 93
        1
 44
0.0
173
     0
291
     0
 45
0.0
1001
ACAD
1000
AcDbSavedByObjectVersion
1070
     0
  0
VISUALSTYLE
  5
3B
102
{ACAD_XDICTIONARY
360
591
102
}
102
{ACAD_REACTORS
330
2A
102
}
330
2A
100
AcDbVisualStyle
  2

 70
    20
 71
     2
 72
     2
 73
     0
 90
        0
 40
-0.6
 41
-30.0
 62
     5
 63
     7
 74
     1
 91
        4
 64
     7
 65
   257
 75
     1
175
     1
 42
1.0
 92
       10
 66
     7
 43
1.0
 76
     1
 77
     6
 78
     2
 67
     7
 79
     5
170
     0
171
     0
290
     0
174
     0
 93
        1
 44
0.0
173
     0
291
     1
 45
0.0
1001
ACAD
1000
AcDbSavedByObjectVersion
1070
     0
  0
VISUALSTYLE
  5
38
102
{ACAD_XDICTIONARY
360
58B
102
}
102
{ACAD_REACTORS
330
2A
102
}
330
2A
100
AcDbVisualStyle
  2

 70
    14
 71
     2
 72
     2
 73
     0
 90
        0
 40
-0.6
 41
-30.0
 62
     5
 63
     7
 74
     1
 91
        4
 64
     7
 65
   257
 75
     7
175
     7
 42
1.0
 92
        8
 66
     7
 43
1.0
 76
     1
 77
     6
 78
     2
 67
     7
 79
     5
170
     0
171
     0
290
     0
174
     0
 93
        1
 44
0.0
173
     0
291
     1
 45
0.0
1001
ACAD
1000
AcDbSavedByObjectVersion
1070
     0
  0
VISUALSTYLE
  5
3C
102
{ACAD_XDICTIONARY
360
593
102
}
102
{ACAD_REACTORS
330
2A
102
}
330
2A
100
AcDbVisualStyle
  2

 70
    21
 71
     2
 72
     2
 73
     0
 90
        0
 40
-0.6
 41
-30.0
 62
     5
 63
     7
 74
     1
 91
        4
 64
     7
 65
   257
 75
     1
175
     1
 42
1.0
 92
        9
 66
     7
 43
1.0
 76
     1
 77
     6
 78
     2
 67
     7
 79
     5
170
     0
171
     0
290
     0
174
     0
 93
        1
 44
0.0
173
     0
291
     1
 45
0.0
1001
ACAD
1000
AcDbSavedByObjectVersion
1070
     0
  0
VISUALSTYLE
  5
33
102
{ACAD_XDICTIONARY
360
581
102
}
102
{ACAD_REACTORS
330
2A
102
}
330
2A
100
AcDbVisualStyle
  2

 70
     8
 71
     2
 72
     3
 73
     0
 90
        2
 40
-0.6
 41
30.0
 62
     5
 63
     7
 74
     0
 91
        0
 64
     7
 65
   257
 75
     1
175
     1
 42
1.0
 92
        8
 66
   257
 43
1.0
 76
     1
 77
     6
 78
     2
 67
     7
 79
     3
170
     0
171
     0
290
     0
174
     0
 93
       13
 44
0.0
173
     0
291
     0
 45
0.0
1001
ACAD
1000
AcDbSavedByObjectVersion
1070
     0
  0
VISUALSTYLE
  5
42
102
{ACAD_XDICTIONARY
360
59F
102
}
102
{ACAD_REACTORS
330
2A
102
}
330
2A
100
AcDbVisualStyle
  2

 70
    27
 71
     2
 72
     2
 73
     1
 90
        2
 40
-0.6
 41
30.0
 62
     5
 63
     7
 74
     0
 91
        4
 64
     7
 65
   257
 75
     1
175
     1
 42
1.0
 92
        8
 66
   257
 43
1.0
 76
     1
 77
     6
 78
     2
 67
     8
 79
     3
170
     0
171
     0
290
     0
174
     0
 93
        5
 44
0.0
173
     0
291
     0
 45
0.0
1001
ACAD
1000
AcDbSavedByObjectVersion
1070
     0
  0
VISUALSTYLE
  5
41
102
{ACAD_XDICTIONARY
360
59D
102
}
102
{ACAD_REACTORS
330
2A
102
}
330
2A
100
AcDbVisualStyle
  2

 70
    26
 71
     2
 72
     2
 73
     1
 90
        2
 40
-0.6
 41
30.0
 62
     5
 63
     7
 74
     1
 91
       10
 64
     7
 65
   257
 75
     2
175
     1
 42
1.0
 92
        8
 66
   257
 43
1.0
 76
     1
 77
     6
 78
     2
 67
     7
 79
     3
170
     0
171
     0
290
     0
174
     0
 93
        5
 44
0.0
173
     0
291
     0
 45
0.0
1001
ACAD
1000
AcDbSavedByObjectVersion
1070
     0
  0
VISUALSTYLE
  5
3E
102
{ACAD_XDICTIONARY
360
597
102
}
102
{ACAD_REACTORS
330
2A
102
}
330
2A
100
AcDbVisualStyle
  2

 70
    23
 71
     2
 72
     2
 73
     3
 90
        0
 40
-0.6
 41
-30.0
 62
     5
 63
     7
 74
     2
 91
        2
 64
     7
 65
     7
 75
     1
175
     1
 42
40.0
 92
        8
 66
     7
 43
1.0
 76
     1
 77
     6
 78
     2
 67
     7
 79
     3
170
     0
171
     0
290
     0
174
     0
 93
        1
 44
0.0
173
     0
291
     0
 45
0.0
1001
ACAD
1000
AcDbSavedByObjectVersion
1070
     0
  0
VISUALSTYLE
  5
3F
102
{ACAD_XDICTIONARY
360
599
102
}
102
{ACAD_REACTORS
330
2A
102
}
330
2A
100
AcDbVisualStyle
  2

 70
    24
 71
     1
 72
     2
 73
     2
 90
        0
 40
-0.6
 41
-30.0
 62
     5
 63
     7
 74
     2
 91
        2
 64
     7
 65
     7
 75
     1
175
     1
 42
40.0
 92
       11
 66
     7
 43
1.0
 76
     1
 77
     6
 78
     2
 67
     7
 79
     6
170
     0
171
     0
290
     0
174
     0
 93
        1
 44
0.0
173
     0
291
     0
 45
0.0
1001
ACAD
1000
AcDbSavedByObjectVersion
1070
     0
  0
VISUALSTYLE
  5
37
102
{ACAD_XDICTIONARY
360
589
102
}
102
{ACAD_REACTORS
330
2A
102
}
330
2A
100
AcDbVisualStyle
  2

 70
    13
 71
     2
 72
     2
 73
     0
 90
        0
 40
-0.6
 41
-30.0
 62
     5
 63
     7
 74
     1
 91
        4
 64
     7
 65
   257
 75
     1
175
     1
 42
1.0
 92
       12
 66
     7
 43
1.0
 76
     1
 77
     6
 78
     2
 67
     7
 79
     5
170
     0
171
     0
290
     0
174
     0
 93
        1
 44
0.0
173
     0
291
     1
 45
0.0
1001
ACAD
1000
AcDbSavedByObjectVersion
1070
     0
  0
VISUALSTYLE
  5
30
102
{ACAD_XDICTIONARY
360
57B
102
}
102
{ACAD_REACTORS
330
2A
102
}
330
2A
100
AcDbVisualStyle
  2

 70
     5
 71
     0
 72
     2
 73
     0
 90
        0
 40
-0.6
 41
-30.0
 62
     5
 63
     7
 74
     1
 91
        4
 64
     7
 65
   257
 75
     1
175
     1
 42
1.0
 92
        0
 66
   257
 43
1.0
 76
     1
 77
     6
 78
     2
 67
     7
 79
     3
170
     0
171
     0
290
     0
174
     0
 93
        1
 44
0.0
173
     0
291
     0
 45
0.0
1001
ACAD
1000
AcDbSavedByObjectVersion
1070
     0
  0
VISUALSTYLE
  5
40
102
{ACAD_XDICTIONARY
360
59B
102
}
102
{ACAD_REACTORS
330
2A
102
}
330
2A
100
AcDbVisualStyle
  2

 70
    25
 71
     2
 72
     2
 73
     1
 90
        1
 40
0.5
 41
-30.0
 62
     5
 63
     7
 74
     1
 91
        0
 64
     7
 65
   257
 75
     1
175
     1
 42
1.0
 92
        8
 66
     7
 43
1.0
 76
     1
 77
     6
 78
     2
 67
     7
 79
     3
170
     0
171
     0
290
     0
174
     0
 93
       13
 44
0.0
173
     0
291
     0
 45
0.0
1001
ACAD
1000
AcDbSavedByObjectVersion
1070
     0
  0
DICTIONARYVAR
  5
216
102
{ACAD_REACTORS
330
208
102
}
330
208
100
DictionaryVariables
280
     0
  1
1:1
  0
DICTIONARYVAR
  5
20F
102
{ACAD_REACTORS
330
208
102
}
330
208
100
DictionaryVariables
280
     0
  1
3.500000
  0
DICTIONARYVAR
  5
210
102
{ACAD_REACTORS
330
208
102
}
330
208
100
DictionaryVariables
280
     0
  1
acadiso.lin
  0
DICTIONARYVAR
  5
20A
102
{ACAD_REACTORS
330
208
102
}
330
208
100
DictionaryVariables
280
     0
  1
STANDARD
  0
DICTIONARYVAR
  5
209
102
{ACAD_REACTORS
330
208
102
}
330
208
100
DictionaryVariables
280
     0
  1
STANDARD
  0
DICTIONARYVAR
  5
4D5
102
{ACAD_REACTORS
330
208
102
}
330
208
100
DictionaryVariables
280
     0
  1
Metric50
  0
DICTIONARYVAR
  5
4D6
102
{ACAD_REACTORS
330
208
102
}
330
208
100
DictionaryVariables
280
     0
  1
Metric50
  0
DICTIONARYVAR
  5
211
102
{ACAD_REACTORS
330
208
102
}
330
208
100
DictionaryVariables
280
     0
  1
2
  0
DICTIONARYVAR
  5
212
102
{ACAD_REACTORS
330
208
102
}
330
208
100
DictionaryVariables
280
     0
  1
1
  0
DICTIONARYVAR
  5
563
102
{ACAD_REACTORS
330
208
102
}
330
208
100
DictionaryVariables
280
     0
  1
0
  0
DICTIONARYVAR
  5
4D8
102
{ACAD_REACTORS
330
208
102
}
330
208
100
DictionaryVariables
280
     0
  1
1
  0
DICTIONARYVAR
  5
4D9
102
{ACAD_REACTORS
330
208
102
}
330
208
100
DictionaryVariables
280
     0
  1
15
  0
DICTIONARYVAR
  5
4D7
102
{ACAD_REACTORS
330
208
102
}
330
208
100
DictionaryVariables
280
     0
  1
0
  0
DICTIONARYVAR
  5
566
102
{ACAD_REACTORS
330
208
102
}
330
208
100
DictionaryVariables
280
     0
  1
1.570796
  0
DICTIONARYVAR
  5
567
102
{ACAD_REACTORS
330
208
102
}
330
208
100
DictionaryVariables
280
     0
  1
1.570796
  0
DICTIONARYVAR
  5
568
102
{ACAD_REACTORS
330
208
102
}
330
208
100
DictionaryVariables
280
     0
  1
-122.394000
  0
DICTIONARYVAR
  5
217
102
{ACAD_REACTORS
330
208
102
}
330
208
100
DictionaryVariables
280
     0
  1
1
  0
DICTIONARYVAR
  5
565
102
{ACAD_REACTORS
330
208
102
}
330
208
100
DictionaryVariables
280
     0
  1
80.000000
  0
DICTIONARYVAR
  5
564
102
{ACAD_REACTORS
330
208
102
}
330
208
100
DictionaryVariables
280
     0
  1
5.000000
  0
DICTIONARYVAR
  5
562
102
{ACAD_REACTORS
330
208
102
}
330
208
100
DictionaryVariables
280
     0
  1
127
  0
DICTIONARYVAR
  5
569
102
{ACAD_REACTORS
330
208
102
}
330
208
100
DictionaryVariables
280
     0
  1
2
  0
DICTIONARY
  5
5A4
330
257
100
AcDbDictionary
280
     1
281
     1
  3
ACAD_XREC_ROUNDTRIP
360
5A5
  0
DICTIONARY
  5
56D
330
1E
100
AcDbDictionary
280
     1
281
     1
  3
ACAD_XREC_ROUNDTRIP
360
56E
  0
DICTIONARY
  5
56F
330
22
100
AcDbDictionary
280
     1
281
     1
  3
ACAD_XREC_ROUNDTRIP
360
570
  0
DICTIONARY
  5
5A6
330
258
100
AcDbDictionary
280
     1
281
     1
  3
ACAD_XREC_ROUNDTRIP
360
5A7
  0
DICTIONARY
  5
24A
330
45
100
AcDbDictionary
280
     1
281
     1
  3
ACAD_XREC_ROUNDTRIP
360
24B
  0
DICTIONARY
  5
248
330
44
100
AcDbDictionary
280
     1
281
     1
  3
ACAD_XREC_ROUNDTRIP
360
249
  0
DICTIONARY
  5
24C
330
46
100
AcDbDictionary
280
     1
281
     1
  3
ACAD_XREC_ROUNDTRIP
360
24D
  0
DICTIONARY
  5
5A2
330
255
100
AcDbDictionary
280
     1
281
     1
  3
ACAD_XREC_ROUNDTRIP
360
5A3
  0
DICTIONARY
  5
4DA
330
5A
100
AcDbDictionary
280
     1
281
     1
  3
ACAD_ROUNDTRIP_2008_TABLESTYLE_CELLSTYLEMAP
360
56A
  3
ACAD_XREC_ROUNDTRIP
360
5A1
  0
DICTIONARY
  5
579
330
2F
100
AcDbDictionary
280
     1
281
     1
  3
ACAD_XREC_ROUNDTRIP
360
57A
  0
DICTIONARY
  5
57F
330
32
100
AcDbDictionary
280
     1
281
     1
  3
ACAD_XREC_ROUNDTRIP
360
580
  0
DICTIONARY
  5
587
330
36
100
AcDbDictionary
280
     1
281
     1
  3
ACAD_XREC_ROUNDTRIP
360
588
  0
DICTIONARY
  5
58F
330
3A
100
AcDbDictionary
280
     1
281
     1
  3
ACAD_XREC_ROUNDTRIP
360
590
  0
DICTIONARY
  5
583
330
34
100
AcDbDictionary
280
     1
281
     1
  3
ACAD_XREC_ROUNDTRIP
360
584
  0
DICTIONARY
  5
585
330
35
100
AcDbDictionary
280
     1
281
     1
  3
ACAD_XREC_ROUNDTRIP
360
586
  0
DICTIONARY
  5
595
330
3D
100
AcDbDictionary
280
     1
281
     1
  3
ACAD_XREC_ROUNDTRIP
360
596
  0
DICTIONARY
  5
58D
330
39
100
AcDbDictionary
280
     1
281
     1
  3
ACAD_XREC_ROUNDTRIP
360
58E
  0
DICTIONARY
  5
571
330
2B
100
AcDbDictionary
280
     1
281
     1
  3
ACAD_XREC_ROUNDTRIP
360
572
  0
DICTIONARY
  5
573
330
2C
100
AcDbDictionary
280
     1
281
     1
  3
ACAD_XREC_ROUNDTRIP
360
574
  0
DICTIONARY
  5
575
330
2D
100
AcDbDictionary
280
     1
281
     1
  3
ACAD_XREC_ROUNDTRIP
360
576
  0
DICTIONARY
  5
577
330
2E
100
AcDbDictionary
280
     1
281
     1
  3
ACAD_XREC_ROUNDTRIP
360
578
  0
DICTIONARY
  5
57D
330
31
100
AcDbDictionary
280
     1
281
     1
  3
ACAD_XREC_ROUNDTRIP
360
57E
  0
DICTIONARY
  5
591
330
3B
100
AcDbDictionary
280
     1
281
     1
  3
ACAD_XREC_ROUNDTRIP
360
592
  0
DICTIONARY
  5
58B
330
38
100
AcDbDictionary
280
     1
281
     1
  3
ACAD_XREC_ROUNDTRIP
360
58C
  0
DICTIONARY
  5
593
330
3C
100
AcDbDictionary
280
     1
281
     1
  3
ACAD_XREC_ROUNDTRIP
360
594
  0
DICTIONARY
  5
581
330
33
100
AcDbDictionary
280
     1
281
     1
  3
ACAD_XREC_ROUNDTRIP
360
582
  0
DICTIONARY
  5
59F
330
42
100
AcDbDictionary
280
     1
281
     1
  3
ACAD_XREC_ROUNDTRIP
360
5A0
  0
DICTIONARY
  5
59D
330
41
100
AcDbDictionary
280
     1
281
     1
  3
ACAD_XREC_ROUNDTRIP
360
59E
  0
DICTIONARY
  5
597
330
3E
100
AcDbDictionary
280
     1
281
     1
  3
ACAD_XREC_ROUNDTRIP
360
598
  0
DICTIONARY
  5
599
330
3F
100
AcDbDictionary
280
     1
281
     1
  3
ACAD_XREC_ROUNDTRIP
360
59A
  0
DICTIONARY
  5
589
330
37
100
AcDbDictionary
280
     1
281
     1
  3
ACAD_XREC_ROUNDTRIP
360
58A
  0
DICTIONARY
  5
57B
330
30
100
AcDbDictionary
280
     1
281
     1
  3
ACAD_XREC_ROUNDTRIP
360
57C
  0
DICTIONARY
  5
59B
330
40
100
AcDbDictionary
280
     1
281
     1
  3
ACAD_XREC_ROUNDTRIP
360
59C
  0
XRECORD
  5
5A5
102
{ACAD_REACTORS
330
5A4
102
}
330
5A4
100
AcDbXrecord
280
     1
102
DISPLAYNAME
  1
Metric50
102
FLAGS
 90
        0
  0
XRECORD
  5
56E
102
{ACAD_REACTORS
330
56D
102
}
330
56D
100
AcDbXrecord
280
     1
102
SHADEPLOT
 70
     0
102
SHADEPLOTRESLEVEL
 70
     2
102
SHADEPLOTCUSTOMDPI
 70
   300
  0
XRECORD
  5
570
102
{ACAD_REACTORS
330
56F
102
}
330
56F
100
AcDbXrecord
280
     1
102
SHADEPLOT
 70
     0
102
SHADEPLOTRESLEVEL
 70
     2
102
SHADEPLOTCUSTOMDPI
 70
   300
  0
XRECORD
  5
5A7
102
{ACAD_REACTORS
330
5A6
102
}
330
5A6
100
AcDbXrecord
280
     1
102
SHADEPLOT
 70
     0
102
SHADEPLOTRESLEVEL
 70
     2
102
SHADEPLOTCUSTOMDPI
 70
   300
  0
XRECORD
  5
24B
102
{ACAD_REACTORS
330
24A
102
}
330
24A
100
AcDbXrecord
280
     1
102
MATERIAL
148
0.0
149
0.0
149
0.0
 93
        0
 94
      127
282
     0
 72
     1
 77
     1
171
     1
175
     1
179
     1
273
     0
  0
XRECORD
  5
249
102
{ACAD_REACTORS
330
248
102
}
330
248
100
AcDbXrecord
280
     1
102
MATERIAL
148
0.0
149
0.0
149
0.0
 93
        0
 94
      127
282
     0
 72
     1
 77
     1
171
     1
175
     1
179
     1
273
     0
  0
XRECORD
  5
24D
102
{ACAD_REACTORS
330
24C
102
}
330
24C
100
AcDbXrecord
280
     1
102
MATERIAL
148
0.0
149
0.0
149
0.0
 93
        0
 94
      127
282
     0
 72
     1
 77
     1
171
     1
175
     1
179
     1
273
     0
  0
XRECORD
  5
5A3
102
{ACAD_REACTORS
330
5A2
102
}
330
5A2
100
AcDbXrecord
280
     1
102
DISPLAYNAME
  1
Metric50
102
FLAGS
 90
        0
  0
CELLSTYLEMAP
  5
56A
102
{ACAD_REACTORS
330
4DA
102
}
330
4DA
100
AcDbCellStyleMap
 90
        3
300
CELLSTYLE
  1
TABLEFORMAT_BEGIN
 90
        5
170
     1
 91
        0
 92
    32768
 62
   257
 93
        1
300
CONTENTFORMAT
  1
CONTENTFORMAT_BEGIN
 90
        0
 91
        0
 92
        4
 93
        0
300

 40
0.0
140
1.0
 94
        5
 62
     0
340
11
144
6.0
309
CONTENTFORMAT_END
171
     1
301
MARGIN
  1
CELLMARGIN_BEGIN
 40
1.5
 40
1.5
 40
1.5
 40
1.5
 40
0.18
 40
0.18
309
CELLMARGIN_END
 94
        6
 95
        1
302
GRIDFORMAT
  1
GRIDFORMAT_BEGIN
 90
        0
 91
        1
 62
     0
 92
       -2
340
0
 93
        0
 40
0.045
309
GRIDFORMAT_END
 95
        2
302
GRIDFORMAT
  1
GRIDFORMAT_BEGIN
 90
        0
 91
        1
 62
     0
 92
       -2
340
0
 93
        0
 40
0.045
309
GRIDFORMAT_END
 95
        4
302
GRIDFORMAT
  1
GRIDFORMAT_BEGIN
 90
        0
 91
        1
 62
     0
 92
       -2
340
0
 93
        0
 40
0.045
309
GRIDFORMAT_END
 95
        8
302
GRIDFORMAT
  1
GRIDFORMAT_BEGIN
 90
        0
 91
        1
 62
     0
 92
       -2
340
0
 93
        0
 40
0.045
309
GRIDFORMAT_END
 95
       16
302
GRIDFORMAT
  1
GRIDFORMAT_BEGIN
 90
        0
 91
        1
 62
     0
 92
       -2
340
0
 93
        0
 40
0.045
309
GRIDFORMAT_END
 95
       32
302
GRIDFORMAT
  1
GRIDFORMAT_BEGIN
 90
        0
 91
        1
 62
     0
 92
       -2
340
0
 93
        0
 40
0.045
309
GRIDFORMAT_END
309
TABLEFORMAT_END
  1
CELLSTYLE_BEGIN
 90
        1
 91
        1
300
_TITLE
309
CELLSTYLE_END
300
CELLSTYLE
  1
TABLEFORMAT_BEGIN
 90
        5
170
     1
 91
        0
 92
        0
 62
   257
 93
        1
300
CONTENTFORMAT
  1
CONTENTFORMAT_BEGIN
 90
        0
 91
        0
 92
        4
 93
        0
300

 40
0.0
140
1.0
 94
        5
 62
     0
340
11
144
4.5
309
CONTENTFORMAT_END
171
     1
301
MARGIN
  1
CELLMARGIN_BEGIN
 40
1.5
 40
1.5
 40
1.5
 40
1.5
 40
0.18
 40
0.18
309
CELLMARGIN_END
 94
        6
 95
        1
302
GRIDFORMAT
  1
GRIDFORMAT_BEGIN
 90
        0
 91
        1
 62
     0
 92
       -2
340
0
 93
        0
 40
0.045
309
GRIDFORMAT_END
 95
        2
302
GRIDFORMAT
  1
GRIDFORMAT_BEGIN
 90
        0
 91
        1
 62
     0
 92
       -2
340
0
 93
        0
 40
0.045
309
GRIDFORMAT_END
 95
        4
302
GRIDFORMAT
  1
GRIDFORMAT_BEGIN
 90
        0
 91
        1
 62
     0
 92
       -2
340
0
 93
        0
 40
0.045
309
GRIDFORMAT_END
 95
        8
302
GRIDFORMAT
  1
GRIDFORMAT_BEGIN
 90
        0
 91
        1
 62
     0
 92
       -2
340
0
 93
        0
 40
0.045
309
GRIDFORMAT_END
 95
       16
302
GRIDFORMAT
  1
GRIDFORMAT_BEGIN
 90
        0
 91
        1
 62
     0
 92
       -2
340
0
 93
        0
 40
0.045
309
GRIDFORMAT_END
 95
       32
302
GRIDFORMAT
  1
GRIDFORMAT_BEGIN
 90
        0
 91
        1
 62
     0
 92
       -2
340
0
 93
        0
 40
0.045
309
GRIDFORMAT_END
309
TABLEFORMAT_END
  1
CELLSTYLE_BEGIN
 90
        2
 91
        1
300
_HEADER
309
CELLSTYLE_END
300
CELLSTYLE
  1
TABLEFORMAT_BEGIN
 90
        5
170
     1
 91
        0
 92
        0
 62
   257
 93
        1
300
CONTENTFORMAT
  1
CONTENTFORMAT_BEGIN
 90
        0
 91
        0
 92
        4
 93
        0
300

 40
0.0
140
1.0
 94
        2
 62
     0
340
11
144
4.5
309
CONTENTFORMAT_END
171
     1
301
MARGIN
  1
CELLMARGIN_BEGIN
 40
1.5
 40
1.5
 40
1.5
 40
1.5
 40
0.18
 40
0.18
309
CELLMARGIN_END
 94
        6
 95
        1
302
GRIDFORMAT
  1
GRIDFORMAT_BEGIN
 90
        0
 91
        1
 62
     0
 92
       -2
340
0
 93
        0
 40
0.045
309
GRIDFORMAT_END
 95
        2
302
GRIDFORMAT
  1
GRIDFORMAT_BEGIN
 90
        0
 91
        1
 62
     0
 92
       -2
340
0
 93
        0
 40
0.045
309
GRIDFORMAT_END
 95
        4
302
GRIDFORMAT
  1
GRIDFORMAT_BEGIN
 90
        0
 91
        1
 62
     0
 92
       -2
340
0
 93
        0
 40
0.045
309
GRIDFORMAT_END
 95
        8
302
GRIDFORMAT
  1
GRIDFORMAT_BEGIN
 90
        0
 91
        1
 62
     0
 92
       -2
340
0
 93
        0
 40
0.045
309
GRIDFORMAT_END
 95
       16
302
GRIDFORMAT
  1
GRIDFORMAT_BEGIN
 90
        0
 91
        1
 62
     0
 92
       -2
340
0
 93
        0
 40
0.045
309
GRIDFORMAT_END
 95
       32
302
GRIDFORMAT
  1
GRIDFORMAT_BEGIN
 90
        0
 91
        1
 62
     0
 92
       -2
340
0
 93
        0
 40
0.045
309
GRIDFORMAT_END
309
TABLEFORMAT_END
  1
CELLSTYLE_BEGIN
 90
        3
 91
        2
300
_DATA
309
CELLSTYLE_END
  0
XRECORD
  5
5A1
102
{ACAD_REACTORS
330
4DA
102
}
330
4DA
100
AcDbXrecord
280
     1
102
ACAD_ROUNDTRIP_PRE2007_TABLESTYLE
 90
        4
 91
        0
  1

 92
        4
 93
        0
  2

 94
        4
 95
        0
  3

  0
XRECORD
  5
57A
102
{ACAD_REACTORS
330
579
102
}
330
579
100
AcDbXrecord
280
     1
102
RTVSPost2010Prop28
280
     1
102
RTVSPost2010PropOp28
 70
     1
102
RTVSPost2010Prop29
280
     1
102
RTVSPost2010PropOp29
 70
     1
102
RTVSPost2010Prop30
280
     0
102
RTVSPost2010PropOp30
 70
     1
102
RTVSPost2010Prop31
280
     0
102
RTVSPost2010PropOp31
 70
     1
102
RTVSPost2010Prop32
280
     0
102
RTVSPost2010PropOp32
 70
     1
102
RTVSPost2010Prop33
280
     0
102
RTVSPost2010PropOp33
 70
     1
102
RTVSPost2010Prop34
280
     0
102
RTVSPost2010PropOp34
 70
     1
102
RTVSPost2010Prop35
280
     0
102
RTVSPost2010PropOp35
 70
     1
102
RTVSPost2010Prop36
280
     0
102
RTVSPost2010PropOp36
 70
     1
102
RTVSPost2010Prop37
 90
       50
102
RTVSPost2010PropOp37
 70
     1
102
RTVSPost2010Prop38
140
0.0
102
RTVSPost2010PropOp38
 70
     1
102
RTVSPost2010Prop39
140
1.0
102
RTVSPost2010PropOp39
 70
     1
102
RTVSPost2010Prop40
 90
        0
102
RTVSPost2010PropOp40
 70
     1
102
RTVSPost2010Prop41ColorIndex
 90
       18
102
RTVSPost2010Prop41ColorRGB
 90
        0
102
RTVSPost2010PropOp41
 70
     1
102
RTVSPost2010Prop42
 90
       50
102
RTVSPost2010PropOp42
 70
     1
102
RTVSPost2010Prop43
 90
        3
102
RTVSPost2010PropOp43
 70
     1
102
RTVSPost2010Prop44ColorIndex
 90
        5
102
RTVSPost2010Prop44ColorRGB
 90
      255
102
RTVSPost2010PropOp44
 70
     1
102
RTVSPost2010Prop45
280
     0
102
RTVSPost2010PropOp45
 70
     1
102
RTVSPost2010Prop46
 90
       50
102
RTVSPost2010PropOp46
 70
     1
102
RTVSPost2010Prop47
 90
       50
102
RTVSPost2010PropOp47
 70
     1
102
RTVSPost2010Prop48
 90
       50
102
RTVSPost2010PropOp48
 70
     1
102
RTVSPost2010Prop49
280
     0
102
RTVSPost2010PropOp49
 70
     1
102
RTVSPost2010Prop50
 90
       50
102
RTVSPost2010PropOp50
 70
     1
102
RTVSPost2010Prop51ColorIndex
 90
      256
102
RTVSPost2010Prop51ColorRGB
 90
-16777216
102
RTVSPost2010PropOp51
 70
     0
102
RTVSPost2010Prop52
140
1.0
102
RTVSPost2010PropOp52
 70
     0
102
RTVSPost2010Prop53
 90
        2
102
RTVSPost2010PropOp53
 70
     1
102
RTVSPost2010Prop54
  1
strokes_ogs.tif
102
RTVSPost2010PropOp54
 70
     1
102
RTVSPost2010Prop55
280
     0
102
RTVSPost2010PropOp55
 70
     1
102
RTVSPost2010Prop56
140
1.0
102
RTVSPost2010PropOp56
 70
     1
102
RTVSPost2010Prop57
140
1.0
102
RTVSPost2010PropOp57
 70
     1
102
RTVSPropertyOp0
 70
     1
102
RTVSPropertyOp1
 70
     1
102
RTVSPropertyOp2
 70
     1
102
RTVSPropertyOp3
 70
     1
102
RTVSPropertyOp4
 70
     1
102
RTVSPropertyOp5
 70
     1
102
RTVSPropertyOp6
 70
     1
102
RTVSPropertyOp7
 70
     1
102
RTVSPropertyOp8
 70
     1
102
RTVSPropertyOp9
 70
     1
102
RTVSPropertyOp10
 70
     1
102
RTVSPropertyOp11
 70
     1
102
RTVSPropertyOp12
 70
     1
102
RTVSPropertyOp13
 70
     1
102
RTVSPropertyOp14
 70
     1
102
RTVSPropertyOp15
 70
     1
102
RTVSPropertyOp16
 70
     1
102
RTVSPropertyOp17
 70
     1
102
RTVSPropertyOp18
 70
     1
102
RTVSPropertyOp19
 70
     1
102
RTVSPropertyOp20
 70
     1
102
RTVSPropertyOp21
 70
     1
102
RTVSPropertyOp22
 70
     1
102
RTVSPropertyOp23
 70
     1
102
RTVSPropertyOp24
 70
     1
102
RTVSPropertyOp25
 70
     1
102
RTVSPropertyOp26
 70
     1
102
RTVSPropertyOp27
 70
     1
102
RTVSPropertyOp28
 70
     1
102
RTVSPropertyOp29
 70
     1
102
RTVSPropertyOp30
 70
     1
102
RTVSPropertyOp31
 70
     1
102
RTVSPropertyOp32
 70
     1
102
RTVSPropertyOp33
 70
     1
102
RTVSPropertyOp34
 70
     1
102
RTVSPropertyOp35
 70
     1
102
RTVSPropertyOp36
 70
     1
102
RTVSPropertyOp37
 70
     1
102
RTVSPropertyOp38
 70
     1
102
RTVSPropertyOp39
 70
     1
102
RTVSPropertyOp40
 70
     1
102
RTVSPropertyOp41
 70
     1
102
RTVSPropertyOp42
 70
     1
102
RTVSPropertyOp43
 70
     1
102
RTVSPropertyOp44
 70
     1
102
RTVSPropertyOp45
 70
     1
102
RTVSPropertyOp46
 70
     1
102
RTVSPropertyOp47
 70
     1
102
RTVSPropertyOp48
 70
     1
102
RTVSPropertyOp49
 70
     1
102
RTVSPropertyOp50
 70
     1
102
RTVSPropertyOp51
 70
     0
102
RTVSPropertyOp52
 70
     0
102
RTVSPropertyOp53
 70
     1
102
RTVSPropertyOp54
 70
     1
102
RTVSPropertyOp55
 70
     1
102
RTVSPropertyOp56
 70
     1
102
RTVSPropertyOp57
 70
     1
102
RTVSPropertyOp58
 70
     1
102
RTVSPropertyOp59
 70
     1
102
RTVSPropertyOp60
 70
     1
102
RTVSPropertyOp61
 70
     1
102
RTVSPropertyOp62
 70
     1
  0
XRECORD
  5
580
102
{ACAD_REACTORS
330
57F
102
}
330
57F
100
AcDbXrecord
280
     1
102
RTVSPost2010Prop28
280
     0
102
RTVSPost2010PropOp28
 70
     1
102
RTVSPost2010Prop29
280
     1
102
RTVSPost2010PropOp29
 70
     1
102
RTVSPost2010Prop30
280
     1
102
RTVSPost2010PropOp30
 70
     1
102
RTVSPost2010Prop31
280
     0
102
RTVSPost2010PropOp31
 70
     1
102
RTVSPost2010Prop32
280
     0
102
RTVSPost2010PropOp32
 70
     1
102
RTVSPost2010Prop33
280
     0
102
RTVSPost2010PropOp33
 70
     1
102
RTVSPost2010Prop34
280
     0
102
RTVSPost2010PropOp34
 70
     1
102
RTVSPost2010Prop35
280
     0
102
RTVSPost2010PropOp35
 70
     1
102
RTVSPost2010Prop36
280
     0
102
RTVSPost2010PropOp36
 70
     1
102
RTVSPost2010Prop37
 90
       50
102
RTVSPost2010PropOp37
 70
     1
102
RTVSPost2010Prop38
140
0.0
102
RTVSPost2010PropOp38
 70
     1
102
RTVSPost2010Prop39
140
1.0
102
RTVSPost2010PropOp39
 70
     1
102
RTVSPost2010Prop40
 90
        0
102
RTVSPost2010PropOp40
 70
     1
102
RTVSPost2010Prop41ColorIndex
 90
       18
102
RTVSPost2010Prop41ColorRGB
 90
        0
102
RTVSPost2010PropOp41
 70
     1
102
RTVSPost2010Prop42
 90
       50
102
RTVSPost2010PropOp42
 70
     1
102
RTVSPost2010Prop43
 90
        3
102
RTVSPost2010PropOp43
 70
     1
102
RTVSPost2010Prop44ColorIndex
 90
        5
102
RTVSPost2010Prop44ColorRGB
 90
      255
102
RTVSPost2010PropOp44
 70
     1
102
RTVSPost2010Prop45
280
     0
102
RTVSPost2010PropOp45
 70
     1
102
RTVSPost2010Prop46
 90
       50
102
RTVSPost2010PropOp46
 70
     1
102
RTVSPost2010Prop47
 90
       50
102
RTVSPost2010PropOp47
 70
     1
102
RTVSPost2010Prop48
 90
       50
102
RTVSPost2010PropOp48
 70
     1
102
RTVSPost2010Prop49
280
     0
102
RTVSPost2010PropOp49
 70
     1
102
RTVSPost2010Prop50
 90
       50
102
RTVSPost2010PropOp50
 70
     1
102
RTVSPost2010Prop51ColorIndex
 90
      256
102
RTVSPost2010Prop51ColorRGB
 90
-16777216
102
RTVSPost2010PropOp51
 70
     0
102
RTVSPost2010Prop52
140
1.0
102
RTVSPost2010PropOp52
 70
     0
102
RTVSPost2010Prop53
 90
        2
102
RTVSPost2010PropOp53
 70
     1
102
RTVSPost2010Prop54
  1
strokes_ogs.tif
102
RTVSPost2010PropOp54
 70
     1
102
RTVSPost2010Prop55
280
     0
102
RTVSPost2010PropOp55
 70
     1
102
RTVSPost2010Prop56
140
1.0
102
RTVSPost2010PropOp56
 70
     1
102
RTVSPost2010Prop57
140
1.0
102
RTVSPost2010PropOp57
 70
     1
102
RTVSPropertyOp0
 70
     1
102
RTVSPropertyOp1
 70
     1
102
RTVSPropertyOp2
 70
     1
102
RTVSPropertyOp3
 70
     1
102
RTVSPropertyOp4
 70
     1
102
RTVSPropertyOp5
 70
     1
102
RTVSPropertyOp6
 70
     1
102
RTVSPropertyOp7
 70
     1
102
RTVSPropertyOp8
 70
     1
102
RTVSPropertyOp9
 70
     1
102
RTVSPropertyOp10
 70
     1
102
RTVSPropertyOp11
 70
     1
102
RTVSPropertyOp12
 70
     1
102
RTVSPropertyOp13
 70
     1
102
RTVSPropertyOp14
 70
     1
102
RTVSPropertyOp15
 70
     1
102
RTVSPropertyOp16
 70
     1
102
RTVSPropertyOp17
 70
     1
102
RTVSPropertyOp18
 70
     1
102
RTVSPropertyOp19
 70
     1
102
RTVSPropertyOp20
 70
     1
102
RTVSPropertyOp21
 70
     1
102
RTVSPropertyOp22
 70
     1
102
RTVSPropertyOp23
 70
     1
102
RTVSPropertyOp24
 70
     1
102
RTVSPropertyOp25
 70
     1
102
RTVSPropertyOp26
 70
     1
102
RTVSPropertyOp27
 70
     1
102
RTVSPropertyOp28
 70
     1
102
RTVSPropertyOp29
 70
     1
102
RTVSPropertyOp30
 70
     1
102
RTVSPropertyOp31
 70
     1
102
RTVSPropertyOp32
 70
     1
102
RTVSPropertyOp33
 70
     1
102
RTVSPropertyOp34
 70
     1
102
RTVSPropertyOp35
 70
     1
102
RTVSPropertyOp36
 70
     1
102
RTVSPropertyOp37
 70
     1
102
RTVSPropertyOp38
 70
     1
102
RTVSPropertyOp39
 70
     1
102
RTVSPropertyOp40
 70
     1
102
RTVSPropertyOp41
 70
     1
102
RTVSPropertyOp42
 70
     1
102
RTVSPropertyOp43
 70
     1
102
RTVSPropertyOp44
 70
     1
102
RTVSPropertyOp45
 70
     1
102
RTVSPropertyOp46
 70
     1
102
RTVSPropertyOp47
 70
     1
102
RTVSPropertyOp48
 70
     1
102
RTVSPropertyOp49
 70
     1
102
RTVSPropertyOp50
 70
     1
102
RTVSPropertyOp51
 70
     0
102
RTVSPropertyOp52
 70
     0
102
RTVSPropertyOp53
 70
     1
102
RTVSPropertyOp54
 70
     1
102
RTVSPropertyOp55
 70
     1
102
RTVSPropertyOp56
 70
     1
102
RTVSPropertyOp57
 70
     1
102
RTVSPropertyOp58
 70
     1
102
RTVSPropertyOp59
 70
     1
102
RTVSPropertyOp60
 70
     1
102
RTVSPropertyOp61
 70
     1
102
RTVSPropertyOp62
 70
     1
  0
XRECORD
  5
588
102
{ACAD_REACTORS
330
587
102
}
330
587
100
AcDbXrecord
280
     1
102
RTVSPost2010Prop28
280
     0
102
RTVSPost2010PropOp28
 70
     1
102
RTVSPost2010Prop29
280
     1
102
RTVSPost2010PropOp29
 70
     1
102
RTVSPost2010Prop30
280
     1
102
RTVSPost2010PropOp30
 70
     1
102
RTVSPost2010Prop31
280
     0
102
RTVSPost2010PropOp31
 70
     1
102
RTVSPost2010Prop32
280
     0
102
RTVSPost2010PropOp32
 70
     1
102
RTVSPost2010Prop33
280
     0
102
RTVSPost2010PropOp33
 70
     1
102
RTVSPost2010Prop34
280
     0
102
RTVSPost2010PropOp34
 70
     1
102
RTVSPost2010Prop35
280
     0
102
RTVSPost2010PropOp35
 70
     1
102
RTVSPost2010Prop36
280
     0
102
RTVSPost2010PropOp36
 70
     1
102
RTVSPost2010Prop37
 90
       50
102
RTVSPost2010PropOp37
 70
     1
102
RTVSPost2010Prop38
140
0.0
102
RTVSPost2010PropOp38
 70
     1
102
RTVSPost2010Prop39
140
1.0
102
RTVSPost2010PropOp39
 70
     1
102
RTVSPost2010Prop40
 90
        0
102
RTVSPost2010PropOp40
 70
     1
102
RTVSPost2010Prop41ColorIndex
 90
       18
102
RTVSPost2010Prop41ColorRGB
 90
        0
102
RTVSPost2010PropOp41
 70
     1
102
RTVSPost2010Prop42
 90
       50
102
RTVSPost2010PropOp42
 70
     1
102
RTVSPost2010Prop43
 90
        3
102
RTVSPost2010PropOp43
 70
     1
102
RTVSPost2010Prop44ColorIndex
 90
        5
102
RTVSPost2010Prop44ColorRGB
 90
      255
102
RTVSPost2010PropOp44
 70
     1
102
RTVSPost2010Prop45
280
     0
102
RTVSPost2010PropOp45
 70
     1
102
RTVSPost2010Prop46
 90
       50
102
RTVSPost2010PropOp46
 70
     1
102
RTVSPost2010Prop47
 90
       50
102
RTVSPost2010PropOp47
 70
     1
102
RTVSPost2010Prop48
 90
       50
102
RTVSPost2010PropOp48
 70
     1
102
RTVSPost2010Prop49
280
     0
102
RTVSPost2010PropOp49
 70
     1
102
RTVSPost2010Prop50
 90
       50
102
RTVSPost2010PropOp50
 70
     1
102
RTVSPost2010Prop51ColorIndex
 90
      256
102
RTVSPost2010Prop51ColorRGB
 90
-16777216
102
RTVSPost2010PropOp51
 70
     0
102
RTVSPost2010Prop52
140
1.0
102
RTVSPost2010PropOp52
 70
     0
102
RTVSPost2010Prop53
 90
        2
102
RTVSPost2010PropOp53
 70
     1
102
RTVSPost2010Prop54
  1
strokes_ogs.tif
102
RTVSPost2010PropOp54
 70
     1
102
RTVSPost2010Prop55
280
     0
102
RTVSPost2010PropOp55
 70
     1
102
RTVSPost2010Prop56
140
1.0
102
RTVSPost2010PropOp56
 70
     1
102
RTVSPost2010Prop57
140
1.0
102
RTVSPost2010PropOp57
 70
     1
102
RTVSPropertyOp0
 70
     1
102
RTVSPropertyOp1
 70
     1
102
RTVSPropertyOp2
 70
     1
102
RTVSPropertyOp3
 70
     1
102
RTVSPropertyOp4
 70
     1
102
RTVSPropertyOp5
 70
     1
102
RTVSPropertyOp6
 70
     1
102
RTVSPropertyOp7
 70
     1
102
RTVSPropertyOp8
 70
     1
102
RTVSPropertyOp9
 70
     1
102
RTVSPropertyOp10
 70
     1
102
RTVSPropertyOp11
 70
     1
102
RTVSPropertyOp12
 70
     1
102
RTVSPropertyOp13
 70
     1
102
RTVSPropertyOp14
 70
     1
102
RTVSPropertyOp15
 70
     1
102
RTVSPropertyOp16
 70
     1
102
RTVSPropertyOp17
 70
     1
102
RTVSPropertyOp18
 70
     1
102
RTVSPropertyOp19
 70
     1
102
RTVSPropertyOp20
 70
     1
102
RTVSPropertyOp21
 70
     1
102
RTVSPropertyOp22
 70
     1
102
RTVSPropertyOp23
 70
     1
102
RTVSPropertyOp24
 70
     1
102
RTVSPropertyOp25
 70
     1
102
RTVSPropertyOp26
 70
     1
102
RTVSPropertyOp27
 70
     1
102
RTVSPropertyOp28
 70
     1
102
RTVSPropertyOp29
 70
     1
102
RTVSPropertyOp30
 70
     1
102
RTVSPropertyOp31
 70
     1
102
RTVSPropertyOp32
 70
     1
102
RTVSPropertyOp33
 70
     1
102
RTVSPropertyOp34
 70
     1
102
RTVSPropertyOp35
 70
     1
102
RTVSPropertyOp36
 70
     1
102
RTVSPropertyOp37
 70
     1
102
RTVSPropertyOp38
 70
     1
102
RTVSPropertyOp39
 70
     1
102
RTVSPropertyOp40
 70
     1
102
RTVSPropertyOp41
 70
     1
102
RTVSPropertyOp42
 70
     1
102
RTVSPropertyOp43
 70
     1
102
RTVSPropertyOp44
 70
     1
102
RTVSPropertyOp45
 70
     1
102
RTVSPropertyOp46
 70
     1
102
RTVSPropertyOp47
 70
     1
102
RTVSPropertyOp48
 70
     1
102
RTVSPropertyOp49
 70
     1
102
RTVSPropertyOp50
 70
     1
102
RTVSPropertyOp51
 70
     0
102
RTVSPropertyOp52
 70
     0
102
RTVSPropertyOp53
 70
     1
102
RTVSPropertyOp54
 70
     1
102
RTVSPropertyOp55
 70
     1
102
RTVSPropertyOp56
 70
     1
102
RTVSPropertyOp57
 70
     1
102
RTVSPropertyOp58
 70
     1
102
RTVSPropertyOp59
 70
     1
102
RTVSPropertyOp60
 70
     1
102
RTVSPropertyOp61
 70
     1
102
RTVSPropertyOp62
 70
     1
  0
XRECORD
  5
590
102
{ACAD_REACTORS
330
58F
102
}
330
58F
100
AcDbXrecord
280
     1
102
RTVSPost2010Prop28
280
     0
102
RTVSPost2010PropOp28
 70
     1
102
RTVSPost2010Prop29
280
     1
102
RTVSPost2010PropOp29
 70
     1
102
RTVSPost2010Prop30
280
     1
102
RTVSPost2010PropOp30
 70
     1
102
RTVSPost2010Prop31
280
     0
102
RTVSPost2010PropOp31
 70
     1
102
RTVSPost2010Prop32
280
     0
102
RTVSPost2010PropOp32
 70
     1
102
RTVSPost2010Prop33
280
     0
102
RTVSPost2010PropOp33
 70
     1
102
RTVSPost2010Prop34
280
     0
102
RTVSPost2010PropOp34
 70
     1
102
RTVSPost2010Prop35
280
     0
102
RTVSPost2010PropOp35
 70
     1
102
RTVSPost2010Prop36
280
     0
102
RTVSPost2010PropOp36
 70
     1
102
RTVSPost2010Prop37
 90
       50
102
RTVSPost2010PropOp37
 70
     1
102
RTVSPost2010Prop38
140
0.0
102
RTVSPost2010PropOp38
 70
     1
102
RTVSPost2010Prop39
140
1.0
102
RTVSPost2010PropOp39
 70
     1
102
RTVSPost2010Prop40
 90
        0
102
RTVSPost2010PropOp40
 70
     1
102
RTVSPost2010Prop41ColorIndex
 90
       18
102
RTVSPost2010Prop41ColorRGB
 90
        0
102
RTVSPost2010PropOp41
 70
     1
102
RTVSPost2010Prop42
 90
       50
102
RTVSPost2010PropOp42
 70
     1
102
RTVSPost2010Prop43
 90
        3
102
RTVSPost2010PropOp43
 70
     1
102
RTVSPost2010Prop44ColorIndex
 90
        5
102
RTVSPost2010Prop44ColorRGB
 90
      255
102
RTVSPost2010PropOp44
 70
     1
102
RTVSPost2010Prop45
280
     0
102
RTVSPost2010PropOp45
 70
     1
102
RTVSPost2010Prop46
 90
       50
102
RTVSPost2010PropOp46
 70
     1
102
RTVSPost2010Prop47
 90
       50
102
RTVSPost2010PropOp47
 70
     1
102
RTVSPost2010Prop48
 90
       50
102
RTVSPost2010PropOp48
 70
     1
102
RTVSPost2010Prop49
280
     0
102
RTVSPost2010PropOp49
 70
     1
102
RTVSPost2010Prop50
 90
       50
102
RTVSPost2010PropOp50
 70
     1
102
RTVSPost2010Prop51ColorIndex
 90
      256
102
RTVSPost2010Prop51ColorRGB
 90
-16777216
102
RTVSPost2010PropOp51
 70
     0
102
RTVSPost2010Prop52
140
1.0
102
RTVSPost2010PropOp52
 70
     0
102
RTVSPost2010Prop53
 90
        2
102
RTVSPost2010PropOp53
 70
     1
102
RTVSPost2010Prop54
  1
strokes_ogs.tif
102
RTVSPost2010PropOp54
 70
     1
102
RTVSPost2010Prop55
280
     0
102
RTVSPost2010PropOp55
 70
     1
102
RTVSPost2010Prop56
140
1.0
102
RTVSPost2010PropOp56
 70
     1
102
RTVSPost2010Prop57
140
1.0
102
RTVSPost2010PropOp57
 70
     1
102
RTVSPropertyOp0
 70
     1
102
RTVSPropertyOp1
 70
     1
102
RTVSPropertyOp2
 70
     1
102
RTVSPropertyOp3
 70
     1
102
RTVSPropertyOp4
 70
     1
102
RTVSPropertyOp5
 70
     1
102
RTVSPropertyOp6
 70
     1
102
RTVSPropertyOp7
 70
     1
102
RTVSPropertyOp8
 70
     1
102
RTVSPropertyOp9
 70
     1
102
RTVSPropertyOp10
 70
     1
102
RTVSPropertyOp11
 70
     1
102
RTVSPropertyOp12
 70
     1
102
RTVSPropertyOp13
 70
     1
102
RTVSPropertyOp14
 70
     1
102
RTVSPropertyOp15
 70
     1
102
RTVSPropertyOp16
 70
     1
102
RTVSPropertyOp17
 70
     1
102
RTVSPropertyOp18
 70
     1
102
RTVSPropertyOp19
 70
     1
102
RTVSPropertyOp20
 70
     1
102
RTVSPropertyOp21
 70
     1
102
RTVSPropertyOp22
 70
     1
102
RTVSPropertyOp23
 70
     1
102
RTVSPropertyOp24
 70
     1
102
RTVSPropertyOp25
 70
     1
102
RTVSPropertyOp26
 70
     1
102
RTVSPropertyOp27
 70
     1
102
RTVSPropertyOp28
 70
     1
102
RTVSPropertyOp29
 70
     1
102
RTVSPropertyOp30
 70
     1
102
RTVSPropertyOp31
 70
     1
102
RTVSPropertyOp32
 70
     1
102
RTVSPropertyOp33
 70
     1
102
RTVSPropertyOp34
 70
     1
102
RTVSPropertyOp35
 70
     1
102
RTVSPropertyOp36
 70
     1
102
RTVSPropertyOp37
 70
     1
102
RTVSPropertyOp38
 70
     1
102
RTVSPropertyOp39
 70
     1
102
RTVSPropertyOp40
 70
     1
102
RTVSPropertyOp41
 70
     1
102
RTVSPropertyOp42
 70
     1
102
RTVSPropertyOp43
 70
     1
102
RTVSPropertyOp44
 70
     1
102
RTVSPropertyOp45
 70
     1
102
RTVSPropertyOp46
 70
     1
102
RTVSPropertyOp47
 70
     1
102
RTVSPropertyOp48
 70
     1
102
RTVSPropertyOp49
 70
     1
102
RTVSPropertyOp50
 70
     1
102
RTVSPropertyOp51
 70
     0
102
RTVSPropertyOp52
 70
     0
102
RTVSPropertyOp53
 70
     1
102
RTVSPropertyOp54
 70
     1
102
RTVSPropertyOp55
 70
     1
102
RTVSPropertyOp56
 70
     1
102
RTVSPropertyOp57
 70
     1
102
RTVSPropertyOp58
 70
     1
102
RTVSPropertyOp59
 70
     1
102
RTVSPropertyOp60
 70
     1
102
RTVSPropertyOp61
 70
     1
102
RTVSPropertyOp62
 70
     1
  0
XRECORD
  5
584
102
{ACAD_REACTORS
330
583
102
}
330
583
100
AcDbXrecord
280
     1
102
RTVSPost2010Prop28
280
     0
102
RTVSPost2010PropOp28
 70
     1
102
RTVSPost2010Prop29
280
     1
102
RTVSPost2010PropOp29
 70
     1
102
RTVSPost2010Prop30
280
     1
102
RTVSPost2010PropOp30
 70
     1
102
RTVSPost2010Prop31
280
     0
102
RTVSPost2010PropOp31
 70
     1
102
RTVSPost2010Prop32
280
     0
102
RTVSPost2010PropOp32
 70
     1
102
RTVSPost2010Prop33
280
     0
102
RTVSPost2010PropOp33
 70
     1
102
RTVSPost2010Prop34
280
     0
102
RTVSPost2010PropOp34
 70
     1
102
RTVSPost2010Prop35
280
     0
102
RTVSPost2010PropOp35
 70
     1
102
RTVSPost2010Prop36
280
     0
102
RTVSPost2010PropOp36
 70
     1
102
RTVSPost2010Prop37
 90
       50
102
RTVSPost2010PropOp37
 70
     1
102
RTVSPost2010Prop38
140
0.0
102
RTVSPost2010PropOp38
 70
     1
102
RTVSPost2010Prop39
140
1.0
102
RTVSPost2010PropOp39
 70
     1
102
RTVSPost2010Prop40
 90
        0
102
RTVSPost2010PropOp40
 70
     1
102
RTVSPost2010Prop41ColorIndex
 90
       18
102
RTVSPost2010Prop41ColorRGB
 90
        0
102
RTVSPost2010PropOp41
 70
     1
102
RTVSPost2010Prop42
 90
       50
102
RTVSPost2010PropOp42
 70
     1
102
RTVSPost2010Prop43
 90
        3
102
RTVSPost2010PropOp43
 70
     1
102
RTVSPost2010Prop44ColorIndex
 90
        5
102
RTVSPost2010Prop44ColorRGB
 90
      255
102
RTVSPost2010PropOp44
 70
     1
102
RTVSPost2010Prop45
280
     0
102
RTVSPost2010PropOp45
 70
     1
102
RTVSPost2010Prop46
 90
       50
102
RTVSPost2010PropOp46
 70
     1
102
RTVSPost2010Prop47
 90
       50
102
RTVSPost2010PropOp47
 70
     1
102
RTVSPost2010Prop48
 90
       50
102
RTVSPost2010PropOp48
 70
     1
102
RTVSPost2010Prop49
280
     0
102
RTVSPost2010PropOp49
 70
     1
102
RTVSPost2010Prop50
 90
       50
102
RTVSPost2010PropOp50
 70
     1
102
RTVSPost2010Prop51ColorIndex
 90
      256
102
RTVSPost2010Prop51ColorRGB
 90
-16777216
102
RTVSPost2010PropOp51
 70
     0
102
RTVSPost2010Prop52
140
1.0
102
RTVSPost2010PropOp52
 70
     0
102
RTVSPost2010Prop53
 90
        2
102
RTVSPost2010PropOp53
 70
     1
102
RTVSPost2010Prop54
  1
strokes_ogs.tif
102
RTVSPost2010PropOp54
 70
     1
102
RTVSPost2010Prop55
280
     0
102
RTVSPost2010PropOp55
 70
     1
102
RTVSPost2010Prop56
140
1.0
102
RTVSPost2010PropOp56
 70
     1
102
RTVSPost2010Prop57
140
1.0
102
RTVSPost2010PropOp57
 70
     1
102
RTVSPropertyOp0
 70
     1
102
RTVSPropertyOp1
 70
     1
102
RTVSPropertyOp2
 70
     1
102
RTVSPropertyOp3
 70
     1
102
RTVSPropertyOp4
 70
     1
102
RTVSPropertyOp5
 70
     1
102
RTVSPropertyOp6
 70
     1
102
RTVSPropertyOp7
 70
     1
102
RTVSPropertyOp8
 70
     1
102
RTVSPropertyOp9
 70
     1
102
RTVSPropertyOp10
 70
     1
102
RTVSPropertyOp11
 70
     1
102
RTVSPropertyOp12
 70
     1
102
RTVSPropertyOp13
 70
     1
102
RTVSPropertyOp14
 70
     1
102
RTVSPropertyOp15
 70
     1
102
RTVSPropertyOp16
 70
     1
102
RTVSPropertyOp17
 70
     1
102
RTVSPropertyOp18
 70
     1
102
RTVSPropertyOp19
 70
     1
102
RTVSPropertyOp20
 70
     1
102
RTVSPropertyOp21
 70
     1
102
RTVSPropertyOp22
 70
     1
102
RTVSPropertyOp23
 70
     1
102
RTVSPropertyOp24
 70
     1
102
RTVSPropertyOp25
 70
     1
102
RTVSPropertyOp26
 70
     1
102
RTVSPropertyOp27
 70
     1
102
RTVSPropertyOp28
 70
     1
102
RTVSPropertyOp29
 70
     1
102
RTVSPropertyOp30
 70
     1
102
RTVSPropertyOp31
 70
     1
102
RTVSPropertyOp32
 70
     1
102
RTVSPropertyOp33
 70
     1
102
RTVSPropertyOp34
 70
     1
102
RTVSPropertyOp35
 70
     1
102
RTVSPropertyOp36
 70
     1
102
RTVSPropertyOp37
 70
     1
102
RTVSPropertyOp38
 70
     1
102
RTVSPropertyOp39
 70
     1
102
RTVSPropertyOp40
 70
     1
102
RTVSPropertyOp41
 70
     1
102
RTVSPropertyOp42
 70
     1
102
RTVSPropertyOp43
 70
     1
102
RTVSPropertyOp44
 70
     1
102
RTVSPropertyOp45
 70
     1
102
RTVSPropertyOp46
 70
     1
102
RTVSPropertyOp47
 70
     1
102
RTVSPropertyOp48
 70
     1
102
RTVSPropertyOp49
 70
     1
102
RTVSPropertyOp50
 70
     1
102
RTVSPropertyOp51
 70
     0
102
RTVSPropertyOp52
 70
     0
102
RTVSPropertyOp53
 70
     1
102
RTVSPropertyOp54
 70
     1
102
RTVSPropertyOp55
 70
     1
102
RTVSPropertyOp56
 70
     1
102
RTVSPropertyOp57
 70
     1
102
RTVSPropertyOp58
 70
     1
102
RTVSPropertyOp59
 70
     1
102
RTVSPropertyOp60
 70
     1
102
RTVSPropertyOp61
 70
     1
102
RTVSPropertyOp62
 70
     1
  0
XRECORD
  5
586
102
{ACAD_REACTORS
330
585
102
}
330
585
100
AcDbXrecord
280
     1
102
RTVSPost2010Prop28
280
     0
102
RTVSPost2010PropOp28
 70
     1
102
RTVSPost2010Prop29
280
     1
102
RTVSPost2010PropOp29
 70
     1
102
RTVSPost2010Prop30
280
     1
102
RTVSPost2010PropOp30
 70
     1
102
RTVSPost2010Prop31
280
     0
102
RTVSPost2010PropOp31
 70
     1
102
RTVSPost2010Prop32
280
     0
102
RTVSPost2010PropOp32
 70
     1
102
RTVSPost2010Prop33
280
     0
102
RTVSPost2010PropOp33
 70
     1
102
RTVSPost2010Prop34
280
     0
102
RTVSPost2010PropOp34
 70
     1
102
RTVSPost2010Prop35
280
     0
102
RTVSPost2010PropOp35
 70
     1
102
RTVSPost2010Prop36
280
     0
102
RTVSPost2010PropOp36
 70
     1
102
RTVSPost2010Prop37
 90
       50
102
RTVSPost2010PropOp37
 70
     1
102
RTVSPost2010Prop38
140
0.0
102
RTVSPost2010PropOp38
 70
     1
102
RTVSPost2010Prop39
140
1.0
102
RTVSPost2010PropOp39
 70
     1
102
RTVSPost2010Prop40
 90
        0
102
RTVSPost2010PropOp40
 70
     1
102
RTVSPost2010Prop41ColorIndex
 90
       18
102
RTVSPost2010Prop41ColorRGB
 90
        0
102
RTVSPost2010PropOp41
 70
     1
102
RTVSPost2010Prop42
 90
       50
102
RTVSPost2010PropOp42
 70
     1
102
RTVSPost2010Prop43
 90
        3
102
RTVSPost2010PropOp43
 70
     1
102
RTVSPost2010Prop44ColorIndex
 90
        5
102
RTVSPost2010Prop44ColorRGB
 90
      255
102
RTVSPost2010PropOp44
 70
     1
102
RTVSPost2010Prop45
280
     0
102
RTVSPost2010PropOp45
 70
     1
102
RTVSPost2010Prop46
 90
       50
102
RTVSPost2010PropOp46
 70
     1
102
RTVSPost2010Prop47
 90
       50
102
RTVSPost2010PropOp47
 70
     1
102
RTVSPost2010Prop48
 90
       50
102
RTVSPost2010PropOp48
 70
     1
102
RTVSPost2010Prop49
280
     0
102
RTVSPost2010PropOp49
 70
     1
102
RTVSPost2010Prop50
 90
       50
102
RTVSPost2010PropOp50
 70
     1
102
RTVSPost2010Prop51ColorIndex
 90
      256
102
RTVSPost2010Prop51ColorRGB
 90
-16777216
102
RTVSPost2010PropOp51
 70
     0
102
RTVSPost2010Prop52
140
1.0
102
RTVSPost2010PropOp52
 70
     0
102
RTVSPost2010Prop53
 90
        2
102
RTVSPost2010PropOp53
 70
     1
102
RTVSPost2010Prop54
  1
strokes_ogs.tif
102
RTVSPost2010PropOp54
 70
     1
102
RTVSPost2010Prop55
280
     0
102
RTVSPost2010PropOp55
 70
     1
102
RTVSPost2010Prop56
140
1.0
102
RTVSPost2010PropOp56
 70
     1
102
RTVSPost2010Prop57
140
1.0
102
RTVSPost2010PropOp57
 70
     1
102
RTVSPropertyOp0
 70
     1
102
RTVSPropertyOp1
 70
     1
102
RTVSPropertyOp2
 70
     1
102
RTVSPropertyOp3
 70
     1
102
RTVSPropertyOp4
 70
     1
102
RTVSPropertyOp5
 70
     1
102
RTVSPropertyOp6
 70
     1
102
RTVSPropertyOp7
 70
     1
102
RTVSPropertyOp8
 70
     1
102
RTVSPropertyOp9
 70
     1
102
RTVSPropertyOp10
 70
     1
102
RTVSPropertyOp11
 70
     1
102
RTVSPropertyOp12
 70
     1
102
RTVSPropertyOp13
 70
     1
102
RTVSPropertyOp14
 70
     1
102
RTVSPropertyOp15
 70
     1
102
RTVSPropertyOp16
 70
     1
102
RTVSPropertyOp17
 70
     1
102
RTVSPropertyOp18
 70
     1
102
RTVSPropertyOp19
 70
     1
102
RTVSPropertyOp20
 70
     1
102
RTVSPropertyOp21
 70
     1
102
RTVSPropertyOp22
 70
     1
102
RTVSPropertyOp23
 70
     1
102
RTVSPropertyOp24
 70
     1
102
RTVSPropertyOp25
 70
     1
102
RTVSPropertyOp26
 70
     1
102
RTVSPropertyOp27
 70
     1
102
RTVSPropertyOp28
 70
     1
102
RTVSPropertyOp29
 70
     1
102
RTVSPropertyOp30
 70
     1
102
RTVSPropertyOp31
 70
     1
102
RTVSPropertyOp32
 70
     1
102
RTVSPropertyOp33
 70
     1
102
RTVSPropertyOp34
 70
     1
102
RTVSPropertyOp35
 70
     1
102
RTVSPropertyOp36
 70
     1
102
RTVSPropertyOp37
 70
     1
102
RTVSPropertyOp38
 70
     1
102
RTVSPropertyOp39
 70
     1
102
RTVSPropertyOp40
 70
     1
102
RTVSPropertyOp41
 70
     1
102
RTVSPropertyOp42
 70
     1
102
RTVSPropertyOp43
 70
     1
102
RTVSPropertyOp44
 70
     1
102
RTVSPropertyOp45
 70
     1
102
RTVSPropertyOp46
 70
     1
102
RTVSPropertyOp47
 70
     1
102
RTVSPropertyOp48
 70
     1
102
RTVSPropertyOp49
 70
     1
102
RTVSPropertyOp50
 70
     1
102
RTVSPropertyOp51
 70
     0
102
RTVSPropertyOp52
 70
     0
102
RTVSPropertyOp53
 70
     1
102
RTVSPropertyOp54
 70
     1
102
RTVSPropertyOp55
 70
     1
102
RTVSPropertyOp56
 70
     1
102
RTVSPropertyOp57
 70
     1
102
RTVSPropertyOp58
 70
     1
102
RTVSPropertyOp59
 70
     1
102
RTVSPropertyOp60
 70
     1
102
RTVSPropertyOp61
 70
     1
102
RTVSPropertyOp62
 70
     1
  0
XRECORD
  5
596
102
{ACAD_REACTORS
330
595
102
}
330
595
100
AcDbXrecord
280
     1
102
RTVSPost2010Prop28
280
     0
102
RTVSPost2010PropOp28
 70
     0
102
RTVSPost2010Prop29
280
     1
102
RTVSPost2010PropOp29
 70
     0
102
RTVSPost2010Prop30
280
     1
102
RTVSPost2010PropOp30
 70
     0
102
RTVSPost2010Prop31
280
     0
102
RTVSPost2010PropOp31
 70
     0
102
RTVSPost2010Prop32
280
     0
102
RTVSPost2010PropOp32
 70
     0
102
RTVSPost2010Prop33
280
     0
102
RTVSPost2010PropOp33
 70
     0
102
RTVSPost2010Prop34
280
     0
102
RTVSPost2010PropOp34
 70
     0
102
RTVSPost2010Prop35
280
     0
102
RTVSPost2010PropOp35
 70
     0
102
RTVSPost2010Prop36
280
     0
102
RTVSPost2010PropOp36
 70
     0
102
RTVSPost2010Prop37
 90
       50
102
RTVSPost2010PropOp37
 70
     0
102
RTVSPost2010Prop38
140
0.0
102
RTVSPost2010PropOp38
 70
     0
102
RTVSPost2010Prop39
140
1.0
102
RTVSPost2010PropOp39
 70
     0
102
RTVSPost2010Prop40
 90
        0
102
RTVSPost2010PropOp40
 70
     0
102
RTVSPost2010Prop41ColorIndex
 90
       18
102
RTVSPost2010Prop41ColorRGB
 90
        0
102
RTVSPost2010PropOp41
 70
     0
102
RTVSPost2010Prop42
 90
       50
102
RTVSPost2010PropOp42
 70
     0
102
RTVSPost2010Prop43
 90
        3
102
RTVSPost2010PropOp43
 70
     0
102
RTVSPost2010Prop44ColorIndex
 90
        5
102
RTVSPost2010Prop44ColorRGB
 90
      255
102
RTVSPost2010PropOp44
 70
     0
102
RTVSPost2010Prop45
280
     0
102
RTVSPost2010PropOp45
 70
     0
102
RTVSPost2010Prop46
 90
       50
102
RTVSPost2010PropOp46
 70
     0
102
RTVSPost2010Prop47
 90
       50
102
RTVSPost2010PropOp47
 70
     0
102
RTVSPost2010Prop48
 90
       50
102
RTVSPost2010PropOp48
 70
     0
102
RTVSPost2010Prop49
280
     0
102
RTVSPost2010PropOp49
 70
     0
102
RTVSPost2010Prop50
 90
       50
102
RTVSPost2010PropOp50
 70
     0
102
RTVSPost2010Prop51ColorIndex
 90
      256
102
RTVSPost2010Prop51ColorRGB
 90
-16777216
102
RTVSPost2010PropOp51
 70
     0
102
RTVSPost2010Prop52
140
1.0
102
RTVSPost2010PropOp52
 70
     0
102
RTVSPost2010Prop53
 90
        2
102
RTVSPost2010PropOp53
 70
     0
102
RTVSPost2010Prop54
  1
strokes_ogs.tif
102
RTVSPost2010PropOp54
 70
     0
102
RTVSPost2010Prop55
280
     0
102
RTVSPost2010PropOp55
 70
     0
102
RTVSPost2010Prop56
140
1.0
102
RTVSPost2010PropOp56
 70
     0
102
RTVSPost2010Prop57
140
1.0
102
RTVSPost2010PropOp57
 70
     0
102
RTVSPropertyOp0
 70
     0
102
RTVSPropertyOp1
 70
     0
102
RTVSPropertyOp2
 70
     0
102
RTVSPropertyOp3
 70
     0
102
RTVSPropertyOp4
 70
     0
102
RTVSPropertyOp5
 70
     0
102
RTVSPropertyOp6
 70
     0
102
RTVSPropertyOp7
 70
     0
102
RTVSPropertyOp8
 70
     0
102
RTVSPropertyOp9
 70
     0
102
RTVSPropertyOp10
 70
     0
102
RTVSPropertyOp11
 70
     0
102
RTVSPropertyOp12
 70
     0
102
RTVSPropertyOp13
 70
     0
102
RTVSPropertyOp14
 70
     2
102
RTVSPropertyOp15
 70
     0
102
RTVSPropertyOp16
 70
     0
102
RTVSPropertyOp17
 70
     0
102
RTVSPropertyOp18
 70
     0
102
RTVSPropertyOp19
 70
     0
102
RTVSPropertyOp20
 70
     0
102
RTVSPropertyOp21
 70
     0
102
RTVSPropertyOp22
 70
     0
102
RTVSPropertyOp23
 70
     0
102
RTVSPropertyOp24
 70
     0
102
RTVSPropertyOp25
 70
     0
102
RTVSPropertyOp26
 70
     0
102
RTVSPropertyOp27
 70
     0
102
RTVSPropertyOp28
 70
     0
102
RTVSPropertyOp29
 70
     0
102
RTVSPropertyOp30
 70
     0
102
RTVSPropertyOp31
 70
     0
102
RTVSPropertyOp32
 70
     0
102
RTVSPropertyOp33
 70
     0
102
RTVSPropertyOp34
 70
     0
102
RTVSPropertyOp35
 70
     0
102
RTVSPropertyOp36
 70
     0
102
RTVSPropertyOp37
 70
     0
102
RTVSPropertyOp38
 70
     0
102
RTVSPropertyOp39
 70
     0
102
RTVSPropertyOp40
 70
     0
102
RTVSPropertyOp41
 70
     0
102
RTVSPropertyOp42
 70
     0
102
RTVSPropertyOp43
 70
     0
102
RTVSPropertyOp44
 70
     0
102
RTVSPropertyOp45
 70
     0
102
RTVSPropertyOp46
 70
     0
102
RTVSPropertyOp47
 70
     0
102
RTVSPropertyOp48
 70
     0
102
RTVSPropertyOp49
 70
     0
102
RTVSPropertyOp50
 70
     0
102
RTVSPropertyOp51
 70
     0
102
RTVSPropertyOp52
 70
     0
102
RTVSPropertyOp53
 70
     0
102
RTVSPropertyOp54
 70
     0
102
RTVSPropertyOp55
 70
     0
102
RTVSPropertyOp56
 70
     0
102
RTVSPropertyOp57
 70
     0
102
RTVSPropertyOp58
 70
     1
102
RTVSPropertyOp59
 70
     1
102
RTVSPropertyOp60
 70
     1
102
RTVSPropertyOp61
 70
     1
102
RTVSPropertyOp62
 70
     1
  0
XRECORD
  5
58E
102
{ACAD_REACTORS
330
58D
102
}
330
58D
100
AcDbXrecord
280
     1
102
RTVSPost2010Prop28
280
     0
102
RTVSPost2010PropOp28
 70
     1
102
RTVSPost2010Prop29
280
     1
102
RTVSPost2010PropOp29
 70
     1
102
RTVSPost2010Prop30
280
     1
102
RTVSPost2010PropOp30
 70
     1
102
RTVSPost2010Prop31
280
     0
102
RTVSPost2010PropOp31
 70
     1
102
RTVSPost2010Prop32
280
     0
102
RTVSPost2010PropOp32
 70
     1
102
RTVSPost2010Prop33
280
     0
102
RTVSPost2010PropOp33
 70
     1
102
RTVSPost2010Prop34
280
     0
102
RTVSPost2010PropOp34
 70
     1
102
RTVSPost2010Prop35
280
     0
102
RTVSPost2010PropOp35
 70
     1
102
RTVSPost2010Prop36
280
     0
102
RTVSPost2010PropOp36
 70
     1
102
RTVSPost2010Prop37
 90
       50
102
RTVSPost2010PropOp37
 70
     1
102
RTVSPost2010Prop38
140
0.0
102
RTVSPost2010PropOp38
 70
     1
102
RTVSPost2010Prop39
140
1.0
102
RTVSPost2010PropOp39
 70
     1
102
RTVSPost2010Prop40
 90
        0
102
RTVSPost2010PropOp40
 70
     1
102
RTVSPost2010Prop41ColorIndex
 90
       18
102
RTVSPost2010Prop41ColorRGB
 90
        0
102
RTVSPost2010PropOp41
 70
     1
102
RTVSPost2010Prop42
 90
       50
102
RTVSPost2010PropOp42
 70
     1
102
RTVSPost2010Prop43
 90
        3
102
RTVSPost2010PropOp43
 70
     1
102
RTVSPost2010Prop44ColorIndex
 90
        5
102
RTVSPost2010Prop44ColorRGB
 90
      255
102
RTVSPost2010PropOp44
 70
     1
102
RTVSPost2010Prop45
280
     0
102
RTVSPost2010PropOp45
 70
     1
102
RTVSPost2010Prop46
 90
       50
102
RTVSPost2010PropOp46
 70
     1
102
RTVSPost2010Prop47
 90
       50
102
RTVSPost2010PropOp47
 70
     1
102
RTVSPost2010Prop48
 90
       50
102
RTVSPost2010PropOp48
 70
     1
102
RTVSPost2010Prop49
280
     0
102
RTVSPost2010PropOp49
 70
     1
102
RTVSPost2010Prop50
 90
       50
102
RTVSPost2010PropOp50
 70
     1
102
RTVSPost2010Prop51ColorIndex
 90
      256
102
RTVSPost2010Prop51ColorRGB
 90
-16777216
102
RTVSPost2010PropOp51
 70
     0
102
RTVSPost2010Prop52
140
1.0
102
RTVSPost2010PropOp52
 70
     0
102
RTVSPost2010Prop53
 90
        2
102
RTVSPost2010PropOp53
 70
     1
102
RTVSPost2010Prop54
  1
strokes_ogs.tif
102
RTVSPost2010PropOp54
 70
     1
102
RTVSPost2010Prop55
280
     0
102
RTVSPost2010PropOp55
 70
     1
102
RTVSPost2010Prop56
140
1.0
102
RTVSPost2010PropOp56
 70
     1
102
RTVSPost2010Prop57
140
1.0
102
RTVSPost2010PropOp57
 70
     1
102
RTVSPropertyOp0
 70
     1
102
RTVSPropertyOp1
 70
     1
102
RTVSPropertyOp2
 70
     1
102
RTVSPropertyOp3
 70
     1
102
RTVSPropertyOp4
 70
     1
102
RTVSPropertyOp5
 70
     1
102
RTVSPropertyOp6
 70
     1
102
RTVSPropertyOp7
 70
     1
102
RTVSPropertyOp8
 70
     1
102
RTVSPropertyOp9
 70
     1
102
RTVSPropertyOp10
 70
     1
102
RTVSPropertyOp11
 70
     1
102
RTVSPropertyOp12
 70
     1
102
RTVSPropertyOp13
 70
     1
102
RTVSPropertyOp14
 70
     1
102
RTVSPropertyOp15
 70
     1
102
RTVSPropertyOp16
 70
     1
102
RTVSPropertyOp17
 70
     1
102
RTVSPropertyOp18
 70
     1
102
RTVSPropertyOp19
 70
     1
102
RTVSPropertyOp20
 70
     1
102
RTVSPropertyOp21
 70
     1
102
RTVSPropertyOp22
 70
     1
102
RTVSPropertyOp23
 70
     1
102
RTVSPropertyOp24
 70
     1
102
RTVSPropertyOp25
 70
     1
102
RTVSPropertyOp26
 70
     1
102
RTVSPropertyOp27
 70
     1
102
RTVSPropertyOp28
 70
     1
102
RTVSPropertyOp29
 70
     1
102
RTVSPropertyOp30
 70
     1
102
RTVSPropertyOp31
 70
     1
102
RTVSPropertyOp32
 70
     1
102
RTVSPropertyOp33
 70
     1
102
RTVSPropertyOp34
 70
     1
102
RTVSPropertyOp35
 70
     1
102
RTVSPropertyOp36
 70
     1
102
RTVSPropertyOp37
 70
     1
102
RTVSPropertyOp38
 70
     1
102
RTVSPropertyOp39
 70
     1
102
RTVSPropertyOp40
 70
     1
102
RTVSPropertyOp41
 70
     1
102
RTVSPropertyOp42
 70
     1
102
RTVSPropertyOp43
 70
     1
102
RTVSPropertyOp44
 70
     1
102
RTVSPropertyOp45
 70
     1
102
RTVSPropertyOp46
 70
     1
102
RTVSPropertyOp47
 70
     1
102
RTVSPropertyOp48
 70
     1
102
RTVSPropertyOp49
 70
     1
102
RTVSPropertyOp50
 70
     1
102
RTVSPropertyOp51
 70
     0
102
RTVSPropertyOp52
 70
     0
102
RTVSPropertyOp53
 70
     1
102
RTVSPropertyOp54
 70
     1
102
RTVSPropertyOp55
 70
     1
102
RTVSPropertyOp56
 70
     1
102
RTVSPropertyOp57
 70
     1
102
RTVSPropertyOp58
 70
     1
102
RTVSPropertyOp59
 70
     1
102
RTVSPropertyOp60
 70
     1
102
RTVSPropertyOp61
 70
     1
102
RTVSPropertyOp62
 70
     1
  0
XRECORD
  5
572
102
{ACAD_REACTORS
330
571
102
}
330
571
100
AcDbXrecord
280
     1
102
RTVSPost2010Prop28
280
     0
102
RTVSPost2010PropOp28
 70
     1
102
RTVSPost2010Prop29
280
     1
102
RTVSPost2010PropOp29
 70
     1
102
RTVSPost2010Prop30
280
     1
102
RTVSPost2010PropOp30
 70
     1
102
RTVSPost2010Prop31
280
     0
102
RTVSPost2010PropOp31
 70
     1
102
RTVSPost2010Prop32
280
     0
102
RTVSPost2010PropOp32
 70
     1
102
RTVSPost2010Prop33
280
     0
102
RTVSPost2010PropOp33
 70
     1
102
RTVSPost2010Prop34
280
     0
102
RTVSPost2010PropOp34
 70
     1
102
RTVSPost2010Prop35
280
     0
102
RTVSPost2010PropOp35
 70
     1
102
RTVSPost2010Prop36
280
     0
102
RTVSPost2010PropOp36
 70
     1
102
RTVSPost2010Prop37
 90
       50
102
RTVSPost2010PropOp37
 70
     1
102
RTVSPost2010Prop38
140
0.0
102
RTVSPost2010PropOp38
 70
     1
102
RTVSPost2010Prop39
140
1.0
102
RTVSPost2010PropOp39
 70
     1
102
RTVSPost2010Prop40
 90
        0
102
RTVSPost2010PropOp40
 70
     1
102
RTVSPost2010Prop41ColorIndex
 90
       18
102
RTVSPost2010Prop41ColorRGB
 90
        0
102
RTVSPost2010PropOp41
 70
     1
102
RTVSPost2010Prop42
 90
       50
102
RTVSPost2010PropOp42
 70
     1
102
RTVSPost2010Prop43
 90
        3
102
RTVSPost2010PropOp43
 70
     1
102
RTVSPost2010Prop44ColorIndex
 90
        5
102
RTVSPost2010Prop44ColorRGB
 90
      255
102
RTVSPost2010PropOp44
 70
     1
102
RTVSPost2010Prop45
280
     0
102
RTVSPost2010PropOp45
 70
     1
102
RTVSPost2010Prop46
 90
       50
102
RTVSPost2010PropOp46
 70
     1
102
RTVSPost2010Prop47
 90
       50
102
RTVSPost2010PropOp47
 70
     1
102
RTVSPost2010Prop48
 90
       50
102
RTVSPost2010PropOp48
 70
     1
102
RTVSPost2010Prop49
280
     0
102
RTVSPost2010PropOp49
 70
     1
102
RTVSPost2010Prop50
 90
       50
102
RTVSPost2010PropOp50
 70
     1
102
RTVSPost2010Prop51ColorIndex
 90
      256
102
RTVSPost2010Prop51ColorRGB
 90
-16777216
102
RTVSPost2010PropOp51
 70
     0
102
RTVSPost2010Prop52
140
1.0
102
RTVSPost2010PropOp52
 70
     0
102
RTVSPost2010Prop53
 90
        2
102
RTVSPost2010PropOp53
 70
     1
102
RTVSPost2010Prop54
  1
strokes_ogs.tif
102
RTVSPost2010PropOp54
 70
     1
102
RTVSPost2010Prop55
280
     0
102
RTVSPost2010PropOp55
 70
     1
102
RTVSPost2010Prop56
140
1.0
102
RTVSPost2010PropOp56
 70
     1
102
RTVSPost2010Prop57
140
1.0
102
RTVSPost2010PropOp57
 70
     1
102
RTVSPropertyOp0
 70
     1
102
RTVSPropertyOp1
 70
     1
102
RTVSPropertyOp2
 70
     1
102
RTVSPropertyOp3
 70
     1
102
RTVSPropertyOp4
 70
     1
102
RTVSPropertyOp5
 70
     1
102
RTVSPropertyOp6
 70
     1
102
RTVSPropertyOp7
 70
     1
102
RTVSPropertyOp8
 70
     1
102
RTVSPropertyOp9
 70
     1
102
RTVSPropertyOp10
 70
     1
102
RTVSPropertyOp11
 70
     1
102
RTVSPropertyOp12
 70
     1
102
RTVSPropertyOp13
 70
     1
102
RTVSPropertyOp14
 70
     1
102
RTVSPropertyOp15
 70
     1
102
RTVSPropertyOp16
 70
     1
102
RTVSPropertyOp17
 70
     1
102
RTVSPropertyOp18
 70
     1
102
RTVSPropertyOp19
 70
     1
102
RTVSPropertyOp20
 70
     1
102
RTVSPropertyOp21
 70
     1
102
RTVSPropertyOp22
 70
     1
102
RTVSPropertyOp23
 70
     1
102
RTVSPropertyOp24
 70
     1
102
RTVSPropertyOp25
 70
     1
102
RTVSPropertyOp26
 70
     1
102
RTVSPropertyOp27
 70
     1
102
RTVSPropertyOp28
 70
     1
102
RTVSPropertyOp29
 70
     1
102
RTVSPropertyOp30
 70
     1
102
RTVSPropertyOp31
 70
     1
102
RTVSPropertyOp32
 70
     1
102
RTVSPropertyOp33
 70
     1
102
RTVSPropertyOp34
 70
     1
102
RTVSPropertyOp35
 70
     1
102
RTVSPropertyOp36
 70
     1
102
RTVSPropertyOp37
 70
     1
102
RTVSPropertyOp38
 70
     1
102
RTVSPropertyOp39
 70
     1
102
RTVSPropertyOp40
 70
     1
102
RTVSPropertyOp41
 70
     1
102
RTVSPropertyOp42
 70
     1
102
RTVSPropertyOp43
 70
     1
102
RTVSPropertyOp44
 70
     1
102
RTVSPropertyOp45
 70
     1
102
RTVSPropertyOp46
 70
     1
102
RTVSPropertyOp47
 70
     1
102
RTVSPropertyOp48
 70
     1
102
RTVSPropertyOp49
 70
     1
102
RTVSPropertyOp50
 70
     1
102
RTVSPropertyOp51
 70
     0
102
RTVSPropertyOp52
 70
     0
102
RTVSPropertyOp53
 70
     1
102
RTVSPropertyOp54
 70
     1
102
RTVSPropertyOp55
 70
     1
102
RTVSPropertyOp56
 70
     1
102
RTVSPropertyOp57
 70
     1
102
RTVSPropertyOp58
 70
     1
102
RTVSPropertyOp59
 70
     1
102
RTVSPropertyOp60
 70
     1
102
RTVSPropertyOp61
 70
     1
102
RTVSPropertyOp62
 70
     1
  0
XRECORD
  5
574
102
{ACAD_REACTORS
330
573
102
}
330
573
100
AcDbXrecord
280
     1
102
RTVSPost2010Prop28
280
     0
102
RTVSPost2010PropOp28
 70
     1
102
RTVSPost2010Prop29
280
     1
102
RTVSPost2010PropOp29
 70
     1
102
RTVSPost2010Prop30
280
     1
102
RTVSPost2010PropOp30
 70
     1
102
RTVSPost2010Prop31
280
     0
102
RTVSPost2010PropOp31
 70
     1
102
RTVSPost2010Prop32
280
     0
102
RTVSPost2010PropOp32
 70
     1
102
RTVSPost2010Prop33
280
     0
102
RTVSPost2010PropOp33
 70
     1
102
RTVSPost2010Prop34
280
     0
102
RTVSPost2010PropOp34
 70
     1
102
RTVSPost2010Prop35
280
     0
102
RTVSPost2010PropOp35
 70
     1
102
RTVSPost2010Prop36
280
     0
102
RTVSPost2010PropOp36
 70
     1
102
RTVSPost2010Prop37
 90
       50
102
RTVSPost2010PropOp37
 70
     1
102
RTVSPost2010Prop38
140
0.0
102
RTVSPost2010PropOp38
 70
     1
102
RTVSPost2010Prop39
140
1.0
102
RTVSPost2010PropOp39
 70
     1
102
RTVSPost2010Prop40
 90
        0
102
RTVSPost2010PropOp40
 70
     1
102
RTVSPost2010Prop41ColorIndex
 90
       18
102
RTVSPost2010Prop41ColorRGB
 90
        0
102
RTVSPost2010PropOp41
 70
     1
102
RTVSPost2010Prop42
 90
       50
102
RTVSPost2010PropOp42
 70
     1
102
RTVSPost2010Prop43
 90
        3
102
RTVSPost2010PropOp43
 70
     1
102
RTVSPost2010Prop44ColorIndex
 90
        5
102
RTVSPost2010Prop44ColorRGB
 90
      255
102
RTVSPost2010PropOp44
 70
     1
102
RTVSPost2010Prop45
280
     0
102
RTVSPost2010PropOp45
 70
     1
102
RTVSPost2010Prop46
 90
       50
102
RTVSPost2010PropOp46
 70
     1
102
RTVSPost2010Prop47
 90
       50
102
RTVSPost2010PropOp47
 70
     1
102
RTVSPost2010Prop48
 90
       50
102
RTVSPost2010PropOp48
 70
     1
102
RTVSPost2010Prop49
280
     0
102
RTVSPost2010PropOp49
 70
     1
102
RTVSPost2010Prop50
 90
       50
102
RTVSPost2010PropOp50
 70
     1
102
RTVSPost2010Prop51ColorIndex
 90
      256
102
RTVSPost2010Prop51ColorRGB
 90
-16777216
102
RTVSPost2010PropOp51
 70
     0
102
RTVSPost2010Prop52
140
1.0
102
RTVSPost2010PropOp52
 70
     0
102
RTVSPost2010Prop53
 90
        2
102
RTVSPost2010PropOp53
 70
     1
102
RTVSPost2010Prop54
  1
strokes_ogs.tif
102
RTVSPost2010PropOp54
 70
     1
102
RTVSPost2010Prop55
280
     0
102
RTVSPost2010PropOp55
 70
     1
102
RTVSPost2010Prop56
140
1.0
102
RTVSPost2010PropOp56
 70
     1
102
RTVSPost2010Prop57
140
1.0
102
RTVSPost2010PropOp57
 70
     1
102
RTVSPropertyOp0
 70
     1
102
RTVSPropertyOp1
 70
     1
102
RTVSPropertyOp2
 70
     1
102
RTVSPropertyOp3
 70
     1
102
RTVSPropertyOp4
 70
     1
102
RTVSPropertyOp5
 70
     1
102
RTVSPropertyOp6
 70
     1
102
RTVSPropertyOp7
 70
     1
102
RTVSPropertyOp8
 70
     1
102
RTVSPropertyOp9
 70
     1
102
RTVSPropertyOp10
 70
     1
102
RTVSPropertyOp11
 70
     1
102
RTVSPropertyOp12
 70
     1
102
RTVSPropertyOp13
 70
     1
102
RTVSPropertyOp14
 70
     1
102
RTVSPropertyOp15
 70
     1
102
RTVSPropertyOp16
 70
     1
102
RTVSPropertyOp17
 70
     1
102
RTVSPropertyOp18
 70
     1
102
RTVSPropertyOp19
 70
     1
102
RTVSPropertyOp20
 70
     1
102
RTVSPropertyOp21
 70
     1
102
RTVSPropertyOp22
 70
     1
102
RTVSPropertyOp23
 70
     1
102
RTVSPropertyOp24
 70
     1
102
RTVSPropertyOp25
 70
     1
102
RTVSPropertyOp26
 70
     1
102
RTVSPropertyOp27
 70
     1
102
RTVSPropertyOp28
 70
     1
102
RTVSPropertyOp29
 70
     1
102
RTVSPropertyOp30
 70
     1
102
RTVSPropertyOp31
 70
     1
102
RTVSPropertyOp32
 70
     1
102
RTVSPropertyOp33
 70
     1
102
RTVSPropertyOp34
 70
     1
102
RTVSPropertyOp35
 70
     1
102
RTVSPropertyOp36
 70
     1
102
RTVSPropertyOp37
 70
     1
102
RTVSPropertyOp38
 70
     1
102
RTVSPropertyOp39
 70
     1
102
RTVSPropertyOp40
 70
     1
102
RTVSPropertyOp41
 70
     1
102
RTVSPropertyOp42
 70
     1
102
RTVSPropertyOp43
 70
     1
102
RTVSPropertyOp44
 70
     1
102
RTVSPropertyOp45
 70
     1
102
RTVSPropertyOp46
 70
     1
102
RTVSPropertyOp47
 70
     1
102
RTVSPropertyOp48
 70
     1
102
RTVSPropertyOp49
 70
     1
102
RTVSPropertyOp50
 70
     1
102
RTVSPropertyOp51
 70
     0
102
RTVSPropertyOp52
 70
     0
102
RTVSPropertyOp53
 70
     1
102
RTVSPropertyOp54
 70
     1
102
RTVSPropertyOp55
 70
     1
102
RTVSPropertyOp56
 70
     1
102
RTVSPropertyOp57
 70
     1
102
RTVSPropertyOp58
 70
     1
102
RTVSPropertyOp59
 70
     1
102
RTVSPropertyOp60
 70
     1
102
RTVSPropertyOp61
 70
     1
102
RTVSPropertyOp62
 70
     1
  0
XRECORD
  5
576
102
{ACAD_REACTORS
330
575
102
}
330
575
100
AcDbXrecord
280
     1
102
RTVSPost2010Prop28
280
     0
102
RTVSPost2010PropOp28
 70
     1
102
RTVSPost2010Prop29
280
     1
102
RTVSPost2010PropOp29
 70
     1
102
RTVSPost2010Prop30
280
     1
102
RTVSPost2010PropOp30
 70
     1
102
RTVSPost2010Prop31
280
     0
102
RTVSPost2010PropOp31
 70
     1
102
RTVSPost2010Prop32
280
     0
102
RTVSPost2010PropOp32
 70
     1
102
RTVSPost2010Prop33
280
     0
102
RTVSPost2010PropOp33
 70
     1
102
RTVSPost2010Prop34
280
     0
102
RTVSPost2010PropOp34
 70
     1
102
RTVSPost2010Prop35
280
     0
102
RTVSPost2010PropOp35
 70
     1
102
RTVSPost2010Prop36
280
     0
102
RTVSPost2010PropOp36
 70
     1
102
RTVSPost2010Prop37
 90
       50
102
RTVSPost2010PropOp37
 70
     1
102
RTVSPost2010Prop38
140
0.0
102
RTVSPost2010PropOp38
 70
     1
102
RTVSPost2010Prop39
140
1.0
102
RTVSPost2010PropOp39
 70
     1
102
RTVSPost2010Prop40
 90
        0
102
RTVSPost2010PropOp40
 70
     1
102
RTVSPost2010Prop41ColorIndex
 90
       18
102
RTVSPost2010Prop41ColorRGB
 90
        0
102
RTVSPost2010PropOp41
 70
     1
102
RTVSPost2010Prop42
 90
       50
102
RTVSPost2010PropOp42
 70
     1
102
RTVSPost2010Prop43
 90
        3
102
RTVSPost2010PropOp43
 70
     1
102
RTVSPost2010Prop44ColorIndex
 90
        5
102
RTVSPost2010Prop44ColorRGB
 90
      255
102
RTVSPost2010PropOp44
 70
     1
102
RTVSPost2010Prop45
280
     0
102
RTVSPost2010PropOp45
 70
     1
102
RTVSPost2010Prop46
 90
       50
102
RTVSPost2010PropOp46
 70
     1
102
RTVSPost2010Prop47
 90
       50
102
RTVSPost2010PropOp47
 70
     1
102
RTVSPost2010Prop48
 90
       50
102
RTVSPost2010PropOp48
 70
     1
102
RTVSPost2010Prop49
280
     0
102
RTVSPost2010PropOp49
 70
     1
102
RTVSPost2010Prop50
 90
       50
102
RTVSPost2010PropOp50
 70
     1
102
RTVSPost2010Prop51ColorIndex
 90
      256
102
RTVSPost2010Prop51ColorRGB
 90
-16777216
102
RTVSPost2010PropOp51
 70
     0
102
RTVSPost2010Prop52
140
1.0
102
RTVSPost2010PropOp52
 70
     0
102
RTVSPost2010Prop53
 90
        2
102
RTVSPost2010PropOp53
 70
     1
102
RTVSPost2010Prop54
  1
strokes_ogs.tif
102
RTVSPost2010PropOp54
 70
     1
102
RTVSPost2010Prop55
280
     0
102
RTVSPost2010PropOp55
 70
     1
102
RTVSPost2010Prop56
140
1.0
102
RTVSPost2010PropOp56
 70
     1
102
RTVSPost2010Prop57
140
1.0
102
RTVSPost2010PropOp57
 70
     1
102
RTVSPropertyOp0
 70
     1
102
RTVSPropertyOp1
 70
     1
102
RTVSPropertyOp2
 70
     1
102
RTVSPropertyOp3
 70
     1
102
RTVSPropertyOp4
 70
     1
102
RTVSPropertyOp5
 70
     1
102
RTVSPropertyOp6
 70
     1
102
RTVSPropertyOp7
 70
     1
102
RTVSPropertyOp8
 70
     1
102
RTVSPropertyOp9
 70
     1
102
RTVSPropertyOp10
 70
     1
102
RTVSPropertyOp11
 70
     1
102
RTVSPropertyOp12
 70
     1
102
RTVSPropertyOp13
 70
     1
102
RTVSPropertyOp14
 70
     1
102
RTVSPropertyOp15
 70
     1
102
RTVSPropertyOp16
 70
     1
102
RTVSPropertyOp17
 70
     1
102
RTVSPropertyOp18
 70
     1
102
RTVSPropertyOp19
 70
     1
102
RTVSPropertyOp20
 70
     1
102
RTVSPropertyOp21
 70
     1
102
RTVSPropertyOp22
 70
     1
102
RTVSPropertyOp23
 70
     1
102
RTVSPropertyOp24
 70
     1
102
RTVSPropertyOp25
 70
     1
102
RTVSPropertyOp26
 70
     1
102
RTVSPropertyOp27
 70
     1
102
RTVSPropertyOp28
 70
     1
102
RTVSPropertyOp29
 70
     1
102
RTVSPropertyOp30
 70
     1
102
RTVSPropertyOp31
 70
     1
102
RTVSPropertyOp32
 70
     1
102
RTVSPropertyOp33
 70
     1
102
RTVSPropertyOp34
 70
     1
102
RTVSPropertyOp35
 70
     1
102
RTVSPropertyOp36
 70
     1
102
RTVSPropertyOp37
 70
     1
102
RTVSPropertyOp38
 70
     1
102
RTVSPropertyOp39
 70
     1
102
RTVSPropertyOp40
 70
     1
102
RTVSPropertyOp41
 70
     1
102
RTVSPropertyOp42
 70
     1
102
RTVSPropertyOp43
 70
     1
102
RTVSPropertyOp44
 70
     1
102
RTVSPropertyOp45
 70
     1
102
RTVSPropertyOp46
 70
     1
102
RTVSPropertyOp47
 70
     1
102
RTVSPropertyOp48
 70
     1
102
RTVSPropertyOp49
 70
     1
102
RTVSPropertyOp50
 70
     1
102
RTVSPropertyOp51
 70
     0
102
RTVSPropertyOp52
 70
     0
102
RTVSPropertyOp53
 70
     1
102
RTVSPropertyOp54
 70
     1
102
RTVSPropertyOp55
 70
     1
102
RTVSPropertyOp56
 70
     1
102
RTVSPropertyOp57
 70
     1
102
RTVSPropertyOp58
 70
     1
102
RTVSPropertyOp59
 70
     1
102
RTVSPropertyOp60
 70
     1
102
RTVSPropertyOp61
 70
     1
102
RTVSPropertyOp62
 70
     1
  0
XRECORD
  5
578
102
{ACAD_REACTORS
330
577
102
}
330
577
100
AcDbXrecord
280
     1
102
RTVSPost2010Prop28
280
     0
102
RTVSPost2010PropOp28
 70
     1
102
RTVSPost2010Prop29
280
     1
102
RTVSPost2010PropOp29
 70
     1
102
RTVSPost2010Prop30
280
     1
102
RTVSPost2010PropOp30
 70
     1
102
RTVSPost2010Prop31
280
     0
102
RTVSPost2010PropOp31
 70
     1
102
RTVSPost2010Prop32
280
     0
102
RTVSPost2010PropOp32
 70
     1
102
RTVSPost2010Prop33
280
     0
102
RTVSPost2010PropOp33
 70
     1
102
RTVSPost2010Prop34
280
     0
102
RTVSPost2010PropOp34
 70
     1
102
RTVSPost2010Prop35
280
     0
102
RTVSPost2010PropOp35
 70
     1
102
RTVSPost2010Prop36
280
     0
102
RTVSPost2010PropOp36
 70
     1
102
RTVSPost2010Prop37
 90
       50
102
RTVSPost2010PropOp37
 70
     1
102
RTVSPost2010Prop38
140
0.0
102
RTVSPost2010PropOp38
 70
     1
102
RTVSPost2010Prop39
140
1.0
102
RTVSPost2010PropOp39
 70
     1
102
RTVSPost2010Prop40
 90
        0
102
RTVSPost2010PropOp40
 70
     1
102
RTVSPost2010Prop41ColorIndex
 90
       18
102
RTVSPost2010Prop41ColorRGB
 90
        0
102
RTVSPost2010PropOp41
 70
     1
102
RTVSPost2010Prop42
 90
       50
102
RTVSPost2010PropOp42
 70
     1
102
RTVSPost2010Prop43
 90
        3
102
RTVSPost2010PropOp43
 70
     1
102
RTVSPost2010Prop44ColorIndex
 90
        5
102
RTVSPost2010Prop44ColorRGB
 90
      255
102
RTVSPost2010PropOp44
 70
     1
102
RTVSPost2010Prop45
280
     0
102
RTVSPost2010PropOp45
 70
     1
102
RTVSPost2010Prop46
 90
       50
102
RTVSPost2010PropOp46
 70
     1
102
RTVSPost2010Prop47
 90
       50
102
RTVSPost2010PropOp47
 70
     1
102
RTVSPost2010Prop48
 90
       50
102
RTVSPost2010PropOp48
 70
     1
102
RTVSPost2010Prop49
280
     0
102
RTVSPost2010PropOp49
 70
     1
102
RTVSPost2010Prop50
 90
       50
102
RTVSPost2010PropOp50
 70
     1
102
RTVSPost2010Prop51ColorIndex
 90
      256
102
RTVSPost2010Prop51ColorRGB
 90
-16777216
102
RTVSPost2010PropOp51
 70
     0
102
RTVSPost2010Prop52
140
1.0
102
RTVSPost2010PropOp52
 70
     0
102
RTVSPost2010Prop53
 90
        2
102
RTVSPost2010PropOp53
 70
     1
102
RTVSPost2010Prop54
  1
strokes_ogs.tif
102
RTVSPost2010PropOp54
 70
     1
102
RTVSPost2010Prop55
280
     0
102
RTVSPost2010PropOp55
 70
     1
102
RTVSPost2010Prop56
140
1.0
102
RTVSPost2010PropOp56
 70
     1
102
RTVSPost2010Prop57
140
1.0
102
RTVSPost2010PropOp57
 70
     1
102
RTVSPropertyOp0
 70
     1
102
RTVSPropertyOp1
 70
     1
102
RTVSPropertyOp2
 70
     1
102
RTVSPropertyOp3
 70
     1
102
RTVSPropertyOp4
 70
     1
102
RTVSPropertyOp5
 70
     1
102
RTVSPropertyOp6
 70
     1
102
RTVSPropertyOp7
 70
     1
102
RTVSPropertyOp8
 70
     1
102
RTVSPropertyOp9
 70
     1
102
RTVSPropertyOp10
 70
     1
102
RTVSPropertyOp11
 70
     1
102
RTVSPropertyOp12
 70
     1
102
RTVSPropertyOp13
 70
     1
102
RTVSPropertyOp14
 70
     1
102
RTVSPropertyOp15
 70
     1
102
RTVSPropertyOp16
 70
     1
102
RTVSPropertyOp17
 70
     1
102
RTVSPropertyOp18
 70
     1
102
RTVSPropertyOp19
 70
     1
102
RTVSPropertyOp20
 70
     1
102
RTVSPropertyOp21
 70
     1
102
RTVSPropertyOp22
 70
     1
102
RTVSPropertyOp23
 70
     1
102
RTVSPropertyOp24
 70
     1
102
RTVSPropertyOp25
 70
     1
102
RTVSPropertyOp26
 70
     1
102
RTVSPropertyOp27
 70
     1
102
RTVSPropertyOp28
 70
     1
102
RTVSPropertyOp29
 70
     1
102
RTVSPropertyOp30
 70
     1
102
RTVSPropertyOp31
 70
     1
102
RTVSPropertyOp32
 70
     1
102
RTVSPropertyOp33
 70
     1
102
RTVSPropertyOp34
 70
     1
102
RTVSPropertyOp35
 70
     1
102
RTVSPropertyOp36
 70
     1
102
RTVSPropertyOp37
 70
     1
102
RTVSPropertyOp38
 70
     1
102
RTVSPropertyOp39
 70
     1
102
RTVSPropertyOp40
 70
     1
102
RTVSPropertyOp41
 70
     1
102
RTVSPropertyOp42
 70
     1
102
RTVSPropertyOp43
 70
     1
102
RTVSPropertyOp44
 70
     1
102
RTVSPropertyOp45
 70
     1
102
RTVSPropertyOp46
 70
     1
102
RTVSPropertyOp47
 70
     1
102
RTVSPropertyOp48
 70
     1
102
RTVSPropertyOp49
 70
     1
102
RTVSPropertyOp50
 70
     1
102
RTVSPropertyOp51
 70
     0
102
RTVSPropertyOp52
 70
     0
102
RTVSPropertyOp53
 70
     1
102
RTVSPropertyOp54
 70
     1
102
RTVSPropertyOp55
 70
     1
102
RTVSPropertyOp56
 70
     1
102
RTVSPropertyOp57
 70
     1
102
RTVSPropertyOp58
 70
     1
102
RTVSPropertyOp59
 70
     1
102
RTVSPropertyOp60
 70
     1
102
RTVSPropertyOp61
 70
     1
102
RTVSPropertyOp62
 70
     1
  0
XRECORD
  5
57E
102
{ACAD_REACTORS
330
57D
102
}
330
57D
100
AcDbXrecord
280
     1
102
RTVSPost2010Prop28
280
     0
102
RTVSPost2010PropOp28
 70
     1
102
RTVSPost2010Prop29
280
     1
102
RTVSPost2010PropOp29
 70
     1
102
RTVSPost2010Prop30
280
     1
102
RTVSPost2010PropOp30
 70
     1
102
RTVSPost2010Prop31
280
     0
102
RTVSPost2010PropOp31
 70
     1
102
RTVSPost2010Prop32
280
     0
102
RTVSPost2010PropOp32
 70
     1
102
RTVSPost2010Prop33
280
     0
102
RTVSPost2010PropOp33
 70
     1
102
RTVSPost2010Prop34
280
     0
102
RTVSPost2010PropOp34
 70
     1
102
RTVSPost2010Prop35
280
     0
102
RTVSPost2010PropOp35
 70
     1
102
RTVSPost2010Prop36
280
     0
102
RTVSPost2010PropOp36
 70
     1
102
RTVSPost2010Prop37
 90
       50
102
RTVSPost2010PropOp37
 70
     1
102
RTVSPost2010Prop38
140
0.0
102
RTVSPost2010PropOp38
 70
     1
102
RTVSPost2010Prop39
140
1.0
102
RTVSPost2010PropOp39
 70
     1
102
RTVSPost2010Prop40
 90
        0
102
RTVSPost2010PropOp40
 70
     1
102
RTVSPost2010Prop41ColorIndex
 90
       18
102
RTVSPost2010Prop41ColorRGB
 90
        0
102
RTVSPost2010PropOp41
 70
     1
102
RTVSPost2010Prop42
 90
       50
102
RTVSPost2010PropOp42
 70
     1
102
RTVSPost2010Prop43
 90
        3
102
RTVSPost2010PropOp43
 70
     1
102
RTVSPost2010Prop44ColorIndex
 90
        5
102
RTVSPost2010Prop44ColorRGB
 90
      255
102
RTVSPost2010PropOp44
 70
     1
102
RTVSPost2010Prop45
280
     0
102
RTVSPost2010PropOp45
 70
     1
102
RTVSPost2010Prop46
 90
       50
102
RTVSPost2010PropOp46
 70
     1
102
RTVSPost2010Prop47
 90
       50
102
RTVSPost2010PropOp47
 70
     1
102
RTVSPost2010Prop48
 90
       50
102
RTVSPost2010PropOp48
 70
     1
102
RTVSPost2010Prop49
280
     0
102
RTVSPost2010PropOp49
 70
     1
102
RTVSPost2010Prop50
 90
       50
102
RTVSPost2010PropOp50
 70
     1
102
RTVSPost2010Prop51ColorIndex
 90
      256
102
RTVSPost2010Prop51ColorRGB
 90
-16777216
102
RTVSPost2010PropOp51
 70
     0
102
RTVSPost2010Prop52
140
1.0
102
RTVSPost2010PropOp52
 70
     0
102
RTVSPost2010Prop53
 90
        2
102
RTVSPost2010PropOp53
 70
     1
102
RTVSPost2010Prop54
  1
strokes_ogs.tif
102
RTVSPost2010PropOp54
 70
     1
102
RTVSPost2010Prop55
280
     0
102
RTVSPost2010PropOp55
 70
     1
102
RTVSPost2010Prop56
140
1.0
102
RTVSPost2010PropOp56
 70
     1
102
RTVSPost2010Prop57
140
1.0
102
RTVSPost2010PropOp57
 70
     1
102
RTVSPropertyOp0
 70
     1
102
RTVSPropertyOp1
 70
     1
102
RTVSPropertyOp2
 70
     1
102
RTVSPropertyOp3
 70
     1
102
RTVSPropertyOp4
 70
     1
102
RTVSPropertyOp5
 70
     1
102
RTVSPropertyOp6
 70
     1
102
RTVSPropertyOp7
 70
     1
102
RTVSPropertyOp8
 70
     1
102
RTVSPropertyOp9
 70
     1
102
RTVSPropertyOp10
 70
     1
102
RTVSPropertyOp11
 70
     1
102
RTVSPropertyOp12
 70
     1
102
RTVSPropertyOp13
 70
     1
102
RTVSPropertyOp14
 70
     1
102
RTVSPropertyOp15
 70
     1
102
RTVSPropertyOp16
 70
     1
102
RTVSPropertyOp17
 70
     1
102
RTVSPropertyOp18
 70
     1
102
RTVSPropertyOp19
 70
     1
102
RTVSPropertyOp20
 70
     1
102
RTVSPropertyOp21
 70
     1
102
RTVSPropertyOp22
 70
     1
102
RTVSPropertyOp23
 70
     1
102
RTVSPropertyOp24
 70
     1
102
RTVSPropertyOp25
 70
     1
102
RTVSPropertyOp26
 70
     1
102
RTVSPropertyOp27
 70
     1
102
RTVSPropertyOp28
 70
     1
102
RTVSPropertyOp29
 70
     1
102
RTVSPropertyOp30
 70
     1
102
RTVSPropertyOp31
 70
     1
102
RTVSPropertyOp32
 70
     1
102
RTVSPropertyOp33
 70
     1
102
RTVSPropertyOp34
 70
     1
102
RTVSPropertyOp35
 70
     1
102
RTVSPropertyOp36
 70
     1
102
RTVSPropertyOp37
 70
     1
102
RTVSPropertyOp38
 70
     1
102
RTVSPropertyOp39
 70
     1
102
RTVSPropertyOp40
 70
     1
102
RTVSPropertyOp41
 70
     1
102
RTVSPropertyOp42
 70
     1
102
RTVSPropertyOp43
 70
     1
102
RTVSPropertyOp44
 70
     1
102
RTVSPropertyOp45
 70
     1
102
RTVSPropertyOp46
 70
     1
102
RTVSPropertyOp47
 70
     1
102
RTVSPropertyOp48
 70
     1
102
RTVSPropertyOp49
 70
     1
102
RTVSPropertyOp50
 70
     1
102
RTVSPropertyOp51
 70
     0
102
RTVSPropertyOp52
 70
     0
102
RTVSPropertyOp53
 70
     1
102
RTVSPropertyOp54
 70
     1
102
RTVSPropertyOp55
 70
     1
102
RTVSPropertyOp56
 70
     1
102
RTVSPropertyOp57
 70
     1
102
RTVSPropertyOp58
 70
     1
102
RTVSPropertyOp59
 70
     1
102
RTVSPropertyOp60
 70
     1
102
RTVSPropertyOp61
 70
     1
102
RTVSPropertyOp62
 70
     1
  0
XRECORD
  5
592
102
{ACAD_REACTORS
330
591
102
}
330
591
100
AcDbXrecord
280
     1
102
RTVSPost2010Prop28
280
     0
102
RTVSPost2010PropOp28
 70
     0
102
RTVSPost2010Prop29
280
     1
102
RTVSPost2010PropOp29
 70
     0
102
RTVSPost2010Prop30
280
     1
102
RTVSPost2010PropOp30
 70
     0
102
RTVSPost2010Prop31
280
     0
102
RTVSPost2010PropOp31
 70
     0
102
RTVSPost2010Prop32
280
     0
102
RTVSPost2010PropOp32
 70
     0
102
RTVSPost2010Prop33
280
     0
102
RTVSPost2010PropOp33
 70
     0
102
RTVSPost2010Prop34
280
     0
102
RTVSPost2010PropOp34
 70
     0
102
RTVSPost2010Prop35
280
     0
102
RTVSPost2010PropOp35
 70
     0
102
RTVSPost2010Prop36
280
     0
102
RTVSPost2010PropOp36
 70
     0
102
RTVSPost2010Prop37
 90
       50
102
RTVSPost2010PropOp37
 70
     0
102
RTVSPost2010Prop38
140
0.0
102
RTVSPost2010PropOp38
 70
     0
102
RTVSPost2010Prop39
140
1.0
102
RTVSPost2010PropOp39
 70
     0
102
RTVSPost2010Prop40
 90
        0
102
RTVSPost2010PropOp40
 70
     0
102
RTVSPost2010Prop41ColorIndex
 90
       18
102
RTVSPost2010Prop41ColorRGB
 90
        0
102
RTVSPost2010PropOp41
 70
     0
102
RTVSPost2010Prop42
 90
       50
102
RTVSPost2010PropOp42
 70
     0
102
RTVSPost2010Prop43
 90
        3
102
RTVSPost2010PropOp43
 70
     0
102
RTVSPost2010Prop44ColorIndex
 90
        5
102
RTVSPost2010Prop44ColorRGB
 90
      255
102
RTVSPost2010PropOp44
 70
     0
102
RTVSPost2010Prop45
280
     0
102
RTVSPost2010PropOp45
 70
     0
102
RTVSPost2010Prop46
 90
       50
102
RTVSPost2010PropOp46
 70
     0
102
RTVSPost2010Prop47
 90
       50
102
RTVSPost2010PropOp47
 70
     0
102
RTVSPost2010Prop48
 90
       50
102
RTVSPost2010PropOp48
 70
     0
102
RTVSPost2010Prop49
280
     0
102
RTVSPost2010PropOp49
 70
     0
102
RTVSPost2010Prop50
 90
       50
102
RTVSPost2010PropOp50
 70
     0
102
RTVSPost2010Prop51ColorIndex
 90
      256
102
RTVSPost2010Prop51ColorRGB
 90
-16777216
102
RTVSPost2010PropOp51
 70
     0
102
RTVSPost2010Prop52
140
1.0
102
RTVSPost2010PropOp52
 70
     0
102
RTVSPost2010Prop53
 90
        2
102
RTVSPost2010PropOp53
 70
     0
102
RTVSPost2010Prop54
  1
strokes_ogs.tif
102
RTVSPost2010PropOp54
 70
     0
102
RTVSPost2010Prop55
280
     0
102
RTVSPost2010PropOp55
 70
     0
102
RTVSPost2010Prop56
140
1.0
102
RTVSPost2010PropOp56
 70
     0
102
RTVSPost2010Prop57
140
1.0
102
RTVSPost2010PropOp57
 70
     0
102
RTVSPropertyOp0
 70
     0
102
RTVSPropertyOp1
 70
     0
102
RTVSPropertyOp2
 70
     0
102
RTVSPropertyOp3
 70
     0
102
RTVSPropertyOp4
 70
     0
102
RTVSPropertyOp5
 70
     0
102
RTVSPropertyOp6
 70
     0
102
RTVSPropertyOp7
 70
     0
102
RTVSPropertyOp8
 70
     0
102
RTVSPropertyOp9
 70
     0
102
RTVSPropertyOp10
 70
     0
102
RTVSPropertyOp11
 70
     0
102
RTVSPropertyOp12
 70
     0
102
RTVSPropertyOp13
 70
     0
102
RTVSPropertyOp14
 70
     2
102
RTVSPropertyOp15
 70
     0
102
RTVSPropertyOp16
 70
     0
102
RTVSPropertyOp17
 70
     0
102
RTVSPropertyOp18
 70
     0
102
RTVSPropertyOp19
 70
     0
102
RTVSPropertyOp20
 70
     0
102
RTVSPropertyOp21
 70
     0
102
RTVSPropertyOp22
 70
     0
102
RTVSPropertyOp23
 70
     0
102
RTVSPropertyOp24
 70
     0
102
RTVSPropertyOp25
 70
     0
102
RTVSPropertyOp26
 70
     0
102
RTVSPropertyOp27
 70
     0
102
RTVSPropertyOp28
 70
     0
102
RTVSPropertyOp29
 70
     0
102
RTVSPropertyOp30
 70
     0
102
RTVSPropertyOp31
 70
     0
102
RTVSPropertyOp32
 70
     0
102
RTVSPropertyOp33
 70
     0
102
RTVSPropertyOp34
 70
     0
102
RTVSPropertyOp35
 70
     0
102
RTVSPropertyOp36
 70
     0
102
RTVSPropertyOp37
 70
     0
102
RTVSPropertyOp38
 70
     0
102
RTVSPropertyOp39
 70
     0
102
RTVSPropertyOp40
 70
     0
102
RTVSPropertyOp41
 70
     0
102
RTVSPropertyOp42
 70
     0
102
RTVSPropertyOp43
 70
     0
102
RTVSPropertyOp44
 70
     0
102
RTVSPropertyOp45
 70
     0
102
RTVSPropertyOp46
 70
     0
102
RTVSPropertyOp47
 70
     0
102
RTVSPropertyOp48
 70
     0
102
RTVSPropertyOp49
 70
     0
102
RTVSPropertyOp50
 70
     0
102
RTVSPropertyOp51
 70
     0
102
RTVSPropertyOp52
 70
     0
102
RTVSPropertyOp53
 70
     0
102
RTVSPropertyOp54
 70
     0
102
RTVSPropertyOp55
 70
     0
102
RTVSPropertyOp56
 70
     0
102
RTVSPropertyOp57
 70
     0
102
RTVSPropertyOp58
 70
     1
102
RTVSPropertyOp59
 70
     1
102
RTVSPropertyOp60
 70
     1
102
RTVSPropertyOp61
 70
     1
102
RTVSPropertyOp62
 70
     1
  0
XRECORD
  5
58C
102
{ACAD_REACTORS
330
58B
102
}
330
58B
100
AcDbXrecord
280
     1
102
RTVSPost2010Prop28
280
     0
102
RTVSPost2010PropOp28
 70
     1
102
RTVSPost2010Prop29
280
     1
102
RTVSPost2010PropOp29
 70
     1
102
RTVSPost2010Prop30
280
     1
102
RTVSPost2010PropOp30
 70
     1
102
RTVSPost2010Prop31
280
     0
102
RTVSPost2010PropOp31
 70
     1
102
RTVSPost2010Prop32
280
     0
102
RTVSPost2010PropOp32
 70
     1
102
RTVSPost2010Prop33
280
     0
102
RTVSPost2010PropOp33
 70
     1
102
RTVSPost2010Prop34
280
     0
102
RTVSPost2010PropOp34
 70
     1
102
RTVSPost2010Prop35
280
     0
102
RTVSPost2010PropOp35
 70
     1
102
RTVSPost2010Prop36
280
     0
102
RTVSPost2010PropOp36
 70
     1
102
RTVSPost2010Prop37
 90
       50
102
RTVSPost2010PropOp37
 70
     1
102
RTVSPost2010Prop38
140
0.0
102
RTVSPost2010PropOp38
 70
     1
102
RTVSPost2010Prop39
140
1.0
102
RTVSPost2010PropOp39
 70
     1
102
RTVSPost2010Prop40
 90
        0
102
RTVSPost2010PropOp40
 70
     1
102
RTVSPost2010Prop41ColorIndex
 90
       18
102
RTVSPost2010Prop41ColorRGB
 90
        0
102
RTVSPost2010PropOp41
 70
     1
102
RTVSPost2010Prop42
 90
       50
102
RTVSPost2010PropOp42
 70
     1
102
RTVSPost2010Prop43
 90
        3
102
RTVSPost2010PropOp43
 70
     1
102
RTVSPost2010Prop44ColorIndex
 90
        5
102
RTVSPost2010Prop44ColorRGB
 90
      255
102
RTVSPost2010PropOp44
 70
     1
102
RTVSPost2010Prop45
280
     0
102
RTVSPost2010PropOp45
 70
     1
102
RTVSPost2010Prop46
 90
       50
102
RTVSPost2010PropOp46
 70
     1
102
RTVSPost2010Prop47
 90
       50
102
RTVSPost2010PropOp47
 70
     1
102
RTVSPost2010Prop48
 90
       50
102
RTVSPost2010PropOp48
 70
     1
102
RTVSPost2010Prop49
280
     0
102
RTVSPost2010PropOp49
 70
     1
102
RTVSPost2010Prop50
 90
       50
102
RTVSPost2010PropOp50
 70
     1
102
RTVSPost2010Prop51ColorIndex
 90
      256
102
RTVSPost2010Prop51ColorRGB
 90
-16777216
102
RTVSPost2010PropOp51
 70
     0
102
RTVSPost2010Prop52
140
1.0
102
RTVSPost2010PropOp52
 70
     0
102
RTVSPost2010Prop53
 90
        2
102
RTVSPost2010PropOp53
 70
     1
102
RTVSPost2010Prop54
  1
strokes_ogs.tif
102
RTVSPost2010PropOp54
 70
     1
102
RTVSPost2010Prop55
280
     0
102
RTVSPost2010PropOp55
 70
     1
102
RTVSPost2010Prop56
140
1.0
102
RTVSPost2010PropOp56
 70
     1
102
RTVSPost2010Prop57
140
1.0
102
RTVSPost2010PropOp57
 70
     1
102
RTVSPropertyOp0
 70
     1
102
RTVSPropertyOp1
 70
     1
102
RTVSPropertyOp2
 70
     1
102
RTVSPropertyOp3
 70
     1
102
RTVSPropertyOp4
 70
     1
102
RTVSPropertyOp5
 70
     1
102
RTVSPropertyOp6
 70
     1
102
RTVSPropertyOp7
 70
     1
102
RTVSPropertyOp8
 70
     1
102
RTVSPropertyOp9
 70
     1
102
RTVSPropertyOp10
 70
     1
102
RTVSPropertyOp11
 70
     1
102
RTVSPropertyOp12
 70
     1
102
RTVSPropertyOp13
 70
     1
102
RTVSPropertyOp14
 70
     1
102
RTVSPropertyOp15
 70
     1
102
RTVSPropertyOp16
 70
     1
102
RTVSPropertyOp17
 70
     1
102
RTVSPropertyOp18
 70
     1
102
RTVSPropertyOp19
 70
     1
102
RTVSPropertyOp20
 70
     1
102
RTVSPropertyOp21
 70
     1
102
RTVSPropertyOp22
 70
     1
102
RTVSPropertyOp23
 70
     1
102
RTVSPropertyOp24
 70
     1
102
RTVSPropertyOp25
 70
     1
102
RTVSPropertyOp26
 70
     1
102
RTVSPropertyOp27
 70
     1
102
RTVSPropertyOp28
 70
     1
102
RTVSPropertyOp29
 70
     1
102
RTVSPropertyOp30
 70
     1
102
RTVSPropertyOp31
 70
     1
102
RTVSPropertyOp32
 70
     1
102
RTVSPropertyOp33
 70
     1
102
RTVSPropertyOp34
 70
     1
102
RTVSPropertyOp35
 70
     1
102
RTVSPropertyOp36
 70
     1
102
RTVSPropertyOp37
 70
     1
102
RTVSPropertyOp38
 70
     1
102
RTVSPropertyOp39
 70
     1
102
RTVSPropertyOp40
 70
     1
102
RTVSPropertyOp41
 70
     1
102
RTVSPropertyOp42
 70
     1
102
RTVSPropertyOp43
 70
     1
102
RTVSPropertyOp44
 70
     1
102
RTVSPropertyOp45
 70
     1
102
RTVSPropertyOp46
 70
     1
102
RTVSPropertyOp47
 70
     1
102
RTVSPropertyOp48
 70
     1
102
RTVSPropertyOp49
 70
     1
102
RTVSPropertyOp50
 70
     1
102
RTVSPropertyOp51
 70
     0
102
RTVSPropertyOp52
 70
     0
102
RTVSPropertyOp53
 70
     1
102
RTVSPropertyOp54
 70
     1
102
RTVSPropertyOp55
 70
     1
102
RTVSPropertyOp56
 70
     1
102
RTVSPropertyOp57
 70
     1
102
RTVSPropertyOp58
 70
     1
102
RTVSPropertyOp59
 70
     1
102
RTVSPropertyOp60
 70
     1
102
RTVSPropertyOp61
 70
     1
102
RTVSPropertyOp62
 70
     1
  0
XRECORD
  5
594
102
{ACAD_REACTORS
330
593
102
}
330
593
100
AcDbXrecord
280
     1
102
RTVSPost2010Prop28
280
     0
102
RTVSPost2010PropOp28
 70
     0
102
RTVSPost2010Prop29
280
     1
102
RTVSPost2010PropOp29
 70
     0
102
RTVSPost2010Prop30
280
     1
102
RTVSPost2010PropOp30
 70
     0
102
RTVSPost2010Prop31
280
     0
102
RTVSPost2010PropOp31
 70
     0
102
RTVSPost2010Prop32
280
     0
102
RTVSPost2010PropOp32
 70
     0
102
RTVSPost2010Prop33
280
     0
102
RTVSPost2010PropOp33
 70
     0
102
RTVSPost2010Prop34
280
     0
102
RTVSPost2010PropOp34
 70
     0
102
RTVSPost2010Prop35
280
     0
102
RTVSPost2010PropOp35
 70
     0
102
RTVSPost2010Prop36
280
     0
102
RTVSPost2010PropOp36
 70
     0
102
RTVSPost2010Prop37
 90
       50
102
RTVSPost2010PropOp37
 70
     0
102
RTVSPost2010Prop38
140
0.0
102
RTVSPost2010PropOp38
 70
     0
102
RTVSPost2010Prop39
140
1.0
102
RTVSPost2010PropOp39
 70
     0
102
RTVSPost2010Prop40
 90
        0
102
RTVSPost2010PropOp40
 70
     0
102
RTVSPost2010Prop41ColorIndex
 90
       18
102
RTVSPost2010Prop41ColorRGB
 90
        0
102
RTVSPost2010PropOp41
 70
     0
102
RTVSPost2010Prop42
 90
       50
102
RTVSPost2010PropOp42
 70
     0
102
RTVSPost2010Prop43
 90
        3
102
RTVSPost2010PropOp43
 70
     0
102
RTVSPost2010Prop44ColorIndex
 90
        5
102
RTVSPost2010Prop44ColorRGB
 90
      255
102
RTVSPost2010PropOp44
 70
     0
102
RTVSPost2010Prop45
280
     0
102
RTVSPost2010PropOp45
 70
     0
102
RTVSPost2010Prop46
 90
       50
102
RTVSPost2010PropOp46
 70
     0
102
RTVSPost2010Prop47
 90
       50
102
RTVSPost2010PropOp47
 70
     0
102
RTVSPost2010Prop48
 90
       50
102
RTVSPost2010PropOp48
 70
     0
102
RTVSPost2010Prop49
280
     0
102
RTVSPost2010PropOp49
 70
     0
102
RTVSPost2010Prop50
 90
       50
102
RTVSPost2010PropOp50
 70
     0
102
RTVSPost2010Prop51ColorIndex
 90
      256
102
RTVSPost2010Prop51ColorRGB
 90
-16777216
102
RTVSPost2010PropOp51
 70
     0
102
RTVSPost2010Prop52
140
1.0
102
RTVSPost2010PropOp52
 70
     0
102
RTVSPost2010Prop53
 90
        2
102
RTVSPost2010PropOp53
 70
     0
102
RTVSPost2010Prop54
  1
strokes_ogs.tif
102
RTVSPost2010PropOp54
 70
     0
102
RTVSPost2010Prop55
280
     0
102
RTVSPost2010PropOp55
 70
     0
102
RTVSPost2010Prop56
140
1.0
102
RTVSPost2010PropOp56
 70
     0
102
RTVSPost2010Prop57
140
1.0
102
RTVSPost2010PropOp57
 70
     0
102
RTVSPropertyOp0
 70
     0
102
RTVSPropertyOp1
 70
     0
102
RTVSPropertyOp2
 70
     0
102
RTVSPropertyOp3
 70
     0
102
RTVSPropertyOp4
 70
     0
102
RTVSPropertyOp5
 70
     0
102
RTVSPropertyOp6
 70
     0
102
RTVSPropertyOp7
 70
     0
102
RTVSPropertyOp8
 70
     0
102
RTVSPropertyOp9
 70
     0
102
RTVSPropertyOp10
 70
     0
102
RTVSPropertyOp11
 70
     0
102
RTVSPropertyOp12
 70
     0
102
RTVSPropertyOp13
 70
     0
102
RTVSPropertyOp14
 70
     2
102
RTVSPropertyOp15
 70
     0
102
RTVSPropertyOp16
 70
     0
102
RTVSPropertyOp17
 70
     0
102
RTVSPropertyOp18
 70
     0
102
RTVSPropertyOp19
 70
     0
102
RTVSPropertyOp20
 70
     0
102
RTVSPropertyOp21
 70
     0
102
RTVSPropertyOp22
 70
     0
102
RTVSPropertyOp23
 70
     0
102
RTVSPropertyOp24
 70
     0
102
RTVSPropertyOp25
 70
     0
102
RTVSPropertyOp26
 70
     0
102
RTVSPropertyOp27
 70
     0
102
RTVSPropertyOp28
 70
     0
102
RTVSPropertyOp29
 70
     0
102
RTVSPropertyOp30
 70
     0
102
RTVSPropertyOp31
 70
     0
102
RTVSPropertyOp32
 70
     0
102
RTVSPropertyOp33
 70
     0
102
RTVSPropertyOp34
 70
     0
102
RTVSPropertyOp35
 70
     0
102
RTVSPropertyOp36
 70
     0
102
RTVSPropertyOp37
 70
     0
102
RTVSPropertyOp38
 70
     0
102
RTVSPropertyOp39
 70
     0
102
RTVSPropertyOp40
 70
     0
102
RTVSPropertyOp41
 70
     0
102
RTVSPropertyOp42
 70
     0
102
RTVSPropertyOp43
 70
     0
102
RTVSPropertyOp44
 70
     0
102
RTVSPropertyOp45
 70
     0
102
RTVSPropertyOp46
 70
     0
102
RTVSPropertyOp47
 70
     0
102
RTVSPropertyOp48
 70
     0
102
RTVSPropertyOp49
 70
     0
102
RTVSPropertyOp50
 70
     0
102
RTVSPropertyOp51
 70
     0
102
RTVSPropertyOp52
 70
     0
102
RTVSPropertyOp53
 70
     0
102
RTVSPropertyOp54
 70
     0
102
RTVSPropertyOp55
 70
     0
102
RTVSPropertyOp56
 70
     0
102
RTVSPropertyOp57
 70
     0
102
RTVSPropertyOp58
 70
     1
102
RTVSPropertyOp59
 70
     1
102
RTVSPropertyOp60
 70
     1
102
RTVSPropertyOp61
 70
     1
102
RTVSPropertyOp62
 70
     1
  0
XRECORD
  5
582
102
{ACAD_REACTORS
330
581
102
}
330
581
100
AcDbXrecord
280
     1
102
RTVSPost2010Prop28
280
     0
102
RTVSPost2010PropOp28
 70
     1
102
RTVSPost2010Prop29
280
     1
102
RTVSPost2010PropOp29
 70
     1
102
RTVSPost2010Prop30
280
     1
102
RTVSPost2010PropOp30
 70
     1
102
RTVSPost2010Prop31
280
     0
102
RTVSPost2010PropOp31
 70
     1
102
RTVSPost2010Prop32
280
     0
102
RTVSPost2010PropOp32
 70
     1
102
RTVSPost2010Prop33
280
     0
102
RTVSPost2010PropOp33
 70
     1
102
RTVSPost2010Prop34
280
     0
102
RTVSPost2010PropOp34
 70
     1
102
RTVSPost2010Prop35
280
     0
102
RTVSPost2010PropOp35
 70
     1
102
RTVSPost2010Prop36
280
     0
102
RTVSPost2010PropOp36
 70
     1
102
RTVSPost2010Prop37
 90
       50
102
RTVSPost2010PropOp37
 70
     1
102
RTVSPost2010Prop38
140
0.0
102
RTVSPost2010PropOp38
 70
     1
102
RTVSPost2010Prop39
140
1.0
102
RTVSPost2010PropOp39
 70
     1
102
RTVSPost2010Prop40
 90
        0
102
RTVSPost2010PropOp40
 70
     1
102
RTVSPost2010Prop41ColorIndex
 90
       18
102
RTVSPost2010Prop41ColorRGB
 90
        0
102
RTVSPost2010PropOp41
 70
     1
102
RTVSPost2010Prop42
 90
       50
102
RTVSPost2010PropOp42
 70
     1
102
RTVSPost2010Prop43
 90
        3
102
RTVSPost2010PropOp43
 70
     1
102
RTVSPost2010Prop44ColorIndex
 90
        5
102
RTVSPost2010Prop44ColorRGB
 90
      255
102
RTVSPost2010PropOp44
 70
     1
102
RTVSPost2010Prop45
280
     0
102
RTVSPost2010PropOp45
 70
     1
102
RTVSPost2010Prop46
 90
       50
102
RTVSPost2010PropOp46
 70
     1
102
RTVSPost2010Prop47
 90
       50
102
RTVSPost2010PropOp47
 70
     1
102
RTVSPost2010Prop48
 90
       50
102
RTVSPost2010PropOp48
 70
     1
102
RTVSPost2010Prop49
280
     0
102
RTVSPost2010PropOp49
 70
     1
102
RTVSPost2010Prop50
 90
       50
102
RTVSPost2010PropOp50
 70
     1
102
RTVSPost2010Prop51ColorIndex
 90
      256
102
RTVSPost2010Prop51ColorRGB
 90
-16777216
102
RTVSPost2010PropOp51
 70
     0
102
RTVSPost2010Prop52
140
1.0
102
RTVSPost2010PropOp52
 70
     0
102
RTVSPost2010Prop53
 90
        2
102
RTVSPost2010PropOp53
 70
     1
102
RTVSPost2010Prop54
  1
strokes_ogs.tif
102
RTVSPost2010PropOp54
 70
     1
102
RTVSPost2010Prop55
280
     0
102
RTVSPost2010PropOp55
 70
     1
102
RTVSPost2010Prop56
140
1.0
102
RTVSPost2010PropOp56
 70
     1
102
RTVSPost2010Prop57
140
1.0
102
RTVSPost2010PropOp57
 70
     1
102
RTVSPropertyOp0
 70
     1
102
RTVSPropertyOp1
 70
     1
102
RTVSPropertyOp2
 70
     1
102
RTVSPropertyOp3
 70
     1
102
RTVSPropertyOp4
 70
     1
102
RTVSPropertyOp5
 70
     1
102
RTVSPropertyOp6
 70
     1
102
RTVSPropertyOp7
 70
     1
102
RTVSPropertyOp8
 70
     1
102
RTVSPropertyOp9
 70
     1
102
RTVSPropertyOp10
 70
     1
102
RTVSPropertyOp11
 70
     1
102
RTVSPropertyOp12
 70
     1
102
RTVSPropertyOp13
 70
     1
102
RTVSPropertyOp14
 70
     1
102
RTVSPropertyOp15
 70
     1
102
RTVSPropertyOp16
 70
     1
102
RTVSPropertyOp17
 70
     1
102
RTVSPropertyOp18
 70
     1
102
RTVSPropertyOp19
 70
     1
102
RTVSPropertyOp20
 70
     1
102
RTVSPropertyOp21
 70
     1
102
RTVSPropertyOp22
 70
     1
102
RTVSPropertyOp23
 70
     1
102
RTVSPropertyOp24
 70
     1
102
RTVSPropertyOp25
 70
     1
102
RTVSPropertyOp26
 70
     1
102
RTVSPropertyOp27
 70
     1
102
RTVSPropertyOp28
 70
     1
102
RTVSPropertyOp29
 70
     1
102
RTVSPropertyOp30
 70
     1
102
RTVSPropertyOp31
 70
     1
102
RTVSPropertyOp32
 70
     1
102
RTVSPropertyOp33
 70
     1
102
RTVSPropertyOp34
 70
     1
102
RTVSPropertyOp35
 70
     1
102
RTVSPropertyOp36
 70
     1
102
RTVSPropertyOp37
 70
     1
102
RTVSPropertyOp38
 70
     1
102
RTVSPropertyOp39
 70
     1
102
RTVSPropertyOp40
 70
     1
102
RTVSPropertyOp41
 70
     1
102
RTVSPropertyOp42
 70
     1
102
RTVSPropertyOp43
 70
     1
102
RTVSPropertyOp44
 70
     1
102
RTVSPropertyOp45
 70
     1
102
RTVSPropertyOp46
 70
     1
102
RTVSPropertyOp47
 70
     1
102
RTVSPropertyOp48
 70
     1
102
RTVSPropertyOp49
 70
     1
102
RTVSPropertyOp50
 70
     1
102
RTVSPropertyOp51
 70
     0
102
RTVSPropertyOp52
 70
     0
102
RTVSPropertyOp53
 70
     1
102
RTVSPropertyOp54
 70
     1
102
RTVSPropertyOp55
 70
     1
102
RTVSPropertyOp56
 70
     1
102
RTVSPropertyOp57
 70
     1
102
RTVSPropertyOp58
 70
     1
102
RTVSPropertyOp59
 70
     1
102
RTVSPropertyOp60
 70
     1
102
RTVSPropertyOp61
 70
     1
102
RTVSPropertyOp62
 70
     1
  0
XRECORD
  5
5A0
102
{ACAD_REACTORS
330
59F
102
}
330
59F
100
AcDbXrecord
280
     1
102
RTVSPost2010Prop28
280
     0
102
RTVSPost2010PropOp28
 70
     1
102
RTVSPost2010Prop29
280
     1
102
RTVSPost2010PropOp29
 70
     1
102
RTVSPost2010Prop30
280
     1
102
RTVSPost2010PropOp30
 70
     1
102
RTVSPost2010Prop31
280
     0
102
RTVSPost2010PropOp31
 70
     1
102
RTVSPost2010Prop32
280
     0
102
RTVSPost2010PropOp32
 70
     1
102
RTVSPost2010Prop33
280
     0
102
RTVSPost2010PropOp33
 70
     1
102
RTVSPost2010Prop34
280
     0
102
RTVSPost2010PropOp34
 70
     1
102
RTVSPost2010Prop35
280
     0
102
RTVSPost2010PropOp35
 70
     1
102
RTVSPost2010Prop36
280
     0
102
RTVSPost2010PropOp36
 70
     1
102
RTVSPost2010Prop37
 90
       50
102
RTVSPost2010PropOp37
 70
     1
102
RTVSPost2010Prop38
140
0.0
102
RTVSPost2010PropOp38
 70
     1
102
RTVSPost2010Prop39
140
1.0
102
RTVSPost2010PropOp39
 70
     1
102
RTVSPost2010Prop40
 90
        0
102
RTVSPost2010PropOp40
 70
     1
102
RTVSPost2010Prop41ColorIndex
 90
       18
102
RTVSPost2010Prop41ColorRGB
 90
        0
102
RTVSPost2010PropOp41
 70
     1
102
RTVSPost2010Prop42
 90
       50
102
RTVSPost2010PropOp42
 70
     1
102
RTVSPost2010Prop43
 90
        3
102
RTVSPost2010PropOp43
 70
     1
102
RTVSPost2010Prop44ColorIndex
 90
        5
102
RTVSPost2010Prop44ColorRGB
 90
      255
102
RTVSPost2010PropOp44
 70
     1
102
RTVSPost2010Prop45
280
     0
102
RTVSPost2010PropOp45
 70
     1
102
RTVSPost2010Prop46
 90
       50
102
RTVSPost2010PropOp46
 70
     1
102
RTVSPost2010Prop47
 90
       50
102
RTVSPost2010PropOp47
 70
     1
102
RTVSPost2010Prop48
 90
       50
102
RTVSPost2010PropOp48
 70
     1
102
RTVSPost2010Prop49
280
     0
102
RTVSPost2010PropOp49
 70
     1
102
RTVSPost2010Prop50
 90
       50
102
RTVSPost2010PropOp50
 70
     1
102
RTVSPost2010Prop51ColorIndex
 90
      256
102
RTVSPost2010Prop51ColorRGB
 90
-16777216
102
RTVSPost2010PropOp51
 70
     0
102
RTVSPost2010Prop52
140
1.0
102
RTVSPost2010PropOp52
 70
     0
102
RTVSPost2010Prop53
 90
        2
102
RTVSPost2010PropOp53
 70
     1
102
RTVSPost2010Prop54
  1
strokes_ogs.tif
102
RTVSPost2010PropOp54
 70
     1
102
RTVSPost2010Prop55
280
     0
102
RTVSPost2010PropOp55
 70
     1
102
RTVSPost2010Prop56
140
1.0
102
RTVSPost2010PropOp56
 70
     1
102
RTVSPost2010Prop57
140
1.0
102
RTVSPost2010PropOp57
 70
     1
102
RTVSPropertyOp0
 70
     1
102
RTVSPropertyOp1
 70
     1
102
RTVSPropertyOp2
 70
     1
102
RTVSPropertyOp3
 70
     1
102
RTVSPropertyOp4
 70
     1
102
RTVSPropertyOp5
 70
     1
102
RTVSPropertyOp6
 70
     1
102
RTVSPropertyOp7
 70
     1
102
RTVSPropertyOp8
 70
     1
102
RTVSPropertyOp9
 70
     1
102
RTVSPropertyOp10
 70
     1
102
RTVSPropertyOp11
 70
     1
102
RTVSPropertyOp12
 70
     1
102
RTVSPropertyOp13
 70
     1
102
RTVSPropertyOp14
 70
     1
102
RTVSPropertyOp15
 70
     1
102
RTVSPropertyOp16
 70
     1
102
RTVSPropertyOp17
 70
     1
102
RTVSPropertyOp18
 70
     1
102
RTVSPropertyOp19
 70
     1
102
RTVSPropertyOp20
 70
     1
102
RTVSPropertyOp21
 70
     1
102
RTVSPropertyOp22
 70
     1
102
RTVSPropertyOp23
 70
     1
102
RTVSPropertyOp24
 70
     1
102
RTVSPropertyOp25
 70
     1
102
RTVSPropertyOp26
 70
     1
102
RTVSPropertyOp27
 70
     1
102
RTVSPropertyOp28
 70
     1
102
RTVSPropertyOp29
 70
     1
102
RTVSPropertyOp30
 70
     1
102
RTVSPropertyOp31
 70
     1
102
RTVSPropertyOp32
 70
     1
102
RTVSPropertyOp33
 70
     1
102
RTVSPropertyOp34
 70
     1
102
RTVSPropertyOp35
 70
     1
102
RTVSPropertyOp36
 70
     1
102
RTVSPropertyOp37
 70
     1
102
RTVSPropertyOp38
 70
     1
102
RTVSPropertyOp39
 70
     1
102
RTVSPropertyOp40
 70
     1
102
RTVSPropertyOp41
 70
     1
102
RTVSPropertyOp42
 70
     1
102
RTVSPropertyOp43
 70
     1
102
RTVSPropertyOp44
 70
     1
102
RTVSPropertyOp45
 70
     1
102
RTVSPropertyOp46
 70
     1
102
RTVSPropertyOp47
 70
     1
102
RTVSPropertyOp48
 70
     1
102
RTVSPropertyOp49
 70
     1
102
RTVSPropertyOp50
 70
     1
102
RTVSPropertyOp51
 70
     0
102
RTVSPropertyOp52
 70
     0
102
RTVSPropertyOp53
 70
     1
102
RTVSPropertyOp54
 70
     1
102
RTVSPropertyOp55
 70
     1
102
RTVSPropertyOp56
 70
     1
102
RTVSPropertyOp57
 70
     1
102
RTVSPropertyOp58
 70
     1
102
RTVSPropertyOp59
 70
     1
102
RTVSPropertyOp60
 70
     1
102
RTVSPropertyOp61
 70
     1
102
RTVSPropertyOp62
 70
     1
  0
XRECORD
  5
59E
102
{ACAD_REACTORS
330
59D
102
}
330
59D
100
AcDbXrecord
280
     1
102
RTVSPost2010Prop28
280
     0
102
RTVSPost2010PropOp28
 70
     1
102
RTVSPost2010Prop29
280
     1
102
RTVSPost2010PropOp29
 70
     1
102
RTVSPost2010Prop30
280
     1
102
RTVSPost2010PropOp30
 70
     1
102
RTVSPost2010Prop31
280
     0
102
RTVSPost2010PropOp31
 70
     1
102
RTVSPost2010Prop32
280
     0
102
RTVSPost2010PropOp32
 70
     1
102
RTVSPost2010Prop33
280
     0
102
RTVSPost2010PropOp33
 70
     1
102
RTVSPost2010Prop34
280
     0
102
RTVSPost2010PropOp34
 70
     1
102
RTVSPost2010Prop35
280
     0
102
RTVSPost2010PropOp35
 70
     1
102
RTVSPost2010Prop36
280
     0
102
RTVSPost2010PropOp36
 70
     1
102
RTVSPost2010Prop37
 90
       50
102
RTVSPost2010PropOp37
 70
     1
102
RTVSPost2010Prop38
140
0.0
102
RTVSPost2010PropOp38
 70
     1
102
RTVSPost2010Prop39
140
1.0
102
RTVSPost2010PropOp39
 70
     1
102
RTVSPost2010Prop40
 90
        0
102
RTVSPost2010PropOp40
 70
     1
102
RTVSPost2010Prop41ColorIndex
 90
       18
102
RTVSPost2010Prop41ColorRGB
 90
        0
102
RTVSPost2010PropOp41
 70
     1
102
RTVSPost2010Prop42
 90
       50
102
RTVSPost2010PropOp42
 70
     1
102
RTVSPost2010Prop43
 90
        3
102
RTVSPost2010PropOp43
 70
     1
102
RTVSPost2010Prop44ColorIndex
 90
        5
102
RTVSPost2010Prop44ColorRGB
 90
      255
102
RTVSPost2010PropOp44
 70
     1
102
RTVSPost2010Prop45
280
     0
102
RTVSPost2010PropOp45
 70
     1
102
RTVSPost2010Prop46
 90
       50
102
RTVSPost2010PropOp46
 70
     1
102
RTVSPost2010Prop47
 90
       50
102
RTVSPost2010PropOp47
 70
     1
102
RTVSPost2010Prop48
 90
       50
102
RTVSPost2010PropOp48
 70
     1
102
RTVSPost2010Prop49
280
     0
102
RTVSPost2010PropOp49
 70
     1
102
RTVSPost2010Prop50
 90
       50
102
RTVSPost2010PropOp50
 70
     1
102
RTVSPost2010Prop51ColorIndex
 90
      256
102
RTVSPost2010Prop51ColorRGB
 90
-16777216
102
RTVSPost2010PropOp51
 70
     0
102
RTVSPost2010Prop52
140
1.0
102
RTVSPost2010PropOp52
 70
     0
102
RTVSPost2010Prop53
 90
        2
102
RTVSPost2010PropOp53
 70
     1
102
RTVSPost2010Prop54
  1
strokes_ogs.tif
102
RTVSPost2010PropOp54
 70
     1
102
RTVSPost2010Prop55
280
     0
102
RTVSPost2010PropOp55
 70
     1
102
RTVSPost2010Prop56
140
1.0
102
RTVSPost2010PropOp56
 70
     1
102
RTVSPost2010Prop57
140
1.0
102
RTVSPost2010PropOp57
 70
     1
102
RTVSPropertyOp0
 70
     1
102
RTVSPropertyOp1
 70
     1
102
RTVSPropertyOp2
 70
     1
102
RTVSPropertyOp3
 70
     1
102
RTVSPropertyOp4
 70
     1
102
RTVSPropertyOp5
 70
     1
102
RTVSPropertyOp6
 70
     1
102
RTVSPropertyOp7
 70
     1
102
RTVSPropertyOp8
 70
     1
102
RTVSPropertyOp9
 70
     1
102
RTVSPropertyOp10
 70
     1
102
RTVSPropertyOp11
 70
     1
102
RTVSPropertyOp12
 70
     1
102
RTVSPropertyOp13
 70
     1
102
RTVSPropertyOp14
 70
     1
102
RTVSPropertyOp15
 70
     1
102
RTVSPropertyOp16
 70
     1
102
RTVSPropertyOp17
 70
     1
102
RTVSPropertyOp18
 70
     1
102
RTVSPropertyOp19
 70
     1
102
RTVSPropertyOp20
 70
     1
102
RTVSPropertyOp21
 70
     1
102
RTVSPropertyOp22
 70
     1
102
RTVSPropertyOp23
 70
     1
102
RTVSPropertyOp24
 70
     1
102
RTVSPropertyOp25
 70
     1
102
RTVSPropertyOp26
 70
     1
102
RTVSPropertyOp27
 70
     1
102
RTVSPropertyOp28
 70
     1
102
RTVSPropertyOp29
 70
     1
102
RTVSPropertyOp30
 70
     1
102
RTVSPropertyOp31
 70
     1
102
RTVSPropertyOp32
 70
     1
102
RTVSPropertyOp33
 70
     1
102
RTVSPropertyOp34
 70
     1
102
RTVSPropertyOp35
 70
     1
102
RTVSPropertyOp36
 70
     1
102
RTVSPropertyOp37
 70
     1
102
RTVSPropertyOp38
 70
     1
102
RTVSPropertyOp39
 70
     1
102
RTVSPropertyOp40
 70
     1
102
RTVSPropertyOp41
 70
     1
102
RTVSPropertyOp42
 70
     1
102
RTVSPropertyOp43
 70
     1
102
RTVSPropertyOp44
 70
     1
102
RTVSPropertyOp45
 70
     1
102
RTVSPropertyOp46
 70
     1
102
RTVSPropertyOp47
 70
     1
102
RTVSPropertyOp48
 70
     1
102
RTVSPropertyOp49
 70
     1
102
RTVSPropertyOp50
 70
     1
102
RTVSPropertyOp51
 70
     0
102
RTVSPropertyOp52
 70
     0
102
RTVSPropertyOp53
 70
     1
102
RTVSPropertyOp54
 70
     1
102
RTVSPropertyOp55
 70
     1
102
RTVSPropertyOp56
 70
     1
102
RTVSPropertyOp57
 70
     1
102
RTVSPropertyOp58
 70
     1
102
RTVSPropertyOp59
 70
     1
102
RTVSPropertyOp60
 70
     1
102
RTVSPropertyOp61
 70
     1
102
RTVSPropertyOp62
 70
     1
  0
XRECORD
  5
598
102
{ACAD_REACTORS
330
597
102
}
330
597
100
AcDbXrecord
280
     1
102
RTVSPost2010Prop28
280
     0
102
RTVSPost2010PropOp28
 70
     1
102
RTVSPost2010Prop29
280
     1
102
RTVSPost2010PropOp29
 70
     1
102
RTVSPost2010Prop30
280
     1
102
RTVSPost2010PropOp30
 70
     1
102
RTVSPost2010Prop31
280
     0
102
RTVSPost2010PropOp31
 70
     1
102
RTVSPost2010Prop32
280
     0
102
RTVSPost2010PropOp32
 70
     1
102
RTVSPost2010Prop33
280
     0
102
RTVSPost2010PropOp33
 70
     1
102
RTVSPost2010Prop34
280
     0
102
RTVSPost2010PropOp34
 70
     1
102
RTVSPost2010Prop35
280
     0
102
RTVSPost2010PropOp35
 70
     1
102
RTVSPost2010Prop36
280
     0
102
RTVSPost2010PropOp36
 70
     1
102
RTVSPost2010Prop37
 90
       50
102
RTVSPost2010PropOp37
 70
     1
102
RTVSPost2010Prop38
140
0.0
102
RTVSPost2010PropOp38
 70
     1
102
RTVSPost2010Prop39
140
1.0
102
RTVSPost2010PropOp39
 70
     1
102
RTVSPost2010Prop40
 90
        0
102
RTVSPost2010PropOp40
 70
     1
102
RTVSPost2010Prop41ColorIndex
 90
       18
102
RTVSPost2010Prop41ColorRGB
 90
        0
102
RTVSPost2010PropOp41
 70
     1
102
RTVSPost2010Prop42
 90
       50
102
RTVSPost2010PropOp42
 70
     1
102
RTVSPost2010Prop43
 90
        3
102
RTVSPost2010PropOp43
 70
     1
102
RTVSPost2010Prop44ColorIndex
 90
        5
102
RTVSPost2010Prop44ColorRGB
 90
      255
102
RTVSPost2010PropOp44
 70
     1
102
RTVSPost2010Prop45
280
     0
102
RTVSPost2010PropOp45
 70
     1
102
RTVSPost2010Prop46
 90
       50
102
RTVSPost2010PropOp46
 70
     1
102
RTVSPost2010Prop47
 90
       50
102
RTVSPost2010PropOp47
 70
     1
102
RTVSPost2010Prop48
 90
       50
102
RTVSPost2010PropOp48
 70
     1
102
RTVSPost2010Prop49
280
     0
102
RTVSPost2010PropOp49
 70
     1
102
RTVSPost2010Prop50
 90
       50
102
RTVSPost2010PropOp50
 70
     1
102
RTVSPost2010Prop51ColorIndex
 90
      256
102
RTVSPost2010Prop51ColorRGB
 90
-16777216
102
RTVSPost2010PropOp51
 70
     0
102
RTVSPost2010Prop52
140
1.0
102
RTVSPost2010PropOp52
 70
     0
102
RTVSPost2010Prop53
 90
        2
102
RTVSPost2010PropOp53
 70
     1
102
RTVSPost2010Prop54
  1
strokes_ogs.tif
102
RTVSPost2010PropOp54
 70
     1
102
RTVSPost2010Prop55
280
     0
102
RTVSPost2010PropOp55
 70
     1
102
RTVSPost2010Prop56
140
1.0
102
RTVSPost2010PropOp56
 70
     1
102
RTVSPost2010Prop57
140
1.0
102
RTVSPost2010PropOp57
 70
     1
102
RTVSPropertyOp0
 70
     1
102
RTVSPropertyOp1
 70
     1
102
RTVSPropertyOp2
 70
     1
102
RTVSPropertyOp3
 70
     1
102
RTVSPropertyOp4
 70
     1
102
RTVSPropertyOp5
 70
     1
102
RTVSPropertyOp6
 70
     1
102
RTVSPropertyOp7
 70
     1
102
RTVSPropertyOp8
 70
     1
102
RTVSPropertyOp9
 70
     1
102
RTVSPropertyOp10
 70
     1
102
RTVSPropertyOp11
 70
     1
102
RTVSPropertyOp12
 70
     1
102
RTVSPropertyOp13
 70
     1
102
RTVSPropertyOp14
 70
     1
102
RTVSPropertyOp15
 70
     1
102
RTVSPropertyOp16
 70
     1
102
RTVSPropertyOp17
 70
     1
102
RTVSPropertyOp18
 70
     1
102
RTVSPropertyOp19
 70
     1
102
RTVSPropertyOp20
 70
     1
102
RTVSPropertyOp21
 70
     1
102
RTVSPropertyOp22
 70
     1
102
RTVSPropertyOp23
 70
     1
102
RTVSPropertyOp24
 70
     1
102
RTVSPropertyOp25
 70
     1
102
RTVSPropertyOp26
 70
     1
102
RTVSPropertyOp27
 70
     1
102
RTVSPropertyOp28
 70
     1
102
RTVSPropertyOp29
 70
     1
102
RTVSPropertyOp30
 70
     1
102
RTVSPropertyOp31
 70
     1
102
RTVSPropertyOp32
 70
     1
102
RTVSPropertyOp33
 70
     1
102
RTVSPropertyOp34
 70
     1
102
RTVSPropertyOp35
 70
     1
102
RTVSPropertyOp36
 70
     1
102
RTVSPropertyOp37
 70
     1
102
RTVSPropertyOp38
 70
     1
102
RTVSPropertyOp39
 70
     1
102
RTVSPropertyOp40
 70
     1
102
RTVSPropertyOp41
 70
     1
102
RTVSPropertyOp42
 70
     1
102
RTVSPropertyOp43
 70
     1
102
RTVSPropertyOp44
 70
     1
102
RTVSPropertyOp45
 70
     1
102
RTVSPropertyOp46
 70
     1
102
RTVSPropertyOp47
 70
     1
102
RTVSPropertyOp48
 70
     1
102
RTVSPropertyOp49
 70
     1
102
RTVSPropertyOp50
 70
     1
102
RTVSPropertyOp51
 70
     0
102
RTVSPropertyOp52
 70
     0
102
RTVSPropertyOp53
 70
     1
102
RTVSPropertyOp54
 70
     1
102
RTVSPropertyOp55
 70
     1
102
RTVSPropertyOp56
 70
     1
102
RTVSPropertyOp57
 70
     1
102
RTVSPropertyOp58
 70
     1
102
RTVSPropertyOp59
 70
     1
102
RTVSPropertyOp60
 70
     1
102
RTVSPropertyOp61
 70
     1
102
RTVSPropertyOp62
 70
     1
  0
XRECORD
  5
59A
102
{ACAD_REACTORS
330
599
102
}
330
599
100
AcDbXrecord
280
     1
102
RTVSPost2010Prop28
280
     0
102
RTVSPost2010PropOp28
 70
     1
102
RTVSPost2010Prop29
280
     1
102
RTVSPost2010PropOp29
 70
     1
102
RTVSPost2010Prop30
280
     1
102
RTVSPost2010PropOp30
 70
     1
102
RTVSPost2010Prop31
280
     0
102
RTVSPost2010PropOp31
 70
     1
102
RTVSPost2010Prop32
280
     0
102
RTVSPost2010PropOp32
 70
     1
102
RTVSPost2010Prop33
280
     0
102
RTVSPost2010PropOp33
 70
     1
102
RTVSPost2010Prop34
280
     0
102
RTVSPost2010PropOp34
 70
     1
102
RTVSPost2010Prop35
280
     0
102
RTVSPost2010PropOp35
 70
     1
102
RTVSPost2010Prop36
280
     0
102
RTVSPost2010PropOp36
 70
     1
102
RTVSPost2010Prop37
 90
       50
102
RTVSPost2010PropOp37
 70
     1
102
RTVSPost2010Prop38
140
0.0
102
RTVSPost2010PropOp38
 70
     1
102
RTVSPost2010Prop39
140
1.0
102
RTVSPost2010PropOp39
 70
     1
102
RTVSPost2010Prop40
 90
        0
102
RTVSPost2010PropOp40
 70
     1
102
RTVSPost2010Prop41ColorIndex
 90
       18
102
RTVSPost2010Prop41ColorRGB
 90
        0
102
RTVSPost2010PropOp41
 70
     1
102
RTVSPost2010Prop42
 90
       50
102
RTVSPost2010PropOp42
 70
     1
102
RTVSPost2010Prop43
 90
        3
102
RTVSPost2010PropOp43
 70
     1
102
RTVSPost2010Prop44ColorIndex
 90
        5
102
RTVSPost2010Prop44ColorRGB
 90
      255
102
RTVSPost2010PropOp44
 70
     1
102
RTVSPost2010Prop45
280
     0
102
RTVSPost2010PropOp45
 70
     1
102
RTVSPost2010Prop46
 90
       50
102
RTVSPost2010PropOp46
 70
     1
102
RTVSPost2010Prop47
 90
       50
102
RTVSPost2010PropOp47
 70
     1
102
RTVSPost2010Prop48
 90
       50
102
RTVSPost2010PropOp48
 70
     1
102
RTVSPost2010Prop49
280
     0
102
RTVSPost2010PropOp49
 70
     1
102
RTVSPost2010Prop50
 90
       50
102
RTVSPost2010PropOp50
 70
     1
102
RTVSPost2010Prop51ColorIndex
 90
      256
102
RTVSPost2010Prop51ColorRGB
 90
-16777216
102
RTVSPost2010PropOp51
 70
     0
102
RTVSPost2010Prop52
140
1.0
102
RTVSPost2010PropOp52
 70
     0
102
RTVSPost2010Prop53
 90
        2
102
RTVSPost2010PropOp53
 70
     1
102
RTVSPost2010Prop54
  1
strokes_ogs.tif
102
RTVSPost2010PropOp54
 70
     1
102
RTVSPost2010Prop55
280
     0
102
RTVSPost2010PropOp55
 70
     1
102
RTVSPost2010Prop56
140
1.0
102
RTVSPost2010PropOp56
 70
     1
102
RTVSPost2010Prop57
140
1.0
102
RTVSPost2010PropOp57
 70
     1
102
RTVSPropertyOp0
 70
     1
102
RTVSPropertyOp1
 70
     1
102
RTVSPropertyOp2
 70
     1
102
RTVSPropertyOp3
 70
     1
102
RTVSPropertyOp4
 70
     1
102
RTVSPropertyOp5
 70
     1
102
RTVSPropertyOp6
 70
     1
102
RTVSPropertyOp7
 70
     1
102
RTVSPropertyOp8
 70
     1
102
RTVSPropertyOp9
 70
     1
102
RTVSPropertyOp10
 70
     1
102
RTVSPropertyOp11
 70
     1
102
RTVSPropertyOp12
 70
     1
102
RTVSPropertyOp13
 70
     1
102
RTVSPropertyOp14
 70
     1
102
RTVSPropertyOp15
 70
     1
102
RTVSPropertyOp16
 70
     1
102
RTVSPropertyOp17
 70
     1
102
RTVSPropertyOp18
 70
     1
102
RTVSPropertyOp19
 70
     1
102
RTVSPropertyOp20
 70
     1
102
RTVSPropertyOp21
 70
     1
102
RTVSPropertyOp22
 70
     1
102
RTVSPropertyOp23
 70
     1
102
RTVSPropertyOp24
 70
     1
102
RTVSPropertyOp25
 70
     1
102
RTVSPropertyOp26
 70
     1
102
RTVSPropertyOp27
 70
     1
102
RTVSPropertyOp28
 70
     1
102
RTVSPropertyOp29
 70
     1
102
RTVSPropertyOp30
 70
     1
102
RTVSPropertyOp31
 70
     1
102
RTVSPropertyOp32
 70
     1
102
RTVSPropertyOp33
 70
     1
102
RTVSPropertyOp34
 70
     1
102
RTVSPropertyOp35
 70
     1
102
RTVSPropertyOp36
 70
     1
102
RTVSPropertyOp37
 70
     1
102
RTVSPropertyOp38
 70
     1
102
RTVSPropertyOp39
 70
     1
102
RTVSPropertyOp40
 70
     1
102
RTVSPropertyOp41
 70
     1
102
RTVSPropertyOp42
 70
     1
102
RTVSPropertyOp43
 70
     1
102
RTVSPropertyOp44
 70
     1
102
RTVSPropertyOp45
 70
     1
102
RTVSPropertyOp46
 70
     1
102
RTVSPropertyOp47
 70
     1
102
RTVSPropertyOp48
 70
     1
102
RTVSPropertyOp49
 70
     1
102
RTVSPropertyOp50
 70
     1
102
RTVSPropertyOp51
 70
     0
102
RTVSPropertyOp52
 70
     0
102
RTVSPropertyOp53
 70
     1
102
RTVSPropertyOp54
 70
     1
102
RTVSPropertyOp55
 70
     1
102
RTVSPropertyOp56
 70
     1
102
RTVSPropertyOp57
 70
     1
102
RTVSPropertyOp58
 70
     1
102
RTVSPropertyOp59
 70
     1
102
RTVSPropertyOp60
 70
     1
102
RTVSPropertyOp61
 70
     1
102
RTVSPropertyOp62
 70
     1
  0
XRECORD
  5
58A
102
{ACAD_REACTORS
330
589
102
}
330
589
100
AcDbXrecord
280
     1
102
RTVSPost2010Prop28
280
     0
102
RTVSPost2010PropOp28
 70
     1
102
RTVSPost2010Prop29
280
     1
102
RTVSPost2010PropOp29
 70
     1
102
RTVSPost2010Prop30
280
     1
102
RTVSPost2010PropOp30
 70
     1
102
RTVSPost2010Prop31
280
     0
102
RTVSPost2010PropOp31
 70
     1
102
RTVSPost2010Prop32
280
     0
102
RTVSPost2010PropOp32
 70
     1
102
RTVSPost2010Prop33
280
     0
102
RTVSPost2010PropOp33
 70
     1
102
RTVSPost2010Prop34
280
     0
102
RTVSPost2010PropOp34
 70
     1
102
RTVSPost2010Prop35
280
     0
102
RTVSPost2010PropOp35
 70
     1
102
RTVSPost2010Prop36
280
     0
102
RTVSPost2010PropOp36
 70
     1
102
RTVSPost2010Prop37
 90
       50
102
RTVSPost2010PropOp37
 70
     1
102
RTVSPost2010Prop38
140
0.0
102
RTVSPost2010PropOp38
 70
     1
102
RTVSPost2010Prop39
140
1.0
102
RTVSPost2010PropOp39
 70
     1
102
RTVSPost2010Prop40
 90
        0
102
RTVSPost2010PropOp40
 70
     1
102
RTVSPost2010Prop41ColorIndex
 90
       18
102
RTVSPost2010Prop41ColorRGB
 90
        0
102
RTVSPost2010PropOp41
 70
     1
102
RTVSPost2010Prop42
 90
       50
102
RTVSPost2010PropOp42
 70
     1
102
RTVSPost2010Prop43
 90
        3
102
RTVSPost2010PropOp43
 70
     1
102
RTVSPost2010Prop44ColorIndex
 90
        5
102
RTVSPost2010Prop44ColorRGB
 90
      255
102
RTVSPost2010PropOp44
 70
     1
102
RTVSPost2010Prop45
280
     0
102
RTVSPost2010PropOp45
 70
     1
102
RTVSPost2010Prop46
 90
       50
102
RTVSPost2010PropOp46
 70
     1
102
RTVSPost2010Prop47
 90
       50
102
RTVSPost2010PropOp47
 70
     1
102
RTVSPost2010Prop48
 90
       50
102
RTVSPost2010PropOp48
 70
     1
102
RTVSPost2010Prop49
280
     0
102
RTVSPost2010PropOp49
 70
     1
102
RTVSPost2010Prop50
 90
       50
102
RTVSPost2010PropOp50
 70
     1
102
RTVSPost2010Prop51ColorIndex
 90
      256
102
RTVSPost2010Prop51ColorRGB
 90
-16777216
102
RTVSPost2010PropOp51
 70
     0
102
RTVSPost2010Prop52
140
1.0
102
RTVSPost2010PropOp52
 70
     0
102
RTVSPost2010Prop53
 90
        2
102
RTVSPost2010PropOp53
 70
     1
102
RTVSPost2010Prop54
  1
strokes_ogs.tif
102
RTVSPost2010PropOp54
 70
     1
102
RTVSPost2010Prop55
280
     0
102
RTVSPost2010PropOp55
 70
     1
102
RTVSPost2010Prop56
140
1.0
102
RTVSPost2010PropOp56
 70
     1
102
RTVSPost2010Prop57
140
1.0
102
RTVSPost2010PropOp57
 70
     1
102
RTVSPropertyOp0
 70
     1
102
RTVSPropertyOp1
 70
     1
102
RTVSPropertyOp2
 70
     1
102
RTVSPropertyOp3
 70
     1
102
RTVSPropertyOp4
 70
     1
102
RTVSPropertyOp5
 70
     1
102
RTVSPropertyOp6
 70
     1
102
RTVSPropertyOp7
 70
     1
102
RTVSPropertyOp8
 70
     1
102
RTVSPropertyOp9
 70
     1
102
RTVSPropertyOp10
 70
     1
102
RTVSPropertyOp11
 70
     1
102
RTVSPropertyOp12
 70
     1
102
RTVSPropertyOp13
 70
     1
102
RTVSPropertyOp14
 70
     1
102
RTVSPropertyOp15
 70
     1
102
RTVSPropertyOp16
 70
     1
102
RTVSPropertyOp17
 70
     1
102
RTVSPropertyOp18
 70
     1
102
RTVSPropertyOp19
 70
     1
102
RTVSPropertyOp20
 70
     1
102
RTVSPropertyOp21
 70
     1
102
RTVSPropertyOp22
 70
     1
102
RTVSPropertyOp23
 70
     1
102
RTVSPropertyOp24
 70
     1
102
RTVSPropertyOp25
 70
     1
102
RTVSPropertyOp26
 70
     1
102
RTVSPropertyOp27
 70
     1
102
RTVSPropertyOp28
 70
     1
102
RTVSPropertyOp29
 70
     1
102
RTVSPropertyOp30
 70
     1
102
RTVSPropertyOp31
 70
     1
102
RTVSPropertyOp32
 70
     1
102
RTVSPropertyOp33
 70
     1
102
RTVSPropertyOp34
 70
     1
102
RTVSPropertyOp35
 70
     1
102
RTVSPropertyOp36
 70
     1
102
RTVSPropertyOp37
 70
     1
102
RTVSPropertyOp38
 70
     1
102
RTVSPropertyOp39
 70
     1
102
RTVSPropertyOp40
 70
     1
102
RTVSPropertyOp41
 70
     1
102
RTVSPropertyOp42
 70
     1
102
RTVSPropertyOp43
 70
     1
102
RTVSPropertyOp44
 70
     1
102
RTVSPropertyOp45
 70
     1
102
RTVSPropertyOp46
 70
     1
102
RTVSPropertyOp47
 70
     1
102
RTVSPropertyOp48
 70
     1
102
RTVSPropertyOp49
 70
     1
102
RTVSPropertyOp50
 70
     1
102
RTVSPropertyOp51
 70
     0
102
RTVSPropertyOp52
 70
     0
102
RTVSPropertyOp53
 70
     1
102
RTVSPropertyOp54
 70
     1
102
RTVSPropertyOp55
 70
     1
102
RTVSPropertyOp56
 70
     1
102
RTVSPropertyOp57
 70
     1
102
RTVSPropertyOp58
 70
     1
102
RTVSPropertyOp59
 70
     1
102
RTVSPropertyOp60
 70
     1
102
RTVSPropertyOp61
 70
     1
102
RTVSPropertyOp62
 70
     1
  0
XRECORD
  5
57C
102
{ACAD_REACTORS
330
57B
102
}
330
57B
100
AcDbXrecord
280
     1
102
RTVSPost2010Prop28
280
     0
102
RTVSPost2010PropOp28
 70
     1
102
RTVSPost2010Prop29
280
     1
102
RTVSPost2010PropOp29
 70
     1
102
RTVSPost2010Prop30
280
     1
102
RTVSPost2010PropOp30
 70
     1
102
RTVSPost2010Prop31
280
     0
102
RTVSPost2010PropOp31
 70
     1
102
RTVSPost2010Prop32
280
     0
102
RTVSPost2010PropOp32
 70
     1
102
RTVSPost2010Prop33
280
     0
102
RTVSPost2010PropOp33
 70
     1
102
RTVSPost2010Prop34
280
     0
102
RTVSPost2010PropOp34
 70
     1
102
RTVSPost2010Prop35
280
     0
102
RTVSPost2010PropOp35
 70
     1
102
RTVSPost2010Prop36
280
     0
102
RTVSPost2010PropOp36
 70
     1
102
RTVSPost2010Prop37
 90
       50
102
RTVSPost2010PropOp37
 70
     1
102
RTVSPost2010Prop38
140
0.0
102
RTVSPost2010PropOp38
 70
     1
102
RTVSPost2010Prop39
140
1.0
102
RTVSPost2010PropOp39
 70
     1
102
RTVSPost2010Prop40
 90
        0
102
RTVSPost2010PropOp40
 70
     1
102
RTVSPost2010Prop41ColorIndex
 90
       18
102
RTVSPost2010Prop41ColorRGB
 90
        0
102
RTVSPost2010PropOp41
 70
     1
102
RTVSPost2010Prop42
 90
       50
102
RTVSPost2010PropOp42
 70
     1
102
RTVSPost2010Prop43
 90
        3
102
RTVSPost2010PropOp43
 70
     1
102
RTVSPost2010Prop44ColorIndex
 90
        5
102
RTVSPost2010Prop44ColorRGB
 90
      255
102
RTVSPost2010PropOp44
 70
     1
102
RTVSPost2010Prop45
280
     0
102
RTVSPost2010PropOp45
 70
     1
102
RTVSPost2010Prop46
 90
       50
102
RTVSPost2010PropOp46
 70
     1
102
RTVSPost2010Prop47
 90
       50
102
RTVSPost2010PropOp47
 70
     1
102
RTVSPost2010Prop48
 90
       50
102
RTVSPost2010PropOp48
 70
     1
102
RTVSPost2010Prop49
280
     0
102
RTVSPost2010PropOp49
 70
     1
102
RTVSPost2010Prop50
 90
       50
102
RTVSPost2010PropOp50
 70
     1
102
RTVSPost2010Prop51ColorIndex
 90
      256
102
RTVSPost2010Prop51ColorRGB
 90
-16777216
102
RTVSPost2010PropOp51
 70
     0
102
RTVSPost2010Prop52
140
1.0
102
RTVSPost2010PropOp52
 70
     0
102
RTVSPost2010Prop53
 90
        2
102
RTVSPost2010PropOp53
 70
     1
102
RTVSPost2010Prop54
  1
strokes_ogs.tif
102
RTVSPost2010PropOp54
 70
     1
102
RTVSPost2010Prop55
280
     0
102
RTVSPost2010PropOp55
 70
     1
102
RTVSPost2010Prop56
140
1.0
102
RTVSPost2010PropOp56
 70
     1
102
RTVSPost2010Prop57
140
1.0
102
RTVSPost2010PropOp57
 70
     1
102
RTVSPropertyOp0
 70
     1
102
RTVSPropertyOp1
 70
     1
102
RTVSPropertyOp2
 70
     1
102
RTVSPropertyOp3
 70
     1
102
RTVSPropertyOp4
 70
     1
102
RTVSPropertyOp5
 70
     1
102
RTVSPropertyOp6
 70
     1
102
RTVSPropertyOp7
 70
     1
102
RTVSPropertyOp8
 70
     1
102
RTVSPropertyOp9
 70
     1
102
RTVSPropertyOp10
 70
     1
102
RTVSPropertyOp11
 70
     1
102
RTVSPropertyOp12
 70
     1
102
RTVSPropertyOp13
 70
     1
102
RTVSPropertyOp14
 70
     1
102
RTVSPropertyOp15
 70
     1
102
RTVSPropertyOp16
 70
     1
102
RTVSPropertyOp17
 70
     1
102
RTVSPropertyOp18
 70
     1
102
RTVSPropertyOp19
 70
     1
102
RTVSPropertyOp20
 70
     1
102
RTVSPropertyOp21
 70
     1
102
RTVSPropertyOp22
 70
     1
102
RTVSPropertyOp23
 70
     1
102
RTVSPropertyOp24
 70
     1
102
RTVSPropertyOp25
 70
     1
102
RTVSPropertyOp26
 70
     1
102
RTVSPropertyOp27
 70
     1
102
RTVSPropertyOp28
 70
     1
102
RTVSPropertyOp29
 70
     1
102
RTVSPropertyOp30
 70
     1
102
RTVSPropertyOp31
 70
     1
102
RTVSPropertyOp32
 70
     1
102
RTVSPropertyOp33
 70
     1
102
RTVSPropertyOp34
 70
     1
102
RTVSPropertyOp35
 70
     1
102
RTVSPropertyOp36
 70
     1
102
RTVSPropertyOp37
 70
     1
102
RTVSPropertyOp38
 70
     1
102
RTVSPropertyOp39
 70
     1
102
RTVSPropertyOp40
 70
     1
102
RTVSPropertyOp41
 70
     1
102
RTVSPropertyOp42
 70
     1
102
RTVSPropertyOp43
 70
     1
102
RTVSPropertyOp44
 70
     1
102
RTVSPropertyOp45
 70
     1
102
RTVSPropertyOp46
 70
     1
102
RTVSPropertyOp47
 70
     1
102
RTVSPropertyOp48
 70
     1
102
RTVSPropertyOp49
 70
     1
102
RTVSPropertyOp50
 70
     1
102
RTVSPropertyOp51
 70
     0
102
RTVSPropertyOp52
 70
     0
102
RTVSPropertyOp53
 70
     1
102
RTVSPropertyOp54
 70
     1
102
RTVSPropertyOp55
 70
     1
102
RTVSPropertyOp56
 70
     1
102
RTVSPropertyOp57
 70
     1
102
RTVSPropertyOp58
 70
     1
102
RTVSPropertyOp59
 70
     1
102
RTVSPropertyOp60
 70
     1
102
RTVSPropertyOp61
 70
     1
102
RTVSPropertyOp62
 70
     1
  0
XRECORD
  5
59C
102
{ACAD_REACTORS
330
59B
102
}
330
59B
100
AcDbXrecord
280
     1
102
RTVSPost2010Prop28
280
     0
102
RTVSPost2010PropOp28
 70
     1
102
RTVSPost2010Prop29
280
     1
102
RTVSPost2010PropOp29
 70
     1
102
RTVSPost2010Prop30
280
     1
102
RTVSPost2010PropOp30
 70
     1
102
RTVSPost2010Prop31
280
     0
102
RTVSPost2010PropOp31
 70
     1
102
RTVSPost2010Prop32
280
     0
102
RTVSPost2010PropOp32
 70
     1
102
RTVSPost2010Prop33
280
     0
102
RTVSPost2010PropOp33
 70
     1
102
RTVSPost2010Prop34
280
     0
102
RTVSPost2010PropOp34
 70
     1
102
RTVSPost2010Prop35
280
     0
102
RTVSPost2010PropOp35
 70
     1
102
RTVSPost2010Prop36
280
     0
102
RTVSPost2010PropOp36
 70
     1
102
RTVSPost2010Prop37
 90
       50
102
RTVSPost2010PropOp37
 70
     1
102
RTVSPost2010Prop38
140
0.0
102
RTVSPost2010PropOp38
 70
     1
102
RTVSPost2010Prop39
140
1.0
102
RTVSPost2010PropOp39
 70
     1
102
RTVSPost2010Prop40
 90
        0
102
RTVSPost2010PropOp40
 70
     1
102
RTVSPost2010Prop41ColorIndex
 90
       18
102
RTVSPost2010Prop41ColorRGB
 90
        0
102
RTVSPost2010PropOp41
 70
     1
102
RTVSPost2010Prop42
 90
       50
102
RTVSPost2010PropOp42
 70
     1
102
RTVSPost2010Prop43
 90
        3
102
RTVSPost2010PropOp43
 70
     1
102
RTVSPost2010Prop44ColorIndex
 90
        5
102
RTVSPost2010Prop44ColorRGB
 90
      255
102
RTVSPost2010PropOp44
 70
     1
102
RTVSPost2010Prop45
280
     0
102
RTVSPost2010PropOp45
 70
     1
102
RTVSPost2010Prop46
 90
       50
102
RTVSPost2010PropOp46
 70
     1
102
RTVSPost2010Prop47
 90
       50
102
RTVSPost2010PropOp47
 70
     1
102
RTVSPost2010Prop48
 90
       50
102
RTVSPost2010PropOp48
 70
     1
102
RTVSPost2010Prop49
280
     0
102
RTVSPost2010PropOp49
 70
     1
102
RTVSPost2010Prop50
 90
       50
102
RTVSPost2010PropOp50
 70
     1
102
RTVSPost2010Prop51ColorIndex
 90
      256
102
RTVSPost2010Prop51ColorRGB
 90
-16777216
102
RTVSPost2010PropOp51
 70
     0
102
RTVSPost2010Prop52
140
1.0
102
RTVSPost2010PropOp52
 70
     0
102
RTVSPost2010Prop53
 90
        2
102
RTVSPost2010PropOp53
 70
     1
102
RTVSPost2010Prop54
  1
strokes_ogs.tif
102
RTVSPost2010PropOp54
 70
     1
102
RTVSPost2010Prop55
280
     0
102
RTVSPost2010PropOp55
 70
     1
102
RTVSPost2010Prop56
140
1.0
102
RTVSPost2010PropOp56
 70
     1
102
RTVSPost2010Prop57
140
1.0
102
RTVSPost2010PropOp57
 70
     1
102
RTVSPropertyOp0
 70
     1
102
RTVSPropertyOp1
 70
     1
102
RTVSPropertyOp2
 70
     1
102
RTVSPropertyOp3
 70
     1
102
RTVSPropertyOp4
 70
     1
102
RTVSPropertyOp5
 70
     1
102
RTVSPropertyOp6
 70
     1
102
RTVSPropertyOp7
 70
     1
102
RTVSPropertyOp8
 70
     1
102
RTVSPropertyOp9
 70
     1
102
RTVSPropertyOp10
 70
     1
102
RTVSPropertyOp11
 70
     1
102
RTVSPropertyOp12
 70
     1
102
RTVSPropertyOp13
 70
     1
102
RTVSPropertyOp14
 70
     1
102
RTVSPropertyOp15
 70
     1
102
RTVSPropertyOp16
 70
     1
102
RTVSPropertyOp17
 70
     1
102
RTVSPropertyOp18
 70
     1
102
RTVSPropertyOp19
 70
     1
102
RTVSPropertyOp20
 70
     1
102
RTVSPropertyOp21
 70
     1
102
RTVSPropertyOp22
 70
     1
102
RTVSPropertyOp23
 70
     1
102
RTVSPropertyOp24
 70
     1
102
RTVSPropertyOp25
 70
     1
102
RTVSPropertyOp26
 70
     1
102
RTVSPropertyOp27
 70
     1
102
RTVSPropertyOp28
 70
     1
102
RTVSPropertyOp29
 70
     1
102
RTVSPropertyOp30
 70
     1
102
RTVSPropertyOp31
 70
     1
102
RTVSPropertyOp32
 70
     1
102
RTVSPropertyOp33
 70
     1
102
RTVSPropertyOp34
 70
     1
102
RTVSPropertyOp35
 70
     1
102
RTVSPropertyOp36
 70
     1
102
RTVSPropertyOp37
 70
     1
102
RTVSPropertyOp38
 70
     1
102
RTVSPropertyOp39
 70
     1
102
RTVSPropertyOp40
 70
     1
102
RTVSPropertyOp41
 70
     1
102
RTVSPropertyOp42
 70
     1
102
RTVSPropertyOp43
 70
     1
102
RTVSPropertyOp44
 70
     1
102
RTVSPropertyOp45
 70
     1
102
RTVSPropertyOp46
 70
     1
102
RTVSPropertyOp47
 70
     1
102
RTVSPropertyOp48
 70
     1
102
RTVSPropertyOp49
 70
     1
102
RTVSPropertyOp50
 70
     1
102
RTVSPropertyOp51
 70
     0
102
RTVSPropertyOp52
 70
     0
102
RTVSPropertyOp53
 70
     1
102
RTVSPropertyOp54
 70
     1
102
RTVSPropertyOp55
 70
     1
102
RTVSPropertyOp56
 70
     1
102
RTVSPropertyOp57
 70
     1
102
RTVSPropertyOp58
 70
     1
102
RTVSPropertyOp59
 70
     1
102
RTVSPropertyOp60
 70
     1
102
RTVSPropertyOp61
 70
     1
102
RTVSPropertyOp62
 70
     1
  0
ENDSEC
  0
EOF
