  0
SECTION
  2
HEADER
  9
$ACADVER
  1
AC1024
  9
$ACADMAINTVER
 70
   205
  9
$DWGCODEPAGE
  3
ANSI_932
  9
$COMMENTS
  1
File was created by TR2_DExp
  9
$LASTSAVEDBY
  1
y.minamitani
  9
$INSBASE
 10
0.0
 20
0.0
 30
0.0
  9
$EXTMIN
 10
17.46724525086164
 20
-206.6073671504705
 30
0.0
  9
$EXTMAX
 10
1919.460235501638
 20
462.9140481788878
 30
0.0
  9
$LIMMIN
 10
-140.4597673416138
 20
-223.4582233428955
  9
$LIMMAX
 10
431.8279371261596
 20
278.5068969726562
  9
$ORTHOMODE
 70
     0
  9
$REGENMODE
 70
     1
  9
$FILLMODE
 70
     1
  9
$QTEXTMODE
 70
     0
  9
$MIRRTEXT
 70
     1
  9
$LTSCALE
 40
0.2898486259039932
  9
$ATTMODE
 70
     1
  9
$TEXTSIZE
 40
2.5
  9
$TRACEWID
 40
1.0
  9
$TEXTSTYLE
  7
Standard
  9
$CLAYER
  8
0
  9
$CELTYPE
  6
ByLayer
  9
$CECOLOR
 62
   256
  9
$CELTSCALE
 40
1.0
  9
$DISPSILH
 70
     0
  9
$DIMSCALE
 40
1.0
  9
$DIMASZ
 40
2.5
  9
$DIMEXO
 40
0.625
  9
$DIMDLI
 40
3.75
  9
$DIMRND
 40
0.0
  9
$DIMDLE
 40
0.0
  9
$DIMEXE
 40
1.25
  9
$DIMTP
 40
0.0
  9
$DIMTM
 40
0.0
  9
$DIMTXT
 40
2.5
  9
$DIMCEN
 40
2.5
  9
$DIMTSZ
 40
0.0
  9
$DIMTOL
 70
     0
  9
$DIMLIM
 70
     0
  9
$DIMTIH
 70
     0
  9
$DIMTOH
 70
     0
  9
$DIMSE1
 70
     0
  9
$DIMSE2
 70
     0
  9
$DIMTAD
 70
     1
  9
$DIMZIN
 70
     0
  9
$DIMBLK
  1

  9
$DIMASO
 70
     1
  9
$DIMSHO
 70
     1
  9
$DIMPOST
  1

  9
$DIMAPOST
  1

  9
$DIMALT
 70
     0
  9
$DIMALTD
 70
     3
  9
$DIMALTF
 40
0.03937007874016
  9
$DIMLFAC
 40
1.0
  9
$DIMTOFL
 70
     1
  9
$DIMTVP
 40
0.0
  9
$DIMTIX
 70
     0
  9
$DIMSOXD
 70
     0
  9
$DIMSAH
 70
     0
  9
$DIMBLK1
  1

  9
$DIMBLK2
  1

  9
$DIMSTYLE
  2
Standard
  9
$DIMCLRD
 70
     0
  9
$DIMCLRE
 70
     0
  9
$DIMCLRT
 70
     0
  9
$DIMTFAC
 40
0.75
  9
$DIMGAP
 40
0.625
  9
$DIMJUST
 70
     0
  9
$DIMSD1
 70
     0
  9
$DIMSD2
 70
     0
  9
$DIMTOLJ
 70
     0
  9
$DIMTZIN
 70
     8
  9
$DIMALTZ
 70
     0
  9
$DIMALTTZ
 70
     0
  9
$DIMUPT
 70
     0
  9
$DIMDEC
 70
     2
  9
$DIMTDEC
 70
     2
  9
$DIMALTU
 70
     2
  9
$DIMALTTD
 70
     3
  9
$DIMTXSTY
  7
Standard
  9
$DIMAUNIT
 70
     0
  9
$DIMADEC
 70
     0
  9
$DIMALTRND
 40
0.0
  9
$DIMAZIN
 70
     0
  9
$DIMDSEP
 70
    46
  9
$DIMATFIT
 70
     3
  9
$DIMFRAC
 70
     0
  9
$DIMLDRBLK
  1

  9
$DIMLUNIT
 70
     2
  9
$DIMLWD
 70
    -2
  9
$DIMLWE
 70
    -2
  9
$DIMTMOVE
 70
     0
  9
$DIMFXL
 40
1.0
  9
$DIMFXLON
 70
     0
  9
$DIMJOGANG
 40
0.7853981633974483
  9
$DIMTFILL
 70
     0
  9
$DIMTFILLCLR
 70
     0
  9
$DIMARCSYM
 70
     0
  9
$DIMLTYPE
  6

  9
$DIMLTEX1
  6

  9
$DIMLTEX2
  6

  9
$DIMTXTDIRECTION
 70
     0
  9
$LUNITS
 70
     2
  9
$LUPREC
 70
     4
  9
$SKETCHINC
 40
1.0
  9
$FILLETRAD
 40
0.0
  9
$AUNITS
 70
     0
  9
$AUPREC
 70
     0
  9
$MENU
  1
.
  9
$ELEVATION
 40
0.0
  9
$PELEVATION
 40
0.0
  9
$THICKNESS
 40
0.0
  9
$LIMCHECK
 70
     0
  9
$CHAMFERA
 40
10.0
  9
$CHAMFERB
 40
10.0
  9
$CHAMFERC
 40
20.0
  9
$CHAMFERD
 40
0.0
  9
$SKPOLY
 70
     0
  9
$TDCREATE
 40
2455188.750000000
  9
$TDUCREATE
 40
2455188.375000000
  9
$TDUPDATE
 40
2459858.395682025
  9
$TDUUPDATE
 40
2459858.020682025
  9
$TDINDWG
 40
0.0095642361
  9
$TDUSRTIMER
 40
0.0095639699
  9
$USRTIMER
 70
     1
  9
$ANGBASE
 50
0.0
  9
$ANGDIR
 70
     0
  9
$PDMODE
 70
     0
  9
$PDSIZE
 40
0.0
  9
$PLINEWID
 40
0.0
  9
$SPLFRAME
 70
     0
  9
$SPLINETYPE
 70
     6
  9
$SPLINESEGS
 70
     8
  9
$HANDSEED
  5
6A0
  9
$SURFTAB1
 70
     6
  9
$SURFTAB2
 70
     6
  9
$SURFTYPE
 70
     6
  9
$SURFU
 70
     6
  9
$SURFV
 70
     6
  9
$UCSBASE
  2

  9
$UCSNAME
  2

  9
$UCSORG
 10
0.0
 20
0.0
 30
0.0
  9
$UCSXDIR
 10
1.0
 20
0.0
 30
0.0
  9
$UCSYDIR
 10
0.0
 20
1.0
 30
0.0
  9
$UCSORTHOREF
  2

  9
$UCSORTHOVIEW
 70
     0
  9
$UCSORGTOP
 10
0.0
 20
0.0
 30
0.0
  9
$UCSORGBOTTOM
 10
0.0
 20
0.0
 30
0.0
  9
$UCSORGLEFT
 10
0.0
 20
0.0
 30
0.0
  9
$UCSORGRIGHT
 10
0.0
 20
0.0
 30
0.0
  9
$UCSORGFRONT
 10
0.0
 20
0.0
 30
0.0
  9
$UCSORGBACK
 10
0.0
 20
0.0
 30
0.0
  9
$PUCSBASE
  2

  9
$PUCSNAME
  2

  9
$PUCSORG
 10
0.0
 20
0.0
 30
0.0
  9
$PUCSXDIR
 10
1.0
 20
0.0
 30
0.0
  9
$PUCSYDIR
 10
0.0
 20
1.0
 30
0.0
  9
$PUCSORTHOREF
  2

  9
$PUCSORTHOVIEW
 70
     0
  9
$PUCSORGTOP
 10
0.0
 20
0.0
 30
0.0
  9
$PUCSORGBOTTOM
 10
0.0
 20
0.0
 30
0.0
  9
$PUCSORGLEFT
 10
0.0
 20
0.0
 30
0.0
  9
$PUCSORGRIGHT
 10
0.0
 20
0.0
 30
0.0
  9
$PUCSORGFRONT
 10
0.0
 20
0.0
 30
0.0
  9
$PUCSORGBACK
 10
0.0
 20
0.0
 30
0.0
  9
$USERI1
 70
     0
  9
$USERI2
 70
     0
  9
$USERI3
 70
     0
  9
$USERI4
 70
     0
  9
$USERI5
 70
     0
  9
$USERR1
 40
0.0
  9
$USERR2
 40
0.0
  9
$USERR3
 40
0.0
  9
$USERR4
 40
0.0
  9
$USERR5
 40
0.0
  9
$WORLDVIEW
 70
     1
  9
$SHADEDGE
 70
     3
  9
$SHADEDIF
 70
    70
  9
$TILEMODE
 70
     1
  9
$MAXACTVP
 70
    64
  9
$PINSBASE
 10
0.0
 20
0.0
 30
0.0
  9
$PLIMCHECK
 70
     0
  9
$PEXTMIN
 10
1.000000000000000E+20
 20
1.000000000000000E+20
 30
1.000000000000000E+20
  9
$PEXTMAX
 10
-1.000000000000000E+20
 20
-1.000000000000000E+20
 30
-1.000000000000000E+20
  9
$PLIMMIN
 10
0.0
 20
0.0
  9
$PLIMMAX
 10
420.0
 20
297.0
  9
$UNITMODE
 70
     0
  9
$VISRETAIN
 70
     1
  9
$PLINEGEN
 70
     0
  9
$PSLTSCALE
 70
     1
  9
$TREEDEPTH
 70
  3020
  9
$CMLSTYLE
  2
Standard
  9
$CMLJUST
 70
     0
  9
$CMLSCALE
 40
20.0
  9
$PROXYGRAPHICS
 70
     1
  9
$MEASUREMENT
 70
     1
  9
$CELWEIGHT
370
    -1
  9
$ENDCAPS
280
     0
  9
$JOINSTYLE
280
     0
  9
$LWDISPLAY
290
     0
  9
$INSUNITS
 70
     4
  9
$HYPERLINKBASE
  1

  9
$STYLESHEET
  1

  9
$XEDIT
290
     1
  9
$CEPSNTYPE
380
     0
  9
$PSTYLEMODE
290
     1
  9
$FINGERPRINTGUID
  2
{94A0B89F-AC36-436A-A254-34C803156405}
  9
$VERSIONGUID
  2
{6A1EADA5-CE9D-4AE7-BBA4-1DEB4D090823}
  9
$EXTNAMES
290
     1
  9
$PSVPSCALE
 40
0.0
  9
$OLESTARTUP
290
     0
  9
$SORTENTS
280
   127
  9
$INDEXCTL
280
     0
  9
$HIDETEXT
280
     1
  9
$XCLIPFRAME
280
     2
  9
$HALOGAP
280
     0
  9
$OBSCOLOR
 70
   257
  9
$OBSLTYPE
280
     0
  9
$INTERSECTIONDISPLAY
280
     0
  9
$INTERSECTIONCOLOR
 70
   257
  9
$DIMASSOC
280
     2
  9
$PROJECTNAME
  1

  9
$CAMERADISPLAY
290
     0
  9
$LENSLENGTH
 40
50.0
  9
$CAMERAHEIGHT
 40
0.0
  9
$STEPSPERSEC
 40
2.0
  9
$STEPSIZE
 40
6.0
  9
$3DDWFPREC
 40
2.0
  9
$PSOLWIDTH
 40
5.0
  9
$PSOLHEIGHT
 40
80.0
  9
$LOFTANG1
 40
1.570795999999999
  9
$LOFTANG2
 40
1.570795999999999
  9
$LOFTMAG1
 40
0.0
  9
$LOFTMAG2
 40
0.0
  9
$LOFTPARAM
 70
     7
  9
$LOFTNORMALS
280
     1
  9
$LATITUDE
 40
37.795
  9
$LONGITUDE
 40
-122.394
  9
$NORTHDIRECTION
 40
0.0
  9
$TIMEZONE
 70
 -8000
  9
$LIGHTGLYPHDISPLAY
280
     1
  9
$TILEMODELIGHTSYNCH
280
     1
  9
$CMATERIAL
347
44
  9
$SOLIDHIST
280
     0
  9
$SHOWHIST
280
     1
  9
$DWFFRAME
280
     2
  9
$DGNFRAME
280
     0
  9
$REALWORLDSCALE
290
     1
  9
$INTERFERECOLOR
 62
     1
  9
$INTERFEREOBJVS
345
33
  9
$INTERFEREVPVS
346
30
  9
$CSHADOW
280
     0
  9
$SHADOWPLANELOCATION
 40
0.0
  0
ENDSEC
  0
SECTION
  2
CLASSES
  0
CLASS
  1
ACDBDICTIONARYWDFLT
  2
AcDbDictionaryWithDefault
  3
ObjectDBX Classes
 90
        0
 91
        1
280
     0
281
     0
  0
CLASS
  1
VISUALSTYLE
  2
AcDbVisualStyle
  3
ObjectDBX Classes
 90
     4095
 91
       24
280
     0
281
     0
  0
CLASS
  1
MATERIAL
  2
AcDbMaterial
  3
ObjectDBX Classes
 90
     1153
 91
        3
280
     0
281
     0
  0
CLASS
  1
SCALE
  2
AcDbScale
  3
ObjectDBX Classes
 90
     1153
 91
       17
280
     0
281
     0
  0
CLASS
  1
TABLESTYLE
  2
AcDbTableStyle
  3
ObjectDBX Classes
 90
     4095
 91
        1
280
     0
281
     0
  0
CLASS
  1
MLEADERSTYLE
  2
AcDbMLeaderStyle
  3
ACDB_MLEADERSTYLE_CLASS
 90
     4095
 91
        1
280
     0
281
     0
  0
CLASS
  1
SUN
  2
AcDbSun
  3
SCENEOE
 90
     1153
 91
        0
280
     0
281
     0
  0
CLASS
  1
DICTIONARYVAR
  2
AcDbDictionaryVar
  3
ObjectDBX Classes
 90
        0
 91
       21
280
     0
281
     0
  0
CLASS
  1
ACDBSECTIONVIEWSTYLE
  2
AcDbSectionViewStyle
  3
ObjectDBX Classes
 90
     1025
 91
        1
280
     0
281
     0
  0
CLASS
  1
ACDBDETAILVIEWSTYLE
  2
AcDbDetailViewStyle
  3
ObjectDBX Classes
 90
     1025
 91
        1
280
     0
281
     0
  0
CLASS
  1
SORTENTSTABLE
  2
AcDbSortentsTable
  3
ObjectDBX Classes
 90
        0
 91
        2
280
     0
281
     0
  0
CLASS
  1
CELLSTYLEMAP
  2
AcDbCellStyleMap
  3
ObjectDBX Classes
 90
     1152
 91
        2
280
     0
281
     0
  0
ENDSEC
  0
SECTION
  2
TABLES
  0
TABLE
  2
VPORT
  5
8
330
0
100
AcDbSymbolTable
 70
     1
  0
VPORT
  5
29
330
8
100
AcDbSymbolTableRecord
100
AcDbViewportTableRecord
  2
*Active
 70
     0
 10
0.0
 20
0.0
 11
1.0
 21
1.0
 12
556.2037374689662
 22
304.9907569692323
 13
0.0
 23
0.0
 14
10.0
 24
10.0
 15
10.0
 25
10.0
 16
0.0
 26
0.0
 36
1.0
 17
0.0
 27
0.0
 37
0.0
 40
1073.626360817383
 41
1.941176470588235
 42
50.0
 43
0.0
 44
0.0
 50
0.0
 51
0.0
 71
     0
 72
 20000
 73
     1
 74
     3
 75
     0
 76
     0
 77
     0
 78
     0
281
     0
 65
     1
110
0.0
120
0.0
130
0.0
111
1.0
121
0.0
131
0.0
112
0.0
122
1.0
132
0.0
 79
     0
146
0.0
348
2F
 60
     3
 61
     5
292
     1
282
     1
141
0.0
142
0.0
 63
   250
421
  3355443
1001
ACAD_NAV_VCDISPLAY
1070
     3
  0
ENDTAB
  0
TABLE
  2
LTYPE
  5
5
330
0
100
AcDbSymbolTable
 70
     3
  0
LTYPE
  5
14
330
5
100
AcDbSymbolTableRecord
100
AcDbLinetypeTableRecord
  2
ByBlock
 70
     0
  3

 72
    65
 73
     0
 40
0.0
  0
LTYPE
  5
15
330
5
100
AcDbSymbolTableRecord
100
AcDbLinetypeTableRecord
  2
ByLayer
 70
     0
  3

 72
    65
 73
     0
 40
0.0
  0
LTYPE
  5
16
330
5
100
AcDbSymbolTableRecord
100
AcDbLinetypeTableRecord
  2
Continuous
 70
     0
  3
Solid line
 72
    65
 73
     0
 40
0.0
  0
LTYPE
  5
273
330
5
100
AcDbSymbolTableRecord
100
AcDbLinetypeTableRecord
  2
CENTER2
 70
     0
  3
Center (.5x) ___ _ ___ _ ___ _ ___ _ ___ _ ___
 72
    65
 73
     4
 40
28.575
 49
19.05
 74
     0
 49
-3.174999999999998
 74
     0
 49
3.174999999999998
 74
     0
 49
-3.174999999999998
 74
     0
  0
ENDTAB
  0
TABLE
  2
LAYER
  5
2
102
{ACAD_XDICTIONARY
360
279
102
}
330
0
100
AcDbSymbolTable
 70
     5
  0
LAYER
  5
10
102
{ACAD_XDICTIONARY
360
39C
102
}
330
2
100
AcDbSymbolTableRecord
100
AcDbLayerTableRecord
  2
0
 70
     0
 62
     7
  6
Continuous
370
    -3
390
F
347
46
  0
LAYER
  5
66
330
2
100
AcDbSymbolTableRecord
100
AcDbLayerTableRecord
  2
Defpoints
 70
     0
 62
     7
  6
Continuous
290
     0
370
    -3
390
F
347
46
  0
LAYER
  5
274
102
{ACAD_XDICTIONARY
360
275
102
}
330
2
100
AcDbSymbolTableRecord
100
AcDbLayerTableRecord
  2
中心線
 70
     0
 62
     3
  6
CENTER2
370
    -3
390
F
347
46
  0
LAYER
  5
321
102
{ACAD_XDICTIONARY
360
322
102
}
330
2
100
AcDbSymbolTableRecord
100
AcDbLayerTableRecord
  2
実線
 70
     0
 62
     7
  6
Continuous
370
    -3
390
F
347
46
  0
ENDTAB
  0
TABLE
  2
STYLE
  5
3
330
0
100
AcDbSymbolTable
 70
     1
  0
STYLE
  5
11
330
3
100
AcDbSymbolTableRecord
100
AcDbTextStyleTableRecord
  2
Standard
 70
     0
 40
0.0
 41
1.0
 50
0.0
 71
     0
 42
2.5
  3
txt
  4
extfont2
  0
ENDTAB
  0
TABLE
  2
VIEW
  5
6
330
0
100
AcDbSymbolTable
 70
     0
  0
ENDTAB
  0
TABLE
  2
UCS
  5
7
330
0
100
AcDbSymbolTable
 70
     0
  0
ENDTAB
  0
TABLE
  2
APPID
  5
9
330
0
100
AcDbSymbolTable
 70
     4
  0
APPID
  5
12
330
9
100
AcDbSymbolTableRecord
100
AcDbRegAppTableRecord
  2
ACAD
 70
     0
  0
APPID
  5
193
330
9
100
AcDbSymbolTableRecord
100
AcDbRegAppTableRecord
  2
ACAD_MLEADERVER
 70
     0
  0
APPID
  5
278
330
9
100
AcDbSymbolTableRecord
100
AcDbRegAppTableRecord
  2
ACAD_NAV_VCDISPLAY
 70
     0
  0
APPID
  5
389
330
9
100
AcDbSymbolTableRecord
100
AcDbRegAppTableRecord
  2
ACAD_EXEMPT_FROM_CAD_STANDARDS
 70
     0
  0
ENDTAB
  0
TABLE
  2
DIMSTYLE
  5
A
330
0
100
AcDbSymbolTable
 70
     1
100
AcDbDimStyleTable
 71
     1
340
27
  0
DIMSTYLE
105
27
330
A
100
AcDbSymbolTableRecord
100
AcDbDimStyleTableRecord
  2
Standard
 70
     0
 41
2.5
 42
0.625
 43
3.75
 44
1.25
 73
     0
 74
     0
 77
     1
140
2.5
141
2.5
143
0.03937007874016
146
0.75
147
0.625
171
     3
172
     1
271
     2
272
     2
274
     3
283
     0
284
     8
340
11
  0
ENDTAB
  0
TABLE
  2
BLOCK_RECORD
  5
1
330
0
100
AcDbSymbolTable
 70
     2
  0
BLOCK_RECORD
  5
1F
102
{ACAD_XDICTIONARY
360
1AD
102
}
330
1
100
AcDbSymbolTableRecord
100
AcDbBlockTableRecord
  2
*Model_Space
340
22
 70
     0
280
     1
281
     0
  0
BLOCK_RECORD
  5
1B
330
1
100
AcDbSymbolTableRecord
100
AcDbBlockTableRecord
  2
*Paper_Space
340
1E
 70
     0
280
     1
281
     0
  0
BLOCK_RECORD
  5
23
330
1
100
AcDbSymbolTableRecord
100
AcDbBlockTableRecord
  2
*Paper_Space0
340
19D
 70
     0
280
     1
281
     0
  0
ENDTAB
  0
ENDSEC
  0
SECTION
  2
BLOCKS
  0
BLOCK
  5
20
330
1F
100
AcDbEntity
  8
0
100
AcDbBlockBegin
  2
*Model_Space
 70
     0
 10
0.0
 20
0.0
 30
0.0
  3
*Model_Space
  1

  0
ENDBLK
  5
21
330
1F
100
AcDbEntity
  8
0
100
AcDbBlockEnd
  0
BLOCK
  5
1C
330
1B
100
AcDbEntity
 67
     1
  8
0
100
AcDbBlockBegin
  2
*Paper_Space
 70
     0
 10
0.0
 20
0.0
 30
0.0
  3
*Paper_Space
  1

  0
ENDBLK
  5
1D
330
1B
100
AcDbEntity
 67
     1
  8
0
100
AcDbBlockEnd
  0
BLOCK
  5
24
330
23
100
AcDbEntity
 67
     1
  8
0
100
AcDbBlockBegin
  2
*Paper_Space0
 70
     0
 10
0.0
 20
0.0
 30
0.0
  3
*Paper_Space0
  1

  0
ENDBLK
  5
25
330
23
100
AcDbEntity
 67
     1
  8
0
100
AcDbBlockEnd
  0
ENDSEC
  0
SECTION
  2
ENTITIES
  0
LINE
  5
31B
102
{ACAD_REACTORS
330
669
102
}
330
1F
100
AcDbEntity
  8
中心線
100
AcDbLine
 10
215.4672452508616
 20
45.41404817888788
 30
0.0
 11
329.4672452508617
 21
45.41404817888788
 31
0.0
  0
LINE
  5
31C
102
{ACAD_REACTORS
330
669
102
}
330
1F
100
AcDbEntity
  8
中心線
100
AcDbLine
 10
272.4672452508616
 20
7.914048178887838
 30
0.0
 11
272.4672452508616
 21
82.91404817888784
 31
0.0
  0
LINE
  5
31D
102
{ACAD_REACTORS
330
668
102
}
330
1F
100
AcDbEntity
  8
中心線
100
AcDbLine
 10
215.4672452508617
 20
425.4140481788878
 30
0.0
 11
329.4672452508617
 21
425.4140481788878
 31
0.0
  0
LINE
  5
31E
102
{ACAD_REACTORS
330
668
102
}
330
1F
100
AcDbEntity
  8
中心線
100
AcDbLine
 10
272.4672452508617
 20
387.914048178888
 30
0.0
 11
272.4672452508617
 21
462.9140481788878
 31
0.0
  0
LINE
  5
31F
102
{ACAD_REACTORS
330
664
102
}
330
1F
100
AcDbEntity
  8
中心線
100
AcDbLine
 10
655.4672452508618
 20
205.4140481788879
 30
0.0
 11
769.4672452508617
 21
205.4140481788879
 31
0.0
  0
LINE
  5
320
102
{ACAD_REACTORS
330
664
102
}
330
1F
100
AcDbEntity
  8
中心線
100
AcDbLine
 10
712.4672452508616
 20
172.9140481788879
 30
0.0
 11
712.4672452508616
 21
325.7676856232415
 31
0.0
  0
LINE
  5
390
102
{ACAD_REACTORS
330
665
102
}
330
1F
100
AcDbEntity
  8
中心線
100
AcDbLine
 10
459.9672452508616
 20
205.4140481788879
 30
0.0
 11
524.9672452508615
 21
205.4140481788879
 31
0.0
  0
LINE
  5
391
102
{ACAD_REACTORS
330
665
102
}
330
1F
100
AcDbEntity
  8
中心線
100
AcDbLine
 10
492.4672452508615
 20
172.9140481788879
 30
0.0
 11
492.4672452508615
 21
325.7676856232415
 31
0.0
  0
LINE
  5
392
102
{ACAD_REACTORS
330
666
102
}
330
1F
100
AcDbEntity
  8
中心線
100
AcDbLine
 10
215.4672452508616
 20
205.4140481788879
 30
0.0
 11
329.4672452508617
 21
205.4140481788879
 31
0.0
  0
LINE
  5
393
102
{ACAD_REACTORS
330
666
102
}
330
1F
100
AcDbEntity
  8
中心線
100
AcDbLine
 10
272.4672452508617
 20
172.9140481788879
 30
0.0
 11
272.4672452508617
 21
325.7676856232415
 31
0.0
  0
LINE
  5
394
102
{ACAD_REACTORS
330
667
102
}
330
1F
100
AcDbEntity
  8
中心線
100
AcDbLine
 10
19.96724525086165
 20
205.4140481788879
 30
0.0
 11
84.96724525086165
 21
205.4140481788879
 31
0.0
  0
LINE
  5
395
102
{ACAD_REACTORS
330
667
102
}
330
1F
100
AcDbEntity
  8
中心線
100
AcDbLine
 10
52.46724525086165
 20
172.9140481788879
 30
0.0
 11
52.46724525086165
 21
325.7676856232415
 31
0.0
  0
LINE
  5
572
102
{ACAD_REACTORS
330
666
102
}
330
1F
100
AcDbEntity
  8
実線
100
AcDbLine
 10
283.3172452508616
 20
186.4140481788878
 30
0.0
 11
283.3172452508616
 21
193.4140481788879
 31
0.0
  0
LINE
  5
573
102
{ACAD_REACTORS
330
666
102
}
330
1F
100
AcDbEntity
  8
実線
100
AcDbLine
 10
261.6172452508617
 20
193.4140481788879
 30
0.0
 11
261.6172452508617
 21
186.4140481788878
 31
0.0
  0
LINE
  5
574
102
{ACAD_REACTORS
330
666
102
}
330
1F
100
AcDbEntity
  8
実線
100
AcDbLine
 10
289.4672452508617
 20
181.9140481788878
 30
0.0
 11
289.4672452508617
 21
184.0640481788878
 31
0.0
  0
LINE
  5
575
102
{ACAD_REACTORS
330
666
102
}
330
1F
100
AcDbEntity
  8
実線
100
AcDbLine
 10
255.4672452508616
 20
184.0640481788878
 30
0.0
 11
255.4672452508616
 21
181.9140481788878
 31
0.0
  0
LINE
  5
576
102
{ACAD_REACTORS
330
666
102
}
330
1F
100
AcDbEntity
  8
実線
100
AcDbLine
 10
289.4672452508617
 20
181.9140481788878
 30
0.0
 11
255.4672452508616
 21
181.9140481788878
 31
0.0
  0
LINE
  5
577
102
{ACAD_REACTORS
330
666
102
}
330
1F
100
AcDbEntity
  8
実線
100
AcDbLine
 10
261.6172452508617
 20
186.4140481788878
 30
0.0
 11
255.4672452508616
 21
184.0640481788878
 31
0.0
  0
LINE
  5
578
102
{ACAD_REACTORS
330
666
102
}
330
1F
100
AcDbEntity
  8
実線
100
AcDbLine
 10
289.4672452508617
 20
184.0640481788878
 30
0.0
 11
283.3172452508616
 21
186.4140481788878
 31
0.0
  0
LINE
  5
579
102
{ACAD_REACTORS
330
666
102
}
330
1F
100
AcDbEntity
  8
実線
100
AcDbLine
 10
255.4672452508616
 20
184.0640481788878
 30
0.0
 11
289.4672452508617
 21
184.0640481788878
 31
0.0
  0
LINE
  5
57A
102
{ACAD_REACTORS
330
666
102
}
330
1F
100
AcDbEntity
  8
実線
100
AcDbLine
 10
261.6172452508617
 20
186.4140481788878
 30
0.0
 11
283.3172452508616
 21
186.4140481788878
 31
0.0
  0
LINE
  5
57B
102
{ACAD_REACTORS
330
666
102
}
330
1F
100
AcDbEntity
  8
実線
100
AcDbLine
 10
221.9672452508616
 20
194.5640481788879
 30
0.0
 11
251.4672452508616
 21
194.5640481788879
 31
0.0
  0
LINE
  5
57C
102
{ACAD_REACTORS
330
666
102
}
330
1F
100
AcDbEntity
  8
実線
100
AcDbLine
 10
251.4672452508616
 20
216.2640481788879
 30
0.0
 11
221.9672452508616
 21
216.2640481788879
 31
0.0
  0
LINE
  5
57D
102
{ACAD_REACTORS
330
666
102
}
330
1F
100
AcDbEntity
  8
実線
100
AcDbLine
 10
221.9672452508616
 20
216.2640481788879
 30
0.0
 11
219.6172452508617
 21
222.4140481788879
 31
0.0
  0
LINE
  5
57E
102
{ACAD_REACTORS
330
666
102
}
330
1F
100
AcDbEntity
  8
実線
100
AcDbLine
 10
219.6172452508617
 20
188.4140481788879
 30
0.0
 11
221.9672452508616
 21
194.5640481788879
 31
0.0
  0
LINE
  5
57F
102
{ACAD_REACTORS
330
666
102
}
330
1F
100
AcDbEntity
  8
実線
100
AcDbLine
 10
221.9672452508616
 20
216.2640481788879
 30
0.0
 11
221.9672452508616
 21
194.5640481788879
 31
0.0
  0
LINE
  5
580
102
{ACAD_REACTORS
330
666
102
}
330
1F
100
AcDbEntity
  8
実線
100
AcDbLine
 10
217.4672452508616
 20
188.4140481788879
 30
0.0
 11
219.6172452508617
 21
188.4140481788879
 31
0.0
  0
LINE
  5
581
102
{ACAD_REACTORS
330
666
102
}
330
1F
100
AcDbEntity
  8
実線
100
AcDbLine
 10
219.6172452508617
 20
222.4140481788879
 30
0.0
 11
217.4672452508616
 21
222.4140481788879
 31
0.0
  0
LINE
  5
582
102
{ACAD_REACTORS
330
666
102
}
330
1F
100
AcDbEntity
  8
実線
100
AcDbLine
 10
217.4672452508616
 20
188.4140481788879
 30
0.0
 11
217.4672452508616
 21
222.4140481788879
 31
0.0
  0
LINE
  5
583
102
{ACAD_REACTORS
330
666
102
}
330
1F
100
AcDbEntity
  8
実線
100
AcDbLine
 10
219.6172452508617
 20
188.4140481788879
 30
0.0
 11
219.6172452508617
 21
222.4140481788879
 31
0.0
  0
LINE
  5
584
102
{ACAD_REACTORS
330
666
102
}
330
1F
100
AcDbEntity
  8
実線
100
AcDbLine
 10
292.4672452508616
 20
259.6640481788879
 30
0.0
 11
252.4672452508617
 21
259.6640481788879
 31
0.0
  0
LINE
  5
585
102
{ACAD_REACTORS
330
666
102
}
330
1F
100
AcDbEntity
  8
実線
100
AcDbLine
 10
292.4672452508616
 20
259.6640481788879
 30
0.0
 11
292.4672452508616
 21
279.6640481788879
 31
0.0
  0
LINE
  5
586
102
{ACAD_REACTORS
330
666
102
}
330
1F
100
AcDbEntity
  8
実線
100
AcDbLine
 10
252.4672452508617
 20
279.6640481788879
 30
0.0
 11
252.4672452508617
 21
259.6640481788879
 31
0.0
  0
LINE
  5
587
102
{ACAD_REACTORS
330
666
102
}
330
1F
100
AcDbEntity
  8
実線
100
AcDbLine
 10
290.9672452508616
 20
250.1640481788879
 30
0.0
 11
253.9672452508617
 21
250.1640481788879
 31
0.0
  0
LINE
  5
588
102
{ACAD_REACTORS
330
666
102
}
330
1F
100
AcDbEntity
  8
実線
100
AcDbLine
 10
290.9672452508616
 20
250.1640481788879
 30
0.0
 11
290.9672452508616
 21
254.6640481788879
 31
0.0
  0
LINE
  5
589
102
{ACAD_REACTORS
330
666
102
}
330
1F
100
AcDbEntity
  8
実線
100
AcDbLine
 10
253.9672452508617
 20
254.6640481788879
 30
0.0
 11
253.9672452508617
 21
250.1640481788879
 31
0.0
  0
LINE
  5
58A
102
{ACAD_REACTORS
330
666
102
}
330
1F
100
AcDbEntity
  8
実線
100
AcDbLine
 10
290.9672452508616
 20
254.6640481788879
 30
0.0
 11
253.9672452508617
 21
254.6640481788879
 31
0.0
  0
LINE
  5
58B
102
{ACAD_REACTORS
330
666
102
}
330
1F
100
AcDbEntity
  8
実線
100
AcDbLine
 10
290.9672452508616
 20
239.1640481788879
 30
0.0
 11
290.9672452508616
 21
250.1640481788879
 31
0.0
  0
LINE
  5
58C
102
{ACAD_REACTORS
330
666
102
}
330
1F
100
AcDbEntity
  8
実線
100
AcDbLine
 10
253.9672452508617
 20
250.1640481788879
 30
0.0
 11
253.9672452508617
 21
239.1640481788879
 31
0.0
  0
LINE
  5
58D
102
{ACAD_REACTORS
330
666
102
}
330
1F
100
AcDbEntity
  8
実線
100
AcDbLine
 10
251.4672452508616
 20
222.1640481788879
 30
0.0
 11
251.4672452508616
 21
239.1640481788879
 31
0.0
  0
LINE
  5
58E
102
{ACAD_REACTORS
330
666
102
}
330
1F
100
AcDbEntity
  8
実線
100
AcDbLine
 10
293.4672452508617
 20
222.1640481788879
 30
0.0
 11
293.4672452508617
 21
239.1640481788879
 31
0.0
  0
LINE
  5
58F
102
{ACAD_REACTORS
330
666
102
}
330
1F
100
AcDbEntity
  8
実線
100
AcDbLine
 10
293.4672452508617
 20
239.1640481788879
 30
0.0
 11
251.4672452508616
 21
239.1640481788879
 31
0.0
  0
LINE
  5
590
102
{ACAD_REACTORS
330
666
102
}
330
1F
100
AcDbEntity
  8
実線
100
AcDbLine
 10
251.4672452508616
 20
222.1640481788879
 30
0.0
 11
293.4672452508617
 21
222.1640481788879
 31
0.0
  0
LINE
  5
591
102
{ACAD_REACTORS
330
666
102
}
330
1F
100
AcDbEntity
  8
実線
100
AcDbLine
 10
288.4672452508617
 20
254.6640481788879
 30
0.0
 11
288.4672452508617
 21
259.6640481788879
 31
0.0
  0
LINE
  5
592
102
{ACAD_REACTORS
330
666
102
}
330
1F
100
AcDbEntity
  8
実線
100
AcDbLine
 10
256.4672452508617
 20
259.6640481788879
 30
0.0
 11
256.4672452508617
 21
254.6640481788879
 31
0.0
  0
LINE
  5
593
102
{ACAD_REACTORS
330
666
102
}
330
1F
100
AcDbEntity
  8
実線
100
AcDbLine
 10
322.9672452508617
 20
216.2640481788879
 30
0.0
 11
293.4672452508617
 21
216.2640481788879
 31
0.0
  0
LINE
  5
594
102
{ACAD_REACTORS
330
666
102
}
330
1F
100
AcDbEntity
  8
実線
100
AcDbLine
 10
293.4672452508617
 20
194.5640481788879
 30
0.0
 11
322.9672452508617
 21
194.5640481788879
 31
0.0
  0
LINE
  5
595
102
{ACAD_REACTORS
330
666
102
}
330
1F
100
AcDbEntity
  8
実線
100
AcDbLine
 10
322.9672452508617
 20
194.5640481788879
 30
0.0
 11
322.9672452508617
 21
216.2640481788879
 31
0.0
  0
LINE
  5
596
102
{ACAD_REACTORS
330
666
102
}
330
1F
100
AcDbEntity
  8
実線
100
AcDbLine
 10
322.9672452508617
 20
194.5640481788879
 30
0.0
 11
325.3172452508616
 21
188.4140481788879
 31
0.0
  0
LINE
  5
597
102
{ACAD_REACTORS
330
666
102
}
330
1F
100
AcDbEntity
  8
実線
100
AcDbLine
 10
325.3172452508616
 20
222.4140481788879
 30
0.0
 11
322.9672452508617
 21
216.2640481788879
 31
0.0
  0
LINE
  5
598
102
{ACAD_REACTORS
330
666
102
}
330
1F
100
AcDbEntity
  8
実線
100
AcDbLine
 10
327.4672452508617
 20
188.4140481788879
 30
0.0
 11
327.4672452508617
 21
222.4140481788879
 31
0.0
  0
LINE
  5
599
102
{ACAD_REACTORS
330
666
102
}
330
1F
100
AcDbEntity
  8
実線
100
AcDbLine
 10
325.3172452508616
 20
188.4140481788879
 30
0.0
 11
325.3172452508616
 21
222.4140481788879
 31
0.0
  0
LINE
  5
59A
102
{ACAD_REACTORS
330
666
102
}
330
1F
100
AcDbEntity
  8
実線
100
AcDbLine
 10
327.4672452508617
 20
222.4140481788879
 30
0.0
 11
325.3172452508616
 21
222.4140481788879
 31
0.0
  0
LINE
  5
59B
102
{ACAD_REACTORS
330
666
102
}
330
1F
100
AcDbEntity
  8
実線
100
AcDbLine
 10
325.3172452508616
 20
188.4140481788879
 30
0.0
 11
327.4672452508617
 21
188.4140481788879
 31
0.0
  0
LINE
  5
59C
102
{ACAD_REACTORS
330
666
102
}
330
1F
100
AcDbEntity
  8
実線
100
AcDbLine
 10
293.4672452508617
 20
193.4140481788879
 30
0.0
 11
293.4672452508617
 21
222.1640481788879
 31
0.0
  0
LINE
  5
59D
102
{ACAD_REACTORS
330
666
102
}
330
1F
100
AcDbEntity
  8
実線
100
AcDbLine
 10
293.4672452508617
 20
193.4140481788879
 30
0.0
 11
251.4672452508616
 21
193.4140481788879
 31
0.0
  0
LINE
  5
59E
102
{ACAD_REACTORS
330
666
102
}
330
1F
100
AcDbEntity
  8
実線
100
AcDbLine
 10
251.4672452508616
 20
193.4140481788879
 30
0.0
 11
251.4672452508616
 21
222.1640481788879
 31
0.0
  0
LINE
  5
59F
102
{ACAD_REACTORS
330
666
102
}
330
1F
100
AcDbEntity
  8
実線
100
AcDbLine
 10
267.9672452508616
 20
213.9140481788879
 30
0.0
 11
251.4672452508616
 21
213.9140481788879
 31
0.0
  0
LINE
  5
5A0
102
{ACAD_REACTORS
330
666
102
}
330
1F
100
AcDbEntity
  8
実線
100
AcDbLine
 10
267.9672452508616
 20
213.9140481788879
 30
0.0
 11
267.9672452508616
 21
193.4140481788879
 31
0.0
  0
LINE
  5
5A1
102
{ACAD_REACTORS
330
666
102
}
330
1F
100
AcDbEntity
  8
実線
100
AcDbLine
 10
276.9672452508617
 20
213.9140481788879
 30
0.0
 11
276.9672452508617
 21
193.4140481788879
 31
0.0
  0
LINE
  5
5A2
102
{ACAD_REACTORS
330
666
102
}
330
1F
100
AcDbEntity
  8
実線
100
AcDbLine
 10
276.9672452508617
 20
213.9140481788879
 30
0.0
 11
293.4672452508617
 21
213.9140481788879
 31
0.0
  0
LINE
  5
5A3
102
{ACAD_REACTORS
330
666
102
}
330
1F
100
AcDbEntity
  8
実線
100
AcDbLine
 10
307.4672452508616
 20
279.6640481788879
 30
0.0
 11
307.4672452508616
 21
307.6640481788879
 31
0.0
  0
LINE
  5
5A4
102
{ACAD_REACTORS
330
666
102
}
330
1F
100
AcDbEntity
  8
実線
100
AcDbLine
 10
237.4672452508617
 20
307.6640481788879
 30
0.0
 11
237.4672452508617
 21
279.6640481788879
 31
0.0
  0
LINE
  5
5A5
102
{ACAD_REACTORS
330
666
102
}
330
1F
100
AcDbEntity
  8
実線
100
AcDbLine
 10
307.4672452508616
 20
279.6640481788879
 30
0.0
 11
237.4672452508617
 21
279.6640481788879
 31
0.0
  0
LINE
  5
5A6
102
{ACAD_REACTORS
330
666
102
}
330
1F
100
AcDbEntity
  8
実線
100
AcDbLine
 10
244.9672452526802
 20
315.1640481788879
 30
0.0
 11
299.9672452508617
 21
315.1640481788879
 31
0.0
  0
ARC
  5
5A7
102
{ACAD_REACTORS
330
666
102
}
330
1F
100
AcDbEntity
  8
実線
100
AcDbCircle
 10
299.9672452508617
 20
307.6640481788879
 30
0.0
 40
7.5
100
AcDbArc
 50
0.0
 51
90.0
  0
ARC
  5
5A8
102
{ACAD_REACTORS
330
666
102
}
330
1F
100
AcDbEntity
  8
実線
100
AcDbCircle
 10
244.9672452508616
 20
307.6640481788879
 30
0.0
 40
7.5
100
AcDbArc
 50
90.0
 51
180.0
  0
LINE
  5
5A9
102
{ACAD_REACTORS
330
667
102
}
330
1F
100
AcDbEntity
  8
実線
100
AcDbLine
 10
63.31724525086156
 20
186.4140481788879
 30
0.0
 11
63.31724525086156
 21
192.3267451717745
 31
0.0
  0
LINE
  5
5AA
102
{ACAD_REACTORS
330
667
102
}
330
1F
100
AcDbEntity
  8
実線
100
AcDbLine
 10
41.61724525086174
 20
192.3267451717745
 30
0.0
 11
41.61724525086174
 21
186.4140481788879
 31
0.0
  0
LINE
  5
5AB
102
{ACAD_REACTORS
330
667
102
}
330
1F
100
AcDbEntity
  8
実線
100
AcDbLine
 10
41.61724525086174
 20
186.4140481788879
 30
0.0
 11
35.46724525086165
 21
184.0640481788879
 31
0.0
  0
LINE
  5
5AC
102
{ACAD_REACTORS
330
667
102
}
330
1F
100
AcDbEntity
  8
実線
100
AcDbLine
 10
69.46724525086165
 20
184.0640481788879
 30
0.0
 11
63.31724525086156
 21
186.4140481788879
 31
0.0
  0
LINE
  5
5AD
102
{ACAD_REACTORS
330
667
102
}
330
1F
100
AcDbEntity
  8
実線
100
AcDbLine
 10
41.61724525086174
 20
186.4140481788879
 30
0.0
 11
63.31724525086156
 21
186.4140481788879
 31
0.0
  0
LINE
  5
5AE
102
{ACAD_REACTORS
330
667
102
}
330
1F
100
AcDbEntity
  8
実線
100
AcDbLine
 10
69.46724525086165
 20
181.9140481788879
 30
0.0
 11
69.46724525086165
 21
184.0640481788879
 31
0.0
  0
LINE
  5
5AF
102
{ACAD_REACTORS
330
667
102
}
330
1F
100
AcDbEntity
  8
実線
100
AcDbLine
 10
35.46724525086165
 20
184.0640481788879
 30
0.0
 11
35.46724525086165
 21
181.9140481788879
 31
0.0
  0
LINE
  5
5B0
102
{ACAD_REACTORS
330
667
102
}
330
1F
100
AcDbEntity
  8
実線
100
AcDbLine
 10
35.46724525086165
 20
181.9140481788879
 30
0.0
 11
69.46724525086165
 21
181.9140481788879
 31
0.0
  0
LINE
  5
5B1
102
{ACAD_REACTORS
330
667
102
}
330
1F
100
AcDbEntity
  8
実線
100
AcDbLine
 10
35.46724525086165
 20
184.0640481788879
 30
0.0
 11
69.46724525086165
 21
184.0640481788879
 31
0.0
  0
CIRCLE
  5
5B2
102
{ACAD_REACTORS
330
667
102
}
330
1F
100
AcDbEntity
  8
実線
100
AcDbCircle
 10
52.46724525086165
 20
205.4140481788879
 30
0.0
 40
17.0
  0
LINE
  5
5B3
102
{ACAD_REACTORS
330
667
102
}
330
1F
100
AcDbEntity
  8
実線
100
AcDbLine
 10
72.46724525086165
 20
259.6640481788879
 30
0.0
 11
72.46724525086165
 21
279.6640481788879
 31
0.0
  0
LINE
  5
5B4
102
{ACAD_REACTORS
330
667
102
}
330
1F
100
AcDbEntity
  8
実線
100
AcDbLine
 10
32.46724525086165
 20
279.6640481788879
 30
0.0
 11
32.46724525086165
 21
259.6640481788879
 31
0.0
  0
LINE
  5
5B5
102
{ACAD_REACTORS
330
667
102
}
330
1F
100
AcDbEntity
  8
実線
100
AcDbLine
 10
32.46724525086165
 20
259.6640481788879
 30
0.0
 11
72.46724525086165
 21
259.6640481788879
 31
0.0
  0
LINE
  5
5B6
102
{ACAD_REACTORS
330
667
102
}
330
1F
100
AcDbEntity
  8
実線
100
AcDbLine
 10
70.96724525086165
 20
250.1640481788879
 30
0.0
 11
70.96724525086165
 21
254.6640481788879
 31
0.0
  0
LINE
  5
5B7
102
{ACAD_REACTORS
330
667
102
}
330
1F
100
AcDbEntity
  8
実線
100
AcDbLine
 10
33.96724525086165
 20
254.6640481788879
 30
0.0
 11
33.96724525086165
 21
250.1640481788879
 31
0.0
  0
LINE
  5
5B8
102
{ACAD_REACTORS
330
667
102
}
330
1F
100
AcDbEntity
  8
実線
100
AcDbLine
 10
70.96724525086165
 20
254.6640481788879
 30
0.0
 11
33.96724525086165
 21
254.6640481788879
 31
0.0
  0
LINE
  5
5B9
102
{ACAD_REACTORS
330
667
102
}
330
1F
100
AcDbEntity
  8
実線
100
AcDbLine
 10
33.96724525086165
 20
250.1640481788879
 30
0.0
 11
70.96724525086165
 21
250.1640481788879
 31
0.0
  0
LINE
  5
5BA
102
{ACAD_REACTORS
330
667
102
}
330
1F
100
AcDbEntity
  8
実線
100
AcDbLine
 10
70.96724525086165
 20
239.1640481788879
 30
0.0
 11
70.96724525086165
 21
250.1640481788879
 31
0.0
  0
LINE
  5
5BB
102
{ACAD_REACTORS
330
667
102
}
330
1F
100
AcDbEntity
  8
実線
100
AcDbLine
 10
33.96724525086165
 20
250.1640481788879
 30
0.0
 11
33.96724525086165
 21
239.1640481788879
 31
0.0
  0
LINE
  5
5BC
102
{ACAD_REACTORS
330
667
102
}
330
1F
100
AcDbEntity
  8
実線
100
AcDbLine
 10
55.37198276051731
 20
222.1640481788879
 30
0.0
 11
73.46724525086165
 21
222.1640481788879
 31
0.0
  0
LINE
  5
5BD
102
{ACAD_REACTORS
330
667
102
}
330
1F
100
AcDbEntity
  8
実線
100
AcDbLine
 10
31.46724525086165
 20
222.1640481788879
 30
0.0
 11
49.56250774120599
 21
222.1640481788879
 31
0.0
  0
LINE
  5
5BE
102
{ACAD_REACTORS
330
667
102
}
330
1F
100
AcDbEntity
  8
実線
100
AcDbLine
 10
73.46724525086165
 20
239.1640481788879
 30
0.0
 11
31.46724525086165
 21
239.1640481788879
 31
0.0
  0
LINE
  5
5BF
102
{ACAD_REACTORS
330
667
102
}
330
1F
100
AcDbEntity
  8
実線
100
AcDbLine
 10
31.46724525086165
 20
222.1640481788879
 30
0.0
 11
31.46724525086165
 21
239.1640481788879
 31
0.0
  0
LINE
  5
5C0
102
{ACAD_REACTORS
330
667
102
}
330
1F
100
AcDbEntity
  8
実線
100
AcDbLine
 10
73.46724525086165
 20
222.1640481788879
 30
0.0
 11
73.46724525086165
 21
239.1640481788879
 31
0.0
  0
LINE
  5
5C1
102
{ACAD_REACTORS
330
667
102
}
330
1F
100
AcDbEntity
  8
実線
100
AcDbLine
 10
68.46724525086165
 20
254.6640481788879
 30
0.0
 11
68.46724525086165
 21
259.6640481788879
 31
0.0
  0
LINE
  5
5C2
102
{ACAD_REACTORS
330
667
102
}
330
1F
100
AcDbEntity
  8
実線
100
AcDbLine
 10
36.46724525086165
 20
259.6640481788879
 30
0.0
 11
36.46724525086165
 21
254.6640481788879
 31
0.0
  0
LINE
  5
5C3
102
{ACAD_REACTORS
330
667
102
}
330
1F
100
AcDbEntity
  8
実線
100
AcDbLine
 10
73.46724525086165
 20
193.4140481788879
 30
0.0
 11
73.46724525086165
 21
222.1640481788879
 31
0.0
  0
LINE
  5
5C4
102
{ACAD_REACTORS
330
667
102
}
330
1F
100
AcDbEntity
  8
実線
100
AcDbLine
 10
73.46724525086165
 20
193.4140481788879
 30
0.0
 11
64.50883982965388
 21
193.4140481788879
 31
0.0
  0
LINE
  5
5C5
102
{ACAD_REACTORS
330
667
102
}
330
1F
100
AcDbEntity
  8
実線
100
AcDbLine
 10
31.46724525086165
 20
193.4140481788879
 30
0.0
 11
40.42565067206942
 21
193.4140481788879
 31
0.0
  0
LINE
  5
5C6
102
{ACAD_REACTORS
330
667
102
}
330
1F
100
AcDbEntity
  8
実線
100
AcDbLine
 10
31.46724525086165
 20
193.4140481788879
 30
0.0
 11
31.46724525086165
 21
222.1640481788879
 31
0.0
  0
LINE
  5
5C7
102
{ACAD_REACTORS
330
667
102
}
330
1F
100
AcDbEntity
  8
実線
100
AcDbLine
 10
73.46724525086165
 20
213.9140481788879
 30
0.0
 11
67.18967711519713
 21
213.9140481788879
 31
0.0
  0
LINE
  5
5C8
102
{ACAD_REACTORS
330
667
102
}
330
1F
100
AcDbEntity
  8
実線
100
AcDbLine
 10
31.46724525086165
 20
213.9140481788879
 30
0.0
 11
37.74481338652618
 21
213.9140481788879
 31
0.0
  0
LINE
  5
5C9
102
{ACAD_REACTORS
330
667
102
}
330
1F
100
AcDbEntity
  8
実線
100
AcDbLine
 10
87.46724525086165
 20
279.6640481788879
 30
0.0
 11
87.46724525086165
 21
307.6640481788879
 31
0.0
  0
LINE
  5
5CA
102
{ACAD_REACTORS
330
667
102
}
330
1F
100
AcDbEntity
  8
実線
100
AcDbLine
 10
17.46724525086165
 20
307.6640481788879
 30
0.0
 11
17.46724525086165
 21
279.6640481788879
 31
0.0
  0
LINE
  5
5CB
102
{ACAD_REACTORS
330
667
102
}
330
1F
100
AcDbEntity
  8
実線
100
AcDbLine
 10
17.46724525086165
 20
279.6640481788879
 30
0.0
 11
87.46724525086165
 21
279.6640481788879
 31
0.0
  0
LINE
  5
5CC
102
{ACAD_REACTORS
330
667
102
}
330
1F
100
AcDbEntity
  8
実線
100
AcDbLine
 10
24.96724525086165
 20
315.1640481788879
 30
0.0
 11
79.96724525086165
 21
315.1640481788879
 31
0.0
  0
ARC
  5
5CD
102
{ACAD_REACTORS
330
667
102
}
330
1F
100
AcDbEntity
  8
実線
100
AcDbCircle
 10
79.96724525086165
 20
307.6640481788879
 30
0.0
 40
7.5
100
AcDbArc
 50
0.0
 51
90.0
  0
ARC
  5
5CE
102
{ACAD_REACTORS
330
667
102
}
330
1F
100
AcDbEntity
  8
実線
100
AcDbCircle
 10
24.96724525086165
 20
307.6640481788879
 30
0.0
 40
7.5
100
AcDbArc
 50
90.0
 51
180.0
  0
LINE
  5
5CF
102
{ACAD_REACTORS
330
665
102
}
330
1F
100
AcDbEntity
  8
実線
100
AcDbLine
 10
503.3172452508615
 20
186.4140481788879
 30
0.0
 11
503.3172452508615
 21
192.3267451717745
 31
0.0
  0
LINE
  5
5D0
102
{ACAD_REACTORS
330
665
102
}
330
1F
100
AcDbEntity
  8
実線
100
AcDbLine
 10
481.6172452508617
 20
192.3267451717745
 30
0.0
 11
481.6172452508617
 21
186.4140481788879
 31
0.0
  0
LINE
  5
5D1
102
{ACAD_REACTORS
330
665
102
}
330
1F
100
AcDbEntity
  8
実線
100
AcDbLine
 10
509.4672452508616
 20
181.9140481788879
 30
0.0
 11
475.4672452508616
 21
181.9140481788879
 31
0.0
  0
LINE
  5
5D2
102
{ACAD_REACTORS
330
665
102
}
330
1F
100
AcDbEntity
  8
実線
100
AcDbLine
 10
509.4672452508616
 20
181.9140481788879
 30
0.0
 11
509.4672452508616
 21
184.0640481788879
 31
0.0
  0
LINE
  5
5D3
102
{ACAD_REACTORS
330
665
102
}
330
1F
100
AcDbEntity
  8
実線
100
AcDbLine
 10
475.4672452508616
 20
184.0640481788879
 30
0.0
 11
475.4672452508616
 21
181.9140481788879
 31
0.0
  0
LINE
  5
5D4
102
{ACAD_REACTORS
330
665
102
}
330
1F
100
AcDbEntity
  8
実線
100
AcDbLine
 10
509.4672452508616
 20
184.0640481788879
 30
0.0
 11
475.4672452508616
 21
184.0640481788879
 31
0.0
  0
LINE
  5
5D5
102
{ACAD_REACTORS
330
665
102
}
330
1F
100
AcDbEntity
  8
実線
100
AcDbLine
 10
503.3172452508615
 20
186.4140481788879
 30
0.0
 11
481.6172452508617
 21
186.4140481788879
 31
0.0
  0
LINE
  5
5D6
102
{ACAD_REACTORS
330
665
102
}
330
1F
100
AcDbEntity
  8
実線
100
AcDbLine
 10
481.6172452508617
 20
186.4140481788879
 30
0.0
 11
475.4672452508616
 21
184.0640481788879
 31
0.0
  0
LINE
  5
5D7
102
{ACAD_REACTORS
330
665
102
}
330
1F
100
AcDbEntity
  8
実線
100
AcDbLine
 10
509.4672452508616
 20
184.0640481788879
 30
0.0
 11
503.3172452508615
 21
186.4140481788879
 31
0.0
  0
LINE
  5
5D8
102
{ACAD_REACTORS
330
665
102
}
330
1F
100
AcDbEntity
  8
実線
100
AcDbLine
 10
472.4672452508616
 20
259.6640481788879
 30
0.0
 11
512.4672452508616
 21
259.6640481788879
 31
0.0
  0
LINE
  5
5D9
102
{ACAD_REACTORS
330
665
102
}
330
1F
100
AcDbEntity
  8
実線
100
AcDbLine
 10
512.4672452508616
 20
259.6640481788879
 30
0.0
 11
512.4672452508616
 21
279.6640481788879
 31
0.0
  0
LINE
  5
5DA
102
{ACAD_REACTORS
330
665
102
}
330
1F
100
AcDbEntity
  8
実線
100
AcDbLine
 10
472.4672452508616
 20
279.6640481788879
 30
0.0
 11
472.4672452508616
 21
259.6640481788879
 31
0.0
  0
LINE
  5
5DB
102
{ACAD_REACTORS
330
665
102
}
330
1F
100
AcDbEntity
  8
実線
100
AcDbLine
 10
510.9672452508617
 20
254.6640481788879
 30
0.0
 11
473.9672452508616
 21
254.6640481788879
 31
0.0
  0
LINE
  5
5DC
102
{ACAD_REACTORS
330
665
102
}
330
1F
100
AcDbEntity
  8
実線
100
AcDbLine
 10
473.9672452508616
 20
250.1640481788879
 30
0.0
 11
510.9672452508617
 21
250.1640481788879
 31
0.0
  0
LINE
  5
5DD
102
{ACAD_REACTORS
330
665
102
}
330
1F
100
AcDbEntity
  8
実線
100
AcDbLine
 10
510.9672452508617
 20
250.1640481788879
 30
0.0
 11
510.9672452508617
 21
254.6640481788879
 31
0.0
  0
LINE
  5
5DE
102
{ACAD_REACTORS
330
665
102
}
330
1F
100
AcDbEntity
  8
実線
100
AcDbLine
 10
473.9672452508616
 20
254.6640481788879
 30
0.0
 11
473.9672452508616
 21
250.1640481788879
 31
0.0
  0
LINE
  5
5DF
102
{ACAD_REACTORS
330
665
102
}
330
1F
100
AcDbEntity
  8
実線
100
AcDbLine
 10
510.9672452508617
 20
239.1640481788879
 30
0.0
 11
510.9672452508617
 21
250.1640481788879
 31
0.0
  0
LINE
  5
5E0
102
{ACAD_REACTORS
330
665
102
}
330
1F
100
AcDbEntity
  8
実線
100
AcDbLine
 10
473.9672452508616
 20
250.1640481788879
 30
0.0
 11
473.9672452508616
 21
239.1640481788879
 31
0.0
  0
LINE
  5
5E1
102
{ACAD_REACTORS
330
665
102
}
330
1F
100
AcDbEntity
  8
実線
100
AcDbLine
 10
495.3719827605173
 20
222.1640481788879
 30
0.0
 11
513.4672452508616
 21
222.1640481788879
 31
0.0
  0
LINE
  5
5E2
102
{ACAD_REACTORS
330
665
102
}
330
1F
100
AcDbEntity
  8
実線
100
AcDbLine
 10
513.4672452508616
 20
222.1640481788879
 30
0.0
 11
513.4672452508616
 21
239.1640481788879
 31
0.0
  0
LINE
  5
5E3
102
{ACAD_REACTORS
330
665
102
}
330
1F
100
AcDbEntity
  8
実線
100
AcDbLine
 10
513.4672452508616
 20
239.1640481788879
 30
0.0
 11
471.4672452508616
 21
239.1640481788879
 31
0.0
  0
LINE
  5
5E4
102
{ACAD_REACTORS
330
665
102
}
330
1F
100
AcDbEntity
  8
実線
100
AcDbLine
 10
471.4672452508616
 20
222.1640481788879
 30
0.0
 11
471.4672452508616
 21
239.1640481788879
 31
0.0
  0
LINE
  5
5E5
102
{ACAD_REACTORS
330
665
102
}
330
1F
100
AcDbEntity
  8
実線
100
AcDbLine
 10
508.4672452508616
 20
254.6640481788879
 30
0.0
 11
508.4672452508616
 21
259.6640481788879
 31
0.0
  0
LINE
  5
5E6
102
{ACAD_REACTORS
330
665
102
}
330
1F
100
AcDbEntity
  8
実線
100
AcDbLine
 10
476.4672452508616
 20
259.6640481788879
 30
0.0
 11
476.4672452508616
 21
254.6640481788879
 31
0.0
  0
CIRCLE
  5
5E7
102
{ACAD_REACTORS
330
665
102
}
330
1F
100
AcDbEntity
  8
実線
100
AcDbCircle
 10
492.4672452508616
 20
205.4140481788879
 30
0.0
 40
17.0
  0
LINE
  5
5E8
102
{ACAD_REACTORS
330
665
102
}
330
1F
100
AcDbEntity
  8
実線
100
AcDbLine
 10
513.4672452508616
 20
193.4140481788879
 30
0.0
 11
513.4672452508616
 21
222.1640481788879
 31
0.0
  0
LINE
  5
5E9
102
{ACAD_REACTORS
330
665
102
}
330
1F
100
AcDbEntity
  8
実線
100
AcDbLine
 10
513.4672452508616
 20
193.4140481788879
 30
0.0
 11
504.5088398296538
 21
193.4140481788879
 31
0.0
  0
LINE
  5
5EA
102
{ACAD_REACTORS
330
665
102
}
330
1F
100
AcDbEntity
  8
実線
100
AcDbLine
 10
471.4672452508616
 20
193.4140481788879
 30
0.0
 11
471.4672452508616
 21
222.1640481788879
 31
0.0
  0
LINE
  5
5EB
102
{ACAD_REACTORS
330
665
102
}
330
1F
100
AcDbEntity
  8
実線
100
AcDbLine
 10
471.4672452508616
 20
193.4140481788879
 30
0.0
 11
480.4256506720694
 21
193.4140481788879
 31
0.0
  0
LINE
  5
5EC
102
{ACAD_REACTORS
330
665
102
}
330
1F
100
AcDbEntity
  8
実線
100
AcDbLine
 10
513.4672452508616
 20
213.9140481788879
 30
0.0
 11
507.1896771151971
 21
213.9140481788879
 31
0.0
  0
LINE
  5
5ED
102
{ACAD_REACTORS
330
665
102
}
330
1F
100
AcDbEntity
  8
実線
100
AcDbLine
 10
489.5625077412059
 20
222.1640481788879
 30
0.0
 11
471.4672452508616
 21
222.1640481788879
 31
0.0
  0
LINE
  5
5EE
102
{ACAD_REACTORS
330
665
102
}
330
1F
100
AcDbEntity
  8
実線
100
AcDbLine
 10
471.4672452508616
 20
213.9140481788879
 30
0.0
 11
477.7448133865261
 21
213.9140481788879
 31
0.0
  0
LINE
  5
5EF
102
{ACAD_REACTORS
330
665
102
}
330
1F
100
AcDbEntity
  8
実線
100
AcDbLine
 10
527.4672452508617
 20
279.6640481788879
 30
0.0
 11
457.4672452508616
 21
279.6640481788879
 31
0.0
  0
LINE
  5
5F0
102
{ACAD_REACTORS
330
665
102
}
330
1F
100
AcDbEntity
  8
実線
100
AcDbLine
 10
527.4672452508617
 20
279.6640481788879
 30
0.0
 11
527.4672452508617
 21
307.6640481788879
 31
0.0
  0
LINE
  5
5F1
102
{ACAD_REACTORS
330
665
102
}
330
1F
100
AcDbEntity
  8
実線
100
AcDbLine
 10
457.4672452508616
 20
307.6640481788879
 30
0.0
 11
457.4672452508616
 21
279.6640481788879
 31
0.0
  0
LINE
  5
5F2
102
{ACAD_REACTORS
330
665
102
}
330
1F
100
AcDbEntity
  8
実線
100
AcDbLine
 10
519.9672452508616
 20
315.1640481788879
 30
0.0
 11
464.9672452508617
 21
315.1640481788879
 31
0.0
  0
ARC
  5
5F3
102
{ACAD_REACTORS
330
665
102
}
330
1F
100
AcDbEntity
  8
実線
100
AcDbCircle
 10
519.9672452508616
 20
307.6640481788879
 30
0.0
 40
7.5
100
AcDbArc
 50
0.0
 51
90.0
  0
ARC
  5
5F4
102
{ACAD_REACTORS
330
665
102
}
330
1F
100
AcDbEntity
  8
実線
100
AcDbCircle
 10
464.9672452508617
 20
307.6640481788879
 30
0.0
 40
7.5
100
AcDbArc
 50
90.0
 51
180.0
  0
CIRCLE
  5
5F5
102
{ACAD_REACTORS
330
669
102
}
330
1F
100
AcDbEntity
  8
実線
100
AcDbCircle
 10
272.4672452508617
 20
45.41404817888789
 30
0.0
 40
17.0
  0
LINE
  5
5F6
102
{ACAD_REACTORS
330
669
102
}
330
1F
100
AcDbEntity
  8
実線
100
AcDbLine
 10
221.9672452508616
 20
34.5640481788879
 30
0.0
 11
251.4672452508616
 21
34.5640481788879
 31
0.0
  0
LINE
  5
5F7
102
{ACAD_REACTORS
330
669
102
}
330
1F
100
AcDbEntity
  8
実線
100
AcDbLine
 10
251.4672452508616
 20
56.26404817888789
 30
0.0
 11
221.9672452508616
 21
56.26404817888789
 31
0.0
  0
LINE
  5
5F8
102
{ACAD_REACTORS
330
669
102
}
330
1F
100
AcDbEntity
  8
実線
100
AcDbLine
 10
221.9672452508616
 20
34.5640481788879
 30
0.0
 11
221.9672452508616
 21
56.26404817888789
 31
0.0
  0
LINE
  5
5F9
102
{ACAD_REACTORS
330
669
102
}
330
1F
100
AcDbEntity
  8
実線
100
AcDbLine
 10
221.9672452508616
 20
56.26404817888789
 30
0.0
 11
219.6172452508617
 21
62.41404817888789
 31
0.0
  0
LINE
  5
5FA
102
{ACAD_REACTORS
330
669
102
}
330
1F
100
AcDbEntity
  8
実線
100
AcDbLine
 10
219.6172452508617
 20
28.4140481788879
 30
0.0
 11
221.9672452508616
 21
34.5640481788879
 31
0.0
  0
LINE
  5
5FB
102
{ACAD_REACTORS
330
669
102
}
330
1F
100
AcDbEntity
  8
実線
100
AcDbLine
 10
217.4672452508616
 20
28.4140481788879
 30
0.0
 11
217.4672452508616
 21
62.41404817888789
 31
0.0
  0
LINE
  5
5FC
102
{ACAD_REACTORS
330
669
102
}
330
1F
100
AcDbEntity
  8
実線
100
AcDbLine
 10
219.6172452508617
 20
28.4140481788879
 30
0.0
 11
219.6172452508617
 21
62.41404817888789
 31
0.0
  0
LINE
  5
5FD
102
{ACAD_REACTORS
330
669
102
}
330
1F
100
AcDbEntity
  8
実線
100
AcDbLine
 10
217.4672452508616
 20
28.4140481788879
 30
0.0
 11
219.6172452508617
 21
28.4140481788879
 31
0.0
  0
LINE
  5
5FE
102
{ACAD_REACTORS
330
669
102
}
330
1F
100
AcDbEntity
  8
実線
100
AcDbLine
 10
219.6172452508617
 20
62.41404817888789
 30
0.0
 11
217.4672452508616
 21
62.41404817888789
 31
0.0
  0
LINE
  5
5FF
102
{ACAD_REACTORS
330
669
102
}
330
1F
100
AcDbEntity
  8
実線
100
AcDbLine
 10
322.9672452508617
 20
56.26404817888789
 30
0.0
 11
293.4672452508617
 21
56.26404817888789
 31
0.0
  0
LINE
  5
600
102
{ACAD_REACTORS
330
669
102
}
330
1F
100
AcDbEntity
  8
実線
100
AcDbLine
 10
293.4672452508617
 20
34.5640481788879
 30
0.0
 11
322.9672452508617
 21
34.5640481788879
 31
0.0
  0
LINE
  5
601
102
{ACAD_REACTORS
330
669
102
}
330
1F
100
AcDbEntity
  8
実線
100
AcDbLine
 10
327.4672452508617
 20
62.41404817888789
 30
0.0
 11
327.4672452508617
 21
28.4140481788879
 31
0.0
  0
LINE
  5
602
102
{ACAD_REACTORS
330
669
102
}
330
1F
100
AcDbEntity
  8
実線
100
AcDbLine
 10
327.4672452508617
 20
62.41404817888789
 30
0.0
 11
325.3172452508616
 21
62.41404817888789
 31
0.0
  0
LINE
  5
603
102
{ACAD_REACTORS
330
669
102
}
330
1F
100
AcDbEntity
  8
実線
100
AcDbLine
 10
325.3172452508616
 20
28.4140481788879
 30
0.0
 11
327.4672452508617
 21
28.4140481788879
 31
0.0
  0
LINE
  5
604
102
{ACAD_REACTORS
330
669
102
}
330
1F
100
AcDbEntity
  8
実線
100
AcDbLine
 10
325.3172452508616
 20
62.41404817888789
 30
0.0
 11
325.3172452508616
 21
28.4140481788879
 31
0.0
  0
LINE
  5
605
102
{ACAD_REACTORS
330
669
102
}
330
1F
100
AcDbEntity
  8
実線
100
AcDbLine
 10
322.9672452508617
 20
56.26404817888789
 30
0.0
 11
322.9672452508617
 21
34.5640481788879
 31
0.0
  0
LINE
  5
606
102
{ACAD_REACTORS
330
669
102
}
330
1F
100
AcDbEntity
  8
実線
100
AcDbLine
 10
322.9672452508617
 20
34.5640481788879
 30
0.0
 11
325.3172452508616
 21
28.4140481788879
 31
0.0
  0
LINE
  5
607
102
{ACAD_REACTORS
330
669
102
}
330
1F
100
AcDbEntity
  8
実線
100
AcDbLine
 10
325.3172452508616
 20
62.41404817888789
 30
0.0
 11
322.9672452508617
 21
56.26404817888789
 31
0.0
  0
LINE
  5
608
102
{ACAD_REACTORS
330
669
102
}
330
1F
100
AcDbEntity
  8
実線
100
AcDbLine
 10
293.4672452508617
 20
24.4140481788879
 30
0.0
 11
251.4672452508616
 21
24.4140481788879
 31
0.0
  0
LINE
  5
609
102
{ACAD_REACTORS
330
669
102
}
330
1F
100
AcDbEntity
  8
実線
100
AcDbLine
 10
293.4672452508617
 20
24.4140481788879
 30
0.0
 11
293.4672452508617
 21
66.4140481788879
 31
0.0
  0
LINE
  5
60A
102
{ACAD_REACTORS
330
669
102
}
330
1F
100
AcDbEntity
  8
実線
100
AcDbLine
 10
293.4672452508617
 20
66.4140481788879
 30
0.0
 11
251.4672452508616
 21
66.4140481788879
 31
0.0
  0
LINE
  5
60B
102
{ACAD_REACTORS
330
669
102
}
330
1F
100
AcDbEntity
  8
実線
100
AcDbLine
 10
251.4672452508616
 20
24.4140481788879
 30
0.0
 11
251.4672452508616
 21
66.4140481788879
 31
0.0
  0
ARC
  5
60C
102
{ACAD_REACTORS
330
669
102
}
330
1F
100
AcDbEntity
  8
実線
100
AcDbCircle
 10
256.1461774389961
 20
29.16404817888789
 30
0.0
 40
5.0
100
AcDbArc
 50
45.0000000000069
 51
90.0
  0
LINE
  5
60D
102
{ACAD_REACTORS
330
669
102
}
330
1F
100
AcDbEntity
  8
実線
100
AcDbLine
 10
293.4672452508617
 20
34.1640481788879
 30
0.0
 11
288.7883130627272
 21
34.1640481788879
 31
0.0
  0
LINE
  5
60E
102
{ACAD_REACTORS
330
669
102
}
330
1F
100
AcDbEntity
  8
実線
100
AcDbLine
 10
285.2527791567943
 20
58.12851427295516
 30
0.0
 11
276.9672452508617
 21
66.4140481788879
 31
0.0
  0
LINE
  5
60F
102
{ACAD_REACTORS
330
669
102
}
330
1F
100
AcDbEntity
  8
実線
100
AcDbLine
 10
259.681711344929
 20
32.69958208482063
 30
0.0
 11
267.9672452508616
 21
24.4140481788879
 31
0.0
  0
ARC
  5
610
102
{ACAD_REACTORS
330
669
102
}
330
1F
100
AcDbEntity
  8
実線
100
AcDbCircle
 10
288.7883130627272
 20
61.66404817888789
 30
0.0
 40
5.0
100
AcDbArc
 50
225.0000000000069
 51
270.0
  0
ARC
  5
611
102
{ACAD_REACTORS
330
669
102
}
330
1F
100
AcDbEntity
  8
実線
100
AcDbCircle
 10
288.7883130627272
 20
29.16404817888789
 30
0.0
 40
5.0
100
AcDbArc
 50
90.0
 51
134.9999999999931
  0
ARC
  5
612
102
{ACAD_REACTORS
330
669
102
}
330
1F
100
AcDbEntity
  8
実線
100
AcDbCircle
 10
256.1461774389961
 20
61.66404817888789
 30
0.0
 40
5.0
100
AcDbArc
 50
270.0
 51
314.9999999999931
  0
LINE
  5
613
102
{ACAD_REACTORS
330
669
102
}
330
1F
100
AcDbEntity
  8
実線
100
AcDbLine
 10
251.4672452508616
 20
56.66404817888789
 30
0.0
 11
256.1461774389961
 21
56.66404817888789
 31
0.0
  0
LINE
  5
614
102
{ACAD_REACTORS
330
669
102
}
330
1F
100
AcDbEntity
  8
実線
100
AcDbLine
 10
293.4672452508617
 20
56.66404817888789
 30
0.0
 11
288.7883130627272
 21
56.66404817888789
 31
0.0
  0
LINE
  5
615
102
{ACAD_REACTORS
330
669
102
}
330
1F
100
AcDbEntity
  8
実線
100
AcDbLine
 10
259.681711344929
 20
58.12851427295516
 30
0.0
 11
267.9672452508616
 21
66.4140481788879
 31
0.0
  0
LINE
  5
616
102
{ACAD_REACTORS
330
669
102
}
330
1F
100
AcDbEntity
  8
実線
100
AcDbLine
 10
251.4672452508616
 20
34.1640481788879
 30
0.0
 11
256.1461774389961
 21
34.1640481788879
 31
0.0
  0
LINE
  5
617
102
{ACAD_REACTORS
330
669
102
}
330
1F
100
AcDbEntity
  8
実線
100
AcDbLine
 10
285.2527791567943
 20
32.69958208482063
 30
0.0
 11
276.9672452508617
 21
24.4140481788879
 31
0.0
  0
ARC
  5
618
102
{ACAD_REACTORS
330
669
102
}
330
1F
100
AcDbEntity
  8
実線
100
AcDbCircle
 10
272.4672452508617
 20
45.41404817888789
 30
0.0
 40
35.0
100
AcDbArc
 50
18.05923049078368
 51
161.9407695092163
  0
ARC
  5
619
102
{ACAD_REACTORS
330
669
102
}
330
1F
100
AcDbEntity
  8
実線
100
AcDbCircle
 10
272.4672452508617
 20
45.41404817888789
 30
0.0
 40
35.0
100
AcDbArc
 50
198.0592304907836
 51
341.9407695092163
  0
LINE
  5
61A
102
{ACAD_REACTORS
330
664
102
}
330
1F
100
AcDbEntity
  8
実線
100
AcDbLine
 10
723.3172452508616
 20
186.4140481788879
 30
0.0
 11
723.3172452508616
 21
193.4140481788879
 31
0.0
  0
LINE
  5
61B
102
{ACAD_REACTORS
330
664
102
}
330
1F
100
AcDbEntity
  8
実線
100
AcDbLine
 10
701.6172452508617
 20
193.4140481788879
 30
0.0
 11
701.6172452508617
 21
186.4140481788879
 31
0.0
  0
LINE
  5
61C
102
{ACAD_REACTORS
330
664
102
}
330
1F
100
AcDbEntity
  8
実線
100
AcDbLine
 10
695.4672452508616
 20
181.9140481788879
 30
0.0
 11
729.4672452508616
 21
181.9140481788879
 31
0.0
  0
LINE
  5
61D
102
{ACAD_REACTORS
330
664
102
}
330
1F
100
AcDbEntity
  8
実線
100
AcDbLine
 10
729.4672452508616
 20
181.9140481788879
 30
0.0
 11
729.4672452508616
 21
184.0640481788879
 31
0.0
  0
LINE
  5
61E
102
{ACAD_REACTORS
330
664
102
}
330
1F
100
AcDbEntity
  8
実線
100
AcDbLine
 10
695.4672452508616
 20
184.0640481788879
 30
0.0
 11
695.4672452508616
 21
181.9140481788879
 31
0.0
  0
LINE
  5
61F
102
{ACAD_REACTORS
330
664
102
}
330
1F
100
AcDbEntity
  8
実線
100
AcDbLine
 10
695.4672452508616
 20
184.0640481788879
 30
0.0
 11
729.4672452508616
 21
184.0640481788879
 31
0.0
  0
LINE
  5
620
102
{ACAD_REACTORS
330
664
102
}
330
1F
100
AcDbEntity
  8
実線
100
AcDbLine
 10
701.6172452508617
 20
186.4140481788879
 30
0.0
 11
723.3172452508616
 21
186.4140481788879
 31
0.0
  0
LINE
  5
621
102
{ACAD_REACTORS
330
664
102
}
330
1F
100
AcDbEntity
  8
実線
100
AcDbLine
 10
701.6172452508617
 20
186.4140481788879
 30
0.0
 11
695.4672452508616
 21
184.0640481788879
 31
0.0
  0
LINE
  5
622
102
{ACAD_REACTORS
330
664
102
}
330
1F
100
AcDbEntity
  8
実線
100
AcDbLine
 10
729.4672452508616
 20
184.0640481788879
 30
0.0
 11
723.3172452508616
 21
186.4140481788879
 31
0.0
  0
LINE
  5
623
102
{ACAD_REACTORS
330
664
102
}
330
1F
100
AcDbEntity
  8
実線
100
AcDbLine
 10
762.9672452508616
 20
216.2640481788879
 30
0.0
 11
733.4672452508616
 21
216.2640481788879
 31
0.0
  0
LINE
  5
624
102
{ACAD_REACTORS
330
664
102
}
330
1F
100
AcDbEntity
  8
実線
100
AcDbLine
 10
733.4672452508616
 20
194.5640481788879
 30
0.0
 11
762.9672452508616
 21
194.5640481788879
 31
0.0
  0
LINE
  5
625
102
{ACAD_REACTORS
330
664
102
}
330
1F
100
AcDbEntity
  8
実線
100
AcDbLine
 10
767.4672452508616
 20
188.4140481788879
 30
0.0
 11
767.4672452508616
 21
222.4140481788879
 31
0.0
  0
LINE
  5
626
102
{ACAD_REACTORS
330
664
102
}
330
1F
100
AcDbEntity
  8
実線
100
AcDbLine
 10
767.4672452508616
 20
222.4140481788879
 30
0.0
 11
765.3172452508615
 21
222.4140481788879
 31
0.0
  0
LINE
  5
627
102
{ACAD_REACTORS
330
664
102
}
330
1F
100
AcDbEntity
  8
実線
100
AcDbLine
 10
765.3172452508615
 20
188.4140481788879
 30
0.0
 11
767.4672452508616
 21
188.4140481788879
 31
0.0
  0
LINE
  5
628
102
{ACAD_REACTORS
330
664
102
}
330
1F
100
AcDbEntity
  8
実線
100
AcDbLine
 10
765.3172452508615
 20
188.4140481788879
 30
0.0
 11
765.3172452508615
 21
222.4140481788879
 31
0.0
  0
LINE
  5
629
102
{ACAD_REACTORS
330
664
102
}
330
1F
100
AcDbEntity
  8
実線
100
AcDbLine
 10
762.9672452508616
 20
194.5640481788879
 30
0.0
 11
762.9672452508616
 21
216.2640481788879
 31
0.0
  0
LINE
  5
62A
102
{ACAD_REACTORS
330
664
102
}
330
1F
100
AcDbEntity
  8
実線
100
AcDbLine
 10
762.9672452508616
 20
194.5640481788879
 30
0.0
 11
765.3172452508615
 21
188.4140481788879
 31
0.0
  0
LINE
  5
62B
102
{ACAD_REACTORS
330
664
102
}
330
1F
100
AcDbEntity
  8
実線
100
AcDbLine
 10
765.3172452508615
 20
222.4140481788879
 30
0.0
 11
762.9672452508616
 21
216.2640481788879
 31
0.0
  0
LINE
  5
62C
102
{ACAD_REACTORS
330
664
102
}
330
1F
100
AcDbEntity
  8
実線
100
AcDbLine
 10
732.4672452508616
 20
259.6640481788879
 30
0.0
 11
732.4672452508616
 21
279.6640481788879
 31
0.0
  0
LINE
  5
62D
102
{ACAD_REACTORS
330
664
102
}
330
1F
100
AcDbEntity
  8
実線
100
AcDbLine
 10
692.4672452508616
 20
279.6640481788879
 30
0.0
 11
692.4672452508616
 21
259.6640481788879
 31
0.0
  0
LINE
  5
62E
102
{ACAD_REACTORS
330
664
102
}
330
1F
100
AcDbEntity
  8
実線
100
AcDbLine
 10
692.4672452508616
 20
259.6640481788879
 30
0.0
 11
732.4672452508616
 21
259.6640481788879
 31
0.0
  0
LINE
  5
62F
102
{ACAD_REACTORS
330
664
102
}
330
1F
100
AcDbEntity
  8
実線
100
AcDbLine
 10
693.9672452508617
 20
254.6640481788879
 30
0.0
 11
730.9672452508616
 21
254.6640481788879
 31
0.0
  0
LINE
  5
630
102
{ACAD_REACTORS
330
664
102
}
330
1F
100
AcDbEntity
  8
実線
100
AcDbLine
 10
730.9672452508616
 20
250.1640481788879
 30
0.0
 11
730.9672452508616
 21
254.6640481788879
 31
0.0
  0
LINE
  5
631
102
{ACAD_REACTORS
330
664
102
}
330
1F
100
AcDbEntity
  8
実線
100
AcDbLine
 10
693.9672452508617
 20
254.6640481788879
 30
0.0
 11
693.9672452508617
 21
250.1640481788879
 31
0.0
  0
LINE
  5
632
102
{ACAD_REACTORS
330
664
102
}
330
1F
100
AcDbEntity
  8
実線
100
AcDbLine
 10
693.9672452508617
 20
250.1640481788879
 30
0.0
 11
730.9672452508616
 21
250.1640481788879
 31
0.0
  0
LINE
  5
633
102
{ACAD_REACTORS
330
664
102
}
330
1F
100
AcDbEntity
  8
実線
100
AcDbLine
 10
730.9672452508616
 20
239.1640481788879
 30
0.0
 11
730.9672452508616
 21
250.1640481788879
 31
0.0
  0
LINE
  5
634
102
{ACAD_REACTORS
330
664
102
}
330
1F
100
AcDbEntity
  8
実線
100
AcDbLine
 10
693.9672452508617
 20
250.1640481788879
 30
0.0
 11
693.9672452508617
 21
239.1640481788879
 31
0.0
  0
LINE
  5
635
102
{ACAD_REACTORS
330
664
102
}
330
1F
100
AcDbEntity
  8
実線
100
AcDbLine
 10
691.4672452508616
 20
222.1640481788879
 30
0.0
 11
691.4672452508616
 21
239.1640481788879
 31
0.0
  0
LINE
  5
636
102
{ACAD_REACTORS
330
664
102
}
330
1F
100
AcDbEntity
  8
実線
100
AcDbLine
 10
733.4672452508616
 20
239.1640481788879
 30
0.0
 11
691.4672452508616
 21
239.1640481788879
 31
0.0
  0
LINE
  5
637
102
{ACAD_REACTORS
330
664
102
}
330
1F
100
AcDbEntity
  8
実線
100
AcDbLine
 10
733.4672452508616
 20
222.1640481788879
 30
0.0
 11
733.4672452508616
 21
239.1640481788879
 31
0.0
  0
LINE
  5
638
102
{ACAD_REACTORS
330
664
102
}
330
1F
100
AcDbEntity
  8
実線
100
AcDbLine
 10
728.4672452508616
 20
254.6640481788879
 30
0.0
 11
728.4672452508616
 21
259.6640481788879
 31
0.0
  0
LINE
  5
639
102
{ACAD_REACTORS
330
664
102
}
330
1F
100
AcDbEntity
  8
実線
100
AcDbLine
 10
696.4672452508616
 20
259.6640481788879
 30
0.0
 11
696.4672452508616
 21
254.6640481788879
 31
0.0
  0
LINE
  5
63A
102
{ACAD_REACTORS
330
664
102
}
330
1F
100
AcDbEntity
  8
実線
100
AcDbLine
 10
661.9672452508616
 20
194.5640481788879
 30
0.0
 11
691.4672452508616
 21
194.5640481788879
 31
0.0
  0
LINE
  5
63B
102
{ACAD_REACTORS
330
664
102
}
330
1F
100
AcDbEntity
  8
実線
100
AcDbLine
 10
691.4672452508616
 20
216.2640481788879
 30
0.0
 11
661.9672452508616
 21
216.2640481788879
 31
0.0
  0
LINE
  5
63C
102
{ACAD_REACTORS
330
664
102
}
330
1F
100
AcDbEntity
  8
実線
100
AcDbLine
 10
661.9672452508616
 20
216.2640481788879
 30
0.0
 11
659.6172452508617
 21
222.4140481788879
 31
0.0
  0
LINE
  5
63D
102
{ACAD_REACTORS
330
664
102
}
330
1F
100
AcDbEntity
  8
実線
100
AcDbLine
 10
659.6172452508617
 20
188.4140481788879
 30
0.0
 11
661.9672452508616
 21
194.5640481788879
 31
0.0
  0
LINE
  5
63E
102
{ACAD_REACTORS
330
664
102
}
330
1F
100
AcDbEntity
  8
実線
100
AcDbLine
 10
661.9672452508616
 20
216.2640481788879
 30
0.0
 11
661.9672452508616
 21
194.5640481788879
 31
0.0
  0
LINE
  5
63F
102
{ACAD_REACTORS
330
664
102
}
330
1F
100
AcDbEntity
  8
実線
100
AcDbLine
 10
657.4672452508616
 20
188.4140481788879
 30
0.0
 11
659.6172452508617
 21
188.4140481788879
 31
0.0
  0
LINE
  5
640
102
{ACAD_REACTORS
330
664
102
}
330
1F
100
AcDbEntity
  8
実線
100
AcDbLine
 10
659.6172452508617
 20
222.4140481788879
 30
0.0
 11
657.4672452508616
 21
222.4140481788879
 31
0.0
  0
LINE
  5
641
102
{ACAD_REACTORS
330
664
102
}
330
1F
100
AcDbEntity
  8
実線
100
AcDbLine
 10
657.4672452508616
 20
188.4140481788879
 30
0.0
 11
657.4672452508616
 21
222.4140481788879
 31
0.0
  0
LINE
  5
642
102
{ACAD_REACTORS
330
664
102
}
330
1F
100
AcDbEntity
  8
実線
100
AcDbLine
 10
659.6172452508617
 20
188.4140481788879
 30
0.0
 11
659.6172452508617
 21
222.4140481788879
 31
0.0
  0
LINE
  5
643
102
{ACAD_REACTORS
330
664
102
}
330
1F
100
AcDbEntity
  8
実線
100
AcDbLine
 10
733.4672452508616
 20
193.4140481788879
 30
0.0
 11
733.4672452508616
 21
222.1640481788879
 31
0.0
  0
LINE
  5
644
102
{ACAD_REACTORS
330
664
102
}
330
1F
100
AcDbEntity
  8
実線
100
AcDbLine
 10
733.4672452508616
 20
193.4140481788879
 30
0.0
 11
691.4672452508616
 21
193.4140481788879
 31
0.0
  0
LINE
  5
645
102
{ACAD_REACTORS
330
664
102
}
330
1F
100
AcDbEntity
  8
実線
100
AcDbLine
 10
691.4672452508616
 20
193.4140481788879
 30
0.0
 11
691.4672452508616
 21
222.1640481788879
 31
0.0
  0
LINE
  5
646
102
{ACAD_REACTORS
330
664
102
}
330
1F
100
AcDbEntity
  8
実線
100
AcDbLine
 10
707.9672452508616
 20
213.9140481788879
 30
0.0
 11
691.4672452508616
 21
213.9140481788879
 31
0.0
  0
LINE
  5
647
102
{ACAD_REACTORS
330
664
102
}
330
1F
100
AcDbEntity
  8
実線
100
AcDbLine
 10
707.9672452508616
 20
213.9140481788879
 30
0.0
 11
707.9672452508616
 21
193.4140481788879
 31
0.0
  0
LINE
  5
648
102
{ACAD_REACTORS
330
664
102
}
330
1F
100
AcDbEntity
  8
実線
100
AcDbLine
 10
716.9672452508616
 20
213.9140481788879
 30
0.0
 11
716.9672452508616
 21
193.4140481788879
 31
0.0
  0
LINE
  5
649
102
{ACAD_REACTORS
330
664
102
}
330
1F
100
AcDbEntity
  8
実線
100
AcDbLine
 10
716.9672452508616
 20
213.9140481788879
 30
0.0
 11
733.4672452508616
 21
213.9140481788879
 31
0.0
  0
LINE
  5
64A
102
{ACAD_REACTORS
330
664
102
}
330
1F
100
AcDbEntity
  8
実線
100
AcDbLine
 10
733.4672452508616
 20
222.1640481788879
 30
0.0
 11
691.4672452508616
 21
222.1640481788879
 31
0.0
  0
LINE
  5
64B
102
{ACAD_REACTORS
330
664
102
}
330
1F
100
AcDbEntity
  8
実線
100
AcDbLine
 10
677.4672452508617
 20
279.6640481788879
 30
0.0
 11
747.4672452508616
 21
279.6640481788879
 31
0.0
  0
LINE
  5
64C
102
{ACAD_REACTORS
330
664
102
}
330
1F
100
AcDbEntity
  8
実線
100
AcDbLine
 10
747.4672452508616
 20
279.6640481788879
 30
0.0
 11
747.4672452508616
 21
307.6640481788879
 31
0.0
  0
LINE
  5
64D
102
{ACAD_REACTORS
330
664
102
}
330
1F
100
AcDbEntity
  8
実線
100
AcDbLine
 10
677.4672452508617
 20
307.6640481788879
 30
0.0
 11
677.4672452508617
 21
279.6640481788879
 31
0.0
  0
LINE
  5
64E
102
{ACAD_REACTORS
330
664
102
}
330
1F
100
AcDbEntity
  8
実線
100
AcDbLine
 10
684.9672452508616
 20
315.1640481788879
 30
0.0
 11
739.9672452508617
 21
315.1640481788879
 31
0.0
  0
ARC
  5
64F
102
{ACAD_REACTORS
330
664
102
}
330
1F
100
AcDbEntity
  8
実線
100
AcDbCircle
 10
739.9672452508617
 20
307.6640481788879
 30
0.0
 40
7.5
100
AcDbArc
 50
0.0
 51
90.0
  0
ARC
  5
650
102
{ACAD_REACTORS
330
664
102
}
330
1F
100
AcDbEntity
  8
実線
100
AcDbCircle
 10
684.9672452508616
 20
307.6640481788879
 30
0.0
 40
7.5
100
AcDbArc
 50
90.0
 51
180.0
  0
LINE
  5
651
102
{ACAD_REACTORS
330
668
102
}
330
1F
100
AcDbEntity
  8
実線
100
AcDbLine
 10
221.9672452508616
 20
414.5640481788879
 30
0.0
 11
239.1914657708856
 21
414.5640481788879
 31
0.0
  0
LINE
  5
652
102
{ACAD_REACTORS
330
668
102
}
330
1F
100
AcDbEntity
  8
実線
100
AcDbLine
 10
239.1914657708856
 20
436.2640481788878
 30
0.0
 11
221.9672452508616
 21
436.2640481788878
 31
0.0
  0
LINE
  5
653
102
{ACAD_REACTORS
330
668
102
}
330
1F
100
AcDbEntity
  8
実線
100
AcDbLine
 10
217.4672452508616
 20
408.4140481788878
 30
0.0
 11
219.6172452508617
 21
408.4140481788878
 31
0.0
  0
LINE
  5
654
102
{ACAD_REACTORS
330
668
102
}
330
1F
100
AcDbEntity
  8
実線
100
AcDbLine
 10
219.6172452508617
 20
442.4140481788878
 30
0.0
 11
217.4672452508616
 21
442.4140481788878
 31
0.0
  0
LINE
  5
655
102
{ACAD_REACTORS
330
668
102
}
330
1F
100
AcDbEntity
  8
実線
100
AcDbLine
 10
217.4672452508616
 20
442.4140481788878
 30
0.0
 11
217.4672452508616
 21
408.4140481788878
 31
0.0
  0
LINE
  5
656
102
{ACAD_REACTORS
330
668
102
}
330
1F
100
AcDbEntity
  8
実線
100
AcDbLine
 10
221.9672452508616
 20
436.2640481788878
 30
0.0
 11
219.6172452508617
 21
442.4140481788878
 31
0.0
  0
LINE
  5
657
102
{ACAD_REACTORS
330
668
102
}
330
1F
100
AcDbEntity
  8
実線
100
AcDbLine
 10
219.6172452508617
 20
408.4140481788878
 30
0.0
 11
221.9672452508616
 21
414.5640481788879
 31
0.0
  0
LINE
  5
658
102
{ACAD_REACTORS
330
668
102
}
330
1F
100
AcDbEntity
  8
実線
100
AcDbLine
 10
219.6172452508617
 20
442.4140481788878
 30
0.0
 11
219.6172452508617
 21
408.4140481788878
 31
0.0
  0
LINE
  5
659
102
{ACAD_REACTORS
330
668
102
}
330
1F
100
AcDbEntity
  8
実線
100
AcDbLine
 10
221.9672452508616
 20
436.2640481788878
 30
0.0
 11
221.9672452508616
 21
414.5640481788879
 31
0.0
  0
LINE
  5
65A
102
{ACAD_REACTORS
330
668
102
}
330
1F
100
AcDbEntity
  8
実線
100
AcDbLine
 10
322.9672452508617
 20
436.2640481788878
 30
0.0
 11
305.7430247308378
 21
436.2640481788878
 31
0.0
  0
LINE
  5
65B
102
{ACAD_REACTORS
330
668
102
}
330
1F
100
AcDbEntity
  8
実線
100
AcDbLine
 10
305.7430247308378
 20
414.5640481788879
 30
0.0
 11
322.9672452508617
 21
414.5640481788879
 31
0.0
  0
LINE
  5
65C
102
{ACAD_REACTORS
330
668
102
}
330
1F
100
AcDbEntity
  8
実線
100
AcDbLine
 10
327.4672452508617
 20
442.4140481788878
 30
0.0
 11
325.3172452508616
 21
442.4140481788878
 31
0.0
  0
LINE
  5
65D
102
{ACAD_REACTORS
330
668
102
}
330
1F
100
AcDbEntity
  8
実線
100
AcDbLine
 10
325.3172452508616
 20
408.4140481788878
 30
0.0
 11
327.4672452508617
 21
408.4140481788878
 31
0.0
  0
LINE
  5
65E
102
{ACAD_REACTORS
330
668
102
}
330
1F
100
AcDbEntity
  8
実線
100
AcDbLine
 10
327.4672452508617
 20
408.4140481788878
 30
0.0
 11
327.4672452508617
 21
442.4140481788878
 31
0.0
  0
LINE
  5
65F
102
{ACAD_REACTORS
330
668
102
}
330
1F
100
AcDbEntity
  8
実線
100
AcDbLine
 10
322.9672452508617
 20
414.5640481788879
 30
0.0
 11
325.3172452508616
 21
408.4140481788878
 31
0.0
  0
LINE
  5
660
102
{ACAD_REACTORS
330
668
102
}
330
1F
100
AcDbEntity
  8
実線
100
AcDbLine
 10
325.3172452508616
 20
442.4140481788879
 30
0.0
 11
322.9672452508617
 21
436.2640481788878
 31
0.0
  0
LINE
  5
661
102
{ACAD_REACTORS
330
668
102
}
330
1F
100
AcDbEntity
  8
実線
100
AcDbLine
 10
325.3172452508616
 20
408.4140481788878
 30
0.0
 11
325.3172452508616
 21
442.4140481788879
 31
0.0
  0
LINE
  5
662
102
{ACAD_REACTORS
330
668
102
}
330
1F
100
AcDbEntity
  8
実線
100
AcDbLine
 10
322.9672452508617
 20
414.5640481788879
 30
0.0
 11
322.9672452508617
 21
436.2640481788878
 31
0.0
  0
CIRCLE
  5
663
102
{ACAD_REACTORS
330
668
102
}
330
1F
100
AcDbEntity
  8
実線
100
AcDbCircle
 10
272.4672452508617
 20
425.4140481788878
 30
0.0
 40
35.0
  0
ENDSEC
  0
SECTION
  2
OBJECTS
  0
DICTIONARY
  5
C
330
0
100
AcDbDictionary
281
     1
  3
ACAD_CIP_PREVIOUS_PRODUCT_INFO
350
1A2
  3
ACAD_COLOR
350
198
  3
ACAD_DETAILVIEWSTYLE
350
19B
  3
ACAD_GROUP
350
D
  3
ACAD_LAYOUT
350
1A
  3
ACAD_MATERIAL
350
43
  3
ACAD_MLEADERSTYLE
350
5B
  3
ACAD_MLINESTYLE
350
17
  3
ACAD_PLOTSETTINGS
350
19
  3
ACAD_PLOTSTYLENAME
350
E
  3
ACAD_SCALELIST
350
47
  3
ACAD_SECTIONVIEWSTYLE
350
199
  3
ACAD_TABLESTYLE
350
59
  3
ACAD_VISUALSTYLE
350
2A
  3
ACDB_RECOMPOSE_DATA
350
66B
  3
AcDbVariableDictionary
350
14D
  0
DICTIONARY
  5
279
330
2
100
AcDbDictionary
280
     1
281
     1
  3
ACAD_LAYERSTATES
360
27A
  0
DICTIONARY
  5
39C
330
10
100
AcDbDictionary
280
     1
281
     1
  3
ADSK_XREC_LAYER_RECONCILED
360
39D
  0
DICTIONARY
  5
275
330
274
100
AcDbDictionary
280
     1
281
     1
  3
ADSK_XREC_LAYER_RECONCILED
360
39E
  0
DICTIONARY
  5
322
330
321
100
AcDbDictionary
280
     1
281
     1
  3
ADSK_XREC_LAYER_RECONCILED
360
39F
  0
DICTIONARY
  5
1AD
330
1F
100
AcDbDictionary
280
     1
281
     1
  3
ACAD_SORTENTS
360
1AE
  0
XRECORD
  5
1A2
102
{ACAD_REACTORS
330
C
102
}
330
C
100
AcDbXrecord
280
     1
300
ACDLT
300
2016
300
ACDLT_F_S
  0
DICTIONARY
  5
198
102
{ACAD_REACTORS
330
C
102
}
330
C
100
AcDbDictionary
281
     1
  0
DICTIONARY
  5
19B
102
{ACAD_REACTORS
330
C
102
}
330
C
100
AcDbDictionary
281
     1
  3
Metric50
350
19C
  0
DICTIONARY
  5
D
102
{ACAD_REACTORS
330
C
102
}
330
C
100
AcDbDictionary
281
     1
  3
*A10
350
667
  3
*A11
350
668
  3
*A12
350
669
  3
*A7
350
664
  3
*A8
350
665
  3
*A9
350
666
  0
DICTIONARY
  5
1A
102
{ACAD_REACTORS
330
C
102
}
330
C
100
AcDbDictionary
281
     1
  3
Layout1
350
1E
  3
Model
350
22
  3
レイアウト1
350
19D
  0
DICTIONARY
  5
43
102
{ACAD_REACTORS
330
C
102
}
330
C
100
AcDbDictionary
281
     1
  3
ByBlock
350
45
  3
ByLayer
350
44
  3
Global
350
46
  0
DICTIONARY
  5
5B
102
{ACAD_REACTORS
330
C
102
}
330
C
100
AcDbDictionary
281
     1
  3
Standard
350
5C
  0
DICTIONARY
  5
17
102
{ACAD_REACTORS
330
C
102
}
330
C
100
AcDbDictionary
281
     1
  3
Standard
350
18
  0
DICTIONARY
  5
19
102
{ACAD_REACTORS
330
C
102
}
330
C
100
AcDbDictionary
281
     1
  0
ACDBDICTIONARYWDFLT
  5
E
102
{ACAD_REACTORS
330
C
102
}
330
C
100
AcDbDictionary
281
     1
  3
Normal
350
F
100
AcDbDictionaryWithDefault
340
F
  0
DICTIONARY
  5
47
102
{ACAD_REACTORS
330
C
102
}
330
C
100
AcDbDictionary
281
     1
  3
A0
350
48
  3
A1
350
49
  3
A2
350
4A
  3
A3
350
4B
  3
A4
350
4C
  3
A5
350
4D
  3
A6
350
4E
  3
A7
350
4F
  3
A8
350
50
  3
A9
350
51
  3
B0
350
52
  3
B1
350
53
  3
B2
350
54
  3
B3
350
55
  3
B4
350
56
  3
B5
350
57
  3
B6
350
58
  0
DICTIONARY
  5
199
102
{ACAD_REACTORS
330
C
102
}
330
C
100
AcDbDictionary
281
     1
  3
Metric50
350
19A
  0
DICTIONARY
  5
59
102
{ACAD_REACTORS
330
C
102
}
330
C
100
AcDbDictionary
281
     1
  3
Standard
350
5A
  0
DICTIONARY
  5
2A
102
{ACAD_REACTORS
330
C
102
}
330
C
100
AcDbDictionary
281
     1
  3
2dWireframe
350
2F
  3
Basic
350
32
  3
Brighten
350
36
  3
ColorChange
350
3A
  3
Conceptual
350
34
  3
Dim
350
35
  3
EdgeColorOff
350
3D
  3
Facepattern
350
39
  3
Flat
350
2B
  3
FlatWithEdges
350
2C
  3
Gouraud
350
2D
  3
GouraudWithEdges
350
2E
  3
Hidden
350
31
  3
JitterOff
350
3B
  3
Linepattern
350
38
  3
OverhangOff
350
3C
  3
Realistic
350
33
  3
Shaded
350
42
  3
Shaded with edges
350
41
  3
Shades of Gray
350
3E
  3
Sketchy
350
3F
  3
Thicken
350
37
  3
Wireframe
350
30
  3
X-Ray
350
40
  0
XRECORD
  5
66B
102
{ACAD_REACTORS
330
C
102
}
330
C
100
AcDbXrecord
280
     1
 90
        1
330
5A
  0
DICTIONARY
  5
14D
102
{ACAD_REACTORS
330
C
102
}
330
C
100
AcDbDictionary
281
     1
  3
CANNOSCALE
350
15B
  3
CENTEREXE
350
154
  3
CENTERLTYPEFILE
350
155
  3
CMLEADERSTYLE
350
14F
  3
CTABLESTYLE
350
14E
  3
CVIEWDETAILSTYLE
350
3A0
  3
CVIEWSECTIONSTYLE
350
3A1
  3
DIMASSOC
350
156
  3
HIDETEXT
350
157
  3
INDEXCTL
350
3F0
  3
LAYEREVAL
350
3A3
  3
LAYERNOTIFY
350
3A4
  3
LIGHTINGUNITS
350
3A2
  3
MSLTSCALE
350
15C
  3
SORTENTS
350
3EF
  0
DICTIONARY
  5
27A
102
{ACAD_REACTORS
330
279
102
}
330
279
100
AcDbDictionary
281
     1
  0
XRECORD
  5
39D
102
{ACAD_REACTORS
330
39C
102
}
330
39C
100
AcDbXrecord
280
     1
290
     1
  0
XRECORD
  5
39E
102
{ACAD_REACTORS
330
275
102
}
330
275
100
AcDbXrecord
280
     1
290
     1
  0
XRECORD
  5
39F
102
{ACAD_REACTORS
330
322
102
}
330
322
100
AcDbXrecord
280
     1
290
     1
  0
SORTENTSTABLE
  5
1AE
102
{ACAD_REACTORS
330
1AD
102
}
330
1AD
100
AcDbSortentsTable
330
1F
331
31F
  5
31F
331
31B
  5
31B
331
393
  5
393
331
320
  5
320
331
31E
  5
31E
331
392
  5
392
331
31D
  5
31D
331
395
  5
395
331
391
  5
391
331
31C
  5
31C
331
394
  5
394
331
390
  5
390
  0
ACDBDETAILVIEWSTYLE
  5
19C
102
{ACAD_XDICTIONARY
360
69E
102
}
102
{ACAD_REACTORS
330
19B
102
}
330
19B
100
AcDbModelDocViewStyle
 70
     0
  3
Metric50
290
     0
100
AcDbDetailViewStyle
 70
     0
 71
     0
 90
        3
 71
     1
340
11
 62
   256
 40
5.0
340
0
 62
   256
 40
5.0
300

 40
0.0
280
     1
 71
     2
340
16
 90
       25
 62
   256
 71
     3
340
11
 62
   256
 40
5.0
 90
        0
 40
15.0
 90
        1
300
%<\AcVar ViewDetailId>% (%<\AcVar ViewScale \f "%sn">%)
 71
     4
340
16
 90
       25
 62
   256
340
16
 90
       25
 62
   256
280
     0
  0
GROUP
  5
667
102
{ACAD_REACTORS
330
D
102
}
330
D
100
AcDbGroup
300

 70
     1
 71
     1
340
5CE
340
5CD
340
5CC
340
5CB
340
5CA
340
5C9
340
5C8
340
5C7
340
5C6
340
5C5
340
5C4
340
5C3
340
5C2
340
5C1
340
5C0
340
5BF
340
5BE
340
5BD
340
5BC
340
5BB
340
5BA
340
5B9
340
5B8
340
5B7
340
5B6
340
5B5
340
5B4
340
5B3
340
5B2
340
5B1
340
5B0
340
5AF
340
5AE
340
5AD
340
5AC
340
5AB
340
5AA
340
5A9
340
395
340
394
  0
GROUP
  5
668
102
{ACAD_REACTORS
330
D
102
}
330
D
100
AcDbGroup
300

 70
     1
 71
     1
340
663
340
662
340
661
340
660
340
65F
340
65E
340
65D
340
65C
340
65B
340
65A
340
659
340
658
340
657
340
656
340
655
340
654
340
653
340
652
340
651
340
31E
340
31D
  0
GROUP
  5
669
102
{ACAD_REACTORS
330
D
102
}
330
D
100
AcDbGroup
300

 70
     1
 71
     1
340
619
340
618
340
617
340
616
340
615
340
614
340
613
340
612
340
611
340
610
340
60F
340
60E
340
60D
340
60C
340
60B
340
60A
340
609
340
608
340
607
340
606
340
605
340
604
340
603
340
602
340
601
340
600
340
5FF
340
5FE
340
5FD
340
5FC
340
5FB
340
5FA
340
5F9
340
5F8
340
5F7
340
5F6
340
5F5
340
31C
340
31B
  0
GROUP
  5
664
102
{ACAD_REACTORS
330
D
102
}
330
D
100
AcDbGroup
300

 70
     1
 71
     1
340
650
340
64F
340
64E
340
64D
340
64C
340
64B
340
64A
340
649
340
648
340
647
340
646
340
645
340
644
340
643
340
642
340
641
340
640
340
63F
340
63E
340
63D
340
63C
340
63B
340
63A
340
639
340
638
340
637
340
636
340
635
340
634
340
633
340
632
340
631
340
630
340
62F
340
62E
340
62D
340
62C
340
62B
340
62A
340
629
340
628
340
627
340
626
340
625
340
624
340
623
340
622
340
621
340
620
340
61F
340
61E
340
61D
340
61C
340
61B
340
61A
340
320
340
31F
  0
GROUP
  5
665
102
{ACAD_REACTORS
330
D
102
}
330
D
100
AcDbGroup
300

 70
     1
 71
     1
340
5F4
340
5F3
340
5F2
340
5F1
340
5F0
340
5EF
340
5EE
340
5ED
340
5EC
340
5EB
340
5EA
340
5E9
340
5E8
340
5E7
340
5E6
340
5E5
340
5E4
340
5E3
340
5E2
340
5E1
340
5E0
340
5DF
340
5DE
340
5DD
340
5DC
340
5DB
340
5DA
340
5D9
340
5D8
340
5D7
340
5D6
340
5D5
340
5D4
340
5D3
340
5D2
340
5D1
340
5D0
340
5CF
340
391
340
390
  0
GROUP
  5
666
102
{ACAD_REACTORS
330
D
102
}
330
D
100
AcDbGroup
300

 70
     1
 71
     1
340
5A8
340
5A7
340
5A6
340
5A5
340
5A4
340
5A3
340
5A2
340
5A1
340
5A0
340
59F
340
59E
340
59D
340
59C
340
59B
340
59A
340
599
340
598
340
597
340
596
340
595
340
594
340
593
340
592
340
591
340
590
340
58F
340
58E
340
58D
340
58C
340
58B
340
58A
340
589
340
588
340
587
340
586
340
585
340
584
340
583
340
582
340
581
340
580
340
57F
340
57E
340
57D
340
57C
340
57B
340
57A
340
579
340
578
340
577
340
576
340
575
340
574
340
573
340
572
340
393
340
392
  0
LAYOUT
  5
1E
102
{ACAD_REACTORS
330
1A
102
}
330
1A
100
AcDbPlotSettings
  1

  2
none_device
  4

  6

 40
0.0
 41
0.0
 42
0.0
 43
0.0
 44
0.0
 45
0.0
 46
0.0
 47
0.0
 48
0.0
 49
0.0
140
0.0
141
0.0
142
1.0
143
1.0
 70
   688
 72
     1
 73
     0
 74
     5
  7

 75
    16
147
1.0
 76
     0
 77
     2
 78
   300
148
0.0
149
0.0
100
AcDbLayout
  1
Layout1
 70
     1
 71
     1
 10
0.0
 20
0.0
 11
420.0
 21
297.0
 12
0.0
 22
0.0
 32
0.0
 14
1.000000000000000E+20
 24
1.000000000000000E+20
 34
1.000000000000000E+20
 15
-1.000000000000000E+20
 25
-1.000000000000000E+20
 35
-1.000000000000000E+20
146
0.0
 13
0.0
 23
0.0
 33
0.0
 16
1.0
 26
0.0
 36
0.0
 17
0.0
 27
1.0
 37
0.0
 76
     0
330
1B
  0
LAYOUT
  5
22
102
{ACAD_REACTORS
330
1A
102
}
330
1A
100
AcDbPlotSettings
  1

  2
none_device
  4
Letter_(8.50_x_11.00_Inches)
  6

 40
6.349999999999997
 41
6.349999999999997
 42
6.350005079999997
 43
6.350005079999997
 44
215.9
 45
279.4
 46
0.0
 47
0.0
 48
0.0
 49
0.0
140
0.0
141
0.0
142
1.0
143
1.0
 70
  1712
 72
     1
 73
     0
 74
     0
  7

 75
     0
147
1.0
 76
     0
 77
     2
 78
   300
148
0.0
149
0.0
100
AcDbLayout
  1
Model
 70
     1
 71
     0
 10
-140.4597673416138
 20
-223.4582233428955
 11
431.8279371261596
 21
278.5068969726562
 12
0.0
 22
0.0
 32
0.0
 14
-140.4597673416138
 24
-223.4582233428955
 34
0.0
 15
431.8279371261596
 25
278.5068969726562
 35
0.0
146
0.0
 13
0.0
 23
0.0
 33
0.0
 16
1.0
 26
0.0
 36
0.0
 17
0.0
 27
1.0
 37
0.0
 76
     0
330
1F
331
29
  0
LAYOUT
  5
19D
102
{ACAD_REACTORS
330
1A
102
}
330
1A
100
AcDbPlotSettings
  1

  2
青梅 FX DocuCentre-V C2275 T2
  4

  6

 40
0.0
 41
0.0
 42
0.0
 43
0.0
 44
0.0
 45
0.0
 46
0.0
 47
0.0
 48
0.0
 49
0.0
140
0.0
141
0.0
142
1.0
143
1.0
 70
   688
 72
     0
 73
     0
 74
     5
  7
AutoCAD_PEN.ctb
 75
    16
147
1.0
 76
     0
 77
     2
 78
   300
148
0.0
149
0.0
100
AcDbLayout
  1
レイアウト1
 70
     1
 71
     2
 10
0.0
 20
0.0
 11
12.0
 21
9.0
 12
0.0
 22
0.0
 32
0.0
 14
0.0
 24
0.0
 34
0.0
 15
0.0
 25
0.0
 35
0.0
146
0.0
 13
0.0
 23
0.0
 33
0.0
 16
1.0
 26
0.0
 36
0.0
 17
0.0
 27
1.0
 37
0.0
 76
     0
330
23
  0
MATERIAL
  5
45
102
{ACAD_XDICTIONARY
360
18F
102
}
102
{ACAD_REACTORS
330
43
102
}
330
43
100
AcDbMaterial
  1
ByBlock
  0
MATERIAL
  5
44
102
{ACAD_XDICTIONARY
360
18D
102
}
102
{ACAD_REACTORS
330
43
102
}
330
43
100
AcDbMaterial
  1
ByLayer
  0
MATERIAL
  5
46
102
{ACAD_XDICTIONARY
360
191
102
}
102
{ACAD_REACTORS
330
43
102
}
330
43
100
AcDbMaterial
  1
Global
  0
MLEADERSTYLE
  5
5C
102
{ACAD_REACTORS
330
5B
102
}
330
5B
100
AcDbMLeaderStyle
179
     2
170
     2
171
     1
172
     0
 90
        2
 40
0.0
 41
0.0
173
     1
 91
-1056964608
340
14
 92
       -2
290
     1
 42
2.0
291
     1
 43
8.0
  3
Standard
 44
4.0
300

342
11
174
     1
178
     6
175
     1
176
     0
 93
-1056964608
 45
4.0
292
     0
297
     0
 46
4.0
 94
-1056964608
 47
1.0
 49
1.0
140
1.0
293
     1
141
0.0
294
     1
177
     0
142
1.0
295
     0
296
     0
143
3.75
271
     0
272
     9
273
     9
1001
ACAD_MLEADERVER
1070
     2
  0
MLINESTYLE
  5
18
102
{ACAD_REACTORS
330
17
102
}
330
17
100
AcDbMlineStyle
  2
STANDARD
 70
     0
  3

 62
   256
 51
90.0
 52
90.0
 71
     2
 49
0.5
 62
   256
  6
BYLAYER
 49
-0.5
 62
   256
  6
BYLAYER
  0
ACDBPLACEHOLDER
  5
F
102
{ACAD_REACTORS
330
E
102
}
330
E
  0
SCALE
  5
48
102
{ACAD_REACTORS
330
47
102
}
330
47
100
AcDbScale
 70
     0
300
1:1
140
1.0
141
1.0
290
     1
  0
SCALE
  5
49
102
{ACAD_REACTORS
330
47
102
}
330
47
100
AcDbScale
 70
     0
300
1:2
140
1.0
141
2.0
290
     0
  0
SCALE
  5
4A
102
{ACAD_REACTORS
330
47
102
}
330
47
100
AcDbScale
 70
     0
300
1:4
140
1.0
141
4.0
290
     0
  0
SCALE
  5
4B
102
{ACAD_REACTORS
330
47
102
}
330
47
100
AcDbScale
 70
     0
300
1:5
140
1.0
141
5.0
290
     0
  0
SCALE
  5
4C
102
{ACAD_REACTORS
330
47
102
}
330
47
100
AcDbScale
 70
     0
300
1:8
140
1.0
141
8.0
290
     0
  0
SCALE
  5
4D
102
{ACAD_REACTORS
330
47
102
}
330
47
100
AcDbScale
 70
     0
300
1:10
140
1.0
141
10.0
290
     0
  0
SCALE
  5
4E
102
{ACAD_REACTORS
330
47
102
}
330
47
100
AcDbScale
 70
     0
300
1:16
140
1.0
141
16.0
290
     0
  0
SCALE
  5
4F
102
{ACAD_REACTORS
330
47
102
}
330
47
100
AcDbScale
 70
     0
300
1:20
140
1.0
141
20.0
290
     0
  0
SCALE
  5
50
102
{ACAD_REACTORS
330
47
102
}
330
47
100
AcDbScale
 70
     0
300
1:30
140
1.0
141
30.0
290
     0
  0
SCALE
  5
51
102
{ACAD_REACTORS
330
47
102
}
330
47
100
AcDbScale
 70
     0
300
1:40
140
1.0
141
40.0
290
     0
  0
SCALE
  5
52
102
{ACAD_REACTORS
330
47
102
}
330
47
100
AcDbScale
 70
     0
300
1:50
140
1.0
141
50.0
290
     0
  0
SCALE
  5
53
102
{ACAD_REACTORS
330
47
102
}
330
47
100
AcDbScale
 70
     0
300
1:100
140
1.0
141
100.0
290
     0
  0
SCALE
  5
54
102
{ACAD_REACTORS
330
47
102
}
330
47
100
AcDbScale
 70
     0
300
2:1
140
2.0
141
1.0
290
     0
  0
SCALE
  5
55
102
{ACAD_REACTORS
330
47
102
}
330
47
100
AcDbScale
 70
     0
300
4:1
140
4.0
141
1.0
290
     0
  0
SCALE
  5
56
102
{ACAD_REACTORS
330
47
102
}
330
47
100
AcDbScale
 70
     0
300
8:1
140
8.0
141
1.0
290
     0
  0
SCALE
  5
57
102
{ACAD_REACTORS
330
47
102
}
330
47
100
AcDbScale
 70
     0
300
10:1
140
10.0
141
1.0
290
     0
  0
SCALE
  5
58
102
{ACAD_REACTORS
330
47
102
}
330
47
100
AcDbScale
 70
     0
300
100:1
140
100.0
141
1.0
290
     0
  0
ACDBSECTIONVIEWSTYLE
  5
19A
102
{ACAD_XDICTIONARY
360
69C
102
}
102
{ACAD_REACTORS
330
199
102
}
330
199
100
AcDbModelDocViewStyle
 70
     0
  3
Metric50
290
     0
100
AcDbSectionViewStyle
 70
     0
 71
     0
 90
      102
 71
     1
340
11
 62
   256
 40
5.0
340
0
340
0
 62
   256
 40
5.0
300
I, O, Q, S, X, Z
 40
10.0
 90
        0
 40
2.5
 90
        0
 71
     2
340
16
 90
       25
 62
   256
340
16
 90
       50
 62
   256
 40
5.0
 40
2.5
 40
5.0
 71
     3
340
11
 62
   256
 40
5.0
 90
        0
 40
15.0
 90
        1
300
%<\AcVar ViewSectionStartId>%-%<\AcVar ViewSectionEndId>% (%<\AcVar ViewScale \f "%sn">%)
 71
     4
 62
   256
 62
   257
300
ANSI31
 40
1.0
 90
        0
290
     0
290
     0
 90
        6
 40
0.0
 40
1.570796326794896
 40
0.2617993877991494
 40
1.308996938995747
 40
-0.2617993877991494
 40
1.832595714594044
  0
TABLESTYLE
  5
5A
102
{ACAD_XDICTIONARY
360
3A5
102
}
102
{ACAD_REACTORS
330
59
102
}
330
59
100
AcDbTableStyle
280
     0
  3
Standard
 70
     0
 71
     0
 40
1.5
 41
1.5
280
     0
281
     0
  7
Standard
140
4.5
170
     2
 62
     0
 63
     7
283
     0
 90
        4
 91
        0
  1

274
    -2
284
     1
 64
     0
275
    -2
285
     1
 65
     0
276
    -2
286
     1
 66
     0
277
    -2
287
     1
 67
     0
278
    -2
288
     1
 68
     0
279
    -2
289
     1
 69
     0
  7
Standard
140
6.0
170
     5
 62
     0
 63
     7
283
     0
 90
        4
 91
        0
  1

274
    -2
284
     1
 64
     0
275
    -2
285
     1
 65
     0
276
    -2
286
     1
 66
     0
277
    -2
287
     1
 67
     0
278
    -2
288
     1
 68
     0
279
    -2
289
     1
 69
     0
  7
Standard
140
4.5
170
     5
 62
     0
 63
     7
283
     0
 90
        4
 91
        0
  1

274
    -2
284
     1
 64
     0
275
    -2
285
     1
 65
     0
276
    -2
286
     1
 66
     0
277
    -2
287
     1
 67
     0
278
    -2
288
     1
 68
     0
279
    -2
289
     1
 69
     0
  0
VISUALSTYLE
  5
2F
102
{ACAD_XDICTIONARY
360
674
102
}
102
{ACAD_REACTORS
330
2A
102
}
330
2A
100
AcDbVisualStyle
  2

 70
     4
177
     2
291
     0
 71
     0
176
     1
 72
     2
176
     1
 73
     0
176
     1
 90
        0
176
     1
 40
0.6
176
     1
 41
30.0
176
     1
 63
     7
176
     1
 74
     1
176
     1
 91
        4
176
     1
 64
     7
176
     1
 65
   257
176
     1
 75
     1
176
     1
175
     1
176
     1
 42
1.0
176
     1
 92
        0
176
     1
 66
   257
176
     1
 43
1.0
176
     1
 76
     1
176
     1
 77
     6
176
     1
 78
     2
176
     1
 67
     7
176
     1
 79
     5
176
     1
170
     0
176
     1
171
     0
176
     1
290
     0
176
     1
 93
        1
176
     1
 44
0.0
176
     1
173
     0
176
     1
1001
ACAD
1000
AcDbSavedByObjectVersion
1070
     0
  0
VISUALSTYLE
  5
32
102
{ACAD_XDICTIONARY
360
67A
102
}
102
{ACAD_REACTORS
330
2A
102
}
330
2A
100
AcDbVisualStyle
  2

 70
     7
177
     2
291
     1
 71
     1
176
     1
 72
     0
176
     1
 73
     1
176
     1
 90
        0
176
     1
 40
0.6
176
     1
 41
30.0
176
     1
 63
     7
176
     1
 74
     0
176
     1
 91
        4
176
     1
 64
     7
176
     1
 65
   257
176
     1
 75
     1
176
     1
175
     1
176
     1
 42
1.0
176
     1
 92
        8
176
     1
 66
     7
176
     1
 43
1.0
176
     1
 76
     1
176
     1
 77
     6
176
     1
 78
     2
176
     1
 67
     7
176
     1
 79
     5
176
     1
170
     0
176
     1
171
     0
176
     1
290
     0
176
     1
 93
        1
176
     1
 44
0.0
176
     1
173
     0
176
     1
1001
ACAD
1000
AcDbSavedByObjectVersion
1070
     0
  0
VISUALSTYLE
  5
36
102
{ACAD_XDICTIONARY
360
682
102
}
102
{ACAD_REACTORS
330
2A
102
}
330
2A
100
AcDbVisualStyle
  2

 70
    12
177
     2
291
     1
 71
     2
176
     1
 72
     2
176
     1
 73
     0
176
     1
 90
        0
176
     1
 40
0.6
176
     1
 41
30.0
176
     1
 63
     7
176
     1
 74
     1
176
     1
 91
        4
176
     1
 64
     7
176
     1
 65
   257
176
     1
 75
     1
176
     1
175
     1
176
     1
 42
1.0
176
     1
 92
        8
176
     1
 66
     7
176
     1
 43
1.0
176
     1
 76
     1
176
     1
 77
     6
176
     1
 78
     2
176
     1
 67
     7
176
     1
 79
     5
176
     1
170
     0
176
     1
171
     0
176
     1
290
     0
176
     1
 93
        1
176
     1
 44
50.0
176
     1
173
     0
176
     1
1001
ACAD
1000
AcDbSavedByObjectVersion
1070
     0
  0
VISUALSTYLE
  5
3A
102
{ACAD_XDICTIONARY
360
68A
102
}
102
{ACAD_REACTORS
330
2A
102
}
330
2A
100
AcDbVisualStyle
  2

 70
    16
177
     2
291
     1
 71
     2
176
     1
 72
     2
176
     1
 73
     3
176
     1
 90
        0
176
     1
 40
0.6
176
     1
 41
30.0
176
     1
 63
     8
176
     1
 74
     1
176
     1
 91
        4
176
     1
 64
     7
176
     1
 65
   257
176
     1
 75
     1
176
     1
175
     1
176
     1
 42
1.0
176
     1
 92
        8
176
     1
 66
     8
176
     1
 43
1.0
176
     1
 76
     1
176
     1
 77
     6
176
     1
 78
     2
176
     1
 67
     7
176
     1
 79
     5
176
     1
170
     0
176
     1
171
     0
176
     1
290
     0
176
     1
 93
        1
176
     1
 44
0.0
176
     1
173
     0
176
     1
1001
ACAD
1000
AcDbSavedByObjectVersion
1070
     0
  0
VISUALSTYLE
  5
34
102
{ACAD_XDICTIONARY
360
67E
102
}
102
{ACAD_REACTORS
330
2A
102
}
330
2A
100
AcDbVisualStyle
  2

 70
     9
177
     2
291
     0
 71
     3
176
     1
 72
     2
176
     1
 73
     0
176
     1
 90
        0
176
     1
 40
0.6
176
     1
 41
30.0
176
     1
 63
     7
176
     1
 74
     2
176
     1
 91
        2
176
     1
 64
     7
176
     1
 65
   257
176
     1
 75
     1
176
     1
175
     1
176
     1
 42
179.0
176
     1
 92
        8
176
     1
 66
     7
176
     1
 43
1.0
176
     1
 76
     1
176
     1
 77
     6
176
     1
 78
     2
176
     1
 67
     7
176
     1
 79
     3
176
     1
170
     0
176
     1
171
     0
176
     1
290
     0
176
     1
 93
        1
176
     1
 44
0.0
176
     1
173
     0
176
     1
1001
ACAD
1000
AcDbSavedByObjectVersion
1070
     0
  0
VISUALSTYLE
  5
35
102
{ACAD_XDICTIONARY
360
680
102
}
102
{ACAD_REACTORS
330
2A
102
}
330
2A
100
AcDbVisualStyle
  2

 70
    11
177
     2
291
     1
 71
     2
176
     1
 72
     2
176
     1
 73
     0
176
     1
 90
        0
176
     1
 40
0.6
176
     1
 41
30.0
176
     1
 63
     7
176
     1
 74
     1
176
     1
 91
        4
176
     1
 64
     7
176
     1
 65
   257
176
     1
 75
     1
176
     1
175
     1
176
     1
 42
1.0
176
     1
 92
        8
176
     1
 66
     7
176
     1
 43
1.0
176
     1
 76
     1
176
     1
 77
     6
176
     1
 78
     2
176
     1
 67
     7
176
     1
 79
     5
176
     1
170
     0
176
     1
171
     0
176
     1
290
     0
176
     1
 93
        1
176
     1
 44
-50.0
176
     1
173
     0
176
     1
1001
ACAD
1000
AcDbSavedByObjectVersion
1070
     0
  0
VISUALSTYLE
  5
3D
102
{ACAD_XDICTIONARY
360
690
102
}
102
{ACAD_REACTORS
330
2A
102
}
330
2A
100
AcDbVisualStyle
  2

 70
    22
177
     2
291
     1
 71
     2
176
     0
 72
     2
176
     0
 73
     0
176
     0
 90
        0
176
     0
 40
0.6
176
     0
 41
30.0
176
     0
 63
     7
176
     0
 74
     1
176
     0
 91
        4
176
     0
 64
     7
176
     0
 65
   257
176
     0
 75
     1
176
     0
175
     1
176
     0
 42
1.0
176
     0
 92
        8
176
     2
 66
     7
176
     0
 43
1.0
176
     0
 76
     1
176
     0
 77
     6
176
     0
 78
     2
176
     0
 67
     7
176
     0
 79
     5
176
     0
170
     0
176
     0
171
     0
176
     0
290
     0
176
     0
 93
        1
176
     0
 44
0.0
176
     0
173
     0
176
     0
1001
ACAD
1000
AcDbSavedByObjectVersion
1070
     0
  0
VISUALSTYLE
  5
39
102
{ACAD_XDICTIONARY
360
688
102
}
102
{ACAD_REACTORS
330
2A
102
}
330
2A
100
AcDbVisualStyle
  2

 70
    15
177
     2
291
     1
 71
     2
176
     1
 72
     2
176
     1
 73
     0
176
     1
 90
        0
176
     1
 40
0.6
176
     1
 41
30.0
176
     1
 63
     7
176
     1
 74
     1
176
     1
 91
        4
176
     1
 64
     7
176
     1
 65
   257
176
     1
 75
     1
176
     1
175
     1
176
     1
 42
1.0
176
     1
 92
        8
176
     1
 66
     7
176
     1
 43
1.0
176
     1
 76
     1
176
     1
 77
     6
176
     1
 78
     2
176
     1
 67
     7
176
     1
 79
     5
176
     1
170
     0
176
     1
171
     0
176
     1
290
     0
176
     1
 93
        1
176
     1
 44
0.0
176
     1
173
     0
176
     1
1001
ACAD
1000
AcDbSavedByObjectVersion
1070
     0
  0
VISUALSTYLE
  5
2B
102
{ACAD_XDICTIONARY
360
66C
102
}
102
{ACAD_REACTORS
330
2A
102
}
330
2A
100
AcDbVisualStyle
  2

 70
     0
177
     2
291
     1
 71
     2
176
     1
 72
     1
176
     1
 73
     1
176
     1
 90
        2
176
     1
 40
0.6
176
     1
 41
30.0
176
     1
 63
     7
176
     1
 74
     0
176
     1
 91
        0
176
     1
 64
     7
176
     1
 65
   257
176
     1
 75
     1
176
     1
175
     1
176
     1
 42
1.0
176
     1
 92
        8
176
     1
 66
     7
176
     1
 43
1.0
176
     1
 76
     1
176
     1
 77
     6
176
     1
 78
     2
176
     1
 67
     7
176
     1
 79
     5
176
     1
170
     0
176
     1
171
     0
176
     1
290
     0
176
     1
 93
       13
176
     1
 44
0.0
176
     1
173
     0
176
     1
1001
ACAD
1000
AcDbSavedByObjectVersion
1070
     0
  0
VISUALSTYLE
  5
2C
102
{ACAD_XDICTIONARY
360
66E
102
}
102
{ACAD_REACTORS
330
2A
102
}
330
2A
100
AcDbVisualStyle
  2

 70
     1
177
     2
291
     1
 71
     2
176
     1
 72
     1
176
     1
 73
     1
176
     1
 90
        2
176
     1
 40
0.6
176
     1
 41
30.0
176
     1
 63
     7
176
     1
 74
     1
176
     1
 91
        0
176
     1
 64
     7
176
     1
 65
   257
176
     1
 75
     1
176
     1
175
     1
176
     1
 42
1.0
176
     1
 92
        0
176
     1
 66
   257
176
     1
 43
1.0
176
     1
 76
     1
176
     1
 77
     6
176
     1
 78
     2
176
     1
 67
     7
176
     1
 79
     5
176
     1
170
     0
176
     1
171
     0
176
     1
290
     0
176
     1
 93
       13
176
     1
 44
0.0
176
     1
173
     0
176
     1
1001
ACAD
1000
AcDbSavedByObjectVersion
1070
     0
  0
VISUALSTYLE
  5
2D
102
{ACAD_XDICTIONARY
360
670
102
}
102
{ACAD_REACTORS
330
2A
102
}
330
2A
100
AcDbVisualStyle
  2

 70
     2
177
     2
291
     1
 71
     2
176
     1
 72
     2
176
     1
 73
     1
176
     1
 90
        2
176
     1
 40
0.6
176
     1
 41
30.0
176
     1
 63
     7
176
     1
 74
     0
176
     1
 91
        0
176
     1
 64
     7
176
     1
 65
   257
176
     1
 75
     1
176
     1
175
     1
176
     1
 42
1.0
176
     1
 92
        0
176
     1
 66
     7
176
     1
 43
1.0
176
     1
 76
     1
176
     1
 77
     6
176
     1
 78
     2
176
     1
 67
     7
176
     1
 79
     5
176
     1
170
     0
176
     1
171
     0
176
     1
290
     0
176
     1
 93
       13
176
     1
 44
0.0
176
     1
173
     0
176
     1
1001
ACAD
1000
AcDbSavedByObjectVersion
1070
     0
  0
VISUALSTYLE
  5
2E
102
{ACAD_XDICTIONARY
360
672
102
}
102
{ACAD_REACTORS
330
2A
102
}
330
2A
100
AcDbVisualStyle
  2

 70
     3
177
     2
291
     1
 71
     2
176
     1
 72
     2
176
     1
 73
     1
176
     1
 90
        2
176
     1
 40
0.6
176
     1
 41
30.0
176
     1
 63
     7
176
     1
 74
     1
176
     1
 91
        0
176
     1
 64
     7
176
     1
 65
   257
176
     1
 75
     1
176
     1
175
     1
176
     1
 42
1.0
176
     1
 92
        0
176
     1
 66
   257
176
     1
 43
1.0
176
     1
 76
     1
176
     1
 77
     6
176
     1
 78
     2
176
     1
 67
     7
176
     1
 79
     5
176
     1
170
     0
176
     1
171
     0
176
     1
290
     0
176
     1
 93
       13
176
     1
 44
0.0
176
     1
173
     0
176
     1
1001
ACAD
1000
AcDbSavedByObjectVersion
1070
     0
  0
VISUALSTYLE
  5
31
102
{ACAD_XDICTIONARY
360
678
102
}
102
{ACAD_REACTORS
330
2A
102
}
330
2A
100
AcDbVisualStyle
  2

 70
     6
177
     2
291
     0
 71
     1
176
     1
 72
     2
176
     1
 73
     2
176
     1
 90
        0
176
     1
 40
0.6
176
     1
 41
30.0
176
     1
 63
     7
176
     1
 74
     2
176
     1
 91
        2
176
     1
 64
     7
176
     1
 65
   257
176
     1
 75
     2
176
     1
175
     1
176
     1
 42
40.0
176
     1
 92
        0
176
     1
 66
   257
176
     1
 43
1.0
176
     1
 76
     1
176
     1
 77
     6
176
     1
 78
     2
176
     1
 67
     7
176
     1
 79
     3
176
     1
170
     0
176
     1
171
     0
176
     1
290
     0
176
     1
 93
        1
176
     1
 44
0.0
176
     1
173
     0
176
     1
1001
ACAD
1000
AcDbSavedByObjectVersion
1070
     0
  0
VISUALSTYLE
  5
3B
102
{ACAD_XDICTIONARY
360
68C
102
}
102
{ACAD_REACTORS
330
2A
102
}
330
2A
100
AcDbVisualStyle
  2

 70
    20
177
     2
291
     1
 71
     2
176
     0
 72
     2
176
     0
 73
     0
176
     0
 90
        0
176
     0
 40
0.6
176
     0
 41
30.0
176
     0
 63
     7
176
     0
 74
     1
176
     0
 91
        4
176
     0
 64
     7
176
     0
 65
   257
176
     0
 75
     1
176
     0
175
     1
176
     0
 42
1.0
176
     0
 92
       10
176
     2
 66
     7
176
     0
 43
1.0
176
     0
 76
     1
176
     0
 77
     6
176
     0
 78
     2
176
     0
 67
     7
176
     0
 79
     5
176
     0
170
     0
176
     0
171
     0
176
     0
290
     0
176
     0
 93
        1
176
     0
 44
0.0
176
     0
173
     0
176
     0
1001
ACAD
1000
AcDbSavedByObjectVersion
1070
     0
  0
VISUALSTYLE
  5
38
102
{ACAD_XDICTIONARY
360
686
102
}
102
{ACAD_REACTORS
330
2A
102
}
330
2A
100
AcDbVisualStyle
  2

 70
    14
177
     2
291
     1
 71
     2
176
     1
 72
     2
176
     1
 73
     0
176
     1
 90
        0
176
     1
 40
0.6
176
     1
 41
30.0
176
     1
 63
     7
176
     1
 74
     1
176
     1
 91
        4
176
     1
 64
     7
176
     1
 65
   257
176
     1
 75
     7
176
     1
175
     7
176
     1
 42
1.0
176
     1
 92
        8
176
     1
 66
     7
176
     1
 43
1.0
176
     1
 76
     1
176
     1
 77
     6
176
     1
 78
     2
176
     1
 67
     7
176
     1
 79
     5
176
     1
170
     0
176
     1
171
     0
176
     1
290
     0
176
     1
 93
        1
176
     1
 44
0.0
176
     1
173
     0
176
     1
1001
ACAD
1000
AcDbSavedByObjectVersion
1070
     0
  0
VISUALSTYLE
  5
3C
102
{ACAD_XDICTIONARY
360
68E
102
}
102
{ACAD_REACTORS
330
2A
102
}
330
2A
100
AcDbVisualStyle
  2

 70
    21
177
     2
291
     1
 71
     2
176
     0
 72
     2
176
     0
 73
     0
176
     0
 90
        0
176
     0
 40
0.6
176
     0
 41
30.0
176
     0
 63
     7
176
     0
 74
     1
176
     0
 91
        4
176
     0
 64
     7
176
     0
 65
   257
176
     0
 75
     1
176
     0
175
     1
176
     0
 42
1.0
176
     0
 92
        9
176
     2
 66
     7
176
     0
 43
1.0
176
     0
 76
     1
176
     0
 77
     6
176
     0
 78
     2
176
     0
 67
     7
176
     0
 79
     5
176
     0
170
     0
176
     0
171
     0
176
     0
290
     0
176
     0
 93
        1
176
     0
 44
0.0
176
     0
173
     0
176
     0
1001
ACAD
1000
AcDbSavedByObjectVersion
1070
     0
  0
VISUALSTYLE
  5
33
102
{ACAD_XDICTIONARY
360
67C
102
}
102
{ACAD_REACTORS
330
2A
102
}
330
2A
100
AcDbVisualStyle
  2

 70
     8
177
     2
291
     0
 71
     2
176
     1
 72
     3
176
     1
 73
     0
176
     1
 90
        2
176
     1
 40
0.6
176
     1
 41
30.0
176
     1
 63
     7
176
     1
 74
     0
176
     1
 91
        0
176
     1
 64
     7
176
     1
 65
   257
176
     1
 75
     1
176
     1
175
     1
176
     1
 42
1.0
176
     1
 92
        8
176
     1
 66
   257
176
     1
 43
1.0
176
     1
 76
     1
176
     1
 77
     6
176
     1
 78
     2
176
     1
 67
     7
176
     1
 79
     3
176
     1
170
     0
176
     1
171
     0
176
     1
290
     0
176
     1
 93
       13
176
     1
 44
0.0
176
     1
173
     0
176
     1
1001
ACAD
1000
AcDbSavedByObjectVersion
1070
     0
  0
VISUALSTYLE
  5
42
102
{ACAD_XDICTIONARY
360
69A
102
}
102
{ACAD_REACTORS
330
2A
102
}
330
2A
100
AcDbVisualStyle
  2

 70
    27
177
     2
291
     0
 71
     2
176
     1
 72
     2
176
     1
 73
     1
176
     1
 90
        2
176
     1
 40
0.6
176
     1
 41
30.0
176
     1
 63
     7
176
     1
 74
     0
176
     1
 91
        4
176
     1
 64
     7
176
     1
 65
   257
176
     1
 75
     1
176
     1
175
     1
176
     1
 42
1.0
176
     1
 92
        8
176
     1
 66
   257
176
     1
 43
1.0
176
     1
 76
     1
176
     1
 77
     6
176
     1
 78
     2
176
     1
 67
     8
176
     1
 79
     3
176
     1
170
     0
176
     1
171
     0
176
     1
290
     0
176
     1
 93
        5
176
     1
 44
0.0
176
     1
173
     0
176
     1
1001
ACAD
1000
AcDbSavedByObjectVersion
1070
     0
  0
VISUALSTYLE
  5
41
102
{ACAD_XDICTIONARY
360
698
102
}
102
{ACAD_REACTORS
330
2A
102
}
330
2A
100
AcDbVisualStyle
  2

 70
    26
177
     2
291
     0
 71
     2
176
     1
 72
     2
176
     1
 73
     1
176
     1
 90
        2
176
     1
 40
0.6
176
     1
 41
30.0
176
     1
 63
     7
176
     1
 74
     1
176
     1
 91
       10
176
     1
 64
     7
176
     1
 65
   257
176
     1
 75
     2
176
     1
175
     1
176
     1
 42
1.0
176
     1
 92
        8
176
     1
 66
   257
176
     1
 43
1.0
176
     1
 76
     1
176
     1
 77
     6
176
     1
 78
     2
176
     1
 67
     7
176
     1
 79
     3
176
     1
170
     0
176
     1
171
     0
176
     1
290
     0
176
     1
 93
        5
176
     1
 44
0.0
176
     1
173
     0
176
     1
1001
ACAD
1000
AcDbSavedByObjectVersion
1070
     0
  0
VISUALSTYLE
  5
3E
102
{ACAD_XDICTIONARY
360
692
102
}
102
{ACAD_REACTORS
330
2A
102
}
330
2A
100
AcDbVisualStyle
  2

 70
    23
177
     2
291
     0
 71
     2
176
     1
 72
     2
176
     1
 73
     3
176
     1
 90
        0
176
     1
 40
0.6
176
     1
 41
30.0
176
     1
 63
     7
176
     1
 74
     2
176
     1
 91
        2
176
     1
 64
     7
176
     1
 65
     7
176
     1
 75
     1
176
     1
175
     1
176
     1
 42
40.0
176
     1
 92
        8
176
     1
 66
     7
176
     1
 43
1.0
176
     1
 76
     1
176
     1
 77
     6
176
     1
 78
     2
176
     1
 67
     7
176
     1
 79
     3
176
     1
170
     0
176
     1
171
     0
176
     1
290
     0
176
     1
 93
        1
176
     1
 44
0.0
176
     1
173
     0
176
     1
1001
ACAD
1000
AcDbSavedByObjectVersion
1070
     0
  0
VISUALSTYLE
  5
3F
102
{ACAD_XDICTIONARY
360
694
102
}
102
{ACAD_REACTORS
330
2A
102
}
330
2A
100
AcDbVisualStyle
  2

 70
    24
177
     2
291
     0
 71
     1
176
     1
 72
     2
176
     1
 73
     2
176
     1
 90
        0
176
     1
 40
0.6
176
     1
 41
30.0
176
     1
 63
     7
176
     1
 74
     2
176
     1
 91
        2
176
     1
 64
     7
176
     1
 65
     7
176
     1
 75
     1
176
     1
175
     1
176
     1
 42
40.0
176
     1
 92
       11
176
     1
 66
     7
176
     1
 43
1.0
176
     1
 76
     1
176
     1
 77
     6
176
     1
 78
     2
176
     1
 67
     7
176
     1
 79
     6
176
     1
170
     0
176
     1
171
     0
176
     1
290
     0
176
     1
 93
        1
176
     1
 44
0.0
176
     1
173
     0
176
     1
1001
ACAD
1000
AcDbSavedByObjectVersion
1070
     0
  0
VISUALSTYLE
  5
37
102
{ACAD_XDICTIONARY
360
684
102
}
102
{ACAD_REACTORS
330
2A
102
}
330
2A
100
AcDbVisualStyle
  2

 70
    13
177
     2
291
     1
 71
     2
176
     1
 72
     2
176
     1
 73
     0
176
     1
 90
        0
176
     1
 40
0.6
176
     1
 41
30.0
176
     1
 63
     7
176
     1
 74
     1
176
     1
 91
        4
176
     1
 64
     7
176
     1
 65
   257
176
     1
 75
     1
176
     1
175
     1
176
     1
 42
1.0
176
     1
 92
       12
176
     1
 66
     7
176
     1
 43
1.0
176
     1
 76
     1
176
     1
 77
     6
176
     1
 78
     2
176
     1
 67
     7
176
     1
 79
     5
176
     1
170
     0
176
     1
171
     0
176
     1
290
     0
176
     1
 93
        1
176
     1
 44
0.0
176
     1
173
     0
176
     1
1001
ACAD
1000
AcDbSavedByObjectVersion
1070
     0
  0
VISUALSTYLE
  5
30
102
{ACAD_XDICTIONARY
360
676
102
}
102
{ACAD_REACTORS
330
2A
102
}
330
2A
100
AcDbVisualStyle
  2

 70
     5
177
     2
291
     0
 71
     0
176
     1
 72
     2
176
     1
 73
     0
176
     1
 90
        0
176
     1
 40
0.6
176
     1
 41
30.0
176
     1
 63
     7
176
     1
 74
     1
176
     1
 91
        4
176
     1
 64
     7
176
     1
 65
   257
176
     1
 75
     1
176
     1
175
     1
176
     1
 42
1.0
176
     1
 92
        0
176
     1
 66
   257
176
     1
 43
1.0
176
     1
 76
     1
176
     1
 77
     6
176
     1
 78
     2
176
     1
 67
     7
176
     1
 79
     3
176
     1
170
     0
176
     1
171
     0
176
     1
290
     0
176
     1
 93
        1
176
     1
 44
0.0
176
     1
173
     0
176
     1
1001
ACAD
1000
AcDbSavedByObjectVersion
1070
     0
  0
VISUALSTYLE
  5
40
102
{ACAD_XDICTIONARY
360
696
102
}
102
{ACAD_REACTORS
330
2A
102
}
330
2A
100
AcDbVisualStyle
  2

 70
    25
177
     2
291
     0
 71
     2
176
     1
 72
     2
176
     1
 73
     1
176
     1
 90
        1
176
     1
 40
0.5
176
     1
 41
30.0
176
     1
 63
     7
176
     1
 74
     1
176
     1
 91
        0
176
     1
 64
     7
176
     1
 65
   257
176
     1
 75
     1
176
     1
175
     1
176
     1
 42
1.0
176
     1
 92
        8
176
     1
 66
     7
176
     1
 43
1.0
176
     1
 76
     1
176
     1
 77
     6
176
     1
 78
     2
176
     1
 67
     7
176
     1
 79
     3
176
     1
170
     0
176
     1
171
     0
176
     1
290
     0
176
     1
 93
       13
176
     1
 44
0.0
176
     1
173
     0
176
     1
1001
ACAD
1000
AcDbSavedByObjectVersion
1070
     0
  0
DICTIONARYVAR
  5
15B
102
{ACAD_REACTORS
330
14D
102
}
330
14D
100
DictionaryVariables
280
     0
  1
1:1
  0
DICTIONARYVAR
  5
154
102
{ACAD_REACTORS
330
14D
102
}
330
14D
100
DictionaryVariables
280
     0
  1
3.500000
  0
DICTIONARYVAR
  5
155
102
{ACAD_REACTORS
330
14D
102
}
330
14D
100
DictionaryVariables
280
     0
  1
acadiso.lin
  0
DICTIONARYVAR
  5
14F
102
{ACAD_REACTORS
330
14D
102
}
330
14D
100
DictionaryVariables
280
     0
  1
STANDARD
  0
DICTIONARYVAR
  5
14E
102
{ACAD_REACTORS
330
14D
102
}
330
14D
100
DictionaryVariables
280
     0
  1
STANDARD
  0
DICTIONARYVAR
  5
3A0
102
{ACAD_REACTORS
330
14D
102
}
330
14D
100
DictionaryVariables
280
     0
  1
Metric50
  0
DICTIONARYVAR
  5
3A1
102
{ACAD_REACTORS
330
14D
102
}
330
14D
100
DictionaryVariables
280
     0
  1
Metric50
  0
DICTIONARYVAR
  5
156
102
{ACAD_REACTORS
330
14D
102
}
330
14D
100
DictionaryVariables
280
     0
  1
2
  0
DICTIONARYVAR
  5
157
102
{ACAD_REACTORS
330
14D
102
}
330
14D
100
DictionaryVariables
280
     0
  1
1
  0
DICTIONARYVAR
  5
3F0
102
{ACAD_REACTORS
330
14D
102
}
330
14D
100
DictionaryVariables
280
     0
  1
0
  0
DICTIONARYVAR
  5
3A3
102
{ACAD_REACTORS
330
14D
102
}
330
14D
100
DictionaryVariables
280
     0
  1
1
  0
DICTIONARYVAR
  5
3A4
102
{ACAD_REACTORS
330
14D
102
}
330
14D
100
DictionaryVariables
280
     0
  1
15
  0
DICTIONARYVAR
  5
3A2
102
{ACAD_REACTORS
330
14D
102
}
330
14D
100
DictionaryVariables
280
     0
  1
0
  0
DICTIONARYVAR
  5
15C
102
{ACAD_REACTORS
330
14D
102
}
330
14D
100
DictionaryVariables
280
     0
  1
1
  0
DICTIONARYVAR
  5
3EF
102
{ACAD_REACTORS
330
14D
102
}
330
14D
100
DictionaryVariables
280
     0
  1
127
  0
DICTIONARY
  5
69E
330
19C
100
AcDbDictionary
280
     1
281
     1
  3
ACAD_XREC_ROUNDTRIP
360
69F
  0
DICTIONARY
  5
18F
330
45
100
AcDbDictionary
280
     1
281
     1
  3
ACAD_XREC_ROUNDTRIP
360
190
  0
DICTIONARY
  5
18D
330
44
100
AcDbDictionary
280
     1
281
     1
  3
ACAD_XREC_ROUNDTRIP
360
18E
  0
DICTIONARY
  5
191
330
46
100
AcDbDictionary
280
     1
281
     1
  3
ACAD_XREC_ROUNDTRIP
360
192
  0
DICTIONARY
  5
69C
330
19A
100
AcDbDictionary
280
     1
281
     1
  3
ACAD_XREC_ROUNDTRIP
360
69D
  0
DICTIONARY
  5
3A5
330
5A
100
AcDbDictionary
280
     1
281
     1
  3
ACAD_ROUNDTRIP_2008_TABLESTYLE_CELLSTYLEMAP
360
66A
  0
DICTIONARY
  5
674
330
2F
100
AcDbDictionary
280
     1
281
     1
  3
ACAD_XREC_ROUNDTRIP
360
675
  0
DICTIONARY
  5
67A
330
32
100
AcDbDictionary
280
     1
281
     1
  3
ACAD_XREC_ROUNDTRIP
360
67B
  0
DICTIONARY
  5
682
330
36
100
AcDbDictionary
280
     1
281
     1
  3
ACAD_XREC_ROUNDTRIP
360
683
  0
DICTIONARY
  5
68A
330
3A
100
AcDbDictionary
280
     1
281
     1
  3
ACAD_XREC_ROUNDTRIP
360
68B
  0
DICTIONARY
  5
67E
330
34
100
AcDbDictionary
280
     1
281
     1
  3
ACAD_XREC_ROUNDTRIP
360
67F
  0
DICTIONARY
  5
680
330
35
100
AcDbDictionary
280
     1
281
     1
  3
ACAD_XREC_ROUNDTRIP
360
681
  0
DICTIONARY
  5
690
330
3D
100
AcDbDictionary
280
     1
281
     1
  3
ACAD_XREC_ROUNDTRIP
360
691
  0
DICTIONARY
  5
688
330
39
100
AcDbDictionary
280
     1
281
     1
  3
ACAD_XREC_ROUNDTRIP
360
689
  0
DICTIONARY
  5
66C
330
2B
100
AcDbDictionary
280
     1
281
     1
  3
ACAD_XREC_ROUNDTRIP
360
66D
  0
DICTIONARY
  5
66E
330
2C
100
AcDbDictionary
280
     1
281
     1
  3
ACAD_XREC_ROUNDTRIP
360
66F
  0
DICTIONARY
  5
670
330
2D
100
AcDbDictionary
280
     1
281
     1
  3
ACAD_XREC_ROUNDTRIP
360
671
  0
DICTIONARY
  5
672
330
2E
100
AcDbDictionary
280
     1
281
     1
  3
ACAD_XREC_ROUNDTRIP
360
673
  0
DICTIONARY
  5
678
330
31
100
AcDbDictionary
280
     1
281
     1
  3
ACAD_XREC_ROUNDTRIP
360
679
  0
DICTIONARY
  5
68C
330
3B
100
AcDbDictionary
280
     1
281
     1
  3
ACAD_XREC_ROUNDTRIP
360
68D
  0
DICTIONARY
  5
686
330
38
100
AcDbDictionary
280
     1
281
     1
  3
ACAD_XREC_ROUNDTRIP
360
687
  0
DICTIONARY
  5
68E
330
3C
100
AcDbDictionary
280
     1
281
     1
  3
ACAD_XREC_ROUNDTRIP
360
68F
  0
DICTIONARY
  5
67C
330
33
100
AcDbDictionary
280
     1
281
     1
  3
ACAD_XREC_ROUNDTRIP
360
67D
  0
DICTIONARY
  5
69A
330
42
100
AcDbDictionary
280
     1
281
     1
  3
ACAD_XREC_ROUNDTRIP
360
69B
  0
DICTIONARY
  5
698
330
41
100
AcDbDictionary
280
     1
281
     1
  3
ACAD_XREC_ROUNDTRIP
360
699
  0
DICTIONARY
  5
692
330
3E
100
AcDbDictionary
280
     1
281
     1
  3
ACAD_XREC_ROUNDTRIP
360
693
  0
DICTIONARY
  5
694
330
3F
100
AcDbDictionary
280
     1
281
     1
  3
ACAD_XREC_ROUNDTRIP
360
695
  0
DICTIONARY
  5
684
330
37
100
AcDbDictionary
280
     1
281
     1
  3
ACAD_XREC_ROUNDTRIP
360
685
  0
DICTIONARY
  5
676
330
30
100
AcDbDictionary
280
     1
281
     1
  3
ACAD_XREC_ROUNDTRIP
360
677
  0
DICTIONARY
  5
696
330
40
100
AcDbDictionary
280
     1
281
     1
  3
ACAD_XREC_ROUNDTRIP
360
697
  0
XRECORD
  5
69F
102
{ACAD_REACTORS
330
69E
102
}
330
69E
100
AcDbXrecord
280
     1
102
DISPLAYNAME
  1
Metric50
102
FLAGS
 90
        0
  0
XRECORD
  5
190
102
{ACAD_REACTORS
330
18F
102
}
330
18F
100
AcDbXrecord
280
     1
102
MATERIAL
148
0.0
149
0.0
149
0.0
 93
        0
 94
      127
282
     0
 72
     1
 77
     1
171
     1
175
     1
179
     1
273
     0
  0
XRECORD
  5
18E
102
{ACAD_REACTORS
330
18D
102
}
330
18D
100
AcDbXrecord
280
     1
102
MATERIAL
148
0.0
149
0.0
149
0.0
 93
        0
 94
      127
282
     0
 72
     1
 77
     1
171
     1
175
     1
179
     1
273
     0
  0
XRECORD
  5
192
102
{ACAD_REACTORS
330
191
102
}
330
191
100
AcDbXrecord
280
     1
102
MATERIAL
148
0.0
149
0.0
149
0.0
 93
        0
 94
      127
282
     0
 72
     1
 77
     1
171
     1
175
     1
179
     1
273
     0
  0
XRECORD
  5
69D
102
{ACAD_REACTORS
330
69C
102
}
330
69C
100
AcDbXrecord
280
     1
102
DISPLAYNAME
  1
Metric50
102
FLAGS
 90
        0
  0
CELLSTYLEMAP
  5
66A
102
{ACAD_REACTORS
330
3A5
102
}
330
3A5
100
AcDbCellStyleMap
 90
        3
300
CELLSTYLE
  1
TABLEFORMAT_BEGIN
 90
        5
170
     1
 91
        0
 92
    32768
 62
   257
 93
        1
300
CONTENTFORMAT
  1
CONTENTFORMAT_BEGIN
 90
        0
 91
        0
 92
        4
 93
        0
300

 40
0.0
140
1.0
 94
        5
 62
     0
340
11
144
6.0
309
CONTENTFORMAT_END
171
     1
301
MARGIN
  1
CELLMARGIN_BEGIN
 40
1.5
 40
1.5
 40
1.5
 40
1.5
 40
0.18
 40
0.18
309
CELLMARGIN_END
 94
        6
 95
        1
302
GRIDFORMAT
  1
GRIDFORMAT_BEGIN
 90
        0
 91
        1
 62
     0
 92
       -2
340
0
 93
        0
 40
0.045
309
GRIDFORMAT_END
 95
        2
302
GRIDFORMAT
  1
GRIDFORMAT_BEGIN
 90
        0
 91
        1
 62
     0
 92
       -2
340
0
 93
        0
 40
0.045
309
GRIDFORMAT_END
 95
        4
302
GRIDFORMAT
  1
GRIDFORMAT_BEGIN
 90
        0
 91
        1
 62
     0
 92
       -2
340
0
 93
        0
 40
0.045
309
GRIDFORMAT_END
 95
        8
302
GRIDFORMAT
  1
GRIDFORMAT_BEGIN
 90
        0
 91
        1
 62
     0
 92
       -2
340
0
 93
        0
 40
0.045
309
GRIDFORMAT_END
 95
       16
302
GRIDFORMAT
  1
GRIDFORMAT_BEGIN
 90
        0
 91
        1
 62
     0
 92
       -2
340
0
 93
        0
 40
0.045
309
GRIDFORMAT_END
 95
       32
302
GRIDFORMAT
  1
GRIDFORMAT_BEGIN
 90
        0
 91
        1
 62
     0
 92
       -2
340
0
 93
        0
 40
0.045
309
GRIDFORMAT_END
309
TABLEFORMAT_END
  1
CELLSTYLE_BEGIN
 90
        1
 91
        1
300
_TITLE
309
CELLSTYLE_END
300
CELLSTYLE
  1
TABLEFORMAT_BEGIN
 90
        5
170
     1
 91
        0
 92
        0
 62
   257
 93
        1
300
CONTENTFORMAT
  1
CONTENTFORMAT_BEGIN
 90
        0
 91
        0
 92
        4
 93
        0
300

 40
0.0
140
1.0
 94
        5
 62
     0
340
11
144
4.5
309
CONTENTFORMAT_END
171
     1
301
MARGIN
  1
CELLMARGIN_BEGIN
 40
1.5
 40
1.5
 40
1.5
 40
1.5
 40
0.18
 40
0.18
309
CELLMARGIN_END
 94
        6
 95
        1
302
GRIDFORMAT
  1
GRIDFORMAT_BEGIN
 90
        0
 91
        1
 62
     0
 92
       -2
340
0
 93
        0
 40
0.045
309
GRIDFORMAT_END
 95
        2
302
GRIDFORMAT
  1
GRIDFORMAT_BEGIN
 90
        0
 91
        1
 62
     0
 92
       -2
340
0
 93
        0
 40
0.045
309
GRIDFORMAT_END
 95
        4
302
GRIDFORMAT
  1
GRIDFORMAT_BEGIN
 90
        0
 91
        1
 62
     0
 92
       -2
340
0
 93
        0
 40
0.045
309
GRIDFORMAT_END
 95
        8
302
GRIDFORMAT
  1
GRIDFORMAT_BEGIN
 90
        0
 91
        1
 62
     0
 92
       -2
340
0
 93
        0
 40
0.045
309
GRIDFORMAT_END
 95
       16
302
GRIDFORMAT
  1
GRIDFORMAT_BEGIN
 90
        0
 91
        1
 62
     0
 92
       -2
340
0
 93
        0
 40
0.045
309
GRIDFORMAT_END
 95
       32
302
GRIDFORMAT
  1
GRIDFORMAT_BEGIN
 90
        0
 91
        1
 62
     0
 92
       -2
340
0
 93
        0
 40
0.045
309
GRIDFORMAT_END
309
TABLEFORMAT_END
  1
CELLSTYLE_BEGIN
 90
        2
 91
        1
300
_HEADER
309
CELLSTYLE_END
300
CELLSTYLE
  1
TABLEFORMAT_BEGIN
 90
        5
170
     1
 91
        0
 92
        0
 62
   257
 93
        1
300
CONTENTFORMAT
  1
CONTENTFORMAT_BEGIN
 90
        0
 91
        0
 92
        4
 93
        0
300

 40
0.0
140
1.0
 94
        2
 62
     0
340
11
144
4.5
309
CONTENTFORMAT_END
171
     1
301
MARGIN
  1
CELLMARGIN_BEGIN
 40
1.5
 40
1.5
 40
1.5
 40
1.5
 40
0.18
 40
0.18
309
CELLMARGIN_END
 94
        6
 95
        1
302
GRIDFORMAT
  1
GRIDFORMAT_BEGIN
 90
        0
 91
        1
 62
     0
 92
       -2
340
0
 93
        0
 40
0.045
309
GRIDFORMAT_END
 95
        2
302
GRIDFORMAT
  1
GRIDFORMAT_BEGIN
 90
        0
 91
        1
 62
     0
 92
       -2
340
0
 93
        0
 40
0.045
309
GRIDFORMAT_END
 95
        4
302
GRIDFORMAT
  1
GRIDFORMAT_BEGIN
 90
        0
 91
        1
 62
     0
 92
       -2
340
0
 93
        0
 40
0.045
309
GRIDFORMAT_END
 95
        8
302
GRIDFORMAT
  1
GRIDFORMAT_BEGIN
 90
        0
 91
        1
 62
     0
 92
       -2
340
0
 93
        0
 40
0.045
309
GRIDFORMAT_END
 95
       16
302
GRIDFORMAT
  1
GRIDFORMAT_BEGIN
 90
        0
 91
        1
 62
     0
 92
       -2
340
0
 93
        0
 40
0.045
309
GRIDFORMAT_END
 95
       32
302
GRIDFORMAT
  1
GRIDFORMAT_BEGIN
 90
        0
 91
        1
 62
     0
 92
       -2
340
0
 93
        0
 40
0.045
309
GRIDFORMAT_END
309
TABLEFORMAT_END
  1
CELLSTYLE_BEGIN
 90
        3
 91
        2
300
_DATA
309
CELLSTYLE_END
  0
XRECORD
  5
675
102
{ACAD_REACTORS
330
674
102
}
330
674
100
AcDbXrecord
280
     1
102
RTVSPost2010Prop28
280
     1
102
RTVSPost2010PropOp28
 70
     1
102
RTVSPost2010Prop29
280
     1
102
RTVSPost2010PropOp29
 70
     1
102
RTVSPost2010Prop30
280
     0
102
RTVSPost2010PropOp30
 70
     1
102
RTVSPost2010Prop31
280
     0
102
RTVSPost2010PropOp31
 70
     1
102
RTVSPost2010Prop32
280
     0
102
RTVSPost2010PropOp32
 70
     1
102
RTVSPost2010Prop33
280
     0
102
RTVSPost2010PropOp33
 70
     1
102
RTVSPost2010Prop34
280
     0
102
RTVSPost2010PropOp34
 70
     1
102
RTVSPost2010Prop35
280
     0
102
RTVSPost2010PropOp35
 70
     1
102
RTVSPost2010Prop36
280
     0
102
RTVSPost2010PropOp36
 70
     1
102
RTVSPost2010Prop37
 90
       50
102
RTVSPost2010PropOp37
 70
     1
102
RTVSPost2010Prop38
140
0.0
102
RTVSPost2010PropOp38
 70
     1
102
RTVSPost2010Prop39
140
1.0
102
RTVSPost2010PropOp39
 70
     1
102
RTVSPost2010Prop40
 90
        0
102
RTVSPost2010PropOp40
 70
     1
102
RTVSPost2010Prop41ColorIndex
 90
       18
102
RTVSPost2010Prop41ColorRGB
 90
        0
102
RTVSPost2010PropOp41
 70
     1
102
RTVSPost2010Prop42
 90
       50
102
RTVSPost2010PropOp42
 70
     1
102
RTVSPost2010Prop43
 90
        3
102
RTVSPost2010PropOp43
 70
     1
102
RTVSPost2010Prop44ColorIndex
 90
        5
102
RTVSPost2010Prop44ColorRGB
 90
      255
102
RTVSPost2010PropOp44
 70
     1
102
RTVSPost2010Prop45
280
     0
102
RTVSPost2010PropOp45
 70
     1
102
RTVSPost2010Prop46
 90
       50
102
RTVSPost2010PropOp46
 70
     1
102
RTVSPost2010Prop47
 90
       50
102
RTVSPost2010PropOp47
 70
     1
102
RTVSPost2010Prop48
 90
       50
102
RTVSPost2010PropOp48
 70
     1
102
RTVSPost2010Prop49
280
     0
102
RTVSPost2010PropOp49
 70
     1
102
RTVSPost2010Prop50
 90
       50
102
RTVSPost2010PropOp50
 70
     1
102
RTVSPost2010Prop51ColorIndex
 90
      256
102
RTVSPost2010Prop51ColorRGB
 90
-16777216
102
RTVSPost2010PropOp51
 70
     0
102
RTVSPost2010Prop52
140
1.0
102
RTVSPost2010PropOp52
 70
     0
102
RTVSPost2010Prop53
 90
        2
102
RTVSPost2010PropOp53
 70
     1
102
RTVSPost2010Prop54
  1
strokes_ogs.tif
102
RTVSPost2010PropOp54
 70
     1
102
RTVSPost2010Prop55
280
     0
102
RTVSPost2010PropOp55
 70
     1
102
RTVSPost2010Prop56
140
1.0
102
RTVSPost2010PropOp56
 70
     1
102
RTVSPost2010Prop57
140
1.0
102
RTVSPost2010PropOp57
 70
     1
  0
XRECORD
  5
67B
102
{ACAD_REACTORS
330
67A
102
}
330
67A
100
AcDbXrecord
280
     1
102
RTVSPost2010Prop28
280
     0
102
RTVSPost2010PropOp28
 70
     1
102
RTVSPost2010Prop29
280
     1
102
RTVSPost2010PropOp29
 70
     1
102
RTVSPost2010Prop30
280
     1
102
RTVSPost2010PropOp30
 70
     1
102
RTVSPost2010Prop31
280
     0
102
RTVSPost2010PropOp31
 70
     1
102
RTVSPost2010Prop32
280
     0
102
RTVSPost2010PropOp32
 70
     1
102
RTVSPost2010Prop33
280
     0
102
RTVSPost2010PropOp33
 70
     1
102
RTVSPost2010Prop34
280
     0
102
RTVSPost2010PropOp34
 70
     1
102
RTVSPost2010Prop35
280
     0
102
RTVSPost2010PropOp35
 70
     1
102
RTVSPost2010Prop36
280
     0
102
RTVSPost2010PropOp36
 70
     1
102
RTVSPost2010Prop37
 90
       50
102
RTVSPost2010PropOp37
 70
     1
102
RTVSPost2010Prop38
140
0.0
102
RTVSPost2010PropOp38
 70
     1
102
RTVSPost2010Prop39
140
1.0
102
RTVSPost2010PropOp39
 70
     1
102
RTVSPost2010Prop40
 90
        0
102
RTVSPost2010PropOp40
 70
     1
102
RTVSPost2010Prop41ColorIndex
 90
       18
102
RTVSPost2010Prop41ColorRGB
 90
        0
102
RTVSPost2010PropOp41
 70
     1
102
RTVSPost2010Prop42
 90
       50
102
RTVSPost2010PropOp42
 70
     1
102
RTVSPost2010Prop43
 90
        3
102
RTVSPost2010PropOp43
 70
     1
102
RTVSPost2010Prop44ColorIndex
 90
        5
102
RTVSPost2010Prop44ColorRGB
 90
      255
102
RTVSPost2010PropOp44
 70
     1
102
RTVSPost2010Prop45
280
     0
102
RTVSPost2010PropOp45
 70
     1
102
RTVSPost2010Prop46
 90
       50
102
RTVSPost2010PropOp46
 70
     1
102
RTVSPost2010Prop47
 90
       50
102
RTVSPost2010PropOp47
 70
     1
102
RTVSPost2010Prop48
 90
       50
102
RTVSPost2010PropOp48
 70
     1
102
RTVSPost2010Prop49
280
     0
102
RTVSPost2010PropOp49
 70
     1
102
RTVSPost2010Prop50
 90
       50
102
RTVSPost2010PropOp50
 70
     1
102
RTVSPost2010Prop51ColorIndex
 90
      256
102
RTVSPost2010Prop51ColorRGB
 90
-16777216
102
RTVSPost2010PropOp51
 70
     0
102
RTVSPost2010Prop52
140
1.0
102
RTVSPost2010PropOp52
 70
     0
102
RTVSPost2010Prop53
 90
        2
102
RTVSPost2010PropOp53
 70
     1
102
RTVSPost2010Prop54
  1
strokes_ogs.tif
102
RTVSPost2010PropOp54
 70
     1
102
RTVSPost2010Prop55
280
     0
102
RTVSPost2010PropOp55
 70
     1
102
RTVSPost2010Prop56
140
1.0
102
RTVSPost2010PropOp56
 70
     1
102
RTVSPost2010Prop57
140
1.0
102
RTVSPost2010PropOp57
 70
     1
  0
XRECORD
  5
683
102
{ACAD_REACTORS
330
682
102
}
330
682
100
AcDbXrecord
280
     1
102
RTVSPost2010Prop28
280
     0
102
RTVSPost2010PropOp28
 70
     1
102
RTVSPost2010Prop29
280
     1
102
RTVSPost2010PropOp29
 70
     1
102
RTVSPost2010Prop30
280
     1
102
RTVSPost2010PropOp30
 70
     1
102
RTVSPost2010Prop31
280
     0
102
RTVSPost2010PropOp31
 70
     1
102
RTVSPost2010Prop32
280
     0
102
RTVSPost2010PropOp32
 70
     1
102
RTVSPost2010Prop33
280
     0
102
RTVSPost2010PropOp33
 70
     1
102
RTVSPost2010Prop34
280
     0
102
RTVSPost2010PropOp34
 70
     1
102
RTVSPost2010Prop35
280
     0
102
RTVSPost2010PropOp35
 70
     1
102
RTVSPost2010Prop36
280
     0
102
RTVSPost2010PropOp36
 70
     1
102
RTVSPost2010Prop37
 90
       50
102
RTVSPost2010PropOp37
 70
     1
102
RTVSPost2010Prop38
140
0.0
102
RTVSPost2010PropOp38
 70
     1
102
RTVSPost2010Prop39
140
1.0
102
RTVSPost2010PropOp39
 70
     1
102
RTVSPost2010Prop40
 90
        0
102
RTVSPost2010PropOp40
 70
     1
102
RTVSPost2010Prop41ColorIndex
 90
       18
102
RTVSPost2010Prop41ColorRGB
 90
        0
102
RTVSPost2010PropOp41
 70
     1
102
RTVSPost2010Prop42
 90
       50
102
RTVSPost2010PropOp42
 70
     1
102
RTVSPost2010Prop43
 90
        3
102
RTVSPost2010PropOp43
 70
     1
102
RTVSPost2010Prop44ColorIndex
 90
        5
102
RTVSPost2010Prop44ColorRGB
 90
      255
102
RTVSPost2010PropOp44
 70
     1
102
RTVSPost2010Prop45
280
     0
102
RTVSPost2010PropOp45
 70
     1
102
RTVSPost2010Prop46
 90
       50
102
RTVSPost2010PropOp46
 70
     1
102
RTVSPost2010Prop47
 90
       50
102
RTVSPost2010PropOp47
 70
     1
102
RTVSPost2010Prop48
 90
       50
102
RTVSPost2010PropOp48
 70
     1
102
RTVSPost2010Prop49
280
     0
102
RTVSPost2010PropOp49
 70
     1
102
RTVSPost2010Prop50
 90
       50
102
RTVSPost2010PropOp50
 70
     1
102
RTVSPost2010Prop51ColorIndex
 90
      256
102
RTVSPost2010Prop51ColorRGB
 90
-16777216
102
RTVSPost2010PropOp51
 70
     0
102
RTVSPost2010Prop52
140
1.0
102
RTVSPost2010PropOp52
 70
     0
102
RTVSPost2010Prop53
 90
        2
102
RTVSPost2010PropOp53
 70
     1
102
RTVSPost2010Prop54
  1
strokes_ogs.tif
102
RTVSPost2010PropOp54
 70
     1
102
RTVSPost2010Prop55
280
     0
102
RTVSPost2010PropOp55
 70
     1
102
RTVSPost2010Prop56
140
1.0
102
RTVSPost2010PropOp56
 70
     1
102
RTVSPost2010Prop57
140
1.0
102
RTVSPost2010PropOp57
 70
     1
  0
XRECORD
  5
68B
102
{ACAD_REACTORS
330
68A
102
}
330
68A
100
AcDbXrecord
280
     1
102
RTVSPost2010Prop28
280
     0
102
RTVSPost2010PropOp28
 70
     1
102
RTVSPost2010Prop29
280
     1
102
RTVSPost2010PropOp29
 70
     1
102
RTVSPost2010Prop30
280
     1
102
RTVSPost2010PropOp30
 70
     1
102
RTVSPost2010Prop31
280
     0
102
RTVSPost2010PropOp31
 70
     1
102
RTVSPost2010Prop32
280
     0
102
RTVSPost2010PropOp32
 70
     1
102
RTVSPost2010Prop33
280
     0
102
RTVSPost2010PropOp33
 70
     1
102
RTVSPost2010Prop34
280
     0
102
RTVSPost2010PropOp34
 70
     1
102
RTVSPost2010Prop35
280
     0
102
RTVSPost2010PropOp35
 70
     1
102
RTVSPost2010Prop36
280
     0
102
RTVSPost2010PropOp36
 70
     1
102
RTVSPost2010Prop37
 90
       50
102
RTVSPost2010PropOp37
 70
     1
102
RTVSPost2010Prop38
140
0.0
102
RTVSPost2010PropOp38
 70
     1
102
RTVSPost2010Prop39
140
1.0
102
RTVSPost2010PropOp39
 70
     1
102
RTVSPost2010Prop40
 90
        0
102
RTVSPost2010PropOp40
 70
     1
102
RTVSPost2010Prop41ColorIndex
 90
       18
102
RTVSPost2010Prop41ColorRGB
 90
        0
102
RTVSPost2010PropOp41
 70
     1
102
RTVSPost2010Prop42
 90
       50
102
RTVSPost2010PropOp42
 70
     1
102
RTVSPost2010Prop43
 90
        3
102
RTVSPost2010PropOp43
 70
     1
102
RTVSPost2010Prop44ColorIndex
 90
        5
102
RTVSPost2010Prop44ColorRGB
 90
      255
102
RTVSPost2010PropOp44
 70
     1
102
RTVSPost2010Prop45
280
     0
102
RTVSPost2010PropOp45
 70
     1
102
RTVSPost2010Prop46
 90
       50
102
RTVSPost2010PropOp46
 70
     1
102
RTVSPost2010Prop47
 90
       50
102
RTVSPost2010PropOp47
 70
     1
102
RTVSPost2010Prop48
 90
       50
102
RTVSPost2010PropOp48
 70
     1
102
RTVSPost2010Prop49
280
     0
102
RTVSPost2010PropOp49
 70
     1
102
RTVSPost2010Prop50
 90
       50
102
RTVSPost2010PropOp50
 70
     1
102
RTVSPost2010Prop51ColorIndex
 90
      256
102
RTVSPost2010Prop51ColorRGB
 90
-16777216
102
RTVSPost2010PropOp51
 70
     0
102
RTVSPost2010Prop52
140
1.0
102
RTVSPost2010PropOp52
 70
     0
102
RTVSPost2010Prop53
 90
        2
102
RTVSPost2010PropOp53
 70
     1
102
RTVSPost2010Prop54
  1
strokes_ogs.tif
102
RTVSPost2010PropOp54
 70
     1
102
RTVSPost2010Prop55
280
     0
102
RTVSPost2010PropOp55
 70
     1
102
RTVSPost2010Prop56
140
1.0
102
RTVSPost2010PropOp56
 70
     1
102
RTVSPost2010Prop57
140
1.0
102
RTVSPost2010PropOp57
 70
     1
  0
XRECORD
  5
67F
102
{ACAD_REACTORS
330
67E
102
}
330
67E
100
AcDbXrecord
280
     1
102
RTVSPost2010Prop28
280
     0
102
RTVSPost2010PropOp28
 70
     1
102
RTVSPost2010Prop29
280
     1
102
RTVSPost2010PropOp29
 70
     1
102
RTVSPost2010Prop30
280
     1
102
RTVSPost2010PropOp30
 70
     1
102
RTVSPost2010Prop31
280
     0
102
RTVSPost2010PropOp31
 70
     1
102
RTVSPost2010Prop32
280
     0
102
RTVSPost2010PropOp32
 70
     1
102
RTVSPost2010Prop33
280
     0
102
RTVSPost2010PropOp33
 70
     1
102
RTVSPost2010Prop34
280
     0
102
RTVSPost2010PropOp34
 70
     1
102
RTVSPost2010Prop35
280
     0
102
RTVSPost2010PropOp35
 70
     1
102
RTVSPost2010Prop36
280
     0
102
RTVSPost2010PropOp36
 70
     1
102
RTVSPost2010Prop37
 90
       50
102
RTVSPost2010PropOp37
 70
     1
102
RTVSPost2010Prop38
140
0.0
102
RTVSPost2010PropOp38
 70
     1
102
RTVSPost2010Prop39
140
1.0
102
RTVSPost2010PropOp39
 70
     1
102
RTVSPost2010Prop40
 90
        0
102
RTVSPost2010PropOp40
 70
     1
102
RTVSPost2010Prop41ColorIndex
 90
       18
102
RTVSPost2010Prop41ColorRGB
 90
        0
102
RTVSPost2010PropOp41
 70
     1
102
RTVSPost2010Prop42
 90
       50
102
RTVSPost2010PropOp42
 70
     1
102
RTVSPost2010Prop43
 90
        3
102
RTVSPost2010PropOp43
 70
     1
102
RTVSPost2010Prop44ColorIndex
 90
        5
102
RTVSPost2010Prop44ColorRGB
 90
      255
102
RTVSPost2010PropOp44
 70
     1
102
RTVSPost2010Prop45
280
     0
102
RTVSPost2010PropOp45
 70
     1
102
RTVSPost2010Prop46
 90
       50
102
RTVSPost2010PropOp46
 70
     1
102
RTVSPost2010Prop47
 90
       50
102
RTVSPost2010PropOp47
 70
     1
102
RTVSPost2010Prop48
 90
       50
102
RTVSPost2010PropOp48
 70
     1
102
RTVSPost2010Prop49
280
     0
102
RTVSPost2010PropOp49
 70
     1
102
RTVSPost2010Prop50
 90
       50
102
RTVSPost2010PropOp50
 70
     1
102
RTVSPost2010Prop51ColorIndex
 90
      256
102
RTVSPost2010Prop51ColorRGB
 90
-16777216
102
RTVSPost2010PropOp51
 70
     0
102
RTVSPost2010Prop52
140
1.0
102
RTVSPost2010PropOp52
 70
     0
102
RTVSPost2010Prop53
 90
        2
102
RTVSPost2010PropOp53
 70
     1
102
RTVSPost2010Prop54
  1
strokes_ogs.tif
102
RTVSPost2010PropOp54
 70
     1
102
RTVSPost2010Prop55
280
     0
102
RTVSPost2010PropOp55
 70
     1
102
RTVSPost2010Prop56
140
1.0
102
RTVSPost2010PropOp56
 70
     1
102
RTVSPost2010Prop57
140
1.0
102
RTVSPost2010PropOp57
 70
     1
  0
XRECORD
  5
681
102
{ACAD_REACTORS
330
680
102
}
330
680
100
AcDbXrecord
280
     1
102
RTVSPost2010Prop28
280
     0
102
RTVSPost2010PropOp28
 70
     1
102
RTVSPost2010Prop29
280
     1
102
RTVSPost2010PropOp29
 70
     1
102
RTVSPost2010Prop30
280
     1
102
RTVSPost2010PropOp30
 70
     1
102
RTVSPost2010Prop31
280
     0
102
RTVSPost2010PropOp31
 70
     1
102
RTVSPost2010Prop32
280
     0
102
RTVSPost2010PropOp32
 70
     1
102
RTVSPost2010Prop33
280
     0
102
RTVSPost2010PropOp33
 70
     1
102
RTVSPost2010Prop34
280
     0
102
RTVSPost2010PropOp34
 70
     1
102
RTVSPost2010Prop35
280
     0
102
RTVSPost2010PropOp35
 70
     1
102
RTVSPost2010Prop36
280
     0
102
RTVSPost2010PropOp36
 70
     1
102
RTVSPost2010Prop37
 90
       50
102
RTVSPost2010PropOp37
 70
     1
102
RTVSPost2010Prop38
140
0.0
102
RTVSPost2010PropOp38
 70
     1
102
RTVSPost2010Prop39
140
1.0
102
RTVSPost2010PropOp39
 70
     1
102
RTVSPost2010Prop40
 90
        0
102
RTVSPost2010PropOp40
 70
     1
102
RTVSPost2010Prop41ColorIndex
 90
       18
102
RTVSPost2010Prop41ColorRGB
 90
        0
102
RTVSPost2010PropOp41
 70
     1
102
RTVSPost2010Prop42
 90
       50
102
RTVSPost2010PropOp42
 70
     1
102
RTVSPost2010Prop43
 90
        3
102
RTVSPost2010PropOp43
 70
     1
102
RTVSPost2010Prop44ColorIndex
 90
        5
102
RTVSPost2010Prop44ColorRGB
 90
      255
102
RTVSPost2010PropOp44
 70
     1
102
RTVSPost2010Prop45
280
     0
102
RTVSPost2010PropOp45
 70
     1
102
RTVSPost2010Prop46
 90
       50
102
RTVSPost2010PropOp46
 70
     1
102
RTVSPost2010Prop47
 90
       50
102
RTVSPost2010PropOp47
 70
     1
102
RTVSPost2010Prop48
 90
       50
102
RTVSPost2010PropOp48
 70
     1
102
RTVSPost2010Prop49
280
     0
102
RTVSPost2010PropOp49
 70
     1
102
RTVSPost2010Prop50
 90
       50
102
RTVSPost2010PropOp50
 70
     1
102
RTVSPost2010Prop51ColorIndex
 90
      256
102
RTVSPost2010Prop51ColorRGB
 90
-16777216
102
RTVSPost2010PropOp51
 70
     0
102
RTVSPost2010Prop52
140
1.0
102
RTVSPost2010PropOp52
 70
     0
102
RTVSPost2010Prop53
 90
        2
102
RTVSPost2010PropOp53
 70
     1
102
RTVSPost2010Prop54
  1
strokes_ogs.tif
102
RTVSPost2010PropOp54
 70
     1
102
RTVSPost2010Prop55
280
     0
102
RTVSPost2010PropOp55
 70
     1
102
RTVSPost2010Prop56
140
1.0
102
RTVSPost2010PropOp56
 70
     1
102
RTVSPost2010Prop57
140
1.0
102
RTVSPost2010PropOp57
 70
     1
  0
XRECORD
  5
691
102
{ACAD_REACTORS
330
690
102
}
330
690
100
AcDbXrecord
280
     1
102
RTVSPost2010Prop28
280
     0
102
RTVSPost2010PropOp28
 70
     0
102
RTVSPost2010Prop29
280
     1
102
RTVSPost2010PropOp29
 70
     0
102
RTVSPost2010Prop30
280
     1
102
RTVSPost2010PropOp30
 70
     0
102
RTVSPost2010Prop31
280
     0
102
RTVSPost2010PropOp31
 70
     0
102
RTVSPost2010Prop32
280
     0
102
RTVSPost2010PropOp32
 70
     0
102
RTVSPost2010Prop33
280
     0
102
RTVSPost2010PropOp33
 70
     0
102
RTVSPost2010Prop34
280
     0
102
RTVSPost2010PropOp34
 70
     0
102
RTVSPost2010Prop35
280
     0
102
RTVSPost2010PropOp35
 70
     0
102
RTVSPost2010Prop36
280
     0
102
RTVSPost2010PropOp36
 70
     0
102
RTVSPost2010Prop37
 90
       50
102
RTVSPost2010PropOp37
 70
     0
102
RTVSPost2010Prop38
140
0.0
102
RTVSPost2010PropOp38
 70
     0
102
RTVSPost2010Prop39
140
1.0
102
RTVSPost2010PropOp39
 70
     0
102
RTVSPost2010Prop40
 90
        0
102
RTVSPost2010PropOp40
 70
     0
102
RTVSPost2010Prop41ColorIndex
 90
       18
102
RTVSPost2010Prop41ColorRGB
 90
        0
102
RTVSPost2010PropOp41
 70
     0
102
RTVSPost2010Prop42
 90
       50
102
RTVSPost2010PropOp42
 70
     0
102
RTVSPost2010Prop43
 90
        3
102
RTVSPost2010PropOp43
 70
     0
102
RTVSPost2010Prop44ColorIndex
 90
        5
102
RTVSPost2010Prop44ColorRGB
 90
      255
102
RTVSPost2010PropOp44
 70
     0
102
RTVSPost2010Prop45
280
     0
102
RTVSPost2010PropOp45
 70
     0
102
RTVSPost2010Prop46
 90
       50
102
RTVSPost2010PropOp46
 70
     0
102
RTVSPost2010Prop47
 90
       50
102
RTVSPost2010PropOp47
 70
     0
102
RTVSPost2010Prop48
 90
       50
102
RTVSPost2010PropOp48
 70
     0
102
RTVSPost2010Prop49
280
     0
102
RTVSPost2010PropOp49
 70
     0
102
RTVSPost2010Prop50
 90
       50
102
RTVSPost2010PropOp50
 70
     0
102
RTVSPost2010Prop51ColorIndex
 90
      256
102
RTVSPost2010Prop51ColorRGB
 90
-16777216
102
RTVSPost2010PropOp51
 70
     0
102
RTVSPost2010Prop52
140
1.0
102
RTVSPost2010PropOp52
 70
     0
102
RTVSPost2010Prop53
 90
        2
102
RTVSPost2010PropOp53
 70
     0
102
RTVSPost2010Prop54
  1
strokes_ogs.tif
102
RTVSPost2010PropOp54
 70
     0
102
RTVSPost2010Prop55
280
     0
102
RTVSPost2010PropOp55
 70
     0
102
RTVSPost2010Prop56
140
1.0
102
RTVSPost2010PropOp56
 70
     0
102
RTVSPost2010Prop57
140
1.0
102
RTVSPost2010PropOp57
 70
     0
  0
XRECORD
  5
689
102
{ACAD_REACTORS
330
688
102
}
330
688
100
AcDbXrecord
280
     1
102
RTVSPost2010Prop28
280
     0
102
RTVSPost2010PropOp28
 70
     1
102
RTVSPost2010Prop29
280
     1
102
RTVSPost2010PropOp29
 70
     1
102
RTVSPost2010Prop30
280
     1
102
RTVSPost2010PropOp30
 70
     1
102
RTVSPost2010Prop31
280
     0
102
RTVSPost2010PropOp31
 70
     1
102
RTVSPost2010Prop32
280
     0
102
RTVSPost2010PropOp32
 70
     1
102
RTVSPost2010Prop33
280
     0
102
RTVSPost2010PropOp33
 70
     1
102
RTVSPost2010Prop34
280
     0
102
RTVSPost2010PropOp34
 70
     1
102
RTVSPost2010Prop35
280
     0
102
RTVSPost2010PropOp35
 70
     1
102
RTVSPost2010Prop36
280
     0
102
RTVSPost2010PropOp36
 70
     1
102
RTVSPost2010Prop37
 90
       50
102
RTVSPost2010PropOp37
 70
     1
102
RTVSPost2010Prop38
140
0.0
102
RTVSPost2010PropOp38
 70
     1
102
RTVSPost2010Prop39
140
1.0
102
RTVSPost2010PropOp39
 70
     1
102
RTVSPost2010Prop40
 90
        0
102
RTVSPost2010PropOp40
 70
     1
102
RTVSPost2010Prop41ColorIndex
 90
       18
102
RTVSPost2010Prop41ColorRGB
 90
        0
102
RTVSPost2010PropOp41
 70
     1
102
RTVSPost2010Prop42
 90
       50
102
RTVSPost2010PropOp42
 70
     1
102
RTVSPost2010Prop43
 90
        3
102
RTVSPost2010PropOp43
 70
     1
102
RTVSPost2010Prop44ColorIndex
 90
        5
102
RTVSPost2010Prop44ColorRGB
 90
      255
102
RTVSPost2010PropOp44
 70
     1
102
RTVSPost2010Prop45
280
     0
102
RTVSPost2010PropOp45
 70
     1
102
RTVSPost2010Prop46
 90
       50
102
RTVSPost2010PropOp46
 70
     1
102
RTVSPost2010Prop47
 90
       50
102
RTVSPost2010PropOp47
 70
     1
102
RTVSPost2010Prop48
 90
       50
102
RTVSPost2010PropOp48
 70
     1
102
RTVSPost2010Prop49
280
     0
102
RTVSPost2010PropOp49
 70
     1
102
RTVSPost2010Prop50
 90
       50
102
RTVSPost2010PropOp50
 70
     1
102
RTVSPost2010Prop51ColorIndex
 90
      256
102
RTVSPost2010Prop51ColorRGB
 90
-16777216
102
RTVSPost2010PropOp51
 70
     0
102
RTVSPost2010Prop52
140
1.0
102
RTVSPost2010PropOp52
 70
     0
102
RTVSPost2010Prop53
 90
        2
102
RTVSPost2010PropOp53
 70
     1
102
RTVSPost2010Prop54
  1
strokes_ogs.tif
102
RTVSPost2010PropOp54
 70
     1
102
RTVSPost2010Prop55
280
     0
102
RTVSPost2010PropOp55
 70
     1
102
RTVSPost2010Prop56
140
1.0
102
RTVSPost2010PropOp56
 70
     1
102
RTVSPost2010Prop57
140
1.0
102
RTVSPost2010PropOp57
 70
     1
  0
XRECORD
  5
66D
102
{ACAD_REACTORS
330
66C
102
}
330
66C
100
AcDbXrecord
280
     1
102
RTVSPost2010Prop28
280
     0
102
RTVSPost2010PropOp28
 70
     1
102
RTVSPost2010Prop29
280
     1
102
RTVSPost2010PropOp29
 70
     1
102
RTVSPost2010Prop30
280
     1
102
RTVSPost2010PropOp30
 70
     1
102
RTVSPost2010Prop31
280
     0
102
RTVSPost2010PropOp31
 70
     1
102
RTVSPost2010Prop32
280
     0
102
RTVSPost2010PropOp32
 70
     1
102
RTVSPost2010Prop33
280
     0
102
RTVSPost2010PropOp33
 70
     1
102
RTVSPost2010Prop34
280
     0
102
RTVSPost2010PropOp34
 70
     1
102
RTVSPost2010Prop35
280
     0
102
RTVSPost2010PropOp35
 70
     1
102
RTVSPost2010Prop36
280
     0
102
RTVSPost2010PropOp36
 70
     1
102
RTVSPost2010Prop37
 90
       50
102
RTVSPost2010PropOp37
 70
     1
102
RTVSPost2010Prop38
140
0.0
102
RTVSPost2010PropOp38
 70
     1
102
RTVSPost2010Prop39
140
1.0
102
RTVSPost2010PropOp39
 70
     1
102
RTVSPost2010Prop40
 90
        0
102
RTVSPost2010PropOp40
 70
     1
102
RTVSPost2010Prop41ColorIndex
 90
       18
102
RTVSPost2010Prop41ColorRGB
 90
        0
102
RTVSPost2010PropOp41
 70
     1
102
RTVSPost2010Prop42
 90
       50
102
RTVSPost2010PropOp42
 70
     1
102
RTVSPost2010Prop43
 90
        3
102
RTVSPost2010PropOp43
 70
     1
102
RTVSPost2010Prop44ColorIndex
 90
        5
102
RTVSPost2010Prop44ColorRGB
 90
      255
102
RTVSPost2010PropOp44
 70
     1
102
RTVSPost2010Prop45
280
     0
102
RTVSPost2010PropOp45
 70
     1
102
RTVSPost2010Prop46
 90
       50
102
RTVSPost2010PropOp46
 70
     1
102
RTVSPost2010Prop47
 90
       50
102
RTVSPost2010PropOp47
 70
     1
102
RTVSPost2010Prop48
 90
       50
102
RTVSPost2010PropOp48
 70
     1
102
RTVSPost2010Prop49
280
     0
102
RTVSPost2010PropOp49
 70
     1
102
RTVSPost2010Prop50
 90
       50
102
RTVSPost2010PropOp50
 70
     1
102
RTVSPost2010Prop51ColorIndex
 90
      256
102
RTVSPost2010Prop51ColorRGB
 90
-16777216
102
RTVSPost2010PropOp51
 70
     0
102
RTVSPost2010Prop52
140
1.0
102
RTVSPost2010PropOp52
 70
     0
102
RTVSPost2010Prop53
 90
        2
102
RTVSPost2010PropOp53
 70
     1
102
RTVSPost2010Prop54
  1
strokes_ogs.tif
102
RTVSPost2010PropOp54
 70
     1
102
RTVSPost2010Prop55
280
     0
102
RTVSPost2010PropOp55
 70
     1
102
RTVSPost2010Prop56
140
1.0
102
RTVSPost2010PropOp56
 70
     1
102
RTVSPost2010Prop57
140
1.0
102
RTVSPost2010PropOp57
 70
     1
  0
XRECORD
  5
66F
102
{ACAD_REACTORS
330
66E
102
}
330
66E
100
AcDbXrecord
280
     1
102
RTVSPost2010Prop28
280
     0
102
RTVSPost2010PropOp28
 70
     1
102
RTVSPost2010Prop29
280
     1
102
RTVSPost2010PropOp29
 70
     1
102
RTVSPost2010Prop30
280
     1
102
RTVSPost2010PropOp30
 70
     1
102
RTVSPost2010Prop31
280
     0
102
RTVSPost2010PropOp31
 70
     1
102
RTVSPost2010Prop32
280
     0
102
RTVSPost2010PropOp32
 70
     1
102
RTVSPost2010Prop33
280
     0
102
RTVSPost2010PropOp33
 70
     1
102
RTVSPost2010Prop34
280
     0
102
RTVSPost2010PropOp34
 70
     1
102
RTVSPost2010Prop35
280
     0
102
RTVSPost2010PropOp35
 70
     1
102
RTVSPost2010Prop36
280
     0
102
RTVSPost2010PropOp36
 70
     1
102
RTVSPost2010Prop37
 90
       50
102
RTVSPost2010PropOp37
 70
     1
102
RTVSPost2010Prop38
140
0.0
102
RTVSPost2010PropOp38
 70
     1
102
RTVSPost2010Prop39
140
1.0
102
RTVSPost2010PropOp39
 70
     1
102
RTVSPost2010Prop40
 90
        0
102
RTVSPost2010PropOp40
 70
     1
102
RTVSPost2010Prop41ColorIndex
 90
       18
102
RTVSPost2010Prop41ColorRGB
 90
        0
102
RTVSPost2010PropOp41
 70
     1
102
RTVSPost2010Prop42
 90
       50
102
RTVSPost2010PropOp42
 70
     1
102
RTVSPost2010Prop43
 90
        3
102
RTVSPost2010PropOp43
 70
     1
102
RTVSPost2010Prop44ColorIndex
 90
        5
102
RTVSPost2010Prop44ColorRGB
 90
      255
102
RTVSPost2010PropOp44
 70
     1
102
RTVSPost2010Prop45
280
     0
102
RTVSPost2010PropOp45
 70
     1
102
RTVSPost2010Prop46
 90
       50
102
RTVSPost2010PropOp46
 70
     1
102
RTVSPost2010Prop47
 90
       50
102
RTVSPost2010PropOp47
 70
     1
102
RTVSPost2010Prop48
 90
       50
102
RTVSPost2010PropOp48
 70
     1
102
RTVSPost2010Prop49
280
     0
102
RTVSPost2010PropOp49
 70
     1
102
RTVSPost2010Prop50
 90
       50
102
RTVSPost2010PropOp50
 70
     1
102
RTVSPost2010Prop51ColorIndex
 90
      256
102
RTVSPost2010Prop51ColorRGB
 90
-16777216
102
RTVSPost2010PropOp51
 70
     0
102
RTVSPost2010Prop52
140
1.0
102
RTVSPost2010PropOp52
 70
     0
102
RTVSPost2010Prop53
 90
        2
102
RTVSPost2010PropOp53
 70
     1
102
RTVSPost2010Prop54
  1
strokes_ogs.tif
102
RTVSPost2010PropOp54
 70
     1
102
RTVSPost2010Prop55
280
     0
102
RTVSPost2010PropOp55
 70
     1
102
RTVSPost2010Prop56
140
1.0
102
RTVSPost2010PropOp56
 70
     1
102
RTVSPost2010Prop57
140
1.0
102
RTVSPost2010PropOp57
 70
     1
  0
XRECORD
  5
671
102
{ACAD_REACTORS
330
670
102
}
330
670
100
AcDbXrecord
280
     1
102
RTVSPost2010Prop28
280
     0
102
RTVSPost2010PropOp28
 70
     1
102
RTVSPost2010Prop29
280
     1
102
RTVSPost2010PropOp29
 70
     1
102
RTVSPost2010Prop30
280
     1
102
RTVSPost2010PropOp30
 70
     1
102
RTVSPost2010Prop31
280
     0
102
RTVSPost2010PropOp31
 70
     1
102
RTVSPost2010Prop32
280
     0
102
RTVSPost2010PropOp32
 70
     1
102
RTVSPost2010Prop33
280
     0
102
RTVSPost2010PropOp33
 70
     1
102
RTVSPost2010Prop34
280
     0
102
RTVSPost2010PropOp34
 70
     1
102
RTVSPost2010Prop35
280
     0
102
RTVSPost2010PropOp35
 70
     1
102
RTVSPost2010Prop36
280
     0
102
RTVSPost2010PropOp36
 70
     1
102
RTVSPost2010Prop37
 90
       50
102
RTVSPost2010PropOp37
 70
     1
102
RTVSPost2010Prop38
140
0.0
102
RTVSPost2010PropOp38
 70
     1
102
RTVSPost2010Prop39
140
1.0
102
RTVSPost2010PropOp39
 70
     1
102
RTVSPost2010Prop40
 90
        0
102
RTVSPost2010PropOp40
 70
     1
102
RTVSPost2010Prop41ColorIndex
 90
       18
102
RTVSPost2010Prop41ColorRGB
 90
        0
102
RTVSPost2010PropOp41
 70
     1
102
RTVSPost2010Prop42
 90
       50
102
RTVSPost2010PropOp42
 70
     1
102
RTVSPost2010Prop43
 90
        3
102
RTVSPost2010PropOp43
 70
     1
102
RTVSPost2010Prop44ColorIndex
 90
        5
102
RTVSPost2010Prop44ColorRGB
 90
      255
102
RTVSPost2010PropOp44
 70
     1
102
RTVSPost2010Prop45
280
     0
102
RTVSPost2010PropOp45
 70
     1
102
RTVSPost2010Prop46
 90
       50
102
RTVSPost2010PropOp46
 70
     1
102
RTVSPost2010Prop47
 90
       50
102
RTVSPost2010PropOp47
 70
     1
102
RTVSPost2010Prop48
 90
       50
102
RTVSPost2010PropOp48
 70
     1
102
RTVSPost2010Prop49
280
     0
102
RTVSPost2010PropOp49
 70
     1
102
RTVSPost2010Prop50
 90
       50
102
RTVSPost2010PropOp50
 70
     1
102
RTVSPost2010Prop51ColorIndex
 90
      256
102
RTVSPost2010Prop51ColorRGB
 90
-16777216
102
RTVSPost2010PropOp51
 70
     0
102
RTVSPost2010Prop52
140
1.0
102
RTVSPost2010PropOp52
 70
     0
102
RTVSPost2010Prop53
 90
        2
102
RTVSPost2010PropOp53
 70
     1
102
RTVSPost2010Prop54
  1
strokes_ogs.tif
102
RTVSPost2010PropOp54
 70
     1
102
RTVSPost2010Prop55
280
     0
102
RTVSPost2010PropOp55
 70
     1
102
RTVSPost2010Prop56
140
1.0
102
RTVSPost2010PropOp56
 70
     1
102
RTVSPost2010Prop57
140
1.0
102
RTVSPost2010PropOp57
 70
     1
  0
XRECORD
  5
673
102
{ACAD_REACTORS
330
672
102
}
330
672
100
AcDbXrecord
280
     1
102
RTVSPost2010Prop28
280
     0
102
RTVSPost2010PropOp28
 70
     1
102
RTVSPost2010Prop29
280
     1
102
RTVSPost2010PropOp29
 70
     1
102
RTVSPost2010Prop30
280
     1
102
RTVSPost2010PropOp30
 70
     1
102
RTVSPost2010Prop31
280
     0
102
RTVSPost2010PropOp31
 70
     1
102
RTVSPost2010Prop32
280
     0
102
RTVSPost2010PropOp32
 70
     1
102
RTVSPost2010Prop33
280
     0
102
RTVSPost2010PropOp33
 70
     1
102
RTVSPost2010Prop34
280
     0
102
RTVSPost2010PropOp34
 70
     1
102
RTVSPost2010Prop35
280
     0
102
RTVSPost2010PropOp35
 70
     1
102
RTVSPost2010Prop36
280
     0
102
RTVSPost2010PropOp36
 70
     1
102
RTVSPost2010Prop37
 90
       50
102
RTVSPost2010PropOp37
 70
     1
102
RTVSPost2010Prop38
140
0.0
102
RTVSPost2010PropOp38
 70
     1
102
RTVSPost2010Prop39
140
1.0
102
RTVSPost2010PropOp39
 70
     1
102
RTVSPost2010Prop40
 90
        0
102
RTVSPost2010PropOp40
 70
     1
102
RTVSPost2010Prop41ColorIndex
 90
       18
102
RTVSPost2010Prop41ColorRGB
 90
        0
102
RTVSPost2010PropOp41
 70
     1
102
RTVSPost2010Prop42
 90
       50
102
RTVSPost2010PropOp42
 70
     1
102
RTVSPost2010Prop43
 90
        3
102
RTVSPost2010PropOp43
 70
     1
102
RTVSPost2010Prop44ColorIndex
 90
        5
102
RTVSPost2010Prop44ColorRGB
 90
      255
102
RTVSPost2010PropOp44
 70
     1
102
RTVSPost2010Prop45
280
     0
102
RTVSPost2010PropOp45
 70
     1
102
RTVSPost2010Prop46
 90
       50
102
RTVSPost2010PropOp46
 70
     1
102
RTVSPost2010Prop47
 90
       50
102
RTVSPost2010PropOp47
 70
     1
102
RTVSPost2010Prop48
 90
       50
102
RTVSPost2010PropOp48
 70
     1
102
RTVSPost2010Prop49
280
     0
102
RTVSPost2010PropOp49
 70
     1
102
RTVSPost2010Prop50
 90
       50
102
RTVSPost2010PropOp50
 70
     1
102
RTVSPost2010Prop51ColorIndex
 90
      256
102
RTVSPost2010Prop51ColorRGB
 90
-16777216
102
RTVSPost2010PropOp51
 70
     0
102
RTVSPost2010Prop52
140
1.0
102
RTVSPost2010PropOp52
 70
     0
102
RTVSPost2010Prop53
 90
        2
102
RTVSPost2010PropOp53
 70
     1
102
RTVSPost2010Prop54
  1
strokes_ogs.tif
102
RTVSPost2010PropOp54
 70
     1
102
RTVSPost2010Prop55
280
     0
102
RTVSPost2010PropOp55
 70
     1
102
RTVSPost2010Prop56
140
1.0
102
RTVSPost2010PropOp56
 70
     1
102
RTVSPost2010Prop57
140
1.0
102
RTVSPost2010PropOp57
 70
     1
  0
XRECORD
  5
679
102
{ACAD_REACTORS
330
678
102
}
330
678
100
AcDbXrecord
280
     1
102
RTVSPost2010Prop28
280
     0
102
RTVSPost2010PropOp28
 70
     1
102
RTVSPost2010Prop29
280
     1
102
RTVSPost2010PropOp29
 70
     1
102
RTVSPost2010Prop30
280
     1
102
RTVSPost2010PropOp30
 70
     1
102
RTVSPost2010Prop31
280
     0
102
RTVSPost2010PropOp31
 70
     1
102
RTVSPost2010Prop32
280
     0
102
RTVSPost2010PropOp32
 70
     1
102
RTVSPost2010Prop33
280
     0
102
RTVSPost2010PropOp33
 70
     1
102
RTVSPost2010Prop34
280
     0
102
RTVSPost2010PropOp34
 70
     1
102
RTVSPost2010Prop35
280
     0
102
RTVSPost2010PropOp35
 70
     1
102
RTVSPost2010Prop36
280
     0
102
RTVSPost2010PropOp36
 70
     1
102
RTVSPost2010Prop37
 90
       50
102
RTVSPost2010PropOp37
 70
     1
102
RTVSPost2010Prop38
140
0.0
102
RTVSPost2010PropOp38
 70
     1
102
RTVSPost2010Prop39
140
1.0
102
RTVSPost2010PropOp39
 70
     1
102
RTVSPost2010Prop40
 90
        0
102
RTVSPost2010PropOp40
 70
     1
102
RTVSPost2010Prop41ColorIndex
 90
       18
102
RTVSPost2010Prop41ColorRGB
 90
        0
102
RTVSPost2010PropOp41
 70
     1
102
RTVSPost2010Prop42
 90
       50
102
RTVSPost2010PropOp42
 70
     1
102
RTVSPost2010Prop43
 90
        3
102
RTVSPost2010PropOp43
 70
     1
102
RTVSPost2010Prop44ColorIndex
 90
        5
102
RTVSPost2010Prop44ColorRGB
 90
      255
102
RTVSPost2010PropOp44
 70
     1
102
RTVSPost2010Prop45
280
     0
102
RTVSPost2010PropOp45
 70
     1
102
RTVSPost2010Prop46
 90
       50
102
RTVSPost2010PropOp46
 70
     1
102
RTVSPost2010Prop47
 90
       50
102
RTVSPost2010PropOp47
 70
     1
102
RTVSPost2010Prop48
 90
       50
102
RTVSPost2010PropOp48
 70
     1
102
RTVSPost2010Prop49
280
     0
102
RTVSPost2010PropOp49
 70
     1
102
RTVSPost2010Prop50
 90
       50
102
RTVSPost2010PropOp50
 70
     1
102
RTVSPost2010Prop51ColorIndex
 90
      256
102
RTVSPost2010Prop51ColorRGB
 90
-16777216
102
RTVSPost2010PropOp51
 70
     0
102
RTVSPost2010Prop52
140
1.0
102
RTVSPost2010PropOp52
 70
     0
102
RTVSPost2010Prop53
 90
        2
102
RTVSPost2010PropOp53
 70
     1
102
RTVSPost2010Prop54
  1
strokes_ogs.tif
102
RTVSPost2010PropOp54
 70
     1
102
RTVSPost2010Prop55
280
     0
102
RTVSPost2010PropOp55
 70
     1
102
RTVSPost2010Prop56
140
1.0
102
RTVSPost2010PropOp56
 70
     1
102
RTVSPost2010Prop57
140
1.0
102
RTVSPost2010PropOp57
 70
     1
  0
XRECORD
  5
68D
102
{ACAD_REACTORS
330
68C
102
}
330
68C
100
AcDbXrecord
280
     1
102
RTVSPost2010Prop28
280
     0
102
RTVSPost2010PropOp28
 70
     0
102
RTVSPost2010Prop29
280
     1
102
RTVSPost2010PropOp29
 70
     0
102
RTVSPost2010Prop30
280
     1
102
RTVSPost2010PropOp30
 70
     0
102
RTVSPost2010Prop31
280
     0
102
RTVSPost2010PropOp31
 70
     0
102
RTVSPost2010Prop32
280
     0
102
RTVSPost2010PropOp32
 70
     0
102
RTVSPost2010Prop33
280
     0
102
RTVSPost2010PropOp33
 70
     0
102
RTVSPost2010Prop34
280
     0
102
RTVSPost2010PropOp34
 70
     0
102
RTVSPost2010Prop35
280
     0
102
RTVSPost2010PropOp35
 70
     0
102
RTVSPost2010Prop36
280
     0
102
RTVSPost2010PropOp36
 70
     0
102
RTVSPost2010Prop37
 90
       50
102
RTVSPost2010PropOp37
 70
     0
102
RTVSPost2010Prop38
140
0.0
102
RTVSPost2010PropOp38
 70
     0
102
RTVSPost2010Prop39
140
1.0
102
RTVSPost2010PropOp39
 70
     0
102
RTVSPost2010Prop40
 90
        0
102
RTVSPost2010PropOp40
 70
     0
102
RTVSPost2010Prop41ColorIndex
 90
       18
102
RTVSPost2010Prop41ColorRGB
 90
        0
102
RTVSPost2010PropOp41
 70
     0
102
RTVSPost2010Prop42
 90
       50
102
RTVSPost2010PropOp42
 70
     0
102
RTVSPost2010Prop43
 90
        3
102
RTVSPost2010PropOp43
 70
     0
102
RTVSPost2010Prop44ColorIndex
 90
        5
102
RTVSPost2010Prop44ColorRGB
 90
      255
102
RTVSPost2010PropOp44
 70
     0
102
RTVSPost2010Prop45
280
     0
102
RTVSPost2010PropOp45
 70
     0
102
RTVSPost2010Prop46
 90
       50
102
RTVSPost2010PropOp46
 70
     0
102
RTVSPost2010Prop47
 90
       50
102
RTVSPost2010PropOp47
 70
     0
102
RTVSPost2010Prop48
 90
       50
102
RTVSPost2010PropOp48
 70
     0
102
RTVSPost2010Prop49
280
     0
102
RTVSPost2010PropOp49
 70
     0
102
RTVSPost2010Prop50
 90
       50
102
RTVSPost2010PropOp50
 70
     0
102
RTVSPost2010Prop51ColorIndex
 90
      256
102
RTVSPost2010Prop51ColorRGB
 90
-16777216
102
RTVSPost2010PropOp51
 70
     0
102
RTVSPost2010Prop52
140
1.0
102
RTVSPost2010PropOp52
 70
     0
102
RTVSPost2010Prop53
 90
        2
102
RTVSPost2010PropOp53
 70
     0
102
RTVSPost2010Prop54
  1
strokes_ogs.tif
102
RTVSPost2010PropOp54
 70
     0
102
RTVSPost2010Prop55
280
     0
102
RTVSPost2010PropOp55
 70
     0
102
RTVSPost2010Prop56
140
1.0
102
RTVSPost2010PropOp56
 70
     0
102
RTVSPost2010Prop57
140
1.0
102
RTVSPost2010PropOp57
 70
     0
  0
XRECORD
  5
687
102
{ACAD_REACTORS
330
686
102
}
330
686
100
AcDbXrecord
280
     1
102
RTVSPost2010Prop28
280
     0
102
RTVSPost2010PropOp28
 70
     1
102
RTVSPost2010Prop29
280
     1
102
RTVSPost2010PropOp29
 70
     1
102
RTVSPost2010Prop30
280
     1
102
RTVSPost2010PropOp30
 70
     1
102
RTVSPost2010Prop31
280
     0
102
RTVSPost2010PropOp31
 70
     1
102
RTVSPost2010Prop32
280
     0
102
RTVSPost2010PropOp32
 70
     1
102
RTVSPost2010Prop33
280
     0
102
RTVSPost2010PropOp33
 70
     1
102
RTVSPost2010Prop34
280
     0
102
RTVSPost2010PropOp34
 70
     1
102
RTVSPost2010Prop35
280
     0
102
RTVSPost2010PropOp35
 70
     1
102
RTVSPost2010Prop36
280
     0
102
RTVSPost2010PropOp36
 70
     1
102
RTVSPost2010Prop37
 90
       50
102
RTVSPost2010PropOp37
 70
     1
102
RTVSPost2010Prop38
140
0.0
102
RTVSPost2010PropOp38
 70
     1
102
RTVSPost2010Prop39
140
1.0
102
RTVSPost2010PropOp39
 70
     1
102
RTVSPost2010Prop40
 90
        0
102
RTVSPost2010PropOp40
 70
     1
102
RTVSPost2010Prop41ColorIndex
 90
       18
102
RTVSPost2010Prop41ColorRGB
 90
        0
102
RTVSPost2010PropOp41
 70
     1
102
RTVSPost2010Prop42
 90
       50
102
RTVSPost2010PropOp42
 70
     1
102
RTVSPost2010Prop43
 90
        3
102
RTVSPost2010PropOp43
 70
     1
102
RTVSPost2010Prop44ColorIndex
 90
        5
102
RTVSPost2010Prop44ColorRGB
 90
      255
102
RTVSPost2010PropOp44
 70
     1
102
RTVSPost2010Prop45
280
     0
102
RTVSPost2010PropOp45
 70
     1
102
RTVSPost2010Prop46
 90
       50
102
RTVSPost2010PropOp46
 70
     1
102
RTVSPost2010Prop47
 90
       50
102
RTVSPost2010PropOp47
 70
     1
102
RTVSPost2010Prop48
 90
       50
102
RTVSPost2010PropOp48
 70
     1
102
RTVSPost2010Prop49
280
     0
102
RTVSPost2010PropOp49
 70
     1
102
RTVSPost2010Prop50
 90
       50
102
RTVSPost2010PropOp50
 70
     1
102
RTVSPost2010Prop51ColorIndex
 90
      256
102
RTVSPost2010Prop51ColorRGB
 90
-16777216
102
RTVSPost2010PropOp51
 70
     0
102
RTVSPost2010Prop52
140
1.0
102
RTVSPost2010PropOp52
 70
     0
102
RTVSPost2010Prop53
 90
        2
102
RTVSPost2010PropOp53
 70
     1
102
RTVSPost2010Prop54
  1
strokes_ogs.tif
102
RTVSPost2010PropOp54
 70
     1
102
RTVSPost2010Prop55
280
     0
102
RTVSPost2010PropOp55
 70
     1
102
RTVSPost2010Prop56
140
1.0
102
RTVSPost2010PropOp56
 70
     1
102
RTVSPost2010Prop57
140
1.0
102
RTVSPost2010PropOp57
 70
     1
  0
XRECORD
  5
68F
102
{ACAD_REACTORS
330
68E
102
}
330
68E
100
AcDbXrecord
280
     1
102
RTVSPost2010Prop28
280
     0
102
RTVSPost2010PropOp28
 70
     0
102
RTVSPost2010Prop29
280
     1
102
RTVSPost2010PropOp29
 70
     0
102
RTVSPost2010Prop30
280
     1
102
RTVSPost2010PropOp30
 70
     0
102
RTVSPost2010Prop31
280
     0
102
RTVSPost2010PropOp31
 70
     0
102
RTVSPost2010Prop32
280
     0
102
RTVSPost2010PropOp32
 70
     0
102
RTVSPost2010Prop33
280
     0
102
RTVSPost2010PropOp33
 70
     0
102
RTVSPost2010Prop34
280
     0
102
RTVSPost2010PropOp34
 70
     0
102
RTVSPost2010Prop35
280
     0
102
RTVSPost2010PropOp35
 70
     0
102
RTVSPost2010Prop36
280
     0
102
RTVSPost2010PropOp36
 70
     0
102
RTVSPost2010Prop37
 90
       50
102
RTVSPost2010PropOp37
 70
     0
102
RTVSPost2010Prop38
140
0.0
102
RTVSPost2010PropOp38
 70
     0
102
RTVSPost2010Prop39
140
1.0
102
RTVSPost2010PropOp39
 70
     0
102
RTVSPost2010Prop40
 90
        0
102
RTVSPost2010PropOp40
 70
     0
102
RTVSPost2010Prop41ColorIndex
 90
       18
102
RTVSPost2010Prop41ColorRGB
 90
        0
102
RTVSPost2010PropOp41
 70
     0
102
RTVSPost2010Prop42
 90
       50
102
RTVSPost2010PropOp42
 70
     0
102
RTVSPost2010Prop43
 90
        3
102
RTVSPost2010PropOp43
 70
     0
102
RTVSPost2010Prop44ColorIndex
 90
        5
102
RTVSPost2010Prop44ColorRGB
 90
      255
102
RTVSPost2010PropOp44
 70
     0
102
RTVSPost2010Prop45
280
     0
102
RTVSPost2010PropOp45
 70
     0
102
RTVSPost2010Prop46
 90
       50
102
RTVSPost2010PropOp46
 70
     0
102
RTVSPost2010Prop47
 90
       50
102
RTVSPost2010PropOp47
 70
     0
102
RTVSPost2010Prop48
 90
       50
102
RTVSPost2010PropOp48
 70
     0
102
RTVSPost2010Prop49
280
     0
102
RTVSPost2010PropOp49
 70
     0
102
RTVSPost2010Prop50
 90
       50
102
RTVSPost2010PropOp50
 70
     0
102
RTVSPost2010Prop51ColorIndex
 90
      256
102
RTVSPost2010Prop51ColorRGB
 90
-16777216
102
RTVSPost2010PropOp51
 70
     0
102
RTVSPost2010Prop52
140
1.0
102
RTVSPost2010PropOp52
 70
     0
102
RTVSPost2010Prop53
 90
        2
102
RTVSPost2010PropOp53
 70
     0
102
RTVSPost2010Prop54
  1
strokes_ogs.tif
102
RTVSPost2010PropOp54
 70
     0
102
RTVSPost2010Prop55
280
     0
102
RTVSPost2010PropOp55
 70
     0
102
RTVSPost2010Prop56
140
1.0
102
RTVSPost2010PropOp56
 70
     0
102
RTVSPost2010Prop57
140
1.0
102
RTVSPost2010PropOp57
 70
     0
  0
XRECORD
  5
67D
102
{ACAD_REACTORS
330
67C
102
}
330
67C
100
AcDbXrecord
280
     1
102
RTVSPost2010Prop28
280
     0
102
RTVSPost2010PropOp28
 70
     1
102
RTVSPost2010Prop29
280
     1
102
RTVSPost2010PropOp29
 70
     1
102
RTVSPost2010Prop30
280
     1
102
RTVSPost2010PropOp30
 70
     1
102
RTVSPost2010Prop31
280
     0
102
RTVSPost2010PropOp31
 70
     1
102
RTVSPost2010Prop32
280
     0
102
RTVSPost2010PropOp32
 70
     1
102
RTVSPost2010Prop33
280
     0
102
RTVSPost2010PropOp33
 70
     1
102
RTVSPost2010Prop34
280
     0
102
RTVSPost2010PropOp34
 70
     1
102
RTVSPost2010Prop35
280
     0
102
RTVSPost2010PropOp35
 70
     1
102
RTVSPost2010Prop36
280
     0
102
RTVSPost2010PropOp36
 70
     1
102
RTVSPost2010Prop37
 90
       50
102
RTVSPost2010PropOp37
 70
     1
102
RTVSPost2010Prop38
140
0.0
102
RTVSPost2010PropOp38
 70
     1
102
RTVSPost2010Prop39
140
1.0
102
RTVSPost2010PropOp39
 70
     1
102
RTVSPost2010Prop40
 90
        0
102
RTVSPost2010PropOp40
 70
     1
102
RTVSPost2010Prop41ColorIndex
 90
       18
102
RTVSPost2010Prop41ColorRGB
 90
        0
102
RTVSPost2010PropOp41
 70
     1
102
RTVSPost2010Prop42
 90
       50
102
RTVSPost2010PropOp42
 70
     1
102
RTVSPost2010Prop43
 90
        3
102
RTVSPost2010PropOp43
 70
     1
102
RTVSPost2010Prop44ColorIndex
 90
        5
102
RTVSPost2010Prop44ColorRGB
 90
      255
102
RTVSPost2010PropOp44
 70
     1
102
RTVSPost2010Prop45
280
     0
102
RTVSPost2010PropOp45
 70
     1
102
RTVSPost2010Prop46
 90
       50
102
RTVSPost2010PropOp46
 70
     1
102
RTVSPost2010Prop47
 90
       50
102
RTVSPost2010PropOp47
 70
     1
102
RTVSPost2010Prop48
 90
       50
102
RTVSPost2010PropOp48
 70
     1
102
RTVSPost2010Prop49
280
     0
102
RTVSPost2010PropOp49
 70
     1
102
RTVSPost2010Prop50
 90
       50
102
RTVSPost2010PropOp50
 70
     1
102
RTVSPost2010Prop51ColorIndex
 90
      256
102
RTVSPost2010Prop51ColorRGB
 90
-16777216
102
RTVSPost2010PropOp51
 70
     0
102
RTVSPost2010Prop52
140
1.0
102
RTVSPost2010PropOp52
 70
     0
102
RTVSPost2010Prop53
 90
        2
102
RTVSPost2010PropOp53
 70
     1
102
RTVSPost2010Prop54
  1
strokes_ogs.tif
102
RTVSPost2010PropOp54
 70
     1
102
RTVSPost2010Prop55
280
     0
102
RTVSPost2010PropOp55
 70
     1
102
RTVSPost2010Prop56
140
1.0
102
RTVSPost2010PropOp56
 70
     1
102
RTVSPost2010Prop57
140
1.0
102
RTVSPost2010PropOp57
 70
     1
  0
XRECORD
  5
69B
102
{ACAD_REACTORS
330
69A
102
}
330
69A
100
AcDbXrecord
280
     1
102
RTVSPost2010Prop28
280
     0
102
RTVSPost2010PropOp28
 70
     1
102
RTVSPost2010Prop29
280
     1
102
RTVSPost2010PropOp29
 70
     1
102
RTVSPost2010Prop30
280
     1
102
RTVSPost2010PropOp30
 70
     1
102
RTVSPost2010Prop31
280
     0
102
RTVSPost2010PropOp31
 70
     1
102
RTVSPost2010Prop32
280
     0
102
RTVSPost2010PropOp32
 70
     1
102
RTVSPost2010Prop33
280
     0
102
RTVSPost2010PropOp33
 70
     1
102
RTVSPost2010Prop34
280
     0
102
RTVSPost2010PropOp34
 70
     1
102
RTVSPost2010Prop35
280
     0
102
RTVSPost2010PropOp35
 70
     1
102
RTVSPost2010Prop36
280
     0
102
RTVSPost2010PropOp36
 70
     1
102
RTVSPost2010Prop37
 90
       50
102
RTVSPost2010PropOp37
 70
     1
102
RTVSPost2010Prop38
140
0.0
102
RTVSPost2010PropOp38
 70
     1
102
RTVSPost2010Prop39
140
1.0
102
RTVSPost2010PropOp39
 70
     1
102
RTVSPost2010Prop40
 90
        0
102
RTVSPost2010PropOp40
 70
     1
102
RTVSPost2010Prop41ColorIndex
 90
       18
102
RTVSPost2010Prop41ColorRGB
 90
        0
102
RTVSPost2010PropOp41
 70
     1
102
RTVSPost2010Prop42
 90
       50
102
RTVSPost2010PropOp42
 70
     1
102
RTVSPost2010Prop43
 90
        3
102
RTVSPost2010PropOp43
 70
     1
102
RTVSPost2010Prop44ColorIndex
 90
        5
102
RTVSPost2010Prop44ColorRGB
 90
      255
102
RTVSPost2010PropOp44
 70
     1
102
RTVSPost2010Prop45
280
     0
102
RTVSPost2010PropOp45
 70
     1
102
RTVSPost2010Prop46
 90
       50
102
RTVSPost2010PropOp46
 70
     1
102
RTVSPost2010Prop47
 90
       50
102
RTVSPost2010PropOp47
 70
     1
102
RTVSPost2010Prop48
 90
       50
102
RTVSPost2010PropOp48
 70
     1
102
RTVSPost2010Prop49
280
     0
102
RTVSPost2010PropOp49
 70
     1
102
RTVSPost2010Prop50
 90
       50
102
RTVSPost2010PropOp50
 70
     1
102
RTVSPost2010Prop51ColorIndex
 90
      256
102
RTVSPost2010Prop51ColorRGB
 90
-16777216
102
RTVSPost2010PropOp51
 70
     0
102
RTVSPost2010Prop52
140
1.0
102
RTVSPost2010PropOp52
 70
     0
102
RTVSPost2010Prop53
 90
        2
102
RTVSPost2010PropOp53
 70
     1
102
RTVSPost2010Prop54
  1
strokes_ogs.tif
102
RTVSPost2010PropOp54
 70
     1
102
RTVSPost2010Prop55
280
     0
102
RTVSPost2010PropOp55
 70
     1
102
RTVSPost2010Prop56
140
1.0
102
RTVSPost2010PropOp56
 70
     1
102
RTVSPost2010Prop57
140
1.0
102
RTVSPost2010PropOp57
 70
     1
  0
XRECORD
  5
699
102
{ACAD_REACTORS
330
698
102
}
330
698
100
AcDbXrecord
280
     1
102
RTVSPost2010Prop28
280
     0
102
RTVSPost2010PropOp28
 70
     1
102
RTVSPost2010Prop29
280
     1
102
RTVSPost2010PropOp29
 70
     1
102
RTVSPost2010Prop30
280
     1
102
RTVSPost2010PropOp30
 70
     1
102
RTVSPost2010Prop31
280
     0
102
RTVSPost2010PropOp31
 70
     1
102
RTVSPost2010Prop32
280
     0
102
RTVSPost2010PropOp32
 70
     1
102
RTVSPost2010Prop33
280
     0
102
RTVSPost2010PropOp33
 70
     1
102
RTVSPost2010Prop34
280
     0
102
RTVSPost2010PropOp34
 70
     1
102
RTVSPost2010Prop35
280
     0
102
RTVSPost2010PropOp35
 70
     1
102
RTVSPost2010Prop36
280
     0
102
RTVSPost2010PropOp36
 70
     1
102
RTVSPost2010Prop37
 90
       50
102
RTVSPost2010PropOp37
 70
     1
102
RTVSPost2010Prop38
140
0.0
102
RTVSPost2010PropOp38
 70
     1
102
RTVSPost2010Prop39
140
1.0
102
RTVSPost2010PropOp39
 70
     1
102
RTVSPost2010Prop40
 90
        0
102
RTVSPost2010PropOp40
 70
     1
102
RTVSPost2010Prop41ColorIndex
 90
       18
102
RTVSPost2010Prop41ColorRGB
 90
        0
102
RTVSPost2010PropOp41
 70
     1
102
RTVSPost2010Prop42
 90
       50
102
RTVSPost2010PropOp42
 70
     1
102
RTVSPost2010Prop43
 90
        3
102
RTVSPost2010PropOp43
 70
     1
102
RTVSPost2010Prop44ColorIndex
 90
        5
102
RTVSPost2010Prop44ColorRGB
 90
      255
102
RTVSPost2010PropOp44
 70
     1
102
RTVSPost2010Prop45
280
     0
102
RTVSPost2010PropOp45
 70
     1
102
RTVSPost2010Prop46
 90
       50
102
RTVSPost2010PropOp46
 70
     1
102
RTVSPost2010Prop47
 90
       50
102
RTVSPost2010PropOp47
 70
     1
102
RTVSPost2010Prop48
 90
       50
102
RTVSPost2010PropOp48
 70
     1
102
RTVSPost2010Prop49
280
     0
102
RTVSPost2010PropOp49
 70
     1
102
RTVSPost2010Prop50
 90
       50
102
RTVSPost2010PropOp50
 70
     1
102
RTVSPost2010Prop51ColorIndex
 90
      256
102
RTVSPost2010Prop51ColorRGB
 90
-16777216
102
RTVSPost2010PropOp51
 70
     0
102
RTVSPost2010Prop52
140
1.0
102
RTVSPost2010PropOp52
 70
     0
102
RTVSPost2010Prop53
 90
        2
102
RTVSPost2010PropOp53
 70
     1
102
RTVSPost2010Prop54
  1
strokes_ogs.tif
102
RTVSPost2010PropOp54
 70
     1
102
RTVSPost2010Prop55
280
     0
102
RTVSPost2010PropOp55
 70
     1
102
RTVSPost2010Prop56
140
1.0
102
RTVSPost2010PropOp56
 70
     1
102
RTVSPost2010Prop57
140
1.0
102
RTVSPost2010PropOp57
 70
     1
  0
XRECORD
  5
693
102
{ACAD_REACTORS
330
692
102
}
330
692
100
AcDbXrecord
280
     1
102
RTVSPost2010Prop28
280
     0
102
RTVSPost2010PropOp28
 70
     1
102
RTVSPost2010Prop29
280
     1
102
RTVSPost2010PropOp29
 70
     1
102
RTVSPost2010Prop30
280
     1
102
RTVSPost2010PropOp30
 70
     1
102
RTVSPost2010Prop31
280
     0
102
RTVSPost2010PropOp31
 70
     1
102
RTVSPost2010Prop32
280
     0
102
RTVSPost2010PropOp32
 70
     1
102
RTVSPost2010Prop33
280
     0
102
RTVSPost2010PropOp33
 70
     1
102
RTVSPost2010Prop34
280
     0
102
RTVSPost2010PropOp34
 70
     1
102
RTVSPost2010Prop35
280
     0
102
RTVSPost2010PropOp35
 70
     1
102
RTVSPost2010Prop36
280
     0
102
RTVSPost2010PropOp36
 70
     1
102
RTVSPost2010Prop37
 90
       50
102
RTVSPost2010PropOp37
 70
     1
102
RTVSPost2010Prop38
140
0.0
102
RTVSPost2010PropOp38
 70
     1
102
RTVSPost2010Prop39
140
1.0
102
RTVSPost2010PropOp39
 70
     1
102
RTVSPost2010Prop40
 90
        0
102
RTVSPost2010PropOp40
 70
     1
102
RTVSPost2010Prop41ColorIndex
 90
       18
102
RTVSPost2010Prop41ColorRGB
 90
        0
102
RTVSPost2010PropOp41
 70
     1
102
RTVSPost2010Prop42
 90
       50
102
RTVSPost2010PropOp42
 70
     1
102
RTVSPost2010Prop43
 90
        3
102
RTVSPost2010PropOp43
 70
     1
102
RTVSPost2010Prop44ColorIndex
 90
        5
102
RTVSPost2010Prop44ColorRGB
 90
      255
102
RTVSPost2010PropOp44
 70
     1
102
RTVSPost2010Prop45
280
     0
102
RTVSPost2010PropOp45
 70
     1
102
RTVSPost2010Prop46
 90
       50
102
RTVSPost2010PropOp46
 70
     1
102
RTVSPost2010Prop47
 90
       50
102
RTVSPost2010PropOp47
 70
     1
102
RTVSPost2010Prop48
 90
       50
102
RTVSPost2010PropOp48
 70
     1
102
RTVSPost2010Prop49
280
     0
102
RTVSPost2010PropOp49
 70
     1
102
RTVSPost2010Prop50
 90
       50
102
RTVSPost2010PropOp50
 70
     1
102
RTVSPost2010Prop51ColorIndex
 90
      256
102
RTVSPost2010Prop51ColorRGB
 90
-16777216
102
RTVSPost2010PropOp51
 70
     0
102
RTVSPost2010Prop52
140
1.0
102
RTVSPost2010PropOp52
 70
     0
102
RTVSPost2010Prop53
 90
        2
102
RTVSPost2010PropOp53
 70
     1
102
RTVSPost2010Prop54
  1
strokes_ogs.tif
102
RTVSPost2010PropOp54
 70
     1
102
RTVSPost2010Prop55
280
     0
102
RTVSPost2010PropOp55
 70
     1
102
RTVSPost2010Prop56
140
1.0
102
RTVSPost2010PropOp56
 70
     1
102
RTVSPost2010Prop57
140
1.0
102
RTVSPost2010PropOp57
 70
     1
  0
XRECORD
  5
695
102
{ACAD_REACTORS
330
694
102
}
330
694
100
AcDbXrecord
280
     1
102
RTVSPost2010Prop28
280
     0
102
RTVSPost2010PropOp28
 70
     1
102
RTVSPost2010Prop29
280
     1
102
RTVSPost2010PropOp29
 70
     1
102
RTVSPost2010Prop30
280
     1
102
RTVSPost2010PropOp30
 70
     1
102
RTVSPost2010Prop31
280
     0
102
RTVSPost2010PropOp31
 70
     1
102
RTVSPost2010Prop32
280
     0
102
RTVSPost2010PropOp32
 70
     1
102
RTVSPost2010Prop33
280
     0
102
RTVSPost2010PropOp33
 70
     1
102
RTVSPost2010Prop34
280
     0
102
RTVSPost2010PropOp34
 70
     1
102
RTVSPost2010Prop35
280
     0
102
RTVSPost2010PropOp35
 70
     1
102
RTVSPost2010Prop36
280
     0
102
RTVSPost2010PropOp36
 70
     1
102
RTVSPost2010Prop37
 90
       50
102
RTVSPost2010PropOp37
 70
     1
102
RTVSPost2010Prop38
140
0.0
102
RTVSPost2010PropOp38
 70
     1
102
RTVSPost2010Prop39
140
1.0
102
RTVSPost2010PropOp39
 70
     1
102
RTVSPost2010Prop40
 90
        0
102
RTVSPost2010PropOp40
 70
     1
102
RTVSPost2010Prop41ColorIndex
 90
       18
102
RTVSPost2010Prop41ColorRGB
 90
        0
102
RTVSPost2010PropOp41
 70
     1
102
RTVSPost2010Prop42
 90
       50
102
RTVSPost2010PropOp42
 70
     1
102
RTVSPost2010Prop43
 90
        3
102
RTVSPost2010PropOp43
 70
     1
102
RTVSPost2010Prop44ColorIndex
 90
        5
102
RTVSPost2010Prop44ColorRGB
 90
      255
102
RTVSPost2010PropOp44
 70
     1
102
RTVSPost2010Prop45
280
     0
102
RTVSPost2010PropOp45
 70
     1
102
RTVSPost2010Prop46
 90
       50
102
RTVSPost2010PropOp46
 70
     1
102
RTVSPost2010Prop47
 90
       50
102
RTVSPost2010PropOp47
 70
     1
102
RTVSPost2010Prop48
 90
       50
102
RTVSPost2010PropOp48
 70
     1
102
RTVSPost2010Prop49
280
     0
102
RTVSPost2010PropOp49
 70
     1
102
RTVSPost2010Prop50
 90
       50
102
RTVSPost2010PropOp50
 70
     1
102
RTVSPost2010Prop51ColorIndex
 90
      256
102
RTVSPost2010Prop51ColorRGB
 90
-16777216
102
RTVSPost2010PropOp51
 70
     0
102
RTVSPost2010Prop52
140
1.0
102
RTVSPost2010PropOp52
 70
     0
102
RTVSPost2010Prop53
 90
        2
102
RTVSPost2010PropOp53
 70
     1
102
RTVSPost2010Prop54
  1
strokes_ogs.tif
102
RTVSPost2010PropOp54
 70
     1
102
RTVSPost2010Prop55
280
     0
102
RTVSPost2010PropOp55
 70
     1
102
RTVSPost2010Prop56
140
1.0
102
RTVSPost2010PropOp56
 70
     1
102
RTVSPost2010Prop57
140
1.0
102
RTVSPost2010PropOp57
 70
     1
  0
XRECORD
  5
685
102
{ACAD_REACTORS
330
684
102
}
330
684
100
AcDbXrecord
280
     1
102
RTVSPost2010Prop28
280
     0
102
RTVSPost2010PropOp28
 70
     1
102
RTVSPost2010Prop29
280
     1
102
RTVSPost2010PropOp29
 70
     1
102
RTVSPost2010Prop30
280
     1
102
RTVSPost2010PropOp30
 70
     1
102
RTVSPost2010Prop31
280
     0
102
RTVSPost2010PropOp31
 70
     1
102
RTVSPost2010Prop32
280
     0
102
RTVSPost2010PropOp32
 70
     1
102
RTVSPost2010Prop33
280
     0
102
RTVSPost2010PropOp33
 70
     1
102
RTVSPost2010Prop34
280
     0
102
RTVSPost2010PropOp34
 70
     1
102
RTVSPost2010Prop35
280
     0
102
RTVSPost2010PropOp35
 70
     1
102
RTVSPost2010Prop36
280
     0
102
RTVSPost2010PropOp36
 70
     1
102
RTVSPost2010Prop37
 90
       50
102
RTVSPost2010PropOp37
 70
     1
102
RTVSPost2010Prop38
140
0.0
102
RTVSPost2010PropOp38
 70
     1
102
RTVSPost2010Prop39
140
1.0
102
RTVSPost2010PropOp39
 70
     1
102
RTVSPost2010Prop40
 90
        0
102
RTVSPost2010PropOp40
 70
     1
102
RTVSPost2010Prop41ColorIndex
 90
       18
102
RTVSPost2010Prop41ColorRGB
 90
        0
102
RTVSPost2010PropOp41
 70
     1
102
RTVSPost2010Prop42
 90
       50
102
RTVSPost2010PropOp42
 70
     1
102
RTVSPost2010Prop43
 90
        3
102
RTVSPost2010PropOp43
 70
     1
102
RTVSPost2010Prop44ColorIndex
 90
        5
102
RTVSPost2010Prop44ColorRGB
 90
      255
102
RTVSPost2010PropOp44
 70
     1
102
RTVSPost2010Prop45
280
     0
102
RTVSPost2010PropOp45
 70
     1
102
RTVSPost2010Prop46
 90
       50
102
RTVSPost2010PropOp46
 70
     1
102
RTVSPost2010Prop47
 90
       50
102
RTVSPost2010PropOp47
 70
     1
102
RTVSPost2010Prop48
 90
       50
102
RTVSPost2010PropOp48
 70
     1
102
RTVSPost2010Prop49
280
     0
102
RTVSPost2010PropOp49
 70
     1
102
RTVSPost2010Prop50
 90
       50
102
RTVSPost2010PropOp50
 70
     1
102
RTVSPost2010Prop51ColorIndex
 90
      256
102
RTVSPost2010Prop51ColorRGB
 90
-16777216
102
RTVSPost2010PropOp51
 70
     0
102
RTVSPost2010Prop52
140
1.0
102
RTVSPost2010PropOp52
 70
     0
102
RTVSPost2010Prop53
 90
        2
102
RTVSPost2010PropOp53
 70
     1
102
RTVSPost2010Prop54
  1
strokes_ogs.tif
102
RTVSPost2010PropOp54
 70
     1
102
RTVSPost2010Prop55
280
     0
102
RTVSPost2010PropOp55
 70
     1
102
RTVSPost2010Prop56
140
1.0
102
RTVSPost2010PropOp56
 70
     1
102
RTVSPost2010Prop57
140
1.0
102
RTVSPost2010PropOp57
 70
     1
  0
XRECORD
  5
677
102
{ACAD_REACTORS
330
676
102
}
330
676
100
AcDbXrecord
280
     1
102
RTVSPost2010Prop28
280
     0
102
RTVSPost2010PropOp28
 70
     1
102
RTVSPost2010Prop29
280
     1
102
RTVSPost2010PropOp29
 70
     1
102
RTVSPost2010Prop30
280
     1
102
RTVSPost2010PropOp30
 70
     1
102
RTVSPost2010Prop31
280
     0
102
RTVSPost2010PropOp31
 70
     1
102
RTVSPost2010Prop32
280
     0
102
RTVSPost2010PropOp32
 70
     1
102
RTVSPost2010Prop33
280
     0
102
RTVSPost2010PropOp33
 70
     1
102
RTVSPost2010Prop34
280
     0
102
RTVSPost2010PropOp34
 70
     1
102
RTVSPost2010Prop35
280
     0
102
RTVSPost2010PropOp35
 70
     1
102
RTVSPost2010Prop36
280
     0
102
RTVSPost2010PropOp36
 70
     1
102
RTVSPost2010Prop37
 90
       50
102
RTVSPost2010PropOp37
 70
     1
102
RTVSPost2010Prop38
140
0.0
102
RTVSPost2010PropOp38
 70
     1
102
RTVSPost2010Prop39
140
1.0
102
RTVSPost2010PropOp39
 70
     1
102
RTVSPost2010Prop40
 90
        0
102
RTVSPost2010PropOp40
 70
     1
102
RTVSPost2010Prop41ColorIndex
 90
       18
102
RTVSPost2010Prop41ColorRGB
 90
        0
102
RTVSPost2010PropOp41
 70
     1
102
RTVSPost2010Prop42
 90
       50
102
RTVSPost2010PropOp42
 70
     1
102
RTVSPost2010Prop43
 90
        3
102
RTVSPost2010PropOp43
 70
     1
102
RTVSPost2010Prop44ColorIndex
 90
        5
102
RTVSPost2010Prop44ColorRGB
 90
      255
102
RTVSPost2010PropOp44
 70
     1
102
RTVSPost2010Prop45
280
     0
102
RTVSPost2010PropOp45
 70
     1
102
RTVSPost2010Prop46
 90
       50
102
RTVSPost2010PropOp46
 70
     1
102
RTVSPost2010Prop47
 90
       50
102
RTVSPost2010PropOp47
 70
     1
102
RTVSPost2010Prop48
 90
       50
102
RTVSPost2010PropOp48
 70
     1
102
RTVSPost2010Prop49
280
     0
102
RTVSPost2010PropOp49
 70
     1
102
RTVSPost2010Prop50
 90
       50
102
RTVSPost2010PropOp50
 70
     1
102
RTVSPost2010Prop51ColorIndex
 90
      256
102
RTVSPost2010Prop51ColorRGB
 90
-16777216
102
RTVSPost2010PropOp51
 70
     0
102
RTVSPost2010Prop52
140
1.0
102
RTVSPost2010PropOp52
 70
     0
102
RTVSPost2010Prop53
 90
        2
102
RTVSPost2010PropOp53
 70
     1
102
RTVSPost2010Prop54
  1
strokes_ogs.tif
102
RTVSPost2010PropOp54
 70
     1
102
RTVSPost2010Prop55
280
     0
102
RTVSPost2010PropOp55
 70
     1
102
RTVSPost2010Prop56
140
1.0
102
RTVSPost2010PropOp56
 70
     1
102
RTVSPost2010Prop57
140
1.0
102
RTVSPost2010PropOp57
 70
     1
  0
XRECORD
  5
697
102
{ACAD_REACTORS
330
696
102
}
330
696
100
AcDbXrecord
280
     1
102
RTVSPost2010Prop28
280
     0
102
RTVSPost2010PropOp28
 70
     1
102
RTVSPost2010Prop29
280
     1
102
RTVSPost2010PropOp29
 70
     1
102
RTVSPost2010Prop30
280
     1
102
RTVSPost2010PropOp30
 70
     1
102
RTVSPost2010Prop31
280
     0
102
RTVSPost2010PropOp31
 70
     1
102
RTVSPost2010Prop32
280
     0
102
RTVSPost2010PropOp32
 70
     1
102
RTVSPost2010Prop33
280
     0
102
RTVSPost2010PropOp33
 70
     1
102
RTVSPost2010Prop34
280
     0
102
RTVSPost2010PropOp34
 70
     1
102
RTVSPost2010Prop35
280
     0
102
RTVSPost2010PropOp35
 70
     1
102
RTVSPost2010Prop36
280
     0
102
RTVSPost2010PropOp36
 70
     1
102
RTVSPost2010Prop37
 90
       50
102
RTVSPost2010PropOp37
 70
     1
102
RTVSPost2010Prop38
140
0.0
102
RTVSPost2010PropOp38
 70
     1
102
RTVSPost2010Prop39
140
1.0
102
RTVSPost2010PropOp39
 70
     1
102
RTVSPost2010Prop40
 90
        0
102
RTVSPost2010PropOp40
 70
     1
102
RTVSPost2010Prop41ColorIndex
 90
       18
102
RTVSPost2010Prop41ColorRGB
 90
        0
102
RTVSPost2010PropOp41
 70
     1
102
RTVSPost2010Prop42
 90
       50
102
RTVSPost2010PropOp42
 70
     1
102
RTVSPost2010Prop43
 90
        3
102
RTVSPost2010PropOp43
 70
     1
102
RTVSPost2010Prop44ColorIndex
 90
        5
102
RTVSPost2010Prop44ColorRGB
 90
      255
102
RTVSPost2010PropOp44
 70
     1
102
RTVSPost2010Prop45
280
     0
102
RTVSPost2010PropOp45
 70
     1
102
RTVSPost2010Prop46
 90
       50
102
RTVSPost2010PropOp46
 70
     1
102
RTVSPost2010Prop47
 90
       50
102
RTVSPost2010PropOp47
 70
     1
102
RTVSPost2010Prop48
 90
       50
102
RTVSPost2010PropOp48
 70
     1
102
RTVSPost2010Prop49
280
     0
102
RTVSPost2010PropOp49
 70
     1
102
RTVSPost2010Prop50
 90
       50
102
RTVSPost2010PropOp50
 70
     1
102
RTVSPost2010Prop51ColorIndex
 90
      256
102
RTVSPost2010Prop51ColorRGB
 90
-16777216
102
RTVSPost2010PropOp51
 70
     0
102
RTVSPost2010Prop52
140
1.0
102
RTVSPost2010PropOp52
 70
     0
102
RTVSPost2010Prop53
 90
        2
102
RTVSPost2010PropOp53
 70
     1
102
RTVSPost2010Prop54
  1
strokes_ogs.tif
102
RTVSPost2010PropOp54
 70
     1
102
RTVSPost2010Prop55
280
     0
102
RTVSPost2010PropOp55
 70
     1
102
RTVSPost2010Prop56
140
1.0
102
RTVSPost2010PropOp56
 70
     1
102
RTVSPost2010Prop57
140
1.0
102
RTVSPost2010PropOp57
 70
     1
  0
ENDSEC
  0
EOF
