  0
SECTION
  2
HEADER
  9
$ACADVER
  1
AC1015
  9
$ACADMAINTVER
 70
    20
  9
$DWGCODEPAGE
  3
ANSI_932
  9
$INSBASE
 10
0.0
 20
0.0
 30
0.0
  9
$EXTMIN
 10
21.90349559375585
 20
12.84665680249566
 30
0.0
  9
$EXTMAX
 10
1062.726791073898
 20
904.8926777776619
 30
0.0
  9
$LIMMIN
 10
-226.4366455078125
 20
-234.1578769683838
  9
$LIMMAX
 10
634.9698944091798
 20
464.9104385375976
  9
$ORTHOMODE
 70
     0
  9
$REGENMODE
 70
     1
  9
$FILLMODE
 70
     1
  9
$QTEXTMODE
 70
     0
  9
$MIRRTEXT
 70
     1
  9
$LTSCALE
 40
0.0699857306292677
  9
$ATTMODE
 70
     1
  9
$TEXTSIZE
 40
2.5
  9
$TRACEWID
 40
1.0
  9
$TEXTSTYLE
  7
Standard
  9
$CLAYER
  8
0
  9
$CELTYPE
  6
ByLayer
  9
$CECOLOR
 62
   256
  9
$CELTSCALE
 40
1.0
  9
$DISPSILH
 70
     0
  9
$DIMSCALE
 40
1.0
  9
$DIMASZ
 40
2.5
  9
$DIMEXO
 40
0.625
  9
$DIMDLI
 40
3.75
  9
$DIMRND
 40
0.0
  9
$DIMDLE
 40
0.0
  9
$DIMEXE
 40
1.25
  9
$DIMTP
 40
0.0
  9
$DIMTM
 40
0.0
  9
$DIMTXT
 40
2.5
  9
$DIMCEN
 40
2.5
  9
$DIMTSZ
 40
0.0
  9
$DIMTOL
 70
     0
  9
$DIMLIM
 70
     0
  9
$DIMTIH
 70
     0
  9
$DIMTOH
 70
     0
  9
$DIMSE1
 70
     0
  9
$DIMSE2
 70
     0
  9
$DIMTAD
 70
     1
  9
$DIMZIN
 70
     0
  9
$DIMBLK
  1

  9
$DIMASO
 70
     1
  9
$DIMSHO
 70
     1
  9
$DIMPOST
  1

  9
$DIMAPOST
  1

  9
$DIMALT
 70
     0
  9
$DIMALTD
 70
     3
  9
$DIMALTF
 40
0.03937007874016
  9
$DIMLFAC
 40
1.0
  9
$DIMTOFL
 70
     1
  9
$DIMTVP
 40
0.0
  9
$DIMTIX
 70
     0
  9
$DIMSOXD
 70
     0
  9
$DIMSAH
 70
     0
  9
$DIMBLK1
  1

  9
$DIMBLK2
  1

  9
$DIMSTYLE
  2
Standard
  9
$DIMCLRD
 70
     0
  9
$DIMCLRE
 70
     0
  9
$DIMCLRT
 70
     0
  9
$DIMTFAC
 40
0.75
  9
$DIMGAP
 40
0.625
  9
$DIMJUST
 70
     0
  9
$DIMSD1
 70
     0
  9
$DIMSD2
 70
     0
  9
$DIMTOLJ
 70
     0
  9
$DIMTZIN
 70
     8
  9
$DIMALTZ
 70
     0
  9
$DIMALTTZ
 70
     0
  9
$DIMUPT
 70
     0
  9
$DIMDEC
 70
     2
  9
$DIMTDEC
 70
     2
  9
$DIMALTU
 70
     2
  9
$DIMALTTD
 70
     3
  9
$DIMTXSTY
  7
Standard
  9
$DIMAUNIT
 70
     0
  9
$DIMADEC
 70
     0
  9
$DIMALTRND
 40
0.0
  9
$DIMAZIN
 70
     0
  9
$DIMDSEP
 70
    46
  9
$DIMATFIT
 70
     3
  9
$DIMFRAC
 70
     0
  9
$DIMLDRBLK
  1

  9
$DIMLUNIT
 70
     2
  9
$DIMLWD
 70
    -2
  9
$DIMLWE
 70
    -2
  9
$DIMTMOVE
 70
     0
  9
$LUNITS
 70
     2
  9
$LUPREC
 70
     4
  9
$SKETCHINC
 40
1.0
  9
$FILLETRAD
 40
0.0
  9
$AUNITS
 70
     0
  9
$AUPREC
 70
     0
  9
$MENU
  1
.
  9
$ELEVATION
 40
0.0
  9
$PELEVATION
 40
0.0
  9
$THICKNESS
 40
0.0
  9
$LIMCHECK
 70
     0
  9
$CHAMFERA
 40
10.0
  9
$CHAMFERB
 40
10.0
  9
$CHAMFERC
 40
20.0
  9
$CHAMFERD
 40
0.0
  9
$SKPOLY
 70
     0
  9
$TDCREATE
 40
2455188.750000000
  9
$TDUCREATE
 40
2455188.375000000
  9
$TDUPDATE
 40
2459741.493279445
  9
$TDUUPDATE
 40
2459741.118279445
  9
$TDINDWG
 40
0.0052668171
  9
$TDUSRTIMER
 40
0.0052666551
  9
$USRTIMER
 70
     1
  9
$ANGBASE
 50
0.0
  9
$ANGDIR
 70
     0
  9
$PDMODE
 70
     0
  9
$PDSIZE
 40
0.0
  9
$PLINEWID
 40
0.0
  9
$SPLFRAME
 70
     0
  9
$SPLINETYPE
 70
     6
  9
$SPLINESEGS
 70
     8
  9
$HANDSEED
  5
59A
  9
$SURFTAB1
 70
     6
  9
$SURFTAB2
 70
     6
  9
$SURFTYPE
 70
     6
  9
$SURFU
 70
     6
  9
$SURFV
 70
     6
  9
$UCSBASE
  2

  9
$UCSNAME
  2

  9
$UCSORG
 10
0.0
 20
0.0
 30
0.0
  9
$UCSXDIR
 10
1.0
 20
0.0
 30
0.0
  9
$UCSYDIR
 10
0.0
 20
1.0
 30
0.0
  9
$UCSORTHOREF
  2

  9
$UCSORTHOVIEW
 70
     0
  9
$UCSORGTOP
 10
0.0
 20
0.0
 30
0.0
  9
$UCSORGBOTTOM
 10
0.0
 20
0.0
 30
0.0
  9
$UCSORGLEFT
 10
0.0
 20
0.0
 30
0.0
  9
$UCSORGRIGHT
 10
0.0
 20
0.0
 30
0.0
  9
$UCSORGFRONT
 10
0.0
 20
0.0
 30
0.0
  9
$UCSORGBACK
 10
0.0
 20
0.0
 30
0.0
  9
$PUCSBASE
  2

  9
$PUCSNAME
  2

  9
$PUCSORG
 10
0.0
 20
0.0
 30
0.0
  9
$PUCSXDIR
 10
1.0
 20
0.0
 30
0.0
  9
$PUCSYDIR
 10
0.0
 20
1.0
 30
0.0
  9
$PUCSORTHOREF
  2

  9
$PUCSORTHOVIEW
 70
     0
  9
$PUCSORGTOP
 10
0.0
 20
0.0
 30
0.0
  9
$PUCSORGBOTTOM
 10
0.0
 20
0.0
 30
0.0
  9
$PUCSORGLEFT
 10
0.0
 20
0.0
 30
0.0
  9
$PUCSORGRIGHT
 10
0.0
 20
0.0
 30
0.0
  9
$PUCSORGFRONT
 10
0.0
 20
0.0
 30
0.0
  9
$PUCSORGBACK
 10
0.0
 20
0.0
 30
0.0
  9
$USERI1
 70
     0
  9
$USERI2
 70
     0
  9
$USERI3
 70
     0
  9
$USERI4
 70
     0
  9
$USERI5
 70
     0
  9
$USERR1
 40
0.0
  9
$USERR2
 40
0.0
  9
$USERR3
 40
0.0
  9
$USERR4
 40
0.0
  9
$USERR5
 40
0.0
  9
$WORLDVIEW
 70
     1
  9
$SHADEDGE
 70
     3
  9
$SHADEDIF
 70
    70
  9
$TILEMODE
 70
     1
  9
$MAXACTVP
 70
    64
  9
$PINSBASE
 10
0.0
 20
0.0
 30
0.0
  9
$PLIMCHECK
 70
     0
  9
$PEXTMIN
 10
1.000000000000000E+20
 20
1.000000000000000E+20
 30
1.000000000000000E+20
  9
$PEXTMAX
 10
-1.000000000000000E+20
 20
-1.000000000000000E+20
 30
-1.000000000000000E+20
  9
$PLIMMIN
 10
0.0
 20
0.0
  9
$PLIMMAX
 10
420.0
 20
297.0
  9
$UNITMODE
 70
     0
  9
$VISRETAIN
 70
     1
  9
$PLINEGEN
 70
     0
  9
$PSLTSCALE
 70
     1
  9
$TREEDEPTH
 70
  3020
  9
$CMLSTYLE
  2
Standard
  9
$CMLJUST
 70
     0
  9
$CMLSCALE
 40
20.0
  9
$PROXYGRAPHICS
 70
     1
  9
$MEASUREMENT
 70
     1
  9
$CELWEIGHT
370
    -1
  9
$ENDCAPS
280
     0
  9
$JOINSTYLE
280
     0
  9
$LWDISPLAY
290
     0
  9
$INSUNITS
 70
     4
  9
$HYPERLINKBASE
  1

  9
$STYLESHEET
  1

  9
$XEDIT
290
     1
  9
$CEPSNTYPE
380
     0
  9
$PSTYLEMODE
290
     1
  9
$FINGERPRINTGUID
  2
{D620C4E9-6AFF-4FC1-BC5F-231FE04F5675}
  9
$VERSIONGUID
  2
{A24AB786-2934-41D2-AC6A-58B7EB5B8078}
  9
$EXTNAMES
290
     1
  9
$PSVPSCALE
 40
0.0
  9
$OLESTARTUP
290
     0
  0
ENDSEC
  0
SECTION
  2
CLASSES
  0
CLASS
  1
ACDBDICTIONARYWDFLT
  2
AcDbDictionaryWithDefault
  3
ObjectDBX Classes
 90
        0
280
     0
281
     0
  0
CLASS
  1
VISUALSTYLE
  2
AcDbVisualStyle
  3
ObjectDBX Classes
 90
     4095
280
     0
281
     0
  0
CLASS
  1
MATERIAL
  2
AcDbMaterial
  3
ObjectDBX Classes
 90
     1153
280
     0
281
     0
  0
CLASS
  1
SCALE
  2
AcDbScale
  3
ObjectDBX Classes
 90
     1153
280
     0
281
     0
  0
CLASS
  1
TABLESTYLE
  2
AcDbTableStyle
  3
ObjectDBX Classes
 90
     4095
280
     0
281
     0
  0
CLASS
  1
MLEADERSTYLE
  2
AcDbMLeaderStyle
  3
ACDB_MLEADERSTYLE_CLASS
 90
     4095
280
     0
281
     0
  0
CLASS
  1
SUN
  2
AcDbSun
  3
SCENEOE
 90
    33921
280
     0
281
     0
  0
CLASS
  1
DICTIONARYVAR
  2
AcDbDictionaryVar
  3
ObjectDBX Classes
 90
        0
280
     0
281
     0
  0
CLASS
  1
ACDBSECTIONVIEWSTYLE
  2
AcDbSectionViewStyle
  3
ObjectDBX Classes
 90
     1025
280
     0
281
     0
  0
CLASS
  1
ACDBDETAILVIEWSTYLE
  2
AcDbDetailViewStyle
  3
ObjectDBX Classes
 90
     1025
280
     0
281
     0
  0
CLASS
  1
SORTENTSTABLE
  2
AcDbSortentsTable
  3
ObjectDBX Classes
 90
        0
280
     0
281
     0
  0
CLASS
  1
CELLSTYLEMAP
  2
AcDbCellStyleMap
  3
ObjectDBX Classes
 90
     1152
280
     0
281
     0
  0
CLASS
  1
ACDBPLACEHOLDER
  2
AcDbPlaceHolder
  3
ObjectDBX Classes
 90
        0
280
     0
281
     0
  0
CLASS
  1
LAYOUT
  2
AcDbLayout
  3
ObjectDBX Classes
 90
        0
280
     0
281
     0
  0
ENDSEC
  0
SECTION
  2
TABLES
  0
TABLE
  2
VPORT
  5
8
330
0
100
AcDbSymbolTable
 70
     1
  0
VPORT
  5
29
330
8
100
AcDbSymbolTableRecord
100
AcDbViewportTableRecord
  2
*Active
 70
     0
 10
0.0
 20
0.0
 11
1.0
 21
1.0
 12
701.0386599341947
 22
299.5951461314853
 13
0.0
 23
0.0
 14
10.0
 24
10.0
 15
10.0
 25
10.0
 16
0.0
 26
0.0
 36
1.0
 17
0.0
 27
0.0
 37
0.0
 40
887.5485688360203
 41
2.204301075268817
 42
50.0
 43
0.0
 44
0.0
 50
0.0
 51
0.0
 71
     0
 72
 20000
 73
     1
 74
     3
 75
     0
 76
     0
 77
     0
 78
     0
281
     0
 65
     1
110
0.0
120
0.0
130
0.0
111
1.0
121
0.0
131
0.0
112
0.0
122
1.0
132
0.0
 79
     0
146
0.0
1001
ACAD_NAV_VCDISPLAY
1070
     3
  0
ENDTAB
  0
TABLE
  2
LTYPE
  5
5
330
0
100
AcDbSymbolTable
 70
     2
  0
LTYPE
  5
14
330
5
100
AcDbSymbolTableRecord
100
AcDbLinetypeTableRecord
  2
ByBlock
 70
     0
  3

 72
    65
 73
     0
 40
0.0
  0
LTYPE
  5
15
330
5
100
AcDbSymbolTableRecord
100
AcDbLinetypeTableRecord
  2
ByLayer
 70
     0
  3

 72
    65
 73
     0
 40
0.0
  0
LTYPE
  5
16
330
5
100
AcDbSymbolTableRecord
100
AcDbLinetypeTableRecord
  2
Continuous
 70
     0
  3
Solid line
 72
    65
 73
     0
 40
0.0
  0
LTYPE
  5
3DB
330
5
100
AcDbSymbolTableRecord
100
AcDbLinetypeTableRecord
  2
CENTER2
 70
     0
  3
Center (.5x) ___ _ ___ _ ___ _ ___ _ ___ _ ___
 72
    65
 73
     4
 40
28.575
 49
19.05
 74
     0
 49
-3.174999999999998
 74
     0
 49
3.174999999999998
 74
     0
 49
-3.174999999999998
 74
     0
  0
ENDTAB
  0
TABLE
  2
LAYER
  5
2
102
{ACAD_XDICTIONARY
360
3E1
102
}
330
0
100
AcDbSymbolTable
 70
     4
  0
LAYER
  5
10
102
{ACAD_XDICTIONARY
360
4C7
102
}
330
2
100
AcDbSymbolTableRecord
100
AcDbLayerTableRecord
  2
0
 70
     0
 62
     7
  6
Continuous
370
    -3
390
F
  0
LAYER
  5
66
330
2
100
AcDbSymbolTableRecord
100
AcDbLayerTableRecord
  2
Defpoints
 70
     0
 62
     7
  6
Continuous
290
     0
370
    -3
390
F
  0
LAYER
  5
3DC
102
{ACAD_XDICTIONARY
360
3DD
102
}
330
2
100
AcDbSymbolTableRecord
100
AcDbLayerTableRecord
  2
中心線
 70
     0
 62
     3
  6
CENTER2
370
    -3
390
F
  0
LAYER
  5
3DE
102
{ACAD_XDICTIONARY
360
3DF
102
}
330
2
100
AcDbSymbolTableRecord
100
AcDbLayerTableRecord
  2
実線
 70
     0
 62
     7
  6
Continuous
370
    -3
390
F
  0
ENDTAB
  0
TABLE
  2
STYLE
  5
3
330
0
100
AcDbSymbolTable
 70
     1
  0
STYLE
  5
11
330
3
100
AcDbSymbolTableRecord
100
AcDbTextStyleTableRecord
  2
Standard
 70
     0
 40
0.0
 41
1.0
 50
0.0
 71
     0
 42
2.5
  3
txt
  4
extfont2
  0
ENDTAB
  0
TABLE
  2
VIEW
  5
6
330
0
100
AcDbSymbolTable
 70
     0
  0
ENDTAB
  0
TABLE
  2
UCS
  5
7
330
0
100
AcDbSymbolTable
 70
     0
  0
ENDTAB
  0
TABLE
  2
APPID
  5
9
330
0
100
AcDbSymbolTable
 70
     3
  0
APPID
  5
12
330
9
100
AcDbSymbolTableRecord
100
AcDbRegAppTableRecord
  2
ACAD
 70
     0
  0
APPID
  5
247
330
9
100
AcDbSymbolTableRecord
100
AcDbRegAppTableRecord
  2
ACAD_MLEADERVER
 70
     0
  0
APPID
  5
3E0
330
9
100
AcDbSymbolTableRecord
100
AcDbRegAppTableRecord
  2
ACAD_NAV_VCDISPLAY
 70
     0
  0
ENDTAB
  0
TABLE
  2
DIMSTYLE
  5
A
330
0
100
AcDbSymbolTable
 70
     1
100
AcDbDimStyleTable
 71
     0
  0
DIMSTYLE
105
27
330
A
100
AcDbSymbolTableRecord
100
AcDbDimStyleTableRecord
  2
Standard
 70
     0
 41
2.5
 42
0.625
 43
3.75
 44
1.25
 73
     0
 74
     0
 77
     1
140
2.5
141
2.5
143
0.03937007874016
146
0.75
147
0.625
171
     3
172
     1
271
     2
272
     2
274
     3
283
     0
284
     8
340
11
  0
ENDTAB
  0
TABLE
  2
BLOCK_RECORD
  5
1
330
0
100
AcDbSymbolTable
 70
     1
  0
BLOCK_RECORD
  5
1F
102
{ACAD_XDICTIONARY
360
280
102
}
330
1
100
AcDbSymbolTableRecord
100
AcDbBlockTableRecord
  2
*Model_Space
340
22
  0
BLOCK_RECORD
  5
1B
330
1
100
AcDbSymbolTableRecord
100
AcDbBlockTableRecord
  2
*Paper_Space
340
1E
  0
BLOCK_RECORD
  5
23
330
1
100
AcDbSymbolTableRecord
100
AcDbBlockTableRecord
  2
*Paper_Space0
340
251
  0
ENDTAB
  0
ENDSEC
  0
SECTION
  2
BLOCKS
  0
BLOCK
  5
20
330
1F
100
AcDbEntity
  8
0
100
AcDbBlockBegin
  2
*Model_Space
 70
     0
 10
0.0
 20
0.0
 30
0.0
  3
*Model_Space
  1

  0
ENDBLK
  5
21
330
1F
100
AcDbEntity
  8
0
100
AcDbBlockEnd
  0
BLOCK
  5
1C
330
1B
100
AcDbEntity
 67
     1
  8
0
100
AcDbBlockBegin
  2
*Paper_Space
 70
     0
 10
0.0
 20
0.0
 30
0.0
  3
*Paper_Space
  1

  0
ENDBLK
  5
1D
330
1B
100
AcDbEntity
 67
     1
  8
0
100
AcDbBlockEnd
  0
BLOCK
  5
24
330
23
100
AcDbEntity
 67
     1
  8
0
100
AcDbBlockBegin
  2
*Paper_Space0
 70
     0
 10
0.0
 20
0.0
 30
0.0
  3
*Paper_Space0
  1

  0
ENDBLK
  5
25
330
23
100
AcDbEntity
 67
     1
  8
0
100
AcDbBlockEnd
  0
ENDSEC
  0
SECTION
  2
ENTITIES
  0
LINE
  5
257
102
{ACAD_REACTORS
330
4C6
102
}
330
1F
100
AcDbEntity
  8
実線
100
AcDbLine
 10
239.9034955937558
 20
45.14665680249541
 30
0.0
 11
258.9034955937558
 21
45.14665680249541
 31
0.0
  0
LINE
  5
258
102
{ACAD_REACTORS
330
4C6
102
}
330
1F
100
AcDbEntity
  8
実線
100
AcDbLine
 10
258.9034955937558
 20
70.54665680249536
 30
0.0
 11
239.9034955937558
 21
70.54665680249536
 31
0.0
  0
LINE
  5
259
102
{ACAD_REACTORS
330
4C6
102
}
330
1F
100
AcDbEntity
  8
実線
100
AcDbLine
 10
231.9034955937559
 20
32.5966568024954
 30
0.0
 11
231.9034955937559
 21
83.09665680249542
 31
0.0
  0
LINE
  5
25A
102
{ACAD_REACTORS
330
4C6
102
}
330
1F
100
AcDbEntity
  8
実線
100
AcDbLine
 10
231.9034955937559
 20
32.5966568024954
 30
0.0
 11
234.7534955937559
 21
32.5966568024954
 31
0.0
  0
LINE
  5
25B
102
{ACAD_REACTORS
330
4C6
102
}
330
1F
100
AcDbEntity
  8
実線
100
AcDbLine
 10
234.7534955937559
 20
83.09665680249542
 30
0.0
 11
231.9034955937559
 21
83.09665680249542
 31
0.0
  0
LINE
  5
25C
102
{ACAD_REACTORS
330
4C6
102
}
330
1F
100
AcDbEntity
  8
実線
100
AcDbLine
 10
234.7534955937559
 20
32.5966568024954
 30
0.0
 11
234.7534955937559
 21
83.09665680249542
 31
0.0
  0
LINE
  5
25D
102
{ACAD_REACTORS
330
4C6
102
}
330
1F
100
AcDbEntity
  8
実線
100
AcDbLine
 10
239.9034955937558
 20
45.14665680249541
 30
0.0
 11
239.9034955937558
 21
70.54665680249536
 31
0.0
  0
LINE
  5
25E
102
{ACAD_REACTORS
330
4C6
102
}
330
1F
100
AcDbEntity
  8
実線
100
AcDbLine
 10
239.9034955937558
 20
70.54665680249536
 30
0.0
 11
234.7534955937559
 21
83.09665680249542
 31
0.0
  0
LINE
  5
25F
102
{ACAD_REACTORS
330
4C6
102
}
330
1F
100
AcDbEntity
  8
実線
100
AcDbLine
 10
234.7534955937559
 20
32.5966568024954
 30
0.0
 11
239.9034955937558
 21
45.14665680249541
 31
0.0
  0
CIRCLE
  5
260
102
{ACAD_REACTORS
330
4C6
102
}
330
1F
100
AcDbEntity
  8
実線
100
AcDbCircle
 10
286.9034955937559
 20
57.8466568024954
 30
0.0
 40
25.25
  0
LINE
  5
261
102
{ACAD_REACTORS
330
4C6
102
}
330
1F
100
AcDbEntity
  8
実線
100
AcDbLine
 10
333.9034955937558
 20
70.54665680249536
 30
0.0
 11
314.9034955937559
 21
70.54665680249536
 31
0.0
  0
LINE
  5
262
102
{ACAD_REACTORS
330
4C6
102
}
330
1F
100
AcDbEntity
  8
実線
100
AcDbLine
 10
314.9034955937559
 20
45.14665680249541
 30
0.0
 11
333.9034955937558
 21
45.14665680249541
 31
0.0
  0
LINE
  5
263
102
{ACAD_REACTORS
330
4C6
102
}
330
1F
100
AcDbEntity
  8
実線
100
AcDbLine
 10
333.9034955937558
 20
70.54665680249536
 30
0.0
 11
333.9034955937558
 21
45.14665680249541
 31
0.0
  0
LINE
  5
264
102
{ACAD_REACTORS
330
4C6
102
}
330
1F
100
AcDbEntity
  8
実線
100
AcDbLine
 10
333.9034955937558
 20
45.14665680249541
 30
0.0
 11
339.0534955937558
 21
32.5966568024954
 31
0.0
  0
LINE
  5
265
102
{ACAD_REACTORS
330
4C6
102
}
330
1F
100
AcDbEntity
  8
実線
100
AcDbLine
 10
339.0534955937558
 20
83.09665680249542
 30
0.0
 11
333.9034955937558
 21
70.54665680249536
 31
0.0
  0
LINE
  5
266
102
{ACAD_REACTORS
330
4C6
102
}
330
1F
100
AcDbEntity
  8
実線
100
AcDbLine
 10
341.9034955937558
 20
83.09665680249542
 30
0.0
 11
341.9034955937558
 21
32.5966568024954
 31
0.0
  0
LINE
  5
267
102
{ACAD_REACTORS
330
4C6
102
}
330
1F
100
AcDbEntity
  8
実線
100
AcDbLine
 10
339.0534955937558
 20
83.09665680249542
 30
0.0
 11
339.0534955937558
 21
32.5966568024954
 31
0.0
  0
LINE
  5
268
102
{ACAD_REACTORS
330
4C6
102
}
330
1F
100
AcDbEntity
  8
実線
100
AcDbLine
 10
341.9034955937558
 20
83.09665680249542
 30
0.0
 11
339.0534955937558
 21
83.09665680249542
 31
0.0
  0
LINE
  5
269
102
{ACAD_REACTORS
330
4C6
102
}
330
1F
100
AcDbEntity
  8
実線
100
AcDbLine
 10
339.0534955937558
 20
32.5966568024954
 30
0.0
 11
341.9034955937558
 21
32.5966568024954
 31
0.0
  0
LINE
  5
26A
102
{ACAD_REACTORS
330
4C6
102
}
330
1F
100
AcDbEntity
  8
実線
100
AcDbLine
 10
258.9034955937558
 20
29.8466568024954
 30
0.0
 11
314.9034955937559
 21
29.8466568024954
 31
0.0
  0
LINE
  5
26B
102
{ACAD_REACTORS
330
4C6
102
}
330
1F
100
AcDbEntity
  8
実線
100
AcDbLine
 10
258.9034955937558
 20
29.8466568024954
 30
0.0
 11
258.9034955937558
 21
85.84665680249555
 31
0.0
  0
LINE
  5
26C
102
{ACAD_REACTORS
330
4C6
102
}
330
1F
100
AcDbEntity
  8
実線
100
AcDbLine
 10
314.9034955937559
 20
85.84665680249555
 30
0.0
 11
258.9034955937558
 21
85.84665680249555
 31
0.0
  0
LINE
  5
26D
102
{ACAD_REACTORS
330
4C6
102
}
330
1F
100
AcDbEntity
  8
実線
100
AcDbLine
 10
314.9034955937559
 20
85.84665680249555
 30
0.0
 11
314.9034955937559
 21
29.8466568024954
 31
0.0
  0
LINE
  5
26E
102
{ACAD_REACTORS
330
4C6
102
}
330
1F
100
AcDbEntity
  8
実線
100
AcDbLine
 10
314.9034955937559
 20
71.84665680249543
 30
0.0
 11
313.1166990293523
 21
71.84665680249543
 31
0.0
  0
LINE
  5
26F
102
{ACAD_REACTORS
330
4C6
102
}
330
1F
100
AcDbEntity
  8
実線
100
AcDbLine
 10
298.4462756055201
 20
80.30387679073124
 30
0.0
 11
292.9034955937559
 21
85.84665680249555
 31
0.0
  0
LINE
  5
270
102
{ACAD_REACTORS
330
4C6
102
}
330
1F
100
AcDbEntity
  8
実線
100
AcDbLine
 10
258.9034955937558
 20
71.84665680249543
 30
0.0
 11
260.6902921581593
 21
71.84665680249543
 31
0.0
  0
ARC
  5
271
102
{ACAD_REACTORS
330
4C6
102
}
330
1F
100
AcDbEntity
  8
実線
100
AcDbCircle
 10
313.1166990293523
 20
86.84665680249555
 30
0.0
 40
15.0
100
AcDbArc
 50
245.8534358366481
 51
270.0
  0
ARC
  5
272
102
{ACAD_REACTORS
330
4C6
102
}
330
1F
100
AcDbEntity
  8
実線
100
AcDbCircle
 10
260.6902921581593
 20
86.84665680249555
 30
0.0
 40
15.0
100
AcDbArc
 50
270.0
 51
294.1465641633519
  0
ARC
  5
273
102
{ACAD_REACTORS
330
4C6
102
}
330
1F
100
AcDbEntity
  8
実線
100
AcDbCircle
 10
260.6902921581593
 20
28.8466568024954
 30
0.0
 40
15.0
100
AcDbArc
 50
65.85343583664812
 51
90.0
  0
ARC
  5
274
102
{ACAD_REACTORS
330
4C6
102
}
330
1F
100
AcDbEntity
  8
実線
100
AcDbCircle
 10
313.1166990293523
 20
28.8466568024954
 30
0.0
 40
15.0
100
AcDbArc
 50
90.0
 51
114.1465641633519
  0
LINE
  5
275
102
{ACAD_REACTORS
330
4C6
102
}
330
1F
100
AcDbEntity
  8
実線
100
AcDbLine
 10
275.3607155819915
 20
80.30387679073124
 30
0.0
 11
280.9034955937558
 21
85.84665680249555
 31
0.0
  0
LINE
  5
276
102
{ACAD_REACTORS
330
4C6
102
}
330
1F
100
AcDbEntity
  8
実線
100
AcDbLine
 10
298.4462756055201
 20
35.38943681425962
 30
0.0
 11
292.9034955937559
 21
29.8466568024954
 31
0.0
  0
LINE
  5
277
102
{ACAD_REACTORS
330
4C6
102
}
330
1F
100
AcDbEntity
  8
実線
100
AcDbLine
 10
258.9034955937558
 20
43.8466568024954
 30
0.0
 11
260.6902921581593
 21
43.8466568024954
 31
0.0
  0
LINE
  5
278
102
{ACAD_REACTORS
330
4C6
102
}
330
1F
100
AcDbEntity
  8
実線
100
AcDbLine
 10
275.3607155819915
 20
35.38943681425962
 30
0.0
 11
280.9034955937558
 21
29.8466568024954
 31
0.0
  0
LINE
  5
279
102
{ACAD_REACTORS
330
4C6
102
}
330
1F
100
AcDbEntity
  8
実線
100
AcDbLine
 10
314.9034955937559
 20
43.8466568024954
 30
0.0
 11
313.1166990293523
 21
43.8466568024954
 31
0.0
  0
ARC
  5
27A
102
{ACAD_REACTORS
330
4C6
102
}
330
1F
100
AcDbEntity
  8
実線
100
AcDbCircle
 10
286.9034955937559
 20
57.8466568024954
 30
0.0
 40
40.0
100
AcDbArc
 50
198.5118026680991
 51
341.4881973319009
  0
ARC
  5
27B
102
{ACAD_REACTORS
330
4C6
102
}
330
1F
100
AcDbEntity
  8
実線
100
AcDbCircle
 10
286.9034955937559
 20
57.8466568024954
 30
0.0
 40
40.0
100
AcDbArc
 50
18.51180266809907
 51
161.4881973319009
  0
LINE
  5
27C
102
{ACAD_REACTORS
330
4C6
102
}
330
1F
100
AcDbEntity
  8
実線
100
AcDbLine
 10
314.9034955937559
 20
29.8466568024954
 30
0.0
 11
315.1877668412178
 21
29.5623855550335
 31
0.0
  0
LINE
  5
27D
102
{ACAD_REACTORS
330
4C6
102
}
330
1F
100
AcDbEntity
  8
実線
100
AcDbLine
 10
258.9034955937558
 20
29.8466568024954
 30
0.0
 11
258.6192243462938
 21
29.5623855550335
 31
0.0
  0
LINE
  5
27E
102
{ACAD_REACTORS
330
4C6
102
}
330
1F
100
AcDbEntity
  8
実線
100
AcDbLine
 10
258.9034955937558
 20
85.84665680249555
 30
0.0
 11
258.6192243462938
 21
86.13092804995744
 31
0.0
  0
LINE
  5
27F
102
{ACAD_REACTORS
330
4C6
102
}
330
1F
100
AcDbEntity
  8
実線
100
AcDbLine
 10
315.1877668412178
 20
86.13092804995734
 30
0.0
 11
314.9034955937559
 21
85.84665680249555
 31
0.0
  0
LINE
  5
282
102
{ACAD_REACTORS
330
513
102
}
330
1F
100
AcDbEntity
  8
実線
100
AcDbLine
 10
239.9034955937557
 20
565.1466568024952
 30
0.0
 11
248.9731647225388
 21
565.1466568024952
 31
0.0
  0
LINE
  5
283
102
{ACAD_REACTORS
330
513
102
}
330
1F
100
AcDbEntity
  8
実線
100
AcDbLine
 10
248.9731647225387
 20
590.5466568024952
 30
0.0
 11
239.9034955937557
 21
590.5466568024952
 31
0.0
  0
LINE
  5
284
102
{ACAD_REACTORS
330
513
102
}
330
1F
100
AcDbEntity
  8
実線
100
AcDbLine
 10
239.9034955937557
 20
590.5466568024952
 30
0.0
 11
234.7534955937558
 21
603.0966568024953
 31
0.0
  0
LINE
  5
285
102
{ACAD_REACTORS
330
513
102
}
330
1F
100
AcDbEntity
  8
実線
100
AcDbLine
 10
234.7534955937558
 20
552.5966568024953
 30
0.0
 11
239.9034955937557
 21
565.1466568024952
 31
0.0
  0
LINE
  5
286
102
{ACAD_REACTORS
330
513
102
}
330
1F
100
AcDbEntity
  8
実線
100
AcDbLine
 10
239.9034955937557
 20
590.5466568024952
 30
0.0
 11
239.9034955937557
 21
565.1466568024952
 31
0.0
  0
LINE
  5
287
102
{ACAD_REACTORS
330
513
102
}
330
1F
100
AcDbEntity
  8
実線
100
AcDbLine
 10
231.9034955937557
 20
552.5966568024953
 30
0.0
 11
234.7534955937558
 21
552.5966568024953
 31
0.0
  0
LINE
  5
288
102
{ACAD_REACTORS
330
513
102
}
330
1F
100
AcDbEntity
  8
実線
100
AcDbLine
 10
234.7534955937558
 20
603.0966568024953
 30
0.0
 11
231.9034955937557
 21
603.0966568024953
 31
0.0
  0
LINE
  5
289
102
{ACAD_REACTORS
330
513
102
}
330
1F
100
AcDbEntity
  8
実線
100
AcDbLine
 10
231.9034955937557
 20
603.0966568024953
 30
0.0
 11
231.9034955937557
 21
552.5966568024953
 31
0.0
  0
LINE
  5
28A
102
{ACAD_REACTORS
330
513
102
}
330
1F
100
AcDbEntity
  8
実線
100
AcDbLine
 10
234.7534955937558
 20
603.0966568024953
 30
0.0
 11
234.7534955937558
 21
552.5966568024953
 31
0.0
  0
LINE
  5
28B
102
{ACAD_REACTORS
330
513
102
}
330
1F
100
AcDbEntity
  8
実線
100
AcDbLine
 10
313.4034955937557
 20
559.2966568024952
 30
0.0
 11
313.4034955937557
 21
562.2966568024952
 31
0.0
  0
LINE
  5
28C
102
{ACAD_REACTORS
330
513
102
}
330
1F
100
AcDbEntity
  8
実線
100
AcDbLine
 10
306.9034955937557
 20
559.2966568024952
 30
0.0
 11
313.4034955937557
 21
559.2966568024952
 31
0.0
  0
LINE
  5
28D
102
{ACAD_REACTORS
330
513
102
}
330
1F
100
AcDbEntity
  8
実線
100
AcDbLine
 10
313.4034955937557
 20
562.2966568024952
 30
0.0
 11
306.9034955937557
 21
562.2966568024952
 31
0.0
  0
LINE
  5
28E
102
{ACAD_REACTORS
330
513
102
}
330
1F
100
AcDbEntity
  8
実線
100
AcDbLine
 10
306.9034955937557
 20
556.8466568024953
 30
0.0
 11
306.9034955937557
 21
564.7466568024952
 31
0.0
  0
LINE
  5
28F
102
{ACAD_REACTORS
330
513
102
}
330
1F
100
AcDbEntity
  8
実線
100
AcDbLine
 10
281.9034955937557
 20
564.7466568024952
 30
0.0
 11
306.9034955937557
 21
564.7466568024952
 31
0.0
  0
LINE
  5
290
102
{ACAD_REACTORS
330
513
102
}
330
1F
100
AcDbEntity
  8
実線
100
AcDbLine
 10
281.9034955937557
 20
564.7466568024952
 30
0.0
 11
281.9034955937557
 21
556.8466568024953
 31
0.0
  0
LINE
  5
291
102
{ACAD_REACTORS
330
513
102
}
330
1F
100
AcDbEntity
  8
実線
100
AcDbLine
 10
281.9034955937557
 20
555.3466568024953
 30
0.0
 11
281.9034955937557
 21
556.8466568024953
 31
0.0
  0
LINE
  5
292
102
{ACAD_REACTORS
330
513
102
}
330
1F
100
AcDbEntity
  8
実線
100
AcDbLine
 10
308.4034955937557
 20
556.8466568024953
 30
0.0
 11
308.4034955937557
 21
555.3466568024953
 31
0.0
  0
LINE
  5
293
102
{ACAD_REACTORS
330
513
102
}
330
1F
100
AcDbEntity
  8
実線
100
AcDbLine
 10
281.9034955937557
 20
556.8466568024953
 30
0.0
 11
308.4034955937557
 21
556.8466568024953
 31
0.0
  0
LINE
  5
294
102
{ACAD_REACTORS
330
513
102
}
330
1F
100
AcDbEntity
  8
実線
100
AcDbLine
 10
308.4034955937557
 20
555.3466568024953
 30
0.0
 11
281.9034955937557
 21
555.3466568024953
 31
0.0
  0
CIRCLE
  5
295
102
{ACAD_REACTORS
330
513
102
}
330
1F
100
AcDbEntity
  8
実線
100
AcDbCircle
 10
286.9034955937557
 20
577.8466568024954
 30
0.0
 40
12.0
  0
CIRCLE
  5
296
102
{ACAD_REACTORS
330
513
102
}
330
1F
100
AcDbEntity
  8
実線
100
AcDbCircle
 10
286.9034955937557
 20
577.8466568024953
 30
0.0
 40
12.5
  0
LINE
  5
297
102
{ACAD_REACTORS
330
513
102
}
330
1F
100
AcDbEntity
  8
実線
100
AcDbLine
 10
333.9034955937557
 20
590.5466568024952
 30
0.0
 11
324.8338264649728
 21
590.5466568024952
 31
0.0
  0
LINE
  5
298
102
{ACAD_REACTORS
330
513
102
}
330
1F
100
AcDbEntity
  8
実線
100
AcDbLine
 10
324.8338264649728
 20
565.1466568024952
 30
0.0
 11
333.9034955937557
 21
565.1466568024952
 31
0.0
  0
LINE
  5
299
102
{ACAD_REACTORS
330
513
102
}
330
1F
100
AcDbEntity
  8
実線
100
AcDbLine
 10
341.9034955937557
 20
603.0966568024953
 30
0.0
 11
339.0534955937557
 21
603.0966568024953
 31
0.0
  0
LINE
  5
29A
102
{ACAD_REACTORS
330
513
102
}
330
1F
100
AcDbEntity
  8
実線
100
AcDbLine
 10
339.0534955937557
 20
552.5966568024953
 30
0.0
 11
341.9034955937557
 21
552.5966568024953
 31
0.0
  0
LINE
  5
29B
102
{ACAD_REACTORS
330
513
102
}
330
1F
100
AcDbEntity
  8
実線
100
AcDbLine
 10
341.9034955937557
 20
552.5966568024953
 30
0.0
 11
341.9034955937557
 21
603.0966568024953
 31
0.0
  0
LINE
  5
29C
102
{ACAD_REACTORS
330
513
102
}
330
1F
100
AcDbEntity
  8
実線
100
AcDbLine
 10
333.9034955937557
 20
565.1466568024952
 30
0.0
 11
339.0534955937557
 21
552.5966568024953
 31
0.0
  0
LINE
  5
29D
102
{ACAD_REACTORS
330
513
102
}
330
1F
100
AcDbEntity
  8
実線
100
AcDbLine
 10
339.0534955937557
 20
603.0966568024953
 30
0.0
 11
333.9034955937557
 21
590.5466568024952
 31
0.0
  0
LINE
  5
29E
102
{ACAD_REACTORS
330
513
102
}
330
1F
100
AcDbEntity
  8
実線
100
AcDbLine
 10
339.0534955937557
 20
552.5966568024953
 30
0.0
 11
339.0534955937557
 21
603.0966568024953
 31
0.0
  0
LINE
  5
29F
102
{ACAD_REACTORS
330
513
102
}
330
1F
100
AcDbEntity
  8
実線
100
AcDbLine
 10
333.9034955937557
 20
565.1466568024952
 30
0.0
 11
333.9034955937557
 21
590.5466568024952
 31
0.0
  0
CIRCLE
  5
2A0
102
{ACAD_REACTORS
330
513
102
}
330
1F
100
AcDbEntity
  8
実線
100
AcDbCircle
 10
286.9034955937557
 20
577.8466568024953
 30
0.0
 40
40.0
  0
CIRCLE
  5
2A3
102
{ACAD_REACTORS
330
513
102
}
330
1F
100
AcDbEntity
  8
実線
100
AcDbCircle
 10
286.9034955937557
 20
549.8466568024952
 30
0.0
 40
2.0
  0
LINE
  5
2A4
102
{ACAD_REACTORS
330
513
102
}
330
1F
100
AcDbEntity
  8
実線
100
AcDbLine
 10
281.9034955937557
 20
545.3466568024952
 30
0.0
 11
281.9034955937557
 21
555.3466568024953
 31
0.0
  0
LINE
  5
2A5
102
{ACAD_REACTORS
330
513
102
}
330
1F
100
AcDbEntity
  8
実線
100
AcDbLine
 10
291.9034955937557
 20
545.3466568024952
 30
0.0
 11
281.9034955937557
 21
545.3466568024952
 31
0.0
  0
LINE
  5
2A6
102
{ACAD_REACTORS
330
513
102
}
330
1F
100
AcDbEntity
  8
実線
100
AcDbLine
 10
291.9034955937557
 20
555.3466568024953
 30
0.0
 11
291.9034955937557
 21
545.3466568024952
 31
0.0
  0
LINE
  5
2A7
102
{ACAD_REACTORS
330
513
102
}
330
1F
100
AcDbEntity
  8
実線
100
AcDbLine
 10
298.4034955937557
 20
564.7466568024952
 30
0.0
 11
298.4034955937557
 21
566.8466568024952
 31
0.0
  0
LINE
  5
2A8
102
{ACAD_REACTORS
330
513
102
}
330
1F
100
AcDbEntity
  8
実線
100
AcDbLine
 10
308.4034955937557
 20
559.2966568024952
 30
0.0
 11
308.4034955937557
 21
556.8466568024953
 31
0.0
  0
LINE
  5
2A9
102
{ACAD_REACTORS
330
513
102
}
330
1F
100
AcDbEntity
  8
実線
100
AcDbLine
 10
308.4034955937557
 20
566.8466568024952
 30
0.0
 11
308.4034955937557
 21
562.2966568024952
 31
0.0
  0
LINE
  5
2AA
102
{ACAD_REACTORS
330
513
102
}
330
1F
100
AcDbEntity
  8
実線
100
AcDbLine
 10
298.4034955937557
 20
566.8466568024952
 30
0.0
 11
308.4034955937557
 21
566.8466568024952
 31
0.0
  0
LINE
  5
2AB
102
{ACAD_REACTORS
330
4C1
102
}
330
1F
100
AcDbEntity
  8
実線
100
AcDbLine
 10
773.9034955937556
 20
230.5466568024955
 30
0.0
 11
754.9034955937557
 21
230.5466568024955
 31
0.0
  0
LINE
  5
2AC
102
{ACAD_REACTORS
330
4C1
102
}
330
1F
100
AcDbEntity
  8
実線
100
AcDbLine
 10
754.9034955937557
 20
205.1466568024956
 30
0.0
 11
773.9034955937556
 21
205.1466568024956
 31
0.0
  0
LINE
  5
2AD
102
{ACAD_REACTORS
330
4C1
102
}
330
1F
100
AcDbEntity
  8
実線
100
AcDbLine
 10
781.9034955937556
 20
192.5966568024955
 30
0.0
 11
781.9034955937556
 21
243.0966568024956
 31
0.0
  0
LINE
  5
2AE
102
{ACAD_REACTORS
330
4C1
102
}
330
1F
100
AcDbEntity
  8
実線
100
AcDbLine
 10
781.9034955937556
 20
243.0966568024956
 30
0.0
 11
779.0534955937557
 21
243.0966568024956
 31
0.0
  0
LINE
  5
2AF
102
{ACAD_REACTORS
330
4C1
102
}
330
1F
100
AcDbEntity
  8
実線
100
AcDbLine
 10
779.0534955937557
 20
192.5966568024955
 30
0.0
 11
781.9034955937556
 21
192.5966568024955
 31
0.0
  0
LINE
  5
2B0
102
{ACAD_REACTORS
330
4C1
102
}
330
1F
100
AcDbEntity
  8
実線
100
AcDbLine
 10
779.0534955937557
 20
192.5966568024955
 30
0.0
 11
779.0534955937557
 21
243.0966568024956
 31
0.0
  0
LINE
  5
2B1
102
{ACAD_REACTORS
330
4C1
102
}
330
1F
100
AcDbEntity
  8
実線
100
AcDbLine
 10
773.9034955937556
 20
205.1466568024956
 30
0.0
 11
773.9034955937556
 21
230.5466568024955
 31
0.0
  0
LINE
  5
2B2
102
{ACAD_REACTORS
330
4C1
102
}
330
1F
100
AcDbEntity
  8
実線
100
AcDbLine
 10
773.9034955937556
 20
205.1466568024956
 30
0.0
 11
779.0534955937557
 21
192.5966568024955
 31
0.0
  0
LINE
  5
2B3
102
{ACAD_REACTORS
330
4C1
102
}
330
1F
100
AcDbEntity
  8
実線
100
AcDbLine
 10
779.0534955937557
 20
243.0966568024956
 30
0.0
 11
773.9034955937556
 21
230.5466568024955
 31
0.0
  0
LINE
  5
2B4
102
{ACAD_REACTORS
330
4C1
102
}
330
1F
100
AcDbEntity
  8
実線
100
AcDbLine
 10
739.6034955937557
 20
195.8466568024955
 30
0.0
 11
739.6034955937557
 21
203.3466568024955
 31
0.0
  0
LINE
  5
2B5
102
{ACAD_REACTORS
330
4C1
102
}
330
1F
100
AcDbEntity
  8
実線
100
AcDbLine
 10
714.2034955937557
 20
203.3466568024955
 30
0.0
 11
714.2034955937557
 21
195.8466568024955
 31
0.0
  0
LINE
  5
2B6
102
{ACAD_REACTORS
330
4C1
102
}
330
1F
100
AcDbEntity
  8
実線
100
AcDbLine
 10
701.6534955937555
 20
187.8466568024956
 30
0.0
 11
752.1534955937556
 21
187.8466568024956
 31
0.0
  0
LINE
  5
2B7
102
{ACAD_REACTORS
330
4C1
102
}
330
1F
100
AcDbEntity
  8
実線
100
AcDbLine
 10
752.1534955937556
 20
187.8466568024956
 30
0.0
 11
752.1534955937556
 21
190.6966568024956
 31
0.0
  0
LINE
  5
2B8
102
{ACAD_REACTORS
330
4C1
102
}
330
1F
100
AcDbEntity
  8
実線
100
AcDbLine
 10
701.6534955937555
 20
190.6966568024956
 30
0.0
 11
701.6534955937555
 21
187.8466568024956
 31
0.0
  0
LINE
  5
2B9
102
{ACAD_REACTORS
330
4C1
102
}
330
1F
100
AcDbEntity
  8
実線
100
AcDbLine
 10
701.6534955937555
 20
190.6966568024956
 30
0.0
 11
752.1534955937556
 21
190.6966568024956
 31
0.0
  0
LINE
  5
2BA
102
{ACAD_REACTORS
330
4C1
102
}
330
1F
100
AcDbEntity
  8
実線
100
AcDbLine
 10
714.2034955937557
 20
195.8466568024955
 30
0.0
 11
739.6034955937557
 21
195.8466568024955
 31
0.0
  0
LINE
  5
2BB
102
{ACAD_REACTORS
330
4C1
102
}
330
1F
100
AcDbEntity
  8
実線
100
AcDbLine
 10
714.2034955937557
 20
195.8466568024955
 30
0.0
 11
701.6534955937555
 21
190.6966568024956
 31
0.0
  0
LINE
  5
2BC
102
{ACAD_REACTORS
330
4C1
102
}
330
1F
100
AcDbEntity
  8
実線
100
AcDbLine
 10
752.1534955937556
 20
190.6966568024956
 30
0.0
 11
739.6034955937557
 21
195.8466568024955
 31
0.0
  0
LINE
  5
2BD
102
{ACAD_REACTORS
330
4C1
102
}
330
1F
100
AcDbEntity
  8
実線
100
AcDbLine
 10
686.9034955937556
 20
337.4466568024956
 30
0.0
 11
766.9034955937556
 21
337.4466568024956
 31
0.0
  0
LINE
  5
2BE
102
{ACAD_REACTORS
330
4C1
102
}
330
1F
100
AcDbEntity
  8
実線
100
AcDbLine
 10
766.9034955937556
 20
251.5466568024955
 30
0.0
 11
766.9034955937556
 21
337.4466568024956
 31
0.0
  0
LINE
  5
2BF
102
{ACAD_REACTORS
330
4C1
102
}
330
1F
100
AcDbEntity
  8
実線
100
AcDbLine
 10
686.9034955937556
 20
337.4466568024956
 30
0.0
 11
686.9034955937556
 21
251.5466568024954
 31
0.0
  0
LINE
  5
2C0
102
{ACAD_REACTORS
330
4C1
102
}
330
1F
100
AcDbEntity
  8
実線
100
AcDbLine
 10
706.9034955937556
 20
467.1466568024954
 30
0.0
 11
700.4034955937556
 21
467.1466568024954
 31
0.0
  0
LINE
  5
2C1
102
{ACAD_REACTORS
330
4C1
102
}
330
1F
100
AcDbEntity
  8
実線
100
AcDbLine
 10
700.4034955937556
 20
464.1466568024955
 30
0.0
 11
706.9034955937556
 21
464.1466568024955
 31
0.0
  0
LINE
  5
2C2
102
{ACAD_REACTORS
330
4C1
102
}
330
1F
100
AcDbEntity
  8
実線
100
AcDbLine
 10
700.4034955937556
 20
467.1466568024954
 30
0.0
 11
700.4034955937556
 21
464.1466568024955
 31
0.0
  0
LINE
  5
2C3
102
{ACAD_REACTORS
330
4C1
102
}
330
1F
100
AcDbEntity
  8
実線
100
AcDbLine
 10
731.9034955937556
 20
469.5966568024955
 30
0.0
 11
706.9034955937556
 21
469.5966568024955
 31
0.0
  0
LINE
  5
2C4
102
{ACAD_REACTORS
330
4C1
102
}
330
1F
100
AcDbEntity
  8
実線
100
AcDbLine
 10
731.9034955937556
 20
465.6466568024954
 30
0.0
 11
731.9034955937556
 21
469.5966568024955
 31
0.0
  0
LINE
  5
2C5
102
{ACAD_REACTORS
330
4C1
102
}
330
1F
100
AcDbEntity
  8
実線
100
AcDbLine
 10
706.9034955937556
 20
469.5966568024955
 30
0.0
 11
706.9034955937556
 21
461.6966568024955
 31
0.0
  0
LINE
  5
2C6
102
{ACAD_REACTORS
330
4C1
102
}
330
1F
100
AcDbEntity
  8
実線
100
AcDbLine
 10
714.9034955937557
 20
461.6966568024955
 30
0.0
 11
706.9034955937556
 21
461.6966568024955
 31
0.0
  0
LINE
  5
2C7
102
{ACAD_REACTORS
330
4C1
102
}
330
1F
100
AcDbEntity
  8
実線
100
AcDbLine
 10
706.9034955937556
 20
458.5966568024955
 30
0.0
 11
706.9034955937556
 21
450.6966568024956
 31
0.0
  0
LINE
  5
2C8
102
{ACAD_REACTORS
330
4C1
102
}
330
1F
100
AcDbEntity
  8
実線
100
AcDbLine
 10
718.9034955937557
 20
458.5966568024955
 30
0.0
 11
706.9034955937556
 21
458.5966568024955
 31
0.0
  0
LINE
  5
2C9
102
{ACAD_REACTORS
330
4C1
102
}
330
1F
100
AcDbEntity
  8
実線
100
AcDbLine
 10
721.9034955937557
 20
450.6966568024956
 30
0.0
 11
706.9034955937556
 21
450.6966568024956
 31
0.0
  0
LINE
  5
2CA
102
{ACAD_REACTORS
330
4C1
102
}
330
1F
100
AcDbEntity
  8
実線
100
AcDbLine
 10
706.9034955937556
 20
456.1466568024955
 30
0.0
 11
700.4034955937556
 21
456.1466568024955
 31
0.0
  0
LINE
  5
2CB
102
{ACAD_REACTORS
330
4C1
102
}
330
1F
100
AcDbEntity
  8
実線
100
AcDbLine
 10
700.4034955937556
 20
453.1466568024954
 30
0.0
 11
706.9034955937556
 21
453.1466568024954
 31
0.0
  0
LINE
  5
2CC
102
{ACAD_REACTORS
330
4C1
102
}
330
1F
100
AcDbEntity
  8
実線
100
AcDbLine
 10
700.4034955937556
 20
456.1466568024955
 30
0.0
 11
700.4034955937556
 21
453.1466568024954
 31
0.0
  0
LINE
  5
2CD
102
{ACAD_REACTORS
330
4C1
102
}
330
1F
100
AcDbEntity
  8
実線
100
AcDbLine
 10
731.9034955937556
 20
473.6466568024954
 30
0.0
 11
705.4034955937555
 21
473.6466568024954
 31
0.0
  0
LINE
  5
2CE
102
{ACAD_REACTORS
330
4C1
102
}
330
1F
100
AcDbEntity
  8
実線
100
AcDbLine
 10
731.9034955937556
 20
469.5966568024955
 30
0.0
 11
731.9034955937556
 21
473.6466568024954
 31
0.0
  0
LINE
  5
2CF
102
{ACAD_REACTORS
330
4C1
102
}
330
1F
100
AcDbEntity
  8
実線
100
AcDbLine
 10
705.4034955937555
 20
467.1466568024954
 30
0.0
 11
705.4034955937555
 21
473.6466568024954
 31
0.0
  0
LINE
  5
2D0
102
{ACAD_REACTORS
330
4C1
102
}
330
1F
100
AcDbEntity
  8
実線
100
AcDbLine
 10
705.4034955937555
 20
456.1466568024955
 30
0.0
 11
705.4034955937555
 21
464.1466568024955
 31
0.0
  0
LINE
  5
2D1
102
{ACAD_REACTORS
330
4C1
102
}
330
1F
100
AcDbEntity
  8
実線
100
AcDbLine
 10
705.4034955937555
 20
412.1466568024954
 30
0.0
 11
705.4034955937555
 21
453.1466568024954
 31
0.0
  0
LINE
  5
2D2
102
{ACAD_REACTORS
330
4C1
102
}
330
1F
100
AcDbEntity
  8
実線
100
AcDbLine
 10
714.9034955937557
 20
465.6466568024954
 30
0.0
 11
738.9034955937557
 21
465.6466568024954
 31
0.0
  0
LINE
  5
2D3
102
{ACAD_REACTORS
330
4C1
102
}
330
1F
100
AcDbEntity
  8
実線
100
AcDbLine
 10
738.9034955937557
 20
461.1466568024954
 30
0.0
 11
738.9034955937557
 21
465.6466568024954
 31
0.0
  0
LINE
  5
2D4
102
{ACAD_REACTORS
330
4C1
102
}
330
1F
100
AcDbEntity
  8
実線
100
AcDbLine
 10
714.9034955937557
 20
465.6466568024954
 30
0.0
 11
714.9034955937557
 21
461.1466568024954
 31
0.0
  0
LINE
  5
2D5
102
{ACAD_REACTORS
330
4C1
102
}
330
1F
100
AcDbEntity
  8
実線
100
AcDbLine
 10
738.9034955937557
 20
461.1466568024954
 30
0.0
 11
714.9034955937557
 21
461.1466568024954
 31
0.0
  0
LINE
  5
2D6
102
{ACAD_REACTORS
330
4C1
102
}
330
1F
100
AcDbEntity
  8
実線
100
AcDbLine
 10
734.9034955937557
 20
455.6466568024955
 30
0.0
 11
734.9034955937557
 21
461.1466568024954
 31
0.0
  0
LINE
  5
2D7
102
{ACAD_REACTORS
330
4C1
102
}
330
1F
100
AcDbEntity
  8
実線
100
AcDbLine
 10
718.9034955937557
 20
461.1466568024954
 30
0.0
 11
718.9034955937557
 21
455.6466568024955
 31
0.0
  0
LINE
  5
2D8
102
{ACAD_REACTORS
330
4C1
102
}
330
1F
100
AcDbEntity
  8
実線
100
AcDbLine
 10
734.9034955937557
 20
455.6466568024955
 30
0.0
 11
718.9034955937556
 21
455.6466568024955
 31
0.0
  0
LINE
  5
2D9
102
{ACAD_REACTORS
330
4C1
102
}
330
1F
100
AcDbEntity
  8
実線
100
AcDbLine
 10
731.9034955937556
 20
442.4466568024953
 30
0.0
 11
731.9034955937556
 21
455.6466568024955
 31
0.0
  0
LINE
  5
2DA
102
{ACAD_REACTORS
330
4C1
102
}
330
1F
100
AcDbEntity
  8
実線
100
AcDbLine
 10
721.9034955937557
 20
455.6466568024955
 30
0.0
 11
721.9034955937557
 21
442.4466568024955
 31
0.0
  0
LINE
  5
2DB
102
{ACAD_REACTORS
330
4C1
102
}
330
1F
100
AcDbEntity
  8
実線
100
AcDbLine
 10
717.1034955937557
 20
442.4466568024955
 30
0.0
 11
736.7034955937557
 21
442.4466568024955
 31
0.0
  0
LINE
  5
2DC
102
{ACAD_REACTORS
330
4C1
102
}
330
1F
100
AcDbEntity
  8
実線
100
AcDbLine
 10
736.7034955937557
 20
436.4466568024956
 30
0.0
 11
736.7034955937557
 21
442.4466568024955
 31
0.0
  0
LINE
  5
2DD
102
{ACAD_REACTORS
330
4C1
102
}
330
1F
100
AcDbEntity
  8
実線
100
AcDbLine
 10
717.1034955937557
 20
442.4466568024955
 30
0.0
 11
717.1034955937557
 21
436.4466568024956
 31
0.0
  0
LINE
  5
2DE
102
{ACAD_REACTORS
330
4C1
102
}
330
1F
100
AcDbEntity
  8
実線
100
AcDbLine
 10
717.1034955937557
 20
436.4466568024956
 30
0.0
 11
736.7034955937557
 21
436.4466568024956
 31
0.0
  0
LINE
  5
2DF
102
{ACAD_REACTORS
330
4C1
102
}
330
1F
100
AcDbEntity
  8
実線
100
AcDbLine
 10
736.7034955937557
 20
426.4466568024955
 30
0.0
 11
736.7034955937557
 21
436.4466568024956
 31
0.0
  0
LINE
  5
2E0
102
{ACAD_REACTORS
330
4C1
102
}
330
1F
100
AcDbEntity
  8
実線
100
AcDbLine
 10
717.1034955937557
 20
436.4466568024956
 30
0.0
 11
717.1034955937557
 21
426.4466568024955
 31
0.0
  0
LINE
  5
2E1
102
{ACAD_REACTORS
330
4C1
102
}
330
1F
100
AcDbEntity
  8
実線
100
AcDbLine
 10
714.4034955937556
 20
426.4466568024955
 30
0.0
 11
739.4034955937557
 21
426.4466568024955
 31
0.0
  0
LINE
  5
2E2
102
{ACAD_REACTORS
330
4C1
102
}
330
1F
100
AcDbEntity
  8
実線
100
AcDbLine
 10
739.4034955937557
 20
410.6466568024955
 30
0.0
 11
739.4034955937557
 21
426.4466568024955
 31
0.0
  0
LINE
  5
2E3
102
{ACAD_REACTORS
330
4C1
102
}
330
1F
100
AcDbEntity
  8
実線
100
AcDbLine
 10
714.4034955937556
 20
426.4466568024955
 30
0.0
 11
714.4034955937556
 21
410.6466568024955
 31
0.0
  0
LINE
  5
2E4
102
{ACAD_REACTORS
330
4C1
102
}
330
1F
100
AcDbEntity
  8
実線
100
AcDbLine
 10
766.9034955937556
 20
351.4466568024956
 30
0.0
 11
766.9034955937556
 21
405.6466568024955
 31
0.0
  0
LINE
  5
2E5
102
{ACAD_REACTORS
330
4C1
102
}
330
1F
100
AcDbEntity
  8
実線
100
AcDbLine
 10
686.9034955937556
 20
405.6466568024955
 30
0.0
 11
686.9034955937556
 21
351.4466568024956
 31
0.0
  0
LINE
  5
2E6
102
{ACAD_REACTORS
330
4C1
102
}
330
1F
100
AcDbEntity
  8
実線
100
AcDbLine
 10
686.9034955937556
 20
351.4466568024956
 30
0.0
 11
766.9034955937556
 21
351.4466568024956
 31
0.0
  0
LINE
  5
2E7
102
{ACAD_REACTORS
330
4C1
102
}
330
1F
100
AcDbEntity
  8
実線
100
AcDbLine
 10
766.9034955937556
 20
337.4466568024956
 30
0.0
 11
766.9034955937556
 21
351.4466568024956
 31
0.0
  0
LINE
  5
2E8
102
{ACAD_REACTORS
330
4C1
102
}
330
1F
100
AcDbEntity
  8
実線
100
AcDbLine
 10
686.9034955937556
 20
351.4466568024956
 30
0.0
 11
686.9034955937556
 21
337.4466568024956
 31
0.0
  0
LINE
  5
2E9
102
{ACAD_REACTORS
330
4C1
102
}
330
1F
100
AcDbEntity
  8
実線
100
AcDbLine
 10
679.9034955937557
 20
205.1466568024956
 30
0.0
 11
698.9034955937556
 21
205.1466568024956
 31
0.0
  0
LINE
  5
2EA
102
{ACAD_REACTORS
330
4C1
102
}
330
1F
100
AcDbEntity
  8
実線
100
AcDbLine
 10
698.9034955937556
 20
230.5466568024955
 30
0.0
 11
679.9034955937557
 21
230.5466568024955
 31
0.0
  0
LINE
  5
2EB
102
{ACAD_REACTORS
330
4C1
102
}
330
1F
100
AcDbEntity
  8
実線
100
AcDbLine
 10
679.9034955937557
 20
230.5466568024955
 30
0.0
 11
674.7534955937555
 21
243.0966568024956
 31
0.0
  0
LINE
  5
2EC
102
{ACAD_REACTORS
330
4C1
102
}
330
1F
100
AcDbEntity
  8
実線
100
AcDbLine
 10
674.7534955937555
 20
192.5966568024955
 30
0.0
 11
679.9034955937557
 21
205.1466568024956
 31
0.0
  0
LINE
  5
2ED
102
{ACAD_REACTORS
330
4C1
102
}
330
1F
100
AcDbEntity
  8
実線
100
AcDbLine
 10
679.9034955937557
 20
230.5466568024955
 30
0.0
 11
679.9034955937557
 21
205.1466568024956
 31
0.0
  0
LINE
  5
2EE
102
{ACAD_REACTORS
330
4C1
102
}
330
1F
100
AcDbEntity
  8
実線
100
AcDbLine
 10
671.9034955937557
 20
192.5966568024955
 30
0.0
 11
674.7534955937555
 21
192.5966568024955
 31
0.0
  0
LINE
  5
2EF
102
{ACAD_REACTORS
330
4C1
102
}
330
1F
100
AcDbEntity
  8
実線
100
AcDbLine
 10
674.7534955937555
 20
243.0966568024956
 30
0.0
 11
671.9034955937557
 21
243.0966568024956
 31
0.0
  0
LINE
  5
2F0
102
{ACAD_REACTORS
330
4C1
102
}
330
1F
100
AcDbEntity
  8
実線
100
AcDbLine
 10
671.9034955937557
 20
192.5966568024955
 30
0.0
 11
671.9034955937557
 21
243.0966568024956
 31
0.0
  0
LINE
  5
2F1
102
{ACAD_REACTORS
330
4C1
102
}
330
1F
100
AcDbEntity
  8
実線
100
AcDbLine
 10
674.7534955937555
 20
192.5966568024955
 30
0.0
 11
674.7534955937555
 21
243.0966568024956
 31
0.0
  0
LINE
  5
2F2
102
{ACAD_REACTORS
330
4C1
102
}
330
1F
100
AcDbEntity
  8
実線
100
AcDbLine
 10
761.9034955937556
 20
410.6466568024955
 30
0.0
 11
691.9034955937555
 21
410.6466568024955
 31
0.0
  0
ARC
  5
2F3
102
{ACAD_REACTORS
330
4C1
102
}
330
1F
100
AcDbEntity
  8
実線
100
AcDbCircle
 10
761.9034955937556
 20
405.6466568024955
 30
0.0
 40
5.0
100
AcDbArc
 50
0.0
 51
90.0
  0
ARC
  5
2F4
102
{ACAD_REACTORS
330
4C1
102
}
330
1F
100
AcDbEntity
  8
実線
100
AcDbCircle
 10
691.9034955937555
 20
405.6466568024955
 30
0.0
 40
5.0
100
AcDbArc
 50
90.0
 51
180.0
  0
LINE
  5
2F5
102
{ACAD_REACTORS
330
4C1
102
}
330
1F
100
AcDbEntity
  8
実線
100
AcDbLine
 10
766.9034955937556
 20
405.6466568024955
 30
0.0
 11
686.9034955937556
 21
405.6466568024955
 31
0.0
  0
LINE
  5
2F6
102
{ACAD_REACTORS
330
4C1
102
}
330
1F
100
AcDbEntity
  8
実線
100
AcDbLine
 10
698.9034955937556
 20
203.3466568024955
 30
0.0
 11
754.9034955937557
 21
203.3466568024955
 31
0.0
  0
LINE
  5
2F7
102
{ACAD_REACTORS
330
4C1
102
}
330
1F
100
AcDbEntity
  8
実線
100
AcDbLine
 10
698.9034955937556
 20
203.3466568024955
 30
0.0
 11
698.9034955937556
 21
238.5466568024956
 31
0.0
  0
LINE
  5
2F8
102
{ACAD_REACTORS
330
4C1
102
}
330
1F
100
AcDbEntity
  8
実線
100
AcDbLine
 10
754.9034955937557
 20
203.3466568024955
 30
0.0
 11
754.9034955937557
 21
238.5466568024956
 31
0.0
  0
LINE
  5
2F9
102
{ACAD_REACTORS
330
4C1
102
}
330
1F
100
AcDbEntity
  8
実線
100
AcDbLine
 10
720.9034955937556
 20
228.5466568024955
 30
0.0
 11
698.9034955937556
 21
228.5466568024955
 31
0.0
  0
LINE
  5
2FA
102
{ACAD_REACTORS
330
4C1
102
}
330
1F
100
AcDbEntity
  8
実線
100
AcDbLine
 10
732.9034955937556
 20
228.5466568024955
 30
0.0
 11
754.9034955937557
 21
228.5466568024955
 31
0.0
  0
LINE
  5
2FB
102
{ACAD_REACTORS
330
4C1
102
}
330
1F
100
AcDbEntity
  8
実線
100
AcDbLine
 10
754.9034955937557
 20
238.5466568024956
 30
0.0
 11
698.9034955937556
 21
238.5466568024956
 31
0.0
  0
LINE
  5
2FC
102
{ACAD_REACTORS
330
4C1
102
}
330
1F
100
AcDbEntity
  8
実線
100
AcDbLine
 10
732.9034955937556
 20
203.3466568024955
 30
0.0
 11
732.9034955937556
 21
228.5466568024955
 31
0.0
  0
LINE
  5
2FD
102
{ACAD_REACTORS
330
4C1
102
}
330
1F
100
AcDbEntity
  8
実線
100
AcDbLine
 10
720.9034955937556
 20
203.3466568024955
 30
0.0
 11
720.9034955937556
 21
228.5466568024955
 31
0.0
  0
LINE
  5
2FE
102
{ACAD_REACTORS
330
4C1
102
}
330
1F
100
AcDbEntity
  8
実線
100
AcDbLine
 10
698.9034955937556
 20
238.5466568024956
 30
0.0
 11
686.9034955937556
 21
250.5466568024955
 31
0.0
  0
LINE
  5
2FF
102
{ACAD_REACTORS
330
4C1
102
}
330
1F
100
AcDbEntity
  8
実線
100
AcDbLine
 10
754.9034955937557
 20
238.5466568024956
 30
0.0
 11
766.9034955937556
 21
250.5466568024955
 31
0.0
  0
LINE
  5
300
102
{ACAD_REACTORS
330
4C1
102
}
330
1F
100
AcDbEntity
  8
実線
100
AcDbLine
 10
766.9034955937556
 20
251.5466568024955
 30
0.0
 11
686.9034955937556
 21
251.5466568024955
 31
0.0
  0
ARC
  5
301
102
{ACAD_REACTORS
330
4C1
102
}
330
1F
100
AcDbEntity
  8
実線
100
AcDbCircle
 10
726.9034955937556
 20
210.5466568024955
 30
0.0
 40
40.0
100
AcDbArc
 50
45.0
 51
135.0
  0
LINE
  5
302
102
{ACAD_REACTORS
330
4C1
102
}
330
1F
100
AcDbEntity
  8
実線
100
AcDbLine
 10
766.9034955937556
 20
250.5466568024955
 30
0.0
 11
766.9034955937556
 21
251.5466568024955
 31
0.0
  0
LINE
  5
303
102
{ACAD_REACTORS
330
4C1
102
}
330
1F
100
AcDbEntity
  8
実線
100
AcDbLine
 10
686.9034955937556
 20
251.5466568024955
 30
0.0
 11
686.9034955937556
 21
250.5466568024955
 31
0.0
  0
LINE
  5
304
102
{ACAD_REACTORS
330
4C1
102
}
330
1F
100
AcDbEntity
  8
実線
100
AcDbLine
 10
714.4034955937556
 20
412.1466568024954
 30
0.0
 11
705.4034955937555
 21
412.1466568024954
 31
0.0
  0
LINE
  5
305
102
{ACAD_REACTORS
330
4C1
102
}
330
1F
100
AcDbEntity
  8
実線
100
AcDbLine
 10
705.4034955937555
 20
410.6466568024955
 30
0.0
 11
705.4034955937555
 21
412.1466568024954
 31
0.0
  0
LINE
  5
306
102
{ACAD_REACTORS
330
4C2
102
}
330
1F
100
AcDbEntity
  8
実線
100
AcDbLine
 10
519.6034955937559
 20
195.8466568024955
 30
0.0
 11
519.6034955937559
 21
196.0229884582414
 31
0.0
  0
LINE
  5
307
102
{ACAD_REACTORS
330
4C2
102
}
330
1F
100
AcDbEntity
  8
実線
100
AcDbLine
 10
494.203495593756
 20
196.0229884582414
 30
0.0
 11
494.203495593756
 21
195.8466568024955
 31
0.0
  0
LINE
  5
308
102
{ACAD_REACTORS
330
4C2
102
}
330
1F
100
AcDbEntity
  8
実線
100
AcDbLine
 10
519.2955293251497
 20
195.8466568024955
 30
0.0
 11
519.6034955937559
 21
195.8466568024955
 31
0.0
  0
LINE
  5
309
102
{ACAD_REACTORS
330
4C2
102
}
330
1F
100
AcDbEntity
  8
実線
100
AcDbLine
 10
494.203495593756
 20
195.8466568024955
 30
0.0
 11
481.653495593756
 21
190.6966568024956
 31
0.0
  0
LINE
  5
30A
102
{ACAD_REACTORS
330
4C2
102
}
330
1F
100
AcDbEntity
  8
実線
100
AcDbLine
 10
532.1534955937559
 20
190.6966568024956
 30
0.0
 11
519.6034955937559
 21
195.8466568024955
 31
0.0
  0
LINE
  5
30B
102
{ACAD_REACTORS
330
4C2
102
}
330
1F
100
AcDbEntity
  8
実線
100
AcDbLine
 10
494.203495593756
 20
195.8466568024955
 30
0.0
 11
494.5114618623623
 21
195.8466568024955
 31
0.0
  0
LINE
  5
30C
102
{ACAD_REACTORS
330
4C2
102
}
330
1F
100
AcDbEntity
  8
実線
100
AcDbLine
 10
532.1534955937559
 20
187.8466568024956
 30
0.0
 11
481.653495593756
 21
187.8466568024956
 31
0.0
  0
LINE
  5
30D
102
{ACAD_REACTORS
330
4C2
102
}
330
1F
100
AcDbEntity
  8
実線
100
AcDbLine
 10
532.1534955937559
 20
190.6966568024956
 30
0.0
 11
481.653495593756
 21
190.6966568024956
 31
0.0
  0
LINE
  5
30E
102
{ACAD_REACTORS
330
4C2
102
}
330
1F
100
AcDbEntity
  8
実線
100
AcDbLine
 10
532.1534955937559
 20
187.8466568024956
 30
0.0
 11
532.1534955937559
 21
190.6966568024956
 31
0.0
  0
LINE
  5
30F
102
{ACAD_REACTORS
330
4C2
102
}
330
1F
100
AcDbEntity
  8
実線
100
AcDbLine
 10
481.653495593756
 20
190.6966568024956
 30
0.0
 11
481.653495593756
 21
187.8466568024956
 31
0.0
  0
LINE
  5
310
102
{ACAD_REACTORS
330
4C2
102
}
330
1F
100
AcDbEntity
  8
実線
100
AcDbLine
 10
546.9034955937559
 20
337.4466568024956
 30
0.0
 11
466.903495593756
 21
337.4466568024956
 31
0.0
  0
LINE
  5
311
102
{ACAD_REACTORS
330
4C2
102
}
330
1F
100
AcDbEntity
  8
実線
100
AcDbLine
 10
546.9034955937559
 20
251.5466568024955
 30
0.0
 11
546.9034955937559
 21
337.4466568024956
 31
0.0
  0
LINE
  5
312
102
{ACAD_REACTORS
330
4C2
102
}
330
1F
100
AcDbEntity
  8
実線
100
AcDbLine
 10
466.903495593756
 20
337.4466568024956
 30
0.0
 11
466.903495593756
 21
251.5466568024954
 31
0.0
  0
CIRCLE
  5
313
102
{ACAD_REACTORS
330
4C2
102
}
330
1F
100
AcDbEntity
  8
実線
100
AcDbCircle
 10
489.853495593756
 20
465.6466568024954
 30
0.0
 40
1.5
  0
LINE
  5
314
102
{ACAD_REACTORS
330
4C2
102
}
330
1F
100
AcDbEntity
  8
実線
100
AcDbLine
 10
493.803495593756
 20
461.6966568024955
 30
0.0
 11
485.903495593756
 21
461.6966568024955
 31
0.0
  0
LINE
  5
315
102
{ACAD_REACTORS
330
4C2
102
}
330
1F
100
AcDbEntity
  8
実線
100
AcDbLine
 10
493.803495593756
 20
469.5966568024955
 30
0.0
 11
493.803495593756
 21
461.6966568024955
 31
0.0
  0
LINE
  5
316
102
{ACAD_REACTORS
330
4C2
102
}
330
1F
100
AcDbEntity
  8
実線
100
AcDbLine
 10
485.903495593756
 20
469.5966568024955
 30
0.0
 11
493.803495593756
 21
469.5966568024955
 31
0.0
  0
LINE
  5
317
102
{ACAD_REACTORS
330
4C2
102
}
330
1F
100
AcDbEntity
  8
実線
100
AcDbLine
 10
493.803495593756
 20
450.6966568024956
 30
0.0
 11
485.903495593756
 21
450.6966568024956
 31
0.0
  0
LINE
  5
318
102
{ACAD_REACTORS
330
4C2
102
}
330
1F
100
AcDbEntity
  8
実線
100
AcDbLine
 10
493.803495593756
 20
458.5966568024955
 30
0.0
 11
493.803495593756
 21
450.6966568024956
 31
0.0
  0
LINE
  5
319
102
{ACAD_REACTORS
330
4C2
102
}
330
1F
100
AcDbEntity
  8
実線
100
AcDbLine
 10
485.903495593756
 20
458.5966568024955
 30
0.0
 11
493.803495593756
 21
458.5966568024955
 31
0.0
  0
CIRCLE
  5
31A
102
{ACAD_REACTORS
330
4C2
102
}
330
1F
100
AcDbEntity
  8
実線
100
AcDbCircle
 10
489.853495593756
 20
454.6466568024954
 30
0.0
 40
1.5
  0
LINE
  5
31B
102
{ACAD_REACTORS
330
4C2
102
}
330
1F
100
AcDbEntity
  8
実線
100
AcDbLine
 10
485.903495593756
 20
473.6466568024954
 30
0.0
 11
485.903495593756
 21
410.6466568024955
 31
0.0
  0
LINE
  5
31C
102
{ACAD_REACTORS
330
4C2
102
}
330
1F
100
AcDbEntity
  8
実線
100
AcDbLine
 10
485.903495593756
 20
473.6466568024954
 30
0.0
 11
484.4034955937559
 21
473.6466568024954
 31
0.0
  0
LINE
  5
31D
102
{ACAD_REACTORS
330
4C2
102
}
330
1F
100
AcDbEntity
  8
実線
100
AcDbLine
 10
484.4034955937559
 20
410.6466568024955
 30
0.0
 11
484.4034955937559
 21
473.6466568024954
 31
0.0
  0
LINE
  5
31E
102
{ACAD_REACTORS
330
4C2
102
}
330
1F
100
AcDbEntity
  8
実線
100
AcDbLine
 10
494.903495593756
 20
461.1466568024954
 30
0.0
 11
518.903495593756
 21
461.1466568024954
 31
0.0
  0
LINE
  5
31F
102
{ACAD_REACTORS
330
4C2
102
}
330
1F
100
AcDbEntity
  8
実線
100
AcDbLine
 10
518.903495593756
 20
465.6466568024954
 30
0.0
 11
494.903495593756
 21
465.6466568024954
 31
0.0
  0
LINE
  5
320
102
{ACAD_REACTORS
330
4C2
102
}
330
1F
100
AcDbEntity
  8
実線
100
AcDbLine
 10
518.903495593756
 20
461.1466568024954
 30
0.0
 11
518.903495593756
 21
465.6466568024954
 31
0.0
  0
LINE
  5
321
102
{ACAD_REACTORS
330
4C2
102
}
330
1F
100
AcDbEntity
  8
実線
100
AcDbLine
 10
494.903495593756
 20
465.6466568024954
 30
0.0
 11
494.903495593756
 21
461.1466568024954
 31
0.0
  0
LINE
  5
322
102
{ACAD_REACTORS
330
4C2
102
}
330
1F
100
AcDbEntity
  8
実線
100
AcDbLine
 10
498.903495593756
 20
455.6466568024955
 30
0.0
 11
514.903495593756
 21
455.6466568024955
 31
0.0
  0
LINE
  5
323
102
{ACAD_REACTORS
330
4C2
102
}
330
1F
100
AcDbEntity
  8
実線
100
AcDbLine
 10
514.903495593756
 20
455.6466568024955
 30
0.0
 11
514.903495593756
 21
461.1466568024954
 31
0.0
  0
LINE
  5
324
102
{ACAD_REACTORS
330
4C2
102
}
330
1F
100
AcDbEntity
  8
実線
100
AcDbLine
 10
498.903495593756
 20
461.1466568024954
 30
0.0
 11
498.903495593756
 21
455.6466568024955
 31
0.0
  0
LINE
  5
325
102
{ACAD_REACTORS
330
4C2
102
}
330
1F
100
AcDbEntity
  8
実線
100
AcDbLine
 10
511.903495593756
 20
442.4466568024953
 30
0.0
 11
511.903495593756
 21
455.6466568024955
 31
0.0
  0
LINE
  5
326
102
{ACAD_REACTORS
330
4C2
102
}
330
1F
100
AcDbEntity
  8
実線
100
AcDbLine
 10
501.903495593756
 20
455.6466568024955
 30
0.0
 11
501.903495593756
 21
442.4466568024955
 31
0.0
  0
LINE
  5
327
102
{ACAD_REACTORS
330
4C2
102
}
330
1F
100
AcDbEntity
  8
実線
100
AcDbLine
 10
516.7034955937561
 20
442.4466568024955
 30
0.0
 11
497.103495593756
 21
442.4466568024955
 31
0.0
  0
LINE
  5
328
102
{ACAD_REACTORS
330
4C2
102
}
330
1F
100
AcDbEntity
  8
実線
100
AcDbLine
 10
516.7034955937561
 20
436.4466568024956
 30
0.0
 11
516.7034955937561
 21
442.4466568024955
 31
0.0
  0
LINE
  5
329
102
{ACAD_REACTORS
330
4C2
102
}
330
1F
100
AcDbEntity
  8
実線
100
AcDbLine
 10
497.103495593756
 20
442.4466568024955
 30
0.0
 11
497.103495593756
 21
436.4466568024956
 31
0.0
  0
LINE
  5
32A
102
{ACAD_REACTORS
330
4C2
102
}
330
1F
100
AcDbEntity
  8
実線
100
AcDbLine
 10
516.7034955937561
 20
436.4466568024956
 30
0.0
 11
497.103495593756
 21
436.4466568024956
 31
0.0
  0
LINE
  5
32B
102
{ACAD_REACTORS
330
4C2
102
}
330
1F
100
AcDbEntity
  8
実線
100
AcDbLine
 10
516.7034955937561
 20
426.4466568024955
 30
0.0
 11
516.7034955937561
 21
436.4466568024956
 31
0.0
  0
LINE
  5
32C
102
{ACAD_REACTORS
330
4C2
102
}
330
1F
100
AcDbEntity
  8
実線
100
AcDbLine
 10
497.103495593756
 20
436.4466568024956
 30
0.0
 11
497.103495593756
 21
426.4466568024955
 31
0.0
  0
LINE
  5
32D
102
{ACAD_REACTORS
330
4C2
102
}
330
1F
100
AcDbEntity
  8
実線
100
AcDbLine
 10
519.403495593756
 20
426.4466568024955
 30
0.0
 11
494.403495593756
 21
426.4466568024955
 31
0.0
  0
LINE
  5
32E
102
{ACAD_REACTORS
330
4C2
102
}
330
1F
100
AcDbEntity
  8
実線
100
AcDbLine
 10
519.403495593756
 20
410.6466568024955
 30
0.0
 11
519.403495593756
 21
426.4466568024955
 31
0.0
  0
LINE
  5
32F
102
{ACAD_REACTORS
330
4C2
102
}
330
1F
100
AcDbEntity
  8
実線
100
AcDbLine
 10
494.403495593756
 20
426.4466568024955
 30
0.0
 11
494.403495593756
 21
412.1466568024954
 31
0.0
  0
LINE
  5
330
102
{ACAD_REACTORS
330
4C2
102
}
330
1F
100
AcDbEntity
  8
実線
100
AcDbLine
 10
546.9034955937559
 20
405.6466568024955
 30
0.0
 11
466.903495593756
 21
405.6466568024955
 31
0.0
  0
LINE
  5
331
102
{ACAD_REACTORS
330
4C2
102
}
330
1F
100
AcDbEntity
  8
実線
100
AcDbLine
 10
546.9034955937559
 20
351.4466568024956
 30
0.0
 11
546.9034955937559
 21
405.6466568024955
 31
0.0
  0
LINE
  5
332
102
{ACAD_REACTORS
330
4C2
102
}
330
1F
100
AcDbEntity
  8
実線
100
AcDbLine
 10
466.903495593756
 20
405.6466568024955
 30
0.0
 11
466.903495593756
 21
351.4466568024956
 31
0.0
  0
LINE
  5
333
102
{ACAD_REACTORS
330
4C2
102
}
330
1F
100
AcDbEntity
  8
実線
100
AcDbLine
 10
546.9034955937559
 20
351.4466568024956
 30
0.0
 11
466.903495593756
 21
351.4466568024956
 31
0.0
  0
LINE
  5
334
102
{ACAD_REACTORS
330
4C2
102
}
330
1F
100
AcDbEntity
  8
実線
100
AcDbLine
 10
546.9034955937559
 20
337.4466568024956
 30
0.0
 11
546.9034955937559
 21
351.4466568024956
 31
0.0
  0
LINE
  5
335
102
{ACAD_REACTORS
330
4C2
102
}
330
1F
100
AcDbEntity
  8
実線
100
AcDbLine
 10
466.903495593756
 20
351.4466568024956
 30
0.0
 11
466.903495593756
 21
337.4466568024956
 31
0.0
  0
CIRCLE
  5
336
102
{ACAD_REACTORS
330
4C2
102
}
330
1F
100
AcDbEntity
  8
実線
100
AcDbCircle
 10
506.903495593756
 20
217.8466568024955
 30
0.0
 40
25.25
  0
LINE
  5
337
102
{ACAD_REACTORS
330
4C2
102
}
330
1F
100
AcDbEntity
  8
実線
100
AcDbLine
 10
471.9034955937559
 20
410.6466568024955
 30
0.0
 11
541.903495593756
 21
410.6466568024955
 31
0.0
  0
ARC
  5
338
102
{ACAD_REACTORS
330
4C2
102
}
330
1F
100
AcDbEntity
  8
実線
100
AcDbCircle
 10
541.903495593756
 20
405.6466568024955
 30
0.0
 40
5.0
100
AcDbArc
 50
0.0
 51
90.0
  0
ARC
  5
339
102
{ACAD_REACTORS
330
4C2
102
}
330
1F
100
AcDbEntity
  8
実線
100
AcDbCircle
 10
471.9034955937559
 20
405.6466568024955
 30
0.0
 40
5.0
100
AcDbArc
 50
90.0
 51
180.0
  0
LINE
  5
33A
102
{ACAD_REACTORS
330
4C2
102
}
330
1F
100
AcDbEntity
  8
実線
100
AcDbLine
 10
527.5750339980451
 20
203.3466568024955
 30
0.0
 11
534.903495593756
 21
203.3466568024955
 31
0.0
  0
LINE
  5
33B
102
{ACAD_REACTORS
330
4C2
102
}
330
1F
100
AcDbEntity
  8
実線
100
AcDbLine
 10
534.903495593756
 20
203.3466568024955
 30
0.0
 11
534.903495593756
 21
238.5466568024956
 31
0.0
  0
LINE
  5
33C
102
{ACAD_REACTORS
330
4C2
102
}
330
1F
100
AcDbEntity
  8
実線
100
AcDbLine
 10
486.2319571894667
 20
203.3466568024955
 30
0.0
 11
478.903495593756
 21
203.3466568024955
 31
0.0
  0
LINE
  5
33D
102
{ACAD_REACTORS
330
4C2
102
}
330
1F
100
AcDbEntity
  8
実線
100
AcDbLine
 10
478.903495593756
 20
203.3466568024955
 30
0.0
 11
478.903495593756
 21
238.5466568024956
 31
0.0
  0
LINE
  5
33E
102
{ACAD_REACTORS
330
4C2
102
}
330
1F
100
AcDbEntity
  8
実線
100
AcDbLine
 10
478.903495593756
 20
228.5466568024955
 30
0.0
 11
484.0327172947999
 21
228.5466568024955
 31
0.0
  0
LINE
  5
33F
102
{ACAD_REACTORS
330
4C2
102
}
330
1F
100
AcDbEntity
  8
実線
100
AcDbLine
 10
534.903495593756
 20
228.5466568024955
 30
0.0
 11
529.7742738927119
 21
228.5466568024955
 31
0.0
  0
LINE
  5
340
102
{ACAD_REACTORS
330
4C2
102
}
330
1F
100
AcDbEntity
  8
実線
100
AcDbLine
 10
492.4441560514394
 20
238.5466568024956
 30
0.0
 11
478.903495593756
 21
238.5466568024956
 31
0.0
  0
LINE
  5
341
102
{ACAD_REACTORS
330
4C2
102
}
330
1F
100
AcDbEntity
  8
実線
100
AcDbLine
 10
534.903495593756
 20
238.5466568024956
 30
0.0
 11
521.3628351360723
 21
238.5466568024956
 31
0.0
  0
LINE
  5
342
102
{ACAD_REACTORS
330
4C2
102
}
330
1F
100
AcDbEntity
  8
実線
100
AcDbLine
 10
484.4034955937559
 20
412.1466568024954
 30
0.0
 11
474.403495593756
 21
412.1466568024954
 31
0.0
  0
LINE
  5
343
102
{ACAD_REACTORS
330
4C2
102
}
330
1F
100
AcDbEntity
  8
実線
100
AcDbLine
 10
474.403495593756
 20
410.6466568024955
 30
0.0
 11
474.403495593756
 21
412.1466568024954
 31
0.0
  0
LINE
  5
344
102
{ACAD_REACTORS
330
4C2
102
}
330
1F
100
AcDbEntity
  8
実線
100
AcDbLine
 10
466.903495593756
 20
250.5466568024955
 30
0.0
 11
478.903495593756
 21
238.5466568024956
 31
0.0
  0
LINE
  5
345
102
{ACAD_REACTORS
330
4C2
102
}
330
1F
100
AcDbEntity
  8
実線
100
AcDbLine
 10
546.9034955937559
 20
250.5466568024955
 30
0.0
 11
546.9034955937559
 21
251.5466568024955
 31
0.0
  0
LINE
  5
346
102
{ACAD_REACTORS
330
4C2
102
}
330
1F
100
AcDbEntity
  8
実線
100
AcDbLine
 10
466.903495593756
 20
251.5466568024955
 30
0.0
 11
466.903495593756
 21
250.5466568024955
 31
0.0
  0
LINE
  5
347
102
{ACAD_REACTORS
330
4C2
102
}
330
1F
100
AcDbEntity
  8
実線
100
AcDbLine
 10
546.9034955937559
 20
250.5466568024955
 30
0.0
 11
534.903495593756
 21
238.5466568024956
 31
0.0
  0
LINE
  5
348
102
{ACAD_REACTORS
330
4C2
102
}
330
1F
100
AcDbEntity
  8
実線
100
AcDbLine
 10
546.9034955937559
 20
251.5466568024955
 30
0.0
 11
466.903495593756
 21
251.5466568024955
 31
0.0
  0
ARC
  5
349
102
{ACAD_REACTORS
330
4C2
102
}
330
1F
100
AcDbEntity
  8
実線
100
AcDbCircle
 10
506.903495593756
 20
210.5466568024955
 30
0.0
 40
40.0
100
AcDbArc
 50
45.0
 51
135.0
  0
LINE
  5
34A
102
{ACAD_REACTORS
330
4C2
102
}
330
1F
100
AcDbEntity
  8
実線
100
AcDbLine
 10
495.903495593756
 20
410.6466568024955
 30
0.0
 11
495.903495593756
 21
412.1466568024954
 31
0.0
  0
LINE
  5
34B
102
{ACAD_REACTORS
330
4C2
102
}
330
1F
100
AcDbEntity
  8
実線
100
AcDbLine
 10
495.903495593756
 20
412.1466568024954
 30
0.0
 11
485.903495593756
 21
412.1466568024954
 31
0.0
  0
CIRCLE
  5
34C
102
{ACAD_REACTORS
330
4C4
102
}
330
1F
100
AcDbEntity
  8
実線
100
AcDbCircle
 10
66.90349559375565
 20
217.8466568024955
 30
0.0
 40
25.25
  0
LINE
  5
34D
102
{ACAD_REACTORS
330
4C4
102
}
330
1F
100
AcDbEntity
  8
実線
100
AcDbLine
 10
79.60349559375561
 20
195.8466568024955
 30
0.0
 11
79.60349559375561
 21
196.0229884582414
 31
0.0
  0
LINE
  5
34E
102
{ACAD_REACTORS
330
4C4
102
}
330
1F
100
AcDbEntity
  8
実線
100
AcDbLine
 10
54.20349559375563
 20
196.0229884582414
 30
0.0
 11
54.20349559375563
 21
195.8466568024955
 31
0.0
  0
LINE
  5
34F
102
{ACAD_REACTORS
330
4C4
102
}
330
1F
100
AcDbEntity
  8
実線
100
AcDbLine
 10
54.20349559375563
 20
195.8466568024955
 30
0.0
 11
41.65349559375565
 21
190.6966568024956
 31
0.0
  0
LINE
  5
350
102
{ACAD_REACTORS
330
4C4
102
}
330
1F
100
AcDbEntity
  8
実線
100
AcDbLine
 10
92.15349559375567
 20
190.6966568024956
 30
0.0
 11
79.60349559375561
 21
195.8466568024955
 31
0.0
  0
LINE
  5
351
102
{ACAD_REACTORS
330
4C4
102
}
330
1F
100
AcDbEntity
  8
実線
100
AcDbLine
 10
79.29552932514934
 20
195.8466568024955
 30
0.0
 11
79.60349559375561
 21
195.8466568024955
 31
0.0
  0
LINE
  5
352
102
{ACAD_REACTORS
330
4C4
102
}
330
1F
100
AcDbEntity
  8
実線
100
AcDbLine
 10
54.20349559375563
 20
195.8466568024955
 30
0.0
 11
54.51146186236195
 21
195.8466568024955
 31
0.0
  0
LINE
  5
353
102
{ACAD_REACTORS
330
4C4
102
}
330
1F
100
AcDbEntity
  8
実線
100
AcDbLine
 10
92.15349559375567
 20
187.8466568024956
 30
0.0
 11
92.15349559375567
 21
190.6966568024956
 31
0.0
  0
LINE
  5
354
102
{ACAD_REACTORS
330
4C4
102
}
330
1F
100
AcDbEntity
  8
実線
100
AcDbLine
 10
41.65349559375565
 20
190.6966568024956
 30
0.0
 11
41.65349559375565
 21
187.8466568024956
 31
0.0
  0
LINE
  5
355
102
{ACAD_REACTORS
330
4C4
102
}
330
1F
100
AcDbEntity
  8
実線
100
AcDbLine
 10
41.65349559375565
 20
187.8466568024956
 30
0.0
 11
92.15349559375567
 21
187.8466568024956
 31
0.0
  0
LINE
  5
356
102
{ACAD_REACTORS
330
4C4
102
}
330
1F
100
AcDbEntity
  8
実線
100
AcDbLine
 10
41.65349559375565
 20
190.6966568024956
 30
0.0
 11
92.15349559375567
 21
190.6966568024956
 31
0.0
  0
LINE
  5
357
102
{ACAD_REACTORS
330
4C4
102
}
330
1F
100
AcDbEntity
  8
実線
100
AcDbLine
 10
106.9034955937556
 20
251.5466568024955
 30
0.0
 11
106.9034955937556
 21
337.4466568024956
 31
0.0
  0
LINE
  5
358
102
{ACAD_REACTORS
330
4C4
102
}
330
1F
100
AcDbEntity
  8
実線
100
AcDbLine
 10
26.90349559375565
 20
337.4466568024956
 30
0.0
 11
26.90349559375565
 21
251.5466568024954
 31
0.0
  0
LINE
  5
359
102
{ACAD_REACTORS
330
4C4
102
}
330
1F
100
AcDbEntity
  8
実線
100
AcDbLine
 10
106.9034955937556
 20
337.4466568024956
 30
0.0
 11
26.90349559375565
 21
337.4466568024956
 31
0.0
  0
LINE
  5
35A
102
{ACAD_REACTORS
330
4C4
102
}
330
1F
100
AcDbEntity
  8
実線
100
AcDbLine
 10
106.9034955937556
 20
251.5466568024955
 30
0.0
 11
26.90349559375565
 21
251.5466568024955
 31
0.0
  0
LINE
  5
35B
102
{ACAD_REACTORS
330
4C4
102
}
330
1F
100
AcDbEntity
  8
実線
100
AcDbLine
 10
80.00349559375553
 20
469.5966568024955
 30
0.0
 11
87.90349559375556
 21
469.5966568024955
 31
0.0
  0
LINE
  5
35C
102
{ACAD_REACTORS
330
4C4
102
}
330
1F
100
AcDbEntity
  8
実線
100
AcDbLine
 10
87.90349559375556
 20
461.6966568024955
 30
0.0
 11
80.00349559375553
 21
461.6966568024955
 31
0.0
  0
LINE
  5
35D
102
{ACAD_REACTORS
330
4C4
102
}
330
1F
100
AcDbEntity
  8
実線
100
AcDbLine
 10
80.00349559375553
 20
461.6966568024955
 30
0.0
 11
80.00349559375553
 21
469.5966568024955
 31
0.0
  0
LINE
  5
35E
102
{ACAD_REACTORS
330
4C4
102
}
330
1F
100
AcDbEntity
  8
実線
100
AcDbLine
 10
87.90349559375556
 20
450.6966568024956
 30
0.0
 11
80.00349559375553
 21
450.6966568024956
 31
0.0
  0
LINE
  5
35F
102
{ACAD_REACTORS
330
4C4
102
}
330
1F
100
AcDbEntity
  8
実線
100
AcDbLine
 10
80.00349559375553
 20
458.5966568024955
 30
0.0
 11
87.90349559375556
 21
458.5966568024955
 31
0.0
  0
LINE
  5
360
102
{ACAD_REACTORS
330
4C4
102
}
330
1F
100
AcDbEntity
  8
実線
100
AcDbLine
 10
80.00349559375553
 20
450.6966568024956
 30
0.0
 11
80.00349559375553
 21
458.5966568024955
 31
0.0
  0
LINE
  5
361
102
{ACAD_REACTORS
330
4C4
102
}
330
1F
100
AcDbEntity
  8
実線
100
AcDbLine
 10
87.90349559375556
 20
473.6466568024954
 30
0.0
 11
87.90349559375556
 21
410.6466568024955
 31
0.0
  0
LINE
  5
362
102
{ACAD_REACTORS
330
4C4
102
}
330
1F
100
AcDbEntity
  8
実線
100
AcDbLine
 10
89.40349559375567
 20
473.6466568024954
 30
0.0
 11
87.90349559375556
 21
473.6466568024954
 31
0.0
  0
LINE
  5
363
102
{ACAD_REACTORS
330
4C4
102
}
330
1F
100
AcDbEntity
  8
実線
100
AcDbLine
 10
89.40349559375567
 20
473.6466568024954
 30
0.0
 11
89.40349559375567
 21
410.6466568024955
 31
0.0
  0
LINE
  5
364
102
{ACAD_REACTORS
330
4C4
102
}
330
1F
100
AcDbEntity
  8
実線
100
AcDbLine
 10
78.90349559375557
 20
461.1466568024954
 30
0.0
 11
78.90349559375557
 21
465.6466568024954
 31
0.0
  0
LINE
  5
365
102
{ACAD_REACTORS
330
4C4
102
}
330
1F
100
AcDbEntity
  8
実線
100
AcDbLine
 10
54.90349559375554
 20
465.6466568024954
 30
0.0
 11
54.90349559375554
 21
461.1466568024954
 31
0.0
  0
LINE
  5
366
102
{ACAD_REACTORS
330
4C4
102
}
330
1F
100
AcDbEntity
  8
実線
100
AcDbLine
 10
78.90349559375557
 20
465.6466568024954
 30
0.0
 11
54.90349559375554
 21
465.6466568024954
 31
0.0
  0
LINE
  5
367
102
{ACAD_REACTORS
330
4C4
102
}
330
1F
100
AcDbEntity
  8
実線
100
AcDbLine
 10
54.90349559375554
 20
461.1466568024954
 30
0.0
 11
78.90349559375557
 21
461.1466568024954
 31
0.0
  0
LINE
  5
368
102
{ACAD_REACTORS
330
4C4
102
}
330
1F
100
AcDbEntity
  8
実線
100
AcDbLine
 10
74.90349559375556
 20
455.6466568024955
 30
0.0
 11
74.90349559375556
 21
461.1466568024954
 31
0.0
  0
LINE
  5
369
102
{ACAD_REACTORS
330
4C4
102
}
330
1F
100
AcDbEntity
  8
実線
100
AcDbLine
 10
58.90349559375545
 20
461.1466568024954
 30
0.0
 11
58.90349559375545
 21
455.6466568024955
 31
0.0
  0
LINE
  5
36A
102
{ACAD_REACTORS
330
4C4
102
}
330
1F
100
AcDbEntity
  8
実線
100
AcDbLine
 10
58.90349559375545
 20
455.6466568024955
 30
0.0
 11
74.90349559375556
 21
455.6466568024955
 31
0.0
  0
LINE
  5
36B
102
{ACAD_REACTORS
330
4C4
102
}
330
1F
100
AcDbEntity
  8
実線
100
AcDbLine
 10
71.90349559375556
 20
442.4466568024953
 30
0.0
 11
71.90349559375556
 21
455.6466568024955
 31
0.0
  0
LINE
  5
36C
102
{ACAD_REACTORS
330
4C4
102
}
330
1F
100
AcDbEntity
  8
実線
100
AcDbLine
 10
61.90349559375554
 20
455.6466568024955
 30
0.0
 11
61.90349559375554
 21
442.4466568024955
 31
0.0
  0
LINE
  5
36D
102
{ACAD_REACTORS
330
4C4
102
}
330
1F
100
AcDbEntity
  8
実線
100
AcDbLine
 10
76.70349559375551
 20
436.4466568024956
 30
0.0
 11
76.70349559375551
 21
442.4466568024955
 31
0.0
  0
LINE
  5
36E
102
{ACAD_REACTORS
330
4C4
102
}
330
1F
100
AcDbEntity
  8
実線
100
AcDbLine
 10
57.10349559375552
 20
442.4466568024955
 30
0.0
 11
57.10349559375552
 21
436.4466568024956
 31
0.0
  0
LINE
  5
36F
102
{ACAD_REACTORS
330
4C4
102
}
330
1F
100
AcDbEntity
  8
実線
100
AcDbLine
 10
76.70349559375551
 20
442.4466568024955
 30
0.0
 11
57.10349559375552
 21
442.4466568024955
 31
0.0
  0
LINE
  5
370
102
{ACAD_REACTORS
330
4C4
102
}
330
1F
100
AcDbEntity
  8
実線
100
AcDbLine
 10
57.10349559375552
 20
436.4466568024956
 30
0.0
 11
76.70349559375551
 21
436.4466568024956
 31
0.0
  0
LINE
  5
371
102
{ACAD_REACTORS
330
4C4
102
}
330
1F
100
AcDbEntity
  8
実線
100
AcDbLine
 10
76.70349559375551
 20
426.4466568024955
 30
0.0
 11
76.70349559375551
 21
436.4466568024956
 31
0.0
  0
LINE
  5
372
102
{ACAD_REACTORS
330
4C4
102
}
330
1F
100
AcDbEntity
  8
実線
100
AcDbLine
 10
57.10349559375552
 20
436.4466568024956
 30
0.0
 11
57.10349559375552
 21
426.4466568024955
 31
0.0
  0
LINE
  5
373
102
{ACAD_REACTORS
330
4C4
102
}
330
1F
100
AcDbEntity
  8
実線
100
AcDbLine
 10
79.40349559375556
 20
410.6466568024955
 30
0.0
 11
79.40349559375556
 21
426.4466568024955
 31
0.0
  0
LINE
  5
374
102
{ACAD_REACTORS
330
4C4
102
}
330
1F
100
AcDbEntity
  8
実線
100
AcDbLine
 10
54.40349559375554
 20
426.4466568024955
 30
0.0
 11
54.40349559375554
 21
410.6466568024955
 31
0.0
  0
LINE
  5
375
102
{ACAD_REACTORS
330
4C4
102
}
330
1F
100
AcDbEntity
  8
実線
100
AcDbLine
 10
79.40349559375556
 20
426.4466568024955
 30
0.0
 11
54.40349559375554
 21
426.4466568024955
 31
0.0
  0
LINE
  5
376
102
{ACAD_REACTORS
330
4C4
102
}
330
1F
100
AcDbEntity
  8
実線
100
AcDbLine
 10
106.9034955937556
 20
351.4466568024956
 30
0.0
 11
106.9034955937556
 21
405.6466568024955
 31
0.0
  0
LINE
  5
377
102
{ACAD_REACTORS
330
4C4
102
}
330
1F
100
AcDbEntity
  8
実線
100
AcDbLine
 10
26.90349559375565
 20
405.6466568024955
 30
0.0
 11
26.90349559375565
 21
351.4466568024956
 31
0.0
  0
LINE
  5
378
102
{ACAD_REACTORS
330
4C4
102
}
330
1F
100
AcDbEntity
  8
実線
100
AcDbLine
 10
106.9034955937556
 20
405.6466568024955
 30
0.0
 11
26.90349559375565
 21
405.6466568024955
 31
0.0
  0
LINE
  5
379
102
{ACAD_REACTORS
330
4C4
102
}
330
1F
100
AcDbEntity
  8
実線
100
AcDbLine
 10
106.9034955937556
 20
337.4466568024956
 30
0.0
 11
106.9034955937556
 21
351.4466568024956
 31
0.0
  0
LINE
  5
37A
102
{ACAD_REACTORS
330
4C4
102
}
330
1F
100
AcDbEntity
  8
実線
100
AcDbLine
 10
26.90349559375565
 20
351.4466568024956
 30
0.0
 11
26.90349559375565
 21
337.4466568024956
 31
0.0
  0
LINE
  5
37B
102
{ACAD_REACTORS
330
4C4
102
}
330
1F
100
AcDbEntity
  8
実線
100
AcDbLine
 10
106.9034955937556
 20
351.4466568024956
 30
0.0
 11
26.90349559375565
 21
351.4466568024956
 31
0.0
  0
LINE
  5
37C
102
{ACAD_REACTORS
330
4C4
102
}
330
1F
100
AcDbEntity
  8
実線
100
AcDbLine
 10
101.9034955937557
 20
410.6466568024955
 30
0.0
 11
31.90349559375565
 21
410.6466568024955
 31
0.0
  0
ARC
  5
37D
102
{ACAD_REACTORS
330
4C4
102
}
330
1F
100
AcDbEntity
  8
実線
100
AcDbCircle
 10
101.9034955937557
 20
405.6466568024955
 30
0.0
 40
5.0
100
AcDbArc
 50
0.0
 51
90.0
  0
ARC
  5
37E
102
{ACAD_REACTORS
330
4C4
102
}
330
1F
100
AcDbEntity
  8
実線
100
AcDbCircle
 10
31.90349559375565
 20
405.6466568024955
 30
0.0
 40
5.0
100
AcDbArc
 50
90.0
 51
180.0
  0
LINE
  5
37F
102
{ACAD_REACTORS
330
4C4
102
}
330
1F
100
AcDbEntity
  8
実線
100
AcDbLine
 10
87.57503399804477
 20
203.3466568024955
 30
0.0
 11
94.90349559375568
 21
203.3466568024955
 31
0.0
  0
LINE
  5
380
102
{ACAD_REACTORS
330
4C4
102
}
330
1F
100
AcDbEntity
  8
実線
100
AcDbLine
 10
94.90349559375568
 20
203.3466568024955
 30
0.0
 11
94.90349559375568
 21
238.5466568024956
 31
0.0
  0
LINE
  5
381
102
{ACAD_REACTORS
330
4C4
102
}
330
1F
100
AcDbEntity
  8
実線
100
AcDbLine
 10
46.23195718946655
 20
203.3466568024955
 30
0.0
 11
38.90349559375565
 21
203.3466568024955
 31
0.0
  0
LINE
  5
382
102
{ACAD_REACTORS
330
4C4
102
}
330
1F
100
AcDbEntity
  8
実線
100
AcDbLine
 10
38.90349559375565
 20
203.3466568024955
 30
0.0
 11
38.90349559375565
 21
238.5466568024956
 31
0.0
  0
LINE
  5
383
102
{ACAD_REACTORS
330
4C4
102
}
330
1F
100
AcDbEntity
  8
実線
100
AcDbLine
 10
38.90349559375565
 20
228.5466568024955
 30
0.0
 11
44.0327172947996
 21
228.5466568024955
 31
0.0
  0
LINE
  5
384
102
{ACAD_REACTORS
330
4C4
102
}
330
1F
100
AcDbEntity
  8
実線
100
AcDbLine
 10
94.90349559375568
 20
228.5466568024955
 30
0.0
 11
89.77427389271179
 21
228.5466568024955
 31
0.0
  0
LINE
  5
385
102
{ACAD_REACTORS
330
4C4
102
}
330
1F
100
AcDbEntity
  8
実線
100
AcDbLine
 10
52.44415605143913
 20
238.5466568024956
 30
0.0
 11
38.90349559375565
 21
238.5466568024956
 31
0.0
  0
LINE
  5
386
102
{ACAD_REACTORS
330
4C4
102
}
330
1F
100
AcDbEntity
  8
実線
100
AcDbLine
 10
99.40349559375556
 20
412.1466568024954
 30
0.0
 11
89.40349559375556
 21
412.1466568024954
 31
0.0
  0
LINE
  5
387
102
{ACAD_REACTORS
330
4C4
102
}
330
1F
100
AcDbEntity
  8
実線
100
AcDbLine
 10
99.40349559375556
 20
410.6466568024955
 30
0.0
 11
99.40349559375556
 21
412.1466568024954
 31
0.0
  0
LINE
  5
388
102
{ACAD_REACTORS
330
4C4
102
}
330
1F
100
AcDbEntity
  8
実線
100
AcDbLine
 10
38.90349559375565
 20
238.5466568024956
 30
0.0
 11
26.90349559375565
 21
250.5466568024955
 31
0.0
  0
LINE
  5
389
102
{ACAD_REACTORS
330
4C4
102
}
330
1F
100
AcDbEntity
  8
実線
100
AcDbLine
 10
81.36283513607224
 20
238.5466568024956
 30
0.0
 11
94.90349559375568
 21
238.5466568024956
 31
0.0
  0
LINE
  5
38A
102
{ACAD_REACTORS
330
4C4
102
}
330
1F
100
AcDbEntity
  8
実線
100
AcDbLine
 10
94.90349559375568
 20
238.5466568024956
 30
0.0
 11
106.9034955937556
 21
250.5466568024955
 31
0.0
  0
ARC
  5
38B
102
{ACAD_REACTORS
330
4C4
102
}
330
1F
100
AcDbEntity
  8
実線
100
AcDbCircle
 10
66.90349559375565
 20
210.5466568024955
 30
0.0
 40
40.0
100
AcDbArc
 50
45.0
 51
135.0
  0
LINE
  5
38C
102
{ACAD_REACTORS
330
4C4
102
}
330
1F
100
AcDbEntity
  8
実線
100
AcDbLine
 10
106.9034955937556
 20
250.5466568024955
 30
0.0
 11
106.9034955937556
 21
251.5466568024955
 31
0.0
  0
LINE
  5
38D
102
{ACAD_REACTORS
330
4C4
102
}
330
1F
100
AcDbEntity
  8
実線
100
AcDbLine
 10
26.90349559375565
 20
251.5466568024955
 30
0.0
 11
26.90349559375565
 21
250.5466568024955
 31
0.0
  0
LINE
  5
38E
102
{ACAD_REACTORS
330
4C4
102
}
330
1F
100
AcDbEntity
  8
実線
100
AcDbLine
 10
87.90349559375556
 20
412.1466568024954
 30
0.0
 11
79.40349559375556
 21
412.1466568024954
 31
0.0
  0
LINE
  5
38F
102
{ACAD_REACTORS
330
4C3
102
}
330
1F
100
AcDbEntity
  8
実線
100
AcDbLine
 10
239.9034955937558
 20
205.1466568024956
 30
0.0
 11
258.9034955937558
 21
205.1466568024956
 31
0.0
  0
LINE
  5
390
102
{ACAD_REACTORS
330
4C3
102
}
330
1F
100
AcDbEntity
  8
実線
100
AcDbLine
 10
258.9034955937558
 20
230.5466568024955
 30
0.0
 11
239.9034955937558
 21
230.5466568024955
 31
0.0
  0
LINE
  5
391
102
{ACAD_REACTORS
330
4C3
102
}
330
1F
100
AcDbEntity
  8
実線
100
AcDbLine
 10
239.9034955937558
 20
230.5466568024955
 30
0.0
 11
234.7534955937559
 21
243.0966568024956
 31
0.0
  0
LINE
  5
392
102
{ACAD_REACTORS
330
4C3
102
}
330
1F
100
AcDbEntity
  8
実線
100
AcDbLine
 10
234.7534955937559
 20
192.5966568024955
 30
0.0
 11
239.9034955937558
 21
205.1466568024956
 31
0.0
  0
LINE
  5
393
102
{ACAD_REACTORS
330
4C3
102
}
330
1F
100
AcDbEntity
  8
実線
100
AcDbLine
 10
239.9034955937558
 20
230.5466568024955
 30
0.0
 11
239.9034955937558
 21
205.1466568024956
 31
0.0
  0
LINE
  5
394
102
{ACAD_REACTORS
330
4C3
102
}
330
1F
100
AcDbEntity
  8
実線
100
AcDbLine
 10
231.9034955937559
 20
192.5966568024955
 30
0.0
 11
234.7534955937559
 21
192.5966568024955
 31
0.0
  0
LINE
  5
395
102
{ACAD_REACTORS
330
4C3
102
}
330
1F
100
AcDbEntity
  8
実線
100
AcDbLine
 10
234.7534955937559
 20
243.0966568024956
 30
0.0
 11
231.9034955937559
 21
243.0966568024956
 31
0.0
  0
LINE
  5
396
102
{ACAD_REACTORS
330
4C3
102
}
330
1F
100
AcDbEntity
  8
実線
100
AcDbLine
 10
231.9034955937559
 20
192.5966568024955
 30
0.0
 11
231.9034955937559
 21
243.0966568024956
 31
0.0
  0
LINE
  5
397
102
{ACAD_REACTORS
330
4C3
102
}
330
1F
100
AcDbEntity
  8
実線
100
AcDbLine
 10
234.7534955937559
 20
192.5966568024955
 30
0.0
 11
234.7534955937559
 21
243.0966568024956
 31
0.0
  0
LINE
  5
398
102
{ACAD_REACTORS
330
4C3
102
}
330
1F
100
AcDbEntity
  8
実線
100
AcDbLine
 10
299.6034955937558
 20
195.8466568024955
 30
0.0
 11
299.6034955937558
 21
203.3466568024955
 31
0.0
  0
LINE
  5
399
102
{ACAD_REACTORS
330
4C3
102
}
330
1F
100
AcDbEntity
  8
実線
100
AcDbLine
 10
274.2034955937559
 20
203.3466568024955
 30
0.0
 11
274.2034955937559
 21
195.8466568024955
 31
0.0
  0
LINE
  5
39A
102
{ACAD_REACTORS
330
4C3
102
}
330
1F
100
AcDbEntity
  8
実線
100
AcDbLine
 10
274.2034955937559
 20
195.8466568024955
 30
0.0
 11
261.6534955937559
 21
190.6966568024956
 31
0.0
  0
LINE
  5
39B
102
{ACAD_REACTORS
330
4C3
102
}
330
1F
100
AcDbEntity
  8
実線
100
AcDbLine
 10
312.1534955937558
 20
190.6966568024956
 30
0.0
 11
299.6034955937558
 21
195.8466568024955
 31
0.0
  0
LINE
  5
39C
102
{ACAD_REACTORS
330
4C3
102
}
330
1F
100
AcDbEntity
  8
実線
100
AcDbLine
 10
274.2034955937559
 20
195.8466568024955
 30
0.0
 11
299.6034955937558
 21
195.8466568024955
 31
0.0
  0
LINE
  5
39D
102
{ACAD_REACTORS
330
4C3
102
}
330
1F
100
AcDbEntity
  8
実線
100
AcDbLine
 10
312.1534955937558
 20
187.8466568024956
 30
0.0
 11
312.1534955937558
 21
190.6966568024956
 31
0.0
  0
LINE
  5
39E
102
{ACAD_REACTORS
330
4C3
102
}
330
1F
100
AcDbEntity
  8
実線
100
AcDbLine
 10
261.6534955937559
 20
190.6966568024956
 30
0.0
 11
261.6534955937559
 21
187.8466568024956
 31
0.0
  0
LINE
  5
39F
102
{ACAD_REACTORS
330
4C3
102
}
330
1F
100
AcDbEntity
  8
実線
100
AcDbLine
 10
312.1534955937558
 20
187.8466568024956
 30
0.0
 11
261.6534955937559
 21
187.8466568024956
 31
0.0
  0
LINE
  5
3A0
102
{ACAD_REACTORS
330
4C3
102
}
330
1F
100
AcDbEntity
  8
実線
100
AcDbLine
 10
312.1534955937558
 20
190.6966568024956
 30
0.0
 11
261.6534955937559
 21
190.6966568024956
 31
0.0
  0
LINE
  5
3A1
102
{ACAD_REACTORS
330
4C3
102
}
330
1F
100
AcDbEntity
  8
実線
100
AcDbLine
 10
326.9034955937558
 20
251.5466568024955
 30
0.0
 11
326.9034955937558
 21
337.4466568024956
 31
0.0
  0
LINE
  5
3A2
102
{ACAD_REACTORS
330
4C3
102
}
330
1F
100
AcDbEntity
  8
実線
100
AcDbLine
 10
246.9034955937558
 20
337.4466568024956
 30
0.0
 11
246.9034955937558
 21
251.5466568024954
 31
0.0
  0
LINE
  5
3A3
102
{ACAD_REACTORS
330
4C3
102
}
330
1F
100
AcDbEntity
  8
実線
100
AcDbLine
 10
326.9034955937558
 20
337.4466568024956
 30
0.0
 11
246.9034955937558
 21
337.4466568024956
 31
0.0
  0
LINE
  5
3A4
102
{ACAD_REACTORS
330
4C3
102
}
330
1F
100
AcDbEntity
  8
実線
100
AcDbLine
 10
313.4034955937558
 20
467.1466568024954
 30
0.0
 11
313.4034955937558
 21
464.1466568024955
 31
0.0
  0
LINE
  5
3A5
102
{ACAD_REACTORS
330
4C3
102
}
330
1F
100
AcDbEntity
  8
実線
100
AcDbLine
 10
308.4034955937558
 20
464.1466568024955
 30
0.0
 11
313.4034955937558
 21
464.1466568024955
 31
0.0
  0
LINE
  5
3A6
102
{ACAD_REACTORS
330
4C3
102
}
330
1F
100
AcDbEntity
  8
実線
100
AcDbLine
 10
313.4034955937558
 20
467.1466568024954
 30
0.0
 11
308.4034955937558
 21
467.1466568024954
 31
0.0
  0
LINE
  5
3A7
102
{ACAD_REACTORS
330
4C3
102
}
330
1F
100
AcDbEntity
  8
実線
100
AcDbLine
 10
313.4034955937558
 20
456.1466568024955
 30
0.0
 11
313.4034955937558
 21
453.1466568024954
 31
0.0
  0
LINE
  5
3A8
102
{ACAD_REACTORS
330
4C3
102
}
330
1F
100
AcDbEntity
  8
実線
100
AcDbLine
 10
308.4034955937558
 20
453.1466568024954
 30
0.0
 11
313.4034955937558
 21
453.1466568024954
 31
0.0
  0
LINE
  5
3A9
102
{ACAD_REACTORS
330
4C3
102
}
330
1F
100
AcDbEntity
  8
実線
100
AcDbLine
 10
313.4034955937558
 20
456.1466568024955
 30
0.0
 11
308.4034955937558
 21
456.1466568024955
 31
0.0
  0
LINE
  5
3AA
102
{ACAD_REACTORS
330
4C3
102
}
330
1F
100
AcDbEntity
  8
実線
100
AcDbLine
 10
308.4034955937558
 20
410.6466568024955
 30
0.0
 11
308.4034955937558
 21
473.6466568024954
 31
0.0
  0
LINE
  5
3AB
102
{ACAD_REACTORS
330
4C3
102
}
330
1F
100
AcDbEntity
  8
実線
100
AcDbLine
 10
308.4034955937558
 20
473.6466568024954
 30
0.0
 11
281.9034955937559
 21
473.6466568024954
 31
0.0
  0
LINE
  5
3AC
102
{ACAD_REACTORS
330
4C3
102
}
330
1F
100
AcDbEntity
  8
実線
100
AcDbLine
 10
281.9034955937559
 20
412.1466568024954
 30
0.0
 11
281.9034955937559
 21
473.6466568024954
 31
0.0
  0
LINE
  5
3AD
102
{ACAD_REACTORS
330
4C3
102
}
330
1F
100
AcDbEntity
  8
実線
100
AcDbLine
 10
274.9034955937558
 20
465.6466568024954
 30
0.0
 11
274.9034955937558
 21
461.1466568024954
 31
0.0
  0
LINE
  5
3AE
102
{ACAD_REACTORS
330
4C3
102
}
330
1F
100
AcDbEntity
  8
実線
100
AcDbLine
 10
281.9034955937559
 20
465.6466568024954
 30
0.0
 11
274.9034955937558
 21
465.6466568024954
 31
0.0
  0
LINE
  5
3AF
102
{ACAD_REACTORS
330
4C3
102
}
330
1F
100
AcDbEntity
  8
実線
100
AcDbLine
 10
281.9034955937559
 20
461.1466568024954
 30
0.0
 11
274.9034955937558
 21
461.1466568024954
 31
0.0
  0
LINE
  5
3B0
102
{ACAD_REACTORS
330
4C3
102
}
330
1F
100
AcDbEntity
  8
実線
100
AcDbLine
 10
278.9034955937558
 20
461.1466568024954
 30
0.0
 11
278.9034955937558
 21
455.6466568024955
 31
0.0
  0
LINE
  5
3B1
102
{ACAD_REACTORS
330
4C3
102
}
330
1F
100
AcDbEntity
  8
実線
100
AcDbLine
 10
281.9034955937559
 20
455.6466568024955
 30
0.0
 11
278.9034955937558
 21
455.6466568024955
 31
0.0
  0
LINE
  5
3B2
102
{ACAD_REACTORS
330
4C3
102
}
330
1F
100
AcDbEntity
  8
実線
100
AcDbLine
 10
277.1034955937558
 20
442.4466568024955
 30
0.0
 11
277.1034955937558
 21
436.4466568024956
 31
0.0
  0
LINE
  5
3B3
102
{ACAD_REACTORS
330
4C3
102
}
330
1F
100
AcDbEntity
  8
実線
100
AcDbLine
 10
281.9034955937559
 20
442.4466568024955
 30
0.0
 11
277.1034955937558
 21
442.4466568024955
 31
0.0
  0
LINE
  5
3B4
102
{ACAD_REACTORS
330
4C3
102
}
330
1F
100
AcDbEntity
  8
実線
100
AcDbLine
 10
281.9034955937559
 20
436.4466568024956
 30
0.0
 11
277.1034955937558
 21
436.4466568024956
 31
0.0
  0
LINE
  5
3B5
102
{ACAD_REACTORS
330
4C3
102
}
330
1F
100
AcDbEntity
  8
実線
100
AcDbLine
 10
277.1034955937558
 20
436.4466568024956
 30
0.0
 11
277.1034955937558
 21
426.4466568024955
 31
0.0
  0
LINE
  5
3B6
102
{ACAD_REACTORS
330
4C3
102
}
330
1F
100
AcDbEntity
  8
実線
100
AcDbLine
 10
274.4034955937558
 20
426.4466568024955
 30
0.0
 11
274.4034955937558
 21
410.6466568024955
 31
0.0
  0
LINE
  5
3B7
102
{ACAD_REACTORS
330
4C3
102
}
330
1F
100
AcDbEntity
  8
実線
100
AcDbLine
 10
281.9034955937559
 20
426.4466568024955
 30
0.0
 11
274.4034955937558
 21
426.4466568024955
 31
0.0
  0
LINE
  5
3B8
102
{ACAD_REACTORS
330
4C3
102
}
330
1F
100
AcDbEntity
  8
実線
100
AcDbLine
 10
326.9034955937558
 20
351.4466568024956
 30
0.0
 11
326.9034955937558
 21
405.6466568024955
 31
0.0
  0
LINE
  5
3B9
102
{ACAD_REACTORS
330
4C3
102
}
330
1F
100
AcDbEntity
  8
実線
100
AcDbLine
 10
246.9034955937558
 20
405.6466568024955
 30
0.0
 11
246.9034955937558
 21
351.4466568024956
 31
0.0
  0
LINE
  5
3BA
102
{ACAD_REACTORS
330
4C3
102
}
330
1F
100
AcDbEntity
  8
実線
100
AcDbLine
 10
326.9034955937558
 20
405.6466568024955
 30
0.0
 11
246.9034955937558
 21
405.6466568024955
 31
0.0
  0
LINE
  5
3BB
102
{ACAD_REACTORS
330
4C3
102
}
330
1F
100
AcDbEntity
  8
実線
100
AcDbLine
 10
326.9034955937558
 20
337.4466568024956
 30
0.0
 11
326.9034955937558
 21
351.4466568024956
 31
0.0
  0
LINE
  5
3BC
102
{ACAD_REACTORS
330
4C3
102
}
330
1F
100
AcDbEntity
  8
実線
100
AcDbLine
 10
246.9034955937558
 20
351.4466568024956
 30
0.0
 11
246.9034955937558
 21
337.4466568024956
 31
0.0
  0
LINE
  5
3BD
102
{ACAD_REACTORS
330
4C3
102
}
330
1F
100
AcDbEntity
  8
実線
100
AcDbLine
 10
326.9034955937558
 20
351.4466568024956
 30
0.0
 11
246.9034955937558
 21
351.4466568024956
 31
0.0
  0
LINE
  5
3BE
102
{ACAD_REACTORS
330
4C3
102
}
330
1F
100
AcDbEntity
  8
実線
100
AcDbLine
 10
333.9034955937558
 20
230.5466568024955
 30
0.0
 11
314.9034955937559
 21
230.5466568024955
 31
0.0
  0
LINE
  5
3BF
102
{ACAD_REACTORS
330
4C3
102
}
330
1F
100
AcDbEntity
  8
実線
100
AcDbLine
 10
314.9034955937559
 20
205.1466568024956
 30
0.0
 11
333.9034955937558
 21
205.1466568024956
 31
0.0
  0
LINE
  5
3C0
102
{ACAD_REACTORS
330
4C3
102
}
330
1F
100
AcDbEntity
  8
実線
100
AcDbLine
 10
341.9034955937558
 20
192.5966568024955
 30
0.0
 11
341.9034955937558
 21
243.0966568024956
 31
0.0
  0
LINE
  5
3C1
102
{ACAD_REACTORS
330
4C3
102
}
330
1F
100
AcDbEntity
  8
実線
100
AcDbLine
 10
341.9034955937558
 20
243.0966568024956
 30
0.0
 11
339.0534955937558
 21
243.0966568024956
 31
0.0
  0
LINE
  5
3C2
102
{ACAD_REACTORS
330
4C3
102
}
330
1F
100
AcDbEntity
  8
実線
100
AcDbLine
 10
339.0534955937558
 20
192.5966568024955
 30
0.0
 11
341.9034955937558
 21
192.5966568024955
 31
0.0
  0
LINE
  5
3C3
102
{ACAD_REACTORS
330
4C3
102
}
330
1F
100
AcDbEntity
  8
実線
100
AcDbLine
 10
339.0534955937558
 20
192.5966568024955
 30
0.0
 11
339.0534955937558
 21
243.0966568024956
 31
0.0
  0
LINE
  5
3C4
102
{ACAD_REACTORS
330
4C3
102
}
330
1F
100
AcDbEntity
  8
実線
100
AcDbLine
 10
333.9034955937558
 20
205.1466568024956
 30
0.0
 11
333.9034955937558
 21
230.5466568024955
 31
0.0
  0
LINE
  5
3C5
102
{ACAD_REACTORS
330
4C3
102
}
330
1F
100
AcDbEntity
  8
実線
100
AcDbLine
 10
333.9034955937558
 20
205.1466568024956
 30
0.0
 11
339.0534955937558
 21
192.5966568024955
 31
0.0
  0
LINE
  5
3C6
102
{ACAD_REACTORS
330
4C3
102
}
330
1F
100
AcDbEntity
  8
実線
100
AcDbLine
 10
339.0534955937558
 20
243.0966568024956
 30
0.0
 11
333.9034955937558
 21
230.5466568024955
 31
0.0
  0
LINE
  5
3C7
102
{ACAD_REACTORS
330
4C3
102
}
330
1F
100
AcDbEntity
  8
実線
100
AcDbLine
 10
251.9034955937558
 20
410.6466568024955
 30
0.0
 11
321.9034955930158
 21
410.6466568024955
 31
0.0
  0
ARC
  5
3C8
102
{ACAD_REACTORS
330
4C3
102
}
330
1F
100
AcDbEntity
  8
実線
100
AcDbCircle
 10
321.9034955937558
 20
405.6466568024955
 30
0.0
 40
5.0
100
AcDbArc
 50
0.0
 51
90.0
  0
ARC
  5
3C9
102
{ACAD_REACTORS
330
4C3
102
}
330
1F
100
AcDbEntity
  8
実線
100
AcDbCircle
 10
251.9034955937558
 20
405.6466568024955
 30
0.0
 40
5.0
100
AcDbArc
 50
90.0
 51
180.0
  0
LINE
  5
3CA
102
{ACAD_REACTORS
330
4C3
102
}
330
1F
100
AcDbEntity
  8
実線
100
AcDbLine
 10
258.9034955937558
 20
203.3466568024955
 30
0.0
 11
314.9034955937559
 21
203.3466568024955
 31
0.0
  0
LINE
  5
3CB
102
{ACAD_REACTORS
330
4C3
102
}
330
1F
100
AcDbEntity
  8
実線
100
AcDbLine
 10
258.9034955937558
 20
203.3466568024955
 30
0.0
 11
258.9034955937558
 21
238.5466568024956
 31
0.0
  0
LINE
  5
3CC
102
{ACAD_REACTORS
330
4C3
102
}
330
1F
100
AcDbEntity
  8
実線
100
AcDbLine
 10
314.9034955937559
 20
203.3466568024955
 30
0.0
 11
314.9034955937559
 21
238.5466568024956
 31
0.0
  0
LINE
  5
3CD
102
{ACAD_REACTORS
330
4C3
102
}
330
1F
100
AcDbEntity
  8
実線
100
AcDbLine
 10
292.9034955937559
 20
228.5466568024955
 30
0.0
 11
314.9034955937559
 21
228.5466568024955
 31
0.0
  0
LINE
  5
3CE
102
{ACAD_REACTORS
330
4C3
102
}
330
1F
100
AcDbEntity
  8
実線
100
AcDbLine
 10
314.9034955937559
 20
238.5466568024956
 30
0.0
 11
258.9034955937558
 21
238.5466568024956
 31
0.0
  0
LINE
  5
3CF
102
{ACAD_REACTORS
330
4C3
102
}
330
1F
100
AcDbEntity
  8
実線
100
AcDbLine
 10
280.9034955937558
 20
228.5466568024955
 30
0.0
 11
258.9034955937558
 21
228.5466568024955
 31
0.0
  0
LINE
  5
3D0
102
{ACAD_REACTORS
330
4C3
102
}
330
1F
100
AcDbEntity
  8
実線
100
AcDbLine
 10
292.9034955937559
 20
203.3466568024955
 30
0.0
 11
292.9034955937559
 21
228.5466568024955
 31
0.0
  0
LINE
  5
3D1
102
{ACAD_REACTORS
330
4C3
102
}
330
1F
100
AcDbEntity
  8
実線
100
AcDbLine
 10
280.9034955937558
 20
203.3466568024955
 30
0.0
 11
280.9034955937558
 21
228.5466568024955
 31
0.0
  0
LINE
  5
3D2
102
{ACAD_REACTORS
330
4C3
102
}
330
1F
100
AcDbEntity
  8
実線
100
AcDbLine
 10
291.9034955937558
 20
410.6466568024955
 30
0.0
 11
291.9034955937558
 21
412.1466568024954
 31
0.0
  0
LINE
  5
3D3
102
{ACAD_REACTORS
330
4C3
102
}
330
1F
100
AcDbEntity
  8
実線
100
AcDbLine
 10
291.9034955937558
 20
412.1466568024954
 30
0.0
 11
281.9034955937559
 21
412.1466568024954
 31
0.0
  0
LINE
  5
3D4
102
{ACAD_REACTORS
330
4C3
102
}
330
1F
100
AcDbEntity
  8
実線
100
AcDbLine
 10
281.9034955937559
 20
410.6466568024955
 30
0.0
 11
281.9034955937559
 21
412.1466568024954
 31
0.0
  0
LINE
  5
3D5
102
{ACAD_REACTORS
330
4C3
102
}
330
1F
100
AcDbEntity
  8
実線
100
AcDbLine
 10
258.9034955937558
 20
238.5466568024956
 30
0.0
 11
246.9034955937558
 21
250.5466568024955
 31
0.0
  0
LINE
  5
3D6
102
{ACAD_REACTORS
330
4C3
102
}
330
1F
100
AcDbEntity
  8
実線
100
AcDbLine
 10
314.9034955937559
 20
238.5466568024956
 30
0.0
 11
326.9034955937558
 21
250.5466568024955
 31
0.0
  0
ARC
  5
3D7
102
{ACAD_REACTORS
330
4C3
102
}
330
1F
100
AcDbEntity
  8
実線
100
AcDbCircle
 10
286.9034955937559
 20
210.5466568024955
 30
0.0
 40
40.0
100
AcDbArc
 50
45.0
 51
135.0
  0
LINE
  5
3D8
102
{ACAD_REACTORS
330
4C3
102
}
330
1F
100
AcDbEntity
  8
実線
100
AcDbLine
 10
326.9034955937558
 20
250.5466568024955
 30
0.0
 11
326.9034955937558
 21
251.5466568024955
 31
0.0
  0
LINE
  5
3D9
102
{ACAD_REACTORS
330
4C3
102
}
330
1F
100
AcDbEntity
  8
実線
100
AcDbLine
 10
246.9034955937558
 20
251.5466568024955
 30
0.0
 11
246.9034955937558
 21
250.5466568024955
 31
0.0
  0
LINE
  5
3DA
102
{ACAD_REACTORS
330
4C3
102
}
330
1F
100
AcDbEntity
  8
実線
100
AcDbLine
 10
326.9034955937558
 20
251.5466568024955
 30
0.0
 11
246.9034955937558
 21
251.5466568024955
 31
0.0
  0
LINE
  5
4B5
102
{ACAD_REACTORS
330
4C6
102
}
330
1F
100
AcDbEntity
  8
中心線
100
AcDbLine
 10
229.9034955937557
 20
57.8466568024954
 30
0.0
 11
343.9034955937557
 21
57.8466568024954
 31
0.0
  0
LINE
  5
4B6
102
{ACAD_REACTORS
330
4C6
102
}
330
1F
100
AcDbEntity
  8
中心線
100
AcDbLine
 10
286.9034955937559
 20
12.84665680249566
 30
0.0
 11
286.9034955937559
 21
102.8466568024956
 31
0.0
  0
LINE
  5
4B7
102
{ACAD_REACTORS
330
513
102
}
330
1F
100
AcDbEntity
  8
中心線
100
AcDbLine
 10
229.9034955937557
 20
577.8466568024954
 30
0.0
 11
343.9034955937557
 21
577.8466568024954
 31
0.0
  0
LINE
  5
4B8
102
{ACAD_REACTORS
330
513
102
}
330
1F
100
AcDbEntity
  8
中心線
100
AcDbLine
 10
286.9034955937557
 20
532.8466568024955
 30
0.0
 11
286.9034955937557
 21
622.8466568024956
 31
0.0
  0
LINE
  5
4B9
102
{ACAD_REACTORS
330
4C1
102
}
330
1F
100
AcDbEntity
  8
中心線
100
AcDbLine
 10
669.9034955937557
 20
217.8466568024955
 30
0.0
 11
783.9034955937558
 21
217.8466568024955
 31
0.0
  0
LINE
  5
4BA
102
{ACAD_REACTORS
330
4C1
102
}
330
1F
100
AcDbEntity
  8
中心線
100
AcDbLine
 10
726.9034955937554
 20
172.8466568024955
 30
0.0
 11
726.9034955937556
 21
482.2374894734669
 31
0.0
  0
LINE
  5
4BB
102
{ACAD_REACTORS
330
4C2
102
}
330
1F
100
AcDbEntity
  8
中心線
100
AcDbLine
 10
461.903495593756
 20
217.8466568024955
 30
0.0
 11
551.903495593756
 21
217.8466568024955
 31
0.0
  0
LINE
  5
4BC
102
{ACAD_REACTORS
330
4C2
102
}
330
1F
100
AcDbEntity
  8
中心線
100
AcDbLine
 10
506.9034955937559
 20
172.8466568024955
 30
0.0
 11
506.9034955937559
 21
482.2374894734669
 31
0.0
  0
LINE
  5
4BD
102
{ACAD_REACTORS
330
4C3
102
}
330
1F
100
AcDbEntity
  8
中心線
100
AcDbLine
 10
229.9034955937556
 20
217.8466568024955
 30
0.0
 11
343.9034955937557
 21
217.8466568024955
 31
0.0
  0
LINE
  5
4BE
102
{ACAD_REACTORS
330
4C3
102
}
330
1F
100
AcDbEntity
  8
中心線
100
AcDbLine
 10
286.9034955937558
 20
172.8466568024957
 30
0.0
 11
286.9034955937559
 21
482.2374894734669
 31
0.0
  0
LINE
  5
4BF
102
{ACAD_REACTORS
330
4C4
102
}
330
1F
100
AcDbEntity
  8
中心線
100
AcDbLine
 10
21.90349559375585
 20
217.8466568024955
 30
0.0
 11
111.9034955937558
 21
217.8466568024955
 31
0.0
  0
LINE
  5
4C0
102
{ACAD_REACTORS
330
4C4
102
}
330
1F
100
AcDbEntity
  8
中心線
100
AcDbLine
 10
66.90349559375576
 20
172.8466568024955
 30
0.0
 11
66.90349559375576
 21
482.2374894734669
 31
0.0
  0
ENDSEC
  0
SECTION
  2
OBJECTS
  0
DICTIONARY
  5
C
330
0
100
AcDbDictionary
281
     1
  3
ACAD_CIP_PREVIOUS_PRODUCT_INFO
350
256
  3
ACAD_COLOR
350
24C
  3
ACAD_DETAILVIEWSTYLE
350
24F
  3
ACAD_GROUP
350
D
  3
ACAD_LAYOUT
350
1A
  3
ACAD_MATERIAL
350
43
  3
ACAD_MLEADERSTYLE
350
5B
  3
ACAD_MLINESTYLE
350
17
  3
ACAD_PLOTSETTINGS
350
19
  3
ACAD_PLOTSTYLENAME
350
E
  3
ACAD_SCALELIST
350
47
  3
ACAD_SECTIONVIEWSTYLE
350
24D
  3
ACAD_TABLESTYLE
350
59
  3
ACAD_VISUALSTYLE
350
2A
  3
ACDB_RECOMPOSE_DATA
350
55D
  3
AcDbVariableDictionary
350
201
  3
DWGPROPS
350
55E
  0
DICTIONARY
  5
3E1
330
2
100
AcDbDictionary
280
     1
281
     1
  3
ACAD_LAYERSTATES
360
3E2
  0
DICTIONARY
  5
4C7
330
10
100
AcDbDictionary
280
     1
281
     1
  3
ADSK_XREC_LAYER_RECONCILED
360
4C8
  0
DICTIONARY
  5
3DD
330
3DC
100
AcDbDictionary
280
     1
281
     1
  3
ADSK_XREC_LAYER_RECONCILED
360
4C9
  0
DICTIONARY
  5
3DF
330
3DE
100
AcDbDictionary
280
     1
281
     1
  3
ADSK_XREC_LAYER_RECONCILED
360
4CA
  0
DICTIONARY
  5
280
330
1F
100
AcDbDictionary
280
     1
281
     1
  3
ACAD_SORTENTS
360
281
  0
XRECORD
  5
256
102
{ACAD_REACTORS
330
C
102
}
330
C
100
AcDbXrecord
280
     1
300
ACDLT
300
2016
300
ACDLT_F_S
  0
DICTIONARY
  5
24C
102
{ACAD_REACTORS
330
C
102
}
330
C
100
AcDbDictionary
281
     1
  0
DICTIONARY
  5
24F
102
{ACAD_REACTORS
330
C
102
}
330
C
100
AcDbDictionary
281
     1
  3
Metric50
350
250
  0
DICTIONARY
  5
D
102
{ACAD_REACTORS
330
C
102
}
330
C
100
AcDbDictionary
281
     1
  3
*A1
350
4C1
  3
*A2
350
4C2
  3
*A3
350
4C3
  3
*A4
350
4C4
  3
*A6
350
4C6
  3
*A7
350
513
  0
DICTIONARY
  5
1A
102
{ACAD_REACTORS
330
C
102
}
330
C
100
AcDbDictionary
281
     1
  3
Layout1
350
1E
  3
Model
350
22
  3
レイアウト1
350
251
  0
DICTIONARY
  5
43
102
{ACAD_REACTORS
330
C
102
}
330
C
100
AcDbDictionary
281
     1
  3
ByBlock
350
45
  3
ByLayer
350
44
  3
Global
350
46
  0
DICTIONARY
  5
5B
102
{ACAD_REACTORS
330
C
102
}
330
C
100
AcDbDictionary
281
     1
  3
Standard
350
5C
  0
DICTIONARY
  5
17
102
{ACAD_REACTORS
330
C
102
}
330
C
100
AcDbDictionary
281
     1
  3
Standard
350
18
  0
DICTIONARY
  5
19
102
{ACAD_REACTORS
330
C
102
}
330
C
100
AcDbDictionary
281
     1
  0
ACDBDICTIONARYWDFLT
  5
E
102
{ACAD_REACTORS
330
C
102
}
330
C
100
AcDbDictionary
281
     1
  3
Normal
350
F
100
AcDbDictionaryWithDefault
340
F
  0
DICTIONARY
  5
47
102
{ACAD_REACTORS
330
C
102
}
330
C
100
AcDbDictionary
281
     1
  3
A0
350
48
  3
A1
350
49
  3
A2
350
4A
  3
A3
350
4B
  3
A4
350
4C
  3
A5
350
4D
  3
A6
350
4E
  3
A7
350
4F
  3
A8
350
50
  3
A9
350
51
  3
B0
350
52
  3
B1
350
53
  3
B2
350
54
  3
B3
350
55
  3
B4
350
56
  3
B5
350
57
  3
B6
350
58
  0
DICTIONARY
  5
24D
102
{ACAD_REACTORS
330
C
102
}
330
C
100
AcDbDictionary
281
     1
  3
Metric50
350
24E
  0
DICTIONARY
  5
59
102
{ACAD_REACTORS
330
C
102
}
330
C
100
AcDbDictionary
281
     1
  3
Standard
350
5A
  0
DICTIONARY
  5
2A
102
{ACAD_REACTORS
330
C
102
}
330
C
100
AcDbDictionary
281
     1
  3
2dWireframe
350
2F
  3
Basic
350
32
  3
Brighten
350
36
  3
ColorChange
350
3A
  3
Conceptual
350
34
  3
Dim
350
35
  3
EdgeColorOff
350
3D
  3
Facepattern
350
39
  3
Flat
350
2B
  3
FlatWithEdges
350
2C
  3
Gouraud
350
2D
  3
GouraudWithEdges
350
2E
  3
Hidden
350
31
  3
JitterOff
350
3B
  3
Linepattern
350
38
  3
OverhangOff
350
3C
  3
Realistic
350
33
  3
Shaded
350
42
  3
Shaded with edges
350
41
  3
Shades of Gray
350
3E
  3
Sketchy
350
3F
  3
Thicken
350
37
  3
Wireframe
350
30
  3
X-Ray
350
40
  0
XRECORD
  5
55D
102
{ACAD_REACTORS
330
C
102
}
330
C
100
AcDbXrecord
280
     1
 90
        1
330
5A
  0
DICTIONARY
  5
201
102
{ACAD_REACTORS
330
C
102
}
330
C
100
AcDbDictionary
281
     1
  3
CANNOSCALE
350
20F
  3
CENTEREXE
350
208
  3
CENTERLTYPEFILE
350
209
  3
CMLEADERSTYLE
350
203
  3
CTABLESTYLE
350
202
  3
CVIEWDETAILSTYLE
350
4CB
  3
CVIEWSECTIONSTYLE
350
4CC
  3
DIMASSOC
350
20A
  3
HIDETEXT
350
20B
  3
INDEXCTL
350
517
  3
LAYEREVAL
350
4CE
  3
LAYERNOTIFY
350
4CF
  3
LIGHTINGUNITS
350
4CD
  3
LOFTANG1
350
51A
  3
LOFTANG2
350
51B
  3
LONGITUDE
350
51C
  3
MSLTSCALE
350
210
  3
PSOLHEIGHT
350
519
  3
PSOLWIDTH
350
518
  3
SORTENTS
350
516
  3
XCLIPFRAME
350
51D
  0
XRECORD
  5
55E
102
{ACAD_REACTORS
330
C
102
}
330
C
100
AcDbXrecord
280
     1
  1
DWGPROPS COOKIE
  2

  3

  4

  6
File was created by TR2_DExp
  7

  8
fujino
  9

300
=
301
=
302
=
303
=
304
=
305
=
306
=
307
=
308
=
309
=
 40
0.0052658680555556
 41
2455188.75
 42
2459741.493279445
  1

 90
        0
  0
DICTIONARY
  5
3E2
102
{ACAD_REACTORS
330
3E1
102
}
330
3E1
100
AcDbDictionary
281
     1
  0
XRECORD
  5
4C8
102
{ACAD_REACTORS
330
4C7
102
}
330
4C7
100
AcDbXrecord
280
     1
290
     1
  0
XRECORD
  5
4C9
102
{ACAD_REACTORS
330
3DD
102
}
330
3DD
100
AcDbXrecord
280
     1
290
     1
  0
XRECORD
  5
4CA
102
{ACAD_REACTORS
330
3DF
102
}
330
3DF
100
AcDbXrecord
280
     1
290
     1
  0
SORTENTSTABLE
  5
281
102
{ACAD_REACTORS
330
280
102
}
330
280
100
AcDbSortentsTable
330
1F
331
34C
  5
2A5
331
37F
  5
2D8
331
3BE
  5
288
331
30D
  5
2EF
331
309
  5
2EB
331
348
  5
32A
331
26C
  5
3C7
331
37B
  5
2D4
331
29F
  5
3A6
331
2DE
  5
361
331
3BA
  5
284
331
3B6
  5
27E
331
305
  5
388
331
344
  5
326
331
268
  5
3C3
331
377
  5
2D0
331
29B
  5
3A2
331
2DA
  5
35D
331
373
  5
2CC
331
3B2
  5
27A
331
301
  5
384
331
2D6
  5
359
331
264
  5
3BF
331
297
  5
39E
331
340
  5
322
331
293
  5
39A
331
2D2
  5
355
331
260
  5
3BB
331
33C
  5
31E
331
36F
  5
2C8
331
3AE
  5
276
331
2FD
  5
380
331
2F9
  5
37C
331
338
  5
31A
331
25C
  5
3B7
331
36B
  5
2C4
331
28F
  5
396
331
2CE
  5
351
331
3AA
  5
272
331
3A6
  5
26E
331
2F5
  5
378
331
334
  5
316
331
3D9
  5
2A3
331
258
  5
3B3
331
367
  5
2C0
331
4BF
  5
4BF
331
28B
  5
392
331
2CA
  5
34D
331
3A2
  5
26A
331
2F1
  5
374
331
330
  5
312
331
2C6
  5
349
331
4BB
  5
4BB
331
27F
  5
3DA
331
363
  5
2BC
331
4B7
  5
4B7
331
27B
  5
3D6
331
2C2
  5
345
331
32C
  5
30E
331
35F
  5
2B8
331
39E
  5
266
331
2ED
  5
370
331
2E9
  5
36C
331
328
  5
30A
331
35B
  5
2B4
331
2BE
  5
341
331
39A
  5
262
331
324
  5
306
331
3D7
  5
2A1
331
2BA
  5
33D
331
396
  5
25E
331
392
  5
25A
331
2B6
  5
339
331
3D3
  5
29D
331
284
  5
38B
331
320
  5
302
331
2B2
  5
335
331
3CF
  5
299
331
3CB
  5
295
331
31C
  5
2FE
331
38E
  5
2E7
331
318
  5
2FA
331
357
  5
2B0
331
2AE
  5
331
331
38A
  5
2E3
331
3C5
  5
28F
331
314
  5
2F6
331
353
  5
2AC
331
277
  5
3D2
331
2AA
  5
3B1
331
386
  5
2DF
331
382
  5
2DB
331
3C1
  5
28B
331
310
  5
2F2
331
2E5
  5
368
331
273
  5
3CE
331
2A6
  5
3AD
331
2E1
  5
364
331
34F
  5
2A8
331
34B
  5
32D
331
26F
  5
3CA
331
37E
  5
2D7
331
3BD
  5
287
331
30C
  5
2EE
331
308
  5
2EA
331
347
  5
329
331
26B
  5
3C6
331
37A
  5
2D3
331
29E
  5
3A5
331
2DD
  5
360
331
3B9
  5
283
331
3B5
  5
27D
331
304
  5
387
331
343
  5
325
331
267
  5
3C2
331
376
  5
2CF
331
29A
  5
3A1
331
2D9
  5
35C
331
372
  5
2CB
331
3B1
  5
279
331
300
  5
383
331
2D5
  5
358
331
263
  5
3BE
331
296
  5
39D
331
292
  5
399
331
2D1
  5
354
331
33F
  5
321
331
33B
  5
31D
331
25F
  5
3BA
331
36E
  5
2C7
331
3AD
  5
275
331
2FC
  5
37F
331
2F8
  5
37B
331
337
  5
319
331
25B
  5
3B6
331
36A
  5
2C3
331
28E
  5
395
331
2CD
  5
350
331
3A9
  5
271
331
3A5
  5
26D
331
2F4
  5
377
331
333
  5
315
331
3D8
  5
2A2
331
257
  5
3B2
331
366
  5
2BF
331
4BE
  5
4BE
331
28A
  5
391
331
2C9
  5
34C
331
362
  5
2BB
331
2C5
  5
348
331
3A1
  5
269
331
2F0
  5
373
331
4BA
  5
4BA
331
27E
  5
3D9
331
4C0
  5
4C0
331
4B6
  5
4B6
331
27A
  5
3D5
331
2C1
  5
344
331
32F
  5
311
331
32B
  5
30D
331
35E
  5
2B7
331
39D
  5
265
331
2EC
  5
36F
331
2E8
  5
36B
331
327
  5
309
331
35A
  5
2B3
331
2BD
  5
340
331
399
  5
261
331
395
  5
25D
331
287
  5
38E
331
323
  5
305
331
3D6
  5
2A0
331
2B9
  5
33C
331
391
  5
259
331
2B5
  5
338
331
3D2
  5
29C
331
283
  5
38A
331
2B1
  5
334
331
3CE
  5
298
331
3CA
  5
294
331
31F
  5
301
331
31B
  5
2FD
331
38D
  5
2E6
331
317
  5
2F9
331
356
  5
2AF
331
2AD
  5
330
331
389
  5
2E2
331
3C4
  5
28E
331
313
  5
2F5
331
352
  5
2AB
331
276
  5
3D1
331
2A9
  5
3B0
331
385
  5
2DE
331
381
  5
2DA
331
3C0
  5
28A
331
2A5
  5
3AC
331
2E4
  5
367
331
272
  5
3CD
331
2E0
  5
363
331
34E
  5
2A7
331
30F
  5
2F1
331
30B
  5
2ED
331
34A
  5
32C
331
26E
  5
3C9
331
37D
  5
2D6
331
3BC
  5
286
331
307
  5
2E9
331
346
  5
328
331
26A
  5
3C5
331
379
  5
2D2
331
29D
  5
3A4
331
2DC
  5
35F
331
3B8
  5
282
331
3B4
  5
27C
331
303
  5
386
331
342
  5
324
331
2D8
  5
35B
331
266
  5
3C1
331
299
  5
3A0
331
375
  5
2CE
331
371
  5
2CA
331
3B0
  5
278
331
2D4
  5
357
331
262
  5
3BD
331
295
  5
39C
331
291
  5
398
331
2D0
  5
353
331
33E
  5
320
331
2FF
  5
382
331
33A
  5
31C
331
25E
  5
3B9
331
36D
  5
2C6
331
3AC
  5
274
331
2FB
  5
37E
331
2F7
  5
37A
331
336
  5
318
331
25A
  5
3B5
331
369
  5
2C2
331
28D
  5
394
331
2CC
  5
34F
331
3A8
  5
270
331
3A4
  5
26C
331
2F3
  5
376
331
332
  5
314
331
365
  5
2BE
331
4BD
  5
4BD
331
289
  5
390
331
2C8
  5
34B
331
361
  5
2BA
331
2C4
  5
347
331
3A0
  5
268
331
4B9
  5
4B9
331
27D
  5
3D8
331
4B5
  5
4B5
331
279
  5
3D4
331
2C0
  5
343
331
2EF
  5
372
331
32E
  5
310
331
32A
  5
30C
331
35D
  5
2B6
331
39C
  5
264
331
2EB
  5
36E
331
326
  5
308
331
359
  5
2B2
331
2BC
  5
33F
331
398
  5
260
331
394
  5
25C
331
286
  5
38D
331
322
  5
304
331
3D5
  5
29F
331
2B8
  5
33B
331
390
  5
258
331
2B4
  5
337
331
3D1
  5
29B
331
282
  5
389
331
2B0
  5
333
331
3CD
  5
297
331
3C9
  5
293
331
31E
  5
300
331
31A
  5
2FC
331
38C
  5
2E5
331
3C7
  5
291
331
316
  5
2F8
331
355
  5
2AE
331
2AC
  5
32F
331
388
  5
2E1
331
384
  5
2DD
331
3C3
  5
28D
331
312
  5
2F4
331
2E7
  5
36A
331
275
  5
3D0
331
2A8
  5
3AF
331
351
  5
2AA
331
380
  5
2D9
331
2A4
  5
3AB
331
2E3
  5
366
331
271
  5
3CC
331
2A0
  5
3A7
331
34D
  5
2A6
331
3BF
  5
289
331
30E
  5
2F0
331
30A
  5
2EC
331
349
  5
32B
331
26D
  5
3C8
331
37C
  5
2D5
331
2DF
  5
362
331
3BB
  5
285
331
3B7
  5
27F
331
306
  5
2E8
331
345
  5
327
331
269
  5
3C4
331
378
  5
2D1
331
29C
  5
3A3
331
2DB
  5
35E
331
3B3
  5
27B
331
302
  5
385
331
341
  5
323
331
2D7
  5
35A
331
265
  5
3C0
331
298
  5
39F
331
374
  5
2CD
331
370
  5
2C9
331
294
  5
39B
331
2D3
  5
356
331
261
  5
3BC
331
290
  5
397
331
33D
  5
31F
331
3AF
  5
277
331
2FE
  5
381
331
2FA
  5
37D
331
339
  5
31B
331
25D
  5
3B8
331
36C
  5
2C5
331
2CF
  5
352
331
3AB
  5
273
331
2F6
  5
379
331
335
  5
317
331
3DA
  5
2A4
331
259
  5
3B4
331
368
  5
2C1
331
28C
  5
393
331
2CB
  5
34E
331
3A7
  5
26F
331
3A3
  5
26B
331
2F2
  5
375
331
331
  5
313
331
2C7
  5
34A
331
4BC
  5
4BC
331
288
  5
38F
331
364
  5
2BD
331
360
  5
2B9
331
2C3
  5
346
331
4B8
  5
4B8
331
27C
  5
3D7
331
278
  5
3D3
331
32D
  5
30F
331
39F
  5
267
331
2EE
  5
371
331
329
  5
30B
331
35C
  5
2B5
331
2BF
  5
342
331
39B
  5
263
331
2EA
  5
36D
331
325
  5
307
331
358
  5
2B1
331
2BB
  5
33E
331
397
  5
25F
331
393
  5
25B
331
285
  5
38C
331
321
  5
303
331
3D4
  5
29E
331
2B7
  5
33A
331
2B3
  5
336
331
3D0
  5
29A
331
3CC
  5
296
331
3C8
  5
292
331
38F
  5
257
331
31D
  5
2FF
331
319
  5
2FB
331
2AF
  5
332
331
38B
  5
2E4
331
3C6
  5
290
331
315
  5
2F7
331
354
  5
2AD
331
2AB
  5
32E
331
387
  5
2E0
331
383
  5
2DC
331
3C2
  5
28C
331
311
  5
2F3
331
2E6
  5
369
331
274
  5
3CF
331
2A7
  5
3AE
331
350
  5
2A9
331
270
  5
3CB
331
2A3
  5
3AA
331
2E2
  5
365
  0
ACDBDETAILVIEWSTYLE
  5
250
102
{ACAD_XDICTIONARY
360
596
102
}
102
{ACAD_REACTORS
330
24F
102
}
330
24F
100
AcDbModelDocViewStyle
 70
     0
  3
Metric50
290
     0
100
AcDbDetailViewStyle
 70
     0
 71
     0
 90
        3
 71
     1
340
11
 40
5.0
340
0
 40
5.0
300

 40
0.0
280
     1
 71
     2
340
16
 90
       25
 71
     3
340
11
 40
5.0
 90
        0
 40
15.0
 90
        1
300
%<\AcVar ViewDetailId>% (%<\AcVar ViewScale \f "%sn">%)
 71
     4
340
16
 90
       25
340
16
 90
       25
280
     0
  0
GROUP
  5
4C1
102
{ACAD_REACTORS
330
D
102
}
330
D
100
AcDbGroup
300

 70
     1
 71
     1
340
4BA
340
4B9
340
305
340
304
340
303
340
302
340
301
340
300
340
2FF
340
2FE
340
2FD
340
2FC
340
2FB
340
2FA
340
2F9
340
2F8
340
2F7
340
2F6
340
2F5
340
2F4
340
2F3
340
2F2
340
2F1
340
2F0
340
2EF
340
2EE
340
2ED
340
2EC
340
2EB
340
2EA
340
2E9
340
2E8
340
2E7
340
2E6
340
2E5
340
2E4
340
2E3
340
2E2
340
2E1
340
2E0
340
2DF
340
2DE
340
2DD
340
2DC
340
2DB
340
2DA
340
2D9
340
2D8
340
2D7
340
2D6
340
2D5
340
2D4
340
2D3
340
2D2
340
2D1
340
2D0
340
2CF
340
2CE
340
2CD
340
2CC
340
2CB
340
2CA
340
2C9
340
2C8
340
2C7
340
2C6
340
2C5
340
2C4
340
2C3
340
2C2
340
2C1
340
2C0
340
2BF
340
2BE
340
2BD
340
2BC
340
2BB
340
2BA
340
2B9
340
2B8
340
2B7
340
2B6
340
2B5
340
2B4
340
2B3
340
2B2
340
2B1
340
2B0
340
2AF
340
2AE
340
2AD
340
2AC
340
2AB
  0
GROUP
  5
4C2
102
{ACAD_REACTORS
330
D
102
}
330
D
100
AcDbGroup
300

 70
     1
 71
     1
340
4BC
340
4BB
340
34B
340
34A
340
349
340
348
340
347
340
346
340
345
340
344
340
343
340
342
340
341
340
340
340
33F
340
33E
340
33D
340
33C
340
33B
340
33A
340
339
340
338
340
337
340
336
340
335
340
334
340
333
340
332
340
331
340
330
340
32F
340
32E
340
32D
340
32C
340
32B
340
32A
340
329
340
328
340
327
340
326
340
325
340
324
340
323
340
322
340
321
340
320
340
31F
340
31E
340
31D
340
31C
340
31B
340
31A
340
319
340
318
340
317
340
316
340
315
340
314
340
313
340
312
340
311
340
310
340
30F
340
30E
340
30D
340
30C
340
30B
340
30A
340
309
340
308
340
307
340
306
  0
GROUP
  5
4C3
102
{ACAD_REACTORS
330
D
102
}
330
D
100
AcDbGroup
300

 70
     1
 71
     1
340
4BE
340
4BD
340
3DA
340
3D9
340
3D8
340
3D7
340
3D6
340
3D5
340
3D4
340
3D3
340
3D2
340
3D1
340
3D0
340
3CF
340
3CE
340
3CD
340
3CC
340
3CB
340
3CA
340
3C9
340
3C8
340
3C7
340
3C6
340
3C5
340
3C4
340
3C3
340
3C2
340
3C1
340
3C0
340
3BF
340
3BE
340
3BD
340
3BC
340
3BB
340
3BA
340
3B9
340
3B8
340
3B7
340
3B6
340
3B5
340
3B4
340
3B3
340
3B2
340
3B1
340
3B0
340
3AF
340
3AE
340
3AD
340
3AC
340
3AB
340
3AA
340
3A9
340
3A8
340
3A7
340
3A6
340
3A5
340
3A4
340
3A3
340
3A2
340
3A1
340
3A0
340
39F
340
39E
340
39D
340
39C
340
39B
340
39A
340
399
340
398
340
397
340
396
340
395
340
394
340
393
340
392
340
391
340
390
340
38F
  0
GROUP
  5
4C4
102
{ACAD_REACTORS
330
D
102
}
330
D
100
AcDbGroup
300

 70
     1
 71
     1
340
4C0
340
4BF
340
38E
340
38D
340
38C
340
38B
340
38A
340
389
340
388
340
387
340
386
340
385
340
384
340
383
340
382
340
381
340
380
340
37F
340
37E
340
37D
340
37C
340
37B
340
37A
340
379
340
378
340
377
340
376
340
375
340
374
340
373
340
372
340
371
340
370
340
36F
340
36E
340
36D
340
36C
340
36B
340
36A
340
369
340
368
340
367
340
366
340
365
340
364
340
363
340
362
340
361
340
360
340
35F
340
35E
340
35D
340
35C
340
35B
340
35A
340
359
340
358
340
357
340
356
340
355
340
354
340
353
340
352
340
351
340
350
340
34F
340
34E
340
34D
340
34C
  0
GROUP
  5
4C6
102
{ACAD_REACTORS
330
D
102
}
330
D
100
AcDbGroup
300

 70
     1
 71
     1
340
4B6
340
4B5
340
27F
340
27E
340
27D
340
27C
340
27B
340
27A
340
279
340
278
340
277
340
276
340
275
340
274
340
273
340
272
340
271
340
270
340
26F
340
26E
340
26D
340
26C
340
26B
340
26A
340
269
340
268
340
267
340
266
340
265
340
264
340
263
340
262
340
261
340
260
340
25F
340
25E
340
25D
340
25C
340
25B
340
25A
340
259
340
258
340
257
  0
GROUP
  5
513
102
{ACAD_REACTORS
330
D
102
}
330
D
100
AcDbGroup
300

 70
     1
 71
     1
340
4B8
340
4B7
340
2AA
340
2A9
340
2A8
340
2A7
340
2A6
340
2A5
340
2A4
340
2A3
340
2A0
340
29F
340
29E
340
29D
340
29C
340
29B
340
29A
340
299
340
298
340
297
340
296
340
295
340
294
340
293
340
292
340
291
340
290
340
28F
340
28E
340
28D
340
28C
340
28B
340
28A
340
289
340
288
340
287
340
286
340
285
340
284
340
283
340
282
  0
LAYOUT
  5
1E
102
{ACAD_XDICTIONARY
360
55F
102
}
102
{ACAD_REACTORS
330
1A
102
}
330
1A
100
AcDbPlotSettings
  1

  2
none_device
  4

  6

 40
0.0
 41
0.0
 42
0.0
 43
0.0
 44
0.0
 45
0.0
 46
0.0
 47
0.0
 48
0.0
 49
0.0
140
0.0
141
0.0
142
1.0
143
1.0
 70
   688
 72
     1
 73
     0
 74
     5
  7

 75
    16
147
1.0
148
0.0
149
0.0
100
AcDbLayout
  1
Layout1
 70
     1
 71
     1
 10
0.0
 20
0.0
 11
420.0
 21
297.0
 12
0.0
 22
0.0
 32
0.0
 14
1.000000000000000E+20
 24
1.000000000000000E+20
 34
1.000000000000000E+20
 15
-1.000000000000000E+20
 25
-1.000000000000000E+20
 35
-1.000000000000000E+20
146
0.0
 13
0.0
 23
0.0
 33
0.0
 16
1.0
 26
0.0
 36
0.0
 17
0.0
 27
1.0
 37
0.0
 76
     0
330
1B
  0
LAYOUT
  5
22
102
{ACAD_XDICTIONARY
360
561
102
}
102
{ACAD_REACTORS
330
1A
102
}
330
1A
100
AcDbPlotSettings
  1

  2
none_device
  4
Letter_(8.50_x_11.00_Inches)
  6

 40
6.349999999999998
 41
6.349999999999998
 42
6.350005079999998
 43
6.350005079999998
 44
215.9
 45
279.4
 46
0.0
 47
0.0
 48
0.0
 49
0.0
140
0.0
141
0.0
142
1.0
143
1.0
 70
  1712
 72
     1
 73
     0
 74
     0
  7

 75
     0
147
1.0
148
0.0
149
0.0
100
AcDbLayout
  1
Model
 70
     1
 71
     0
 10
-226.4366455078125
 20
-234.1578769683838
 11
634.9698944091798
 21
464.9104385375976
 12
0.0
 22
0.0
 32
0.0
 14
-226.4366455078125
 24
-234.1578769683838
 34
0.0
 15
634.9698944091798
 25
464.9104385375976
 35
0.0
146
0.0
 13
0.0
 23
0.0
 33
0.0
 16
1.0
 26
0.0
 36
0.0
 17
0.0
 27
1.0
 37
0.0
 76
     0
330
1F
331
29
  0
LAYOUT
  5
251
102
{ACAD_XDICTIONARY
360
598
102
}
102
{ACAD_REACTORS
330
1A
102
}
330
1A
100
AcDbPlotSettings
  1

  2
青梅 FX DocuCentre-V C2275 T2
  4

  6

 40
0.0
 41
0.0
 42
0.0
 43
0.0
 44
0.0
 45
0.0
 46
0.0
 47
0.0
 48
0.0
 49
0.0
140
0.0
141
0.0
142
1.0
143
1.0
 70
   688
 72
     0
 73
     0
 74
     5
  7
AutoCAD_PEN.ctb
 75
    16
147
1.0
148
0.0
149
0.0
100
AcDbLayout
  1
レイアウト1
 70
     1
 71
     2
 10
0.0
 20
0.0
 11
12.0
 21
9.0
 12
0.0
 22
0.0
 32
0.0
 14
0.0
 24
0.0
 34
0.0
 15
0.0
 25
0.0
 35
0.0
146
0.0
 13
0.0
 23
0.0
 33
0.0
 16
1.0
 26
0.0
 36
0.0
 17
0.0
 27
1.0
 37
0.0
 76
     0
330
23
  0
MATERIAL
  5
45
102
{ACAD_XDICTIONARY
360
243
102
}
102
{ACAD_REACTORS
330
43
102
}
330
43
100
AcDbMaterial
  1
ByBlock
  0
MATERIAL
  5
44
102
{ACAD_XDICTIONARY
360
241
102
}
102
{ACAD_REACTORS
330
43
102
}
330
43
100
AcDbMaterial
  1
ByLayer
  0
MATERIAL
  5
46
102
{ACAD_XDICTIONARY
360
245
102
}
102
{ACAD_REACTORS
330
43
102
}
330
43
100
AcDbMaterial
  1
Global
  0
MLEADERSTYLE
  5
5C
102
{ACAD_REACTORS
330
5B
102
}
330
5B
100
AcDbMLeaderStyle
170
     2
171
     1
172
     0
 90
        2
 40
0.0
 41
0.0
173
     1
 91
-1056964608
340
14
 92
       -2
290
     1
 42
2.0
291
     1
 43
8.0
  3
Standard
 44
4.0
300

342
11
174
     1
178
     6
175
     1
176
     0
 93
-1056964608
 45
4.0
292
     0
297
     0
 46
4.0
 94
-1056964608
 47
1.0
 49
1.0
140
1.0
293
     1
141
0.0
294
     1
177
     0
142
1.0
295
     0
296
     0
143
3.75
1001
ACAD_MLEADERVER
1070
     2
  0
MLINESTYLE
  5
18
102
{ACAD_REACTORS
330
17
102
}
330
17
100
AcDbMlineStyle
  2
STANDARD
 70
     0
  3

 62
   256
 51
90.0
 52
90.0
 71
     2
 49
0.5
 62
   256
  6
BYLAYER
 49
-0.5
 62
   256
  6
BYLAYER
  0
ACDBPLACEHOLDER
  5
F
102
{ACAD_REACTORS
330
E
102
}
330
E
  0
SCALE
  5
48
102
{ACAD_REACTORS
330
47
102
}
330
47
100
AcDbScale
 70
     0
300
1:1
140
1.0
141
1.0
290
     1
  0
SCALE
  5
49
102
{ACAD_REACTORS
330
47
102
}
330
47
100
AcDbScale
 70
     0
300
1:2
140
1.0
141
2.0
290
     0
  0
SCALE
  5
4A
102
{ACAD_REACTORS
330
47
102
}
330
47
100
AcDbScale
 70
     0
300
1:4
140
1.0
141
4.0
290
     0
  0
SCALE
  5
4B
102
{ACAD_REACTORS
330
47
102
}
330
47
100
AcDbScale
 70
     0
300
1:5
140
1.0
141
5.0
290
     0
  0
SCALE
  5
4C
102
{ACAD_REACTORS
330
47
102
}
330
47
100
AcDbScale
 70
     0
300
1:8
140
1.0
141
8.0
290
     0
  0
SCALE
  5
4D
102
{ACAD_REACTORS
330
47
102
}
330
47
100
AcDbScale
 70
     0
300
1:10
140
1.0
141
10.0
290
     0
  0
SCALE
  5
4E
102
{ACAD_REACTORS
330
47
102
}
330
47
100
AcDbScale
 70
     0
300
1:16
140
1.0
141
16.0
290
     0
  0
SCALE
  5
4F
102
{ACAD_REACTORS
330
47
102
}
330
47
100
AcDbScale
 70
     0
300
1:20
140
1.0
141
20.0
290
     0
  0
SCALE
  5
50
102
{ACAD_REACTORS
330
47
102
}
330
47
100
AcDbScale
 70
     0
300
1:30
140
1.0
141
30.0
290
     0
  0
SCALE
  5
51
102
{ACAD_REACTORS
330
47
102
}
330
47
100
AcDbScale
 70
     0
300
1:40
140
1.0
141
40.0
290
     0
  0
SCALE
  5
52
102
{ACAD_REACTORS
330
47
102
}
330
47
100
AcDbScale
 70
     0
300
1:50
140
1.0
141
50.0
290
     0
  0
SCALE
  5
53
102
{ACAD_REACTORS
330
47
102
}
330
47
100
AcDbScale
 70
     0
300
1:100
140
1.0
141
100.0
290
     0
  0
SCALE
  5
54
102
{ACAD_REACTORS
330
47
102
}
330
47
100
AcDbScale
 70
     0
300
2:1
140
2.0
141
1.0
290
     0
  0
SCALE
  5
55
102
{ACAD_REACTORS
330
47
102
}
330
47
100
AcDbScale
 70
     0
300
4:1
140
4.0
141
1.0
290
     0
  0
SCALE
  5
56
102
{ACAD_REACTORS
330
47
102
}
330
47
100
AcDbScale
 70
     0
300
8:1
140
8.0
141
1.0
290
     0
  0
SCALE
  5
57
102
{ACAD_REACTORS
330
47
102
}
330
47
100
AcDbScale
 70
     0
300
10:1
140
10.0
141
1.0
290
     0
  0
SCALE
  5
58
102
{ACAD_REACTORS
330
47
102
}
330
47
100
AcDbScale
 70
     0
300
100:1
140
100.0
141
1.0
290
     0
  0
ACDBSECTIONVIEWSTYLE
  5
24E
102
{ACAD_XDICTIONARY
360
594
102
}
102
{ACAD_REACTORS
330
24D
102
}
330
24D
100
AcDbModelDocViewStyle
 70
     0
  3
Metric50
290
     0
100
AcDbSectionViewStyle
 70
     0
 71
     0
 90
      102
 71
     1
340
11
 40
5.0
340
0
340
0
 40
5.0
300
I, O, Q, S, X, Z
 40
10.0
 90
        0
 40
2.5
 90
        0
 71
     2
340
16
 90
       25
340
16
 90
       50
 40
5.0
 40
2.5
 40
5.0
 71
     3
340
11
 40
5.0
 90
        0
 40
15.0
 90
        1
300
%<\AcVar ViewSectionStartId>%-%<\AcVar ViewSectionEndId>% (%<\AcVar ViewScale \f "%sn">%)
 71
     4
300
ANSI31
 40
1.0
 90
        0
290
     0
290
     0
 90
        6
 40
0.0
 40
1.570796326794896
 40
0.2617993877991494
 40
1.308996938995747
 40
-0.2617993877991494
 40
1.832595714594045
  0
TABLESTYLE
  5
5A
102
{ACAD_XDICTIONARY
360
4D0
102
}
102
{ACAD_REACTORS
330
59
102
}
330
59
100
AcDbTableStyle
  3
Standard
 70
     0
 71
     0
 40
1.5
 41
1.5
280
     0
281
     0
  7
Standard
140
4.5
170
     2
 62
     0
 63
     7
283
     0
274
    -2
284
     1
 64
     0
275
    -2
285
     1
 65
     0
276
    -2
286
     1
 66
     0
277
    -2
287
     1
 67
     0
278
    -2
288
     1
 68
     0
279
    -2
289
     1
 69
     0
  7
Standard
140
6.0
170
     5
 62
     0
 63
     7
283
     0
274
    -2
284
     1
 64
     0
275
    -2
285
     1
 65
     0
276
    -2
286
     1
 66
     0
277
    -2
287
     1
 67
     0
278
    -2
288
     1
 68
     0
279
    -2
289
     1
 69
     0
  7
Standard
140
4.5
170
     5
 62
     0
 63
     7
283
     0
274
    -2
284
     1
 64
     0
275
    -2
285
     1
 65
     0
276
    -2
286
     1
 66
     0
277
    -2
287
     1
 67
     0
278
    -2
288
     1
 68
     0
279
    -2
289
     1
 69
     0
  0
VISUALSTYLE
  5
2F
102
{ACAD_XDICTIONARY
360
56B
102
}
102
{ACAD_REACTORS
330
2A
102
}
330
2A
100
AcDbVisualStyle
  2

 70
     4
 71
     0
 72
     2
 73
     0
 90
        0
 40
-0.6
 41
-30.0
 62
     5
 63
     7
 74
     1
 91
        4
 64
     7
 65
   257
 75
     1
175
     1
 42
1.0
 92
        0
 66
   257
 43
1.0
 76
     1
 77
     6
 78
     2
 67
     7
 79
     5
170
     0
171
     0
290
     0
174
     0
 93
        1
 44
0.0
173
     0
291
     0
 45
0.0
1001
ACAD
1000
AcDbSavedByObjectVersion
1070
     0
  0
VISUALSTYLE
  5
32
102
{ACAD_XDICTIONARY
360
571
102
}
102
{ACAD_REACTORS
330
2A
102
}
330
2A
100
AcDbVisualStyle
  2

 70
     7
 71
     1
 72
     0
 73
     1
 90
        0
 40
-0.6
 41
-30.0
 62
     5
 63
     7
 74
     0
 91
        4
 64
     7
 65
   257
 75
     1
175
     1
 42
1.0
 92
        8
 66
     7
 43
1.0
 76
     1
 77
     6
 78
     2
 67
     7
 79
     5
170
     0
171
     0
290
     0
174
     0
 93
        1
 44
0.0
173
     0
291
     1
 45
0.0
1001
ACAD
1000
AcDbSavedByObjectVersion
1070
     0
  0
VISUALSTYLE
  5
36
102
{ACAD_XDICTIONARY
360
579
102
}
102
{ACAD_REACTORS
330
2A
102
}
330
2A
100
AcDbVisualStyle
  2

 70
    12
 71
     2
 72
     2
 73
     0
 90
        0
 40
-0.6
 41
-30.0
 62
     5
 63
     7
 74
     1
 91
        4
 64
     7
 65
   257
 75
     1
175
     1
 42
1.0
 92
        8
 66
     7
 43
1.0
 76
     1
 77
     6
 78
     2
 67
     7
 79
     5
170
     0
171
     0
290
     0
174
     0
 93
        1
 44
50.0
173
     0
291
     1
 45
0.0
1001
ACAD
1000
AcDbSavedByObjectVersion
1070
     0
  0
VISUALSTYLE
  5
3A
102
{ACAD_XDICTIONARY
360
581
102
}
102
{ACAD_REACTORS
330
2A
102
}
330
2A
100
AcDbVisualStyle
  2

 70
    16
 71
     2
 72
     2
 73
     3
 90
        0
 40
-0.6
 41
-30.0
 62
     5
 63
     8
 74
     1
 91
        4
 64
     7
 65
   257
 75
     1
175
     1
 42
1.0
 92
        8
 66
     8
 43
1.0
 76
     1
 77
     6
 78
     2
 67
     7
 79
     5
170
     0
171
     0
290
     0
174
     0
 93
        1
 44
0.0
173
     0
291
     1
 45
0.0
1001
ACAD
1000
AcDbSavedByObjectVersion
1070
     0
  0
VISUALSTYLE
  5
34
102
{ACAD_XDICTIONARY
360
575
102
}
102
{ACAD_REACTORS
330
2A
102
}
330
2A
100
AcDbVisualStyle
  2

 70
     9
 71
     3
 72
     2
 73
     0
 90
        0
 40
-0.6
 41
-30.0
 62
     5
 63
     7
 74
     2
 91
        2
 64
     7
 65
   257
 75
     1
175
     1
 42
179.0
 92
        8
 66
     7
 43
1.0
 76
     1
 77
     6
 78
     2
 67
     7
 79
     3
170
     0
171
     0
290
     0
174
     0
 93
        1
 44
0.0
173
     0
291
     0
 45
0.0
1001
ACAD
1000
AcDbSavedByObjectVersion
1070
     0
  0
VISUALSTYLE
  5
35
102
{ACAD_XDICTIONARY
360
577
102
}
102
{ACAD_REACTORS
330
2A
102
}
330
2A
100
AcDbVisualStyle
  2

 70
    11
 71
     2
 72
     2
 73
     0
 90
        0
 40
-0.6
 41
-30.0
 62
     5
 63
     7
 74
     1
 91
        4
 64
     7
 65
   257
 75
     1
175
     1
 42
1.0
 92
        8
 66
     7
 43
1.0
 76
     1
 77
     6
 78
     2
 67
     7
 79
     5
170
     0
171
     0
290
     0
174
     0
 93
        1
 44
-50.0
173
     0
291
     1
 45
0.0
1001
ACAD
1000
AcDbSavedByObjectVersion
1070
     0
  0
VISUALSTYLE
  5
3D
102
{ACAD_XDICTIONARY
360
587
102
}
102
{ACAD_REACTORS
330
2A
102
}
330
2A
100
AcDbVisualStyle
  2

 70
    22
 71
     2
 72
     2
 73
     0
 90
        0
 40
-0.6
 41
-30.0
 62
     5
 63
     7
 74
     1
 91
        4
 64
     7
 65
   257
 75
     1
175
     1
 42
1.0
 92
        8
 66
     7
 43
1.0
 76
     1
 77
     6
 78
     2
 67
     7
 79
     5
170
     0
171
     0
290
     0
174
     0
 93
        1
 44
0.0
173
     0
291
     1
 45
0.0
1001
ACAD
1000
AcDbSavedByObjectVersion
1070
     0
  0
VISUALSTYLE
  5
39
102
{ACAD_XDICTIONARY
360
57F
102
}
102
{ACAD_REACTORS
330
2A
102
}
330
2A
100
AcDbVisualStyle
  2

 70
    15
 71
     2
 72
     2
 73
     0
 90
        0
 40
-0.6
 41
-30.0
 62
     5
 63
     7
 74
     1
 91
        4
 64
     7
 65
   257
 75
     1
175
     1
 42
1.0
 92
        8
 66
     7
 43
1.0
 76
     1
 77
     6
 78
     2
 67
     7
 79
     5
170
     0
171
     0
290
     0
174
     0
 93
        1
 44
0.0
173
     0
291
     1
 45
0.0
1001
ACAD
1000
AcDbSavedByObjectVersion
1070
     0
  0
VISUALSTYLE
  5
2B
102
{ACAD_XDICTIONARY
360
563
102
}
102
{ACAD_REACTORS
330
2A
102
}
330
2A
100
AcDbVisualStyle
  2

 70
     0
 71
     2
 72
     1
 73
     1
 90
        2
 40
-0.6
 41
30.0
 62
     5
 63
     7
 74
     0
 91
        0
 64
     7
 65
   257
 75
     1
175
     1
 42
1.0
 92
        8
 66
     7
 43
1.0
 76
     1
 77
     6
 78
     2
 67
     7
 79
     5
170
     0
171
     0
290
     0
174
     0
 93
       13
 44
0.0
173
     0
291
     1
 45
0.0
1001
ACAD
1000
AcDbSavedByObjectVersion
1070
     0
  0
VISUALSTYLE
  5
2C
102
{ACAD_XDICTIONARY
360
565
102
}
102
{ACAD_REACTORS
330
2A
102
}
330
2A
100
AcDbVisualStyle
  2

 70
     1
 71
     2
 72
     1
 73
     1
 90
        2
 40
-0.6
 41
30.0
 62
     5
 63
     7
 74
     1
 91
        0
 64
     7
 65
   257
 75
     1
175
     1
 42
1.0
 92
        0
 66
   257
 43
1.0
 76
     1
 77
     6
 78
     2
 67
     7
 79
     5
170
     0
171
     0
290
     0
174
     0
 93
       13
 44
0.0
173
     0
291
     1
 45
0.0
1001
ACAD
1000
AcDbSavedByObjectVersion
1070
     0
  0
VISUALSTYLE
  5
2D
102
{ACAD_XDICTIONARY
360
567
102
}
102
{ACAD_REACTORS
330
2A
102
}
330
2A
100
AcDbVisualStyle
  2

 70
     2
 71
     2
 72
     2
 73
     1
 90
        2
 40
-0.6
 41
30.0
 62
     5
 63
     7
 74
     0
 91
        0
 64
     7
 65
   257
 75
     1
175
     1
 42
1.0
 92
        0
 66
     7
 43
1.0
 76
     1
 77
     6
 78
     2
 67
     7
 79
     5
170
     0
171
     0
290
     0
174
     0
 93
       13
 44
0.0
173
     0
291
     1
 45
0.0
1001
ACAD
1000
AcDbSavedByObjectVersion
1070
     0
  0
VISUALSTYLE
  5
2E
102
{ACAD_XDICTIONARY
360
569
102
}
102
{ACAD_REACTORS
330
2A
102
}
330
2A
100
AcDbVisualStyle
  2

 70
     3
 71
     2
 72
     2
 73
     1
 90
        2
 40
-0.6
 41
30.0
 62
     5
 63
     7
 74
     1
 91
        0
 64
     7
 65
   257
 75
     1
175
     1
 42
1.0
 92
        0
 66
   257
 43
1.0
 76
     1
 77
     6
 78
     2
 67
     7
 79
     5
170
     0
171
     0
290
     0
174
     0
 93
       13
 44
0.0
173
     0
291
     1
 45
0.0
1001
ACAD
1000
AcDbSavedByObjectVersion
1070
     0
  0
VISUALSTYLE
  5
31
102
{ACAD_XDICTIONARY
360
56F
102
}
102
{ACAD_REACTORS
330
2A
102
}
330
2A
100
AcDbVisualStyle
  2

 70
     6
 71
     1
 72
     2
 73
     2
 90
        0
 40
-0.6
 41
-30.0
 62
     5
 63
     7
 74
     2
 91
        2
 64
     7
 65
   257
 75
     2
175
     1
 42
40.0
 92
        0
 66
   257
 43
1.0
 76
     1
 77
     6
 78
     2
 67
     7
 79
     3
170
     0
171
     0
290
     0
174
     0
 93
        1
 44
0.0
173
     0
291
     0
 45
0.0
1001
ACAD
1000
AcDbSavedByObjectVersion
1070
     0
  0
VISUALSTYLE
  5
3B
102
{ACAD_XDICTIONARY
360
583
102
}
102
{ACAD_REACTORS
330
2A
102
}
330
2A
100
AcDbVisualStyle
  2

 70
    20
 71
     2
 72
     2
 73
     0
 90
        0
 40
-0.6
 41
-30.0
 62
     5
 63
     7
 74
     1
 91
        4
 64
     7
 65
   257
 75
     1
175
     1
 42
1.0
 92
       10
 66
     7
 43
1.0
 76
     1
 77
     6
 78
     2
 67
     7
 79
     5
170
     0
171
     0
290
     0
174
     0
 93
        1
 44
0.0
173
     0
291
     1
 45
0.0
1001
ACAD
1000
AcDbSavedByObjectVersion
1070
     0
  0
VISUALSTYLE
  5
38
102
{ACAD_XDICTIONARY
360
57D
102
}
102
{ACAD_REACTORS
330
2A
102
}
330
2A
100
AcDbVisualStyle
  2

 70
    14
 71
     2
 72
     2
 73
     0
 90
        0
 40
-0.6
 41
-30.0
 62
     5
 63
     7
 74
     1
 91
        4
 64
     7
 65
   257
 75
     7
175
     7
 42
1.0
 92
        8
 66
     7
 43
1.0
 76
     1
 77
     6
 78
     2
 67
     7
 79
     5
170
     0
171
     0
290
     0
174
     0
 93
        1
 44
0.0
173
     0
291
     1
 45
0.0
1001
ACAD
1000
AcDbSavedByObjectVersion
1070
     0
  0
VISUALSTYLE
  5
3C
102
{ACAD_XDICTIONARY
360
585
102
}
102
{ACAD_REACTORS
330
2A
102
}
330
2A
100
AcDbVisualStyle
  2

 70
    21
 71
     2
 72
     2
 73
     0
 90
        0
 40
-0.6
 41
-30.0
 62
     5
 63
     7
 74
     1
 91
        4
 64
     7
 65
   257
 75
     1
175
     1
 42
1.0
 92
        9
 66
     7
 43
1.0
 76
     1
 77
     6
 78
     2
 67
     7
 79
     5
170
     0
171
     0
290
     0
174
     0
 93
        1
 44
0.0
173
     0
291
     1
 45
0.0
1001
ACAD
1000
AcDbSavedByObjectVersion
1070
     0
  0
VISUALSTYLE
  5
33
102
{ACAD_XDICTIONARY
360
573
102
}
102
{ACAD_REACTORS
330
2A
102
}
330
2A
100
AcDbVisualStyle
  2

 70
     8
 71
     2
 72
     3
 73
     0
 90
        2
 40
-0.6
 41
30.0
 62
     5
 63
     7
 74
     0
 91
        0
 64
     7
 65
   257
 75
     1
175
     1
 42
1.0
 92
        8
 66
   257
 43
1.0
 76
     1
 77
     6
 78
     2
 67
     7
 79
     3
170
     0
171
     0
290
     0
174
     0
 93
       13
 44
0.0
173
     0
291
     0
 45
0.0
1001
ACAD
1000
AcDbSavedByObjectVersion
1070
     0
  0
VISUALSTYLE
  5
42
102
{ACAD_XDICTIONARY
360
591
102
}
102
{ACAD_REACTORS
330
2A
102
}
330
2A
100
AcDbVisualStyle
  2

 70
    27
 71
     2
 72
     2
 73
     1
 90
        2
 40
-0.6
 41
30.0
 62
     5
 63
     7
 74
     0
 91
        4
 64
     7
 65
   257
 75
     1
175
     1
 42
1.0
 92
        8
 66
   257
 43
1.0
 76
     1
 77
     6
 78
     2
 67
     8
 79
     3
170
     0
171
     0
290
     0
174
     0
 93
        5
 44
0.0
173
     0
291
     0
 45
0.0
1001
ACAD
1000
AcDbSavedByObjectVersion
1070
     0
  0
VISUALSTYLE
  5
41
102
{ACAD_XDICTIONARY
360
58F
102
}
102
{ACAD_REACTORS
330
2A
102
}
330
2A
100
AcDbVisualStyle
  2

 70
    26
 71
     2
 72
     2
 73
     1
 90
        2
 40
-0.6
 41
30.0
 62
     5
 63
     7
 74
     1
 91
       10
 64
     7
 65
   257
 75
     2
175
     1
 42
1.0
 92
        8
 66
   257
 43
1.0
 76
     1
 77
     6
 78
     2
 67
     7
 79
     3
170
     0
171
     0
290
     0
174
     0
 93
        5
 44
0.0
173
     0
291
     0
 45
0.0
1001
ACAD
1000
AcDbSavedByObjectVersion
1070
     0
  0
VISUALSTYLE
  5
3E
102
{ACAD_XDICTIONARY
360
589
102
}
102
{ACAD_REACTORS
330
2A
102
}
330
2A
100
AcDbVisualStyle
  2

 70
    23
 71
     2
 72
     2
 73
     3
 90
        0
 40
-0.6
 41
-30.0
 62
     5
 63
     7
 74
     2
 91
        2
 64
     7
 65
     7
 75
     1
175
     1
 42
40.0
 92
        8
 66
     7
 43
1.0
 76
     1
 77
     6
 78
     2
 67
     7
 79
     3
170
     0
171
     0
290
     0
174
     0
 93
        1
 44
0.0
173
     0
291
     0
 45
0.0
1001
ACAD
1000
AcDbSavedByObjectVersion
1070
     0
  0
VISUALSTYLE
  5
3F
102
{ACAD_XDICTIONARY
360
58B
102
}
102
{ACAD_REACTORS
330
2A
102
}
330
2A
100
AcDbVisualStyle
  2

 70
    24
 71
     1
 72
     2
 73
     2
 90
        0
 40
-0.6
 41
-30.0
 62
     5
 63
     7
 74
     2
 91
        2
 64
     7
 65
     7
 75
     1
175
     1
 42
40.0
 92
       11
 66
     7
 43
1.0
 76
     1
 77
     6
 78
     2
 67
     7
 79
     6
170
     0
171
     0
290
     0
174
     0
 93
        1
 44
0.0
173
     0
291
     0
 45
0.0
1001
ACAD
1000
AcDbSavedByObjectVersion
1070
     0
  0
VISUALSTYLE
  5
37
102
{ACAD_XDICTIONARY
360
57B
102
}
102
{ACAD_REACTORS
330
2A
102
}
330
2A
100
AcDbVisualStyle
  2

 70
    13
 71
     2
 72
     2
 73
     0
 90
        0
 40
-0.6
 41
-30.0
 62
     5
 63
     7
 74
     1
 91
        4
 64
     7
 65
   257
 75
     1
175
     1
 42
1.0
 92
       12
 66
     7
 43
1.0
 76
     1
 77
     6
 78
     2
 67
     7
 79
     5
170
     0
171
     0
290
     0
174
     0
 93
        1
 44
0.0
173
     0
291
     1
 45
0.0
1001
ACAD
1000
AcDbSavedByObjectVersion
1070
     0
  0
VISUALSTYLE
  5
30
102
{ACAD_XDICTIONARY
360
56D
102
}
102
{ACAD_REACTORS
330
2A
102
}
330
2A
100
AcDbVisualStyle
  2

 70
     5
 71
     0
 72
     2
 73
     0
 90
        0
 40
-0.6
 41
-30.0
 62
     5
 63
     7
 74
     1
 91
        4
 64
     7
 65
   257
 75
     1
175
     1
 42
1.0
 92
        0
 66
   257
 43
1.0
 76
     1
 77
     6
 78
     2
 67
     7
 79
     3
170
     0
171
     0
290
     0
174
     0
 93
        1
 44
0.0
173
     0
291
     0
 45
0.0
1001
ACAD
1000
AcDbSavedByObjectVersion
1070
     0
  0
VISUALSTYLE
  5
40
102
{ACAD_XDICTIONARY
360
58D
102
}
102
{ACAD_REACTORS
330
2A
102
}
330
2A
100
AcDbVisualStyle
  2

 70
    25
 71
     2
 72
     2
 73
     1
 90
        1
 40
0.5
 41
-30.0
 62
     5
 63
     7
 74
     1
 91
        0
 64
     7
 65
   257
 75
     1
175
     1
 42
1.0
 92
        8
 66
     7
 43
1.0
 76
     1
 77
     6
 78
     2
 67
     7
 79
     3
170
     0
171
     0
290
     0
174
     0
 93
       13
 44
0.0
173
     0
291
     0
 45
0.0
1001
ACAD
1000
AcDbSavedByObjectVersion
1070
     0
  0
DICTIONARYVAR
  5
20F
102
{ACAD_REACTORS
330
201
102
}
330
201
100
DictionaryVariables
280
     0
  1
1:1
  0
DICTIONARYVAR
  5
208
102
{ACAD_REACTORS
330
201
102
}
330
201
100
DictionaryVariables
280
     0
  1
3.500000
  0
DICTIONARYVAR
  5
209
102
{ACAD_REACTORS
330
201
102
}
330
201
100
DictionaryVariables
280
     0
  1
acadiso.lin
  0
DICTIONARYVAR
  5
203
102
{ACAD_REACTORS
330
201
102
}
330
201
100
DictionaryVariables
280
     0
  1
STANDARD
  0
DICTIONARYVAR
  5
202
102
{ACAD_REACTORS
330
201
102
}
330
201
100
DictionaryVariables
280
     0
  1
STANDARD
  0
DICTIONARYVAR
  5
4CB
102
{ACAD_REACTORS
330
201
102
}
330
201
100
DictionaryVariables
280
     0
  1
Metric50
  0
DICTIONARYVAR
  5
4CC
102
{ACAD_REACTORS
330
201
102
}
330
201
100
DictionaryVariables
280
     0
  1
Metric50
  0
DICTIONARYVAR
  5
20A
102
{ACAD_REACTORS
330
201
102
}
330
201
100
DictionaryVariables
280
     0
  1
2
  0
DICTIONARYVAR
  5
20B
102
{ACAD_REACTORS
330
201
102
}
330
201
100
DictionaryVariables
280
     0
  1
1
  0
DICTIONARYVAR
  5
517
102
{ACAD_REACTORS
330
201
102
}
330
201
100
DictionaryVariables
280
     0
  1
0
  0
DICTIONARYVAR
  5
4CE
102
{ACAD_REACTORS
330
201
102
}
330
201
100
DictionaryVariables
280
     0
  1
1
  0
DICTIONARYVAR
  5
4CF
102
{ACAD_REACTORS
330
201
102
}
330
201
100
DictionaryVariables
280
     0
  1
15
  0
DICTIONARYVAR
  5
4CD
102
{ACAD_REACTORS
330
201
102
}
330
201
100
DictionaryVariables
280
     0
  1
0
  0
DICTIONARYVAR
  5
51A
102
{ACAD_REACTORS
330
201
102
}
330
201
100
DictionaryVariables
280
     0
  1
1.570796
  0
DICTIONARYVAR
  5
51B
102
{ACAD_REACTORS
330
201
102
}
330
201
100
DictionaryVariables
280
     0
  1
1.570796
  0
DICTIONARYVAR
  5
51C
102
{ACAD_REACTORS
330
201
102
}
330
201
100
DictionaryVariables
280
     0
  1
-122.394000
  0
DICTIONARYVAR
  5
210
102
{ACAD_REACTORS
330
201
102
}
330
201
100
DictionaryVariables
280
     0
  1
1
  0
DICTIONARYVAR
  5
519
102
{ACAD_REACTORS
330
201
102
}
330
201
100
DictionaryVariables
280
     0
  1
80.000000
  0
DICTIONARYVAR
  5
518
102
{ACAD_REACTORS
330
201
102
}
330
201
100
DictionaryVariables
280
     0
  1
5.000000
  0
DICTIONARYVAR
  5
516
102
{ACAD_REACTORS
330
201
102
}
330
201
100
DictionaryVariables
280
     0
  1
127
  0
DICTIONARYVAR
  5
51D
102
{ACAD_REACTORS
330
201
102
}
330
201
100
DictionaryVariables
280
     0
  1
2
  0
DICTIONARY
  5
596
330
250
100
AcDbDictionary
280
     1
281
     1
  3
ACAD_XREC_ROUNDTRIP
360
597
  0
DICTIONARY
  5
55F
330
1E
100
AcDbDictionary
280
     1
281
     1
  3
ACAD_XREC_ROUNDTRIP
360
560
  0
DICTIONARY
  5
561
330
22
100
AcDbDictionary
280
     1
281
     1
  3
ACAD_XREC_ROUNDTRIP
360
562
  0
DICTIONARY
  5
598
330
251
100
AcDbDictionary
280
     1
281
     1
  3
ACAD_XREC_ROUNDTRIP
360
599
  0
DICTIONARY
  5
243
330
45
100
AcDbDictionary
280
     1
281
     1
  3
ACAD_XREC_ROUNDTRIP
360
244
  0
DICTIONARY
  5
241
330
44
100
AcDbDictionary
280
     1
281
     1
  3
ACAD_XREC_ROUNDTRIP
360
242
  0
DICTIONARY
  5
245
330
46
100
AcDbDictionary
280
     1
281
     1
  3
ACAD_XREC_ROUNDTRIP
360
246
  0
DICTIONARY
  5
594
330
24E
100
AcDbDictionary
280
     1
281
     1
  3
ACAD_XREC_ROUNDTRIP
360
595
  0
DICTIONARY
  5
4D0
330
5A
100
AcDbDictionary
280
     1
281
     1
  3
ACAD_ROUNDTRIP_2008_TABLESTYLE_CELLSTYLEMAP
360
55C
  3
ACAD_XREC_ROUNDTRIP
360
593
  0
DICTIONARY
  5
56B
330
2F
100
AcDbDictionary
280
     1
281
     1
  3
ACAD_XREC_ROUNDTRIP
360
56C
  0
DICTIONARY
  5
571
330
32
100
AcDbDictionary
280
     1
281
     1
  3
ACAD_XREC_ROUNDTRIP
360
572
  0
DICTIONARY
  5
579
330
36
100
AcDbDictionary
280
     1
281
     1
  3
ACAD_XREC_ROUNDTRIP
360
57A
  0
DICTIONARY
  5
581
330
3A
100
AcDbDictionary
280
     1
281
     1
  3
ACAD_XREC_ROUNDTRIP
360
582
  0
DICTIONARY
  5
575
330
34
100
AcDbDictionary
280
     1
281
     1
  3
ACAD_XREC_ROUNDTRIP
360
576
  0
DICTIONARY
  5
577
330
35
100
AcDbDictionary
280
     1
281
     1
  3
ACAD_XREC_ROUNDTRIP
360
578
  0
DICTIONARY
  5
587
330
3D
100
AcDbDictionary
280
     1
281
     1
  3
ACAD_XREC_ROUNDTRIP
360
588
  0
DICTIONARY
  5
57F
330
39
100
AcDbDictionary
280
     1
281
     1
  3
ACAD_XREC_ROUNDTRIP
360
580
  0
DICTIONARY
  5
563
330
2B
100
AcDbDictionary
280
     1
281
     1
  3
ACAD_XREC_ROUNDTRIP
360
564
  0
DICTIONARY
  5
565
330
2C
100
AcDbDictionary
280
     1
281
     1
  3
ACAD_XREC_ROUNDTRIP
360
566
  0
DICTIONARY
  5
567
330
2D
100
AcDbDictionary
280
     1
281
     1
  3
ACAD_XREC_ROUNDTRIP
360
568
  0
DICTIONARY
  5
569
330
2E
100
AcDbDictionary
280
     1
281
     1
  3
ACAD_XREC_ROUNDTRIP
360
56A
  0
DICTIONARY
  5
56F
330
31
100
AcDbDictionary
280
     1
281
     1
  3
ACAD_XREC_ROUNDTRIP
360
570
  0
DICTIONARY
  5
583
330
3B
100
AcDbDictionary
280
     1
281
     1
  3
ACAD_XREC_ROUNDTRIP
360
584
  0
DICTIONARY
  5
57D
330
38
100
AcDbDictionary
280
     1
281
     1
  3
ACAD_XREC_ROUNDTRIP
360
57E
  0
DICTIONARY
  5
585
330
3C
100
AcDbDictionary
280
     1
281
     1
  3
ACAD_XREC_ROUNDTRIP
360
586
  0
DICTIONARY
  5
573
330
33
100
AcDbDictionary
280
     1
281
     1
  3
ACAD_XREC_ROUNDTRIP
360
574
  0
DICTIONARY
  5
591
330
42
100
AcDbDictionary
280
     1
281
     1
  3
ACAD_XREC_ROUNDTRIP
360
592
  0
DICTIONARY
  5
58F
330
41
100
AcDbDictionary
280
     1
281
     1
  3
ACAD_XREC_ROUNDTRIP
360
590
  0
DICTIONARY
  5
589
330
3E
100
AcDbDictionary
280
     1
281
     1
  3
ACAD_XREC_ROUNDTRIP
360
58A
  0
DICTIONARY
  5
58B
330
3F
100
AcDbDictionary
280
     1
281
     1
  3
ACAD_XREC_ROUNDTRIP
360
58C
  0
DICTIONARY
  5
57B
330
37
100
AcDbDictionary
280
     1
281
     1
  3
ACAD_XREC_ROUNDTRIP
360
57C
  0
DICTIONARY
  5
56D
330
30
100
AcDbDictionary
280
     1
281
     1
  3
ACAD_XREC_ROUNDTRIP
360
56E
  0
DICTIONARY
  5
58D
330
40
100
AcDbDictionary
280
     1
281
     1
  3
ACAD_XREC_ROUNDTRIP
360
58E
  0
XRECORD
  5
597
102
{ACAD_REACTORS
330
596
102
}
330
596
100
AcDbXrecord
280
     1
102
DISPLAYNAME
  1
Metric50
102
FLAGS
 90
        0
  0
XRECORD
  5
560
102
{ACAD_REACTORS
330
55F
102
}
330
55F
100
AcDbXrecord
280
     1
102
SHADEPLOT
 70
     0
102
SHADEPLOTRESLEVEL
 70
     2
102
SHADEPLOTCUSTOMDPI
 70
   300
  0
XRECORD
  5
562
102
{ACAD_REACTORS
330
561
102
}
330
561
100
AcDbXrecord
280
     1
102
SHADEPLOT
 70
     0
102
SHADEPLOTRESLEVEL
 70
     2
102
SHADEPLOTCUSTOMDPI
 70
   300
  0
XRECORD
  5
599
102
{ACAD_REACTORS
330
598
102
}
330
598
100
AcDbXrecord
280
     1
102
SHADEPLOT
 70
     0
102
SHADEPLOTRESLEVEL
 70
     2
102
SHADEPLOTCUSTOMDPI
 70
   300
  0
XRECORD
  5
244
102
{ACAD_REACTORS
330
243
102
}
330
243
100
AcDbXrecord
280
     1
102
MATERIAL
148
0.0
149
0.0
149
0.0
 93
        0
 94
      127
282
     0
 72
     1
 77
     1
171
     1
175
     1
179
     1
273
     0
  0
XRECORD
  5
242
102
{ACAD_REACTORS
330
241
102
}
330
241
100
AcDbXrecord
280
     1
102
MATERIAL
148
0.0
149
0.0
149
0.0
 93
        0
 94
      127
282
     0
 72
     1
 77
     1
171
     1
175
     1
179
     1
273
     0
  0
XRECORD
  5
246
102
{ACAD_REACTORS
330
245
102
}
330
245
100
AcDbXrecord
280
     1
102
MATERIAL
148
0.0
149
0.0
149
0.0
 93
        0
 94
      127
282
     0
 72
     1
 77
     1
171
     1
175
     1
179
     1
273
     0
  0
XRECORD
  5
595
102
{ACAD_REACTORS
330
594
102
}
330
594
100
AcDbXrecord
280
     1
102
DISPLAYNAME
  1
Metric50
102
FLAGS
 90
        0
  0
CELLSTYLEMAP
  5
55C
102
{ACAD_REACTORS
330
4D0
102
}
330
4D0
100
AcDbCellStyleMap
 90
        3
300
CELLSTYLE
  1
TABLEFORMAT_BEGIN
 90
        5
170
     1
 91
        0
 92
    32768
 62
   257
 93
        1
300
CONTENTFORMAT
  1
CONTENTFORMAT_BEGIN
 90
        0
 91
        0
 92
        4
 93
        0
300

 40
0.0
140
1.0
 94
        5
 62
     0
340
11
144
6.0
309
CONTENTFORMAT_END
171
     1
301
MARGIN
  1
CELLMARGIN_BEGIN
 40
1.5
 40
1.5
 40
1.5
 40
1.5
 40
0.18
 40
0.18
309
CELLMARGIN_END
 94
        6
 95
        1
302
GRIDFORMAT
  1
GRIDFORMAT_BEGIN
 90
        0
 91
        1
 62
     0
 92
       -2
340
0
 93
        0
 40
0.045
309
GRIDFORMAT_END
 95
        2
302
GRIDFORMAT
  1
GRIDFORMAT_BEGIN
 90
        0
 91
        1
 62
     0
 92
       -2
340
0
 93
        0
 40
0.045
309
GRIDFORMAT_END
 95
        4
302
GRIDFORMAT
  1
GRIDFORMAT_BEGIN
 90
        0
 91
        1
 62
     0
 92
       -2
340
0
 93
        0
 40
0.045
309
GRIDFORMAT_END
 95
        8
302
GRIDFORMAT
  1
GRIDFORMAT_BEGIN
 90
        0
 91
        1
 62
     0
 92
       -2
340
0
 93
        0
 40
0.045
309
GRIDFORMAT_END
 95
       16
302
GRIDFORMAT
  1
GRIDFORMAT_BEGIN
 90
        0
 91
        1
 62
     0
 92
       -2
340
0
 93
        0
 40
0.045
309
GRIDFORMAT_END
 95
       32
302
GRIDFORMAT
  1
GRIDFORMAT_BEGIN
 90
        0
 91
        1
 62
     0
 92
       -2
340
0
 93
        0
 40
0.045
309
GRIDFORMAT_END
309
TABLEFORMAT_END
  1
CELLSTYLE_BEGIN
 90
        1
 91
        1
300
_TITLE
309
CELLSTYLE_END
300
CELLSTYLE
  1
TABLEFORMAT_BEGIN
 90
        5
170
     1
 91
        0
 92
        0
 62
   257
 93
        1
300
CONTENTFORMAT
  1
CONTENTFORMAT_BEGIN
 90
        0
 91
        0
 92
        4
 93
        0
300

 40
0.0
140
1.0
 94
        5
 62
     0
340
11
144
4.5
309
CONTENTFORMAT_END
171
     1
301
MARGIN
  1
CELLMARGIN_BEGIN
 40
1.5
 40
1.5
 40
1.5
 40
1.5
 40
0.18
 40
0.18
309
CELLMARGIN_END
 94
        6
 95
        1
302
GRIDFORMAT
  1
GRIDFORMAT_BEGIN
 90
        0
 91
        1
 62
     0
 92
       -2
340
0
 93
        0
 40
0.045
309
GRIDFORMAT_END
 95
        2
302
GRIDFORMAT
  1
GRIDFORMAT_BEGIN
 90
        0
 91
        1
 62
     0
 92
       -2
340
0
 93
        0
 40
0.045
309
GRIDFORMAT_END
 95
        4
302
GRIDFORMAT
  1
GRIDFORMAT_BEGIN
 90
        0
 91
        1
 62
     0
 92
       -2
340
0
 93
        0
 40
0.045
309
GRIDFORMAT_END
 95
        8
302
GRIDFORMAT
  1
GRIDFORMAT_BEGIN
 90
        0
 91
        1
 62
     0
 92
       -2
340
0
 93
        0
 40
0.045
309
GRIDFORMAT_END
 95
       16
302
GRIDFORMAT
  1
GRIDFORMAT_BEGIN
 90
        0
 91
        1
 62
     0
 92
       -2
340
0
 93
        0
 40
0.045
309
GRIDFORMAT_END
 95
       32
302
GRIDFORMAT
  1
GRIDFORMAT_BEGIN
 90
        0
 91
        1
 62
     0
 92
       -2
340
0
 93
        0
 40
0.045
309
GRIDFORMAT_END
309
TABLEFORMAT_END
  1
CELLSTYLE_BEGIN
 90
        2
 91
        1
300
_HEADER
309
CELLSTYLE_END
300
CELLSTYLE
  1
TABLEFORMAT_BEGIN
 90
        5
170
     1
 91
        0
 92
        0
 62
   257
 93
        1
300
CONTENTFORMAT
  1
CONTENTFORMAT_BEGIN
 90
        0
 91
        0
 92
        4
 93
        0
300

 40
0.0
140
1.0
 94
        2
 62
     0
340
11
144
4.5
309
CONTENTFORMAT_END
171
     1
301
MARGIN
  1
CELLMARGIN_BEGIN
 40
1.5
 40
1.5
 40
1.5
 40
1.5
 40
0.18
 40
0.18
309
CELLMARGIN_END
 94
        6
 95
        1
302
GRIDFORMAT
  1
GRIDFORMAT_BEGIN
 90
        0
 91
        1
 62
     0
 92
       -2
340
0
 93
        0
 40
0.045
309
GRIDFORMAT_END
 95
        2
302
GRIDFORMAT
  1
GRIDFORMAT_BEGIN
 90
        0
 91
        1
 62
     0
 92
       -2
340
0
 93
        0
 40
0.045
309
GRIDFORMAT_END
 95
        4
302
GRIDFORMAT
  1
GRIDFORMAT_BEGIN
 90
        0
 91
        1
 62
     0
 92
       -2
340
0
 93
        0
 40
0.045
309
GRIDFORMAT_END
 95
        8
302
GRIDFORMAT
  1
GRIDFORMAT_BEGIN
 90
        0
 91
        1
 62
     0
 92
       -2
340
0
 93
        0
 40
0.045
309
GRIDFORMAT_END
 95
       16
302
GRIDFORMAT
  1
GRIDFORMAT_BEGIN
 90
        0
 91
        1
 62
     0
 92
       -2
340
0
 93
        0
 40
0.045
309
GRIDFORMAT_END
 95
       32
302
GRIDFORMAT
  1
GRIDFORMAT_BEGIN
 90
        0
 91
        1
 62
     0
 92
       -2
340
0
 93
        0
 40
0.045
309
GRIDFORMAT_END
309
TABLEFORMAT_END
  1
CELLSTYLE_BEGIN
 90
        3
 91
        2
300
_DATA
309
CELLSTYLE_END
  0
XRECORD
  5
593
102
{ACAD_REACTORS
330
4D0
102
}
330
4D0
100
AcDbXrecord
280
     1
102
ACAD_ROUNDTRIP_PRE2007_TABLESTYLE
 90
        4
 91
        0
  1

 92
        4
 93
        0
  2

 94
        4
 95
        0
  3

  0
XRECORD
  5
56C
102
{ACAD_REACTORS
330
56B
102
}
330
56B
100
AcDbXrecord
280
     1
102
RTVSPost2010Prop28
280
     1
102
RTVSPost2010PropOp28
 70
     1
102
RTVSPost2010Prop29
280
     1
102
RTVSPost2010PropOp29
 70
     1
102
RTVSPost2010Prop30
280
     0
102
RTVSPost2010PropOp30
 70
     1
102
RTVSPost2010Prop31
280
     0
102
RTVSPost2010PropOp31
 70
     1
102
RTVSPost2010Prop32
280
     0
102
RTVSPost2010PropOp32
 70
     1
102
RTVSPost2010Prop33
280
     0
102
RTVSPost2010PropOp33
 70
     1
102
RTVSPost2010Prop34
280
     0
102
RTVSPost2010PropOp34
 70
     1
102
RTVSPost2010Prop35
280
     0
102
RTVSPost2010PropOp35
 70
     1
102
RTVSPost2010Prop36
280
     0
102
RTVSPost2010PropOp36
 70
     1
102
RTVSPost2010Prop37
 90
       50
102
RTVSPost2010PropOp37
 70
     1
102
RTVSPost2010Prop38
140
0.0
102
RTVSPost2010PropOp38
 70
     1
102
RTVSPost2010Prop39
140
1.0
102
RTVSPost2010PropOp39
 70
     1
102
RTVSPost2010Prop40
 90
        0
102
RTVSPost2010PropOp40
 70
     1
102
RTVSPost2010Prop41ColorIndex
 90
       18
102
RTVSPost2010Prop41ColorRGB
 90
        0
102
RTVSPost2010PropOp41
 70
     1
102
RTVSPost2010Prop42
 90
       50
102
RTVSPost2010PropOp42
 70
     1
102
RTVSPost2010Prop43
 90
        3
102
RTVSPost2010PropOp43
 70
     1
102
RTVSPost2010Prop44ColorIndex
 90
        5
102
RTVSPost2010Prop44ColorRGB
 90
      255
102
RTVSPost2010PropOp44
 70
     1
102
RTVSPost2010Prop45
280
     0
102
RTVSPost2010PropOp45
 70
     1
102
RTVSPost2010Prop46
 90
       50
102
RTVSPost2010PropOp46
 70
     1
102
RTVSPost2010Prop47
 90
       50
102
RTVSPost2010PropOp47
 70
     1
102
RTVSPost2010Prop48
 90
       50
102
RTVSPost2010PropOp48
 70
     1
102
RTVSPost2010Prop49
280
     0
102
RTVSPost2010PropOp49
 70
     1
102
RTVSPost2010Prop50
 90
       50
102
RTVSPost2010PropOp50
 70
     1
102
RTVSPost2010Prop51ColorIndex
 90
      256
102
RTVSPost2010Prop51ColorRGB
 90
-16777216
102
RTVSPost2010PropOp51
 70
     0
102
RTVSPost2010Prop52
140
1.0
102
RTVSPost2010PropOp52
 70
     0
102
RTVSPost2010Prop53
 90
        2
102
RTVSPost2010PropOp53
 70
     1
102
RTVSPost2010Prop54
  1
strokes_ogs.tif
102
RTVSPost2010PropOp54
 70
     1
102
RTVSPost2010Prop55
280
     0
102
RTVSPost2010PropOp55
 70
     1
102
RTVSPost2010Prop56
140
1.0
102
RTVSPost2010PropOp56
 70
     1
102
RTVSPost2010Prop57
140
1.0
102
RTVSPost2010PropOp57
 70
     1
102
RTVSPropertyOp0
 70
     1
102
RTVSPropertyOp1
 70
     1
102
RTVSPropertyOp2
 70
     1
102
RTVSPropertyOp3
 70
     1
102
RTVSPropertyOp4
 70
     1
102
RTVSPropertyOp5
 70
     1
102
RTVSPropertyOp6
 70
     1
102
RTVSPropertyOp7
 70
     1
102
RTVSPropertyOp8
 70
     1
102
RTVSPropertyOp9
 70
     1
102
RTVSPropertyOp10
 70
     1
102
RTVSPropertyOp11
 70
     1
102
RTVSPropertyOp12
 70
     1
102
RTVSPropertyOp13
 70
     1
102
RTVSPropertyOp14
 70
     1
102
RTVSPropertyOp15
 70
     1
102
RTVSPropertyOp16
 70
     1
102
RTVSPropertyOp17
 70
     1
102
RTVSPropertyOp18
 70
     1
102
RTVSPropertyOp19
 70
     1
102
RTVSPropertyOp20
 70
     1
102
RTVSPropertyOp21
 70
     1
102
RTVSPropertyOp22
 70
     1
102
RTVSPropertyOp23
 70
     1
102
RTVSPropertyOp24
 70
     1
102
RTVSPropertyOp25
 70
     1
102
RTVSPropertyOp26
 70
     1
102
RTVSPropertyOp27
 70
     1
102
RTVSPropertyOp28
 70
     1
102
RTVSPropertyOp29
 70
     1
102
RTVSPropertyOp30
 70
     1
102
RTVSPropertyOp31
 70
     1
102
RTVSPropertyOp32
 70
     1
102
RTVSPropertyOp33
 70
     1
102
RTVSPropertyOp34
 70
     1
102
RTVSPropertyOp35
 70
     1
102
RTVSPropertyOp36
 70
     1
102
RTVSPropertyOp37
 70
     1
102
RTVSPropertyOp38
 70
     1
102
RTVSPropertyOp39
 70
     1
102
RTVSPropertyOp40
 70
     1
102
RTVSPropertyOp41
 70
     1
102
RTVSPropertyOp42
 70
     1
102
RTVSPropertyOp43
 70
     1
102
RTVSPropertyOp44
 70
     1
102
RTVSPropertyOp45
 70
     1
102
RTVSPropertyOp46
 70
     1
102
RTVSPropertyOp47
 70
     1
102
RTVSPropertyOp48
 70
     1
102
RTVSPropertyOp49
 70
     1
102
RTVSPropertyOp50
 70
     1
102
RTVSPropertyOp51
 70
     0
102
RTVSPropertyOp52
 70
     0
102
RTVSPropertyOp53
 70
     1
102
RTVSPropertyOp54
 70
     1
102
RTVSPropertyOp55
 70
     1
102
RTVSPropertyOp56
 70
     1
102
RTVSPropertyOp57
 70
     1
102
RTVSPropertyOp58
 70
     1
102
RTVSPropertyOp59
 70
     1
102
RTVSPropertyOp60
 70
     1
102
RTVSPropertyOp61
 70
     1
102
RTVSPropertyOp62
 70
     1
  0
XRECORD
  5
572
102
{ACAD_REACTORS
330
571
102
}
330
571
100
AcDbXrecord
280
     1
102
RTVSPost2010Prop28
280
     0
102
RTVSPost2010PropOp28
 70
     1
102
RTVSPost2010Prop29
280
     1
102
RTVSPost2010PropOp29
 70
     1
102
RTVSPost2010Prop30
280
     1
102
RTVSPost2010PropOp30
 70
     1
102
RTVSPost2010Prop31
280
     0
102
RTVSPost2010PropOp31
 70
     1
102
RTVSPost2010Prop32
280
     0
102
RTVSPost2010PropOp32
 70
     1
102
RTVSPost2010Prop33
280
     0
102
RTVSPost2010PropOp33
 70
     1
102
RTVSPost2010Prop34
280
     0
102
RTVSPost2010PropOp34
 70
     1
102
RTVSPost2010Prop35
280
     0
102
RTVSPost2010PropOp35
 70
     1
102
RTVSPost2010Prop36
280
     0
102
RTVSPost2010PropOp36
 70
     1
102
RTVSPost2010Prop37
 90
       50
102
RTVSPost2010PropOp37
 70
     1
102
RTVSPost2010Prop38
140
0.0
102
RTVSPost2010PropOp38
 70
     1
102
RTVSPost2010Prop39
140
1.0
102
RTVSPost2010PropOp39
 70
     1
102
RTVSPost2010Prop40
 90
        0
102
RTVSPost2010PropOp40
 70
     1
102
RTVSPost2010Prop41ColorIndex
 90
       18
102
RTVSPost2010Prop41ColorRGB
 90
        0
102
RTVSPost2010PropOp41
 70
     1
102
RTVSPost2010Prop42
 90
       50
102
RTVSPost2010PropOp42
 70
     1
102
RTVSPost2010Prop43
 90
        3
102
RTVSPost2010PropOp43
 70
     1
102
RTVSPost2010Prop44ColorIndex
 90
        5
102
RTVSPost2010Prop44ColorRGB
 90
      255
102
RTVSPost2010PropOp44
 70
     1
102
RTVSPost2010Prop45
280
     0
102
RTVSPost2010PropOp45
 70
     1
102
RTVSPost2010Prop46
 90
       50
102
RTVSPost2010PropOp46
 70
     1
102
RTVSPost2010Prop47
 90
       50
102
RTVSPost2010PropOp47
 70
     1
102
RTVSPost2010Prop48
 90
       50
102
RTVSPost2010PropOp48
 70
     1
102
RTVSPost2010Prop49
280
     0
102
RTVSPost2010PropOp49
 70
     1
102
RTVSPost2010Prop50
 90
       50
102
RTVSPost2010PropOp50
 70
     1
102
RTVSPost2010Prop51ColorIndex
 90
      256
102
RTVSPost2010Prop51ColorRGB
 90
-16777216
102
RTVSPost2010PropOp51
 70
     0
102
RTVSPost2010Prop52
140
1.0
102
RTVSPost2010PropOp52
 70
     0
102
RTVSPost2010Prop53
 90
        2
102
RTVSPost2010PropOp53
 70
     1
102
RTVSPost2010Prop54
  1
strokes_ogs.tif
102
RTVSPost2010PropOp54
 70
     1
102
RTVSPost2010Prop55
280
     0
102
RTVSPost2010PropOp55
 70
     1
102
RTVSPost2010Prop56
140
1.0
102
RTVSPost2010PropOp56
 70
     1
102
RTVSPost2010Prop57
140
1.0
102
RTVSPost2010PropOp57
 70
     1
102
RTVSPropertyOp0
 70
     1
102
RTVSPropertyOp1
 70
     1
102
RTVSPropertyOp2
 70
     1
102
RTVSPropertyOp3
 70
     1
102
RTVSPropertyOp4
 70
     1
102
RTVSPropertyOp5
 70
     1
102
RTVSPropertyOp6
 70
     1
102
RTVSPropertyOp7
 70
     1
102
RTVSPropertyOp8
 70
     1
102
RTVSPropertyOp9
 70
     1
102
RTVSPropertyOp10
 70
     1
102
RTVSPropertyOp11
 70
     1
102
RTVSPropertyOp12
 70
     1
102
RTVSPropertyOp13
 70
     1
102
RTVSPropertyOp14
 70
     1
102
RTVSPropertyOp15
 70
     1
102
RTVSPropertyOp16
 70
     1
102
RTVSPropertyOp17
 70
     1
102
RTVSPropertyOp18
 70
     1
102
RTVSPropertyOp19
 70
     1
102
RTVSPropertyOp20
 70
     1
102
RTVSPropertyOp21
 70
     1
102
RTVSPropertyOp22
 70
     1
102
RTVSPropertyOp23
 70
     1
102
RTVSPropertyOp24
 70
     1
102
RTVSPropertyOp25
 70
     1
102
RTVSPropertyOp26
 70
     1
102
RTVSPropertyOp27
 70
     1
102
RTVSPropertyOp28
 70
     1
102
RTVSPropertyOp29
 70
     1
102
RTVSPropertyOp30
 70
     1
102
RTVSPropertyOp31
 70
     1
102
RTVSPropertyOp32
 70
     1
102
RTVSPropertyOp33
 70
     1
102
RTVSPropertyOp34
 70
     1
102
RTVSPropertyOp35
 70
     1
102
RTVSPropertyOp36
 70
     1
102
RTVSPropertyOp37
 70
     1
102
RTVSPropertyOp38
 70
     1
102
RTVSPropertyOp39
 70
     1
102
RTVSPropertyOp40
 70
     1
102
RTVSPropertyOp41
 70
     1
102
RTVSPropertyOp42
 70
     1
102
RTVSPropertyOp43
 70
     1
102
RTVSPropertyOp44
 70
     1
102
RTVSPropertyOp45
 70
     1
102
RTVSPropertyOp46
 70
     1
102
RTVSPropertyOp47
 70
     1
102
RTVSPropertyOp48
 70
     1
102
RTVSPropertyOp49
 70
     1
102
RTVSPropertyOp50
 70
     1
102
RTVSPropertyOp51
 70
     0
102
RTVSPropertyOp52
 70
     0
102
RTVSPropertyOp53
 70
     1
102
RTVSPropertyOp54
 70
     1
102
RTVSPropertyOp55
 70
     1
102
RTVSPropertyOp56
 70
     1
102
RTVSPropertyOp57
 70
     1
102
RTVSPropertyOp58
 70
     1
102
RTVSPropertyOp59
 70
     1
102
RTVSPropertyOp60
 70
     1
102
RTVSPropertyOp61
 70
     1
102
RTVSPropertyOp62
 70
     1
  0
XRECORD
  5
57A
102
{ACAD_REACTORS
330
579
102
}
330
579
100
AcDbXrecord
280
     1
102
RTVSPost2010Prop28
280
     0
102
RTVSPost2010PropOp28
 70
     1
102
RTVSPost2010Prop29
280
     1
102
RTVSPost2010PropOp29
 70
     1
102
RTVSPost2010Prop30
280
     1
102
RTVSPost2010PropOp30
 70
     1
102
RTVSPost2010Prop31
280
     0
102
RTVSPost2010PropOp31
 70
     1
102
RTVSPost2010Prop32
280
     0
102
RTVSPost2010PropOp32
 70
     1
102
RTVSPost2010Prop33
280
     0
102
RTVSPost2010PropOp33
 70
     1
102
RTVSPost2010Prop34
280
     0
102
RTVSPost2010PropOp34
 70
     1
102
RTVSPost2010Prop35
280
     0
102
RTVSPost2010PropOp35
 70
     1
102
RTVSPost2010Prop36
280
     0
102
RTVSPost2010PropOp36
 70
     1
102
RTVSPost2010Prop37
 90
       50
102
RTVSPost2010PropOp37
 70
     1
102
RTVSPost2010Prop38
140
0.0
102
RTVSPost2010PropOp38
 70
     1
102
RTVSPost2010Prop39
140
1.0
102
RTVSPost2010PropOp39
 70
     1
102
RTVSPost2010Prop40
 90
        0
102
RTVSPost2010PropOp40
 70
     1
102
RTVSPost2010Prop41ColorIndex
 90
       18
102
RTVSPost2010Prop41ColorRGB
 90
        0
102
RTVSPost2010PropOp41
 70
     1
102
RTVSPost2010Prop42
 90
       50
102
RTVSPost2010PropOp42
 70
     1
102
RTVSPost2010Prop43
 90
        3
102
RTVSPost2010PropOp43
 70
     1
102
RTVSPost2010Prop44ColorIndex
 90
        5
102
RTVSPost2010Prop44ColorRGB
 90
      255
102
RTVSPost2010PropOp44
 70
     1
102
RTVSPost2010Prop45
280
     0
102
RTVSPost2010PropOp45
 70
     1
102
RTVSPost2010Prop46
 90
       50
102
RTVSPost2010PropOp46
 70
     1
102
RTVSPost2010Prop47
 90
       50
102
RTVSPost2010PropOp47
 70
     1
102
RTVSPost2010Prop48
 90
       50
102
RTVSPost2010PropOp48
 70
     1
102
RTVSPost2010Prop49
280
     0
102
RTVSPost2010PropOp49
 70
     1
102
RTVSPost2010Prop50
 90
       50
102
RTVSPost2010PropOp50
 70
     1
102
RTVSPost2010Prop51ColorIndex
 90
      256
102
RTVSPost2010Prop51ColorRGB
 90
-16777216
102
RTVSPost2010PropOp51
 70
     0
102
RTVSPost2010Prop52
140
1.0
102
RTVSPost2010PropOp52
 70
     0
102
RTVSPost2010Prop53
 90
        2
102
RTVSPost2010PropOp53
 70
     1
102
RTVSPost2010Prop54
  1
strokes_ogs.tif
102
RTVSPost2010PropOp54
 70
     1
102
RTVSPost2010Prop55
280
     0
102
RTVSPost2010PropOp55
 70
     1
102
RTVSPost2010Prop56
140
1.0
102
RTVSPost2010PropOp56
 70
     1
102
RTVSPost2010Prop57
140
1.0
102
RTVSPost2010PropOp57
 70
     1
102
RTVSPropertyOp0
 70
     1
102
RTVSPropertyOp1
 70
     1
102
RTVSPropertyOp2
 70
     1
102
RTVSPropertyOp3
 70
     1
102
RTVSPropertyOp4
 70
     1
102
RTVSPropertyOp5
 70
     1
102
RTVSPropertyOp6
 70
     1
102
RTVSPropertyOp7
 70
     1
102
RTVSPropertyOp8
 70
     1
102
RTVSPropertyOp9
 70
     1
102
RTVSPropertyOp10
 70
     1
102
RTVSPropertyOp11
 70
     1
102
RTVSPropertyOp12
 70
     1
102
RTVSPropertyOp13
 70
     1
102
RTVSPropertyOp14
 70
     1
102
RTVSPropertyOp15
 70
     1
102
RTVSPropertyOp16
 70
     1
102
RTVSPropertyOp17
 70
     1
102
RTVSPropertyOp18
 70
     1
102
RTVSPropertyOp19
 70
     1
102
RTVSPropertyOp20
 70
     1
102
RTVSPropertyOp21
 70
     1
102
RTVSPropertyOp22
 70
     1
102
RTVSPropertyOp23
 70
     1
102
RTVSPropertyOp24
 70
     1
102
RTVSPropertyOp25
 70
     1
102
RTVSPropertyOp26
 70
     1
102
RTVSPropertyOp27
 70
     1
102
RTVSPropertyOp28
 70
     1
102
RTVSPropertyOp29
 70
     1
102
RTVSPropertyOp30
 70
     1
102
RTVSPropertyOp31
 70
     1
102
RTVSPropertyOp32
 70
     1
102
RTVSPropertyOp33
 70
     1
102
RTVSPropertyOp34
 70
     1
102
RTVSPropertyOp35
 70
     1
102
RTVSPropertyOp36
 70
     1
102
RTVSPropertyOp37
 70
     1
102
RTVSPropertyOp38
 70
     1
102
RTVSPropertyOp39
 70
     1
102
RTVSPropertyOp40
 70
     1
102
RTVSPropertyOp41
 70
     1
102
RTVSPropertyOp42
 70
     1
102
RTVSPropertyOp43
 70
     1
102
RTVSPropertyOp44
 70
     1
102
RTVSPropertyOp45
 70
     1
102
RTVSPropertyOp46
 70
     1
102
RTVSPropertyOp47
 70
     1
102
RTVSPropertyOp48
 70
     1
102
RTVSPropertyOp49
 70
     1
102
RTVSPropertyOp50
 70
     1
102
RTVSPropertyOp51
 70
     0
102
RTVSPropertyOp52
 70
     0
102
RTVSPropertyOp53
 70
     1
102
RTVSPropertyOp54
 70
     1
102
RTVSPropertyOp55
 70
     1
102
RTVSPropertyOp56
 70
     1
102
RTVSPropertyOp57
 70
     1
102
RTVSPropertyOp58
 70
     1
102
RTVSPropertyOp59
 70
     1
102
RTVSPropertyOp60
 70
     1
102
RTVSPropertyOp61
 70
     1
102
RTVSPropertyOp62
 70
     1
  0
XRECORD
  5
582
102
{ACAD_REACTORS
330
581
102
}
330
581
100
AcDbXrecord
280
     1
102
RTVSPost2010Prop28
280
     0
102
RTVSPost2010PropOp28
 70
     1
102
RTVSPost2010Prop29
280
     1
102
RTVSPost2010PropOp29
 70
     1
102
RTVSPost2010Prop30
280
     1
102
RTVSPost2010PropOp30
 70
     1
102
RTVSPost2010Prop31
280
     0
102
RTVSPost2010PropOp31
 70
     1
102
RTVSPost2010Prop32
280
     0
102
RTVSPost2010PropOp32
 70
     1
102
RTVSPost2010Prop33
280
     0
102
RTVSPost2010PropOp33
 70
     1
102
RTVSPost2010Prop34
280
     0
102
RTVSPost2010PropOp34
 70
     1
102
RTVSPost2010Prop35
280
     0
102
RTVSPost2010PropOp35
 70
     1
102
RTVSPost2010Prop36
280
     0
102
RTVSPost2010PropOp36
 70
     1
102
RTVSPost2010Prop37
 90
       50
102
RTVSPost2010PropOp37
 70
     1
102
RTVSPost2010Prop38
140
0.0
102
RTVSPost2010PropOp38
 70
     1
102
RTVSPost2010Prop39
140
1.0
102
RTVSPost2010PropOp39
 70
     1
102
RTVSPost2010Prop40
 90
        0
102
RTVSPost2010PropOp40
 70
     1
102
RTVSPost2010Prop41ColorIndex
 90
       18
102
RTVSPost2010Prop41ColorRGB
 90
        0
102
RTVSPost2010PropOp41
 70
     1
102
RTVSPost2010Prop42
 90
       50
102
RTVSPost2010PropOp42
 70
     1
102
RTVSPost2010Prop43
 90
        3
102
RTVSPost2010PropOp43
 70
     1
102
RTVSPost2010Prop44ColorIndex
 90
        5
102
RTVSPost2010Prop44ColorRGB
 90
      255
102
RTVSPost2010PropOp44
 70
     1
102
RTVSPost2010Prop45
280
     0
102
RTVSPost2010PropOp45
 70
     1
102
RTVSPost2010Prop46
 90
       50
102
RTVSPost2010PropOp46
 70
     1
102
RTVSPost2010Prop47
 90
       50
102
RTVSPost2010PropOp47
 70
     1
102
RTVSPost2010Prop48
 90
       50
102
RTVSPost2010PropOp48
 70
     1
102
RTVSPost2010Prop49
280
     0
102
RTVSPost2010PropOp49
 70
     1
102
RTVSPost2010Prop50
 90
       50
102
RTVSPost2010PropOp50
 70
     1
102
RTVSPost2010Prop51ColorIndex
 90
      256
102
RTVSPost2010Prop51ColorRGB
 90
-16777216
102
RTVSPost2010PropOp51
 70
     0
102
RTVSPost2010Prop52
140
1.0
102
RTVSPost2010PropOp52
 70
     0
102
RTVSPost2010Prop53
 90
        2
102
RTVSPost2010PropOp53
 70
     1
102
RTVSPost2010Prop54
  1
strokes_ogs.tif
102
RTVSPost2010PropOp54
 70
     1
102
RTVSPost2010Prop55
280
     0
102
RTVSPost2010PropOp55
 70
     1
102
RTVSPost2010Prop56
140
1.0
102
RTVSPost2010PropOp56
 70
     1
102
RTVSPost2010Prop57
140
1.0
102
RTVSPost2010PropOp57
 70
     1
102
RTVSPropertyOp0
 70
     1
102
RTVSPropertyOp1
 70
     1
102
RTVSPropertyOp2
 70
     1
102
RTVSPropertyOp3
 70
     1
102
RTVSPropertyOp4
 70
     1
102
RTVSPropertyOp5
 70
     1
102
RTVSPropertyOp6
 70
     1
102
RTVSPropertyOp7
 70
     1
102
RTVSPropertyOp8
 70
     1
102
RTVSPropertyOp9
 70
     1
102
RTVSPropertyOp10
 70
     1
102
RTVSPropertyOp11
 70
     1
102
RTVSPropertyOp12
 70
     1
102
RTVSPropertyOp13
 70
     1
102
RTVSPropertyOp14
 70
     1
102
RTVSPropertyOp15
 70
     1
102
RTVSPropertyOp16
 70
     1
102
RTVSPropertyOp17
 70
     1
102
RTVSPropertyOp18
 70
     1
102
RTVSPropertyOp19
 70
     1
102
RTVSPropertyOp20
 70
     1
102
RTVSPropertyOp21
 70
     1
102
RTVSPropertyOp22
 70
     1
102
RTVSPropertyOp23
 70
     1
102
RTVSPropertyOp24
 70
     1
102
RTVSPropertyOp25
 70
     1
102
RTVSPropertyOp26
 70
     1
102
RTVSPropertyOp27
 70
     1
102
RTVSPropertyOp28
 70
     1
102
RTVSPropertyOp29
 70
     1
102
RTVSPropertyOp30
 70
     1
102
RTVSPropertyOp31
 70
     1
102
RTVSPropertyOp32
 70
     1
102
RTVSPropertyOp33
 70
     1
102
RTVSPropertyOp34
 70
     1
102
RTVSPropertyOp35
 70
     1
102
RTVSPropertyOp36
 70
     1
102
RTVSPropertyOp37
 70
     1
102
RTVSPropertyOp38
 70
     1
102
RTVSPropertyOp39
 70
     1
102
RTVSPropertyOp40
 70
     1
102
RTVSPropertyOp41
 70
     1
102
RTVSPropertyOp42
 70
     1
102
RTVSPropertyOp43
 70
     1
102
RTVSPropertyOp44
 70
     1
102
RTVSPropertyOp45
 70
     1
102
RTVSPropertyOp46
 70
     1
102
RTVSPropertyOp47
 70
     1
102
RTVSPropertyOp48
 70
     1
102
RTVSPropertyOp49
 70
     1
102
RTVSPropertyOp50
 70
     1
102
RTVSPropertyOp51
 70
     0
102
RTVSPropertyOp52
 70
     0
102
RTVSPropertyOp53
 70
     1
102
RTVSPropertyOp54
 70
     1
102
RTVSPropertyOp55
 70
     1
102
RTVSPropertyOp56
 70
     1
102
RTVSPropertyOp57
 70
     1
102
RTVSPropertyOp58
 70
     1
102
RTVSPropertyOp59
 70
     1
102
RTVSPropertyOp60
 70
     1
102
RTVSPropertyOp61
 70
     1
102
RTVSPropertyOp62
 70
     1
  0
XRECORD
  5
576
102
{ACAD_REACTORS
330
575
102
}
330
575
100
AcDbXrecord
280
     1
102
RTVSPost2010Prop28
280
     0
102
RTVSPost2010PropOp28
 70
     1
102
RTVSPost2010Prop29
280
     1
102
RTVSPost2010PropOp29
 70
     1
102
RTVSPost2010Prop30
280
     1
102
RTVSPost2010PropOp30
 70
     1
102
RTVSPost2010Prop31
280
     0
102
RTVSPost2010PropOp31
 70
     1
102
RTVSPost2010Prop32
280
     0
102
RTVSPost2010PropOp32
 70
     1
102
RTVSPost2010Prop33
280
     0
102
RTVSPost2010PropOp33
 70
     1
102
RTVSPost2010Prop34
280
     0
102
RTVSPost2010PropOp34
 70
     1
102
RTVSPost2010Prop35
280
     0
102
RTVSPost2010PropOp35
 70
     1
102
RTVSPost2010Prop36
280
     0
102
RTVSPost2010PropOp36
 70
     1
102
RTVSPost2010Prop37
 90
       50
102
RTVSPost2010PropOp37
 70
     1
102
RTVSPost2010Prop38
140
0.0
102
RTVSPost2010PropOp38
 70
     1
102
RTVSPost2010Prop39
140
1.0
102
RTVSPost2010PropOp39
 70
     1
102
RTVSPost2010Prop40
 90
        0
102
RTVSPost2010PropOp40
 70
     1
102
RTVSPost2010Prop41ColorIndex
 90
       18
102
RTVSPost2010Prop41ColorRGB
 90
        0
102
RTVSPost2010PropOp41
 70
     1
102
RTVSPost2010Prop42
 90
       50
102
RTVSPost2010PropOp42
 70
     1
102
RTVSPost2010Prop43
 90
        3
102
RTVSPost2010PropOp43
 70
     1
102
RTVSPost2010Prop44ColorIndex
 90
        5
102
RTVSPost2010Prop44ColorRGB
 90
      255
102
RTVSPost2010PropOp44
 70
     1
102
RTVSPost2010Prop45
280
     0
102
RTVSPost2010PropOp45
 70
     1
102
RTVSPost2010Prop46
 90
       50
102
RTVSPost2010PropOp46
 70
     1
102
RTVSPost2010Prop47
 90
       50
102
RTVSPost2010PropOp47
 70
     1
102
RTVSPost2010Prop48
 90
       50
102
RTVSPost2010PropOp48
 70
     1
102
RTVSPost2010Prop49
280
     0
102
RTVSPost2010PropOp49
 70
     1
102
RTVSPost2010Prop50
 90
       50
102
RTVSPost2010PropOp50
 70
     1
102
RTVSPost2010Prop51ColorIndex
 90
      256
102
RTVSPost2010Prop51ColorRGB
 90
-16777216
102
RTVSPost2010PropOp51
 70
     0
102
RTVSPost2010Prop52
140
1.0
102
RTVSPost2010PropOp52
 70
     0
102
RTVSPost2010Prop53
 90
        2
102
RTVSPost2010PropOp53
 70
     1
102
RTVSPost2010Prop54
  1
strokes_ogs.tif
102
RTVSPost2010PropOp54
 70
     1
102
RTVSPost2010Prop55
280
     0
102
RTVSPost2010PropOp55
 70
     1
102
RTVSPost2010Prop56
140
1.0
102
RTVSPost2010PropOp56
 70
     1
102
RTVSPost2010Prop57
140
1.0
102
RTVSPost2010PropOp57
 70
     1
102
RTVSPropertyOp0
 70
     1
102
RTVSPropertyOp1
 70
     1
102
RTVSPropertyOp2
 70
     1
102
RTVSPropertyOp3
 70
     1
102
RTVSPropertyOp4
 70
     1
102
RTVSPropertyOp5
 70
     1
102
RTVSPropertyOp6
 70
     1
102
RTVSPropertyOp7
 70
     1
102
RTVSPropertyOp8
 70
     1
102
RTVSPropertyOp9
 70
     1
102
RTVSPropertyOp10
 70
     1
102
RTVSPropertyOp11
 70
     1
102
RTVSPropertyOp12
 70
     1
102
RTVSPropertyOp13
 70
     1
102
RTVSPropertyOp14
 70
     1
102
RTVSPropertyOp15
 70
     1
102
RTVSPropertyOp16
 70
     1
102
RTVSPropertyOp17
 70
     1
102
RTVSPropertyOp18
 70
     1
102
RTVSPropertyOp19
 70
     1
102
RTVSPropertyOp20
 70
     1
102
RTVSPropertyOp21
 70
     1
102
RTVSPropertyOp22
 70
     1
102
RTVSPropertyOp23
 70
     1
102
RTVSPropertyOp24
 70
     1
102
RTVSPropertyOp25
 70
     1
102
RTVSPropertyOp26
 70
     1
102
RTVSPropertyOp27
 70
     1
102
RTVSPropertyOp28
 70
     1
102
RTVSPropertyOp29
 70
     1
102
RTVSPropertyOp30
 70
     1
102
RTVSPropertyOp31
 70
     1
102
RTVSPropertyOp32
 70
     1
102
RTVSPropertyOp33
 70
     1
102
RTVSPropertyOp34
 70
     1
102
RTVSPropertyOp35
 70
     1
102
RTVSPropertyOp36
 70
     1
102
RTVSPropertyOp37
 70
     1
102
RTVSPropertyOp38
 70
     1
102
RTVSPropertyOp39
 70
     1
102
RTVSPropertyOp40
 70
     1
102
RTVSPropertyOp41
 70
     1
102
RTVSPropertyOp42
 70
     1
102
RTVSPropertyOp43
 70
     1
102
RTVSPropertyOp44
 70
     1
102
RTVSPropertyOp45
 70
     1
102
RTVSPropertyOp46
 70
     1
102
RTVSPropertyOp47
 70
     1
102
RTVSPropertyOp48
 70
     1
102
RTVSPropertyOp49
 70
     1
102
RTVSPropertyOp50
 70
     1
102
RTVSPropertyOp51
 70
     0
102
RTVSPropertyOp52
 70
     0
102
RTVSPropertyOp53
 70
     1
102
RTVSPropertyOp54
 70
     1
102
RTVSPropertyOp55
 70
     1
102
RTVSPropertyOp56
 70
     1
102
RTVSPropertyOp57
 70
     1
102
RTVSPropertyOp58
 70
     1
102
RTVSPropertyOp59
 70
     1
102
RTVSPropertyOp60
 70
     1
102
RTVSPropertyOp61
 70
     1
102
RTVSPropertyOp62
 70
     1
  0
XRECORD
  5
578
102
{ACAD_REACTORS
330
577
102
}
330
577
100
AcDbXrecord
280
     1
102
RTVSPost2010Prop28
280
     0
102
RTVSPost2010PropOp28
 70
     1
102
RTVSPost2010Prop29
280
     1
102
RTVSPost2010PropOp29
 70
     1
102
RTVSPost2010Prop30
280
     1
102
RTVSPost2010PropOp30
 70
     1
102
RTVSPost2010Prop31
280
     0
102
RTVSPost2010PropOp31
 70
     1
102
RTVSPost2010Prop32
280
     0
102
RTVSPost2010PropOp32
 70
     1
102
RTVSPost2010Prop33
280
     0
102
RTVSPost2010PropOp33
 70
     1
102
RTVSPost2010Prop34
280
     0
102
RTVSPost2010PropOp34
 70
     1
102
RTVSPost2010Prop35
280
     0
102
RTVSPost2010PropOp35
 70
     1
102
RTVSPost2010Prop36
280
     0
102
RTVSPost2010PropOp36
 70
     1
102
RTVSPost2010Prop37
 90
       50
102
RTVSPost2010PropOp37
 70
     1
102
RTVSPost2010Prop38
140
0.0
102
RTVSPost2010PropOp38
 70
     1
102
RTVSPost2010Prop39
140
1.0
102
RTVSPost2010PropOp39
 70
     1
102
RTVSPost2010Prop40
 90
        0
102
RTVSPost2010PropOp40
 70
     1
102
RTVSPost2010Prop41ColorIndex
 90
       18
102
RTVSPost2010Prop41ColorRGB
 90
        0
102
RTVSPost2010PropOp41
 70
     1
102
RTVSPost2010Prop42
 90
       50
102
RTVSPost2010PropOp42
 70
     1
102
RTVSPost2010Prop43
 90
        3
102
RTVSPost2010PropOp43
 70
     1
102
RTVSPost2010Prop44ColorIndex
 90
        5
102
RTVSPost2010Prop44ColorRGB
 90
      255
102
RTVSPost2010PropOp44
 70
     1
102
RTVSPost2010Prop45
280
     0
102
RTVSPost2010PropOp45
 70
     1
102
RTVSPost2010Prop46
 90
       50
102
RTVSPost2010PropOp46
 70
     1
102
RTVSPost2010Prop47
 90
       50
102
RTVSPost2010PropOp47
 70
     1
102
RTVSPost2010Prop48
 90
       50
102
RTVSPost2010PropOp48
 70
     1
102
RTVSPost2010Prop49
280
     0
102
RTVSPost2010PropOp49
 70
     1
102
RTVSPost2010Prop50
 90
       50
102
RTVSPost2010PropOp50
 70
     1
102
RTVSPost2010Prop51ColorIndex
 90
      256
102
RTVSPost2010Prop51ColorRGB
 90
-16777216
102
RTVSPost2010PropOp51
 70
     0
102
RTVSPost2010Prop52
140
1.0
102
RTVSPost2010PropOp52
 70
     0
102
RTVSPost2010Prop53
 90
        2
102
RTVSPost2010PropOp53
 70
     1
102
RTVSPost2010Prop54
  1
strokes_ogs.tif
102
RTVSPost2010PropOp54
 70
     1
102
RTVSPost2010Prop55
280
     0
102
RTVSPost2010PropOp55
 70
     1
102
RTVSPost2010Prop56
140
1.0
102
RTVSPost2010PropOp56
 70
     1
102
RTVSPost2010Prop57
140
1.0
102
RTVSPost2010PropOp57
 70
     1
102
RTVSPropertyOp0
 70
     1
102
RTVSPropertyOp1
 70
     1
102
RTVSPropertyOp2
 70
     1
102
RTVSPropertyOp3
 70
     1
102
RTVSPropertyOp4
 70
     1
102
RTVSPropertyOp5
 70
     1
102
RTVSPropertyOp6
 70
     1
102
RTVSPropertyOp7
 70
     1
102
RTVSPropertyOp8
 70
     1
102
RTVSPropertyOp9
 70
     1
102
RTVSPropertyOp10
 70
     1
102
RTVSPropertyOp11
 70
     1
102
RTVSPropertyOp12
 70
     1
102
RTVSPropertyOp13
 70
     1
102
RTVSPropertyOp14
 70
     1
102
RTVSPropertyOp15
 70
     1
102
RTVSPropertyOp16
 70
     1
102
RTVSPropertyOp17
 70
     1
102
RTVSPropertyOp18
 70
     1
102
RTVSPropertyOp19
 70
     1
102
RTVSPropertyOp20
 70
     1
102
RTVSPropertyOp21
 70
     1
102
RTVSPropertyOp22
 70
     1
102
RTVSPropertyOp23
 70
     1
102
RTVSPropertyOp24
 70
     1
102
RTVSPropertyOp25
 70
     1
102
RTVSPropertyOp26
 70
     1
102
RTVSPropertyOp27
 70
     1
102
RTVSPropertyOp28
 70
     1
102
RTVSPropertyOp29
 70
     1
102
RTVSPropertyOp30
 70
     1
102
RTVSPropertyOp31
 70
     1
102
RTVSPropertyOp32
 70
     1
102
RTVSPropertyOp33
 70
     1
102
RTVSPropertyOp34
 70
     1
102
RTVSPropertyOp35
 70
     1
102
RTVSPropertyOp36
 70
     1
102
RTVSPropertyOp37
 70
     1
102
RTVSPropertyOp38
 70
     1
102
RTVSPropertyOp39
 70
     1
102
RTVSPropertyOp40
 70
     1
102
RTVSPropertyOp41
 70
     1
102
RTVSPropertyOp42
 70
     1
102
RTVSPropertyOp43
 70
     1
102
RTVSPropertyOp44
 70
     1
102
RTVSPropertyOp45
 70
     1
102
RTVSPropertyOp46
 70
     1
102
RTVSPropertyOp47
 70
     1
102
RTVSPropertyOp48
 70
     1
102
RTVSPropertyOp49
 70
     1
102
RTVSPropertyOp50
 70
     1
102
RTVSPropertyOp51
 70
     0
102
RTVSPropertyOp52
 70
     0
102
RTVSPropertyOp53
 70
     1
102
RTVSPropertyOp54
 70
     1
102
RTVSPropertyOp55
 70
     1
102
RTVSPropertyOp56
 70
     1
102
RTVSPropertyOp57
 70
     1
102
RTVSPropertyOp58
 70
     1
102
RTVSPropertyOp59
 70
     1
102
RTVSPropertyOp60
 70
     1
102
RTVSPropertyOp61
 70
     1
102
RTVSPropertyOp62
 70
     1
  0
XRECORD
  5
588
102
{ACAD_REACTORS
330
587
102
}
330
587
100
AcDbXrecord
280
     1
102
RTVSPost2010Prop28
280
     0
102
RTVSPost2010PropOp28
 70
     0
102
RTVSPost2010Prop29
280
     1
102
RTVSPost2010PropOp29
 70
     0
102
RTVSPost2010Prop30
280
     1
102
RTVSPost2010PropOp30
 70
     0
102
RTVSPost2010Prop31
280
     0
102
RTVSPost2010PropOp31
 70
     0
102
RTVSPost2010Prop32
280
     0
102
RTVSPost2010PropOp32
 70
     0
102
RTVSPost2010Prop33
280
     0
102
RTVSPost2010PropOp33
 70
     0
102
RTVSPost2010Prop34
280
     0
102
RTVSPost2010PropOp34
 70
     0
102
RTVSPost2010Prop35
280
     0
102
RTVSPost2010PropOp35
 70
     0
102
RTVSPost2010Prop36
280
     0
102
RTVSPost2010PropOp36
 70
     0
102
RTVSPost2010Prop37
 90
       50
102
RTVSPost2010PropOp37
 70
     0
102
RTVSPost2010Prop38
140
0.0
102
RTVSPost2010PropOp38
 70
     0
102
RTVSPost2010Prop39
140
1.0
102
RTVSPost2010PropOp39
 70
     0
102
RTVSPost2010Prop40
 90
        0
102
RTVSPost2010PropOp40
 70
     0
102
RTVSPost2010Prop41ColorIndex
 90
       18
102
RTVSPost2010Prop41ColorRGB
 90
        0
102
RTVSPost2010PropOp41
 70
     0
102
RTVSPost2010Prop42
 90
       50
102
RTVSPost2010PropOp42
 70
     0
102
RTVSPost2010Prop43
 90
        3
102
RTVSPost2010PropOp43
 70
     0
102
RTVSPost2010Prop44ColorIndex
 90
        5
102
RTVSPost2010Prop44ColorRGB
 90
      255
102
RTVSPost2010PropOp44
 70
     0
102
RTVSPost2010Prop45
280
     0
102
RTVSPost2010PropOp45
 70
     0
102
RTVSPost2010Prop46
 90
       50
102
RTVSPost2010PropOp46
 70
     0
102
RTVSPost2010Prop47
 90
       50
102
RTVSPost2010PropOp47
 70
     0
102
RTVSPost2010Prop48
 90
       50
102
RTVSPost2010PropOp48
 70
     0
102
RTVSPost2010Prop49
280
     0
102
RTVSPost2010PropOp49
 70
     0
102
RTVSPost2010Prop50
 90
       50
102
RTVSPost2010PropOp50
 70
     0
102
RTVSPost2010Prop51ColorIndex
 90
      256
102
RTVSPost2010Prop51ColorRGB
 90
-16777216
102
RTVSPost2010PropOp51
 70
     0
102
RTVSPost2010Prop52
140
1.0
102
RTVSPost2010PropOp52
 70
     0
102
RTVSPost2010Prop53
 90
        2
102
RTVSPost2010PropOp53
 70
     0
102
RTVSPost2010Prop54
  1
strokes_ogs.tif
102
RTVSPost2010PropOp54
 70
     0
102
RTVSPost2010Prop55
280
     0
102
RTVSPost2010PropOp55
 70
     0
102
RTVSPost2010Prop56
140
1.0
102
RTVSPost2010PropOp56
 70
     0
102
RTVSPost2010Prop57
140
1.0
102
RTVSPost2010PropOp57
 70
     0
102
RTVSPropertyOp0
 70
     0
102
RTVSPropertyOp1
 70
     0
102
RTVSPropertyOp2
 70
     0
102
RTVSPropertyOp3
 70
     0
102
RTVSPropertyOp4
 70
     0
102
RTVSPropertyOp5
 70
     0
102
RTVSPropertyOp6
 70
     0
102
RTVSPropertyOp7
 70
     0
102
RTVSPropertyOp8
 70
     0
102
RTVSPropertyOp9
 70
     0
102
RTVSPropertyOp10
 70
     0
102
RTVSPropertyOp11
 70
     0
102
RTVSPropertyOp12
 70
     0
102
RTVSPropertyOp13
 70
     0
102
RTVSPropertyOp14
 70
     2
102
RTVSPropertyOp15
 70
     0
102
RTVSPropertyOp16
 70
     0
102
RTVSPropertyOp17
 70
     0
102
RTVSPropertyOp18
 70
     0
102
RTVSPropertyOp19
 70
     0
102
RTVSPropertyOp20
 70
     0
102
RTVSPropertyOp21
 70
     0
102
RTVSPropertyOp22
 70
     0
102
RTVSPropertyOp23
 70
     0
102
RTVSPropertyOp24
 70
     0
102
RTVSPropertyOp25
 70
     0
102
RTVSPropertyOp26
 70
     0
102
RTVSPropertyOp27
 70
     0
102
RTVSPropertyOp28
 70
     0
102
RTVSPropertyOp29
 70
     0
102
RTVSPropertyOp30
 70
     0
102
RTVSPropertyOp31
 70
     0
102
RTVSPropertyOp32
 70
     0
102
RTVSPropertyOp33
 70
     0
102
RTVSPropertyOp34
 70
     0
102
RTVSPropertyOp35
 70
     0
102
RTVSPropertyOp36
 70
     0
102
RTVSPropertyOp37
 70
     0
102
RTVSPropertyOp38
 70
     0
102
RTVSPropertyOp39
 70
     0
102
RTVSPropertyOp40
 70
     0
102
RTVSPropertyOp41
 70
     0
102
RTVSPropertyOp42
 70
     0
102
RTVSPropertyOp43
 70
     0
102
RTVSPropertyOp44
 70
     0
102
RTVSPropertyOp45
 70
     0
102
RTVSPropertyOp46
 70
     0
102
RTVSPropertyOp47
 70
     0
102
RTVSPropertyOp48
 70
     0
102
RTVSPropertyOp49
 70
     0
102
RTVSPropertyOp50
 70
     0
102
RTVSPropertyOp51
 70
     0
102
RTVSPropertyOp52
 70
     0
102
RTVSPropertyOp53
 70
     0
102
RTVSPropertyOp54
 70
     0
102
RTVSPropertyOp55
 70
     0
102
RTVSPropertyOp56
 70
     0
102
RTVSPropertyOp57
 70
     0
102
RTVSPropertyOp58
 70
     1
102
RTVSPropertyOp59
 70
     1
102
RTVSPropertyOp60
 70
     1
102
RTVSPropertyOp61
 70
     1
102
RTVSPropertyOp62
 70
     1
  0
XRECORD
  5
580
102
{ACAD_REACTORS
330
57F
102
}
330
57F
100
AcDbXrecord
280
     1
102
RTVSPost2010Prop28
280
     0
102
RTVSPost2010PropOp28
 70
     1
102
RTVSPost2010Prop29
280
     1
102
RTVSPost2010PropOp29
 70
     1
102
RTVSPost2010Prop30
280
     1
102
RTVSPost2010PropOp30
 70
     1
102
RTVSPost2010Prop31
280
     0
102
RTVSPost2010PropOp31
 70
     1
102
RTVSPost2010Prop32
280
     0
102
RTVSPost2010PropOp32
 70
     1
102
RTVSPost2010Prop33
280
     0
102
RTVSPost2010PropOp33
 70
     1
102
RTVSPost2010Prop34
280
     0
102
RTVSPost2010PropOp34
 70
     1
102
RTVSPost2010Prop35
280
     0
102
RTVSPost2010PropOp35
 70
     1
102
RTVSPost2010Prop36
280
     0
102
RTVSPost2010PropOp36
 70
     1
102
RTVSPost2010Prop37
 90
       50
102
RTVSPost2010PropOp37
 70
     1
102
RTVSPost2010Prop38
140
0.0
102
RTVSPost2010PropOp38
 70
     1
102
RTVSPost2010Prop39
140
1.0
102
RTVSPost2010PropOp39
 70
     1
102
RTVSPost2010Prop40
 90
        0
102
RTVSPost2010PropOp40
 70
     1
102
RTVSPost2010Prop41ColorIndex
 90
       18
102
RTVSPost2010Prop41ColorRGB
 90
        0
102
RTVSPost2010PropOp41
 70
     1
102
RTVSPost2010Prop42
 90
       50
102
RTVSPost2010PropOp42
 70
     1
102
RTVSPost2010Prop43
 90
        3
102
RTVSPost2010PropOp43
 70
     1
102
RTVSPost2010Prop44ColorIndex
 90
        5
102
RTVSPost2010Prop44ColorRGB
 90
      255
102
RTVSPost2010PropOp44
 70
     1
102
RTVSPost2010Prop45
280
     0
102
RTVSPost2010PropOp45
 70
     1
102
RTVSPost2010Prop46
 90
       50
102
RTVSPost2010PropOp46
 70
     1
102
RTVSPost2010Prop47
 90
       50
102
RTVSPost2010PropOp47
 70
     1
102
RTVSPost2010Prop48
 90
       50
102
RTVSPost2010PropOp48
 70
     1
102
RTVSPost2010Prop49
280
     0
102
RTVSPost2010PropOp49
 70
     1
102
RTVSPost2010Prop50
 90
       50
102
RTVSPost2010PropOp50
 70
     1
102
RTVSPost2010Prop51ColorIndex
 90
      256
102
RTVSPost2010Prop51ColorRGB
 90
-16777216
102
RTVSPost2010PropOp51
 70
     0
102
RTVSPost2010Prop52
140
1.0
102
RTVSPost2010PropOp52
 70
     0
102
RTVSPost2010Prop53
 90
        2
102
RTVSPost2010PropOp53
 70
     1
102
RTVSPost2010Prop54
  1
strokes_ogs.tif
102
RTVSPost2010PropOp54
 70
     1
102
RTVSPost2010Prop55
280
     0
102
RTVSPost2010PropOp55
 70
     1
102
RTVSPost2010Prop56
140
1.0
102
RTVSPost2010PropOp56
 70
     1
102
RTVSPost2010Prop57
140
1.0
102
RTVSPost2010PropOp57
 70
     1
102
RTVSPropertyOp0
 70
     1
102
RTVSPropertyOp1
 70
     1
102
RTVSPropertyOp2
 70
     1
102
RTVSPropertyOp3
 70
     1
102
RTVSPropertyOp4
 70
     1
102
RTVSPropertyOp5
 70
     1
102
RTVSPropertyOp6
 70
     1
102
RTVSPropertyOp7
 70
     1
102
RTVSPropertyOp8
 70
     1
102
RTVSPropertyOp9
 70
     1
102
RTVSPropertyOp10
 70
     1
102
RTVSPropertyOp11
 70
     1
102
RTVSPropertyOp12
 70
     1
102
RTVSPropertyOp13
 70
     1
102
RTVSPropertyOp14
 70
     1
102
RTVSPropertyOp15
 70
     1
102
RTVSPropertyOp16
 70
     1
102
RTVSPropertyOp17
 70
     1
102
RTVSPropertyOp18
 70
     1
102
RTVSPropertyOp19
 70
     1
102
RTVSPropertyOp20
 70
     1
102
RTVSPropertyOp21
 70
     1
102
RTVSPropertyOp22
 70
     1
102
RTVSPropertyOp23
 70
     1
102
RTVSPropertyOp24
 70
     1
102
RTVSPropertyOp25
 70
     1
102
RTVSPropertyOp26
 70
     1
102
RTVSPropertyOp27
 70
     1
102
RTVSPropertyOp28
 70
     1
102
RTVSPropertyOp29
 70
     1
102
RTVSPropertyOp30
 70
     1
102
RTVSPropertyOp31
 70
     1
102
RTVSPropertyOp32
 70
     1
102
RTVSPropertyOp33
 70
     1
102
RTVSPropertyOp34
 70
     1
102
RTVSPropertyOp35
 70
     1
102
RTVSPropertyOp36
 70
     1
102
RTVSPropertyOp37
 70
     1
102
RTVSPropertyOp38
 70
     1
102
RTVSPropertyOp39
 70
     1
102
RTVSPropertyOp40
 70
     1
102
RTVSPropertyOp41
 70
     1
102
RTVSPropertyOp42
 70
     1
102
RTVSPropertyOp43
 70
     1
102
RTVSPropertyOp44
 70
     1
102
RTVSPropertyOp45
 70
     1
102
RTVSPropertyOp46
 70
     1
102
RTVSPropertyOp47
 70
     1
102
RTVSPropertyOp48
 70
     1
102
RTVSPropertyOp49
 70
     1
102
RTVSPropertyOp50
 70
     1
102
RTVSPropertyOp51
 70
     0
102
RTVSPropertyOp52
 70
     0
102
RTVSPropertyOp53
 70
     1
102
RTVSPropertyOp54
 70
     1
102
RTVSPropertyOp55
 70
     1
102
RTVSPropertyOp56
 70
     1
102
RTVSPropertyOp57
 70
     1
102
RTVSPropertyOp58
 70
     1
102
RTVSPropertyOp59
 70
     1
102
RTVSPropertyOp60
 70
     1
102
RTVSPropertyOp61
 70
     1
102
RTVSPropertyOp62
 70
     1
  0
XRECORD
  5
564
102
{ACAD_REACTORS
330
563
102
}
330
563
100
AcDbXrecord
280
     1
102
RTVSPost2010Prop28
280
     0
102
RTVSPost2010PropOp28
 70
     1
102
RTVSPost2010Prop29
280
     1
102
RTVSPost2010PropOp29
 70
     1
102
RTVSPost2010Prop30
280
     1
102
RTVSPost2010PropOp30
 70
     1
102
RTVSPost2010Prop31
280
     0
102
RTVSPost2010PropOp31
 70
     1
102
RTVSPost2010Prop32
280
     0
102
RTVSPost2010PropOp32
 70
     1
102
RTVSPost2010Prop33
280
     0
102
RTVSPost2010PropOp33
 70
     1
102
RTVSPost2010Prop34
280
     0
102
RTVSPost2010PropOp34
 70
     1
102
RTVSPost2010Prop35
280
     0
102
RTVSPost2010PropOp35
 70
     1
102
RTVSPost2010Prop36
280
     0
102
RTVSPost2010PropOp36
 70
     1
102
RTVSPost2010Prop37
 90
       50
102
RTVSPost2010PropOp37
 70
     1
102
RTVSPost2010Prop38
140
0.0
102
RTVSPost2010PropOp38
 70
     1
102
RTVSPost2010Prop39
140
1.0
102
RTVSPost2010PropOp39
 70
     1
102
RTVSPost2010Prop40
 90
        0
102
RTVSPost2010PropOp40
 70
     1
102
RTVSPost2010Prop41ColorIndex
 90
       18
102
RTVSPost2010Prop41ColorRGB
 90
        0
102
RTVSPost2010PropOp41
 70
     1
102
RTVSPost2010Prop42
 90
       50
102
RTVSPost2010PropOp42
 70
     1
102
RTVSPost2010Prop43
 90
        3
102
RTVSPost2010PropOp43
 70
     1
102
RTVSPost2010Prop44ColorIndex
 90
        5
102
RTVSPost2010Prop44ColorRGB
 90
      255
102
RTVSPost2010PropOp44
 70
     1
102
RTVSPost2010Prop45
280
     0
102
RTVSPost2010PropOp45
 70
     1
102
RTVSPost2010Prop46
 90
       50
102
RTVSPost2010PropOp46
 70
     1
102
RTVSPost2010Prop47
 90
       50
102
RTVSPost2010PropOp47
 70
     1
102
RTVSPost2010Prop48
 90
       50
102
RTVSPost2010PropOp48
 70
     1
102
RTVSPost2010Prop49
280
     0
102
RTVSPost2010PropOp49
 70
     1
102
RTVSPost2010Prop50
 90
       50
102
RTVSPost2010PropOp50
 70
     1
102
RTVSPost2010Prop51ColorIndex
 90
      256
102
RTVSPost2010Prop51ColorRGB
 90
-16777216
102
RTVSPost2010PropOp51
 70
     0
102
RTVSPost2010Prop52
140
1.0
102
RTVSPost2010PropOp52
 70
     0
102
RTVSPost2010Prop53
 90
        2
102
RTVSPost2010PropOp53
 70
     1
102
RTVSPost2010Prop54
  1
strokes_ogs.tif
102
RTVSPost2010PropOp54
 70
     1
102
RTVSPost2010Prop55
280
     0
102
RTVSPost2010PropOp55
 70
     1
102
RTVSPost2010Prop56
140
1.0
102
RTVSPost2010PropOp56
 70
     1
102
RTVSPost2010Prop57
140
1.0
102
RTVSPost2010PropOp57
 70
     1
102
RTVSPropertyOp0
 70
     1
102
RTVSPropertyOp1
 70
     1
102
RTVSPropertyOp2
 70
     1
102
RTVSPropertyOp3
 70
     1
102
RTVSPropertyOp4
 70
     1
102
RTVSPropertyOp5
 70
     1
102
RTVSPropertyOp6
 70
     1
102
RTVSPropertyOp7
 70
     1
102
RTVSPropertyOp8
 70
     1
102
RTVSPropertyOp9
 70
     1
102
RTVSPropertyOp10
 70
     1
102
RTVSPropertyOp11
 70
     1
102
RTVSPropertyOp12
 70
     1
102
RTVSPropertyOp13
 70
     1
102
RTVSPropertyOp14
 70
     1
102
RTVSPropertyOp15
 70
     1
102
RTVSPropertyOp16
 70
     1
102
RTVSPropertyOp17
 70
     1
102
RTVSPropertyOp18
 70
     1
102
RTVSPropertyOp19
 70
     1
102
RTVSPropertyOp20
 70
     1
102
RTVSPropertyOp21
 70
     1
102
RTVSPropertyOp22
 70
     1
102
RTVSPropertyOp23
 70
     1
102
RTVSPropertyOp24
 70
     1
102
RTVSPropertyOp25
 70
     1
102
RTVSPropertyOp26
 70
     1
102
RTVSPropertyOp27
 70
     1
102
RTVSPropertyOp28
 70
     1
102
RTVSPropertyOp29
 70
     1
102
RTVSPropertyOp30
 70
     1
102
RTVSPropertyOp31
 70
     1
102
RTVSPropertyOp32
 70
     1
102
RTVSPropertyOp33
 70
     1
102
RTVSPropertyOp34
 70
     1
102
RTVSPropertyOp35
 70
     1
102
RTVSPropertyOp36
 70
     1
102
RTVSPropertyOp37
 70
     1
102
RTVSPropertyOp38
 70
     1
102
RTVSPropertyOp39
 70
     1
102
RTVSPropertyOp40
 70
     1
102
RTVSPropertyOp41
 70
     1
102
RTVSPropertyOp42
 70
     1
102
RTVSPropertyOp43
 70
     1
102
RTVSPropertyOp44
 70
     1
102
RTVSPropertyOp45
 70
     1
102
RTVSPropertyOp46
 70
     1
102
RTVSPropertyOp47
 70
     1
102
RTVSPropertyOp48
 70
     1
102
RTVSPropertyOp49
 70
     1
102
RTVSPropertyOp50
 70
     1
102
RTVSPropertyOp51
 70
     0
102
RTVSPropertyOp52
 70
     0
102
RTVSPropertyOp53
 70
     1
102
RTVSPropertyOp54
 70
     1
102
RTVSPropertyOp55
 70
     1
102
RTVSPropertyOp56
 70
     1
102
RTVSPropertyOp57
 70
     1
102
RTVSPropertyOp58
 70
     1
102
RTVSPropertyOp59
 70
     1
102
RTVSPropertyOp60
 70
     1
102
RTVSPropertyOp61
 70
     1
102
RTVSPropertyOp62
 70
     1
  0
XRECORD
  5
566
102
{ACAD_REACTORS
330
565
102
}
330
565
100
AcDbXrecord
280
     1
102
RTVSPost2010Prop28
280
     0
102
RTVSPost2010PropOp28
 70
     1
102
RTVSPost2010Prop29
280
     1
102
RTVSPost2010PropOp29
 70
     1
102
RTVSPost2010Prop30
280
     1
102
RTVSPost2010PropOp30
 70
     1
102
RTVSPost2010Prop31
280
     0
102
RTVSPost2010PropOp31
 70
     1
102
RTVSPost2010Prop32
280
     0
102
RTVSPost2010PropOp32
 70
     1
102
RTVSPost2010Prop33
280
     0
102
RTVSPost2010PropOp33
 70
     1
102
RTVSPost2010Prop34
280
     0
102
RTVSPost2010PropOp34
 70
     1
102
RTVSPost2010Prop35
280
     0
102
RTVSPost2010PropOp35
 70
     1
102
RTVSPost2010Prop36
280
     0
102
RTVSPost2010PropOp36
 70
     1
102
RTVSPost2010Prop37
 90
       50
102
RTVSPost2010PropOp37
 70
     1
102
RTVSPost2010Prop38
140
0.0
102
RTVSPost2010PropOp38
 70
     1
102
RTVSPost2010Prop39
140
1.0
102
RTVSPost2010PropOp39
 70
     1
102
RTVSPost2010Prop40
 90
        0
102
RTVSPost2010PropOp40
 70
     1
102
RTVSPost2010Prop41ColorIndex
 90
       18
102
RTVSPost2010Prop41ColorRGB
 90
        0
102
RTVSPost2010PropOp41
 70
     1
102
RTVSPost2010Prop42
 90
       50
102
RTVSPost2010PropOp42
 70
     1
102
RTVSPost2010Prop43
 90
        3
102
RTVSPost2010PropOp43
 70
     1
102
RTVSPost2010Prop44ColorIndex
 90
        5
102
RTVSPost2010Prop44ColorRGB
 90
      255
102
RTVSPost2010PropOp44
 70
     1
102
RTVSPost2010Prop45
280
     0
102
RTVSPost2010PropOp45
 70
     1
102
RTVSPost2010Prop46
 90
       50
102
RTVSPost2010PropOp46
 70
     1
102
RTVSPost2010Prop47
 90
       50
102
RTVSPost2010PropOp47
 70
     1
102
RTVSPost2010Prop48
 90
       50
102
RTVSPost2010PropOp48
 70
     1
102
RTVSPost2010Prop49
280
     0
102
RTVSPost2010PropOp49
 70
     1
102
RTVSPost2010Prop50
 90
       50
102
RTVSPost2010PropOp50
 70
     1
102
RTVSPost2010Prop51ColorIndex
 90
      256
102
RTVSPost2010Prop51ColorRGB
 90
-16777216
102
RTVSPost2010PropOp51
 70
     0
102
RTVSPost2010Prop52
140
1.0
102
RTVSPost2010PropOp52
 70
     0
102
RTVSPost2010Prop53
 90
        2
102
RTVSPost2010PropOp53
 70
     1
102
RTVSPost2010Prop54
  1
strokes_ogs.tif
102
RTVSPost2010PropOp54
 70
     1
102
RTVSPost2010Prop55
280
     0
102
RTVSPost2010PropOp55
 70
     1
102
RTVSPost2010Prop56
140
1.0
102
RTVSPost2010PropOp56
 70
     1
102
RTVSPost2010Prop57
140
1.0
102
RTVSPost2010PropOp57
 70
     1
102
RTVSPropertyOp0
 70
     1
102
RTVSPropertyOp1
 70
     1
102
RTVSPropertyOp2
 70
     1
102
RTVSPropertyOp3
 70
     1
102
RTVSPropertyOp4
 70
     1
102
RTVSPropertyOp5
 70
     1
102
RTVSPropertyOp6
 70
     1
102
RTVSPropertyOp7
 70
     1
102
RTVSPropertyOp8
 70
     1
102
RTVSPropertyOp9
 70
     1
102
RTVSPropertyOp10
 70
     1
102
RTVSPropertyOp11
 70
     1
102
RTVSPropertyOp12
 70
     1
102
RTVSPropertyOp13
 70
     1
102
RTVSPropertyOp14
 70
     1
102
RTVSPropertyOp15
 70
     1
102
RTVSPropertyOp16
 70
     1
102
RTVSPropertyOp17
 70
     1
102
RTVSPropertyOp18
 70
     1
102
RTVSPropertyOp19
 70
     1
102
RTVSPropertyOp20
 70
     1
102
RTVSPropertyOp21
 70
     1
102
RTVSPropertyOp22
 70
     1
102
RTVSPropertyOp23
 70
     1
102
RTVSPropertyOp24
 70
     1
102
RTVSPropertyOp25
 70
     1
102
RTVSPropertyOp26
 70
     1
102
RTVSPropertyOp27
 70
     1
102
RTVSPropertyOp28
 70
     1
102
RTVSPropertyOp29
 70
     1
102
RTVSPropertyOp30
 70
     1
102
RTVSPropertyOp31
 70
     1
102
RTVSPropertyOp32
 70
     1
102
RTVSPropertyOp33
 70
     1
102
RTVSPropertyOp34
 70
     1
102
RTVSPropertyOp35
 70
     1
102
RTVSPropertyOp36
 70
     1
102
RTVSPropertyOp37
 70
     1
102
RTVSPropertyOp38
 70
     1
102
RTVSPropertyOp39
 70
     1
102
RTVSPropertyOp40
 70
     1
102
RTVSPropertyOp41
 70
     1
102
RTVSPropertyOp42
 70
     1
102
RTVSPropertyOp43
 70
     1
102
RTVSPropertyOp44
 70
     1
102
RTVSPropertyOp45
 70
     1
102
RTVSPropertyOp46
 70
     1
102
RTVSPropertyOp47
 70
     1
102
RTVSPropertyOp48
 70
     1
102
RTVSPropertyOp49
 70
     1
102
RTVSPropertyOp50
 70
     1
102
RTVSPropertyOp51
 70
     0
102
RTVSPropertyOp52
 70
     0
102
RTVSPropertyOp53
 70
     1
102
RTVSPropertyOp54
 70
     1
102
RTVSPropertyOp55
 70
     1
102
RTVSPropertyOp56
 70
     1
102
RTVSPropertyOp57
 70
     1
102
RTVSPropertyOp58
 70
     1
102
RTVSPropertyOp59
 70
     1
102
RTVSPropertyOp60
 70
     1
102
RTVSPropertyOp61
 70
     1
102
RTVSPropertyOp62
 70
     1
  0
XRECORD
  5
568
102
{ACAD_REACTORS
330
567
102
}
330
567
100
AcDbXrecord
280
     1
102
RTVSPost2010Prop28
280
     0
102
RTVSPost2010PropOp28
 70
     1
102
RTVSPost2010Prop29
280
     1
102
RTVSPost2010PropOp29
 70
     1
102
RTVSPost2010Prop30
280
     1
102
RTVSPost2010PropOp30
 70
     1
102
RTVSPost2010Prop31
280
     0
102
RTVSPost2010PropOp31
 70
     1
102
RTVSPost2010Prop32
280
     0
102
RTVSPost2010PropOp32
 70
     1
102
RTVSPost2010Prop33
280
     0
102
RTVSPost2010PropOp33
 70
     1
102
RTVSPost2010Prop34
280
     0
102
RTVSPost2010PropOp34
 70
     1
102
RTVSPost2010Prop35
280
     0
102
RTVSPost2010PropOp35
 70
     1
102
RTVSPost2010Prop36
280
     0
102
RTVSPost2010PropOp36
 70
     1
102
RTVSPost2010Prop37
 90
       50
102
RTVSPost2010PropOp37
 70
     1
102
RTVSPost2010Prop38
140
0.0
102
RTVSPost2010PropOp38
 70
     1
102
RTVSPost2010Prop39
140
1.0
102
RTVSPost2010PropOp39
 70
     1
102
RTVSPost2010Prop40
 90
        0
102
RTVSPost2010PropOp40
 70
     1
102
RTVSPost2010Prop41ColorIndex
 90
       18
102
RTVSPost2010Prop41ColorRGB
 90
        0
102
RTVSPost2010PropOp41
 70
     1
102
RTVSPost2010Prop42
 90
       50
102
RTVSPost2010PropOp42
 70
     1
102
RTVSPost2010Prop43
 90
        3
102
RTVSPost2010PropOp43
 70
     1
102
RTVSPost2010Prop44ColorIndex
 90
        5
102
RTVSPost2010Prop44ColorRGB
 90
      255
102
RTVSPost2010PropOp44
 70
     1
102
RTVSPost2010Prop45
280
     0
102
RTVSPost2010PropOp45
 70
     1
102
RTVSPost2010Prop46
 90
       50
102
RTVSPost2010PropOp46
 70
     1
102
RTVSPost2010Prop47
 90
       50
102
RTVSPost2010PropOp47
 70
     1
102
RTVSPost2010Prop48
 90
       50
102
RTVSPost2010PropOp48
 70
     1
102
RTVSPost2010Prop49
280
     0
102
RTVSPost2010PropOp49
 70
     1
102
RTVSPost2010Prop50
 90
       50
102
RTVSPost2010PropOp50
 70
     1
102
RTVSPost2010Prop51ColorIndex
 90
      256
102
RTVSPost2010Prop51ColorRGB
 90
-16777216
102
RTVSPost2010PropOp51
 70
     0
102
RTVSPost2010Prop52
140
1.0
102
RTVSPost2010PropOp52
 70
     0
102
RTVSPost2010Prop53
 90
        2
102
RTVSPost2010PropOp53
 70
     1
102
RTVSPost2010Prop54
  1
strokes_ogs.tif
102
RTVSPost2010PropOp54
 70
     1
102
RTVSPost2010Prop55
280
     0
102
RTVSPost2010PropOp55
 70
     1
102
RTVSPost2010Prop56
140
1.0
102
RTVSPost2010PropOp56
 70
     1
102
RTVSPost2010Prop57
140
1.0
102
RTVSPost2010PropOp57
 70
     1
102
RTVSPropertyOp0
 70
     1
102
RTVSPropertyOp1
 70
     1
102
RTVSPropertyOp2
 70
     1
102
RTVSPropertyOp3
 70
     1
102
RTVSPropertyOp4
 70
     1
102
RTVSPropertyOp5
 70
     1
102
RTVSPropertyOp6
 70
     1
102
RTVSPropertyOp7
 70
     1
102
RTVSPropertyOp8
 70
     1
102
RTVSPropertyOp9
 70
     1
102
RTVSPropertyOp10
 70
     1
102
RTVSPropertyOp11
 70
     1
102
RTVSPropertyOp12
 70
     1
102
RTVSPropertyOp13
 70
     1
102
RTVSPropertyOp14
 70
     1
102
RTVSPropertyOp15
 70
     1
102
RTVSPropertyOp16
 70
     1
102
RTVSPropertyOp17
 70
     1
102
RTVSPropertyOp18
 70
     1
102
RTVSPropertyOp19
 70
     1
102
RTVSPropertyOp20
 70
     1
102
RTVSPropertyOp21
 70
     1
102
RTVSPropertyOp22
 70
     1
102
RTVSPropertyOp23
 70
     1
102
RTVSPropertyOp24
 70
     1
102
RTVSPropertyOp25
 70
     1
102
RTVSPropertyOp26
 70
     1
102
RTVSPropertyOp27
 70
     1
102
RTVSPropertyOp28
 70
     1
102
RTVSPropertyOp29
 70
     1
102
RTVSPropertyOp30
 70
     1
102
RTVSPropertyOp31
 70
     1
102
RTVSPropertyOp32
 70
     1
102
RTVSPropertyOp33
 70
     1
102
RTVSPropertyOp34
 70
     1
102
RTVSPropertyOp35
 70
     1
102
RTVSPropertyOp36
 70
     1
102
RTVSPropertyOp37
 70
     1
102
RTVSPropertyOp38
 70
     1
102
RTVSPropertyOp39
 70
     1
102
RTVSPropertyOp40
 70
     1
102
RTVSPropertyOp41
 70
     1
102
RTVSPropertyOp42
 70
     1
102
RTVSPropertyOp43
 70
     1
102
RTVSPropertyOp44
 70
     1
102
RTVSPropertyOp45
 70
     1
102
RTVSPropertyOp46
 70
     1
102
RTVSPropertyOp47
 70
     1
102
RTVSPropertyOp48
 70
     1
102
RTVSPropertyOp49
 70
     1
102
RTVSPropertyOp50
 70
     1
102
RTVSPropertyOp51
 70
     0
102
RTVSPropertyOp52
 70
     0
102
RTVSPropertyOp53
 70
     1
102
RTVSPropertyOp54
 70
     1
102
RTVSPropertyOp55
 70
     1
102
RTVSPropertyOp56
 70
     1
102
RTVSPropertyOp57
 70
     1
102
RTVSPropertyOp58
 70
     1
102
RTVSPropertyOp59
 70
     1
102
RTVSPropertyOp60
 70
     1
102
RTVSPropertyOp61
 70
     1
102
RTVSPropertyOp62
 70
     1
  0
XRECORD
  5
56A
102
{ACAD_REACTORS
330
569
102
}
330
569
100
AcDbXrecord
280
     1
102
RTVSPost2010Prop28
280
     0
102
RTVSPost2010PropOp28
 70
     1
102
RTVSPost2010Prop29
280
     1
102
RTVSPost2010PropOp29
 70
     1
102
RTVSPost2010Prop30
280
     1
102
RTVSPost2010PropOp30
 70
     1
102
RTVSPost2010Prop31
280
     0
102
RTVSPost2010PropOp31
 70
     1
102
RTVSPost2010Prop32
280
     0
102
RTVSPost2010PropOp32
 70
     1
102
RTVSPost2010Prop33
280
     0
102
RTVSPost2010PropOp33
 70
     1
102
RTVSPost2010Prop34
280
     0
102
RTVSPost2010PropOp34
 70
     1
102
RTVSPost2010Prop35
280
     0
102
RTVSPost2010PropOp35
 70
     1
102
RTVSPost2010Prop36
280
     0
102
RTVSPost2010PropOp36
 70
     1
102
RTVSPost2010Prop37
 90
       50
102
RTVSPost2010PropOp37
 70
     1
102
RTVSPost2010Prop38
140
0.0
102
RTVSPost2010PropOp38
 70
     1
102
RTVSPost2010Prop39
140
1.0
102
RTVSPost2010PropOp39
 70
     1
102
RTVSPost2010Prop40
 90
        0
102
RTVSPost2010PropOp40
 70
     1
102
RTVSPost2010Prop41ColorIndex
 90
       18
102
RTVSPost2010Prop41ColorRGB
 90
        0
102
RTVSPost2010PropOp41
 70
     1
102
RTVSPost2010Prop42
 90
       50
102
RTVSPost2010PropOp42
 70
     1
102
RTVSPost2010Prop43
 90
        3
102
RTVSPost2010PropOp43
 70
     1
102
RTVSPost2010Prop44ColorIndex
 90
        5
102
RTVSPost2010Prop44ColorRGB
 90
      255
102
RTVSPost2010PropOp44
 70
     1
102
RTVSPost2010Prop45
280
     0
102
RTVSPost2010PropOp45
 70
     1
102
RTVSPost2010Prop46
 90
       50
102
RTVSPost2010PropOp46
 70
     1
102
RTVSPost2010Prop47
 90
       50
102
RTVSPost2010PropOp47
 70
     1
102
RTVSPost2010Prop48
 90
       50
102
RTVSPost2010PropOp48
 70
     1
102
RTVSPost2010Prop49
280
     0
102
RTVSPost2010PropOp49
 70
     1
102
RTVSPost2010Prop50
 90
       50
102
RTVSPost2010PropOp50
 70
     1
102
RTVSPost2010Prop51ColorIndex
 90
      256
102
RTVSPost2010Prop51ColorRGB
 90
-16777216
102
RTVSPost2010PropOp51
 70
     0
102
RTVSPost2010Prop52
140
1.0
102
RTVSPost2010PropOp52
 70
     0
102
RTVSPost2010Prop53
 90
        2
102
RTVSPost2010PropOp53
 70
     1
102
RTVSPost2010Prop54
  1
strokes_ogs.tif
102
RTVSPost2010PropOp54
 70
     1
102
RTVSPost2010Prop55
280
     0
102
RTVSPost2010PropOp55
 70
     1
102
RTVSPost2010Prop56
140
1.0
102
RTVSPost2010PropOp56
 70
     1
102
RTVSPost2010Prop57
140
1.0
102
RTVSPost2010PropOp57
 70
     1
102
RTVSPropertyOp0
 70
     1
102
RTVSPropertyOp1
 70
     1
102
RTVSPropertyOp2
 70
     1
102
RTVSPropertyOp3
 70
     1
102
RTVSPropertyOp4
 70
     1
102
RTVSPropertyOp5
 70
     1
102
RTVSPropertyOp6
 70
     1
102
RTVSPropertyOp7
 70
     1
102
RTVSPropertyOp8
 70
     1
102
RTVSPropertyOp9
 70
     1
102
RTVSPropertyOp10
 70
     1
102
RTVSPropertyOp11
 70
     1
102
RTVSPropertyOp12
 70
     1
102
RTVSPropertyOp13
 70
     1
102
RTVSPropertyOp14
 70
     1
102
RTVSPropertyOp15
 70
     1
102
RTVSPropertyOp16
 70
     1
102
RTVSPropertyOp17
 70
     1
102
RTVSPropertyOp18
 70
     1
102
RTVSPropertyOp19
 70
     1
102
RTVSPropertyOp20
 70
     1
102
RTVSPropertyOp21
 70
     1
102
RTVSPropertyOp22
 70
     1
102
RTVSPropertyOp23
 70
     1
102
RTVSPropertyOp24
 70
     1
102
RTVSPropertyOp25
 70
     1
102
RTVSPropertyOp26
 70
     1
102
RTVSPropertyOp27
 70
     1
102
RTVSPropertyOp28
 70
     1
102
RTVSPropertyOp29
 70
     1
102
RTVSPropertyOp30
 70
     1
102
RTVSPropertyOp31
 70
     1
102
RTVSPropertyOp32
 70
     1
102
RTVSPropertyOp33
 70
     1
102
RTVSPropertyOp34
 70
     1
102
RTVSPropertyOp35
 70
     1
102
RTVSPropertyOp36
 70
     1
102
RTVSPropertyOp37
 70
     1
102
RTVSPropertyOp38
 70
     1
102
RTVSPropertyOp39
 70
     1
102
RTVSPropertyOp40
 70
     1
102
RTVSPropertyOp41
 70
     1
102
RTVSPropertyOp42
 70
     1
102
RTVSPropertyOp43
 70
     1
102
RTVSPropertyOp44
 70
     1
102
RTVSPropertyOp45
 70
     1
102
RTVSPropertyOp46
 70
     1
102
RTVSPropertyOp47
 70
     1
102
RTVSPropertyOp48
 70
     1
102
RTVSPropertyOp49
 70
     1
102
RTVSPropertyOp50
 70
     1
102
RTVSPropertyOp51
 70
     0
102
RTVSPropertyOp52
 70
     0
102
RTVSPropertyOp53
 70
     1
102
RTVSPropertyOp54
 70
     1
102
RTVSPropertyOp55
 70
     1
102
RTVSPropertyOp56
 70
     1
102
RTVSPropertyOp57
 70
     1
102
RTVSPropertyOp58
 70
     1
102
RTVSPropertyOp59
 70
     1
102
RTVSPropertyOp60
 70
     1
102
RTVSPropertyOp61
 70
     1
102
RTVSPropertyOp62
 70
     1
  0
XRECORD
  5
570
102
{ACAD_REACTORS
330
56F
102
}
330
56F
100
AcDbXrecord
280
     1
102
RTVSPost2010Prop28
280
     0
102
RTVSPost2010PropOp28
 70
     1
102
RTVSPost2010Prop29
280
     1
102
RTVSPost2010PropOp29
 70
     1
102
RTVSPost2010Prop30
280
     1
102
RTVSPost2010PropOp30
 70
     1
102
RTVSPost2010Prop31
280
     0
102
RTVSPost2010PropOp31
 70
     1
102
RTVSPost2010Prop32
280
     0
102
RTVSPost2010PropOp32
 70
     1
102
RTVSPost2010Prop33
280
     0
102
RTVSPost2010PropOp33
 70
     1
102
RTVSPost2010Prop34
280
     0
102
RTVSPost2010PropOp34
 70
     1
102
RTVSPost2010Prop35
280
     0
102
RTVSPost2010PropOp35
 70
     1
102
RTVSPost2010Prop36
280
     0
102
RTVSPost2010PropOp36
 70
     1
102
RTVSPost2010Prop37
 90
       50
102
RTVSPost2010PropOp37
 70
     1
102
RTVSPost2010Prop38
140
0.0
102
RTVSPost2010PropOp38
 70
     1
102
RTVSPost2010Prop39
140
1.0
102
RTVSPost2010PropOp39
 70
     1
102
RTVSPost2010Prop40
 90
        0
102
RTVSPost2010PropOp40
 70
     1
102
RTVSPost2010Prop41ColorIndex
 90
       18
102
RTVSPost2010Prop41ColorRGB
 90
        0
102
RTVSPost2010PropOp41
 70
     1
102
RTVSPost2010Prop42
 90
       50
102
RTVSPost2010PropOp42
 70
     1
102
RTVSPost2010Prop43
 90
        3
102
RTVSPost2010PropOp43
 70
     1
102
RTVSPost2010Prop44ColorIndex
 90
        5
102
RTVSPost2010Prop44ColorRGB
 90
      255
102
RTVSPost2010PropOp44
 70
     1
102
RTVSPost2010Prop45
280
     0
102
RTVSPost2010PropOp45
 70
     1
102
RTVSPost2010Prop46
 90
       50
102
RTVSPost2010PropOp46
 70
     1
102
RTVSPost2010Prop47
 90
       50
102
RTVSPost2010PropOp47
 70
     1
102
RTVSPost2010Prop48
 90
       50
102
RTVSPost2010PropOp48
 70
     1
102
RTVSPost2010Prop49
280
     0
102
RTVSPost2010PropOp49
 70
     1
102
RTVSPost2010Prop50
 90
       50
102
RTVSPost2010PropOp50
 70
     1
102
RTVSPost2010Prop51ColorIndex
 90
      256
102
RTVSPost2010Prop51ColorRGB
 90
-16777216
102
RTVSPost2010PropOp51
 70
     0
102
RTVSPost2010Prop52
140
1.0
102
RTVSPost2010PropOp52
 70
     0
102
RTVSPost2010Prop53
 90
        2
102
RTVSPost2010PropOp53
 70
     1
102
RTVSPost2010Prop54
  1
strokes_ogs.tif
102
RTVSPost2010PropOp54
 70
     1
102
RTVSPost2010Prop55
280
     0
102
RTVSPost2010PropOp55
 70
     1
102
RTVSPost2010Prop56
140
1.0
102
RTVSPost2010PropOp56
 70
     1
102
RTVSPost2010Prop57
140
1.0
102
RTVSPost2010PropOp57
 70
     1
102
RTVSPropertyOp0
 70
     1
102
RTVSPropertyOp1
 70
     1
102
RTVSPropertyOp2
 70
     1
102
RTVSPropertyOp3
 70
     1
102
RTVSPropertyOp4
 70
     1
102
RTVSPropertyOp5
 70
     1
102
RTVSPropertyOp6
 70
     1
102
RTVSPropertyOp7
 70
     1
102
RTVSPropertyOp8
 70
     1
102
RTVSPropertyOp9
 70
     1
102
RTVSPropertyOp10
 70
     1
102
RTVSPropertyOp11
 70
     1
102
RTVSPropertyOp12
 70
     1
102
RTVSPropertyOp13
 70
     1
102
RTVSPropertyOp14
 70
     1
102
RTVSPropertyOp15
 70
     1
102
RTVSPropertyOp16
 70
     1
102
RTVSPropertyOp17
 70
     1
102
RTVSPropertyOp18
 70
     1
102
RTVSPropertyOp19
 70
     1
102
RTVSPropertyOp20
 70
     1
102
RTVSPropertyOp21
 70
     1
102
RTVSPropertyOp22
 70
     1
102
RTVSPropertyOp23
 70
     1
102
RTVSPropertyOp24
 70
     1
102
RTVSPropertyOp25
 70
     1
102
RTVSPropertyOp26
 70
     1
102
RTVSPropertyOp27
 70
     1
102
RTVSPropertyOp28
 70
     1
102
RTVSPropertyOp29
 70
     1
102
RTVSPropertyOp30
 70
     1
102
RTVSPropertyOp31
 70
     1
102
RTVSPropertyOp32
 70
     1
102
RTVSPropertyOp33
 70
     1
102
RTVSPropertyOp34
 70
     1
102
RTVSPropertyOp35
 70
     1
102
RTVSPropertyOp36
 70
     1
102
RTVSPropertyOp37
 70
     1
102
RTVSPropertyOp38
 70
     1
102
RTVSPropertyOp39
 70
     1
102
RTVSPropertyOp40
 70
     1
102
RTVSPropertyOp41
 70
     1
102
RTVSPropertyOp42
 70
     1
102
RTVSPropertyOp43
 70
     1
102
RTVSPropertyOp44
 70
     1
102
RTVSPropertyOp45
 70
     1
102
RTVSPropertyOp46
 70
     1
102
RTVSPropertyOp47
 70
     1
102
RTVSPropertyOp48
 70
     1
102
RTVSPropertyOp49
 70
     1
102
RTVSPropertyOp50
 70
     1
102
RTVSPropertyOp51
 70
     0
102
RTVSPropertyOp52
 70
     0
102
RTVSPropertyOp53
 70
     1
102
RTVSPropertyOp54
 70
     1
102
RTVSPropertyOp55
 70
     1
102
RTVSPropertyOp56
 70
     1
102
RTVSPropertyOp57
 70
     1
102
RTVSPropertyOp58
 70
     1
102
RTVSPropertyOp59
 70
     1
102
RTVSPropertyOp60
 70
     1
102
RTVSPropertyOp61
 70
     1
102
RTVSPropertyOp62
 70
     1
  0
XRECORD
  5
584
102
{ACAD_REACTORS
330
583
102
}
330
583
100
AcDbXrecord
280
     1
102
RTVSPost2010Prop28
280
     0
102
RTVSPost2010PropOp28
 70
     0
102
RTVSPost2010Prop29
280
     1
102
RTVSPost2010PropOp29
 70
     0
102
RTVSPost2010Prop30
280
     1
102
RTVSPost2010PropOp30
 70
     0
102
RTVSPost2010Prop31
280
     0
102
RTVSPost2010PropOp31
 70
     0
102
RTVSPost2010Prop32
280
     0
102
RTVSPost2010PropOp32
 70
     0
102
RTVSPost2010Prop33
280
     0
102
RTVSPost2010PropOp33
 70
     0
102
RTVSPost2010Prop34
280
     0
102
RTVSPost2010PropOp34
 70
     0
102
RTVSPost2010Prop35
280
     0
102
RTVSPost2010PropOp35
 70
     0
102
RTVSPost2010Prop36
280
     0
102
RTVSPost2010PropOp36
 70
     0
102
RTVSPost2010Prop37
 90
       50
102
RTVSPost2010PropOp37
 70
     0
102
RTVSPost2010Prop38
140
0.0
102
RTVSPost2010PropOp38
 70
     0
102
RTVSPost2010Prop39
140
1.0
102
RTVSPost2010PropOp39
 70
     0
102
RTVSPost2010Prop40
 90
        0
102
RTVSPost2010PropOp40
 70
     0
102
RTVSPost2010Prop41ColorIndex
 90
       18
102
RTVSPost2010Prop41ColorRGB
 90
        0
102
RTVSPost2010PropOp41
 70
     0
102
RTVSPost2010Prop42
 90
       50
102
RTVSPost2010PropOp42
 70
     0
102
RTVSPost2010Prop43
 90
        3
102
RTVSPost2010PropOp43
 70
     0
102
RTVSPost2010Prop44ColorIndex
 90
        5
102
RTVSPost2010Prop44ColorRGB
 90
      255
102
RTVSPost2010PropOp44
 70
     0
102
RTVSPost2010Prop45
280
     0
102
RTVSPost2010PropOp45
 70
     0
102
RTVSPost2010Prop46
 90
       50
102
RTVSPost2010PropOp46
 70
     0
102
RTVSPost2010Prop47
 90
       50
102
RTVSPost2010PropOp47
 70
     0
102
RTVSPost2010Prop48
 90
       50
102
RTVSPost2010PropOp48
 70
     0
102
RTVSPost2010Prop49
280
     0
102
RTVSPost2010PropOp49
 70
     0
102
RTVSPost2010Prop50
 90
       50
102
RTVSPost2010PropOp50
 70
     0
102
RTVSPost2010Prop51ColorIndex
 90
      256
102
RTVSPost2010Prop51ColorRGB
 90
-16777216
102
RTVSPost2010PropOp51
 70
     0
102
RTVSPost2010Prop52
140
1.0
102
RTVSPost2010PropOp52
 70
     0
102
RTVSPost2010Prop53
 90
        2
102
RTVSPost2010PropOp53
 70
     0
102
RTVSPost2010Prop54
  1
strokes_ogs.tif
102
RTVSPost2010PropOp54
 70
     0
102
RTVSPost2010Prop55
280
     0
102
RTVSPost2010PropOp55
 70
     0
102
RTVSPost2010Prop56
140
1.0
102
RTVSPost2010PropOp56
 70
     0
102
RTVSPost2010Prop57
140
1.0
102
RTVSPost2010PropOp57
 70
     0
102
RTVSPropertyOp0
 70
     0
102
RTVSPropertyOp1
 70
     0
102
RTVSPropertyOp2
 70
     0
102
RTVSPropertyOp3
 70
     0
102
RTVSPropertyOp4
 70
     0
102
RTVSPropertyOp5
 70
     0
102
RTVSPropertyOp6
 70
     0
102
RTVSPropertyOp7
 70
     0
102
RTVSPropertyOp8
 70
     0
102
RTVSPropertyOp9
 70
     0
102
RTVSPropertyOp10
 70
     0
102
RTVSPropertyOp11
 70
     0
102
RTVSPropertyOp12
 70
     0
102
RTVSPropertyOp13
 70
     0
102
RTVSPropertyOp14
 70
     2
102
RTVSPropertyOp15
 70
     0
102
RTVSPropertyOp16
 70
     0
102
RTVSPropertyOp17
 70
     0
102
RTVSPropertyOp18
 70
     0
102
RTVSPropertyOp19
 70
     0
102
RTVSPropertyOp20
 70
     0
102
RTVSPropertyOp21
 70
     0
102
RTVSPropertyOp22
 70
     0
102
RTVSPropertyOp23
 70
     0
102
RTVSPropertyOp24
 70
     0
102
RTVSPropertyOp25
 70
     0
102
RTVSPropertyOp26
 70
     0
102
RTVSPropertyOp27
 70
     0
102
RTVSPropertyOp28
 70
     0
102
RTVSPropertyOp29
 70
     0
102
RTVSPropertyOp30
 70
     0
102
RTVSPropertyOp31
 70
     0
102
RTVSPropertyOp32
 70
     0
102
RTVSPropertyOp33
 70
     0
102
RTVSPropertyOp34
 70
     0
102
RTVSPropertyOp35
 70
     0
102
RTVSPropertyOp36
 70
     0
102
RTVSPropertyOp37
 70
     0
102
RTVSPropertyOp38
 70
     0
102
RTVSPropertyOp39
 70
     0
102
RTVSPropertyOp40
 70
     0
102
RTVSPropertyOp41
 70
     0
102
RTVSPropertyOp42
 70
     0
102
RTVSPropertyOp43
 70
     0
102
RTVSPropertyOp44
 70
     0
102
RTVSPropertyOp45
 70
     0
102
RTVSPropertyOp46
 70
     0
102
RTVSPropertyOp47
 70
     0
102
RTVSPropertyOp48
 70
     0
102
RTVSPropertyOp49
 70
     0
102
RTVSPropertyOp50
 70
     0
102
RTVSPropertyOp51
 70
     0
102
RTVSPropertyOp52
 70
     0
102
RTVSPropertyOp53
 70
     0
102
RTVSPropertyOp54
 70
     0
102
RTVSPropertyOp55
 70
     0
102
RTVSPropertyOp56
 70
     0
102
RTVSPropertyOp57
 70
     0
102
RTVSPropertyOp58
 70
     1
102
RTVSPropertyOp59
 70
     1
102
RTVSPropertyOp60
 70
     1
102
RTVSPropertyOp61
 70
     1
102
RTVSPropertyOp62
 70
     1
  0
XRECORD
  5
57E
102
{ACAD_REACTORS
330
57D
102
}
330
57D
100
AcDbXrecord
280
     1
102
RTVSPost2010Prop28
280
     0
102
RTVSPost2010PropOp28
 70
     1
102
RTVSPost2010Prop29
280
     1
102
RTVSPost2010PropOp29
 70
     1
102
RTVSPost2010Prop30
280
     1
102
RTVSPost2010PropOp30
 70
     1
102
RTVSPost2010Prop31
280
     0
102
RTVSPost2010PropOp31
 70
     1
102
RTVSPost2010Prop32
280
     0
102
RTVSPost2010PropOp32
 70
     1
102
RTVSPost2010Prop33
280
     0
102
RTVSPost2010PropOp33
 70
     1
102
RTVSPost2010Prop34
280
     0
102
RTVSPost2010PropOp34
 70
     1
102
RTVSPost2010Prop35
280
     0
102
RTVSPost2010PropOp35
 70
     1
102
RTVSPost2010Prop36
280
     0
102
RTVSPost2010PropOp36
 70
     1
102
RTVSPost2010Prop37
 90
       50
102
RTVSPost2010PropOp37
 70
     1
102
RTVSPost2010Prop38
140
0.0
102
RTVSPost2010PropOp38
 70
     1
102
RTVSPost2010Prop39
140
1.0
102
RTVSPost2010PropOp39
 70
     1
102
RTVSPost2010Prop40
 90
        0
102
RTVSPost2010PropOp40
 70
     1
102
RTVSPost2010Prop41ColorIndex
 90
       18
102
RTVSPost2010Prop41ColorRGB
 90
        0
102
RTVSPost2010PropOp41
 70
     1
102
RTVSPost2010Prop42
 90
       50
102
RTVSPost2010PropOp42
 70
     1
102
RTVSPost2010Prop43
 90
        3
102
RTVSPost2010PropOp43
 70
     1
102
RTVSPost2010Prop44ColorIndex
 90
        5
102
RTVSPost2010Prop44ColorRGB
 90
      255
102
RTVSPost2010PropOp44
 70
     1
102
RTVSPost2010Prop45
280
     0
102
RTVSPost2010PropOp45
 70
     1
102
RTVSPost2010Prop46
 90
       50
102
RTVSPost2010PropOp46
 70
     1
102
RTVSPost2010Prop47
 90
       50
102
RTVSPost2010PropOp47
 70
     1
102
RTVSPost2010Prop48
 90
       50
102
RTVSPost2010PropOp48
 70
     1
102
RTVSPost2010Prop49
280
     0
102
RTVSPost2010PropOp49
 70
     1
102
RTVSPost2010Prop50
 90
       50
102
RTVSPost2010PropOp50
 70
     1
102
RTVSPost2010Prop51ColorIndex
 90
      256
102
RTVSPost2010Prop51ColorRGB
 90
-16777216
102
RTVSPost2010PropOp51
 70
     0
102
RTVSPost2010Prop52
140
1.0
102
RTVSPost2010PropOp52
 70
     0
102
RTVSPost2010Prop53
 90
        2
102
RTVSPost2010PropOp53
 70
     1
102
RTVSPost2010Prop54
  1
strokes_ogs.tif
102
RTVSPost2010PropOp54
 70
     1
102
RTVSPost2010Prop55
280
     0
102
RTVSPost2010PropOp55
 70
     1
102
RTVSPost2010Prop56
140
1.0
102
RTVSPost2010PropOp56
 70
     1
102
RTVSPost2010Prop57
140
1.0
102
RTVSPost2010PropOp57
 70
     1
102
RTVSPropertyOp0
 70
     1
102
RTVSPropertyOp1
 70
     1
102
RTVSPropertyOp2
 70
     1
102
RTVSPropertyOp3
 70
     1
102
RTVSPropertyOp4
 70
     1
102
RTVSPropertyOp5
 70
     1
102
RTVSPropertyOp6
 70
     1
102
RTVSPropertyOp7
 70
     1
102
RTVSPropertyOp8
 70
     1
102
RTVSPropertyOp9
 70
     1
102
RTVSPropertyOp10
 70
     1
102
RTVSPropertyOp11
 70
     1
102
RTVSPropertyOp12
 70
     1
102
RTVSPropertyOp13
 70
     1
102
RTVSPropertyOp14
 70
     1
102
RTVSPropertyOp15
 70
     1
102
RTVSPropertyOp16
 70
     1
102
RTVSPropertyOp17
 70
     1
102
RTVSPropertyOp18
 70
     1
102
RTVSPropertyOp19
 70
     1
102
RTVSPropertyOp20
 70
     1
102
RTVSPropertyOp21
 70
     1
102
RTVSPropertyOp22
 70
     1
102
RTVSPropertyOp23
 70
     1
102
RTVSPropertyOp24
 70
     1
102
RTVSPropertyOp25
 70
     1
102
RTVSPropertyOp26
 70
     1
102
RTVSPropertyOp27
 70
     1
102
RTVSPropertyOp28
 70
     1
102
RTVSPropertyOp29
 70
     1
102
RTVSPropertyOp30
 70
     1
102
RTVSPropertyOp31
 70
     1
102
RTVSPropertyOp32
 70
     1
102
RTVSPropertyOp33
 70
     1
102
RTVSPropertyOp34
 70
     1
102
RTVSPropertyOp35
 70
     1
102
RTVSPropertyOp36
 70
     1
102
RTVSPropertyOp37
 70
     1
102
RTVSPropertyOp38
 70
     1
102
RTVSPropertyOp39
 70
     1
102
RTVSPropertyOp40
 70
     1
102
RTVSPropertyOp41
 70
     1
102
RTVSPropertyOp42
 70
     1
102
RTVSPropertyOp43
 70
     1
102
RTVSPropertyOp44
 70
     1
102
RTVSPropertyOp45
 70
     1
102
RTVSPropertyOp46
 70
     1
102
RTVSPropertyOp47
 70
     1
102
RTVSPropertyOp48
 70
     1
102
RTVSPropertyOp49
 70
     1
102
RTVSPropertyOp50
 70
     1
102
RTVSPropertyOp51
 70
     0
102
RTVSPropertyOp52
 70
     0
102
RTVSPropertyOp53
 70
     1
102
RTVSPropertyOp54
 70
     1
102
RTVSPropertyOp55
 70
     1
102
RTVSPropertyOp56
 70
     1
102
RTVSPropertyOp57
 70
     1
102
RTVSPropertyOp58
 70
     1
102
RTVSPropertyOp59
 70
     1
102
RTVSPropertyOp60
 70
     1
102
RTVSPropertyOp61
 70
     1
102
RTVSPropertyOp62
 70
     1
  0
XRECORD
  5
586
102
{ACAD_REACTORS
330
585
102
}
330
585
100
AcDbXrecord
280
     1
102
RTVSPost2010Prop28
280
     0
102
RTVSPost2010PropOp28
 70
     0
102
RTVSPost2010Prop29
280
     1
102
RTVSPost2010PropOp29
 70
     0
102
RTVSPost2010Prop30
280
     1
102
RTVSPost2010PropOp30
 70
     0
102
RTVSPost2010Prop31
280
     0
102
RTVSPost2010PropOp31
 70
     0
102
RTVSPost2010Prop32
280
     0
102
RTVSPost2010PropOp32
 70
     0
102
RTVSPost2010Prop33
280
     0
102
RTVSPost2010PropOp33
 70
     0
102
RTVSPost2010Prop34
280
     0
102
RTVSPost2010PropOp34
 70
     0
102
RTVSPost2010Prop35
280
     0
102
RTVSPost2010PropOp35
 70
     0
102
RTVSPost2010Prop36
280
     0
102
RTVSPost2010PropOp36
 70
     0
102
RTVSPost2010Prop37
 90
       50
102
RTVSPost2010PropOp37
 70
     0
102
RTVSPost2010Prop38
140
0.0
102
RTVSPost2010PropOp38
 70
     0
102
RTVSPost2010Prop39
140
1.0
102
RTVSPost2010PropOp39
 70
     0
102
RTVSPost2010Prop40
 90
        0
102
RTVSPost2010PropOp40
 70
     0
102
RTVSPost2010Prop41ColorIndex
 90
       18
102
RTVSPost2010Prop41ColorRGB
 90
        0
102
RTVSPost2010PropOp41
 70
     0
102
RTVSPost2010Prop42
 90
       50
102
RTVSPost2010PropOp42
 70
     0
102
RTVSPost2010Prop43
 90
        3
102
RTVSPost2010PropOp43
 70
     0
102
RTVSPost2010Prop44ColorIndex
 90
        5
102
RTVSPost2010Prop44ColorRGB
 90
      255
102
RTVSPost2010PropOp44
 70
     0
102
RTVSPost2010Prop45
280
     0
102
RTVSPost2010PropOp45
 70
     0
102
RTVSPost2010Prop46
 90
       50
102
RTVSPost2010PropOp46
 70
     0
102
RTVSPost2010Prop47
 90
       50
102
RTVSPost2010PropOp47
 70
     0
102
RTVSPost2010Prop48
 90
       50
102
RTVSPost2010PropOp48
 70
     0
102
RTVSPost2010Prop49
280
     0
102
RTVSPost2010PropOp49
 70
     0
102
RTVSPost2010Prop50
 90
       50
102
RTVSPost2010PropOp50
 70
     0
102
RTVSPost2010Prop51ColorIndex
 90
      256
102
RTVSPost2010Prop51ColorRGB
 90
-16777216
102
RTVSPost2010PropOp51
 70
     0
102
RTVSPost2010Prop52
140
1.0
102
RTVSPost2010PropOp52
 70
     0
102
RTVSPost2010Prop53
 90
        2
102
RTVSPost2010PropOp53
 70
     0
102
RTVSPost2010Prop54
  1
strokes_ogs.tif
102
RTVSPost2010PropOp54
 70
     0
102
RTVSPost2010Prop55
280
     0
102
RTVSPost2010PropOp55
 70
     0
102
RTVSPost2010Prop56
140
1.0
102
RTVSPost2010PropOp56
 70
     0
102
RTVSPost2010Prop57
140
1.0
102
RTVSPost2010PropOp57
 70
     0
102
RTVSPropertyOp0
 70
     0
102
RTVSPropertyOp1
 70
     0
102
RTVSPropertyOp2
 70
     0
102
RTVSPropertyOp3
 70
     0
102
RTVSPropertyOp4
 70
     0
102
RTVSPropertyOp5
 70
     0
102
RTVSPropertyOp6
 70
     0
102
RTVSPropertyOp7
 70
     0
102
RTVSPropertyOp8
 70
     0
102
RTVSPropertyOp9
 70
     0
102
RTVSPropertyOp10
 70
     0
102
RTVSPropertyOp11
 70
     0
102
RTVSPropertyOp12
 70
     0
102
RTVSPropertyOp13
 70
     0
102
RTVSPropertyOp14
 70
     2
102
RTVSPropertyOp15
 70
     0
102
RTVSPropertyOp16
 70
     0
102
RTVSPropertyOp17
 70
     0
102
RTVSPropertyOp18
 70
     0
102
RTVSPropertyOp19
 70
     0
102
RTVSPropertyOp20
 70
     0
102
RTVSPropertyOp21
 70
     0
102
RTVSPropertyOp22
 70
     0
102
RTVSPropertyOp23
 70
     0
102
RTVSPropertyOp24
 70
     0
102
RTVSPropertyOp25
 70
     0
102
RTVSPropertyOp26
 70
     0
102
RTVSPropertyOp27
 70
     0
102
RTVSPropertyOp28
 70
     0
102
RTVSPropertyOp29
 70
     0
102
RTVSPropertyOp30
 70
     0
102
RTVSPropertyOp31
 70
     0
102
RTVSPropertyOp32
 70
     0
102
RTVSPropertyOp33
 70
     0
102
RTVSPropertyOp34
 70
     0
102
RTVSPropertyOp35
 70
     0
102
RTVSPropertyOp36
 70
     0
102
RTVSPropertyOp37
 70
     0
102
RTVSPropertyOp38
 70
     0
102
RTVSPropertyOp39
 70
     0
102
RTVSPropertyOp40
 70
     0
102
RTVSPropertyOp41
 70
     0
102
RTVSPropertyOp42
 70
     0
102
RTVSPropertyOp43
 70
     0
102
RTVSPropertyOp44
 70
     0
102
RTVSPropertyOp45
 70
     0
102
RTVSPropertyOp46
 70
     0
102
RTVSPropertyOp47
 70
     0
102
RTVSPropertyOp48
 70
     0
102
RTVSPropertyOp49
 70
     0
102
RTVSPropertyOp50
 70
     0
102
RTVSPropertyOp51
 70
     0
102
RTVSPropertyOp52
 70
     0
102
RTVSPropertyOp53
 70
     0
102
RTVSPropertyOp54
 70
     0
102
RTVSPropertyOp55
 70
     0
102
RTVSPropertyOp56
 70
     0
102
RTVSPropertyOp57
 70
     0
102
RTVSPropertyOp58
 70
     1
102
RTVSPropertyOp59
 70
     1
102
RTVSPropertyOp60
 70
     1
102
RTVSPropertyOp61
 70
     1
102
RTVSPropertyOp62
 70
     1
  0
XRECORD
  5
574
102
{ACAD_REACTORS
330
573
102
}
330
573
100
AcDbXrecord
280
     1
102
RTVSPost2010Prop28
280
     0
102
RTVSPost2010PropOp28
 70
     1
102
RTVSPost2010Prop29
280
     1
102
RTVSPost2010PropOp29
 70
     1
102
RTVSPost2010Prop30
280
     1
102
RTVSPost2010PropOp30
 70
     1
102
RTVSPost2010Prop31
280
     0
102
RTVSPost2010PropOp31
 70
     1
102
RTVSPost2010Prop32
280
     0
102
RTVSPost2010PropOp32
 70
     1
102
RTVSPost2010Prop33
280
     0
102
RTVSPost2010PropOp33
 70
     1
102
RTVSPost2010Prop34
280
     0
102
RTVSPost2010PropOp34
 70
     1
102
RTVSPost2010Prop35
280
     0
102
RTVSPost2010PropOp35
 70
     1
102
RTVSPost2010Prop36
280
     0
102
RTVSPost2010PropOp36
 70
     1
102
RTVSPost2010Prop37
 90
       50
102
RTVSPost2010PropOp37
 70
     1
102
RTVSPost2010Prop38
140
0.0
102
RTVSPost2010PropOp38
 70
     1
102
RTVSPost2010Prop39
140
1.0
102
RTVSPost2010PropOp39
 70
     1
102
RTVSPost2010Prop40
 90
        0
102
RTVSPost2010PropOp40
 70
     1
102
RTVSPost2010Prop41ColorIndex
 90
       18
102
RTVSPost2010Prop41ColorRGB
 90
        0
102
RTVSPost2010PropOp41
 70
     1
102
RTVSPost2010Prop42
 90
       50
102
RTVSPost2010PropOp42
 70
     1
102
RTVSPost2010Prop43
 90
        3
102
RTVSPost2010PropOp43
 70
     1
102
RTVSPost2010Prop44ColorIndex
 90
        5
102
RTVSPost2010Prop44ColorRGB
 90
      255
102
RTVSPost2010PropOp44
 70
     1
102
RTVSPost2010Prop45
280
     0
102
RTVSPost2010PropOp45
 70
     1
102
RTVSPost2010Prop46
 90
       50
102
RTVSPost2010PropOp46
 70
     1
102
RTVSPost2010Prop47
 90
       50
102
RTVSPost2010PropOp47
 70
     1
102
RTVSPost2010Prop48
 90
       50
102
RTVSPost2010PropOp48
 70
     1
102
RTVSPost2010Prop49
280
     0
102
RTVSPost2010PropOp49
 70
     1
102
RTVSPost2010Prop50
 90
       50
102
RTVSPost2010PropOp50
 70
     1
102
RTVSPost2010Prop51ColorIndex
 90
      256
102
RTVSPost2010Prop51ColorRGB
 90
-16777216
102
RTVSPost2010PropOp51
 70
     0
102
RTVSPost2010Prop52
140
1.0
102
RTVSPost2010PropOp52
 70
     0
102
RTVSPost2010Prop53
 90
        2
102
RTVSPost2010PropOp53
 70
     1
102
RTVSPost2010Prop54
  1
strokes_ogs.tif
102
RTVSPost2010PropOp54
 70
     1
102
RTVSPost2010Prop55
280
     0
102
RTVSPost2010PropOp55
 70
     1
102
RTVSPost2010Prop56
140
1.0
102
RTVSPost2010PropOp56
 70
     1
102
RTVSPost2010Prop57
140
1.0
102
RTVSPost2010PropOp57
 70
     1
102
RTVSPropertyOp0
 70
     1
102
RTVSPropertyOp1
 70
     1
102
RTVSPropertyOp2
 70
     1
102
RTVSPropertyOp3
 70
     1
102
RTVSPropertyOp4
 70
     1
102
RTVSPropertyOp5
 70
     1
102
RTVSPropertyOp6
 70
     1
102
RTVSPropertyOp7
 70
     1
102
RTVSPropertyOp8
 70
     1
102
RTVSPropertyOp9
 70
     1
102
RTVSPropertyOp10
 70
     1
102
RTVSPropertyOp11
 70
     1
102
RTVSPropertyOp12
 70
     1
102
RTVSPropertyOp13
 70
     1
102
RTVSPropertyOp14
 70
     1
102
RTVSPropertyOp15
 70
     1
102
RTVSPropertyOp16
 70
     1
102
RTVSPropertyOp17
 70
     1
102
RTVSPropertyOp18
 70
     1
102
RTVSPropertyOp19
 70
     1
102
RTVSPropertyOp20
 70
     1
102
RTVSPropertyOp21
 70
     1
102
RTVSPropertyOp22
 70
     1
102
RTVSPropertyOp23
 70
     1
102
RTVSPropertyOp24
 70
     1
102
RTVSPropertyOp25
 70
     1
102
RTVSPropertyOp26
 70
     1
102
RTVSPropertyOp27
 70
     1
102
RTVSPropertyOp28
 70
     1
102
RTVSPropertyOp29
 70
     1
102
RTVSPropertyOp30
 70
     1
102
RTVSPropertyOp31
 70
     1
102
RTVSPropertyOp32
 70
     1
102
RTVSPropertyOp33
 70
     1
102
RTVSPropertyOp34
 70
     1
102
RTVSPropertyOp35
 70
     1
102
RTVSPropertyOp36
 70
     1
102
RTVSPropertyOp37
 70
     1
102
RTVSPropertyOp38
 70
     1
102
RTVSPropertyOp39
 70
     1
102
RTVSPropertyOp40
 70
     1
102
RTVSPropertyOp41
 70
     1
102
RTVSPropertyOp42
 70
     1
102
RTVSPropertyOp43
 70
     1
102
RTVSPropertyOp44
 70
     1
102
RTVSPropertyOp45
 70
     1
102
RTVSPropertyOp46
 70
     1
102
RTVSPropertyOp47
 70
     1
102
RTVSPropertyOp48
 70
     1
102
RTVSPropertyOp49
 70
     1
102
RTVSPropertyOp50
 70
     1
102
RTVSPropertyOp51
 70
     0
102
RTVSPropertyOp52
 70
     0
102
RTVSPropertyOp53
 70
     1
102
RTVSPropertyOp54
 70
     1
102
RTVSPropertyOp55
 70
     1
102
RTVSPropertyOp56
 70
     1
102
RTVSPropertyOp57
 70
     1
102
RTVSPropertyOp58
 70
     1
102
RTVSPropertyOp59
 70
     1
102
RTVSPropertyOp60
 70
     1
102
RTVSPropertyOp61
 70
     1
102
RTVSPropertyOp62
 70
     1
  0
XRECORD
  5
592
102
{ACAD_REACTORS
330
591
102
}
330
591
100
AcDbXrecord
280
     1
102
RTVSPost2010Prop28
280
     0
102
RTVSPost2010PropOp28
 70
     1
102
RTVSPost2010Prop29
280
     1
102
RTVSPost2010PropOp29
 70
     1
102
RTVSPost2010Prop30
280
     1
102
RTVSPost2010PropOp30
 70
     1
102
RTVSPost2010Prop31
280
     0
102
RTVSPost2010PropOp31
 70
     1
102
RTVSPost2010Prop32
280
     0
102
RTVSPost2010PropOp32
 70
     1
102
RTVSPost2010Prop33
280
     0
102
RTVSPost2010PropOp33
 70
     1
102
RTVSPost2010Prop34
280
     0
102
RTVSPost2010PropOp34
 70
     1
102
RTVSPost2010Prop35
280
     0
102
RTVSPost2010PropOp35
 70
     1
102
RTVSPost2010Prop36
280
     0
102
RTVSPost2010PropOp36
 70
     1
102
RTVSPost2010Prop37
 90
       50
102
RTVSPost2010PropOp37
 70
     1
102
RTVSPost2010Prop38
140
0.0
102
RTVSPost2010PropOp38
 70
     1
102
RTVSPost2010Prop39
140
1.0
102
RTVSPost2010PropOp39
 70
     1
102
RTVSPost2010Prop40
 90
        0
102
RTVSPost2010PropOp40
 70
     1
102
RTVSPost2010Prop41ColorIndex
 90
       18
102
RTVSPost2010Prop41ColorRGB
 90
        0
102
RTVSPost2010PropOp41
 70
     1
102
RTVSPost2010Prop42
 90
       50
102
RTVSPost2010PropOp42
 70
     1
102
RTVSPost2010Prop43
 90
        3
102
RTVSPost2010PropOp43
 70
     1
102
RTVSPost2010Prop44ColorIndex
 90
        5
102
RTVSPost2010Prop44ColorRGB
 90
      255
102
RTVSPost2010PropOp44
 70
     1
102
RTVSPost2010Prop45
280
     0
102
RTVSPost2010PropOp45
 70
     1
102
RTVSPost2010Prop46
 90
       50
102
RTVSPost2010PropOp46
 70
     1
102
RTVSPost2010Prop47
 90
       50
102
RTVSPost2010PropOp47
 70
     1
102
RTVSPost2010Prop48
 90
       50
102
RTVSPost2010PropOp48
 70
     1
102
RTVSPost2010Prop49
280
     0
102
RTVSPost2010PropOp49
 70
     1
102
RTVSPost2010Prop50
 90
       50
102
RTVSPost2010PropOp50
 70
     1
102
RTVSPost2010Prop51ColorIndex
 90
      256
102
RTVSPost2010Prop51ColorRGB
 90
-16777216
102
RTVSPost2010PropOp51
 70
     0
102
RTVSPost2010Prop52
140
1.0
102
RTVSPost2010PropOp52
 70
     0
102
RTVSPost2010Prop53
 90
        2
102
RTVSPost2010PropOp53
 70
     1
102
RTVSPost2010Prop54
  1
strokes_ogs.tif
102
RTVSPost2010PropOp54
 70
     1
102
RTVSPost2010Prop55
280
     0
102
RTVSPost2010PropOp55
 70
     1
102
RTVSPost2010Prop56
140
1.0
102
RTVSPost2010PropOp56
 70
     1
102
RTVSPost2010Prop57
140
1.0
102
RTVSPost2010PropOp57
 70
     1
102
RTVSPropertyOp0
 70
     1
102
RTVSPropertyOp1
 70
     1
102
RTVSPropertyOp2
 70
     1
102
RTVSPropertyOp3
 70
     1
102
RTVSPropertyOp4
 70
     1
102
RTVSPropertyOp5
 70
     1
102
RTVSPropertyOp6
 70
     1
102
RTVSPropertyOp7
 70
     1
102
RTVSPropertyOp8
 70
     1
102
RTVSPropertyOp9
 70
     1
102
RTVSPropertyOp10
 70
     1
102
RTVSPropertyOp11
 70
     1
102
RTVSPropertyOp12
 70
     1
102
RTVSPropertyOp13
 70
     1
102
RTVSPropertyOp14
 70
     1
102
RTVSPropertyOp15
 70
     1
102
RTVSPropertyOp16
 70
     1
102
RTVSPropertyOp17
 70
     1
102
RTVSPropertyOp18
 70
     1
102
RTVSPropertyOp19
 70
     1
102
RTVSPropertyOp20
 70
     1
102
RTVSPropertyOp21
 70
     1
102
RTVSPropertyOp22
 70
     1
102
RTVSPropertyOp23
 70
     1
102
RTVSPropertyOp24
 70
     1
102
RTVSPropertyOp25
 70
     1
102
RTVSPropertyOp26
 70
     1
102
RTVSPropertyOp27
 70
     1
102
RTVSPropertyOp28
 70
     1
102
RTVSPropertyOp29
 70
     1
102
RTVSPropertyOp30
 70
     1
102
RTVSPropertyOp31
 70
     1
102
RTVSPropertyOp32
 70
     1
102
RTVSPropertyOp33
 70
     1
102
RTVSPropertyOp34
 70
     1
102
RTVSPropertyOp35
 70
     1
102
RTVSPropertyOp36
 70
     1
102
RTVSPropertyOp37
 70
     1
102
RTVSPropertyOp38
 70
     1
102
RTVSPropertyOp39
 70
     1
102
RTVSPropertyOp40
 70
     1
102
RTVSPropertyOp41
 70
     1
102
RTVSPropertyOp42
 70
     1
102
RTVSPropertyOp43
 70
     1
102
RTVSPropertyOp44
 70
     1
102
RTVSPropertyOp45
 70
     1
102
RTVSPropertyOp46
 70
     1
102
RTVSPropertyOp47
 70
     1
102
RTVSPropertyOp48
 70
     1
102
RTVSPropertyOp49
 70
     1
102
RTVSPropertyOp50
 70
     1
102
RTVSPropertyOp51
 70
     0
102
RTVSPropertyOp52
 70
     0
102
RTVSPropertyOp53
 70
     1
102
RTVSPropertyOp54
 70
     1
102
RTVSPropertyOp55
 70
     1
102
RTVSPropertyOp56
 70
     1
102
RTVSPropertyOp57
 70
     1
102
RTVSPropertyOp58
 70
     1
102
RTVSPropertyOp59
 70
     1
102
RTVSPropertyOp60
 70
     1
102
RTVSPropertyOp61
 70
     1
102
RTVSPropertyOp62
 70
     1
  0
XRECORD
  5
590
102
{ACAD_REACTORS
330
58F
102
}
330
58F
100
AcDbXrecord
280
     1
102
RTVSPost2010Prop28
280
     0
102
RTVSPost2010PropOp28
 70
     1
102
RTVSPost2010Prop29
280
     1
102
RTVSPost2010PropOp29
 70
     1
102
RTVSPost2010Prop30
280
     1
102
RTVSPost2010PropOp30
 70
     1
102
RTVSPost2010Prop31
280
     0
102
RTVSPost2010PropOp31
 70
     1
102
RTVSPost2010Prop32
280
     0
102
RTVSPost2010PropOp32
 70
     1
102
RTVSPost2010Prop33
280
     0
102
RTVSPost2010PropOp33
 70
     1
102
RTVSPost2010Prop34
280
     0
102
RTVSPost2010PropOp34
 70
     1
102
RTVSPost2010Prop35
280
     0
102
RTVSPost2010PropOp35
 70
     1
102
RTVSPost2010Prop36
280
     0
102
RTVSPost2010PropOp36
 70
     1
102
RTVSPost2010Prop37
 90
       50
102
RTVSPost2010PropOp37
 70
     1
102
RTVSPost2010Prop38
140
0.0
102
RTVSPost2010PropOp38
 70
     1
102
RTVSPost2010Prop39
140
1.0
102
RTVSPost2010PropOp39
 70
     1
102
RTVSPost2010Prop40
 90
        0
102
RTVSPost2010PropOp40
 70
     1
102
RTVSPost2010Prop41ColorIndex
 90
       18
102
RTVSPost2010Prop41ColorRGB
 90
        0
102
RTVSPost2010PropOp41
 70
     1
102
RTVSPost2010Prop42
 90
       50
102
RTVSPost2010PropOp42
 70
     1
102
RTVSPost2010Prop43
 90
        3
102
RTVSPost2010PropOp43
 70
     1
102
RTVSPost2010Prop44ColorIndex
 90
        5
102
RTVSPost2010Prop44ColorRGB
 90
      255
102
RTVSPost2010PropOp44
 70
     1
102
RTVSPost2010Prop45
280
     0
102
RTVSPost2010PropOp45
 70
     1
102
RTVSPost2010Prop46
 90
       50
102
RTVSPost2010PropOp46
 70
     1
102
RTVSPost2010Prop47
 90
       50
102
RTVSPost2010PropOp47
 70
     1
102
RTVSPost2010Prop48
 90
       50
102
RTVSPost2010PropOp48
 70
     1
102
RTVSPost2010Prop49
280
     0
102
RTVSPost2010PropOp49
 70
     1
102
RTVSPost2010Prop50
 90
       50
102
RTVSPost2010PropOp50
 70
     1
102
RTVSPost2010Prop51ColorIndex
 90
      256
102
RTVSPost2010Prop51ColorRGB
 90
-16777216
102
RTVSPost2010PropOp51
 70
     0
102
RTVSPost2010Prop52
140
1.0
102
RTVSPost2010PropOp52
 70
     0
102
RTVSPost2010Prop53
 90
        2
102
RTVSPost2010PropOp53
 70
     1
102
RTVSPost2010Prop54
  1
strokes_ogs.tif
102
RTVSPost2010PropOp54
 70
     1
102
RTVSPost2010Prop55
280
     0
102
RTVSPost2010PropOp55
 70
     1
102
RTVSPost2010Prop56
140
1.0
102
RTVSPost2010PropOp56
 70
     1
102
RTVSPost2010Prop57
140
1.0
102
RTVSPost2010PropOp57
 70
     1
102
RTVSPropertyOp0
 70
     1
102
RTVSPropertyOp1
 70
     1
102
RTVSPropertyOp2
 70
     1
102
RTVSPropertyOp3
 70
     1
102
RTVSPropertyOp4
 70
     1
102
RTVSPropertyOp5
 70
     1
102
RTVSPropertyOp6
 70
     1
102
RTVSPropertyOp7
 70
     1
102
RTVSPropertyOp8
 70
     1
102
RTVSPropertyOp9
 70
     1
102
RTVSPropertyOp10
 70
     1
102
RTVSPropertyOp11
 70
     1
102
RTVSPropertyOp12
 70
     1
102
RTVSPropertyOp13
 70
     1
102
RTVSPropertyOp14
 70
     1
102
RTVSPropertyOp15
 70
     1
102
RTVSPropertyOp16
 70
     1
102
RTVSPropertyOp17
 70
     1
102
RTVSPropertyOp18
 70
     1
102
RTVSPropertyOp19
 70
     1
102
RTVSPropertyOp20
 70
     1
102
RTVSPropertyOp21
 70
     1
102
RTVSPropertyOp22
 70
     1
102
RTVSPropertyOp23
 70
     1
102
RTVSPropertyOp24
 70
     1
102
RTVSPropertyOp25
 70
     1
102
RTVSPropertyOp26
 70
     1
102
RTVSPropertyOp27
 70
     1
102
RTVSPropertyOp28
 70
     1
102
RTVSPropertyOp29
 70
     1
102
RTVSPropertyOp30
 70
     1
102
RTVSPropertyOp31
 70
     1
102
RTVSPropertyOp32
 70
     1
102
RTVSPropertyOp33
 70
     1
102
RTVSPropertyOp34
 70
     1
102
RTVSPropertyOp35
 70
     1
102
RTVSPropertyOp36
 70
     1
102
RTVSPropertyOp37
 70
     1
102
RTVSPropertyOp38
 70
     1
102
RTVSPropertyOp39
 70
     1
102
RTVSPropertyOp40
 70
     1
102
RTVSPropertyOp41
 70
     1
102
RTVSPropertyOp42
 70
     1
102
RTVSPropertyOp43
 70
     1
102
RTVSPropertyOp44
 70
     1
102
RTVSPropertyOp45
 70
     1
102
RTVSPropertyOp46
 70
     1
102
RTVSPropertyOp47
 70
     1
102
RTVSPropertyOp48
 70
     1
102
RTVSPropertyOp49
 70
     1
102
RTVSPropertyOp50
 70
     1
102
RTVSPropertyOp51
 70
     0
102
RTVSPropertyOp52
 70
     0
102
RTVSPropertyOp53
 70
     1
102
RTVSPropertyOp54
 70
     1
102
RTVSPropertyOp55
 70
     1
102
RTVSPropertyOp56
 70
     1
102
RTVSPropertyOp57
 70
     1
102
RTVSPropertyOp58
 70
     1
102
RTVSPropertyOp59
 70
     1
102
RTVSPropertyOp60
 70
     1
102
RTVSPropertyOp61
 70
     1
102
RTVSPropertyOp62
 70
     1
  0
XRECORD
  5
58A
102
{ACAD_REACTORS
330
589
102
}
330
589
100
AcDbXrecord
280
     1
102
RTVSPost2010Prop28
280
     0
102
RTVSPost2010PropOp28
 70
     1
102
RTVSPost2010Prop29
280
     1
102
RTVSPost2010PropOp29
 70
     1
102
RTVSPost2010Prop30
280
     1
102
RTVSPost2010PropOp30
 70
     1
102
RTVSPost2010Prop31
280
     0
102
RTVSPost2010PropOp31
 70
     1
102
RTVSPost2010Prop32
280
     0
102
RTVSPost2010PropOp32
 70
     1
102
RTVSPost2010Prop33
280
     0
102
RTVSPost2010PropOp33
 70
     1
102
RTVSPost2010Prop34
280
     0
102
RTVSPost2010PropOp34
 70
     1
102
RTVSPost2010Prop35
280
     0
102
RTVSPost2010PropOp35
 70
     1
102
RTVSPost2010Prop36
280
     0
102
RTVSPost2010PropOp36
 70
     1
102
RTVSPost2010Prop37
 90
       50
102
RTVSPost2010PropOp37
 70
     1
102
RTVSPost2010Prop38
140
0.0
102
RTVSPost2010PropOp38
 70
     1
102
RTVSPost2010Prop39
140
1.0
102
RTVSPost2010PropOp39
 70
     1
102
RTVSPost2010Prop40
 90
        0
102
RTVSPost2010PropOp40
 70
     1
102
RTVSPost2010Prop41ColorIndex
 90
       18
102
RTVSPost2010Prop41ColorRGB
 90
        0
102
RTVSPost2010PropOp41
 70
     1
102
RTVSPost2010Prop42
 90
       50
102
RTVSPost2010PropOp42
 70
     1
102
RTVSPost2010Prop43
 90
        3
102
RTVSPost2010PropOp43
 70
     1
102
RTVSPost2010Prop44ColorIndex
 90
        5
102
RTVSPost2010Prop44ColorRGB
 90
      255
102
RTVSPost2010PropOp44
 70
     1
102
RTVSPost2010Prop45
280
     0
102
RTVSPost2010PropOp45
 70
     1
102
RTVSPost2010Prop46
 90
       50
102
RTVSPost2010PropOp46
 70
     1
102
RTVSPost2010Prop47
 90
       50
102
RTVSPost2010PropOp47
 70
     1
102
RTVSPost2010Prop48
 90
       50
102
RTVSPost2010PropOp48
 70
     1
102
RTVSPost2010Prop49
280
     0
102
RTVSPost2010PropOp49
 70
     1
102
RTVSPost2010Prop50
 90
       50
102
RTVSPost2010PropOp50
 70
     1
102
RTVSPost2010Prop51ColorIndex
 90
      256
102
RTVSPost2010Prop51ColorRGB
 90
-16777216
102
RTVSPost2010PropOp51
 70
     0
102
RTVSPost2010Prop52
140
1.0
102
RTVSPost2010PropOp52
 70
     0
102
RTVSPost2010Prop53
 90
        2
102
RTVSPost2010PropOp53
 70
     1
102
RTVSPost2010Prop54
  1
strokes_ogs.tif
102
RTVSPost2010PropOp54
 70
     1
102
RTVSPost2010Prop55
280
     0
102
RTVSPost2010PropOp55
 70
     1
102
RTVSPost2010Prop56
140
1.0
102
RTVSPost2010PropOp56
 70
     1
102
RTVSPost2010Prop57
140
1.0
102
RTVSPost2010PropOp57
 70
     1
102
RTVSPropertyOp0
 70
     1
102
RTVSPropertyOp1
 70
     1
102
RTVSPropertyOp2
 70
     1
102
RTVSPropertyOp3
 70
     1
102
RTVSPropertyOp4
 70
     1
102
RTVSPropertyOp5
 70
     1
102
RTVSPropertyOp6
 70
     1
102
RTVSPropertyOp7
 70
     1
102
RTVSPropertyOp8
 70
     1
102
RTVSPropertyOp9
 70
     1
102
RTVSPropertyOp10
 70
     1
102
RTVSPropertyOp11
 70
     1
102
RTVSPropertyOp12
 70
     1
102
RTVSPropertyOp13
 70
     1
102
RTVSPropertyOp14
 70
     1
102
RTVSPropertyOp15
 70
     1
102
RTVSPropertyOp16
 70
     1
102
RTVSPropertyOp17
 70
     1
102
RTVSPropertyOp18
 70
     1
102
RTVSPropertyOp19
 70
     1
102
RTVSPropertyOp20
 70
     1
102
RTVSPropertyOp21
 70
     1
102
RTVSPropertyOp22
 70
     1
102
RTVSPropertyOp23
 70
     1
102
RTVSPropertyOp24
 70
     1
102
RTVSPropertyOp25
 70
     1
102
RTVSPropertyOp26
 70
     1
102
RTVSPropertyOp27
 70
     1
102
RTVSPropertyOp28
 70
     1
102
RTVSPropertyOp29
 70
     1
102
RTVSPropertyOp30
 70
     1
102
RTVSPropertyOp31
 70
     1
102
RTVSPropertyOp32
 70
     1
102
RTVSPropertyOp33
 70
     1
102
RTVSPropertyOp34
 70
     1
102
RTVSPropertyOp35
 70
     1
102
RTVSPropertyOp36
 70
     1
102
RTVSPropertyOp37
 70
     1
102
RTVSPropertyOp38
 70
     1
102
RTVSPropertyOp39
 70
     1
102
RTVSPropertyOp40
 70
     1
102
RTVSPropertyOp41
 70
     1
102
RTVSPropertyOp42
 70
     1
102
RTVSPropertyOp43
 70
     1
102
RTVSPropertyOp44
 70
     1
102
RTVSPropertyOp45
 70
     1
102
RTVSPropertyOp46
 70
     1
102
RTVSPropertyOp47
 70
     1
102
RTVSPropertyOp48
 70
     1
102
RTVSPropertyOp49
 70
     1
102
RTVSPropertyOp50
 70
     1
102
RTVSPropertyOp51
 70
     0
102
RTVSPropertyOp52
 70
     0
102
RTVSPropertyOp53
 70
     1
102
RTVSPropertyOp54
 70
     1
102
RTVSPropertyOp55
 70
     1
102
RTVSPropertyOp56
 70
     1
102
RTVSPropertyOp57
 70
     1
102
RTVSPropertyOp58
 70
     1
102
RTVSPropertyOp59
 70
     1
102
RTVSPropertyOp60
 70
     1
102
RTVSPropertyOp61
 70
     1
102
RTVSPropertyOp62
 70
     1
  0
XRECORD
  5
58C
102
{ACAD_REACTORS
330
58B
102
}
330
58B
100
AcDbXrecord
280
     1
102
RTVSPost2010Prop28
280
     0
102
RTVSPost2010PropOp28
 70
     1
102
RTVSPost2010Prop29
280
     1
102
RTVSPost2010PropOp29
 70
     1
102
RTVSPost2010Prop30
280
     1
102
RTVSPost2010PropOp30
 70
     1
102
RTVSPost2010Prop31
280
     0
102
RTVSPost2010PropOp31
 70
     1
102
RTVSPost2010Prop32
280
     0
102
RTVSPost2010PropOp32
 70
     1
102
RTVSPost2010Prop33
280
     0
102
RTVSPost2010PropOp33
 70
     1
102
RTVSPost2010Prop34
280
     0
102
RTVSPost2010PropOp34
 70
     1
102
RTVSPost2010Prop35
280
     0
102
RTVSPost2010PropOp35
 70
     1
102
RTVSPost2010Prop36
280
     0
102
RTVSPost2010PropOp36
 70
     1
102
RTVSPost2010Prop37
 90
       50
102
RTVSPost2010PropOp37
 70
     1
102
RTVSPost2010Prop38
140
0.0
102
RTVSPost2010PropOp38
 70
     1
102
RTVSPost2010Prop39
140
1.0
102
RTVSPost2010PropOp39
 70
     1
102
RTVSPost2010Prop40
 90
        0
102
RTVSPost2010PropOp40
 70
     1
102
RTVSPost2010Prop41ColorIndex
 90
       18
102
RTVSPost2010Prop41ColorRGB
 90
        0
102
RTVSPost2010PropOp41
 70
     1
102
RTVSPost2010Prop42
 90
       50
102
RTVSPost2010PropOp42
 70
     1
102
RTVSPost2010Prop43
 90
        3
102
RTVSPost2010PropOp43
 70
     1
102
RTVSPost2010Prop44ColorIndex
 90
        5
102
RTVSPost2010Prop44ColorRGB
 90
      255
102
RTVSPost2010PropOp44
 70
     1
102
RTVSPost2010Prop45
280
     0
102
RTVSPost2010PropOp45
 70
     1
102
RTVSPost2010Prop46
 90
       50
102
RTVSPost2010PropOp46
 70
     1
102
RTVSPost2010Prop47
 90
       50
102
RTVSPost2010PropOp47
 70
     1
102
RTVSPost2010Prop48
 90
       50
102
RTVSPost2010PropOp48
 70
     1
102
RTVSPost2010Prop49
280
     0
102
RTVSPost2010PropOp49
 70
     1
102
RTVSPost2010Prop50
 90
       50
102
RTVSPost2010PropOp50
 70
     1
102
RTVSPost2010Prop51ColorIndex
 90
      256
102
RTVSPost2010Prop51ColorRGB
 90
-16777216
102
RTVSPost2010PropOp51
 70
     0
102
RTVSPost2010Prop52
140
1.0
102
RTVSPost2010PropOp52
 70
     0
102
RTVSPost2010Prop53
 90
        2
102
RTVSPost2010PropOp53
 70
     1
102
RTVSPost2010Prop54
  1
strokes_ogs.tif
102
RTVSPost2010PropOp54
 70
     1
102
RTVSPost2010Prop55
280
     0
102
RTVSPost2010PropOp55
 70
     1
102
RTVSPost2010Prop56
140
1.0
102
RTVSPost2010PropOp56
 70
     1
102
RTVSPost2010Prop57
140
1.0
102
RTVSPost2010PropOp57
 70
     1
102
RTVSPropertyOp0
 70
     1
102
RTVSPropertyOp1
 70
     1
102
RTVSPropertyOp2
 70
     1
102
RTVSPropertyOp3
 70
     1
102
RTVSPropertyOp4
 70
     1
102
RTVSPropertyOp5
 70
     1
102
RTVSPropertyOp6
 70
     1
102
RTVSPropertyOp7
 70
     1
102
RTVSPropertyOp8
 70
     1
102
RTVSPropertyOp9
 70
     1
102
RTVSPropertyOp10
 70
     1
102
RTVSPropertyOp11
 70
     1
102
RTVSPropertyOp12
 70
     1
102
RTVSPropertyOp13
 70
     1
102
RTVSPropertyOp14
 70
     1
102
RTVSPropertyOp15
 70
     1
102
RTVSPropertyOp16
 70
     1
102
RTVSPropertyOp17
 70
     1
102
RTVSPropertyOp18
 70
     1
102
RTVSPropertyOp19
 70
     1
102
RTVSPropertyOp20
 70
     1
102
RTVSPropertyOp21
 70
     1
102
RTVSPropertyOp22
 70
     1
102
RTVSPropertyOp23
 70
     1
102
RTVSPropertyOp24
 70
     1
102
RTVSPropertyOp25
 70
     1
102
RTVSPropertyOp26
 70
     1
102
RTVSPropertyOp27
 70
     1
102
RTVSPropertyOp28
 70
     1
102
RTVSPropertyOp29
 70
     1
102
RTVSPropertyOp30
 70
     1
102
RTVSPropertyOp31
 70
     1
102
RTVSPropertyOp32
 70
     1
102
RTVSPropertyOp33
 70
     1
102
RTVSPropertyOp34
 70
     1
102
RTVSPropertyOp35
 70
     1
102
RTVSPropertyOp36
 70
     1
102
RTVSPropertyOp37
 70
     1
102
RTVSPropertyOp38
 70
     1
102
RTVSPropertyOp39
 70
     1
102
RTVSPropertyOp40
 70
     1
102
RTVSPropertyOp41
 70
     1
102
RTVSPropertyOp42
 70
     1
102
RTVSPropertyOp43
 70
     1
102
RTVSPropertyOp44
 70
     1
102
RTVSPropertyOp45
 70
     1
102
RTVSPropertyOp46
 70
     1
102
RTVSPropertyOp47
 70
     1
102
RTVSPropertyOp48
 70
     1
102
RTVSPropertyOp49
 70
     1
102
RTVSPropertyOp50
 70
     1
102
RTVSPropertyOp51
 70
     0
102
RTVSPropertyOp52
 70
     0
102
RTVSPropertyOp53
 70
     1
102
RTVSPropertyOp54
 70
     1
102
RTVSPropertyOp55
 70
     1
102
RTVSPropertyOp56
 70
     1
102
RTVSPropertyOp57
 70
     1
102
RTVSPropertyOp58
 70
     1
102
RTVSPropertyOp59
 70
     1
102
RTVSPropertyOp60
 70
     1
102
RTVSPropertyOp61
 70
     1
102
RTVSPropertyOp62
 70
     1
  0
XRECORD
  5
57C
102
{ACAD_REACTORS
330
57B
102
}
330
57B
100
AcDbXrecord
280
     1
102
RTVSPost2010Prop28
280
     0
102
RTVSPost2010PropOp28
 70
     1
102
RTVSPost2010Prop29
280
     1
102
RTVSPost2010PropOp29
 70
     1
102
RTVSPost2010Prop30
280
     1
102
RTVSPost2010PropOp30
 70
     1
102
RTVSPost2010Prop31
280
     0
102
RTVSPost2010PropOp31
 70
     1
102
RTVSPost2010Prop32
280
     0
102
RTVSPost2010PropOp32
 70
     1
102
RTVSPost2010Prop33
280
     0
102
RTVSPost2010PropOp33
 70
     1
102
RTVSPost2010Prop34
280
     0
102
RTVSPost2010PropOp34
 70
     1
102
RTVSPost2010Prop35
280
     0
102
RTVSPost2010PropOp35
 70
     1
102
RTVSPost2010Prop36
280
     0
102
RTVSPost2010PropOp36
 70
     1
102
RTVSPost2010Prop37
 90
       50
102
RTVSPost2010PropOp37
 70
     1
102
RTVSPost2010Prop38
140
0.0
102
RTVSPost2010PropOp38
 70
     1
102
RTVSPost2010Prop39
140
1.0
102
RTVSPost2010PropOp39
 70
     1
102
RTVSPost2010Prop40
 90
        0
102
RTVSPost2010PropOp40
 70
     1
102
RTVSPost2010Prop41ColorIndex
 90
       18
102
RTVSPost2010Prop41ColorRGB
 90
        0
102
RTVSPost2010PropOp41
 70
     1
102
RTVSPost2010Prop42
 90
       50
102
RTVSPost2010PropOp42
 70
     1
102
RTVSPost2010Prop43
 90
        3
102
RTVSPost2010PropOp43
 70
     1
102
RTVSPost2010Prop44ColorIndex
 90
        5
102
RTVSPost2010Prop44ColorRGB
 90
      255
102
RTVSPost2010PropOp44
 70
     1
102
RTVSPost2010Prop45
280
     0
102
RTVSPost2010PropOp45
 70
     1
102
RTVSPost2010Prop46
 90
       50
102
RTVSPost2010PropOp46
 70
     1
102
RTVSPost2010Prop47
 90
       50
102
RTVSPost2010PropOp47
 70
     1
102
RTVSPost2010Prop48
 90
       50
102
RTVSPost2010PropOp48
 70
     1
102
RTVSPost2010Prop49
280
     0
102
RTVSPost2010PropOp49
 70
     1
102
RTVSPost2010Prop50
 90
       50
102
RTVSPost2010PropOp50
 70
     1
102
RTVSPost2010Prop51ColorIndex
 90
      256
102
RTVSPost2010Prop51ColorRGB
 90
-16777216
102
RTVSPost2010PropOp51
 70
     0
102
RTVSPost2010Prop52
140
1.0
102
RTVSPost2010PropOp52
 70
     0
102
RTVSPost2010Prop53
 90
        2
102
RTVSPost2010PropOp53
 70
     1
102
RTVSPost2010Prop54
  1
strokes_ogs.tif
102
RTVSPost2010PropOp54
 70
     1
102
RTVSPost2010Prop55
280
     0
102
RTVSPost2010PropOp55
 70
     1
102
RTVSPost2010Prop56
140
1.0
102
RTVSPost2010PropOp56
 70
     1
102
RTVSPost2010Prop57
140
1.0
102
RTVSPost2010PropOp57
 70
     1
102
RTVSPropertyOp0
 70
     1
102
RTVSPropertyOp1
 70
     1
102
RTVSPropertyOp2
 70
     1
102
RTVSPropertyOp3
 70
     1
102
RTVSPropertyOp4
 70
     1
102
RTVSPropertyOp5
 70
     1
102
RTVSPropertyOp6
 70
     1
102
RTVSPropertyOp7
 70
     1
102
RTVSPropertyOp8
 70
     1
102
RTVSPropertyOp9
 70
     1
102
RTVSPropertyOp10
 70
     1
102
RTVSPropertyOp11
 70
     1
102
RTVSPropertyOp12
 70
     1
102
RTVSPropertyOp13
 70
     1
102
RTVSPropertyOp14
 70
     1
102
RTVSPropertyOp15
 70
     1
102
RTVSPropertyOp16
 70
     1
102
RTVSPropertyOp17
 70
     1
102
RTVSPropertyOp18
 70
     1
102
RTVSPropertyOp19
 70
     1
102
RTVSPropertyOp20
 70
     1
102
RTVSPropertyOp21
 70
     1
102
RTVSPropertyOp22
 70
     1
102
RTVSPropertyOp23
 70
     1
102
RTVSPropertyOp24
 70
     1
102
RTVSPropertyOp25
 70
     1
102
RTVSPropertyOp26
 70
     1
102
RTVSPropertyOp27
 70
     1
102
RTVSPropertyOp28
 70
     1
102
RTVSPropertyOp29
 70
     1
102
RTVSPropertyOp30
 70
     1
102
RTVSPropertyOp31
 70
     1
102
RTVSPropertyOp32
 70
     1
102
RTVSPropertyOp33
 70
     1
102
RTVSPropertyOp34
 70
     1
102
RTVSPropertyOp35
 70
     1
102
RTVSPropertyOp36
 70
     1
102
RTVSPropertyOp37
 70
     1
102
RTVSPropertyOp38
 70
     1
102
RTVSPropertyOp39
 70
     1
102
RTVSPropertyOp40
 70
     1
102
RTVSPropertyOp41
 70
     1
102
RTVSPropertyOp42
 70
     1
102
RTVSPropertyOp43
 70
     1
102
RTVSPropertyOp44
 70
     1
102
RTVSPropertyOp45
 70
     1
102
RTVSPropertyOp46
 70
     1
102
RTVSPropertyOp47
 70
     1
102
RTVSPropertyOp48
 70
     1
102
RTVSPropertyOp49
 70
     1
102
RTVSPropertyOp50
 70
     1
102
RTVSPropertyOp51
 70
     0
102
RTVSPropertyOp52
 70
     0
102
RTVSPropertyOp53
 70
     1
102
RTVSPropertyOp54
 70
     1
102
RTVSPropertyOp55
 70
     1
102
RTVSPropertyOp56
 70
     1
102
RTVSPropertyOp57
 70
     1
102
RTVSPropertyOp58
 70
     1
102
RTVSPropertyOp59
 70
     1
102
RTVSPropertyOp60
 70
     1
102
RTVSPropertyOp61
 70
     1
102
RTVSPropertyOp62
 70
     1
  0
XRECORD
  5
56E
102
{ACAD_REACTORS
330
56D
102
}
330
56D
100
AcDbXrecord
280
     1
102
RTVSPost2010Prop28
280
     0
102
RTVSPost2010PropOp28
 70
     1
102
RTVSPost2010Prop29
280
     1
102
RTVSPost2010PropOp29
 70
     1
102
RTVSPost2010Prop30
280
     1
102
RTVSPost2010PropOp30
 70
     1
102
RTVSPost2010Prop31
280
     0
102
RTVSPost2010PropOp31
 70
     1
102
RTVSPost2010Prop32
280
     0
102
RTVSPost2010PropOp32
 70
     1
102
RTVSPost2010Prop33
280
     0
102
RTVSPost2010PropOp33
 70
     1
102
RTVSPost2010Prop34
280
     0
102
RTVSPost2010PropOp34
 70
     1
102
RTVSPost2010Prop35
280
     0
102
RTVSPost2010PropOp35
 70
     1
102
RTVSPost2010Prop36
280
     0
102
RTVSPost2010PropOp36
 70
     1
102
RTVSPost2010Prop37
 90
       50
102
RTVSPost2010PropOp37
 70
     1
102
RTVSPost2010Prop38
140
0.0
102
RTVSPost2010PropOp38
 70
     1
102
RTVSPost2010Prop39
140
1.0
102
RTVSPost2010PropOp39
 70
     1
102
RTVSPost2010Prop40
 90
        0
102
RTVSPost2010PropOp40
 70
     1
102
RTVSPost2010Prop41ColorIndex
 90
       18
102
RTVSPost2010Prop41ColorRGB
 90
        0
102
RTVSPost2010PropOp41
 70
     1
102
RTVSPost2010Prop42
 90
       50
102
RTVSPost2010PropOp42
 70
     1
102
RTVSPost2010Prop43
 90
        3
102
RTVSPost2010PropOp43
 70
     1
102
RTVSPost2010Prop44ColorIndex
 90
        5
102
RTVSPost2010Prop44ColorRGB
 90
      255
102
RTVSPost2010PropOp44
 70
     1
102
RTVSPost2010Prop45
280
     0
102
RTVSPost2010PropOp45
 70
     1
102
RTVSPost2010Prop46
 90
       50
102
RTVSPost2010PropOp46
 70
     1
102
RTVSPost2010Prop47
 90
       50
102
RTVSPost2010PropOp47
 70
     1
102
RTVSPost2010Prop48
 90
       50
102
RTVSPost2010PropOp48
 70
     1
102
RTVSPost2010Prop49
280
     0
102
RTVSPost2010PropOp49
 70
     1
102
RTVSPost2010Prop50
 90
       50
102
RTVSPost2010PropOp50
 70
     1
102
RTVSPost2010Prop51ColorIndex
 90
      256
102
RTVSPost2010Prop51ColorRGB
 90
-16777216
102
RTVSPost2010PropOp51
 70
     0
102
RTVSPost2010Prop52
140
1.0
102
RTVSPost2010PropOp52
 70
     0
102
RTVSPost2010Prop53
 90
        2
102
RTVSPost2010PropOp53
 70
     1
102
RTVSPost2010Prop54
  1
strokes_ogs.tif
102
RTVSPost2010PropOp54
 70
     1
102
RTVSPost2010Prop55
280
     0
102
RTVSPost2010PropOp55
 70
     1
102
RTVSPost2010Prop56
140
1.0
102
RTVSPost2010PropOp56
 70
     1
102
RTVSPost2010Prop57
140
1.0
102
RTVSPost2010PropOp57
 70
     1
102
RTVSPropertyOp0
 70
     1
102
RTVSPropertyOp1
 70
     1
102
RTVSPropertyOp2
 70
     1
102
RTVSPropertyOp3
 70
     1
102
RTVSPropertyOp4
 70
     1
102
RTVSPropertyOp5
 70
     1
102
RTVSPropertyOp6
 70
     1
102
RTVSPropertyOp7
 70
     1
102
RTVSPropertyOp8
 70
     1
102
RTVSPropertyOp9
 70
     1
102
RTVSPropertyOp10
 70
     1
102
RTVSPropertyOp11
 70
     1
102
RTVSPropertyOp12
 70
     1
102
RTVSPropertyOp13
 70
     1
102
RTVSPropertyOp14
 70
     1
102
RTVSPropertyOp15
 70
     1
102
RTVSPropertyOp16
 70
     1
102
RTVSPropertyOp17
 70
     1
102
RTVSPropertyOp18
 70
     1
102
RTVSPropertyOp19
 70
     1
102
RTVSPropertyOp20
 70
     1
102
RTVSPropertyOp21
 70
     1
102
RTVSPropertyOp22
 70
     1
102
RTVSPropertyOp23
 70
     1
102
RTVSPropertyOp24
 70
     1
102
RTVSPropertyOp25
 70
     1
102
RTVSPropertyOp26
 70
     1
102
RTVSPropertyOp27
 70
     1
102
RTVSPropertyOp28
 70
     1
102
RTVSPropertyOp29
 70
     1
102
RTVSPropertyOp30
 70
     1
102
RTVSPropertyOp31
 70
     1
102
RTVSPropertyOp32
 70
     1
102
RTVSPropertyOp33
 70
     1
102
RTVSPropertyOp34
 70
     1
102
RTVSPropertyOp35
 70
     1
102
RTVSPropertyOp36
 70
     1
102
RTVSPropertyOp37
 70
     1
102
RTVSPropertyOp38
 70
     1
102
RTVSPropertyOp39
 70
     1
102
RTVSPropertyOp40
 70
     1
102
RTVSPropertyOp41
 70
     1
102
RTVSPropertyOp42
 70
     1
102
RTVSPropertyOp43
 70
     1
102
RTVSPropertyOp44
 70
     1
102
RTVSPropertyOp45
 70
     1
102
RTVSPropertyOp46
 70
     1
102
RTVSPropertyOp47
 70
     1
102
RTVSPropertyOp48
 70
     1
102
RTVSPropertyOp49
 70
     1
102
RTVSPropertyOp50
 70
     1
102
RTVSPropertyOp51
 70
     0
102
RTVSPropertyOp52
 70
     0
102
RTVSPropertyOp53
 70
     1
102
RTVSPropertyOp54
 70
     1
102
RTVSPropertyOp55
 70
     1
102
RTVSPropertyOp56
 70
     1
102
RTVSPropertyOp57
 70
     1
102
RTVSPropertyOp58
 70
     1
102
RTVSPropertyOp59
 70
     1
102
RTVSPropertyOp60
 70
     1
102
RTVSPropertyOp61
 70
     1
102
RTVSPropertyOp62
 70
     1
  0
XRECORD
  5
58E
102
{ACAD_REACTORS
330
58D
102
}
330
58D
100
AcDbXrecord
280
     1
102
RTVSPost2010Prop28
280
     0
102
RTVSPost2010PropOp28
 70
     1
102
RTVSPost2010Prop29
280
     1
102
RTVSPost2010PropOp29
 70
     1
102
RTVSPost2010Prop30
280
     1
102
RTVSPost2010PropOp30
 70
     1
102
RTVSPost2010Prop31
280
     0
102
RTVSPost2010PropOp31
 70
     1
102
RTVSPost2010Prop32
280
     0
102
RTVSPost2010PropOp32
 70
     1
102
RTVSPost2010Prop33
280
     0
102
RTVSPost2010PropOp33
 70
     1
102
RTVSPost2010Prop34
280
     0
102
RTVSPost2010PropOp34
 70
     1
102
RTVSPost2010Prop35
280
     0
102
RTVSPost2010PropOp35
 70
     1
102
RTVSPost2010Prop36
280
     0
102
RTVSPost2010PropOp36
 70
     1
102
RTVSPost2010Prop37
 90
       50
102
RTVSPost2010PropOp37
 70
     1
102
RTVSPost2010Prop38
140
0.0
102
RTVSPost2010PropOp38
 70
     1
102
RTVSPost2010Prop39
140
1.0
102
RTVSPost2010PropOp39
 70
     1
102
RTVSPost2010Prop40
 90
        0
102
RTVSPost2010PropOp40
 70
     1
102
RTVSPost2010Prop41ColorIndex
 90
       18
102
RTVSPost2010Prop41ColorRGB
 90
        0
102
RTVSPost2010PropOp41
 70
     1
102
RTVSPost2010Prop42
 90
       50
102
RTVSPost2010PropOp42
 70
     1
102
RTVSPost2010Prop43
 90
        3
102
RTVSPost2010PropOp43
 70
     1
102
RTVSPost2010Prop44ColorIndex
 90
        5
102
RTVSPost2010Prop44ColorRGB
 90
      255
102
RTVSPost2010PropOp44
 70
     1
102
RTVSPost2010Prop45
280
     0
102
RTVSPost2010PropOp45
 70
     1
102
RTVSPost2010Prop46
 90
       50
102
RTVSPost2010PropOp46
 70
     1
102
RTVSPost2010Prop47
 90
       50
102
RTVSPost2010PropOp47
 70
     1
102
RTVSPost2010Prop48
 90
       50
102
RTVSPost2010PropOp48
 70
     1
102
RTVSPost2010Prop49
280
     0
102
RTVSPost2010PropOp49
 70
     1
102
RTVSPost2010Prop50
 90
       50
102
RTVSPost2010PropOp50
 70
     1
102
RTVSPost2010Prop51ColorIndex
 90
      256
102
RTVSPost2010Prop51ColorRGB
 90
-16777216
102
RTVSPost2010PropOp51
 70
     0
102
RTVSPost2010Prop52
140
1.0
102
RTVSPost2010PropOp52
 70
     0
102
RTVSPost2010Prop53
 90
        2
102
RTVSPost2010PropOp53
 70
     1
102
RTVSPost2010Prop54
  1
strokes_ogs.tif
102
RTVSPost2010PropOp54
 70
     1
102
RTVSPost2010Prop55
280
     0
102
RTVSPost2010PropOp55
 70
     1
102
RTVSPost2010Prop56
140
1.0
102
RTVSPost2010PropOp56
 70
     1
102
RTVSPost2010Prop57
140
1.0
102
RTVSPost2010PropOp57
 70
     1
102
RTVSPropertyOp0
 70
     1
102
RTVSPropertyOp1
 70
     1
102
RTVSPropertyOp2
 70
     1
102
RTVSPropertyOp3
 70
     1
102
RTVSPropertyOp4
 70
     1
102
RTVSPropertyOp5
 70
     1
102
RTVSPropertyOp6
 70
     1
102
RTVSPropertyOp7
 70
     1
102
RTVSPropertyOp8
 70
     1
102
RTVSPropertyOp9
 70
     1
102
RTVSPropertyOp10
 70
     1
102
RTVSPropertyOp11
 70
     1
102
RTVSPropertyOp12
 70
     1
102
RTVSPropertyOp13
 70
     1
102
RTVSPropertyOp14
 70
     1
102
RTVSPropertyOp15
 70
     1
102
RTVSPropertyOp16
 70
     1
102
RTVSPropertyOp17
 70
     1
102
RTVSPropertyOp18
 70
     1
102
RTVSPropertyOp19
 70
     1
102
RTVSPropertyOp20
 70
     1
102
RTVSPropertyOp21
 70
     1
102
RTVSPropertyOp22
 70
     1
102
RTVSPropertyOp23
 70
     1
102
RTVSPropertyOp24
 70
     1
102
RTVSPropertyOp25
 70
     1
102
RTVSPropertyOp26
 70
     1
102
RTVSPropertyOp27
 70
     1
102
RTVSPropertyOp28
 70
     1
102
RTVSPropertyOp29
 70
     1
102
RTVSPropertyOp30
 70
     1
102
RTVSPropertyOp31
 70
     1
102
RTVSPropertyOp32
 70
     1
102
RTVSPropertyOp33
 70
     1
102
RTVSPropertyOp34
 70
     1
102
RTVSPropertyOp35
 70
     1
102
RTVSPropertyOp36
 70
     1
102
RTVSPropertyOp37
 70
     1
102
RTVSPropertyOp38
 70
     1
102
RTVSPropertyOp39
 70
     1
102
RTVSPropertyOp40
 70
     1
102
RTVSPropertyOp41
 70
     1
102
RTVSPropertyOp42
 70
     1
102
RTVSPropertyOp43
 70
     1
102
RTVSPropertyOp44
 70
     1
102
RTVSPropertyOp45
 70
     1
102
RTVSPropertyOp46
 70
     1
102
RTVSPropertyOp47
 70
     1
102
RTVSPropertyOp48
 70
     1
102
RTVSPropertyOp49
 70
     1
102
RTVSPropertyOp50
 70
     1
102
RTVSPropertyOp51
 70
     0
102
RTVSPropertyOp52
 70
     0
102
RTVSPropertyOp53
 70
     1
102
RTVSPropertyOp54
 70
     1
102
RTVSPropertyOp55
 70
     1
102
RTVSPropertyOp56
 70
     1
102
RTVSPropertyOp57
 70
     1
102
RTVSPropertyOp58
 70
     1
102
RTVSPropertyOp59
 70
     1
102
RTVSPropertyOp60
 70
     1
102
RTVSPropertyOp61
 70
     1
102
RTVSPropertyOp62
 70
     1
  0
ENDSEC
  0
EOF
