  0
SECTION
  2
HEADER
  9
$ACADVER
  1
AC1015
  9
$ACADMAINTVER
 70
    20
  9
$DWGCODEPAGE
  3
ANSI_932
  9
$INSBASE
 10
0.0
 20
0.0
 30
0.0
  9
$EXTMIN
 10
0.6894447461070854
 20
2.764156554812757
 30
0.0
  9
$EXTMAX
 10
2030.34994809538
 20
1723.560877292911
 30
0.0
  9
$LIMMIN
 10
-461.5692367553672
 20
-602.3795242309534
  9
$LIMMAX
 10
1407.025856018067
 20
988.5338745117152
  9
$ORTHOMODE
 70
     0
  9
$REGENMODE
 70
     1
  9
$FILLMODE
 70
     1
  9
$QTEXTMODE
 70
     0
  9
$MIRRTEXT
 70
     1
  9
$LTSCALE
 40
0.9186376580666328
  9
$ATTMODE
 70
     1
  9
$TEXTSIZE
 40
2.5
  9
$TRACEWID
 40
1.0
  9
$TEXTSTYLE
  7
Standard
  9
$CLAYER
  8
0
  9
$CELTYPE
  6
ByLayer
  9
$CECOLOR
 62
   256
  9
$CELTSCALE
 40
1.0
  9
$DISPSILH
 70
     0
  9
$DIMSCALE
 40
1.0
  9
$DIMASZ
 40
2.5
  9
$DIMEXO
 40
0.625
  9
$DIMDLI
 40
3.75
  9
$DIMRND
 40
0.0
  9
$DIMDLE
 40
0.0
  9
$DIMEXE
 40
1.25
  9
$DIMTP
 40
0.0
  9
$DIMTM
 40
0.0
  9
$DIMTXT
 40
2.5
  9
$DIMCEN
 40
2.5
  9
$DIMTSZ
 40
0.0
  9
$DIMTOL
 70
     0
  9
$DIMLIM
 70
     0
  9
$DIMTIH
 70
     0
  9
$DIMTOH
 70
     0
  9
$DIMSE1
 70
     0
  9
$DIMSE2
 70
     0
  9
$DIMTAD
 70
     1
  9
$DIMZIN
 70
     0
  9
$DIMBLK
  1

  9
$DIMASO
 70
     1
  9
$DIMSHO
 70
     1
  9
$DIMPOST
  1

  9
$DIMAPOST
  1

  9
$DIMALT
 70
     0
  9
$DIMALTD
 70
     3
  9
$DIMALTF
 40
0.03937007874016
  9
$DIMLFAC
 40
1.0
  9
$DIMTOFL
 70
     1
  9
$DIMTVP
 40
0.0
  9
$DIMTIX
 70
     0
  9
$DIMSOXD
 70
     0
  9
$DIMSAH
 70
     0
  9
$DIMBLK1
  1

  9
$DIMBLK2
  1

  9
$DIMSTYLE
  2
Standard
  9
$DIMCLRD
 70
     0
  9
$DIMCLRE
 70
     0
  9
$DIMCLRT
 70
     0
  9
$DIMTFAC
 40
0.75
  9
$DIMGAP
 40
0.625
  9
$DIMJUST
 70
     0
  9
$DIMSD1
 70
     0
  9
$DIMSD2
 70
     0
  9
$DIMTOLJ
 70
     0
  9
$DIMTZIN
 70
     8
  9
$DIMALTZ
 70
     0
  9
$DIMALTTZ
 70
     0
  9
$DIMUPT
 70
     0
  9
$DIMDEC
 70
     2
  9
$DIMTDEC
 70
     2
  9
$DIMALTU
 70
     2
  9
$DIMALTTD
 70
     3
  9
$DIMTXSTY
  7
Standard
  9
$DIMAUNIT
 70
     0
  9
$DIMADEC
 70
     0
  9
$DIMALTRND
 40
0.0
  9
$DIMAZIN
 70
     0
  9
$DIMDSEP
 70
    46
  9
$DIMATFIT
 70
     3
  9
$DIMFRAC
 70
     0
  9
$DIMLDRBLK
  1

  9
$DIMLUNIT
 70
     2
  9
$DIMLWD
 70
    -2
  9
$DIMLWE
 70
    -2
  9
$DIMTMOVE
 70
     0
  9
$LUNITS
 70
     2
  9
$LUPREC
 70
     4
  9
$SKETCHINC
 40
1.0
  9
$FILLETRAD
 40
0.0
  9
$AUNITS
 70
     0
  9
$AUPREC
 70
     0
  9
$MENU
  1
.
  9
$ELEVATION
 40
0.0
  9
$PELEVATION
 40
0.0
  9
$THICKNESS
 40
0.0
  9
$LIMCHECK
 70
     0
  9
$CHAMFERA
 40
10.0
  9
$CHAMFERB
 40
10.0
  9
$CHAMFERC
 40
20.0
  9
$CHAMFERD
 40
0.0
  9
$SKPOLY
 70
     0
  9
$TDCREATE
 40
2455188.750000000
  9
$TDUCREATE
 40
2455188.375000000
  9
$TDUPDATE
 40
2459745.617848530
  9
$TDUUPDATE
 40
2459745.242848530
  9
$TDINDWG
 40
0.0091140162
  9
$TDUSRTIMER
 40
0.0091138657
  9
$USRTIMER
 70
     1
  9
$ANGBASE
 50
0.0
  9
$ANGDIR
 70
     0
  9
$PDMODE
 70
     0
  9
$PDSIZE
 40
0.0
  9
$PLINEWID
 40
0.0
  9
$SPLFRAME
 70
     0
  9
$SPLINETYPE
 70
     6
  9
$SPLINESEGS
 70
     8
  9
$HANDSEED
  5
643
  9
$SURFTAB1
 70
     6
  9
$SURFTAB2
 70
     6
  9
$SURFTYPE
 70
     6
  9
$SURFU
 70
     6
  9
$SURFV
 70
     6
  9
$UCSBASE
  2

  9
$UCSNAME
  2

  9
$UCSORG
 10
0.0
 20
0.0
 30
0.0
  9
$UCSXDIR
 10
1.0
 20
0.0
 30
0.0
  9
$UCSYDIR
 10
0.0
 20
1.0
 30
0.0
  9
$UCSORTHOREF
  2

  9
$UCSORTHOVIEW
 70
     0
  9
$UCSORGTOP
 10
0.0
 20
0.0
 30
0.0
  9
$UCSORGBOTTOM
 10
0.0
 20
0.0
 30
0.0
  9
$UCSORGLEFT
 10
0.0
 20
0.0
 30
0.0
  9
$UCSORGRIGHT
 10
0.0
 20
0.0
 30
0.0
  9
$UCSORGFRONT
 10
0.0
 20
0.0
 30
0.0
  9
$UCSORGBACK
 10
0.0
 20
0.0
 30
0.0
  9
$PUCSBASE
  2

  9
$PUCSNAME
  2

  9
$PUCSORG
 10
0.0
 20
0.0
 30
0.0
  9
$PUCSXDIR
 10
1.0
 20
0.0
 30
0.0
  9
$PUCSYDIR
 10
0.0
 20
1.0
 30
0.0
  9
$PUCSORTHOREF
  2

  9
$PUCSORTHOVIEW
 70
     0
  9
$PUCSORGTOP
 10
0.0
 20
0.0
 30
0.0
  9
$PUCSORGBOTTOM
 10
0.0
 20
0.0
 30
0.0
  9
$PUCSORGLEFT
 10
0.0
 20
0.0
 30
0.0
  9
$PUCSORGRIGHT
 10
0.0
 20
0.0
 30
0.0
  9
$PUCSORGFRONT
 10
0.0
 20
0.0
 30
0.0
  9
$PUCSORGBACK
 10
0.0
 20
0.0
 30
0.0
  9
$USERI1
 70
     0
  9
$USERI2
 70
     0
  9
$USERI3
 70
     0
  9
$USERI4
 70
     0
  9
$USERI5
 70
     0
  9
$USERR1
 40
0.0
  9
$USERR2
 40
0.0
  9
$USERR3
 40
0.0
  9
$USERR4
 40
0.0
  9
$USERR5
 40
0.0
  9
$WORLDVIEW
 70
     1
  9
$SHADEDGE
 70
     3
  9
$SHADEDIF
 70
    70
  9
$TILEMODE
 70
     1
  9
$MAXACTVP
 70
    64
  9
$PINSBASE
 10
0.0
 20
0.0
 30
0.0
  9
$PLIMCHECK
 70
     0
  9
$PEXTMIN
 10
1.000000000000000E+20
 20
1.000000000000000E+20
 30
1.000000000000000E+20
  9
$PEXTMAX
 10
-1.000000000000000E+20
 20
-1.000000000000000E+20
 30
-1.000000000000000E+20
  9
$PLIMMIN
 10
0.0
 20
0.0
  9
$PLIMMAX
 10
420.0
 20
297.0
  9
$UNITMODE
 70
     0
  9
$VISRETAIN
 70
     1
  9
$PLINEGEN
 70
     0
  9
$PSLTSCALE
 70
     1
  9
$TREEDEPTH
 70
  3020
  9
$CMLSTYLE
  2
Standard
  9
$CMLJUST
 70
     0
  9
$CMLSCALE
 40
20.0
  9
$PROXYGRAPHICS
 70
     1
  9
$MEASUREMENT
 70
     1
  9
$CELWEIGHT
370
    -1
  9
$ENDCAPS
280
     0
  9
$JOINSTYLE
280
     0
  9
$LWDISPLAY
290
     0
  9
$INSUNITS
 70
     4
  9
$HYPERLINKBASE
  1

  9
$STYLESHEET
  1

  9
$XEDIT
290
     1
  9
$CEPSNTYPE
380
     0
  9
$PSTYLEMODE
290
     1
  9
$FINGERPRINTGUID
  2
{3D19CC25-27BA-4BA3-8EB5-AAC90CE895AA}
  9
$VERSIONGUID
  2
{B1188D1B-BBB9-47E9-8F85-0D213A34D4DF}
  9
$EXTNAMES
290
     1
  9
$PSVPSCALE
 40
0.0
  9
$OLESTARTUP
290
     0
  0
ENDSEC
  0
SECTION
  2
CLASSES
  0
CLASS
  1
ACDBDICTIONARYWDFLT
  2
AcDbDictionaryWithDefault
  3
ObjectDBX Classes
 90
        0
280
     0
281
     0
  0
CLASS
  1
VISUALSTYLE
  2
AcDbVisualStyle
  3
ObjectDBX Classes
 90
     4095
280
     0
281
     0
  0
CLASS
  1
MATERIAL
  2
AcDbMaterial
  3
ObjectDBX Classes
 90
     1153
280
     0
281
     0
  0
CLASS
  1
SCALE
  2
AcDbScale
  3
ObjectDBX Classes
 90
     1153
280
     0
281
     0
  0
CLASS
  1
TABLESTYLE
  2
AcDbTableStyle
  3
ObjectDBX Classes
 90
     4095
280
     0
281
     0
  0
CLASS
  1
MLEADERSTYLE
  2
AcDbMLeaderStyle
  3
ACDB_MLEADERSTYLE_CLASS
 90
     4095
280
     0
281
     0
  0
CLASS
  1
SUN
  2
AcDbSun
  3
SCENEOE
 90
    33921
280
     0
281
     0
  0
CLASS
  1
DICTIONARYVAR
  2
AcDbDictionaryVar
  3
ObjectDBX Classes
 90
        0
280
     0
281
     0
  0
CLASS
  1
ACDBSECTIONVIEWSTYLE
  2
AcDbSectionViewStyle
  3
ObjectDBX Classes
 90
     1025
280
     0
281
     0
  0
CLASS
  1
ACDBDETAILVIEWSTYLE
  2
AcDbDetailViewStyle
  3
ObjectDBX Classes
 90
     1025
280
     0
281
     0
  0
CLASS
  1
SORTENTSTABLE
  2
AcDbSortentsTable
  3
ObjectDBX Classes
 90
        0
280
     0
281
     0
  0
CLASS
  1
CELLSTYLEMAP
  2
AcDbCellStyleMap
  3
ObjectDBX Classes
 90
     1152
280
     0
281
     0
  0
CLASS
  1
ACDBPLACEHOLDER
  2
AcDbPlaceHolder
  3
ObjectDBX Classes
 90
        0
280
     0
281
     0
  0
CLASS
  1
LAYOUT
  2
AcDbLayout
  3
ObjectDBX Classes
 90
        0
280
     0
281
     0
  0
ENDSEC
  0
SECTION
  2
TABLES
  0
TABLE
  2
VPORT
  5
8
330
0
100
AcDbSymbolTable
 70
     1
  0
VPORT
  5
29
330
8
100
AcDbSymbolTableRecord
100
AcDbViewportTableRecord
  2
*Active
 70
     0
 10
0.0
 20
0.0
 11
1.0
 21
1.0
 12
1460.777153100644
 22
621.2917185309233
 13
0.0
 23
0.0
 14
10.0
 24
10.0
 15
10.0
 25
10.0
 16
0.0
 26
0.0
 36
1.0
 17
0.0
 27
0.0
 37
0.0
 40
1584.901292286118
 41
2.204301075268817
 42
50.0
 43
0.0
 44
0.0
 50
0.0
 51
0.0
 71
     0
 72
 20000
 73
     1
 74
     3
 75
     0
 76
     0
 77
     0
 78
     0
281
     0
 65
     1
110
0.0
120
0.0
130
0.0
111
1.0
121
0.0
131
0.0
112
0.0
122
1.0
132
0.0
 79
     0
146
0.0
1001
ACAD_NAV_VCDISPLAY
1070
     3
  0
ENDTAB
  0
TABLE
  2
LTYPE
  5
5
330
0
100
AcDbSymbolTable
 70
     2
  0
LTYPE
  5
14
330
5
100
AcDbSymbolTableRecord
100
AcDbLinetypeTableRecord
  2
ByBlock
 70
     0
  3

 72
    65
 73
     0
 40
0.0
  0
LTYPE
  5
15
330
5
100
AcDbSymbolTableRecord
100
AcDbLinetypeTableRecord
  2
ByLayer
 70
     0
  3

 72
    65
 73
     0
 40
0.0
  0
LTYPE
  5
16
330
5
100
AcDbSymbolTableRecord
100
AcDbLinetypeTableRecord
  2
Continuous
 70
     0
  3
Solid line
 72
    65
 73
     0
 40
0.0
  0
LTYPE
  5
28A
330
5
100
AcDbSymbolTableRecord
100
AcDbLinetypeTableRecord
  2
CENTER2
 70
     0
  3
Center (.5x) ___ _ ___ _ ___ _ ___ _ ___ _ ___
 72
    65
 73
     4
 40
28.575
 49
19.05
 74
     0
 49
-3.174999999999998
 74
     0
 49
3.174999999999998
 74
     0
 49
-3.174999999999998
 74
     0
  0
ENDTAB
  0
TABLE
  2
LAYER
  5
2
102
{ACAD_XDICTIONARY
360
290
102
}
330
0
100
AcDbSymbolTable
 70
     4
  0
LAYER
  5
10
102
{ACAD_XDICTIONARY
360
566
102
}
330
2
100
AcDbSymbolTableRecord
100
AcDbLayerTableRecord
  2
0
 70
     0
 62
     7
  6
Continuous
370
    -3
390
F
  0
LAYER
  5
66
330
2
100
AcDbSymbolTableRecord
100
AcDbLayerTableRecord
  2
Defpoints
 70
     0
 62
     7
  6
Continuous
290
     0
370
    -3
390
F
  0
LAYER
  5
28B
102
{ACAD_XDICTIONARY
360
28C
102
}
330
2
100
AcDbSymbolTableRecord
100
AcDbLayerTableRecord
  2
中心線
 70
     0
 62
     3
  6
CENTER2
370
    -3
390
F
  0
LAYER
  5
28D
102
{ACAD_XDICTIONARY
360
28E
102
}
330
2
100
AcDbSymbolTableRecord
100
AcDbLayerTableRecord
  2
実線
 70
     0
 62
     7
  6
Continuous
370
    -3
390
F
  0
ENDTAB
  0
TABLE
  2
STYLE
  5
3
330
0
100
AcDbSymbolTable
 70
     1
  0
STYLE
  5
11
330
3
100
AcDbSymbolTableRecord
100
AcDbTextStyleTableRecord
  2
Standard
 70
     0
 40
0.0
 41
1.0
 50
0.0
 71
     0
 42
2.5
  3
txt
  4
extfont2
  0
ENDTAB
  0
TABLE
  2
VIEW
  5
6
330
0
100
AcDbSymbolTable
 70
     0
  0
ENDTAB
  0
TABLE
  2
UCS
  5
7
330
0
100
AcDbSymbolTable
 70
     0
  0
ENDTAB
  0
TABLE
  2
APPID
  5
9
330
0
100
AcDbSymbolTable
 70
     4
  0
APPID
  5
12
330
9
100
AcDbSymbolTableRecord
100
AcDbRegAppTableRecord
  2
ACAD
 70
     0
  0
APPID
  5
27A
330
9
100
AcDbSymbolTableRecord
100
AcDbRegAppTableRecord
  2
ACAD_MLEADERVER
 70
     0
  0
APPID
  5
28F
330
9
100
AcDbSymbolTableRecord
100
AcDbRegAppTableRecord
  2
ACAD_NAV_VCDISPLAY
 70
     0
  0
APPID
  5
553
330
9
100
AcDbSymbolTableRecord
100
AcDbRegAppTableRecord
  2
ACAD_EXEMPT_FROM_CAD_STANDARDS
 70
     0
  0
ENDTAB
  0
TABLE
  2
DIMSTYLE
  5
A
330
0
100
AcDbSymbolTable
 70
     1
100
AcDbDimStyleTable
 71
     1
340
27
  0
DIMSTYLE
105
27
330
A
100
AcDbSymbolTableRecord
100
AcDbDimStyleTableRecord
  2
Standard
 70
     0
 41
2.5
 42
0.625
 43
3.75
 44
1.25
 73
     0
 74
     0
 77
     1
140
2.5
141
2.5
143
0.03937007874016
146
0.75
147
0.625
171
     3
172
     1
271
     2
272
     2
274
     3
283
     0
284
     8
340
11
  0
ENDTAB
  0
TABLE
  2
BLOCK_RECORD
  5
1
330
0
100
AcDbSymbolTable
 70
     1
  0
BLOCK_RECORD
  5
1F
102
{ACAD_XDICTIONARY
360
3C5
102
}
330
1
100
AcDbSymbolTableRecord
100
AcDbBlockTableRecord
  2
*Model_Space
340
22
  0
BLOCK_RECORD
  5
1B
330
1
100
AcDbSymbolTableRecord
100
AcDbBlockTableRecord
  2
*Paper_Space
340
1E
  0
BLOCK_RECORD
  5
23
330
1
100
AcDbSymbolTableRecord
100
AcDbBlockTableRecord
  2
*Paper_Space0
340
284
  0
ENDTAB
  0
ENDSEC
  0
SECTION
  2
BLOCKS
  0
BLOCK
  5
20
330
1F
100
AcDbEntity
  8
0
100
AcDbBlockBegin
  2
*Model_Space
 70
     0
 10
0.0
 20
0.0
 30
0.0
  3
*Model_Space
  1

  0
ENDBLK
  5
21
330
1F
100
AcDbEntity
  8
0
100
AcDbBlockEnd
  0
BLOCK
  5
1C
330
1B
100
AcDbEntity
 67
     1
  8
0
100
AcDbBlockBegin
  2
*Paper_Space
 70
     0
 10
0.0
 20
0.0
 30
0.0
  3
*Paper_Space
  1

  0
ENDBLK
  5
1D
330
1B
100
AcDbEntity
 67
     1
  8
0
100
AcDbBlockEnd
  0
BLOCK
  5
24
330
23
100
AcDbEntity
 67
     1
  8
0
100
AcDbBlockBegin
  2
*Paper_Space0
 70
     0
 10
0.0
 20
0.0
 30
0.0
  3
*Paper_Space0
  1

  0
ENDBLK
  5
25
330
23
100
AcDbEntity
 67
     1
  8
0
100
AcDbBlockEnd
  0
ENDSEC
  0
SECTION
  2
ENTITIES
  0
ARC
  5
396
102
{ACAD_REACTORS
330
565
102
}
330
1F
100
AcDbEntity
  8
実線
100
AcDbCircle
 10
493.7831542008365
 20
120.131145196938
 30
0.0
 40
90.0
100
AcDbArc
 50
54.19291909881334
 51
125.8070809011867
  0
ARC
  5
397
102
{ACAD_REACTORS
330
565
102
}
330
1F
100
AcDbEntity
  8
実線
100
AcDbCircle
 10
493.7831542008365
 20
120.131145196938
 30
0.0
 40
90.0
100
AcDbArc
 50
144.1929190988143
 51
154.9196460511373
  0
ARC
  5
398
102
{ACAD_REACTORS
330
565
102
}
330
1F
100
AcDbEntity
  8
実線
100
AcDbCircle
 10
493.7831542008365
 20
120.131145196938
 30
0.0
 40
90.0
100
AcDbArc
 50
205.0803539488627
 51
215.8070809011857
  0
ARC
  5
399
102
{ACAD_REACTORS
330
565
102
}
330
1F
100
AcDbEntity
  8
実線
100
AcDbCircle
 10
493.7831542008365
 20
120.131145196938
 30
0.0
 40
90.0
100
AcDbArc
 50
234.1929190988133
 51
305.8070809011867
  0
ARC
  5
39A
102
{ACAD_REACTORS
330
565
102
}
330
1F
100
AcDbEntity
  8
実線
100
AcDbCircle
 10
493.7831542008365
 20
120.131145196938
 30
0.0
 40
90.0
100
AcDbArc
 50
324.1929190988143
 51
334.9196460511373
  0
ARC
  5
39B
102
{ACAD_REACTORS
330
565
102
}
330
1F
100
AcDbEntity
  8
実線
100
AcDbCircle
 10
493.7831542008365
 20
120.131145196938
 30
0.0
 40
90.0
100
AcDbArc
 50
25.08035394886265
 51
35.80708090118572
  0
LINE
  5
39C
102
{ACAD_REACTORS
330
565
102
}
330
1F
100
AcDbEntity
  8
実線
100
AcDbLine
 10
597.9831542008366
 20
158.281145196938
 30
0.0
 11
546.4099297053265
 21
158.281145196938
 31
0.0
  0
LINE
  5
39D
102
{ACAD_REACTORS
330
565
102
}
330
1F
100
AcDbEntity
  8
実線
100
AcDbLine
 10
546.4099297053265
 20
81.98114519693808
 30
0.0
 11
597.9831542008366
 21
81.98114519693808
 31
0.0
  0
LINE
  5
39E
102
{ACAD_REACTORS
330
565
102
}
330
1F
100
AcDbEntity
  8
実線
100
AcDbLine
 10
603.7831542008365
 20
165.631145196938
 30
0.0
 11
600.9331542008364
 21
165.631145196938
 31
0.0
  0
LINE
  5
39F
102
{ACAD_REACTORS
330
565
102
}
330
1F
100
AcDbEntity
  8
実線
100
AcDbLine
 10
600.9331542008364
 20
74.63114519693807
 30
0.0
 11
603.7831542008365
 21
74.63114519693807
 31
0.0
  0
LINE
  5
3A0
102
{ACAD_REACTORS
330
565
102
}
330
1F
100
AcDbEntity
  8
実線
100
AcDbLine
 10
603.7831542008365
 20
74.63114519693807
 30
0.0
 11
603.7831542008365
 21
165.631145196938
 31
0.0
  0
LINE
  5
3A1
102
{ACAD_REACTORS
330
565
102
}
330
1F
100
AcDbEntity
  8
実線
100
AcDbLine
 10
597.9831542008366
 20
81.98114519693808
 30
0.0
 11
600.9331542008364
 21
74.63114519693807
 31
0.0
  0
LINE
  5
3A2
102
{ACAD_REACTORS
330
565
102
}
330
1F
100
AcDbEntity
  8
実線
100
AcDbLine
 10
600.9331542008364
 20
165.631145196938
 30
0.0
 11
597.9831542008366
 21
158.281145196938
 31
0.0
  0
LINE
  5
3A3
102
{ACAD_REACTORS
330
565
102
}
330
1F
100
AcDbEntity
  8
実線
100
AcDbLine
 10
600.9331542008364
 20
74.63114519693807
 30
0.0
 11
600.9331542008364
 21
165.631145196938
 31
0.0
  0
LINE
  5
3A4
102
{ACAD_REACTORS
330
565
102
}
330
1F
100
AcDbEntity
  8
実線
100
AcDbLine
 10
597.9831542008366
 20
81.98114519693808
 30
0.0
 11
597.9831542008366
 21
158.281145196938
 31
0.0
  0
LINE
  5
3A5
102
{ACAD_REACTORS
330
565
102
}
330
1F
100
AcDbEntity
  8
実線
100
AcDbLine
 10
389.5831542008362
 20
81.98114519693438
 30
0.0
 11
441.156378696349
 21
81.98114519693438
 31
0.0
  0
LINE
  5
3A6
102
{ACAD_REACTORS
330
565
102
}
330
1F
100
AcDbEntity
  8
実線
100
AcDbLine
 10
441.1563786963438
 20
158.2811451969344
 30
0.0
 11
389.5831542008362
 21
158.2811451969344
 31
0.0
  0
LINE
  5
3A7
102
{ACAD_REACTORS
330
565
102
}
330
1F
100
AcDbEntity
  8
実線
100
AcDbLine
 10
389.5831542008362
 20
158.2811451969344
 30
0.0
 11
386.6331542008361
 21
165.6311451969344
 31
0.0
  0
LINE
  5
3A8
102
{ACAD_REACTORS
330
565
102
}
330
1F
100
AcDbEntity
  8
実線
100
AcDbLine
 10
386.6331542008361
 20
74.63114519693442
 30
0.0
 11
389.5831542008362
 21
81.98114519693438
 31
0.0
  0
LINE
  5
3A9
102
{ACAD_REACTORS
330
565
102
}
330
1F
100
AcDbEntity
  8
実線
100
AcDbLine
 10
389.5831542008362
 20
158.2811451969344
 30
0.0
 11
389.5831542008362
 21
81.98114519693438
 31
0.0
  0
LINE
  5
3AA
102
{ACAD_REACTORS
330
565
102
}
330
1F
100
AcDbEntity
  8
実線
100
AcDbLine
 10
383.7831542008361
 20
74.63114519693442
 30
0.0
 11
386.6331542008361
 21
74.63114519693442
 31
0.0
  0
LINE
  5
3AB
102
{ACAD_REACTORS
330
565
102
}
330
1F
100
AcDbEntity
  8
実線
100
AcDbLine
 10
386.6331542008361
 20
165.6311451969344
 30
0.0
 11
383.7831542008361
 21
165.6311451969344
 31
0.0
  0
LINE
  5
3AC
102
{ACAD_REACTORS
330
565
102
}
330
1F
100
AcDbEntity
  8
実線
100
AcDbLine
 10
383.7831542008361
 20
165.6311451969344
 30
0.0
 11
383.7831542008361
 21
74.63114519693442
 31
0.0
  0
LINE
  5
3AD
102
{ACAD_REACTORS
330
565
102
}
330
1F
100
AcDbEntity
  8
実線
100
AcDbLine
 10
386.6331542008361
 20
165.6311451969344
 30
0.0
 11
386.6331542008361
 21
74.63114519693442
 31
0.0
  0
CIRCLE
  5
3AE
102
{ACAD_REACTORS
330
565
102
}
330
1F
100
AcDbEntity
  8
実線
100
AcDbCircle
 10
493.7831542008365
 20
120.131145196938
 30
0.0
 40
45.49999999999999
  0
ARC
  5
3AF
102
{ACAD_REACTORS
330
565
102
}
330
1F
100
AcDbEntity
  8
実線
100
AcDbCircle
 10
493.783154200836
 20
120.1311451969344
 30
0.0
 40
96.50000000000281
100
AcDbArc
 50
44.08251418488059
 51
45.91748581512631
  0
ARC
  5
3B0
102
{ACAD_REACTORS
330
565
102
}
330
1F
100
AcDbEntity
  8
実線
100
AcDbCircle
 10
552.3277538903032
 20
176.8301738235388
 30
0.0
 40
15.00000000000002
100
AcDbArc
 50
325.0000000000026
 51
44.08251418487599
  0
LINE
  5
3B1
102
{ACAD_REACTORS
330
565
102
}
330
1F
100
AcDbEntity
  8
実線
100
AcDbLine
 10
564.6150345546381
 20
168.226527278273
 30
0.0
 11
557.6512030509116
 21
158.281145196938
 31
0.0
  0
LINE
  5
3B2
102
{ACAD_REACTORS
330
565
102
}
330
1F
100
AcDbEntity
  8
実線
100
AcDbLine
 10
523.3731577884453
 20
178.0054200320087
 30
0.0
 11
541.8785362821715
 21
190.9630255507397
 31
0.0
  0
ARC
  5
3B3
102
{ACAD_REACTORS
330
565
102
}
330
1F
100
AcDbEntity
  8
実線
100
AcDbCircle
 10
550.4821828274369
 20
178.6757448864048
 30
0.0
 40
14.99999999999996
100
AcDbArc
 50
45.91748581512171
 51
124.9999999999974
  0
ARC
  5
3B4
102
{ACAD_REACTORS
330
565
102
}
330
1F
100
AcDbEntity
  8
実線
100
AcDbCircle
 10
437.0841255742357
 20
61.58654550747133
 30
0.0
 40
14.99999999999999
100
AcDbArc
 50
225.9174858151217
 51
304.9999999999974
  0
ARC
  5
3B5
102
{ACAD_REACTORS
330
565
102
}
330
1F
100
AcDbEntity
  8
実線
100
AcDbCircle
 10
493.783154200836
 20
120.1311451969344
 30
0.0
 40
96.49999999999705
100
AcDbArc
 50
224.082514184876
 51
225.9174858151171
  0
ARC
  5
3B6
102
{ACAD_REACTORS
330
565
102
}
330
1F
100
AcDbEntity
  8
実線
100
AcDbCircle
 10
435.2385545113698
 20
63.43211657033737
 30
0.0
 40
14.99999999999991
100
AcDbArc
 50
145.0000000000026
 51
224.082514184876
  0
LINE
  5
3B7
102
{ACAD_REACTORS
330
565
102
}
330
1F
100
AcDbEntity
  8
実線
100
AcDbLine
 10
422.9512738470349
 20
72.03576311560301
 30
0.0
 11
429.9151053507589
 21
81.98114519693438
 31
0.0
  0
LINE
  5
3B8
102
{ACAD_REACTORS
330
565
102
}
330
1F
100
AcDbEntity
  8
実線
100
AcDbLine
 10
464.1931506132277
 20
62.25687036186736
 30
0.0
 11
445.6877721195016
 21
49.29926484313637
 31
0.0
  0
ARC
  5
3B9
102
{ACAD_REACTORS
330
565
102
}
330
1F
100
AcDbEntity
  8
実線
100
AcDbCircle
 10
552.3277538903033
 20
63.43211657033737
 30
0.0
 40
15.00000000000001
100
AcDbArc
 50
315.917485815124
 51
34.99999999999737
  0
ARC
  5
3BA
102
{ACAD_REACTORS
330
565
102
}
330
1F
100
AcDbEntity
  8
実線
100
AcDbCircle
 10
493.7831542008361
 20
120.1311451969344
 30
0.0
 40
96.49999999999771
100
AcDbArc
 50
314.0825141848829
 51
315.917485815124
  0
ARC
  5
3BB
102
{ACAD_REACTORS
330
565
102
}
330
1F
100
AcDbEntity
  8
実線
100
AcDbCircle
 10
550.4821828274372
 20
61.58654550747133
 30
0.0
 40
15.0000000000001
100
AcDbArc
 50
235.0000000000026
 51
314.0825141848783
  0
LINE
  5
3BC
102
{ACAD_REACTORS
330
565
102
}
330
1F
100
AcDbEntity
  8
実線
100
AcDbLine
 10
541.8785362821715
 20
49.29926484313637
 30
0.0
 11
523.3731577884453
 21
62.25687036186736
 31
0.0
  0
LINE
  5
3BD
102
{ACAD_REACTORS
330
565
102
}
330
1F
100
AcDbEntity
  8
実線
100
AcDbLine
 10
557.6512030509116
 20
81.98114519693808
 30
0.0
 11
564.6150345546381
 21
72.03576311560311
 31
0.0
  0
ARC
  5
3BE
102
{ACAD_REACTORS
330
565
102
}
330
1F
100
AcDbEntity
  8
実線
100
AcDbCircle
 10
437.0841255742357
 20
178.6757448864048
 30
0.0
 40
14.99999999999994
100
AcDbArc
 50
55.00000000000264
 51
134.0825141848783
  0
LINE
  5
3BF
102
{ACAD_REACTORS
330
565
102
}
330
1F
100
AcDbEntity
  8
実線
100
AcDbLine
 10
445.6877721195016
 20
190.9630255507397
 30
0.0
 11
464.1931506132277
 21
178.0054200320087
 31
0.0
  0
ARC
  5
3C0
102
{ACAD_REACTORS
330
565
102
}
330
1F
100
AcDbEntity
  8
実線
100
AcDbCircle
 10
493.7831542008365
 20
120.1311451969344
 30
0.0
 40
96.50000000000247
100
AcDbArc
 50
134.0825141848736
 51
135.9174858151194
  0
ARC
  5
3C1
102
{ACAD_REACTORS
330
565
102
}
330
1F
100
AcDbEntity
  8
実線
100
AcDbCircle
 10
435.2385545113698
 20
176.8301738235388
 30
0.0
 40
15.0
100
AcDbArc
 50
135.917485815124
 51
214.9999999999974
  0
LINE
  5
3C2
102
{ACAD_REACTORS
330
565
102
}
330
1F
100
AcDbEntity
  8
実線
100
AcDbLine
 10
429.9151053507638
 20
158.2811451969344
 30
0.0
 11
422.9512738470349
 21
168.226527278273
 31
0.0
  0
ARC
  5
3C3
102
{ACAD_REACTORS
330
565
102
}
330
1F
100
AcDbEntity
  8
実線
100
AcDbCircle
 10
493.7831542008365
 20
120.131145196938
 30
0.0
 40
65.0
100
AcDbArc
 50
204.0038484424421
 51
335.9961515575651
  0
ARC
  5
3C4
102
{ACAD_REACTORS
330
565
102
}
330
1F
100
AcDbEntity
  8
実線
100
AcDbCircle
 10
493.7831542008365
 20
120.131145196938
 30
0.0
 40
65.0
100
AcDbArc
 50
24.00384844243486
 51
155.9961515575651
  0
CIRCLE
  5
3C7
102
{ACAD_REACTORS
330
5F8
102
}
330
1F
100
AcDbEntity
  8
実線
100
AcDbCircle
 10
493.7831542008365
 20
1140.131145196931
 30
0.0
 40
90.0
  0
LINE
  5
3C8
102
{ACAD_REACTORS
330
5F8
102
}
330
1F
100
AcDbEntity
  8
実線
100
AcDbLine
 10
597.9831542008366
 20
1178.281145196931
 30
0.0
 11
575.2974320912775
 21
1178.281145196931
 31
0.0
  0
LINE
  5
3C9
102
{ACAD_REACTORS
330
5F8
102
}
330
1F
100
AcDbEntity
  8
実線
100
AcDbLine
 10
575.2974320912775
 20
1101.981145196931
 30
0.0
 11
597.9831542008366
 21
1101.981145196931
 31
0.0
  0
LINE
  5
3CA
102
{ACAD_REACTORS
330
5F8
102
}
330
1F
100
AcDbEntity
  8
実線
100
AcDbLine
 10
603.7831542008365
 20
1185.631145196931
 30
0.0
 11
603.7831542008365
 21
1094.631145196931
 31
0.0
  0
LINE
  5
3CB
102
{ACAD_REACTORS
330
5F8
102
}
330
1F
100
AcDbEntity
  8
実線
100
AcDbLine
 10
603.7831542008365
 20
1185.631145196931
 30
0.0
 11
600.9331542008364
 21
1185.631145196931
 31
0.0
  0
LINE
  5
3CC
102
{ACAD_REACTORS
330
5F8
102
}
330
1F
100
AcDbEntity
  8
実線
100
AcDbLine
 10
600.9331542008364
 20
1094.631145196931
 30
0.0
 11
603.7831542008365
 21
1094.631145196931
 31
0.0
  0
LINE
  5
3CD
102
{ACAD_REACTORS
330
5F8
102
}
330
1F
100
AcDbEntity
  8
実線
100
AcDbLine
 10
600.9331542008364
 20
1185.631145196931
 30
0.0
 11
600.9331542008364
 21
1094.631145196931
 31
0.0
  0
LINE
  5
3CE
102
{ACAD_REACTORS
330
5F8
102
}
330
1F
100
AcDbEntity
  8
実線
100
AcDbLine
 10
597.9831542008366
 20
1178.281145196931
 30
0.0
 11
597.9831542008366
 21
1101.981145196931
 31
0.0
  0
LINE
  5
3CF
102
{ACAD_REACTORS
330
5F8
102
}
330
1F
100
AcDbEntity
  8
実線
100
AcDbLine
 10
597.9831542008366
 20
1101.981145196931
 30
0.0
 11
600.9331542008364
 21
1094.631145196931
 31
0.0
  0
LINE
  5
3D0
102
{ACAD_REACTORS
330
5F8
102
}
330
1F
100
AcDbEntity
  8
実線
100
AcDbLine
 10
600.9331542008364
 20
1185.631145196931
 30
0.0
 11
597.9831542008366
 21
1178.281145196931
 31
0.0
  0
LINE
  5
3D1
102
{ACAD_REACTORS
330
5F8
102
}
330
1F
100
AcDbEntity
  8
実線
100
AcDbLine
 10
389.5831542008362
 20
1101.981145196934
 30
0.0
 11
412.2688763103941
 21
1101.981145196934
 31
0.0
  0
LINE
  5
3D2
102
{ACAD_REACTORS
330
5F8
102
}
330
1F
100
AcDbEntity
  8
実線
100
AcDbLine
 10
412.2688763103974
 20
1178.281145196934
 30
0.0
 11
389.5831542008362
 21
1178.281145196934
 31
0.0
  0
LINE
  5
3D3
102
{ACAD_REACTORS
330
5F8
102
}
330
1F
100
AcDbEntity
  8
実線
100
AcDbLine
 10
383.7831542008361
 20
1094.631145196935
 30
0.0
 11
383.7831542008361
 21
1185.631145196934
 31
0.0
  0
LINE
  5
3D4
102
{ACAD_REACTORS
330
5F8
102
}
330
1F
100
AcDbEntity
  8
実線
100
AcDbLine
 10
383.7831542008361
 20
1094.631145196935
 30
0.0
 11
386.6331542008361
 21
1094.631145196935
 31
0.0
  0
LINE
  5
3D5
102
{ACAD_REACTORS
330
5F8
102
}
330
1F
100
AcDbEntity
  8
実線
100
AcDbLine
 10
386.6331542008361
 20
1185.631145196934
 30
0.0
 11
383.7831542008361
 21
1185.631145196934
 31
0.0
  0
LINE
  5
3D6
102
{ACAD_REACTORS
330
5F8
102
}
330
1F
100
AcDbEntity
  8
実線
100
AcDbLine
 10
386.6331542008361
 20
1094.631145196935
 30
0.0
 11
386.6331542008361
 21
1185.631145196934
 31
0.0
  0
LINE
  5
3D7
102
{ACAD_REACTORS
330
5F8
102
}
330
1F
100
AcDbEntity
  8
実線
100
AcDbLine
 10
389.5831542008362
 20
1101.981145196934
 30
0.0
 11
389.5831542008362
 21
1178.281145196934
 31
0.0
  0
LINE
  5
3D8
102
{ACAD_REACTORS
330
5F8
102
}
330
1F
100
AcDbEntity
  8
実線
100
AcDbLine
 10
389.5831542008362
 20
1178.281145196934
 30
0.0
 11
386.6331542008361
 21
1185.631145196934
 31
0.0
  0
LINE
  5
3D9
102
{ACAD_REACTORS
330
5F8
102
}
330
1F
100
AcDbEntity
  8
実線
100
AcDbLine
 10
386.6331542008361
 20
1094.631145196935
 30
0.0
 11
389.5831542008362
 21
1101.981145196934
 31
0.0
  0
LINE
  5
3DA
102
{ACAD_REACTORS
330
5F8
102
}
330
1F
100
AcDbEntity
  8
実線
100
AcDbLine
 10
523.0831542008366
 20
1167.131145196931
 30
0.0
 11
520.0831542008366
 21
1167.131145196931
 31
0.0
  0
LINE
  5
3DB
102
{ACAD_REACTORS
330
5F8
102
}
330
1F
100
AcDbEntity
  8
実線
100
AcDbLine
 10
523.0831542008366
 20
1160.631145196931
 30
0.0
 11
523.0831542008366
 21
1167.131145196931
 31
0.0
  0
LINE
  5
3DC
102
{ACAD_REACTORS
330
5F8
102
}
330
1F
100
AcDbEntity
  8
実線
100
AcDbLine
 10
520.0831542008366
 20
1167.131145196931
 30
0.0
 11
520.0831542008366
 21
1160.631145196931
 31
0.0
  0
LINE
  5
3DD
102
{ACAD_REACTORS
330
5F8
102
}
330
1F
100
AcDbEntity
  8
実線
100
AcDbLine
 10
517.8831542008365
 20
1135.631145196931
 30
0.0
 11
517.8831542008365
 21
1160.631145196931
 31
0.0
  0
LINE
  5
3DE
102
{ACAD_REACTORS
330
5F8
102
}
330
1F
100
AcDbEntity
  8
実線
100
AcDbLine
 10
517.8831542008365
 20
1135.631145196931
 30
0.0
 11
525.2831542008364
 21
1135.631145196931
 31
0.0
  0
LINE
  5
3DF
102
{ACAD_REACTORS
330
5F8
102
}
330
1F
100
AcDbEntity
  8
実線
100
AcDbLine
 10
525.2831542008364
 20
1160.631145196931
 30
0.0
 11
517.8831542008365
 21
1160.631145196931
 31
0.0
  0
LINE
  5
3E0
102
{ACAD_REACTORS
330
5F8
102
}
330
1F
100
AcDbEntity
  8
実線
100
AcDbLine
 10
527.2831542008365
 20
1135.631145196931
 30
0.0
 11
525.2831542008364
 21
1135.631145196931
 31
0.0
  0
LINE
  5
3E1
102
{ACAD_REACTORS
330
5F8
102
}
330
1F
100
AcDbEntity
  8
実線
100
AcDbLine
 10
527.2831542008365
 20
1167.131145196931
 30
0.0
 11
527.2831542008365
 21
1135.631145196931
 31
0.0
  0
LINE
  5
3E2
102
{ACAD_REACTORS
330
5F8
102
}
330
1F
100
AcDbEntity
  8
実線
100
AcDbLine
 10
525.2831542008364
 20
1135.631145196931
 30
0.0
 11
525.2831542008364
 21
1167.131145196931
 31
0.0
  0
LINE
  5
3E3
102
{ACAD_REACTORS
330
5F8
102
}
330
1F
100
AcDbEntity
  8
実線
100
AcDbLine
 10
525.2831542008364
 20
1167.131145196931
 30
0.0
 11
551.2831542008365
 21
1167.131145196931
 31
0.0
  0
LINE
  5
3E4
102
{ACAD_REACTORS
330
5F8
102
}
330
1F
100
AcDbEntity
  8
実線
100
AcDbLine
 10
551.2831542008365
 20
1169.131145196931
 30
0.0
 11
551.2831542008365
 21
1167.131145196931
 31
0.0
  0
LINE
  5
3E5
102
{ACAD_REACTORS
330
5F8
102
}
330
1F
100
AcDbEntity
  8
実線
100
AcDbLine
 10
525.2831542008364
 20
1169.131145196931
 30
0.0
 11
551.2831542008365
 21
1169.131145196931
 31
0.0
  0
LINE
  5
3E6
102
{ACAD_REACTORS
330
5F8
102
}
330
1F
100
AcDbEntity
  8
実線
100
AcDbLine
 10
525.2831542008364
 20
1167.131145196931
 30
0.0
 11
525.2831542008364
 21
1169.131145196931
 31
0.0
  0
CIRCLE
  5
3E7
102
{ACAD_REACTORS
330
5F8
102
}
330
1F
100
AcDbEntity
  8
実線
100
AcDbCircle
 10
493.7831542008365
 20
1140.131145196931
 30
0.0
 40
23.0
  0
ARC
  5
3E8
102
{ACAD_REACTORS
330
5F8
102
}
330
1F
100
AcDbEntity
  8
実線
100
AcDbCircle
 10
550.4821828274369
 20
1081.586545507464
 30
0.0
 40
14.99999999999996
100
AcDbArc
 50
254.3602595820698
 51
314.0825141848783
  0
ARC
  5
3E9
102
{ACAD_REACTORS
330
5F8
102
}
330
1F
100
AcDbEntity
  8
実線
100
AcDbCircle
 10
493.783154200836
 20
1140.131145196934
 30
0.0
 40
96.50000000000281
100
AcDbArc
 50
314.0825141848737
 51
315.9174858151195
  0
ARC
  5
3EA
102
{ACAD_REACTORS
330
5F8
102
}
330
1F
100
AcDbEntity
  8
実線
100
AcDbCircle
 10
552.3277538903032
 20
1083.43211657033
 30
0.0
 40
15.00000000000002
100
AcDbArc
 50
315.917485815124
 51
15.63974041793022
  0
ARC
  5
3EB
102
{ACAD_REACTORS
330
5F8
102
}
330
1F
100
AcDbEntity
  8
実線
100
AcDbCircle
 10
435.2385545113698
 20
1083.43211657033
 30
0.0
 40
15.0
100
AcDbArc
 50
164.3602595820697
 51
224.082514184876
  0
ARC
  5
3EC
102
{ACAD_REACTORS
330
5F8
102
}
330
1F
100
AcDbEntity
  8
実線
100
AcDbCircle
 10
493.7831542008365
 20
1140.131145196934
 30
0.0
 40
96.50000000000247
100
AcDbArc
 50
224.0825141848806
 51
225.9174858151263
  0
ARC
  5
3ED
102
{ACAD_REACTORS
330
5F8
102
}
330
1F
100
AcDbEntity
  8
実線
100
AcDbCircle
 10
437.0841255742357
 20
1081.586545507464
 30
0.0
 40
14.99999999999994
100
AcDbArc
 50
225.9174858151217
 51
285.6397404179302
  0
ARC
  5
3EE
102
{ACAD_REACTORS
330
5F8
102
}
330
1F
100
AcDbEntity
  8
実線
100
AcDbCircle
 10
493.783154200836
 20
1140.131145196934
 30
0.0
 40
96.49999999999705
100
AcDbArc
 50
134.0825141848829
 51
135.917485815124
  0
ARC
  5
3EF
102
{ACAD_REACTORS
330
5F8
102
}
330
1F
100
AcDbEntity
  8
実線
100
AcDbCircle
 10
437.0841255742357
 20
1198.675744886398
 30
0.0
 40
14.99999999999999
100
AcDbArc
 50
74.36025958206977
 51
134.0825141848783
  0
ARC
  5
3F0
102
{ACAD_REACTORS
330
5F8
102
}
330
1F
100
AcDbEntity
  8
実線
100
AcDbCircle
 10
435.2385545113698
 20
1196.830173823531
 30
0.0
 40
14.99999999999991
100
AcDbArc
 50
135.917485815124
 51
195.6397404179302
  0
ARC
  5
3F1
102
{ACAD_REACTORS
330
5F8
102
}
330
1F
100
AcDbEntity
  8
実線
100
AcDbCircle
 10
552.3277538903033
 20
1196.830173823531
 30
0.0
 40
15.00000000000001
100
AcDbArc
 50
344.3602595820698
 51
44.08251418487599
  0
ARC
  5
3F2
102
{ACAD_REACTORS
330
5F8
102
}
330
1F
100
AcDbEntity
  8
実線
100
AcDbCircle
 10
493.7831542008361
 20
1140.131145196934
 30
0.0
 40
96.49999999999771
100
AcDbArc
 50
44.08251418487599
 51
45.9174858151171
  0
ARC
  5
3F3
102
{ACAD_REACTORS
330
5F8
102
}
330
1F
100
AcDbEntity
  8
実線
100
AcDbCircle
 10
550.4821828274372
 20
1198.675744886398
 30
0.0
 40
15.0000000000001
100
AcDbArc
 50
45.91748581512171
 51
105.6397404179302
  0
CIRCLE
  5
3F6
102
{ACAD_REACTORS
330
5F8
102
}
330
1F
100
AcDbEntity
  8
実線
100
AcDbCircle
 10
530.2831542008365
 20
1157.631145196931
 30
0.0
 40
2.75
  0
CIRCLE
  5
3F9
102
{ACAD_REACTORS
330
5F8
102
}
330
1F
100
AcDbEntity
  8
実線
100
AcDbCircle
 10
550.2831542008364
 20
1157.631145196931
 30
0.0
 40
2.75
  0
LINE
  5
3FA
102
{ACAD_REACTORS
330
5F8
102
}
330
1F
100
AcDbEntity
  8
実線
100
AcDbLine
 10
557.7831542008365
 20
1150.131145196931
 30
0.0
 11
527.2831542008365
 21
1150.131145196931
 31
0.0
  0
LINE
  5
3FB
102
{ACAD_REACTORS
330
5F8
102
}
330
1F
100
AcDbEntity
  8
実線
100
AcDbLine
 10
557.7831542008365
 20
1167.131145196931
 30
0.0
 11
557.7831542008365
 21
1150.131145196931
 31
0.0
  0
LINE
  5
3FC
102
{ACAD_REACTORS
330
5F8
102
}
330
1F
100
AcDbEntity
  8
実線
100
AcDbLine
 10
551.2831542008365
 20
1167.131145196931
 30
0.0
 11
557.7831542008365
 21
1167.131145196931
 31
0.0
  0
LINE
  5
3FD
102
{ACAD_REACTORS
330
5F8
102
}
330
1F
100
AcDbEntity
  8
実線
100
AcDbLine
 10
523.0831542008366
 20
1167.131145196931
 30
0.0
 11
525.2831542008364
 21
1167.131145196931
 31
0.0
  0
LINE
  5
3FE
102
{ACAD_REACTORS
330
560
102
}
330
1F
100
AcDbEntity
  8
実線
100
AcDbLine
 10
1303.783154200836
 20
752.1311451969381
 30
0.0
 11
1303.783154200836
 21
836.6311451969382
 31
0.0
  0
LINE
  5
3FF
102
{ACAD_REACTORS
330
560
102
}
330
1F
100
AcDbEntity
  8
実線
100
AcDbLine
 10
1123.783154200836
 20
836.6311451969382
 30
0.0
 11
1123.783154200836
 21
752.1311451969381
 31
0.0
  0
LINE
  5
400
102
{ACAD_REACTORS
330
560
102
}
330
1F
100
AcDbEntity
  8
実線
100
AcDbLine
 10
1123.783154200836
 20
752.1311451969381
 30
0.0
 11
1303.783154200836
 21
752.1311451969381
 31
0.0
  0
LINE
  5
401
102
{ACAD_REACTORS
330
560
102
}
330
1F
100
AcDbEntity
  8
実線
100
AcDbLine
 10
1303.783154200836
 20
743.1311451969381
 30
0.0
 11
1303.783154200836
 21
752.1311451969381
 31
0.0
  0
LINE
  5
402
102
{ACAD_REACTORS
330
560
102
}
330
1F
100
AcDbEntity
  8
実線
100
AcDbLine
 10
1123.783154200836
 20
752.1311451969381
 30
0.0
 11
1123.783154200836
 21
743.1311451969381
 31
0.0
  0
LINE
  5
403
102
{ACAD_REACTORS
330
560
102
}
330
1F
100
AcDbEntity
  8
実線
100
AcDbLine
 10
1303.783154200836
 20
743.1311451969381
 30
0.0
 11
1123.783154200836
 21
743.1311451969381
 31
0.0
  0
LINE
  5
404
102
{ACAD_REACTORS
330
560
102
}
330
1F
100
AcDbEntity
  8
実線
100
AcDbLine
 10
1109.583154200836
 20
381.9811451969382
 30
0.0
 11
1153.220129065962
 21
381.9811451969382
 31
0.0
  0
LINE
  5
405
102
{ACAD_REACTORS
330
560
102
}
330
1F
100
AcDbEntity
  8
実線
100
AcDbLine
 10
1140.23855451137
 20
458.2811451969381
 30
0.0
 11
1109.583154200836
 21
458.2811451969381
 31
0.0
  0
LINE
  5
406
102
{ACAD_REACTORS
330
560
102
}
330
1F
100
AcDbEntity
  8
実線
100
AcDbLine
 10
1109.583154200836
 20
458.2811451969381
 30
0.0
 11
1109.583154200836
 21
381.9811451969382
 31
0.0
  0
LINE
  5
407
102
{ACAD_REACTORS
330
560
102
}
330
1F
100
AcDbEntity
  8
実線
100
AcDbLine
 10
1109.583154200836
 20
458.2811451969381
 30
0.0
 11
1106.633154200836
 21
465.6311451969381
 31
0.0
  0
LINE
  5
408
102
{ACAD_REACTORS
330
560
102
}
330
1F
100
AcDbEntity
  8
実線
100
AcDbLine
 10
1106.633154200836
 20
374.6311451969382
 30
0.0
 11
1109.583154200836
 21
381.9811451969382
 31
0.0
  0
LINE
  5
409
102
{ACAD_REACTORS
330
560
102
}
330
1F
100
AcDbEntity
  8
実線
100
AcDbLine
 10
1103.783154200836
 20
465.6311451969381
 30
0.0
 11
1103.783154200836
 21
374.6311451969382
 31
0.0
  0
LINE
  5
40A
102
{ACAD_REACTORS
330
560
102
}
330
1F
100
AcDbEntity
  8
実線
100
AcDbLine
 10
1106.633154200836
 20
465.6311451969381
 30
0.0
 11
1106.633154200836
 21
374.6311451969382
 31
0.0
  0
LINE
  5
40B
102
{ACAD_REACTORS
330
560
102
}
330
1F
100
AcDbEntity
  8
実線
100
AcDbLine
 10
1103.783154200836
 20
374.6311451969382
 30
0.0
 11
1106.633154200836
 21
374.6311451969382
 31
0.0
  0
LINE
  5
40C
102
{ACAD_REACTORS
330
560
102
}
330
1F
100
AcDbEntity
  8
実線
100
AcDbLine
 10
1106.633154200836
 20
465.6311451969381
 30
0.0
 11
1103.783154200836
 21
465.6311451969381
 31
0.0
  0
LINE
  5
40D
102
{ACAD_REACTORS
330
560
102
}
330
1F
100
AcDbEntity
  8
実線
100
AcDbLine
 10
1317.983154200837
 20
458.2811451969381
 30
0.0
 11
1287.327753890304
 21
458.2811451969381
 31
0.0
  0
LINE
  5
40E
102
{ACAD_REACTORS
330
560
102
}
330
1F
100
AcDbEntity
  8
実線
100
AcDbLine
 10
1274.346179335712
 20
381.9811451969382
 30
0.0
 11
1317.983154200837
 21
381.9811451969382
 31
0.0
  0
LINE
  5
40F
102
{ACAD_REACTORS
330
560
102
}
330
1F
100
AcDbEntity
  8
実線
100
AcDbLine
 10
1317.983154200837
 20
381.9811451969382
 30
0.0
 11
1320.933154200838
 21
374.6311451969382
 31
0.0
  0
LINE
  5
410
102
{ACAD_REACTORS
330
560
102
}
330
1F
100
AcDbEntity
  8
実線
100
AcDbLine
 10
1320.933154200838
 20
465.6311451969381
 30
0.0
 11
1317.983154200837
 21
458.2811451969381
 31
0.0
  0
LINE
  5
411
102
{ACAD_REACTORS
330
560
102
}
330
1F
100
AcDbEntity
  8
実線
100
AcDbLine
 10
1317.983154200837
 20
381.9811451969382
 30
0.0
 11
1317.983154200837
 21
458.2811451969381
 31
0.0
  0
LINE
  5
412
102
{ACAD_REACTORS
330
560
102
}
330
1F
100
AcDbEntity
  8
実線
100
AcDbLine
 10
1323.783154200837
 20
465.6311451969381
 30
0.0
 11
1320.933154200838
 21
465.6311451969381
 31
0.0
  0
LINE
  5
413
102
{ACAD_REACTORS
330
560
102
}
330
1F
100
AcDbEntity
  8
実線
100
AcDbLine
 10
1320.933154200838
 20
374.6311451969382
 30
0.0
 11
1323.783154200837
 21
374.6311451969382
 31
0.0
  0
LINE
  5
414
102
{ACAD_REACTORS
330
560
102
}
330
1F
100
AcDbEntity
  8
実線
100
AcDbLine
 10
1323.783154200837
 20
465.6311451969381
 30
0.0
 11
1323.783154200837
 21
374.6311451969382
 31
0.0
  0
LINE
  5
415
102
{ACAD_REACTORS
330
560
102
}
330
1F
100
AcDbEntity
  8
実線
100
AcDbLine
 10
1320.933154200838
 20
465.6311451969381
 30
0.0
 11
1320.933154200838
 21
374.6311451969382
 31
0.0
  0
LINE
  5
416
102
{ACAD_REACTORS
330
560
102
}
330
1F
100
AcDbEntity
  8
実線
100
AcDbLine
 10
1251.933154200836
 20
315.9311451969383
 30
0.0
 11
1251.933154200836
 21
377.6311451969382
 31
0.0
  0
LINE
  5
417
102
{ACAD_REACTORS
330
560
102
}
330
1F
100
AcDbEntity
  8
実線
100
AcDbLine
 10
1175.633154200836
 20
377.6311451969382
 30
0.0
 11
1175.633154200836
 21
315.9311451969383
 31
0.0
  0
LINE
  5
418
102
{ACAD_REACTORS
330
560
102
}
330
1F
100
AcDbEntity
  8
実線
100
AcDbLine
 10
1175.633154200836
 20
315.9311451969383
 30
0.0
 11
1168.283154200836
 21
312.9811451969383
 31
0.0
  0
LINE
  5
419
102
{ACAD_REACTORS
330
560
102
}
330
1F
100
AcDbEntity
  8
実線
100
AcDbLine
 10
1259.283154200837
 20
312.9811451969383
 30
0.0
 11
1251.933154200836
 21
315.9311451969383
 31
0.0
  0
LINE
  5
41A
102
{ACAD_REACTORS
330
560
102
}
330
1F
100
AcDbEntity
  8
実線
100
AcDbLine
 10
1175.633154200836
 20
315.9311451969383
 30
0.0
 11
1251.933154200836
 21
315.9311451969383
 31
0.0
  0
LINE
  5
41B
102
{ACAD_REACTORS
330
560
102
}
330
1F
100
AcDbEntity
  8
実線
100
AcDbLine
 10
1259.283154200837
 20
310.1311451969383
 30
0.0
 11
1259.283154200837
 21
312.9811451969383
 31
0.0
  0
LINE
  5
41C
102
{ACAD_REACTORS
330
560
102
}
330
1F
100
AcDbEntity
  8
実線
100
AcDbLine
 10
1168.283154200836
 20
312.9811451969383
 30
0.0
 11
1168.283154200836
 21
310.1311451969383
 31
0.0
  0
LINE
  5
41D
102
{ACAD_REACTORS
330
560
102
}
330
1F
100
AcDbEntity
  8
実線
100
AcDbLine
 10
1259.283154200837
 20
310.1311451969383
 30
0.0
 11
1168.283154200836
 21
310.1311451969383
 31
0.0
  0
LINE
  5
41E
102
{ACAD_REACTORS
330
560
102
}
330
1F
100
AcDbEntity
  8
実線
100
AcDbLine
 10
1259.283154200837
 20
312.9811451969383
 30
0.0
 11
1168.283154200836
 21
312.9811451969383
 31
0.0
  0
LINE
  5
41F
102
{ACAD_REACTORS
330
560
102
}
330
1F
100
AcDbEntity
  8
実線
100
AcDbLine
 10
1278.783154200836
 20
489.1311451969384
 30
0.0
 11
1278.783154200836
 21
743.1311451969381
 31
0.0
  0
LINE
  5
420
102
{ACAD_REACTORS
330
560
102
}
330
1F
100
AcDbEntity
  8
実線
100
AcDbLine
 10
1148.783154200836
 20
743.1311451969381
 30
0.0
 11
1148.783154200836
 21
489.1311451969384
 31
0.0
  0
LINE
  5
421
102
{ACAD_REACTORS
330
560
102
}
330
1F
100
AcDbEntity
  8
実線
100
AcDbLine
 10
1278.783154200836
 20
489.1311451969384
 30
0.0
 11
1148.783154200836
 21
489.1311451969384
 31
0.0
  0
CIRCLE
  5
422
102
{ACAD_REACTORS
330
560
102
}
330
1F
100
AcDbEntity
  8
実線
100
AcDbCircle
 10
1185.983154200837
 20
933.6311451969381
 30
0.0
 40
1.5
  0
LINE
  5
423
102
{ACAD_REACTORS
330
560
102
}
330
1F
100
AcDbEntity
  8
実線
100
AcDbLine
 10
1182.283154200836
 20
937.5811451969385
 30
0.0
 11
1189.683154200836
 21
937.5811451969385
 31
0.0
  0
LINE
  5
424
102
{ACAD_REACTORS
330
560
102
}
330
1F
100
AcDbEntity
  8
実線
100
AcDbLine
 10
1189.683154200836
 20
929.6811451969384
 30
0.0
 11
1182.283154200836
 21
929.6811451969384
 31
0.0
  0
LINE
  5
425
102
{ACAD_REACTORS
330
560
102
}
330
1F
100
AcDbEntity
  8
実線
100
AcDbLine
 10
1189.683154200836
 20
937.5811451969385
 30
0.0
 11
1189.683154200836
 21
929.6811451969384
 31
0.0
  0
CIRCLE
  5
426
102
{ACAD_REACTORS
330
560
102
}
330
1F
100
AcDbEntity
  8
実線
100
AcDbCircle
 10
1185.983154200837
 20
905.1311451969381
 30
0.0
 40
1.5
  0
LINE
  5
427
102
{ACAD_REACTORS
330
560
102
}
330
1F
100
AcDbEntity
  8
実線
100
AcDbLine
 10
1182.283154200836
 20
909.0811451969385
 30
0.0
 11
1189.683154200836
 21
909.0811451969385
 31
0.0
  0
LINE
  5
428
102
{ACAD_REACTORS
330
560
102
}
330
1F
100
AcDbEntity
  8
実線
100
AcDbLine
 10
1189.683154200836
 20
909.0811451969385
 30
0.0
 11
1189.683154200836
 21
901.1811451969384
 31
0.0
  0
LINE
  5
429
102
{ACAD_REACTORS
330
560
102
}
330
1F
100
AcDbEntity
  8
実線
100
AcDbLine
 10
1189.683154200836
 20
901.1811451969384
 30
0.0
 11
1182.283154200836
 21
901.1811451969384
 31
0.0
  0
LINE
  5
42A
102
{ACAD_REACTORS
330
560
102
}
330
1F
100
AcDbEntity
  8
実線
100
AcDbLine
 10
1182.283154200836
 20
941.6311451969381
 30
0.0
 11
1156.283154200836
 21
941.6311451969381
 31
0.0
  0
LINE
  5
42B
102
{ACAD_REACTORS
330
560
102
}
330
1F
100
AcDbEntity
  8
実線
100
AcDbLine
 10
1182.283154200836
 20
841.6311451969381
 30
0.0
 11
1182.283154200836
 21
941.6311451969381
 31
0.0
  0
LINE
  5
42C
102
{ACAD_REACTORS
330
560
102
}
330
1F
100
AcDbEntity
  8
実線
100
AcDbLine
 10
1156.283154200836
 20
841.6311451969381
 30
0.0
 11
1156.283154200836
 21
941.6311451969381
 31
0.0
  0
LINE
  5
42D
102
{ACAD_REACTORS
330
560
102
}
330
1F
100
AcDbEntity
  8
実線
100
AcDbLine
 10
1190.783154200836
 20
933.6311451969381
 30
0.0
 11
1236.783154200836
 21
933.6311451969381
 31
0.0
  0
LINE
  5
42E
102
{ACAD_REACTORS
330
560
102
}
330
1F
100
AcDbEntity
  8
実線
100
AcDbLine
 10
1236.783154200836
 20
923.6311451969381
 30
0.0
 11
1236.783154200836
 21
933.6311451969381
 31
0.0
  0
LINE
  5
42F
102
{ACAD_REACTORS
330
560
102
}
330
1F
100
AcDbEntity
  8
実線
100
AcDbLine
 10
1190.783154200836
 20
933.6311451969381
 30
0.0
 11
1190.783154200836
 21
923.6311451969381
 31
0.0
  0
LINE
  5
430
102
{ACAD_REACTORS
330
560
102
}
330
1F
100
AcDbEntity
  8
実線
100
AcDbLine
 10
1236.783154200836
 20
923.6311451969381
 30
0.0
 11
1190.783154200836
 21
923.6311451969381
 31
0.0
  0
LINE
  5
431
102
{ACAD_REACTORS
330
560
102
}
330
1F
100
AcDbEntity
  8
実線
100
AcDbLine
 10
1229.783154200837
 20
916.6311451969381
 30
0.0
 11
1229.783154200837
 21
923.6311451969381
 31
0.0
  0
LINE
  5
432
102
{ACAD_REACTORS
330
560
102
}
330
1F
100
AcDbEntity
  8
実線
100
AcDbLine
 10
1197.783154200837
 20
923.6311451969381
 30
0.0
 11
1197.783154200837
 21
916.6311451969381
 31
0.0
  0
LINE
  5
433
102
{ACAD_REACTORS
330
560
102
}
330
1F
100
AcDbEntity
  8
実線
100
AcDbLine
 10
1229.783154200837
 20
916.6311451969381
 30
0.0
 11
1197.783154200837
 21
916.6311451969381
 31
0.0
  0
LINE
  5
434
102
{ACAD_REACTORS
330
560
102
}
330
1F
100
AcDbEntity
  8
実線
100
AcDbLine
 10
1225.783154200837
 20
891.1311451969382
 30
0.0
 11
1225.783154200837
 21
916.6311451969381
 31
0.0
  0
LINE
  5
435
102
{ACAD_REACTORS
330
560
102
}
330
1F
100
AcDbEntity
  8
実線
100
AcDbLine
 10
1201.783154200837
 20
916.6311451969381
 30
0.0
 11
1201.783154200837
 21
891.1311451969382
 31
0.0
  0
LINE
  5
436
102
{ACAD_REACTORS
330
560
102
}
330
1F
100
AcDbEntity
  8
実線
100
AcDbLine
 10
1193.983154200837
 20
891.1311451969382
 30
0.0
 11
1233.583154200836
 21
891.1311451969382
 31
0.0
  0
LINE
  5
437
102
{ACAD_REACTORS
330
560
102
}
330
1F
100
AcDbEntity
  8
実線
100
AcDbLine
 10
1233.583154200836
 20
879.1311451969381
 30
0.0
 11
1233.583154200836
 21
891.1311451969382
 31
0.0
  0
LINE
  5
438
102
{ACAD_REACTORS
330
560
102
}
330
1F
100
AcDbEntity
  8
実線
100
AcDbLine
 10
1193.983154200837
 20
891.1311451969382
 30
0.0
 11
1193.983154200837
 21
879.1311451969381
 31
0.0
  0
LINE
  5
439
102
{ACAD_REACTORS
330
560
102
}
330
1F
100
AcDbEntity
  8
実線
100
AcDbLine
 10
1233.583154200836
 20
879.1311451969381
 30
0.0
 11
1193.983154200837
 21
879.1311451969381
 31
0.0
  0
LINE
  5
43A
102
{ACAD_REACTORS
330
560
102
}
330
1F
100
AcDbEntity
  8
実線
100
AcDbLine
 10
1233.583154200836
 20
867.1311451969382
 30
0.0
 11
1233.583154200836
 21
879.1311451969381
 31
0.0
  0
LINE
  5
43B
102
{ACAD_REACTORS
330
560
102
}
330
1F
100
AcDbEntity
  8
実線
100
AcDbLine
 10
1193.983154200837
 20
879.1311451969381
 30
0.0
 11
1193.983154200837
 21
867.1311451969382
 31
0.0
  0
LINE
  5
43C
102
{ACAD_REACTORS
330
560
102
}
330
1F
100
AcDbEntity
  8
実線
100
AcDbLine
 10
1190.783154200836
 20
867.1311451969382
 30
0.0
 11
1236.783154200836
 21
867.1311451969382
 31
0.0
  0
LINE
  5
43D
102
{ACAD_REACTORS
330
560
102
}
330
1F
100
AcDbEntity
  8
実線
100
AcDbLine
 10
1236.783154200836
 20
841.6311451969336
 30
0.0
 11
1236.783154200836
 21
867.1311451969382
 31
0.0
  0
LINE
  5
43E
102
{ACAD_REACTORS
330
560
102
}
330
1F
100
AcDbEntity
  8
実線
100
AcDbLine
 10
1190.783154200836
 20
867.1311451969382
 30
0.0
 11
1190.783154200836
 21
841.6311451969336
 31
0.0
  0
LINE
  5
43F
102
{ACAD_REACTORS
330
560
102
}
330
1F
100
AcDbEntity
  8
実線
100
AcDbLine
 10
1140.23855451137
 20
467.1311451969382
 30
0.0
 11
1287.327753890304
 21
467.1311451969382
 31
0.0
  0
LINE
  5
440
102
{ACAD_REACTORS
330
560
102
}
330
1F
100
AcDbEntity
  8
実線
100
AcDbLine
 10
1148.783154200836
 20
489.1311451969384
 30
0.0
 11
1148.783154200836
 21
485.6311451969384
 31
0.0
  0
LINE
  5
441
102
{ACAD_REACTORS
330
560
102
}
330
1F
100
AcDbEntity
  8
実線
100
AcDbLine
 10
1278.783154200836
 20
485.6311451969384
 30
0.0
 11
1278.783154200836
 21
489.1311451969384
 31
0.0
  0
LINE
  5
442
102
{ACAD_REACTORS
330
560
102
}
330
1F
100
AcDbEntity
  8
実線
100
AcDbLine
 10
1287.327753890304
 20
485.6311451969384
 30
0.0
 11
1243.373157788446
 21
485.6311451969384
 31
0.0
  0
LINE
  5
443
102
{ACAD_REACTORS
330
560
102
}
330
1F
100
AcDbEntity
  8
実線
100
AcDbLine
 10
1287.327753890304
 20
467.1311451969382
 30
0.0
 11
1287.327753890304
 21
485.6311451969384
 31
0.0
  0
LINE
  5
444
102
{ACAD_REACTORS
330
560
102
}
330
1F
100
AcDbEntity
  8
実線
100
AcDbLine
 10
1140.23855451137
 20
485.6311451969384
 30
0.0
 11
1140.23855451137
 21
467.1311451969382
 31
0.0
  0
LINE
  5
445
102
{ACAD_REACTORS
330
560
102
}
330
1F
100
AcDbEntity
  8
実線
100
AcDbLine
 10
1140.23855451137
 20
485.6311451969384
 30
0.0
 11
1184.193150613228
 21
485.6311451969384
 31
0.0
  0
LINE
  5
446
102
{ACAD_REACTORS
330
560
102
}
330
1F
100
AcDbEntity
  8
実線
100
AcDbLine
 10
1243.373157788446
 20
485.6311451969384
 30
0.0
 11
1243.373157788446
 21
467.1311451969382
 31
0.0
  0
LINE
  5
447
102
{ACAD_REACTORS
330
560
102
}
330
1F
100
AcDbEntity
  8
実線
100
AcDbLine
 10
1184.193150613228
 20
485.6311451969384
 30
0.0
 11
1184.193150613228
 21
467.1311451969382
 31
0.0
  0
LINE
  5
448
102
{ACAD_REACTORS
330
560
102
}
330
1F
100
AcDbEntity
  8
実線
100
AcDbLine
 10
1263.783154200837
 20
377.6311451969382
 30
0.0
 11
1163.783154200931
 21
377.6311451969382
 31
0.0
  0
ARC
  5
449
102
{ACAD_REACTORS
330
560
102
}
330
1F
100
AcDbEntity
  8
実線
100
AcDbCircle
 10
1163.783154200837
 20
392.6311451969382
 30
0.0
 40
15.0
100
AcDbArc
 50
225.2349153286658
 51
270.0
  0
ARC
  5
44A
102
{ACAD_REACTORS
330
560
102
}
330
1F
100
AcDbEntity
  8
実線
100
AcDbCircle
 10
1263.783154200837
 20
392.6311451969382
 30
0.0
 40
15.0
100
AcDbArc
 50
270.0
 51
314.7650846713342
  0
LINE
  5
44B
102
{ACAD_REACTORS
330
560
102
}
330
1F
100
AcDbEntity
  8
実線
100
AcDbLine
 10
1287.327753890304
 20
447.1311451969383
 30
0.0
 11
1243.373157788446
 21
447.1311451969383
 31
0.0
  0
LINE
  5
44C
102
{ACAD_REACTORS
330
560
102
}
330
1F
100
AcDbEntity
  8
実線
100
AcDbLine
 10
1287.327753890304
 20
447.1311451969383
 30
0.0
 11
1287.327753890304
 21
467.1311451969382
 31
0.0
  0
LINE
  5
44D
102
{ACAD_REACTORS
330
560
102
}
330
1F
100
AcDbEntity
  8
実線
100
AcDbLine
 10
1140.23855451137
 20
467.1311451969382
 30
0.0
 11
1140.23855451137
 21
447.1311451969383
 31
0.0
  0
LINE
  5
44E
102
{ACAD_REACTORS
330
560
102
}
330
1F
100
AcDbEntity
  8
実線
100
AcDbLine
 10
1140.23855451137
 20
447.1311451969383
 30
0.0
 11
1184.193150613228
 21
447.1311451969383
 31
0.0
  0
LINE
  5
44F
102
{ACAD_REACTORS
330
560
102
}
330
1F
100
AcDbEntity
  8
実線
100
AcDbLine
 10
1243.373157788446
 20
467.1311451969382
 30
0.0
 11
1243.373157788446
 21
447.1311451969383
 31
0.0
  0
LINE
  5
450
102
{ACAD_REACTORS
330
560
102
}
330
1F
100
AcDbEntity
  8
実線
100
AcDbLine
 10
1184.193150613228
 20
467.1311451969382
 30
0.0
 11
1184.193150613228
 21
447.1311451969383
 31
0.0
  0
LINE
  5
451
102
{ACAD_REACTORS
330
560
102
}
330
1F
100
AcDbEntity
  8
実線
100
AcDbLine
 10
1156.283154200836
 20
843.6311451969382
 30
0.0
 11
1149.783154200836
 21
843.6311451969382
 31
0.0
  0
LINE
  5
452
102
{ACAD_REACTORS
330
560
102
}
330
1F
100
AcDbEntity
  8
実線
100
AcDbLine
 10
1184.783154200836
 20
843.6311451969382
 30
0.0
 11
1182.283154200836
 21
843.6311451969382
 31
0.0
  0
LINE
  5
453
102
{ACAD_REACTORS
330
560
102
}
330
1F
100
AcDbEntity
  8
実線
100
AcDbLine
 10
1184.783154200836
 20
841.6311451969381
 30
0.0
 11
1184.783154200836
 21
843.6311451969382
 31
0.0
  0
LINE
  5
454
102
{ACAD_REACTORS
330
560
102
}
330
1F
100
AcDbEntity
  8
実線
100
AcDbLine
 10
1149.783154200836
 20
841.6311451969381
 30
0.0
 11
1149.783154200836
 21
843.6311451969382
 31
0.0
  0
LINE
  5
455
102
{ACAD_REACTORS
330
560
102
}
330
1F
100
AcDbEntity
  8
実線
100
AcDbLine
 10
1123.783154200836
 20
836.6311451969382
 30
0.0
 11
1303.783154200836
 21
836.6311451969382
 31
0.0
  0
LINE
  5
456
102
{ACAD_REACTORS
330
560
102
}
330
1F
100
AcDbEntity
  8
実線
100
AcDbLine
 10
1128.783154200836
 20
841.6311451969381
 30
0.0
 11
1298.783154200837
 21
841.6311451969381
 31
0.0
  0
ARC
  5
457
102
{ACAD_REACTORS
330
560
102
}
330
1F
100
AcDbEntity
  8
実線
100
AcDbCircle
 10
1298.783154200837
 20
836.6311451969382
 30
0.0
 40
5.0
100
AcDbArc
 50
0.0
 51
90.0
  0
ARC
  5
458
102
{ACAD_REACTORS
330
560
102
}
330
1F
100
AcDbEntity
  8
実線
100
AcDbCircle
 10
1128.783154200836
 20
836.6311451969382
 30
0.0
 40
5.0
100
AcDbArc
 50
90.0
 51
180.0
  0
LINE
  5
459
102
{ACAD_REACTORS
330
561
102
}
330
1F
100
AcDbEntity
  8
実線
100
AcDbLine
 10
943.7831542008362
 20
752.1311451969381
 30
0.0
 11
943.7831542008362
 21
836.6311451969382
 31
0.0
  0
LINE
  5
45A
102
{ACAD_REACTORS
330
561
102
}
330
1F
100
AcDbEntity
  8
実線
100
AcDbLine
 10
763.7831542008362
 20
836.6311451969382
 30
0.0
 11
763.7831542008362
 21
752.1311451969381
 31
0.0
  0
LINE
  5
45B
102
{ACAD_REACTORS
330
561
102
}
330
1F
100
AcDbEntity
  8
実線
100
AcDbLine
 10
763.7831542008362
 20
743.1311451969381
 30
0.0
 11
943.7831542008362
 21
743.1311451969381
 31
0.0
  0
LINE
  5
45C
102
{ACAD_REACTORS
330
561
102
}
330
1F
100
AcDbEntity
  8
実線
100
AcDbLine
 10
943.7831542008362
 20
752.1311451969381
 30
0.0
 11
763.7831542008362
 21
752.1311451969381
 31
0.0
  0
LINE
  5
45D
102
{ACAD_REACTORS
330
561
102
}
330
1F
100
AcDbEntity
  8
実線
100
AcDbLine
 10
943.7831542008362
 20
743.1311451969381
 30
0.0
 11
943.7831542008362
 21
752.1311451969381
 31
0.0
  0
LINE
  5
45E
102
{ACAD_REACTORS
330
561
102
}
330
1F
100
AcDbEntity
  8
実線
100
AcDbLine
 10
763.7831542008362
 20
752.1311451969381
 30
0.0
 11
763.7831542008362
 21
743.1311451969381
 31
0.0
  0
CIRCLE
  5
45F
102
{ACAD_REACTORS
330
561
102
}
330
1F
100
AcDbEntity
  8
実線
100
AcDbCircle
 10
853.7831542008362
 20
420.131145196938
 30
0.0
 40
45.49999999999999
  0
LINE
  5
460
102
{ACAD_REACTORS
330
561
102
}
330
1F
100
AcDbEntity
  8
実線
100
AcDbLine
 10
891.9331542008363
 20
315.9311451969381
 30
0.0
 11
891.9331542008363
 21
377.6311451969381
 31
0.0
  0
LINE
  5
461
102
{ACAD_REACTORS
330
561
102
}
330
1F
100
AcDbEntity
  8
実線
100
AcDbLine
 10
815.6331542008363
 20
377.6311451969381
 30
0.0
 11
815.6331542008363
 21
315.9311451969381
 31
0.0
  0
LINE
  5
462
102
{ACAD_REACTORS
330
561
102
}
330
1F
100
AcDbEntity
  8
実線
100
AcDbLine
 10
899.2831542008362
 20
310.1311451969382
 30
0.0
 11
899.2831542008362
 21
312.9811451969382
 31
0.0
  0
LINE
  5
463
102
{ACAD_REACTORS
330
561
102
}
330
1F
100
AcDbEntity
  8
実線
100
AcDbLine
 10
808.2831542008362
 20
312.9811451969382
 30
0.0
 11
808.2831542008362
 21
310.1311451969382
 31
0.0
  0
LINE
  5
464
102
{ACAD_REACTORS
330
561
102
}
330
1F
100
AcDbEntity
  8
実線
100
AcDbLine
 10
808.2831542008362
 20
310.1311451969382
 30
0.0
 11
899.2831542008362
 21
310.1311451969382
 31
0.0
  0
LINE
  5
465
102
{ACAD_REACTORS
330
561
102
}
330
1F
100
AcDbEntity
  8
実線
100
AcDbLine
 10
815.6331542008363
 20
315.9311451969381
 30
0.0
 11
808.2831542008362
 21
312.9811451969382
 31
0.0
  0
LINE
  5
466
102
{ACAD_REACTORS
330
561
102
}
330
1F
100
AcDbEntity
  8
実線
100
AcDbLine
 10
899.2831542008362
 20
312.9811451969382
 30
0.0
 11
891.9331542008363
 21
315.9311451969381
 31
0.0
  0
LINE
  5
467
102
{ACAD_REACTORS
330
561
102
}
330
1F
100
AcDbEntity
  8
実線
100
AcDbLine
 10
808.2831542008362
 20
312.9811451969382
 30
0.0
 11
899.2831542008362
 21
312.9811451969382
 31
0.0
  0
LINE
  5
468
102
{ACAD_REACTORS
330
561
102
}
330
1F
100
AcDbEntity
  8
実線
100
AcDbLine
 10
815.6331542008363
 20
315.9311451969381
 30
0.0
 11
891.9331542008363
 21
315.9311451969381
 31
0.0
  0
LINE
  5
469
102
{ACAD_REACTORS
330
561
102
}
330
1F
100
AcDbEntity
  8
実線
100
AcDbLine
 10
788.7831542008362
 20
489.1311451969382
 30
0.0
 11
918.7831542008362
 21
489.1311451969382
 31
0.0
  0
LINE
  5
46A
102
{ACAD_REACTORS
330
561
102
}
330
1F
100
AcDbEntity
  8
実線
100
AcDbLine
 10
918.7831542008362
 20
489.1311451969382
 30
0.0
 11
918.7831542008362
 21
743.1311451969381
 31
0.0
  0
LINE
  5
46B
102
{ACAD_REACTORS
330
561
102
}
330
1F
100
AcDbEntity
  8
実線
100
AcDbLine
 10
788.7831542008362
 20
743.1311451969381
 30
0.0
 11
788.7831542008362
 21
489.1311451969382
 31
0.0
  0
LINE
  5
46C
102
{ACAD_REACTORS
330
561
102
}
330
1F
100
AcDbEntity
  8
実線
100
AcDbLine
 10
849.2831542008362
 20
886.6311451969382
 30
0.0
 11
880.7831542008361
 21
886.6311451969382
 31
0.0
  0
LINE
  5
46D
102
{ACAD_REACTORS
330
561
102
}
330
1F
100
AcDbEntity
  8
実線
100
AcDbLine
 10
880.7831542008361
 20
941.6311451969381
 30
0.0
 11
849.2831542008362
 21
941.6311451969381
 31
0.0
  0
LINE
  5
46E
102
{ACAD_REACTORS
330
561
102
}
330
1F
100
AcDbEntity
  8
実線
100
AcDbLine
 10
849.2831542008362
 20
886.6311451969382
 30
0.0
 11
849.2831542008362
 21
941.6311451969381
 31
0.0
  0
LINE
  5
46F
102
{ACAD_REACTORS
330
561
102
}
330
1F
100
AcDbEntity
  8
実線
100
AcDbLine
 10
882.7831542008361
 20
841.6311451969381
 30
0.0
 11
882.7831542008361
 21
941.6311451969381
 31
0.0
  0
LINE
  5
470
102
{ACAD_REACTORS
330
561
102
}
330
1F
100
AcDbEntity
  8
実線
100
AcDbLine
 10
882.7831542008361
 20
941.6311451969381
 30
0.0
 11
880.7831542008361
 21
941.6311451969381
 31
0.0
  0
LINE
  5
471
102
{ACAD_REACTORS
330
561
102
}
330
1F
100
AcDbEntity
  8
実線
100
AcDbLine
 10
880.7831542008361
 20
843.6311451969382
 30
0.0
 11
880.7831542008361
 21
941.6311451969381
 31
0.0
  0
LINE
  5
472
102
{ACAD_REACTORS
330
561
102
}
330
1F
100
AcDbEntity
  8
実線
100
AcDbLine
 10
849.2831542008362
 20
933.6311451969381
 30
0.0
 11
830.7831542008361
 21
933.6311451969381
 31
0.0
  0
LINE
  5
473
102
{ACAD_REACTORS
330
561
102
}
330
1F
100
AcDbEntity
  8
実線
100
AcDbLine
 10
830.7831542008361
 20
923.6311451969381
 30
0.0
 11
849.2831542008362
 21
923.6311451969381
 31
0.0
  0
LINE
  5
474
102
{ACAD_REACTORS
330
561
102
}
330
1F
100
AcDbEntity
  8
実線
100
AcDbLine
 10
830.7831542008361
 20
933.6311451969381
 30
0.0
 11
830.7831542008361
 21
923.6311451969381
 31
0.0
  0
LINE
  5
475
102
{ACAD_REACTORS
330
561
102
}
330
1F
100
AcDbEntity
  8
実線
100
AcDbLine
 10
837.7831542008362
 20
916.6311451969381
 30
0.0
 11
849.2831542008362
 21
916.6311451969381
 31
0.0
  0
LINE
  5
476
102
{ACAD_REACTORS
330
561
102
}
330
1F
100
AcDbEntity
  8
実線
100
AcDbLine
 10
837.7831542008362
 20
923.6311451969381
 30
0.0
 11
837.7831542008362
 21
916.6311451969381
 31
0.0
  0
LINE
  5
477
102
{ACAD_REACTORS
330
561
102
}
330
1F
100
AcDbEntity
  8
実線
100
AcDbLine
 10
841.7831542008361
 20
916.6311451969381
 30
0.0
 11
841.7831542008361
 21
891.1311451969382
 31
0.0
  0
LINE
  5
478
102
{ACAD_REACTORS
330
561
102
}
330
1F
100
AcDbEntity
  8
実線
100
AcDbLine
 10
849.2831542008362
 20
891.1311451969382
 30
0.0
 11
833.9831542008361
 21
891.1311451969382
 31
0.0
  0
LINE
  5
479
102
{ACAD_REACTORS
330
561
102
}
330
1F
100
AcDbEntity
  8
実線
100
AcDbLine
 10
833.9831542008361
 20
879.1311451969381
 30
0.0
 11
873.5831542008364
 21
879.1311451969381
 31
0.0
  0
LINE
  5
47A
102
{ACAD_REACTORS
330
561
102
}
330
1F
100
AcDbEntity
  8
実線
100
AcDbLine
 10
873.5831542008364
 20
879.1311451969381
 30
0.0
 11
873.5831542008364
 21
886.6311451969382
 31
0.0
  0
LINE
  5
47B
102
{ACAD_REACTORS
330
561
102
}
330
1F
100
AcDbEntity
  8
実線
100
AcDbLine
 10
833.9831542008361
 20
891.1311451969382
 30
0.0
 11
833.9831542008361
 21
879.1311451969381
 31
0.0
  0
LINE
  5
47C
102
{ACAD_REACTORS
330
561
102
}
330
1F
100
AcDbEntity
  8
実線
100
AcDbLine
 10
873.5831542008364
 20
867.1311451969382
 30
0.0
 11
873.5831542008364
 21
879.1311451969381
 31
0.0
  0
LINE
  5
47D
102
{ACAD_REACTORS
330
561
102
}
330
1F
100
AcDbEntity
  8
実線
100
AcDbLine
 10
833.9831542008361
 20
879.1311451969381
 30
0.0
 11
833.9831542008361
 21
867.1311451969382
 31
0.0
  0
LINE
  5
47E
102
{ACAD_REACTORS
330
561
102
}
330
1F
100
AcDbEntity
  8
実線
100
AcDbLine
 10
876.7831542008362
 20
867.1311451969382
 30
0.0
 11
830.7831542008361
 21
867.1311451969382
 31
0.0
  0
LINE
  5
47F
102
{ACAD_REACTORS
330
561
102
}
330
1F
100
AcDbEntity
  8
実線
100
AcDbLine
 10
876.7831542008362
 20
843.6311451969382
 30
0.0
 11
876.7831542008362
 21
867.1311451969382
 31
0.0
  0
LINE
  5
480
102
{ACAD_REACTORS
330
561
102
}
330
1F
100
AcDbEntity
  8
実線
100
AcDbLine
 10
830.7831542008361
 20
867.1311451969382
 30
0.0
 11
830.7831542008361
 21
841.6311451969333
 31
0.0
  0
LINE
  5
481
102
{ACAD_REACTORS
330
561
102
}
330
1F
100
AcDbEntity
  8
実線
100
AcDbLine
 10
927.3277538903032
 20
467.131145196938
 30
0.0
 11
780.2385545113702
 21
467.131145196938
 31
0.0
  0
LINE
  5
482
102
{ACAD_REACTORS
330
561
102
}
330
1F
100
AcDbEntity
  8
実線
100
AcDbLine
 10
788.7831542008362
 20
489.1311451969382
 30
0.0
 11
788.7831542008362
 21
485.6311451969382
 31
0.0
  0
LINE
  5
483
102
{ACAD_REACTORS
330
561
102
}
330
1F
100
AcDbEntity
  8
実線
100
AcDbLine
 10
918.7831542008362
 20
485.6311451969382
 30
0.0
 11
918.7831542008362
 21
489.1311451969382
 31
0.0
  0
LINE
  5
484
102
{ACAD_REACTORS
330
561
102
}
330
1F
100
AcDbEntity
  8
実線
100
AcDbLine
 10
780.2385545113702
 20
485.6311451969382
 30
0.0
 11
780.2385545113702
 21
467.131145196938
 31
0.0
  0
LINE
  5
485
102
{ACAD_REACTORS
330
561
102
}
330
1F
100
AcDbEntity
  8
実線
100
AcDbLine
 10
780.2385545113702
 20
485.6311451969382
 30
0.0
 11
824.1931506132281
 21
485.6311451969382
 31
0.0
  0
LINE
  5
486
102
{ACAD_REACTORS
330
561
102
}
330
1F
100
AcDbEntity
  8
実線
100
AcDbLine
 10
927.3277538903032
 20
485.6311451969382
 30
0.0
 11
883.3731577884453
 21
485.6311451969382
 31
0.0
  0
LINE
  5
487
102
{ACAD_REACTORS
330
561
102
}
330
1F
100
AcDbEntity
  8
実線
100
AcDbLine
 10
927.3277538903032
 20
467.131145196938
 30
0.0
 11
927.3277538903032
 21
485.6311451969382
 31
0.0
  0
LINE
  5
488
102
{ACAD_REACTORS
330
561
102
}
330
1F
100
AcDbEntity
  8
実線
100
AcDbLine
 10
824.1931506132273
 20
485.6311451969382
 30
0.0
 11
824.1931506132273
 21
467.131145196938
 31
0.0
  0
LINE
  5
489
102
{ACAD_REACTORS
330
561
102
}
330
1F
100
AcDbEntity
  8
実線
100
AcDbLine
 10
883.3731577884453
 20
485.6311451969382
 30
0.0
 11
883.3731577884453
 21
467.131145196938
 31
0.0
  0
LINE
  5
48A
102
{ACAD_REACTORS
330
561
102
}
330
1F
100
AcDbEntity
  8
実線
100
AcDbLine
 10
837.5350773915643
 20
377.6311451969381
 30
0.0
 11
803.7831542008362
 21
377.6311451969381
 31
0.0
  0
LINE
  5
48B
102
{ACAD_REACTORS
330
561
102
}
330
1F
100
AcDbEntity
  8
実線
100
AcDbLine
 10
903.7831542008362
 20
377.6311451969381
 30
0.0
 11
870.0312310101082
 21
377.6311451969381
 31
0.0
  0
ARC
  5
48C
102
{ACAD_REACTORS
330
561
102
}
330
1F
100
AcDbEntity
  8
実線
100
AcDbCircle
 10
803.7831542008362
 20
392.6311451969381
 30
0.0
 40
15.0
100
AcDbArc
 50
180.0
 51
270.0
  0
ARC
  5
48D
102
{ACAD_REACTORS
330
561
102
}
330
1F
100
AcDbEntity
  8
実線
100
AcDbCircle
 10
903.7831542008362
 20
392.6311451969381
 30
0.0
 40
15.0
100
AcDbArc
 50
270.0
 51
0.0
  0
LINE
  5
48E
102
{ACAD_REACTORS
330
561
102
}
330
1F
100
AcDbEntity
  8
実線
100
AcDbLine
 10
918.7831542008362
 20
392.6311451969381
 30
0.0
 11
918.7831542008362
 21
447.1311451969382
 31
0.0
  0
LINE
  5
48F
102
{ACAD_REACTORS
330
561
102
}
330
1F
100
AcDbEntity
  8
実線
100
AcDbLine
 10
788.7831542008362
 20
447.1311451969382
 30
0.0
 11
788.7831542008362
 21
392.6311451969381
 31
0.0
  0
LINE
  5
490
102
{ACAD_REACTORS
330
561
102
}
330
1F
100
AcDbEntity
  8
実線
100
AcDbLine
 10
780.2385545113702
 20
467.131145196938
 30
0.0
 11
780.2385545113702
 21
447.1311451969382
 31
0.0
  0
LINE
  5
491
102
{ACAD_REACTORS
330
561
102
}
330
1F
100
AcDbEntity
  8
実線
100
AcDbLine
 10
780.2385545113702
 20
447.1311451969382
 30
0.0
 11
817.1600740463764
 21
447.1311451969382
 31
0.0
  0
LINE
  5
492
102
{ACAD_REACTORS
330
561
102
}
330
1F
100
AcDbEntity
  8
実線
100
AcDbLine
 10
927.3277538903032
 20
447.1311451969382
 30
0.0
 11
890.4062343552961
 21
447.1311451969382
 31
0.0
  0
LINE
  5
493
102
{ACAD_REACTORS
330
561
102
}
330
1F
100
AcDbEntity
  8
実線
100
AcDbLine
 10
927.3277538903032
 20
447.1311451969382
 30
0.0
 11
927.3277538903032
 21
467.131145196938
 31
0.0
  0
LINE
  5
494
102
{ACAD_REACTORS
330
561
102
}
330
1F
100
AcDbEntity
  8
実線
100
AcDbLine
 10
824.1931506132273
 20
467.131145196938
 30
0.0
 11
824.1931506132273
 21
454.6953128809036
 31
0.0
  0
LINE
  5
495
102
{ACAD_REACTORS
330
561
102
}
330
1F
100
AcDbEntity
  8
実線
100
AcDbLine
 10
883.3731577884453
 20
467.131145196938
 30
0.0
 11
883.3731577884453
 21
454.6953128809039
 31
0.0
  0
LINE
  5
496
102
{ACAD_REACTORS
330
561
102
}
330
1F
100
AcDbEntity
  8
実線
100
AcDbLine
 10
880.7831542008361
 20
843.6311451969382
 30
0.0
 11
863.7831542008362
 21
843.6311451969382
 31
0.0
  0
LINE
  5
497
102
{ACAD_REACTORS
330
561
102
}
330
1F
100
AcDbEntity
  8
実線
100
AcDbLine
 10
863.7831542008362
 20
841.6311451969381
 30
0.0
 11
863.7831542008362
 21
843.6311451969382
 31
0.0
  0
LINE
  5
498
102
{ACAD_REACTORS
330
561
102
}
330
1F
100
AcDbEntity
  8
実線
100
AcDbLine
 10
880.7831542008361
 20
841.6311451969381
 30
0.0
 11
880.7831542008361
 21
843.6311451969382
 31
0.0
  0
LINE
  5
499
102
{ACAD_REACTORS
330
561
102
}
330
1F
100
AcDbEntity
  8
実線
100
AcDbLine
 10
943.7831542008362
 20
836.6311451969382
 30
0.0
 11
763.7831542008362
 21
836.6311451969382
 31
0.0
  0
LINE
  5
49A
102
{ACAD_REACTORS
330
561
102
}
330
1F
100
AcDbEntity
  8
実線
100
AcDbLine
 10
938.7831542008362
 20
841.6311451969381
 30
0.0
 11
768.7831542008361
 21
841.6311451969381
 31
0.0
  0
ARC
  5
49B
102
{ACAD_REACTORS
330
561
102
}
330
1F
100
AcDbEntity
  8
実線
100
AcDbCircle
 10
938.7831542008362
 20
836.6311451969382
 30
0.0
 40
5.0
100
AcDbArc
 50
0.0
 51
90.0
  0
ARC
  5
49C
102
{ACAD_REACTORS
330
561
102
}
330
1F
100
AcDbEntity
  8
実線
100
AcDbCircle
 10
768.7831542008361
 20
836.6311451969382
 30
0.0
 40
5.0
100
AcDbArc
 50
90.0
 51
180.0
  0
LINE
  5
49D
102
{ACAD_REACTORS
330
563
102
}
330
1F
100
AcDbEntity
  8
実線
100
AcDbLine
 10
223.7831542008363
 20
752.1311451969381
 30
0.0
 11
223.7831542008363
 21
836.6311451969382
 31
0.0
  0
LINE
  5
49E
102
{ACAD_REACTORS
330
563
102
}
330
1F
100
AcDbEntity
  8
実線
100
AcDbLine
 10
43.78315420083646
 20
836.6311451969382
 30
0.0
 11
43.78315420083646
 21
752.1311451969381
 31
0.0
  0
LINE
  5
49F
102
{ACAD_REACTORS
330
563
102
}
330
1F
100
AcDbEntity
  8
実線
100
AcDbLine
 10
223.7831542008363
 20
743.1311451969381
 30
0.0
 11
223.7831542008363
 21
752.1311451969381
 31
0.0
  0
LINE
  5
4A0
102
{ACAD_REACTORS
330
563
102
}
330
1F
100
AcDbEntity
  8
実線
100
AcDbLine
 10
43.78315420083646
 20
752.1311451969381
 30
0.0
 11
43.78315420083646
 21
743.1311451969381
 31
0.0
  0
LINE
  5
4A1
102
{ACAD_REACTORS
330
563
102
}
330
1F
100
AcDbEntity
  8
実線
100
AcDbLine
 10
223.7831542008363
 20
752.1311451969381
 30
0.0
 11
43.78315420083646
 21
752.1311451969381
 31
0.0
  0
LINE
  5
4A2
102
{ACAD_REACTORS
330
563
102
}
330
1F
100
AcDbEntity
  8
実線
100
AcDbLine
 10
223.7831542008363
 20
743.1311451969381
 30
0.0
 11
43.78315420083646
 21
743.1311451969381
 31
0.0
  0
CIRCLE
  5
4A3
102
{ACAD_REACTORS
330
563
102
}
330
1F
100
AcDbEntity
  8
実線
100
AcDbCircle
 10
133.7831542008329
 20
420.131145196938
 30
0.0
 40
45.49999999999999
  0
LINE
  5
4A4
102
{ACAD_REACTORS
330
563
102
}
330
1F
100
AcDbEntity
  8
実線
100
AcDbLine
 10
171.9331542008364
 20
315.9311451969381
 30
0.0
 11
171.9331542008364
 21
377.6311451969381
 31
0.0
  0
LINE
  5
4A5
102
{ACAD_REACTORS
330
563
102
}
330
1F
100
AcDbEntity
  8
実線
100
AcDbLine
 10
95.63315420083643
 20
377.6311451969381
 30
0.0
 11
95.63315420083643
 21
315.9311451969381
 31
0.0
  0
LINE
  5
4A6
102
{ACAD_REACTORS
330
563
102
}
330
1F
100
AcDbEntity
  8
実線
100
AcDbLine
 10
171.9331542008364
 20
315.9311451969381
 30
0.0
 11
95.63315420083631
 21
315.9311451969381
 31
0.0
  0
LINE
  5
4A7
102
{ACAD_REACTORS
330
563
102
}
330
1F
100
AcDbEntity
  8
実線
100
AcDbLine
 10
95.63315420083643
 20
315.9311451969381
 30
0.0
 11
88.28315420083646
 21
312.9811451969382
 31
0.0
  0
LINE
  5
4A8
102
{ACAD_REACTORS
330
563
102
}
330
1F
100
AcDbEntity
  8
実線
100
AcDbLine
 10
179.2831542008364
 20
312.9811451969382
 30
0.0
 11
171.9331542008364
 21
315.9311451969381
 31
0.0
  0
LINE
  5
4A9
102
{ACAD_REACTORS
330
563
102
}
330
1F
100
AcDbEntity
  8
実線
100
AcDbLine
 10
179.2831542008364
 20
310.1311451969382
 30
0.0
 11
88.28315420083646
 21
310.1311451969382
 31
0.0
  0
LINE
  5
4AA
102
{ACAD_REACTORS
330
563
102
}
330
1F
100
AcDbEntity
  8
実線
100
AcDbLine
 10
179.2831542008364
 20
312.9811451969382
 30
0.0
 11
88.28315420083646
 21
312.9811451969382
 31
0.0
  0
LINE
  5
4AB
102
{ACAD_REACTORS
330
563
102
}
330
1F
100
AcDbEntity
  8
実線
100
AcDbLine
 10
179.2831542008364
 20
310.1311451969382
 30
0.0
 11
179.2831542008364
 21
312.9811451969382
 31
0.0
  0
LINE
  5
4AC
102
{ACAD_REACTORS
330
563
102
}
330
1F
100
AcDbEntity
  8
実線
100
AcDbLine
 10
88.28315420083646
 20
312.9811451969382
 30
0.0
 11
88.28315420083646
 21
310.1311451969382
 31
0.0
  0
LINE
  5
4AD
102
{ACAD_REACTORS
330
563
102
}
330
1F
100
AcDbEntity
  8
実線
100
AcDbLine
 10
198.7831542008365
 20
489.1311451969382
 30
0.0
 11
198.7831542008365
 21
743.1311451969381
 31
0.0
  0
LINE
  5
4AE
102
{ACAD_REACTORS
330
563
102
}
330
1F
100
AcDbEntity
  8
実線
100
AcDbLine
 10
68.78315420083646
 20
743.1311451969381
 30
0.0
 11
68.78315420083646
 21
489.1311451969382
 31
0.0
  0
LINE
  5
4AF
102
{ACAD_REACTORS
330
563
102
}
330
1F
100
AcDbEntity
  8
実線
100
AcDbLine
 10
113.2831542008364
 20
935.1311451969381
 30
0.0
 11
106.7831542008364
 21
935.1311451969381
 31
0.0
  0
LINE
  5
4B0
102
{ACAD_REACTORS
330
563
102
}
330
1F
100
AcDbEntity
  8
実線
100
AcDbLine
 10
106.7831542008364
 20
932.1311451969382
 30
0.0
 11
110.7831542008364
 21
932.1311451969382
 31
0.0
  0
LINE
  5
4B1
102
{ACAD_REACTORS
330
563
102
}
330
1F
100
AcDbEntity
  8
実線
100
AcDbLine
 10
106.7831542008364
 20
935.1311451969381
 30
0.0
 11
106.7831542008364
 21
932.1311451969382
 31
0.0
  0
LINE
  5
4B2
102
{ACAD_REACTORS
330
563
102
}
330
1F
100
AcDbEntity
  8
実線
100
AcDbLine
 10
138.2831542008364
 20
933.6311451969381
 30
0.0
 11
138.2831542008364
 21
937.5811451969381
 31
0.0
  0
LINE
  5
4B3
102
{ACAD_REACTORS
330
563
102
}
330
1F
100
AcDbEntity
  8
実線
100
AcDbLine
 10
113.2831542008364
 20
937.5811451969381
 30
0.0
 11
113.2831542008364
 21
933.6311451969381
 31
0.0
  0
LINE
  5
4B4
102
{ACAD_REACTORS
330
563
102
}
330
1F
100
AcDbEntity
  8
実線
100
AcDbLine
 10
138.2831542008364
 20
937.5811451969381
 30
0.0
 11
113.2831542008364
 21
937.5811451969381
 31
0.0
  0
LINE
  5
4B5
102
{ACAD_REACTORS
330
563
102
}
330
1F
100
AcDbEntity
  8
実線
100
AcDbLine
 10
106.7831542008363
 20
886.6311451969382
 30
0.0
 11
113.9831542008363
 21
886.6311451969382
 31
0.0
  0
LINE
  5
4B6
102
{ACAD_REACTORS
330
563
102
}
330
1F
100
AcDbEntity
  8
実線
100
AcDbLine
 10
106.7831542008364
 20
935.1311451969381
 30
0.0
 11
106.7831542008364
 21
941.6311451969381
 31
0.0
  0
LINE
  5
4B7
102
{ACAD_REACTORS
330
563
102
}
330
1F
100
AcDbEntity
  8
実線
100
AcDbLine
 10
138.2831542008364
 20
937.5811451969381
 30
0.0
 11
138.2831542008364
 21
941.6311451969381
 31
0.0
  0
LINE
  5
4B8
102
{ACAD_REACTORS
330
563
102
}
330
1F
100
AcDbEntity
  8
実線
100
AcDbLine
 10
138.2831542008364
 20
941.6311451969381
 30
0.0
 11
106.7831542008363
 21
941.6311451969381
 31
0.0
  0
LINE
  5
4B9
102
{ACAD_REACTORS
330
563
102
}
330
1F
100
AcDbEntity
  8
実線
100
AcDbLine
 10
113.2831542008364
 20
906.6311451969381
 30
0.0
 11
106.7831542008364
 21
906.6311451969381
 31
0.0
  0
LINE
  5
4BA
102
{ACAD_REACTORS
330
563
102
}
330
1F
100
AcDbEntity
  8
実線
100
AcDbLine
 10
106.7831542008364
 20
903.6311451969382
 30
0.0
 11
113.2831542008364
 21
903.6311451969382
 31
0.0
  0
LINE
  5
4BB
102
{ACAD_REACTORS
330
563
102
}
330
1F
100
AcDbEntity
  8
実線
100
AcDbLine
 10
106.7831542008364
 20
906.6311451969381
 30
0.0
 11
106.7831542008364
 21
903.6311451969382
 31
0.0
  0
LINE
  5
4BC
102
{ACAD_REACTORS
330
563
102
}
330
1F
100
AcDbEntity
  8
実線
100
AcDbLine
 10
121.7831542008364
 20
909.0811451969383
 30
0.0
 11
113.2831542008364
 21
909.0811451969383
 31
0.0
  0
LINE
  5
4BD
102
{ACAD_REACTORS
330
563
102
}
330
1F
100
AcDbEntity
  8
実線
100
AcDbLine
 10
113.2831542008364
 20
909.0811451969383
 30
0.0
 11
113.2831542008364
 21
901.181145196938
 31
0.0
  0
LINE
  5
4BE
102
{ACAD_REACTORS
330
563
102
}
330
1F
100
AcDbEntity
  8
実線
100
AcDbLine
 10
121.7831542008364
 20
901.181145196938
 30
0.0
 11
113.2831542008364
 21
901.181145196938
 31
0.0
  0
LINE
  5
4BF
102
{ACAD_REACTORS
330
563
102
}
330
1F
100
AcDbEntity
  8
実線
100
AcDbLine
 10
104.7831542008363
 20
841.6311451969381
 30
0.0
 11
104.7831542008363
 21
941.6311451969381
 31
0.0
  0
LINE
  5
4C0
102
{ACAD_REACTORS
330
563
102
}
330
1F
100
AcDbEntity
  8
実線
100
AcDbLine
 10
106.7831542008364
 20
906.6311451969381
 30
0.0
 11
106.7831542008364
 21
932.1311451969382
 31
0.0
  0
LINE
  5
4C1
102
{ACAD_REACTORS
330
563
102
}
330
1F
100
AcDbEntity
  8
実線
100
AcDbLine
 10
106.7831542008364
 20
903.6311451969382
 30
0.0
 11
106.7831542008364
 21
843.6311451969382
 31
0.0
  0
LINE
  5
4C2
102
{ACAD_REACTORS
330
563
102
}
330
1F
100
AcDbEntity
  8
実線
100
AcDbLine
 10
106.7831542008364
 20
941.6311451969381
 30
0.0
 11
104.7831542008363
 21
941.6311451969381
 31
0.0
  0
LINE
  5
4C3
102
{ACAD_REACTORS
330
563
102
}
330
1F
100
AcDbEntity
  8
実線
100
AcDbLine
 10
156.7831542008364
 20
923.6311451969381
 30
0.0
 11
156.7831542008364
 21
933.6311451969381
 31
0.0
  0
LINE
  5
4C4
102
{ACAD_REACTORS
330
563
102
}
330
1F
100
AcDbEntity
  8
実線
100
AcDbLine
 10
110.7831542008364
 20
933.6311451969381
 30
0.0
 11
110.7831542008364
 21
923.6311451969381
 31
0.0
  0
LINE
  5
4C5
102
{ACAD_REACTORS
330
563
102
}
330
1F
100
AcDbEntity
  8
実線
100
AcDbLine
 10
156.7831542008364
 20
933.6311451969381
 30
0.0
 11
110.7831542008364
 21
933.6311451969381
 31
0.0
  0
LINE
  5
4C6
102
{ACAD_REACTORS
330
563
102
}
330
1F
100
AcDbEntity
  8
実線
100
AcDbLine
 10
110.7831542008364
 20
923.6311451969381
 30
0.0
 11
156.7831542008364
 21
923.6311451969381
 31
0.0
  0
LINE
  5
4C7
102
{ACAD_REACTORS
330
563
102
}
330
1F
100
AcDbEntity
  8
実線
100
AcDbLine
 10
149.7831542008363
 20
916.6311451969381
 30
0.0
 11
149.7831542008363
 21
923.6311451969381
 31
0.0
  0
LINE
  5
4C8
102
{ACAD_REACTORS
330
563
102
}
330
1F
100
AcDbEntity
  8
実線
100
AcDbLine
 10
117.7831542008364
 20
923.6311451969381
 30
0.0
 11
117.7831542008364
 21
916.6311451969381
 31
0.0
  0
LINE
  5
4C9
102
{ACAD_REACTORS
330
563
102
}
330
1F
100
AcDbEntity
  8
実線
100
AcDbLine
 10
117.7831542008364
 20
916.6311451969381
 30
0.0
 11
149.7831542008363
 21
916.6311451969381
 31
0.0
  0
LINE
  5
4CA
102
{ACAD_REACTORS
330
563
102
}
330
1F
100
AcDbEntity
  8
実線
100
AcDbLine
 10
145.7831542008363
 20
891.1311451969382
 30
0.0
 11
145.7831542008363
 21
916.6311451969381
 31
0.0
  0
LINE
  5
4CB
102
{ACAD_REACTORS
330
563
102
}
330
1F
100
AcDbEntity
  8
実線
100
AcDbLine
 10
121.7831542008364
 20
916.6311451969381
 30
0.0
 11
121.7831542008364
 21
891.1311451969382
 31
0.0
  0
LINE
  5
4CC
102
{ACAD_REACTORS
330
563
102
}
330
1F
100
AcDbEntity
  8
実線
100
AcDbLine
 10
153.5831542008365
 20
879.1311451969381
 30
0.0
 11
153.5831542008365
 21
891.1311451969382
 31
0.0
  0
LINE
  5
4CD
102
{ACAD_REACTORS
330
563
102
}
330
1F
100
AcDbEntity
  8
実線
100
AcDbLine
 10
113.9831542008363
 20
891.1311451969382
 30
0.0
 11
113.9831542008363
 21
879.1311451969381
 31
0.0
  0
LINE
  5
4CE
102
{ACAD_REACTORS
330
563
102
}
330
1F
100
AcDbEntity
  8
実線
100
AcDbLine
 10
153.5831542008365
 20
891.1311451969382
 30
0.0
 11
113.9831542008364
 21
891.1311451969382
 31
0.0
  0
LINE
  5
4CF
102
{ACAD_REACTORS
330
563
102
}
330
1F
100
AcDbEntity
  8
実線
100
AcDbLine
 10
153.5831542008365
 20
867.1311451969382
 30
0.0
 11
153.5831542008365
 21
879.1311451969381
 31
0.0
  0
LINE
  5
4D0
102
{ACAD_REACTORS
330
563
102
}
330
1F
100
AcDbEntity
  8
実線
100
AcDbLine
 10
113.9831542008363
 20
879.1311451969381
 30
0.0
 11
113.9831542008363
 21
867.1311451969382
 31
0.0
  0
LINE
  5
4D1
102
{ACAD_REACTORS
330
563
102
}
330
1F
100
AcDbEntity
  8
実線
100
AcDbLine
 10
153.5831542008365
 20
879.1311451969381
 30
0.0
 11
113.9831542008364
 21
879.1311451969381
 31
0.0
  0
LINE
  5
4D2
102
{ACAD_REACTORS
330
563
102
}
330
1F
100
AcDbEntity
  8
実線
100
AcDbLine
 10
156.7831542008364
 20
841.6311451969333
 30
0.0
 11
156.7831542008364
 21
867.1311451969382
 31
0.0
  0
LINE
  5
4D3
102
{ACAD_REACTORS
330
563
102
}
330
1F
100
AcDbEntity
  8
実線
100
AcDbLine
 10
110.7831542008364
 20
867.1311451969382
 30
0.0
 11
110.7831542008364
 21
841.6311451969333
 31
0.0
  0
LINE
  5
4D4
102
{ACAD_REACTORS
330
563
102
}
330
1F
100
AcDbEntity
  8
実線
100
AcDbLine
 10
156.7831542008364
 20
867.1311451969382
 30
0.0
 11
110.7831542008364
 21
867.1311451969382
 31
0.0
  0
LINE
  5
4D5
102
{ACAD_REACTORS
330
563
102
}
330
1F
100
AcDbEntity
  8
実線
100
AcDbLine
 10
60.23855451136967
 20
467.131145196938
 30
0.0
 11
207.3277538903032
 21
467.131145196938
 31
0.0
  0
LINE
  5
4D6
102
{ACAD_REACTORS
330
563
102
}
330
1F
100
AcDbEntity
  8
実線
100
AcDbLine
 10
68.78315420083646
 20
489.1311451969382
 30
0.0
 11
198.7831542008365
 21
489.1311451969382
 31
0.0
  0
LINE
  5
4D7
102
{ACAD_REACTORS
330
563
102
}
330
1F
100
AcDbEntity
  8
実線
100
AcDbLine
 10
68.78315420083646
 20
489.1311451969382
 30
0.0
 11
68.78315420083646
 21
485.6311451969382
 31
0.0
  0
LINE
  5
4D8
102
{ACAD_REACTORS
330
563
102
}
330
1F
100
AcDbEntity
  8
実線
100
AcDbLine
 10
198.7831542008365
 20
485.6311451969382
 30
0.0
 11
198.7831542008365
 21
489.1311451969382
 31
0.0
  0
LINE
  5
4D9
102
{ACAD_REACTORS
330
563
102
}
330
1F
100
AcDbEntity
  8
実線
100
AcDbLine
 10
207.3277538903032
 20
485.6311451969382
 30
0.0
 11
163.3731577884453
 21
485.6311451969382
 31
0.0
  0
LINE
  5
4DA
102
{ACAD_REACTORS
330
563
102
}
330
1F
100
AcDbEntity
  8
実線
100
AcDbLine
 10
207.3277538903032
 20
467.131145196938
 30
0.0
 11
207.3277538903032
 21
485.6311451969382
 31
0.0
  0
LINE
  5
4DB
102
{ACAD_REACTORS
330
563
102
}
330
1F
100
AcDbEntity
  8
実線
100
AcDbLine
 10
60.23855451136967
 20
485.6311451969382
 30
0.0
 11
60.23855451136967
 21
467.131145196938
 31
0.0
  0
LINE
  5
4DC
102
{ACAD_REACTORS
330
563
102
}
330
1F
100
AcDbEntity
  8
実線
100
AcDbLine
 10
60.23855451136967
 20
485.6311451969382
 30
0.0
 11
104.1931506132276
 21
485.6311451969382
 31
0.0
  0
LINE
  5
4DD
102
{ACAD_REACTORS
330
563
102
}
330
1F
100
AcDbEntity
  8
実線
100
AcDbLine
 10
104.1931506132276
 20
485.6311451969382
 30
0.0
 11
104.1931506132276
 21
467.131145196938
 31
0.0
  0
LINE
  5
4DE
102
{ACAD_REACTORS
330
563
102
}
330
1F
100
AcDbEntity
  8
実線
100
AcDbLine
 10
163.3731577884453
 20
485.6311451969382
 30
0.0
 11
163.3731577884453
 21
467.131145196938
 31
0.0
  0
LINE
  5
4DF
102
{ACAD_REACTORS
330
563
102
}
330
1F
100
AcDbEntity
  8
実線
100
AcDbLine
 10
117.5350773915609
 20
377.6311451969381
 30
0.0
 11
83.78315420083646
 21
377.6311451969381
 31
0.0
  0
LINE
  5
4E0
102
{ACAD_REACTORS
330
563
102
}
330
1F
100
AcDbEntity
  8
実線
100
AcDbLine
 10
183.7831542008364
 20
377.6311451969381
 30
0.0
 11
150.0312310101047
 21
377.6311451969381
 31
0.0
  0
ARC
  5
4E1
102
{ACAD_REACTORS
330
563
102
}
330
1F
100
AcDbEntity
  8
実線
100
AcDbCircle
 10
83.78315420083646
 20
392.6311451969381
 30
0.0
 40
15.0
100
AcDbArc
 50
180.0
 51
270.0
  0
ARC
  5
4E2
102
{ACAD_REACTORS
330
563
102
}
330
1F
100
AcDbEntity
  8
実線
100
AcDbCircle
 10
183.7831542008364
 20
392.6311451969381
 30
0.0
 40
15.0
100
AcDbArc
 50
270.0
 51
0.0
  0
LINE
  5
4E3
102
{ACAD_REACTORS
330
563
102
}
330
1F
100
AcDbEntity
  8
実線
100
AcDbLine
 10
198.7831542008365
 20
392.6311451969381
 30
0.0
 11
198.7831542008365
 21
447.1311451969382
 31
0.0
  0
LINE
  5
4E4
102
{ACAD_REACTORS
330
563
102
}
330
1F
100
AcDbEntity
  8
実線
100
AcDbLine
 10
68.78315420083646
 20
447.1311451969382
 30
0.0
 11
68.78315420083646
 21
392.6311451969381
 31
0.0
  0
LINE
  5
4E5
102
{ACAD_REACTORS
330
563
102
}
330
1F
100
AcDbEntity
  8
実線
100
AcDbLine
 10
60.23855451136967
 20
467.131145196938
 30
0.0
 11
60.23855451136967
 21
447.1311451969382
 31
0.0
  0
LINE
  5
4E6
102
{ACAD_REACTORS
330
563
102
}
330
1F
100
AcDbEntity
  8
実線
100
AcDbLine
 10
60.23855451136967
 20
447.1311451969382
 30
0.0
 11
97.16007404637288
 21
447.1311451969382
 31
0.0
  0
LINE
  5
4E7
102
{ACAD_REACTORS
330
563
102
}
330
1F
100
AcDbEntity
  8
実線
100
AcDbLine
 10
207.3277538903032
 20
447.1311451969382
 30
0.0
 11
170.4062343552929
 21
447.1311451969382
 31
0.0
  0
LINE
  5
4E8
102
{ACAD_REACTORS
330
563
102
}
330
1F
100
AcDbEntity
  8
実線
100
AcDbLine
 10
207.3277538903032
 20
447.1311451969382
 30
0.0
 11
207.3277538903032
 21
467.131145196938
 31
0.0
  0
LINE
  5
4E9
102
{ACAD_REACTORS
330
563
102
}
330
1F
100
AcDbEntity
  8
実線
100
AcDbLine
 10
104.1931506132276
 20
467.131145196938
 30
0.0
 11
104.1931506132276
 21
454.6953128809069
 31
0.0
  0
LINE
  5
4EA
102
{ACAD_REACTORS
330
563
102
}
330
1F
100
AcDbEntity
  8
実線
100
AcDbLine
 10
163.3731577884453
 20
467.131145196938
 30
0.0
 11
163.3731577884453
 21
454.6953128809004
 31
0.0
  0
LINE
  5
4EB
102
{ACAD_REACTORS
330
563
102
}
330
1F
100
AcDbEntity
  8
実線
100
AcDbLine
 10
110.7831542008364
 20
843.6311451969382
 30
0.0
 11
106.7831542008363
 21
843.6311451969382
 31
0.0
  0
LINE
  5
4EC
102
{ACAD_REACTORS
330
563
102
}
330
1F
100
AcDbEntity
  8
実線
100
AcDbLine
 10
106.7831542008363
 20
841.6311451969381
 30
0.0
 11
106.7831542008363
 21
843.6311451969382
 31
0.0
  0
LINE
  5
4ED
102
{ACAD_REACTORS
330
563
102
}
330
1F
100
AcDbEntity
  8
実線
100
AcDbLine
 10
48.78315420083646
 20
841.6311451969381
 30
0.0
 11
218.7831542008365
 21
841.6311451969381
 31
0.0
  0
ARC
  5
4EE
102
{ACAD_REACTORS
330
563
102
}
330
1F
100
AcDbEntity
  8
実線
100
AcDbCircle
 10
218.7831542008365
 20
836.6311451969382
 30
0.0
 40
5.0
100
AcDbArc
 50
0.0
 51
90.0
  0
ARC
  5
4EF
102
{ACAD_REACTORS
330
563
102
}
330
1F
100
AcDbEntity
  8
実線
100
AcDbCircle
 10
48.78315420083646
 20
836.6311451969382
 30
0.0
 40
5.0
100
AcDbArc
 50
90.0
 51
180.0
  0
LINE
  5
4F0
102
{ACAD_REACTORS
330
563
102
}
330
1F
100
AcDbEntity
  8
実線
100
AcDbLine
 10
43.78315420083646
 20
836.6311451969382
 30
0.0
 11
223.7831542008363
 21
836.6311451969382
 31
0.0
  0
LINE
  5
4F1
102
{ACAD_REACTORS
330
562
102
}
330
1F
100
AcDbEntity
  8
実線
100
AcDbLine
 10
583.7831542008365
 20
752.1311451969381
 30
0.0
 11
583.7831542008365
 21
836.6311451969382
 31
0.0
  0
LINE
  5
4F2
102
{ACAD_REACTORS
330
562
102
}
330
1F
100
AcDbEntity
  8
実線
100
AcDbLine
 10
403.7831542008364
 20
836.6311451969382
 30
0.0
 11
403.7831542008364
 21
752.1311451969381
 31
0.0
  0
LINE
  5
4F3
102
{ACAD_REACTORS
330
562
102
}
330
1F
100
AcDbEntity
  8
実線
100
AcDbLine
 10
583.7831542008365
 20
743.1311451969381
 30
0.0
 11
403.7831542008366
 21
743.1311451969381
 31
0.0
  0
LINE
  5
4F4
102
{ACAD_REACTORS
330
562
102
}
330
1F
100
AcDbEntity
  8
実線
100
AcDbLine
 10
583.7831542008365
 20
743.1311451969381
 30
0.0
 11
583.7831542008365
 21
752.1311451969381
 31
0.0
  0
LINE
  5
4F5
102
{ACAD_REACTORS
330
562
102
}
330
1F
100
AcDbEntity
  8
実線
100
AcDbLine
 10
403.7831542008364
 20
752.1311451969381
 30
0.0
 11
403.7831542008364
 21
743.1311451969381
 31
0.0
  0
LINE
  5
4F6
102
{ACAD_REACTORS
330
562
102
}
330
1F
100
AcDbEntity
  8
実線
100
AcDbLine
 10
583.7831542008365
 20
752.1311451969381
 30
0.0
 11
403.7831542008366
 21
752.1311451969381
 31
0.0
  0
LINE
  5
4F7
102
{ACAD_REACTORS
330
562
102
}
330
1F
100
AcDbEntity
  8
実線
100
AcDbLine
 10
597.9831542008366
 20
458.281145196938
 30
0.0
 11
567.3277538903033
 21
458.281145196938
 31
0.0
  0
LINE
  5
4F8
102
{ACAD_REACTORS
330
562
102
}
330
1F
100
AcDbEntity
  8
実線
100
AcDbLine
 10
554.3461793357114
 20
381.9811451969381
 30
0.0
 11
597.9831542008366
 21
381.9811451969381
 31
0.0
  0
LINE
  5
4F9
102
{ACAD_REACTORS
330
562
102
}
330
1F
100
AcDbEntity
  8
実線
100
AcDbLine
 10
603.7831542008365
 20
465.631145196938
 30
0.0
 11
600.9331542008364
 21
465.631145196938
 31
0.0
  0
LINE
  5
4FA
102
{ACAD_REACTORS
330
562
102
}
330
1F
100
AcDbEntity
  8
実線
100
AcDbLine
 10
600.9331542008364
 20
374.631145196938
 30
0.0
 11
603.7831542008365
 21
374.631145196938
 31
0.0
  0
LINE
  5
4FB
102
{ACAD_REACTORS
330
562
102
}
330
1F
100
AcDbEntity
  8
実線
100
AcDbLine
 10
603.7831542008365
 20
465.631145196938
 30
0.0
 11
603.7831542008365
 21
374.631145196938
 31
0.0
  0
LINE
  5
4FC
102
{ACAD_REACTORS
330
562
102
}
330
1F
100
AcDbEntity
  8
実線
100
AcDbLine
 10
597.9831542008366
 20
381.9811451969381
 30
0.0
 11
600.9331542008364
 21
374.631145196938
 31
0.0
  0
LINE
  5
4FD
102
{ACAD_REACTORS
330
562
102
}
330
1F
100
AcDbEntity
  8
実線
100
AcDbLine
 10
600.9331542008364
 20
465.631145196938
 30
0.0
 11
597.9831542008366
 21
458.281145196938
 31
0.0
  0
LINE
  5
4FE
102
{ACAD_REACTORS
330
562
102
}
330
1F
100
AcDbEntity
  8
実線
100
AcDbLine
 10
600.9331542008364
 20
374.631145196938
 30
0.0
 11
600.9331542008364
 21
465.631145196938
 31
0.0
  0
LINE
  5
4FF
102
{ACAD_REACTORS
330
562
102
}
330
1F
100
AcDbEntity
  8
実線
100
AcDbLine
 10
597.9831542008366
 20
381.9811451969381
 30
0.0
 11
597.9831542008366
 21
458.281145196938
 31
0.0
  0
LINE
  5
500
102
{ACAD_REACTORS
330
562
102
}
330
1F
100
AcDbEntity
  8
実線
100
AcDbLine
 10
389.5831542008362
 20
381.9811451969381
 30
0.0
 11
433.2201290659615
 21
381.9811451969381
 31
0.0
  0
LINE
  5
501
102
{ACAD_REACTORS
330
562
102
}
330
1F
100
AcDbEntity
  8
実線
100
AcDbLine
 10
420.23855451137
 20
458.281145196938
 30
0.0
 11
389.5831542008362
 21
458.281145196938
 31
0.0
  0
LINE
  5
502
102
{ACAD_REACTORS
330
562
102
}
330
1F
100
AcDbEntity
  8
実線
100
AcDbLine
 10
383.7831542008361
 20
465.631145196938
 30
0.0
 11
383.7831542008361
 21
374.631145196938
 31
0.0
  0
LINE
  5
503
102
{ACAD_REACTORS
330
562
102
}
330
1F
100
AcDbEntity
  8
実線
100
AcDbLine
 10
383.7831542008361
 20
374.631145196938
 30
0.0
 11
386.6331542008361
 21
374.631145196938
 31
0.0
  0
LINE
  5
504
102
{ACAD_REACTORS
330
562
102
}
330
1F
100
AcDbEntity
  8
実線
100
AcDbLine
 10
386.6331542008361
 20
465.631145196938
 30
0.0
 11
383.7831542008361
 21
465.631145196938
 31
0.0
  0
LINE
  5
505
102
{ACAD_REACTORS
330
562
102
}
330
1F
100
AcDbEntity
  8
実線
100
AcDbLine
 10
386.6331542008361
 20
465.631145196938
 30
0.0
 11
386.6331542008361
 21
374.631145196938
 31
0.0
  0
LINE
  5
506
102
{ACAD_REACTORS
330
562
102
}
330
1F
100
AcDbEntity
  8
実線
100
AcDbLine
 10
389.5831542008362
 20
458.281145196938
 30
0.0
 11
389.5831542008362
 21
381.9811451969381
 31
0.0
  0
LINE
  5
507
102
{ACAD_REACTORS
330
562
102
}
330
1F
100
AcDbEntity
  8
実線
100
AcDbLine
 10
389.5831542008362
 20
458.281145196938
 30
0.0
 11
386.6331542008361
 21
465.631145196938
 31
0.0
  0
LINE
  5
508
102
{ACAD_REACTORS
330
562
102
}
330
1F
100
AcDbEntity
  8
実線
100
AcDbLine
 10
386.6331542008361
 20
374.631145196938
 30
0.0
 11
389.5831542008362
 21
381.9811451969381
 31
0.0
  0
LINE
  5
509
102
{ACAD_REACTORS
330
562
102
}
330
1F
100
AcDbEntity
  8
実線
100
AcDbLine
 10
531.9331542008365
 20
315.9311451969381
 30
0.0
 11
531.9331542008365
 21
377.6311451969381
 31
0.0
  0
LINE
  5
50A
102
{ACAD_REACTORS
330
562
102
}
330
1F
100
AcDbEntity
  8
実線
100
AcDbLine
 10
455.6331542008364
 20
377.6311451969381
 30
0.0
 11
455.6331542008364
 21
315.9311451969381
 31
0.0
  0
LINE
  5
50B
102
{ACAD_REACTORS
330
562
102
}
330
1F
100
AcDbEntity
  8
実線
100
AcDbLine
 10
455.6331542008364
 20
315.9311451969381
 30
0.0
 11
531.9331542008365
 21
315.9311451969381
 31
0.0
  0
LINE
  5
50C
102
{ACAD_REACTORS
330
562
102
}
330
1F
100
AcDbEntity
  8
実線
100
AcDbLine
 10
455.6331542008364
 20
315.9311451969381
 30
0.0
 11
448.2831542008366
 21
312.9811451969382
 31
0.0
  0
LINE
  5
50D
102
{ACAD_REACTORS
330
562
102
}
330
1F
100
AcDbEntity
  8
実線
100
AcDbLine
 10
539.2831542008365
 20
312.9811451969382
 30
0.0
 11
531.9331542008365
 21
315.9311451969381
 31
0.0
  0
LINE
  5
50E
102
{ACAD_REACTORS
330
562
102
}
330
1F
100
AcDbEntity
  8
実線
100
AcDbLine
 10
448.2831542008364
 20
310.1311451969382
 30
0.0
 11
539.2831542008365
 21
310.1311451969382
 31
0.0
  0
LINE
  5
50F
102
{ACAD_REACTORS
330
562
102
}
330
1F
100
AcDbEntity
  8
実線
100
AcDbLine
 10
448.2831542008364
 20
312.9811451969382
 30
0.0
 11
539.2831542008365
 21
312.9811451969382
 31
0.0
  0
LINE
  5
510
102
{ACAD_REACTORS
330
562
102
}
330
1F
100
AcDbEntity
  8
実線
100
AcDbLine
 10
539.2831542008365
 20
310.1311451969382
 30
0.0
 11
539.2831542008365
 21
312.9811451969382
 31
0.0
  0
LINE
  5
511
102
{ACAD_REACTORS
330
562
102
}
330
1F
100
AcDbEntity
  8
実線
100
AcDbLine
 10
448.2831542008364
 20
312.9811451969382
 30
0.0
 11
448.2831542008364
 21
310.1311451969382
 31
0.0
  0
LINE
  5
512
102
{ACAD_REACTORS
330
562
102
}
330
1F
100
AcDbEntity
  8
実線
100
AcDbLine
 10
558.7831542008365
 20
489.1311451969382
 30
0.0
 11
558.7831542008365
 21
743.1311451969381
 31
0.0
  0
LINE
  5
513
102
{ACAD_REACTORS
330
562
102
}
330
1F
100
AcDbEntity
  8
実線
100
AcDbLine
 10
428.7831542008364
 20
743.1311451969381
 30
0.0
 11
428.7831542008364
 21
489.1311451969382
 31
0.0
  0
LINE
  5
514
102
{ACAD_REACTORS
330
562
102
}
330
1F
100
AcDbEntity
  8
実線
100
AcDbLine
 10
517.8831542008365
 20
929.681145196938
 30
0.0
 11
517.8831542008365
 21
937.5811451969381
 31
0.0
  0
LINE
  5
515
102
{ACAD_REACTORS
330
562
102
}
330
1F
100
AcDbEntity
  8
実線
100
AcDbLine
 10
525.2831542008364
 20
929.681145196938
 30
0.0
 11
517.8831542008365
 21
929.681145196938
 31
0.0
  0
LINE
  5
516
102
{ACAD_REACTORS
330
562
102
}
330
1F
100
AcDbEntity
  8
実線
100
AcDbLine
 10
517.8831542008365
 20
937.5811451969381
 30
0.0
 11
525.2831542008364
 21
937.5811451969381
 31
0.0
  0
LINE
  5
517
102
{ACAD_REACTORS
330
562
102
}
330
1F
100
AcDbEntity
  8
実線
100
AcDbLine
 10
527.2831542008365
 20
886.6311451969382
 30
0.0
 11
527.2831542008365
 21
941.6311451969381
 31
0.0
  0
LINE
  5
518
102
{ACAD_REACTORS
330
562
102
}
330
1F
100
AcDbEntity
  8
実線
100
AcDbLine
 10
525.2831542008364
 20
941.6311451969381
 30
0.0
 11
525.2831542008364
 21
886.6311451969382
 31
0.0
  0
LINE
  5
519
102
{ACAD_REACTORS
330
562
102
}
330
1F
100
AcDbEntity
  8
実線
100
AcDbLine
 10
525.2831542008364
 20
886.6311451969382
 30
0.0
 11
527.2831542008365
 21
886.6311451969382
 31
0.0
  0
LINE
  5
51A
102
{ACAD_REACTORS
330
562
102
}
330
1F
100
AcDbEntity
  8
実線
100
AcDbLine
 10
527.2831542008365
 20
941.6311451969381
 30
0.0
 11
525.2831542008364
 21
941.6311451969381
 31
0.0
  0
LINE
  5
51B
102
{ACAD_REACTORS
330
562
102
}
330
1F
100
AcDbEntity
  8
実線
100
AcDbLine
 10
525.2831542008364
 20
901.181145196938
 30
0.0
 11
517.8831542008365
 21
901.181145196938
 31
0.0
  0
LINE
  5
51C
102
{ACAD_REACTORS
330
562
102
}
330
1F
100
AcDbEntity
  8
実線
100
AcDbLine
 10
517.8831542008365
 20
901.181145196938
 30
0.0
 11
517.8831542008365
 21
909.0811451969383
 31
0.0
  0
LINE
  5
51D
102
{ACAD_REACTORS
330
562
102
}
330
1F
100
AcDbEntity
  8
実線
100
AcDbLine
 10
517.8831542008365
 20
909.0811451969383
 30
0.0
 11
525.2831542008364
 21
909.0811451969383
 31
0.0
  0
LINE
  5
51E
102
{ACAD_REACTORS
330
562
102
}
330
1F
100
AcDbEntity
  8
実線
100
AcDbLine
 10
551.2831542008365
 20
843.6311451969382
 30
0.0
 11
551.2831542008365
 21
941.6311451969381
 31
0.0
  0
LINE
  5
51F
102
{ACAD_REACTORS
330
562
102
}
330
1F
100
AcDbEntity
  8
実線
100
AcDbLine
 10
551.2831542008365
 20
941.6311451969381
 30
0.0
 11
527.2831542008365
 21
941.6311451969381
 31
0.0
  0
LINE
  5
520
102
{ACAD_REACTORS
330
562
102
}
330
1F
100
AcDbEntity
  8
実線
100
AcDbLine
 10
525.2831542008364
 20
843.6311451969382
 30
0.0
 11
525.2831542008364
 21
886.6311451969382
 31
0.0
  0
LINE
  5
521
102
{ACAD_REACTORS
330
562
102
}
330
1F
100
AcDbEntity
  8
実線
100
AcDbLine
 10
516.7831542008364
 20
923.6311451969381
 30
0.0
 11
470.7831542008364
 21
923.6311451969381
 31
0.0
  0
LINE
  5
522
102
{ACAD_REACTORS
330
562
102
}
330
1F
100
AcDbEntity
  8
実線
100
AcDbLine
 10
516.7831542008364
 20
923.6311451969381
 30
0.0
 11
516.7831542008364
 21
933.6311451969381
 31
0.0
  0
LINE
  5
523
102
{ACAD_REACTORS
330
562
102
}
330
1F
100
AcDbEntity
  8
実線
100
AcDbLine
 10
470.7831542008364
 20
933.6311451969381
 30
0.0
 11
470.7831542008364
 21
923.6311451969381
 31
0.0
  0
LINE
  5
524
102
{ACAD_REACTORS
330
562
102
}
330
1F
100
AcDbEntity
  8
実線
100
AcDbLine
 10
516.7831542008364
 20
933.6311451969381
 30
0.0
 11
470.7831542008364
 21
933.6311451969381
 31
0.0
  0
LINE
  5
525
102
{ACAD_REACTORS
330
562
102
}
330
1F
100
AcDbEntity
  8
実線
100
AcDbLine
 10
509.7831542008365
 20
916.6311451969381
 30
0.0
 11
477.7831542008365
 21
916.6311451969381
 31
0.0
  0
LINE
  5
526
102
{ACAD_REACTORS
330
562
102
}
330
1F
100
AcDbEntity
  8
実線
100
AcDbLine
 10
509.7831542008365
 20
916.6311451969381
 30
0.0
 11
509.7831542008365
 21
923.6311451969381
 31
0.0
  0
LINE
  5
527
102
{ACAD_REACTORS
330
562
102
}
330
1F
100
AcDbEntity
  8
実線
100
AcDbLine
 10
477.7831542008365
 20
923.6311451969381
 30
0.0
 11
477.7831542008365
 21
916.6311451969381
 31
0.0
  0
LINE
  5
528
102
{ACAD_REACTORS
330
562
102
}
330
1F
100
AcDbEntity
  8
実線
100
AcDbLine
 10
505.7831542008365
 20
891.1311451969382
 30
0.0
 11
505.7831542008365
 21
916.6311451969381
 31
0.0
  0
LINE
  5
529
102
{ACAD_REACTORS
330
562
102
}
330
1F
100
AcDbEntity
  8
実線
100
AcDbLine
 10
481.7831542008365
 20
916.6311451969381
 30
0.0
 11
481.7831542008365
 21
891.1311451969382
 31
0.0
  0
LINE
  5
52A
102
{ACAD_REACTORS
330
562
102
}
330
1F
100
AcDbEntity
  8
実線
100
AcDbLine
 10
513.5831542008365
 20
879.1311451969381
 30
0.0
 11
513.5831542008365
 21
891.1311451969382
 31
0.0
  0
LINE
  5
52B
102
{ACAD_REACTORS
330
562
102
}
330
1F
100
AcDbEntity
  8
実線
100
AcDbLine
 10
473.9831542008365
 20
891.1311451969382
 30
0.0
 11
473.9831542008365
 21
879.1311451969381
 31
0.0
  0
LINE
  5
52C
102
{ACAD_REACTORS
330
562
102
}
330
1F
100
AcDbEntity
  8
実線
100
AcDbLine
 10
513.5831542008365
 20
891.1311451969382
 30
0.0
 11
473.9831542008365
 21
891.1311451969382
 31
0.0
  0
LINE
  5
52D
102
{ACAD_REACTORS
330
562
102
}
330
1F
100
AcDbEntity
  8
実線
100
AcDbLine
 10
513.5831542008365
 20
867.1311451969382
 30
0.0
 11
513.5831542008365
 21
879.1311451969381
 31
0.0
  0
LINE
  5
52E
102
{ACAD_REACTORS
330
562
102
}
330
1F
100
AcDbEntity
  8
実線
100
AcDbLine
 10
473.9831542008365
 20
879.1311451969381
 30
0.0
 11
473.9831542008365
 21
867.1311451969382
 31
0.0
  0
LINE
  5
52F
102
{ACAD_REACTORS
330
562
102
}
330
1F
100
AcDbEntity
  8
実線
100
AcDbLine
 10
513.5831542008365
 20
879.1311451969381
 30
0.0
 11
473.9831542008365
 21
879.1311451969381
 31
0.0
  0
LINE
  5
530
102
{ACAD_REACTORS
330
562
102
}
330
1F
100
AcDbEntity
  8
実線
100
AcDbLine
 10
516.7831542008364
 20
841.6311451969333
 30
0.0
 11
516.7831542008364
 21
867.1311451969382
 31
0.0
  0
LINE
  5
531
102
{ACAD_REACTORS
330
562
102
}
330
1F
100
AcDbEntity
  8
実線
100
AcDbLine
 10
470.7831542008364
 20
867.1311451969382
 30
0.0
 11
470.7831542008364
 21
841.6311451969333
 31
0.0
  0
LINE
  5
532
102
{ACAD_REACTORS
330
562
102
}
330
1F
100
AcDbEntity
  8
実線
100
AcDbLine
 10
516.7831542008364
 20
867.1311451969382
 30
0.0
 11
470.7831542008364
 21
867.1311451969382
 31
0.0
  0
LINE
  5
533
102
{ACAD_REACTORS
330
562
102
}
330
1F
100
AcDbEntity
  8
実線
100
AcDbLine
 10
428.7831542008364
 20
489.1311451969382
 30
0.0
 11
428.7831542008364
 21
485.6311451969382
 31
0.0
  0
LINE
  5
534
102
{ACAD_REACTORS
330
562
102
}
330
1F
100
AcDbEntity
  8
実線
100
AcDbLine
 10
558.7831542008365
 20
485.6311451969382
 30
0.0
 11
558.7831542008365
 21
489.1311451969382
 31
0.0
  0
LINE
  5
535
102
{ACAD_REACTORS
330
562
102
}
330
1F
100
AcDbEntity
  8
実線
100
AcDbLine
 10
558.7831542008365
 20
489.1311451969382
 30
0.0
 11
428.7831542008364
 21
489.1311451969382
 31
0.0
  0
LINE
  5
536
102
{ACAD_REACTORS
330
562
102
}
330
1F
100
AcDbEntity
  8
実線
100
AcDbLine
 10
567.3277538903032
 20
485.6311451969382
 30
0.0
 11
523.3731577884451
 21
485.6311451969382
 31
0.0
  0
LINE
  5
537
102
{ACAD_REACTORS
330
562
102
}
330
1F
100
AcDbEntity
  8
実線
100
AcDbLine
 10
567.3277538903033
 20
467.131145196938
 30
0.0
 11
567.3277538903033
 21
485.6311451969382
 31
0.0
  0
LINE
  5
538
102
{ACAD_REACTORS
330
562
102
}
330
1F
100
AcDbEntity
  8
実線
100
AcDbLine
 10
420.2385545113697
 20
485.6311451969382
 30
0.0
 11
420.2385545113697
 21
467.131145196938
 31
0.0
  0
LINE
  5
539
102
{ACAD_REACTORS
330
562
102
}
330
1F
100
AcDbEntity
  8
実線
100
AcDbLine
 10
420.2385545113697
 20
485.6311451969382
 30
0.0
 11
464.1931506132277
 21
485.6311451969382
 31
0.0
  0
LINE
  5
53A
102
{ACAD_REACTORS
330
562
102
}
330
1F
100
AcDbEntity
  8
実線
100
AcDbLine
 10
464.1931506132277
 20
485.6311451969382
 30
0.0
 11
464.1931506132277
 21
467.131145196938
 31
0.0
  0
LINE
  5
53B
102
{ACAD_REACTORS
330
562
102
}
330
1F
100
AcDbEntity
  8
実線
100
AcDbLine
 10
523.3731577884453
 20
485.6311451969382
 30
0.0
 11
523.3731577884453
 21
467.131145196938
 31
0.0
  0
LINE
  5
53C
102
{ACAD_REACTORS
330
562
102
}
330
1F
100
AcDbEntity
  8
実線
100
AcDbLine
 10
420.2385545113697
 20
467.131145196938
 30
0.0
 11
567.3277538903033
 21
467.131145196938
 31
0.0
  0
LINE
  5
53D
102
{ACAD_REACTORS
330
562
102
}
330
1F
100
AcDbEntity
  8
実線
100
AcDbLine
 10
443.7831542008364
 20
377.6311451969381
 30
0.0
 11
543.7831542008365
 21
377.6311451969381
 31
0.0
  0
ARC
  5
53E
102
{ACAD_REACTORS
330
562
102
}
330
1F
100
AcDbEntity
  8
実線
100
AcDbCircle
 10
443.7831542008364
 20
392.6311451969381
 30
0.0
 40
15.0
100
AcDbArc
 50
225.234915328675
 51
270.0
  0
ARC
  5
53F
102
{ACAD_REACTORS
330
562
102
}
330
1F
100
AcDbEntity
  8
実線
100
AcDbCircle
 10
543.7831542008365
 20
392.6311451969381
 30
0.0
 40
15.0
100
AcDbArc
 50
270.0
 51
314.7650846713251
  0
LINE
  5
540
102
{ACAD_REACTORS
330
562
102
}
330
1F
100
AcDbEntity
  8
実線
100
AcDbLine
 10
567.3277538903032
 20
447.1311451969382
 30
0.0
 11
523.3731577884451
 21
447.1311451969382
 31
0.0
  0
LINE
  5
541
102
{ACAD_REACTORS
330
562
102
}
330
1F
100
AcDbEntity
  8
実線
100
AcDbLine
 10
567.3277538903033
 20
447.1311451969382
 30
0.0
 11
567.3277538903033
 21
467.131145196938
 31
0.0
  0
LINE
  5
542
102
{ACAD_REACTORS
330
562
102
}
330
1F
100
AcDbEntity
  8
実線
100
AcDbLine
 10
420.2385545113697
 20
467.131145196938
 30
0.0
 11
420.2385545113697
 21
447.1311451969382
 31
0.0
  0
LINE
  5
543
102
{ACAD_REACTORS
330
562
102
}
330
1F
100
AcDbEntity
  8
実線
100
AcDbLine
 10
420.2385545113697
 20
447.1311451969382
 30
0.0
 11
464.1931506132277
 21
447.1311451969382
 31
0.0
  0
LINE
  5
544
102
{ACAD_REACTORS
330
562
102
}
330
1F
100
AcDbEntity
  8
実線
100
AcDbLine
 10
464.1931506132277
 20
467.131145196938
 30
0.0
 11
464.1931506132277
 21
447.1311451969382
 31
0.0
  0
LINE
  5
545
102
{ACAD_REACTORS
330
562
102
}
330
1F
100
AcDbEntity
  8
実線
100
AcDbLine
 10
523.3731577884453
 20
467.131145196938
 30
0.0
 11
523.3731577884453
 21
447.1311451969382
 31
0.0
  0
LINE
  5
546
102
{ACAD_REACTORS
330
562
102
}
330
1F
100
AcDbEntity
  8
実線
100
AcDbLine
 10
557.7831542008365
 20
841.6311451969381
 30
0.0
 11
557.7831542008365
 21
843.6311451969382
 31
0.0
  0
LINE
  5
547
102
{ACAD_REACTORS
330
562
102
}
330
1F
100
AcDbEntity
  8
実線
100
AcDbLine
 10
522.7831542008365
 20
841.6311451969381
 30
0.0
 11
522.7831542008365
 21
843.6311451969382
 31
0.0
  0
LINE
  5
548
102
{ACAD_REACTORS
330
562
102
}
330
1F
100
AcDbEntity
  8
実線
100
AcDbLine
 10
557.7831542008365
 20
843.6311451969382
 30
0.0
 11
522.7831542008365
 21
843.6311451969382
 31
0.0
  0
LINE
  5
549
102
{ACAD_REACTORS
330
562
102
}
330
1F
100
AcDbEntity
  8
実線
100
AcDbLine
 10
408.7831542008488
 20
841.6311451969381
 30
0.0
 11
578.7831542008365
 21
841.6311451969381
 31
0.0
  0
ARC
  5
54A
102
{ACAD_REACTORS
330
562
102
}
330
1F
100
AcDbEntity
  8
実線
100
AcDbCircle
 10
578.7831542008365
 20
836.6311451969382
 30
0.0
 40
5.0
100
AcDbArc
 50
0.0
 51
90.0
  0
ARC
  5
54B
102
{ACAD_REACTORS
330
562
102
}
330
1F
100
AcDbEntity
  8
実線
100
AcDbCircle
 10
408.7831542008366
 20
836.6311451969382
 30
0.0
 40
5.0
100
AcDbArc
 50
90.0
 51
180.0
  0
LINE
  5
54C
102
{ACAD_REACTORS
330
562
102
}
330
1F
100
AcDbEntity
  8
実線
100
AcDbLine
 10
583.7831542008365
 20
836.6311451969382
 30
0.0
 11
403.7831542008366
 21
836.6311451969382
 31
0.0
  0
LINE
  5
54D
102
{ACAD_REACTORS
330
565
102
}
330
1F
100
AcDbEntity
  8
中心線
100
AcDbLine
 10
381.7831542008367
 20
120.1311451969452
 30
0.0
 11
605.7831542008366
 21
120.1311451969452
 31
0.0
  0
LINE
  5
54E
102
{ACAD_REACTORS
330
565
102
}
330
1F
100
AcDbEntity
  8
中心線
100
AcDbLine
 10
493.7831542008366
 20
20.13114519694529
 30
0.0
 11
493.7831542008365
 21
220.1311451969453
 31
0.0
  0
LINE
  5
54F
102
{ACAD_REACTORS
330
5F8
102
}
330
1F
100
AcDbEntity
  8
中心線
100
AcDbLine
 10
381.7831542008367
 20
1140.131145196938
 30
0.0
 11
605.7831542008367
 21
1140.131145196938
 31
0.0
  0
LINE
  5
550
102
{ACAD_REACTORS
330
5F8
102
}
330
1F
100
AcDbEntity
  8
中心線
100
AcDbLine
 10
493.7831542008364
 20
1040.131145196945
 30
0.0
 11
493.7831542008365
 21
1240.131145196945
 31
0.0
  0
LINE
  5
551
102
{ACAD_REACTORS
330
560
102
}
330
1F
100
AcDbEntity
  8
中心線
100
AcDbLine
 10
1101.783154200836
 20
420.1311451969381
 30
0.0
 11
1325.783154200836
 21
420.1311451969381
 31
0.0
  0
LINE
  5
552
102
{ACAD_REACTORS
330
560
102
}
330
1F
100
AcDbEntity
  8
中心線
100
AcDbLine
 10
1213.783154200837
 20
308.1311451969523
 30
0.0
 11
1213.783154200837
 21
952.0758780032318
 31
0.0
  0
LINE
  5
55A
102
{ACAD_REACTORS
330
561
102
}
330
1F
100
AcDbEntity
  8
中心線
100
AcDbLine
 10
768.7831542008361
 20
420.131145196938
 30
0.0
 11
938.7831542008362
 21
420.131145196938
 31
0.0
  0
LINE
  5
55B
102
{ACAD_REACTORS
330
561
102
}
330
1F
100
AcDbEntity
  8
中心線
100
AcDbLine
 10
853.7831542008362
 20
308.1311451969522
 30
0.0
 11
853.7831542008362
 21
952.0758780032318
 31
0.0
  0
LINE
  5
55C
102
{ACAD_REACTORS
330
562
102
}
330
1F
100
AcDbEntity
  8
中心線
100
AcDbLine
 10
381.7831542008368
 20
420.131145196938
 30
0.0
 11
605.7831542008369
 21
420.1311451969379
 31
0.0
  0
LINE
  5
55D
102
{ACAD_REACTORS
330
562
102
}
330
1F
100
AcDbEntity
  8
中心線
100
AcDbLine
 10
493.7831542008366
 20
308.1311451969522
 30
0.0
 11
493.7831542008364
 21
952.0758780032318
 31
0.0
  0
LINE
  5
55E
102
{ACAD_REACTORS
330
563
102
}
330
1F
100
AcDbEntity
  8
中心線
100
AcDbLine
 10
48.78315420083646
 20
420.131145196938
 30
0.0
 11
218.7831542008364
 21
420.131145196938
 31
0.0
  0
LINE
  5
55F
102
{ACAD_REACTORS
330
563
102
}
330
1F
100
AcDbEntity
  8
中心線
100
AcDbLine
 10
133.7831542008364
 20
308.1311451969522
 30
0.0
 11
133.7831542008364
 21
952.0758780032318
 31
0.0
  0
ENDSEC
  0
SECTION
  2
OBJECTS
  0
DICTIONARY
  5
C
330
0
100
AcDbDictionary
281
     1
  3
ACAD_CIP_PREVIOUS_PRODUCT_INFO
350
289
  3
ACAD_COLOR
350
27F
  3
ACAD_DETAILVIEWSTYLE
350
282
  3
ACAD_GROUP
350
D
  3
ACAD_LAYOUT
350
1A
  3
ACAD_MATERIAL
350
43
  3
ACAD_MLEADERSTYLE
350
5B
  3
ACAD_MLINESTYLE
350
17
  3
ACAD_PLOTSETTINGS
350
19
  3
ACAD_PLOTSTYLENAME
350
E
  3
ACAD_SCALELIST
350
47
  3
ACAD_SECTIONVIEWSTYLE
350
280
  3
ACAD_TABLESTYLE
350
59
  3
ACAD_VISUALSTYLE
350
2A
  3
ACDB_RECOMPOSE_DATA
350
606
  3
AcDbVariableDictionary
350
234
  3
DWGPROPS
350
607
  0
DICTIONARY
  5
290
330
2
100
AcDbDictionary
280
     1
281
     1
  3
ACAD_LAYERSTATES
360
291
  0
DICTIONARY
  5
566
330
10
100
AcDbDictionary
280
     1
281
     1
  3
ADSK_XREC_LAYER_RECONCILED
360
567
  0
DICTIONARY
  5
28C
330
28B
100
AcDbDictionary
280
     1
281
     1
  3
ADSK_XREC_LAYER_RECONCILED
360
568
  0
DICTIONARY
  5
28E
330
28D
100
AcDbDictionary
280
     1
281
     1
  3
ADSK_XREC_LAYER_RECONCILED
360
569
  0
DICTIONARY
  5
3C5
330
1F
100
AcDbDictionary
280
     1
281
     1
  3
ACAD_SORTENTS
360
3C6
  0
XRECORD
  5
289
102
{ACAD_REACTORS
330
C
102
}
330
C
100
AcDbXrecord
280
     1
300
ACDLT
300
2016
300
ACDLT_F_S
  0
DICTIONARY
  5
27F
102
{ACAD_REACTORS
330
C
102
}
330
C
100
AcDbDictionary
281
     1
  0
DICTIONARY
  5
282
102
{ACAD_REACTORS
330
C
102
}
330
C
100
AcDbDictionary
281
     1
  3
Metric50
350
283
  0
DICTIONARY
  5
D
102
{ACAD_REACTORS
330
C
102
}
330
C
100
AcDbDictionary
281
     1
  3
*A1
350
560
  3
*A2
350
561
  3
*A3
350
562
  3
*A4
350
563
  3
*A6
350
565
  3
*A7
350
5F8
  0
DICTIONARY
  5
1A
102
{ACAD_REACTORS
330
C
102
}
330
C
100
AcDbDictionary
281
     1
  3
Layout1
350
1E
  3
Model
350
22
  3
レイアウト1
350
284
  0
DICTIONARY
  5
43
102
{ACAD_REACTORS
330
C
102
}
330
C
100
AcDbDictionary
281
     1
  3
ByBlock
350
45
  3
ByLayer
350
44
  3
Global
350
46
  0
DICTIONARY
  5
5B
102
{ACAD_REACTORS
330
C
102
}
330
C
100
AcDbDictionary
281
     1
  3
Standard
350
5C
  0
DICTIONARY
  5
17
102
{ACAD_REACTORS
330
C
102
}
330
C
100
AcDbDictionary
281
     1
  3
Standard
350
18
  0
DICTIONARY
  5
19
102
{ACAD_REACTORS
330
C
102
}
330
C
100
AcDbDictionary
281
     1
  0
ACDBDICTIONARYWDFLT
  5
E
102
{ACAD_REACTORS
330
C
102
}
330
C
100
AcDbDictionary
281
     1
  3
Normal
350
F
100
AcDbDictionaryWithDefault
340
F
  0
DICTIONARY
  5
47
102
{ACAD_REACTORS
330
C
102
}
330
C
100
AcDbDictionary
281
     1
  3
A0
350
48
  3
A1
350
49
  3
A2
350
4A
  3
A3
350
4B
  3
A4
350
4C
  3
A5
350
4D
  3
A6
350
4E
  3
A7
350
4F
  3
A8
350
50
  3
A9
350
51
  3
B0
350
52
  3
B1
350
53
  3
B2
350
54
  3
B3
350
55
  3
B4
350
56
  3
B5
350
57
  3
B6
350
58
  0
DICTIONARY
  5
280
102
{ACAD_REACTORS
330
C
102
}
330
C
100
AcDbDictionary
281
     1
  3
Metric50
350
281
  0
DICTIONARY
  5
59
102
{ACAD_REACTORS
330
C
102
}
330
C
100
AcDbDictionary
281
     1
  3
Standard
350
5A
  0
DICTIONARY
  5
2A
102
{ACAD_REACTORS
330
C
102
}
330
C
100
AcDbDictionary
281
     1
  3
2dWireframe
350
2F
  3
Basic
350
32
  3
Brighten
350
36
  3
ColorChange
350
3A
  3
Conceptual
350
34
  3
Dim
350
35
  3
EdgeColorOff
350
3D
  3
Facepattern
350
39
  3
Flat
350
2B
  3
FlatWithEdges
350
2C
  3
Gouraud
350
2D
  3
GouraudWithEdges
350
2E
  3
Hidden
350
31
  3
JitterOff
350
3B
  3
Linepattern
350
38
  3
OverhangOff
350
3C
  3
Realistic
350
33
  3
Shaded
350
42
  3
Shaded with edges
350
41
  3
Shades of Gray
350
3E
  3
Sketchy
350
3F
  3
Thicken
350
37
  3
Wireframe
350
30
  3
X-Ray
350
40
  0
XRECORD
  5
606
102
{ACAD_REACTORS
330
C
102
}
330
C
100
AcDbXrecord
280
     1
 90
        1
330
5A
  0
DICTIONARY
  5
234
102
{ACAD_REACTORS
330
C
102
}
330
C
100
AcDbDictionary
281
     1
  3
CANNOSCALE
350
242
  3
CENTEREXE
350
23B
  3
CENTERLTYPEFILE
350
23C
  3
CMLEADERSTYLE
350
236
  3
CTABLESTYLE
350
235
  3
CVIEWDETAILSTYLE
350
56A
  3
CVIEWSECTIONSTYLE
350
56B
  3
DIMASSOC
350
23D
  3
HIDETEXT
350
23E
  3
INDEXCTL
350
5FE
  3
LAYEREVAL
350
56D
  3
LAYERNOTIFY
350
56E
  3
LIGHTINGUNITS
350
56C
  3
LOFTANG1
350
601
  3
LOFTANG2
350
602
  3
LONGITUDE
350
603
  3
MSLTSCALE
350
243
  3
PSOLHEIGHT
350
600
  3
PSOLWIDTH
350
5FF
  3
SORTENTS
350
5FD
  3
XCLIPFRAME
350
604
  0
XRECORD
  5
607
102
{ACAD_REACTORS
330
C
102
}
330
C
100
AcDbXrecord
280
     1
  1
DWGPROPS COOKIE
  2

  3

  4

  6
File was created by TR2_DExp
  7

  8
fujino
  9

300
=
301
=
302
=
303
=
304
=
305
=
306
=
307
=
308
=
309
=
 40
0.0091132523148148
 41
2455188.75
 42
2459745.61784853
  1

 90
        0
  0
DICTIONARY
  5
291
102
{ACAD_REACTORS
330
290
102
}
330
290
100
AcDbDictionary
281
     1
  0
XRECORD
  5
567
102
{ACAD_REACTORS
330
566
102
}
330
566
100
AcDbXrecord
280
     1
290
     1
  0
XRECORD
  5
568
102
{ACAD_REACTORS
330
28C
102
}
330
28C
100
AcDbXrecord
280
     1
290
     1
  0
XRECORD
  5
569
102
{ACAD_REACTORS
330
28E
102
}
330
28E
100
AcDbXrecord
280
     1
290
     1
  0
SORTENTSTABLE
  5
3C6
102
{ACAD_REACTORS
330
3C5
102
}
330
3C5
100
AcDbSortentsTable
330
1F
331
3FD
  5
49E
331
46F
  5
3DF
331
3B6
  5
4BF
331
3B2
  5
4BB
331
3F9
  5
49A
331
4DD
  5
3B3
331
42C
  5
43B
331
46B
  5
3DB
331
55F
  5
55F
331
49E
  5
374
331
467
  5
3D7
331
3AE
  5
4B7
331
55B
  5
55B
331
49A
  5
40A
331
4D9
  5
3AF
331
514
  5
33A
331
428
  5
437
331
463
  5
3D3
331
3AA
  5
4B3
331
3F1
  5
492
331
54F
  5
54F
331
496
  5
406
331
4D5
  5
3AB
331
510
  5
336
331
424
  5
433
331
420
  5
42F
331
50C
  5
332
331
54B
  5
371
331
492
  5
402
331
4D1
  5
3A7
331
508
  5
32E
331
3ED
  5
48E
331
45F
  5
3CF
331
3E9
  5
48A
331
4CD
  5
3A3
331
41C
  5
42B
331
45B
  5
3CB
331
547
  5
36D
331
48E
  5
3FE
331
3E5
  5
486
331
48A
  5
3FA
331
4C9
  5
39F
331
418
  5
427
331
504
  5
32A
331
543
  5
369
331
457
  5
466
331
453
  5
462
331
53F
  5
365
331
4C5
  5
39B
331
500
  5
326
331
3E1
  5
482
331
53B
  5
361
331
4C1
  5
397
331
4FC
  5
322
331
4F8
  5
31E
331
3C7
  5
468
331
3C3
  5
4CC
331
3DD
  5
47E
331
44F
  5
45E
331
3D9
  5
47A
331
4BD
  5
393
331
537
  5
35D
331
44B
  5
45A
331
486
  5
3F6
331
3D5
  5
476
331
414
  5
423
331
4B9
  5
38F
331
533
  5
359
331
447
  5
456
331
410
  5
41F
331
443
  5
452
331
482
  5
3F2
331
3D1
  5
472
331
4B5
  5
38B
331
4F4
  5
31A
331
52F
  5
355
331
4F0
  5
3C8
331
52B
  5
351
331
4B1
  5
387
331
3A6
  5
4AF
331
3A2
  5
4AB
331
40C
  5
41B
331
43F
  5
44E
331
47E
  5
3EE
331
3CD
  5
46E
331
3C9
  5
46A
331
408
  5
417
331
4AD
  5
383
331
4EC
  5
3C2
331
527
  5
34D
331
43B
  5
44A
331
47A
  5
3EA
331
476
  5
3E6
331
3BD
  5
4C6
331
404
  5
413
331
4A9
  5
37F
331
4E8
  5
3BE
331
523
  5
349
331
437
  5
446
331
433
  5
442
331
472
  5
3E2
331
3B9
  5
4C2
331
4A5
  5
37B
331
4E4
  5
3BA
331
51F
  5
345
331
400
  5
40F
331
4E0
  5
3B6
331
51B
  5
341
331
4A1
  5
377
331
39E
  5
4A7
331
39A
  5
4A3
331
396
  5
49F
331
3FC
  5
49D
331
42F
  5
43E
331
46E
  5
3DE
331
3B5
  5
4BE
331
3B1
  5
4BA
331
4DC
  5
3B2
331
42B
  5
43A
331
46A
  5
3DA
331
55E
  5
55E
331
517
  5
33D
331
49D
  5
373
331
466
  5
3D6
331
3AD
  5
4B6
331
55A
  5
55A
331
499
  5
409
331
4D8
  5
3AE
331
513
  5
339
331
427
  5
436
331
423
  5
432
331
462
  5
3D2
331
3A9
  5
4B2
331
54E
  5
54E
331
495
  5
405
331
4D4
  5
3AA
331
50F
  5
335
331
3F0
  5
491
331
50B
  5
331
331
54A
  5
370
331
491
  5
401
331
4D0
  5
3A6
331
3EC
  5
48D
331
41F
  5
42E
331
45E
  5
3CE
331
3E8
  5
489
331
4CC
  5
3A2
331
41B
  5
42A
331
45A
  5
3CA
331
507
  5
32D
331
546
  5
36C
331
48D
  5
3FD
331
456
  5
465
331
489
  5
3F9
331
4C8
  5
39E
331
3E4
  5
485
331
503
  5
329
331
542
  5
368
331
452
  5
461
331
53E
  5
364
331
4C4
  5
39A
331
4FF
  5
325
331
3E0
  5
481
331
4FB
  5
321
331
53A
  5
360
331
4C0
  5
396
331
3C2
  5
4CB
331
3DC
  5
47D
331
44E
  5
45D
331
3D8
  5
479
331
417
  5
426
331
4BC
  5
392
331
536
  5
35C
331
44A
  5
459
331
485
  5
3F5
331
3D4
  5
475
331
413
  5
422
331
4B8
  5
38E
331
4F7
  5
31D
331
532
  5
358
331
446
  5
455
331
442
  5
451
331
481
  5
3F1
331
3D0
  5
471
331
52E
  5
354
331
4B4
  5
38A
331
4F3
  5
319
331
52A
  5
350
331
4B0
  5
386
331
3A5
  5
4AE
331
552
  5
552
331
3A1
  5
4AA
331
40F
  5
41E
331
3CC
  5
46D
331
40B
  5
41A
331
4EF
  5
3C7
331
43E
  5
44D
331
47D
  5
3ED
331
3C8
  5
469
331
407
  5
416
331
4AC
  5
382
331
4EB
  5
3C1
331
526
  5
34C
331
43A
  5
449
331
479
  5
3E9
331
475
  5
3E5
331
3BC
  5
4C5
331
403
  5
412
331
4A8
  5
37E
331
4E7
  5
3BD
331
522
  5
348
331
436
  5
445
331
432
  5
441
331
471
  5
3E1
331
3B8
  5
4C1
331
4A4
  5
37A
331
4E3
  5
3B9
331
51E
  5
344
331
51A
  5
340
331
4A0
  5
376
331
39D
  5
4A6
331
399
  5
4A2
331
3FF
  5
40E
331
3FB
  5
49C
331
4DF
  5
3B5
331
42E
  5
43D
331
46D
  5
3DD
331
3B4
  5
4BD
331
3B0
  5
4B9
331
55D
  5
55D
331
49C
  5
40C
331
4DB
  5
3B1
331
516
  5
33C
331
42A
  5
439
331
469
  5
3D9
331
465
  5
3D5
331
3AC
  5
4B5
331
3F3
  5
494
331
498
  5
408
331
4D7
  5
3AD
331
512
  5
338
331
426
  5
435
331
422
  5
431
331
461
  5
3D1
331
3A8
  5
4B1
331
54D
  5
54D
331
494
  5
404
331
4D3
  5
3A9
331
50E
  5
334
331
50A
  5
330
331
549
  5
36F
331
490
  5
400
331
3EF
  5
490
331
3EB
  5
48C
331
4CF
  5
3A5
331
41E
  5
42D
331
45D
  5
3CD
331
3E7
  5
488
331
4CB
  5
3A1
331
41A
  5
429
331
459
  5
3C9
331
506
  5
32C
331
545
  5
36B
331
48C
  5
3FC
331
455
  5
464
331
488
  5
3F8
331
4C7
  5
39D
331
3E3
  5
484
331
502
  5
328
331
541
  5
367
331
451
  5
460
331
53D
  5
363
331
4C3
  5
399
331
4FE
  5
324
331
4FA
  5
320
331
539
  5
35F
331
3C1
  5
4CA
331
3DF
  5
480
331
3DB
  5
47C
331
44D
  5
45C
331
4BF
  5
395
331
3D7
  5
478
331
416
  5
425
331
4BB
  5
391
331
535
  5
35B
331
449
  5
458
331
445
  5
454
331
484
  5
3F4
331
3D3
  5
474
331
4B7
  5
38D
331
4F6
  5
31C
331
531
  5
357
331
412
  5
421
331
441
  5
450
331
480
  5
3F0
331
52D
  5
353
331
4B3
  5
389
331
4F2
  5
318
331
529
  5
34F
331
3A4
  5
4AD
331
551
  5
551
331
3A0
  5
4A9
331
40E
  5
41D
331
3CF
  5
470
331
3CB
  5
46C
331
40A
  5
419
331
4EE
  5
3C4
331
43D
  5
44C
331
47C
  5
3EC
331
4AF
  5
385
331
478
  5
3E8
331
3BF
  5
4C8
331
406
  5
415
331
4AB
  5
381
331
4EA
  5
3C0
331
525
  5
34B
331
439
  5
448
331
474
  5
3E4
331
3BB
  5
4C4
331
402
  5
411
331
4A7
  5
37D
331
4E6
  5
3BC
331
521
  5
347
331
435
  5
444
331
431
  5
440
331
470
  5
3E0
331
51D
  5
343
331
4A3
  5
379
331
4E2
  5
3B8
331
519
  5
33F
331
39C
  5
4A5
331
398
  5
4A1
331
3FE
  5
40D
331
3B7
  5
4C0
331
3B3
  5
4BC
331
3FA
  5
49B
331
4DE
  5
3B4
331
42D
  5
43C
331
46C
  5
3DC
331
49F
  5
375
331
3AF
  5
4B8
331
3F6
  5
497
331
55C
  5
55C
331
49B
  5
40B
331
4DA
  5
3B0
331
515
  5
33B
331
429
  5
438
331
468
  5
3D8
331
464
  5
3D4
331
3AB
  5
4B4
331
3F2
  5
493
331
497
  5
407
331
4D6
  5
3AC
331
511
  5
337
331
425
  5
434
331
421
  5
430
331
460
  5
3D0
331
54C
  5
372
331
493
  5
403
331
4D2
  5
3A8
331
50D
  5
333
331
509
  5
32F
331
548
  5
36E
331
3EE
  5
48F
331
3EA
  5
48B
331
4CE
  5
3A4
331
41D
  5
42C
331
45C
  5
3CC
331
48F
  5
3FF
331
3E6
  5
487
331
48B
  5
3FB
331
4CA
  5
3A0
331
419
  5
428
331
505
  5
32B
331
544
  5
36A
331
458
  5
467
331
454
  5
463
331
4C6
  5
39C
331
3E2
  5
483
331
501
  5
327
331
540
  5
366
331
450
  5
45F
331
53C
  5
362
331
4C2
  5
398
331
4FD
  5
323
331
4F9
  5
31F
331
538
  5
35E
331
3C4
  5
4CD
331
3C0
  5
4C9
331
3DE
  5
47F
331
3DA
  5
47B
331
4BE
  5
394
331
44C
  5
45B
331
487
  5
3F7
331
3D6
  5
477
331
415
  5
424
331
4BA
  5
390
331
534
  5
35A
331
448
  5
457
331
444
  5
453
331
483
  5
3F3
331
3D2
  5
473
331
4B6
  5
38C
331
4F5
  5
31B
331
530
  5
356
331
411
  5
420
331
4F1
  5
317
331
440
  5
44F
331
52C
  5
352
331
4B2
  5
388
331
528
  5
34E
331
3A7
  5
4B0
331
3A3
  5
4AC
331
550
  5
550
331
40D
  5
41C
331
47F
  5
3EF
331
3CE
  5
46F
331
3CA
  5
46B
331
409
  5
418
331
4ED
  5
3C3
331
43C
  5
44B
331
47B
  5
3EB
331
4AE
  5
384
331
477
  5
3E7
331
3BE
  5
4C7
331
405
  5
414
331
4AA
  5
380
331
4E9
  5
3BF
331
524
  5
34A
331
438
  5
447
331
434
  5
443
331
473
  5
3E3
331
3BA
  5
4C3
331
4A6
  5
37C
331
4E5
  5
3BB
331
520
  5
346
331
401
  5
410
331
430
  5
43F
331
51C
  5
342
331
4A2
  5
378
331
4E1
  5
3B7
331
518
  5
33E
331
39F
  5
4A8
331
39B
  5
4A4
331
397
  5
4A0
  0
ACDBDETAILVIEWSTYLE
  5
283
102
{ACAD_XDICTIONARY
360
63F
102
}
102
{ACAD_REACTORS
330
282
102
}
330
282
100
AcDbModelDocViewStyle
 70
     0
  3
Metric50
290
     0
100
AcDbDetailViewStyle
 70
     0
 71
     0
 90
        3
 71
     1
340
11
 40
5.0
340
0
 40
5.0
300

 40
0.0
280
     1
 71
     2
340
16
 90
       25
 71
     3
340
11
 40
5.0
 90
        0
 40
15.0
 90
        1
300
%<\AcVar ViewDetailId>% (%<\AcVar ViewScale \f "%sn">%)
 71
     4
340
16
 90
       25
340
16
 90
       25
280
     0
  0
GROUP
  5
560
102
{ACAD_REACTORS
330
D
102
}
330
D
100
AcDbGroup
300

 70
     1
 71
     1
340
552
340
551
340
458
340
457
340
456
340
455
340
454
340
453
340
452
340
451
340
450
340
44F
340
44E
340
44D
340
44C
340
44B
340
44A
340
449
340
448
340
447
340
446
340
445
340
444
340
443
340
442
340
441
340
440
340
43F
340
43E
340
43D
340
43C
340
43B
340
43A
340
439
340
438
340
437
340
436
340
435
340
434
340
433
340
432
340
431
340
430
340
42F
340
42E
340
42D
340
42C
340
42B
340
42A
340
429
340
428
340
427
340
426
340
425
340
424
340
423
340
422
340
421
340
420
340
41F
340
41E
340
41D
340
41C
340
41B
340
41A
340
419
340
418
340
417
340
416
340
415
340
414
340
413
340
412
340
411
340
410
340
40F
340
40E
340
40D
340
40C
340
40B
340
40A
340
409
340
408
340
407
340
406
340
405
340
404
340
403
340
402
340
401
340
400
340
3FF
340
3FE
  0
GROUP
  5
561
102
{ACAD_REACTORS
330
D
102
}
330
D
100
AcDbGroup
300

 70
     1
 71
     1
340
55B
340
55A
340
49C
340
49B
340
49A
340
499
340
498
340
497
340
496
340
495
340
494
340
493
340
492
340
491
340
490
340
48F
340
48E
340
48D
340
48C
340
48B
340
48A
340
489
340
488
340
487
340
486
340
485
340
484
340
483
340
482
340
481
340
480
340
47F
340
47E
340
47D
340
47C
340
47B
340
47A
340
479
340
478
340
477
340
476
340
475
340
474
340
473
340
472
340
471
340
470
340
46F
340
46E
340
46D
340
46C
340
46B
340
46A
340
469
340
468
340
467
340
466
340
465
340
464
340
463
340
462
340
461
340
460
340
45F
340
45E
340
45D
340
45C
340
45B
340
45A
340
459
  0
GROUP
  5
562
102
{ACAD_REACTORS
330
D
102
}
330
D
100
AcDbGroup
300

 70
     1
 71
     1
340
55D
340
55C
340
54C
340
54B
340
54A
340
549
340
548
340
547
340
546
340
545
340
544
340
543
340
542
340
541
340
540
340
53F
340
53E
340
53D
340
53C
340
53B
340
53A
340
539
340
538
340
537
340
536
340
535
340
534
340
533
340
532
340
531
340
530
340
52F
340
52E
340
52D
340
52C
340
52B
340
52A
340
529
340
528
340
527
340
526
340
525
340
524
340
523
340
522
340
521
340
520
340
51F
340
51E
340
51D
340
51C
340
51B
340
51A
340
519
340
518
340
517
340
516
340
515
340
514
340
513
340
512
340
511
340
510
340
50F
340
50E
340
50D
340
50C
340
50B
340
50A
340
509
340
508
340
507
340
506
340
505
340
504
340
503
340
502
340
501
340
500
340
4FF
340
4FE
340
4FD
340
4FC
340
4FB
340
4FA
340
4F9
340
4F8
340
4F7
340
4F6
340
4F5
340
4F4
340
4F3
340
4F2
340
4F1
  0
GROUP
  5
563
102
{ACAD_REACTORS
330
D
102
}
330
D
100
AcDbGroup
300

 70
     1
 71
     1
340
55F
340
55E
340
4F0
340
4EF
340
4EE
340
4ED
340
4EC
340
4EB
340
4EA
340
4E9
340
4E8
340
4E7
340
4E6
340
4E5
340
4E4
340
4E3
340
4E2
340
4E1
340
4E0
340
4DF
340
4DE
340
4DD
340
4DC
340
4DB
340
4DA
340
4D9
340
4D8
340
4D7
340
4D6
340
4D5
340
4D4
340
4D3
340
4D2
340
4D1
340
4D0
340
4CF
340
4CE
340
4CD
340
4CC
340
4CB
340
4CA
340
4C9
340
4C8
340
4C7
340
4C6
340
4C5
340
4C4
340
4C3
340
4C2
340
4C1
340
4C0
340
4BF
340
4BE
340
4BD
340
4BC
340
4BB
340
4BA
340
4B9
340
4B8
340
4B7
340
4B6
340
4B5
340
4B4
340
4B3
340
4B2
340
4B1
340
4B0
340
4AF
340
4AE
340
4AD
340
4AC
340
4AB
340
4AA
340
4A9
340
4A8
340
4A7
340
4A6
340
4A5
340
4A4
340
4A3
340
4A2
340
4A1
340
4A0
340
49F
340
49E
340
49D
  0
GROUP
  5
565
102
{ACAD_REACTORS
330
D
102
}
330
D
100
AcDbGroup
300

 70
     1
 71
     1
340
54E
340
54D
340
3C4
340
3C3
340
3C2
340
3C1
340
3C0
340
3BF
340
3BE
340
3BD
340
3BC
340
3BB
340
3BA
340
3B9
340
3B8
340
3B7
340
3B6
340
3B5
340
3B4
340
3B3
340
3B2
340
3B1
340
3B0
340
3AF
340
3AE
340
3AD
340
3AC
340
3AB
340
3AA
340
3A9
340
3A8
340
3A7
340
3A6
340
3A5
340
3A4
340
3A3
340
3A2
340
3A1
340
3A0
340
39F
340
39E
340
39D
340
39C
340
39B
340
39A
340
399
340
398
340
397
340
396
  0
GROUP
  5
5F8
102
{ACAD_REACTORS
330
D
102
}
330
D
100
AcDbGroup
300

 70
     1
 71
     1
340
550
340
54F
340
3FD
340
3FC
340
3FB
340
3FA
340
3F9
340
3F6
340
3F3
340
3F2
340
3F1
340
3F0
340
3EF
340
3EE
340
3ED
340
3EC
340
3EB
340
3EA
340
3E9
340
3E8
340
3E7
340
3E6
340
3E5
340
3E4
340
3E3
340
3E2
340
3E1
340
3E0
340
3DF
340
3DE
340
3DD
340
3DC
340
3DB
340
3DA
340
3D9
340
3D8
340
3D7
340
3D6
340
3D5
340
3D4
340
3D3
340
3D2
340
3D1
340
3D0
340
3CF
340
3CE
340
3CD
340
3CC
340
3CB
340
3CA
340
3C9
340
3C8
340
3C7
  0
LAYOUT
  5
1E
102
{ACAD_XDICTIONARY
360
608
102
}
102
{ACAD_REACTORS
330
1A
102
}
330
1A
100
AcDbPlotSettings
  1

  2
none_device
  4

  6

 40
0.0
 41
0.0
 42
0.0
 43
0.0
 44
0.0
 45
0.0
 46
0.0
 47
0.0
 48
0.0
 49
0.0
140
0.0
141
0.0
142
1.0
143
1.0
 70
   688
 72
     1
 73
     0
 74
     5
  7

 75
    16
147
1.0
148
0.0
149
0.0
100
AcDbLayout
  1
Layout1
 70
     1
 71
     1
 10
0.0
 20
0.0
 11
420.0
 21
297.0
 12
0.0
 22
0.0
 32
0.0
 14
1.000000000000000E+20
 24
1.000000000000000E+20
 34
1.000000000000000E+20
 15
-1.000000000000000E+20
 25
-1.000000000000000E+20
 35
-1.000000000000000E+20
146
0.0
 13
0.0
 23
0.0
 33
0.0
 16
1.0
 26
0.0
 36
0.0
 17
0.0
 27
1.0
 37
0.0
 76
     0
330
1B
  0
LAYOUT
  5
22
102
{ACAD_XDICTIONARY
360
60A
102
}
102
{ACAD_REACTORS
330
1A
102
}
330
1A
100
AcDbPlotSettings
  1

  2
none_device
  4
Letter_(8.50_x_11.00_Inches)
  6

 40
6.349999999999998
 41
6.349999999999998
 42
6.350005079999998
 43
6.350005079999998
 44
215.9
 45
279.4
 46
0.0
 47
0.0
 48
0.0
 49
0.0
140
0.0
141
0.0
142
1.0
143
1.0
 70
  1712
 72
     1
 73
     0
 74
     0
  7

 75
     0
147
1.0
148
0.0
149
0.0
100
AcDbLayout
  1
Model
 70
     1
 71
     0
 10
-461.5692367553672
 20
-602.3795242309534
 11
1407.025856018067
 21
988.5338745117152
 12
0.0
 22
0.0
 32
0.0
 14
-461.5692367553672
 24
-602.3795242309534
 34
0.0
 15
1407.025856018067
 25
988.5338745117152
 35
0.0
146
0.0
 13
0.0
 23
0.0
 33
0.0
 16
1.0
 26
0.0
 36
0.0
 17
0.0
 27
1.0
 37
0.0
 76
     0
330
1F
331
29
  0
LAYOUT
  5
284
102
{ACAD_XDICTIONARY
360
641
102
}
102
{ACAD_REACTORS
330
1A
102
}
330
1A
100
AcDbPlotSettings
  1

  2
青梅 FX DocuCentre-V C2275 T2
  4

  6

 40
0.0
 41
0.0
 42
0.0
 43
0.0
 44
0.0
 45
0.0
 46
0.0
 47
0.0
 48
0.0
 49
0.0
140
0.0
141
0.0
142
1.0
143
1.0
 70
   688
 72
     0
 73
     0
 74
     5
  7
AutoCAD_PEN.ctb
 75
    16
147
1.0
148
0.0
149
0.0
100
AcDbLayout
  1
レイアウト1
 70
     1
 71
     2
 10
0.0
 20
0.0
 11
12.0
 21
9.0
 12
0.0
 22
0.0
 32
0.0
 14
0.0
 24
0.0
 34
0.0
 15
0.0
 25
0.0
 35
0.0
146
0.0
 13
0.0
 23
0.0
 33
0.0
 16
1.0
 26
0.0
 36
0.0
 17
0.0
 27
1.0
 37
0.0
 76
     0
330
23
  0
MATERIAL
  5
45
102
{ACAD_XDICTIONARY
360
276
102
}
102
{ACAD_REACTORS
330
43
102
}
330
43
100
AcDbMaterial
  1
ByBlock
  0
MATERIAL
  5
44
102
{ACAD_XDICTIONARY
360
274
102
}
102
{ACAD_REACTORS
330
43
102
}
330
43
100
AcDbMaterial
  1
ByLayer
  0
MATERIAL
  5
46
102
{ACAD_XDICTIONARY
360
278
102
}
102
{ACAD_REACTORS
330
43
102
}
330
43
100
AcDbMaterial
  1
Global
  0
MLEADERSTYLE
  5
5C
102
{ACAD_REACTORS
330
5B
102
}
330
5B
100
AcDbMLeaderStyle
170
     2
171
     1
172
     0
 90
        2
 40
0.0
 41
0.0
173
     1
 91
-1056964608
340
14
 92
       -2
290
     1
 42
2.0
291
     1
 43
8.0
  3
Standard
 44
4.0
300

342
11
174
     1
178
     6
175
     1
176
     0
 93
-1056964608
 45
4.0
292
     0
297
     0
 46
4.0
 94
-1056964608
 47
1.0
 49
1.0
140
1.0
293
     1
141
0.0
294
     1
177
     0
142
1.0
295
     0
296
     0
143
3.75
1001
ACAD_MLEADERVER
1070
     2
  0
MLINESTYLE
  5
18
102
{ACAD_REACTORS
330
17
102
}
330
17
100
AcDbMlineStyle
  2
STANDARD
 70
     0
  3

 62
   256
 51
90.0
 52
90.0
 71
     2
 49
0.5
 62
   256
  6
BYLAYER
 49
-0.5
 62
   256
  6
BYLAYER
  0
ACDBPLACEHOLDER
  5
F
102
{ACAD_REACTORS
330
E
102
}
330
E
  0
SCALE
  5
48
102
{ACAD_REACTORS
330
47
102
}
330
47
100
AcDbScale
 70
     0
300
1:1
140
1.0
141
1.0
290
     1
  0
SCALE
  5
49
102
{ACAD_REACTORS
330
47
102
}
330
47
100
AcDbScale
 70
     0
300
1:2
140
1.0
141
2.0
290
     0
  0
SCALE
  5
4A
102
{ACAD_REACTORS
330
47
102
}
330
47
100
AcDbScale
 70
     0
300
1:4
140
1.0
141
4.0
290
     0
  0
SCALE
  5
4B
102
{ACAD_REACTORS
330
47
102
}
330
47
100
AcDbScale
 70
     0
300
1:5
140
1.0
141
5.0
290
     0
  0
SCALE
  5
4C
102
{ACAD_REACTORS
330
47
102
}
330
47
100
AcDbScale
 70
     0
300
1:8
140
1.0
141
8.0
290
     0
  0
SCALE
  5
4D
102
{ACAD_REACTORS
330
47
102
}
330
47
100
AcDbScale
 70
     0
300
1:10
140
1.0
141
10.0
290
     0
  0
SCALE
  5
4E
102
{ACAD_REACTORS
330
47
102
}
330
47
100
AcDbScale
 70
     0
300
1:16
140
1.0
141
16.0
290
     0
  0
SCALE
  5
4F
102
{ACAD_REACTORS
330
47
102
}
330
47
100
AcDbScale
 70
     0
300
1:20
140
1.0
141
20.0
290
     0
  0
SCALE
  5
50
102
{ACAD_REACTORS
330
47
102
}
330
47
100
AcDbScale
 70
     0
300
1:30
140
1.0
141
30.0
290
     0
  0
SCALE
  5
51
102
{ACAD_REACTORS
330
47
102
}
330
47
100
AcDbScale
 70
     0
300
1:40
140
1.0
141
40.0
290
     0
  0
SCALE
  5
52
102
{ACAD_REACTORS
330
47
102
}
330
47
100
AcDbScale
 70
     0
300
1:50
140
1.0
141
50.0
290
     0
  0
SCALE
  5
53
102
{ACAD_REACTORS
330
47
102
}
330
47
100
AcDbScale
 70
     0
300
1:100
140
1.0
141
100.0
290
     0
  0
SCALE
  5
54
102
{ACAD_REACTORS
330
47
102
}
330
47
100
AcDbScale
 70
     0
300
2:1
140
2.0
141
1.0
290
     0
  0
SCALE
  5
55
102
{ACAD_REACTORS
330
47
102
}
330
47
100
AcDbScale
 70
     0
300
4:1
140
4.0
141
1.0
290
     0
  0
SCALE
  5
56
102
{ACAD_REACTORS
330
47
102
}
330
47
100
AcDbScale
 70
     0
300
8:1
140
8.0
141
1.0
290
     0
  0
SCALE
  5
57
102
{ACAD_REACTORS
330
47
102
}
330
47
100
AcDbScale
 70
     0
300
10:1
140
10.0
141
1.0
290
     0
  0
SCALE
  5
58
102
{ACAD_REACTORS
330
47
102
}
330
47
100
AcDbScale
 70
     0
300
100:1
140
100.0
141
1.0
290
     0
  0
ACDBSECTIONVIEWSTYLE
  5
281
102
{ACAD_XDICTIONARY
360
63D
102
}
102
{ACAD_REACTORS
330
280
102
}
330
280
100
AcDbModelDocViewStyle
 70
     0
  3
Metric50
290
     0
100
AcDbSectionViewStyle
 70
     0
 71
     0
 90
      102
 71
     1
340
11
 40
5.0
340
0
340
0
 40
5.0
300
I, O, Q, S, X, Z
 40
10.0
 90
        0
 40
2.5
 90
        0
 71
     2
340
16
 90
       25
340
16
 90
       50
 40
5.0
 40
2.5
 40
5.0
 71
     3
340
11
 40
5.0
 90
        0
 40
15.0
 90
        1
300
%<\AcVar ViewSectionStartId>%-%<\AcVar ViewSectionEndId>% (%<\AcVar ViewScale \f "%sn">%)
 71
     4
300
ANSI31
 40
1.0
 90
        0
290
     0
290
     0
 90
        6
 40
0.0
 40
1.570796326794896
 40
0.2617993877991494
 40
1.308996938995747
 40
-0.2617993877991494
 40
1.832595714594045
  0
TABLESTYLE
  5
5A
102
{ACAD_XDICTIONARY
360
5AD
102
}
102
{ACAD_REACTORS
330
59
102
}
330
59
100
AcDbTableStyle
  3
Standard
 70
     0
 71
     0
 40
1.5
 41
1.5
280
     0
281
     0
  7
Standard
140
4.5
170
     2
 62
     0
 63
     7
283
     0
274
    -2
284
     1
 64
     0
275
    -2
285
     1
 65
     0
276
    -2
286
     1
 66
     0
277
    -2
287
     1
 67
     0
278
    -2
288
     1
 68
     0
279
    -2
289
     1
 69
     0
  7
Standard
140
6.0
170
     5
 62
     0
 63
     7
283
     0
274
    -2
284
     1
 64
     0
275
    -2
285
     1
 65
     0
276
    -2
286
     1
 66
     0
277
    -2
287
     1
 67
     0
278
    -2
288
     1
 68
     0
279
    -2
289
     1
 69
     0
  7
Standard
140
4.5
170
     5
 62
     0
 63
     7
283
     0
274
    -2
284
     1
 64
     0
275
    -2
285
     1
 65
     0
276
    -2
286
     1
 66
     0
277
    -2
287
     1
 67
     0
278
    -2
288
     1
 68
     0
279
    -2
289
     1
 69
     0
  0
VISUALSTYLE
  5
2F
102
{ACAD_XDICTIONARY
360
614
102
}
102
{ACAD_REACTORS
330
2A
102
}
330
2A
100
AcDbVisualStyle
  2

 70
     4
 71
     0
 72
     2
 73
     0
 90
        0
 40
-0.6
 41
-30.0
 62
     5
 63
     7
 74
     1
 91
        4
 64
     7
 65
   257
 75
     1
175
     1
 42
1.0
 92
        0
 66
   257
 43
1.0
 76
     1
 77
     6
 78
     2
 67
     7
 79
     5
170
     0
171
     0
290
     0
174
     0
 93
        1
 44
0.0
173
     0
291
     0
 45
0.0
1001
ACAD
1000
AcDbSavedByObjectVersion
1070
     0
  0
VISUALSTYLE
  5
32
102
{ACAD_XDICTIONARY
360
61A
102
}
102
{ACAD_REACTORS
330
2A
102
}
330
2A
100
AcDbVisualStyle
  2

 70
     7
 71
     1
 72
     0
 73
     1
 90
        0
 40
-0.6
 41
-30.0
 62
     5
 63
     7
 74
     0
 91
        4
 64
     7
 65
   257
 75
     1
175
     1
 42
1.0
 92
        8
 66
     7
 43
1.0
 76
     1
 77
     6
 78
     2
 67
     7
 79
     5
170
     0
171
     0
290
     0
174
     0
 93
        1
 44
0.0
173
     0
291
     1
 45
0.0
1001
ACAD
1000
AcDbSavedByObjectVersion
1070
     0
  0
VISUALSTYLE
  5
36
102
{ACAD_XDICTIONARY
360
622
102
}
102
{ACAD_REACTORS
330
2A
102
}
330
2A
100
AcDbVisualStyle
  2

 70
    12
 71
     2
 72
     2
 73
     0
 90
        0
 40
-0.6
 41
-30.0
 62
     5
 63
     7
 74
     1
 91
        4
 64
     7
 65
   257
 75
     1
175
     1
 42
1.0
 92
        8
 66
     7
 43
1.0
 76
     1
 77
     6
 78
     2
 67
     7
 79
     5
170
     0
171
     0
290
     0
174
     0
 93
        1
 44
50.0
173
     0
291
     1
 45
0.0
1001
ACAD
1000
AcDbSavedByObjectVersion
1070
     0
  0
VISUALSTYLE
  5
3A
102
{ACAD_XDICTIONARY
360
62A
102
}
102
{ACAD_REACTORS
330
2A
102
}
330
2A
100
AcDbVisualStyle
  2

 70
    16
 71
     2
 72
     2
 73
     3
 90
        0
 40
-0.6
 41
-30.0
 62
     5
 63
     8
 74
     1
 91
        4
 64
     7
 65
   257
 75
     1
175
     1
 42
1.0
 92
        8
 66
     8
 43
1.0
 76
     1
 77
     6
 78
     2
 67
     7
 79
     5
170
     0
171
     0
290
     0
174
     0
 93
        1
 44
0.0
173
     0
291
     1
 45
0.0
1001
ACAD
1000
AcDbSavedByObjectVersion
1070
     0
  0
VISUALSTYLE
  5
34
102
{ACAD_XDICTIONARY
360
61E
102
}
102
{ACAD_REACTORS
330
2A
102
}
330
2A
100
AcDbVisualStyle
  2

 70
     9
 71
     3
 72
     2
 73
     0
 90
        0
 40
-0.6
 41
-30.0
 62
     5
 63
     7
 74
     2
 91
        2
 64
     7
 65
   257
 75
     1
175
     1
 42
179.0
 92
        8
 66
     7
 43
1.0
 76
     1
 77
     6
 78
     2
 67
     7
 79
     3
170
     0
171
     0
290
     0
174
     0
 93
        1
 44
0.0
173
     0
291
     0
 45
0.0
1001
ACAD
1000
AcDbSavedByObjectVersion
1070
     0
  0
VISUALSTYLE
  5
35
102
{ACAD_XDICTIONARY
360
620
102
}
102
{ACAD_REACTORS
330
2A
102
}
330
2A
100
AcDbVisualStyle
  2

 70
    11
 71
     2
 72
     2
 73
     0
 90
        0
 40
-0.6
 41
-30.0
 62
     5
 63
     7
 74
     1
 91
        4
 64
     7
 65
   257
 75
     1
175
     1
 42
1.0
 92
        8
 66
     7
 43
1.0
 76
     1
 77
     6
 78
     2
 67
     7
 79
     5
170
     0
171
     0
290
     0
174
     0
 93
        1
 44
-50.0
173
     0
291
     1
 45
0.0
1001
ACAD
1000
AcDbSavedByObjectVersion
1070
     0
  0
VISUALSTYLE
  5
3D
102
{ACAD_XDICTIONARY
360
630
102
}
102
{ACAD_REACTORS
330
2A
102
}
330
2A
100
AcDbVisualStyle
  2

 70
    22
 71
     2
 72
     2
 73
     0
 90
        0
 40
-0.6
 41
-30.0
 62
     5
 63
     7
 74
     1
 91
        4
 64
     7
 65
   257
 75
     1
175
     1
 42
1.0
 92
        8
 66
     7
 43
1.0
 76
     1
 77
     6
 78
     2
 67
     7
 79
     5
170
     0
171
     0
290
     0
174
     0
 93
        1
 44
0.0
173
     0
291
     1
 45
0.0
1001
ACAD
1000
AcDbSavedByObjectVersion
1070
     0
  0
VISUALSTYLE
  5
39
102
{ACAD_XDICTIONARY
360
628
102
}
102
{ACAD_REACTORS
330
2A
102
}
330
2A
100
AcDbVisualStyle
  2

 70
    15
 71
     2
 72
     2
 73
     0
 90
        0
 40
-0.6
 41
-30.0
 62
     5
 63
     7
 74
     1
 91
        4
 64
     7
 65
   257
 75
     1
175
     1
 42
1.0
 92
        8
 66
     7
 43
1.0
 76
     1
 77
     6
 78
     2
 67
     7
 79
     5
170
     0
171
     0
290
     0
174
     0
 93
        1
 44
0.0
173
     0
291
     1
 45
0.0
1001
ACAD
1000
AcDbSavedByObjectVersion
1070
     0
  0
VISUALSTYLE
  5
2B
102
{ACAD_XDICTIONARY
360
60C
102
}
102
{ACAD_REACTORS
330
2A
102
}
330
2A
100
AcDbVisualStyle
  2

 70
     0
 71
     2
 72
     1
 73
     1
 90
        2
 40
-0.6
 41
30.0
 62
     5
 63
     7
 74
     0
 91
        0
 64
     7
 65
   257
 75
     1
175
     1
 42
1.0
 92
        8
 66
     7
 43
1.0
 76
     1
 77
     6
 78
     2
 67
     7
 79
     5
170
     0
171
     0
290
     0
174
     0
 93
       13
 44
0.0
173
     0
291
     1
 45
0.0
1001
ACAD
1000
AcDbSavedByObjectVersion
1070
     0
  0
VISUALSTYLE
  5
2C
102
{ACAD_XDICTIONARY
360
60E
102
}
102
{ACAD_REACTORS
330
2A
102
}
330
2A
100
AcDbVisualStyle
  2

 70
     1
 71
     2
 72
     1
 73
     1
 90
        2
 40
-0.6
 41
30.0
 62
     5
 63
     7
 74
     1
 91
        0
 64
     7
 65
   257
 75
     1
175
     1
 42
1.0
 92
        0
 66
   257
 43
1.0
 76
     1
 77
     6
 78
     2
 67
     7
 79
     5
170
     0
171
     0
290
     0
174
     0
 93
       13
 44
0.0
173
     0
291
     1
 45
0.0
1001
ACAD
1000
AcDbSavedByObjectVersion
1070
     0
  0
VISUALSTYLE
  5
2D
102
{ACAD_XDICTIONARY
360
610
102
}
102
{ACAD_REACTORS
330
2A
102
}
330
2A
100
AcDbVisualStyle
  2

 70
     2
 71
     2
 72
     2
 73
     1
 90
        2
 40
-0.6
 41
30.0
 62
     5
 63
     7
 74
     0
 91
        0
 64
     7
 65
   257
 75
     1
175
     1
 42
1.0
 92
        0
 66
     7
 43
1.0
 76
     1
 77
     6
 78
     2
 67
     7
 79
     5
170
     0
171
     0
290
     0
174
     0
 93
       13
 44
0.0
173
     0
291
     1
 45
0.0
1001
ACAD
1000
AcDbSavedByObjectVersion
1070
     0
  0
VISUALSTYLE
  5
2E
102
{ACAD_XDICTIONARY
360
612
102
}
102
{ACAD_REACTORS
330
2A
102
}
330
2A
100
AcDbVisualStyle
  2

 70
     3
 71
     2
 72
     2
 73
     1
 90
        2
 40
-0.6
 41
30.0
 62
     5
 63
     7
 74
     1
 91
        0
 64
     7
 65
   257
 75
     1
175
     1
 42
1.0
 92
        0
 66
   257
 43
1.0
 76
     1
 77
     6
 78
     2
 67
     7
 79
     5
170
     0
171
     0
290
     0
174
     0
 93
       13
 44
0.0
173
     0
291
     1
 45
0.0
1001
ACAD
1000
AcDbSavedByObjectVersion
1070
     0
  0
VISUALSTYLE
  5
31
102
{ACAD_XDICTIONARY
360
618
102
}
102
{ACAD_REACTORS
330
2A
102
}
330
2A
100
AcDbVisualStyle
  2

 70
     6
 71
     1
 72
     2
 73
     2
 90
        0
 40
-0.6
 41
-30.0
 62
     5
 63
     7
 74
     2
 91
        2
 64
     7
 65
   257
 75
     2
175
     1
 42
40.0
 92
        0
 66
   257
 43
1.0
 76
     1
 77
     6
 78
     2
 67
     7
 79
     3
170
     0
171
     0
290
     0
174
     0
 93
        1
 44
0.0
173
     0
291
     0
 45
0.0
1001
ACAD
1000
AcDbSavedByObjectVersion
1070
     0
  0
VISUALSTYLE
  5
3B
102
{ACAD_XDICTIONARY
360
62C
102
}
102
{ACAD_REACTORS
330
2A
102
}
330
2A
100
AcDbVisualStyle
  2

 70
    20
 71
     2
 72
     2
 73
     0
 90
        0
 40
-0.6
 41
-30.0
 62
     5
 63
     7
 74
     1
 91
        4
 64
     7
 65
   257
 75
     1
175
     1
 42
1.0
 92
       10
 66
     7
 43
1.0
 76
     1
 77
     6
 78
     2
 67
     7
 79
     5
170
     0
171
     0
290
     0
174
     0
 93
        1
 44
0.0
173
     0
291
     1
 45
0.0
1001
ACAD
1000
AcDbSavedByObjectVersion
1070
     0
  0
VISUALSTYLE
  5
38
102
{ACAD_XDICTIONARY
360
626
102
}
102
{ACAD_REACTORS
330
2A
102
}
330
2A
100
AcDbVisualStyle
  2

 70
    14
 71
     2
 72
     2
 73
     0
 90
        0
 40
-0.6
 41
-30.0
 62
     5
 63
     7
 74
     1
 91
        4
 64
     7
 65
   257
 75
     7
175
     7
 42
1.0
 92
        8
 66
     7
 43
1.0
 76
     1
 77
     6
 78
     2
 67
     7
 79
     5
170
     0
171
     0
290
     0
174
     0
 93
        1
 44
0.0
173
     0
291
     1
 45
0.0
1001
ACAD
1000
AcDbSavedByObjectVersion
1070
     0
  0
VISUALSTYLE
  5
3C
102
{ACAD_XDICTIONARY
360
62E
102
}
102
{ACAD_REACTORS
330
2A
102
}
330
2A
100
AcDbVisualStyle
  2

 70
    21
 71
     2
 72
     2
 73
     0
 90
        0
 40
-0.6
 41
-30.0
 62
     5
 63
     7
 74
     1
 91
        4
 64
     7
 65
   257
 75
     1
175
     1
 42
1.0
 92
        9
 66
     7
 43
1.0
 76
     1
 77
     6
 78
     2
 67
     7
 79
     5
170
     0
171
     0
290
     0
174
     0
 93
        1
 44
0.0
173
     0
291
     1
 45
0.0
1001
ACAD
1000
AcDbSavedByObjectVersion
1070
     0
  0
VISUALSTYLE
  5
33
102
{ACAD_XDICTIONARY
360
61C
102
}
102
{ACAD_REACTORS
330
2A
102
}
330
2A
100
AcDbVisualStyle
  2

 70
     8
 71
     2
 72
     3
 73
     0
 90
        2
 40
-0.6
 41
30.0
 62
     5
 63
     7
 74
     0
 91
        0
 64
     7
 65
   257
 75
     1
175
     1
 42
1.0
 92
        8
 66
   257
 43
1.0
 76
     1
 77
     6
 78
     2
 67
     7
 79
     3
170
     0
171
     0
290
     0
174
     0
 93
       13
 44
0.0
173
     0
291
     0
 45
0.0
1001
ACAD
1000
AcDbSavedByObjectVersion
1070
     0
  0
VISUALSTYLE
  5
42
102
{ACAD_XDICTIONARY
360
63A
102
}
102
{ACAD_REACTORS
330
2A
102
}
330
2A
100
AcDbVisualStyle
  2

 70
    27
 71
     2
 72
     2
 73
     1
 90
        2
 40
-0.6
 41
30.0
 62
     5
 63
     7
 74
     0
 91
        4
 64
     7
 65
   257
 75
     1
175
     1
 42
1.0
 92
        8
 66
   257
 43
1.0
 76
     1
 77
     6
 78
     2
 67
     8
 79
     3
170
     0
171
     0
290
     0
174
     0
 93
        5
 44
0.0
173
     0
291
     0
 45
0.0
1001
ACAD
1000
AcDbSavedByObjectVersion
1070
     0
  0
VISUALSTYLE
  5
41
102
{ACAD_XDICTIONARY
360
638
102
}
102
{ACAD_REACTORS
330
2A
102
}
330
2A
100
AcDbVisualStyle
  2

 70
    26
 71
     2
 72
     2
 73
     1
 90
        2
 40
-0.6
 41
30.0
 62
     5
 63
     7
 74
     1
 91
       10
 64
     7
 65
   257
 75
     2
175
     1
 42
1.0
 92
        8
 66
   257
 43
1.0
 76
     1
 77
     6
 78
     2
 67
     7
 79
     3
170
     0
171
     0
290
     0
174
     0
 93
        5
 44
0.0
173
     0
291
     0
 45
0.0
1001
ACAD
1000
AcDbSavedByObjectVersion
1070
     0
  0
VISUALSTYLE
  5
3E
102
{ACAD_XDICTIONARY
360
632
102
}
102
{ACAD_REACTORS
330
2A
102
}
330
2A
100
AcDbVisualStyle
  2

 70
    23
 71
     2
 72
     2
 73
     3
 90
        0
 40
-0.6
 41
-30.0
 62
     5
 63
     7
 74
     2
 91
        2
 64
     7
 65
     7
 75
     1
175
     1
 42
40.0
 92
        8
 66
     7
 43
1.0
 76
     1
 77
     6
 78
     2
 67
     7
 79
     3
170
     0
171
     0
290
     0
174
     0
 93
        1
 44
0.0
173
     0
291
     0
 45
0.0
1001
ACAD
1000
AcDbSavedByObjectVersion
1070
     0
  0
VISUALSTYLE
  5
3F
102
{ACAD_XDICTIONARY
360
634
102
}
102
{ACAD_REACTORS
330
2A
102
}
330
2A
100
AcDbVisualStyle
  2

 70
    24
 71
     1
 72
     2
 73
     2
 90
        0
 40
-0.6
 41
-30.0
 62
     5
 63
     7
 74
     2
 91
        2
 64
     7
 65
     7
 75
     1
175
     1
 42
40.0
 92
       11
 66
     7
 43
1.0
 76
     1
 77
     6
 78
     2
 67
     7
 79
     6
170
     0
171
     0
290
     0
174
     0
 93
        1
 44
0.0
173
     0
291
     0
 45
0.0
1001
ACAD
1000
AcDbSavedByObjectVersion
1070
     0
  0
VISUALSTYLE
  5
37
102
{ACAD_XDICTIONARY
360
624
102
}
102
{ACAD_REACTORS
330
2A
102
}
330
2A
100
AcDbVisualStyle
  2

 70
    13
 71
     2
 72
     2
 73
     0
 90
        0
 40
-0.6
 41
-30.0
 62
     5
 63
     7
 74
     1
 91
        4
 64
     7
 65
   257
 75
     1
175
     1
 42
1.0
 92
       12
 66
     7
 43
1.0
 76
     1
 77
     6
 78
     2
 67
     7
 79
     5
170
     0
171
     0
290
     0
174
     0
 93
        1
 44
0.0
173
     0
291
     1
 45
0.0
1001
ACAD
1000
AcDbSavedByObjectVersion
1070
     0
  0
VISUALSTYLE
  5
30
102
{ACAD_XDICTIONARY
360
616
102
}
102
{ACAD_REACTORS
330
2A
102
}
330
2A
100
AcDbVisualStyle
  2

 70
     5
 71
     0
 72
     2
 73
     0
 90
        0
 40
-0.6
 41
-30.0
 62
     5
 63
     7
 74
     1
 91
        4
 64
     7
 65
   257
 75
     1
175
     1
 42
1.0
 92
        0
 66
   257
 43
1.0
 76
     1
 77
     6
 78
     2
 67
     7
 79
     3
170
     0
171
     0
290
     0
174
     0
 93
        1
 44
0.0
173
     0
291
     0
 45
0.0
1001
ACAD
1000
AcDbSavedByObjectVersion
1070
     0
  0
VISUALSTYLE
  5
40
102
{ACAD_XDICTIONARY
360
636
102
}
102
{ACAD_REACTORS
330
2A
102
}
330
2A
100
AcDbVisualStyle
  2

 70
    25
 71
     2
 72
     2
 73
     1
 90
        1
 40
0.5
 41
-30.0
 62
     5
 63
     7
 74
     1
 91
        0
 64
     7
 65
   257
 75
     1
175
     1
 42
1.0
 92
        8
 66
     7
 43
1.0
 76
     1
 77
     6
 78
     2
 67
     7
 79
     3
170
     0
171
     0
290
     0
174
     0
 93
       13
 44
0.0
173
     0
291
     0
 45
0.0
1001
ACAD
1000
AcDbSavedByObjectVersion
1070
     0
  0
DICTIONARYVAR
  5
242
102
{ACAD_REACTORS
330
234
102
}
330
234
100
DictionaryVariables
280
     0
  1
1:1
  0
DICTIONARYVAR
  5
23B
102
{ACAD_REACTORS
330
234
102
}
330
234
100
DictionaryVariables
280
     0
  1
3.500000
  0
DICTIONARYVAR
  5
23C
102
{ACAD_REACTORS
330
234
102
}
330
234
100
DictionaryVariables
280
     0
  1
acadiso.lin
  0
DICTIONARYVAR
  5
236
102
{ACAD_REACTORS
330
234
102
}
330
234
100
DictionaryVariables
280
     0
  1
STANDARD
  0
DICTIONARYVAR
  5
235
102
{ACAD_REACTORS
330
234
102
}
330
234
100
DictionaryVariables
280
     0
  1
STANDARD
  0
DICTIONARYVAR
  5
56A
102
{ACAD_REACTORS
330
234
102
}
330
234
100
DictionaryVariables
280
     0
  1
Metric50
  0
DICTIONARYVAR
  5
56B
102
{ACAD_REACTORS
330
234
102
}
330
234
100
DictionaryVariables
280
     0
  1
Metric50
  0
DICTIONARYVAR
  5
23D
102
{ACAD_REACTORS
330
234
102
}
330
234
100
DictionaryVariables
280
     0
  1
2
  0
DICTIONARYVAR
  5
23E
102
{ACAD_REACTORS
330
234
102
}
330
234
100
DictionaryVariables
280
     0
  1
1
  0
DICTIONARYVAR
  5
5FE
102
{ACAD_REACTORS
330
234
102
}
330
234
100
DictionaryVariables
280
     0
  1
0
  0
DICTIONARYVAR
  5
56D
102
{ACAD_REACTORS
330
234
102
}
330
234
100
DictionaryVariables
280
     0
  1
1
  0
DICTIONARYVAR
  5
56E
102
{ACAD_REACTORS
330
234
102
}
330
234
100
DictionaryVariables
280
     0
  1
15
  0
DICTIONARYVAR
  5
56C
102
{ACAD_REACTORS
330
234
102
}
330
234
100
DictionaryVariables
280
     0
  1
0
  0
DICTIONARYVAR
  5
601
102
{ACAD_REACTORS
330
234
102
}
330
234
100
DictionaryVariables
280
     0
  1
1.570796
  0
DICTIONARYVAR
  5
602
102
{ACAD_REACTORS
330
234
102
}
330
234
100
DictionaryVariables
280
     0
  1
1.570796
  0
DICTIONARYVAR
  5
603
102
{ACAD_REACTORS
330
234
102
}
330
234
100
DictionaryVariables
280
     0
  1
-122.394000
  0
DICTIONARYVAR
  5
243
102
{ACAD_REACTORS
330
234
102
}
330
234
100
DictionaryVariables
280
     0
  1
1
  0
DICTIONARYVAR
  5
600
102
{ACAD_REACTORS
330
234
102
}
330
234
100
DictionaryVariables
280
     0
  1
80.000000
  0
DICTIONARYVAR
  5
5FF
102
{ACAD_REACTORS
330
234
102
}
330
234
100
DictionaryVariables
280
     0
  1
5.000000
  0
DICTIONARYVAR
  5
5FD
102
{ACAD_REACTORS
330
234
102
}
330
234
100
DictionaryVariables
280
     0
  1
127
  0
DICTIONARYVAR
  5
604
102
{ACAD_REACTORS
330
234
102
}
330
234
100
DictionaryVariables
280
     0
  1
2
  0
DICTIONARY
  5
63F
330
283
100
AcDbDictionary
280
     1
281
     1
  3
ACAD_XREC_ROUNDTRIP
360
640
  0
DICTIONARY
  5
608
330
1E
100
AcDbDictionary
280
     1
281
     1
  3
ACAD_XREC_ROUNDTRIP
360
609
  0
DICTIONARY
  5
60A
330
22
100
AcDbDictionary
280
     1
281
     1
  3
ACAD_XREC_ROUNDTRIP
360
60B
  0
DICTIONARY
  5
641
330
284
100
AcDbDictionary
280
     1
281
     1
  3
ACAD_XREC_ROUNDTRIP
360
642
  0
DICTIONARY
  5
276
330
45
100
AcDbDictionary
280
     1
281
     1
  3
ACAD_XREC_ROUNDTRIP
360
277
  0
DICTIONARY
  5
274
330
44
100
AcDbDictionary
280
     1
281
     1
  3
ACAD_XREC_ROUNDTRIP
360
275
  0
DICTIONARY
  5
278
330
46
100
AcDbDictionary
280
     1
281
     1
  3
ACAD_XREC_ROUNDTRIP
360
279
  0
DICTIONARY
  5
63D
330
281
100
AcDbDictionary
280
     1
281
     1
  3
ACAD_XREC_ROUNDTRIP
360
63E
  0
DICTIONARY
  5
5AD
330
5A
100
AcDbDictionary
280
     1
281
     1
  3
ACAD_ROUNDTRIP_2008_TABLESTYLE_CELLSTYLEMAP
360
605
  3
ACAD_XREC_ROUNDTRIP
360
63C
  0
DICTIONARY
  5
614
330
2F
100
AcDbDictionary
280
     1
281
     1
  3
ACAD_XREC_ROUNDTRIP
360
615
  0
DICTIONARY
  5
61A
330
32
100
AcDbDictionary
280
     1
281
     1
  3
ACAD_XREC_ROUNDTRIP
360
61B
  0
DICTIONARY
  5
622
330
36
100
AcDbDictionary
280
     1
281
     1
  3
ACAD_XREC_ROUNDTRIP
360
623
  0
DICTIONARY
  5
62A
330
3A
100
AcDbDictionary
280
     1
281
     1
  3
ACAD_XREC_ROUNDTRIP
360
62B
  0
DICTIONARY
  5
61E
330
34
100
AcDbDictionary
280
     1
281
     1
  3
ACAD_XREC_ROUNDTRIP
360
61F
  0
DICTIONARY
  5
620
330
35
100
AcDbDictionary
280
     1
281
     1
  3
ACAD_XREC_ROUNDTRIP
360
621
  0
DICTIONARY
  5
630
330
3D
100
AcDbDictionary
280
     1
281
     1
  3
ACAD_XREC_ROUNDTRIP
360
631
  0
DICTIONARY
  5
628
330
39
100
AcDbDictionary
280
     1
281
     1
  3
ACAD_XREC_ROUNDTRIP
360
629
  0
DICTIONARY
  5
60C
330
2B
100
AcDbDictionary
280
     1
281
     1
  3
ACAD_XREC_ROUNDTRIP
360
60D
  0
DICTIONARY
  5
60E
330
2C
100
AcDbDictionary
280
     1
281
     1
  3
ACAD_XREC_ROUNDTRIP
360
60F
  0
DICTIONARY
  5
610
330
2D
100
AcDbDictionary
280
     1
281
     1
  3
ACAD_XREC_ROUNDTRIP
360
611
  0
DICTIONARY
  5
612
330
2E
100
AcDbDictionary
280
     1
281
     1
  3
ACAD_XREC_ROUNDTRIP
360
613
  0
DICTIONARY
  5
618
330
31
100
AcDbDictionary
280
     1
281
     1
  3
ACAD_XREC_ROUNDTRIP
360
619
  0
DICTIONARY
  5
62C
330
3B
100
AcDbDictionary
280
     1
281
     1
  3
ACAD_XREC_ROUNDTRIP
360
62D
  0
DICTIONARY
  5
626
330
38
100
AcDbDictionary
280
     1
281
     1
  3
ACAD_XREC_ROUNDTRIP
360
627
  0
DICTIONARY
  5
62E
330
3C
100
AcDbDictionary
280
     1
281
     1
  3
ACAD_XREC_ROUNDTRIP
360
62F
  0
DICTIONARY
  5
61C
330
33
100
AcDbDictionary
280
     1
281
     1
  3
ACAD_XREC_ROUNDTRIP
360
61D
  0
DICTIONARY
  5
63A
330
42
100
AcDbDictionary
280
     1
281
     1
  3
ACAD_XREC_ROUNDTRIP
360
63B
  0
DICTIONARY
  5
638
330
41
100
AcDbDictionary
280
     1
281
     1
  3
ACAD_XREC_ROUNDTRIP
360
639
  0
DICTIONARY
  5
632
330
3E
100
AcDbDictionary
280
     1
281
     1
  3
ACAD_XREC_ROUNDTRIP
360
633
  0
DICTIONARY
  5
634
330
3F
100
AcDbDictionary
280
     1
281
     1
  3
ACAD_XREC_ROUNDTRIP
360
635
  0
DICTIONARY
  5
624
330
37
100
AcDbDictionary
280
     1
281
     1
  3
ACAD_XREC_ROUNDTRIP
360
625
  0
DICTIONARY
  5
616
330
30
100
AcDbDictionary
280
     1
281
     1
  3
ACAD_XREC_ROUNDTRIP
360
617
  0
DICTIONARY
  5
636
330
40
100
AcDbDictionary
280
     1
281
     1
  3
ACAD_XREC_ROUNDTRIP
360
637
  0
XRECORD
  5
640
102
{ACAD_REACTORS
330
63F
102
}
330
63F
100
AcDbXrecord
280
     1
102
DISPLAYNAME
  1
Metric50
102
FLAGS
 90
        0
  0
XRECORD
  5
609
102
{ACAD_REACTORS
330
608
102
}
330
608
100
AcDbXrecord
280
     1
102
SHADEPLOT
 70
     0
102
SHADEPLOTRESLEVEL
 70
     2
102
SHADEPLOTCUSTOMDPI
 70
   300
  0
XRECORD
  5
60B
102
{ACAD_REACTORS
330
60A
102
}
330
60A
100
AcDbXrecord
280
     1
102
SHADEPLOT
 70
     0
102
SHADEPLOTRESLEVEL
 70
     2
102
SHADEPLOTCUSTOMDPI
 70
   300
  0
XRECORD
  5
642
102
{ACAD_REACTORS
330
641
102
}
330
641
100
AcDbXrecord
280
     1
102
SHADEPLOT
 70
     0
102
SHADEPLOTRESLEVEL
 70
     2
102
SHADEPLOTCUSTOMDPI
 70
   300
  0
XRECORD
  5
277
102
{ACAD_REACTORS
330
276
102
}
330
276
100
AcDbXrecord
280
     1
102
MATERIAL
148
0.0
149
0.0
149
0.0
 93
        0
 94
      127
282
     0
 72
     1
 77
     1
171
     1
175
     1
179
     1
273
     0
  0
XRECORD
  5
275
102
{ACAD_REACTORS
330
274
102
}
330
274
100
AcDbXrecord
280
     1
102
MATERIAL
148
0.0
149
0.0
149
0.0
 93
        0
 94
      127
282
     0
 72
     1
 77
     1
171
     1
175
     1
179
     1
273
     0
  0
XRECORD
  5
279
102
{ACAD_REACTORS
330
278
102
}
330
278
100
AcDbXrecord
280
     1
102
MATERIAL
148
0.0
149
0.0
149
0.0
 93
        0
 94
      127
282
     0
 72
     1
 77
     1
171
     1
175
     1
179
     1
273
     0
  0
XRECORD
  5
63E
102
{ACAD_REACTORS
330
63D
102
}
330
63D
100
AcDbXrecord
280
     1
102
DISPLAYNAME
  1
Metric50
102
FLAGS
 90
        0
  0
CELLSTYLEMAP
  5
605
102
{ACAD_REACTORS
330
5AD
102
}
330
5AD
100
AcDbCellStyleMap
 90
        3
300
CELLSTYLE
  1
TABLEFORMAT_BEGIN
 90
        5
170
     1
 91
        0
 92
    32768
 62
   257
 93
        1
300
CONTENTFORMAT
  1
CONTENTFORMAT_BEGIN
 90
        0
 91
        0
 92
        4
 93
        0
300

 40
0.0
140
1.0
 94
        5
 62
     0
340
11
144
6.0
309
CONTENTFORMAT_END
171
     1
301
MARGIN
  1
CELLMARGIN_BEGIN
 40
1.5
 40
1.5
 40
1.5
 40
1.5
 40
0.18
 40
0.18
309
CELLMARGIN_END
 94
        6
 95
        1
302
GRIDFORMAT
  1
GRIDFORMAT_BEGIN
 90
        0
 91
        1
 62
     0
 92
       -2
340
0
 93
        0
 40
0.045
309
GRIDFORMAT_END
 95
        2
302
GRIDFORMAT
  1
GRIDFORMAT_BEGIN
 90
        0
 91
        1
 62
     0
 92
       -2
340
0
 93
        0
 40
0.045
309
GRIDFORMAT_END
 95
        4
302
GRIDFORMAT
  1
GRIDFORMAT_BEGIN
 90
        0
 91
        1
 62
     0
 92
       -2
340
0
 93
        0
 40
0.045
309
GRIDFORMAT_END
 95
        8
302
GRIDFORMAT
  1
GRIDFORMAT_BEGIN
 90
        0
 91
        1
 62
     0
 92
       -2
340
0
 93
        0
 40
0.045
309
GRIDFORMAT_END
 95
       16
302
GRIDFORMAT
  1
GRIDFORMAT_BEGIN
 90
        0
 91
        1
 62
     0
 92
       -2
340
0
 93
        0
 40
0.045
309
GRIDFORMAT_END
 95
       32
302
GRIDFORMAT
  1
GRIDFORMAT_BEGIN
 90
        0
 91
        1
 62
     0
 92
       -2
340
0
 93
        0
 40
0.045
309
GRIDFORMAT_END
309
TABLEFORMAT_END
  1
CELLSTYLE_BEGIN
 90
        1
 91
        1
300
_TITLE
309
CELLSTYLE_END
300
CELLSTYLE
  1
TABLEFORMAT_BEGIN
 90
        5
170
     1
 91
        0
 92
        0
 62
   257
 93
        1
300
CONTENTFORMAT
  1
CONTENTFORMAT_BEGIN
 90
        0
 91
        0
 92
        4
 93
        0
300

 40
0.0
140
1.0
 94
        5
 62
     0
340
11
144
4.5
309
CONTENTFORMAT_END
171
     1
301
MARGIN
  1
CELLMARGIN_BEGIN
 40
1.5
 40
1.5
 40
1.5
 40
1.5
 40
0.18
 40
0.18
309
CELLMARGIN_END
 94
        6
 95
        1
302
GRIDFORMAT
  1
GRIDFORMAT_BEGIN
 90
        0
 91
        1
 62
     0
 92
       -2
340
0
 93
        0
 40
0.045
309
GRIDFORMAT_END
 95
        2
302
GRIDFORMAT
  1
GRIDFORMAT_BEGIN
 90
        0
 91
        1
 62
     0
 92
       -2
340
0
 93
        0
 40
0.045
309
GRIDFORMAT_END
 95
        4
302
GRIDFORMAT
  1
GRIDFORMAT_BEGIN
 90
        0
 91
        1
 62
     0
 92
       -2
340
0
 93
        0
 40
0.045
309
GRIDFORMAT_END
 95
        8
302
GRIDFORMAT
  1
GRIDFORMAT_BEGIN
 90
        0
 91
        1
 62
     0
 92
       -2
340
0
 93
        0
 40
0.045
309
GRIDFORMAT_END
 95
       16
302
GRIDFORMAT
  1
GRIDFORMAT_BEGIN
 90
        0
 91
        1
 62
     0
 92
       -2
340
0
 93
        0
 40
0.045
309
GRIDFORMAT_END
 95
       32
302
GRIDFORMAT
  1
GRIDFORMAT_BEGIN
 90
        0
 91
        1
 62
     0
 92
       -2
340
0
 93
        0
 40
0.045
309
GRIDFORMAT_END
309
TABLEFORMAT_END
  1
CELLSTYLE_BEGIN
 90
        2
 91
        1
300
_HEADER
309
CELLSTYLE_END
300
CELLSTYLE
  1
TABLEFORMAT_BEGIN
 90
        5
170
     1
 91
        0
 92
        0
 62
   257
 93
        1
300
CONTENTFORMAT
  1
CONTENTFORMAT_BEGIN
 90
        0
 91
        0
 92
        4
 93
        0
300

 40
0.0
140
1.0
 94
        2
 62
     0
340
11
144
4.5
309
CONTENTFORMAT_END
171
     1
301
MARGIN
  1
CELLMARGIN_BEGIN
 40
1.5
 40
1.5
 40
1.5
 40
1.5
 40
0.18
 40
0.18
309
CELLMARGIN_END
 94
        6
 95
        1
302
GRIDFORMAT
  1
GRIDFORMAT_BEGIN
 90
        0
 91
        1
 62
     0
 92
       -2
340
0
 93
        0
 40
0.045
309
GRIDFORMAT_END
 95
        2
302
GRIDFORMAT
  1
GRIDFORMAT_BEGIN
 90
        0
 91
        1
 62
     0
 92
       -2
340
0
 93
        0
 40
0.045
309
GRIDFORMAT_END
 95
        4
302
GRIDFORMAT
  1
GRIDFORMAT_BEGIN
 90
        0
 91
        1
 62
     0
 92
       -2
340
0
 93
        0
 40
0.045
309
GRIDFORMAT_END
 95
        8
302
GRIDFORMAT
  1
GRIDFORMAT_BEGIN
 90
        0
 91
        1
 62
     0
 92
       -2
340
0
 93
        0
 40
0.045
309
GRIDFORMAT_END
 95
       16
302
GRIDFORMAT
  1
GRIDFORMAT_BEGIN
 90
        0
 91
        1
 62
     0
 92
       -2
340
0
 93
        0
 40
0.045
309
GRIDFORMAT_END
 95
       32
302
GRIDFORMAT
  1
GRIDFORMAT_BEGIN
 90
        0
 91
        1
 62
     0
 92
       -2
340
0
 93
        0
 40
0.045
309
GRIDFORMAT_END
309
TABLEFORMAT_END
  1
CELLSTYLE_BEGIN
 90
        3
 91
        2
300
_DATA
309
CELLSTYLE_END
  0
XRECORD
  5
63C
102
{ACAD_REACTORS
330
5AD
102
}
330
5AD
100
AcDbXrecord
280
     1
102
ACAD_ROUNDTRIP_PRE2007_TABLESTYLE
 90
        4
 91
        0
  1

 92
        4
 93
        0
  2

 94
        4
 95
        0
  3

  0
XRECORD
  5
615
102
{ACAD_REACTORS
330
614
102
}
330
614
100
AcDbXrecord
280
     1
102
RTVSPost2010Prop28
280
     1
102
RTVSPost2010PropOp28
 70
     1
102
RTVSPost2010Prop29
280
     1
102
RTVSPost2010PropOp29
 70
     1
102
RTVSPost2010Prop30
280
     0
102
RTVSPost2010PropOp30
 70
     1
102
RTVSPost2010Prop31
280
     0
102
RTVSPost2010PropOp31
 70
     1
102
RTVSPost2010Prop32
280
     0
102
RTVSPost2010PropOp32
 70
     1
102
RTVSPost2010Prop33
280
     0
102
RTVSPost2010PropOp33
 70
     1
102
RTVSPost2010Prop34
280
     0
102
RTVSPost2010PropOp34
 70
     1
102
RTVSPost2010Prop35
280
     0
102
RTVSPost2010PropOp35
 70
     1
102
RTVSPost2010Prop36
280
     0
102
RTVSPost2010PropOp36
 70
     1
102
RTVSPost2010Prop37
 90
       50
102
RTVSPost2010PropOp37
 70
     1
102
RTVSPost2010Prop38
140
0.0
102
RTVSPost2010PropOp38
 70
     1
102
RTVSPost2010Prop39
140
1.0
102
RTVSPost2010PropOp39
 70
     1
102
RTVSPost2010Prop40
 90
        0
102
RTVSPost2010PropOp40
 70
     1
102
RTVSPost2010Prop41ColorIndex
 90
       18
102
RTVSPost2010Prop41ColorRGB
 90
        0
102
RTVSPost2010PropOp41
 70
     1
102
RTVSPost2010Prop42
 90
       50
102
RTVSPost2010PropOp42
 70
     1
102
RTVSPost2010Prop43
 90
        3
102
RTVSPost2010PropOp43
 70
     1
102
RTVSPost2010Prop44ColorIndex
 90
        5
102
RTVSPost2010Prop44ColorRGB
 90
      255
102
RTVSPost2010PropOp44
 70
     1
102
RTVSPost2010Prop45
280
     0
102
RTVSPost2010PropOp45
 70
     1
102
RTVSPost2010Prop46
 90
       50
102
RTVSPost2010PropOp46
 70
     1
102
RTVSPost2010Prop47
 90
       50
102
RTVSPost2010PropOp47
 70
     1
102
RTVSPost2010Prop48
 90
       50
102
RTVSPost2010PropOp48
 70
     1
102
RTVSPost2010Prop49
280
     0
102
RTVSPost2010PropOp49
 70
     1
102
RTVSPost2010Prop50
 90
       50
102
RTVSPost2010PropOp50
 70
     1
102
RTVSPost2010Prop51ColorIndex
 90
      256
102
RTVSPost2010Prop51ColorRGB
 90
-16777216
102
RTVSPost2010PropOp51
 70
     0
102
RTVSPost2010Prop52
140
1.0
102
RTVSPost2010PropOp52
 70
     0
102
RTVSPost2010Prop53
 90
        2
102
RTVSPost2010PropOp53
 70
     1
102
RTVSPost2010Prop54
  1
strokes_ogs.tif
102
RTVSPost2010PropOp54
 70
     1
102
RTVSPost2010Prop55
280
     0
102
RTVSPost2010PropOp55
 70
     1
102
RTVSPost2010Prop56
140
1.0
102
RTVSPost2010PropOp56
 70
     1
102
RTVSPost2010Prop57
140
1.0
102
RTVSPost2010PropOp57
 70
     1
102
RTVSPropertyOp0
 70
     1
102
RTVSPropertyOp1
 70
     1
102
RTVSPropertyOp2
 70
     1
102
RTVSPropertyOp3
 70
     1
102
RTVSPropertyOp4
 70
     1
102
RTVSPropertyOp5
 70
     1
102
RTVSPropertyOp6
 70
     1
102
RTVSPropertyOp7
 70
     1
102
RTVSPropertyOp8
 70
     1
102
RTVSPropertyOp9
 70
     1
102
RTVSPropertyOp10
 70
     1
102
RTVSPropertyOp11
 70
     1
102
RTVSPropertyOp12
 70
     1
102
RTVSPropertyOp13
 70
     1
102
RTVSPropertyOp14
 70
     1
102
RTVSPropertyOp15
 70
     1
102
RTVSPropertyOp16
 70
     1
102
RTVSPropertyOp17
 70
     1
102
RTVSPropertyOp18
 70
     1
102
RTVSPropertyOp19
 70
     1
102
RTVSPropertyOp20
 70
     1
102
RTVSPropertyOp21
 70
     1
102
RTVSPropertyOp22
 70
     1
102
RTVSPropertyOp23
 70
     1
102
RTVSPropertyOp24
 70
     1
102
RTVSPropertyOp25
 70
     1
102
RTVSPropertyOp26
 70
     1
102
RTVSPropertyOp27
 70
     1
102
RTVSPropertyOp28
 70
     1
102
RTVSPropertyOp29
 70
     1
102
RTVSPropertyOp30
 70
     1
102
RTVSPropertyOp31
 70
     1
102
RTVSPropertyOp32
 70
     1
102
RTVSPropertyOp33
 70
     1
102
RTVSPropertyOp34
 70
     1
102
RTVSPropertyOp35
 70
     1
102
RTVSPropertyOp36
 70
     1
102
RTVSPropertyOp37
 70
     1
102
RTVSPropertyOp38
 70
     1
102
RTVSPropertyOp39
 70
     1
102
RTVSPropertyOp40
 70
     1
102
RTVSPropertyOp41
 70
     1
102
RTVSPropertyOp42
 70
     1
102
RTVSPropertyOp43
 70
     1
102
RTVSPropertyOp44
 70
     1
102
RTVSPropertyOp45
 70
     1
102
RTVSPropertyOp46
 70
     1
102
RTVSPropertyOp47
 70
     1
102
RTVSPropertyOp48
 70
     1
102
RTVSPropertyOp49
 70
     1
102
RTVSPropertyOp50
 70
     1
102
RTVSPropertyOp51
 70
     0
102
RTVSPropertyOp52
 70
     0
102
RTVSPropertyOp53
 70
     1
102
RTVSPropertyOp54
 70
     1
102
RTVSPropertyOp55
 70
     1
102
RTVSPropertyOp56
 70
     1
102
RTVSPropertyOp57
 70
     1
102
RTVSPropertyOp58
 70
     1
102
RTVSPropertyOp59
 70
     1
102
RTVSPropertyOp60
 70
     1
102
RTVSPropertyOp61
 70
     1
102
RTVSPropertyOp62
 70
     1
  0
XRECORD
  5
61B
102
{ACAD_REACTORS
330
61A
102
}
330
61A
100
AcDbXrecord
280
     1
102
RTVSPost2010Prop28
280
     0
102
RTVSPost2010PropOp28
 70
     1
102
RTVSPost2010Prop29
280
     1
102
RTVSPost2010PropOp29
 70
     1
102
RTVSPost2010Prop30
280
     1
102
RTVSPost2010PropOp30
 70
     1
102
RTVSPost2010Prop31
280
     0
102
RTVSPost2010PropOp31
 70
     1
102
RTVSPost2010Prop32
280
     0
102
RTVSPost2010PropOp32
 70
     1
102
RTVSPost2010Prop33
280
     0
102
RTVSPost2010PropOp33
 70
     1
102
RTVSPost2010Prop34
280
     0
102
RTVSPost2010PropOp34
 70
     1
102
RTVSPost2010Prop35
280
     0
102
RTVSPost2010PropOp35
 70
     1
102
RTVSPost2010Prop36
280
     0
102
RTVSPost2010PropOp36
 70
     1
102
RTVSPost2010Prop37
 90
       50
102
RTVSPost2010PropOp37
 70
     1
102
RTVSPost2010Prop38
140
0.0
102
RTVSPost2010PropOp38
 70
     1
102
RTVSPost2010Prop39
140
1.0
102
RTVSPost2010PropOp39
 70
     1
102
RTVSPost2010Prop40
 90
        0
102
RTVSPost2010PropOp40
 70
     1
102
RTVSPost2010Prop41ColorIndex
 90
       18
102
RTVSPost2010Prop41ColorRGB
 90
        0
102
RTVSPost2010PropOp41
 70
     1
102
RTVSPost2010Prop42
 90
       50
102
RTVSPost2010PropOp42
 70
     1
102
RTVSPost2010Prop43
 90
        3
102
RTVSPost2010PropOp43
 70
     1
102
RTVSPost2010Prop44ColorIndex
 90
        5
102
RTVSPost2010Prop44ColorRGB
 90
      255
102
RTVSPost2010PropOp44
 70
     1
102
RTVSPost2010Prop45
280
     0
102
RTVSPost2010PropOp45
 70
     1
102
RTVSPost2010Prop46
 90
       50
102
RTVSPost2010PropOp46
 70
     1
102
RTVSPost2010Prop47
 90
       50
102
RTVSPost2010PropOp47
 70
     1
102
RTVSPost2010Prop48
 90
       50
102
RTVSPost2010PropOp48
 70
     1
102
RTVSPost2010Prop49
280
     0
102
RTVSPost2010PropOp49
 70
     1
102
RTVSPost2010Prop50
 90
       50
102
RTVSPost2010PropOp50
 70
     1
102
RTVSPost2010Prop51ColorIndex
 90
      256
102
RTVSPost2010Prop51ColorRGB
 90
-16777216
102
RTVSPost2010PropOp51
 70
     0
102
RTVSPost2010Prop52
140
1.0
102
RTVSPost2010PropOp52
 70
     0
102
RTVSPost2010Prop53
 90
        2
102
RTVSPost2010PropOp53
 70
     1
102
RTVSPost2010Prop54
  1
strokes_ogs.tif
102
RTVSPost2010PropOp54
 70
     1
102
RTVSPost2010Prop55
280
     0
102
RTVSPost2010PropOp55
 70
     1
102
RTVSPost2010Prop56
140
1.0
102
RTVSPost2010PropOp56
 70
     1
102
RTVSPost2010Prop57
140
1.0
102
RTVSPost2010PropOp57
 70
     1
102
RTVSPropertyOp0
 70
     1
102
RTVSPropertyOp1
 70
     1
102
RTVSPropertyOp2
 70
     1
102
RTVSPropertyOp3
 70
     1
102
RTVSPropertyOp4
 70
     1
102
RTVSPropertyOp5
 70
     1
102
RTVSPropertyOp6
 70
     1
102
RTVSPropertyOp7
 70
     1
102
RTVSPropertyOp8
 70
     1
102
RTVSPropertyOp9
 70
     1
102
RTVSPropertyOp10
 70
     1
102
RTVSPropertyOp11
 70
     1
102
RTVSPropertyOp12
 70
     1
102
RTVSPropertyOp13
 70
     1
102
RTVSPropertyOp14
 70
     1
102
RTVSPropertyOp15
 70
     1
102
RTVSPropertyOp16
 70
     1
102
RTVSPropertyOp17
 70
     1
102
RTVSPropertyOp18
 70
     1
102
RTVSPropertyOp19
 70
     1
102
RTVSPropertyOp20
 70
     1
102
RTVSPropertyOp21
 70
     1
102
RTVSPropertyOp22
 70
     1
102
RTVSPropertyOp23
 70
     1
102
RTVSPropertyOp24
 70
     1
102
RTVSPropertyOp25
 70
     1
102
RTVSPropertyOp26
 70
     1
102
RTVSPropertyOp27
 70
     1
102
RTVSPropertyOp28
 70
     1
102
RTVSPropertyOp29
 70
     1
102
RTVSPropertyOp30
 70
     1
102
RTVSPropertyOp31
 70
     1
102
RTVSPropertyOp32
 70
     1
102
RTVSPropertyOp33
 70
     1
102
RTVSPropertyOp34
 70
     1
102
RTVSPropertyOp35
 70
     1
102
RTVSPropertyOp36
 70
     1
102
RTVSPropertyOp37
 70
     1
102
RTVSPropertyOp38
 70
     1
102
RTVSPropertyOp39
 70
     1
102
RTVSPropertyOp40
 70
     1
102
RTVSPropertyOp41
 70
     1
102
RTVSPropertyOp42
 70
     1
102
RTVSPropertyOp43
 70
     1
102
RTVSPropertyOp44
 70
     1
102
RTVSPropertyOp45
 70
     1
102
RTVSPropertyOp46
 70
     1
102
RTVSPropertyOp47
 70
     1
102
RTVSPropertyOp48
 70
     1
102
RTVSPropertyOp49
 70
     1
102
RTVSPropertyOp50
 70
     1
102
RTVSPropertyOp51
 70
     0
102
RTVSPropertyOp52
 70
     0
102
RTVSPropertyOp53
 70
     1
102
RTVSPropertyOp54
 70
     1
102
RTVSPropertyOp55
 70
     1
102
RTVSPropertyOp56
 70
     1
102
RTVSPropertyOp57
 70
     1
102
RTVSPropertyOp58
 70
     1
102
RTVSPropertyOp59
 70
     1
102
RTVSPropertyOp60
 70
     1
102
RTVSPropertyOp61
 70
     1
102
RTVSPropertyOp62
 70
     1
  0
XRECORD
  5
623
102
{ACAD_REACTORS
330
622
102
}
330
622
100
AcDbXrecord
280
     1
102
RTVSPost2010Prop28
280
     0
102
RTVSPost2010PropOp28
 70
     1
102
RTVSPost2010Prop29
280
     1
102
RTVSPost2010PropOp29
 70
     1
102
RTVSPost2010Prop30
280
     1
102
RTVSPost2010PropOp30
 70
     1
102
RTVSPost2010Prop31
280
     0
102
RTVSPost2010PropOp31
 70
     1
102
RTVSPost2010Prop32
280
     0
102
RTVSPost2010PropOp32
 70
     1
102
RTVSPost2010Prop33
280
     0
102
RTVSPost2010PropOp33
 70
     1
102
RTVSPost2010Prop34
280
     0
102
RTVSPost2010PropOp34
 70
     1
102
RTVSPost2010Prop35
280
     0
102
RTVSPost2010PropOp35
 70
     1
102
RTVSPost2010Prop36
280
     0
102
RTVSPost2010PropOp36
 70
     1
102
RTVSPost2010Prop37
 90
       50
102
RTVSPost2010PropOp37
 70
     1
102
RTVSPost2010Prop38
140
0.0
102
RTVSPost2010PropOp38
 70
     1
102
RTVSPost2010Prop39
140
1.0
102
RTVSPost2010PropOp39
 70
     1
102
RTVSPost2010Prop40
 90
        0
102
RTVSPost2010PropOp40
 70
     1
102
RTVSPost2010Prop41ColorIndex
 90
       18
102
RTVSPost2010Prop41ColorRGB
 90
        0
102
RTVSPost2010PropOp41
 70
     1
102
RTVSPost2010Prop42
 90
       50
102
RTVSPost2010PropOp42
 70
     1
102
RTVSPost2010Prop43
 90
        3
102
RTVSPost2010PropOp43
 70
     1
102
RTVSPost2010Prop44ColorIndex
 90
        5
102
RTVSPost2010Prop44ColorRGB
 90
      255
102
RTVSPost2010PropOp44
 70
     1
102
RTVSPost2010Prop45
280
     0
102
RTVSPost2010PropOp45
 70
     1
102
RTVSPost2010Prop46
 90
       50
102
RTVSPost2010PropOp46
 70
     1
102
RTVSPost2010Prop47
 90
       50
102
RTVSPost2010PropOp47
 70
     1
102
RTVSPost2010Prop48
 90
       50
102
RTVSPost2010PropOp48
 70
     1
102
RTVSPost2010Prop49
280
     0
102
RTVSPost2010PropOp49
 70
     1
102
RTVSPost2010Prop50
 90
       50
102
RTVSPost2010PropOp50
 70
     1
102
RTVSPost2010Prop51ColorIndex
 90
      256
102
RTVSPost2010Prop51ColorRGB
 90
-16777216
102
RTVSPost2010PropOp51
 70
     0
102
RTVSPost2010Prop52
140
1.0
102
RTVSPost2010PropOp52
 70
     0
102
RTVSPost2010Prop53
 90
        2
102
RTVSPost2010PropOp53
 70
     1
102
RTVSPost2010Prop54
  1
strokes_ogs.tif
102
RTVSPost2010PropOp54
 70
     1
102
RTVSPost2010Prop55
280
     0
102
RTVSPost2010PropOp55
 70
     1
102
RTVSPost2010Prop56
140
1.0
102
RTVSPost2010PropOp56
 70
     1
102
RTVSPost2010Prop57
140
1.0
102
RTVSPost2010PropOp57
 70
     1
102
RTVSPropertyOp0
 70
     1
102
RTVSPropertyOp1
 70
     1
102
RTVSPropertyOp2
 70
     1
102
RTVSPropertyOp3
 70
     1
102
RTVSPropertyOp4
 70
     1
102
RTVSPropertyOp5
 70
     1
102
RTVSPropertyOp6
 70
     1
102
RTVSPropertyOp7
 70
     1
102
RTVSPropertyOp8
 70
     1
102
RTVSPropertyOp9
 70
     1
102
RTVSPropertyOp10
 70
     1
102
RTVSPropertyOp11
 70
     1
102
RTVSPropertyOp12
 70
     1
102
RTVSPropertyOp13
 70
     1
102
RTVSPropertyOp14
 70
     1
102
RTVSPropertyOp15
 70
     1
102
RTVSPropertyOp16
 70
     1
102
RTVSPropertyOp17
 70
     1
102
RTVSPropertyOp18
 70
     1
102
RTVSPropertyOp19
 70
     1
102
RTVSPropertyOp20
 70
     1
102
RTVSPropertyOp21
 70
     1
102
RTVSPropertyOp22
 70
     1
102
RTVSPropertyOp23
 70
     1
102
RTVSPropertyOp24
 70
     1
102
RTVSPropertyOp25
 70
     1
102
RTVSPropertyOp26
 70
     1
102
RTVSPropertyOp27
 70
     1
102
RTVSPropertyOp28
 70
     1
102
RTVSPropertyOp29
 70
     1
102
RTVSPropertyOp30
 70
     1
102
RTVSPropertyOp31
 70
     1
102
RTVSPropertyOp32
 70
     1
102
RTVSPropertyOp33
 70
     1
102
RTVSPropertyOp34
 70
     1
102
RTVSPropertyOp35
 70
     1
102
RTVSPropertyOp36
 70
     1
102
RTVSPropertyOp37
 70
     1
102
RTVSPropertyOp38
 70
     1
102
RTVSPropertyOp39
 70
     1
102
RTVSPropertyOp40
 70
     1
102
RTVSPropertyOp41
 70
     1
102
RTVSPropertyOp42
 70
     1
102
RTVSPropertyOp43
 70
     1
102
RTVSPropertyOp44
 70
     1
102
RTVSPropertyOp45
 70
     1
102
RTVSPropertyOp46
 70
     1
102
RTVSPropertyOp47
 70
     1
102
RTVSPropertyOp48
 70
     1
102
RTVSPropertyOp49
 70
     1
102
RTVSPropertyOp50
 70
     1
102
RTVSPropertyOp51
 70
     0
102
RTVSPropertyOp52
 70
     0
102
RTVSPropertyOp53
 70
     1
102
RTVSPropertyOp54
 70
     1
102
RTVSPropertyOp55
 70
     1
102
RTVSPropertyOp56
 70
     1
102
RTVSPropertyOp57
 70
     1
102
RTVSPropertyOp58
 70
     1
102
RTVSPropertyOp59
 70
     1
102
RTVSPropertyOp60
 70
     1
102
RTVSPropertyOp61
 70
     1
102
RTVSPropertyOp62
 70
     1
  0
XRECORD
  5
62B
102
{ACAD_REACTORS
330
62A
102
}
330
62A
100
AcDbXrecord
280
     1
102
RTVSPost2010Prop28
280
     0
102
RTVSPost2010PropOp28
 70
     1
102
RTVSPost2010Prop29
280
     1
102
RTVSPost2010PropOp29
 70
     1
102
RTVSPost2010Prop30
280
     1
102
RTVSPost2010PropOp30
 70
     1
102
RTVSPost2010Prop31
280
     0
102
RTVSPost2010PropOp31
 70
     1
102
RTVSPost2010Prop32
280
     0
102
RTVSPost2010PropOp32
 70
     1
102
RTVSPost2010Prop33
280
     0
102
RTVSPost2010PropOp33
 70
     1
102
RTVSPost2010Prop34
280
     0
102
RTVSPost2010PropOp34
 70
     1
102
RTVSPost2010Prop35
280
     0
102
RTVSPost2010PropOp35
 70
     1
102
RTVSPost2010Prop36
280
     0
102
RTVSPost2010PropOp36
 70
     1
102
RTVSPost2010Prop37
 90
       50
102
RTVSPost2010PropOp37
 70
     1
102
RTVSPost2010Prop38
140
0.0
102
RTVSPost2010PropOp38
 70
     1
102
RTVSPost2010Prop39
140
1.0
102
RTVSPost2010PropOp39
 70
     1
102
RTVSPost2010Prop40
 90
        0
102
RTVSPost2010PropOp40
 70
     1
102
RTVSPost2010Prop41ColorIndex
 90
       18
102
RTVSPost2010Prop41ColorRGB
 90
        0
102
RTVSPost2010PropOp41
 70
     1
102
RTVSPost2010Prop42
 90
       50
102
RTVSPost2010PropOp42
 70
     1
102
RTVSPost2010Prop43
 90
        3
102
RTVSPost2010PropOp43
 70
     1
102
RTVSPost2010Prop44ColorIndex
 90
        5
102
RTVSPost2010Prop44ColorRGB
 90
      255
102
RTVSPost2010PropOp44
 70
     1
102
RTVSPost2010Prop45
280
     0
102
RTVSPost2010PropOp45
 70
     1
102
RTVSPost2010Prop46
 90
       50
102
RTVSPost2010PropOp46
 70
     1
102
RTVSPost2010Prop47
 90
       50
102
RTVSPost2010PropOp47
 70
     1
102
RTVSPost2010Prop48
 90
       50
102
RTVSPost2010PropOp48
 70
     1
102
RTVSPost2010Prop49
280
     0
102
RTVSPost2010PropOp49
 70
     1
102
RTVSPost2010Prop50
 90
       50
102
RTVSPost2010PropOp50
 70
     1
102
RTVSPost2010Prop51ColorIndex
 90
      256
102
RTVSPost2010Prop51ColorRGB
 90
-16777216
102
RTVSPost2010PropOp51
 70
     0
102
RTVSPost2010Prop52
140
1.0
102
RTVSPost2010PropOp52
 70
     0
102
RTVSPost2010Prop53
 90
        2
102
RTVSPost2010PropOp53
 70
     1
102
RTVSPost2010Prop54
  1
strokes_ogs.tif
102
RTVSPost2010PropOp54
 70
     1
102
RTVSPost2010Prop55
280
     0
102
RTVSPost2010PropOp55
 70
     1
102
RTVSPost2010Prop56
140
1.0
102
RTVSPost2010PropOp56
 70
     1
102
RTVSPost2010Prop57
140
1.0
102
RTVSPost2010PropOp57
 70
     1
102
RTVSPropertyOp0
 70
     1
102
RTVSPropertyOp1
 70
     1
102
RTVSPropertyOp2
 70
     1
102
RTVSPropertyOp3
 70
     1
102
RTVSPropertyOp4
 70
     1
102
RTVSPropertyOp5
 70
     1
102
RTVSPropertyOp6
 70
     1
102
RTVSPropertyOp7
 70
     1
102
RTVSPropertyOp8
 70
     1
102
RTVSPropertyOp9
 70
     1
102
RTVSPropertyOp10
 70
     1
102
RTVSPropertyOp11
 70
     1
102
RTVSPropertyOp12
 70
     1
102
RTVSPropertyOp13
 70
     1
102
RTVSPropertyOp14
 70
     1
102
RTVSPropertyOp15
 70
     1
102
RTVSPropertyOp16
 70
     1
102
RTVSPropertyOp17
 70
     1
102
RTVSPropertyOp18
 70
     1
102
RTVSPropertyOp19
 70
     1
102
RTVSPropertyOp20
 70
     1
102
RTVSPropertyOp21
 70
     1
102
RTVSPropertyOp22
 70
     1
102
RTVSPropertyOp23
 70
     1
102
RTVSPropertyOp24
 70
     1
102
RTVSPropertyOp25
 70
     1
102
RTVSPropertyOp26
 70
     1
102
RTVSPropertyOp27
 70
     1
102
RTVSPropertyOp28
 70
     1
102
RTVSPropertyOp29
 70
     1
102
RTVSPropertyOp30
 70
     1
102
RTVSPropertyOp31
 70
     1
102
RTVSPropertyOp32
 70
     1
102
RTVSPropertyOp33
 70
     1
102
RTVSPropertyOp34
 70
     1
102
RTVSPropertyOp35
 70
     1
102
RTVSPropertyOp36
 70
     1
102
RTVSPropertyOp37
 70
     1
102
RTVSPropertyOp38
 70
     1
102
RTVSPropertyOp39
 70
     1
102
RTVSPropertyOp40
 70
     1
102
RTVSPropertyOp41
 70
     1
102
RTVSPropertyOp42
 70
     1
102
RTVSPropertyOp43
 70
     1
102
RTVSPropertyOp44
 70
     1
102
RTVSPropertyOp45
 70
     1
102
RTVSPropertyOp46
 70
     1
102
RTVSPropertyOp47
 70
     1
102
RTVSPropertyOp48
 70
     1
102
RTVSPropertyOp49
 70
     1
102
RTVSPropertyOp50
 70
     1
102
RTVSPropertyOp51
 70
     0
102
RTVSPropertyOp52
 70
     0
102
RTVSPropertyOp53
 70
     1
102
RTVSPropertyOp54
 70
     1
102
RTVSPropertyOp55
 70
     1
102
RTVSPropertyOp56
 70
     1
102
RTVSPropertyOp57
 70
     1
102
RTVSPropertyOp58
 70
     1
102
RTVSPropertyOp59
 70
     1
102
RTVSPropertyOp60
 70
     1
102
RTVSPropertyOp61
 70
     1
102
RTVSPropertyOp62
 70
     1
  0
XRECORD
  5
61F
102
{ACAD_REACTORS
330
61E
102
}
330
61E
100
AcDbXrecord
280
     1
102
RTVSPost2010Prop28
280
     0
102
RTVSPost2010PropOp28
 70
     1
102
RTVSPost2010Prop29
280
     1
102
RTVSPost2010PropOp29
 70
     1
102
RTVSPost2010Prop30
280
     1
102
RTVSPost2010PropOp30
 70
     1
102
RTVSPost2010Prop31
280
     0
102
RTVSPost2010PropOp31
 70
     1
102
RTVSPost2010Prop32
280
     0
102
RTVSPost2010PropOp32
 70
     1
102
RTVSPost2010Prop33
280
     0
102
RTVSPost2010PropOp33
 70
     1
102
RTVSPost2010Prop34
280
     0
102
RTVSPost2010PropOp34
 70
     1
102
RTVSPost2010Prop35
280
     0
102
RTVSPost2010PropOp35
 70
     1
102
RTVSPost2010Prop36
280
     0
102
RTVSPost2010PropOp36
 70
     1
102
RTVSPost2010Prop37
 90
       50
102
RTVSPost2010PropOp37
 70
     1
102
RTVSPost2010Prop38
140
0.0
102
RTVSPost2010PropOp38
 70
     1
102
RTVSPost2010Prop39
140
1.0
102
RTVSPost2010PropOp39
 70
     1
102
RTVSPost2010Prop40
 90
        0
102
RTVSPost2010PropOp40
 70
     1
102
RTVSPost2010Prop41ColorIndex
 90
       18
102
RTVSPost2010Prop41ColorRGB
 90
        0
102
RTVSPost2010PropOp41
 70
     1
102
RTVSPost2010Prop42
 90
       50
102
RTVSPost2010PropOp42
 70
     1
102
RTVSPost2010Prop43
 90
        3
102
RTVSPost2010PropOp43
 70
     1
102
RTVSPost2010Prop44ColorIndex
 90
        5
102
RTVSPost2010Prop44ColorRGB
 90
      255
102
RTVSPost2010PropOp44
 70
     1
102
RTVSPost2010Prop45
280
     0
102
RTVSPost2010PropOp45
 70
     1
102
RTVSPost2010Prop46
 90
       50
102
RTVSPost2010PropOp46
 70
     1
102
RTVSPost2010Prop47
 90
       50
102
RTVSPost2010PropOp47
 70
     1
102
RTVSPost2010Prop48
 90
       50
102
RTVSPost2010PropOp48
 70
     1
102
RTVSPost2010Prop49
280
     0
102
RTVSPost2010PropOp49
 70
     1
102
RTVSPost2010Prop50
 90
       50
102
RTVSPost2010PropOp50
 70
     1
102
RTVSPost2010Prop51ColorIndex
 90
      256
102
RTVSPost2010Prop51ColorRGB
 90
-16777216
102
RTVSPost2010PropOp51
 70
     0
102
RTVSPost2010Prop52
140
1.0
102
RTVSPost2010PropOp52
 70
     0
102
RTVSPost2010Prop53
 90
        2
102
RTVSPost2010PropOp53
 70
     1
102
RTVSPost2010Prop54
  1
strokes_ogs.tif
102
RTVSPost2010PropOp54
 70
     1
102
RTVSPost2010Prop55
280
     0
102
RTVSPost2010PropOp55
 70
     1
102
RTVSPost2010Prop56
140
1.0
102
RTVSPost2010PropOp56
 70
     1
102
RTVSPost2010Prop57
140
1.0
102
RTVSPost2010PropOp57
 70
     1
102
RTVSPropertyOp0
 70
     1
102
RTVSPropertyOp1
 70
     1
102
RTVSPropertyOp2
 70
     1
102
RTVSPropertyOp3
 70
     1
102
RTVSPropertyOp4
 70
     1
102
RTVSPropertyOp5
 70
     1
102
RTVSPropertyOp6
 70
     1
102
RTVSPropertyOp7
 70
     1
102
RTVSPropertyOp8
 70
     1
102
RTVSPropertyOp9
 70
     1
102
RTVSPropertyOp10
 70
     1
102
RTVSPropertyOp11
 70
     1
102
RTVSPropertyOp12
 70
     1
102
RTVSPropertyOp13
 70
     1
102
RTVSPropertyOp14
 70
     1
102
RTVSPropertyOp15
 70
     1
102
RTVSPropertyOp16
 70
     1
102
RTVSPropertyOp17
 70
     1
102
RTVSPropertyOp18
 70
     1
102
RTVSPropertyOp19
 70
     1
102
RTVSPropertyOp20
 70
     1
102
RTVSPropertyOp21
 70
     1
102
RTVSPropertyOp22
 70
     1
102
RTVSPropertyOp23
 70
     1
102
RTVSPropertyOp24
 70
     1
102
RTVSPropertyOp25
 70
     1
102
RTVSPropertyOp26
 70
     1
102
RTVSPropertyOp27
 70
     1
102
RTVSPropertyOp28
 70
     1
102
RTVSPropertyOp29
 70
     1
102
RTVSPropertyOp30
 70
     1
102
RTVSPropertyOp31
 70
     1
102
RTVSPropertyOp32
 70
     1
102
RTVSPropertyOp33
 70
     1
102
RTVSPropertyOp34
 70
     1
102
RTVSPropertyOp35
 70
     1
102
RTVSPropertyOp36
 70
     1
102
RTVSPropertyOp37
 70
     1
102
RTVSPropertyOp38
 70
     1
102
RTVSPropertyOp39
 70
     1
102
RTVSPropertyOp40
 70
     1
102
RTVSPropertyOp41
 70
     1
102
RTVSPropertyOp42
 70
     1
102
RTVSPropertyOp43
 70
     1
102
RTVSPropertyOp44
 70
     1
102
RTVSPropertyOp45
 70
     1
102
RTVSPropertyOp46
 70
     1
102
RTVSPropertyOp47
 70
     1
102
RTVSPropertyOp48
 70
     1
102
RTVSPropertyOp49
 70
     1
102
RTVSPropertyOp50
 70
     1
102
RTVSPropertyOp51
 70
     0
102
RTVSPropertyOp52
 70
     0
102
RTVSPropertyOp53
 70
     1
102
RTVSPropertyOp54
 70
     1
102
RTVSPropertyOp55
 70
     1
102
RTVSPropertyOp56
 70
     1
102
RTVSPropertyOp57
 70
     1
102
RTVSPropertyOp58
 70
     1
102
RTVSPropertyOp59
 70
     1
102
RTVSPropertyOp60
 70
     1
102
RTVSPropertyOp61
 70
     1
102
RTVSPropertyOp62
 70
     1
  0
XRECORD
  5
621
102
{ACAD_REACTORS
330
620
102
}
330
620
100
AcDbXrecord
280
     1
102
RTVSPost2010Prop28
280
     0
102
RTVSPost2010PropOp28
 70
     1
102
RTVSPost2010Prop29
280
     1
102
RTVSPost2010PropOp29
 70
     1
102
RTVSPost2010Prop30
280
     1
102
RTVSPost2010PropOp30
 70
     1
102
RTVSPost2010Prop31
280
     0
102
RTVSPost2010PropOp31
 70
     1
102
RTVSPost2010Prop32
280
     0
102
RTVSPost2010PropOp32
 70
     1
102
RTVSPost2010Prop33
280
     0
102
RTVSPost2010PropOp33
 70
     1
102
RTVSPost2010Prop34
280
     0
102
RTVSPost2010PropOp34
 70
     1
102
RTVSPost2010Prop35
280
     0
102
RTVSPost2010PropOp35
 70
     1
102
RTVSPost2010Prop36
280
     0
102
RTVSPost2010PropOp36
 70
     1
102
RTVSPost2010Prop37
 90
       50
102
RTVSPost2010PropOp37
 70
     1
102
RTVSPost2010Prop38
140
0.0
102
RTVSPost2010PropOp38
 70
     1
102
RTVSPost2010Prop39
140
1.0
102
RTVSPost2010PropOp39
 70
     1
102
RTVSPost2010Prop40
 90
        0
102
RTVSPost2010PropOp40
 70
     1
102
RTVSPost2010Prop41ColorIndex
 90
       18
102
RTVSPost2010Prop41ColorRGB
 90
        0
102
RTVSPost2010PropOp41
 70
     1
102
RTVSPost2010Prop42
 90
       50
102
RTVSPost2010PropOp42
 70
     1
102
RTVSPost2010Prop43
 90
        3
102
RTVSPost2010PropOp43
 70
     1
102
RTVSPost2010Prop44ColorIndex
 90
        5
102
RTVSPost2010Prop44ColorRGB
 90
      255
102
RTVSPost2010PropOp44
 70
     1
102
RTVSPost2010Prop45
280
     0
102
RTVSPost2010PropOp45
 70
     1
102
RTVSPost2010Prop46
 90
       50
102
RTVSPost2010PropOp46
 70
     1
102
RTVSPost2010Prop47
 90
       50
102
RTVSPost2010PropOp47
 70
     1
102
RTVSPost2010Prop48
 90
       50
102
RTVSPost2010PropOp48
 70
     1
102
RTVSPost2010Prop49
280
     0
102
RTVSPost2010PropOp49
 70
     1
102
RTVSPost2010Prop50
 90
       50
102
RTVSPost2010PropOp50
 70
     1
102
RTVSPost2010Prop51ColorIndex
 90
      256
102
RTVSPost2010Prop51ColorRGB
 90
-16777216
102
RTVSPost2010PropOp51
 70
     0
102
RTVSPost2010Prop52
140
1.0
102
RTVSPost2010PropOp52
 70
     0
102
RTVSPost2010Prop53
 90
        2
102
RTVSPost2010PropOp53
 70
     1
102
RTVSPost2010Prop54
  1
strokes_ogs.tif
102
RTVSPost2010PropOp54
 70
     1
102
RTVSPost2010Prop55
280
     0
102
RTVSPost2010PropOp55
 70
     1
102
RTVSPost2010Prop56
140
1.0
102
RTVSPost2010PropOp56
 70
     1
102
RTVSPost2010Prop57
140
1.0
102
RTVSPost2010PropOp57
 70
     1
102
RTVSPropertyOp0
 70
     1
102
RTVSPropertyOp1
 70
     1
102
RTVSPropertyOp2
 70
     1
102
RTVSPropertyOp3
 70
     1
102
RTVSPropertyOp4
 70
     1
102
RTVSPropertyOp5
 70
     1
102
RTVSPropertyOp6
 70
     1
102
RTVSPropertyOp7
 70
     1
102
RTVSPropertyOp8
 70
     1
102
RTVSPropertyOp9
 70
     1
102
RTVSPropertyOp10
 70
     1
102
RTVSPropertyOp11
 70
     1
102
RTVSPropertyOp12
 70
     1
102
RTVSPropertyOp13
 70
     1
102
RTVSPropertyOp14
 70
     1
102
RTVSPropertyOp15
 70
     1
102
RTVSPropertyOp16
 70
     1
102
RTVSPropertyOp17
 70
     1
102
RTVSPropertyOp18
 70
     1
102
RTVSPropertyOp19
 70
     1
102
RTVSPropertyOp20
 70
     1
102
RTVSPropertyOp21
 70
     1
102
RTVSPropertyOp22
 70
     1
102
RTVSPropertyOp23
 70
     1
102
RTVSPropertyOp24
 70
     1
102
RTVSPropertyOp25
 70
     1
102
RTVSPropertyOp26
 70
     1
102
RTVSPropertyOp27
 70
     1
102
RTVSPropertyOp28
 70
     1
102
RTVSPropertyOp29
 70
     1
102
RTVSPropertyOp30
 70
     1
102
RTVSPropertyOp31
 70
     1
102
RTVSPropertyOp32
 70
     1
102
RTVSPropertyOp33
 70
     1
102
RTVSPropertyOp34
 70
     1
102
RTVSPropertyOp35
 70
     1
102
RTVSPropertyOp36
 70
     1
102
RTVSPropertyOp37
 70
     1
102
RTVSPropertyOp38
 70
     1
102
RTVSPropertyOp39
 70
     1
102
RTVSPropertyOp40
 70
     1
102
RTVSPropertyOp41
 70
     1
102
RTVSPropertyOp42
 70
     1
102
RTVSPropertyOp43
 70
     1
102
RTVSPropertyOp44
 70
     1
102
RTVSPropertyOp45
 70
     1
102
RTVSPropertyOp46
 70
     1
102
RTVSPropertyOp47
 70
     1
102
RTVSPropertyOp48
 70
     1
102
RTVSPropertyOp49
 70
     1
102
RTVSPropertyOp50
 70
     1
102
RTVSPropertyOp51
 70
     0
102
RTVSPropertyOp52
 70
     0
102
RTVSPropertyOp53
 70
     1
102
RTVSPropertyOp54
 70
     1
102
RTVSPropertyOp55
 70
     1
102
RTVSPropertyOp56
 70
     1
102
RTVSPropertyOp57
 70
     1
102
RTVSPropertyOp58
 70
     1
102
RTVSPropertyOp59
 70
     1
102
RTVSPropertyOp60
 70
     1
102
RTVSPropertyOp61
 70
     1
102
RTVSPropertyOp62
 70
     1
  0
XRECORD
  5
631
102
{ACAD_REACTORS
330
630
102
}
330
630
100
AcDbXrecord
280
     1
102
RTVSPost2010Prop28
280
     0
102
RTVSPost2010PropOp28
 70
     0
102
RTVSPost2010Prop29
280
     1
102
RTVSPost2010PropOp29
 70
     0
102
RTVSPost2010Prop30
280
     1
102
RTVSPost2010PropOp30
 70
     0
102
RTVSPost2010Prop31
280
     0
102
RTVSPost2010PropOp31
 70
     0
102
RTVSPost2010Prop32
280
     0
102
RTVSPost2010PropOp32
 70
     0
102
RTVSPost2010Prop33
280
     0
102
RTVSPost2010PropOp33
 70
     0
102
RTVSPost2010Prop34
280
     0
102
RTVSPost2010PropOp34
 70
     0
102
RTVSPost2010Prop35
280
     0
102
RTVSPost2010PropOp35
 70
     0
102
RTVSPost2010Prop36
280
     0
102
RTVSPost2010PropOp36
 70
     0
102
RTVSPost2010Prop37
 90
       50
102
RTVSPost2010PropOp37
 70
     0
102
RTVSPost2010Prop38
140
0.0
102
RTVSPost2010PropOp38
 70
     0
102
RTVSPost2010Prop39
140
1.0
102
RTVSPost2010PropOp39
 70
     0
102
RTVSPost2010Prop40
 90
        0
102
RTVSPost2010PropOp40
 70
     0
102
RTVSPost2010Prop41ColorIndex
 90
       18
102
RTVSPost2010Prop41ColorRGB
 90
        0
102
RTVSPost2010PropOp41
 70
     0
102
RTVSPost2010Prop42
 90
       50
102
RTVSPost2010PropOp42
 70
     0
102
RTVSPost2010Prop43
 90
        3
102
RTVSPost2010PropOp43
 70
     0
102
RTVSPost2010Prop44ColorIndex
 90
        5
102
RTVSPost2010Prop44ColorRGB
 90
      255
102
RTVSPost2010PropOp44
 70
     0
102
RTVSPost2010Prop45
280
     0
102
RTVSPost2010PropOp45
 70
     0
102
RTVSPost2010Prop46
 90
       50
102
RTVSPost2010PropOp46
 70
     0
102
RTVSPost2010Prop47
 90
       50
102
RTVSPost2010PropOp47
 70
     0
102
RTVSPost2010Prop48
 90
       50
102
RTVSPost2010PropOp48
 70
     0
102
RTVSPost2010Prop49
280
     0
102
RTVSPost2010PropOp49
 70
     0
102
RTVSPost2010Prop50
 90
       50
102
RTVSPost2010PropOp50
 70
     0
102
RTVSPost2010Prop51ColorIndex
 90
      256
102
RTVSPost2010Prop51ColorRGB
 90
-16777216
102
RTVSPost2010PropOp51
 70
     0
102
RTVSPost2010Prop52
140
1.0
102
RTVSPost2010PropOp52
 70
     0
102
RTVSPost2010Prop53
 90
        2
102
RTVSPost2010PropOp53
 70
     0
102
RTVSPost2010Prop54
  1
strokes_ogs.tif
102
RTVSPost2010PropOp54
 70
     0
102
RTVSPost2010Prop55
280
     0
102
RTVSPost2010PropOp55
 70
     0
102
RTVSPost2010Prop56
140
1.0
102
RTVSPost2010PropOp56
 70
     0
102
RTVSPost2010Prop57
140
1.0
102
RTVSPost2010PropOp57
 70
     0
102
RTVSPropertyOp0
 70
     0
102
RTVSPropertyOp1
 70
     0
102
RTVSPropertyOp2
 70
     0
102
RTVSPropertyOp3
 70
     0
102
RTVSPropertyOp4
 70
     0
102
RTVSPropertyOp5
 70
     0
102
RTVSPropertyOp6
 70
     0
102
RTVSPropertyOp7
 70
     0
102
RTVSPropertyOp8
 70
     0
102
RTVSPropertyOp9
 70
     0
102
RTVSPropertyOp10
 70
     0
102
RTVSPropertyOp11
 70
     0
102
RTVSPropertyOp12
 70
     0
102
RTVSPropertyOp13
 70
     0
102
RTVSPropertyOp14
 70
     2
102
RTVSPropertyOp15
 70
     0
102
RTVSPropertyOp16
 70
     0
102
RTVSPropertyOp17
 70
     0
102
RTVSPropertyOp18
 70
     0
102
RTVSPropertyOp19
 70
     0
102
RTVSPropertyOp20
 70
     0
102
RTVSPropertyOp21
 70
     0
102
RTVSPropertyOp22
 70
     0
102
RTVSPropertyOp23
 70
     0
102
RTVSPropertyOp24
 70
     0
102
RTVSPropertyOp25
 70
     0
102
RTVSPropertyOp26
 70
     0
102
RTVSPropertyOp27
 70
     0
102
RTVSPropertyOp28
 70
     0
102
RTVSPropertyOp29
 70
     0
102
RTVSPropertyOp30
 70
     0
102
RTVSPropertyOp31
 70
     0
102
RTVSPropertyOp32
 70
     0
102
RTVSPropertyOp33
 70
     0
102
RTVSPropertyOp34
 70
     0
102
RTVSPropertyOp35
 70
     0
102
RTVSPropertyOp36
 70
     0
102
RTVSPropertyOp37
 70
     0
102
RTVSPropertyOp38
 70
     0
102
RTVSPropertyOp39
 70
     0
102
RTVSPropertyOp40
 70
     0
102
RTVSPropertyOp41
 70
     0
102
RTVSPropertyOp42
 70
     0
102
RTVSPropertyOp43
 70
     0
102
RTVSPropertyOp44
 70
     0
102
RTVSPropertyOp45
 70
     0
102
RTVSPropertyOp46
 70
     0
102
RTVSPropertyOp47
 70
     0
102
RTVSPropertyOp48
 70
     0
102
RTVSPropertyOp49
 70
     0
102
RTVSPropertyOp50
 70
     0
102
RTVSPropertyOp51
 70
     0
102
RTVSPropertyOp52
 70
     0
102
RTVSPropertyOp53
 70
     0
102
RTVSPropertyOp54
 70
     0
102
RTVSPropertyOp55
 70
     0
102
RTVSPropertyOp56
 70
     0
102
RTVSPropertyOp57
 70
     0
102
RTVSPropertyOp58
 70
     1
102
RTVSPropertyOp59
 70
     1
102
RTVSPropertyOp60
 70
     1
102
RTVSPropertyOp61
 70
     1
102
RTVSPropertyOp62
 70
     1
  0
XRECORD
  5
629
102
{ACAD_REACTORS
330
628
102
}
330
628
100
AcDbXrecord
280
     1
102
RTVSPost2010Prop28
280
     0
102
RTVSPost2010PropOp28
 70
     1
102
RTVSPost2010Prop29
280
     1
102
RTVSPost2010PropOp29
 70
     1
102
RTVSPost2010Prop30
280
     1
102
RTVSPost2010PropOp30
 70
     1
102
RTVSPost2010Prop31
280
     0
102
RTVSPost2010PropOp31
 70
     1
102
RTVSPost2010Prop32
280
     0
102
RTVSPost2010PropOp32
 70
     1
102
RTVSPost2010Prop33
280
     0
102
RTVSPost2010PropOp33
 70
     1
102
RTVSPost2010Prop34
280
     0
102
RTVSPost2010PropOp34
 70
     1
102
RTVSPost2010Prop35
280
     0
102
RTVSPost2010PropOp35
 70
     1
102
RTVSPost2010Prop36
280
     0
102
RTVSPost2010PropOp36
 70
     1
102
RTVSPost2010Prop37
 90
       50
102
RTVSPost2010PropOp37
 70
     1
102
RTVSPost2010Prop38
140
0.0
102
RTVSPost2010PropOp38
 70
     1
102
RTVSPost2010Prop39
140
1.0
102
RTVSPost2010PropOp39
 70
     1
102
RTVSPost2010Prop40
 90
        0
102
RTVSPost2010PropOp40
 70
     1
102
RTVSPost2010Prop41ColorIndex
 90
       18
102
RTVSPost2010Prop41ColorRGB
 90
        0
102
RTVSPost2010PropOp41
 70
     1
102
RTVSPost2010Prop42
 90
       50
102
RTVSPost2010PropOp42
 70
     1
102
RTVSPost2010Prop43
 90
        3
102
RTVSPost2010PropOp43
 70
     1
102
RTVSPost2010Prop44ColorIndex
 90
        5
102
RTVSPost2010Prop44ColorRGB
 90
      255
102
RTVSPost2010PropOp44
 70
     1
102
RTVSPost2010Prop45
280
     0
102
RTVSPost2010PropOp45
 70
     1
102
RTVSPost2010Prop46
 90
       50
102
RTVSPost2010PropOp46
 70
     1
102
RTVSPost2010Prop47
 90
       50
102
RTVSPost2010PropOp47
 70
     1
102
RTVSPost2010Prop48
 90
       50
102
RTVSPost2010PropOp48
 70
     1
102
RTVSPost2010Prop49
280
     0
102
RTVSPost2010PropOp49
 70
     1
102
RTVSPost2010Prop50
 90
       50
102
RTVSPost2010PropOp50
 70
     1
102
RTVSPost2010Prop51ColorIndex
 90
      256
102
RTVSPost2010Prop51ColorRGB
 90
-16777216
102
RTVSPost2010PropOp51
 70
     0
102
RTVSPost2010Prop52
140
1.0
102
RTVSPost2010PropOp52
 70
     0
102
RTVSPost2010Prop53
 90
        2
102
RTVSPost2010PropOp53
 70
     1
102
RTVSPost2010Prop54
  1
strokes_ogs.tif
102
RTVSPost2010PropOp54
 70
     1
102
RTVSPost2010Prop55
280
     0
102
RTVSPost2010PropOp55
 70
     1
102
RTVSPost2010Prop56
140
1.0
102
RTVSPost2010PropOp56
 70
     1
102
RTVSPost2010Prop57
140
1.0
102
RTVSPost2010PropOp57
 70
     1
102
RTVSPropertyOp0
 70
     1
102
RTVSPropertyOp1
 70
     1
102
RTVSPropertyOp2
 70
     1
102
RTVSPropertyOp3
 70
     1
102
RTVSPropertyOp4
 70
     1
102
RTVSPropertyOp5
 70
     1
102
RTVSPropertyOp6
 70
     1
102
RTVSPropertyOp7
 70
     1
102
RTVSPropertyOp8
 70
     1
102
RTVSPropertyOp9
 70
     1
102
RTVSPropertyOp10
 70
     1
102
RTVSPropertyOp11
 70
     1
102
RTVSPropertyOp12
 70
     1
102
RTVSPropertyOp13
 70
     1
102
RTVSPropertyOp14
 70
     1
102
RTVSPropertyOp15
 70
     1
102
RTVSPropertyOp16
 70
     1
102
RTVSPropertyOp17
 70
     1
102
RTVSPropertyOp18
 70
     1
102
RTVSPropertyOp19
 70
     1
102
RTVSPropertyOp20
 70
     1
102
RTVSPropertyOp21
 70
     1
102
RTVSPropertyOp22
 70
     1
102
RTVSPropertyOp23
 70
     1
102
RTVSPropertyOp24
 70
     1
102
RTVSPropertyOp25
 70
     1
102
RTVSPropertyOp26
 70
     1
102
RTVSPropertyOp27
 70
     1
102
RTVSPropertyOp28
 70
     1
102
RTVSPropertyOp29
 70
     1
102
RTVSPropertyOp30
 70
     1
102
RTVSPropertyOp31
 70
     1
102
RTVSPropertyOp32
 70
     1
102
RTVSPropertyOp33
 70
     1
102
RTVSPropertyOp34
 70
     1
102
RTVSPropertyOp35
 70
     1
102
RTVSPropertyOp36
 70
     1
102
RTVSPropertyOp37
 70
     1
102
RTVSPropertyOp38
 70
     1
102
RTVSPropertyOp39
 70
     1
102
RTVSPropertyOp40
 70
     1
102
RTVSPropertyOp41
 70
     1
102
RTVSPropertyOp42
 70
     1
102
RTVSPropertyOp43
 70
     1
102
RTVSPropertyOp44
 70
     1
102
RTVSPropertyOp45
 70
     1
102
RTVSPropertyOp46
 70
     1
102
RTVSPropertyOp47
 70
     1
102
RTVSPropertyOp48
 70
     1
102
RTVSPropertyOp49
 70
     1
102
RTVSPropertyOp50
 70
     1
102
RTVSPropertyOp51
 70
     0
102
RTVSPropertyOp52
 70
     0
102
RTVSPropertyOp53
 70
     1
102
RTVSPropertyOp54
 70
     1
102
RTVSPropertyOp55
 70
     1
102
RTVSPropertyOp56
 70
     1
102
RTVSPropertyOp57
 70
     1
102
RTVSPropertyOp58
 70
     1
102
RTVSPropertyOp59
 70
     1
102
RTVSPropertyOp60
 70
     1
102
RTVSPropertyOp61
 70
     1
102
RTVSPropertyOp62
 70
     1
  0
XRECORD
  5
60D
102
{ACAD_REACTORS
330
60C
102
}
330
60C
100
AcDbXrecord
280
     1
102
RTVSPost2010Prop28
280
     0
102
RTVSPost2010PropOp28
 70
     1
102
RTVSPost2010Prop29
280
     1
102
RTVSPost2010PropOp29
 70
     1
102
RTVSPost2010Prop30
280
     1
102
RTVSPost2010PropOp30
 70
     1
102
RTVSPost2010Prop31
280
     0
102
RTVSPost2010PropOp31
 70
     1
102
RTVSPost2010Prop32
280
     0
102
RTVSPost2010PropOp32
 70
     1
102
RTVSPost2010Prop33
280
     0
102
RTVSPost2010PropOp33
 70
     1
102
RTVSPost2010Prop34
280
     0
102
RTVSPost2010PropOp34
 70
     1
102
RTVSPost2010Prop35
280
     0
102
RTVSPost2010PropOp35
 70
     1
102
RTVSPost2010Prop36
280
     0
102
RTVSPost2010PropOp36
 70
     1
102
RTVSPost2010Prop37
 90
       50
102
RTVSPost2010PropOp37
 70
     1
102
RTVSPost2010Prop38
140
0.0
102
RTVSPost2010PropOp38
 70
     1
102
RTVSPost2010Prop39
140
1.0
102
RTVSPost2010PropOp39
 70
     1
102
RTVSPost2010Prop40
 90
        0
102
RTVSPost2010PropOp40
 70
     1
102
RTVSPost2010Prop41ColorIndex
 90
       18
102
RTVSPost2010Prop41ColorRGB
 90
        0
102
RTVSPost2010PropOp41
 70
     1
102
RTVSPost2010Prop42
 90
       50
102
RTVSPost2010PropOp42
 70
     1
102
RTVSPost2010Prop43
 90
        3
102
RTVSPost2010PropOp43
 70
     1
102
RTVSPost2010Prop44ColorIndex
 90
        5
102
RTVSPost2010Prop44ColorRGB
 90
      255
102
RTVSPost2010PropOp44
 70
     1
102
RTVSPost2010Prop45
280
     0
102
RTVSPost2010PropOp45
 70
     1
102
RTVSPost2010Prop46
 90
       50
102
RTVSPost2010PropOp46
 70
     1
102
RTVSPost2010Prop47
 90
       50
102
RTVSPost2010PropOp47
 70
     1
102
RTVSPost2010Prop48
 90
       50
102
RTVSPost2010PropOp48
 70
     1
102
RTVSPost2010Prop49
280
     0
102
RTVSPost2010PropOp49
 70
     1
102
RTVSPost2010Prop50
 90
       50
102
RTVSPost2010PropOp50
 70
     1
102
RTVSPost2010Prop51ColorIndex
 90
      256
102
RTVSPost2010Prop51ColorRGB
 90
-16777216
102
RTVSPost2010PropOp51
 70
     0
102
RTVSPost2010Prop52
140
1.0
102
RTVSPost2010PropOp52
 70
     0
102
RTVSPost2010Prop53
 90
        2
102
RTVSPost2010PropOp53
 70
     1
102
RTVSPost2010Prop54
  1
strokes_ogs.tif
102
RTVSPost2010PropOp54
 70
     1
102
RTVSPost2010Prop55
280
     0
102
RTVSPost2010PropOp55
 70
     1
102
RTVSPost2010Prop56
140
1.0
102
RTVSPost2010PropOp56
 70
     1
102
RTVSPost2010Prop57
140
1.0
102
RTVSPost2010PropOp57
 70
     1
102
RTVSPropertyOp0
 70
     1
102
RTVSPropertyOp1
 70
     1
102
RTVSPropertyOp2
 70
     1
102
RTVSPropertyOp3
 70
     1
102
RTVSPropertyOp4
 70
     1
102
RTVSPropertyOp5
 70
     1
102
RTVSPropertyOp6
 70
     1
102
RTVSPropertyOp7
 70
     1
102
RTVSPropertyOp8
 70
     1
102
RTVSPropertyOp9
 70
     1
102
RTVSPropertyOp10
 70
     1
102
RTVSPropertyOp11
 70
     1
102
RTVSPropertyOp12
 70
     1
102
RTVSPropertyOp13
 70
     1
102
RTVSPropertyOp14
 70
     1
102
RTVSPropertyOp15
 70
     1
102
RTVSPropertyOp16
 70
     1
102
RTVSPropertyOp17
 70
     1
102
RTVSPropertyOp18
 70
     1
102
RTVSPropertyOp19
 70
     1
102
RTVSPropertyOp20
 70
     1
102
RTVSPropertyOp21
 70
     1
102
RTVSPropertyOp22
 70
     1
102
RTVSPropertyOp23
 70
     1
102
RTVSPropertyOp24
 70
     1
102
RTVSPropertyOp25
 70
     1
102
RTVSPropertyOp26
 70
     1
102
RTVSPropertyOp27
 70
     1
102
RTVSPropertyOp28
 70
     1
102
RTVSPropertyOp29
 70
     1
102
RTVSPropertyOp30
 70
     1
102
RTVSPropertyOp31
 70
     1
102
RTVSPropertyOp32
 70
     1
102
RTVSPropertyOp33
 70
     1
102
RTVSPropertyOp34
 70
     1
102
RTVSPropertyOp35
 70
     1
102
RTVSPropertyOp36
 70
     1
102
RTVSPropertyOp37
 70
     1
102
RTVSPropertyOp38
 70
     1
102
RTVSPropertyOp39
 70
     1
102
RTVSPropertyOp40
 70
     1
102
RTVSPropertyOp41
 70
     1
102
RTVSPropertyOp42
 70
     1
102
RTVSPropertyOp43
 70
     1
102
RTVSPropertyOp44
 70
     1
102
RTVSPropertyOp45
 70
     1
102
RTVSPropertyOp46
 70
     1
102
RTVSPropertyOp47
 70
     1
102
RTVSPropertyOp48
 70
     1
102
RTVSPropertyOp49
 70
     1
102
RTVSPropertyOp50
 70
     1
102
RTVSPropertyOp51
 70
     0
102
RTVSPropertyOp52
 70
     0
102
RTVSPropertyOp53
 70
     1
102
RTVSPropertyOp54
 70
     1
102
RTVSPropertyOp55
 70
     1
102
RTVSPropertyOp56
 70
     1
102
RTVSPropertyOp57
 70
     1
102
RTVSPropertyOp58
 70
     1
102
RTVSPropertyOp59
 70
     1
102
RTVSPropertyOp60
 70
     1
102
RTVSPropertyOp61
 70
     1
102
RTVSPropertyOp62
 70
     1
  0
XRECORD
  5
60F
102
{ACAD_REACTORS
330
60E
102
}
330
60E
100
AcDbXrecord
280
     1
102
RTVSPost2010Prop28
280
     0
102
RTVSPost2010PropOp28
 70
     1
102
RTVSPost2010Prop29
280
     1
102
RTVSPost2010PropOp29
 70
     1
102
RTVSPost2010Prop30
280
     1
102
RTVSPost2010PropOp30
 70
     1
102
RTVSPost2010Prop31
280
     0
102
RTVSPost2010PropOp31
 70
     1
102
RTVSPost2010Prop32
280
     0
102
RTVSPost2010PropOp32
 70
     1
102
RTVSPost2010Prop33
280
     0
102
RTVSPost2010PropOp33
 70
     1
102
RTVSPost2010Prop34
280
     0
102
RTVSPost2010PropOp34
 70
     1
102
RTVSPost2010Prop35
280
     0
102
RTVSPost2010PropOp35
 70
     1
102
RTVSPost2010Prop36
280
     0
102
RTVSPost2010PropOp36
 70
     1
102
RTVSPost2010Prop37
 90
       50
102
RTVSPost2010PropOp37
 70
     1
102
RTVSPost2010Prop38
140
0.0
102
RTVSPost2010PropOp38
 70
     1
102
RTVSPost2010Prop39
140
1.0
102
RTVSPost2010PropOp39
 70
     1
102
RTVSPost2010Prop40
 90
        0
102
RTVSPost2010PropOp40
 70
     1
102
RTVSPost2010Prop41ColorIndex
 90
       18
102
RTVSPost2010Prop41ColorRGB
 90
        0
102
RTVSPost2010PropOp41
 70
     1
102
RTVSPost2010Prop42
 90
       50
102
RTVSPost2010PropOp42
 70
     1
102
RTVSPost2010Prop43
 90
        3
102
RTVSPost2010PropOp43
 70
     1
102
RTVSPost2010Prop44ColorIndex
 90
        5
102
RTVSPost2010Prop44ColorRGB
 90
      255
102
RTVSPost2010PropOp44
 70
     1
102
RTVSPost2010Prop45
280
     0
102
RTVSPost2010PropOp45
 70
     1
102
RTVSPost2010Prop46
 90
       50
102
RTVSPost2010PropOp46
 70
     1
102
RTVSPost2010Prop47
 90
       50
102
RTVSPost2010PropOp47
 70
     1
102
RTVSPost2010Prop48
 90
       50
102
RTVSPost2010PropOp48
 70
     1
102
RTVSPost2010Prop49
280
     0
102
RTVSPost2010PropOp49
 70
     1
102
RTVSPost2010Prop50
 90
       50
102
RTVSPost2010PropOp50
 70
     1
102
RTVSPost2010Prop51ColorIndex
 90
      256
102
RTVSPost2010Prop51ColorRGB
 90
-16777216
102
RTVSPost2010PropOp51
 70
     0
102
RTVSPost2010Prop52
140
1.0
102
RTVSPost2010PropOp52
 70
     0
102
RTVSPost2010Prop53
 90
        2
102
RTVSPost2010PropOp53
 70
     1
102
RTVSPost2010Prop54
  1
strokes_ogs.tif
102
RTVSPost2010PropOp54
 70
     1
102
RTVSPost2010Prop55
280
     0
102
RTVSPost2010PropOp55
 70
     1
102
RTVSPost2010Prop56
140
1.0
102
RTVSPost2010PropOp56
 70
     1
102
RTVSPost2010Prop57
140
1.0
102
RTVSPost2010PropOp57
 70
     1
102
RTVSPropertyOp0
 70
     1
102
RTVSPropertyOp1
 70
     1
102
RTVSPropertyOp2
 70
     1
102
RTVSPropertyOp3
 70
     1
102
RTVSPropertyOp4
 70
     1
102
RTVSPropertyOp5
 70
     1
102
RTVSPropertyOp6
 70
     1
102
RTVSPropertyOp7
 70
     1
102
RTVSPropertyOp8
 70
     1
102
RTVSPropertyOp9
 70
     1
102
RTVSPropertyOp10
 70
     1
102
RTVSPropertyOp11
 70
     1
102
RTVSPropertyOp12
 70
     1
102
RTVSPropertyOp13
 70
     1
102
RTVSPropertyOp14
 70
     1
102
RTVSPropertyOp15
 70
     1
102
RTVSPropertyOp16
 70
     1
102
RTVSPropertyOp17
 70
     1
102
RTVSPropertyOp18
 70
     1
102
RTVSPropertyOp19
 70
     1
102
RTVSPropertyOp20
 70
     1
102
RTVSPropertyOp21
 70
     1
102
RTVSPropertyOp22
 70
     1
102
RTVSPropertyOp23
 70
     1
102
RTVSPropertyOp24
 70
     1
102
RTVSPropertyOp25
 70
     1
102
RTVSPropertyOp26
 70
     1
102
RTVSPropertyOp27
 70
     1
102
RTVSPropertyOp28
 70
     1
102
RTVSPropertyOp29
 70
     1
102
RTVSPropertyOp30
 70
     1
102
RTVSPropertyOp31
 70
     1
102
RTVSPropertyOp32
 70
     1
102
RTVSPropertyOp33
 70
     1
102
RTVSPropertyOp34
 70
     1
102
RTVSPropertyOp35
 70
     1
102
RTVSPropertyOp36
 70
     1
102
RTVSPropertyOp37
 70
     1
102
RTVSPropertyOp38
 70
     1
102
RTVSPropertyOp39
 70
     1
102
RTVSPropertyOp40
 70
     1
102
RTVSPropertyOp41
 70
     1
102
RTVSPropertyOp42
 70
     1
102
RTVSPropertyOp43
 70
     1
102
RTVSPropertyOp44
 70
     1
102
RTVSPropertyOp45
 70
     1
102
RTVSPropertyOp46
 70
     1
102
RTVSPropertyOp47
 70
     1
102
RTVSPropertyOp48
 70
     1
102
RTVSPropertyOp49
 70
     1
102
RTVSPropertyOp50
 70
     1
102
RTVSPropertyOp51
 70
     0
102
RTVSPropertyOp52
 70
     0
102
RTVSPropertyOp53
 70
     1
102
RTVSPropertyOp54
 70
     1
102
RTVSPropertyOp55
 70
     1
102
RTVSPropertyOp56
 70
     1
102
RTVSPropertyOp57
 70
     1
102
RTVSPropertyOp58
 70
     1
102
RTVSPropertyOp59
 70
     1
102
RTVSPropertyOp60
 70
     1
102
RTVSPropertyOp61
 70
     1
102
RTVSPropertyOp62
 70
     1
  0
XRECORD
  5
611
102
{ACAD_REACTORS
330
610
102
}
330
610
100
AcDbXrecord
280
     1
102
RTVSPost2010Prop28
280
     0
102
RTVSPost2010PropOp28
 70
     1
102
RTVSPost2010Prop29
280
     1
102
RTVSPost2010PropOp29
 70
     1
102
RTVSPost2010Prop30
280
     1
102
RTVSPost2010PropOp30
 70
     1
102
RTVSPost2010Prop31
280
     0
102
RTVSPost2010PropOp31
 70
     1
102
RTVSPost2010Prop32
280
     0
102
RTVSPost2010PropOp32
 70
     1
102
RTVSPost2010Prop33
280
     0
102
RTVSPost2010PropOp33
 70
     1
102
RTVSPost2010Prop34
280
     0
102
RTVSPost2010PropOp34
 70
     1
102
RTVSPost2010Prop35
280
     0
102
RTVSPost2010PropOp35
 70
     1
102
RTVSPost2010Prop36
280
     0
102
RTVSPost2010PropOp36
 70
     1
102
RTVSPost2010Prop37
 90
       50
102
RTVSPost2010PropOp37
 70
     1
102
RTVSPost2010Prop38
140
0.0
102
RTVSPost2010PropOp38
 70
     1
102
RTVSPost2010Prop39
140
1.0
102
RTVSPost2010PropOp39
 70
     1
102
RTVSPost2010Prop40
 90
        0
102
RTVSPost2010PropOp40
 70
     1
102
RTVSPost2010Prop41ColorIndex
 90
       18
102
RTVSPost2010Prop41ColorRGB
 90
        0
102
RTVSPost2010PropOp41
 70
     1
102
RTVSPost2010Prop42
 90
       50
102
RTVSPost2010PropOp42
 70
     1
102
RTVSPost2010Prop43
 90
        3
102
RTVSPost2010PropOp43
 70
     1
102
RTVSPost2010Prop44ColorIndex
 90
        5
102
RTVSPost2010Prop44ColorRGB
 90
      255
102
RTVSPost2010PropOp44
 70
     1
102
RTVSPost2010Prop45
280
     0
102
RTVSPost2010PropOp45
 70
     1
102
RTVSPost2010Prop46
 90
       50
102
RTVSPost2010PropOp46
 70
     1
102
RTVSPost2010Prop47
 90
       50
102
RTVSPost2010PropOp47
 70
     1
102
RTVSPost2010Prop48
 90
       50
102
RTVSPost2010PropOp48
 70
     1
102
RTVSPost2010Prop49
280
     0
102
RTVSPost2010PropOp49
 70
     1
102
RTVSPost2010Prop50
 90
       50
102
RTVSPost2010PropOp50
 70
     1
102
RTVSPost2010Prop51ColorIndex
 90
      256
102
RTVSPost2010Prop51ColorRGB
 90
-16777216
102
RTVSPost2010PropOp51
 70
     0
102
RTVSPost2010Prop52
140
1.0
102
RTVSPost2010PropOp52
 70
     0
102
RTVSPost2010Prop53
 90
        2
102
RTVSPost2010PropOp53
 70
     1
102
RTVSPost2010Prop54
  1
strokes_ogs.tif
102
RTVSPost2010PropOp54
 70
     1
102
RTVSPost2010Prop55
280
     0
102
RTVSPost2010PropOp55
 70
     1
102
RTVSPost2010Prop56
140
1.0
102
RTVSPost2010PropOp56
 70
     1
102
RTVSPost2010Prop57
140
1.0
102
RTVSPost2010PropOp57
 70
     1
102
RTVSPropertyOp0
 70
     1
102
RTVSPropertyOp1
 70
     1
102
RTVSPropertyOp2
 70
     1
102
RTVSPropertyOp3
 70
     1
102
RTVSPropertyOp4
 70
     1
102
RTVSPropertyOp5
 70
     1
102
RTVSPropertyOp6
 70
     1
102
RTVSPropertyOp7
 70
     1
102
RTVSPropertyOp8
 70
     1
102
RTVSPropertyOp9
 70
     1
102
RTVSPropertyOp10
 70
     1
102
RTVSPropertyOp11
 70
     1
102
RTVSPropertyOp12
 70
     1
102
RTVSPropertyOp13
 70
     1
102
RTVSPropertyOp14
 70
     1
102
RTVSPropertyOp15
 70
     1
102
RTVSPropertyOp16
 70
     1
102
RTVSPropertyOp17
 70
     1
102
RTVSPropertyOp18
 70
     1
102
RTVSPropertyOp19
 70
     1
102
RTVSPropertyOp20
 70
     1
102
RTVSPropertyOp21
 70
     1
102
RTVSPropertyOp22
 70
     1
102
RTVSPropertyOp23
 70
     1
102
RTVSPropertyOp24
 70
     1
102
RTVSPropertyOp25
 70
     1
102
RTVSPropertyOp26
 70
     1
102
RTVSPropertyOp27
 70
     1
102
RTVSPropertyOp28
 70
     1
102
RTVSPropertyOp29
 70
     1
102
RTVSPropertyOp30
 70
     1
102
RTVSPropertyOp31
 70
     1
102
RTVSPropertyOp32
 70
     1
102
RTVSPropertyOp33
 70
     1
102
RTVSPropertyOp34
 70
     1
102
RTVSPropertyOp35
 70
     1
102
RTVSPropertyOp36
 70
     1
102
RTVSPropertyOp37
 70
     1
102
RTVSPropertyOp38
 70
     1
102
RTVSPropertyOp39
 70
     1
102
RTVSPropertyOp40
 70
     1
102
RTVSPropertyOp41
 70
     1
102
RTVSPropertyOp42
 70
     1
102
RTVSPropertyOp43
 70
     1
102
RTVSPropertyOp44
 70
     1
102
RTVSPropertyOp45
 70
     1
102
RTVSPropertyOp46
 70
     1
102
RTVSPropertyOp47
 70
     1
102
RTVSPropertyOp48
 70
     1
102
RTVSPropertyOp49
 70
     1
102
RTVSPropertyOp50
 70
     1
102
RTVSPropertyOp51
 70
     0
102
RTVSPropertyOp52
 70
     0
102
RTVSPropertyOp53
 70
     1
102
RTVSPropertyOp54
 70
     1
102
RTVSPropertyOp55
 70
     1
102
RTVSPropertyOp56
 70
     1
102
RTVSPropertyOp57
 70
     1
102
RTVSPropertyOp58
 70
     1
102
RTVSPropertyOp59
 70
     1
102
RTVSPropertyOp60
 70
     1
102
RTVSPropertyOp61
 70
     1
102
RTVSPropertyOp62
 70
     1
  0
XRECORD
  5
613
102
{ACAD_REACTORS
330
612
102
}
330
612
100
AcDbXrecord
280
     1
102
RTVSPost2010Prop28
280
     0
102
RTVSPost2010PropOp28
 70
     1
102
RTVSPost2010Prop29
280
     1
102
RTVSPost2010PropOp29
 70
     1
102
RTVSPost2010Prop30
280
     1
102
RTVSPost2010PropOp30
 70
     1
102
RTVSPost2010Prop31
280
     0
102
RTVSPost2010PropOp31
 70
     1
102
RTVSPost2010Prop32
280
     0
102
RTVSPost2010PropOp32
 70
     1
102
RTVSPost2010Prop33
280
     0
102
RTVSPost2010PropOp33
 70
     1
102
RTVSPost2010Prop34
280
     0
102
RTVSPost2010PropOp34
 70
     1
102
RTVSPost2010Prop35
280
     0
102
RTVSPost2010PropOp35
 70
     1
102
RTVSPost2010Prop36
280
     0
102
RTVSPost2010PropOp36
 70
     1
102
RTVSPost2010Prop37
 90
       50
102
RTVSPost2010PropOp37
 70
     1
102
RTVSPost2010Prop38
140
0.0
102
RTVSPost2010PropOp38
 70
     1
102
RTVSPost2010Prop39
140
1.0
102
RTVSPost2010PropOp39
 70
     1
102
RTVSPost2010Prop40
 90
        0
102
RTVSPost2010PropOp40
 70
     1
102
RTVSPost2010Prop41ColorIndex
 90
       18
102
RTVSPost2010Prop41ColorRGB
 90
        0
102
RTVSPost2010PropOp41
 70
     1
102
RTVSPost2010Prop42
 90
       50
102
RTVSPost2010PropOp42
 70
     1
102
RTVSPost2010Prop43
 90
        3
102
RTVSPost2010PropOp43
 70
     1
102
RTVSPost2010Prop44ColorIndex
 90
        5
102
RTVSPost2010Prop44ColorRGB
 90
      255
102
RTVSPost2010PropOp44
 70
     1
102
RTVSPost2010Prop45
280
     0
102
RTVSPost2010PropOp45
 70
     1
102
RTVSPost2010Prop46
 90
       50
102
RTVSPost2010PropOp46
 70
     1
102
RTVSPost2010Prop47
 90
       50
102
RTVSPost2010PropOp47
 70
     1
102
RTVSPost2010Prop48
 90
       50
102
RTVSPost2010PropOp48
 70
     1
102
RTVSPost2010Prop49
280
     0
102
RTVSPost2010PropOp49
 70
     1
102
RTVSPost2010Prop50
 90
       50
102
RTVSPost2010PropOp50
 70
     1
102
RTVSPost2010Prop51ColorIndex
 90
      256
102
RTVSPost2010Prop51ColorRGB
 90
-16777216
102
RTVSPost2010PropOp51
 70
     0
102
RTVSPost2010Prop52
140
1.0
102
RTVSPost2010PropOp52
 70
     0
102
RTVSPost2010Prop53
 90
        2
102
RTVSPost2010PropOp53
 70
     1
102
RTVSPost2010Prop54
  1
strokes_ogs.tif
102
RTVSPost2010PropOp54
 70
     1
102
RTVSPost2010Prop55
280
     0
102
RTVSPost2010PropOp55
 70
     1
102
RTVSPost2010Prop56
140
1.0
102
RTVSPost2010PropOp56
 70
     1
102
RTVSPost2010Prop57
140
1.0
102
RTVSPost2010PropOp57
 70
     1
102
RTVSPropertyOp0
 70
     1
102
RTVSPropertyOp1
 70
     1
102
RTVSPropertyOp2
 70
     1
102
RTVSPropertyOp3
 70
     1
102
RTVSPropertyOp4
 70
     1
102
RTVSPropertyOp5
 70
     1
102
RTVSPropertyOp6
 70
     1
102
RTVSPropertyOp7
 70
     1
102
RTVSPropertyOp8
 70
     1
102
RTVSPropertyOp9
 70
     1
102
RTVSPropertyOp10
 70
     1
102
RTVSPropertyOp11
 70
     1
102
RTVSPropertyOp12
 70
     1
102
RTVSPropertyOp13
 70
     1
102
RTVSPropertyOp14
 70
     1
102
RTVSPropertyOp15
 70
     1
102
RTVSPropertyOp16
 70
     1
102
RTVSPropertyOp17
 70
     1
102
RTVSPropertyOp18
 70
     1
102
RTVSPropertyOp19
 70
     1
102
RTVSPropertyOp20
 70
     1
102
RTVSPropertyOp21
 70
     1
102
RTVSPropertyOp22
 70
     1
102
RTVSPropertyOp23
 70
     1
102
RTVSPropertyOp24
 70
     1
102
RTVSPropertyOp25
 70
     1
102
RTVSPropertyOp26
 70
     1
102
RTVSPropertyOp27
 70
     1
102
RTVSPropertyOp28
 70
     1
102
RTVSPropertyOp29
 70
     1
102
RTVSPropertyOp30
 70
     1
102
RTVSPropertyOp31
 70
     1
102
RTVSPropertyOp32
 70
     1
102
RTVSPropertyOp33
 70
     1
102
RTVSPropertyOp34
 70
     1
102
RTVSPropertyOp35
 70
     1
102
RTVSPropertyOp36
 70
     1
102
RTVSPropertyOp37
 70
     1
102
RTVSPropertyOp38
 70
     1
102
RTVSPropertyOp39
 70
     1
102
RTVSPropertyOp40
 70
     1
102
RTVSPropertyOp41
 70
     1
102
RTVSPropertyOp42
 70
     1
102
RTVSPropertyOp43
 70
     1
102
RTVSPropertyOp44
 70
     1
102
RTVSPropertyOp45
 70
     1
102
RTVSPropertyOp46
 70
     1
102
RTVSPropertyOp47
 70
     1
102
RTVSPropertyOp48
 70
     1
102
RTVSPropertyOp49
 70
     1
102
RTVSPropertyOp50
 70
     1
102
RTVSPropertyOp51
 70
     0
102
RTVSPropertyOp52
 70
     0
102
RTVSPropertyOp53
 70
     1
102
RTVSPropertyOp54
 70
     1
102
RTVSPropertyOp55
 70
     1
102
RTVSPropertyOp56
 70
     1
102
RTVSPropertyOp57
 70
     1
102
RTVSPropertyOp58
 70
     1
102
RTVSPropertyOp59
 70
     1
102
RTVSPropertyOp60
 70
     1
102
RTVSPropertyOp61
 70
     1
102
RTVSPropertyOp62
 70
     1
  0
XRECORD
  5
619
102
{ACAD_REACTORS
330
618
102
}
330
618
100
AcDbXrecord
280
     1
102
RTVSPost2010Prop28
280
     0
102
RTVSPost2010PropOp28
 70
     1
102
RTVSPost2010Prop29
280
     1
102
RTVSPost2010PropOp29
 70
     1
102
RTVSPost2010Prop30
280
     1
102
RTVSPost2010PropOp30
 70
     1
102
RTVSPost2010Prop31
280
     0
102
RTVSPost2010PropOp31
 70
     1
102
RTVSPost2010Prop32
280
     0
102
RTVSPost2010PropOp32
 70
     1
102
RTVSPost2010Prop33
280
     0
102
RTVSPost2010PropOp33
 70
     1
102
RTVSPost2010Prop34
280
     0
102
RTVSPost2010PropOp34
 70
     1
102
RTVSPost2010Prop35
280
     0
102
RTVSPost2010PropOp35
 70
     1
102
RTVSPost2010Prop36
280
     0
102
RTVSPost2010PropOp36
 70
     1
102
RTVSPost2010Prop37
 90
       50
102
RTVSPost2010PropOp37
 70
     1
102
RTVSPost2010Prop38
140
0.0
102
RTVSPost2010PropOp38
 70
     1
102
RTVSPost2010Prop39
140
1.0
102
RTVSPost2010PropOp39
 70
     1
102
RTVSPost2010Prop40
 90
        0
102
RTVSPost2010PropOp40
 70
     1
102
RTVSPost2010Prop41ColorIndex
 90
       18
102
RTVSPost2010Prop41ColorRGB
 90
        0
102
RTVSPost2010PropOp41
 70
     1
102
RTVSPost2010Prop42
 90
       50
102
RTVSPost2010PropOp42
 70
     1
102
RTVSPost2010Prop43
 90
        3
102
RTVSPost2010PropOp43
 70
     1
102
RTVSPost2010Prop44ColorIndex
 90
        5
102
RTVSPost2010Prop44ColorRGB
 90
      255
102
RTVSPost2010PropOp44
 70
     1
102
RTVSPost2010Prop45
280
     0
102
RTVSPost2010PropOp45
 70
     1
102
RTVSPost2010Prop46
 90
       50
102
RTVSPost2010PropOp46
 70
     1
102
RTVSPost2010Prop47
 90
       50
102
RTVSPost2010PropOp47
 70
     1
102
RTVSPost2010Prop48
 90
       50
102
RTVSPost2010PropOp48
 70
     1
102
RTVSPost2010Prop49
280
     0
102
RTVSPost2010PropOp49
 70
     1
102
RTVSPost2010Prop50
 90
       50
102
RTVSPost2010PropOp50
 70
     1
102
RTVSPost2010Prop51ColorIndex
 90
      256
102
RTVSPost2010Prop51ColorRGB
 90
-16777216
102
RTVSPost2010PropOp51
 70
     0
102
RTVSPost2010Prop52
140
1.0
102
RTVSPost2010PropOp52
 70
     0
102
RTVSPost2010Prop53
 90
        2
102
RTVSPost2010PropOp53
 70
     1
102
RTVSPost2010Prop54
  1
strokes_ogs.tif
102
RTVSPost2010PropOp54
 70
     1
102
RTVSPost2010Prop55
280
     0
102
RTVSPost2010PropOp55
 70
     1
102
RTVSPost2010Prop56
140
1.0
102
RTVSPost2010PropOp56
 70
     1
102
RTVSPost2010Prop57
140
1.0
102
RTVSPost2010PropOp57
 70
     1
102
RTVSPropertyOp0
 70
     1
102
RTVSPropertyOp1
 70
     1
102
RTVSPropertyOp2
 70
     1
102
RTVSPropertyOp3
 70
     1
102
RTVSPropertyOp4
 70
     1
102
RTVSPropertyOp5
 70
     1
102
RTVSPropertyOp6
 70
     1
102
RTVSPropertyOp7
 70
     1
102
RTVSPropertyOp8
 70
     1
102
RTVSPropertyOp9
 70
     1
102
RTVSPropertyOp10
 70
     1
102
RTVSPropertyOp11
 70
     1
102
RTVSPropertyOp12
 70
     1
102
RTVSPropertyOp13
 70
     1
102
RTVSPropertyOp14
 70
     1
102
RTVSPropertyOp15
 70
     1
102
RTVSPropertyOp16
 70
     1
102
RTVSPropertyOp17
 70
     1
102
RTVSPropertyOp18
 70
     1
102
RTVSPropertyOp19
 70
     1
102
RTVSPropertyOp20
 70
     1
102
RTVSPropertyOp21
 70
     1
102
RTVSPropertyOp22
 70
     1
102
RTVSPropertyOp23
 70
     1
102
RTVSPropertyOp24
 70
     1
102
RTVSPropertyOp25
 70
     1
102
RTVSPropertyOp26
 70
     1
102
RTVSPropertyOp27
 70
     1
102
RTVSPropertyOp28
 70
     1
102
RTVSPropertyOp29
 70
     1
102
RTVSPropertyOp30
 70
     1
102
RTVSPropertyOp31
 70
     1
102
RTVSPropertyOp32
 70
     1
102
RTVSPropertyOp33
 70
     1
102
RTVSPropertyOp34
 70
     1
102
RTVSPropertyOp35
 70
     1
102
RTVSPropertyOp36
 70
     1
102
RTVSPropertyOp37
 70
     1
102
RTVSPropertyOp38
 70
     1
102
RTVSPropertyOp39
 70
     1
102
RTVSPropertyOp40
 70
     1
102
RTVSPropertyOp41
 70
     1
102
RTVSPropertyOp42
 70
     1
102
RTVSPropertyOp43
 70
     1
102
RTVSPropertyOp44
 70
     1
102
RTVSPropertyOp45
 70
     1
102
RTVSPropertyOp46
 70
     1
102
RTVSPropertyOp47
 70
     1
102
RTVSPropertyOp48
 70
     1
102
RTVSPropertyOp49
 70
     1
102
RTVSPropertyOp50
 70
     1
102
RTVSPropertyOp51
 70
     0
102
RTVSPropertyOp52
 70
     0
102
RTVSPropertyOp53
 70
     1
102
RTVSPropertyOp54
 70
     1
102
RTVSPropertyOp55
 70
     1
102
RTVSPropertyOp56
 70
     1
102
RTVSPropertyOp57
 70
     1
102
RTVSPropertyOp58
 70
     1
102
RTVSPropertyOp59
 70
     1
102
RTVSPropertyOp60
 70
     1
102
RTVSPropertyOp61
 70
     1
102
RTVSPropertyOp62
 70
     1
  0
XRECORD
  5
62D
102
{ACAD_REACTORS
330
62C
102
}
330
62C
100
AcDbXrecord
280
     1
102
RTVSPost2010Prop28
280
     0
102
RTVSPost2010PropOp28
 70
     0
102
RTVSPost2010Prop29
280
     1
102
RTVSPost2010PropOp29
 70
     0
102
RTVSPost2010Prop30
280
     1
102
RTVSPost2010PropOp30
 70
     0
102
RTVSPost2010Prop31
280
     0
102
RTVSPost2010PropOp31
 70
     0
102
RTVSPost2010Prop32
280
     0
102
RTVSPost2010PropOp32
 70
     0
102
RTVSPost2010Prop33
280
     0
102
RTVSPost2010PropOp33
 70
     0
102
RTVSPost2010Prop34
280
     0
102
RTVSPost2010PropOp34
 70
     0
102
RTVSPost2010Prop35
280
     0
102
RTVSPost2010PropOp35
 70
     0
102
RTVSPost2010Prop36
280
     0
102
RTVSPost2010PropOp36
 70
     0
102
RTVSPost2010Prop37
 90
       50
102
RTVSPost2010PropOp37
 70
     0
102
RTVSPost2010Prop38
140
0.0
102
RTVSPost2010PropOp38
 70
     0
102
RTVSPost2010Prop39
140
1.0
102
RTVSPost2010PropOp39
 70
     0
102
RTVSPost2010Prop40
 90
        0
102
RTVSPost2010PropOp40
 70
     0
102
RTVSPost2010Prop41ColorIndex
 90
       18
102
RTVSPost2010Prop41ColorRGB
 90
        0
102
RTVSPost2010PropOp41
 70
     0
102
RTVSPost2010Prop42
 90
       50
102
RTVSPost2010PropOp42
 70
     0
102
RTVSPost2010Prop43
 90
        3
102
RTVSPost2010PropOp43
 70
     0
102
RTVSPost2010Prop44ColorIndex
 90
        5
102
RTVSPost2010Prop44ColorRGB
 90
      255
102
RTVSPost2010PropOp44
 70
     0
102
RTVSPost2010Prop45
280
     0
102
RTVSPost2010PropOp45
 70
     0
102
RTVSPost2010Prop46
 90
       50
102
RTVSPost2010PropOp46
 70
     0
102
RTVSPost2010Prop47
 90
       50
102
RTVSPost2010PropOp47
 70
     0
102
RTVSPost2010Prop48
 90
       50
102
RTVSPost2010PropOp48
 70
     0
102
RTVSPost2010Prop49
280
     0
102
RTVSPost2010PropOp49
 70
     0
102
RTVSPost2010Prop50
 90
       50
102
RTVSPost2010PropOp50
 70
     0
102
RTVSPost2010Prop51ColorIndex
 90
      256
102
RTVSPost2010Prop51ColorRGB
 90
-16777216
102
RTVSPost2010PropOp51
 70
     0
102
RTVSPost2010Prop52
140
1.0
102
RTVSPost2010PropOp52
 70
     0
102
RTVSPost2010Prop53
 90
        2
102
RTVSPost2010PropOp53
 70
     0
102
RTVSPost2010Prop54
  1
strokes_ogs.tif
102
RTVSPost2010PropOp54
 70
     0
102
RTVSPost2010Prop55
280
     0
102
RTVSPost2010PropOp55
 70
     0
102
RTVSPost2010Prop56
140
1.0
102
RTVSPost2010PropOp56
 70
     0
102
RTVSPost2010Prop57
140
1.0
102
RTVSPost2010PropOp57
 70
     0
102
RTVSPropertyOp0
 70
     0
102
RTVSPropertyOp1
 70
     0
102
RTVSPropertyOp2
 70
     0
102
RTVSPropertyOp3
 70
     0
102
RTVSPropertyOp4
 70
     0
102
RTVSPropertyOp5
 70
     0
102
RTVSPropertyOp6
 70
     0
102
RTVSPropertyOp7
 70
     0
102
RTVSPropertyOp8
 70
     0
102
RTVSPropertyOp9
 70
     0
102
RTVSPropertyOp10
 70
     0
102
RTVSPropertyOp11
 70
     0
102
RTVSPropertyOp12
 70
     0
102
RTVSPropertyOp13
 70
     0
102
RTVSPropertyOp14
 70
     2
102
RTVSPropertyOp15
 70
     0
102
RTVSPropertyOp16
 70
     0
102
RTVSPropertyOp17
 70
     0
102
RTVSPropertyOp18
 70
     0
102
RTVSPropertyOp19
 70
     0
102
RTVSPropertyOp20
 70
     0
102
RTVSPropertyOp21
 70
     0
102
RTVSPropertyOp22
 70
     0
102
RTVSPropertyOp23
 70
     0
102
RTVSPropertyOp24
 70
     0
102
RTVSPropertyOp25
 70
     0
102
RTVSPropertyOp26
 70
     0
102
RTVSPropertyOp27
 70
     0
102
RTVSPropertyOp28
 70
     0
102
RTVSPropertyOp29
 70
     0
102
RTVSPropertyOp30
 70
     0
102
RTVSPropertyOp31
 70
     0
102
RTVSPropertyOp32
 70
     0
102
RTVSPropertyOp33
 70
     0
102
RTVSPropertyOp34
 70
     0
102
RTVSPropertyOp35
 70
     0
102
RTVSPropertyOp36
 70
     0
102
RTVSPropertyOp37
 70
     0
102
RTVSPropertyOp38
 70
     0
102
RTVSPropertyOp39
 70
     0
102
RTVSPropertyOp40
 70
     0
102
RTVSPropertyOp41
 70
     0
102
RTVSPropertyOp42
 70
     0
102
RTVSPropertyOp43
 70
     0
102
RTVSPropertyOp44
 70
     0
102
RTVSPropertyOp45
 70
     0
102
RTVSPropertyOp46
 70
     0
102
RTVSPropertyOp47
 70
     0
102
RTVSPropertyOp48
 70
     0
102
RTVSPropertyOp49
 70
     0
102
RTVSPropertyOp50
 70
     0
102
RTVSPropertyOp51
 70
     0
102
RTVSPropertyOp52
 70
     0
102
RTVSPropertyOp53
 70
     0
102
RTVSPropertyOp54
 70
     0
102
RTVSPropertyOp55
 70
     0
102
RTVSPropertyOp56
 70
     0
102
RTVSPropertyOp57
 70
     0
102
RTVSPropertyOp58
 70
     1
102
RTVSPropertyOp59
 70
     1
102
RTVSPropertyOp60
 70
     1
102
RTVSPropertyOp61
 70
     1
102
RTVSPropertyOp62
 70
     1
  0
XRECORD
  5
627
102
{ACAD_REACTORS
330
626
102
}
330
626
100
AcDbXrecord
280
     1
102
RTVSPost2010Prop28
280
     0
102
RTVSPost2010PropOp28
 70
     1
102
RTVSPost2010Prop29
280
     1
102
RTVSPost2010PropOp29
 70
     1
102
RTVSPost2010Prop30
280
     1
102
RTVSPost2010PropOp30
 70
     1
102
RTVSPost2010Prop31
280
     0
102
RTVSPost2010PropOp31
 70
     1
102
RTVSPost2010Prop32
280
     0
102
RTVSPost2010PropOp32
 70
     1
102
RTVSPost2010Prop33
280
     0
102
RTVSPost2010PropOp33
 70
     1
102
RTVSPost2010Prop34
280
     0
102
RTVSPost2010PropOp34
 70
     1
102
RTVSPost2010Prop35
280
     0
102
RTVSPost2010PropOp35
 70
     1
102
RTVSPost2010Prop36
280
     0
102
RTVSPost2010PropOp36
 70
     1
102
RTVSPost2010Prop37
 90
       50
102
RTVSPost2010PropOp37
 70
     1
102
RTVSPost2010Prop38
140
0.0
102
RTVSPost2010PropOp38
 70
     1
102
RTVSPost2010Prop39
140
1.0
102
RTVSPost2010PropOp39
 70
     1
102
RTVSPost2010Prop40
 90
        0
102
RTVSPost2010PropOp40
 70
     1
102
RTVSPost2010Prop41ColorIndex
 90
       18
102
RTVSPost2010Prop41ColorRGB
 90
        0
102
RTVSPost2010PropOp41
 70
     1
102
RTVSPost2010Prop42
 90
       50
102
RTVSPost2010PropOp42
 70
     1
102
RTVSPost2010Prop43
 90
        3
102
RTVSPost2010PropOp43
 70
     1
102
RTVSPost2010Prop44ColorIndex
 90
        5
102
RTVSPost2010Prop44ColorRGB
 90
      255
102
RTVSPost2010PropOp44
 70
     1
102
RTVSPost2010Prop45
280
     0
102
RTVSPost2010PropOp45
 70
     1
102
RTVSPost2010Prop46
 90
       50
102
RTVSPost2010PropOp46
 70
     1
102
RTVSPost2010Prop47
 90
       50
102
RTVSPost2010PropOp47
 70
     1
102
RTVSPost2010Prop48
 90
       50
102
RTVSPost2010PropOp48
 70
     1
102
RTVSPost2010Prop49
280
     0
102
RTVSPost2010PropOp49
 70
     1
102
RTVSPost2010Prop50
 90
       50
102
RTVSPost2010PropOp50
 70
     1
102
RTVSPost2010Prop51ColorIndex
 90
      256
102
RTVSPost2010Prop51ColorRGB
 90
-16777216
102
RTVSPost2010PropOp51
 70
     0
102
RTVSPost2010Prop52
140
1.0
102
RTVSPost2010PropOp52
 70
     0
102
RTVSPost2010Prop53
 90
        2
102
RTVSPost2010PropOp53
 70
     1
102
RTVSPost2010Prop54
  1
strokes_ogs.tif
102
RTVSPost2010PropOp54
 70
     1
102
RTVSPost2010Prop55
280
     0
102
RTVSPost2010PropOp55
 70
     1
102
RTVSPost2010Prop56
140
1.0
102
RTVSPost2010PropOp56
 70
     1
102
RTVSPost2010Prop57
140
1.0
102
RTVSPost2010PropOp57
 70
     1
102
RTVSPropertyOp0
 70
     1
102
RTVSPropertyOp1
 70
     1
102
RTVSPropertyOp2
 70
     1
102
RTVSPropertyOp3
 70
     1
102
RTVSPropertyOp4
 70
     1
102
RTVSPropertyOp5
 70
     1
102
RTVSPropertyOp6
 70
     1
102
RTVSPropertyOp7
 70
     1
102
RTVSPropertyOp8
 70
     1
102
RTVSPropertyOp9
 70
     1
102
RTVSPropertyOp10
 70
     1
102
RTVSPropertyOp11
 70
     1
102
RTVSPropertyOp12
 70
     1
102
RTVSPropertyOp13
 70
     1
102
RTVSPropertyOp14
 70
     1
102
RTVSPropertyOp15
 70
     1
102
RTVSPropertyOp16
 70
     1
102
RTVSPropertyOp17
 70
     1
102
RTVSPropertyOp18
 70
     1
102
RTVSPropertyOp19
 70
     1
102
RTVSPropertyOp20
 70
     1
102
RTVSPropertyOp21
 70
     1
102
RTVSPropertyOp22
 70
     1
102
RTVSPropertyOp23
 70
     1
102
RTVSPropertyOp24
 70
     1
102
RTVSPropertyOp25
 70
     1
102
RTVSPropertyOp26
 70
     1
102
RTVSPropertyOp27
 70
     1
102
RTVSPropertyOp28
 70
     1
102
RTVSPropertyOp29
 70
     1
102
RTVSPropertyOp30
 70
     1
102
RTVSPropertyOp31
 70
     1
102
RTVSPropertyOp32
 70
     1
102
RTVSPropertyOp33
 70
     1
102
RTVSPropertyOp34
 70
     1
102
RTVSPropertyOp35
 70
     1
102
RTVSPropertyOp36
 70
     1
102
RTVSPropertyOp37
 70
     1
102
RTVSPropertyOp38
 70
     1
102
RTVSPropertyOp39
 70
     1
102
RTVSPropertyOp40
 70
     1
102
RTVSPropertyOp41
 70
     1
102
RTVSPropertyOp42
 70
     1
102
RTVSPropertyOp43
 70
     1
102
RTVSPropertyOp44
 70
     1
102
RTVSPropertyOp45
 70
     1
102
RTVSPropertyOp46
 70
     1
102
RTVSPropertyOp47
 70
     1
102
RTVSPropertyOp48
 70
     1
102
RTVSPropertyOp49
 70
     1
102
RTVSPropertyOp50
 70
     1
102
RTVSPropertyOp51
 70
     0
102
RTVSPropertyOp52
 70
     0
102
RTVSPropertyOp53
 70
     1
102
RTVSPropertyOp54
 70
     1
102
RTVSPropertyOp55
 70
     1
102
RTVSPropertyOp56
 70
     1
102
RTVSPropertyOp57
 70
     1
102
RTVSPropertyOp58
 70
     1
102
RTVSPropertyOp59
 70
     1
102
RTVSPropertyOp60
 70
     1
102
RTVSPropertyOp61
 70
     1
102
RTVSPropertyOp62
 70
     1
  0
XRECORD
  5
62F
102
{ACAD_REACTORS
330
62E
102
}
330
62E
100
AcDbXrecord
280
     1
102
RTVSPost2010Prop28
280
     0
102
RTVSPost2010PropOp28
 70
     0
102
RTVSPost2010Prop29
280
     1
102
RTVSPost2010PropOp29
 70
     0
102
RTVSPost2010Prop30
280
     1
102
RTVSPost2010PropOp30
 70
     0
102
RTVSPost2010Prop31
280
     0
102
RTVSPost2010PropOp31
 70
     0
102
RTVSPost2010Prop32
280
     0
102
RTVSPost2010PropOp32
 70
     0
102
RTVSPost2010Prop33
280
     0
102
RTVSPost2010PropOp33
 70
     0
102
RTVSPost2010Prop34
280
     0
102
RTVSPost2010PropOp34
 70
     0
102
RTVSPost2010Prop35
280
     0
102
RTVSPost2010PropOp35
 70
     0
102
RTVSPost2010Prop36
280
     0
102
RTVSPost2010PropOp36
 70
     0
102
RTVSPost2010Prop37
 90
       50
102
RTVSPost2010PropOp37
 70
     0
102
RTVSPost2010Prop38
140
0.0
102
RTVSPost2010PropOp38
 70
     0
102
RTVSPost2010Prop39
140
1.0
102
RTVSPost2010PropOp39
 70
     0
102
RTVSPost2010Prop40
 90
        0
102
RTVSPost2010PropOp40
 70
     0
102
RTVSPost2010Prop41ColorIndex
 90
       18
102
RTVSPost2010Prop41ColorRGB
 90
        0
102
RTVSPost2010PropOp41
 70
     0
102
RTVSPost2010Prop42
 90
       50
102
RTVSPost2010PropOp42
 70
     0
102
RTVSPost2010Prop43
 90
        3
102
RTVSPost2010PropOp43
 70
     0
102
RTVSPost2010Prop44ColorIndex
 90
        5
102
RTVSPost2010Prop44ColorRGB
 90
      255
102
RTVSPost2010PropOp44
 70
     0
102
RTVSPost2010Prop45
280
     0
102
RTVSPost2010PropOp45
 70
     0
102
RTVSPost2010Prop46
 90
       50
102
RTVSPost2010PropOp46
 70
     0
102
RTVSPost2010Prop47
 90
       50
102
RTVSPost2010PropOp47
 70
     0
102
RTVSPost2010Prop48
 90
       50
102
RTVSPost2010PropOp48
 70
     0
102
RTVSPost2010Prop49
280
     0
102
RTVSPost2010PropOp49
 70
     0
102
RTVSPost2010Prop50
 90
       50
102
RTVSPost2010PropOp50
 70
     0
102
RTVSPost2010Prop51ColorIndex
 90
      256
102
RTVSPost2010Prop51ColorRGB
 90
-16777216
102
RTVSPost2010PropOp51
 70
     0
102
RTVSPost2010Prop52
140
1.0
102
RTVSPost2010PropOp52
 70
     0
102
RTVSPost2010Prop53
 90
        2
102
RTVSPost2010PropOp53
 70
     0
102
RTVSPost2010Prop54
  1
strokes_ogs.tif
102
RTVSPost2010PropOp54
 70
     0
102
RTVSPost2010Prop55
280
     0
102
RTVSPost2010PropOp55
 70
     0
102
RTVSPost2010Prop56
140
1.0
102
RTVSPost2010PropOp56
 70
     0
102
RTVSPost2010Prop57
140
1.0
102
RTVSPost2010PropOp57
 70
     0
102
RTVSPropertyOp0
 70
     0
102
RTVSPropertyOp1
 70
     0
102
RTVSPropertyOp2
 70
     0
102
RTVSPropertyOp3
 70
     0
102
RTVSPropertyOp4
 70
     0
102
RTVSPropertyOp5
 70
     0
102
RTVSPropertyOp6
 70
     0
102
RTVSPropertyOp7
 70
     0
102
RTVSPropertyOp8
 70
     0
102
RTVSPropertyOp9
 70
     0
102
RTVSPropertyOp10
 70
     0
102
RTVSPropertyOp11
 70
     0
102
RTVSPropertyOp12
 70
     0
102
RTVSPropertyOp13
 70
     0
102
RTVSPropertyOp14
 70
     2
102
RTVSPropertyOp15
 70
     0
102
RTVSPropertyOp16
 70
     0
102
RTVSPropertyOp17
 70
     0
102
RTVSPropertyOp18
 70
     0
102
RTVSPropertyOp19
 70
     0
102
RTVSPropertyOp20
 70
     0
102
RTVSPropertyOp21
 70
     0
102
RTVSPropertyOp22
 70
     0
102
RTVSPropertyOp23
 70
     0
102
RTVSPropertyOp24
 70
     0
102
RTVSPropertyOp25
 70
     0
102
RTVSPropertyOp26
 70
     0
102
RTVSPropertyOp27
 70
     0
102
RTVSPropertyOp28
 70
     0
102
RTVSPropertyOp29
 70
     0
102
RTVSPropertyOp30
 70
     0
102
RTVSPropertyOp31
 70
     0
102
RTVSPropertyOp32
 70
     0
102
RTVSPropertyOp33
 70
     0
102
RTVSPropertyOp34
 70
     0
102
RTVSPropertyOp35
 70
     0
102
RTVSPropertyOp36
 70
     0
102
RTVSPropertyOp37
 70
     0
102
RTVSPropertyOp38
 70
     0
102
RTVSPropertyOp39
 70
     0
102
RTVSPropertyOp40
 70
     0
102
RTVSPropertyOp41
 70
     0
102
RTVSPropertyOp42
 70
     0
102
RTVSPropertyOp43
 70
     0
102
RTVSPropertyOp44
 70
     0
102
RTVSPropertyOp45
 70
     0
102
RTVSPropertyOp46
 70
     0
102
RTVSPropertyOp47
 70
     0
102
RTVSPropertyOp48
 70
     0
102
RTVSPropertyOp49
 70
     0
102
RTVSPropertyOp50
 70
     0
102
RTVSPropertyOp51
 70
     0
102
RTVSPropertyOp52
 70
     0
102
RTVSPropertyOp53
 70
     0
102
RTVSPropertyOp54
 70
     0
102
RTVSPropertyOp55
 70
     0
102
RTVSPropertyOp56
 70
     0
102
RTVSPropertyOp57
 70
     0
102
RTVSPropertyOp58
 70
     1
102
RTVSPropertyOp59
 70
     1
102
RTVSPropertyOp60
 70
     1
102
RTVSPropertyOp61
 70
     1
102
RTVSPropertyOp62
 70
     1
  0
XRECORD
  5
61D
102
{ACAD_REACTORS
330
61C
102
}
330
61C
100
AcDbXrecord
280
     1
102
RTVSPost2010Prop28
280
     0
102
RTVSPost2010PropOp28
 70
     1
102
RTVSPost2010Prop29
280
     1
102
RTVSPost2010PropOp29
 70
     1
102
RTVSPost2010Prop30
280
     1
102
RTVSPost2010PropOp30
 70
     1
102
RTVSPost2010Prop31
280
     0
102
RTVSPost2010PropOp31
 70
     1
102
RTVSPost2010Prop32
280
     0
102
RTVSPost2010PropOp32
 70
     1
102
RTVSPost2010Prop33
280
     0
102
RTVSPost2010PropOp33
 70
     1
102
RTVSPost2010Prop34
280
     0
102
RTVSPost2010PropOp34
 70
     1
102
RTVSPost2010Prop35
280
     0
102
RTVSPost2010PropOp35
 70
     1
102
RTVSPost2010Prop36
280
     0
102
RTVSPost2010PropOp36
 70
     1
102
RTVSPost2010Prop37
 90
       50
102
RTVSPost2010PropOp37
 70
     1
102
RTVSPost2010Prop38
140
0.0
102
RTVSPost2010PropOp38
 70
     1
102
RTVSPost2010Prop39
140
1.0
102
RTVSPost2010PropOp39
 70
     1
102
RTVSPost2010Prop40
 90
        0
102
RTVSPost2010PropOp40
 70
     1
102
RTVSPost2010Prop41ColorIndex
 90
       18
102
RTVSPost2010Prop41ColorRGB
 90
        0
102
RTVSPost2010PropOp41
 70
     1
102
RTVSPost2010Prop42
 90
       50
102
RTVSPost2010PropOp42
 70
     1
102
RTVSPost2010Prop43
 90
        3
102
RTVSPost2010PropOp43
 70
     1
102
RTVSPost2010Prop44ColorIndex
 90
        5
102
RTVSPost2010Prop44ColorRGB
 90
      255
102
RTVSPost2010PropOp44
 70
     1
102
RTVSPost2010Prop45
280
     0
102
RTVSPost2010PropOp45
 70
     1
102
RTVSPost2010Prop46
 90
       50
102
RTVSPost2010PropOp46
 70
     1
102
RTVSPost2010Prop47
 90
       50
102
RTVSPost2010PropOp47
 70
     1
102
RTVSPost2010Prop48
 90
       50
102
RTVSPost2010PropOp48
 70
     1
102
RTVSPost2010Prop49
280
     0
102
RTVSPost2010PropOp49
 70
     1
102
RTVSPost2010Prop50
 90
       50
102
RTVSPost2010PropOp50
 70
     1
102
RTVSPost2010Prop51ColorIndex
 90
      256
102
RTVSPost2010Prop51ColorRGB
 90
-16777216
102
RTVSPost2010PropOp51
 70
     0
102
RTVSPost2010Prop52
140
1.0
102
RTVSPost2010PropOp52
 70
     0
102
RTVSPost2010Prop53
 90
        2
102
RTVSPost2010PropOp53
 70
     1
102
RTVSPost2010Prop54
  1
strokes_ogs.tif
102
RTVSPost2010PropOp54
 70
     1
102
RTVSPost2010Prop55
280
     0
102
RTVSPost2010PropOp55
 70
     1
102
RTVSPost2010Prop56
140
1.0
102
RTVSPost2010PropOp56
 70
     1
102
RTVSPost2010Prop57
140
1.0
102
RTVSPost2010PropOp57
 70
     1
102
RTVSPropertyOp0
 70
     1
102
RTVSPropertyOp1
 70
     1
102
RTVSPropertyOp2
 70
     1
102
RTVSPropertyOp3
 70
     1
102
RTVSPropertyOp4
 70
     1
102
RTVSPropertyOp5
 70
     1
102
RTVSPropertyOp6
 70
     1
102
RTVSPropertyOp7
 70
     1
102
RTVSPropertyOp8
 70
     1
102
RTVSPropertyOp9
 70
     1
102
RTVSPropertyOp10
 70
     1
102
RTVSPropertyOp11
 70
     1
102
RTVSPropertyOp12
 70
     1
102
RTVSPropertyOp13
 70
     1
102
RTVSPropertyOp14
 70
     1
102
RTVSPropertyOp15
 70
     1
102
RTVSPropertyOp16
 70
     1
102
RTVSPropertyOp17
 70
     1
102
RTVSPropertyOp18
 70
     1
102
RTVSPropertyOp19
 70
     1
102
RTVSPropertyOp20
 70
     1
102
RTVSPropertyOp21
 70
     1
102
RTVSPropertyOp22
 70
     1
102
RTVSPropertyOp23
 70
     1
102
RTVSPropertyOp24
 70
     1
102
RTVSPropertyOp25
 70
     1
102
RTVSPropertyOp26
 70
     1
102
RTVSPropertyOp27
 70
     1
102
RTVSPropertyOp28
 70
     1
102
RTVSPropertyOp29
 70
     1
102
RTVSPropertyOp30
 70
     1
102
RTVSPropertyOp31
 70
     1
102
RTVSPropertyOp32
 70
     1
102
RTVSPropertyOp33
 70
     1
102
RTVSPropertyOp34
 70
     1
102
RTVSPropertyOp35
 70
     1
102
RTVSPropertyOp36
 70
     1
102
RTVSPropertyOp37
 70
     1
102
RTVSPropertyOp38
 70
     1
102
RTVSPropertyOp39
 70
     1
102
RTVSPropertyOp40
 70
     1
102
RTVSPropertyOp41
 70
     1
102
RTVSPropertyOp42
 70
     1
102
RTVSPropertyOp43
 70
     1
102
RTVSPropertyOp44
 70
     1
102
RTVSPropertyOp45
 70
     1
102
RTVSPropertyOp46
 70
     1
102
RTVSPropertyOp47
 70
     1
102
RTVSPropertyOp48
 70
     1
102
RTVSPropertyOp49
 70
     1
102
RTVSPropertyOp50
 70
     1
102
RTVSPropertyOp51
 70
     0
102
RTVSPropertyOp52
 70
     0
102
RTVSPropertyOp53
 70
     1
102
RTVSPropertyOp54
 70
     1
102
RTVSPropertyOp55
 70
     1
102
RTVSPropertyOp56
 70
     1
102
RTVSPropertyOp57
 70
     1
102
RTVSPropertyOp58
 70
     1
102
RTVSPropertyOp59
 70
     1
102
RTVSPropertyOp60
 70
     1
102
RTVSPropertyOp61
 70
     1
102
RTVSPropertyOp62
 70
     1
  0
XRECORD
  5
63B
102
{ACAD_REACTORS
330
63A
102
}
330
63A
100
AcDbXrecord
280
     1
102
RTVSPost2010Prop28
280
     0
102
RTVSPost2010PropOp28
 70
     1
102
RTVSPost2010Prop29
280
     1
102
RTVSPost2010PropOp29
 70
     1
102
RTVSPost2010Prop30
280
     1
102
RTVSPost2010PropOp30
 70
     1
102
RTVSPost2010Prop31
280
     0
102
RTVSPost2010PropOp31
 70
     1
102
RTVSPost2010Prop32
280
     0
102
RTVSPost2010PropOp32
 70
     1
102
RTVSPost2010Prop33
280
     0
102
RTVSPost2010PropOp33
 70
     1
102
RTVSPost2010Prop34
280
     0
102
RTVSPost2010PropOp34
 70
     1
102
RTVSPost2010Prop35
280
     0
102
RTVSPost2010PropOp35
 70
     1
102
RTVSPost2010Prop36
280
     0
102
RTVSPost2010PropOp36
 70
     1
102
RTVSPost2010Prop37
 90
       50
102
RTVSPost2010PropOp37
 70
     1
102
RTVSPost2010Prop38
140
0.0
102
RTVSPost2010PropOp38
 70
     1
102
RTVSPost2010Prop39
140
1.0
102
RTVSPost2010PropOp39
 70
     1
102
RTVSPost2010Prop40
 90
        0
102
RTVSPost2010PropOp40
 70
     1
102
RTVSPost2010Prop41ColorIndex
 90
       18
102
RTVSPost2010Prop41ColorRGB
 90
        0
102
RTVSPost2010PropOp41
 70
     1
102
RTVSPost2010Prop42
 90
       50
102
RTVSPost2010PropOp42
 70
     1
102
RTVSPost2010Prop43
 90
        3
102
RTVSPost2010PropOp43
 70
     1
102
RTVSPost2010Prop44ColorIndex
 90
        5
102
RTVSPost2010Prop44ColorRGB
 90
      255
102
RTVSPost2010PropOp44
 70
     1
102
RTVSPost2010Prop45
280
     0
102
RTVSPost2010PropOp45
 70
     1
102
RTVSPost2010Prop46
 90
       50
102
RTVSPost2010PropOp46
 70
     1
102
RTVSPost2010Prop47
 90
       50
102
RTVSPost2010PropOp47
 70
     1
102
RTVSPost2010Prop48
 90
       50
102
RTVSPost2010PropOp48
 70
     1
102
RTVSPost2010Prop49
280
     0
102
RTVSPost2010PropOp49
 70
     1
102
RTVSPost2010Prop50
 90
       50
102
RTVSPost2010PropOp50
 70
     1
102
RTVSPost2010Prop51ColorIndex
 90
      256
102
RTVSPost2010Prop51ColorRGB
 90
-16777216
102
RTVSPost2010PropOp51
 70
     0
102
RTVSPost2010Prop52
140
1.0
102
RTVSPost2010PropOp52
 70
     0
102
RTVSPost2010Prop53
 90
        2
102
RTVSPost2010PropOp53
 70
     1
102
RTVSPost2010Prop54
  1
strokes_ogs.tif
102
RTVSPost2010PropOp54
 70
     1
102
RTVSPost2010Prop55
280
     0
102
RTVSPost2010PropOp55
 70
     1
102
RTVSPost2010Prop56
140
1.0
102
RTVSPost2010PropOp56
 70
     1
102
RTVSPost2010Prop57
140
1.0
102
RTVSPost2010PropOp57
 70
     1
102
RTVSPropertyOp0
 70
     1
102
RTVSPropertyOp1
 70
     1
102
RTVSPropertyOp2
 70
     1
102
RTVSPropertyOp3
 70
     1
102
RTVSPropertyOp4
 70
     1
102
RTVSPropertyOp5
 70
     1
102
RTVSPropertyOp6
 70
     1
102
RTVSPropertyOp7
 70
     1
102
RTVSPropertyOp8
 70
     1
102
RTVSPropertyOp9
 70
     1
102
RTVSPropertyOp10
 70
     1
102
RTVSPropertyOp11
 70
     1
102
RTVSPropertyOp12
 70
     1
102
RTVSPropertyOp13
 70
     1
102
RTVSPropertyOp14
 70
     1
102
RTVSPropertyOp15
 70
     1
102
RTVSPropertyOp16
 70
     1
102
RTVSPropertyOp17
 70
     1
102
RTVSPropertyOp18
 70
     1
102
RTVSPropertyOp19
 70
     1
102
RTVSPropertyOp20
 70
     1
102
RTVSPropertyOp21
 70
     1
102
RTVSPropertyOp22
 70
     1
102
RTVSPropertyOp23
 70
     1
102
RTVSPropertyOp24
 70
     1
102
RTVSPropertyOp25
 70
     1
102
RTVSPropertyOp26
 70
     1
102
RTVSPropertyOp27
 70
     1
102
RTVSPropertyOp28
 70
     1
102
RTVSPropertyOp29
 70
     1
102
RTVSPropertyOp30
 70
     1
102
RTVSPropertyOp31
 70
     1
102
RTVSPropertyOp32
 70
     1
102
RTVSPropertyOp33
 70
     1
102
RTVSPropertyOp34
 70
     1
102
RTVSPropertyOp35
 70
     1
102
RTVSPropertyOp36
 70
     1
102
RTVSPropertyOp37
 70
     1
102
RTVSPropertyOp38
 70
     1
102
RTVSPropertyOp39
 70
     1
102
RTVSPropertyOp40
 70
     1
102
RTVSPropertyOp41
 70
     1
102
RTVSPropertyOp42
 70
     1
102
RTVSPropertyOp43
 70
     1
102
RTVSPropertyOp44
 70
     1
102
RTVSPropertyOp45
 70
     1
102
RTVSPropertyOp46
 70
     1
102
RTVSPropertyOp47
 70
     1
102
RTVSPropertyOp48
 70
     1
102
RTVSPropertyOp49
 70
     1
102
RTVSPropertyOp50
 70
     1
102
RTVSPropertyOp51
 70
     0
102
RTVSPropertyOp52
 70
     0
102
RTVSPropertyOp53
 70
     1
102
RTVSPropertyOp54
 70
     1
102
RTVSPropertyOp55
 70
     1
102
RTVSPropertyOp56
 70
     1
102
RTVSPropertyOp57
 70
     1
102
RTVSPropertyOp58
 70
     1
102
RTVSPropertyOp59
 70
     1
102
RTVSPropertyOp60
 70
     1
102
RTVSPropertyOp61
 70
     1
102
RTVSPropertyOp62
 70
     1
  0
XRECORD
  5
639
102
{ACAD_REACTORS
330
638
102
}
330
638
100
AcDbXrecord
280
     1
102
RTVSPost2010Prop28
280
     0
102
RTVSPost2010PropOp28
 70
     1
102
RTVSPost2010Prop29
280
     1
102
RTVSPost2010PropOp29
 70
     1
102
RTVSPost2010Prop30
280
     1
102
RTVSPost2010PropOp30
 70
     1
102
RTVSPost2010Prop31
280
     0
102
RTVSPost2010PropOp31
 70
     1
102
RTVSPost2010Prop32
280
     0
102
RTVSPost2010PropOp32
 70
     1
102
RTVSPost2010Prop33
280
     0
102
RTVSPost2010PropOp33
 70
     1
102
RTVSPost2010Prop34
280
     0
102
RTVSPost2010PropOp34
 70
     1
102
RTVSPost2010Prop35
280
     0
102
RTVSPost2010PropOp35
 70
     1
102
RTVSPost2010Prop36
280
     0
102
RTVSPost2010PropOp36
 70
     1
102
RTVSPost2010Prop37
 90
       50
102
RTVSPost2010PropOp37
 70
     1
102
RTVSPost2010Prop38
140
0.0
102
RTVSPost2010PropOp38
 70
     1
102
RTVSPost2010Prop39
140
1.0
102
RTVSPost2010PropOp39
 70
     1
102
RTVSPost2010Prop40
 90
        0
102
RTVSPost2010PropOp40
 70
     1
102
RTVSPost2010Prop41ColorIndex
 90
       18
102
RTVSPost2010Prop41ColorRGB
 90
        0
102
RTVSPost2010PropOp41
 70
     1
102
RTVSPost2010Prop42
 90
       50
102
RTVSPost2010PropOp42
 70
     1
102
RTVSPost2010Prop43
 90
        3
102
RTVSPost2010PropOp43
 70
     1
102
RTVSPost2010Prop44ColorIndex
 90
        5
102
RTVSPost2010Prop44ColorRGB
 90
      255
102
RTVSPost2010PropOp44
 70
     1
102
RTVSPost2010Prop45
280
     0
102
RTVSPost2010PropOp45
 70
     1
102
RTVSPost2010Prop46
 90
       50
102
RTVSPost2010PropOp46
 70
     1
102
RTVSPost2010Prop47
 90
       50
102
RTVSPost2010PropOp47
 70
     1
102
RTVSPost2010Prop48
 90
       50
102
RTVSPost2010PropOp48
 70
     1
102
RTVSPost2010Prop49
280
     0
102
RTVSPost2010PropOp49
 70
     1
102
RTVSPost2010Prop50
 90
       50
102
RTVSPost2010PropOp50
 70
     1
102
RTVSPost2010Prop51ColorIndex
 90
      256
102
RTVSPost2010Prop51ColorRGB
 90
-16777216
102
RTVSPost2010PropOp51
 70
     0
102
RTVSPost2010Prop52
140
1.0
102
RTVSPost2010PropOp52
 70
     0
102
RTVSPost2010Prop53
 90
        2
102
RTVSPost2010PropOp53
 70
     1
102
RTVSPost2010Prop54
  1
strokes_ogs.tif
102
RTVSPost2010PropOp54
 70
     1
102
RTVSPost2010Prop55
280
     0
102
RTVSPost2010PropOp55
 70
     1
102
RTVSPost2010Prop56
140
1.0
102
RTVSPost2010PropOp56
 70
     1
102
RTVSPost2010Prop57
140
1.0
102
RTVSPost2010PropOp57
 70
     1
102
RTVSPropertyOp0
 70
     1
102
RTVSPropertyOp1
 70
     1
102
RTVSPropertyOp2
 70
     1
102
RTVSPropertyOp3
 70
     1
102
RTVSPropertyOp4
 70
     1
102
RTVSPropertyOp5
 70
     1
102
RTVSPropertyOp6
 70
     1
102
RTVSPropertyOp7
 70
     1
102
RTVSPropertyOp8
 70
     1
102
RTVSPropertyOp9
 70
     1
102
RTVSPropertyOp10
 70
     1
102
RTVSPropertyOp11
 70
     1
102
RTVSPropertyOp12
 70
     1
102
RTVSPropertyOp13
 70
     1
102
RTVSPropertyOp14
 70
     1
102
RTVSPropertyOp15
 70
     1
102
RTVSPropertyOp16
 70
     1
102
RTVSPropertyOp17
 70
     1
102
RTVSPropertyOp18
 70
     1
102
RTVSPropertyOp19
 70
     1
102
RTVSPropertyOp20
 70
     1
102
RTVSPropertyOp21
 70
     1
102
RTVSPropertyOp22
 70
     1
102
RTVSPropertyOp23
 70
     1
102
RTVSPropertyOp24
 70
     1
102
RTVSPropertyOp25
 70
     1
102
RTVSPropertyOp26
 70
     1
102
RTVSPropertyOp27
 70
     1
102
RTVSPropertyOp28
 70
     1
102
RTVSPropertyOp29
 70
     1
102
RTVSPropertyOp30
 70
     1
102
RTVSPropertyOp31
 70
     1
102
RTVSPropertyOp32
 70
     1
102
RTVSPropertyOp33
 70
     1
102
RTVSPropertyOp34
 70
     1
102
RTVSPropertyOp35
 70
     1
102
RTVSPropertyOp36
 70
     1
102
RTVSPropertyOp37
 70
     1
102
RTVSPropertyOp38
 70
     1
102
RTVSPropertyOp39
 70
     1
102
RTVSPropertyOp40
 70
     1
102
RTVSPropertyOp41
 70
     1
102
RTVSPropertyOp42
 70
     1
102
RTVSPropertyOp43
 70
     1
102
RTVSPropertyOp44
 70
     1
102
RTVSPropertyOp45
 70
     1
102
RTVSPropertyOp46
 70
     1
102
RTVSPropertyOp47
 70
     1
102
RTVSPropertyOp48
 70
     1
102
RTVSPropertyOp49
 70
     1
102
RTVSPropertyOp50
 70
     1
102
RTVSPropertyOp51
 70
     0
102
RTVSPropertyOp52
 70
     0
102
RTVSPropertyOp53
 70
     1
102
RTVSPropertyOp54
 70
     1
102
RTVSPropertyOp55
 70
     1
102
RTVSPropertyOp56
 70
     1
102
RTVSPropertyOp57
 70
     1
102
RTVSPropertyOp58
 70
     1
102
RTVSPropertyOp59
 70
     1
102
RTVSPropertyOp60
 70
     1
102
RTVSPropertyOp61
 70
     1
102
RTVSPropertyOp62
 70
     1
  0
XRECORD
  5
633
102
{ACAD_REACTORS
330
632
102
}
330
632
100
AcDbXrecord
280
     1
102
RTVSPost2010Prop28
280
     0
102
RTVSPost2010PropOp28
 70
     1
102
RTVSPost2010Prop29
280
     1
102
RTVSPost2010PropOp29
 70
     1
102
RTVSPost2010Prop30
280
     1
102
RTVSPost2010PropOp30
 70
     1
102
RTVSPost2010Prop31
280
     0
102
RTVSPost2010PropOp31
 70
     1
102
RTVSPost2010Prop32
280
     0
102
RTVSPost2010PropOp32
 70
     1
102
RTVSPost2010Prop33
280
     0
102
RTVSPost2010PropOp33
 70
     1
102
RTVSPost2010Prop34
280
     0
102
RTVSPost2010PropOp34
 70
     1
102
RTVSPost2010Prop35
280
     0
102
RTVSPost2010PropOp35
 70
     1
102
RTVSPost2010Prop36
280
     0
102
RTVSPost2010PropOp36
 70
     1
102
RTVSPost2010Prop37
 90
       50
102
RTVSPost2010PropOp37
 70
     1
102
RTVSPost2010Prop38
140
0.0
102
RTVSPost2010PropOp38
 70
     1
102
RTVSPost2010Prop39
140
1.0
102
RTVSPost2010PropOp39
 70
     1
102
RTVSPost2010Prop40
 90
        0
102
RTVSPost2010PropOp40
 70
     1
102
RTVSPost2010Prop41ColorIndex
 90
       18
102
RTVSPost2010Prop41ColorRGB
 90
        0
102
RTVSPost2010PropOp41
 70
     1
102
RTVSPost2010Prop42
 90
       50
102
RTVSPost2010PropOp42
 70
     1
102
RTVSPost2010Prop43
 90
        3
102
RTVSPost2010PropOp43
 70
     1
102
RTVSPost2010Prop44ColorIndex
 90
        5
102
RTVSPost2010Prop44ColorRGB
 90
      255
102
RTVSPost2010PropOp44
 70
     1
102
RTVSPost2010Prop45
280
     0
102
RTVSPost2010PropOp45
 70
     1
102
RTVSPost2010Prop46
 90
       50
102
RTVSPost2010PropOp46
 70
     1
102
RTVSPost2010Prop47
 90
       50
102
RTVSPost2010PropOp47
 70
     1
102
RTVSPost2010Prop48
 90
       50
102
RTVSPost2010PropOp48
 70
     1
102
RTVSPost2010Prop49
280
     0
102
RTVSPost2010PropOp49
 70
     1
102
RTVSPost2010Prop50
 90
       50
102
RTVSPost2010PropOp50
 70
     1
102
RTVSPost2010Prop51ColorIndex
 90
      256
102
RTVSPost2010Prop51ColorRGB
 90
-16777216
102
RTVSPost2010PropOp51
 70
     0
102
RTVSPost2010Prop52
140
1.0
102
RTVSPost2010PropOp52
 70
     0
102
RTVSPost2010Prop53
 90
        2
102
RTVSPost2010PropOp53
 70
     1
102
RTVSPost2010Prop54
  1
strokes_ogs.tif
102
RTVSPost2010PropOp54
 70
     1
102
RTVSPost2010Prop55
280
     0
102
RTVSPost2010PropOp55
 70
     1
102
RTVSPost2010Prop56
140
1.0
102
RTVSPost2010PropOp56
 70
     1
102
RTVSPost2010Prop57
140
1.0
102
RTVSPost2010PropOp57
 70
     1
102
RTVSPropertyOp0
 70
     1
102
RTVSPropertyOp1
 70
     1
102
RTVSPropertyOp2
 70
     1
102
RTVSPropertyOp3
 70
     1
102
RTVSPropertyOp4
 70
     1
102
RTVSPropertyOp5
 70
     1
102
RTVSPropertyOp6
 70
     1
102
RTVSPropertyOp7
 70
     1
102
RTVSPropertyOp8
 70
     1
102
RTVSPropertyOp9
 70
     1
102
RTVSPropertyOp10
 70
     1
102
RTVSPropertyOp11
 70
     1
102
RTVSPropertyOp12
 70
     1
102
RTVSPropertyOp13
 70
     1
102
RTVSPropertyOp14
 70
     1
102
RTVSPropertyOp15
 70
     1
102
RTVSPropertyOp16
 70
     1
102
RTVSPropertyOp17
 70
     1
102
RTVSPropertyOp18
 70
     1
102
RTVSPropertyOp19
 70
     1
102
RTVSPropertyOp20
 70
     1
102
RTVSPropertyOp21
 70
     1
102
RTVSPropertyOp22
 70
     1
102
RTVSPropertyOp23
 70
     1
102
RTVSPropertyOp24
 70
     1
102
RTVSPropertyOp25
 70
     1
102
RTVSPropertyOp26
 70
     1
102
RTVSPropertyOp27
 70
     1
102
RTVSPropertyOp28
 70
     1
102
RTVSPropertyOp29
 70
     1
102
RTVSPropertyOp30
 70
     1
102
RTVSPropertyOp31
 70
     1
102
RTVSPropertyOp32
 70
     1
102
RTVSPropertyOp33
 70
     1
102
RTVSPropertyOp34
 70
     1
102
RTVSPropertyOp35
 70
     1
102
RTVSPropertyOp36
 70
     1
102
RTVSPropertyOp37
 70
     1
102
RTVSPropertyOp38
 70
     1
102
RTVSPropertyOp39
 70
     1
102
RTVSPropertyOp40
 70
     1
102
RTVSPropertyOp41
 70
     1
102
RTVSPropertyOp42
 70
     1
102
RTVSPropertyOp43
 70
     1
102
RTVSPropertyOp44
 70
     1
102
RTVSPropertyOp45
 70
     1
102
RTVSPropertyOp46
 70
     1
102
RTVSPropertyOp47
 70
     1
102
RTVSPropertyOp48
 70
     1
102
RTVSPropertyOp49
 70
     1
102
RTVSPropertyOp50
 70
     1
102
RTVSPropertyOp51
 70
     0
102
RTVSPropertyOp52
 70
     0
102
RTVSPropertyOp53
 70
     1
102
RTVSPropertyOp54
 70
     1
102
RTVSPropertyOp55
 70
     1
102
RTVSPropertyOp56
 70
     1
102
RTVSPropertyOp57
 70
     1
102
RTVSPropertyOp58
 70
     1
102
RTVSPropertyOp59
 70
     1
102
RTVSPropertyOp60
 70
     1
102
RTVSPropertyOp61
 70
     1
102
RTVSPropertyOp62
 70
     1
  0
XRECORD
  5
635
102
{ACAD_REACTORS
330
634
102
}
330
634
100
AcDbXrecord
280
     1
102
RTVSPost2010Prop28
280
     0
102
RTVSPost2010PropOp28
 70
     1
102
RTVSPost2010Prop29
280
     1
102
RTVSPost2010PropOp29
 70
     1
102
RTVSPost2010Prop30
280
     1
102
RTVSPost2010PropOp30
 70
     1
102
RTVSPost2010Prop31
280
     0
102
RTVSPost2010PropOp31
 70
     1
102
RTVSPost2010Prop32
280
     0
102
RTVSPost2010PropOp32
 70
     1
102
RTVSPost2010Prop33
280
     0
102
RTVSPost2010PropOp33
 70
     1
102
RTVSPost2010Prop34
280
     0
102
RTVSPost2010PropOp34
 70
     1
102
RTVSPost2010Prop35
280
     0
102
RTVSPost2010PropOp35
 70
     1
102
RTVSPost2010Prop36
280
     0
102
RTVSPost2010PropOp36
 70
     1
102
RTVSPost2010Prop37
 90
       50
102
RTVSPost2010PropOp37
 70
     1
102
RTVSPost2010Prop38
140
0.0
102
RTVSPost2010PropOp38
 70
     1
102
RTVSPost2010Prop39
140
1.0
102
RTVSPost2010PropOp39
 70
     1
102
RTVSPost2010Prop40
 90
        0
102
RTVSPost2010PropOp40
 70
     1
102
RTVSPost2010Prop41ColorIndex
 90
       18
102
RTVSPost2010Prop41ColorRGB
 90
        0
102
RTVSPost2010PropOp41
 70
     1
102
RTVSPost2010Prop42
 90
       50
102
RTVSPost2010PropOp42
 70
     1
102
RTVSPost2010Prop43
 90
        3
102
RTVSPost2010PropOp43
 70
     1
102
RTVSPost2010Prop44ColorIndex
 90
        5
102
RTVSPost2010Prop44ColorRGB
 90
      255
102
RTVSPost2010PropOp44
 70
     1
102
RTVSPost2010Prop45
280
     0
102
RTVSPost2010PropOp45
 70
     1
102
RTVSPost2010Prop46
 90
       50
102
RTVSPost2010PropOp46
 70
     1
102
RTVSPost2010Prop47
 90
       50
102
RTVSPost2010PropOp47
 70
     1
102
RTVSPost2010Prop48
 90
       50
102
RTVSPost2010PropOp48
 70
     1
102
RTVSPost2010Prop49
280
     0
102
RTVSPost2010PropOp49
 70
     1
102
RTVSPost2010Prop50
 90
       50
102
RTVSPost2010PropOp50
 70
     1
102
RTVSPost2010Prop51ColorIndex
 90
      256
102
RTVSPost2010Prop51ColorRGB
 90
-16777216
102
RTVSPost2010PropOp51
 70
     0
102
RTVSPost2010Prop52
140
1.0
102
RTVSPost2010PropOp52
 70
     0
102
RTVSPost2010Prop53
 90
        2
102
RTVSPost2010PropOp53
 70
     1
102
RTVSPost2010Prop54
  1
strokes_ogs.tif
102
RTVSPost2010PropOp54
 70
     1
102
RTVSPost2010Prop55
280
     0
102
RTVSPost2010PropOp55
 70
     1
102
RTVSPost2010Prop56
140
1.0
102
RTVSPost2010PropOp56
 70
     1
102
RTVSPost2010Prop57
140
1.0
102
RTVSPost2010PropOp57
 70
     1
102
RTVSPropertyOp0
 70
     1
102
RTVSPropertyOp1
 70
     1
102
RTVSPropertyOp2
 70
     1
102
RTVSPropertyOp3
 70
     1
102
RTVSPropertyOp4
 70
     1
102
RTVSPropertyOp5
 70
     1
102
RTVSPropertyOp6
 70
     1
102
RTVSPropertyOp7
 70
     1
102
RTVSPropertyOp8
 70
     1
102
RTVSPropertyOp9
 70
     1
102
RTVSPropertyOp10
 70
     1
102
RTVSPropertyOp11
 70
     1
102
RTVSPropertyOp12
 70
     1
102
RTVSPropertyOp13
 70
     1
102
RTVSPropertyOp14
 70
     1
102
RTVSPropertyOp15
 70
     1
102
RTVSPropertyOp16
 70
     1
102
RTVSPropertyOp17
 70
     1
102
RTVSPropertyOp18
 70
     1
102
RTVSPropertyOp19
 70
     1
102
RTVSPropertyOp20
 70
     1
102
RTVSPropertyOp21
 70
     1
102
RTVSPropertyOp22
 70
     1
102
RTVSPropertyOp23
 70
     1
102
RTVSPropertyOp24
 70
     1
102
RTVSPropertyOp25
 70
     1
102
RTVSPropertyOp26
 70
     1
102
RTVSPropertyOp27
 70
     1
102
RTVSPropertyOp28
 70
     1
102
RTVSPropertyOp29
 70
     1
102
RTVSPropertyOp30
 70
     1
102
RTVSPropertyOp31
 70
     1
102
RTVSPropertyOp32
 70
     1
102
RTVSPropertyOp33
 70
     1
102
RTVSPropertyOp34
 70
     1
102
RTVSPropertyOp35
 70
     1
102
RTVSPropertyOp36
 70
     1
102
RTVSPropertyOp37
 70
     1
102
RTVSPropertyOp38
 70
     1
102
RTVSPropertyOp39
 70
     1
102
RTVSPropertyOp40
 70
     1
102
RTVSPropertyOp41
 70
     1
102
RTVSPropertyOp42
 70
     1
102
RTVSPropertyOp43
 70
     1
102
RTVSPropertyOp44
 70
     1
102
RTVSPropertyOp45
 70
     1
102
RTVSPropertyOp46
 70
     1
102
RTVSPropertyOp47
 70
     1
102
RTVSPropertyOp48
 70
     1
102
RTVSPropertyOp49
 70
     1
102
RTVSPropertyOp50
 70
     1
102
RTVSPropertyOp51
 70
     0
102
RTVSPropertyOp52
 70
     0
102
RTVSPropertyOp53
 70
     1
102
RTVSPropertyOp54
 70
     1
102
RTVSPropertyOp55
 70
     1
102
RTVSPropertyOp56
 70
     1
102
RTVSPropertyOp57
 70
     1
102
RTVSPropertyOp58
 70
     1
102
RTVSPropertyOp59
 70
     1
102
RTVSPropertyOp60
 70
     1
102
RTVSPropertyOp61
 70
     1
102
RTVSPropertyOp62
 70
     1
  0
XRECORD
  5
625
102
{ACAD_REACTORS
330
624
102
}
330
624
100
AcDbXrecord
280
     1
102
RTVSPost2010Prop28
280
     0
102
RTVSPost2010PropOp28
 70
     1
102
RTVSPost2010Prop29
280
     1
102
RTVSPost2010PropOp29
 70
     1
102
RTVSPost2010Prop30
280
     1
102
RTVSPost2010PropOp30
 70
     1
102
RTVSPost2010Prop31
280
     0
102
RTVSPost2010PropOp31
 70
     1
102
RTVSPost2010Prop32
280
     0
102
RTVSPost2010PropOp32
 70
     1
102
RTVSPost2010Prop33
280
     0
102
RTVSPost2010PropOp33
 70
     1
102
RTVSPost2010Prop34
280
     0
102
RTVSPost2010PropOp34
 70
     1
102
RTVSPost2010Prop35
280
     0
102
RTVSPost2010PropOp35
 70
     1
102
RTVSPost2010Prop36
280
     0
102
RTVSPost2010PropOp36
 70
     1
102
RTVSPost2010Prop37
 90
       50
102
RTVSPost2010PropOp37
 70
     1
102
RTVSPost2010Prop38
140
0.0
102
RTVSPost2010PropOp38
 70
     1
102
RTVSPost2010Prop39
140
1.0
102
RTVSPost2010PropOp39
 70
     1
102
RTVSPost2010Prop40
 90
        0
102
RTVSPost2010PropOp40
 70
     1
102
RTVSPost2010Prop41ColorIndex
 90
       18
102
RTVSPost2010Prop41ColorRGB
 90
        0
102
RTVSPost2010PropOp41
 70
     1
102
RTVSPost2010Prop42
 90
       50
102
RTVSPost2010PropOp42
 70
     1
102
RTVSPost2010Prop43
 90
        3
102
RTVSPost2010PropOp43
 70
     1
102
RTVSPost2010Prop44ColorIndex
 90
        5
102
RTVSPost2010Prop44ColorRGB
 90
      255
102
RTVSPost2010PropOp44
 70
     1
102
RTVSPost2010Prop45
280
     0
102
RTVSPost2010PropOp45
 70
     1
102
RTVSPost2010Prop46
 90
       50
102
RTVSPost2010PropOp46
 70
     1
102
RTVSPost2010Prop47
 90
       50
102
RTVSPost2010PropOp47
 70
     1
102
RTVSPost2010Prop48
 90
       50
102
RTVSPost2010PropOp48
 70
     1
102
RTVSPost2010Prop49
280
     0
102
RTVSPost2010PropOp49
 70
     1
102
RTVSPost2010Prop50
 90
       50
102
RTVSPost2010PropOp50
 70
     1
102
RTVSPost2010Prop51ColorIndex
 90
      256
102
RTVSPost2010Prop51ColorRGB
 90
-16777216
102
RTVSPost2010PropOp51
 70
     0
102
RTVSPost2010Prop52
140
1.0
102
RTVSPost2010PropOp52
 70
     0
102
RTVSPost2010Prop53
 90
        2
102
RTVSPost2010PropOp53
 70
     1
102
RTVSPost2010Prop54
  1
strokes_ogs.tif
102
RTVSPost2010PropOp54
 70
     1
102
RTVSPost2010Prop55
280
     0
102
RTVSPost2010PropOp55
 70
     1
102
RTVSPost2010Prop56
140
1.0
102
RTVSPost2010PropOp56
 70
     1
102
RTVSPost2010Prop57
140
1.0
102
RTVSPost2010PropOp57
 70
     1
102
RTVSPropertyOp0
 70
     1
102
RTVSPropertyOp1
 70
     1
102
RTVSPropertyOp2
 70
     1
102
RTVSPropertyOp3
 70
     1
102
RTVSPropertyOp4
 70
     1
102
RTVSPropertyOp5
 70
     1
102
RTVSPropertyOp6
 70
     1
102
RTVSPropertyOp7
 70
     1
102
RTVSPropertyOp8
 70
     1
102
RTVSPropertyOp9
 70
     1
102
RTVSPropertyOp10
 70
     1
102
RTVSPropertyOp11
 70
     1
102
RTVSPropertyOp12
 70
     1
102
RTVSPropertyOp13
 70
     1
102
RTVSPropertyOp14
 70
     1
102
RTVSPropertyOp15
 70
     1
102
RTVSPropertyOp16
 70
     1
102
RTVSPropertyOp17
 70
     1
102
RTVSPropertyOp18
 70
     1
102
RTVSPropertyOp19
 70
     1
102
RTVSPropertyOp20
 70
     1
102
RTVSPropertyOp21
 70
     1
102
RTVSPropertyOp22
 70
     1
102
RTVSPropertyOp23
 70
     1
102
RTVSPropertyOp24
 70
     1
102
RTVSPropertyOp25
 70
     1
102
RTVSPropertyOp26
 70
     1
102
RTVSPropertyOp27
 70
     1
102
RTVSPropertyOp28
 70
     1
102
RTVSPropertyOp29
 70
     1
102
RTVSPropertyOp30
 70
     1
102
RTVSPropertyOp31
 70
     1
102
RTVSPropertyOp32
 70
     1
102
RTVSPropertyOp33
 70
     1
102
RTVSPropertyOp34
 70
     1
102
RTVSPropertyOp35
 70
     1
102
RTVSPropertyOp36
 70
     1
102
RTVSPropertyOp37
 70
     1
102
RTVSPropertyOp38
 70
     1
102
RTVSPropertyOp39
 70
     1
102
RTVSPropertyOp40
 70
     1
102
RTVSPropertyOp41
 70
     1
102
RTVSPropertyOp42
 70
     1
102
RTVSPropertyOp43
 70
     1
102
RTVSPropertyOp44
 70
     1
102
RTVSPropertyOp45
 70
     1
102
RTVSPropertyOp46
 70
     1
102
RTVSPropertyOp47
 70
     1
102
RTVSPropertyOp48
 70
     1
102
RTVSPropertyOp49
 70
     1
102
RTVSPropertyOp50
 70
     1
102
RTVSPropertyOp51
 70
     0
102
RTVSPropertyOp52
 70
     0
102
RTVSPropertyOp53
 70
     1
102
RTVSPropertyOp54
 70
     1
102
RTVSPropertyOp55
 70
     1
102
RTVSPropertyOp56
 70
     1
102
RTVSPropertyOp57
 70
     1
102
RTVSPropertyOp58
 70
     1
102
RTVSPropertyOp59
 70
     1
102
RTVSPropertyOp60
 70
     1
102
RTVSPropertyOp61
 70
     1
102
RTVSPropertyOp62
 70
     1
  0
XRECORD
  5
617
102
{ACAD_REACTORS
330
616
102
}
330
616
100
AcDbXrecord
280
     1
102
RTVSPost2010Prop28
280
     0
102
RTVSPost2010PropOp28
 70
     1
102
RTVSPost2010Prop29
280
     1
102
RTVSPost2010PropOp29
 70
     1
102
RTVSPost2010Prop30
280
     1
102
RTVSPost2010PropOp30
 70
     1
102
RTVSPost2010Prop31
280
     0
102
RTVSPost2010PropOp31
 70
     1
102
RTVSPost2010Prop32
280
     0
102
RTVSPost2010PropOp32
 70
     1
102
RTVSPost2010Prop33
280
     0
102
RTVSPost2010PropOp33
 70
     1
102
RTVSPost2010Prop34
280
     0
102
RTVSPost2010PropOp34
 70
     1
102
RTVSPost2010Prop35
280
     0
102
RTVSPost2010PropOp35
 70
     1
102
RTVSPost2010Prop36
280
     0
102
RTVSPost2010PropOp36
 70
     1
102
RTVSPost2010Prop37
 90
       50
102
RTVSPost2010PropOp37
 70
     1
102
RTVSPost2010Prop38
140
0.0
102
RTVSPost2010PropOp38
 70
     1
102
RTVSPost2010Prop39
140
1.0
102
RTVSPost2010PropOp39
 70
     1
102
RTVSPost2010Prop40
 90
        0
102
RTVSPost2010PropOp40
 70
     1
102
RTVSPost2010Prop41ColorIndex
 90
       18
102
RTVSPost2010Prop41ColorRGB
 90
        0
102
RTVSPost2010PropOp41
 70
     1
102
RTVSPost2010Prop42
 90
       50
102
RTVSPost2010PropOp42
 70
     1
102
RTVSPost2010Prop43
 90
        3
102
RTVSPost2010PropOp43
 70
     1
102
RTVSPost2010Prop44ColorIndex
 90
        5
102
RTVSPost2010Prop44ColorRGB
 90
      255
102
RTVSPost2010PropOp44
 70
     1
102
RTVSPost2010Prop45
280
     0
102
RTVSPost2010PropOp45
 70
     1
102
RTVSPost2010Prop46
 90
       50
102
RTVSPost2010PropOp46
 70
     1
102
RTVSPost2010Prop47
 90
       50
102
RTVSPost2010PropOp47
 70
     1
102
RTVSPost2010Prop48
 90
       50
102
RTVSPost2010PropOp48
 70
     1
102
RTVSPost2010Prop49
280
     0
102
RTVSPost2010PropOp49
 70
     1
102
RTVSPost2010Prop50
 90
       50
102
RTVSPost2010PropOp50
 70
     1
102
RTVSPost2010Prop51ColorIndex
 90
      256
102
RTVSPost2010Prop51ColorRGB
 90
-16777216
102
RTVSPost2010PropOp51
 70
     0
102
RTVSPost2010Prop52
140
1.0
102
RTVSPost2010PropOp52
 70
     0
102
RTVSPost2010Prop53
 90
        2
102
RTVSPost2010PropOp53
 70
     1
102
RTVSPost2010Prop54
  1
strokes_ogs.tif
102
RTVSPost2010PropOp54
 70
     1
102
RTVSPost2010Prop55
280
     0
102
RTVSPost2010PropOp55
 70
     1
102
RTVSPost2010Prop56
140
1.0
102
RTVSPost2010PropOp56
 70
     1
102
RTVSPost2010Prop57
140
1.0
102
RTVSPost2010PropOp57
 70
     1
102
RTVSPropertyOp0
 70
     1
102
RTVSPropertyOp1
 70
     1
102
RTVSPropertyOp2
 70
     1
102
RTVSPropertyOp3
 70
     1
102
RTVSPropertyOp4
 70
     1
102
RTVSPropertyOp5
 70
     1
102
RTVSPropertyOp6
 70
     1
102
RTVSPropertyOp7
 70
     1
102
RTVSPropertyOp8
 70
     1
102
RTVSPropertyOp9
 70
     1
102
RTVSPropertyOp10
 70
     1
102
RTVSPropertyOp11
 70
     1
102
RTVSPropertyOp12
 70
     1
102
RTVSPropertyOp13
 70
     1
102
RTVSPropertyOp14
 70
     1
102
RTVSPropertyOp15
 70
     1
102
RTVSPropertyOp16
 70
     1
102
RTVSPropertyOp17
 70
     1
102
RTVSPropertyOp18
 70
     1
102
RTVSPropertyOp19
 70
     1
102
RTVSPropertyOp20
 70
     1
102
RTVSPropertyOp21
 70
     1
102
RTVSPropertyOp22
 70
     1
102
RTVSPropertyOp23
 70
     1
102
RTVSPropertyOp24
 70
     1
102
RTVSPropertyOp25
 70
     1
102
RTVSPropertyOp26
 70
     1
102
RTVSPropertyOp27
 70
     1
102
RTVSPropertyOp28
 70
     1
102
RTVSPropertyOp29
 70
     1
102
RTVSPropertyOp30
 70
     1
102
RTVSPropertyOp31
 70
     1
102
RTVSPropertyOp32
 70
     1
102
RTVSPropertyOp33
 70
     1
102
RTVSPropertyOp34
 70
     1
102
RTVSPropertyOp35
 70
     1
102
RTVSPropertyOp36
 70
     1
102
RTVSPropertyOp37
 70
     1
102
RTVSPropertyOp38
 70
     1
102
RTVSPropertyOp39
 70
     1
102
RTVSPropertyOp40
 70
     1
102
RTVSPropertyOp41
 70
     1
102
RTVSPropertyOp42
 70
     1
102
RTVSPropertyOp43
 70
     1
102
RTVSPropertyOp44
 70
     1
102
RTVSPropertyOp45
 70
     1
102
RTVSPropertyOp46
 70
     1
102
RTVSPropertyOp47
 70
     1
102
RTVSPropertyOp48
 70
     1
102
RTVSPropertyOp49
 70
     1
102
RTVSPropertyOp50
 70
     1
102
RTVSPropertyOp51
 70
     0
102
RTVSPropertyOp52
 70
     0
102
RTVSPropertyOp53
 70
     1
102
RTVSPropertyOp54
 70
     1
102
RTVSPropertyOp55
 70
     1
102
RTVSPropertyOp56
 70
     1
102
RTVSPropertyOp57
 70
     1
102
RTVSPropertyOp58
 70
     1
102
RTVSPropertyOp59
 70
     1
102
RTVSPropertyOp60
 70
     1
102
RTVSPropertyOp61
 70
     1
102
RTVSPropertyOp62
 70
     1
  0
XRECORD
  5
637
102
{ACAD_REACTORS
330
636
102
}
330
636
100
AcDbXrecord
280
     1
102
RTVSPost2010Prop28
280
     0
102
RTVSPost2010PropOp28
 70
     1
102
RTVSPost2010Prop29
280
     1
102
RTVSPost2010PropOp29
 70
     1
102
RTVSPost2010Prop30
280
     1
102
RTVSPost2010PropOp30
 70
     1
102
RTVSPost2010Prop31
280
     0
102
RTVSPost2010PropOp31
 70
     1
102
RTVSPost2010Prop32
280
     0
102
RTVSPost2010PropOp32
 70
     1
102
RTVSPost2010Prop33
280
     0
102
RTVSPost2010PropOp33
 70
     1
102
RTVSPost2010Prop34
280
     0
102
RTVSPost2010PropOp34
 70
     1
102
RTVSPost2010Prop35
280
     0
102
RTVSPost2010PropOp35
 70
     1
102
RTVSPost2010Prop36
280
     0
102
RTVSPost2010PropOp36
 70
     1
102
RTVSPost2010Prop37
 90
       50
102
RTVSPost2010PropOp37
 70
     1
102
RTVSPost2010Prop38
140
0.0
102
RTVSPost2010PropOp38
 70
     1
102
RTVSPost2010Prop39
140
1.0
102
RTVSPost2010PropOp39
 70
     1
102
RTVSPost2010Prop40
 90
        0
102
RTVSPost2010PropOp40
 70
     1
102
RTVSPost2010Prop41ColorIndex
 90
       18
102
RTVSPost2010Prop41ColorRGB
 90
        0
102
RTVSPost2010PropOp41
 70
     1
102
RTVSPost2010Prop42
 90
       50
102
RTVSPost2010PropOp42
 70
     1
102
RTVSPost2010Prop43
 90
        3
102
RTVSPost2010PropOp43
 70
     1
102
RTVSPost2010Prop44ColorIndex
 90
        5
102
RTVSPost2010Prop44ColorRGB
 90
      255
102
RTVSPost2010PropOp44
 70
     1
102
RTVSPost2010Prop45
280
     0
102
RTVSPost2010PropOp45
 70
     1
102
RTVSPost2010Prop46
 90
       50
102
RTVSPost2010PropOp46
 70
     1
102
RTVSPost2010Prop47
 90
       50
102
RTVSPost2010PropOp47
 70
     1
102
RTVSPost2010Prop48
 90
       50
102
RTVSPost2010PropOp48
 70
     1
102
RTVSPost2010Prop49
280
     0
102
RTVSPost2010PropOp49
 70
     1
102
RTVSPost2010Prop50
 90
       50
102
RTVSPost2010PropOp50
 70
     1
102
RTVSPost2010Prop51ColorIndex
 90
      256
102
RTVSPost2010Prop51ColorRGB
 90
-16777216
102
RTVSPost2010PropOp51
 70
     0
102
RTVSPost2010Prop52
140
1.0
102
RTVSPost2010PropOp52
 70
     0
102
RTVSPost2010Prop53
 90
        2
102
RTVSPost2010PropOp53
 70
     1
102
RTVSPost2010Prop54
  1
strokes_ogs.tif
102
RTVSPost2010PropOp54
 70
     1
102
RTVSPost2010Prop55
280
     0
102
RTVSPost2010PropOp55
 70
     1
102
RTVSPost2010Prop56
140
1.0
102
RTVSPost2010PropOp56
 70
     1
102
RTVSPost2010Prop57
140
1.0
102
RTVSPost2010PropOp57
 70
     1
102
RTVSPropertyOp0
 70
     1
102
RTVSPropertyOp1
 70
     1
102
RTVSPropertyOp2
 70
     1
102
RTVSPropertyOp3
 70
     1
102
RTVSPropertyOp4
 70
     1
102
RTVSPropertyOp5
 70
     1
102
RTVSPropertyOp6
 70
     1
102
RTVSPropertyOp7
 70
     1
102
RTVSPropertyOp8
 70
     1
102
RTVSPropertyOp9
 70
     1
102
RTVSPropertyOp10
 70
     1
102
RTVSPropertyOp11
 70
     1
102
RTVSPropertyOp12
 70
     1
102
RTVSPropertyOp13
 70
     1
102
RTVSPropertyOp14
 70
     1
102
RTVSPropertyOp15
 70
     1
102
RTVSPropertyOp16
 70
     1
102
RTVSPropertyOp17
 70
     1
102
RTVSPropertyOp18
 70
     1
102
RTVSPropertyOp19
 70
     1
102
RTVSPropertyOp20
 70
     1
102
RTVSPropertyOp21
 70
     1
102
RTVSPropertyOp22
 70
     1
102
RTVSPropertyOp23
 70
     1
102
RTVSPropertyOp24
 70
     1
102
RTVSPropertyOp25
 70
     1
102
RTVSPropertyOp26
 70
     1
102
RTVSPropertyOp27
 70
     1
102
RTVSPropertyOp28
 70
     1
102
RTVSPropertyOp29
 70
     1
102
RTVSPropertyOp30
 70
     1
102
RTVSPropertyOp31
 70
     1
102
RTVSPropertyOp32
 70
     1
102
RTVSPropertyOp33
 70
     1
102
RTVSPropertyOp34
 70
     1
102
RTVSPropertyOp35
 70
     1
102
RTVSPropertyOp36
 70
     1
102
RTVSPropertyOp37
 70
     1
102
RTVSPropertyOp38
 70
     1
102
RTVSPropertyOp39
 70
     1
102
RTVSPropertyOp40
 70
     1
102
RTVSPropertyOp41
 70
     1
102
RTVSPropertyOp42
 70
     1
102
RTVSPropertyOp43
 70
     1
102
RTVSPropertyOp44
 70
     1
102
RTVSPropertyOp45
 70
     1
102
RTVSPropertyOp46
 70
     1
102
RTVSPropertyOp47
 70
     1
102
RTVSPropertyOp48
 70
     1
102
RTVSPropertyOp49
 70
     1
102
RTVSPropertyOp50
 70
     1
102
RTVSPropertyOp51
 70
     0
102
RTVSPropertyOp52
 70
     0
102
RTVSPropertyOp53
 70
     1
102
RTVSPropertyOp54
 70
     1
102
RTVSPropertyOp55
 70
     1
102
RTVSPropertyOp56
 70
     1
102
RTVSPropertyOp57
 70
     1
102
RTVSPropertyOp58
 70
     1
102
RTVSPropertyOp59
 70
     1
102
RTVSPropertyOp60
 70
     1
102
RTVSPropertyOp61
 70
     1
102
RTVSPropertyOp62
 70
     1
  0
ENDSEC
  0
EOF
