  0
SECTION
  2
HEADER
  9
$ACADVER
  1
AC1015
  9
$ACADMAINTVER
 70
    20
  9
$DWGCODEPAGE
  3
ANSI_932
  9
$INSBASE
 10
0.0
 20
0.0
 30
0.0
  9
$EXTMIN
 10
47.71121689404822
 20
31.63977966696598
 30
0.0
  9
$EXTMAX
 10
1830.754289385916
 20
1514.647602049205
 30
0.0
  9
$LIMMIN
 10
-391.4131393432715
 20
-502.5732040405375
  9
$LIMMAX
 10
1165.72403717041
 20
881.5731201171976
  9
$ORTHOMODE
 70
     1
  9
$REGENMODE
 70
     1
  9
$FILLMODE
 70
     1
  9
$QTEXTMODE
 70
     0
  9
$MIRRTEXT
 70
     1
  9
$LTSCALE
 40
0.7992445966265139
  9
$ATTMODE
 70
     1
  9
$TEXTSIZE
 40
2.5
  9
$TRACEWID
 40
1.0
  9
$TEXTSTYLE
  7
Standard
  9
$CLAYER
  8
0
  9
$CELTYPE
  6
ByLayer
  9
$CECOLOR
 62
   256
  9
$CELTSCALE
 40
1.0
  9
$DISPSILH
 70
     0
  9
$DIMSCALE
 40
1.0
  9
$DIMASZ
 40
2.5
  9
$DIMEXO
 40
0.625
  9
$DIMDLI
 40
3.75
  9
$DIMRND
 40
0.0
  9
$DIMDLE
 40
0.0
  9
$DIMEXE
 40
1.25
  9
$DIMTP
 40
0.0
  9
$DIMTM
 40
0.0
  9
$DIMTXT
 40
2.5
  9
$DIMCEN
 40
2.5
  9
$DIMTSZ
 40
0.0
  9
$DIMTOL
 70
     0
  9
$DIMLIM
 70
     0
  9
$DIMTIH
 70
     0
  9
$DIMTOH
 70
     0
  9
$DIMSE1
 70
     0
  9
$DIMSE2
 70
     0
  9
$DIMTAD
 70
     1
  9
$DIMZIN
 70
     0
  9
$DIMBLK
  1

  9
$DIMASO
 70
     1
  9
$DIMSHO
 70
     1
  9
$DIMPOST
  1

  9
$DIMAPOST
  1

  9
$DIMALT
 70
     0
  9
$DIMALTD
 70
     3
  9
$DIMALTF
 40
0.03937007874016
  9
$DIMLFAC
 40
1.0
  9
$DIMTOFL
 70
     1
  9
$DIMTVP
 40
0.0
  9
$DIMTIX
 70
     0
  9
$DIMSOXD
 70
     0
  9
$DIMSAH
 70
     0
  9
$DIMBLK1
  1

  9
$DIMBLK2
  1

  9
$DIMSTYLE
  2
Standard
  9
$DIMCLRD
 70
     0
  9
$DIMCLRE
 70
     0
  9
$DIMCLRT
 70
     0
  9
$DIMTFAC
 40
0.75
  9
$DIMGAP
 40
0.625
  9
$DIMJUST
 70
     0
  9
$DIMSD1
 70
     0
  9
$DIMSD2
 70
     0
  9
$DIMTOLJ
 70
     0
  9
$DIMTZIN
 70
     8
  9
$DIMALTZ
 70
     0
  9
$DIMALTTZ
 70
     0
  9
$DIMUPT
 70
     0
  9
$DIMDEC
 70
     2
  9
$DIMTDEC
 70
     2
  9
$DIMALTU
 70
     2
  9
$DIMALTTD
 70
     3
  9
$DIMTXSTY
  7
Standard
  9
$DIMAUNIT
 70
     0
  9
$DIMADEC
 70
     0
  9
$DIMALTRND
 40
0.0
  9
$DIMAZIN
 70
     0
  9
$DIMDSEP
 70
    46
  9
$DIMATFIT
 70
     3
  9
$DIMFRAC
 70
     0
  9
$DIMLDRBLK
  1

  9
$DIMLUNIT
 70
     2
  9
$DIMLWD
 70
    -2
  9
$DIMLWE
 70
    -2
  9
$DIMTMOVE
 70
     0
  9
$LUNITS
 70
     2
  9
$LUPREC
 70
     4
  9
$SKETCHINC
 40
1.0
  9
$FILLETRAD
 40
0.0
  9
$AUNITS
 70
     0
  9
$AUPREC
 70
     0
  9
$MENU
  1
.
  9
$ELEVATION
 40
0.0
  9
$PELEVATION
 40
0.0
  9
$THICKNESS
 40
0.0
  9
$LIMCHECK
 70
     0
  9
$CHAMFERA
 40
10.0
  9
$CHAMFERB
 40
10.0
  9
$CHAMFERC
 40
20.0
  9
$CHAMFERD
 40
0.0
  9
$SKPOLY
 70
     0
  9
$TDCREATE
 40
2455188.750000000
  9
$TDUCREATE
 40
2455188.375000000
  9
$TDUPDATE
 40
2459754.598070047
  9
$TDUUPDATE
 40
2459754.223070047
  9
$TDINDWG
 40
0.0133694097
  9
$TDUSRTIMER
 40
0.0133692477
  9
$USRTIMER
 70
     1
  9
$ANGBASE
 50
0.0
  9
$ANGDIR
 70
     0
  9
$PDMODE
 70
     0
  9
$PDSIZE
 40
0.0
  9
$PLINEWID
 40
0.0
  9
$SPLFRAME
 70
     0
  9
$SPLINETYPE
 70
     6
  9
$SPLINESEGS
 70
     8
  9
$HANDSEED
  5
5FE
  9
$SURFTAB1
 70
     6
  9
$SURFTAB2
 70
     6
  9
$SURFTYPE
 70
     6
  9
$SURFU
 70
     6
  9
$SURFV
 70
     6
  9
$UCSBASE
  2

  9
$UCSNAME
  2

  9
$UCSORG
 10
0.0
 20
0.0
 30
0.0
  9
$UCSXDIR
 10
1.0
 20
0.0
 30
0.0
  9
$UCSYDIR
 10
0.0
 20
1.0
 30
0.0
  9
$UCSORTHOREF
  2

  9
$UCSORTHOVIEW
 70
     0
  9
$UCSORGTOP
 10
0.0
 20
0.0
 30
0.0
  9
$UCSORGBOTTOM
 10
0.0
 20
0.0
 30
0.0
  9
$UCSORGLEFT
 10
0.0
 20
0.0
 30
0.0
  9
$UCSORGRIGHT
 10
0.0
 20
0.0
 30
0.0
  9
$UCSORGFRONT
 10
0.0
 20
0.0
 30
0.0
  9
$UCSORGBACK
 10
0.0
 20
0.0
 30
0.0
  9
$PUCSBASE
  2

  9
$PUCSNAME
  2

  9
$PUCSORG
 10
0.0
 20
0.0
 30
0.0
  9
$PUCSXDIR
 10
1.0
 20
0.0
 30
0.0
  9
$PUCSYDIR
 10
0.0
 20
1.0
 30
0.0
  9
$PUCSORTHOREF
  2

  9
$PUCSORTHOVIEW
 70
     0
  9
$PUCSORGTOP
 10
0.0
 20
0.0
 30
0.0
  9
$PUCSORGBOTTOM
 10
0.0
 20
0.0
 30
0.0
  9
$PUCSORGLEFT
 10
0.0
 20
0.0
 30
0.0
  9
$PUCSORGRIGHT
 10
0.0
 20
0.0
 30
0.0
  9
$PUCSORGFRONT
 10
0.0
 20
0.0
 30
0.0
  9
$PUCSORGBACK
 10
0.0
 20
0.0
 30
0.0
  9
$USERI1
 70
     0
  9
$USERI2
 70
     0
  9
$USERI3
 70
     0
  9
$USERI4
 70
     0
  9
$USERI5
 70
     0
  9
$USERR1
 40
0.0
  9
$USERR2
 40
0.0
  9
$USERR3
 40
0.0
  9
$USERR4
 40
0.0
  9
$USERR5
 40
0.0
  9
$WORLDVIEW
 70
     1
  9
$SHADEDGE
 70
     3
  9
$SHADEDIF
 70
    70
  9
$TILEMODE
 70
     1
  9
$MAXACTVP
 70
    64
  9
$PINSBASE
 10
0.0
 20
0.0
 30
0.0
  9
$PLIMCHECK
 70
     0
  9
$PEXTMIN
 10
1.000000000000000E+20
 20
1.000000000000000E+20
 30
1.000000000000000E+20
  9
$PEXTMAX
 10
-1.000000000000000E+20
 20
-1.000000000000000E+20
 30
-1.000000000000000E+20
  9
$PLIMMIN
 10
0.0
 20
0.0
  9
$PLIMMAX
 10
420.0
 20
297.0
  9
$UNITMODE
 70
     0
  9
$VISRETAIN
 70
     1
  9
$PLINEGEN
 70
     0
  9
$PSLTSCALE
 70
     1
  9
$TREEDEPTH
 70
  3020
  9
$CMLSTYLE
  2
Standard
  9
$CMLJUST
 70
     0
  9
$CMLSCALE
 40
20.0
  9
$PROXYGRAPHICS
 70
     1
  9
$MEASUREMENT
 70
     1
  9
$CELWEIGHT
370
    -1
  9
$ENDCAPS
280
     0
  9
$JOINSTYLE
280
     0
  9
$LWDISPLAY
290
     0
  9
$INSUNITS
 70
     4
  9
$HYPERLINKBASE
  1

  9
$STYLESHEET
  1

  9
$XEDIT
290
     1
  9
$CEPSNTYPE
380
     0
  9
$PSTYLEMODE
290
     1
  9
$FINGERPRINTGUID
  2
{7A365915-0655-4FF0-B3F0-FE828D7E556F}
  9
$VERSIONGUID
  2
{F870BC92-15E7-49E8-9BCE-47883A5B85E8}
  9
$EXTNAMES
290
     1
  9
$PSVPSCALE
 40
0.0
  9
$OLESTARTUP
290
     0
  0
ENDSEC
  0
SECTION
  2
CLASSES
  0
CLASS
  1
ACDBDICTIONARYWDFLT
  2
AcDbDictionaryWithDefault
  3
ObjectDBX Classes
 90
        0
280
     0
281
     0
  0
CLASS
  1
VISUALSTYLE
  2
AcDbVisualStyle
  3
ObjectDBX Classes
 90
     4095
280
     0
281
     0
  0
CLASS
  1
MATERIAL
  2
AcDbMaterial
  3
ObjectDBX Classes
 90
     1153
280
     0
281
     0
  0
CLASS
  1
SCALE
  2
AcDbScale
  3
ObjectDBX Classes
 90
     1153
280
     0
281
     0
  0
CLASS
  1
TABLESTYLE
  2
AcDbTableStyle
  3
ObjectDBX Classes
 90
     4095
280
     0
281
     0
  0
CLASS
  1
MLEADERSTYLE
  2
AcDbMLeaderStyle
  3
ACDB_MLEADERSTYLE_CLASS
 90
     4095
280
     0
281
     0
  0
CLASS
  1
SUN
  2
AcDbSun
  3
SCENEOE
 90
    33921
280
     0
281
     0
  0
CLASS
  1
DICTIONARYVAR
  2
AcDbDictionaryVar
  3
ObjectDBX Classes
 90
        0
280
     0
281
     0
  0
CLASS
  1
ACDBSECTIONVIEWSTYLE
  2
AcDbSectionViewStyle
  3
ObjectDBX Classes
 90
     1025
280
     0
281
     0
  0
CLASS
  1
ACDBDETAILVIEWSTYLE
  2
AcDbDetailViewStyle
  3
ObjectDBX Classes
 90
     1025
280
     0
281
     0
  0
CLASS
  1
SORTENTSTABLE
  2
AcDbSortentsTable
  3
ObjectDBX Classes
 90
        0
280
     0
281
     0
  0
CLASS
  1
CELLSTYLEMAP
  2
AcDbCellStyleMap
  3
ObjectDBX Classes
 90
     1152
280
     0
281
     0
  0
CLASS
  1
ACDBPLACEHOLDER
  2
AcDbPlaceHolder
  3
ObjectDBX Classes
 90
        0
280
     0
281
     0
  0
CLASS
  1
LAYOUT
  2
AcDbLayout
  3
ObjectDBX Classes
 90
        0
280
     0
281
     0
  0
ENDSEC
  0
SECTION
  2
TABLES
  0
TABLE
  2
VPORT
  5
8
330
0
100
AcDbSymbolTable
 70
     1
  0
VPORT
  5
29
330
8
100
AcDbSymbolTableRecord
100
AcDbViewportTableRecord
  2
*Active
 70
     0
 10
0.0
 20
0.0
 11
1.0
 21
1.0
 12
1033.930983174196
 22
430.8328868750004
 13
0.0
 23
0.0
 14
10.0
 24
10.0
 15
10.0
 25
10.0
 16
0.0
 26
0.0
 36
1.0
 17
0.0
 27
0.0
 37
0.0
 40
1447.040558147049
 41
2.204301075268817
 42
50.0
 43
0.0
 44
0.0
 50
0.0
 51
0.0
 71
     0
 72
 20000
 73
     1
 74
     3
 75
     0
 76
     0
 77
     0
 78
     0
281
     0
 65
     1
110
0.0
120
0.0
130
0.0
111
1.0
121
0.0
131
0.0
112
0.0
122
1.0
132
0.0
 79
     0
146
0.0
1001
ACAD_NAV_VCDISPLAY
1070
     3
  0
ENDTAB
  0
TABLE
  2
LTYPE
  5
5
330
0
100
AcDbSymbolTable
 70
     2
  0
LTYPE
  5
14
330
5
100
AcDbSymbolTableRecord
100
AcDbLinetypeTableRecord
  2
ByBlock
 70
     0
  3

 72
    65
 73
     0
 40
0.0
  0
LTYPE
  5
15
330
5
100
AcDbSymbolTableRecord
100
AcDbLinetypeTableRecord
  2
ByLayer
 70
     0
  3

 72
    65
 73
     0
 40
0.0
  0
LTYPE
  5
16
330
5
100
AcDbSymbolTableRecord
100
AcDbLinetypeTableRecord
  2
Continuous
 70
     0
  3
Solid line
 72
    65
 73
     0
 40
0.0
  0
LTYPE
  5
443
330
5
100
AcDbSymbolTableRecord
100
AcDbLinetypeTableRecord
  2
CENTER2
 70
     0
  3
Center (.5x) ___ _ ___ _ ___ _ ___ _ ___ _ ___
 72
    65
 73
     4
 40
28.575
 49
19.05
 74
     0
 49
-3.174999999999998
 74
     0
 49
3.174999999999998
 74
     0
 49
-3.174999999999998
 74
     0
  0
ENDTAB
  0
TABLE
  2
LAYER
  5
2
102
{ACAD_XDICTIONARY
360
449
102
}
330
0
100
AcDbSymbolTable
 70
     4
  0
LAYER
  5
10
102
{ACAD_XDICTIONARY
360
568
102
}
330
2
100
AcDbSymbolTableRecord
100
AcDbLayerTableRecord
  2
0
 70
     0
 62
     7
  6
Continuous
370
    -3
390
F
  0
LAYER
  5
66
330
2
100
AcDbSymbolTableRecord
100
AcDbLayerTableRecord
  2
Defpoints
 70
     0
 62
     7
  6
Continuous
290
     0
370
    -3
390
F
  0
LAYER
  5
444
102
{ACAD_XDICTIONARY
360
445
102
}
330
2
100
AcDbSymbolTableRecord
100
AcDbLayerTableRecord
  2
中心線
 70
     0
 62
     3
  6
CENTER2
370
    -3
390
F
  0
LAYER
  5
446
102
{ACAD_XDICTIONARY
360
447
102
}
330
2
100
AcDbSymbolTableRecord
100
AcDbLayerTableRecord
  2
実線
 70
     0
 62
     7
  6
Continuous
370
    -3
390
F
  0
ENDTAB
  0
TABLE
  2
STYLE
  5
3
330
0
100
AcDbSymbolTable
 70
     1
  0
STYLE
  5
11
330
3
100
AcDbSymbolTableRecord
100
AcDbTextStyleTableRecord
  2
Standard
 70
     0
 40
0.0
 41
1.0
 50
0.0
 71
     0
 42
2.5
  3
txt
  4
extfont2
  0
ENDTAB
  0
TABLE
  2
VIEW
  5
6
330
0
100
AcDbSymbolTable
 70
     0
  0
ENDTAB
  0
TABLE
  2
UCS
  5
7
330
0
100
AcDbSymbolTable
 70
     0
  0
ENDTAB
  0
TABLE
  2
APPID
  5
9
330
0
100
AcDbSymbolTable
 70
     4
  0
APPID
  5
12
330
9
100
AcDbSymbolTableRecord
100
AcDbRegAppTableRecord
  2
ACAD
 70
     0
  0
APPID
  5
27B
330
9
100
AcDbSymbolTableRecord
100
AcDbRegAppTableRecord
  2
ACAD_MLEADERVER
 70
     0
  0
APPID
  5
448
330
9
100
AcDbSymbolTableRecord
100
AcDbRegAppTableRecord
  2
ACAD_NAV_VCDISPLAY
 70
     0
  0
APPID
  5
555
330
9
100
AcDbSymbolTableRecord
100
AcDbRegAppTableRecord
  2
ACAD_EXEMPT_FROM_CAD_STANDARDS
 70
     0
  0
ENDTAB
  0
TABLE
  2
DIMSTYLE
  5
A
330
0
100
AcDbSymbolTable
 70
     1
100
AcDbDimStyleTable
 71
     1
340
27
  0
DIMSTYLE
105
27
330
A
100
AcDbSymbolTableRecord
100
AcDbDimStyleTableRecord
  2
Standard
 70
     0
 41
2.5
 42
0.625
 43
3.75
 44
1.25
 73
     0
 74
     0
 77
     1
140
2.5
141
2.5
143
0.03937007874016
146
0.75
147
0.625
171
     3
172
     1
271
     2
272
     2
274
     3
283
     0
284
     8
340
11
  0
ENDTAB
  0
TABLE
  2
BLOCK_RECORD
  5
1
330
0
100
AcDbSymbolTable
 70
     1
  0
BLOCK_RECORD
  5
1F
102
{ACAD_XDICTIONARY
360
2BA
102
}
330
1
100
AcDbSymbolTableRecord
100
AcDbBlockTableRecord
  2
*Model_Space
340
22
  0
BLOCK_RECORD
  5
1B
330
1
100
AcDbSymbolTableRecord
100
AcDbBlockTableRecord
  2
*Paper_Space
340
1E
  0
BLOCK_RECORD
  5
23
330
1
100
AcDbSymbolTableRecord
100
AcDbBlockTableRecord
  2
*Paper_Space0
340
285
  0
ENDTAB
  0
ENDSEC
  0
SECTION
  2
BLOCKS
  0
BLOCK
  5
20
330
1F
100
AcDbEntity
  8
0
100
AcDbBlockBegin
  2
*Model_Space
 70
     0
 10
0.0
 20
0.0
 30
0.0
  3
*Model_Space
  1

  0
ENDBLK
  5
21
330
1F
100
AcDbEntity
  8
0
100
AcDbBlockEnd
  0
BLOCK
  5
1C
330
1B
100
AcDbEntity
 67
     1
  8
0
100
AcDbBlockBegin
  2
*Paper_Space
 70
     0
 10
0.0
 20
0.0
 30
0.0
  3
*Paper_Space
  1

  0
ENDBLK
  5
1D
330
1B
100
AcDbEntity
 67
     1
  8
0
100
AcDbBlockEnd
  0
BLOCK
  5
24
330
23
100
AcDbEntity
 67
     1
  8
0
100
AcDbBlockBegin
  2
*Paper_Space0
 70
     0
 10
0.0
 20
0.0
 30
0.0
  3
*Paper_Space0
  1

  0
ENDBLK
  5
25
330
23
100
AcDbEntity
 67
     1
  8
0
100
AcDbBlockEnd
  0
ENDSEC
  0
SECTION
  2
ENTITIES
  0
CIRCLE
  5
28B
102
{ACAD_REACTORS
330
566
102
}
330
1F
100
AcDbEntity
  8
実線
100
AcDbCircle
 10
432.7112168940478
 20
116.6397796669661
 30
0.0
 40
38.75
  0
LINE
  5
28C
102
{ACAD_REACTORS
330
566
102
}
330
1F
100
AcDbEntity
  8
実線
100
AcDbLine
 10
334.3112168940477
 20
84.88977966696614
 30
0.0
 11
387.8008895739313
 21
84.88977966696614
 31
0.0
  0
LINE
  5
28D
102
{ACAD_REACTORS
330
566
102
}
330
1F
100
AcDbEntity
  8
実線
100
AcDbLine
 10
387.8008895739313
 20
148.3897796669661
 30
0.0
 11
334.3112168940477
 21
148.3897796669661
 31
0.0
  0
LINE
  5
28E
102
{ACAD_REACTORS
330
566
102
}
330
1F
100
AcDbEntity
  8
実線
100
AcDbLine
 10
334.3112168940477
 20
84.88977966696614
 30
0.0
 11
334.3112168940477
 21
148.3897796669661
 31
0.0
  0
LINE
  5
28F
102
{ACAD_REACTORS
330
566
102
}
330
1F
100
AcDbEntity
  8
実線
100
AcDbLine
 10
334.3112168940477
 20
148.3897796669661
 30
0.0
 11
331.2112168940477
 21
155.3897796669661
 31
0.0
  0
LINE
  5
290
102
{ACAD_REACTORS
330
566
102
}
330
1F
100
AcDbEntity
  8
実線
100
AcDbLine
 10
331.2112168940477
 20
77.88977966696615
 30
0.0
 11
334.3112168940477
 21
84.88977966696614
 31
0.0
  0
LINE
  5
291
102
{ACAD_REACTORS
330
566
102
}
330
1F
100
AcDbEntity
  8
実線
100
AcDbLine
 10
327.7112168940478
 20
77.88977966696615
 30
0.0
 11
327.7112168940478
 21
155.3897796669661
 31
0.0
  0
LINE
  5
292
102
{ACAD_REACTORS
330
566
102
}
330
1F
100
AcDbEntity
  8
実線
100
AcDbLine
 10
331.2112168940477
 20
77.88977966696615
 30
0.0
 11
331.2112168940477
 21
155.3897796669661
 31
0.0
  0
LINE
  5
293
102
{ACAD_REACTORS
330
566
102
}
330
1F
100
AcDbEntity
  8
実線
100
AcDbLine
 10
327.7112168940478
 20
77.88977966696615
 30
0.0
 11
331.2112168940477
 21
77.88977966696615
 31
0.0
  0
LINE
  5
294
102
{ACAD_REACTORS
330
566
102
}
330
1F
100
AcDbEntity
  8
実線
100
AcDbLine
 10
331.2112168940477
 20
155.3897796669661
 30
0.0
 11
327.7112168940478
 21
155.3897796669661
 31
0.0
  0
LINE
  5
295
102
{ACAD_REACTORS
330
566
102
}
330
1F
100
AcDbEntity
  8
実線
100
AcDbLine
 10
531.111216894048
 20
148.3897796669865
 30
0.0
 11
477.6215442141499
 21
148.3897796669865
 31
0.0
  0
LINE
  5
296
102
{ACAD_REACTORS
330
566
102
}
330
1F
100
AcDbEntity
  8
実線
100
AcDbLine
 10
477.6215442141785
 20
84.88977966698639
 30
0.0
 11
531.111216894048
 21
84.88977966698639
 31
0.0
  0
LINE
  5
297
102
{ACAD_REACTORS
330
566
102
}
330
1F
100
AcDbEntity
  8
実線
100
AcDbLine
 10
537.7112168940478
 20
155.3897796669865
 30
0.0
 11
537.7112168940478
 21
77.88977966698638
 31
0.0
  0
LINE
  5
298
102
{ACAD_REACTORS
330
566
102
}
330
1F
100
AcDbEntity
  8
実線
100
AcDbLine
 10
537.7112168940478
 20
155.3897796669865
 30
0.0
 11
534.211216894048
 21
155.3897796669865
 31
0.0
  0
LINE
  5
299
102
{ACAD_REACTORS
330
566
102
}
330
1F
100
AcDbEntity
  8
実線
100
AcDbLine
 10
534.211216894048
 20
77.88977966698638
 30
0.0
 11
537.7112168940478
 21
77.88977966698638
 31
0.0
  0
LINE
  5
29A
102
{ACAD_REACTORS
330
566
102
}
330
1F
100
AcDbEntity
  8
実線
100
AcDbLine
 10
534.211216894048
 20
155.3897796669865
 30
0.0
 11
534.211216894048
 21
77.88977966698638
 31
0.0
  0
LINE
  5
29B
102
{ACAD_REACTORS
330
566
102
}
330
1F
100
AcDbEntity
  8
実線
100
AcDbLine
 10
531.111216894048
 20
148.3897796669865
 30
0.0
 11
531.111216894048
 21
84.88977966698639
 31
0.0
  0
LINE
  5
29C
102
{ACAD_REACTORS
330
566
102
}
330
1F
100
AcDbEntity
  8
実線
100
AcDbLine
 10
531.111216894048
 20
84.88977966698639
 30
0.0
 11
534.211216894048
 21
77.88977966698638
 31
0.0
  0
LINE
  5
29D
102
{ACAD_REACTORS
330
566
102
}
330
1F
100
AcDbEntity
  8
実線
100
AcDbLine
 10
534.211216894048
 20
155.3897796669865
 30
0.0
 11
531.111216894048
 21
148.3897796669865
 31
0.0
  0
ARC
  5
29E
102
{ACAD_REACTORS
330
566
102
}
330
1F
100
AcDbEntity
  8
実線
100
AcDbCircle
 10
432.7112168940478
 20
116.6397796669661
 30
0.0
 40
77.5
100
AcDbArc
 50
51.65118538047002
 51
128.34881461953
  0
ARC
  5
29F
102
{ACAD_REACTORS
330
566
102
}
330
1F
100
AcDbEntity
  8
実線
100
AcDbCircle
 10
432.7112168940478
 20
116.6397796669661
 30
0.0
 40
77.5
100
AcDbArc
 50
141.6511853804701
 51
155.8154275977196
  0
ARC
  5
2A0
102
{ACAD_REACTORS
330
566
102
}
330
1F
100
AcDbEntity
  8
実線
100
AcDbCircle
 10
432.7112168940478
 20
116.6397796669661
 30
0.0
 40
77.5
100
AcDbArc
 50
204.1845724022804
 51
218.3488146195299
  0
ARC
  5
2A1
102
{ACAD_REACTORS
330
566
102
}
330
1F
100
AcDbEntity
  8
実線
100
AcDbCircle
 10
432.7112168940478
 20
116.6397796669661
 30
0.0
 40
77.5
100
AcDbArc
 50
231.65118538047
 51
308.3488146195299
  0
ARC
  5
2A2
102
{ACAD_REACTORS
330
566
102
}
330
1F
100
AcDbEntity
  8
実線
100
AcDbCircle
 10
432.7112168940478
 20
116.6397796669661
 30
0.0
 40
77.5
100
AcDbArc
 50
321.6511853804701
 51
335.8154275977342
  0
ARC
  5
2A3
102
{ACAD_REACTORS
330
566
102
}
330
1F
100
AcDbEntity
  8
実線
100
AcDbCircle
 10
432.7112168940478
 20
116.6397796669661
 30
0.0
 40
77.5
100
AcDbArc
 50
24.18457240230084
 51
38.34881461952991
  0
ARC
  5
2A4
102
{ACAD_REACTORS
330
566
102
}
330
1F
100
AcDbEntity
  8
実線
100
AcDbCircle
 10
432.7112168940478
 20
116.6397796669762
 30
0.0
 40
79.99999999999268
100
AcDbArc
 50
133.4958580179449
 51
136.504141982064
  0
ARC
  5
2A5
102
{ACAD_REACTORS
330
566
102
}
330
1F
100
AcDbEntity
  8
実線
100
AcDbCircle
 10
381.931527716209
 20
164.8209291655208
 30
0.0
 40
9.999999999999591
100
AcDbArc
 50
136.5041419820594
 51
214.9999999999974
  0
LINE
  5
2A6
102
{ACAD_REACTORS
330
566
102
}
330
1F
100
AcDbEntity
  8
実線
100
AcDbLine
 10
373.7400072733194
 20
159.0851648020107
 30
0.0
 11
381.2289965689331
 21
148.3897796669661
 31
0.0
  0
LINE
  5
2A7
102
{ACAD_REACTORS
330
566
102
}
330
1F
100
AcDbEntity
  8
実線
100
AcDbLine
 10
405.9012447441065
 20
164.6629552525037
 30
0.0
 11
390.2658317590035
 21
175.610989287695
 31
0.0
  0
ARC
  5
2A8
102
{ACAD_REACTORS
330
566
102
}
330
1F
100
AcDbEntity
  8
実線
100
AcDbCircle
 10
384.530067395493
 20
167.419468844805
 30
0.0
 40
9.999999999999982
100
AcDbArc
 50
55.00000000000272
 51
133.4958580179449
  0
ARC
  5
2A9
102
{ACAD_REACTORS
330
566
102
}
330
1F
100
AcDbEntity
  8
実線
100
AcDbCircle
 10
480.8923663926024
 20
65.86009048912728
 30
0.0
 40
9.999999999999991
100
AcDbArc
 50
235.0000000000027
 51
313.4958580179451
  0
ARC
  5
2AA
102
{ACAD_REACTORS
330
566
102
}
330
1F
100
AcDbEntity
  8
実線
100
AcDbCircle
 10
432.7112168940478
 20
116.6397796669659
 30
0.0
 40
79.99999999999984
100
AcDbArc
 50
313.4958580179451
 51
316.5041419820548
  0
ARC
  5
2AB
102
{ACAD_REACTORS
330
566
102
}
330
1F
100
AcDbEntity
  8
実線
100
AcDbCircle
 10
483.4909060718864
 20
68.45863016841144
 30
0.0
 40
9.999999999999976
100
AcDbArc
 50
316.5041419820548
 51
34.99999999999739
  0
LINE
  5
2AC
102
{ACAD_REACTORS
330
566
102
}
330
1F
100
AcDbEntity
  8
実線
100
AcDbLine
 10
491.6824265147765
 20
74.19439453192189
 30
0.0
 11
484.1934372191481
 21
84.88977966698639
 31
0.0
  0
LINE
  5
2AD
102
{ACAD_REACTORS
330
566
102
}
330
1F
100
AcDbEntity
  8
実線
100
AcDbLine
 10
459.521189043989
 20
68.61660408142859
 30
0.0
 11
475.156602029092
 21
57.66857004623736
 31
0.0
  0
ARC
  5
2AE
102
{ACAD_REACTORS
330
566
102
}
330
1F
100
AcDbEntity
  8
実線
100
AcDbCircle
 10
381.931527716209
 20
68.45863016841144
 30
0.0
 40
9.999999999999996
100
AcDbArc
 50
145.0000000000026
 51
223.4958580179406
  0
ARC
  5
2AF
102
{ACAD_REACTORS
330
566
102
}
330
1F
100
AcDbEntity
  8
実線
100
AcDbCircle
 10
432.7112168940475
 20
116.6397796669659
 30
0.0
 40
79.9999999999998
100
AcDbArc
 50
223.4958580179406
 51
226.5041419820549
  0
ARC
  5
2B0
102
{ACAD_REACTORS
330
566
102
}
330
1F
100
AcDbEntity
  8
実線
100
AcDbCircle
 10
384.530067395493
 20
65.8600904891274
 30
0.0
 40
10.00000000000002
100
AcDbArc
 50
226.5041419820549
 51
304.9999999999973
  0
LINE
  5
2B1
102
{ACAD_REACTORS
330
566
102
}
330
1F
100
AcDbEntity
  8
実線
100
AcDbLine
 10
390.2658317590035
 20
57.66857004623748
 30
0.0
 11
405.9012447441065
 21
68.61660408142859
 31
0.0
  0
LINE
  5
2B2
102
{ACAD_REACTORS
330
566
102
}
330
1F
100
AcDbEntity
  8
実線
100
AcDbLine
 10
381.228996568933
 20
84.88977966696614
 30
0.0
 11
373.7400072733191
 21
74.19439453192194
 31
0.0
  0
ARC
  5
2B3
102
{ACAD_REACTORS
330
566
102
}
330
1F
100
AcDbEntity
  8
実線
100
AcDbCircle
 10
480.8923663926026
 20
167.419468844805
 30
0.0
 40
10.00000000000038
100
AcDbArc
 50
46.50414198205493
 51
124.9999999999973
  0
LINE
  5
2B4
102
{ACAD_REACTORS
330
566
102
}
330
1F
100
AcDbEntity
  8
実線
100
AcDbLine
 10
475.1566020290917
 20
175.6109892876952
 30
0.0
 11
459.521189043989
 21
164.6629552525037
 31
0.0
  0
LINE
  5
2B5
102
{ACAD_REACTORS
330
566
102
}
330
1F
100
AcDbEntity
  8
実線
100
AcDbLine
 10
484.1934372191765
 20
148.3897796669865
 30
0.0
 11
491.6824265147765
 21
159.0851648020103
 31
0.0
  0
ARC
  5
2B6
102
{ACAD_REACTORS
330
566
102
}
330
1F
100
AcDbEntity
  8
実線
100
AcDbCircle
 10
483.4909060718864
 20
164.8209291655208
 30
0.0
 40
10.0
100
AcDbArc
 50
325.0000000000026
 51
43.49585801794059
  0
ARC
  5
2B7
102
{ACAD_REACTORS
330
566
102
}
330
1F
100
AcDbEntity
  8
実線
100
AcDbCircle
 10
432.7112168940471
 20
116.6397796669762
 30
0.0
 40
79.99999999999343
100
AcDbArc
 50
43.49585801793596
 51
46.50414198205493
  0
ARC
  5
2B8
102
{ACAD_REACTORS
330
566
102
}
330
1F
100
AcDbEntity
  8
実線
100
AcDbCircle
 10
432.7112168940478
 20
116.6397796669661
 30
0.0
 40
55.0
100
AcDbArc
 50
206.6374901381771
 51
333.3625098618478
  0
ARC
  5
2B9
102
{ACAD_REACTORS
330
566
102
}
330
1F
100
AcDbEntity
  8
実線
100
AcDbCircle
 10
432.7112168940478
 20
116.6397796669661
 30
0.0
 40
55.0
100
AcDbArc
 50
26.63749013820031
 51
153.3625098618228
  0
LINE
  5
2BC
102
{ACAD_REACTORS
330
5B4
102
}
330
1F
100
AcDbEntity
  8
実線
100
AcDbLine
 10
334.3112168940477
 20
1044.889779666965
 30
0.0
 11
362.0133562474906
 21
1044.889779666965
 31
0.0
  0
LINE
  5
2BD
102
{ACAD_REACTORS
330
5B4
102
}
330
1F
100
AcDbEntity
  8
実線
100
AcDbLine
 10
362.0133562474906
 20
1108.389779666966
 30
0.0
 11
334.3112168940477
 21
1108.389779666966
 31
0.0
  0
LINE
  5
2BE
102
{ACAD_REACTORS
330
5B4
102
}
330
1F
100
AcDbEntity
  8
実線
100
AcDbLine
 10
327.7112168940478
 20
1037.889779666966
 30
0.0
 11
331.2112168940477
 21
1037.889779666966
 31
0.0
  0
LINE
  5
2BF
102
{ACAD_REACTORS
330
5B4
102
}
330
1F
100
AcDbEntity
  8
実線
100
AcDbLine
 10
331.2112168940477
 20
1115.389779666965
 30
0.0
 11
327.7112168940478
 21
1115.389779666965
 31
0.0
  0
LINE
  5
2C0
102
{ACAD_REACTORS
330
5B4
102
}
330
1F
100
AcDbEntity
  8
実線
100
AcDbLine
 10
327.7112168940478
 20
1115.389779666965
 30
0.0
 11
327.7112168940478
 21
1037.889779666966
 31
0.0
  0
LINE
  5
2C1
102
{ACAD_REACTORS
330
5B4
102
}
330
1F
100
AcDbEntity
  8
実線
100
AcDbLine
 10
334.3112168940477
 20
1108.389779666966
 30
0.0
 11
331.2112168940477
 21
1115.389779666965
 31
0.0
  0
LINE
  5
2C2
102
{ACAD_REACTORS
330
5B4
102
}
330
1F
100
AcDbEntity
  8
実線
100
AcDbLine
 10
331.2112168940477
 20
1037.889779666966
 30
0.0
 11
334.3112168940477
 21
1044.889779666965
 31
0.0
  0
LINE
  5
2C3
102
{ACAD_REACTORS
330
5B4
102
}
330
1F
100
AcDbEntity
  8
実線
100
AcDbLine
 10
331.2112168940477
 20
1115.389779666965
 30
0.0
 11
331.2112168940477
 21
1037.889779666966
 31
0.0
  0
LINE
  5
2C4
102
{ACAD_REACTORS
330
5B4
102
}
330
1F
100
AcDbEntity
  8
実線
100
AcDbLine
 10
334.3112168940477
 20
1108.389779666966
 30
0.0
 11
334.3112168940477
 21
1044.889779666965
 31
0.0
  0
LINE
  5
2C5
102
{ACAD_REACTORS
330
5B4
102
}
330
1F
100
AcDbEntity
  8
実線
100
AcDbLine
 10
531.111216894048
 20
1108.389779666945
 30
0.0
 11
503.4090775406139
 21
1108.389779666945
 31
0.0
  0
LINE
  5
2C6
102
{ACAD_REACTORS
330
5B4
102
}
330
1F
100
AcDbEntity
  8
実線
100
AcDbLine
 10
503.4090775405957
 20
1044.889779666945
 30
0.0
 11
531.111216894048
 21
1044.889779666945
 31
0.0
  0
LINE
  5
2C7
102
{ACAD_REACTORS
330
5B4
102
}
330
1F
100
AcDbEntity
  8
実線
100
AcDbLine
 10
531.111216894048
 20
1044.889779666945
 30
0.0
 11
534.211216894048
 21
1037.889779666945
 31
0.0
  0
LINE
  5
2C8
102
{ACAD_REACTORS
330
5B4
102
}
330
1F
100
AcDbEntity
  8
実線
100
AcDbLine
 10
534.211216894048
 20
1115.389779666945
 30
0.0
 11
531.111216894048
 21
1108.389779666945
 31
0.0
  0
LINE
  5
2C9
102
{ACAD_REACTORS
330
5B4
102
}
330
1F
100
AcDbEntity
  8
実線
100
AcDbLine
 10
531.111216894048
 20
1044.889779666945
 30
0.0
 11
531.111216894048
 21
1108.389779666945
 31
0.0
  0
LINE
  5
2CA
102
{ACAD_REACTORS
330
5B4
102
}
330
1F
100
AcDbEntity
  8
実線
100
AcDbLine
 10
537.7112168940478
 20
1115.389779666945
 30
0.0
 11
534.211216894048
 21
1115.389779666945
 31
0.0
  0
LINE
  5
2CB
102
{ACAD_REACTORS
330
5B4
102
}
330
1F
100
AcDbEntity
  8
実線
100
AcDbLine
 10
534.211216894048
 20
1037.889779666945
 30
0.0
 11
537.7112168940478
 21
1037.889779666945
 31
0.0
  0
LINE
  5
2CC
102
{ACAD_REACTORS
330
5B4
102
}
330
1F
100
AcDbEntity
  8
実線
100
AcDbLine
 10
537.7112168940478
 20
1037.889779666945
 30
0.0
 11
537.7112168940478
 21
1115.389779666945
 31
0.0
  0
LINE
  5
2CD
102
{ACAD_REACTORS
330
5B4
102
}
330
1F
100
AcDbEntity
  8
実線
100
AcDbLine
 10
534.211216894048
 20
1037.889779666945
 30
0.0
 11
534.211216894048
 21
1115.389779666945
 31
0.0
  0
CIRCLE
  5
2CE
102
{ACAD_REACTORS
330
5B4
102
}
330
1F
100
AcDbEntity
  8
実線
100
AcDbCircle
 10
432.7112168940478
 20
1076.639779666965
 30
0.0
 40
20.0
  0
LINE
  5
2CF
102
{ACAD_REACTORS
330
5B4
102
}
330
1F
100
AcDbEntity
  8
実線
100
AcDbLine
 10
458.7612168940477
 20
1103.639779666965
 30
0.0
 11
455.7612168940477
 21
1103.639779666965
 31
0.0
  0
LINE
  5
2D0
102
{ACAD_REACTORS
330
5B4
102
}
330
1F
100
AcDbEntity
  8
実線
100
AcDbLine
 10
458.7612168940477
 20
1097.139779666965
 30
0.0
 11
458.7612168940477
 21
1103.639779666965
 31
0.0
  0
LINE
  5
2D1
102
{ACAD_REACTORS
330
5B4
102
}
330
1F
100
AcDbEntity
  8
実線
100
AcDbLine
 10
455.7612168940477
 20
1103.639779666965
 30
0.0
 11
455.7612168940477
 21
1097.139779666965
 31
0.0
  0
LINE
  5
2D2
102
{ACAD_REACTORS
330
5B4
102
}
330
1F
100
AcDbEntity
  8
実線
100
AcDbLine
 10
453.3112168940477
 20
1072.139779666965
 30
0.0
 11
453.3112168940477
 21
1097.139779666965
 31
0.0
  0
LINE
  5
2D3
102
{ACAD_REACTORS
330
5B4
102
}
330
1F
100
AcDbEntity
  8
実線
100
AcDbLine
 10
453.3112168940477
 20
1072.139779666965
 30
0.0
 11
461.2112168940477
 21
1072.139779666965
 31
0.0
  0
LINE
  5
2D4
102
{ACAD_REACTORS
330
5B4
102
}
330
1F
100
AcDbEntity
  8
実線
100
AcDbLine
 10
461.2112168940477
 20
1097.139779666965
 30
0.0
 11
453.3112168940477
 21
1097.139779666965
 31
0.0
  0
LINE
  5
2D5
102
{ACAD_REACTORS
330
5B4
102
}
330
1F
100
AcDbEntity
  8
実線
100
AcDbLine
 10
463.2112168940477
 20
1072.139779666965
 30
0.0
 11
461.2112168940477
 21
1072.139779666965
 31
0.0
  0
LINE
  5
2D6
102
{ACAD_REACTORS
330
5B4
102
}
330
1F
100
AcDbEntity
  8
実線
100
AcDbLine
 10
461.2112168940477
 20
1072.139779666965
 30
0.0
 11
461.2112168940477
 21
1103.639779666966
 31
0.0
  0
LINE
  5
2D7
102
{ACAD_REACTORS
330
5B4
102
}
330
1F
100
AcDbEntity
  8
実線
100
AcDbLine
 10
463.2112168940477
 20
1103.639779666966
 30
0.0
 11
463.2112168940477
 21
1072.139779666965
 31
0.0
  0
LINE
  5
2D8
102
{ACAD_REACTORS
330
5B4
102
}
330
1F
100
AcDbEntity
  8
実線
100
AcDbLine
 10
461.2112168940477
 20
1103.639779666966
 30
0.0
 11
487.2112168940478
 21
1103.639779666966
 31
0.0
  0
LINE
  5
2D9
102
{ACAD_REACTORS
330
5B4
102
}
330
1F
100
AcDbEntity
  8
実線
100
AcDbLine
 10
461.2112168940477
 20
1105.639779666966
 30
0.0
 11
487.2112168940478
 21
1105.639779666966
 31
0.0
  0
LINE
  5
2DA
102
{ACAD_REACTORS
330
5B4
102
}
330
1F
100
AcDbEntity
  8
実線
100
AcDbLine
 10
487.2112168940478
 20
1105.639779666966
 30
0.0
 11
487.2112168940478
 21
1103.639779666966
 31
0.0
  0
LINE
  5
2DB
102
{ACAD_REACTORS
330
5B4
102
}
330
1F
100
AcDbEntity
  8
実線
100
AcDbLine
 10
461.2112168940477
 20
1103.639779666966
 30
0.0
 11
461.2112168940477
 21
1105.639779666966
 31
0.0
  0
CIRCLE
  5
2DC
102
{ACAD_REACTORS
330
5B4
102
}
330
1F
100
AcDbEntity
  8
実線
100
AcDbCircle
 10
432.7112168940478
 20
1076.639779666965
 30
0.0
 40
77.5
  0
ARC
  5
2DD
102
{ACAD_REACTORS
330
5B4
102
}
330
1F
100
AcDbEntity
  8
実線
100
AcDbCircle
 10
384.530067395493
 20
1025.860090489127
 30
0.0
 40
9.999999999999982
100
AcDbArc
 50
226.5041419820549
 51
270.5527676561409
  0
ARC
  5
2DE
102
{ACAD_REACTORS
330
5B4
102
}
330
1F
100
AcDbEntity
  8
実線
100
AcDbCircle
 10
432.7112168940478
 20
1076.639779666955
 30
0.0
 40
79.99999999999268
100
AcDbArc
 50
223.4958580179359
 51
226.5041419820549
  0
ARC
  5
2DF
102
{ACAD_REACTORS
330
5B4
102
}
330
1F
100
AcDbEntity
  8
実線
100
AcDbCircle
 10
381.931527716209
 20
1028.458630168411
 30
0.0
 40
9.999999999999591
100
AcDbArc
 50
179.447232343859
 51
223.4958580179452
  0
ARC
  5
2E0
102
{ACAD_REACTORS
330
5B4
102
}
330
1F
100
AcDbEntity
  8
実線
100
AcDbCircle
 10
384.530067395493
 20
1127.419468844804
 30
0.0
 40
10.00000000000002
100
AcDbArc
 50
89.44723234385907
 51
133.4958580179451
  0
ARC
  5
2E1
102
{ACAD_REACTORS
330
5B4
102
}
330
1F
100
AcDbEntity
  8
実線
100
AcDbCircle
 10
432.7112168940475
 20
1076.639779666966
 30
0.0
 40
79.9999999999998
100
AcDbArc
 50
133.4958580179451
 51
136.5041419820548
  0
ARC
  5
2E2
102
{ACAD_REACTORS
330
5B4
102
}
330
1F
100
AcDbEntity
  8
実線
100
AcDbCircle
 10
381.931527716209
 20
1124.82092916552
 30
0.0
 40
9.999999999999996
100
AcDbArc
 50
136.5041419820548
 51
180.5527676561409
  0
ARC
  5
2E3
102
{ACAD_REACTORS
330
5B4
102
}
330
1F
100
AcDbEntity
  8
実線
100
AcDbCircle
 10
483.4909060718864
 20
1124.82092916552
 30
0.0
 40
9.999999999999976
100
AcDbArc
 50
359.4472323438591
 51
43.49585801794519
  0
ARC
  5
2E4
102
{ACAD_REACTORS
330
5B4
102
}
330
1F
100
AcDbEntity
  8
実線
100
AcDbCircle
 10
432.7112168940478
 20
1076.639779666966
 30
0.0
 40
79.99999999999984
100
AcDbArc
 50
43.49585801794519
 51
46.50414198205493
  0
ARC
  5
2E5
102
{ACAD_REACTORS
330
5B4
102
}
330
1F
100
AcDbEntity
  8
実線
100
AcDbCircle
 10
480.8923663926024
 20
1127.419468844804
 30
0.0
 40
9.999999999999991
100
AcDbArc
 50
46.50414198205493
 51
90.55276765614094
  0
ARC
  5
2E6
102
{ACAD_REACTORS
330
5B4
102
}
330
1F
100
AcDbEntity
  8
実線
100
AcDbCircle
 10
480.8923663926026
 20
1025.860090489127
 30
0.0
 40
10.00000000000038
100
AcDbArc
 50
269.4472323438525
 51
313.4958580179451
  0
ARC
  5
2E7
102
{ACAD_REACTORS
330
5B4
102
}
330
1F
100
AcDbEntity
  8
実線
100
AcDbCircle
 10
432.7112168940471
 20
1076.639779666955
 30
0.0
 40
79.99999999999343
100
AcDbArc
 50
313.4958580179451
 51
316.5041419820641
  0
ARC
  5
2E8
102
{ACAD_REACTORS
330
5B4
102
}
330
1F
100
AcDbEntity
  8
実線
100
AcDbCircle
 10
483.4909060718864
 20
1028.458630168411
 30
0.0
 40
10.0
100
AcDbArc
 50
316.5041419820548
 51
0.5527676561409212
  0
CIRCLE
  5
2EB
102
{ACAD_REACTORS
330
5B4
102
}
330
1F
100
AcDbEntity
  8
実線
100
AcDbCircle
 10
466.2112168940478
 20
1094.139779666966
 30
0.0
 40
2.75
  0
CIRCLE
  5
2EE
102
{ACAD_REACTORS
330
5B4
102
}
330
1F
100
AcDbEntity
  8
実線
100
AcDbCircle
 10
486.2112168940477
 20
1094.139779666966
 30
0.0
 40
2.75
  0
LINE
  5
2EF
102
{ACAD_REACTORS
330
5B4
102
}
330
1F
100
AcDbEntity
  8
実線
100
AcDbLine
 10
493.7112168940477
 20
1086.639779666965
 30
0.0
 11
463.2112168940477
 21
1086.639779666965
 31
0.0
  0
LINE
  5
2F0
102
{ACAD_REACTORS
330
5B4
102
}
330
1F
100
AcDbEntity
  8
実線
100
AcDbLine
 10
493.7112168940477
 20
1103.639779666966
 30
0.0
 11
493.7112168940477
 21
1086.639779666965
 31
0.0
  0
LINE
  5
2F1
102
{ACAD_REACTORS
330
5B4
102
}
330
1F
100
AcDbEntity
  8
実線
100
AcDbLine
 10
487.2112168940478
 20
1103.639779666966
 30
0.0
 11
493.7112168940477
 21
1103.639779666966
 31
0.0
  0
LINE
  5
2F2
102
{ACAD_REACTORS
330
5B4
102
}
330
1F
100
AcDbEntity
  8
実線
100
AcDbLine
 10
458.7612168940477
 20
1103.639779666966
 30
0.0
 11
461.2112168940477
 21
1103.639779666966
 31
0.0
  0
LINE
  5
2F3
102
{ACAD_REACTORS
330
562
102
}
330
1F
100
AcDbEntity
  8
実線
100
AcDbLine
 10
1015.411216894048
 20
848.6397796669661
 30
0.0
 11
1050.011216894048
 21
848.6397796669661
 31
0.0
  0
LINE
  5
2F4
102
{ACAD_REACTORS
330
562
102
}
330
1F
100
AcDbEntity
  8
実線
100
AcDbLine
 10
1050.011216894048
 20
836.6397796669662
 30
0.0
 11
1050.011216894048
 21
848.6397796669661
 31
0.0
  0
LINE
  5
2F5
102
{ACAD_REACTORS
330
562
102
}
330
1F
100
AcDbEntity
  8
実線
100
AcDbLine
 10
1015.411216894048
 20
848.6397796669661
 30
0.0
 11
1015.411216894048
 21
836.6397796669662
 31
0.0
  0
LINE
  5
2F6
102
{ACAD_REACTORS
330
562
102
}
330
1F
100
AcDbEntity
  8
実線
100
AcDbLine
 10
1050.011216894048
 20
836.6397796669662
 30
0.0
 11
1015.411216894048
 21
836.6397796669662
 31
0.0
  0
LINE
  5
2F7
102
{ACAD_REACTORS
330
562
102
}
330
1F
100
AcDbEntity
  8
実線
100
AcDbLine
 10
1042.711216894048
 20
848.6397796669661
 30
0.0
 11
1042.711216894048
 21
871.1397796669661
 31
0.0
  0
LINE
  5
2F8
102
{ACAD_REACTORS
330
562
102
}
330
1F
100
AcDbEntity
  8
実線
100
AcDbLine
 10
1022.711216894047
 20
871.1397796669661
 30
0.0
 11
1022.711216894047
 21
848.6397796669661
 31
0.0
  0
LINE
  5
2F9
102
{ACAD_REACTORS
330
562
102
}
330
1F
100
AcDbEntity
  8
実線
100
AcDbLine
 10
1064.461216894048
 20
318.2397796669662
 30
0.0
 11
1064.461216894048
 21
380.6397796669661
 31
0.0
  0
LINE
  5
2FA
102
{ACAD_REACTORS
330
562
102
}
330
1F
100
AcDbEntity
  8
実線
100
AcDbLine
 10
1000.961216894048
 20
380.6397796669664
 30
0.0
 11
1000.961216894048
 21
318.2397796669662
 31
0.0
  0
LINE
  5
2FB
102
{ACAD_REACTORS
330
562
102
}
330
1F
100
AcDbEntity
  8
実線
100
AcDbLine
 10
993.9612168940479
 20
311.6397796669664
 30
0.0
 11
1071.461216894048
 21
311.6397796669664
 31
0.0
  0
LINE
  5
2FC
102
{ACAD_REACTORS
330
562
102
}
330
1F
100
AcDbEntity
  8
実線
100
AcDbLine
 10
1071.461216894048
 20
311.6397796669664
 30
0.0
 11
1071.461216894048
 21
315.1397796669664
 31
0.0
  0
LINE
  5
2FD
102
{ACAD_REACTORS
330
562
102
}
330
1F
100
AcDbEntity
  8
実線
100
AcDbLine
 10
993.9612168940479
 20
315.1397796669664
 30
0.0
 11
993.9612168940479
 21
311.6397796669664
 31
0.0
  0
LINE
  5
2FE
102
{ACAD_REACTORS
330
562
102
}
330
1F
100
AcDbEntity
  8
実線
100
AcDbLine
 10
993.9612168940479
 20
315.1397796669664
 30
0.0
 11
1071.461216894048
 21
315.1397796669664
 31
0.0
  0
LINE
  5
2FF
102
{ACAD_REACTORS
330
562
102
}
330
1F
100
AcDbEntity
  8
実線
100
AcDbLine
 10
1000.961216894048
 20
318.2397796669662
 30
0.0
 11
1064.461216894048
 21
318.2397796669662
 31
0.0
  0
LINE
  5
300
102
{ACAD_REACTORS
330
562
102
}
330
1F
100
AcDbEntity
  8
実線
100
AcDbLine
 10
1000.961216894048
 20
318.2397796669662
 30
0.0
 11
993.9612168940479
 21
315.1397796669664
 31
0.0
  0
LINE
  5
301
102
{ACAD_REACTORS
330
562
102
}
330
1F
100
AcDbEntity
  8
実線
100
AcDbLine
 10
1071.461216894048
 20
315.1397796669664
 30
0.0
 11
1064.461216894048
 21
318.2397796669662
 31
0.0
  0
LINE
  5
302
102
{ACAD_REACTORS
330
562
102
}
330
1F
100
AcDbEntity
  8
実線
100
AcDbLine
 10
1131.111216894048
 20
448.3897796669662
 30
0.0
 11
1093.490906071886
 21
448.3897796669662
 31
0.0
  0
LINE
  5
303
102
{ACAD_REACTORS
330
562
102
}
330
1F
100
AcDbEntity
  8
実線
100
AcDbLine
 10
1082.571120208534
 20
384.8897796669662
 30
0.0
 11
1131.111216894048
 21
384.8897796669662
 31
0.0
  0
LINE
  5
304
102
{ACAD_REACTORS
330
562
102
}
330
1F
100
AcDbEntity
  8
実線
100
AcDbLine
 10
1131.111216894048
 20
384.8897796669662
 30
0.0
 11
1131.111216894048
 21
448.3897796669662
 31
0.0
  0
LINE
  5
305
102
{ACAD_REACTORS
330
562
102
}
330
1F
100
AcDbEntity
  8
実線
100
AcDbLine
 10
1131.111216894048
 20
384.8897796669662
 30
0.0
 11
1134.211216894048
 21
377.8897796669662
 31
0.0
  0
LINE
  5
306
102
{ACAD_REACTORS
330
562
102
}
330
1F
100
AcDbEntity
  8
実線
100
AcDbLine
 10
1134.211216894048
 20
455.3897796669664
 30
0.0
 11
1131.111216894048
 21
448.3897796669662
 31
0.0
  0
LINE
  5
307
102
{ACAD_REACTORS
330
562
102
}
330
1F
100
AcDbEntity
  8
実線
100
AcDbLine
 10
1137.711216894048
 20
377.8897796669662
 30
0.0
 11
1137.711216894048
 21
455.3897796669664
 31
0.0
  0
LINE
  5
308
102
{ACAD_REACTORS
330
562
102
}
330
1F
100
AcDbEntity
  8
実線
100
AcDbLine
 10
1134.211216894048
 20
377.8897796669662
 30
0.0
 11
1134.211216894048
 21
455.3897796669664
 31
0.0
  0
LINE
  5
309
102
{ACAD_REACTORS
330
562
102
}
330
1F
100
AcDbEntity
  8
実線
100
AcDbLine
 10
1137.711216894048
 20
455.3897796669664
 30
0.0
 11
1134.211216894048
 21
455.3897796669664
 31
0.0
  0
LINE
  5
30A
102
{ACAD_REACTORS
330
562
102
}
330
1F
100
AcDbEntity
  8
実線
100
AcDbLine
 10
1134.211216894048
 20
377.8897796669662
 30
0.0
 11
1137.711216894048
 21
377.8897796669662
 31
0.0
  0
LINE
  5
30B
102
{ACAD_REACTORS
330
562
102
}
330
1F
100
AcDbEntity
  8
実線
100
AcDbLine
 10
934.3112168940468
 20
384.8897796669662
 30
0.0
 11
982.851313579561
 21
384.8897796669662
 31
0.0
  0
LINE
  5
30C
102
{ACAD_REACTORS
330
562
102
}
330
1F
100
AcDbEntity
  8
実線
100
AcDbLine
 10
971.9315277162088
 20
448.3897796669662
 30
0.0
 11
934.3112168940468
 21
448.3897796669662
 31
0.0
  0
LINE
  5
30D
102
{ACAD_REACTORS
330
562
102
}
330
1F
100
AcDbEntity
  8
実線
100
AcDbLine
 10
927.7112168940469
 20
377.8897796669662
 30
0.0
 11
931.2112168940469
 21
377.8897796669662
 31
0.0
  0
LINE
  5
30E
102
{ACAD_REACTORS
330
562
102
}
330
1F
100
AcDbEntity
  8
実線
100
AcDbLine
 10
931.2112168940469
 20
455.3897796669664
 30
0.0
 11
927.7112168940469
 21
455.3897796669664
 31
0.0
  0
LINE
  5
30F
102
{ACAD_REACTORS
330
562
102
}
330
1F
100
AcDbEntity
  8
実線
100
AcDbLine
 10
927.7112168940469
 20
377.8897796669662
 30
0.0
 11
927.7112168940469
 21
455.3897796669664
 31
0.0
  0
LINE
  5
310
102
{ACAD_REACTORS
330
562
102
}
330
1F
100
AcDbEntity
  8
実線
100
AcDbLine
 10
934.3112168940468
 20
448.3897796669662
 30
0.0
 11
931.2112168940469
 21
455.3897796669664
 31
0.0
  0
LINE
  5
311
102
{ACAD_REACTORS
330
562
102
}
330
1F
100
AcDbEntity
  8
実線
100
AcDbLine
 10
931.2112168940469
 20
377.8897796669662
 30
0.0
 11
934.3112168940468
 21
384.8897796669662
 31
0.0
  0
LINE
  5
312
102
{ACAD_REACTORS
330
562
102
}
330
1F
100
AcDbEntity
  8
実線
100
AcDbLine
 10
931.2112168940469
 20
455.3897796669664
 30
0.0
 11
931.2112168940469
 21
377.8897796669662
 31
0.0
  0
LINE
  5
313
102
{ACAD_REACTORS
330
562
102
}
330
1F
100
AcDbEntity
  8
実線
100
AcDbLine
 10
934.3112168940468
 20
448.3897796669662
 30
0.0
 11
934.3112168940468
 21
384.8897796669662
 31
0.0
  0
LINE
  5
314
102
{ACAD_REACTORS
330
562
102
}
330
1F
100
AcDbEntity
  8
実線
100
AcDbLine
 10
1087.711216894048
 20
477.1397796669664
 30
0.0
 11
1087.711216894048
 21
714.6397796669661
 31
0.0
  0
LINE
  5
315
102
{ACAD_REACTORS
330
562
102
}
330
1F
100
AcDbEntity
  8
実線
100
AcDbLine
 10
977.711216894048
 20
714.6397796669661
 30
0.0
 11
977.711216894048
 21
477.1397796669664
 31
0.0
  0
LINE
  5
316
102
{ACAD_REACTORS
330
562
102
}
330
1F
100
AcDbEntity
  8
実線
100
AcDbLine
 10
1087.711216894048
 20
477.1397796669664
 30
0.0
 11
977.711216894048
 21
477.1397796669664
 31
0.0
  0
LINE
  5
317
102
{ACAD_REACTORS
330
562
102
}
330
1F
100
AcDbEntity
  8
実線
100
AcDbLine
 10
1012.711216894048
 20
888.1397796669661
 30
0.0
 11
1052.711216894048
 21
888.1397796669661
 31
0.0
  0
LINE
  5
318
102
{ACAD_REACTORS
330
562
102
}
330
1F
100
AcDbEntity
  8
実線
100
AcDbLine
 10
1052.711216894048
 20
878.1397796669661
 30
0.0
 11
1052.711216894048
 21
888.1397796669661
 31
0.0
  0
LINE
  5
319
102
{ACAD_REACTORS
330
562
102
}
330
1F
100
AcDbEntity
  8
実線
100
AcDbLine
 10
1012.711216894048
 20
888.1397796669661
 30
0.0
 11
1012.711216894048
 21
878.1397796669661
 31
0.0
  0
LINE
  5
31A
102
{ACAD_REACTORS
330
562
102
}
330
1F
100
AcDbEntity
  8
実線
100
AcDbLine
 10
1052.711216894048
 20
878.1397796669661
 30
0.0
 11
1012.711216894048
 21
878.1397796669661
 31
0.0
  0
LINE
  5
31B
102
{ACAD_REACTORS
330
562
102
}
330
1F
100
AcDbEntity
  8
実線
100
AcDbLine
 10
1045.711216894048
 20
871.1397796669661
 30
0.0
 11
1045.711216894048
 21
878.1397796669661
 31
0.0
  0
LINE
  5
31C
102
{ACAD_REACTORS
330
562
102
}
330
1F
100
AcDbEntity
  8
実線
100
AcDbLine
 10
1019.711216894048
 20
878.1397796669661
 30
0.0
 11
1019.711216894048
 21
871.1397796669661
 31
0.0
  0
LINE
  5
31D
102
{ACAD_REACTORS
330
562
102
}
330
1F
100
AcDbEntity
  8
実線
100
AcDbLine
 10
1045.711216894048
 20
871.1397796669661
 30
0.0
 11
1019.711216894048
 21
871.1397796669661
 31
0.0
  0
CIRCLE
  5
31E
102
{ACAD_REACTORS
330
562
102
}
330
1F
100
AcDbEntity
  8
実線
100
AcDbCircle
 10
1008.161216894048
 20
888.5397796669662
 30
0.0
 40
1.5
  0
LINE
  5
31F
102
{ACAD_REACTORS
330
562
102
}
330
1F
100
AcDbEntity
  8
実線
100
AcDbLine
 10
1012.111216894048
 20
884.589779666966
 30
0.0
 11
1004.211216894048
 21
884.589779666966
 31
0.0
  0
LINE
  5
320
102
{ACAD_REACTORS
330
562
102
}
330
1F
100
AcDbEntity
  8
実線
100
AcDbLine
 10
1012.111216894048
 20
892.4897796669661
 30
0.0
 11
1012.111216894048
 21
884.589779666966
 31
0.0
  0
LINE
  5
321
102
{ACAD_REACTORS
330
562
102
}
330
1F
100
AcDbEntity
  8
実線
100
AcDbLine
 10
1004.211216894048
 20
892.4897796669661
 30
0.0
 11
1012.111216894048
 21
892.4897796669661
 31
0.0
  0
CIRCLE
  5
322
102
{ACAD_REACTORS
330
562
102
}
330
1F
100
AcDbEntity
  8
実線
100
AcDbCircle
 10
1008.161216894048
 20
862.9397796669659
 30
0.0
 40
1.5
  0
LINE
  5
323
102
{ACAD_REACTORS
330
562
102
}
330
1F
100
AcDbEntity
  8
実線
100
AcDbLine
 10
1012.111216894048
 20
858.989779666966
 30
0.0
 11
1004.211216894048
 21
858.989779666966
 31
0.0
  0
LINE
  5
324
102
{ACAD_REACTORS
330
562
102
}
330
1F
100
AcDbEntity
  8
実線
100
AcDbLine
 10
1012.111216894048
 20
866.8897796669662
 30
0.0
 11
1012.111216894048
 21
858.989779666966
 31
0.0
  0
LINE
  5
325
102
{ACAD_REACTORS
330
562
102
}
330
1F
100
AcDbEntity
  8
実線
100
AcDbLine
 10
1004.211216894048
 20
866.8897796669662
 30
0.0
 11
1012.111216894048
 21
866.8897796669662
 31
0.0
  0
LINE
  5
326
102
{ACAD_REACTORS
330
562
102
}
330
1F
100
AcDbEntity
  8
実線
100
AcDbLine
 10
1004.211216894048
 20
800.6397796669659
 30
0.0
 11
1004.211216894048
 21
900.6397796669661
 31
0.0
  0
LINE
  5
327
102
{ACAD_REACTORS
330
562
102
}
330
1F
100
AcDbEntity
  8
実線
100
AcDbLine
 10
1004.211216894048
 20
900.6397796669661
 30
0.0
 11
978.211216894048
 21
900.6397796669661
 31
0.0
  0
LINE
  5
328
102
{ACAD_REACTORS
330
562
102
}
330
1F
100
AcDbEntity
  8
実線
100
AcDbLine
 10
978.211216894048
 20
800.6397796669659
 30
0.0
 11
978.211216894048
 21
900.6397796669661
 31
0.0
  0
LINE
  5
329
102
{ACAD_REACTORS
330
562
102
}
330
1F
100
AcDbEntity
  8
実線
100
AcDbLine
 10
955.211216894048
 20
723.6397796669664
 30
0.0
 11
1110.211216894048
 21
723.6397796669664
 31
0.0
  0
LINE
  5
32A
102
{ACAD_REACTORS
330
562
102
}
330
1F
100
AcDbEntity
  8
実線
100
AcDbLine
 10
1110.211216894048
 20
714.6397796669661
 30
0.0
 11
1110.211216894048
 21
723.6397796669664
 31
0.0
  0
LINE
  5
32B
102
{ACAD_REACTORS
330
562
102
}
330
1F
100
AcDbEntity
  8
実線
100
AcDbLine
 10
955.211216894048
 20
723.6397796669664
 30
0.0
 11
955.211216894048
 21
714.6397796669661
 31
0.0
  0
LINE
  5
32C
102
{ACAD_REACTORS
330
562
102
}
330
1F
100
AcDbEntity
  8
実線
100
AcDbLine
 10
1110.211216894048
 20
714.6397796669661
 30
0.0
 11
955.211216894048
 21
714.6397796669661
 31
0.0
  0
LINE
  5
32D
102
{ACAD_REACTORS
330
562
102
}
330
1F
100
AcDbEntity
  8
実線
100
AcDbLine
 10
1110.211216894048
 20
723.6397796669664
 30
0.0
 11
1110.211216894048
 21
795.639779666966
 31
0.0
  0
LINE
  5
32E
102
{ACAD_REACTORS
330
562
102
}
330
1F
100
AcDbEntity
  8
実線
100
AcDbLine
 10
955.211216894048
 20
795.639779666966
 30
0.0
 11
955.211216894048
 21
723.6397796669664
 31
0.0
  0
LINE
  5
32F
102
{ACAD_REACTORS
330
562
102
}
330
1F
100
AcDbEntity
  8
実線
100
AcDbLine
 10
1012.711216894048
 20
824.6397796669661
 30
0.0
 11
1052.711216894048
 21
824.6397796669661
 31
0.0
  0
LINE
  5
330
102
{ACAD_REACTORS
330
562
102
}
330
1F
100
AcDbEntity
  8
実線
100
AcDbLine
 10
1052.711216894048
 20
800.6397796669661
 30
0.0
 11
1052.711216894048
 21
824.6397796669661
 31
0.0
  0
LINE
  5
331
102
{ACAD_REACTORS
330
562
102
}
330
1F
100
AcDbEntity
  8
実線
100
AcDbLine
 10
1012.711216894048
 20
824.6397796669661
 30
0.0
 11
1012.711216894048
 21
800.6397796669661
 31
0.0
  0
LINE
  5
332
102
{ACAD_REACTORS
330
562
102
}
330
1F
100
AcDbEntity
  8
実線
100
AcDbLine
 10
1050.011216894048
 20
824.6397796669661
 30
0.0
 11
1050.011216894048
 21
836.6397796669662
 31
0.0
  0
LINE
  5
333
102
{ACAD_REACTORS
330
562
102
}
330
1F
100
AcDbEntity
  8
実線
100
AcDbLine
 10
1015.411216894048
 20
836.6397796669662
 30
0.0
 11
1015.411216894048
 21
824.6397796669661
 31
0.0
  0
LINE
  5
334
102
{ACAD_REACTORS
330
562
102
}
330
1F
100
AcDbEntity
  8
実線
100
AcDbLine
 10
960.2112168940468
 20
800.6397796669661
 30
0.0
 11
1105.211216894048
 21
800.6397796669661
 31
0.0
  0
LINE
  5
335
102
{ACAD_REACTORS
330
562
102
}
330
1F
100
AcDbEntity
  8
実線
100
AcDbLine
 10
955.211216894048
 20
795.639779666966
 30
0.0
 11
1110.211216894048
 21
795.639779666966
 31
0.0
  0
ARC
  5
336
102
{ACAD_REACTORS
330
562
102
}
330
1F
100
AcDbEntity
  8
実線
100
AcDbCircle
 10
1105.211216894048
 20
795.639779666966
 30
0.0
 40
5.0
100
AcDbArc
 50
0.0
 51
90.0
  0
ARC
  5
337
102
{ACAD_REACTORS
330
562
102
}
330
1F
100
AcDbEntity
  8
実線
100
AcDbCircle
 10
960.2112168940468
 20
795.639779666966
 30
0.0
 40
5.0
100
AcDbArc
 50
90.0
 51
180.0
  0
LINE
  5
338
102
{ACAD_REACTORS
330
562
102
}
330
1F
100
AcDbEntity
  8
実線
100
AcDbLine
 10
1087.711216894048
 20
474.1397796669664
 30
0.0
 11
1087.711216894048
 21
477.1397796669664
 31
0.0
  0
LINE
  5
339
102
{ACAD_REACTORS
330
562
102
}
330
1F
100
AcDbEntity
  8
実線
100
AcDbLine
 10
977.711216894048
 20
477.1397796669664
 30
0.0
 11
977.711216894048
 21
474.1397796669664
 31
0.0
  0
LINE
  5
33A
102
{ACAD_REACTORS
330
562
102
}
330
1F
100
AcDbEntity
  8
実線
100
AcDbLine
 10
1093.490906071886
 20
457.1397796669664
 30
0.0
 11
1093.490906071886
 21
474.1397796669664
 31
0.0
  0
LINE
  5
33B
102
{ACAD_REACTORS
330
562
102
}
330
1F
100
AcDbEntity
  8
実線
100
AcDbLine
 10
1093.490906071886
 20
474.1397796669664
 30
0.0
 11
1059.521189043988
 21
474.1397796669664
 31
0.0
  0
LINE
  5
33C
102
{ACAD_REACTORS
330
562
102
}
330
1F
100
AcDbEntity
  8
実線
100
AcDbLine
 10
971.9315277162088
 20
474.1397796669664
 30
0.0
 11
1005.901244744107
 21
474.1397796669664
 31
0.0
  0
LINE
  5
33D
102
{ACAD_REACTORS
330
562
102
}
330
1F
100
AcDbEntity
  8
実線
100
AcDbLine
 10
971.9315277162088
 20
474.1397796669664
 30
0.0
 11
971.9315277162088
 21
457.1397796669664
 31
0.0
  0
LINE
  5
33E
102
{ACAD_REACTORS
330
562
102
}
330
1F
100
AcDbEntity
  8
実線
100
AcDbLine
 10
1059.521189043988
 20
457.1397796669664
 30
0.0
 11
1059.521189043988
 21
474.1397796669664
 31
0.0
  0
LINE
  5
33F
102
{ACAD_REACTORS
330
562
102
}
330
1F
100
AcDbEntity
  8
実線
100
AcDbLine
 10
1005.901244744107
 20
457.1397796669664
 30
0.0
 11
1005.901244744107
 21
474.1397796669664
 31
0.0
  0
LINE
  5
340
102
{ACAD_REACTORS
330
562
102
}
330
1F
100
AcDbEntity
  8
実線
100
AcDbLine
 10
971.9315277162088
 20
457.1397796669664
 30
0.0
 11
1093.490906071886
 21
457.1397796669664
 31
0.0
  0
LINE
  5
341
102
{ACAD_REACTORS
330
562
102
}
330
1F
100
AcDbEntity
  8
実線
100
AcDbLine
 10
1071.711216894048
 20
380.6397796669664
 30
0.0
 11
993.711216894048
 21
380.6397796669664
 31
0.0
  0
ARC
  5
342
102
{ACAD_REACTORS
330
562
102
}
330
1F
100
AcDbEntity
  8
実線
100
AcDbCircle
 10
993.711216894048
 20
396.6397796669662
 30
0.0
 40
16.0
100
AcDbArc
 50
227.2544307753403
 51
270.0
  0
ARC
  5
343
102
{ACAD_REACTORS
330
562
102
}
330
1F
100
AcDbEntity
  8
実線
100
AcDbCircle
 10
1071.711216894048
 20
396.6397796669662
 30
0.0
 40
16.0
100
AcDbArc
 50
270.0
 51
312.7455692246596
  0
LINE
  5
344
102
{ACAD_REACTORS
330
562
102
}
330
1F
100
AcDbEntity
  8
実線
100
AcDbLine
 10
1093.490906071886
 20
442.1397796669662
 30
0.0
 11
1093.490906071886
 21
457.1397796669664
 31
0.0
  0
LINE
  5
345
102
{ACAD_REACTORS
330
562
102
}
330
1F
100
AcDbEntity
  8
実線
100
AcDbLine
 10
1093.490906071886
 20
442.1397796669662
 30
0.0
 11
1059.521189043988
 21
442.1397796669662
 31
0.0
  0
LINE
  5
346
102
{ACAD_REACTORS
330
562
102
}
330
1F
100
AcDbEntity
  8
実線
100
AcDbLine
 10
971.9315277162088
 20
442.1397796669662
 30
0.0
 11
1005.901244744107
 21
442.1397796669662
 31
0.0
  0
LINE
  5
347
102
{ACAD_REACTORS
330
562
102
}
330
1F
100
AcDbEntity
  8
実線
100
AcDbLine
 10
971.9315277162088
 20
457.1397796669664
 30
0.0
 11
971.9315277162088
 21
442.1397796669662
 31
0.0
  0
LINE
  5
348
102
{ACAD_REACTORS
330
562
102
}
330
1F
100
AcDbEntity
  8
実線
100
AcDbLine
 10
1059.521189043988
 20
442.1397796669662
 30
0.0
 11
1059.521189043988
 21
457.1397796669664
 31
0.0
  0
LINE
  5
349
102
{ACAD_REACTORS
330
562
102
}
330
1F
100
AcDbEntity
  8
実線
100
AcDbLine
 10
1005.901244744107
 20
442.1397796669662
 30
0.0
 11
1005.901244744107
 21
457.1397796669664
 31
0.0
  0
LINE
  5
34A
102
{ACAD_REACTORS
330
562
102
}
330
1F
100
AcDbEntity
  8
実線
100
AcDbLine
 10
1006.711216894048
 20
800.6397796669659
 30
0.0
 11
1006.711216894048
 21
802.6397796669661
 31
0.0
  0
LINE
  5
34B
102
{ACAD_REACTORS
330
562
102
}
330
1F
100
AcDbEntity
  8
実線
100
AcDbLine
 10
978.211216894048
 20
802.6397796669661
 30
0.0
 11
971.7112168940479
 21
802.6397796669661
 31
0.0
  0
LINE
  5
34C
102
{ACAD_REACTORS
330
562
102
}
330
1F
100
AcDbEntity
  8
実線
100
AcDbLine
 10
1006.711216894048
 20
802.6397796669661
 30
0.0
 11
1004.211216894048
 21
802.6397796669661
 31
0.0
  0
LINE
  5
34D
102
{ACAD_REACTORS
330
562
102
}
330
1F
100
AcDbEntity
  8
実線
100
AcDbLine
 10
971.7112168940479
 20
800.6397796669659
 30
0.0
 11
971.7112168940479
 21
802.6397796669661
 31
0.0
  0
LINE
  5
34E
102
{ACAD_REACTORS
330
563
102
}
330
1F
100
AcDbEntity
  8
実線
100
AcDbLine
 10
728.2112168940478
 20
848.6397796669661
 30
0.0
 11
715.4112168940478
 21
848.6397796669661
 31
0.0
  0
LINE
  5
34F
102
{ACAD_REACTORS
330
563
102
}
330
1F
100
AcDbEntity
  8
実線
100
AcDbLine
 10
750.0112168940477
 20
836.6397796669662
 30
0.0
 11
750.0112168940477
 21
845.6397796669662
 31
0.0
  0
LINE
  5
350
102
{ACAD_REACTORS
330
563
102
}
330
1F
100
AcDbEntity
  8
実線
100
AcDbLine
 10
715.4112168940478
 20
848.6397796669661
 30
0.0
 11
715.4112168940478
 21
836.6397796669662
 31
0.0
  0
LINE
  5
351
102
{ACAD_REACTORS
330
563
102
}
330
1F
100
AcDbEntity
  8
実線
100
AcDbLine
 10
722.7112168940477
 20
871.1397796669661
 30
0.0
 11
722.7112168940477
 21
848.6397796669661
 31
0.0
  0
LINE
  5
352
102
{ACAD_REACTORS
330
563
102
}
330
1F
100
AcDbEntity
  8
実線
100
AcDbLine
 10
764.4612168940478
 20
318.2397796669662
 30
0.0
 11
764.4612168940478
 21
380.6397796669661
 31
0.0
  0
LINE
  5
353
102
{ACAD_REACTORS
330
563
102
}
330
1F
100
AcDbEntity
  8
実線
100
AcDbLine
 10
700.9612168940478
 20
380.6397796669664
 30
0.0
 11
700.9612168940478
 21
318.2397796669662
 31
0.0
  0
LINE
  5
354
102
{ACAD_REACTORS
330
563
102
}
330
1F
100
AcDbEntity
  8
実線
100
AcDbLine
 10
771.4612168940477
 20
311.6397796669664
 30
0.0
 11
693.9612168940477
 21
311.6397796669664
 31
0.0
  0
LINE
  5
355
102
{ACAD_REACTORS
330
563
102
}
330
1F
100
AcDbEntity
  8
実線
100
AcDbLine
 10
771.4612168940477
 20
311.6397796669664
 30
0.0
 11
771.4612168940477
 21
315.1397796669664
 31
0.0
  0
LINE
  5
356
102
{ACAD_REACTORS
330
563
102
}
330
1F
100
AcDbEntity
  8
実線
100
AcDbLine
 10
693.9612168940477
 20
315.1397796669664
 30
0.0
 11
693.9612168940477
 21
311.6397796669664
 31
0.0
  0
LINE
  5
357
102
{ACAD_REACTORS
330
563
102
}
330
1F
100
AcDbEntity
  8
実線
100
AcDbLine
 10
771.4612168940477
 20
315.1397796669664
 30
0.0
 11
693.9612168940477
 21
315.1397796669664
 31
0.0
  0
LINE
  5
358
102
{ACAD_REACTORS
330
563
102
}
330
1F
100
AcDbEntity
  8
実線
100
AcDbLine
 10
764.4612168940478
 20
318.2397796669662
 30
0.0
 11
700.9612168940478
 21
318.2397796669662
 31
0.0
  0
LINE
  5
359
102
{ACAD_REACTORS
330
563
102
}
330
1F
100
AcDbEntity
  8
実線
100
AcDbLine
 10
700.9612168940478
 20
318.2397796669662
 30
0.0
 11
693.9612168940477
 21
315.1397796669664
 31
0.0
  0
LINE
  5
35A
102
{ACAD_REACTORS
330
563
102
}
330
1F
100
AcDbEntity
  8
実線
100
AcDbLine
 10
771.4612168940477
 20
315.1397796669664
 30
0.0
 11
764.4612168940478
 21
318.2397796669662
 31
0.0
  0
CIRCLE
  5
35B
102
{ACAD_REACTORS
330
563
102
}
330
1F
100
AcDbEntity
  8
実線
100
AcDbCircle
 10
732.7112168940277
 20
416.6397796669661
 30
0.0
 40
38.75
  0
LINE
  5
35C
102
{ACAD_REACTORS
330
563
102
}
330
1F
100
AcDbEntity
  8
実線
100
AcDbLine
 10
677.7112168940477
 20
477.1397796669664
 30
0.0
 11
787.7112168940477
 21
477.1397796669664
 31
0.0
  0
LINE
  5
35D
102
{ACAD_REACTORS
330
563
102
}
330
1F
100
AcDbEntity
  8
実線
100
AcDbLine
 10
787.7112168940477
 20
477.1397796669664
 30
0.0
 11
787.7112168940477
 21
714.6397796669661
 31
0.0
  0
LINE
  5
35E
102
{ACAD_REACTORS
330
563
102
}
330
1F
100
AcDbEntity
  8
実線
100
AcDbLine
 10
677.7112168940477
 20
714.6397796669661
 30
0.0
 11
677.7112168940477
 21
477.1397796669664
 31
0.0
  0
LINE
  5
35F
102
{ACAD_REACTORS
330
563
102
}
330
1F
100
AcDbEntity
  8
実線
100
AcDbLine
 10
728.2112168940478
 20
888.1397796669661
 30
0.0
 11
712.7112168940477
 21
888.1397796669661
 31
0.0
  0
LINE
  5
360
102
{ACAD_REACTORS
330
563
102
}
330
1F
100
AcDbEntity
  8
実線
100
AcDbLine
 10
712.7112168940477
 20
878.1397796669661
 30
0.0
 11
728.2112168940478
 21
878.1397796669661
 31
0.0
  0
LINE
  5
361
102
{ACAD_REACTORS
330
563
102
}
330
1F
100
AcDbEntity
  8
実線
100
AcDbLine
 10
712.7112168940477
 20
888.1397796669661
 30
0.0
 11
712.7112168940477
 21
878.1397796669661
 31
0.0
  0
LINE
  5
362
102
{ACAD_REACTORS
330
563
102
}
330
1F
100
AcDbEntity
  8
実線
100
AcDbLine
 10
719.7112168940478
 20
871.1397796669661
 30
0.0
 11
728.2112168940478
 21
871.1397796669661
 31
0.0
  0
LINE
  5
363
102
{ACAD_REACTORS
330
563
102
}
330
1F
100
AcDbEntity
  8
実線
100
AcDbLine
 10
719.7112168940478
 20
878.1397796669661
 30
0.0
 11
719.7112168940478
 21
871.1397796669661
 31
0.0
  0
LINE
  5
364
102
{ACAD_REACTORS
330
563
102
}
330
1F
100
AcDbEntity
  8
実線
100
AcDbLine
 10
728.2112168940478
 20
845.6397796669662
 30
0.0
 11
759.7112168940477
 21
845.6397796669662
 31
0.0
  0
LINE
  5
365
102
{ACAD_REACTORS
330
563
102
}
330
1F
100
AcDbEntity
  8
実線
100
AcDbLine
 10
759.7112168940477
 20
900.6397796669661
 30
0.0
 11
728.2112168940478
 21
900.6397796669661
 31
0.0
  0
LINE
  5
366
102
{ACAD_REACTORS
330
563
102
}
330
1F
100
AcDbEntity
  8
実線
100
AcDbLine
 10
728.2112168940478
 20
845.6397796669662
 30
0.0
 11
728.2112168940478
 21
900.6397796669661
 31
0.0
  0
LINE
  5
367
102
{ACAD_REACTORS
330
563
102
}
330
1F
100
AcDbEntity
  8
実線
100
AcDbLine
 10
759.7112168940477
 20
802.6397796669661
 30
0.0
 11
759.7112168940477
 21
900.6397796669661
 31
0.0
  0
LINE
  5
368
102
{ACAD_REACTORS
330
563
102
}
330
1F
100
AcDbEntity
  8
実線
100
AcDbLine
 10
761.7112168940478
 20
800.6397796669659
 30
0.0
 11
761.7112168940478
 21
900.6397796669661
 31
0.0
  0
LINE
  5
369
102
{ACAD_REACTORS
330
563
102
}
330
1F
100
AcDbEntity
  8
実線
100
AcDbLine
 10
761.7112168940478
 20
900.6397796669661
 30
0.0
 11
759.7112168940477
 21
900.6397796669661
 31
0.0
  0
LINE
  5
36A
102
{ACAD_REACTORS
330
563
102
}
330
1F
100
AcDbEntity
  8
実線
100
AcDbLine
 10
655.2112168940477
 20
714.6397796669661
 30
0.0
 11
810.2112168940477
 21
714.6397796669661
 31
0.0
  0
LINE
  5
36B
102
{ACAD_REACTORS
330
563
102
}
330
1F
100
AcDbEntity
  8
実線
100
AcDbLine
 10
810.2112168940477
 20
714.6397796669661
 30
0.0
 11
810.2112168940477
 21
723.6397796669664
 31
0.0
  0
LINE
  5
36C
102
{ACAD_REACTORS
330
563
102
}
330
1F
100
AcDbEntity
  8
実線
100
AcDbLine
 10
655.2112168940477
 20
723.6397796669664
 30
0.0
 11
655.2112168940477
 21
714.6397796669661
 31
0.0
  0
LINE
  5
36D
102
{ACAD_REACTORS
330
563
102
}
330
1F
100
AcDbEntity
  8
実線
100
AcDbLine
 10
810.2112168940477
 20
795.639779666966
 30
0.0
 11
655.2112168940477
 21
795.639779666966
 31
0.0
  0
LINE
  5
36E
102
{ACAD_REACTORS
330
563
102
}
330
1F
100
AcDbEntity
  8
実線
100
AcDbLine
 10
655.2112168940477
 20
723.6397796669664
 30
0.0
 11
810.2112168940477
 21
723.6397796669664
 31
0.0
  0
LINE
  5
36F
102
{ACAD_REACTORS
330
563
102
}
330
1F
100
AcDbEntity
  8
実線
100
AcDbLine
 10
810.2112168940477
 20
723.6397796669664
 30
0.0
 11
810.2112168940477
 21
795.639779666966
 31
0.0
  0
LINE
  5
370
102
{ACAD_REACTORS
330
563
102
}
330
1F
100
AcDbEntity
  8
実線
100
AcDbLine
 10
655.2112168940477
 20
795.639779666966
 30
0.0
 11
655.2112168940477
 21
723.6397796669664
 31
0.0
  0
LINE
  5
371
102
{ACAD_REACTORS
330
563
102
}
330
1F
100
AcDbEntity
  8
実線
100
AcDbLine
 10
752.7112168940477
 20
824.6397796669661
 30
0.0
 11
712.7112168940477
 21
824.6397796669661
 31
0.0
  0
LINE
  5
372
102
{ACAD_REACTORS
330
563
102
}
330
1F
100
AcDbEntity
  8
実線
100
AcDbLine
 10
752.7112168940477
 20
802.6397796669661
 30
0.0
 11
752.7112168940477
 21
824.6397796669661
 31
0.0
  0
LINE
  5
373
102
{ACAD_REACTORS
330
563
102
}
330
1F
100
AcDbEntity
  8
実線
100
AcDbLine
 10
712.7112168940477
 20
824.6397796669661
 30
0.0
 11
712.7112168940477
 21
800.6397796669661
 31
0.0
  0
LINE
  5
374
102
{ACAD_REACTORS
330
563
102
}
330
1F
100
AcDbEntity
  8
実線
100
AcDbLine
 10
750.0112168940477
 20
836.6397796669662
 30
0.0
 11
715.4112168940478
 21
836.6397796669662
 31
0.0
  0
LINE
  5
375
102
{ACAD_REACTORS
330
563
102
}
330
1F
100
AcDbEntity
  8
実線
100
AcDbLine
 10
750.0112168940477
 20
824.6397796669661
 30
0.0
 11
750.0112168940477
 21
836.6397796669662
 31
0.0
  0
LINE
  5
376
102
{ACAD_REACTORS
330
563
102
}
330
1F
100
AcDbEntity
  8
実線
100
AcDbLine
 10
715.4112168940478
 20
836.6397796669662
 30
0.0
 11
715.4112168940478
 21
824.6397796669661
 31
0.0
  0
LINE
  5
377
102
{ACAD_REACTORS
330
563
102
}
330
1F
100
AcDbEntity
  8
実線
100
AcDbLine
 10
805.2112168940478
 20
800.6397796669661
 30
0.0
 11
660.2112168940477
 21
800.6397796669661
 31
0.0
  0
ARC
  5
378
102
{ACAD_REACTORS
330
563
102
}
330
1F
100
AcDbEntity
  8
実線
100
AcDbCircle
 10
805.2112168940478
 20
795.639779666966
 30
0.0
 40
5.0
100
AcDbArc
 50
0.0
 51
90.0
  0
ARC
  5
379
102
{ACAD_REACTORS
330
563
102
}
330
1F
100
AcDbEntity
  8
実線
100
AcDbCircle
 10
660.2112168940477
 20
795.639779666966
 30
0.0
 40
5.0
100
AcDbArc
 50
90.0
 51
180.0
  0
LINE
  5
37A
102
{ACAD_REACTORS
330
563
102
}
330
1F
100
AcDbEntity
  8
実線
100
AcDbLine
 10
787.7112168940477
 20
474.1397796669664
 30
0.0
 11
787.7112168940477
 21
477.1397796669664
 31
0.0
  0
LINE
  5
37B
102
{ACAD_REACTORS
330
563
102
}
330
1F
100
AcDbEntity
  8
実線
100
AcDbLine
 10
677.7112168940477
 20
477.1397796669664
 30
0.0
 11
677.7112168940477
 21
474.1397796669664
 31
0.0
  0
LINE
  5
37C
102
{ACAD_REACTORS
330
563
102
}
330
1F
100
AcDbEntity
  8
実線
100
AcDbLine
 10
793.4909060718869
 20
457.1397796669664
 30
0.0
 11
793.4909060718869
 21
474.1397796669664
 31
0.0
  0
LINE
  5
37D
102
{ACAD_REACTORS
330
563
102
}
330
1F
100
AcDbEntity
  8
実線
100
AcDbLine
 10
793.4909060718869
 20
474.1397796669664
 30
0.0
 11
759.5211890439888
 21
474.1397796669664
 31
0.0
  0
LINE
  5
37E
102
{ACAD_REACTORS
330
563
102
}
330
1F
100
AcDbEntity
  8
実線
100
AcDbLine
 10
671.9315277162088
 20
474.1397796669664
 30
0.0
 11
705.9012447441069
 21
474.1397796669664
 31
0.0
  0
LINE
  5
37F
102
{ACAD_REACTORS
330
563
102
}
330
1F
100
AcDbEntity
  8
実線
100
AcDbLine
 10
671.9315277162088
 20
474.1397796669664
 30
0.0
 11
671.9315277162088
 21
457.1397796669664
 31
0.0
  0
LINE
  5
380
102
{ACAD_REACTORS
330
563
102
}
330
1F
100
AcDbEntity
  8
実線
100
AcDbLine
 10
759.5211890439888
 20
457.1397796669664
 30
0.0
 11
759.5211890439888
 21
474.1397796669664
 31
0.0
  0
LINE
  5
381
102
{ACAD_REACTORS
330
563
102
}
330
1F
100
AcDbEntity
  8
実線
100
AcDbLine
 10
705.9012447441069
 20
457.1397796669664
 30
0.0
 11
705.9012447441069
 21
474.1397796669664
 31
0.0
  0
LINE
  5
382
102
{ACAD_REACTORS
330
563
102
}
330
1F
100
AcDbEntity
  8
実線
100
AcDbLine
 10
671.9315277162088
 20
457.1397796669664
 30
0.0
 11
793.4909060718869
 21
457.1397796669664
 31
0.0
  0
LINE
  5
383
102
{ACAD_REACTORS
330
563
102
}
330
1F
100
AcDbEntity
  8
実線
100
AcDbLine
 10
787.7112168940477
 20
396.6397796669662
 30
0.0
 11
787.7112168940477
 21
442.1397796669662
 31
0.0
  0
LINE
  5
384
102
{ACAD_REACTORS
330
563
102
}
330
1F
100
AcDbEntity
  8
実線
100
AcDbLine
 10
677.7112168940477
 20
442.1397796669662
 30
0.0
 11
677.7112168940477
 21
396.6397796669662
 31
0.0
  0
LINE
  5
385
102
{ACAD_REACTORS
330
563
102
}
330
1F
100
AcDbEntity
  8
実線
100
AcDbLine
 10
718.3737659350879
 20
380.6397796669664
 30
0.0
 11
693.7112168940477
 21
380.6397796669664
 31
0.0
  0
LINE
  5
386
102
{ACAD_REACTORS
330
563
102
}
330
1F
100
AcDbEntity
  8
実線
100
AcDbLine
 10
771.7112168940477
 20
380.6397796669664
 30
0.0
 11
747.0486678529669
 21
380.6397796669664
 31
0.0
  0
ARC
  5
387
102
{ACAD_REACTORS
330
563
102
}
330
1F
100
AcDbEntity
  8
実線
100
AcDbCircle
 10
693.7112168940477
 20
396.6397796669662
 30
0.0
 40
16.0
100
AcDbArc
 50
180.0
 51
270.0
  0
ARC
  5
388
102
{ACAD_REACTORS
330
563
102
}
330
1F
100
AcDbEntity
  8
実線
100
AcDbCircle
 10
771.7112168940477
 20
396.6397796669662
 30
0.0
 40
16.0
100
AcDbArc
 50
270.0
 51
0.0
  0
LINE
  5
389
102
{ACAD_REACTORS
330
563
102
}
330
1F
100
AcDbEntity
  8
実線
100
AcDbLine
 10
793.4909060718869
 20
442.1397796669662
 30
0.0
 11
793.4909060718869
 21
457.1397796669664
 31
0.0
  0
LINE
  5
38A
102
{ACAD_REACTORS
330
563
102
}
330
1F
100
AcDbEntity
  8
実線
100
AcDbLine
 10
793.4909060718869
 20
442.1397796669662
 30
0.0
 11
761.8884768750469
 21
442.1397796669662
 31
0.0
  0
LINE
  5
38B
102
{ACAD_REACTORS
330
563
102
}
330
1F
100
AcDbEntity
  8
実線
100
AcDbLine
 10
671.9315277162088
 20
442.1397796669662
 30
0.0
 11
703.5339569130078
 21
442.1397796669662
 31
0.0
  0
LINE
  5
38C
102
{ACAD_REACTORS
330
563
102
}
330
1F
100
AcDbEntity
  8
実線
100
AcDbLine
 10
671.9315277162088
 20
457.1397796669664
 30
0.0
 11
671.9315277162088
 21
442.1397796669662
 31
0.0
  0
LINE
  5
38D
102
{ACAD_REACTORS
330
563
102
}
330
1F
100
AcDbEntity
  8
実線
100
AcDbLine
 10
759.5211890439888
 20
444.6181265323243
 30
0.0
 11
759.5211890439888
 21
457.1397796669664
 31
0.0
  0
LINE
  5
38E
102
{ACAD_REACTORS
330
563
102
}
330
1F
100
AcDbEntity
  8
実線
100
AcDbLine
 10
705.9012447441069
 20
444.6181265323632
 30
0.0
 11
705.9012447441069
 21
457.1397796669664
 31
0.0
  0
LINE
  5
38F
102
{ACAD_REACTORS
330
563
102
}
330
1F
100
AcDbEntity
  8
実線
100
AcDbLine
 10
759.7112168940477
 20
802.6397796669661
 30
0.0
 11
742.7112168940477
 21
802.6397796669661
 31
0.0
  0
LINE
  5
390
102
{ACAD_REACTORS
330
563
102
}
330
1F
100
AcDbEntity
  8
実線
100
AcDbLine
 10
759.7112168940477
 20
800.6397796669659
 30
0.0
 11
759.7112168940477
 21
802.6397796669661
 31
0.0
  0
LINE
  5
391
102
{ACAD_REACTORS
330
563
102
}
330
1F
100
AcDbEntity
  8
実線
100
AcDbLine
 10
742.7112168940477
 20
800.6397796669659
 30
0.0
 11
742.7112168940477
 21
802.6397796669661
 31
0.0
  0
LINE
  5
392
102
{ACAD_REACTORS
330
565
102
}
330
1F
100
AcDbEntity
  8
実線
100
AcDbLine
 10
150.0112168940479
 20
836.6397796669659
 30
0.0
 11
150.0112168940479
 21
848.639779666966
 31
0.0
  0
LINE
  5
393
102
{ACAD_REACTORS
330
565
102
}
330
1F
100
AcDbEntity
  8
実線
100
AcDbLine
 10
115.411216894048
 20
848.639779666966
 30
0.0
 11
115.411216894048
 21
836.6397796669659
 31
0.0
  0
LINE
  5
394
102
{ACAD_REACTORS
330
565
102
}
330
1F
100
AcDbEntity
  8
実線
100
AcDbLine
 10
150.0112168940479
 20
848.639779666966
 30
0.0
 11
115.411216894048
 21
848.639779666966
 31
0.0
  0
LINE
  5
395
102
{ACAD_REACTORS
330
565
102
}
330
1F
100
AcDbEntity
  8
実線
100
AcDbLine
 10
142.711216894048
 20
848.639779666966
 30
0.0
 11
142.711216894048
 21
871.1397796669659
 31
0.0
  0
LINE
  5
396
102
{ACAD_REACTORS
330
565
102
}
330
1F
100
AcDbEntity
  8
実線
100
AcDbLine
 10
122.7112168940479
 20
871.1397796669659
 30
0.0
 11
122.7112168940479
 21
848.639779666966
 31
0.0
  0
LINE
  5
397
102
{ACAD_REACTORS
330
565
102
}
330
1F
100
AcDbEntity
  8
実線
100
AcDbLine
 10
164.461216894048
 20
318.2397796669661
 30
0.0
 11
164.461216894048
 21
380.639779666966
 31
0.0
  0
LINE
  5
398
102
{ACAD_REACTORS
330
565
102
}
330
1F
100
AcDbEntity
  8
実線
100
AcDbLine
 10
100.961216894048
 20
380.6397796669663
 30
0.0
 11
100.961216894048
 21
318.2397796669661
 31
0.0
  0
LINE
  5
399
102
{ACAD_REACTORS
330
565
102
}
330
1F
100
AcDbEntity
  8
実線
100
AcDbLine
 10
100.961216894048
 20
318.2397796669661
 30
0.0
 11
93.96121689404788
 21
315.1397796669663
 31
0.0
  0
LINE
  5
39A
102
{ACAD_REACTORS
330
565
102
}
330
1F
100
AcDbEntity
  8
実線
100
AcDbLine
 10
171.461216894048
 20
315.1397796669663
 30
0.0
 11
164.461216894048
 21
318.2397796669661
 31
0.0
  0
LINE
  5
39B
102
{ACAD_REACTORS
330
565
102
}
330
1F
100
AcDbEntity
  8
実線
100
AcDbLine
 10
100.961216894048
 20
318.2397796669661
 30
0.0
 11
164.461216894048
 21
318.2397796669661
 31
0.0
  0
LINE
  5
39C
102
{ACAD_REACTORS
330
565
102
}
330
1F
100
AcDbEntity
  8
実線
100
AcDbLine
 10
171.461216894048
 20
311.6397796669663
 30
0.0
 11
171.461216894048
 21
315.1397796669663
 31
0.0
  0
LINE
  5
39D
102
{ACAD_REACTORS
330
565
102
}
330
1F
100
AcDbEntity
  8
実線
100
AcDbLine
 10
93.96121689404788
 20
315.1397796669663
 30
0.0
 11
93.96121689404788
 21
311.6397796669663
 31
0.0
  0
LINE
  5
39E
102
{ACAD_REACTORS
330
565
102
}
330
1F
100
AcDbEntity
  8
実線
100
AcDbLine
 10
93.96121689404788
 20
311.6397796669663
 30
0.0
 11
171.461216894048
 21
311.6397796669663
 31
0.0
  0
LINE
  5
39F
102
{ACAD_REACTORS
330
565
102
}
330
1F
100
AcDbEntity
  8
実線
100
AcDbLine
 10
93.96121689404788
 20
315.1397796669663
 30
0.0
 11
171.461216894048
 21
315.1397796669663
 31
0.0
  0
CIRCLE
  5
3A0
102
{ACAD_REACTORS
330
565
102
}
330
1F
100
AcDbEntity
  8
実線
100
AcDbCircle
 10
132.711216894048
 20
416.639779666966
 30
0.0
 40
38.75
  0
LINE
  5
3A1
102
{ACAD_REACTORS
330
565
102
}
330
1F
100
AcDbEntity
  8
実線
100
AcDbLine
 10
187.711216894048
 20
477.1397796669663
 30
0.0
 11
187.711216894048
 21
714.639779666966
 31
0.0
  0
LINE
  5
3A2
102
{ACAD_REACTORS
330
565
102
}
330
1F
100
AcDbEntity
  8
実線
100
AcDbLine
 10
77.71121689404788
 20
714.639779666966
 30
0.0
 11
77.71121689404788
 21
477.1397796669663
 31
0.0
  0
LINE
  5
3A3
102
{ACAD_REACTORS
330
565
102
}
330
1F
100
AcDbEntity
  8
実線
100
AcDbLine
 10
77.71121689404788
 20
477.1397796669663
 30
0.0
 11
187.711216894048
 21
477.1397796669663
 31
0.0
  0
LINE
  5
3A4
102
{ACAD_REACTORS
330
565
102
}
330
1F
100
AcDbEntity
  8
実線
100
AcDbLine
 10
152.7112168940479
 20
878.139779666966
 30
0.0
 11
152.7112168940479
 21
888.1397796669659
 31
0.0
  0
LINE
  5
3A5
102
{ACAD_REACTORS
330
565
102
}
330
1F
100
AcDbEntity
  8
実線
100
AcDbLine
 10
112.7112168940479
 20
888.1397796669659
 30
0.0
 11
112.7112168940479
 21
878.139779666966
 31
0.0
  0
LINE
  5
3A6
102
{ACAD_REACTORS
330
565
102
}
330
1F
100
AcDbEntity
  8
実線
100
AcDbLine
 10
152.7112168940479
 20
888.1397796669659
 30
0.0
 11
112.7112168940479
 21
888.1397796669659
 31
0.0
  0
LINE
  5
3A7
102
{ACAD_REACTORS
330
565
102
}
330
1F
100
AcDbEntity
  8
実線
100
AcDbLine
 10
112.7112168940479
 20
878.139779666966
 30
0.0
 11
152.7112168940479
 21
878.139779666966
 31
0.0
  0
LINE
  5
3A8
102
{ACAD_REACTORS
330
565
102
}
330
1F
100
AcDbEntity
  8
実線
100
AcDbLine
 10
145.7112168940479
 20
871.1397796669659
 30
0.0
 11
145.7112168940479
 21
878.139779666966
 31
0.0
  0
LINE
  5
3A9
102
{ACAD_REACTORS
330
565
102
}
330
1F
100
AcDbEntity
  8
実線
100
AcDbLine
 10
119.711216894048
 20
878.139779666966
 30
0.0
 11
119.711216894048
 21
871.1397796669659
 31
0.0
  0
LINE
  5
3AA
102
{ACAD_REACTORS
330
565
102
}
330
1F
100
AcDbEntity
  8
実線
100
AcDbLine
 10
119.711216894048
 20
871.1397796669659
 30
0.0
 11
145.7112168940479
 21
871.1397796669659
 31
0.0
  0
LINE
  5
3AB
102
{ACAD_REACTORS
330
565
102
}
330
1F
100
AcDbEntity
  8
実線
100
AcDbLine
 10
112.211216894048
 20
890.0397796669661
 30
0.0
 11
105.711216894048
 21
890.0397796669661
 31
0.0
  0
LINE
  5
3AC
102
{ACAD_REACTORS
330
565
102
}
330
1F
100
AcDbEntity
  8
実線
100
AcDbLine
 10
105.711216894048
 20
887.039779666966
 30
0.0
 11
112.211216894048
 21
887.039779666966
 31
0.0
  0
LINE
  5
3AD
102
{ACAD_REACTORS
330
565
102
}
330
1F
100
AcDbEntity
  8
実線
100
AcDbLine
 10
105.711216894048
 20
890.0397796669661
 30
0.0
 11
105.711216894048
 21
887.039779666966
 31
0.0
  0
LINE
  5
3AE
102
{ACAD_REACTORS
330
565
102
}
330
1F
100
AcDbEntity
  8
実線
100
AcDbLine
 10
137.211216894048
 20
892.4897796669661
 30
0.0
 11
112.211216894048
 21
892.4897796669661
 31
0.0
  0
LINE
  5
3AF
102
{ACAD_REACTORS
330
565
102
}
330
1F
100
AcDbEntity
  8
実線
100
AcDbLine
 10
112.211216894048
 20
892.4897796669661
 30
0.0
 11
112.211216894048
 21
884.589779666966
 31
0.0
  0
LINE
  5
3B0
102
{ACAD_REACTORS
330
565
102
}
330
1F
100
AcDbEntity
  8
実線
100
AcDbLine
 10
112.7112168940479
 20
884.589779666966
 30
0.0
 11
112.211216894048
 21
884.589779666966
 31
0.0
  0
LINE
  5
3B1
102
{ACAD_REACTORS
330
565
102
}
330
1F
100
AcDbEntity
  8
実線
100
AcDbLine
 10
137.211216894048
 20
888.1397796669659
 30
0.0
 11
137.211216894048
 21
892.4897796669661
 31
0.0
  0
LINE
  5
3B2
102
{ACAD_REACTORS
330
565
102
}
330
1F
100
AcDbEntity
  8
実線
100
AcDbLine
 10
137.211216894048
 20
892.4897796669661
 30
0.0
 11
137.211216894048
 21
900.6397796669659
 31
0.0
  0
LINE
  5
3B3
102
{ACAD_REACTORS
330
565
102
}
330
1F
100
AcDbEntity
  8
実線
100
AcDbLine
 10
137.211216894048
 20
900.6397796669659
 30
0.0
 11
105.7112168940478
 21
900.6397796669659
 31
0.0
  0
LINE
  5
3B4
102
{ACAD_REACTORS
330
565
102
}
330
1F
100
AcDbEntity
  8
実線
100
AcDbLine
 10
105.711216894048
 20
890.0397796669661
 30
0.0
 11
105.711216894048
 21
900.6397796669659
 31
0.0
  0
LINE
  5
3B5
102
{ACAD_REACTORS
330
565
102
}
330
1F
100
AcDbEntity
  8
実線
100
AcDbLine
 10
105.7112168940477
 20
845.6397796669659
 30
0.0
 11
115.411216894048
 21
845.6397796669659
 31
0.0
  0
LINE
  5
3B6
102
{ACAD_REACTORS
330
565
102
}
330
1F
100
AcDbEntity
  8
実線
100
AcDbLine
 10
112.211216894048
 20
864.4397796669659
 30
0.0
 11
105.711216894048
 21
864.4397796669659
 31
0.0
  0
LINE
  5
3B7
102
{ACAD_REACTORS
330
565
102
}
330
1F
100
AcDbEntity
  8
実線
100
AcDbLine
 10
105.711216894048
 20
861.439779666966
 30
0.0
 11
112.211216894048
 21
861.439779666966
 31
0.0
  0
LINE
  5
3B8
102
{ACAD_REACTORS
330
565
102
}
330
1F
100
AcDbEntity
  8
実線
100
AcDbLine
 10
105.711216894048
 20
864.4397796669659
 30
0.0
 11
105.711216894048
 21
861.439779666966
 31
0.0
  0
LINE
  5
3B9
102
{ACAD_REACTORS
330
565
102
}
330
1F
100
AcDbEntity
  8
実線
100
AcDbLine
 10
112.211216894048
 20
866.8897796669659
 30
0.0
 11
112.211216894048
 21
858.989779666966
 31
0.0
  0
LINE
  5
3BA
102
{ACAD_REACTORS
330
565
102
}
330
1F
100
AcDbEntity
  8
実線
100
AcDbLine
 10
122.7112168940479
 20
858.989779666966
 30
0.0
 11
112.211216894048
 21
858.989779666966
 31
0.0
  0
LINE
  5
3BB
102
{ACAD_REACTORS
330
565
102
}
330
1F
100
AcDbEntity
  8
実線
100
AcDbLine
 10
122.7112168940479
 20
866.8897796669659
 30
0.0
 11
112.211216894048
 21
866.8897796669659
 31
0.0
  0
LINE
  5
3BC
102
{ACAD_REACTORS
330
565
102
}
330
1F
100
AcDbEntity
  8
実線
100
AcDbLine
 10
105.7112168940478
 20
900.6397796669659
 30
0.0
 11
103.7112168940478
 21
900.6397796669659
 31
0.0
  0
LINE
  5
3BD
102
{ACAD_REACTORS
330
565
102
}
330
1F
100
AcDbEntity
  8
実線
100
AcDbLine
 10
103.7112168940478
 20
800.6397796669658
 30
0.0
 11
103.7112168940478
 21
900.6397796669659
 31
0.0
  0
LINE
  5
3BE
102
{ACAD_REACTORS
330
565
102
}
330
1F
100
AcDbEntity
  8
実線
100
AcDbLine
 10
105.711216894048
 20
864.4397796669659
 30
0.0
 11
105.711216894048
 21
887.039779666966
 31
0.0
  0
LINE
  5
3BF
102
{ACAD_REACTORS
330
565
102
}
330
1F
100
AcDbEntity
  8
実線
100
AcDbLine
 10
105.7112168940478
 20
861.439779666966
 30
0.0
 11
105.7112168940478
 21
802.6397796669659
 31
0.0
  0
LINE
  5
3C0
102
{ACAD_REACTORS
330
565
102
}
330
1F
100
AcDbEntity
  8
実線
100
AcDbLine
 10
210.211216894048
 20
714.639779666966
 30
0.0
 11
210.211216894048
 21
723.6397796669663
 31
0.0
  0
LINE
  5
3C1
102
{ACAD_REACTORS
330
565
102
}
330
1F
100
AcDbEntity
  8
実線
100
AcDbLine
 10
55.21121689404799
 20
723.6397796669663
 30
0.0
 11
55.21121689404799
 21
714.639779666966
 31
0.0
  0
LINE
  5
3C2
102
{ACAD_REACTORS
330
565
102
}
330
1F
100
AcDbEntity
  8
実線
100
AcDbLine
 10
210.211216894048
 20
723.6397796669663
 30
0.0
 11
55.21121689404799
 21
723.6397796669663
 31
0.0
  0
LINE
  5
3C3
102
{ACAD_REACTORS
330
565
102
}
330
1F
100
AcDbEntity
  8
実線
100
AcDbLine
 10
210.211216894048
 20
714.639779666966
 30
0.0
 11
55.21121689404799
 21
714.639779666966
 31
0.0
  0
LINE
  5
3C4
102
{ACAD_REACTORS
330
565
102
}
330
1F
100
AcDbEntity
  8
実線
100
AcDbLine
 10
210.211216894048
 20
723.6397796669663
 30
0.0
 11
210.211216894048
 21
795.6397796669659
 31
0.0
  0
LINE
  5
3C5
102
{ACAD_REACTORS
330
565
102
}
330
1F
100
AcDbEntity
  8
実線
100
AcDbLine
 10
55.21121689404799
 20
795.6397796669659
 30
0.0
 11
55.21121689404799
 21
723.6397796669663
 31
0.0
  0
LINE
  5
3C6
102
{ACAD_REACTORS
330
565
102
}
330
1F
100
AcDbEntity
  8
実線
100
AcDbLine
 10
152.7112168940479
 20
800.6397796669659
 30
0.0
 11
152.7112168940479
 21
824.6397796669659
 31
0.0
  0
LINE
  5
3C7
102
{ACAD_REACTORS
330
565
102
}
330
1F
100
AcDbEntity
  8
実線
100
AcDbLine
 10
112.7112168940479
 20
824.6397796669659
 30
0.0
 11
112.7112168940479
 21
800.6397796669659
 31
0.0
  0
LINE
  5
3C8
102
{ACAD_REACTORS
330
565
102
}
330
1F
100
AcDbEntity
  8
実線
100
AcDbLine
 10
152.7112168940479
 20
824.6397796669659
 30
0.0
 11
112.7112168940479
 21
824.6397796669659
 31
0.0
  0
LINE
  5
3C9
102
{ACAD_REACTORS
330
565
102
}
330
1F
100
AcDbEntity
  8
実線
100
AcDbLine
 10
150.0112168940479
 20
824.6397796669659
 30
0.0
 11
150.0112168940479
 21
836.6397796669659
 31
0.0
  0
LINE
  5
3CA
102
{ACAD_REACTORS
330
565
102
}
330
1F
100
AcDbEntity
  8
実線
100
AcDbLine
 10
115.411216894048
 20
836.6397796669659
 30
0.0
 11
115.411216894048
 21
824.6397796669659
 31
0.0
  0
LINE
  5
3CB
102
{ACAD_REACTORS
330
565
102
}
330
1F
100
AcDbEntity
  8
実線
100
AcDbLine
 10
150.0112168940479
 20
836.6397796669659
 30
0.0
 11
115.411216894048
 21
836.6397796669659
 31
0.0
  0
LINE
  5
3CC
102
{ACAD_REACTORS
330
565
102
}
330
1F
100
AcDbEntity
  8
実線
100
AcDbLine
 10
60.21121689404788
 20
800.6397796669659
 30
0.0
 11
205.211216894048
 21
800.6397796669659
 31
0.0
  0
ARC
  5
3CD
102
{ACAD_REACTORS
330
565
102
}
330
1F
100
AcDbEntity
  8
実線
100
AcDbCircle
 10
205.211216894048
 20
795.6397796669659
 30
0.0
 40
5.0
100
AcDbArc
 50
0.0
 51
90.0
  0
ARC
  5
3CE
102
{ACAD_REACTORS
330
565
102
}
330
1F
100
AcDbEntity
  8
実線
100
AcDbCircle
 10
60.21121689404788
 20
795.6397796669659
 30
0.0
 40
5.0
100
AcDbArc
 50
90.0
 51
180.0
  0
LINE
  5
3CF
102
{ACAD_REACTORS
330
565
102
}
330
1F
100
AcDbEntity
  8
実線
100
AcDbLine
 10
55.21121689404799
 20
795.6397796669659
 30
0.0
 11
210.211216894048
 21
795.6397796669659
 31
0.0
  0
LINE
  5
3D0
102
{ACAD_REACTORS
330
565
102
}
330
1F
100
AcDbEntity
  8
実線
100
AcDbLine
 10
71.93152771620908
 20
457.1397796669663
 30
0.0
 11
193.4909060718868
 21
457.1397796669663
 31
0.0
  0
LINE
  5
3D1
102
{ACAD_REACTORS
330
565
102
}
330
1F
100
AcDbEntity
  8
実線
100
AcDbLine
 10
187.711216894048
 20
474.1397796669663
 30
0.0
 11
187.711216894048
 21
477.1397796669663
 31
0.0
  0
LINE
  5
3D2
102
{ACAD_REACTORS
330
565
102
}
330
1F
100
AcDbEntity
  8
実線
100
AcDbLine
 10
77.71121689404788
 20
477.1397796669663
 30
0.0
 11
77.71121689404788
 21
474.1397796669663
 31
0.0
  0
LINE
  5
3D3
102
{ACAD_REACTORS
330
565
102
}
330
1F
100
AcDbEntity
  8
実線
100
AcDbLine
 10
193.4909060718868
 20
457.1397796669663
 30
0.0
 11
193.4909060718868
 21
474.1397796669663
 31
0.0
  0
LINE
  5
3D4
102
{ACAD_REACTORS
330
565
102
}
330
1F
100
AcDbEntity
  8
実線
100
AcDbLine
 10
193.4909060718868
 20
474.1397796669663
 30
0.0
 11
159.521189043989
 21
474.1397796669663
 31
0.0
  0
LINE
  5
3D5
102
{ACAD_REACTORS
330
565
102
}
330
1F
100
AcDbEntity
  8
実線
100
AcDbLine
 10
71.93152771620908
 20
474.1397796669663
 30
0.0
 11
105.9012447441067
 21
474.1397796669663
 31
0.0
  0
LINE
  5
3D6
102
{ACAD_REACTORS
330
565
102
}
330
1F
100
AcDbEntity
  8
実線
100
AcDbLine
 10
71.93152771620908
 20
474.1397796669663
 30
0.0
 11
71.93152771620908
 21
457.1397796669663
 31
0.0
  0
LINE
  5
3D7
102
{ACAD_REACTORS
330
565
102
}
330
1F
100
AcDbEntity
  8
実線
100
AcDbLine
 10
159.521189043989
 20
457.1397796669663
 30
0.0
 11
159.521189043989
 21
474.1397796669663
 31
0.0
  0
LINE
  5
3D8
102
{ACAD_REACTORS
330
565
102
}
330
1F
100
AcDbEntity
  8
実線
100
AcDbLine
 10
105.9012447441067
 20
457.1397796669663
 30
0.0
 11
105.9012447441067
 21
474.1397796669663
 31
0.0
  0
LINE
  5
3D9
102
{ACAD_REACTORS
330
565
102
}
330
1F
100
AcDbEntity
  8
実線
100
AcDbLine
 10
187.711216894048
 20
396.6397796669661
 30
0.0
 11
187.711216894048
 21
442.139779666966
 31
0.0
  0
LINE
  5
3DA
102
{ACAD_REACTORS
330
565
102
}
330
1F
100
AcDbEntity
  8
実線
100
AcDbLine
 10
77.71121689404788
 20
442.139779666966
 30
0.0
 11
77.71121689404788
 21
396.6397796669661
 31
0.0
  0
LINE
  5
3DB
102
{ACAD_REACTORS
330
565
102
}
330
1F
100
AcDbEntity
  8
実線
100
AcDbLine
 10
118.3737659351083
 20
380.6397796669663
 30
0.0
 11
93.71121689404787
 21
380.6397796669663
 31
0.0
  0
LINE
  5
3DC
102
{ACAD_REACTORS
330
565
102
}
330
1F
100
AcDbEntity
  8
実線
100
AcDbLine
 10
171.711216894048
 20
380.6397796669663
 30
0.0
 11
147.0486678529876
 21
380.6397796669663
 31
0.0
  0
ARC
  5
3DD
102
{ACAD_REACTORS
330
565
102
}
330
1F
100
AcDbEntity
  8
実線
100
AcDbCircle
 10
93.71121689404787
 20
396.6397796669661
 30
0.0
 40
16.0
100
AcDbArc
 50
180.0
 51
270.0
  0
ARC
  5
3DE
102
{ACAD_REACTORS
330
565
102
}
330
1F
100
AcDbEntity
  8
実線
100
AcDbCircle
 10
171.711216894048
 20
396.6397796669661
 30
0.0
 40
16.0
100
AcDbArc
 50
270.0
 51
0.0
  0
LINE
  5
3DF
102
{ACAD_REACTORS
330
565
102
}
330
1F
100
AcDbEntity
  8
実線
100
AcDbLine
 10
193.4909060718868
 20
442.139779666966
 30
0.0
 11
193.4909060718868
 21
457.1397796669663
 31
0.0
  0
LINE
  5
3E0
102
{ACAD_REACTORS
330
565
102
}
330
1F
100
AcDbEntity
  8
実線
100
AcDbLine
 10
193.4909060718868
 20
442.139779666966
 30
0.0
 11
161.8884768750673
 21
442.139779666966
 31
0.0
  0
LINE
  5
3E1
102
{ACAD_REACTORS
330
565
102
}
330
1F
100
AcDbEntity
  8
実線
100
AcDbLine
 10
71.93152771620908
 20
442.139779666966
 30
0.0
 11
103.5339569130284
 21
442.139779666966
 31
0.0
  0
LINE
  5
3E2
102
{ACAD_REACTORS
330
565
102
}
330
1F
100
AcDbEntity
  8
実線
100
AcDbLine
 10
71.93152771620908
 20
457.1397796669663
 30
0.0
 11
71.93152771620908
 21
442.139779666966
 31
0.0
  0
LINE
  5
3E3
102
{ACAD_REACTORS
330
565
102
}
330
1F
100
AcDbEntity
  8
実線
100
AcDbLine
 10
159.521189043989
 20
444.6181265323438
 30
0.0
 11
159.521189043989
 21
457.1397796669663
 31
0.0
  0
LINE
  5
3E4
102
{ACAD_REACTORS
330
565
102
}
330
1F
100
AcDbEntity
  8
実線
100
AcDbLine
 10
105.9012447441067
 20
444.6181265323438
 30
0.0
 11
105.9012447441067
 21
457.1397796669663
 31
0.0
  0
LINE
  5
3E5
102
{ACAD_REACTORS
330
565
102
}
330
1F
100
AcDbEntity
  8
実線
100
AcDbLine
 10
105.7112168940478
 20
800.6397796669658
 30
0.0
 11
105.7112168940478
 21
802.6397796669659
 31
0.0
  0
LINE
  5
3E6
102
{ACAD_REACTORS
330
565
102
}
330
1F
100
AcDbEntity
  8
実線
100
AcDbLine
 10
112.7112168940479
 20
802.6397796669659
 30
0.0
 11
105.7112168940478
 21
802.6397796669659
 31
0.0
  0
LINE
  5
3E7
102
{ACAD_REACTORS
330
564
102
}
330
1F
100
AcDbEntity
  8
実線
100
AcDbLine
 10
450.0112168940477
 20
836.6397796669659
 30
0.0
 11
450.0112168940477
 21
848.639779666966
 31
0.0
  0
LINE
  5
3E8
102
{ACAD_REACTORS
330
564
102
}
330
1F
100
AcDbEntity
  8
実線
100
AcDbLine
 10
415.4112168940477
 20
848.639779666966
 30
0.0
 11
415.4112168940477
 21
836.6397796669659
 31
0.0
  0
LINE
  5
3E9
102
{ACAD_REACTORS
330
564
102
}
330
1F
100
AcDbEntity
  8
実線
100
AcDbLine
 10
450.0112168940477
 20
848.639779666966
 30
0.0
 11
415.4112168940477
 21
848.639779666966
 31
0.0
  0
LINE
  5
3EA
102
{ACAD_REACTORS
330
564
102
}
330
1F
100
AcDbEntity
  8
実線
100
AcDbLine
 10
442.7112168940477
 20
848.639779666966
 30
0.0
 11
442.7112168940477
 21
871.1397796669659
 31
0.0
  0
LINE
  5
3EB
102
{ACAD_REACTORS
330
564
102
}
330
1F
100
AcDbEntity
  8
実線
100
AcDbLine
 10
422.7112168940477
 20
871.1397796669659
 30
0.0
 11
422.7112168940477
 21
848.639779666966
 31
0.0
  0
LINE
  5
3EC
102
{ACAD_REACTORS
330
564
102
}
330
1F
100
AcDbEntity
  8
実線
100
AcDbLine
 10
464.4612168940478
 20
318.2397796669661
 30
0.0
 11
464.4612168940478
 21
380.639779666966
 31
0.0
  0
LINE
  5
3ED
102
{ACAD_REACTORS
330
564
102
}
330
1F
100
AcDbEntity
  8
実線
100
AcDbLine
 10
400.9612168940477
 20
380.6397796669663
 30
0.0
 11
400.9612168940477
 21
318.2397796669661
 31
0.0
  0
LINE
  5
3EE
102
{ACAD_REACTORS
330
564
102
}
330
1F
100
AcDbEntity
  8
実線
100
AcDbLine
 10
400.9612168940477
 20
318.2397796669661
 30
0.0
 11
393.9612168940478
 21
315.1397796669663
 31
0.0
  0
LINE
  5
3EF
102
{ACAD_REACTORS
330
564
102
}
330
1F
100
AcDbEntity
  8
実線
100
AcDbLine
 10
471.4612168940477
 20
315.1397796669663
 30
0.0
 11
464.4612168940478
 21
318.2397796669661
 31
0.0
  0
LINE
  5
3F0
102
{ACAD_REACTORS
330
564
102
}
330
1F
100
AcDbEntity
  8
実線
100
AcDbLine
 10
400.9612168940477
 20
318.2397796669661
 30
0.0
 11
464.4612168940478
 21
318.2397796669661
 31
0.0
  0
LINE
  5
3F1
102
{ACAD_REACTORS
330
564
102
}
330
1F
100
AcDbEntity
  8
実線
100
AcDbLine
 10
471.4612168940477
 20
311.6397796669663
 30
0.0
 11
471.4612168940477
 21
315.1397796669663
 31
0.0
  0
LINE
  5
3F2
102
{ACAD_REACTORS
330
564
102
}
330
1F
100
AcDbEntity
  8
実線
100
AcDbLine
 10
393.9612168940478
 20
315.1397796669663
 30
0.0
 11
393.9612168940478
 21
311.6397796669663
 31
0.0
  0
LINE
  5
3F3
102
{ACAD_REACTORS
330
564
102
}
330
1F
100
AcDbEntity
  8
実線
100
AcDbLine
 10
471.4612168940477
 20
311.6397796669663
 30
0.0
 11
393.9612168940478
 21
311.6397796669663
 31
0.0
  0
LINE
  5
3F4
102
{ACAD_REACTORS
330
564
102
}
330
1F
100
AcDbEntity
  8
実線
100
AcDbLine
 10
471.4612168940477
 20
315.1397796669663
 30
0.0
 11
393.9612168940478
 21
315.1397796669663
 31
0.0
  0
LINE
  5
3F5
102
{ACAD_REACTORS
330
564
102
}
330
1F
100
AcDbEntity
  8
実線
100
AcDbLine
 10
334.3112168940477
 20
384.8897796669661
 30
0.0
 11
382.8513135795611
 21
384.8897796669661
 31
0.0
  0
LINE
  5
3F6
102
{ACAD_REACTORS
330
564
102
}
330
1F
100
AcDbEntity
  8
実線
100
AcDbLine
 10
371.931527716209
 20
448.389779666966
 30
0.0
 11
334.3112168940477
 21
448.389779666966
 31
0.0
  0
LINE
  5
3F7
102
{ACAD_REACTORS
330
564
102
}
330
1F
100
AcDbEntity
  8
実線
100
AcDbLine
 10
334.3112168940477
 20
448.389779666966
 30
0.0
 11
331.2112168940477
 21
455.3897796669663
 31
0.0
  0
LINE
  5
3F8
102
{ACAD_REACTORS
330
564
102
}
330
1F
100
AcDbEntity
  8
実線
100
AcDbLine
 10
331.2112168940477
 20
377.8897796669661
 30
0.0
 11
334.3112168940477
 21
384.8897796669661
 31
0.0
  0
LINE
  5
3F9
102
{ACAD_REACTORS
330
564
102
}
330
1F
100
AcDbEntity
  8
実線
100
AcDbLine
 10
334.3112168940477
 20
448.389779666966
 30
0.0
 11
334.3112168940477
 21
384.8897796669661
 31
0.0
  0
LINE
  5
3FA
102
{ACAD_REACTORS
330
564
102
}
330
1F
100
AcDbEntity
  8
実線
100
AcDbLine
 10
327.7112168940478
 20
377.8897796669661
 30
0.0
 11
331.2112168940477
 21
377.8897796669661
 31
0.0
  0
LINE
  5
3FB
102
{ACAD_REACTORS
330
564
102
}
330
1F
100
AcDbEntity
  8
実線
100
AcDbLine
 10
331.2112168940477
 20
455.3897796669663
 30
0.0
 11
327.7112168940478
 21
455.3897796669663
 31
0.0
  0
LINE
  5
3FC
102
{ACAD_REACTORS
330
564
102
}
330
1F
100
AcDbEntity
  8
実線
100
AcDbLine
 10
327.7112168940478
 20
377.8897796669661
 30
0.0
 11
327.7112168940478
 21
455.3897796669663
 31
0.0
  0
LINE
  5
3FD
102
{ACAD_REACTORS
330
564
102
}
330
1F
100
AcDbEntity
  8
実線
100
AcDbLine
 10
331.2112168940477
 20
377.8897796669661
 30
0.0
 11
331.2112168940477
 21
455.3897796669663
 31
0.0
  0
LINE
  5
3FE
102
{ACAD_REACTORS
330
564
102
}
330
1F
100
AcDbEntity
  8
実線
100
AcDbLine
 10
531.111216894048
 20
448.389779666966
 30
0.0
 11
493.4909060718863
 21
448.389779666966
 31
0.0
  0
LINE
  5
3FF
102
{ACAD_REACTORS
330
564
102
}
330
1F
100
AcDbEntity
  8
実線
100
AcDbLine
 10
482.5711202085344
 20
384.8897796669661
 30
0.0
 11
531.111216894048
 21
384.8897796669661
 31
0.0
  0
LINE
  5
400
102
{ACAD_REACTORS
330
564
102
}
330
1F
100
AcDbEntity
  8
実線
100
AcDbLine
 10
531.111216894048
 20
384.8897796669661
 30
0.0
 11
531.111216894048
 21
448.389779666966
 31
0.0
  0
LINE
  5
401
102
{ACAD_REACTORS
330
564
102
}
330
1F
100
AcDbEntity
  8
実線
100
AcDbLine
 10
531.111216894048
 20
384.8897796669661
 30
0.0
 11
534.211216894048
 21
377.8897796669661
 31
0.0
  0
LINE
  5
402
102
{ACAD_REACTORS
330
564
102
}
330
1F
100
AcDbEntity
  8
実線
100
AcDbLine
 10
534.211216894048
 20
455.3897796669663
 30
0.0
 11
531.111216894048
 21
448.389779666966
 31
0.0
  0
LINE
  5
403
102
{ACAD_REACTORS
330
564
102
}
330
1F
100
AcDbEntity
  8
実線
100
AcDbLine
 10
537.7112168940478
 20
377.8897796669661
 30
0.0
 11
537.7112168940478
 21
455.3897796669663
 31
0.0
  0
LINE
  5
404
102
{ACAD_REACTORS
330
564
102
}
330
1F
100
AcDbEntity
  8
実線
100
AcDbLine
 10
534.211216894048
 20
377.8897796669661
 30
0.0
 11
534.211216894048
 21
455.3897796669663
 31
0.0
  0
LINE
  5
405
102
{ACAD_REACTORS
330
564
102
}
330
1F
100
AcDbEntity
  8
実線
100
AcDbLine
 10
537.7112168940478
 20
455.3897796669663
 30
0.0
 11
534.211216894048
 21
455.3897796669663
 31
0.0
  0
LINE
  5
406
102
{ACAD_REACTORS
330
564
102
}
330
1F
100
AcDbEntity
  8
実線
100
AcDbLine
 10
534.211216894048
 20
377.8897796669661
 30
0.0
 11
537.7112168940478
 21
377.8897796669661
 31
0.0
  0
LINE
  5
407
102
{ACAD_REACTORS
330
564
102
}
330
1F
100
AcDbEntity
  8
実線
100
AcDbLine
 10
487.7112168940477
 20
477.1397796669663
 30
0.0
 11
377.7112168940478
 21
477.1397796669663
 31
0.0
  0
LINE
  5
408
102
{ACAD_REACTORS
330
564
102
}
330
1F
100
AcDbEntity
  8
実線
100
AcDbLine
 10
487.7112168940477
 20
477.1397796669663
 30
0.0
 11
487.7112168940477
 21
714.639779666966
 31
0.0
  0
LINE
  5
409
102
{ACAD_REACTORS
330
564
102
}
330
1F
100
AcDbEntity
  8
実線
100
AcDbLine
 10
377.7112168940478
 20
714.639779666966
 30
0.0
 11
377.7112168940478
 21
477.1397796669663
 31
0.0
  0
LINE
  5
40A
102
{ACAD_REACTORS
330
564
102
}
330
1F
100
AcDbEntity
  8
実線
100
AcDbLine
 10
452.7112168940477
 20
878.139779666966
 30
0.0
 11
412.7112168940477
 21
878.139779666966
 31
0.0
  0
LINE
  5
40B
102
{ACAD_REACTORS
330
564
102
}
330
1F
100
AcDbEntity
  8
実線
100
AcDbLine
 10
452.7112168940477
 20
878.139779666966
 30
0.0
 11
452.7112168940477
 21
888.1397796669659
 31
0.0
  0
LINE
  5
40C
102
{ACAD_REACTORS
330
564
102
}
330
1F
100
AcDbEntity
  8
実線
100
AcDbLine
 10
412.7112168940477
 20
888.1397796669659
 30
0.0
 11
412.7112168940477
 21
878.139779666966
 31
0.0
  0
LINE
  5
40D
102
{ACAD_REACTORS
330
564
102
}
330
1F
100
AcDbEntity
  8
実線
100
AcDbLine
 10
452.7112168940477
 20
888.1397796669659
 30
0.0
 11
412.7112168940477
 21
888.1397796669659
 31
0.0
  0
LINE
  5
40E
102
{ACAD_REACTORS
330
564
102
}
330
1F
100
AcDbEntity
  8
実線
100
AcDbLine
 10
445.7112168940478
 20
871.1397796669659
 30
0.0
 11
419.7112168940477
 21
871.1397796669659
 31
0.0
  0
LINE
  5
40F
102
{ACAD_REACTORS
330
564
102
}
330
1F
100
AcDbEntity
  8
実線
100
AcDbLine
 10
445.7112168940478
 20
871.1397796669659
 30
0.0
 11
445.7112168940478
 21
878.139779666966
 31
0.0
  0
LINE
  5
410
102
{ACAD_REACTORS
330
564
102
}
330
1F
100
AcDbEntity
  8
実線
100
AcDbLine
 10
419.7112168940477
 20
878.139779666966
 30
0.0
 11
419.7112168940477
 21
871.1397796669659
 31
0.0
  0
LINE
  5
411
102
{ACAD_REACTORS
330
564
102
}
330
1F
100
AcDbEntity
  8
実線
100
AcDbLine
 10
453.3112168940477
 20
892.4897796669661
 30
0.0
 11
461.2112168940477
 21
892.4897796669661
 31
0.0
  0
LINE
  5
412
102
{ACAD_REACTORS
330
564
102
}
330
1F
100
AcDbEntity
  8
実線
100
AcDbLine
 10
453.3112168940477
 20
884.589779666966
 30
0.0
 11
453.3112168940477
 21
892.4897796669661
 31
0.0
  0
LINE
  5
413
102
{ACAD_REACTORS
330
564
102
}
330
1F
100
AcDbEntity
  8
実線
100
AcDbLine
 10
461.2112168940477
 20
884.589779666966
 30
0.0
 11
453.3112168940477
 21
884.589779666966
 31
0.0
  0
LINE
  5
414
102
{ACAD_REACTORS
330
564
102
}
330
1F
100
AcDbEntity
  8
実線
100
AcDbLine
 10
461.2112168940477
 20
900.6397796669659
 30
0.0
 11
461.2112168940477
 21
845.6397796669659
 31
0.0
  0
LINE
  5
415
102
{ACAD_REACTORS
330
564
102
}
330
1F
100
AcDbEntity
  8
実線
100
AcDbLine
 10
461.2112168940477
 20
845.6397796669659
 30
0.0
 11
463.2112168940477
 21
845.6397796669659
 31
0.0
  0
LINE
  5
416
102
{ACAD_REACTORS
330
564
102
}
330
1F
100
AcDbEntity
  8
実線
100
AcDbLine
 10
463.2112168940477
 20
845.6397796669659
 30
0.0
 11
463.2112168940477
 21
900.6397796669659
 31
0.0
  0
LINE
  5
417
102
{ACAD_REACTORS
330
564
102
}
330
1F
100
AcDbEntity
  8
実線
100
AcDbLine
 10
463.2112168940477
 20
900.6397796669659
 30
0.0
 11
461.2112168940477
 21
900.6397796669659
 31
0.0
  0
LINE
  5
418
102
{ACAD_REACTORS
330
564
102
}
330
1F
100
AcDbEntity
  8
実線
100
AcDbLine
 10
453.3112168940477
 20
866.8897796669659
 30
0.0
 11
461.2112168940477
 21
866.8897796669659
 31
0.0
  0
LINE
  5
419
102
{ACAD_REACTORS
330
564
102
}
330
1F
100
AcDbEntity
  8
実線
100
AcDbLine
 10
453.3112168940477
 20
858.989779666966
 30
0.0
 11
453.3112168940477
 21
866.8897796669659
 31
0.0
  0
LINE
  5
41A
102
{ACAD_REACTORS
330
564
102
}
330
1F
100
AcDbEntity
  8
実線
100
AcDbLine
 10
461.2112168940477
 20
858.989779666966
 30
0.0
 11
453.3112168940477
 21
858.989779666966
 31
0.0
  0
LINE
  5
41B
102
{ACAD_REACTORS
330
564
102
}
330
1F
100
AcDbEntity
  8
実線
100
AcDbLine
 10
487.2112168940478
 20
802.6397796669659
 30
0.0
 11
487.2112168940478
 21
900.6397796669659
 31
0.0
  0
LINE
  5
41C
102
{ACAD_REACTORS
330
564
102
}
330
1F
100
AcDbEntity
  8
実線
100
AcDbLine
 10
487.2112168940478
 20
900.6397796669659
 30
0.0
 11
463.2112168940477
 21
900.6397796669659
 31
0.0
  0
LINE
  5
41D
102
{ACAD_REACTORS
330
564
102
}
330
1F
100
AcDbEntity
  8
実線
100
AcDbLine
 10
461.2112168940477
 20
802.6397796669659
 30
0.0
 11
461.2112168940477
 21
845.6397796669659
 31
0.0
  0
LINE
  5
41E
102
{ACAD_REACTORS
330
564
102
}
330
1F
100
AcDbEntity
  8
実線
100
AcDbLine
 10
510.2112168940477
 20
714.639779666966
 30
0.0
 11
355.2112168940476
 21
714.639779666966
 31
0.0
  0
LINE
  5
41F
102
{ACAD_REACTORS
330
564
102
}
330
1F
100
AcDbEntity
  8
実線
100
AcDbLine
 10
510.2112168940477
 20
714.639779666966
 30
0.0
 11
510.2112168940477
 21
723.6397796669663
 31
0.0
  0
LINE
  5
420
102
{ACAD_REACTORS
330
564
102
}
330
1F
100
AcDbEntity
  8
実線
100
AcDbLine
 10
355.2112168940476
 20
723.6397796669663
 30
0.0
 11
355.2112168940476
 21
714.639779666966
 31
0.0
  0
LINE
  5
421
102
{ACAD_REACTORS
330
564
102
}
330
1F
100
AcDbEntity
  8
実線
100
AcDbLine
 10
510.2112168940477
 20
723.6397796669663
 30
0.0
 11
355.2112168940476
 21
723.6397796669663
 31
0.0
  0
LINE
  5
422
102
{ACAD_REACTORS
330
564
102
}
330
1F
100
AcDbEntity
  8
実線
100
AcDbLine
 10
510.2112168940477
 20
723.6397796669663
 30
0.0
 11
510.2112168940477
 21
795.6397796669659
 31
0.0
  0
LINE
  5
423
102
{ACAD_REACTORS
330
564
102
}
330
1F
100
AcDbEntity
  8
実線
100
AcDbLine
 10
355.2112168940476
 20
795.6397796669659
 30
0.0
 11
355.2112168940476
 21
723.6397796669663
 31
0.0
  0
LINE
  5
424
102
{ACAD_REACTORS
330
564
102
}
330
1F
100
AcDbEntity
  8
実線
100
AcDbLine
 10
452.7112168940477
 20
800.6397796669659
 30
0.0
 11
452.7112168940477
 21
824.6397796669659
 31
0.0
  0
LINE
  5
425
102
{ACAD_REACTORS
330
564
102
}
330
1F
100
AcDbEntity
  8
実線
100
AcDbLine
 10
412.7112168940477
 20
824.6397796669659
 30
0.0
 11
412.7112168940477
 21
800.6397796669659
 31
0.0
  0
LINE
  5
426
102
{ACAD_REACTORS
330
564
102
}
330
1F
100
AcDbEntity
  8
実線
100
AcDbLine
 10
452.7112168940477
 20
824.6397796669659
 30
0.0
 11
412.7112168940477
 21
824.6397796669659
 31
0.0
  0
LINE
  5
427
102
{ACAD_REACTORS
330
564
102
}
330
1F
100
AcDbEntity
  8
実線
100
AcDbLine
 10
450.0112168940477
 20
824.6397796669659
 30
0.0
 11
450.0112168940477
 21
836.6397796669659
 31
0.0
  0
LINE
  5
428
102
{ACAD_REACTORS
330
564
102
}
330
1F
100
AcDbEntity
  8
実線
100
AcDbLine
 10
415.4112168940477
 20
836.6397796669659
 30
0.0
 11
415.4112168940477
 21
824.6397796669659
 31
0.0
  0
LINE
  5
429
102
{ACAD_REACTORS
330
564
102
}
330
1F
100
AcDbEntity
  8
実線
100
AcDbLine
 10
450.0112168940477
 20
836.6397796669659
 30
0.0
 11
415.4112168940477
 21
836.6397796669659
 31
0.0
  0
LINE
  5
42A
102
{ACAD_REACTORS
330
564
102
}
330
1F
100
AcDbEntity
  8
実線
100
AcDbLine
 10
360.211216894767
 20
800.6397796669659
 30
0.0
 11
505.2112168940477
 21
800.6397796669659
 31
0.0
  0
ARC
  5
42B
102
{ACAD_REACTORS
330
564
102
}
330
1F
100
AcDbEntity
  8
実線
100
AcDbCircle
 10
505.2112168940477
 20
795.6397796669659
 30
0.0
 40
5.0
100
AcDbArc
 50
0.0
 51
90.0
  0
ARC
  5
42C
102
{ACAD_REACTORS
330
564
102
}
330
1F
100
AcDbEntity
  8
実線
100
AcDbCircle
 10
360.2112168940477
 20
795.6397796669659
 30
0.0
 40
5.0
100
AcDbArc
 50
90.0
 51
180.0
  0
LINE
  5
42D
102
{ACAD_REACTORS
330
564
102
}
330
1F
100
AcDbEntity
  8
実線
100
AcDbLine
 10
510.2112168940477
 20
795.6397796669659
 30
0.0
 11
355.2112168940476
 21
795.6397796669659
 31
0.0
  0
LINE
  5
42E
102
{ACAD_REACTORS
330
564
102
}
330
1F
100
AcDbEntity
  8
実線
100
AcDbLine
 10
487.7112168940477
 20
474.1397796669663
 30
0.0
 11
487.7112168940477
 21
477.1397796669663
 31
0.0
  0
LINE
  5
42F
102
{ACAD_REACTORS
330
564
102
}
330
1F
100
AcDbEntity
  8
実線
100
AcDbLine
 10
377.7112168940478
 20
477.1397796669663
 30
0.0
 11
377.7112168940478
 21
474.1397796669663
 31
0.0
  0
LINE
  5
430
102
{ACAD_REACTORS
330
564
102
}
330
1F
100
AcDbEntity
  8
実線
100
AcDbLine
 10
371.9315277162093
 20
474.1397796669663
 30
0.0
 11
405.9012447441065
 21
474.1397796669663
 31
0.0
  0
LINE
  5
431
102
{ACAD_REACTORS
330
564
102
}
330
1F
100
AcDbEntity
  8
実線
100
AcDbLine
 10
371.9315277162093
 20
474.1397796669663
 30
0.0
 11
371.9315277162093
 21
457.1397796669663
 31
0.0
  0
LINE
  5
432
102
{ACAD_REACTORS
330
564
102
}
330
1F
100
AcDbEntity
  8
実線
100
AcDbLine
 10
493.4909060718866
 20
457.1397796669663
 30
0.0
 11
493.4909060718866
 21
474.1397796669663
 31
0.0
  0
LINE
  5
433
102
{ACAD_REACTORS
330
564
102
}
330
1F
100
AcDbEntity
  8
実線
100
AcDbLine
 10
493.4909060718866
 20
474.1397796669663
 30
0.0
 11
459.521189043989
 21
474.1397796669663
 31
0.0
  0
LINE
  5
434
102
{ACAD_REACTORS
330
564
102
}
330
1F
100
AcDbEntity
  8
実線
100
AcDbLine
 10
405.9012447441065
 20
457.1397796669663
 30
0.0
 11
405.9012447441065
 21
474.1397796669663
 31
0.0
  0
LINE
  5
435
102
{ACAD_REACTORS
330
564
102
}
330
1F
100
AcDbEntity
  8
実線
100
AcDbLine
 10
459.521189043989
 20
457.1397796669663
 30
0.0
 11
459.521189043989
 21
474.1397796669663
 31
0.0
  0
LINE
  5
436
102
{ACAD_REACTORS
330
564
102
}
330
1F
100
AcDbEntity
  8
実線
100
AcDbLine
 10
471.7112168918119
 20
380.6397796669663
 30
0.0
 11
393.7112168940478
 21
380.6397796669663
 31
0.0
  0
ARC
  5
437
102
{ACAD_REACTORS
330
564
102
}
330
1F
100
AcDbEntity
  8
実線
100
AcDbCircle
 10
393.7112168940478
 20
396.6397796669661
 30
0.0
 40
16.0
100
AcDbArc
 50
227.2544307753406
 51
270.0
  0
ARC
  5
438
102
{ACAD_REACTORS
330
564
102
}
330
1F
100
AcDbEntity
  8
実線
100
AcDbCircle
 10
471.7112168940477
 20
396.6397796669661
 30
0.0
 40
16.0
100
AcDbArc
 50
270.0
 51
312.7455692246594
  0
LINE
  5
439
102
{ACAD_REACTORS
330
564
102
}
330
1F
100
AcDbEntity
  8
実線
100
AcDbLine
 10
493.4909060718866
 20
457.1397796669663
 30
0.0
 11
371.9315277162093
 21
457.1397796669663
 31
0.0
  0
LINE
  5
43A
102
{ACAD_REACTORS
330
564
102
}
330
1F
100
AcDbEntity
  8
実線
100
AcDbLine
 10
371.9315277162093
 20
442.139779666966
 30
0.0
 11
405.9012447441065
 21
442.139779666966
 31
0.0
  0
LINE
  5
43B
102
{ACAD_REACTORS
330
564
102
}
330
1F
100
AcDbEntity
  8
実線
100
AcDbLine
 10
371.9315277162093
 20
457.1397796669663
 30
0.0
 11
371.9315277162093
 21
442.139779666966
 31
0.0
  0
LINE
  5
43C
102
{ACAD_REACTORS
330
564
102
}
330
1F
100
AcDbEntity
  8
実線
100
AcDbLine
 10
493.4909060718866
 20
442.139779666966
 30
0.0
 11
493.4909060718866
 21
457.1397796669663
 31
0.0
  0
LINE
  5
43D
102
{ACAD_REACTORS
330
564
102
}
330
1F
100
AcDbEntity
  8
実線
100
AcDbLine
 10
493.4909060718866
 20
442.139779666966
 30
0.0
 11
459.521189043989
 21
442.139779666966
 31
0.0
  0
LINE
  5
43E
102
{ACAD_REACTORS
330
564
102
}
330
1F
100
AcDbEntity
  8
実線
100
AcDbLine
 10
405.9012447441065
 20
442.139779666966
 30
0.0
 11
405.9012447441065
 21
457.1397796669663
 31
0.0
  0
LINE
  5
43F
102
{ACAD_REACTORS
330
564
102
}
330
1F
100
AcDbEntity
  8
実線
100
AcDbLine
 10
459.521189043989
 20
442.139779666966
 30
0.0
 11
459.521189043989
 21
457.1397796669663
 31
0.0
  0
LINE
  5
440
102
{ACAD_REACTORS
330
564
102
}
330
1F
100
AcDbEntity
  8
実線
100
AcDbLine
 10
458.7112168940477
 20
800.6397796669658
 30
0.0
 11
458.7112168940477
 21
802.6397796669659
 31
0.0
  0
LINE
  5
441
102
{ACAD_REACTORS
330
564
102
}
330
1F
100
AcDbEntity
  8
実線
100
AcDbLine
 10
493.7112168940477
 20
800.6397796669658
 30
0.0
 11
493.7112168940477
 21
802.6397796669659
 31
0.0
  0
LINE
  5
442
102
{ACAD_REACTORS
330
564
102
}
330
1F
100
AcDbEntity
  8
実線
100
AcDbLine
 10
493.7112168940477
 20
802.6397796669659
 30
0.0
 11
458.7112168940477
 21
802.6397796669659
 31
0.0
  0
LINE
  5
54F
102
{ACAD_REACTORS
330
566
102
}
330
1F
100
AcDbEntity
  8
中心線
100
AcDbLine
 10
325.7112168940478
 20
116.6397796669661
 30
0.0
 11
539.7112168940477
 21
116.6397796669661
 31
0.0
  0
LINE
  5
550
102
{ACAD_REACTORS
330
566
102
}
330
1F
100
AcDbEntity
  8
中心線
100
AcDbLine
 10
432.7112168940478
 20
31.63977966696598
 30
0.0
 11
432.7112168940478
 21
201.639779666966
 31
0.0
  0
LINE
  5
551
102
{ACAD_REACTORS
330
5B4
102
}
330
1F
100
AcDbEntity
  8
中心線
100
AcDbLine
 10
325.7112168940478
 20
1076.639779666966
 30
0.0
 11
539.7112168940477
 21
1076.639779666966
 31
0.0
  0
LINE
  5
552
102
{ACAD_REACTORS
330
5B4
102
}
330
1F
100
AcDbEntity
  8
中心線
100
AcDbLine
 10
432.7112168940478
 20
991.6397796669659
 30
0.0
 11
432.7112168940478
 21
1161.639779666966
 31
0.0
  0
LINE
  5
553
102
{ACAD_REACTORS
330
562
102
}
330
1F
100
AcDbEntity
  8
中心線
100
AcDbLine
 10
925.7112168940683
 20
416.6397796669661
 30
0.0
 11
1139.711216894068
 21
416.6397796669661
 31
0.0
  0
LINE
  5
554
102
{ACAD_REACTORS
330
562
102
}
330
1F
100
AcDbEntity
  8
中心線
100
AcDbLine
 10
1032.711216894048
 20
309.6397796669651
 30
0.0
 11
1032.711216894048
 21
931.5823434718364
 31
0.0
  0
LINE
  5
55C
102
{ACAD_REACTORS
330
563
102
}
330
1F
100
AcDbEntity
  8
中心線
100
AcDbLine
 10
647.711216894048
 20
416.6397796669661
 30
0.0
 11
817.711216894048
 21
416.639779666966
 31
0.0
  0
LINE
  5
55D
102
{ACAD_REACTORS
330
563
102
}
330
1F
100
AcDbEntity
  8
中心線
100
AcDbLine
 10
732.7112168940478
 20
309.6397796669651
 30
0.0
 11
732.7112168940478
 21
931.5823434718364
 31
0.0
  0
LINE
  5
55E
102
{ACAD_REACTORS
330
564
102
}
330
1F
100
AcDbEntity
  8
中心線
100
AcDbLine
 10
325.7112168940482
 20
416.639779666966
 30
0.0
 11
539.7112168940481
 21
416.6397796669661
 31
0.0
  0
LINE
  5
55F
102
{ACAD_REACTORS
330
564
102
}
330
1F
100
AcDbEntity
  8
中心線
100
AcDbLine
 10
432.7112168940482
 20
309.6397796669651
 30
0.0
 11
432.7112168940483
 21
912.0788348487458
 31
0.0
  0
LINE
  5
560
102
{ACAD_REACTORS
330
565
102
}
330
1F
100
AcDbEntity
  8
中心線
100
AcDbLine
 10
47.71121689404822
 20
416.639779666966
 30
0.0
 11
217.7112168940482
 21
416.639779666966
 31
0.0
  0
LINE
  5
561
102
{ACAD_REACTORS
330
565
102
}
330
1F
100
AcDbEntity
  8
中心線
100
AcDbLine
 10
132.7112168940481
 20
309.6397796669649
 30
0.0
 11
132.711216894048
 21
912.0788348487458
 31
0.0
  0
ENDSEC
  0
SECTION
  2
OBJECTS
  0
DICTIONARY
  5
C
330
0
100
AcDbDictionary
281
     1
  3
ACAD_CIP_PREVIOUS_PRODUCT_INFO
350
28A
  3
ACAD_COLOR
350
280
  3
ACAD_DETAILVIEWSTYLE
350
283
  3
ACAD_GROUP
350
D
  3
ACAD_LAYOUT
350
1A
  3
ACAD_MATERIAL
350
43
  3
ACAD_MLEADERSTYLE
350
5B
  3
ACAD_MLINESTYLE
350
17
  3
ACAD_PLOTSETTINGS
350
19
  3
ACAD_PLOTSTYLENAME
350
E
  3
ACAD_SCALELIST
350
47
  3
ACAD_SECTIONVIEWSTYLE
350
281
  3
ACAD_TABLESTYLE
350
59
  3
ACAD_VISUALSTYLE
350
2A
  3
ACDB_RECOMPOSE_DATA
350
5C1
  3
AcDbVariableDictionary
350
235
  3
DWGPROPS
350
5C2
  0
DICTIONARY
  5
449
330
2
100
AcDbDictionary
280
     1
281
     1
  3
ACAD_LAYERSTATES
360
44A
  0
DICTIONARY
  5
568
330
10
100
AcDbDictionary
280
     1
281
     1
  3
ADSK_XREC_LAYER_RECONCILED
360
569
  0
DICTIONARY
  5
445
330
444
100
AcDbDictionary
280
     1
281
     1
  3
ADSK_XREC_LAYER_RECONCILED
360
56A
  0
DICTIONARY
  5
447
330
446
100
AcDbDictionary
280
     1
281
     1
  3
ADSK_XREC_LAYER_RECONCILED
360
56B
  0
DICTIONARY
  5
2BA
330
1F
100
AcDbDictionary
280
     1
281
     1
  3
ACAD_SORTENTS
360
2BB
  0
XRECORD
  5
28A
102
{ACAD_REACTORS
330
C
102
}
330
C
100
AcDbXrecord
280
     1
300
ACDLT
300
2016
300
ACDLT_F_S
  0
DICTIONARY
  5
280
102
{ACAD_REACTORS
330
C
102
}
330
C
100
AcDbDictionary
281
     1
  0
DICTIONARY
  5
283
102
{ACAD_REACTORS
330
C
102
}
330
C
100
AcDbDictionary
281
     1
  3
Metric50
350
284
  0
DICTIONARY
  5
D
102
{ACAD_REACTORS
330
C
102
}
330
C
100
AcDbDictionary
281
     1
  3
*A1
350
562
  3
*A2
350
563
  3
*A3
350
564
  3
*A4
350
565
  3
*A5
350
566
  3
*A7
350
5B4
  0
DICTIONARY
  5
1A
102
{ACAD_REACTORS
330
C
102
}
330
C
100
AcDbDictionary
281
     1
  3
Layout1
350
1E
  3
Model
350
22
  3
レイアウト1
350
285
  0
DICTIONARY
  5
43
102
{ACAD_REACTORS
330
C
102
}
330
C
100
AcDbDictionary
281
     1
  3
ByBlock
350
45
  3
ByLayer
350
44
  3
Global
350
46
  0
DICTIONARY
  5
5B
102
{ACAD_REACTORS
330
C
102
}
330
C
100
AcDbDictionary
281
     1
  3
Standard
350
5C
  0
DICTIONARY
  5
17
102
{ACAD_REACTORS
330
C
102
}
330
C
100
AcDbDictionary
281
     1
  3
Standard
350
18
  0
DICTIONARY
  5
19
102
{ACAD_REACTORS
330
C
102
}
330
C
100
AcDbDictionary
281
     1
  0
ACDBDICTIONARYWDFLT
  5
E
102
{ACAD_REACTORS
330
C
102
}
330
C
100
AcDbDictionary
281
     1
  3
Normal
350
F
100
AcDbDictionaryWithDefault
340
F
  0
DICTIONARY
  5
47
102
{ACAD_REACTORS
330
C
102
}
330
C
100
AcDbDictionary
281
     1
  3
A0
350
48
  3
A1
350
49
  3
A2
350
4A
  3
A3
350
4B
  3
A4
350
4C
  3
A5
350
4D
  3
A6
350
4E
  3
A7
350
4F
  3
A8
350
50
  3
A9
350
51
  3
B0
350
52
  3
B1
350
53
  3
B2
350
54
  3
B3
350
55
  3
B4
350
56
  3
B5
350
57
  3
B6
350
58
  0
DICTIONARY
  5
281
102
{ACAD_REACTORS
330
C
102
}
330
C
100
AcDbDictionary
281
     1
  3
Metric50
350
282
  0
DICTIONARY
  5
59
102
{ACAD_REACTORS
330
C
102
}
330
C
100
AcDbDictionary
281
     1
  3
Standard
350
5A
  0
DICTIONARY
  5
2A
102
{ACAD_REACTORS
330
C
102
}
330
C
100
AcDbDictionary
281
     1
  3
2dWireframe
350
2F
  3
Basic
350
32
  3
Brighten
350
36
  3
ColorChange
350
3A
  3
Conceptual
350
34
  3
Dim
350
35
  3
EdgeColorOff
350
3D
  3
Facepattern
350
39
  3
Flat
350
2B
  3
FlatWithEdges
350
2C
  3
Gouraud
350
2D
  3
GouraudWithEdges
350
2E
  3
Hidden
350
31
  3
JitterOff
350
3B
  3
Linepattern
350
38
  3
OverhangOff
350
3C
  3
Realistic
350
33
  3
Shaded
350
42
  3
Shaded with edges
350
41
  3
Shades of Gray
350
3E
  3
Sketchy
350
3F
  3
Thicken
350
37
  3
Wireframe
350
30
  3
X-Ray
350
40
  0
XRECORD
  5
5C1
102
{ACAD_REACTORS
330
C
102
}
330
C
100
AcDbXrecord
280
     1
 90
        1
330
5A
  0
DICTIONARY
  5
235
102
{ACAD_REACTORS
330
C
102
}
330
C
100
AcDbDictionary
281
     1
  3
CANNOSCALE
350
243
  3
CENTEREXE
350
23C
  3
CENTERLTYPEFILE
350
23D
  3
CMLEADERSTYLE
350
237
  3
CTABLESTYLE
350
236
  3
CVIEWDETAILSTYLE
350
56C
  3
CVIEWSECTIONSTYLE
350
56D
  3
DIMASSOC
350
23E
  3
HIDETEXT
350
23F
  3
INDEXCTL
350
5B9
  3
LAYEREVAL
350
56F
  3
LAYERNOTIFY
350
570
  3
LIGHTINGUNITS
350
56E
  3
LOFTANG1
350
5BC
  3
LOFTANG2
350
5BD
  3
LONGITUDE
350
5BE
  3
MSLTSCALE
350
244
  3
PSOLHEIGHT
350
5BB
  3
PSOLWIDTH
350
5BA
  3
SORTENTS
350
5B8
  3
XCLIPFRAME
350
5BF
  0
XRECORD
  5
5C2
102
{ACAD_REACTORS
330
C
102
}
330
C
100
AcDbXrecord
280
     1
  1
DWGPROPS COOKIE
  2

  3

  4

  6
File was created by TR2_DExp
  7

  8
fujino
  9

300
=
301
=
302
=
303
=
304
=
305
=
306
=
307
=
308
=
309
=
 40
0.0133684259259259
 41
2455188.75
 42
2459754.598070047
  1

 90
        0
  0
DICTIONARY
  5
44A
102
{ACAD_REACTORS
330
449
102
}
330
449
100
AcDbDictionary
281
     1
  0
XRECORD
  5
569
102
{ACAD_REACTORS
330
568
102
}
330
568
100
AcDbXrecord
280
     1
290
     1
  0
XRECORD
  5
56A
102
{ACAD_REACTORS
330
445
102
}
330
445
100
AcDbXrecord
280
     1
290
     1
  0
XRECORD
  5
56B
102
{ACAD_REACTORS
330
447
102
}
330
447
100
AcDbXrecord
280
     1
290
     1
  0
SORTENTSTABLE
  5
2BB
102
{ACAD_REACTORS
330
2BA
102
}
330
2BA
100
AcDbSortentsTable
330
1F
331
3AD
  5
304
331
3A9
  5
300
331
427
  5
2CD
331
3E4
  5
33B
331
3A5
  5
2FC
331
33F
  5
3CE
331
423
  5
2C9
331
3E0
  5
337
331
33B
  5
3CA
331
41F
  5
2C5
331
3A1
  5
2F8
331
294
  5
41D
331
41B
  5
2C1
331
337
  5
3C6
331
376
  5
366
331
551
  5
551
331
290
  5
419
331
333
  5
3C2
331
372
  5
362
331
2CF
  5
3F0
331
2CB
  5
3EC
331
2C7
  5
3E8
331
306
  5
395
331
2C3
  5
3E4
331
302
  5
391
331
39D
  5
2F4
331
3DC
  5
333
331
399
  5
2F0
331
417
  5
2BD
331
3D8
  5
32F
331
395
  5
2EC
331
36E
  5
35E
331
28C
  5
415
331
32F
  5
3BE
331
413
  5
2B7
331
3D4
  5
32B
331
3D0
  5
327
331
55E
  5
55E
331
40F
  5
2B3
331
36A
  5
35A
331
391
  5
381
331
32B
  5
3BA
331
40B
  5
2AF
331
327
  5
3B6
331
366
  5
356
331
560
  5
560
331
2FE
  5
38D
331
323
  5
3B2
331
362
  5
352
331
2B7
  5
440
331
2B3
  5
43C
331
2FA
  5
389
331
2AF
  5
438
331
2F6
  5
385
331
2AB
  5
434
331
2F2
  5
413
331
38D
  5
37D
331
3CC
  5
323
331
389
  5
379
331
407
  5
2AB
331
3C8
  5
31F
331
385
  5
375
331
403
  5
2A7
331
3C4
  5
31B
331
31F
  5
3AE
331
35E
  5
34E
331
3C0
  5
317
331
3FF
  5
2A3
331
43E
  5
2E4
331
35A
  5
34A
331
441
  5
2E7
331
381
  5
371
331
31B
  5
3AA
331
3FB
  5
29F
331
317
  5
3A6
331
356
  5
346
331
43A
  5
2E0
331
2EE
  5
40F
331
313
  5
3A2
331
352
  5
342
331
2A7
  5
430
331
2A3
  5
42C
331
29F
  5
428
331
2E6
  5
407
331
29B
  5
424
331
2E2
  5
403
331
37D
  5
36D
331
3BC
  5
313
331
379
  5
369
331
3B8
  5
30F
331
3F7
  5
29B
331
436
  5
2DC
331
432
  5
2D8
331
2BC
  5
3DD
331
3F3
  5
297
331
3B4
  5
30B
331
30F
  5
39E
331
34E
  5
33E
331
3B0
  5
307
331
3EF
  5
293
331
42E
  5
2D4
331
34A
  5
3D9
331
2B8
  5
441
331
30B
  5
39A
331
3EB
  5
28F
331
346
  5
3D5
331
42A
  5
2D0
331
2DE
  5
3FF
331
342
  5
3D1
331
2DA
  5
3FB
331
2D6
  5
3F7
331
2D2
  5
3F3
331
3AC
  5
303
331
3A8
  5
2FF
331
426
  5
2CC
331
3E7
  5
28B
331
3E3
  5
33A
331
422
  5
2C8
331
3A4
  5
2FB
331
33E
  5
3CD
331
3A0
  5
2F7
331
41E
  5
2C4
331
33A
  5
3C9
331
297
  5
420
331
554
  5
554
331
293
  5
41C
331
41A
  5
2C0
331
336
  5
3C5
331
375
  5
365
331
550
  5
550
331
2CE
  5
3EF
331
332
  5
3C1
331
371
  5
361
331
2CA
  5
3EB
331
2C6
  5
3E7
331
305
  5
394
331
301
  5
390
331
2C2
  5
3E3
331
3DF
  5
336
331
39C
  5
2F3
331
3DB
  5
332
331
398
  5
2EF
331
28F
  5
418
331
416
  5
2BC
331
3D7
  5
32E
331
3D3
  5
32A
331
394
  5
2EB
331
36D
  5
35D
331
28B
  5
414
331
32E
  5
3BD
331
412
  5
2B6
331
55D
  5
55D
331
40E
  5
2B2
331
32A
  5
3B9
331
369
  5
359
331
390
  5
380
331
40A
  5
2AE
331
326
  5
3B5
331
365
  5
355
331
2FD
  5
38C
331
322
  5
3B1
331
361
  5
351
331
2B6
  5
43F
331
2B2
  5
43B
331
2F9
  5
388
331
2AE
  5
437
331
2F5
  5
384
331
2AA
  5
433
331
2F1
  5
412
331
3CF
  5
326
331
38C
  5
37C
331
3CB
  5
322
331
388
  5
378
331
406
  5
2AA
331
3C7
  5
31E
331
384
  5
374
331
35D
  5
34D
331
31E
  5
3AD
331
402
  5
2A6
331
3C3
  5
31A
331
3FE
  5
2A2
331
43D
  5
2E3
331
359
  5
349
331
440
  5
2E6
331
380
  5
370
331
31A
  5
3A9
331
3FA
  5
29E
331
316
  5
3A5
331
355
  5
345
331
439
  5
2DF
331
312
  5
3A1
331
351
  5
341
331
2A6
  5
42F
331
2A2
  5
42B
331
29E
  5
427
331
2E5
  5
406
331
29A
  5
423
331
2E1
  5
402
331
3BF
  5
316
331
37C
  5
36C
331
3BB
  5
312
331
378
  5
368
331
3B7
  5
30E
331
2BF
  5
3E0
331
3F6
  5
29A
331
435
  5
2DB
331
431
  5
2D7
331
3F2
  5
296
331
3B3
  5
30A
331
30E
  5
39D
331
34D
  5
3DC
331
3EE
  5
292
331
349
  5
3D8
331
42D
  5
2D3
331
30A
  5
399
331
3EA
  5
28E
331
345
  5
3D4
331
429
  5
2CF
331
2DD
  5
3FE
331
341
  5
3D0
331
2D9
  5
3FA
331
2D5
  5
3F6
331
2D1
  5
3F2
331
3AF
  5
306
331
3AB
  5
302
331
3A7
  5
2FE
331
425
  5
2CB
331
3E6
  5
33D
331
3E2
  5
339
331
421
  5
2C7
331
3A3
  5
2FA
331
33D
  5
3CC
331
296
  5
41F
331
339
  5
3C8
331
41D
  5
2C3
331
553
  5
553
331
292
  5
41B
331
419
  5
2BF
331
335
  5
3C4
331
374
  5
364
331
2CD
  5
3EE
331
331
  5
3C0
331
370
  5
360
331
2C9
  5
3EA
331
2C5
  5
3E6
331
304
  5
393
331
300
  5
38F
331
2C1
  5
3E2
331
39F
  5
2F6
331
3DE
  5
335
331
39B
  5
2F2
331
3DA
  5
331
331
397
  5
2EE
331
28E
  5
417
331
415
  5
2B9
331
3D6
  5
32D
331
3D2
  5
329
331
411
  5
2B5
331
36C
  5
35C
331
393
  5
2EA
331
32D
  5
3BC
331
55C
  5
55C
331
40D
  5
2B1
331
329
  5
3B8
331
368
  5
358
331
409
  5
2AD
331
325
  5
3B4
331
364
  5
354
331
2B5
  5
43E
331
2FC
  5
38B
331
321
  5
3B0
331
360
  5
350
331
2B1
  5
43A
331
2F8
  5
387
331
2AD
  5
436
331
2F4
  5
383
331
2F0
  5
411
331
2A9
  5
432
331
38F
  5
37F
331
3CE
  5
325
331
38B
  5
37B
331
3CA
  5
321
331
387
  5
377
331
405
  5
2A9
331
3C6
  5
31D
331
3C2
  5
319
331
383
  5
373
331
35C
  5
34C
331
31D
  5
3AC
331
401
  5
2A5
331
3FD
  5
2A1
331
319
  5
3A8
331
358
  5
348
331
43C
  5
2E2
331
3F9
  5
29D
331
315
  5
3A4
331
354
  5
344
331
438
  5
2DE
331
311
  5
3A0
331
350
  5
340
331
2A5
  5
42E
331
2A1
  5
42A
331
2E8
  5
409
331
29D
  5
426
331
2E4
  5
405
331
299
  5
422
331
2E0
  5
401
331
3BE
  5
315
331
37F
  5
36F
331
37B
  5
36B
331
3BA
  5
311
331
3B6
  5
30D
331
2BE
  5
3DF
331
3F5
  5
299
331
434
  5
2DA
331
430
  5
2D6
331
34C
  5
3DB
331
30D
  5
39C
331
3F1
  5
295
331
3B2
  5
309
331
3ED
  5
291
331
348
  5
3D7
331
42C
  5
2D2
331
309
  5
398
331
3E9
  5
28D
331
344
  5
3D3
331
428
  5
2CE
331
2DC
  5
3FD
331
340
  5
3CF
331
2D8
  5
3F9
331
2D4
  5
3F5
331
2D0
  5
3F1
331
3AE
  5
305
331
3AA
  5
301
331
3A6
  5
2FD
331
424
  5
2CA
331
3E5
  5
33C
331
3E1
  5
338
331
420
  5
2C6
331
3A2
  5
2F9
331
33C
  5
3CB
331
295
  5
41E
331
41C
  5
2C2
331
338
  5
3C7
331
377
  5
367
331
552
  5
552
331
291
  5
41A
331
418
  5
2BE
331
334
  5
3C3
331
373
  5
363
331
2CC
  5
3ED
331
330
  5
3BF
331
2C8
  5
3E9
331
307
  5
396
331
2C4
  5
3E5
331
303
  5
392
331
2C0
  5
3E1
331
39E
  5
2F5
331
3DD
  5
334
331
39A
  5
2F1
331
3D9
  5
330
331
396
  5
2ED
331
28D
  5
416
331
414
  5
2B8
331
3D5
  5
32C
331
36F
  5
35F
331
3D1
  5
328
331
55F
  5
55F
331
410
  5
2B4
331
36B
  5
35B
331
392
  5
2E9
331
32C
  5
3BB
331
40C
  5
2B0
331
328
  5
3B7
331
367
  5
357
331
561
  5
561
331
408
  5
2AC
331
2FF
  5
38E
331
324
  5
3B3
331
363
  5
353
331
2B4
  5
43D
331
2FB
  5
38A
331
320
  5
3AF
331
2B0
  5
439
331
2F7
  5
386
331
2AC
  5
435
331
2F3
  5
382
331
2A8
  5
431
331
38E
  5
37E
331
3CD
  5
324
331
54F
  5
54F
331
38A
  5
37A
331
3C9
  5
320
331
386
  5
376
331
404
  5
2A8
331
3C5
  5
31C
331
35F
  5
34F
331
3C1
  5
318
331
400
  5
2A4
331
43F
  5
2E5
331
35B
  5
34B
331
442
  5
2E8
331
382
  5
372
331
31C
  5
3AB
331
3FC
  5
2A0
331
318
  5
3A7
331
357
  5
347
331
43B
  5
2E1
331
3F8
  5
29C
331
2EF
  5
410
331
314
  5
3A3
331
353
  5
343
331
2A4
  5
42D
331
2EB
  5
40C
331
310
  5
39F
331
2A0
  5
429
331
2E7
  5
408
331
29C
  5
425
331
2E3
  5
404
331
298
  5
421
331
37E
  5
36E
331
3BD
  5
314
331
37A
  5
36A
331
3B9
  5
310
331
437
  5
2DD
331
433
  5
2D9
331
2BD
  5
3DE
331
3F4
  5
298
331
3B5
  5
30C
331
34F
  5
33F
331
3B1
  5
308
331
42F
  5
2D5
331
34B
  5
3DA
331
2B9
  5
442
331
30C
  5
39B
331
3F0
  5
294
331
3EC
  5
290
331
308
  5
397
331
347
  5
3D6
331
42B
  5
2D1
331
3E8
  5
28C
331
2DF
  5
400
331
343
  5
3D2
331
2DB
  5
3FC
331
2D7
  5
3F8
331
2D3
  5
3F4
  0
ACDBDETAILVIEWSTYLE
  5
284
102
{ACAD_XDICTIONARY
360
5FA
102
}
102
{ACAD_REACTORS
330
283
102
}
330
283
100
AcDbModelDocViewStyle
 70
     0
  3
Metric50
290
     0
100
AcDbDetailViewStyle
 70
     0
 71
     0
 90
        3
 71
     1
340
11
 40
5.0
340
0
 40
5.0
300

 40
0.0
280
     1
 71
     2
340
16
 90
       25
 71
     3
340
11
 40
5.0
 90
        0
 40
15.0
 90
        1
300
%<\AcVar ViewDetailId>% (%<\AcVar ViewScale \f "%sn">%)
 71
     4
340
16
 90
       25
340
16
 90
       25
280
     0
  0
GROUP
  5
562
102
{ACAD_REACTORS
330
D
102
}
330
D
100
AcDbGroup
300

 70
     1
 71
     1
340
554
340
553
340
34D
340
34C
340
34B
340
34A
340
349
340
348
340
347
340
346
340
345
340
344
340
343
340
342
340
341
340
340
340
33F
340
33E
340
33D
340
33C
340
33B
340
33A
340
339
340
338
340
337
340
336
340
335
340
334
340
333
340
332
340
331
340
330
340
32F
340
32E
340
32D
340
32C
340
32B
340
32A
340
329
340
328
340
327
340
326
340
325
340
324
340
323
340
322
340
321
340
320
340
31F
340
31E
340
31D
340
31C
340
31B
340
31A
340
319
340
318
340
317
340
316
340
315
340
314
340
313
340
312
340
311
340
310
340
30F
340
30E
340
30D
340
30C
340
30B
340
30A
340
309
340
308
340
307
340
306
340
305
340
304
340
303
340
302
340
301
340
300
340
2FF
340
2FE
340
2FD
340
2FC
340
2FB
340
2FA
340
2F9
340
2F8
340
2F7
340
2F6
340
2F5
340
2F4
340
2F3
  0
GROUP
  5
563
102
{ACAD_REACTORS
330
D
102
}
330
D
100
AcDbGroup
300

 70
     1
 71
     1
340
55D
340
55C
340
391
340
390
340
38F
340
38E
340
38D
340
38C
340
38B
340
38A
340
389
340
388
340
387
340
386
340
385
340
384
340
383
340
382
340
381
340
380
340
37F
340
37E
340
37D
340
37C
340
37B
340
37A
340
379
340
378
340
377
340
376
340
375
340
374
340
373
340
372
340
371
340
370
340
36F
340
36E
340
36D
340
36C
340
36B
340
36A
340
369
340
368
340
367
340
366
340
365
340
364
340
363
340
362
340
361
340
360
340
35F
340
35E
340
35D
340
35C
340
35B
340
35A
340
359
340
358
340
357
340
356
340
355
340
354
340
353
340
352
340
351
340
350
340
34F
340
34E
  0
GROUP
  5
564
102
{ACAD_REACTORS
330
D
102
}
330
D
100
AcDbGroup
300

 70
     1
 71
     1
340
55F
340
55E
340
442
340
441
340
440
340
43F
340
43E
340
43D
340
43C
340
43B
340
43A
340
439
340
438
340
437
340
436
340
435
340
434
340
433
340
432
340
431
340
430
340
42F
340
42E
340
42D
340
42C
340
42B
340
42A
340
429
340
428
340
427
340
426
340
425
340
424
340
423
340
422
340
421
340
420
340
41F
340
41E
340
41D
340
41C
340
41B
340
41A
340
419
340
418
340
417
340
416
340
415
340
414
340
413
340
412
340
411
340
410
340
40F
340
40E
340
40D
340
40C
340
40B
340
40A
340
409
340
408
340
407
340
406
340
405
340
404
340
403
340
402
340
401
340
400
340
3FF
340
3FE
340
3FD
340
3FC
340
3FB
340
3FA
340
3F9
340
3F8
340
3F7
340
3F6
340
3F5
340
3F4
340
3F3
340
3F2
340
3F1
340
3F0
340
3EF
340
3EE
340
3ED
340
3EC
340
3EB
340
3EA
340
3E9
340
3E8
340
3E7
  0
GROUP
  5
565
102
{ACAD_REACTORS
330
D
102
}
330
D
100
AcDbGroup
300

 70
     1
 71
     1
340
561
340
560
340
3E6
340
3E5
340
3E4
340
3E3
340
3E2
340
3E1
340
3E0
340
3DF
340
3DE
340
3DD
340
3DC
340
3DB
340
3DA
340
3D9
340
3D8
340
3D7
340
3D6
340
3D5
340
3D4
340
3D3
340
3D2
340
3D1
340
3D0
340
3CF
340
3CE
340
3CD
340
3CC
340
3CB
340
3CA
340
3C9
340
3C8
340
3C7
340
3C6
340
3C5
340
3C4
340
3C3
340
3C2
340
3C1
340
3C0
340
3BF
340
3BE
340
3BD
340
3BC
340
3BB
340
3BA
340
3B9
340
3B8
340
3B7
340
3B6
340
3B5
340
3B4
340
3B3
340
3B2
340
3B1
340
3B0
340
3AF
340
3AE
340
3AD
340
3AC
340
3AB
340
3AA
340
3A9
340
3A8
340
3A7
340
3A6
340
3A5
340
3A4
340
3A3
340
3A2
340
3A1
340
3A0
340
39F
340
39E
340
39D
340
39C
340
39B
340
39A
340
399
340
398
340
397
340
396
340
395
340
394
340
393
340
392
  0
GROUP
  5
566
102
{ACAD_REACTORS
330
D
102
}
330
D
100
AcDbGroup
300

 70
     1
 71
     1
340
550
340
54F
340
2B9
340
2B8
340
2B7
340
2B6
340
2B5
340
2B4
340
2B3
340
2B2
340
2B1
340
2B0
340
2AF
340
2AE
340
2AD
340
2AC
340
2AB
340
2AA
340
2A9
340
2A8
340
2A7
340
2A6
340
2A5
340
2A4
340
2A3
340
2A2
340
2A1
340
2A0
340
29F
340
29E
340
29D
340
29C
340
29B
340
29A
340
299
340
298
340
297
340
296
340
295
340
294
340
293
340
292
340
291
340
290
340
28F
340
28E
340
28D
340
28C
340
28B
  0
GROUP
  5
5B4
102
{ACAD_REACTORS
330
D
102
}
330
D
100
AcDbGroup
300

 70
     1
 71
     1
340
552
340
551
340
2F2
340
2F1
340
2F0
340
2EF
340
2EE
340
2EB
340
2E8
340
2E7
340
2E6
340
2E5
340
2E4
340
2E3
340
2E2
340
2E1
340
2E0
340
2DF
340
2DE
340
2DD
340
2DC
340
2DB
340
2DA
340
2D9
340
2D8
340
2D7
340
2D6
340
2D5
340
2D4
340
2D3
340
2D2
340
2D1
340
2D0
340
2CF
340
2CE
340
2CD
340
2CC
340
2CB
340
2CA
340
2C9
340
2C8
340
2C7
340
2C6
340
2C5
340
2C4
340
2C3
340
2C2
340
2C1
340
2C0
340
2BF
340
2BE
340
2BD
340
2BC
  0
LAYOUT
  5
1E
102
{ACAD_XDICTIONARY
360
5C3
102
}
102
{ACAD_REACTORS
330
1A
102
}
330
1A
100
AcDbPlotSettings
  1

  2
none_device
  4

  6

 40
0.0
 41
0.0
 42
0.0
 43
0.0
 44
0.0
 45
0.0
 46
0.0
 47
0.0
 48
0.0
 49
0.0
140
0.0
141
0.0
142
1.0
143
1.0
 70
   688
 72
     1
 73
     0
 74
     5
  7

 75
    16
147
1.0
148
0.0
149
0.0
100
AcDbLayout
  1
Layout1
 70
     1
 71
     1
 10
0.0
 20
0.0
 11
420.0
 21
297.0
 12
0.0
 22
0.0
 32
0.0
 14
1.000000000000000E+20
 24
1.000000000000000E+20
 34
1.000000000000000E+20
 15
-1.000000000000000E+20
 25
-1.000000000000000E+20
 35
-1.000000000000000E+20
146
0.0
 13
0.0
 23
0.0
 33
0.0
 16
1.0
 26
0.0
 36
0.0
 17
0.0
 27
1.0
 37
0.0
 76
     0
330
1B
  0
LAYOUT
  5
22
102
{ACAD_XDICTIONARY
360
5C5
102
}
102
{ACAD_REACTORS
330
1A
102
}
330
1A
100
AcDbPlotSettings
  1

  2
none_device
  4
Letter_(8.50_x_11.00_Inches)
  6

 40
6.349999999999998
 41
6.349999999999998
 42
6.350005079999998
 43
6.350005079999998
 44
215.9
 45
279.4
 46
0.0
 47
0.0
 48
0.0
 49
0.0
140
0.0
141
0.0
142
1.0
143
1.0
 70
  1712
 72
     1
 73
     0
 74
     0
  7

 75
     0
147
1.0
148
0.0
149
0.0
100
AcDbLayout
  1
Model
 70
     1
 71
     0
 10
-391.4131393432715
 20
-502.5732040405375
 11
1165.72403717041
 21
881.5731201171976
 12
0.0
 22
0.0
 32
0.0
 14
-391.4131393432715
 24
-502.5732040405375
 34
0.0
 15
1165.72403717041
 25
881.5731201171976
 35
0.0
146
0.0
 13
0.0
 23
0.0
 33
0.0
 16
1.0
 26
0.0
 36
0.0
 17
0.0
 27
1.0
 37
0.0
 76
     0
330
1F
331
29
  0
LAYOUT
  5
285
102
{ACAD_XDICTIONARY
360
5FC
102
}
102
{ACAD_REACTORS
330
1A
102
}
330
1A
100
AcDbPlotSettings
  1

  2
青梅 FX DocuCentre-V C2275 T2
  4

  6

 40
0.0
 41
0.0
 42
0.0
 43
0.0
 44
0.0
 45
0.0
 46
0.0
 47
0.0
 48
0.0
 49
0.0
140
0.0
141
0.0
142
1.0
143
1.0
 70
   688
 72
     0
 73
     0
 74
     5
  7
AutoCAD_PEN.ctb
 75
    16
147
1.0
148
0.0
149
0.0
100
AcDbLayout
  1
レイアウト1
 70
     1
 71
     2
 10
0.0
 20
0.0
 11
12.0
 21
9.0
 12
0.0
 22
0.0
 32
0.0
 14
0.0
 24
0.0
 34
0.0
 15
0.0
 25
0.0
 35
0.0
146
0.0
 13
0.0
 23
0.0
 33
0.0
 16
1.0
 26
0.0
 36
0.0
 17
0.0
 27
1.0
 37
0.0
 76
     0
330
23
  0
MATERIAL
  5
45
102
{ACAD_XDICTIONARY
360
277
102
}
102
{ACAD_REACTORS
330
43
102
}
330
43
100
AcDbMaterial
  1
ByBlock
  0
MATERIAL
  5
44
102
{ACAD_XDICTIONARY
360
275
102
}
102
{ACAD_REACTORS
330
43
102
}
330
43
100
AcDbMaterial
  1
ByLayer
  0
MATERIAL
  5
46
102
{ACAD_XDICTIONARY
360
279
102
}
102
{ACAD_REACTORS
330
43
102
}
330
43
100
AcDbMaterial
  1
Global
  0
MLEADERSTYLE
  5
5C
102
{ACAD_REACTORS
330
5B
102
}
330
5B
100
AcDbMLeaderStyle
170
     2
171
     1
172
     0
 90
        2
 40
0.0
 41
0.0
173
     1
 91
-1056964608
340
14
 92
       -2
290
     1
 42
2.0
291
     1
 43
8.0
  3
Standard
 44
4.0
300

342
11
174
     1
178
     6
175
     1
176
     0
 93
-1056964608
 45
4.0
292
     0
297
     0
 46
4.0
 94
-1056964608
 47
1.0
 49
1.0
140
1.0
293
     1
141
0.0
294
     1
177
     0
142
1.0
295
     0
296
     0
143
3.75
1001
ACAD_MLEADERVER
1070
     2
  0
MLINESTYLE
  5
18
102
{ACAD_REACTORS
330
17
102
}
330
17
100
AcDbMlineStyle
  2
STANDARD
 70
     0
  3

 62
   256
 51
90.0
 52
90.0
 71
     2
 49
0.5
 62
   256
  6
BYLAYER
 49
-0.5
 62
   256
  6
BYLAYER
  0
ACDBPLACEHOLDER
  5
F
102
{ACAD_REACTORS
330
E
102
}
330
E
  0
SCALE
  5
48
102
{ACAD_REACTORS
330
47
102
}
330
47
100
AcDbScale
 70
     0
300
1:1
140
1.0
141
1.0
290
     1
  0
SCALE
  5
49
102
{ACAD_REACTORS
330
47
102
}
330
47
100
AcDbScale
 70
     0
300
1:2
140
1.0
141
2.0
290
     0
  0
SCALE
  5
4A
102
{ACAD_REACTORS
330
47
102
}
330
47
100
AcDbScale
 70
     0
300
1:4
140
1.0
141
4.0
290
     0
  0
SCALE
  5
4B
102
{ACAD_REACTORS
330
47
102
}
330
47
100
AcDbScale
 70
     0
300
1:5
140
1.0
141
5.0
290
     0
  0
SCALE
  5
4C
102
{ACAD_REACTORS
330
47
102
}
330
47
100
AcDbScale
 70
     0
300
1:8
140
1.0
141
8.0
290
     0
  0
SCALE
  5
4D
102
{ACAD_REACTORS
330
47
102
}
330
47
100
AcDbScale
 70
     0
300
1:10
140
1.0
141
10.0
290
     0
  0
SCALE
  5
4E
102
{ACAD_REACTORS
330
47
102
}
330
47
100
AcDbScale
 70
     0
300
1:16
140
1.0
141
16.0
290
     0
  0
SCALE
  5
4F
102
{ACAD_REACTORS
330
47
102
}
330
47
100
AcDbScale
 70
     0
300
1:20
140
1.0
141
20.0
290
     0
  0
SCALE
  5
50
102
{ACAD_REACTORS
330
47
102
}
330
47
100
AcDbScale
 70
     0
300
1:30
140
1.0
141
30.0
290
     0
  0
SCALE
  5
51
102
{ACAD_REACTORS
330
47
102
}
330
47
100
AcDbScale
 70
     0
300
1:40
140
1.0
141
40.0
290
     0
  0
SCALE
  5
52
102
{ACAD_REACTORS
330
47
102
}
330
47
100
AcDbScale
 70
     0
300
1:50
140
1.0
141
50.0
290
     0
  0
SCALE
  5
53
102
{ACAD_REACTORS
330
47
102
}
330
47
100
AcDbScale
 70
     0
300
1:100
140
1.0
141
100.0
290
     0
  0
SCALE
  5
54
102
{ACAD_REACTORS
330
47
102
}
330
47
100
AcDbScale
 70
     0
300
2:1
140
2.0
141
1.0
290
     0
  0
SCALE
  5
55
102
{ACAD_REACTORS
330
47
102
}
330
47
100
AcDbScale
 70
     0
300
4:1
140
4.0
141
1.0
290
     0
  0
SCALE
  5
56
102
{ACAD_REACTORS
330
47
102
}
330
47
100
AcDbScale
 70
     0
300
8:1
140
8.0
141
1.0
290
     0
  0
SCALE
  5
57
102
{ACAD_REACTORS
330
47
102
}
330
47
100
AcDbScale
 70
     0
300
10:1
140
10.0
141
1.0
290
     0
  0
SCALE
  5
58
102
{ACAD_REACTORS
330
47
102
}
330
47
100
AcDbScale
 70
     0
300
100:1
140
100.0
141
1.0
290
     0
  0
ACDBSECTIONVIEWSTYLE
  5
282
102
{ACAD_XDICTIONARY
360
5F8
102
}
102
{ACAD_REACTORS
330
281
102
}
330
281
100
AcDbModelDocViewStyle
 70
     0
  3
Metric50
290
     0
100
AcDbSectionViewStyle
 70
     0
 71
     0
 90
      102
 71
     1
340
11
 40
5.0
340
0
340
0
 40
5.0
300
I, O, Q, S, X, Z
 40
10.0
 90
        0
 40
2.5
 90
        0
 71
     2
340
16
 90
       25
340
16
 90
       50
 40
5.0
 40
2.5
 40
5.0
 71
     3
340
11
 40
5.0
 90
        0
 40
15.0
 90
        1
300
%<\AcVar ViewSectionStartId>%-%<\AcVar ViewSectionEndId>% (%<\AcVar ViewScale \f "%sn">%)
 71
     4
300
ANSI31
 40
1.0
 90
        0
290
     0
290
     0
 90
        6
 40
0.0
 40
1.570796326794896
 40
0.2617993877991494
 40
1.308996938995747
 40
-0.2617993877991494
 40
1.832595714594045
  0
TABLESTYLE
  5
5A
102
{ACAD_XDICTIONARY
360
571
102
}
102
{ACAD_REACTORS
330
59
102
}
330
59
100
AcDbTableStyle
  3
Standard
 70
     0
 71
     0
 40
1.5
 41
1.5
280
     0
281
     0
  7
Standard
140
4.5
170
     2
 62
     0
 63
     7
283
     0
274
    -2
284
     1
 64
     0
275
    -2
285
     1
 65
     0
276
    -2
286
     1
 66
     0
277
    -2
287
     1
 67
     0
278
    -2
288
     1
 68
     0
279
    -2
289
     1
 69
     0
  7
Standard
140
6.0
170
     5
 62
     0
 63
     7
283
     0
274
    -2
284
     1
 64
     0
275
    -2
285
     1
 65
     0
276
    -2
286
     1
 66
     0
277
    -2
287
     1
 67
     0
278
    -2
288
     1
 68
     0
279
    -2
289
     1
 69
     0
  7
Standard
140
4.5
170
     5
 62
     0
 63
     7
283
     0
274
    -2
284
     1
 64
     0
275
    -2
285
     1
 65
     0
276
    -2
286
     1
 66
     0
277
    -2
287
     1
 67
     0
278
    -2
288
     1
 68
     0
279
    -2
289
     1
 69
     0
  0
VISUALSTYLE
  5
2F
102
{ACAD_XDICTIONARY
360
5CF
102
}
102
{ACAD_REACTORS
330
2A
102
}
330
2A
100
AcDbVisualStyle
  2

 70
     4
 71
     0
 72
     2
 73
     0
 90
        0
 40
-0.6
 41
-30.0
 62
     5
 63
     7
 74
     1
 91
        4
 64
     7
 65
   257
 75
     1
175
     1
 42
1.0
 92
        0
 66
   257
 43
1.0
 76
     1
 77
     6
 78
     2
 67
     7
 79
     5
170
     0
171
     0
290
     0
174
     0
 93
        1
 44
0.0
173
     0
291
     0
 45
0.0
1001
ACAD
1000
AcDbSavedByObjectVersion
1070
     0
  0
VISUALSTYLE
  5
32
102
{ACAD_XDICTIONARY
360
5D5
102
}
102
{ACAD_REACTORS
330
2A
102
}
330
2A
100
AcDbVisualStyle
  2

 70
     7
 71
     1
 72
     0
 73
     1
 90
        0
 40
-0.6
 41
-30.0
 62
     5
 63
     7
 74
     0
 91
        4
 64
     7
 65
   257
 75
     1
175
     1
 42
1.0
 92
        8
 66
     7
 43
1.0
 76
     1
 77
     6
 78
     2
 67
     7
 79
     5
170
     0
171
     0
290
     0
174
     0
 93
        1
 44
0.0
173
     0
291
     1
 45
0.0
1001
ACAD
1000
AcDbSavedByObjectVersion
1070
     0
  0
VISUALSTYLE
  5
36
102
{ACAD_XDICTIONARY
360
5DD
102
}
102
{ACAD_REACTORS
330
2A
102
}
330
2A
100
AcDbVisualStyle
  2

 70
    12
 71
     2
 72
     2
 73
     0
 90
        0
 40
-0.6
 41
-30.0
 62
     5
 63
     7
 74
     1
 91
        4
 64
     7
 65
   257
 75
     1
175
     1
 42
1.0
 92
        8
 66
     7
 43
1.0
 76
     1
 77
     6
 78
     2
 67
     7
 79
     5
170
     0
171
     0
290
     0
174
     0
 93
        1
 44
50.0
173
     0
291
     1
 45
0.0
1001
ACAD
1000
AcDbSavedByObjectVersion
1070
     0
  0
VISUALSTYLE
  5
3A
102
{ACAD_XDICTIONARY
360
5E5
102
}
102
{ACAD_REACTORS
330
2A
102
}
330
2A
100
AcDbVisualStyle
  2

 70
    16
 71
     2
 72
     2
 73
     3
 90
        0
 40
-0.6
 41
-30.0
 62
     5
 63
     8
 74
     1
 91
        4
 64
     7
 65
   257
 75
     1
175
     1
 42
1.0
 92
        8
 66
     8
 43
1.0
 76
     1
 77
     6
 78
     2
 67
     7
 79
     5
170
     0
171
     0
290
     0
174
     0
 93
        1
 44
0.0
173
     0
291
     1
 45
0.0
1001
ACAD
1000
AcDbSavedByObjectVersion
1070
     0
  0
VISUALSTYLE
  5
34
102
{ACAD_XDICTIONARY
360
5D9
102
}
102
{ACAD_REACTORS
330
2A
102
}
330
2A
100
AcDbVisualStyle
  2

 70
     9
 71
     3
 72
     2
 73
     0
 90
        0
 40
-0.6
 41
-30.0
 62
     5
 63
     7
 74
     2
 91
        2
 64
     7
 65
   257
 75
     1
175
     1
 42
179.0
 92
        8
 66
     7
 43
1.0
 76
     1
 77
     6
 78
     2
 67
     7
 79
     3
170
     0
171
     0
290
     0
174
     0
 93
        1
 44
0.0
173
     0
291
     0
 45
0.0
1001
ACAD
1000
AcDbSavedByObjectVersion
1070
     0
  0
VISUALSTYLE
  5
35
102
{ACAD_XDICTIONARY
360
5DB
102
}
102
{ACAD_REACTORS
330
2A
102
}
330
2A
100
AcDbVisualStyle
  2

 70
    11
 71
     2
 72
     2
 73
     0
 90
        0
 40
-0.6
 41
-30.0
 62
     5
 63
     7
 74
     1
 91
        4
 64
     7
 65
   257
 75
     1
175
     1
 42
1.0
 92
        8
 66
     7
 43
1.0
 76
     1
 77
     6
 78
     2
 67
     7
 79
     5
170
     0
171
     0
290
     0
174
     0
 93
        1
 44
-50.0
173
     0
291
     1
 45
0.0
1001
ACAD
1000
AcDbSavedByObjectVersion
1070
     0
  0
VISUALSTYLE
  5
3D
102
{ACAD_XDICTIONARY
360
5EB
102
}
102
{ACAD_REACTORS
330
2A
102
}
330
2A
100
AcDbVisualStyle
  2

 70
    22
 71
     2
 72
     2
 73
     0
 90
        0
 40
-0.6
 41
-30.0
 62
     5
 63
     7
 74
     1
 91
        4
 64
     7
 65
   257
 75
     1
175
     1
 42
1.0
 92
        8
 66
     7
 43
1.0
 76
     1
 77
     6
 78
     2
 67
     7
 79
     5
170
     0
171
     0
290
     0
174
     0
 93
        1
 44
0.0
173
     0
291
     1
 45
0.0
1001
ACAD
1000
AcDbSavedByObjectVersion
1070
     0
  0
VISUALSTYLE
  5
39
102
{ACAD_XDICTIONARY
360
5E3
102
}
102
{ACAD_REACTORS
330
2A
102
}
330
2A
100
AcDbVisualStyle
  2

 70
    15
 71
     2
 72
     2
 73
     0
 90
        0
 40
-0.6
 41
-30.0
 62
     5
 63
     7
 74
     1
 91
        4
 64
     7
 65
   257
 75
     1
175
     1
 42
1.0
 92
        8
 66
     7
 43
1.0
 76
     1
 77
     6
 78
     2
 67
     7
 79
     5
170
     0
171
     0
290
     0
174
     0
 93
        1
 44
0.0
173
     0
291
     1
 45
0.0
1001
ACAD
1000
AcDbSavedByObjectVersion
1070
     0
  0
VISUALSTYLE
  5
2B
102
{ACAD_XDICTIONARY
360
5C7
102
}
102
{ACAD_REACTORS
330
2A
102
}
330
2A
100
AcDbVisualStyle
  2

 70
     0
 71
     2
 72
     1
 73
     1
 90
        2
 40
-0.6
 41
30.0
 62
     5
 63
     7
 74
     0
 91
        0
 64
     7
 65
   257
 75
     1
175
     1
 42
1.0
 92
        8
 66
     7
 43
1.0
 76
     1
 77
     6
 78
     2
 67
     7
 79
     5
170
     0
171
     0
290
     0
174
     0
 93
       13
 44
0.0
173
     0
291
     1
 45
0.0
1001
ACAD
1000
AcDbSavedByObjectVersion
1070
     0
  0
VISUALSTYLE
  5
2C
102
{ACAD_XDICTIONARY
360
5C9
102
}
102
{ACAD_REACTORS
330
2A
102
}
330
2A
100
AcDbVisualStyle
  2

 70
     1
 71
     2
 72
     1
 73
     1
 90
        2
 40
-0.6
 41
30.0
 62
     5
 63
     7
 74
     1
 91
        0
 64
     7
 65
   257
 75
     1
175
     1
 42
1.0
 92
        0
 66
   257
 43
1.0
 76
     1
 77
     6
 78
     2
 67
     7
 79
     5
170
     0
171
     0
290
     0
174
     0
 93
       13
 44
0.0
173
     0
291
     1
 45
0.0
1001
ACAD
1000
AcDbSavedByObjectVersion
1070
     0
  0
VISUALSTYLE
  5
2D
102
{ACAD_XDICTIONARY
360
5CB
102
}
102
{ACAD_REACTORS
330
2A
102
}
330
2A
100
AcDbVisualStyle
  2

 70
     2
 71
     2
 72
     2
 73
     1
 90
        2
 40
-0.6
 41
30.0
 62
     5
 63
     7
 74
     0
 91
        0
 64
     7
 65
   257
 75
     1
175
     1
 42
1.0
 92
        0
 66
     7
 43
1.0
 76
     1
 77
     6
 78
     2
 67
     7
 79
     5
170
     0
171
     0
290
     0
174
     0
 93
       13
 44
0.0
173
     0
291
     1
 45
0.0
1001
ACAD
1000
AcDbSavedByObjectVersion
1070
     0
  0
VISUALSTYLE
  5
2E
102
{ACAD_XDICTIONARY
360
5CD
102
}
102
{ACAD_REACTORS
330
2A
102
}
330
2A
100
AcDbVisualStyle
  2

 70
     3
 71
     2
 72
     2
 73
     1
 90
        2
 40
-0.6
 41
30.0
 62
     5
 63
     7
 74
     1
 91
        0
 64
     7
 65
   257
 75
     1
175
     1
 42
1.0
 92
        0
 66
   257
 43
1.0
 76
     1
 77
     6
 78
     2
 67
     7
 79
     5
170
     0
171
     0
290
     0
174
     0
 93
       13
 44
0.0
173
     0
291
     1
 45
0.0
1001
ACAD
1000
AcDbSavedByObjectVersion
1070
     0
  0
VISUALSTYLE
  5
31
102
{ACAD_XDICTIONARY
360
5D3
102
}
102
{ACAD_REACTORS
330
2A
102
}
330
2A
100
AcDbVisualStyle
  2

 70
     6
 71
     1
 72
     2
 73
     2
 90
        0
 40
-0.6
 41
-30.0
 62
     5
 63
     7
 74
     2
 91
        2
 64
     7
 65
   257
 75
     2
175
     1
 42
40.0
 92
        0
 66
   257
 43
1.0
 76
     1
 77
     6
 78
     2
 67
     7
 79
     3
170
     0
171
     0
290
     0
174
     0
 93
        1
 44
0.0
173
     0
291
     0
 45
0.0
1001
ACAD
1000
AcDbSavedByObjectVersion
1070
     0
  0
VISUALSTYLE
  5
3B
102
{ACAD_XDICTIONARY
360
5E7
102
}
102
{ACAD_REACTORS
330
2A
102
}
330
2A
100
AcDbVisualStyle
  2

 70
    20
 71
     2
 72
     2
 73
     0
 90
        0
 40
-0.6
 41
-30.0
 62
     5
 63
     7
 74
     1
 91
        4
 64
     7
 65
   257
 75
     1
175
     1
 42
1.0
 92
       10
 66
     7
 43
1.0
 76
     1
 77
     6
 78
     2
 67
     7
 79
     5
170
     0
171
     0
290
     0
174
     0
 93
        1
 44
0.0
173
     0
291
     1
 45
0.0
1001
ACAD
1000
AcDbSavedByObjectVersion
1070
     0
  0
VISUALSTYLE
  5
38
102
{ACAD_XDICTIONARY
360
5E1
102
}
102
{ACAD_REACTORS
330
2A
102
}
330
2A
100
AcDbVisualStyle
  2

 70
    14
 71
     2
 72
     2
 73
     0
 90
        0
 40
-0.6
 41
-30.0
 62
     5
 63
     7
 74
     1
 91
        4
 64
     7
 65
   257
 75
     7
175
     7
 42
1.0
 92
        8
 66
     7
 43
1.0
 76
     1
 77
     6
 78
     2
 67
     7
 79
     5
170
     0
171
     0
290
     0
174
     0
 93
        1
 44
0.0
173
     0
291
     1
 45
0.0
1001
ACAD
1000
AcDbSavedByObjectVersion
1070
     0
  0
VISUALSTYLE
  5
3C
102
{ACAD_XDICTIONARY
360
5E9
102
}
102
{ACAD_REACTORS
330
2A
102
}
330
2A
100
AcDbVisualStyle
  2

 70
    21
 71
     2
 72
     2
 73
     0
 90
        0
 40
-0.6
 41
-30.0
 62
     5
 63
     7
 74
     1
 91
        4
 64
     7
 65
   257
 75
     1
175
     1
 42
1.0
 92
        9
 66
     7
 43
1.0
 76
     1
 77
     6
 78
     2
 67
     7
 79
     5
170
     0
171
     0
290
     0
174
     0
 93
        1
 44
0.0
173
     0
291
     1
 45
0.0
1001
ACAD
1000
AcDbSavedByObjectVersion
1070
     0
  0
VISUALSTYLE
  5
33
102
{ACAD_XDICTIONARY
360
5D7
102
}
102
{ACAD_REACTORS
330
2A
102
}
330
2A
100
AcDbVisualStyle
  2

 70
     8
 71
     2
 72
     3
 73
     0
 90
        2
 40
-0.6
 41
30.0
 62
     5
 63
     7
 74
     0
 91
        0
 64
     7
 65
   257
 75
     1
175
     1
 42
1.0
 92
        8
 66
   257
 43
1.0
 76
     1
 77
     6
 78
     2
 67
     7
 79
     3
170
     0
171
     0
290
     0
174
     0
 93
       13
 44
0.0
173
     0
291
     0
 45
0.0
1001
ACAD
1000
AcDbSavedByObjectVersion
1070
     0
  0
VISUALSTYLE
  5
42
102
{ACAD_XDICTIONARY
360
5F5
102
}
102
{ACAD_REACTORS
330
2A
102
}
330
2A
100
AcDbVisualStyle
  2

 70
    27
 71
     2
 72
     2
 73
     1
 90
        2
 40
-0.6
 41
30.0
 62
     5
 63
     7
 74
     0
 91
        4
 64
     7
 65
   257
 75
     1
175
     1
 42
1.0
 92
        8
 66
   257
 43
1.0
 76
     1
 77
     6
 78
     2
 67
     8
 79
     3
170
     0
171
     0
290
     0
174
     0
 93
        5
 44
0.0
173
     0
291
     0
 45
0.0
1001
ACAD
1000
AcDbSavedByObjectVersion
1070
     0
  0
VISUALSTYLE
  5
41
102
{ACAD_XDICTIONARY
360
5F3
102
}
102
{ACAD_REACTORS
330
2A
102
}
330
2A
100
AcDbVisualStyle
  2

 70
    26
 71
     2
 72
     2
 73
     1
 90
        2
 40
-0.6
 41
30.0
 62
     5
 63
     7
 74
     1
 91
       10
 64
     7
 65
   257
 75
     2
175
     1
 42
1.0
 92
        8
 66
   257
 43
1.0
 76
     1
 77
     6
 78
     2
 67
     7
 79
     3
170
     0
171
     0
290
     0
174
     0
 93
        5
 44
0.0
173
     0
291
     0
 45
0.0
1001
ACAD
1000
AcDbSavedByObjectVersion
1070
     0
  0
VISUALSTYLE
  5
3E
102
{ACAD_XDICTIONARY
360
5ED
102
}
102
{ACAD_REACTORS
330
2A
102
}
330
2A
100
AcDbVisualStyle
  2

 70
    23
 71
     2
 72
     2
 73
     3
 90
        0
 40
-0.6
 41
-30.0
 62
     5
 63
     7
 74
     2
 91
        2
 64
     7
 65
     7
 75
     1
175
     1
 42
40.0
 92
        8
 66
     7
 43
1.0
 76
     1
 77
     6
 78
     2
 67
     7
 79
     3
170
     0
171
     0
290
     0
174
     0
 93
        1
 44
0.0
173
     0
291
     0
 45
0.0
1001
ACAD
1000
AcDbSavedByObjectVersion
1070
     0
  0
VISUALSTYLE
  5
3F
102
{ACAD_XDICTIONARY
360
5EF
102
}
102
{ACAD_REACTORS
330
2A
102
}
330
2A
100
AcDbVisualStyle
  2

 70
    24
 71
     1
 72
     2
 73
     2
 90
        0
 40
-0.6
 41
-30.0
 62
     5
 63
     7
 74
     2
 91
        2
 64
     7
 65
     7
 75
     1
175
     1
 42
40.0
 92
       11
 66
     7
 43
1.0
 76
     1
 77
     6
 78
     2
 67
     7
 79
     6
170
     0
171
     0
290
     0
174
     0
 93
        1
 44
0.0
173
     0
291
     0
 45
0.0
1001
ACAD
1000
AcDbSavedByObjectVersion
1070
     0
  0
VISUALSTYLE
  5
37
102
{ACAD_XDICTIONARY
360
5DF
102
}
102
{ACAD_REACTORS
330
2A
102
}
330
2A
100
AcDbVisualStyle
  2

 70
    13
 71
     2
 72
     2
 73
     0
 90
        0
 40
-0.6
 41
-30.0
 62
     5
 63
     7
 74
     1
 91
        4
 64
     7
 65
   257
 75
     1
175
     1
 42
1.0
 92
       12
 66
     7
 43
1.0
 76
     1
 77
     6
 78
     2
 67
     7
 79
     5
170
     0
171
     0
290
     0
174
     0
 93
        1
 44
0.0
173
     0
291
     1
 45
0.0
1001
ACAD
1000
AcDbSavedByObjectVersion
1070
     0
  0
VISUALSTYLE
  5
30
102
{ACAD_XDICTIONARY
360
5D1
102
}
102
{ACAD_REACTORS
330
2A
102
}
330
2A
100
AcDbVisualStyle
  2

 70
     5
 71
     0
 72
     2
 73
     0
 90
        0
 40
-0.6
 41
-30.0
 62
     5
 63
     7
 74
     1
 91
        4
 64
     7
 65
   257
 75
     1
175
     1
 42
1.0
 92
        0
 66
   257
 43
1.0
 76
     1
 77
     6
 78
     2
 67
     7
 79
     3
170
     0
171
     0
290
     0
174
     0
 93
        1
 44
0.0
173
     0
291
     0
 45
0.0
1001
ACAD
1000
AcDbSavedByObjectVersion
1070
     0
  0
VISUALSTYLE
  5
40
102
{ACAD_XDICTIONARY
360
5F1
102
}
102
{ACAD_REACTORS
330
2A
102
}
330
2A
100
AcDbVisualStyle
  2

 70
    25
 71
     2
 72
     2
 73
     1
 90
        1
 40
0.5
 41
-30.0
 62
     5
 63
     7
 74
     1
 91
        0
 64
     7
 65
   257
 75
     1
175
     1
 42
1.0
 92
        8
 66
     7
 43
1.0
 76
     1
 77
     6
 78
     2
 67
     7
 79
     3
170
     0
171
     0
290
     0
174
     0
 93
       13
 44
0.0
173
     0
291
     0
 45
0.0
1001
ACAD
1000
AcDbSavedByObjectVersion
1070
     0
  0
DICTIONARYVAR
  5
243
102
{ACAD_REACTORS
330
235
102
}
330
235
100
DictionaryVariables
280
     0
  1
1:1
  0
DICTIONARYVAR
  5
23C
102
{ACAD_REACTORS
330
235
102
}
330
235
100
DictionaryVariables
280
     0
  1
3.500000
  0
DICTIONARYVAR
  5
23D
102
{ACAD_REACTORS
330
235
102
}
330
235
100
DictionaryVariables
280
     0
  1
acadiso.lin
  0
DICTIONARYVAR
  5
237
102
{ACAD_REACTORS
330
235
102
}
330
235
100
DictionaryVariables
280
     0
  1
STANDARD
  0
DICTIONARYVAR
  5
236
102
{ACAD_REACTORS
330
235
102
}
330
235
100
DictionaryVariables
280
     0
  1
STANDARD
  0
DICTIONARYVAR
  5
56C
102
{ACAD_REACTORS
330
235
102
}
330
235
100
DictionaryVariables
280
     0
  1
Metric50
  0
DICTIONARYVAR
  5
56D
102
{ACAD_REACTORS
330
235
102
}
330
235
100
DictionaryVariables
280
     0
  1
Metric50
  0
DICTIONARYVAR
  5
23E
102
{ACAD_REACTORS
330
235
102
}
330
235
100
DictionaryVariables
280
     0
  1
2
  0
DICTIONARYVAR
  5
23F
102
{ACAD_REACTORS
330
235
102
}
330
235
100
DictionaryVariables
280
     0
  1
1
  0
DICTIONARYVAR
  5
5B9
102
{ACAD_REACTORS
330
235
102
}
330
235
100
DictionaryVariables
280
     0
  1
0
  0
DICTIONARYVAR
  5
56F
102
{ACAD_REACTORS
330
235
102
}
330
235
100
DictionaryVariables
280
     0
  1
1
  0
DICTIONARYVAR
  5
570
102
{ACAD_REACTORS
330
235
102
}
330
235
100
DictionaryVariables
280
     0
  1
15
  0
DICTIONARYVAR
  5
56E
102
{ACAD_REACTORS
330
235
102
}
330
235
100
DictionaryVariables
280
     0
  1
0
  0
DICTIONARYVAR
  5
5BC
102
{ACAD_REACTORS
330
235
102
}
330
235
100
DictionaryVariables
280
     0
  1
1.570796
  0
DICTIONARYVAR
  5
5BD
102
{ACAD_REACTORS
330
235
102
}
330
235
100
DictionaryVariables
280
     0
  1
1.570796
  0
DICTIONARYVAR
  5
5BE
102
{ACAD_REACTORS
330
235
102
}
330
235
100
DictionaryVariables
280
     0
  1
-122.394000
  0
DICTIONARYVAR
  5
244
102
{ACAD_REACTORS
330
235
102
}
330
235
100
DictionaryVariables
280
     0
  1
1
  0
DICTIONARYVAR
  5
5BB
102
{ACAD_REACTORS
330
235
102
}
330
235
100
DictionaryVariables
280
     0
  1
80.000000
  0
DICTIONARYVAR
  5
5BA
102
{ACAD_REACTORS
330
235
102
}
330
235
100
DictionaryVariables
280
     0
  1
5.000000
  0
DICTIONARYVAR
  5
5B8
102
{ACAD_REACTORS
330
235
102
}
330
235
100
DictionaryVariables
280
     0
  1
127
  0
DICTIONARYVAR
  5
5BF
102
{ACAD_REACTORS
330
235
102
}
330
235
100
DictionaryVariables
280
     0
  1
2
  0
DICTIONARY
  5
5FA
330
284
100
AcDbDictionary
280
     1
281
     1
  3
ACAD_XREC_ROUNDTRIP
360
5FB
  0
DICTIONARY
  5
5C3
330
1E
100
AcDbDictionary
280
     1
281
     1
  3
ACAD_XREC_ROUNDTRIP
360
5C4
  0
DICTIONARY
  5
5C5
330
22
100
AcDbDictionary
280
     1
281
     1
  3
ACAD_XREC_ROUNDTRIP
360
5C6
  0
DICTIONARY
  5
5FC
330
285
100
AcDbDictionary
280
     1
281
     1
  3
ACAD_XREC_ROUNDTRIP
360
5FD
  0
DICTIONARY
  5
277
330
45
100
AcDbDictionary
280
     1
281
     1
  3
ACAD_XREC_ROUNDTRIP
360
278
  0
DICTIONARY
  5
275
330
44
100
AcDbDictionary
280
     1
281
     1
  3
ACAD_XREC_ROUNDTRIP
360
276
  0
DICTIONARY
  5
279
330
46
100
AcDbDictionary
280
     1
281
     1
  3
ACAD_XREC_ROUNDTRIP
360
27A
  0
DICTIONARY
  5
5F8
330
282
100
AcDbDictionary
280
     1
281
     1
  3
ACAD_XREC_ROUNDTRIP
360
5F9
  0
DICTIONARY
  5
571
330
5A
100
AcDbDictionary
280
     1
281
     1
  3
ACAD_ROUNDTRIP_2008_TABLESTYLE_CELLSTYLEMAP
360
5C0
  3
ACAD_XREC_ROUNDTRIP
360
5F7
  0
DICTIONARY
  5
5CF
330
2F
100
AcDbDictionary
280
     1
281
     1
  3
ACAD_XREC_ROUNDTRIP
360
5D0
  0
DICTIONARY
  5
5D5
330
32
100
AcDbDictionary
280
     1
281
     1
  3
ACAD_XREC_ROUNDTRIP
360
5D6
  0
DICTIONARY
  5
5DD
330
36
100
AcDbDictionary
280
     1
281
     1
  3
ACAD_XREC_ROUNDTRIP
360
5DE
  0
DICTIONARY
  5
5E5
330
3A
100
AcDbDictionary
280
     1
281
     1
  3
ACAD_XREC_ROUNDTRIP
360
5E6
  0
DICTIONARY
  5
5D9
330
34
100
AcDbDictionary
280
     1
281
     1
  3
ACAD_XREC_ROUNDTRIP
360
5DA
  0
DICTIONARY
  5
5DB
330
35
100
AcDbDictionary
280
     1
281
     1
  3
ACAD_XREC_ROUNDTRIP
360
5DC
  0
DICTIONARY
  5
5EB
330
3D
100
AcDbDictionary
280
     1
281
     1
  3
ACAD_XREC_ROUNDTRIP
360
5EC
  0
DICTIONARY
  5
5E3
330
39
100
AcDbDictionary
280
     1
281
     1
  3
ACAD_XREC_ROUNDTRIP
360
5E4
  0
DICTIONARY
  5
5C7
330
2B
100
AcDbDictionary
280
     1
281
     1
  3
ACAD_XREC_ROUNDTRIP
360
5C8
  0
DICTIONARY
  5
5C9
330
2C
100
AcDbDictionary
280
     1
281
     1
  3
ACAD_XREC_ROUNDTRIP
360
5CA
  0
DICTIONARY
  5
5CB
330
2D
100
AcDbDictionary
280
     1
281
     1
  3
ACAD_XREC_ROUNDTRIP
360
5CC
  0
DICTIONARY
  5
5CD
330
2E
100
AcDbDictionary
280
     1
281
     1
  3
ACAD_XREC_ROUNDTRIP
360
5CE
  0
DICTIONARY
  5
5D3
330
31
100
AcDbDictionary
280
     1
281
     1
  3
ACAD_XREC_ROUNDTRIP
360
5D4
  0
DICTIONARY
  5
5E7
330
3B
100
AcDbDictionary
280
     1
281
     1
  3
ACAD_XREC_ROUNDTRIP
360
5E8
  0
DICTIONARY
  5
5E1
330
38
100
AcDbDictionary
280
     1
281
     1
  3
ACAD_XREC_ROUNDTRIP
360
5E2
  0
DICTIONARY
  5
5E9
330
3C
100
AcDbDictionary
280
     1
281
     1
  3
ACAD_XREC_ROUNDTRIP
360
5EA
  0
DICTIONARY
  5
5D7
330
33
100
AcDbDictionary
280
     1
281
     1
  3
ACAD_XREC_ROUNDTRIP
360
5D8
  0
DICTIONARY
  5
5F5
330
42
100
AcDbDictionary
280
     1
281
     1
  3
ACAD_XREC_ROUNDTRIP
360
5F6
  0
DICTIONARY
  5
5F3
330
41
100
AcDbDictionary
280
     1
281
     1
  3
ACAD_XREC_ROUNDTRIP
360
5F4
  0
DICTIONARY
  5
5ED
330
3E
100
AcDbDictionary
280
     1
281
     1
  3
ACAD_XREC_ROUNDTRIP
360
5EE
  0
DICTIONARY
  5
5EF
330
3F
100
AcDbDictionary
280
     1
281
     1
  3
ACAD_XREC_ROUNDTRIP
360
5F0
  0
DICTIONARY
  5
5DF
330
37
100
AcDbDictionary
280
     1
281
     1
  3
ACAD_XREC_ROUNDTRIP
360
5E0
  0
DICTIONARY
  5
5D1
330
30
100
AcDbDictionary
280
     1
281
     1
  3
ACAD_XREC_ROUNDTRIP
360
5D2
  0
DICTIONARY
  5
5F1
330
40
100
AcDbDictionary
280
     1
281
     1
  3
ACAD_XREC_ROUNDTRIP
360
5F2
  0
XRECORD
  5
5FB
102
{ACAD_REACTORS
330
5FA
102
}
330
5FA
100
AcDbXrecord
280
     1
102
DISPLAYNAME
  1
Metric50
102
FLAGS
 90
        0
  0
XRECORD
  5
5C4
102
{ACAD_REACTORS
330
5C3
102
}
330
5C3
100
AcDbXrecord
280
     1
102
SHADEPLOT
 70
     0
102
SHADEPLOTRESLEVEL
 70
     2
102
SHADEPLOTCUSTOMDPI
 70
   300
  0
XRECORD
  5
5C6
102
{ACAD_REACTORS
330
5C5
102
}
330
5C5
100
AcDbXrecord
280
     1
102
SHADEPLOT
 70
     0
102
SHADEPLOTRESLEVEL
 70
     2
102
SHADEPLOTCUSTOMDPI
 70
   300
  0
XRECORD
  5
5FD
102
{ACAD_REACTORS
330
5FC
102
}
330
5FC
100
AcDbXrecord
280
     1
102
SHADEPLOT
 70
     0
102
SHADEPLOTRESLEVEL
 70
     2
102
SHADEPLOTCUSTOMDPI
 70
   300
  0
XRECORD
  5
278
102
{ACAD_REACTORS
330
277
102
}
330
277
100
AcDbXrecord
280
     1
102
MATERIAL
148
0.0
149
0.0
149
0.0
 93
        0
 94
      127
282
     0
 72
     1
 77
     1
171
     1
175
     1
179
     1
273
     0
  0
XRECORD
  5
276
102
{ACAD_REACTORS
330
275
102
}
330
275
100
AcDbXrecord
280
     1
102
MATERIAL
148
0.0
149
0.0
149
0.0
 93
        0
 94
      127
282
     0
 72
     1
 77
     1
171
     1
175
     1
179
     1
273
     0
  0
XRECORD
  5
27A
102
{ACAD_REACTORS
330
279
102
}
330
279
100
AcDbXrecord
280
     1
102
MATERIAL
148
0.0
149
0.0
149
0.0
 93
        0
 94
      127
282
     0
 72
     1
 77
     1
171
     1
175
     1
179
     1
273
     0
  0
XRECORD
  5
5F9
102
{ACAD_REACTORS
330
5F8
102
}
330
5F8
100
AcDbXrecord
280
     1
102
DISPLAYNAME
  1
Metric50
102
FLAGS
 90
        0
  0
CELLSTYLEMAP
  5
5C0
102
{ACAD_REACTORS
330
571
102
}
330
571
100
AcDbCellStyleMap
 90
        3
300
CELLSTYLE
  1
TABLEFORMAT_BEGIN
 90
        5
170
     1
 91
        0
 92
    32768
 62
   257
 93
        1
300
CONTENTFORMAT
  1
CONTENTFORMAT_BEGIN
 90
        0
 91
        0
 92
        4
 93
        0
300

 40
0.0
140
1.0
 94
        5
 62
     0
340
11
144
6.0
309
CONTENTFORMAT_END
171
     1
301
MARGIN
  1
CELLMARGIN_BEGIN
 40
1.5
 40
1.5
 40
1.5
 40
1.5
 40
0.18
 40
0.18
309
CELLMARGIN_END
 94
        6
 95
        1
302
GRIDFORMAT
  1
GRIDFORMAT_BEGIN
 90
        0
 91
        1
 62
     0
 92
       -2
340
0
 93
        0
 40
0.045
309
GRIDFORMAT_END
 95
        2
302
GRIDFORMAT
  1
GRIDFORMAT_BEGIN
 90
        0
 91
        1
 62
     0
 92
       -2
340
0
 93
        0
 40
0.045
309
GRIDFORMAT_END
 95
        4
302
GRIDFORMAT
  1
GRIDFORMAT_BEGIN
 90
        0
 91
        1
 62
     0
 92
       -2
340
0
 93
        0
 40
0.045
309
GRIDFORMAT_END
 95
        8
302
GRIDFORMAT
  1
GRIDFORMAT_BEGIN
 90
        0
 91
        1
 62
     0
 92
       -2
340
0
 93
        0
 40
0.045
309
GRIDFORMAT_END
 95
       16
302
GRIDFORMAT
  1
GRIDFORMAT_BEGIN
 90
        0
 91
        1
 62
     0
 92
       -2
340
0
 93
        0
 40
0.045
309
GRIDFORMAT_END
 95
       32
302
GRIDFORMAT
  1
GRIDFORMAT_BEGIN
 90
        0
 91
        1
 62
     0
 92
       -2
340
0
 93
        0
 40
0.045
309
GRIDFORMAT_END
309
TABLEFORMAT_END
  1
CELLSTYLE_BEGIN
 90
        1
 91
        1
300
_TITLE
309
CELLSTYLE_END
300
CELLSTYLE
  1
TABLEFORMAT_BEGIN
 90
        5
170
     1
 91
        0
 92
        0
 62
   257
 93
        1
300
CONTENTFORMAT
  1
CONTENTFORMAT_BEGIN
 90
        0
 91
        0
 92
        4
 93
        0
300

 40
0.0
140
1.0
 94
        5
 62
     0
340
11
144
4.5
309
CONTENTFORMAT_END
171
     1
301
MARGIN
  1
CELLMARGIN_BEGIN
 40
1.5
 40
1.5
 40
1.5
 40
1.5
 40
0.18
 40
0.18
309
CELLMARGIN_END
 94
        6
 95
        1
302
GRIDFORMAT
  1
GRIDFORMAT_BEGIN
 90
        0
 91
        1
 62
     0
 92
       -2
340
0
 93
        0
 40
0.045
309
GRIDFORMAT_END
 95
        2
302
GRIDFORMAT
  1
GRIDFORMAT_BEGIN
 90
        0
 91
        1
 62
     0
 92
       -2
340
0
 93
        0
 40
0.045
309
GRIDFORMAT_END
 95
        4
302
GRIDFORMAT
  1
GRIDFORMAT_BEGIN
 90
        0
 91
        1
 62
     0
 92
       -2
340
0
 93
        0
 40
0.045
309
GRIDFORMAT_END
 95
        8
302
GRIDFORMAT
  1
GRIDFORMAT_BEGIN
 90
        0
 91
        1
 62
     0
 92
       -2
340
0
 93
        0
 40
0.045
309
GRIDFORMAT_END
 95
       16
302
GRIDFORMAT
  1
GRIDFORMAT_BEGIN
 90
        0
 91
        1
 62
     0
 92
       -2
340
0
 93
        0
 40
0.045
309
GRIDFORMAT_END
 95
       32
302
GRIDFORMAT
  1
GRIDFORMAT_BEGIN
 90
        0
 91
        1
 62
     0
 92
       -2
340
0
 93
        0
 40
0.045
309
GRIDFORMAT_END
309
TABLEFORMAT_END
  1
CELLSTYLE_BEGIN
 90
        2
 91
        1
300
_HEADER
309
CELLSTYLE_END
300
CELLSTYLE
  1
TABLEFORMAT_BEGIN
 90
        5
170
     1
 91
        0
 92
        0
 62
   257
 93
        1
300
CONTENTFORMAT
  1
CONTENTFORMAT_BEGIN
 90
        0
 91
        0
 92
        4
 93
        0
300

 40
0.0
140
1.0
 94
        2
 62
     0
340
11
144
4.5
309
CONTENTFORMAT_END
171
     1
301
MARGIN
  1
CELLMARGIN_BEGIN
 40
1.5
 40
1.5
 40
1.5
 40
1.5
 40
0.18
 40
0.18
309
CELLMARGIN_END
 94
        6
 95
        1
302
GRIDFORMAT
  1
GRIDFORMAT_BEGIN
 90
        0
 91
        1
 62
     0
 92
       -2
340
0
 93
        0
 40
0.045
309
GRIDFORMAT_END
 95
        2
302
GRIDFORMAT
  1
GRIDFORMAT_BEGIN
 90
        0
 91
        1
 62
     0
 92
       -2
340
0
 93
        0
 40
0.045
309
GRIDFORMAT_END
 95
        4
302
GRIDFORMAT
  1
GRIDFORMAT_BEGIN
 90
        0
 91
        1
 62
     0
 92
       -2
340
0
 93
        0
 40
0.045
309
GRIDFORMAT_END
 95
        8
302
GRIDFORMAT
  1
GRIDFORMAT_BEGIN
 90
        0
 91
        1
 62
     0
 92
       -2
340
0
 93
        0
 40
0.045
309
GRIDFORMAT_END
 95
       16
302
GRIDFORMAT
  1
GRIDFORMAT_BEGIN
 90
        0
 91
        1
 62
     0
 92
       -2
340
0
 93
        0
 40
0.045
309
GRIDFORMAT_END
 95
       32
302
GRIDFORMAT
  1
GRIDFORMAT_BEGIN
 90
        0
 91
        1
 62
     0
 92
       -2
340
0
 93
        0
 40
0.045
309
GRIDFORMAT_END
309
TABLEFORMAT_END
  1
CELLSTYLE_BEGIN
 90
        3
 91
        2
300
_DATA
309
CELLSTYLE_END
  0
XRECORD
  5
5F7
102
{ACAD_REACTORS
330
571
102
}
330
571
100
AcDbXrecord
280
     1
102
ACAD_ROUNDTRIP_PRE2007_TABLESTYLE
 90
        4
 91
        0
  1

 92
        4
 93
        0
  2

 94
        4
 95
        0
  3

  0
XRECORD
  5
5D0
102
{ACAD_REACTORS
330
5CF
102
}
330
5CF
100
AcDbXrecord
280
     1
102
RTVSPost2010Prop28
280
     1
102
RTVSPost2010PropOp28
 70
     1
102
RTVSPost2010Prop29
280
     1
102
RTVSPost2010PropOp29
 70
     1
102
RTVSPost2010Prop30
280
     0
102
RTVSPost2010PropOp30
 70
     1
102
RTVSPost2010Prop31
280
     0
102
RTVSPost2010PropOp31
 70
     1
102
RTVSPost2010Prop32
280
     0
102
RTVSPost2010PropOp32
 70
     1
102
RTVSPost2010Prop33
280
     0
102
RTVSPost2010PropOp33
 70
     1
102
RTVSPost2010Prop34
280
     0
102
RTVSPost2010PropOp34
 70
     1
102
RTVSPost2010Prop35
280
     0
102
RTVSPost2010PropOp35
 70
     1
102
RTVSPost2010Prop36
280
     0
102
RTVSPost2010PropOp36
 70
     1
102
RTVSPost2010Prop37
 90
       50
102
RTVSPost2010PropOp37
 70
     1
102
RTVSPost2010Prop38
140
0.0
102
RTVSPost2010PropOp38
 70
     1
102
RTVSPost2010Prop39
140
1.0
102
RTVSPost2010PropOp39
 70
     1
102
RTVSPost2010Prop40
 90
        0
102
RTVSPost2010PropOp40
 70
     1
102
RTVSPost2010Prop41ColorIndex
 90
       18
102
RTVSPost2010Prop41ColorRGB
 90
        0
102
RTVSPost2010PropOp41
 70
     1
102
RTVSPost2010Prop42
 90
       50
102
RTVSPost2010PropOp42
 70
     1
102
RTVSPost2010Prop43
 90
        3
102
RTVSPost2010PropOp43
 70
     1
102
RTVSPost2010Prop44ColorIndex
 90
        5
102
RTVSPost2010Prop44ColorRGB
 90
      255
102
RTVSPost2010PropOp44
 70
     1
102
RTVSPost2010Prop45
280
     0
102
RTVSPost2010PropOp45
 70
     1
102
RTVSPost2010Prop46
 90
       50
102
RTVSPost2010PropOp46
 70
     1
102
RTVSPost2010Prop47
 90
       50
102
RTVSPost2010PropOp47
 70
     1
102
RTVSPost2010Prop48
 90
       50
102
RTVSPost2010PropOp48
 70
     1
102
RTVSPost2010Prop49
280
     0
102
RTVSPost2010PropOp49
 70
     1
102
RTVSPost2010Prop50
 90
       50
102
RTVSPost2010PropOp50
 70
     1
102
RTVSPost2010Prop51ColorIndex
 90
      256
102
RTVSPost2010Prop51ColorRGB
 90
-16777216
102
RTVSPost2010PropOp51
 70
     0
102
RTVSPost2010Prop52
140
1.0
102
RTVSPost2010PropOp52
 70
     0
102
RTVSPost2010Prop53
 90
        2
102
RTVSPost2010PropOp53
 70
     1
102
RTVSPost2010Prop54
  1
strokes_ogs.tif
102
RTVSPost2010PropOp54
 70
     1
102
RTVSPost2010Prop55
280
     0
102
RTVSPost2010PropOp55
 70
     1
102
RTVSPost2010Prop56
140
1.0
102
RTVSPost2010PropOp56
 70
     1
102
RTVSPost2010Prop57
140
1.0
102
RTVSPost2010PropOp57
 70
     1
102
RTVSPropertyOp0
 70
     1
102
RTVSPropertyOp1
 70
     1
102
RTVSPropertyOp2
 70
     1
102
RTVSPropertyOp3
 70
     1
102
RTVSPropertyOp4
 70
     1
102
RTVSPropertyOp5
 70
     1
102
RTVSPropertyOp6
 70
     1
102
RTVSPropertyOp7
 70
     1
102
RTVSPropertyOp8
 70
     1
102
RTVSPropertyOp9
 70
     1
102
RTVSPropertyOp10
 70
     1
102
RTVSPropertyOp11
 70
     1
102
RTVSPropertyOp12
 70
     1
102
RTVSPropertyOp13
 70
     1
102
RTVSPropertyOp14
 70
     1
102
RTVSPropertyOp15
 70
     1
102
RTVSPropertyOp16
 70
     1
102
RTVSPropertyOp17
 70
     1
102
RTVSPropertyOp18
 70
     1
102
RTVSPropertyOp19
 70
     1
102
RTVSPropertyOp20
 70
     1
102
RTVSPropertyOp21
 70
     1
102
RTVSPropertyOp22
 70
     1
102
RTVSPropertyOp23
 70
     1
102
RTVSPropertyOp24
 70
     1
102
RTVSPropertyOp25
 70
     1
102
RTVSPropertyOp26
 70
     1
102
RTVSPropertyOp27
 70
     1
102
RTVSPropertyOp28
 70
     1
102
RTVSPropertyOp29
 70
     1
102
RTVSPropertyOp30
 70
     1
102
RTVSPropertyOp31
 70
     1
102
RTVSPropertyOp32
 70
     1
102
RTVSPropertyOp33
 70
     1
102
RTVSPropertyOp34
 70
     1
102
RTVSPropertyOp35
 70
     1
102
RTVSPropertyOp36
 70
     1
102
RTVSPropertyOp37
 70
     1
102
RTVSPropertyOp38
 70
     1
102
RTVSPropertyOp39
 70
     1
102
RTVSPropertyOp40
 70
     1
102
RTVSPropertyOp41
 70
     1
102
RTVSPropertyOp42
 70
     1
102
RTVSPropertyOp43
 70
     1
102
RTVSPropertyOp44
 70
     1
102
RTVSPropertyOp45
 70
     1
102
RTVSPropertyOp46
 70
     1
102
RTVSPropertyOp47
 70
     1
102
RTVSPropertyOp48
 70
     1
102
RTVSPropertyOp49
 70
     1
102
RTVSPropertyOp50
 70
     1
102
RTVSPropertyOp51
 70
     0
102
RTVSPropertyOp52
 70
     0
102
RTVSPropertyOp53
 70
     1
102
RTVSPropertyOp54
 70
     1
102
RTVSPropertyOp55
 70
     1
102
RTVSPropertyOp56
 70
     1
102
RTVSPropertyOp57
 70
     1
102
RTVSPropertyOp58
 70
     1
102
RTVSPropertyOp59
 70
     1
102
RTVSPropertyOp60
 70
     1
102
RTVSPropertyOp61
 70
     1
102
RTVSPropertyOp62
 70
     1
  0
XRECORD
  5
5D6
102
{ACAD_REACTORS
330
5D5
102
}
330
5D5
100
AcDbXrecord
280
     1
102
RTVSPost2010Prop28
280
     0
102
RTVSPost2010PropOp28
 70
     1
102
RTVSPost2010Prop29
280
     1
102
RTVSPost2010PropOp29
 70
     1
102
RTVSPost2010Prop30
280
     1
102
RTVSPost2010PropOp30
 70
     1
102
RTVSPost2010Prop31
280
     0
102
RTVSPost2010PropOp31
 70
     1
102
RTVSPost2010Prop32
280
     0
102
RTVSPost2010PropOp32
 70
     1
102
RTVSPost2010Prop33
280
     0
102
RTVSPost2010PropOp33
 70
     1
102
RTVSPost2010Prop34
280
     0
102
RTVSPost2010PropOp34
 70
     1
102
RTVSPost2010Prop35
280
     0
102
RTVSPost2010PropOp35
 70
     1
102
RTVSPost2010Prop36
280
     0
102
RTVSPost2010PropOp36
 70
     1
102
RTVSPost2010Prop37
 90
       50
102
RTVSPost2010PropOp37
 70
     1
102
RTVSPost2010Prop38
140
0.0
102
RTVSPost2010PropOp38
 70
     1
102
RTVSPost2010Prop39
140
1.0
102
RTVSPost2010PropOp39
 70
     1
102
RTVSPost2010Prop40
 90
        0
102
RTVSPost2010PropOp40
 70
     1
102
RTVSPost2010Prop41ColorIndex
 90
       18
102
RTVSPost2010Prop41ColorRGB
 90
        0
102
RTVSPost2010PropOp41
 70
     1
102
RTVSPost2010Prop42
 90
       50
102
RTVSPost2010PropOp42
 70
     1
102
RTVSPost2010Prop43
 90
        3
102
RTVSPost2010PropOp43
 70
     1
102
RTVSPost2010Prop44ColorIndex
 90
        5
102
RTVSPost2010Prop44ColorRGB
 90
      255
102
RTVSPost2010PropOp44
 70
     1
102
RTVSPost2010Prop45
280
     0
102
RTVSPost2010PropOp45
 70
     1
102
RTVSPost2010Prop46
 90
       50
102
RTVSPost2010PropOp46
 70
     1
102
RTVSPost2010Prop47
 90
       50
102
RTVSPost2010PropOp47
 70
     1
102
RTVSPost2010Prop48
 90
       50
102
RTVSPost2010PropOp48
 70
     1
102
RTVSPost2010Prop49
280
     0
102
RTVSPost2010PropOp49
 70
     1
102
RTVSPost2010Prop50
 90
       50
102
RTVSPost2010PropOp50
 70
     1
102
RTVSPost2010Prop51ColorIndex
 90
      256
102
RTVSPost2010Prop51ColorRGB
 90
-16777216
102
RTVSPost2010PropOp51
 70
     0
102
RTVSPost2010Prop52
140
1.0
102
RTVSPost2010PropOp52
 70
     0
102
RTVSPost2010Prop53
 90
        2
102
RTVSPost2010PropOp53
 70
     1
102
RTVSPost2010Prop54
  1
strokes_ogs.tif
102
RTVSPost2010PropOp54
 70
     1
102
RTVSPost2010Prop55
280
     0
102
RTVSPost2010PropOp55
 70
     1
102
RTVSPost2010Prop56
140
1.0
102
RTVSPost2010PropOp56
 70
     1
102
RTVSPost2010Prop57
140
1.0
102
RTVSPost2010PropOp57
 70
     1
102
RTVSPropertyOp0
 70
     1
102
RTVSPropertyOp1
 70
     1
102
RTVSPropertyOp2
 70
     1
102
RTVSPropertyOp3
 70
     1
102
RTVSPropertyOp4
 70
     1
102
RTVSPropertyOp5
 70
     1
102
RTVSPropertyOp6
 70
     1
102
RTVSPropertyOp7
 70
     1
102
RTVSPropertyOp8
 70
     1
102
RTVSPropertyOp9
 70
     1
102
RTVSPropertyOp10
 70
     1
102
RTVSPropertyOp11
 70
     1
102
RTVSPropertyOp12
 70
     1
102
RTVSPropertyOp13
 70
     1
102
RTVSPropertyOp14
 70
     1
102
RTVSPropertyOp15
 70
     1
102
RTVSPropertyOp16
 70
     1
102
RTVSPropertyOp17
 70
     1
102
RTVSPropertyOp18
 70
     1
102
RTVSPropertyOp19
 70
     1
102
RTVSPropertyOp20
 70
     1
102
RTVSPropertyOp21
 70
     1
102
RTVSPropertyOp22
 70
     1
102
RTVSPropertyOp23
 70
     1
102
RTVSPropertyOp24
 70
     1
102
RTVSPropertyOp25
 70
     1
102
RTVSPropertyOp26
 70
     1
102
RTVSPropertyOp27
 70
     1
102
RTVSPropertyOp28
 70
     1
102
RTVSPropertyOp29
 70
     1
102
RTVSPropertyOp30
 70
     1
102
RTVSPropertyOp31
 70
     1
102
RTVSPropertyOp32
 70
     1
102
RTVSPropertyOp33
 70
     1
102
RTVSPropertyOp34
 70
     1
102
RTVSPropertyOp35
 70
     1
102
RTVSPropertyOp36
 70
     1
102
RTVSPropertyOp37
 70
     1
102
RTVSPropertyOp38
 70
     1
102
RTVSPropertyOp39
 70
     1
102
RTVSPropertyOp40
 70
     1
102
RTVSPropertyOp41
 70
     1
102
RTVSPropertyOp42
 70
     1
102
RTVSPropertyOp43
 70
     1
102
RTVSPropertyOp44
 70
     1
102
RTVSPropertyOp45
 70
     1
102
RTVSPropertyOp46
 70
     1
102
RTVSPropertyOp47
 70
     1
102
RTVSPropertyOp48
 70
     1
102
RTVSPropertyOp49
 70
     1
102
RTVSPropertyOp50
 70
     1
102
RTVSPropertyOp51
 70
     0
102
RTVSPropertyOp52
 70
     0
102
RTVSPropertyOp53
 70
     1
102
RTVSPropertyOp54
 70
     1
102
RTVSPropertyOp55
 70
     1
102
RTVSPropertyOp56
 70
     1
102
RTVSPropertyOp57
 70
     1
102
RTVSPropertyOp58
 70
     1
102
RTVSPropertyOp59
 70
     1
102
RTVSPropertyOp60
 70
     1
102
RTVSPropertyOp61
 70
     1
102
RTVSPropertyOp62
 70
     1
  0
XRECORD
  5
5DE
102
{ACAD_REACTORS
330
5DD
102
}
330
5DD
100
AcDbXrecord
280
     1
102
RTVSPost2010Prop28
280
     0
102
RTVSPost2010PropOp28
 70
     1
102
RTVSPost2010Prop29
280
     1
102
RTVSPost2010PropOp29
 70
     1
102
RTVSPost2010Prop30
280
     1
102
RTVSPost2010PropOp30
 70
     1
102
RTVSPost2010Prop31
280
     0
102
RTVSPost2010PropOp31
 70
     1
102
RTVSPost2010Prop32
280
     0
102
RTVSPost2010PropOp32
 70
     1
102
RTVSPost2010Prop33
280
     0
102
RTVSPost2010PropOp33
 70
     1
102
RTVSPost2010Prop34
280
     0
102
RTVSPost2010PropOp34
 70
     1
102
RTVSPost2010Prop35
280
     0
102
RTVSPost2010PropOp35
 70
     1
102
RTVSPost2010Prop36
280
     0
102
RTVSPost2010PropOp36
 70
     1
102
RTVSPost2010Prop37
 90
       50
102
RTVSPost2010PropOp37
 70
     1
102
RTVSPost2010Prop38
140
0.0
102
RTVSPost2010PropOp38
 70
     1
102
RTVSPost2010Prop39
140
1.0
102
RTVSPost2010PropOp39
 70
     1
102
RTVSPost2010Prop40
 90
        0
102
RTVSPost2010PropOp40
 70
     1
102
RTVSPost2010Prop41ColorIndex
 90
       18
102
RTVSPost2010Prop41ColorRGB
 90
        0
102
RTVSPost2010PropOp41
 70
     1
102
RTVSPost2010Prop42
 90
       50
102
RTVSPost2010PropOp42
 70
     1
102
RTVSPost2010Prop43
 90
        3
102
RTVSPost2010PropOp43
 70
     1
102
RTVSPost2010Prop44ColorIndex
 90
        5
102
RTVSPost2010Prop44ColorRGB
 90
      255
102
RTVSPost2010PropOp44
 70
     1
102
RTVSPost2010Prop45
280
     0
102
RTVSPost2010PropOp45
 70
     1
102
RTVSPost2010Prop46
 90
       50
102
RTVSPost2010PropOp46
 70
     1
102
RTVSPost2010Prop47
 90
       50
102
RTVSPost2010PropOp47
 70
     1
102
RTVSPost2010Prop48
 90
       50
102
RTVSPost2010PropOp48
 70
     1
102
RTVSPost2010Prop49
280
     0
102
RTVSPost2010PropOp49
 70
     1
102
RTVSPost2010Prop50
 90
       50
102
RTVSPost2010PropOp50
 70
     1
102
RTVSPost2010Prop51ColorIndex
 90
      256
102
RTVSPost2010Prop51ColorRGB
 90
-16777216
102
RTVSPost2010PropOp51
 70
     0
102
RTVSPost2010Prop52
140
1.0
102
RTVSPost2010PropOp52
 70
     0
102
RTVSPost2010Prop53
 90
        2
102
RTVSPost2010PropOp53
 70
     1
102
RTVSPost2010Prop54
  1
strokes_ogs.tif
102
RTVSPost2010PropOp54
 70
     1
102
RTVSPost2010Prop55
280
     0
102
RTVSPost2010PropOp55
 70
     1
102
RTVSPost2010Prop56
140
1.0
102
RTVSPost2010PropOp56
 70
     1
102
RTVSPost2010Prop57
140
1.0
102
RTVSPost2010PropOp57
 70
     1
102
RTVSPropertyOp0
 70
     1
102
RTVSPropertyOp1
 70
     1
102
RTVSPropertyOp2
 70
     1
102
RTVSPropertyOp3
 70
     1
102
RTVSPropertyOp4
 70
     1
102
RTVSPropertyOp5
 70
     1
102
RTVSPropertyOp6
 70
     1
102
RTVSPropertyOp7
 70
     1
102
RTVSPropertyOp8
 70
     1
102
RTVSPropertyOp9
 70
     1
102
RTVSPropertyOp10
 70
     1
102
RTVSPropertyOp11
 70
     1
102
RTVSPropertyOp12
 70
     1
102
RTVSPropertyOp13
 70
     1
102
RTVSPropertyOp14
 70
     1
102
RTVSPropertyOp15
 70
     1
102
RTVSPropertyOp16
 70
     1
102
RTVSPropertyOp17
 70
     1
102
RTVSPropertyOp18
 70
     1
102
RTVSPropertyOp19
 70
     1
102
RTVSPropertyOp20
 70
     1
102
RTVSPropertyOp21
 70
     1
102
RTVSPropertyOp22
 70
     1
102
RTVSPropertyOp23
 70
     1
102
RTVSPropertyOp24
 70
     1
102
RTVSPropertyOp25
 70
     1
102
RTVSPropertyOp26
 70
     1
102
RTVSPropertyOp27
 70
     1
102
RTVSPropertyOp28
 70
     1
102
RTVSPropertyOp29
 70
     1
102
RTVSPropertyOp30
 70
     1
102
RTVSPropertyOp31
 70
     1
102
RTVSPropertyOp32
 70
     1
102
RTVSPropertyOp33
 70
     1
102
RTVSPropertyOp34
 70
     1
102
RTVSPropertyOp35
 70
     1
102
RTVSPropertyOp36
 70
     1
102
RTVSPropertyOp37
 70
     1
102
RTVSPropertyOp38
 70
     1
102
RTVSPropertyOp39
 70
     1
102
RTVSPropertyOp40
 70
     1
102
RTVSPropertyOp41
 70
     1
102
RTVSPropertyOp42
 70
     1
102
RTVSPropertyOp43
 70
     1
102
RTVSPropertyOp44
 70
     1
102
RTVSPropertyOp45
 70
     1
102
RTVSPropertyOp46
 70
     1
102
RTVSPropertyOp47
 70
     1
102
RTVSPropertyOp48
 70
     1
102
RTVSPropertyOp49
 70
     1
102
RTVSPropertyOp50
 70
     1
102
RTVSPropertyOp51
 70
     0
102
RTVSPropertyOp52
 70
     0
102
RTVSPropertyOp53
 70
     1
102
RTVSPropertyOp54
 70
     1
102
RTVSPropertyOp55
 70
     1
102
RTVSPropertyOp56
 70
     1
102
RTVSPropertyOp57
 70
     1
102
RTVSPropertyOp58
 70
     1
102
RTVSPropertyOp59
 70
     1
102
RTVSPropertyOp60
 70
     1
102
RTVSPropertyOp61
 70
     1
102
RTVSPropertyOp62
 70
     1
  0
XRECORD
  5
5E6
102
{ACAD_REACTORS
330
5E5
102
}
330
5E5
100
AcDbXrecord
280
     1
102
RTVSPost2010Prop28
280
     0
102
RTVSPost2010PropOp28
 70
     1
102
RTVSPost2010Prop29
280
     1
102
RTVSPost2010PropOp29
 70
     1
102
RTVSPost2010Prop30
280
     1
102
RTVSPost2010PropOp30
 70
     1
102
RTVSPost2010Prop31
280
     0
102
RTVSPost2010PropOp31
 70
     1
102
RTVSPost2010Prop32
280
     0
102
RTVSPost2010PropOp32
 70
     1
102
RTVSPost2010Prop33
280
     0
102
RTVSPost2010PropOp33
 70
     1
102
RTVSPost2010Prop34
280
     0
102
RTVSPost2010PropOp34
 70
     1
102
RTVSPost2010Prop35
280
     0
102
RTVSPost2010PropOp35
 70
     1
102
RTVSPost2010Prop36
280
     0
102
RTVSPost2010PropOp36
 70
     1
102
RTVSPost2010Prop37
 90
       50
102
RTVSPost2010PropOp37
 70
     1
102
RTVSPost2010Prop38
140
0.0
102
RTVSPost2010PropOp38
 70
     1
102
RTVSPost2010Prop39
140
1.0
102
RTVSPost2010PropOp39
 70
     1
102
RTVSPost2010Prop40
 90
        0
102
RTVSPost2010PropOp40
 70
     1
102
RTVSPost2010Prop41ColorIndex
 90
       18
102
RTVSPost2010Prop41ColorRGB
 90
        0
102
RTVSPost2010PropOp41
 70
     1
102
RTVSPost2010Prop42
 90
       50
102
RTVSPost2010PropOp42
 70
     1
102
RTVSPost2010Prop43
 90
        3
102
RTVSPost2010PropOp43
 70
     1
102
RTVSPost2010Prop44ColorIndex
 90
        5
102
RTVSPost2010Prop44ColorRGB
 90
      255
102
RTVSPost2010PropOp44
 70
     1
102
RTVSPost2010Prop45
280
     0
102
RTVSPost2010PropOp45
 70
     1
102
RTVSPost2010Prop46
 90
       50
102
RTVSPost2010PropOp46
 70
     1
102
RTVSPost2010Prop47
 90
       50
102
RTVSPost2010PropOp47
 70
     1
102
RTVSPost2010Prop48
 90
       50
102
RTVSPost2010PropOp48
 70
     1
102
RTVSPost2010Prop49
280
     0
102
RTVSPost2010PropOp49
 70
     1
102
RTVSPost2010Prop50
 90
       50
102
RTVSPost2010PropOp50
 70
     1
102
RTVSPost2010Prop51ColorIndex
 90
      256
102
RTVSPost2010Prop51ColorRGB
 90
-16777216
102
RTVSPost2010PropOp51
 70
     0
102
RTVSPost2010Prop52
140
1.0
102
RTVSPost2010PropOp52
 70
     0
102
RTVSPost2010Prop53
 90
        2
102
RTVSPost2010PropOp53
 70
     1
102
RTVSPost2010Prop54
  1
strokes_ogs.tif
102
RTVSPost2010PropOp54
 70
     1
102
RTVSPost2010Prop55
280
     0
102
RTVSPost2010PropOp55
 70
     1
102
RTVSPost2010Prop56
140
1.0
102
RTVSPost2010PropOp56
 70
     1
102
RTVSPost2010Prop57
140
1.0
102
RTVSPost2010PropOp57
 70
     1
102
RTVSPropertyOp0
 70
     1
102
RTVSPropertyOp1
 70
     1
102
RTVSPropertyOp2
 70
     1
102
RTVSPropertyOp3
 70
     1
102
RTVSPropertyOp4
 70
     1
102
RTVSPropertyOp5
 70
     1
102
RTVSPropertyOp6
 70
     1
102
RTVSPropertyOp7
 70
     1
102
RTVSPropertyOp8
 70
     1
102
RTVSPropertyOp9
 70
     1
102
RTVSPropertyOp10
 70
     1
102
RTVSPropertyOp11
 70
     1
102
RTVSPropertyOp12
 70
     1
102
RTVSPropertyOp13
 70
     1
102
RTVSPropertyOp14
 70
     1
102
RTVSPropertyOp15
 70
     1
102
RTVSPropertyOp16
 70
     1
102
RTVSPropertyOp17
 70
     1
102
RTVSPropertyOp18
 70
     1
102
RTVSPropertyOp19
 70
     1
102
RTVSPropertyOp20
 70
     1
102
RTVSPropertyOp21
 70
     1
102
RTVSPropertyOp22
 70
     1
102
RTVSPropertyOp23
 70
     1
102
RTVSPropertyOp24
 70
     1
102
RTVSPropertyOp25
 70
     1
102
RTVSPropertyOp26
 70
     1
102
RTVSPropertyOp27
 70
     1
102
RTVSPropertyOp28
 70
     1
102
RTVSPropertyOp29
 70
     1
102
RTVSPropertyOp30
 70
     1
102
RTVSPropertyOp31
 70
     1
102
RTVSPropertyOp32
 70
     1
102
RTVSPropertyOp33
 70
     1
102
RTVSPropertyOp34
 70
     1
102
RTVSPropertyOp35
 70
     1
102
RTVSPropertyOp36
 70
     1
102
RTVSPropertyOp37
 70
     1
102
RTVSPropertyOp38
 70
     1
102
RTVSPropertyOp39
 70
     1
102
RTVSPropertyOp40
 70
     1
102
RTVSPropertyOp41
 70
     1
102
RTVSPropertyOp42
 70
     1
102
RTVSPropertyOp43
 70
     1
102
RTVSPropertyOp44
 70
     1
102
RTVSPropertyOp45
 70
     1
102
RTVSPropertyOp46
 70
     1
102
RTVSPropertyOp47
 70
     1
102
RTVSPropertyOp48
 70
     1
102
RTVSPropertyOp49
 70
     1
102
RTVSPropertyOp50
 70
     1
102
RTVSPropertyOp51
 70
     0
102
RTVSPropertyOp52
 70
     0
102
RTVSPropertyOp53
 70
     1
102
RTVSPropertyOp54
 70
     1
102
RTVSPropertyOp55
 70
     1
102
RTVSPropertyOp56
 70
     1
102
RTVSPropertyOp57
 70
     1
102
RTVSPropertyOp58
 70
     1
102
RTVSPropertyOp59
 70
     1
102
RTVSPropertyOp60
 70
     1
102
RTVSPropertyOp61
 70
     1
102
RTVSPropertyOp62
 70
     1
  0
XRECORD
  5
5DA
102
{ACAD_REACTORS
330
5D9
102
}
330
5D9
100
AcDbXrecord
280
     1
102
RTVSPost2010Prop28
280
     0
102
RTVSPost2010PropOp28
 70
     1
102
RTVSPost2010Prop29
280
     1
102
RTVSPost2010PropOp29
 70
     1
102
RTVSPost2010Prop30
280
     1
102
RTVSPost2010PropOp30
 70
     1
102
RTVSPost2010Prop31
280
     0
102
RTVSPost2010PropOp31
 70
     1
102
RTVSPost2010Prop32
280
     0
102
RTVSPost2010PropOp32
 70
     1
102
RTVSPost2010Prop33
280
     0
102
RTVSPost2010PropOp33
 70
     1
102
RTVSPost2010Prop34
280
     0
102
RTVSPost2010PropOp34
 70
     1
102
RTVSPost2010Prop35
280
     0
102
RTVSPost2010PropOp35
 70
     1
102
RTVSPost2010Prop36
280
     0
102
RTVSPost2010PropOp36
 70
     1
102
RTVSPost2010Prop37
 90
       50
102
RTVSPost2010PropOp37
 70
     1
102
RTVSPost2010Prop38
140
0.0
102
RTVSPost2010PropOp38
 70
     1
102
RTVSPost2010Prop39
140
1.0
102
RTVSPost2010PropOp39
 70
     1
102
RTVSPost2010Prop40
 90
        0
102
RTVSPost2010PropOp40
 70
     1
102
RTVSPost2010Prop41ColorIndex
 90
       18
102
RTVSPost2010Prop41ColorRGB
 90
        0
102
RTVSPost2010PropOp41
 70
     1
102
RTVSPost2010Prop42
 90
       50
102
RTVSPost2010PropOp42
 70
     1
102
RTVSPost2010Prop43
 90
        3
102
RTVSPost2010PropOp43
 70
     1
102
RTVSPost2010Prop44ColorIndex
 90
        5
102
RTVSPost2010Prop44ColorRGB
 90
      255
102
RTVSPost2010PropOp44
 70
     1
102
RTVSPost2010Prop45
280
     0
102
RTVSPost2010PropOp45
 70
     1
102
RTVSPost2010Prop46
 90
       50
102
RTVSPost2010PropOp46
 70
     1
102
RTVSPost2010Prop47
 90
       50
102
RTVSPost2010PropOp47
 70
     1
102
RTVSPost2010Prop48
 90
       50
102
RTVSPost2010PropOp48
 70
     1
102
RTVSPost2010Prop49
280
     0
102
RTVSPost2010PropOp49
 70
     1
102
RTVSPost2010Prop50
 90
       50
102
RTVSPost2010PropOp50
 70
     1
102
RTVSPost2010Prop51ColorIndex
 90
      256
102
RTVSPost2010Prop51ColorRGB
 90
-16777216
102
RTVSPost2010PropOp51
 70
     0
102
RTVSPost2010Prop52
140
1.0
102
RTVSPost2010PropOp52
 70
     0
102
RTVSPost2010Prop53
 90
        2
102
RTVSPost2010PropOp53
 70
     1
102
RTVSPost2010Prop54
  1
strokes_ogs.tif
102
RTVSPost2010PropOp54
 70
     1
102
RTVSPost2010Prop55
280
     0
102
RTVSPost2010PropOp55
 70
     1
102
RTVSPost2010Prop56
140
1.0
102
RTVSPost2010PropOp56
 70
     1
102
RTVSPost2010Prop57
140
1.0
102
RTVSPost2010PropOp57
 70
     1
102
RTVSPropertyOp0
 70
     1
102
RTVSPropertyOp1
 70
     1
102
RTVSPropertyOp2
 70
     1
102
RTVSPropertyOp3
 70
     1
102
RTVSPropertyOp4
 70
     1
102
RTVSPropertyOp5
 70
     1
102
RTVSPropertyOp6
 70
     1
102
RTVSPropertyOp7
 70
     1
102
RTVSPropertyOp8
 70
     1
102
RTVSPropertyOp9
 70
     1
102
RTVSPropertyOp10
 70
     1
102
RTVSPropertyOp11
 70
     1
102
RTVSPropertyOp12
 70
     1
102
RTVSPropertyOp13
 70
     1
102
RTVSPropertyOp14
 70
     1
102
RTVSPropertyOp15
 70
     1
102
RTVSPropertyOp16
 70
     1
102
RTVSPropertyOp17
 70
     1
102
RTVSPropertyOp18
 70
     1
102
RTVSPropertyOp19
 70
     1
102
RTVSPropertyOp20
 70
     1
102
RTVSPropertyOp21
 70
     1
102
RTVSPropertyOp22
 70
     1
102
RTVSPropertyOp23
 70
     1
102
RTVSPropertyOp24
 70
     1
102
RTVSPropertyOp25
 70
     1
102
RTVSPropertyOp26
 70
     1
102
RTVSPropertyOp27
 70
     1
102
RTVSPropertyOp28
 70
     1
102
RTVSPropertyOp29
 70
     1
102
RTVSPropertyOp30
 70
     1
102
RTVSPropertyOp31
 70
     1
102
RTVSPropertyOp32
 70
     1
102
RTVSPropertyOp33
 70
     1
102
RTVSPropertyOp34
 70
     1
102
RTVSPropertyOp35
 70
     1
102
RTVSPropertyOp36
 70
     1
102
RTVSPropertyOp37
 70
     1
102
RTVSPropertyOp38
 70
     1
102
RTVSPropertyOp39
 70
     1
102
RTVSPropertyOp40
 70
     1
102
RTVSPropertyOp41
 70
     1
102
RTVSPropertyOp42
 70
     1
102
RTVSPropertyOp43
 70
     1
102
RTVSPropertyOp44
 70
     1
102
RTVSPropertyOp45
 70
     1
102
RTVSPropertyOp46
 70
     1
102
RTVSPropertyOp47
 70
     1
102
RTVSPropertyOp48
 70
     1
102
RTVSPropertyOp49
 70
     1
102
RTVSPropertyOp50
 70
     1
102
RTVSPropertyOp51
 70
     0
102
RTVSPropertyOp52
 70
     0
102
RTVSPropertyOp53
 70
     1
102
RTVSPropertyOp54
 70
     1
102
RTVSPropertyOp55
 70
     1
102
RTVSPropertyOp56
 70
     1
102
RTVSPropertyOp57
 70
     1
102
RTVSPropertyOp58
 70
     1
102
RTVSPropertyOp59
 70
     1
102
RTVSPropertyOp60
 70
     1
102
RTVSPropertyOp61
 70
     1
102
RTVSPropertyOp62
 70
     1
  0
XRECORD
  5
5DC
102
{ACAD_REACTORS
330
5DB
102
}
330
5DB
100
AcDbXrecord
280
     1
102
RTVSPost2010Prop28
280
     0
102
RTVSPost2010PropOp28
 70
     1
102
RTVSPost2010Prop29
280
     1
102
RTVSPost2010PropOp29
 70
     1
102
RTVSPost2010Prop30
280
     1
102
RTVSPost2010PropOp30
 70
     1
102
RTVSPost2010Prop31
280
     0
102
RTVSPost2010PropOp31
 70
     1
102
RTVSPost2010Prop32
280
     0
102
RTVSPost2010PropOp32
 70
     1
102
RTVSPost2010Prop33
280
     0
102
RTVSPost2010PropOp33
 70
     1
102
RTVSPost2010Prop34
280
     0
102
RTVSPost2010PropOp34
 70
     1
102
RTVSPost2010Prop35
280
     0
102
RTVSPost2010PropOp35
 70
     1
102
RTVSPost2010Prop36
280
     0
102
RTVSPost2010PropOp36
 70
     1
102
RTVSPost2010Prop37
 90
       50
102
RTVSPost2010PropOp37
 70
     1
102
RTVSPost2010Prop38
140
0.0
102
RTVSPost2010PropOp38
 70
     1
102
RTVSPost2010Prop39
140
1.0
102
RTVSPost2010PropOp39
 70
     1
102
RTVSPost2010Prop40
 90
        0
102
RTVSPost2010PropOp40
 70
     1
102
RTVSPost2010Prop41ColorIndex
 90
       18
102
RTVSPost2010Prop41ColorRGB
 90
        0
102
RTVSPost2010PropOp41
 70
     1
102
RTVSPost2010Prop42
 90
       50
102
RTVSPost2010PropOp42
 70
     1
102
RTVSPost2010Prop43
 90
        3
102
RTVSPost2010PropOp43
 70
     1
102
RTVSPost2010Prop44ColorIndex
 90
        5
102
RTVSPost2010Prop44ColorRGB
 90
      255
102
RTVSPost2010PropOp44
 70
     1
102
RTVSPost2010Prop45
280
     0
102
RTVSPost2010PropOp45
 70
     1
102
RTVSPost2010Prop46
 90
       50
102
RTVSPost2010PropOp46
 70
     1
102
RTVSPost2010Prop47
 90
       50
102
RTVSPost2010PropOp47
 70
     1
102
RTVSPost2010Prop48
 90
       50
102
RTVSPost2010PropOp48
 70
     1
102
RTVSPost2010Prop49
280
     0
102
RTVSPost2010PropOp49
 70
     1
102
RTVSPost2010Prop50
 90
       50
102
RTVSPost2010PropOp50
 70
     1
102
RTVSPost2010Prop51ColorIndex
 90
      256
102
RTVSPost2010Prop51ColorRGB
 90
-16777216
102
RTVSPost2010PropOp51
 70
     0
102
RTVSPost2010Prop52
140
1.0
102
RTVSPost2010PropOp52
 70
     0
102
RTVSPost2010Prop53
 90
        2
102
RTVSPost2010PropOp53
 70
     1
102
RTVSPost2010Prop54
  1
strokes_ogs.tif
102
RTVSPost2010PropOp54
 70
     1
102
RTVSPost2010Prop55
280
     0
102
RTVSPost2010PropOp55
 70
     1
102
RTVSPost2010Prop56
140
1.0
102
RTVSPost2010PropOp56
 70
     1
102
RTVSPost2010Prop57
140
1.0
102
RTVSPost2010PropOp57
 70
     1
102
RTVSPropertyOp0
 70
     1
102
RTVSPropertyOp1
 70
     1
102
RTVSPropertyOp2
 70
     1
102
RTVSPropertyOp3
 70
     1
102
RTVSPropertyOp4
 70
     1
102
RTVSPropertyOp5
 70
     1
102
RTVSPropertyOp6
 70
     1
102
RTVSPropertyOp7
 70
     1
102
RTVSPropertyOp8
 70
     1
102
RTVSPropertyOp9
 70
     1
102
RTVSPropertyOp10
 70
     1
102
RTVSPropertyOp11
 70
     1
102
RTVSPropertyOp12
 70
     1
102
RTVSPropertyOp13
 70
     1
102
RTVSPropertyOp14
 70
     1
102
RTVSPropertyOp15
 70
     1
102
RTVSPropertyOp16
 70
     1
102
RTVSPropertyOp17
 70
     1
102
RTVSPropertyOp18
 70
     1
102
RTVSPropertyOp19
 70
     1
102
RTVSPropertyOp20
 70
     1
102
RTVSPropertyOp21
 70
     1
102
RTVSPropertyOp22
 70
     1
102
RTVSPropertyOp23
 70
     1
102
RTVSPropertyOp24
 70
     1
102
RTVSPropertyOp25
 70
     1
102
RTVSPropertyOp26
 70
     1
102
RTVSPropertyOp27
 70
     1
102
RTVSPropertyOp28
 70
     1
102
RTVSPropertyOp29
 70
     1
102
RTVSPropertyOp30
 70
     1
102
RTVSPropertyOp31
 70
     1
102
RTVSPropertyOp32
 70
     1
102
RTVSPropertyOp33
 70
     1
102
RTVSPropertyOp34
 70
     1
102
RTVSPropertyOp35
 70
     1
102
RTVSPropertyOp36
 70
     1
102
RTVSPropertyOp37
 70
     1
102
RTVSPropertyOp38
 70
     1
102
RTVSPropertyOp39
 70
     1
102
RTVSPropertyOp40
 70
     1
102
RTVSPropertyOp41
 70
     1
102
RTVSPropertyOp42
 70
     1
102
RTVSPropertyOp43
 70
     1
102
RTVSPropertyOp44
 70
     1
102
RTVSPropertyOp45
 70
     1
102
RTVSPropertyOp46
 70
     1
102
RTVSPropertyOp47
 70
     1
102
RTVSPropertyOp48
 70
     1
102
RTVSPropertyOp49
 70
     1
102
RTVSPropertyOp50
 70
     1
102
RTVSPropertyOp51
 70
     0
102
RTVSPropertyOp52
 70
     0
102
RTVSPropertyOp53
 70
     1
102
RTVSPropertyOp54
 70
     1
102
RTVSPropertyOp55
 70
     1
102
RTVSPropertyOp56
 70
     1
102
RTVSPropertyOp57
 70
     1
102
RTVSPropertyOp58
 70
     1
102
RTVSPropertyOp59
 70
     1
102
RTVSPropertyOp60
 70
     1
102
RTVSPropertyOp61
 70
     1
102
RTVSPropertyOp62
 70
     1
  0
XRECORD
  5
5EC
102
{ACAD_REACTORS
330
5EB
102
}
330
5EB
100
AcDbXrecord
280
     1
102
RTVSPost2010Prop28
280
     0
102
RTVSPost2010PropOp28
 70
     0
102
RTVSPost2010Prop29
280
     1
102
RTVSPost2010PropOp29
 70
     0
102
RTVSPost2010Prop30
280
     1
102
RTVSPost2010PropOp30
 70
     0
102
RTVSPost2010Prop31
280
     0
102
RTVSPost2010PropOp31
 70
     0
102
RTVSPost2010Prop32
280
     0
102
RTVSPost2010PropOp32
 70
     0
102
RTVSPost2010Prop33
280
     0
102
RTVSPost2010PropOp33
 70
     0
102
RTVSPost2010Prop34
280
     0
102
RTVSPost2010PropOp34
 70
     0
102
RTVSPost2010Prop35
280
     0
102
RTVSPost2010PropOp35
 70
     0
102
RTVSPost2010Prop36
280
     0
102
RTVSPost2010PropOp36
 70
     0
102
RTVSPost2010Prop37
 90
       50
102
RTVSPost2010PropOp37
 70
     0
102
RTVSPost2010Prop38
140
0.0
102
RTVSPost2010PropOp38
 70
     0
102
RTVSPost2010Prop39
140
1.0
102
RTVSPost2010PropOp39
 70
     0
102
RTVSPost2010Prop40
 90
        0
102
RTVSPost2010PropOp40
 70
     0
102
RTVSPost2010Prop41ColorIndex
 90
       18
102
RTVSPost2010Prop41ColorRGB
 90
        0
102
RTVSPost2010PropOp41
 70
     0
102
RTVSPost2010Prop42
 90
       50
102
RTVSPost2010PropOp42
 70
     0
102
RTVSPost2010Prop43
 90
        3
102
RTVSPost2010PropOp43
 70
     0
102
RTVSPost2010Prop44ColorIndex
 90
        5
102
RTVSPost2010Prop44ColorRGB
 90
      255
102
RTVSPost2010PropOp44
 70
     0
102
RTVSPost2010Prop45
280
     0
102
RTVSPost2010PropOp45
 70
     0
102
RTVSPost2010Prop46
 90
       50
102
RTVSPost2010PropOp46
 70
     0
102
RTVSPost2010Prop47
 90
       50
102
RTVSPost2010PropOp47
 70
     0
102
RTVSPost2010Prop48
 90
       50
102
RTVSPost2010PropOp48
 70
     0
102
RTVSPost2010Prop49
280
     0
102
RTVSPost2010PropOp49
 70
     0
102
RTVSPost2010Prop50
 90
       50
102
RTVSPost2010PropOp50
 70
     0
102
RTVSPost2010Prop51ColorIndex
 90
      256
102
RTVSPost2010Prop51ColorRGB
 90
-16777216
102
RTVSPost2010PropOp51
 70
     0
102
RTVSPost2010Prop52
140
1.0
102
RTVSPost2010PropOp52
 70
     0
102
RTVSPost2010Prop53
 90
        2
102
RTVSPost2010PropOp53
 70
     0
102
RTVSPost2010Prop54
  1
strokes_ogs.tif
102
RTVSPost2010PropOp54
 70
     0
102
RTVSPost2010Prop55
280
     0
102
RTVSPost2010PropOp55
 70
     0
102
RTVSPost2010Prop56
140
1.0
102
RTVSPost2010PropOp56
 70
     0
102
RTVSPost2010Prop57
140
1.0
102
RTVSPost2010PropOp57
 70
     0
102
RTVSPropertyOp0
 70
     0
102
RTVSPropertyOp1
 70
     0
102
RTVSPropertyOp2
 70
     0
102
RTVSPropertyOp3
 70
     0
102
RTVSPropertyOp4
 70
     0
102
RTVSPropertyOp5
 70
     0
102
RTVSPropertyOp6
 70
     0
102
RTVSPropertyOp7
 70
     0
102
RTVSPropertyOp8
 70
     0
102
RTVSPropertyOp9
 70
     0
102
RTVSPropertyOp10
 70
     0
102
RTVSPropertyOp11
 70
     0
102
RTVSPropertyOp12
 70
     0
102
RTVSPropertyOp13
 70
     0
102
RTVSPropertyOp14
 70
     2
102
RTVSPropertyOp15
 70
     0
102
RTVSPropertyOp16
 70
     0
102
RTVSPropertyOp17
 70
     0
102
RTVSPropertyOp18
 70
     0
102
RTVSPropertyOp19
 70
     0
102
RTVSPropertyOp20
 70
     0
102
RTVSPropertyOp21
 70
     0
102
RTVSPropertyOp22
 70
     0
102
RTVSPropertyOp23
 70
     0
102
RTVSPropertyOp24
 70
     0
102
RTVSPropertyOp25
 70
     0
102
RTVSPropertyOp26
 70
     0
102
RTVSPropertyOp27
 70
     0
102
RTVSPropertyOp28
 70
     0
102
RTVSPropertyOp29
 70
     0
102
RTVSPropertyOp30
 70
     0
102
RTVSPropertyOp31
 70
     0
102
RTVSPropertyOp32
 70
     0
102
RTVSPropertyOp33
 70
     0
102
RTVSPropertyOp34
 70
     0
102
RTVSPropertyOp35
 70
     0
102
RTVSPropertyOp36
 70
     0
102
RTVSPropertyOp37
 70
     0
102
RTVSPropertyOp38
 70
     0
102
RTVSPropertyOp39
 70
     0
102
RTVSPropertyOp40
 70
     0
102
RTVSPropertyOp41
 70
     0
102
RTVSPropertyOp42
 70
     0
102
RTVSPropertyOp43
 70
     0
102
RTVSPropertyOp44
 70
     0
102
RTVSPropertyOp45
 70
     0
102
RTVSPropertyOp46
 70
     0
102
RTVSPropertyOp47
 70
     0
102
RTVSPropertyOp48
 70
     0
102
RTVSPropertyOp49
 70
     0
102
RTVSPropertyOp50
 70
     0
102
RTVSPropertyOp51
 70
     0
102
RTVSPropertyOp52
 70
     0
102
RTVSPropertyOp53
 70
     0
102
RTVSPropertyOp54
 70
     0
102
RTVSPropertyOp55
 70
     0
102
RTVSPropertyOp56
 70
     0
102
RTVSPropertyOp57
 70
     0
102
RTVSPropertyOp58
 70
     1
102
RTVSPropertyOp59
 70
     1
102
RTVSPropertyOp60
 70
     1
102
RTVSPropertyOp61
 70
     1
102
RTVSPropertyOp62
 70
     1
  0
XRECORD
  5
5E4
102
{ACAD_REACTORS
330
5E3
102
}
330
5E3
100
AcDbXrecord
280
     1
102
RTVSPost2010Prop28
280
     0
102
RTVSPost2010PropOp28
 70
     1
102
RTVSPost2010Prop29
280
     1
102
RTVSPost2010PropOp29
 70
     1
102
RTVSPost2010Prop30
280
     1
102
RTVSPost2010PropOp30
 70
     1
102
RTVSPost2010Prop31
280
     0
102
RTVSPost2010PropOp31
 70
     1
102
RTVSPost2010Prop32
280
     0
102
RTVSPost2010PropOp32
 70
     1
102
RTVSPost2010Prop33
280
     0
102
RTVSPost2010PropOp33
 70
     1
102
RTVSPost2010Prop34
280
     0
102
RTVSPost2010PropOp34
 70
     1
102
RTVSPost2010Prop35
280
     0
102
RTVSPost2010PropOp35
 70
     1
102
RTVSPost2010Prop36
280
     0
102
RTVSPost2010PropOp36
 70
     1
102
RTVSPost2010Prop37
 90
       50
102
RTVSPost2010PropOp37
 70
     1
102
RTVSPost2010Prop38
140
0.0
102
RTVSPost2010PropOp38
 70
     1
102
RTVSPost2010Prop39
140
1.0
102
RTVSPost2010PropOp39
 70
     1
102
RTVSPost2010Prop40
 90
        0
102
RTVSPost2010PropOp40
 70
     1
102
RTVSPost2010Prop41ColorIndex
 90
       18
102
RTVSPost2010Prop41ColorRGB
 90
        0
102
RTVSPost2010PropOp41
 70
     1
102
RTVSPost2010Prop42
 90
       50
102
RTVSPost2010PropOp42
 70
     1
102
RTVSPost2010Prop43
 90
        3
102
RTVSPost2010PropOp43
 70
     1
102
RTVSPost2010Prop44ColorIndex
 90
        5
102
RTVSPost2010Prop44ColorRGB
 90
      255
102
RTVSPost2010PropOp44
 70
     1
102
RTVSPost2010Prop45
280
     0
102
RTVSPost2010PropOp45
 70
     1
102
RTVSPost2010Prop46
 90
       50
102
RTVSPost2010PropOp46
 70
     1
102
RTVSPost2010Prop47
 90
       50
102
RTVSPost2010PropOp47
 70
     1
102
RTVSPost2010Prop48
 90
       50
102
RTVSPost2010PropOp48
 70
     1
102
RTVSPost2010Prop49
280
     0
102
RTVSPost2010PropOp49
 70
     1
102
RTVSPost2010Prop50
 90
       50
102
RTVSPost2010PropOp50
 70
     1
102
RTVSPost2010Prop51ColorIndex
 90
      256
102
RTVSPost2010Prop51ColorRGB
 90
-16777216
102
RTVSPost2010PropOp51
 70
     0
102
RTVSPost2010Prop52
140
1.0
102
RTVSPost2010PropOp52
 70
     0
102
RTVSPost2010Prop53
 90
        2
102
RTVSPost2010PropOp53
 70
     1
102
RTVSPost2010Prop54
  1
strokes_ogs.tif
102
RTVSPost2010PropOp54
 70
     1
102
RTVSPost2010Prop55
280
     0
102
RTVSPost2010PropOp55
 70
     1
102
RTVSPost2010Prop56
140
1.0
102
RTVSPost2010PropOp56
 70
     1
102
RTVSPost2010Prop57
140
1.0
102
RTVSPost2010PropOp57
 70
     1
102
RTVSPropertyOp0
 70
     1
102
RTVSPropertyOp1
 70
     1
102
RTVSPropertyOp2
 70
     1
102
RTVSPropertyOp3
 70
     1
102
RTVSPropertyOp4
 70
     1
102
RTVSPropertyOp5
 70
     1
102
RTVSPropertyOp6
 70
     1
102
RTVSPropertyOp7
 70
     1
102
RTVSPropertyOp8
 70
     1
102
RTVSPropertyOp9
 70
     1
102
RTVSPropertyOp10
 70
     1
102
RTVSPropertyOp11
 70
     1
102
RTVSPropertyOp12
 70
     1
102
RTVSPropertyOp13
 70
     1
102
RTVSPropertyOp14
 70
     1
102
RTVSPropertyOp15
 70
     1
102
RTVSPropertyOp16
 70
     1
102
RTVSPropertyOp17
 70
     1
102
RTVSPropertyOp18
 70
     1
102
RTVSPropertyOp19
 70
     1
102
RTVSPropertyOp20
 70
     1
102
RTVSPropertyOp21
 70
     1
102
RTVSPropertyOp22
 70
     1
102
RTVSPropertyOp23
 70
     1
102
RTVSPropertyOp24
 70
     1
102
RTVSPropertyOp25
 70
     1
102
RTVSPropertyOp26
 70
     1
102
RTVSPropertyOp27
 70
     1
102
RTVSPropertyOp28
 70
     1
102
RTVSPropertyOp29
 70
     1
102
RTVSPropertyOp30
 70
     1
102
RTVSPropertyOp31
 70
     1
102
RTVSPropertyOp32
 70
     1
102
RTVSPropertyOp33
 70
     1
102
RTVSPropertyOp34
 70
     1
102
RTVSPropertyOp35
 70
     1
102
RTVSPropertyOp36
 70
     1
102
RTVSPropertyOp37
 70
     1
102
RTVSPropertyOp38
 70
     1
102
RTVSPropertyOp39
 70
     1
102
RTVSPropertyOp40
 70
     1
102
RTVSPropertyOp41
 70
     1
102
RTVSPropertyOp42
 70
     1
102
RTVSPropertyOp43
 70
     1
102
RTVSPropertyOp44
 70
     1
102
RTVSPropertyOp45
 70
     1
102
RTVSPropertyOp46
 70
     1
102
RTVSPropertyOp47
 70
     1
102
RTVSPropertyOp48
 70
     1
102
RTVSPropertyOp49
 70
     1
102
RTVSPropertyOp50
 70
     1
102
RTVSPropertyOp51
 70
     0
102
RTVSPropertyOp52
 70
     0
102
RTVSPropertyOp53
 70
     1
102
RTVSPropertyOp54
 70
     1
102
RTVSPropertyOp55
 70
     1
102
RTVSPropertyOp56
 70
     1
102
RTVSPropertyOp57
 70
     1
102
RTVSPropertyOp58
 70
     1
102
RTVSPropertyOp59
 70
     1
102
RTVSPropertyOp60
 70
     1
102
RTVSPropertyOp61
 70
     1
102
RTVSPropertyOp62
 70
     1
  0
XRECORD
  5
5C8
102
{ACAD_REACTORS
330
5C7
102
}
330
5C7
100
AcDbXrecord
280
     1
102
RTVSPost2010Prop28
280
     0
102
RTVSPost2010PropOp28
 70
     1
102
RTVSPost2010Prop29
280
     1
102
RTVSPost2010PropOp29
 70
     1
102
RTVSPost2010Prop30
280
     1
102
RTVSPost2010PropOp30
 70
     1
102
RTVSPost2010Prop31
280
     0
102
RTVSPost2010PropOp31
 70
     1
102
RTVSPost2010Prop32
280
     0
102
RTVSPost2010PropOp32
 70
     1
102
RTVSPost2010Prop33
280
     0
102
RTVSPost2010PropOp33
 70
     1
102
RTVSPost2010Prop34
280
     0
102
RTVSPost2010PropOp34
 70
     1
102
RTVSPost2010Prop35
280
     0
102
RTVSPost2010PropOp35
 70
     1
102
RTVSPost2010Prop36
280
     0
102
RTVSPost2010PropOp36
 70
     1
102
RTVSPost2010Prop37
 90
       50
102
RTVSPost2010PropOp37
 70
     1
102
RTVSPost2010Prop38
140
0.0
102
RTVSPost2010PropOp38
 70
     1
102
RTVSPost2010Prop39
140
1.0
102
RTVSPost2010PropOp39
 70
     1
102
RTVSPost2010Prop40
 90
        0
102
RTVSPost2010PropOp40
 70
     1
102
RTVSPost2010Prop41ColorIndex
 90
       18
102
RTVSPost2010Prop41ColorRGB
 90
        0
102
RTVSPost2010PropOp41
 70
     1
102
RTVSPost2010Prop42
 90
       50
102
RTVSPost2010PropOp42
 70
     1
102
RTVSPost2010Prop43
 90
        3
102
RTVSPost2010PropOp43
 70
     1
102
RTVSPost2010Prop44ColorIndex
 90
        5
102
RTVSPost2010Prop44ColorRGB
 90
      255
102
RTVSPost2010PropOp44
 70
     1
102
RTVSPost2010Prop45
280
     0
102
RTVSPost2010PropOp45
 70
     1
102
RTVSPost2010Prop46
 90
       50
102
RTVSPost2010PropOp46
 70
     1
102
RTVSPost2010Prop47
 90
       50
102
RTVSPost2010PropOp47
 70
     1
102
RTVSPost2010Prop48
 90
       50
102
RTVSPost2010PropOp48
 70
     1
102
RTVSPost2010Prop49
280
     0
102
RTVSPost2010PropOp49
 70
     1
102
RTVSPost2010Prop50
 90
       50
102
RTVSPost2010PropOp50
 70
     1
102
RTVSPost2010Prop51ColorIndex
 90
      256
102
RTVSPost2010Prop51ColorRGB
 90
-16777216
102
RTVSPost2010PropOp51
 70
     0
102
RTVSPost2010Prop52
140
1.0
102
RTVSPost2010PropOp52
 70
     0
102
RTVSPost2010Prop53
 90
        2
102
RTVSPost2010PropOp53
 70
     1
102
RTVSPost2010Prop54
  1
strokes_ogs.tif
102
RTVSPost2010PropOp54
 70
     1
102
RTVSPost2010Prop55
280
     0
102
RTVSPost2010PropOp55
 70
     1
102
RTVSPost2010Prop56
140
1.0
102
RTVSPost2010PropOp56
 70
     1
102
RTVSPost2010Prop57
140
1.0
102
RTVSPost2010PropOp57
 70
     1
102
RTVSPropertyOp0
 70
     1
102
RTVSPropertyOp1
 70
     1
102
RTVSPropertyOp2
 70
     1
102
RTVSPropertyOp3
 70
     1
102
RTVSPropertyOp4
 70
     1
102
RTVSPropertyOp5
 70
     1
102
RTVSPropertyOp6
 70
     1
102
RTVSPropertyOp7
 70
     1
102
RTVSPropertyOp8
 70
     1
102
RTVSPropertyOp9
 70
     1
102
RTVSPropertyOp10
 70
     1
102
RTVSPropertyOp11
 70
     1
102
RTVSPropertyOp12
 70
     1
102
RTVSPropertyOp13
 70
     1
102
RTVSPropertyOp14
 70
     1
102
RTVSPropertyOp15
 70
     1
102
RTVSPropertyOp16
 70
     1
102
RTVSPropertyOp17
 70
     1
102
RTVSPropertyOp18
 70
     1
102
RTVSPropertyOp19
 70
     1
102
RTVSPropertyOp20
 70
     1
102
RTVSPropertyOp21
 70
     1
102
RTVSPropertyOp22
 70
     1
102
RTVSPropertyOp23
 70
     1
102
RTVSPropertyOp24
 70
     1
102
RTVSPropertyOp25
 70
     1
102
RTVSPropertyOp26
 70
     1
102
RTVSPropertyOp27
 70
     1
102
RTVSPropertyOp28
 70
     1
102
RTVSPropertyOp29
 70
     1
102
RTVSPropertyOp30
 70
     1
102
RTVSPropertyOp31
 70
     1
102
RTVSPropertyOp32
 70
     1
102
RTVSPropertyOp33
 70
     1
102
RTVSPropertyOp34
 70
     1
102
RTVSPropertyOp35
 70
     1
102
RTVSPropertyOp36
 70
     1
102
RTVSPropertyOp37
 70
     1
102
RTVSPropertyOp38
 70
     1
102
RTVSPropertyOp39
 70
     1
102
RTVSPropertyOp40
 70
     1
102
RTVSPropertyOp41
 70
     1
102
RTVSPropertyOp42
 70
     1
102
RTVSPropertyOp43
 70
     1
102
RTVSPropertyOp44
 70
     1
102
RTVSPropertyOp45
 70
     1
102
RTVSPropertyOp46
 70
     1
102
RTVSPropertyOp47
 70
     1
102
RTVSPropertyOp48
 70
     1
102
RTVSPropertyOp49
 70
     1
102
RTVSPropertyOp50
 70
     1
102
RTVSPropertyOp51
 70
     0
102
RTVSPropertyOp52
 70
     0
102
RTVSPropertyOp53
 70
     1
102
RTVSPropertyOp54
 70
     1
102
RTVSPropertyOp55
 70
     1
102
RTVSPropertyOp56
 70
     1
102
RTVSPropertyOp57
 70
     1
102
RTVSPropertyOp58
 70
     1
102
RTVSPropertyOp59
 70
     1
102
RTVSPropertyOp60
 70
     1
102
RTVSPropertyOp61
 70
     1
102
RTVSPropertyOp62
 70
     1
  0
XRECORD
  5
5CA
102
{ACAD_REACTORS
330
5C9
102
}
330
5C9
100
AcDbXrecord
280
     1
102
RTVSPost2010Prop28
280
     0
102
RTVSPost2010PropOp28
 70
     1
102
RTVSPost2010Prop29
280
     1
102
RTVSPost2010PropOp29
 70
     1
102
RTVSPost2010Prop30
280
     1
102
RTVSPost2010PropOp30
 70
     1
102
RTVSPost2010Prop31
280
     0
102
RTVSPost2010PropOp31
 70
     1
102
RTVSPost2010Prop32
280
     0
102
RTVSPost2010PropOp32
 70
     1
102
RTVSPost2010Prop33
280
     0
102
RTVSPost2010PropOp33
 70
     1
102
RTVSPost2010Prop34
280
     0
102
RTVSPost2010PropOp34
 70
     1
102
RTVSPost2010Prop35
280
     0
102
RTVSPost2010PropOp35
 70
     1
102
RTVSPost2010Prop36
280
     0
102
RTVSPost2010PropOp36
 70
     1
102
RTVSPost2010Prop37
 90
       50
102
RTVSPost2010PropOp37
 70
     1
102
RTVSPost2010Prop38
140
0.0
102
RTVSPost2010PropOp38
 70
     1
102
RTVSPost2010Prop39
140
1.0
102
RTVSPost2010PropOp39
 70
     1
102
RTVSPost2010Prop40
 90
        0
102
RTVSPost2010PropOp40
 70
     1
102
RTVSPost2010Prop41ColorIndex
 90
       18
102
RTVSPost2010Prop41ColorRGB
 90
        0
102
RTVSPost2010PropOp41
 70
     1
102
RTVSPost2010Prop42
 90
       50
102
RTVSPost2010PropOp42
 70
     1
102
RTVSPost2010Prop43
 90
        3
102
RTVSPost2010PropOp43
 70
     1
102
RTVSPost2010Prop44ColorIndex
 90
        5
102
RTVSPost2010Prop44ColorRGB
 90
      255
102
RTVSPost2010PropOp44
 70
     1
102
RTVSPost2010Prop45
280
     0
102
RTVSPost2010PropOp45
 70
     1
102
RTVSPost2010Prop46
 90
       50
102
RTVSPost2010PropOp46
 70
     1
102
RTVSPost2010Prop47
 90
       50
102
RTVSPost2010PropOp47
 70
     1
102
RTVSPost2010Prop48
 90
       50
102
RTVSPost2010PropOp48
 70
     1
102
RTVSPost2010Prop49
280
     0
102
RTVSPost2010PropOp49
 70
     1
102
RTVSPost2010Prop50
 90
       50
102
RTVSPost2010PropOp50
 70
     1
102
RTVSPost2010Prop51ColorIndex
 90
      256
102
RTVSPost2010Prop51ColorRGB
 90
-16777216
102
RTVSPost2010PropOp51
 70
     0
102
RTVSPost2010Prop52
140
1.0
102
RTVSPost2010PropOp52
 70
     0
102
RTVSPost2010Prop53
 90
        2
102
RTVSPost2010PropOp53
 70
     1
102
RTVSPost2010Prop54
  1
strokes_ogs.tif
102
RTVSPost2010PropOp54
 70
     1
102
RTVSPost2010Prop55
280
     0
102
RTVSPost2010PropOp55
 70
     1
102
RTVSPost2010Prop56
140
1.0
102
RTVSPost2010PropOp56
 70
     1
102
RTVSPost2010Prop57
140
1.0
102
RTVSPost2010PropOp57
 70
     1
102
RTVSPropertyOp0
 70
     1
102
RTVSPropertyOp1
 70
     1
102
RTVSPropertyOp2
 70
     1
102
RTVSPropertyOp3
 70
     1
102
RTVSPropertyOp4
 70
     1
102
RTVSPropertyOp5
 70
     1
102
RTVSPropertyOp6
 70
     1
102
RTVSPropertyOp7
 70
     1
102
RTVSPropertyOp8
 70
     1
102
RTVSPropertyOp9
 70
     1
102
RTVSPropertyOp10
 70
     1
102
RTVSPropertyOp11
 70
     1
102
RTVSPropertyOp12
 70
     1
102
RTVSPropertyOp13
 70
     1
102
RTVSPropertyOp14
 70
     1
102
RTVSPropertyOp15
 70
     1
102
RTVSPropertyOp16
 70
     1
102
RTVSPropertyOp17
 70
     1
102
RTVSPropertyOp18
 70
     1
102
RTVSPropertyOp19
 70
     1
102
RTVSPropertyOp20
 70
     1
102
RTVSPropertyOp21
 70
     1
102
RTVSPropertyOp22
 70
     1
102
RTVSPropertyOp23
 70
     1
102
RTVSPropertyOp24
 70
     1
102
RTVSPropertyOp25
 70
     1
102
RTVSPropertyOp26
 70
     1
102
RTVSPropertyOp27
 70
     1
102
RTVSPropertyOp28
 70
     1
102
RTVSPropertyOp29
 70
     1
102
RTVSPropertyOp30
 70
     1
102
RTVSPropertyOp31
 70
     1
102
RTVSPropertyOp32
 70
     1
102
RTVSPropertyOp33
 70
     1
102
RTVSPropertyOp34
 70
     1
102
RTVSPropertyOp35
 70
     1
102
RTVSPropertyOp36
 70
     1
102
RTVSPropertyOp37
 70
     1
102
RTVSPropertyOp38
 70
     1
102
RTVSPropertyOp39
 70
     1
102
RTVSPropertyOp40
 70
     1
102
RTVSPropertyOp41
 70
     1
102
RTVSPropertyOp42
 70
     1
102
RTVSPropertyOp43
 70
     1
102
RTVSPropertyOp44
 70
     1
102
RTVSPropertyOp45
 70
     1
102
RTVSPropertyOp46
 70
     1
102
RTVSPropertyOp47
 70
     1
102
RTVSPropertyOp48
 70
     1
102
RTVSPropertyOp49
 70
     1
102
RTVSPropertyOp50
 70
     1
102
RTVSPropertyOp51
 70
     0
102
RTVSPropertyOp52
 70
     0
102
RTVSPropertyOp53
 70
     1
102
RTVSPropertyOp54
 70
     1
102
RTVSPropertyOp55
 70
     1
102
RTVSPropertyOp56
 70
     1
102
RTVSPropertyOp57
 70
     1
102
RTVSPropertyOp58
 70
     1
102
RTVSPropertyOp59
 70
     1
102
RTVSPropertyOp60
 70
     1
102
RTVSPropertyOp61
 70
     1
102
RTVSPropertyOp62
 70
     1
  0
XRECORD
  5
5CC
102
{ACAD_REACTORS
330
5CB
102
}
330
5CB
100
AcDbXrecord
280
     1
102
RTVSPost2010Prop28
280
     0
102
RTVSPost2010PropOp28
 70
     1
102
RTVSPost2010Prop29
280
     1
102
RTVSPost2010PropOp29
 70
     1
102
RTVSPost2010Prop30
280
     1
102
RTVSPost2010PropOp30
 70
     1
102
RTVSPost2010Prop31
280
     0
102
RTVSPost2010PropOp31
 70
     1
102
RTVSPost2010Prop32
280
     0
102
RTVSPost2010PropOp32
 70
     1
102
RTVSPost2010Prop33
280
     0
102
RTVSPost2010PropOp33
 70
     1
102
RTVSPost2010Prop34
280
     0
102
RTVSPost2010PropOp34
 70
     1
102
RTVSPost2010Prop35
280
     0
102
RTVSPost2010PropOp35
 70
     1
102
RTVSPost2010Prop36
280
     0
102
RTVSPost2010PropOp36
 70
     1
102
RTVSPost2010Prop37
 90
       50
102
RTVSPost2010PropOp37
 70
     1
102
RTVSPost2010Prop38
140
0.0
102
RTVSPost2010PropOp38
 70
     1
102
RTVSPost2010Prop39
140
1.0
102
RTVSPost2010PropOp39
 70
     1
102
RTVSPost2010Prop40
 90
        0
102
RTVSPost2010PropOp40
 70
     1
102
RTVSPost2010Prop41ColorIndex
 90
       18
102
RTVSPost2010Prop41ColorRGB
 90
        0
102
RTVSPost2010PropOp41
 70
     1
102
RTVSPost2010Prop42
 90
       50
102
RTVSPost2010PropOp42
 70
     1
102
RTVSPost2010Prop43
 90
        3
102
RTVSPost2010PropOp43
 70
     1
102
RTVSPost2010Prop44ColorIndex
 90
        5
102
RTVSPost2010Prop44ColorRGB
 90
      255
102
RTVSPost2010PropOp44
 70
     1
102
RTVSPost2010Prop45
280
     0
102
RTVSPost2010PropOp45
 70
     1
102
RTVSPost2010Prop46
 90
       50
102
RTVSPost2010PropOp46
 70
     1
102
RTVSPost2010Prop47
 90
       50
102
RTVSPost2010PropOp47
 70
     1
102
RTVSPost2010Prop48
 90
       50
102
RTVSPost2010PropOp48
 70
     1
102
RTVSPost2010Prop49
280
     0
102
RTVSPost2010PropOp49
 70
     1
102
RTVSPost2010Prop50
 90
       50
102
RTVSPost2010PropOp50
 70
     1
102
RTVSPost2010Prop51ColorIndex
 90
      256
102
RTVSPost2010Prop51ColorRGB
 90
-16777216
102
RTVSPost2010PropOp51
 70
     0
102
RTVSPost2010Prop52
140
1.0
102
RTVSPost2010PropOp52
 70
     0
102
RTVSPost2010Prop53
 90
        2
102
RTVSPost2010PropOp53
 70
     1
102
RTVSPost2010Prop54
  1
strokes_ogs.tif
102
RTVSPost2010PropOp54
 70
     1
102
RTVSPost2010Prop55
280
     0
102
RTVSPost2010PropOp55
 70
     1
102
RTVSPost2010Prop56
140
1.0
102
RTVSPost2010PropOp56
 70
     1
102
RTVSPost2010Prop57
140
1.0
102
RTVSPost2010PropOp57
 70
     1
102
RTVSPropertyOp0
 70
     1
102
RTVSPropertyOp1
 70
     1
102
RTVSPropertyOp2
 70
     1
102
RTVSPropertyOp3
 70
     1
102
RTVSPropertyOp4
 70
     1
102
RTVSPropertyOp5
 70
     1
102
RTVSPropertyOp6
 70
     1
102
RTVSPropertyOp7
 70
     1
102
RTVSPropertyOp8
 70
     1
102
RTVSPropertyOp9
 70
     1
102
RTVSPropertyOp10
 70
     1
102
RTVSPropertyOp11
 70
     1
102
RTVSPropertyOp12
 70
     1
102
RTVSPropertyOp13
 70
     1
102
RTVSPropertyOp14
 70
     1
102
RTVSPropertyOp15
 70
     1
102
RTVSPropertyOp16
 70
     1
102
RTVSPropertyOp17
 70
     1
102
RTVSPropertyOp18
 70
     1
102
RTVSPropertyOp19
 70
     1
102
RTVSPropertyOp20
 70
     1
102
RTVSPropertyOp21
 70
     1
102
RTVSPropertyOp22
 70
     1
102
RTVSPropertyOp23
 70
     1
102
RTVSPropertyOp24
 70
     1
102
RTVSPropertyOp25
 70
     1
102
RTVSPropertyOp26
 70
     1
102
RTVSPropertyOp27
 70
     1
102
RTVSPropertyOp28
 70
     1
102
RTVSPropertyOp29
 70
     1
102
RTVSPropertyOp30
 70
     1
102
RTVSPropertyOp31
 70
     1
102
RTVSPropertyOp32
 70
     1
102
RTVSPropertyOp33
 70
     1
102
RTVSPropertyOp34
 70
     1
102
RTVSPropertyOp35
 70
     1
102
RTVSPropertyOp36
 70
     1
102
RTVSPropertyOp37
 70
     1
102
RTVSPropertyOp38
 70
     1
102
RTVSPropertyOp39
 70
     1
102
RTVSPropertyOp40
 70
     1
102
RTVSPropertyOp41
 70
     1
102
RTVSPropertyOp42
 70
     1
102
RTVSPropertyOp43
 70
     1
102
RTVSPropertyOp44
 70
     1
102
RTVSPropertyOp45
 70
     1
102
RTVSPropertyOp46
 70
     1
102
RTVSPropertyOp47
 70
     1
102
RTVSPropertyOp48
 70
     1
102
RTVSPropertyOp49
 70
     1
102
RTVSPropertyOp50
 70
     1
102
RTVSPropertyOp51
 70
     0
102
RTVSPropertyOp52
 70
     0
102
RTVSPropertyOp53
 70
     1
102
RTVSPropertyOp54
 70
     1
102
RTVSPropertyOp55
 70
     1
102
RTVSPropertyOp56
 70
     1
102
RTVSPropertyOp57
 70
     1
102
RTVSPropertyOp58
 70
     1
102
RTVSPropertyOp59
 70
     1
102
RTVSPropertyOp60
 70
     1
102
RTVSPropertyOp61
 70
     1
102
RTVSPropertyOp62
 70
     1
  0
XRECORD
  5
5CE
102
{ACAD_REACTORS
330
5CD
102
}
330
5CD
100
AcDbXrecord
280
     1
102
RTVSPost2010Prop28
280
     0
102
RTVSPost2010PropOp28
 70
     1
102
RTVSPost2010Prop29
280
     1
102
RTVSPost2010PropOp29
 70
     1
102
RTVSPost2010Prop30
280
     1
102
RTVSPost2010PropOp30
 70
     1
102
RTVSPost2010Prop31
280
     0
102
RTVSPost2010PropOp31
 70
     1
102
RTVSPost2010Prop32
280
     0
102
RTVSPost2010PropOp32
 70
     1
102
RTVSPost2010Prop33
280
     0
102
RTVSPost2010PropOp33
 70
     1
102
RTVSPost2010Prop34
280
     0
102
RTVSPost2010PropOp34
 70
     1
102
RTVSPost2010Prop35
280
     0
102
RTVSPost2010PropOp35
 70
     1
102
RTVSPost2010Prop36
280
     0
102
RTVSPost2010PropOp36
 70
     1
102
RTVSPost2010Prop37
 90
       50
102
RTVSPost2010PropOp37
 70
     1
102
RTVSPost2010Prop38
140
0.0
102
RTVSPost2010PropOp38
 70
     1
102
RTVSPost2010Prop39
140
1.0
102
RTVSPost2010PropOp39
 70
     1
102
RTVSPost2010Prop40
 90
        0
102
RTVSPost2010PropOp40
 70
     1
102
RTVSPost2010Prop41ColorIndex
 90
       18
102
RTVSPost2010Prop41ColorRGB
 90
        0
102
RTVSPost2010PropOp41
 70
     1
102
RTVSPost2010Prop42
 90
       50
102
RTVSPost2010PropOp42
 70
     1
102
RTVSPost2010Prop43
 90
        3
102
RTVSPost2010PropOp43
 70
     1
102
RTVSPost2010Prop44ColorIndex
 90
        5
102
RTVSPost2010Prop44ColorRGB
 90
      255
102
RTVSPost2010PropOp44
 70
     1
102
RTVSPost2010Prop45
280
     0
102
RTVSPost2010PropOp45
 70
     1
102
RTVSPost2010Prop46
 90
       50
102
RTVSPost2010PropOp46
 70
     1
102
RTVSPost2010Prop47
 90
       50
102
RTVSPost2010PropOp47
 70
     1
102
RTVSPost2010Prop48
 90
       50
102
RTVSPost2010PropOp48
 70
     1
102
RTVSPost2010Prop49
280
     0
102
RTVSPost2010PropOp49
 70
     1
102
RTVSPost2010Prop50
 90
       50
102
RTVSPost2010PropOp50
 70
     1
102
RTVSPost2010Prop51ColorIndex
 90
      256
102
RTVSPost2010Prop51ColorRGB
 90
-16777216
102
RTVSPost2010PropOp51
 70
     0
102
RTVSPost2010Prop52
140
1.0
102
RTVSPost2010PropOp52
 70
     0
102
RTVSPost2010Prop53
 90
        2
102
RTVSPost2010PropOp53
 70
     1
102
RTVSPost2010Prop54
  1
strokes_ogs.tif
102
RTVSPost2010PropOp54
 70
     1
102
RTVSPost2010Prop55
280
     0
102
RTVSPost2010PropOp55
 70
     1
102
RTVSPost2010Prop56
140
1.0
102
RTVSPost2010PropOp56
 70
     1
102
RTVSPost2010Prop57
140
1.0
102
RTVSPost2010PropOp57
 70
     1
102
RTVSPropertyOp0
 70
     1
102
RTVSPropertyOp1
 70
     1
102
RTVSPropertyOp2
 70
     1
102
RTVSPropertyOp3
 70
     1
102
RTVSPropertyOp4
 70
     1
102
RTVSPropertyOp5
 70
     1
102
RTVSPropertyOp6
 70
     1
102
RTVSPropertyOp7
 70
     1
102
RTVSPropertyOp8
 70
     1
102
RTVSPropertyOp9
 70
     1
102
RTVSPropertyOp10
 70
     1
102
RTVSPropertyOp11
 70
     1
102
RTVSPropertyOp12
 70
     1
102
RTVSPropertyOp13
 70
     1
102
RTVSPropertyOp14
 70
     1
102
RTVSPropertyOp15
 70
     1
102
RTVSPropertyOp16
 70
     1
102
RTVSPropertyOp17
 70
     1
102
RTVSPropertyOp18
 70
     1
102
RTVSPropertyOp19
 70
     1
102
RTVSPropertyOp20
 70
     1
102
RTVSPropertyOp21
 70
     1
102
RTVSPropertyOp22
 70
     1
102
RTVSPropertyOp23
 70
     1
102
RTVSPropertyOp24
 70
     1
102
RTVSPropertyOp25
 70
     1
102
RTVSPropertyOp26
 70
     1
102
RTVSPropertyOp27
 70
     1
102
RTVSPropertyOp28
 70
     1
102
RTVSPropertyOp29
 70
     1
102
RTVSPropertyOp30
 70
     1
102
RTVSPropertyOp31
 70
     1
102
RTVSPropertyOp32
 70
     1
102
RTVSPropertyOp33
 70
     1
102
RTVSPropertyOp34
 70
     1
102
RTVSPropertyOp35
 70
     1
102
RTVSPropertyOp36
 70
     1
102
RTVSPropertyOp37
 70
     1
102
RTVSPropertyOp38
 70
     1
102
RTVSPropertyOp39
 70
     1
102
RTVSPropertyOp40
 70
     1
102
RTVSPropertyOp41
 70
     1
102
RTVSPropertyOp42
 70
     1
102
RTVSPropertyOp43
 70
     1
102
RTVSPropertyOp44
 70
     1
102
RTVSPropertyOp45
 70
     1
102
RTVSPropertyOp46
 70
     1
102
RTVSPropertyOp47
 70
     1
102
RTVSPropertyOp48
 70
     1
102
RTVSPropertyOp49
 70
     1
102
RTVSPropertyOp50
 70
     1
102
RTVSPropertyOp51
 70
     0
102
RTVSPropertyOp52
 70
     0
102
RTVSPropertyOp53
 70
     1
102
RTVSPropertyOp54
 70
     1
102
RTVSPropertyOp55
 70
     1
102
RTVSPropertyOp56
 70
     1
102
RTVSPropertyOp57
 70
     1
102
RTVSPropertyOp58
 70
     1
102
RTVSPropertyOp59
 70
     1
102
RTVSPropertyOp60
 70
     1
102
RTVSPropertyOp61
 70
     1
102
RTVSPropertyOp62
 70
     1
  0
XRECORD
  5
5D4
102
{ACAD_REACTORS
330
5D3
102
}
330
5D3
100
AcDbXrecord
280
     1
102
RTVSPost2010Prop28
280
     0
102
RTVSPost2010PropOp28
 70
     1
102
RTVSPost2010Prop29
280
     1
102
RTVSPost2010PropOp29
 70
     1
102
RTVSPost2010Prop30
280
     1
102
RTVSPost2010PropOp30
 70
     1
102
RTVSPost2010Prop31
280
     0
102
RTVSPost2010PropOp31
 70
     1
102
RTVSPost2010Prop32
280
     0
102
RTVSPost2010PropOp32
 70
     1
102
RTVSPost2010Prop33
280
     0
102
RTVSPost2010PropOp33
 70
     1
102
RTVSPost2010Prop34
280
     0
102
RTVSPost2010PropOp34
 70
     1
102
RTVSPost2010Prop35
280
     0
102
RTVSPost2010PropOp35
 70
     1
102
RTVSPost2010Prop36
280
     0
102
RTVSPost2010PropOp36
 70
     1
102
RTVSPost2010Prop37
 90
       50
102
RTVSPost2010PropOp37
 70
     1
102
RTVSPost2010Prop38
140
0.0
102
RTVSPost2010PropOp38
 70
     1
102
RTVSPost2010Prop39
140
1.0
102
RTVSPost2010PropOp39
 70
     1
102
RTVSPost2010Prop40
 90
        0
102
RTVSPost2010PropOp40
 70
     1
102
RTVSPost2010Prop41ColorIndex
 90
       18
102
RTVSPost2010Prop41ColorRGB
 90
        0
102
RTVSPost2010PropOp41
 70
     1
102
RTVSPost2010Prop42
 90
       50
102
RTVSPost2010PropOp42
 70
     1
102
RTVSPost2010Prop43
 90
        3
102
RTVSPost2010PropOp43
 70
     1
102
RTVSPost2010Prop44ColorIndex
 90
        5
102
RTVSPost2010Prop44ColorRGB
 90
      255
102
RTVSPost2010PropOp44
 70
     1
102
RTVSPost2010Prop45
280
     0
102
RTVSPost2010PropOp45
 70
     1
102
RTVSPost2010Prop46
 90
       50
102
RTVSPost2010PropOp46
 70
     1
102
RTVSPost2010Prop47
 90
       50
102
RTVSPost2010PropOp47
 70
     1
102
RTVSPost2010Prop48
 90
       50
102
RTVSPost2010PropOp48
 70
     1
102
RTVSPost2010Prop49
280
     0
102
RTVSPost2010PropOp49
 70
     1
102
RTVSPost2010Prop50
 90
       50
102
RTVSPost2010PropOp50
 70
     1
102
RTVSPost2010Prop51ColorIndex
 90
      256
102
RTVSPost2010Prop51ColorRGB
 90
-16777216
102
RTVSPost2010PropOp51
 70
     0
102
RTVSPost2010Prop52
140
1.0
102
RTVSPost2010PropOp52
 70
     0
102
RTVSPost2010Prop53
 90
        2
102
RTVSPost2010PropOp53
 70
     1
102
RTVSPost2010Prop54
  1
strokes_ogs.tif
102
RTVSPost2010PropOp54
 70
     1
102
RTVSPost2010Prop55
280
     0
102
RTVSPost2010PropOp55
 70
     1
102
RTVSPost2010Prop56
140
1.0
102
RTVSPost2010PropOp56
 70
     1
102
RTVSPost2010Prop57
140
1.0
102
RTVSPost2010PropOp57
 70
     1
102
RTVSPropertyOp0
 70
     1
102
RTVSPropertyOp1
 70
     1
102
RTVSPropertyOp2
 70
     1
102
RTVSPropertyOp3
 70
     1
102
RTVSPropertyOp4
 70
     1
102
RTVSPropertyOp5
 70
     1
102
RTVSPropertyOp6
 70
     1
102
RTVSPropertyOp7
 70
     1
102
RTVSPropertyOp8
 70
     1
102
RTVSPropertyOp9
 70
     1
102
RTVSPropertyOp10
 70
     1
102
RTVSPropertyOp11
 70
     1
102
RTVSPropertyOp12
 70
     1
102
RTVSPropertyOp13
 70
     1
102
RTVSPropertyOp14
 70
     1
102
RTVSPropertyOp15
 70
     1
102
RTVSPropertyOp16
 70
     1
102
RTVSPropertyOp17
 70
     1
102
RTVSPropertyOp18
 70
     1
102
RTVSPropertyOp19
 70
     1
102
RTVSPropertyOp20
 70
     1
102
RTVSPropertyOp21
 70
     1
102
RTVSPropertyOp22
 70
     1
102
RTVSPropertyOp23
 70
     1
102
RTVSPropertyOp24
 70
     1
102
RTVSPropertyOp25
 70
     1
102
RTVSPropertyOp26
 70
     1
102
RTVSPropertyOp27
 70
     1
102
RTVSPropertyOp28
 70
     1
102
RTVSPropertyOp29
 70
     1
102
RTVSPropertyOp30
 70
     1
102
RTVSPropertyOp31
 70
     1
102
RTVSPropertyOp32
 70
     1
102
RTVSPropertyOp33
 70
     1
102
RTVSPropertyOp34
 70
     1
102
RTVSPropertyOp35
 70
     1
102
RTVSPropertyOp36
 70
     1
102
RTVSPropertyOp37
 70
     1
102
RTVSPropertyOp38
 70
     1
102
RTVSPropertyOp39
 70
     1
102
RTVSPropertyOp40
 70
     1
102
RTVSPropertyOp41
 70
     1
102
RTVSPropertyOp42
 70
     1
102
RTVSPropertyOp43
 70
     1
102
RTVSPropertyOp44
 70
     1
102
RTVSPropertyOp45
 70
     1
102
RTVSPropertyOp46
 70
     1
102
RTVSPropertyOp47
 70
     1
102
RTVSPropertyOp48
 70
     1
102
RTVSPropertyOp49
 70
     1
102
RTVSPropertyOp50
 70
     1
102
RTVSPropertyOp51
 70
     0
102
RTVSPropertyOp52
 70
     0
102
RTVSPropertyOp53
 70
     1
102
RTVSPropertyOp54
 70
     1
102
RTVSPropertyOp55
 70
     1
102
RTVSPropertyOp56
 70
     1
102
RTVSPropertyOp57
 70
     1
102
RTVSPropertyOp58
 70
     1
102
RTVSPropertyOp59
 70
     1
102
RTVSPropertyOp60
 70
     1
102
RTVSPropertyOp61
 70
     1
102
RTVSPropertyOp62
 70
     1
  0
XRECORD
  5
5E8
102
{ACAD_REACTORS
330
5E7
102
}
330
5E7
100
AcDbXrecord
280
     1
102
RTVSPost2010Prop28
280
     0
102
RTVSPost2010PropOp28
 70
     0
102
RTVSPost2010Prop29
280
     1
102
RTVSPost2010PropOp29
 70
     0
102
RTVSPost2010Prop30
280
     1
102
RTVSPost2010PropOp30
 70
     0
102
RTVSPost2010Prop31
280
     0
102
RTVSPost2010PropOp31
 70
     0
102
RTVSPost2010Prop32
280
     0
102
RTVSPost2010PropOp32
 70
     0
102
RTVSPost2010Prop33
280
     0
102
RTVSPost2010PropOp33
 70
     0
102
RTVSPost2010Prop34
280
     0
102
RTVSPost2010PropOp34
 70
     0
102
RTVSPost2010Prop35
280
     0
102
RTVSPost2010PropOp35
 70
     0
102
RTVSPost2010Prop36
280
     0
102
RTVSPost2010PropOp36
 70
     0
102
RTVSPost2010Prop37
 90
       50
102
RTVSPost2010PropOp37
 70
     0
102
RTVSPost2010Prop38
140
0.0
102
RTVSPost2010PropOp38
 70
     0
102
RTVSPost2010Prop39
140
1.0
102
RTVSPost2010PropOp39
 70
     0
102
RTVSPost2010Prop40
 90
        0
102
RTVSPost2010PropOp40
 70
     0
102
RTVSPost2010Prop41ColorIndex
 90
       18
102
RTVSPost2010Prop41ColorRGB
 90
        0
102
RTVSPost2010PropOp41
 70
     0
102
RTVSPost2010Prop42
 90
       50
102
RTVSPost2010PropOp42
 70
     0
102
RTVSPost2010Prop43
 90
        3
102
RTVSPost2010PropOp43
 70
     0
102
RTVSPost2010Prop44ColorIndex
 90
        5
102
RTVSPost2010Prop44ColorRGB
 90
      255
102
RTVSPost2010PropOp44
 70
     0
102
RTVSPost2010Prop45
280
     0
102
RTVSPost2010PropOp45
 70
     0
102
RTVSPost2010Prop46
 90
       50
102
RTVSPost2010PropOp46
 70
     0
102
RTVSPost2010Prop47
 90
       50
102
RTVSPost2010PropOp47
 70
     0
102
RTVSPost2010Prop48
 90
       50
102
RTVSPost2010PropOp48
 70
     0
102
RTVSPost2010Prop49
280
     0
102
RTVSPost2010PropOp49
 70
     0
102
RTVSPost2010Prop50
 90
       50
102
RTVSPost2010PropOp50
 70
     0
102
RTVSPost2010Prop51ColorIndex
 90
      256
102
RTVSPost2010Prop51ColorRGB
 90
-16777216
102
RTVSPost2010PropOp51
 70
     0
102
RTVSPost2010Prop52
140
1.0
102
RTVSPost2010PropOp52
 70
     0
102
RTVSPost2010Prop53
 90
        2
102
RTVSPost2010PropOp53
 70
     0
102
RTVSPost2010Prop54
  1
strokes_ogs.tif
102
RTVSPost2010PropOp54
 70
     0
102
RTVSPost2010Prop55
280
     0
102
RTVSPost2010PropOp55
 70
     0
102
RTVSPost2010Prop56
140
1.0
102
RTVSPost2010PropOp56
 70
     0
102
RTVSPost2010Prop57
140
1.0
102
RTVSPost2010PropOp57
 70
     0
102
RTVSPropertyOp0
 70
     0
102
RTVSPropertyOp1
 70
     0
102
RTVSPropertyOp2
 70
     0
102
RTVSPropertyOp3
 70
     0
102
RTVSPropertyOp4
 70
     0
102
RTVSPropertyOp5
 70
     0
102
RTVSPropertyOp6
 70
     0
102
RTVSPropertyOp7
 70
     0
102
RTVSPropertyOp8
 70
     0
102
RTVSPropertyOp9
 70
     0
102
RTVSPropertyOp10
 70
     0
102
RTVSPropertyOp11
 70
     0
102
RTVSPropertyOp12
 70
     0
102
RTVSPropertyOp13
 70
     0
102
RTVSPropertyOp14
 70
     2
102
RTVSPropertyOp15
 70
     0
102
RTVSPropertyOp16
 70
     0
102
RTVSPropertyOp17
 70
     0
102
RTVSPropertyOp18
 70
     0
102
RTVSPropertyOp19
 70
     0
102
RTVSPropertyOp20
 70
     0
102
RTVSPropertyOp21
 70
     0
102
RTVSPropertyOp22
 70
     0
102
RTVSPropertyOp23
 70
     0
102
RTVSPropertyOp24
 70
     0
102
RTVSPropertyOp25
 70
     0
102
RTVSPropertyOp26
 70
     0
102
RTVSPropertyOp27
 70
     0
102
RTVSPropertyOp28
 70
     0
102
RTVSPropertyOp29
 70
     0
102
RTVSPropertyOp30
 70
     0
102
RTVSPropertyOp31
 70
     0
102
RTVSPropertyOp32
 70
     0
102
RTVSPropertyOp33
 70
     0
102
RTVSPropertyOp34
 70
     0
102
RTVSPropertyOp35
 70
     0
102
RTVSPropertyOp36
 70
     0
102
RTVSPropertyOp37
 70
     0
102
RTVSPropertyOp38
 70
     0
102
RTVSPropertyOp39
 70
     0
102
RTVSPropertyOp40
 70
     0
102
RTVSPropertyOp41
 70
     0
102
RTVSPropertyOp42
 70
     0
102
RTVSPropertyOp43
 70
     0
102
RTVSPropertyOp44
 70
     0
102
RTVSPropertyOp45
 70
     0
102
RTVSPropertyOp46
 70
     0
102
RTVSPropertyOp47
 70
     0
102
RTVSPropertyOp48
 70
     0
102
RTVSPropertyOp49
 70
     0
102
RTVSPropertyOp50
 70
     0
102
RTVSPropertyOp51
 70
     0
102
RTVSPropertyOp52
 70
     0
102
RTVSPropertyOp53
 70
     0
102
RTVSPropertyOp54
 70
     0
102
RTVSPropertyOp55
 70
     0
102
RTVSPropertyOp56
 70
     0
102
RTVSPropertyOp57
 70
     0
102
RTVSPropertyOp58
 70
     1
102
RTVSPropertyOp59
 70
     1
102
RTVSPropertyOp60
 70
     1
102
RTVSPropertyOp61
 70
     1
102
RTVSPropertyOp62
 70
     1
  0
XRECORD
  5
5E2
102
{ACAD_REACTORS
330
5E1
102
}
330
5E1
100
AcDbXrecord
280
     1
102
RTVSPost2010Prop28
280
     0
102
RTVSPost2010PropOp28
 70
     1
102
RTVSPost2010Prop29
280
     1
102
RTVSPost2010PropOp29
 70
     1
102
RTVSPost2010Prop30
280
     1
102
RTVSPost2010PropOp30
 70
     1
102
RTVSPost2010Prop31
280
     0
102
RTVSPost2010PropOp31
 70
     1
102
RTVSPost2010Prop32
280
     0
102
RTVSPost2010PropOp32
 70
     1
102
RTVSPost2010Prop33
280
     0
102
RTVSPost2010PropOp33
 70
     1
102
RTVSPost2010Prop34
280
     0
102
RTVSPost2010PropOp34
 70
     1
102
RTVSPost2010Prop35
280
     0
102
RTVSPost2010PropOp35
 70
     1
102
RTVSPost2010Prop36
280
     0
102
RTVSPost2010PropOp36
 70
     1
102
RTVSPost2010Prop37
 90
       50
102
RTVSPost2010PropOp37
 70
     1
102
RTVSPost2010Prop38
140
0.0
102
RTVSPost2010PropOp38
 70
     1
102
RTVSPost2010Prop39
140
1.0
102
RTVSPost2010PropOp39
 70
     1
102
RTVSPost2010Prop40
 90
        0
102
RTVSPost2010PropOp40
 70
     1
102
RTVSPost2010Prop41ColorIndex
 90
       18
102
RTVSPost2010Prop41ColorRGB
 90
        0
102
RTVSPost2010PropOp41
 70
     1
102
RTVSPost2010Prop42
 90
       50
102
RTVSPost2010PropOp42
 70
     1
102
RTVSPost2010Prop43
 90
        3
102
RTVSPost2010PropOp43
 70
     1
102
RTVSPost2010Prop44ColorIndex
 90
        5
102
RTVSPost2010Prop44ColorRGB
 90
      255
102
RTVSPost2010PropOp44
 70
     1
102
RTVSPost2010Prop45
280
     0
102
RTVSPost2010PropOp45
 70
     1
102
RTVSPost2010Prop46
 90
       50
102
RTVSPost2010PropOp46
 70
     1
102
RTVSPost2010Prop47
 90
       50
102
RTVSPost2010PropOp47
 70
     1
102
RTVSPost2010Prop48
 90
       50
102
RTVSPost2010PropOp48
 70
     1
102
RTVSPost2010Prop49
280
     0
102
RTVSPost2010PropOp49
 70
     1
102
RTVSPost2010Prop50
 90
       50
102
RTVSPost2010PropOp50
 70
     1
102
RTVSPost2010Prop51ColorIndex
 90
      256
102
RTVSPost2010Prop51ColorRGB
 90
-16777216
102
RTVSPost2010PropOp51
 70
     0
102
RTVSPost2010Prop52
140
1.0
102
RTVSPost2010PropOp52
 70
     0
102
RTVSPost2010Prop53
 90
        2
102
RTVSPost2010PropOp53
 70
     1
102
RTVSPost2010Prop54
  1
strokes_ogs.tif
102
RTVSPost2010PropOp54
 70
     1
102
RTVSPost2010Prop55
280
     0
102
RTVSPost2010PropOp55
 70
     1
102
RTVSPost2010Prop56
140
1.0
102
RTVSPost2010PropOp56
 70
     1
102
RTVSPost2010Prop57
140
1.0
102
RTVSPost2010PropOp57
 70
     1
102
RTVSPropertyOp0
 70
     1
102
RTVSPropertyOp1
 70
     1
102
RTVSPropertyOp2
 70
     1
102
RTVSPropertyOp3
 70
     1
102
RTVSPropertyOp4
 70
     1
102
RTVSPropertyOp5
 70
     1
102
RTVSPropertyOp6
 70
     1
102
RTVSPropertyOp7
 70
     1
102
RTVSPropertyOp8
 70
     1
102
RTVSPropertyOp9
 70
     1
102
RTVSPropertyOp10
 70
     1
102
RTVSPropertyOp11
 70
     1
102
RTVSPropertyOp12
 70
     1
102
RTVSPropertyOp13
 70
     1
102
RTVSPropertyOp14
 70
     1
102
RTVSPropertyOp15
 70
     1
102
RTVSPropertyOp16
 70
     1
102
RTVSPropertyOp17
 70
     1
102
RTVSPropertyOp18
 70
     1
102
RTVSPropertyOp19
 70
     1
102
RTVSPropertyOp20
 70
     1
102
RTVSPropertyOp21
 70
     1
102
RTVSPropertyOp22
 70
     1
102
RTVSPropertyOp23
 70
     1
102
RTVSPropertyOp24
 70
     1
102
RTVSPropertyOp25
 70
     1
102
RTVSPropertyOp26
 70
     1
102
RTVSPropertyOp27
 70
     1
102
RTVSPropertyOp28
 70
     1
102
RTVSPropertyOp29
 70
     1
102
RTVSPropertyOp30
 70
     1
102
RTVSPropertyOp31
 70
     1
102
RTVSPropertyOp32
 70
     1
102
RTVSPropertyOp33
 70
     1
102
RTVSPropertyOp34
 70
     1
102
RTVSPropertyOp35
 70
     1
102
RTVSPropertyOp36
 70
     1
102
RTVSPropertyOp37
 70
     1
102
RTVSPropertyOp38
 70
     1
102
RTVSPropertyOp39
 70
     1
102
RTVSPropertyOp40
 70
     1
102
RTVSPropertyOp41
 70
     1
102
RTVSPropertyOp42
 70
     1
102
RTVSPropertyOp43
 70
     1
102
RTVSPropertyOp44
 70
     1
102
RTVSPropertyOp45
 70
     1
102
RTVSPropertyOp46
 70
     1
102
RTVSPropertyOp47
 70
     1
102
RTVSPropertyOp48
 70
     1
102
RTVSPropertyOp49
 70
     1
102
RTVSPropertyOp50
 70
     1
102
RTVSPropertyOp51
 70
     0
102
RTVSPropertyOp52
 70
     0
102
RTVSPropertyOp53
 70
     1
102
RTVSPropertyOp54
 70
     1
102
RTVSPropertyOp55
 70
     1
102
RTVSPropertyOp56
 70
     1
102
RTVSPropertyOp57
 70
     1
102
RTVSPropertyOp58
 70
     1
102
RTVSPropertyOp59
 70
     1
102
RTVSPropertyOp60
 70
     1
102
RTVSPropertyOp61
 70
     1
102
RTVSPropertyOp62
 70
     1
  0
XRECORD
  5
5EA
102
{ACAD_REACTORS
330
5E9
102
}
330
5E9
100
AcDbXrecord
280
     1
102
RTVSPost2010Prop28
280
     0
102
RTVSPost2010PropOp28
 70
     0
102
RTVSPost2010Prop29
280
     1
102
RTVSPost2010PropOp29
 70
     0
102
RTVSPost2010Prop30
280
     1
102
RTVSPost2010PropOp30
 70
     0
102
RTVSPost2010Prop31
280
     0
102
RTVSPost2010PropOp31
 70
     0
102
RTVSPost2010Prop32
280
     0
102
RTVSPost2010PropOp32
 70
     0
102
RTVSPost2010Prop33
280
     0
102
RTVSPost2010PropOp33
 70
     0
102
RTVSPost2010Prop34
280
     0
102
RTVSPost2010PropOp34
 70
     0
102
RTVSPost2010Prop35
280
     0
102
RTVSPost2010PropOp35
 70
     0
102
RTVSPost2010Prop36
280
     0
102
RTVSPost2010PropOp36
 70
     0
102
RTVSPost2010Prop37
 90
       50
102
RTVSPost2010PropOp37
 70
     0
102
RTVSPost2010Prop38
140
0.0
102
RTVSPost2010PropOp38
 70
     0
102
RTVSPost2010Prop39
140
1.0
102
RTVSPost2010PropOp39
 70
     0
102
RTVSPost2010Prop40
 90
        0
102
RTVSPost2010PropOp40
 70
     0
102
RTVSPost2010Prop41ColorIndex
 90
       18
102
RTVSPost2010Prop41ColorRGB
 90
        0
102
RTVSPost2010PropOp41
 70
     0
102
RTVSPost2010Prop42
 90
       50
102
RTVSPost2010PropOp42
 70
     0
102
RTVSPost2010Prop43
 90
        3
102
RTVSPost2010PropOp43
 70
     0
102
RTVSPost2010Prop44ColorIndex
 90
        5
102
RTVSPost2010Prop44ColorRGB
 90
      255
102
RTVSPost2010PropOp44
 70
     0
102
RTVSPost2010Prop45
280
     0
102
RTVSPost2010PropOp45
 70
     0
102
RTVSPost2010Prop46
 90
       50
102
RTVSPost2010PropOp46
 70
     0
102
RTVSPost2010Prop47
 90
       50
102
RTVSPost2010PropOp47
 70
     0
102
RTVSPost2010Prop48
 90
       50
102
RTVSPost2010PropOp48
 70
     0
102
RTVSPost2010Prop49
280
     0
102
RTVSPost2010PropOp49
 70
     0
102
RTVSPost2010Prop50
 90
       50
102
RTVSPost2010PropOp50
 70
     0
102
RTVSPost2010Prop51ColorIndex
 90
      256
102
RTVSPost2010Prop51ColorRGB
 90
-16777216
102
RTVSPost2010PropOp51
 70
     0
102
RTVSPost2010Prop52
140
1.0
102
RTVSPost2010PropOp52
 70
     0
102
RTVSPost2010Prop53
 90
        2
102
RTVSPost2010PropOp53
 70
     0
102
RTVSPost2010Prop54
  1
strokes_ogs.tif
102
RTVSPost2010PropOp54
 70
     0
102
RTVSPost2010Prop55
280
     0
102
RTVSPost2010PropOp55
 70
     0
102
RTVSPost2010Prop56
140
1.0
102
RTVSPost2010PropOp56
 70
     0
102
RTVSPost2010Prop57
140
1.0
102
RTVSPost2010PropOp57
 70
     0
102
RTVSPropertyOp0
 70
     0
102
RTVSPropertyOp1
 70
     0
102
RTVSPropertyOp2
 70
     0
102
RTVSPropertyOp3
 70
     0
102
RTVSPropertyOp4
 70
     0
102
RTVSPropertyOp5
 70
     0
102
RTVSPropertyOp6
 70
     0
102
RTVSPropertyOp7
 70
     0
102
RTVSPropertyOp8
 70
     0
102
RTVSPropertyOp9
 70
     0
102
RTVSPropertyOp10
 70
     0
102
RTVSPropertyOp11
 70
     0
102
RTVSPropertyOp12
 70
     0
102
RTVSPropertyOp13
 70
     0
102
RTVSPropertyOp14
 70
     2
102
RTVSPropertyOp15
 70
     0
102
RTVSPropertyOp16
 70
     0
102
RTVSPropertyOp17
 70
     0
102
RTVSPropertyOp18
 70
     0
102
RTVSPropertyOp19
 70
     0
102
RTVSPropertyOp20
 70
     0
102
RTVSPropertyOp21
 70
     0
102
RTVSPropertyOp22
 70
     0
102
RTVSPropertyOp23
 70
     0
102
RTVSPropertyOp24
 70
     0
102
RTVSPropertyOp25
 70
     0
102
RTVSPropertyOp26
 70
     0
102
RTVSPropertyOp27
 70
     0
102
RTVSPropertyOp28
 70
     0
102
RTVSPropertyOp29
 70
     0
102
RTVSPropertyOp30
 70
     0
102
RTVSPropertyOp31
 70
     0
102
RTVSPropertyOp32
 70
     0
102
RTVSPropertyOp33
 70
     0
102
RTVSPropertyOp34
 70
     0
102
RTVSPropertyOp35
 70
     0
102
RTVSPropertyOp36
 70
     0
102
RTVSPropertyOp37
 70
     0
102
RTVSPropertyOp38
 70
     0
102
RTVSPropertyOp39
 70
     0
102
RTVSPropertyOp40
 70
     0
102
RTVSPropertyOp41
 70
     0
102
RTVSPropertyOp42
 70
     0
102
RTVSPropertyOp43
 70
     0
102
RTVSPropertyOp44
 70
     0
102
RTVSPropertyOp45
 70
     0
102
RTVSPropertyOp46
 70
     0
102
RTVSPropertyOp47
 70
     0
102
RTVSPropertyOp48
 70
     0
102
RTVSPropertyOp49
 70
     0
102
RTVSPropertyOp50
 70
     0
102
RTVSPropertyOp51
 70
     0
102
RTVSPropertyOp52
 70
     0
102
RTVSPropertyOp53
 70
     0
102
RTVSPropertyOp54
 70
     0
102
RTVSPropertyOp55
 70
     0
102
RTVSPropertyOp56
 70
     0
102
RTVSPropertyOp57
 70
     0
102
RTVSPropertyOp58
 70
     1
102
RTVSPropertyOp59
 70
     1
102
RTVSPropertyOp60
 70
     1
102
RTVSPropertyOp61
 70
     1
102
RTVSPropertyOp62
 70
     1
  0
XRECORD
  5
5D8
102
{ACAD_REACTORS
330
5D7
102
}
330
5D7
100
AcDbXrecord
280
     1
102
RTVSPost2010Prop28
280
     0
102
RTVSPost2010PropOp28
 70
     1
102
RTVSPost2010Prop29
280
     1
102
RTVSPost2010PropOp29
 70
     1
102
RTVSPost2010Prop30
280
     1
102
RTVSPost2010PropOp30
 70
     1
102
RTVSPost2010Prop31
280
     0
102
RTVSPost2010PropOp31
 70
     1
102
RTVSPost2010Prop32
280
     0
102
RTVSPost2010PropOp32
 70
     1
102
RTVSPost2010Prop33
280
     0
102
RTVSPost2010PropOp33
 70
     1
102
RTVSPost2010Prop34
280
     0
102
RTVSPost2010PropOp34
 70
     1
102
RTVSPost2010Prop35
280
     0
102
RTVSPost2010PropOp35
 70
     1
102
RTVSPost2010Prop36
280
     0
102
RTVSPost2010PropOp36
 70
     1
102
RTVSPost2010Prop37
 90
       50
102
RTVSPost2010PropOp37
 70
     1
102
RTVSPost2010Prop38
140
0.0
102
RTVSPost2010PropOp38
 70
     1
102
RTVSPost2010Prop39
140
1.0
102
RTVSPost2010PropOp39
 70
     1
102
RTVSPost2010Prop40
 90
        0
102
RTVSPost2010PropOp40
 70
     1
102
RTVSPost2010Prop41ColorIndex
 90
       18
102
RTVSPost2010Prop41ColorRGB
 90
        0
102
RTVSPost2010PropOp41
 70
     1
102
RTVSPost2010Prop42
 90
       50
102
RTVSPost2010PropOp42
 70
     1
102
RTVSPost2010Prop43
 90
        3
102
RTVSPost2010PropOp43
 70
     1
102
RTVSPost2010Prop44ColorIndex
 90
        5
102
RTVSPost2010Prop44ColorRGB
 90
      255
102
RTVSPost2010PropOp44
 70
     1
102
RTVSPost2010Prop45
280
     0
102
RTVSPost2010PropOp45
 70
     1
102
RTVSPost2010Prop46
 90
       50
102
RTVSPost2010PropOp46
 70
     1
102
RTVSPost2010Prop47
 90
       50
102
RTVSPost2010PropOp47
 70
     1
102
RTVSPost2010Prop48
 90
       50
102
RTVSPost2010PropOp48
 70
     1
102
RTVSPost2010Prop49
280
     0
102
RTVSPost2010PropOp49
 70
     1
102
RTVSPost2010Prop50
 90
       50
102
RTVSPost2010PropOp50
 70
     1
102
RTVSPost2010Prop51ColorIndex
 90
      256
102
RTVSPost2010Prop51ColorRGB
 90
-16777216
102
RTVSPost2010PropOp51
 70
     0
102
RTVSPost2010Prop52
140
1.0
102
RTVSPost2010PropOp52
 70
     0
102
RTVSPost2010Prop53
 90
        2
102
RTVSPost2010PropOp53
 70
     1
102
RTVSPost2010Prop54
  1
strokes_ogs.tif
102
RTVSPost2010PropOp54
 70
     1
102
RTVSPost2010Prop55
280
     0
102
RTVSPost2010PropOp55
 70
     1
102
RTVSPost2010Prop56
140
1.0
102
RTVSPost2010PropOp56
 70
     1
102
RTVSPost2010Prop57
140
1.0
102
RTVSPost2010PropOp57
 70
     1
102
RTVSPropertyOp0
 70
     1
102
RTVSPropertyOp1
 70
     1
102
RTVSPropertyOp2
 70
     1
102
RTVSPropertyOp3
 70
     1
102
RTVSPropertyOp4
 70
     1
102
RTVSPropertyOp5
 70
     1
102
RTVSPropertyOp6
 70
     1
102
RTVSPropertyOp7
 70
     1
102
RTVSPropertyOp8
 70
     1
102
RTVSPropertyOp9
 70
     1
102
RTVSPropertyOp10
 70
     1
102
RTVSPropertyOp11
 70
     1
102
RTVSPropertyOp12
 70
     1
102
RTVSPropertyOp13
 70
     1
102
RTVSPropertyOp14
 70
     1
102
RTVSPropertyOp15
 70
     1
102
RTVSPropertyOp16
 70
     1
102
RTVSPropertyOp17
 70
     1
102
RTVSPropertyOp18
 70
     1
102
RTVSPropertyOp19
 70
     1
102
RTVSPropertyOp20
 70
     1
102
RTVSPropertyOp21
 70
     1
102
RTVSPropertyOp22
 70
     1
102
RTVSPropertyOp23
 70
     1
102
RTVSPropertyOp24
 70
     1
102
RTVSPropertyOp25
 70
     1
102
RTVSPropertyOp26
 70
     1
102
RTVSPropertyOp27
 70
     1
102
RTVSPropertyOp28
 70
     1
102
RTVSPropertyOp29
 70
     1
102
RTVSPropertyOp30
 70
     1
102
RTVSPropertyOp31
 70
     1
102
RTVSPropertyOp32
 70
     1
102
RTVSPropertyOp33
 70
     1
102
RTVSPropertyOp34
 70
     1
102
RTVSPropertyOp35
 70
     1
102
RTVSPropertyOp36
 70
     1
102
RTVSPropertyOp37
 70
     1
102
RTVSPropertyOp38
 70
     1
102
RTVSPropertyOp39
 70
     1
102
RTVSPropertyOp40
 70
     1
102
RTVSPropertyOp41
 70
     1
102
RTVSPropertyOp42
 70
     1
102
RTVSPropertyOp43
 70
     1
102
RTVSPropertyOp44
 70
     1
102
RTVSPropertyOp45
 70
     1
102
RTVSPropertyOp46
 70
     1
102
RTVSPropertyOp47
 70
     1
102
RTVSPropertyOp48
 70
     1
102
RTVSPropertyOp49
 70
     1
102
RTVSPropertyOp50
 70
     1
102
RTVSPropertyOp51
 70
     0
102
RTVSPropertyOp52
 70
     0
102
RTVSPropertyOp53
 70
     1
102
RTVSPropertyOp54
 70
     1
102
RTVSPropertyOp55
 70
     1
102
RTVSPropertyOp56
 70
     1
102
RTVSPropertyOp57
 70
     1
102
RTVSPropertyOp58
 70
     1
102
RTVSPropertyOp59
 70
     1
102
RTVSPropertyOp60
 70
     1
102
RTVSPropertyOp61
 70
     1
102
RTVSPropertyOp62
 70
     1
  0
XRECORD
  5
5F6
102
{ACAD_REACTORS
330
5F5
102
}
330
5F5
100
AcDbXrecord
280
     1
102
RTVSPost2010Prop28
280
     0
102
RTVSPost2010PropOp28
 70
     1
102
RTVSPost2010Prop29
280
     1
102
RTVSPost2010PropOp29
 70
     1
102
RTVSPost2010Prop30
280
     1
102
RTVSPost2010PropOp30
 70
     1
102
RTVSPost2010Prop31
280
     0
102
RTVSPost2010PropOp31
 70
     1
102
RTVSPost2010Prop32
280
     0
102
RTVSPost2010PropOp32
 70
     1
102
RTVSPost2010Prop33
280
     0
102
RTVSPost2010PropOp33
 70
     1
102
RTVSPost2010Prop34
280
     0
102
RTVSPost2010PropOp34
 70
     1
102
RTVSPost2010Prop35
280
     0
102
RTVSPost2010PropOp35
 70
     1
102
RTVSPost2010Prop36
280
     0
102
RTVSPost2010PropOp36
 70
     1
102
RTVSPost2010Prop37
 90
       50
102
RTVSPost2010PropOp37
 70
     1
102
RTVSPost2010Prop38
140
0.0
102
RTVSPost2010PropOp38
 70
     1
102
RTVSPost2010Prop39
140
1.0
102
RTVSPost2010PropOp39
 70
     1
102
RTVSPost2010Prop40
 90
        0
102
RTVSPost2010PropOp40
 70
     1
102
RTVSPost2010Prop41ColorIndex
 90
       18
102
RTVSPost2010Prop41ColorRGB
 90
        0
102
RTVSPost2010PropOp41
 70
     1
102
RTVSPost2010Prop42
 90
       50
102
RTVSPost2010PropOp42
 70
     1
102
RTVSPost2010Prop43
 90
        3
102
RTVSPost2010PropOp43
 70
     1
102
RTVSPost2010Prop44ColorIndex
 90
        5
102
RTVSPost2010Prop44ColorRGB
 90
      255
102
RTVSPost2010PropOp44
 70
     1
102
RTVSPost2010Prop45
280
     0
102
RTVSPost2010PropOp45
 70
     1
102
RTVSPost2010Prop46
 90
       50
102
RTVSPost2010PropOp46
 70
     1
102
RTVSPost2010Prop47
 90
       50
102
RTVSPost2010PropOp47
 70
     1
102
RTVSPost2010Prop48
 90
       50
102
RTVSPost2010PropOp48
 70
     1
102
RTVSPost2010Prop49
280
     0
102
RTVSPost2010PropOp49
 70
     1
102
RTVSPost2010Prop50
 90
       50
102
RTVSPost2010PropOp50
 70
     1
102
RTVSPost2010Prop51ColorIndex
 90
      256
102
RTVSPost2010Prop51ColorRGB
 90
-16777216
102
RTVSPost2010PropOp51
 70
     0
102
RTVSPost2010Prop52
140
1.0
102
RTVSPost2010PropOp52
 70
     0
102
RTVSPost2010Prop53
 90
        2
102
RTVSPost2010PropOp53
 70
     1
102
RTVSPost2010Prop54
  1
strokes_ogs.tif
102
RTVSPost2010PropOp54
 70
     1
102
RTVSPost2010Prop55
280
     0
102
RTVSPost2010PropOp55
 70
     1
102
RTVSPost2010Prop56
140
1.0
102
RTVSPost2010PropOp56
 70
     1
102
RTVSPost2010Prop57
140
1.0
102
RTVSPost2010PropOp57
 70
     1
102
RTVSPropertyOp0
 70
     1
102
RTVSPropertyOp1
 70
     1
102
RTVSPropertyOp2
 70
     1
102
RTVSPropertyOp3
 70
     1
102
RTVSPropertyOp4
 70
     1
102
RTVSPropertyOp5
 70
     1
102
RTVSPropertyOp6
 70
     1
102
RTVSPropertyOp7
 70
     1
102
RTVSPropertyOp8
 70
     1
102
RTVSPropertyOp9
 70
     1
102
RTVSPropertyOp10
 70
     1
102
RTVSPropertyOp11
 70
     1
102
RTVSPropertyOp12
 70
     1
102
RTVSPropertyOp13
 70
     1
102
RTVSPropertyOp14
 70
     1
102
RTVSPropertyOp15
 70
     1
102
RTVSPropertyOp16
 70
     1
102
RTVSPropertyOp17
 70
     1
102
RTVSPropertyOp18
 70
     1
102
RTVSPropertyOp19
 70
     1
102
RTVSPropertyOp20
 70
     1
102
RTVSPropertyOp21
 70
     1
102
RTVSPropertyOp22
 70
     1
102
RTVSPropertyOp23
 70
     1
102
RTVSPropertyOp24
 70
     1
102
RTVSPropertyOp25
 70
     1
102
RTVSPropertyOp26
 70
     1
102
RTVSPropertyOp27
 70
     1
102
RTVSPropertyOp28
 70
     1
102
RTVSPropertyOp29
 70
     1
102
RTVSPropertyOp30
 70
     1
102
RTVSPropertyOp31
 70
     1
102
RTVSPropertyOp32
 70
     1
102
RTVSPropertyOp33
 70
     1
102
RTVSPropertyOp34
 70
     1
102
RTVSPropertyOp35
 70
     1
102
RTVSPropertyOp36
 70
     1
102
RTVSPropertyOp37
 70
     1
102
RTVSPropertyOp38
 70
     1
102
RTVSPropertyOp39
 70
     1
102
RTVSPropertyOp40
 70
     1
102
RTVSPropertyOp41
 70
     1
102
RTVSPropertyOp42
 70
     1
102
RTVSPropertyOp43
 70
     1
102
RTVSPropertyOp44
 70
     1
102
RTVSPropertyOp45
 70
     1
102
RTVSPropertyOp46
 70
     1
102
RTVSPropertyOp47
 70
     1
102
RTVSPropertyOp48
 70
     1
102
RTVSPropertyOp49
 70
     1
102
RTVSPropertyOp50
 70
     1
102
RTVSPropertyOp51
 70
     0
102
RTVSPropertyOp52
 70
     0
102
RTVSPropertyOp53
 70
     1
102
RTVSPropertyOp54
 70
     1
102
RTVSPropertyOp55
 70
     1
102
RTVSPropertyOp56
 70
     1
102
RTVSPropertyOp57
 70
     1
102
RTVSPropertyOp58
 70
     1
102
RTVSPropertyOp59
 70
     1
102
RTVSPropertyOp60
 70
     1
102
RTVSPropertyOp61
 70
     1
102
RTVSPropertyOp62
 70
     1
  0
XRECORD
  5
5F4
102
{ACAD_REACTORS
330
5F3
102
}
330
5F3
100
AcDbXrecord
280
     1
102
RTVSPost2010Prop28
280
     0
102
RTVSPost2010PropOp28
 70
     1
102
RTVSPost2010Prop29
280
     1
102
RTVSPost2010PropOp29
 70
     1
102
RTVSPost2010Prop30
280
     1
102
RTVSPost2010PropOp30
 70
     1
102
RTVSPost2010Prop31
280
     0
102
RTVSPost2010PropOp31
 70
     1
102
RTVSPost2010Prop32
280
     0
102
RTVSPost2010PropOp32
 70
     1
102
RTVSPost2010Prop33
280
     0
102
RTVSPost2010PropOp33
 70
     1
102
RTVSPost2010Prop34
280
     0
102
RTVSPost2010PropOp34
 70
     1
102
RTVSPost2010Prop35
280
     0
102
RTVSPost2010PropOp35
 70
     1
102
RTVSPost2010Prop36
280
     0
102
RTVSPost2010PropOp36
 70
     1
102
RTVSPost2010Prop37
 90
       50
102
RTVSPost2010PropOp37
 70
     1
102
RTVSPost2010Prop38
140
0.0
102
RTVSPost2010PropOp38
 70
     1
102
RTVSPost2010Prop39
140
1.0
102
RTVSPost2010PropOp39
 70
     1
102
RTVSPost2010Prop40
 90
        0
102
RTVSPost2010PropOp40
 70
     1
102
RTVSPost2010Prop41ColorIndex
 90
       18
102
RTVSPost2010Prop41ColorRGB
 90
        0
102
RTVSPost2010PropOp41
 70
     1
102
RTVSPost2010Prop42
 90
       50
102
RTVSPost2010PropOp42
 70
     1
102
RTVSPost2010Prop43
 90
        3
102
RTVSPost2010PropOp43
 70
     1
102
RTVSPost2010Prop44ColorIndex
 90
        5
102
RTVSPost2010Prop44ColorRGB
 90
      255
102
RTVSPost2010PropOp44
 70
     1
102
RTVSPost2010Prop45
280
     0
102
RTVSPost2010PropOp45
 70
     1
102
RTVSPost2010Prop46
 90
       50
102
RTVSPost2010PropOp46
 70
     1
102
RTVSPost2010Prop47
 90
       50
102
RTVSPost2010PropOp47
 70
     1
102
RTVSPost2010Prop48
 90
       50
102
RTVSPost2010PropOp48
 70
     1
102
RTVSPost2010Prop49
280
     0
102
RTVSPost2010PropOp49
 70
     1
102
RTVSPost2010Prop50
 90
       50
102
RTVSPost2010PropOp50
 70
     1
102
RTVSPost2010Prop51ColorIndex
 90
      256
102
RTVSPost2010Prop51ColorRGB
 90
-16777216
102
RTVSPost2010PropOp51
 70
     0
102
RTVSPost2010Prop52
140
1.0
102
RTVSPost2010PropOp52
 70
     0
102
RTVSPost2010Prop53
 90
        2
102
RTVSPost2010PropOp53
 70
     1
102
RTVSPost2010Prop54
  1
strokes_ogs.tif
102
RTVSPost2010PropOp54
 70
     1
102
RTVSPost2010Prop55
280
     0
102
RTVSPost2010PropOp55
 70
     1
102
RTVSPost2010Prop56
140
1.0
102
RTVSPost2010PropOp56
 70
     1
102
RTVSPost2010Prop57
140
1.0
102
RTVSPost2010PropOp57
 70
     1
102
RTVSPropertyOp0
 70
     1
102
RTVSPropertyOp1
 70
     1
102
RTVSPropertyOp2
 70
     1
102
RTVSPropertyOp3
 70
     1
102
RTVSPropertyOp4
 70
     1
102
RTVSPropertyOp5
 70
     1
102
RTVSPropertyOp6
 70
     1
102
RTVSPropertyOp7
 70
     1
102
RTVSPropertyOp8
 70
     1
102
RTVSPropertyOp9
 70
     1
102
RTVSPropertyOp10
 70
     1
102
RTVSPropertyOp11
 70
     1
102
RTVSPropertyOp12
 70
     1
102
RTVSPropertyOp13
 70
     1
102
RTVSPropertyOp14
 70
     1
102
RTVSPropertyOp15
 70
     1
102
RTVSPropertyOp16
 70
     1
102
RTVSPropertyOp17
 70
     1
102
RTVSPropertyOp18
 70
     1
102
RTVSPropertyOp19
 70
     1
102
RTVSPropertyOp20
 70
     1
102
RTVSPropertyOp21
 70
     1
102
RTVSPropertyOp22
 70
     1
102
RTVSPropertyOp23
 70
     1
102
RTVSPropertyOp24
 70
     1
102
RTVSPropertyOp25
 70
     1
102
RTVSPropertyOp26
 70
     1
102
RTVSPropertyOp27
 70
     1
102
RTVSPropertyOp28
 70
     1
102
RTVSPropertyOp29
 70
     1
102
RTVSPropertyOp30
 70
     1
102
RTVSPropertyOp31
 70
     1
102
RTVSPropertyOp32
 70
     1
102
RTVSPropertyOp33
 70
     1
102
RTVSPropertyOp34
 70
     1
102
RTVSPropertyOp35
 70
     1
102
RTVSPropertyOp36
 70
     1
102
RTVSPropertyOp37
 70
     1
102
RTVSPropertyOp38
 70
     1
102
RTVSPropertyOp39
 70
     1
102
RTVSPropertyOp40
 70
     1
102
RTVSPropertyOp41
 70
     1
102
RTVSPropertyOp42
 70
     1
102
RTVSPropertyOp43
 70
     1
102
RTVSPropertyOp44
 70
     1
102
RTVSPropertyOp45
 70
     1
102
RTVSPropertyOp46
 70
     1
102
RTVSPropertyOp47
 70
     1
102
RTVSPropertyOp48
 70
     1
102
RTVSPropertyOp49
 70
     1
102
RTVSPropertyOp50
 70
     1
102
RTVSPropertyOp51
 70
     0
102
RTVSPropertyOp52
 70
     0
102
RTVSPropertyOp53
 70
     1
102
RTVSPropertyOp54
 70
     1
102
RTVSPropertyOp55
 70
     1
102
RTVSPropertyOp56
 70
     1
102
RTVSPropertyOp57
 70
     1
102
RTVSPropertyOp58
 70
     1
102
RTVSPropertyOp59
 70
     1
102
RTVSPropertyOp60
 70
     1
102
RTVSPropertyOp61
 70
     1
102
RTVSPropertyOp62
 70
     1
  0
XRECORD
  5
5EE
102
{ACAD_REACTORS
330
5ED
102
}
330
5ED
100
AcDbXrecord
280
     1
102
RTVSPost2010Prop28
280
     0
102
RTVSPost2010PropOp28
 70
     1
102
RTVSPost2010Prop29
280
     1
102
RTVSPost2010PropOp29
 70
     1
102
RTVSPost2010Prop30
280
     1
102
RTVSPost2010PropOp30
 70
     1
102
RTVSPost2010Prop31
280
     0
102
RTVSPost2010PropOp31
 70
     1
102
RTVSPost2010Prop32
280
     0
102
RTVSPost2010PropOp32
 70
     1
102
RTVSPost2010Prop33
280
     0
102
RTVSPost2010PropOp33
 70
     1
102
RTVSPost2010Prop34
280
     0
102
RTVSPost2010PropOp34
 70
     1
102
RTVSPost2010Prop35
280
     0
102
RTVSPost2010PropOp35
 70
     1
102
RTVSPost2010Prop36
280
     0
102
RTVSPost2010PropOp36
 70
     1
102
RTVSPost2010Prop37
 90
       50
102
RTVSPost2010PropOp37
 70
     1
102
RTVSPost2010Prop38
140
0.0
102
RTVSPost2010PropOp38
 70
     1
102
RTVSPost2010Prop39
140
1.0
102
RTVSPost2010PropOp39
 70
     1
102
RTVSPost2010Prop40
 90
        0
102
RTVSPost2010PropOp40
 70
     1
102
RTVSPost2010Prop41ColorIndex
 90
       18
102
RTVSPost2010Prop41ColorRGB
 90
        0
102
RTVSPost2010PropOp41
 70
     1
102
RTVSPost2010Prop42
 90
       50
102
RTVSPost2010PropOp42
 70
     1
102
RTVSPost2010Prop43
 90
        3
102
RTVSPost2010PropOp43
 70
     1
102
RTVSPost2010Prop44ColorIndex
 90
        5
102
RTVSPost2010Prop44ColorRGB
 90
      255
102
RTVSPost2010PropOp44
 70
     1
102
RTVSPost2010Prop45
280
     0
102
RTVSPost2010PropOp45
 70
     1
102
RTVSPost2010Prop46
 90
       50
102
RTVSPost2010PropOp46
 70
     1
102
RTVSPost2010Prop47
 90
       50
102
RTVSPost2010PropOp47
 70
     1
102
RTVSPost2010Prop48
 90
       50
102
RTVSPost2010PropOp48
 70
     1
102
RTVSPost2010Prop49
280
     0
102
RTVSPost2010PropOp49
 70
     1
102
RTVSPost2010Prop50
 90
       50
102
RTVSPost2010PropOp50
 70
     1
102
RTVSPost2010Prop51ColorIndex
 90
      256
102
RTVSPost2010Prop51ColorRGB
 90
-16777216
102
RTVSPost2010PropOp51
 70
     0
102
RTVSPost2010Prop52
140
1.0
102
RTVSPost2010PropOp52
 70
     0
102
RTVSPost2010Prop53
 90
        2
102
RTVSPost2010PropOp53
 70
     1
102
RTVSPost2010Prop54
  1
strokes_ogs.tif
102
RTVSPost2010PropOp54
 70
     1
102
RTVSPost2010Prop55
280
     0
102
RTVSPost2010PropOp55
 70
     1
102
RTVSPost2010Prop56
140
1.0
102
RTVSPost2010PropOp56
 70
     1
102
RTVSPost2010Prop57
140
1.0
102
RTVSPost2010PropOp57
 70
     1
102
RTVSPropertyOp0
 70
     1
102
RTVSPropertyOp1
 70
     1
102
RTVSPropertyOp2
 70
     1
102
RTVSPropertyOp3
 70
     1
102
RTVSPropertyOp4
 70
     1
102
RTVSPropertyOp5
 70
     1
102
RTVSPropertyOp6
 70
     1
102
RTVSPropertyOp7
 70
     1
102
RTVSPropertyOp8
 70
     1
102
RTVSPropertyOp9
 70
     1
102
RTVSPropertyOp10
 70
     1
102
RTVSPropertyOp11
 70
     1
102
RTVSPropertyOp12
 70
     1
102
RTVSPropertyOp13
 70
     1
102
RTVSPropertyOp14
 70
     1
102
RTVSPropertyOp15
 70
     1
102
RTVSPropertyOp16
 70
     1
102
RTVSPropertyOp17
 70
     1
102
RTVSPropertyOp18
 70
     1
102
RTVSPropertyOp19
 70
     1
102
RTVSPropertyOp20
 70
     1
102
RTVSPropertyOp21
 70
     1
102
RTVSPropertyOp22
 70
     1
102
RTVSPropertyOp23
 70
     1
102
RTVSPropertyOp24
 70
     1
102
RTVSPropertyOp25
 70
     1
102
RTVSPropertyOp26
 70
     1
102
RTVSPropertyOp27
 70
     1
102
RTVSPropertyOp28
 70
     1
102
RTVSPropertyOp29
 70
     1
102
RTVSPropertyOp30
 70
     1
102
RTVSPropertyOp31
 70
     1
102
RTVSPropertyOp32
 70
     1
102
RTVSPropertyOp33
 70
     1
102
RTVSPropertyOp34
 70
     1
102
RTVSPropertyOp35
 70
     1
102
RTVSPropertyOp36
 70
     1
102
RTVSPropertyOp37
 70
     1
102
RTVSPropertyOp38
 70
     1
102
RTVSPropertyOp39
 70
     1
102
RTVSPropertyOp40
 70
     1
102
RTVSPropertyOp41
 70
     1
102
RTVSPropertyOp42
 70
     1
102
RTVSPropertyOp43
 70
     1
102
RTVSPropertyOp44
 70
     1
102
RTVSPropertyOp45
 70
     1
102
RTVSPropertyOp46
 70
     1
102
RTVSPropertyOp47
 70
     1
102
RTVSPropertyOp48
 70
     1
102
RTVSPropertyOp49
 70
     1
102
RTVSPropertyOp50
 70
     1
102
RTVSPropertyOp51
 70
     0
102
RTVSPropertyOp52
 70
     0
102
RTVSPropertyOp53
 70
     1
102
RTVSPropertyOp54
 70
     1
102
RTVSPropertyOp55
 70
     1
102
RTVSPropertyOp56
 70
     1
102
RTVSPropertyOp57
 70
     1
102
RTVSPropertyOp58
 70
     1
102
RTVSPropertyOp59
 70
     1
102
RTVSPropertyOp60
 70
     1
102
RTVSPropertyOp61
 70
     1
102
RTVSPropertyOp62
 70
     1
  0
XRECORD
  5
5F0
102
{ACAD_REACTORS
330
5EF
102
}
330
5EF
100
AcDbXrecord
280
     1
102
RTVSPost2010Prop28
280
     0
102
RTVSPost2010PropOp28
 70
     1
102
RTVSPost2010Prop29
280
     1
102
RTVSPost2010PropOp29
 70
     1
102
RTVSPost2010Prop30
280
     1
102
RTVSPost2010PropOp30
 70
     1
102
RTVSPost2010Prop31
280
     0
102
RTVSPost2010PropOp31
 70
     1
102
RTVSPost2010Prop32
280
     0
102
RTVSPost2010PropOp32
 70
     1
102
RTVSPost2010Prop33
280
     0
102
RTVSPost2010PropOp33
 70
     1
102
RTVSPost2010Prop34
280
     0
102
RTVSPost2010PropOp34
 70
     1
102
RTVSPost2010Prop35
280
     0
102
RTVSPost2010PropOp35
 70
     1
102
RTVSPost2010Prop36
280
     0
102
RTVSPost2010PropOp36
 70
     1
102
RTVSPost2010Prop37
 90
       50
102
RTVSPost2010PropOp37
 70
     1
102
RTVSPost2010Prop38
140
0.0
102
RTVSPost2010PropOp38
 70
     1
102
RTVSPost2010Prop39
140
1.0
102
RTVSPost2010PropOp39
 70
     1
102
RTVSPost2010Prop40
 90
        0
102
RTVSPost2010PropOp40
 70
     1
102
RTVSPost2010Prop41ColorIndex
 90
       18
102
RTVSPost2010Prop41ColorRGB
 90
        0
102
RTVSPost2010PropOp41
 70
     1
102
RTVSPost2010Prop42
 90
       50
102
RTVSPost2010PropOp42
 70
     1
102
RTVSPost2010Prop43
 90
        3
102
RTVSPost2010PropOp43
 70
     1
102
RTVSPost2010Prop44ColorIndex
 90
        5
102
RTVSPost2010Prop44ColorRGB
 90
      255
102
RTVSPost2010PropOp44
 70
     1
102
RTVSPost2010Prop45
280
     0
102
RTVSPost2010PropOp45
 70
     1
102
RTVSPost2010Prop46
 90
       50
102
RTVSPost2010PropOp46
 70
     1
102
RTVSPost2010Prop47
 90
       50
102
RTVSPost2010PropOp47
 70
     1
102
RTVSPost2010Prop48
 90
       50
102
RTVSPost2010PropOp48
 70
     1
102
RTVSPost2010Prop49
280
     0
102
RTVSPost2010PropOp49
 70
     1
102
RTVSPost2010Prop50
 90
       50
102
RTVSPost2010PropOp50
 70
     1
102
RTVSPost2010Prop51ColorIndex
 90
      256
102
RTVSPost2010Prop51ColorRGB
 90
-16777216
102
RTVSPost2010PropOp51
 70
     0
102
RTVSPost2010Prop52
140
1.0
102
RTVSPost2010PropOp52
 70
     0
102
RTVSPost2010Prop53
 90
        2
102
RTVSPost2010PropOp53
 70
     1
102
RTVSPost2010Prop54
  1
strokes_ogs.tif
102
RTVSPost2010PropOp54
 70
     1
102
RTVSPost2010Prop55
280
     0
102
RTVSPost2010PropOp55
 70
     1
102
RTVSPost2010Prop56
140
1.0
102
RTVSPost2010PropOp56
 70
     1
102
RTVSPost2010Prop57
140
1.0
102
RTVSPost2010PropOp57
 70
     1
102
RTVSPropertyOp0
 70
     1
102
RTVSPropertyOp1
 70
     1
102
RTVSPropertyOp2
 70
     1
102
RTVSPropertyOp3
 70
     1
102
RTVSPropertyOp4
 70
     1
102
RTVSPropertyOp5
 70
     1
102
RTVSPropertyOp6
 70
     1
102
RTVSPropertyOp7
 70
     1
102
RTVSPropertyOp8
 70
     1
102
RTVSPropertyOp9
 70
     1
102
RTVSPropertyOp10
 70
     1
102
RTVSPropertyOp11
 70
     1
102
RTVSPropertyOp12
 70
     1
102
RTVSPropertyOp13
 70
     1
102
RTVSPropertyOp14
 70
     1
102
RTVSPropertyOp15
 70
     1
102
RTVSPropertyOp16
 70
     1
102
RTVSPropertyOp17
 70
     1
102
RTVSPropertyOp18
 70
     1
102
RTVSPropertyOp19
 70
     1
102
RTVSPropertyOp20
 70
     1
102
RTVSPropertyOp21
 70
     1
102
RTVSPropertyOp22
 70
     1
102
RTVSPropertyOp23
 70
     1
102
RTVSPropertyOp24
 70
     1
102
RTVSPropertyOp25
 70
     1
102
RTVSPropertyOp26
 70
     1
102
RTVSPropertyOp27
 70
     1
102
RTVSPropertyOp28
 70
     1
102
RTVSPropertyOp29
 70
     1
102
RTVSPropertyOp30
 70
     1
102
RTVSPropertyOp31
 70
     1
102
RTVSPropertyOp32
 70
     1
102
RTVSPropertyOp33
 70
     1
102
RTVSPropertyOp34
 70
     1
102
RTVSPropertyOp35
 70
     1
102
RTVSPropertyOp36
 70
     1
102
RTVSPropertyOp37
 70
     1
102
RTVSPropertyOp38
 70
     1
102
RTVSPropertyOp39
 70
     1
102
RTVSPropertyOp40
 70
     1
102
RTVSPropertyOp41
 70
     1
102
RTVSPropertyOp42
 70
     1
102
RTVSPropertyOp43
 70
     1
102
RTVSPropertyOp44
 70
     1
102
RTVSPropertyOp45
 70
     1
102
RTVSPropertyOp46
 70
     1
102
RTVSPropertyOp47
 70
     1
102
RTVSPropertyOp48
 70
     1
102
RTVSPropertyOp49
 70
     1
102
RTVSPropertyOp50
 70
     1
102
RTVSPropertyOp51
 70
     0
102
RTVSPropertyOp52
 70
     0
102
RTVSPropertyOp53
 70
     1
102
RTVSPropertyOp54
 70
     1
102
RTVSPropertyOp55
 70
     1
102
RTVSPropertyOp56
 70
     1
102
RTVSPropertyOp57
 70
     1
102
RTVSPropertyOp58
 70
     1
102
RTVSPropertyOp59
 70
     1
102
RTVSPropertyOp60
 70
     1
102
RTVSPropertyOp61
 70
     1
102
RTVSPropertyOp62
 70
     1
  0
XRECORD
  5
5E0
102
{ACAD_REACTORS
330
5DF
102
}
330
5DF
100
AcDbXrecord
280
     1
102
RTVSPost2010Prop28
280
     0
102
RTVSPost2010PropOp28
 70
     1
102
RTVSPost2010Prop29
280
     1
102
RTVSPost2010PropOp29
 70
     1
102
RTVSPost2010Prop30
280
     1
102
RTVSPost2010PropOp30
 70
     1
102
RTVSPost2010Prop31
280
     0
102
RTVSPost2010PropOp31
 70
     1
102
RTVSPost2010Prop32
280
     0
102
RTVSPost2010PropOp32
 70
     1
102
RTVSPost2010Prop33
280
     0
102
RTVSPost2010PropOp33
 70
     1
102
RTVSPost2010Prop34
280
     0
102
RTVSPost2010PropOp34
 70
     1
102
RTVSPost2010Prop35
280
     0
102
RTVSPost2010PropOp35
 70
     1
102
RTVSPost2010Prop36
280
     0
102
RTVSPost2010PropOp36
 70
     1
102
RTVSPost2010Prop37
 90
       50
102
RTVSPost2010PropOp37
 70
     1
102
RTVSPost2010Prop38
140
0.0
102
RTVSPost2010PropOp38
 70
     1
102
RTVSPost2010Prop39
140
1.0
102
RTVSPost2010PropOp39
 70
     1
102
RTVSPost2010Prop40
 90
        0
102
RTVSPost2010PropOp40
 70
     1
102
RTVSPost2010Prop41ColorIndex
 90
       18
102
RTVSPost2010Prop41ColorRGB
 90
        0
102
RTVSPost2010PropOp41
 70
     1
102
RTVSPost2010Prop42
 90
       50
102
RTVSPost2010PropOp42
 70
     1
102
RTVSPost2010Prop43
 90
        3
102
RTVSPost2010PropOp43
 70
     1
102
RTVSPost2010Prop44ColorIndex
 90
        5
102
RTVSPost2010Prop44ColorRGB
 90
      255
102
RTVSPost2010PropOp44
 70
     1
102
RTVSPost2010Prop45
280
     0
102
RTVSPost2010PropOp45
 70
     1
102
RTVSPost2010Prop46
 90
       50
102
RTVSPost2010PropOp46
 70
     1
102
RTVSPost2010Prop47
 90
       50
102
RTVSPost2010PropOp47
 70
     1
102
RTVSPost2010Prop48
 90
       50
102
RTVSPost2010PropOp48
 70
     1
102
RTVSPost2010Prop49
280
     0
102
RTVSPost2010PropOp49
 70
     1
102
RTVSPost2010Prop50
 90
       50
102
RTVSPost2010PropOp50
 70
     1
102
RTVSPost2010Prop51ColorIndex
 90
      256
102
RTVSPost2010Prop51ColorRGB
 90
-16777216
102
RTVSPost2010PropOp51
 70
     0
102
RTVSPost2010Prop52
140
1.0
102
RTVSPost2010PropOp52
 70
     0
102
RTVSPost2010Prop53
 90
        2
102
RTVSPost2010PropOp53
 70
     1
102
RTVSPost2010Prop54
  1
strokes_ogs.tif
102
RTVSPost2010PropOp54
 70
     1
102
RTVSPost2010Prop55
280
     0
102
RTVSPost2010PropOp55
 70
     1
102
RTVSPost2010Prop56
140
1.0
102
RTVSPost2010PropOp56
 70
     1
102
RTVSPost2010Prop57
140
1.0
102
RTVSPost2010PropOp57
 70
     1
102
RTVSPropertyOp0
 70
     1
102
RTVSPropertyOp1
 70
     1
102
RTVSPropertyOp2
 70
     1
102
RTVSPropertyOp3
 70
     1
102
RTVSPropertyOp4
 70
     1
102
RTVSPropertyOp5
 70
     1
102
RTVSPropertyOp6
 70
     1
102
RTVSPropertyOp7
 70
     1
102
RTVSPropertyOp8
 70
     1
102
RTVSPropertyOp9
 70
     1
102
RTVSPropertyOp10
 70
     1
102
RTVSPropertyOp11
 70
     1
102
RTVSPropertyOp12
 70
     1
102
RTVSPropertyOp13
 70
     1
102
RTVSPropertyOp14
 70
     1
102
RTVSPropertyOp15
 70
     1
102
RTVSPropertyOp16
 70
     1
102
RTVSPropertyOp17
 70
     1
102
RTVSPropertyOp18
 70
     1
102
RTVSPropertyOp19
 70
     1
102
RTVSPropertyOp20
 70
     1
102
RTVSPropertyOp21
 70
     1
102
RTVSPropertyOp22
 70
     1
102
RTVSPropertyOp23
 70
     1
102
RTVSPropertyOp24
 70
     1
102
RTVSPropertyOp25
 70
     1
102
RTVSPropertyOp26
 70
     1
102
RTVSPropertyOp27
 70
     1
102
RTVSPropertyOp28
 70
     1
102
RTVSPropertyOp29
 70
     1
102
RTVSPropertyOp30
 70
     1
102
RTVSPropertyOp31
 70
     1
102
RTVSPropertyOp32
 70
     1
102
RTVSPropertyOp33
 70
     1
102
RTVSPropertyOp34
 70
     1
102
RTVSPropertyOp35
 70
     1
102
RTVSPropertyOp36
 70
     1
102
RTVSPropertyOp37
 70
     1
102
RTVSPropertyOp38
 70
     1
102
RTVSPropertyOp39
 70
     1
102
RTVSPropertyOp40
 70
     1
102
RTVSPropertyOp41
 70
     1
102
RTVSPropertyOp42
 70
     1
102
RTVSPropertyOp43
 70
     1
102
RTVSPropertyOp44
 70
     1
102
RTVSPropertyOp45
 70
     1
102
RTVSPropertyOp46
 70
     1
102
RTVSPropertyOp47
 70
     1
102
RTVSPropertyOp48
 70
     1
102
RTVSPropertyOp49
 70
     1
102
RTVSPropertyOp50
 70
     1
102
RTVSPropertyOp51
 70
     0
102
RTVSPropertyOp52
 70
     0
102
RTVSPropertyOp53
 70
     1
102
RTVSPropertyOp54
 70
     1
102
RTVSPropertyOp55
 70
     1
102
RTVSPropertyOp56
 70
     1
102
RTVSPropertyOp57
 70
     1
102
RTVSPropertyOp58
 70
     1
102
RTVSPropertyOp59
 70
     1
102
RTVSPropertyOp60
 70
     1
102
RTVSPropertyOp61
 70
     1
102
RTVSPropertyOp62
 70
     1
  0
XRECORD
  5
5D2
102
{ACAD_REACTORS
330
5D1
102
}
330
5D1
100
AcDbXrecord
280
     1
102
RTVSPost2010Prop28
280
     0
102
RTVSPost2010PropOp28
 70
     1
102
RTVSPost2010Prop29
280
     1
102
RTVSPost2010PropOp29
 70
     1
102
RTVSPost2010Prop30
280
     1
102
RTVSPost2010PropOp30
 70
     1
102
RTVSPost2010Prop31
280
     0
102
RTVSPost2010PropOp31
 70
     1
102
RTVSPost2010Prop32
280
     0
102
RTVSPost2010PropOp32
 70
     1
102
RTVSPost2010Prop33
280
     0
102
RTVSPost2010PropOp33
 70
     1
102
RTVSPost2010Prop34
280
     0
102
RTVSPost2010PropOp34
 70
     1
102
RTVSPost2010Prop35
280
     0
102
RTVSPost2010PropOp35
 70
     1
102
RTVSPost2010Prop36
280
     0
102
RTVSPost2010PropOp36
 70
     1
102
RTVSPost2010Prop37
 90
       50
102
RTVSPost2010PropOp37
 70
     1
102
RTVSPost2010Prop38
140
0.0
102
RTVSPost2010PropOp38
 70
     1
102
RTVSPost2010Prop39
140
1.0
102
RTVSPost2010PropOp39
 70
     1
102
RTVSPost2010Prop40
 90
        0
102
RTVSPost2010PropOp40
 70
     1
102
RTVSPost2010Prop41ColorIndex
 90
       18
102
RTVSPost2010Prop41ColorRGB
 90
        0
102
RTVSPost2010PropOp41
 70
     1
102
RTVSPost2010Prop42
 90
       50
102
RTVSPost2010PropOp42
 70
     1
102
RTVSPost2010Prop43
 90
        3
102
RTVSPost2010PropOp43
 70
     1
102
RTVSPost2010Prop44ColorIndex
 90
        5
102
RTVSPost2010Prop44ColorRGB
 90
      255
102
RTVSPost2010PropOp44
 70
     1
102
RTVSPost2010Prop45
280
     0
102
RTVSPost2010PropOp45
 70
     1
102
RTVSPost2010Prop46
 90
       50
102
RTVSPost2010PropOp46
 70
     1
102
RTVSPost2010Prop47
 90
       50
102
RTVSPost2010PropOp47
 70
     1
102
RTVSPost2010Prop48
 90
       50
102
RTVSPost2010PropOp48
 70
     1
102
RTVSPost2010Prop49
280
     0
102
RTVSPost2010PropOp49
 70
     1
102
RTVSPost2010Prop50
 90
       50
102
RTVSPost2010PropOp50
 70
     1
102
RTVSPost2010Prop51ColorIndex
 90
      256
102
RTVSPost2010Prop51ColorRGB
 90
-16777216
102
RTVSPost2010PropOp51
 70
     0
102
RTVSPost2010Prop52
140
1.0
102
RTVSPost2010PropOp52
 70
     0
102
RTVSPost2010Prop53
 90
        2
102
RTVSPost2010PropOp53
 70
     1
102
RTVSPost2010Prop54
  1
strokes_ogs.tif
102
RTVSPost2010PropOp54
 70
     1
102
RTVSPost2010Prop55
280
     0
102
RTVSPost2010PropOp55
 70
     1
102
RTVSPost2010Prop56
140
1.0
102
RTVSPost2010PropOp56
 70
     1
102
RTVSPost2010Prop57
140
1.0
102
RTVSPost2010PropOp57
 70
     1
102
RTVSPropertyOp0
 70
     1
102
RTVSPropertyOp1
 70
     1
102
RTVSPropertyOp2
 70
     1
102
RTVSPropertyOp3
 70
     1
102
RTVSPropertyOp4
 70
     1
102
RTVSPropertyOp5
 70
     1
102
RTVSPropertyOp6
 70
     1
102
RTVSPropertyOp7
 70
     1
102
RTVSPropertyOp8
 70
     1
102
RTVSPropertyOp9
 70
     1
102
RTVSPropertyOp10
 70
     1
102
RTVSPropertyOp11
 70
     1
102
RTVSPropertyOp12
 70
     1
102
RTVSPropertyOp13
 70
     1
102
RTVSPropertyOp14
 70
     1
102
RTVSPropertyOp15
 70
     1
102
RTVSPropertyOp16
 70
     1
102
RTVSPropertyOp17
 70
     1
102
RTVSPropertyOp18
 70
     1
102
RTVSPropertyOp19
 70
     1
102
RTVSPropertyOp20
 70
     1
102
RTVSPropertyOp21
 70
     1
102
RTVSPropertyOp22
 70
     1
102
RTVSPropertyOp23
 70
     1
102
RTVSPropertyOp24
 70
     1
102
RTVSPropertyOp25
 70
     1
102
RTVSPropertyOp26
 70
     1
102
RTVSPropertyOp27
 70
     1
102
RTVSPropertyOp28
 70
     1
102
RTVSPropertyOp29
 70
     1
102
RTVSPropertyOp30
 70
     1
102
RTVSPropertyOp31
 70
     1
102
RTVSPropertyOp32
 70
     1
102
RTVSPropertyOp33
 70
     1
102
RTVSPropertyOp34
 70
     1
102
RTVSPropertyOp35
 70
     1
102
RTVSPropertyOp36
 70
     1
102
RTVSPropertyOp37
 70
     1
102
RTVSPropertyOp38
 70
     1
102
RTVSPropertyOp39
 70
     1
102
RTVSPropertyOp40
 70
     1
102
RTVSPropertyOp41
 70
     1
102
RTVSPropertyOp42
 70
     1
102
RTVSPropertyOp43
 70
     1
102
RTVSPropertyOp44
 70
     1
102
RTVSPropertyOp45
 70
     1
102
RTVSPropertyOp46
 70
     1
102
RTVSPropertyOp47
 70
     1
102
RTVSPropertyOp48
 70
     1
102
RTVSPropertyOp49
 70
     1
102
RTVSPropertyOp50
 70
     1
102
RTVSPropertyOp51
 70
     0
102
RTVSPropertyOp52
 70
     0
102
RTVSPropertyOp53
 70
     1
102
RTVSPropertyOp54
 70
     1
102
RTVSPropertyOp55
 70
     1
102
RTVSPropertyOp56
 70
     1
102
RTVSPropertyOp57
 70
     1
102
RTVSPropertyOp58
 70
     1
102
RTVSPropertyOp59
 70
     1
102
RTVSPropertyOp60
 70
     1
102
RTVSPropertyOp61
 70
     1
102
RTVSPropertyOp62
 70
     1
  0
XRECORD
  5
5F2
102
{ACAD_REACTORS
330
5F1
102
}
330
5F1
100
AcDbXrecord
280
     1
102
RTVSPost2010Prop28
280
     0
102
RTVSPost2010PropOp28
 70
     1
102
RTVSPost2010Prop29
280
     1
102
RTVSPost2010PropOp29
 70
     1
102
RTVSPost2010Prop30
280
     1
102
RTVSPost2010PropOp30
 70
     1
102
RTVSPost2010Prop31
280
     0
102
RTVSPost2010PropOp31
 70
     1
102
RTVSPost2010Prop32
280
     0
102
RTVSPost2010PropOp32
 70
     1
102
RTVSPost2010Prop33
280
     0
102
RTVSPost2010PropOp33
 70
     1
102
RTVSPost2010Prop34
280
     0
102
RTVSPost2010PropOp34
 70
     1
102
RTVSPost2010Prop35
280
     0
102
RTVSPost2010PropOp35
 70
     1
102
RTVSPost2010Prop36
280
     0
102
RTVSPost2010PropOp36
 70
     1
102
RTVSPost2010Prop37
 90
       50
102
RTVSPost2010PropOp37
 70
     1
102
RTVSPost2010Prop38
140
0.0
102
RTVSPost2010PropOp38
 70
     1
102
RTVSPost2010Prop39
140
1.0
102
RTVSPost2010PropOp39
 70
     1
102
RTVSPost2010Prop40
 90
        0
102
RTVSPost2010PropOp40
 70
     1
102
RTVSPost2010Prop41ColorIndex
 90
       18
102
RTVSPost2010Prop41ColorRGB
 90
        0
102
RTVSPost2010PropOp41
 70
     1
102
RTVSPost2010Prop42
 90
       50
102
RTVSPost2010PropOp42
 70
     1
102
RTVSPost2010Prop43
 90
        3
102
RTVSPost2010PropOp43
 70
     1
102
RTVSPost2010Prop44ColorIndex
 90
        5
102
RTVSPost2010Prop44ColorRGB
 90
      255
102
RTVSPost2010PropOp44
 70
     1
102
RTVSPost2010Prop45
280
     0
102
RTVSPost2010PropOp45
 70
     1
102
RTVSPost2010Prop46
 90
       50
102
RTVSPost2010PropOp46
 70
     1
102
RTVSPost2010Prop47
 90
       50
102
RTVSPost2010PropOp47
 70
     1
102
RTVSPost2010Prop48
 90
       50
102
RTVSPost2010PropOp48
 70
     1
102
RTVSPost2010Prop49
280
     0
102
RTVSPost2010PropOp49
 70
     1
102
RTVSPost2010Prop50
 90
       50
102
RTVSPost2010PropOp50
 70
     1
102
RTVSPost2010Prop51ColorIndex
 90
      256
102
RTVSPost2010Prop51ColorRGB
 90
-16777216
102
RTVSPost2010PropOp51
 70
     0
102
RTVSPost2010Prop52
140
1.0
102
RTVSPost2010PropOp52
 70
     0
102
RTVSPost2010Prop53
 90
        2
102
RTVSPost2010PropOp53
 70
     1
102
RTVSPost2010Prop54
  1
strokes_ogs.tif
102
RTVSPost2010PropOp54
 70
     1
102
RTVSPost2010Prop55
280
     0
102
RTVSPost2010PropOp55
 70
     1
102
RTVSPost2010Prop56
140
1.0
102
RTVSPost2010PropOp56
 70
     1
102
RTVSPost2010Prop57
140
1.0
102
RTVSPost2010PropOp57
 70
     1
102
RTVSPropertyOp0
 70
     1
102
RTVSPropertyOp1
 70
     1
102
RTVSPropertyOp2
 70
     1
102
RTVSPropertyOp3
 70
     1
102
RTVSPropertyOp4
 70
     1
102
RTVSPropertyOp5
 70
     1
102
RTVSPropertyOp6
 70
     1
102
RTVSPropertyOp7
 70
     1
102
RTVSPropertyOp8
 70
     1
102
RTVSPropertyOp9
 70
     1
102
RTVSPropertyOp10
 70
     1
102
RTVSPropertyOp11
 70
     1
102
RTVSPropertyOp12
 70
     1
102
RTVSPropertyOp13
 70
     1
102
RTVSPropertyOp14
 70
     1
102
RTVSPropertyOp15
 70
     1
102
RTVSPropertyOp16
 70
     1
102
RTVSPropertyOp17
 70
     1
102
RTVSPropertyOp18
 70
     1
102
RTVSPropertyOp19
 70
     1
102
RTVSPropertyOp20
 70
     1
102
RTVSPropertyOp21
 70
     1
102
RTVSPropertyOp22
 70
     1
102
RTVSPropertyOp23
 70
     1
102
RTVSPropertyOp24
 70
     1
102
RTVSPropertyOp25
 70
     1
102
RTVSPropertyOp26
 70
     1
102
RTVSPropertyOp27
 70
     1
102
RTVSPropertyOp28
 70
     1
102
RTVSPropertyOp29
 70
     1
102
RTVSPropertyOp30
 70
     1
102
RTVSPropertyOp31
 70
     1
102
RTVSPropertyOp32
 70
     1
102
RTVSPropertyOp33
 70
     1
102
RTVSPropertyOp34
 70
     1
102
RTVSPropertyOp35
 70
     1
102
RTVSPropertyOp36
 70
     1
102
RTVSPropertyOp37
 70
     1
102
RTVSPropertyOp38
 70
     1
102
RTVSPropertyOp39
 70
     1
102
RTVSPropertyOp40
 70
     1
102
RTVSPropertyOp41
 70
     1
102
RTVSPropertyOp42
 70
     1
102
RTVSPropertyOp43
 70
     1
102
RTVSPropertyOp44
 70
     1
102
RTVSPropertyOp45
 70
     1
102
RTVSPropertyOp46
 70
     1
102
RTVSPropertyOp47
 70
     1
102
RTVSPropertyOp48
 70
     1
102
RTVSPropertyOp49
 70
     1
102
RTVSPropertyOp50
 70
     1
102
RTVSPropertyOp51
 70
     0
102
RTVSPropertyOp52
 70
     0
102
RTVSPropertyOp53
 70
     1
102
RTVSPropertyOp54
 70
     1
102
RTVSPropertyOp55
 70
     1
102
RTVSPropertyOp56
 70
     1
102
RTVSPropertyOp57
 70
     1
102
RTVSPropertyOp58
 70
     1
102
RTVSPropertyOp59
 70
     1
102
RTVSPropertyOp60
 70
     1
102
RTVSPropertyOp61
 70
     1
102
RTVSPropertyOp62
 70
     1
  0
ENDSEC
  0
EOF
