  0
SECTION
  2
HEADER
  9
$ACADVER
  1
AC1015
  9
$ACADMAINTVER
 70
    20
  9
$DWGCODEPAGE
  3
ANSI_932
  9
$INSBASE
 10
0.0
 20
0.0
 30
0.0
  9
$EXTMIN
 10
-29.04454707742014
 20
18.13879193132476
 30
0.0
  9
$EXTMAX
 10
1551.286126478557
 20
1320.687600895074
 30
0.0
  9
$LIMMIN
 10
-444.81410408021
 20
-459.8279209137063
  9
$LIMMAX
 10
1125.707685470581
 20
849.1889038086039
  9
$ORTHOMODE
 70
     1
  9
$REGENMODE
 70
     1
  9
$FILLMODE
 70
     1
  9
$QTEXTMODE
 70
     0
  9
$MIRRTEXT
 70
     1
  9
$LTSCALE
 40
0.7558627334354549
  9
$ATTMODE
 70
     1
  9
$TEXTSIZE
 40
2.5
  9
$TRACEWID
 40
1.0
  9
$TEXTSTYLE
  7
Standard
  9
$CLAYER
  8
0
  9
$CELTYPE
  6
ByLayer
  9
$CECOLOR
 62
   256
  9
$CELTSCALE
 40
1.0
  9
$DISPSILH
 70
     0
  9
$DIMSCALE
 40
1.0
  9
$DIMASZ
 40
2.5
  9
$DIMEXO
 40
0.625
  9
$DIMDLI
 40
3.75
  9
$DIMRND
 40
0.0
  9
$DIMDLE
 40
0.0
  9
$DIMEXE
 40
1.25
  9
$DIMTP
 40
0.0
  9
$DIMTM
 40
0.0
  9
$DIMTXT
 40
2.5
  9
$DIMCEN
 40
2.5
  9
$DIMTSZ
 40
0.0
  9
$DIMTOL
 70
     0
  9
$DIMLIM
 70
     0
  9
$DIMTIH
 70
     0
  9
$DIMTOH
 70
     0
  9
$DIMSE1
 70
     0
  9
$DIMSE2
 70
     0
  9
$DIMTAD
 70
     1
  9
$DIMZIN
 70
     0
  9
$DIMBLK
  1

  9
$DIMASO
 70
     1
  9
$DIMSHO
 70
     1
  9
$DIMPOST
  1

  9
$DIMAPOST
  1

  9
$DIMALT
 70
     0
  9
$DIMALTD
 70
     3
  9
$DIMALTF
 40
0.03937007874016
  9
$DIMLFAC
 40
1.0
  9
$DIMTOFL
 70
     1
  9
$DIMTVP
 40
0.0
  9
$DIMTIX
 70
     0
  9
$DIMSOXD
 70
     0
  9
$DIMSAH
 70
     0
  9
$DIMBLK1
  1

  9
$DIMBLK2
  1

  9
$DIMSTYLE
  2
Standard
  9
$DIMCLRD
 70
     0
  9
$DIMCLRE
 70
     0
  9
$DIMCLRT
 70
     0
  9
$DIMTFAC
 40
0.75
  9
$DIMGAP
 40
0.625
  9
$DIMJUST
 70
     0
  9
$DIMSD1
 70
     0
  9
$DIMSD2
 70
     0
  9
$DIMTOLJ
 70
     0
  9
$DIMTZIN
 70
     8
  9
$DIMALTZ
 70
     0
  9
$DIMALTTZ
 70
     0
  9
$DIMUPT
 70
     0
  9
$DIMDEC
 70
     2
  9
$DIMTDEC
 70
     2
  9
$DIMALTU
 70
     2
  9
$DIMALTTD
 70
     3
  9
$DIMTXSTY
  7
Standard
  9
$DIMAUNIT
 70
     0
  9
$DIMADEC
 70
     0
  9
$DIMALTRND
 40
0.0
  9
$DIMAZIN
 70
     0
  9
$DIMDSEP
 70
    46
  9
$DIMATFIT
 70
     3
  9
$DIMFRAC
 70
     0
  9
$DIMLDRBLK
  1

  9
$DIMLUNIT
 70
     2
  9
$DIMLWD
 70
    -2
  9
$DIMLWE
 70
    -2
  9
$DIMTMOVE
 70
     0
  9
$LUNITS
 70
     2
  9
$LUPREC
 70
     4
  9
$SKETCHINC
 40
1.0
  9
$FILLETRAD
 40
0.0
  9
$AUNITS
 70
     0
  9
$AUPREC
 70
     0
  9
$MENU
  1
.
  9
$ELEVATION
 40
0.0
  9
$PELEVATION
 40
0.0
  9
$THICKNESS
 40
0.0
  9
$LIMCHECK
 70
     0
  9
$CHAMFERA
 40
10.0
  9
$CHAMFERB
 40
10.0
  9
$CHAMFERC
 40
20.0
  9
$CHAMFERD
 40
0.0
  9
$SKPOLY
 70
     0
  9
$TDCREATE
 40
2455188.750000000
  9
$TDUCREATE
 40
2455188.375000000
  9
$TDUPDATE
 40
2459754.565824919
  9
$TDUUPDATE
 40
2459754.190824919
  9
$TDINDWG
 40
0.0219060301
  9
$TDUSRTIMER
 40
0.0219057639
  9
$USRTIMER
 70
     1
  9
$ANGBASE
 50
0.0
  9
$ANGDIR
 70
     0
  9
$PDMODE
 70
     0
  9
$PDSIZE
 40
0.0
  9
$PLINEWID
 40
0.0
  9
$SPLFRAME
 70
     0
  9
$SPLINETYPE
 70
     6
  9
$SPLINESEGS
 70
     8
  9
$HANDSEED
  5
646
  9
$SURFTAB1
 70
     6
  9
$SURFTAB2
 70
     6
  9
$SURFTYPE
 70
     6
  9
$SURFU
 70
     6
  9
$SURFV
 70
     6
  9
$UCSBASE
  2

  9
$UCSNAME
  2

  9
$UCSORG
 10
0.0
 20
0.0
 30
0.0
  9
$UCSXDIR
 10
1.0
 20
0.0
 30
0.0
  9
$UCSYDIR
 10
0.0
 20
1.0
 30
0.0
  9
$UCSORTHOREF
  2

  9
$UCSORTHOVIEW
 70
     0
  9
$UCSORGTOP
 10
0.0
 20
0.0
 30
0.0
  9
$UCSORGBOTTOM
 10
0.0
 20
0.0
 30
0.0
  9
$UCSORGLEFT
 10
0.0
 20
0.0
 30
0.0
  9
$UCSORGRIGHT
 10
0.0
 20
0.0
 30
0.0
  9
$UCSORGFRONT
 10
0.0
 20
0.0
 30
0.0
  9
$UCSORGBACK
 10
0.0
 20
0.0
 30
0.0
  9
$PUCSBASE
  2

  9
$PUCSNAME
  2

  9
$PUCSORG
 10
0.0
 20
0.0
 30
0.0
  9
$PUCSXDIR
 10
1.0
 20
0.0
 30
0.0
  9
$PUCSYDIR
 10
0.0
 20
1.0
 30
0.0
  9
$PUCSORTHOREF
  2

  9
$PUCSORTHOVIEW
 70
     0
  9
$PUCSORGTOP
 10
0.0
 20
0.0
 30
0.0
  9
$PUCSORGBOTTOM
 10
0.0
 20
0.0
 30
0.0
  9
$PUCSORGLEFT
 10
0.0
 20
0.0
 30
0.0
  9
$PUCSORGRIGHT
 10
0.0
 20
0.0
 30
0.0
  9
$PUCSORGFRONT
 10
0.0
 20
0.0
 30
0.0
  9
$PUCSORGBACK
 10
0.0
 20
0.0
 30
0.0
  9
$USERI1
 70
     0
  9
$USERI2
 70
     0
  9
$USERI3
 70
     0
  9
$USERI4
 70
     0
  9
$USERI5
 70
     0
  9
$USERR1
 40
0.0
  9
$USERR2
 40
0.0
  9
$USERR3
 40
0.0
  9
$USERR4
 40
0.0
  9
$USERR5
 40
0.0
  9
$WORLDVIEW
 70
     1
  9
$SHADEDGE
 70
     3
  9
$SHADEDIF
 70
    70
  9
$TILEMODE
 70
     1
  9
$MAXACTVP
 70
    64
  9
$PINSBASE
 10
0.0
 20
0.0
 30
0.0
  9
$PLIMCHECK
 70
     0
  9
$PEXTMIN
 10
1.000000000000000E+20
 20
1.000000000000000E+20
 30
1.000000000000000E+20
  9
$PEXTMAX
 10
-1.000000000000000E+20
 20
-1.000000000000000E+20
 30
-1.000000000000000E+20
  9
$PLIMMIN
 10
0.0
 20
0.0
  9
$PLIMMAX
 10
420.0
 20
297.0
  9
$UNITMODE
 70
     0
  9
$VISRETAIN
 70
     1
  9
$PLINEGEN
 70
     0
  9
$PSLTSCALE
 70
     1
  9
$TREEDEPTH
 70
  3020
  9
$CMLSTYLE
  2
Standard
  9
$CMLJUST
 70
     0
  9
$CMLSCALE
 40
20.0
  9
$PROXYGRAPHICS
 70
     1
  9
$MEASUREMENT
 70
     1
  9
$CELWEIGHT
370
    -1
  9
$ENDCAPS
280
     0
  9
$JOINSTYLE
280
     0
  9
$LWDISPLAY
290
     0
  9
$INSUNITS
 70
     4
  9
$HYPERLINKBASE
  1

  9
$STYLESHEET
  1

  9
$XEDIT
290
     1
  9
$CEPSNTYPE
380
     0
  9
$PSTYLEMODE
290
     1
  9
$FINGERPRINTGUID
  2
{CE1B5FFB-30F2-4DC0-B762-2A107A747FD6}
  9
$VERSIONGUID
  2
{C39EC1E3-8B8E-40E3-8606-672897EE7F14}
  9
$EXTNAMES
290
     1
  9
$PSVPSCALE
 40
0.0
  9
$OLESTARTUP
290
     0
  0
ENDSEC
  0
SECTION
  2
CLASSES
  0
CLASS
  1
ACDBDICTIONARYWDFLT
  2
AcDbDictionaryWithDefault
  3
ObjectDBX Classes
 90
        0
280
     0
281
     0
  0
CLASS
  1
VISUALSTYLE
  2
AcDbVisualStyle
  3
ObjectDBX Classes
 90
     4095
280
     0
281
     0
  0
CLASS
  1
MATERIAL
  2
AcDbMaterial
  3
ObjectDBX Classes
 90
     1153
280
     0
281
     0
  0
CLASS
  1
SCALE
  2
AcDbScale
  3
ObjectDBX Classes
 90
     1153
280
     0
281
     0
  0
CLASS
  1
TABLESTYLE
  2
AcDbTableStyle
  3
ObjectDBX Classes
 90
     4095
280
     0
281
     0
  0
CLASS
  1
MLEADERSTYLE
  2
AcDbMLeaderStyle
  3
ACDB_MLEADERSTYLE_CLASS
 90
     4095
280
     0
281
     0
  0
CLASS
  1
SUN
  2
AcDbSun
  3
SCENEOE
 90
    33921
280
     0
281
     0
  0
CLASS
  1
DICTIONARYVAR
  2
AcDbDictionaryVar
  3
ObjectDBX Classes
 90
        0
280
     0
281
     0
  0
CLASS
  1
ACDBSECTIONVIEWSTYLE
  2
AcDbSectionViewStyle
  3
ObjectDBX Classes
 90
     1025
280
     0
281
     0
  0
CLASS
  1
ACDBDETAILVIEWSTYLE
  2
AcDbDetailViewStyle
  3
ObjectDBX Classes
 90
     1025
280
     0
281
     0
  0
CLASS
  1
SORTENTSTABLE
  2
AcDbSortentsTable
  3
ObjectDBX Classes
 90
        0
280
     0
281
     0
  0
CLASS
  1
CELLSTYLEMAP
  2
AcDbCellStyleMap
  3
ObjectDBX Classes
 90
     1152
280
     0
281
     0
  0
CLASS
  1
ACDBPLACEHOLDER
  2
AcDbPlaceHolder
  3
ObjectDBX Classes
 90
        0
280
     0
281
     0
  0
CLASS
  1
LAYOUT
  2
AcDbLayout
  3
ObjectDBX Classes
 90
        0
280
     0
281
     0
  0
ENDSEC
  0
SECTION
  2
TABLES
  0
TABLE
  2
VPORT
  5
8
330
0
100
AcDbSymbolTable
 70
     1
  0
VPORT
  5
29
330
8
100
AcDbSymbolTableRecord
100
AcDbViewportTableRecord
  2
*Active
 70
     0
 10
0.0
 20
0.0
 11
1.0
 21
1.0
 12
873.8633522909085
 22
582.6841229370456
 13
0.0
 23
0.0
 14
10.0
 24
10.0
 15
10.0
 25
10.0
 16
0.0
 26
0.0
 36
1.0
 17
0.0
 27
0.0
 37
0.0
 40
1073.32067295301
 41
2.204301075268817
 42
50.0
 43
0.0
 44
0.0
 50
0.0
 51
0.0
 71
     0
 72
 20000
 73
     1
 74
     3
 75
     0
 76
     0
 77
     0
 78
     0
281
     0
 65
     1
110
0.0
120
0.0
130
0.0
111
1.0
121
0.0
131
0.0
112
0.0
122
1.0
132
0.0
 79
     0
146
0.0
1001
ACAD_NAV_VCDISPLAY
1070
     3
  0
ENDTAB
  0
TABLE
  2
LTYPE
  5
5
330
0
100
AcDbSymbolTable
 70
     2
  0
LTYPE
  5
14
330
5
100
AcDbSymbolTableRecord
100
AcDbLinetypeTableRecord
  2
ByBlock
 70
     0
  3

 72
    65
 73
     0
 40
0.0
  0
LTYPE
  5
15
330
5
100
AcDbSymbolTableRecord
100
AcDbLinetypeTableRecord
  2
ByLayer
 70
     0
  3

 72
    65
 73
     0
 40
0.0
  0
LTYPE
  5
16
330
5
100
AcDbSymbolTableRecord
100
AcDbLinetypeTableRecord
  2
Continuous
 70
     0
  3
Solid line
 72
    65
 73
     0
 40
0.0
  0
LTYPE
  5
3F7
330
5
100
AcDbSymbolTableRecord
100
AcDbLinetypeTableRecord
  2
CENTER2
 70
     0
  3
Center (.5x) ___ _ ___ _ ___ _ ___ _ ___ _ ___
 72
    65
 73
     4
 40
28.575
 49
19.05
 74
     0
 49
-3.174999999999998
 74
     0
 49
3.174999999999998
 74
     0
 49
-3.174999999999998
 74
     0
  0
ENDTAB
  0
TABLE
  2
LAYER
  5
2
102
{ACAD_XDICTIONARY
360
3FD
102
}
330
0
100
AcDbSymbolTable
 70
     4
  0
LAYER
  5
10
102
{ACAD_XDICTIONARY
360
526
102
}
330
2
100
AcDbSymbolTableRecord
100
AcDbLayerTableRecord
  2
0
 70
     0
 62
     7
  6
Continuous
370
    -3
390
F
  0
LAYER
  5
66
330
2
100
AcDbSymbolTableRecord
100
AcDbLayerTableRecord
  2
Defpoints
 70
     0
 62
     7
  6
Continuous
290
     0
370
    -3
390
F
  0
LAYER
  5
3F8
102
{ACAD_XDICTIONARY
360
3F9
102
}
330
2
100
AcDbSymbolTableRecord
100
AcDbLayerTableRecord
  2
中心線
 70
     0
 62
     3
  6
CENTER2
370
    -3
390
F
  0
LAYER
  5
3FA
102
{ACAD_XDICTIONARY
360
3FB
102
}
330
2
100
AcDbSymbolTableRecord
100
AcDbLayerTableRecord
  2
実線
 70
     0
 62
     7
  6
Continuous
370
    -3
390
F
  0
ENDTAB
  0
TABLE
  2
STYLE
  5
3
330
0
100
AcDbSymbolTable
 70
     1
  0
STYLE
  5
11
330
3
100
AcDbSymbolTableRecord
100
AcDbTextStyleTableRecord
  2
Standard
 70
     0
 40
0.0
 41
1.0
 50
0.0
 71
     0
 42
2.5
  3
txt
  4
extfont2
  0
ENDTAB
  0
TABLE
  2
VIEW
  5
6
330
0
100
AcDbSymbolTable
 70
     0
  0
ENDTAB
  0
TABLE
  2
UCS
  5
7
330
0
100
AcDbSymbolTable
 70
     0
  0
ENDTAB
  0
TABLE
  2
APPID
  5
9
330
0
100
AcDbSymbolTable
 70
     4
  0
APPID
  5
12
330
9
100
AcDbSymbolTableRecord
100
AcDbRegAppTableRecord
  2
ACAD
 70
     0
  0
APPID
  5
255
330
9
100
AcDbSymbolTableRecord
100
AcDbRegAppTableRecord
  2
ACAD_MLEADERVER
 70
     0
  0
APPID
  5
3FC
330
9
100
AcDbSymbolTableRecord
100
AcDbRegAppTableRecord
  2
ACAD_NAV_VCDISPLAY
 70
     0
  0
APPID
  5
505
330
9
100
AcDbSymbolTableRecord
100
AcDbRegAppTableRecord
  2
ACAD_EXEMPT_FROM_CAD_STANDARDS
 70
     0
  0
ENDTAB
  0
TABLE
  2
DIMSTYLE
  5
A
330
0
100
AcDbSymbolTable
 70
     1
100
AcDbDimStyleTable
 71
     1
340
27
  0
DIMSTYLE
105
27
330
A
100
AcDbSymbolTableRecord
100
AcDbDimStyleTableRecord
  2
Standard
 70
     0
 41
2.5
 42
0.625
 43
3.75
 44
1.25
 73
     0
 74
     0
 77
     1
140
2.5
141
2.5
143
0.03937007874016
146
0.75
147
0.625
171
     3
172
     1
271
     2
272
     2
274
     3
283
     0
284
     8
340
11
  0
ENDTAB
  0
TABLE
  2
BLOCK_RECORD
  5
1
330
0
100
AcDbSymbolTable
 70
     1
  0
BLOCK_RECORD
  5
1F
102
{ACAD_XDICTIONARY
360
293
102
}
330
1
100
AcDbSymbolTableRecord
100
AcDbBlockTableRecord
  2
*Model_Space
340
22
  0
BLOCK_RECORD
  5
1B
330
1
100
AcDbSymbolTableRecord
100
AcDbBlockTableRecord
  2
*Paper_Space
340
1E
  0
BLOCK_RECORD
  5
23
330
1
100
AcDbSymbolTableRecord
100
AcDbBlockTableRecord
  2
*Paper_Space0
340
25F
  0
ENDTAB
  0
ENDSEC
  0
SECTION
  2
BLOCKS
  0
BLOCK
  5
20
330
1F
100
AcDbEntity
  8
0
100
AcDbBlockBegin
  2
*Model_Space
 70
     0
 10
0.0
 20
0.0
 30
0.0
  3
*Model_Space
  1

  0
ENDBLK
  5
21
330
1F
100
AcDbEntity
  8
0
100
AcDbBlockEnd
  0
BLOCK
  5
1C
330
1B
100
AcDbEntity
 67
     1
  8
0
100
AcDbBlockBegin
  2
*Paper_Space
 70
     0
 10
0.0
 20
0.0
 30
0.0
  3
*Paper_Space
  1

  0
ENDBLK
  5
1D
330
1B
100
AcDbEntity
 67
     1
  8
0
100
AcDbBlockEnd
  0
BLOCK
  5
24
330
23
100
AcDbEntity
 67
     1
  8
0
100
AcDbBlockBegin
  2
*Paper_Space0
 70
     0
 10
0.0
 20
0.0
 30
0.0
  3
*Paper_Space0
  1

  0
ENDBLK
  5
25
330
23
100
AcDbEntity
 67
     1
  8
0
100
AcDbBlockEnd
  0
ENDSEC
  0
SECTION
  2
ENTITIES
  0
CIRCLE
  5
265
102
{ACAD_REACTORS
330
56B
102
}
330
1F
100
AcDbEntity
  8
実線
100
AcDbCircle
 10
404.0491623773087
 20
1025.138791931323
 30
0.0
 40
20.0
  0
LINE
  5
266
102
{ACAD_REACTORS
330
56B
102
}
330
1F
100
AcDbEntity
  8
実線
100
AcDbLine
 10
430.0991623773088
 20
1052.138791931324
 30
0.0
 11
427.0991623773088
 21
1052.138791931324
 31
0.0
  0
LINE
  5
267
102
{ACAD_REACTORS
330
56B
102
}
330
1F
100
AcDbEntity
  8
実線
100
AcDbLine
 10
430.0991623773088
 20
1045.638791931325
 30
0.0
 11
430.0991623773088
 21
1052.138791931324
 31
0.0
  0
LINE
  5
268
102
{ACAD_REACTORS
330
56B
102
}
330
1F
100
AcDbEntity
  8
実線
100
AcDbLine
 10
427.0991623773088
 20
1052.138791931324
 30
0.0
 11
427.0991623773088
 21
1045.638791931325
 31
0.0
  0
LINE
  5
269
102
{ACAD_REACTORS
330
56B
102
}
330
1F
100
AcDbEntity
  8
実線
100
AcDbLine
 10
432.5491623773087
 20
1045.638791931325
 30
0.0
 11
424.6491623773087
 21
1045.638791931325
 31
0.0
  0
LINE
  5
26A
102
{ACAD_REACTORS
330
56B
102
}
330
1F
100
AcDbEntity
  8
実線
100
AcDbLine
 10
424.6491623773087
 20
1020.638791931323
 30
0.0
 11
432.5491623773087
 21
1020.638791931323
 31
0.0
  0
LINE
  5
26B
102
{ACAD_REACTORS
330
56B
102
}
330
1F
100
AcDbEntity
  8
実線
100
AcDbLine
 10
424.6491623773087
 20
1020.638791931323
 30
0.0
 11
424.6491623773087
 21
1045.638791931325
 31
0.0
  0
LINE
  5
26C
102
{ACAD_REACTORS
330
56B
102
}
330
1F
100
AcDbEntity
  8
実線
100
AcDbLine
 10
434.5491623773088
 20
1020.638791931323
 30
0.0
 11
432.5491623773087
 21
1020.638791931323
 31
0.0
  0
LINE
  5
26D
102
{ACAD_REACTORS
330
56B
102
}
330
1F
100
AcDbEntity
  8
実線
100
AcDbLine
 10
434.5491623773088
 20
1052.138791931325
 30
0.0
 11
434.5491623773088
 21
1020.638791931323
 31
0.0
  0
LINE
  5
26E
102
{ACAD_REACTORS
330
56B
102
}
330
1F
100
AcDbEntity
  8
実線
100
AcDbLine
 10
432.5491623773087
 20
1020.638791931323
 30
0.0
 11
432.5491623773087
 21
1052.138791931325
 31
0.0
  0
LINE
  5
26F
102
{ACAD_REACTORS
330
56B
102
}
330
1F
100
AcDbEntity
  8
実線
100
AcDbLine
 10
432.5491623773087
 20
1052.138791931325
 30
0.0
 11
432.5491623773087
 21
1054.138791931325
 31
0.0
  0
LINE
  5
270
102
{ACAD_REACTORS
330
56B
102
}
330
1F
100
AcDbEntity
  8
実線
100
AcDbLine
 10
432.5491623773087
 20
1052.138791931325
 30
0.0
 11
458.5491623773087
 21
1052.138791931325
 31
0.0
  0
LINE
  5
271
102
{ACAD_REACTORS
330
56B
102
}
330
1F
100
AcDbEntity
  8
実線
100
AcDbLine
 10
458.5491623773087
 20
1054.138791931325
 30
0.0
 11
458.5491623773087
 21
1052.138791931325
 31
0.0
  0
LINE
  5
272
102
{ACAD_REACTORS
330
56B
102
}
330
1F
100
AcDbEntity
  8
実線
100
AcDbLine
 10
432.5491623773087
 20
1054.138791931325
 30
0.0
 11
458.5491623773087
 21
1054.138791931325
 31
0.0
  0
LINE
  5
273
102
{ACAD_REACTORS
330
56B
102
}
330
1F
100
AcDbEntity
  8
実線
100
AcDbLine
 10
305.6491623773088
 20
993.388791931313
 30
0.0
 11
333.3513017307563
 21
993.388791931313
 31
0.0
  0
LINE
  5
274
102
{ACAD_REACTORS
330
56B
102
}
330
1F
100
AcDbEntity
  8
実線
100
AcDbLine
 10
333.3513017307471
 20
1056.888791931313
 30
0.0
 11
305.6491623773088
 21
1056.888791931313
 31
0.0
  0
LINE
  5
275
102
{ACAD_REACTORS
330
56B
102
}
330
1F
100
AcDbEntity
  8
実線
100
AcDbLine
 10
305.6491623773088
 20
1056.888791931313
 30
0.0
 11
302.549162377309
 21
1063.888791931314
 31
0.0
  0
LINE
  5
276
102
{ACAD_REACTORS
330
56B
102
}
330
1F
100
AcDbEntity
  8
実線
100
AcDbLine
 10
302.5491623773087
 20
986.388791931313
 30
0.0
 11
305.6491623773088
 21
993.388791931313
 31
0.0
  0
LINE
  5
277
102
{ACAD_REACTORS
330
56B
102
}
330
1F
100
AcDbEntity
  8
実線
100
AcDbLine
 10
305.6491623773088
 20
1056.888791931313
 30
0.0
 11
305.6491623773088
 21
993.388791931313
 31
0.0
  0
LINE
  5
278
102
{ACAD_REACTORS
330
56B
102
}
330
1F
100
AcDbEntity
  8
実線
100
AcDbLine
 10
299.049162377309
 20
986.388791931313
 30
0.0
 11
302.5491623773087
 21
986.388791931313
 31
0.0
  0
LINE
  5
279
102
{ACAD_REACTORS
330
56B
102
}
330
1F
100
AcDbEntity
  8
実線
100
AcDbLine
 10
302.5491623773087
 20
1063.888791931314
 30
0.0
 11
299.049162377309
 21
1063.888791931314
 31
0.0
  0
LINE
  5
27A
102
{ACAD_REACTORS
330
56B
102
}
330
1F
100
AcDbEntity
  8
実線
100
AcDbLine
 10
299.049162377309
 20
1063.888791931314
 30
0.0
 11
299.049162377309
 21
986.388791931313
 31
0.0
  0
LINE
  5
27B
102
{ACAD_REACTORS
330
56B
102
}
330
1F
100
AcDbEntity
  8
実線
100
AcDbLine
 10
302.5491623773087
 20
1063.888791931314
 30
0.0
 11
302.5491623773087
 21
986.388791931313
 31
0.0
  0
CIRCLE
  5
27C
102
{ACAD_REACTORS
330
56B
102
}
330
1F
100
AcDbEntity
  8
実線
100
AcDbCircle
 10
404.0491623773087
 20
1025.138791931323
 30
0.0
 40
77.5
  0
ARC
  5
27D
102
{ACAD_REACTORS
330
56B
102
}
330
1F
100
AcDbEntity
  8
実線
100
AcDbCircle
 10
353.2694731994701
 20
976.95764243277
 30
0.0
 40
9.999999999999591
100
AcDbArc
 50
179.447232343859
 51
223.4958580179451
  0
ARC
  5
27E
102
{ACAD_REACTORS
330
56B
102
}
330
1F
100
AcDbEntity
  8
実線
100
AcDbCircle
 10
404.049162377309
 20
1025.138791931315
 30
0.0
 40
79.99999999999268
100
AcDbArc
 50
223.4958580179359
 51
226.5041419820549
  0
ARC
  5
27F
102
{ACAD_REACTORS
330
56B
102
}
330
1F
100
AcDbEntity
  8
実線
100
AcDbCircle
 10
355.8680128787541
 20
974.359102753486
 30
0.0
 40
9.999999999999982
100
AcDbArc
 50
226.5041419820549
 51
270.5527676561409
  0
ARC
  5
280
102
{ACAD_REACTORS
330
56B
102
}
330
1F
100
AcDbEntity
  8
実線
100
AcDbCircle
 10
355.8680128787541
 20
1075.918481109161
 30
0.0
 40
10.00000000000002
100
AcDbArc
 50
89.44723234385907
 51
133.4958580179451
  0
ARC
  5
281
102
{ACAD_REACTORS
330
56B
102
}
330
1F
100
AcDbEntity
  8
実線
100
AcDbCircle
 10
404.0491623773086
 20
1025.138791931325
 30
0.0
 40
79.9999999999998
100
AcDbArc
 50
133.4958580179451
 51
136.5041419820548
  0
ARC
  5
282
102
{ACAD_REACTORS
330
56B
102
}
330
1F
100
AcDbEntity
  8
実線
100
AcDbCircle
 10
353.2694731994701
 20
1073.319941429879
 30
0.0
 40
9.999999999999996
100
AcDbArc
 50
136.5041419820548
 51
180.5527676561409
  0
ARC
  5
283
102
{ACAD_REACTORS
330
56B
102
}
330
1F
100
AcDbEntity
  8
実線
100
AcDbCircle
 10
452.2303118758632
 20
1075.918481109161
 30
0.0
 40
9.999999999999991
100
AcDbArc
 50
46.50414198205487
 51
90.55276765614094
  0
ARC
  5
284
102
{ACAD_REACTORS
330
56B
102
}
330
1F
100
AcDbEntity
  8
実線
100
AcDbCircle
 10
404.0491623773087
 20
1025.138791931325
 30
0.0
 40
79.99999999999984
100
AcDbArc
 50
43.49585801794513
 51
46.50414198205487
  0
ARC
  5
285
102
{ACAD_REACTORS
330
56B
102
}
330
1F
100
AcDbEntity
  8
実線
100
AcDbCircle
 10
454.8288515551475
 20
1073.319941429879
 30
0.0
 40
9.999999999999976
100
AcDbArc
 50
359.4472323438591
 51
43.49585801794513
  0
ARC
  5
286
102
{ACAD_REACTORS
330
56B
102
}
330
1F
100
AcDbEntity
  8
実線
100
AcDbCircle
 10
452.2303118758636
 20
974.359102753486
 30
0.0
 40
10.00000000000038
100
AcDbArc
 50
269.4472323438525
 51
313.4958580179451
  0
ARC
  5
287
102
{ACAD_REACTORS
330
56B
102
}
330
1F
100
AcDbEntity
  8
実線
100
AcDbCircle
 10
404.0491623773082
 20
1025.138791931315
 30
0.0
 40
79.99999999999343
100
AcDbArc
 50
313.4958580179451
 51
316.5041419820641
  0
ARC
  5
288
102
{ACAD_REACTORS
330
56B
102
}
330
1F
100
AcDbEntity
  8
実線
100
AcDbCircle
 10
454.8288515551475
 20
976.95764243277
 30
0.0
 40
10.0
100
AcDbArc
 50
316.5041419820549
 51
0.5527676561409212
  0
CIRCLE
  5
28B
102
{ACAD_REACTORS
330
56B
102
}
330
1F
100
AcDbEntity
  8
実線
100
AcDbCircle
 10
437.5491623773086
 20
1042.638791931324
 30
0.0
 40
2.75
  0
CIRCLE
  5
28E
102
{ACAD_REACTORS
330
56B
102
}
330
1F
100
AcDbEntity
  8
実線
100
AcDbCircle
 10
457.5491623773087
 20
1042.638791931324
 30
0.0
 40
2.75
  0
LINE
  5
28F
102
{ACAD_REACTORS
330
56B
102
}
330
1F
100
AcDbEntity
  8
実線
100
AcDbLine
 10
465.0491623773087
 20
1035.138791931323
 30
0.0
 11
434.5491623773088
 21
1035.138791931323
 31
0.0
  0
LINE
  5
290
102
{ACAD_REACTORS
330
56B
102
}
330
1F
100
AcDbEntity
  8
実線
100
AcDbLine
 10
465.0491623773087
 20
1052.138791931325
 30
0.0
 11
465.0491623773087
 21
1035.138791931323
 31
0.0
  0
LINE
  5
291
102
{ACAD_REACTORS
330
56B
102
}
330
1F
100
AcDbEntity
  8
実線
100
AcDbLine
 10
458.5491623773087
 20
1052.138791931325
 30
0.0
 11
465.0491623773087
 21
1052.138791931325
 31
0.0
  0
LINE
  5
292
102
{ACAD_REACTORS
330
56B
102
}
330
1F
100
AcDbEntity
  8
実線
100
AcDbLine
 10
430.0991623773088
 20
1052.138791931325
 30
0.0
 11
432.5491623773087
 21
1052.138791931325
 31
0.0
  0
ARC
  5
295
102
{ACAD_REACTORS
330
520
102
}
330
1F
100
AcDbEntity
  8
実線
100
AcDbCircle
 10
404.0491623773087
 20
125.1387919313147
 30
0.0
 40
77.5
100
AcDbArc
 50
51.65118538047821
 51
128.3488146195218
  0
ARC
  5
296
102
{ACAD_REACTORS
330
520
102
}
330
1F
100
AcDbEntity
  8
実線
100
AcDbCircle
 10
404.0491623773087
 20
125.1387919313147
 30
0.0
 40
77.5
100
AcDbArc
 50
141.6511853804701
 51
155.8154275977108
  0
ARC
  5
297
102
{ACAD_REACTORS
330
520
102
}
330
1F
100
AcDbEntity
  8
実線
100
AcDbCircle
 10
404.0491623773087
 20
125.1387919313147
 30
0.0
 40
77.5
100
AcDbArc
 50
204.1845724022746
 51
218.3488146195299
  0
ARC
  5
298
102
{ACAD_REACTORS
330
520
102
}
330
1F
100
AcDbEntity
  8
実線
100
AcDbCircle
 10
404.0491623773087
 20
125.1387919313147
 30
0.0
 40
77.5
100
AcDbArc
 50
231.6511853804609
 51
308.3488146195391
  0
ARC
  5
299
102
{ACAD_REACTORS
330
520
102
}
330
1F
100
AcDbEntity
  8
実線
100
AcDbCircle
 10
404.0491623773087
 20
125.1387919313147
 30
0.0
 40
77.5
100
AcDbArc
 50
321.6511853804701
 51
38.34881461952992
  0
CIRCLE
  5
29A
102
{ACAD_REACTORS
330
520
102
}
330
1F
100
AcDbEntity
  8
実線
100
AcDbCircle
 10
404.049162377309
 20
125.1387919313247
 30
0.0
 40
38.75
  0
LINE
  5
29B
102
{ACAD_REACTORS
330
520
102
}
330
1F
100
AcDbEntity
  8
実線
100
AcDbLine
 10
305.6491623773088
 20
93.38879193132475
 30
0.0
 11
359.1388350571925
 21
93.38879193132475
 31
0.0
  0
LINE
  5
29C
102
{ACAD_REACTORS
330
520
102
}
330
1F
100
AcDbEntity
  8
実線
100
AcDbLine
 10
359.1388350571925
 20
156.8887919313247
 30
0.0
 11
305.6491623773088
 21
156.8887919313247
 31
0.0
  0
LINE
  5
29D
102
{ACAD_REACTORS
330
520
102
}
330
1F
100
AcDbEntity
  8
実線
100
AcDbLine
 10
305.6491623773088
 20
93.38879193132475
 30
0.0
 11
305.6491623773088
 21
156.8887919313247
 31
0.0
  0
LINE
  5
29E
102
{ACAD_REACTORS
330
520
102
}
330
1F
100
AcDbEntity
  8
実線
100
AcDbLine
 10
305.6491623773088
 20
156.8887919313247
 30
0.0
 11
302.549162377309
 21
163.8887919313247
 31
0.0
  0
LINE
  5
29F
102
{ACAD_REACTORS
330
520
102
}
330
1F
100
AcDbEntity
  8
実線
100
AcDbLine
 10
302.5491623773087
 20
86.38879193132481
 30
0.0
 11
305.6491623773088
 21
93.38879193132475
 31
0.0
  0
LINE
  5
2A0
102
{ACAD_REACTORS
330
520
102
}
330
1F
100
AcDbEntity
  8
実線
100
AcDbLine
 10
299.049162377309
 20
86.38879193132481
 30
0.0
 11
299.049162377309
 21
163.8887919313247
 31
0.0
  0
LINE
  5
2A1
102
{ACAD_REACTORS
330
520
102
}
330
1F
100
AcDbEntity
  8
実線
100
AcDbLine
 10
302.5491623773087
 20
86.38879193132481
 30
0.0
 11
302.5491623773087
 21
163.8887919313247
 31
0.0
  0
LINE
  5
2A2
102
{ACAD_REACTORS
330
520
102
}
330
1F
100
AcDbEntity
  8
実線
100
AcDbLine
 10
299.049162377309
 20
86.38879193132481
 30
0.0
 11
302.5491623773087
 21
86.38879193132481
 31
0.0
  0
LINE
  5
2A3
102
{ACAD_REACTORS
330
520
102
}
330
1F
100
AcDbEntity
  8
実線
100
AcDbLine
 10
302.5491623773087
 20
163.8887919313247
 30
0.0
 11
299.049162377309
 21
163.8887919313247
 31
0.0
  0
LINE
  5
2A4
102
{ACAD_REACTORS
330
520
102
}
330
1F
100
AcDbEntity
  8
実線
100
AcDbLine
 10
452.0723379628464
 20
151.948764081266
 30
0.0
 11
463.0203719980377
 21
167.5841770663691
 31
0.0
  0
ARC
  5
2A5
102
{ACAD_REACTORS
330
520
102
}
330
1F
100
AcDbEntity
  8
実線
100
AcDbCircle
 10
454.8288515551475
 20
173.3199414298794
 30
0.0
 40
10.0
100
AcDbArc
 50
325.0000000000026
 51
43.49585801794053
  0
ARC
  5
2A6
102
{ACAD_REACTORS
330
520
102
}
330
1F
100
AcDbEntity
  8
実線
100
AcDbCircle
 10
404.0491623773082
 20
125.1387919313349
 30
0.0
 40
79.99999999999343
100
AcDbArc
 50
43.49585801793593
 51
46.50414198205487
  0
LINE
  5
2A7
102
{ACAD_REACTORS
330
520
102
}
330
1F
100
AcDbEntity
  8
実線
100
AcDbLine
 10
446.4945475123528
 20
184.1100015520538
 30
0.0
 11
430.85913452725
 21
173.1619675168624
 31
0.0
  0
ARC
  5
2A8
102
{ACAD_REACTORS
330
520
102
}
330
1F
100
AcDbEntity
  8
実線
100
AcDbCircle
 10
452.2303118758636
 20
175.9184811091636
 30
0.0
 40
10.00000000000038
100
AcDbArc
 50
46.50414198205487
 51
124.9999999999974
  0
ARC
  5
2A9
102
{ACAD_REACTORS
330
520
102
}
330
1F
100
AcDbEntity
  8
実線
100
AcDbCircle
 10
452.2303118758636
 20
74.35910275348589
 30
0.0
 40
9.999999999999991
100
AcDbArc
 50
235.0000000000026
 51
313.4958580179451
  0
LINE
  5
2AA
102
{ACAD_REACTORS
330
520
102
}
330
1F
100
AcDbEntity
  8
実線
100
AcDbLine
 10
463.0203719980376
 20
82.69340679628056
 30
0.0
 11
452.0723379628464
 21
98.32881978138363
 31
0.0
  0
LINE
  5
2AB
102
{ACAD_REACTORS
330
520
102
}
330
1F
100
AcDbEntity
  8
実線
100
AcDbLine
 10
430.85913452725
 20
77.11561634578726
 30
0.0
 11
446.494547512353
 21
66.167582310596
 31
0.0
  0
ARC
  5
2AC
102
{ACAD_REACTORS
330
520
102
}
330
1F
100
AcDbEntity
  8
実線
100
AcDbCircle
 10
404.049162377309
 20
125.1387919313246
 30
0.0
 40
79.99999999999984
100
AcDbArc
 50
313.4958580179451
 51
316.5041419820595
  0
ARC
  5
2AD
102
{ACAD_REACTORS
330
520
102
}
330
1F
100
AcDbEntity
  8
実線
100
AcDbCircle
 10
454.8288515551475
 20
76.95764243277
 30
0.0
 40
9.999999999999976
100
AcDbArc
 50
316.5041419820549
 51
34.99999999999737
  0
LINE
  5
2AE
102
{ACAD_REACTORS
330
520
102
}
330
1F
100
AcDbEntity
  8
実線
100
AcDbLine
 10
352.5669420521941
 20
93.38879193132475
 30
0.0
 11
345.0779527565802
 21
82.69340679628056
 31
0.0
  0
LINE
  5
2AF
102
{ACAD_REACTORS
330
520
102
}
330
1F
100
AcDbEntity
  8
実線
100
AcDbLine
 10
361.6037772422645
 20
66.167582310596
 30
0.0
 11
377.2391902273676
 21
77.11561634578726
 31
0.0
  0
ARC
  5
2B0
102
{ACAD_REACTORS
330
520
102
}
330
1F
100
AcDbEntity
  8
実線
100
AcDbCircle
 10
353.2694731994701
 20
76.95764243277011
 30
0.0
 40
9.999999999999996
100
AcDbArc
 50
145.0000000000026
 51
223.4958580179406
  0
ARC
  5
2B1
102
{ACAD_REACTORS
330
520
102
}
330
1F
100
AcDbEntity
  8
実線
100
AcDbCircle
 10
404.0491623773087
 20
125.1387919313246
 30
0.0
 40
79.9999999999998
100
AcDbArc
 50
223.4958580179406
 51
226.5041419820549
  0
ARC
  5
2B2
102
{ACAD_REACTORS
330
520
102
}
330
1F
100
AcDbEntity
  8
実線
100
AcDbCircle
 10
355.8680128787541
 20
74.35910275348601
 30
0.0
 40
10.00000000000002
100
AcDbArc
 50
226.5041419820549
 51
304.9999999999974
  0
LINE
  5
2B3
102
{ACAD_REACTORS
330
520
102
}
330
1F
100
AcDbEntity
  8
実線
100
AcDbLine
 10
345.0779527565805
 20
167.5841770663692
 30
0.0
 11
352.5669420521941
 21
156.8887919313247
 31
0.0
  0
LINE
  5
2B4
102
{ACAD_REACTORS
330
520
102
}
330
1F
100
AcDbEntity
  8
実線
100
AcDbLine
 10
377.2391902273676
 20
173.1619675168624
 30
0.0
 11
361.6037772422645
 21
184.1100015520536
 31
0.0
  0
ARC
  5
2B5
102
{ACAD_REACTORS
330
520
102
}
330
1F
100
AcDbEntity
  8
実線
100
AcDbCircle
 10
355.8680128787541
 20
175.9184811091636
 30
0.0
 40
9.999999999999982
100
AcDbArc
 50
55.00000000000264
 51
133.4958580179451
  0
ARC
  5
2B6
102
{ACAD_REACTORS
330
520
102
}
330
1F
100
AcDbEntity
  8
実線
100
AcDbCircle
 10
404.0491623773091
 20
125.1387919313349
 30
0.0
 40
79.99999999999268
100
AcDbArc
 50
133.4958580179451
 51
136.504141982064
  0
ARC
  5
2B7
102
{ACAD_REACTORS
330
520
102
}
330
1F
100
AcDbEntity
  8
実線
100
AcDbCircle
 10
353.2694731994701
 20
173.3199414298796
 30
0.0
 40
9.999999999999591
100
AcDbArc
 50
136.5041419820594
 51
214.9999999999974
  0
ARC
  5
2B8
102
{ACAD_REACTORS
330
520
102
}
330
1F
100
AcDbEntity
  8
実線
100
AcDbCircle
 10
404.049162377309
 20
125.1387919313247
 30
0.0
 40
55.0
100
AcDbArc
 50
206.6374901381771
 51
153.3625098618228
  0
LINE
  5
2B9
102
{ACAD_REACTORS
330
521
102
}
330
1F
100
AcDbEntity
  8
実線
100
AcDbLine
 10
984.0491623773084
 20
836.6387919313147
 30
0.0
 11
1024.049162377308
 21
836.6387919313147
 31
0.0
  0
LINE
  5
2BA
102
{ACAD_REACTORS
330
521
102
}
330
1F
100
AcDbEntity
  8
実線
100
AcDbLine
 10
1024.049162377308
 20
826.6387919313148
 30
0.0
 11
1024.049162377308
 21
836.6387919313147
 31
0.0
  0
LINE
  5
2BB
102
{ACAD_REACTORS
330
521
102
}
330
1F
100
AcDbEntity
  8
実線
100
AcDbLine
 10
984.0491623773084
 20
836.6387919313147
 30
0.0
 11
984.0491623773084
 21
826.6387919313148
 31
0.0
  0
LINE
  5
2BC
102
{ACAD_REACTORS
330
521
102
}
330
1F
100
AcDbEntity
  8
実線
100
AcDbLine
 10
1024.049162377308
 20
826.6387919313148
 30
0.0
 11
984.0491623773084
 21
826.6387919313148
 31
0.0
  0
LINE
  5
2BD
102
{ACAD_REACTORS
330
521
102
}
330
1F
100
AcDbEntity
  8
実線
100
AcDbLine
 10
1017.049162377308
 20
819.6387919313147
 30
0.0
 11
1017.049162377308
 21
826.6387919313148
 31
0.0
  0
LINE
  5
2BE
102
{ACAD_REACTORS
330
521
102
}
330
1F
100
AcDbEntity
  8
実線
100
AcDbLine
 10
991.0491623773085
 20
826.6387919313148
 30
0.0
 11
991.0491623773085
 21
819.6387919313147
 31
0.0
  0
LINE
  5
2BF
102
{ACAD_REACTORS
330
521
102
}
330
1F
100
AcDbEntity
  8
実線
100
AcDbLine
 10
1017.049162377308
 20
819.6387919313147
 30
0.0
 11
991.0491623773085
 21
819.6387919313147
 31
0.0
  0
CIRCLE
  5
2C0
102
{ACAD_REACTORS
330
521
102
}
330
1F
100
AcDbEntity
  8
実線
100
AcDbCircle
 10
979.4991623773084
 20
837.0387919313149
 30
0.0
 40
1.5
  0
LINE
  5
2C1
102
{ACAD_REACTORS
330
521
102
}
330
1F
100
AcDbEntity
  8
実線
100
AcDbLine
 10
975.5491623773073
 20
840.9887919313149
 30
0.0
 11
983.4491623773086
 21
840.9887919313149
 31
0.0
  0
LINE
  5
2C2
102
{ACAD_REACTORS
330
521
102
}
330
1F
100
AcDbEntity
  8
実線
100
AcDbLine
 10
983.4491623773086
 20
840.9887919313149
 30
0.0
 11
983.4491623773086
 21
833.0887919313148
 31
0.0
  0
LINE
  5
2C3
102
{ACAD_REACTORS
330
521
102
}
330
1F
100
AcDbEntity
  8
実線
100
AcDbLine
 10
983.4491623773086
 20
833.0887919313148
 30
0.0
 11
975.5491623773073
 21
833.0887919313148
 31
0.0
  0
CIRCLE
  5
2C4
102
{ACAD_REACTORS
330
521
102
}
330
1F
100
AcDbEntity
  8
実線
100
AcDbCircle
 10
979.4991623773084
 20
811.4387919313148
 30
0.0
 40
1.5
  0
LINE
  5
2C5
102
{ACAD_REACTORS
330
521
102
}
330
1F
100
AcDbEntity
  8
実線
100
AcDbLine
 10
983.4491623773086
 20
815.3887919313147
 30
0.0
 11
983.4491623773086
 21
807.4887919313148
 31
0.0
  0
LINE
  5
2C6
102
{ACAD_REACTORS
330
521
102
}
330
1F
100
AcDbEntity
  8
実線
100
AcDbLine
 10
975.5491623773073
 20
815.3887919313147
 30
0.0
 11
983.4491623773086
 21
815.3887919313147
 31
0.0
  0
LINE
  5
2C7
102
{ACAD_REACTORS
330
521
102
}
330
1F
100
AcDbEntity
  8
実線
100
AcDbLine
 10
983.4491623773086
 20
807.4887919313148
 30
0.0
 11
975.5491623773073
 21
807.4887919313148
 31
0.0
  0
LINE
  5
2C8
102
{ACAD_REACTORS
330
521
102
}
330
1F
100
AcDbEntity
  8
実線
100
AcDbLine
 10
949.5491623773075
 20
749.1387919313146
 30
0.0
 11
949.5491623773075
 21
849.1387919313147
 31
0.0
  0
LINE
  5
2C9
102
{ACAD_REACTORS
330
521
102
}
330
1F
100
AcDbEntity
  8
実線
100
AcDbLine
 10
975.5491623773083
 20
749.1387919313146
 30
0.0
 11
975.5491623773083
 21
849.1387919313147
 31
0.0
  0
LINE
  5
2CA
102
{ACAD_REACTORS
330
521
102
}
330
1F
100
AcDbEntity
  8
実線
100
AcDbLine
 10
975.5491623773083
 20
849.1387919313147
 30
0.0
 11
949.5491623773075
 21
849.1387919313147
 31
0.0
  0
LINE
  5
2CB
102
{ACAD_REACTORS
330
521
102
}
330
1F
100
AcDbEntity
  8
実線
100
AcDbLine
 10
1081.549162377308
 20
663.1387919313148
 30
0.0
 11
1081.549162377308
 21
672.1387919313148
 31
0.0
  0
LINE
  5
2CC
102
{ACAD_REACTORS
330
521
102
}
330
1F
100
AcDbEntity
  8
実線
100
AcDbLine
 10
926.5491623773085
 20
672.1387919313148
 30
0.0
 11
926.5491623773085
 21
663.1387919313148
 31
0.0
  0
LINE
  5
2CD
102
{ACAD_REACTORS
330
521
102
}
330
1F
100
AcDbEntity
  8
実線
100
AcDbLine
 10
1081.549162377308
 20
663.1387919313148
 30
0.0
 11
926.5491623773085
 21
663.1387919313148
 31
0.0
  0
LINE
  5
2CE
102
{ACAD_REACTORS
330
521
102
}
330
1F
100
AcDbEntity
  8
実線
100
AcDbLine
 10
986.7491623773085
 20
785.1387919313148
 30
0.0
 11
1021.349162377308
 21
785.1387919313148
 31
0.0
  0
LINE
  5
2CF
102
{ACAD_REACTORS
330
521
102
}
330
1F
100
AcDbEntity
  8
実線
100
AcDbLine
 10
1021.349162377308
 20
773.1387919313146
 30
0.0
 11
1021.349162377308
 21
785.1387919313148
 31
0.0
  0
LINE
  5
2D0
102
{ACAD_REACTORS
330
521
102
}
330
1F
100
AcDbEntity
  8
実線
100
AcDbLine
 10
986.7491623773085
 20
785.1387919313148
 30
0.0
 11
986.7491623773085
 21
773.1387919313146
 31
0.0
  0
LINE
  5
2D1
102
{ACAD_REACTORS
330
521
102
}
330
1F
100
AcDbEntity
  8
実線
100
AcDbLine
 10
986.7491623773085
 20
797.1387919313148
 30
0.0
 11
1021.349162377308
 21
797.1387919313148
 31
0.0
  0
LINE
  5
2D2
102
{ACAD_REACTORS
330
521
102
}
330
1F
100
AcDbEntity
  8
実線
100
AcDbLine
 10
1021.349162377308
 20
785.1387919313148
 30
0.0
 11
1021.349162377308
 21
797.1387919313148
 31
0.0
  0
LINE
  5
2D3
102
{ACAD_REACTORS
330
521
102
}
330
1F
100
AcDbEntity
  8
実線
100
AcDbLine
 10
986.7491623773085
 20
797.1387919313148
 30
0.0
 11
986.7491623773085
 21
785.1387919313148
 31
0.0
  0
LINE
  5
2D4
102
{ACAD_REACTORS
330
521
102
}
330
1F
100
AcDbEntity
  8
実線
100
AcDbLine
 10
1014.049162377308
 20
797.1387919313148
 30
0.0
 11
1014.049162377308
 21
819.6387919313147
 31
0.0
  0
LINE
  5
2D5
102
{ACAD_REACTORS
330
521
102
}
330
1F
100
AcDbEntity
  8
実線
100
AcDbLine
 10
994.0491623773084
 20
819.6387919313147
 30
0.0
 11
994.0491623773084
 21
797.1387919313148
 31
0.0
  0
LINE
  5
2D6
102
{ACAD_REACTORS
330
521
102
}
330
1F
100
AcDbEntity
  8
実線
100
AcDbLine
 10
1035.799162377308
 20
322.7387919313148
 30
0.0
 11
1035.799162377308
 21
329.1387919313148
 31
0.0
  0
LINE
  5
2D7
102
{ACAD_REACTORS
330
521
102
}
330
1F
100
AcDbEntity
  8
実線
100
AcDbLine
 10
972.2991623773085
 20
329.1387919313148
 30
0.0
 11
972.2991623773085
 21
322.7387919313148
 31
0.0
  0
LINE
  5
2D8
102
{ACAD_REACTORS
330
521
102
}
330
1F
100
AcDbEntity
  8
実線
100
AcDbLine
 10
965.2991623773074
 20
316.1387919313146
 30
0.0
 11
1042.799162377308
 21
316.1387919313146
 31
0.0
  0
LINE
  5
2D9
102
{ACAD_REACTORS
330
521
102
}
330
1F
100
AcDbEntity
  8
実線
100
AcDbLine
 10
1042.799162377308
 20
316.1387919313146
 30
0.0
 11
1042.799162377308
 21
319.6387919313146
 31
0.0
  0
LINE
  5
2DA
102
{ACAD_REACTORS
330
521
102
}
330
1F
100
AcDbEntity
  8
実線
100
AcDbLine
 10
965.2991623773074
 20
319.6387919313146
 30
0.0
 11
965.2991623773074
 21
316.1387919313146
 31
0.0
  0
LINE
  5
2DB
102
{ACAD_REACTORS
330
521
102
}
330
1F
100
AcDbEntity
  8
実線
100
AcDbLine
 10
965.2991623773074
 20
319.6387919313146
 30
0.0
 11
1042.799162377308
 21
319.6387919313146
 31
0.0
  0
LINE
  5
2DC
102
{ACAD_REACTORS
330
521
102
}
330
1F
100
AcDbEntity
  8
実線
100
AcDbLine
 10
972.2991623773085
 20
322.7387919313148
 30
0.0
 11
1035.799162377308
 21
322.7387919313148
 31
0.0
  0
LINE
  5
2DD
102
{ACAD_REACTORS
330
521
102
}
330
1F
100
AcDbEntity
  8
実線
100
AcDbLine
 10
972.2991623773085
 20
322.7387919313148
 30
0.0
 11
965.2991623773074
 21
319.6387919313146
 31
0.0
  0
LINE
  5
2DE
102
{ACAD_REACTORS
330
521
102
}
330
1F
100
AcDbEntity
  8
実線
100
AcDbLine
 10
1042.799162377308
 20
319.6387919313146
 30
0.0
 11
1035.799162377308
 21
322.7387919313148
 31
0.0
  0
LINE
  5
2DF
102
{ACAD_REACTORS
330
521
102
}
330
1F
100
AcDbEntity
  8
実線
100
AcDbLine
 10
1102.449162377308
 20
396.8887919313147
 30
0.0
 11
1064.828851555146
 21
396.8887919313147
 31
0.0
  0
LINE
  5
2E0
102
{ACAD_REACTORS
330
521
102
}
330
1F
100
AcDbEntity
  8
実線
100
AcDbLine
 10
1053.909065691794
 20
333.3887919313146
 30
0.0
 11
1102.449162377308
 21
333.3887919313146
 31
0.0
  0
LINE
  5
2E1
102
{ACAD_REACTORS
330
521
102
}
330
1F
100
AcDbEntity
  8
実線
100
AcDbLine
 10
1109.049162377308
 20
326.3887919313146
 30
0.0
 11
1109.049162377308
 21
403.8887919313147
 31
0.0
  0
LINE
  5
2E2
102
{ACAD_REACTORS
330
521
102
}
330
1F
100
AcDbEntity
  8
実線
100
AcDbLine
 10
1109.049162377308
 20
403.8887919313147
 30
0.0
 11
1105.549162377308
 21
403.8887919313147
 31
0.0
  0
LINE
  5
2E3
102
{ACAD_REACTORS
330
521
102
}
330
1F
100
AcDbEntity
  8
実線
100
AcDbLine
 10
1105.549162377308
 20
326.3887919313146
 30
0.0
 11
1109.049162377308
 21
326.3887919313146
 31
0.0
  0
LINE
  5
2E4
102
{ACAD_REACTORS
330
521
102
}
330
1F
100
AcDbEntity
  8
実線
100
AcDbLine
 10
1105.549162377308
 20
326.3887919313146
 30
0.0
 11
1105.549162377308
 21
403.8887919313147
 31
0.0
  0
LINE
  5
2E5
102
{ACAD_REACTORS
330
521
102
}
330
1F
100
AcDbEntity
  8
実線
100
AcDbLine
 10
1102.449162377308
 20
333.3887919313146
 30
0.0
 11
1102.449162377308
 21
396.8887919313147
 31
0.0
  0
LINE
  5
2E6
102
{ACAD_REACTORS
330
521
102
}
330
1F
100
AcDbEntity
  8
実線
100
AcDbLine
 10
1102.449162377308
 20
333.3887919313146
 30
0.0
 11
1105.549162377308
 21
326.3887919313146
 31
0.0
  0
LINE
  5
2E7
102
{ACAD_REACTORS
330
521
102
}
330
1F
100
AcDbEntity
  8
実線
100
AcDbLine
 10
1105.549162377308
 20
403.8887919313147
 30
0.0
 11
1102.449162377308
 21
396.8887919313147
 31
0.0
  0
LINE
  5
2E8
102
{ACAD_REACTORS
330
521
102
}
330
1F
100
AcDbEntity
  8
実線
100
AcDbLine
 10
1059.049162377308
 20
425.6387919313148
 30
0.0
 11
1059.049162377308
 21
663.1387919313148
 31
0.0
  0
LINE
  5
2E9
102
{ACAD_REACTORS
330
521
102
}
330
1F
100
AcDbEntity
  8
実線
100
AcDbLine
 10
949.0491623773085
 20
663.1387919313148
 30
0.0
 11
949.0491623773085
 21
425.6387919313148
 31
0.0
  0
LINE
  5
2EA
102
{ACAD_REACTORS
330
521
102
}
330
1F
100
AcDbEntity
  8
実線
100
AcDbLine
 10
1059.049162377308
 20
425.6387919313148
 30
0.0
 11
949.0491623773085
 21
425.6387919313148
 31
0.0
  0
LINE
  5
2EB
102
{ACAD_REACTORS
330
521
102
}
330
1F
100
AcDbEntity
  8
実線
100
AcDbLine
 10
984.0491623773084
 20
773.1387919313147
 30
0.0
 11
1024.049162377308
 21
773.1387919313147
 31
0.0
  0
LINE
  5
2EC
102
{ACAD_REACTORS
330
521
102
}
330
1F
100
AcDbEntity
  8
実線
100
AcDbLine
 10
1024.049162377308
 20
749.1387919313146
 30
0.0
 11
1024.049162377308
 21
773.1387919313146
 31
0.0
  0
LINE
  5
2ED
102
{ACAD_REACTORS
330
521
102
}
330
1F
100
AcDbEntity
  8
実線
100
AcDbLine
 10
984.0491623773084
 20
773.1387919313147
 30
0.0
 11
984.0491623773084
 21
749.1387919313151
 31
0.0
  0
LINE
  5
2EE
102
{ACAD_REACTORS
330
521
102
}
330
1F
100
AcDbEntity
  8
実線
100
AcDbLine
 10
1081.549162377308
 20
672.1387919313148
 30
0.0
 11
1081.549162377308
 21
744.1387919313148
 31
0.0
  0
LINE
  5
2EF
102
{ACAD_REACTORS
330
521
102
}
330
1F
100
AcDbEntity
  8
実線
100
AcDbLine
 10
926.5491623773085
 20
744.1387919313148
 30
0.0
 11
926.5491623773085
 21
672.1387919313148
 31
0.0
  0
LINE
  5
2F0
102
{ACAD_REACTORS
330
521
102
}
330
1F
100
AcDbEntity
  8
実線
100
AcDbLine
 10
1081.549162377308
 20
672.1387919313148
 30
0.0
 11
926.5491623773085
 21
672.1387919313148
 31
0.0
  0
LINE
  5
2F1
102
{ACAD_REACTORS
330
521
102
}
330
1F
100
AcDbEntity
  8
実線
100
AcDbLine
 10
926.5491623773085
 20
744.1387919313148
 30
0.0
 11
1081.549162377308
 21
744.1387919313148
 31
0.0
  0
LINE
  5
2F2
102
{ACAD_REACTORS
330
521
102
}
330
1F
100
AcDbEntity
  8
実線
100
AcDbLine
 10
931.5491623773084
 20
749.1387919313146
 30
0.0
 11
1076.549162257822
 21
749.1387919313146
 31
0.0
  0
ARC
  5
2F3
102
{ACAD_REACTORS
330
521
102
}
330
1F
100
AcDbEntity
  8
実線
100
AcDbCircle
 10
1076.549162377308
 20
744.1387919313148
 30
0.0
 40
5.0
100
AcDbArc
 50
0.0
 51
90.0
  0
ARC
  5
2F4
102
{ACAD_REACTORS
330
521
102
}
330
1F
100
AcDbEntity
  8
実線
100
AcDbCircle
 10
931.5491623773084
 20
744.1387919313148
 30
0.0
 40
5.0
100
AcDbArc
 50
90.0
 51
180.0
  0
LINE
  5
2F5
102
{ACAD_REACTORS
330
521
102
}
330
1F
100
AcDbEntity
  8
実線
100
AcDbLine
 10
1043.049162377307
 20
329.1387919313148
 30
0.0
 11
965.0491623773085
 21
329.1387919313148
 31
0.0
  0
ARC
  5
2F6
102
{ACAD_REACTORS
330
521
102
}
330
1F
100
AcDbEntity
  8
実線
100
AcDbCircle
 10
965.0491623773085
 20
345.1387919313146
 30
0.0
 40
16.0
100
AcDbArc
 50
180.0
 51
270.0
  0
ARC
  5
2F7
102
{ACAD_REACTORS
330
521
102
}
330
1F
100
AcDbEntity
  8
実線
100
AcDbCircle
 10
1043.049162377307
 20
345.1387919313146
 30
0.0
 40
16.0
100
AcDbArc
 50
270.0
 51
312.7455692246596
  0
LINE
  5
2F8
102
{ACAD_REACTORS
330
521
102
}
330
1F
100
AcDbEntity
  8
実線
100
AcDbLine
 10
943.2694731994695
 20
405.6387919313148
 30
0.0
 11
1064.828851555147
 21
405.6387919313148
 31
0.0
  0
LINE
  5
2F9
102
{ACAD_REACTORS
330
521
102
}
330
1F
100
AcDbEntity
  8
実線
100
AcDbLine
 10
949.0491623773085
 20
390.6387919313147
 30
0.0
 11
949.0491623773085
 21
345.1387919313146
 31
0.0
  0
LINE
  5
2FA
102
{ACAD_REACTORS
330
521
102
}
330
1F
100
AcDbEntity
  8
実線
100
AcDbLine
 10
1064.828851555147
 20
390.6387919313147
 30
0.0
 11
1064.828851555147
 21
405.6387919313148
 31
0.0
  0
LINE
  5
2FB
102
{ACAD_REACTORS
330
521
102
}
330
1F
100
AcDbEntity
  8
実線
100
AcDbLine
 10
1064.828851555147
 20
390.6387919313147
 30
0.0
 11
1030.859134527249
 21
390.6387919313147
 31
0.0
  0
LINE
  5
2FC
102
{ACAD_REACTORS
330
521
102
}
330
1F
100
AcDbEntity
  8
実線
100
AcDbLine
 10
943.2694731994695
 20
390.6387919313147
 30
0.0
 11
977.2391902273664
 21
390.6387919313147
 31
0.0
  0
LINE
  5
2FD
102
{ACAD_REACTORS
330
521
102
}
330
1F
100
AcDbEntity
  8
実線
100
AcDbLine
 10
943.2694731994695
 20
405.6387919313148
 30
0.0
 11
943.2694731994695
 21
390.6387919313147
 31
0.0
  0
LINE
  5
2FE
102
{ACAD_REACTORS
330
521
102
}
330
1F
100
AcDbEntity
  8
実線
100
AcDbLine
 10
1030.859134527249
 20
390.6387919313147
 30
0.0
 11
1030.859134527249
 21
405.6387919313148
 31
0.0
  0
LINE
  5
2FF
102
{ACAD_REACTORS
330
521
102
}
330
1F
100
AcDbEntity
  8
実線
100
AcDbLine
 10
977.2391902273664
 20
390.6387919313147
 30
0.0
 11
977.2391902273664
 21
405.6387919313148
 31
0.0
  0
LINE
  5
300
102
{ACAD_REACTORS
330
521
102
}
330
1F
100
AcDbEntity
  8
実線
100
AcDbLine
 10
1059.049162377308
 20
422.6387919313147
 30
0.0
 11
1059.049162377308
 21
425.6387919313148
 31
0.0
  0
LINE
  5
301
102
{ACAD_REACTORS
330
521
102
}
330
1F
100
AcDbEntity
  8
実線
100
AcDbLine
 10
949.0491623773085
 20
425.6387919313148
 30
0.0
 11
949.0491623773085
 21
422.6387919313147
 31
0.0
  0
LINE
  5
302
102
{ACAD_REACTORS
330
521
102
}
330
1F
100
AcDbEntity
  8
実線
100
AcDbLine
 10
1064.828851555147
 20
405.6387919313148
 30
0.0
 11
1064.828851555147
 21
422.6387919313147
 31
0.0
  0
LINE
  5
303
102
{ACAD_REACTORS
330
521
102
}
330
1F
100
AcDbEntity
  8
実線
100
AcDbLine
 10
1064.828851555147
 20
422.6387919313147
 30
0.0
 11
1030.859134527249
 21
422.6387919313147
 31
0.0
  0
LINE
  5
304
102
{ACAD_REACTORS
330
521
102
}
330
1F
100
AcDbEntity
  8
実線
100
AcDbLine
 10
943.2694731994695
 20
422.6387919313147
 30
0.0
 11
977.2391902273664
 21
422.6387919313147
 31
0.0
  0
LINE
  5
305
102
{ACAD_REACTORS
330
521
102
}
330
1F
100
AcDbEntity
  8
実線
100
AcDbLine
 10
943.2694731994695
 20
422.6387919313147
 30
0.0
 11
943.2694731994695
 21
405.6387919313148
 31
0.0
  0
LINE
  5
306
102
{ACAD_REACTORS
330
521
102
}
330
1F
100
AcDbEntity
  8
実線
100
AcDbLine
 10
1030.859134527249
 20
405.6387919313148
 30
0.0
 11
1030.859134527249
 21
422.6387919313147
 31
0.0
  0
LINE
  5
307
102
{ACAD_REACTORS
330
521
102
}
330
1F
100
AcDbEntity
  8
実線
100
AcDbLine
 10
977.2391902273664
 20
405.6387919313148
 30
0.0
 11
977.2391902273664
 21
422.6387919313147
 31
0.0
  0
LINE
  5
308
102
{ACAD_REACTORS
330
521
102
}
330
1F
100
AcDbEntity
  8
実線
100
AcDbLine
 10
943.0491623773084
 20
749.1387919313146
 30
0.0
 11
943.0491623773084
 21
751.1387919313145
 31
0.0
  0
LINE
  5
309
102
{ACAD_REACTORS
330
521
102
}
330
1F
100
AcDbEntity
  8
実線
100
AcDbLine
 10
978.0491623773084
 20
749.1387919313146
 30
0.0
 11
978.0491623773084
 21
751.1387919313145
 31
0.0
  0
LINE
  5
30A
102
{ACAD_REACTORS
330
521
102
}
330
1F
100
AcDbEntity
  8
実線
100
AcDbLine
 10
949.5491623773075
 20
751.1387919313145
 30
0.0
 11
943.0491623773084
 21
751.1387919313145
 31
0.0
  0
LINE
  5
30B
102
{ACAD_REACTORS
330
521
102
}
330
1F
100
AcDbEntity
  8
実線
100
AcDbLine
 10
978.0491623773084
 20
751.1387919313145
 30
0.0
 11
975.5491623773083
 21
751.1387919313145
 31
0.0
  0
LINE
  5
30C
102
{ACAD_REACTORS
330
522
102
}
330
1F
100
AcDbEntity
  8
実線
100
AcDbLine
 10
699.5491623773184
 20
836.6387919313147
 30
0.0
 11
684.0491623773194
 21
836.6387919313147
 31
0.0
  0
LINE
  5
30D
102
{ACAD_REACTORS
330
522
102
}
330
1F
100
AcDbEntity
  8
実線
100
AcDbLine
 10
684.0491623773194
 20
826.6387919313148
 30
0.0
 11
699.5491623773184
 21
826.6387919313148
 31
0.0
  0
LINE
  5
30E
102
{ACAD_REACTORS
330
522
102
}
330
1F
100
AcDbEntity
  8
実線
100
AcDbLine
 10
684.0491623773194
 20
836.6387919313147
 30
0.0
 11
684.0491623773194
 21
826.6387919313148
 31
0.0
  0
LINE
  5
30F
102
{ACAD_REACTORS
330
522
102
}
330
1F
100
AcDbEntity
  8
実線
100
AcDbLine
 10
691.0491623773193
 20
819.6387919313147
 30
0.0
 11
699.5491623773184
 21
819.6387919313147
 31
0.0
  0
LINE
  5
310
102
{ACAD_REACTORS
330
522
102
}
330
1F
100
AcDbEntity
  8
実線
100
AcDbLine
 10
691.0491623773193
 20
826.6387919313148
 30
0.0
 11
691.0491623773193
 21
819.6387919313147
 31
0.0
  0
LINE
  5
311
102
{ACAD_REACTORS
330
522
102
}
330
1F
100
AcDbEntity
  8
実線
100
AcDbLine
 10
731.0491623773193
 20
849.1387919313147
 30
0.0
 11
699.5491623773184
 21
849.1387919313147
 31
0.0
  0
LINE
  5
312
102
{ACAD_REACTORS
330
522
102
}
330
1F
100
AcDbEntity
  8
実線
100
AcDbLine
 10
699.5491623773184
 20
794.1387919313148
 30
0.0
 11
699.5491623773184
 21
849.1387919313147
 31
0.0
  0
LINE
  5
313
102
{ACAD_REACTORS
330
522
102
}
330
1F
100
AcDbEntity
  8
実線
100
AcDbLine
 10
699.5491623773184
 20
794.1387919313148
 30
0.0
 11
731.0491623773193
 21
794.1387919313148
 31
0.0
  0
LINE
  5
314
102
{ACAD_REACTORS
330
522
102
}
330
1F
100
AcDbEntity
  8
実線
100
AcDbLine
 10
733.0491623773193
 20
849.1387919313147
 30
0.0
 11
731.0491623773193
 21
849.1387919313147
 31
0.0
  0
LINE
  5
315
102
{ACAD_REACTORS
330
522
102
}
330
1F
100
AcDbEntity
  8
実線
100
AcDbLine
 10
733.0491623773193
 20
749.1387919313146
 30
0.0
 11
733.0491623773193
 21
849.1387919313147
 31
0.0
  0
LINE
  5
316
102
{ACAD_REACTORS
330
522
102
}
330
1F
100
AcDbEntity
  8
実線
100
AcDbLine
 10
731.0491623773193
 20
751.1387919313145
 30
0.0
 11
731.0491623773193
 21
849.1387919313147
 31
0.0
  0
LINE
  5
317
102
{ACAD_REACTORS
330
522
102
}
330
1F
100
AcDbEntity
  8
実線
100
AcDbLine
 10
781.5491623773184
 20
672.1387919313148
 30
0.0
 11
626.5491623773185
 21
672.1387919313148
 31
0.0
  0
LINE
  5
318
102
{ACAD_REACTORS
330
522
102
}
330
1F
100
AcDbEntity
  8
実線
100
AcDbLine
 10
626.5491623773185
 20
663.1387919313148
 30
0.0
 11
781.5491623773184
 21
663.1387919313148
 31
0.0
  0
LINE
  5
319
102
{ACAD_REACTORS
330
522
102
}
330
1F
100
AcDbEntity
  8
実線
100
AcDbLine
 10
781.5491623773184
 20
663.1387919313148
 30
0.0
 11
781.5491623773184
 21
672.1387919313148
 31
0.0
  0
LINE
  5
31A
102
{ACAD_REACTORS
330
522
102
}
330
1F
100
AcDbEntity
  8
実線
100
AcDbLine
 10
626.5491623773185
 20
672.1387919313148
 30
0.0
 11
626.5491623773185
 21
663.1387919313148
 31
0.0
  0
LINE
  5
31B
102
{ACAD_REACTORS
330
522
102
}
330
1F
100
AcDbEntity
  8
実線
100
AcDbLine
 10
721.3491623773184
 20
773.1387919313146
 30
0.0
 11
721.3491623773184
 21
785.1387919313148
 31
0.0
  0
LINE
  5
31C
102
{ACAD_REACTORS
330
522
102
}
330
1F
100
AcDbEntity
  8
実線
100
AcDbLine
 10
686.7491623773185
 20
785.1387919313148
 30
0.0
 11
686.7491623773185
 21
773.1387919313146
 31
0.0
  0
LINE
  5
31D
102
{ACAD_REACTORS
330
522
102
}
330
1F
100
AcDbEntity
  8
実線
100
AcDbLine
 10
686.7491623773185
 20
785.1387919313148
 30
0.0
 11
721.3491623773184
 21
785.1387919313148
 31
0.0
  0
LINE
  5
31E
102
{ACAD_REACTORS
330
522
102
}
330
1F
100
AcDbEntity
  8
実線
100
AcDbLine
 10
699.5491623773184
 20
797.1387919313148
 30
0.0
 11
686.7491623773185
 21
797.1387919313148
 31
0.0
  0
LINE
  5
31F
102
{ACAD_REACTORS
330
522
102
}
330
1F
100
AcDbEntity
  8
実線
100
AcDbLine
 10
721.3491623773184
 20
785.1387919313148
 30
0.0
 11
721.3491623773184
 21
794.1387919313148
 31
0.0
  0
LINE
  5
320
102
{ACAD_REACTORS
330
522
102
}
330
1F
100
AcDbEntity
  8
実線
100
AcDbLine
 10
686.7491623773185
 20
797.1387919313148
 30
0.0
 11
686.7491623773185
 21
785.1387919313148
 31
0.0
  0
LINE
  5
321
102
{ACAD_REACTORS
330
522
102
}
330
1F
100
AcDbEntity
  8
実線
100
AcDbLine
 10
694.0491623773193
 20
819.6387919313147
 30
0.0
 11
694.0491623773193
 21
797.1387919313148
 31
0.0
  0
LINE
  5
322
102
{ACAD_REACTORS
330
522
102
}
330
1F
100
AcDbEntity
  8
実線
100
AcDbLine
 10
735.7991623773084
 20
322.7387919313148
 30
0.0
 11
735.7991623773084
 21
329.1387919313148
 31
0.0
  0
LINE
  5
323
102
{ACAD_REACTORS
330
522
102
}
330
1F
100
AcDbEntity
  8
実線
100
AcDbLine
 10
672.2991623773084
 20
329.1387919313148
 30
0.0
 11
672.2991623773084
 21
322.7387919313148
 31
0.0
  0
LINE
  5
324
102
{ACAD_REACTORS
330
522
102
}
330
1F
100
AcDbEntity
  8
実線
100
AcDbLine
 10
742.7991623773084
 20
316.1387919313146
 30
0.0
 11
665.2991623773084
 21
316.1387919313146
 31
0.0
  0
LINE
  5
325
102
{ACAD_REACTORS
330
522
102
}
330
1F
100
AcDbEntity
  8
実線
100
AcDbLine
 10
742.7991623773084
 20
316.1387919313146
 30
0.0
 11
742.7991623773084
 21
319.6387919313146
 31
0.0
  0
LINE
  5
326
102
{ACAD_REACTORS
330
522
102
}
330
1F
100
AcDbEntity
  8
実線
100
AcDbLine
 10
665.2991623773084
 20
319.6387919313146
 30
0.0
 11
665.2991623773084
 21
316.1387919313146
 31
0.0
  0
LINE
  5
327
102
{ACAD_REACTORS
330
522
102
}
330
1F
100
AcDbEntity
  8
実線
100
AcDbLine
 10
742.7991623773084
 20
319.6387919313146
 30
0.0
 11
665.2991623773084
 21
319.6387919313146
 31
0.0
  0
LINE
  5
328
102
{ACAD_REACTORS
330
522
102
}
330
1F
100
AcDbEntity
  8
実線
100
AcDbLine
 10
735.7991623773084
 20
322.7387919313148
 30
0.0
 11
672.2991623773084
 21
322.7387919313148
 31
0.0
  0
LINE
  5
329
102
{ACAD_REACTORS
330
522
102
}
330
1F
100
AcDbEntity
  8
実線
100
AcDbLine
 10
672.2991623773084
 20
322.7387919313148
 30
0.0
 11
665.2991623773084
 21
319.6387919313146
 31
0.0
  0
LINE
  5
32A
102
{ACAD_REACTORS
330
522
102
}
330
1F
100
AcDbEntity
  8
実線
100
AcDbLine
 10
742.7991623773084
 20
319.6387919313146
 30
0.0
 11
735.7991623773084
 21
322.7387919313148
 31
0.0
  0
LINE
  5
32B
102
{ACAD_REACTORS
330
522
102
}
330
1F
100
AcDbEntity
  8
実線
100
AcDbLine
 10
649.0491623773193
 20
425.6387919313148
 30
0.0
 11
759.0491623773194
 21
425.6387919313148
 31
0.0
  0
LINE
  5
32C
102
{ACAD_REACTORS
330
522
102
}
330
1F
100
AcDbEntity
  8
実線
100
AcDbLine
 10
759.0491623773194
 20
425.6387919313148
 30
0.0
 11
759.0491623773194
 21
663.1387919313148
 31
0.0
  0
LINE
  5
32D
102
{ACAD_REACTORS
330
522
102
}
330
1F
100
AcDbEntity
  8
実線
100
AcDbLine
 10
649.0491623773193
 20
663.1387919313148
 30
0.0
 11
649.0491623773193
 21
425.6387919313148
 31
0.0
  0
LINE
  5
32E
102
{ACAD_REACTORS
330
522
102
}
330
1F
100
AcDbEntity
  8
実線
100
AcDbLine
 10
724.0491623773193
 20
773.1387919313147
 30
0.0
 11
684.0491623773194
 21
773.1387919313147
 31
0.0
  0
LINE
  5
32F
102
{ACAD_REACTORS
330
522
102
}
330
1F
100
AcDbEntity
  8
実線
100
AcDbLine
 10
724.0491623773193
 20
751.1387919313145
 30
0.0
 11
724.0491623773193
 21
773.1387919313146
 31
0.0
  0
LINE
  5
330
102
{ACAD_REACTORS
330
522
102
}
330
1F
100
AcDbEntity
  8
実線
100
AcDbLine
 10
684.0491623773194
 20
773.1387919313147
 30
0.0
 11
684.0491623773194
 21
749.1387919313151
 31
0.0
  0
LINE
  5
331
102
{ACAD_REACTORS
330
522
102
}
330
1F
100
AcDbEntity
  8
実線
100
AcDbLine
 10
781.5491623773184
 20
744.1387919313148
 30
0.0
 11
626.5491623773185
 21
744.1387919313148
 31
0.0
  0
LINE
  5
332
102
{ACAD_REACTORS
330
522
102
}
330
1F
100
AcDbEntity
  8
実線
100
AcDbLine
 10
781.5491623773184
 20
672.1387919313148
 30
0.0
 11
781.5491623773184
 21
744.1387919313148
 31
0.0
  0
LINE
  5
333
102
{ACAD_REACTORS
330
522
102
}
330
1F
100
AcDbEntity
  8
実線
100
AcDbLine
 10
626.5491623773185
 20
744.1387919313148
 30
0.0
 11
626.5491623773185
 21
672.1387919313148
 31
0.0
  0
LINE
  5
334
102
{ACAD_REACTORS
330
522
102
}
330
1F
100
AcDbEntity
  8
実線
100
AcDbLine
 10
776.5491623773185
 20
749.1387919313146
 30
0.0
 11
631.5491623773193
 21
749.1387919313146
 31
0.0
  0
ARC
  5
335
102
{ACAD_REACTORS
330
522
102
}
330
1F
100
AcDbEntity
  8
実線
100
AcDbCircle
 10
776.5491623773185
 20
744.1387919313148
 30
0.0
 40
5.0
100
AcDbArc
 50
0.0
 51
90.0
  0
ARC
  5
336
102
{ACAD_REACTORS
330
522
102
}
330
1F
100
AcDbEntity
  8
実線
100
AcDbCircle
 10
631.5491623773193
 20
744.1387919313148
 30
0.0
 40
5.0
100
AcDbArc
 50
90.0
 51
180.0
  0
LINE
  5
337
102
{ACAD_REACTORS
330
522
102
}
330
1F
100
AcDbEntity
  8
実線
100
AcDbLine
 10
643.2694731994695
 20
405.6387919313148
 30
0.0
 11
764.8288515551473
 21
405.6387919313148
 31
0.0
  0
LINE
  5
338
102
{ACAD_REACTORS
330
522
102
}
330
1F
100
AcDbEntity
  8
実線
100
AcDbLine
 10
759.0491623773084
 20
345.1387919313146
 30
0.0
 11
759.0491623773084
 21
390.6387919313147
 31
0.0
  0
LINE
  5
339
102
{ACAD_REACTORS
330
522
102
}
330
1F
100
AcDbEntity
  8
実線
100
AcDbLine
 10
649.0491623773084
 20
390.6387919313147
 30
0.0
 11
649.0491623773084
 21
345.1387919313146
 31
0.0
  0
LINE
  5
33A
102
{ACAD_REACTORS
330
522
102
}
330
1F
100
AcDbEntity
  8
実線
100
AcDbLine
 10
743.0491623773084
 20
329.1387919313148
 30
0.0
 11
665.0491623773084
 21
329.1387919313148
 31
0.0
  0
ARC
  5
33B
102
{ACAD_REACTORS
330
522
102
}
330
1F
100
AcDbEntity
  8
実線
100
AcDbCircle
 10
665.0491623773084
 20
345.1387919313146
 30
0.0
 40
16.0
100
AcDbArc
 50
180.0
 51
270.0
  0
ARC
  5
33C
102
{ACAD_REACTORS
330
522
102
}
330
1F
100
AcDbEntity
  8
実線
100
AcDbCircle
 10
743.0491623773084
 20
345.1387919313146
 30
0.0
 40
16.0
100
AcDbArc
 50
270.0
 51
0.0
  0
LINE
  5
33D
102
{ACAD_REACTORS
330
522
102
}
330
1F
100
AcDbEntity
  8
実線
100
AcDbLine
 10
764.8288515551473
 20
390.6387919313147
 30
0.0
 11
764.8288515551473
 21
405.6387919313148
 31
0.0
  0
LINE
  5
33E
102
{ACAD_REACTORS
330
522
102
}
330
1F
100
AcDbEntity
  8
実線
100
AcDbLine
 10
764.8288515551473
 20
390.6387919313147
 30
0.0
 11
730.8591345272493
 21
390.6387919313147
 31
0.0
  0
LINE
  5
33F
102
{ACAD_REACTORS
330
522
102
}
330
1F
100
AcDbEntity
  8
実線
100
AcDbLine
 10
643.2694731994695
 20
390.6387919313147
 30
0.0
 11
677.2391902273682
 21
390.6387919313147
 31
0.0
  0
LINE
  5
340
102
{ACAD_REACTORS
330
522
102
}
330
1F
100
AcDbEntity
  8
実線
100
AcDbLine
 10
643.2694731994695
 20
405.6387919313148
 30
0.0
 11
643.2694731994695
 21
390.6387919313147
 31
0.0
  0
LINE
  5
341
102
{ACAD_REACTORS
330
522
102
}
330
1F
100
AcDbEntity
  8
実線
100
AcDbLine
 10
730.8591345272493
 20
390.6387919313147
 30
0.0
 11
730.8591345272493
 21
405.6387919313148
 31
0.0
  0
LINE
  5
342
102
{ACAD_REACTORS
330
522
102
}
330
1F
100
AcDbEntity
  8
実線
100
AcDbLine
 10
677.2391902273682
 20
390.6387919313147
 30
0.0
 11
677.2391902273682
 21
405.6387919313148
 31
0.0
  0
LINE
  5
343
102
{ACAD_REACTORS
330
522
102
}
330
1F
100
AcDbEntity
  8
実線
100
AcDbLine
 10
759.0491623773194
 20
422.6387919313147
 30
0.0
 11
759.0491623773194
 21
425.6387919313148
 31
0.0
  0
LINE
  5
344
102
{ACAD_REACTORS
330
522
102
}
330
1F
100
AcDbEntity
  8
実線
100
AcDbLine
 10
649.0491623773193
 20
425.6387919313148
 30
0.0
 11
649.0491623773193
 21
422.6387919313147
 31
0.0
  0
LINE
  5
345
102
{ACAD_REACTORS
330
522
102
}
330
1F
100
AcDbEntity
  8
実線
100
AcDbLine
 10
764.8288515551585
 20
405.6387919313148
 30
0.0
 11
764.8288515551585
 21
422.6387919313147
 31
0.0
  0
LINE
  5
346
102
{ACAD_REACTORS
330
522
102
}
330
1F
100
AcDbEntity
  8
実線
100
AcDbLine
 10
764.8288515551585
 20
422.6387919313147
 30
0.0
 11
730.8591345272593
 21
422.6387919313147
 31
0.0
  0
LINE
  5
347
102
{ACAD_REACTORS
330
522
102
}
330
1F
100
AcDbEntity
  8
実線
100
AcDbLine
 10
643.2694731994793
 20
422.6387919313147
 30
0.0
 11
677.2391902273784
 21
422.6387919313147
 31
0.0
  0
LINE
  5
348
102
{ACAD_REACTORS
330
522
102
}
330
1F
100
AcDbEntity
  8
実線
100
AcDbLine
 10
643.2694731994793
 20
422.6387919313147
 30
0.0
 11
643.2694731994793
 21
405.6387919313148
 31
0.0
  0
LINE
  5
349
102
{ACAD_REACTORS
330
522
102
}
330
1F
100
AcDbEntity
  8
実線
100
AcDbLine
 10
730.8591345272593
 20
405.6387919313148
 30
0.0
 11
730.8591345272593
 21
422.6387919313147
 31
0.0
  0
LINE
  5
34A
102
{ACAD_REACTORS
330
522
102
}
330
1F
100
AcDbEntity
  8
実線
100
AcDbLine
 10
677.2391902273784
 20
405.6387919313148
 30
0.0
 11
677.2391902273784
 21
422.6387919313147
 31
0.0
  0
LINE
  5
34B
102
{ACAD_REACTORS
330
522
102
}
330
1F
100
AcDbEntity
  8
実線
100
AcDbLine
 10
731.0491623773193
 20
749.1387919313146
 30
0.0
 11
731.0491623773193
 21
751.1387919313145
 31
0.0
  0
LINE
  5
34C
102
{ACAD_REACTORS
330
522
102
}
330
1F
100
AcDbEntity
  8
実線
100
AcDbLine
 10
714.0491623773185
 20
749.1387919313146
 30
0.0
 11
714.0491623773185
 21
751.1387919313145
 31
0.0
  0
LINE
  5
34D
102
{ACAD_REACTORS
330
522
102
}
330
1F
100
AcDbEntity
  8
実線
100
AcDbLine
 10
731.0491623773193
 20
751.1387919313145
 30
0.0
 11
714.0491623773185
 21
751.1387919313145
 31
0.0
  0
LINE
  5
34E
102
{ACAD_REACTORS
330
524
102
}
330
1F
100
AcDbEntity
  8
実線
100
AcDbLine
 10
124.0491623772989
 20
826.6387919313148
 30
0.0
 11
124.0491623772989
 21
836.6387919313147
 31
0.0
  0
LINE
  5
34F
102
{ACAD_REACTORS
330
524
102
}
330
1F
100
AcDbEntity
  8
実線
100
AcDbLine
 10
84.04916237729873
 20
836.6387919313147
 30
0.0
 11
84.04916237729873
 21
826.6387919313148
 31
0.0
  0
LINE
  5
350
102
{ACAD_REACTORS
330
524
102
}
330
1F
100
AcDbEntity
  8
実線
100
AcDbLine
 10
124.0491623772989
 20
836.6387919313147
 30
0.0
 11
84.04916237729873
 21
836.6387919313147
 31
0.0
  0
LINE
  5
351
102
{ACAD_REACTORS
330
524
102
}
330
1F
100
AcDbEntity
  8
実線
100
AcDbLine
 10
84.04916237729873
 20
826.6387919313148
 30
0.0
 11
124.0491623772989
 21
826.6387919313148
 31
0.0
  0
LINE
  5
352
102
{ACAD_REACTORS
330
524
102
}
330
1F
100
AcDbEntity
  8
実線
100
AcDbLine
 10
117.0491623772988
 20
819.6387919313147
 30
0.0
 11
117.0491623772988
 21
826.6387919313148
 31
0.0
  0
LINE
  5
353
102
{ACAD_REACTORS
330
524
102
}
330
1F
100
AcDbEntity
  8
実線
100
AcDbLine
 10
91.04916237729872
 20
826.6387919313148
 30
0.0
 11
91.04916237729872
 21
819.6387919313147
 31
0.0
  0
LINE
  5
354
102
{ACAD_REACTORS
330
524
102
}
330
1F
100
AcDbEntity
  8
実線
100
AcDbLine
 10
91.04916237729872
 20
819.6387919313147
 30
0.0
 11
117.0491623772988
 21
819.6387919313147
 31
0.0
  0
LINE
  5
355
102
{ACAD_REACTORS
330
524
102
}
330
1F
100
AcDbEntity
  8
実線
100
AcDbLine
 10
83.54916237729872
 20
838.5387919313149
 30
0.0
 11
77.04916237729889
 21
838.5387919313149
 31
0.0
  0
LINE
  5
356
102
{ACAD_REACTORS
330
524
102
}
330
1F
100
AcDbEntity
  8
実線
100
AcDbLine
 10
77.04916237729889
 20
835.5387919313148
 30
0.0
 11
83.54916237729872
 21
835.5387919313148
 31
0.0
  0
LINE
  5
357
102
{ACAD_REACTORS
330
524
102
}
330
1F
100
AcDbEntity
  8
実線
100
AcDbLine
 10
77.04916237729889
 20
838.5387919313149
 30
0.0
 11
77.04916237729889
 21
835.5387919313148
 31
0.0
  0
LINE
  5
358
102
{ACAD_REACTORS
330
524
102
}
330
1F
100
AcDbEntity
  8
実線
100
AcDbLine
 10
108.5491623772988
 20
836.6387919313147
 30
0.0
 11
108.5491623772988
 21
840.9887919313149
 31
0.0
  0
LINE
  5
359
102
{ACAD_REACTORS
330
524
102
}
330
1F
100
AcDbEntity
  8
実線
100
AcDbLine
 10
84.04916237729873
 20
833.0887919313148
 30
0.0
 11
83.54916237729872
 21
833.0887919313148
 31
0.0
  0
LINE
  5
35A
102
{ACAD_REACTORS
330
524
102
}
330
1F
100
AcDbEntity
  8
実線
100
AcDbLine
 10
108.5491623772988
 20
840.9887919313149
 30
0.0
 11
83.54916237729872
 21
840.9887919313149
 31
0.0
  0
LINE
  5
35B
102
{ACAD_REACTORS
330
524
102
}
330
1F
100
AcDbEntity
  8
実線
100
AcDbLine
 10
83.54916237729872
 20
840.9887919313149
 30
0.0
 11
83.54916237729872
 21
833.0887919313148
 31
0.0
  0
LINE
  5
35C
102
{ACAD_REACTORS
330
524
102
}
330
1F
100
AcDbEntity
  8
実線
100
AcDbLine
 10
108.5491623772988
 20
840.9887919313149
 30
0.0
 11
108.5491623772988
 21
849.1387919313147
 31
0.0
  0
LINE
  5
35D
102
{ACAD_REACTORS
330
524
102
}
330
1F
100
AcDbEntity
  8
実線
100
AcDbLine
 10
77.04916237729872
 20
838.5387919313149
 30
0.0
 11
77.04916237729872
 21
849.1387919313147
 31
0.0
  0
LINE
  5
35E
102
{ACAD_REACTORS
330
524
102
}
330
1F
100
AcDbEntity
  8
実線
100
AcDbLine
 10
108.5491623772988
 20
849.1387919313147
 30
0.0
 11
77.04916237729872
 21
849.1387919313147
 31
0.0
  0
LINE
  5
35F
102
{ACAD_REACTORS
330
524
102
}
330
1F
100
AcDbEntity
  8
実線
100
AcDbLine
 10
77.04916237729867
 20
794.1387919313148
 30
0.0
 11
86.74916237729878
 21
794.1387919313148
 31
0.0
  0
LINE
  5
360
102
{ACAD_REACTORS
330
524
102
}
330
1F
100
AcDbEntity
  8
実線
100
AcDbLine
 10
83.54916237729872
 20
812.9387919313149
 30
0.0
 11
77.04916237729889
 21
812.9387919313149
 31
0.0
  0
LINE
  5
361
102
{ACAD_REACTORS
330
524
102
}
330
1F
100
AcDbEntity
  8
実線
100
AcDbLine
 10
77.04916237729889
 20
809.9387919313148
 30
0.0
 11
83.54916237729872
 21
809.9387919313148
 31
0.0
  0
LINE
  5
362
102
{ACAD_REACTORS
330
524
102
}
330
1F
100
AcDbEntity
  8
実線
100
AcDbLine
 10
77.04916237729889
 20
812.9387919313149
 30
0.0
 11
77.04916237729889
 21
809.9387919313148
 31
0.0
  0
LINE
  5
363
102
{ACAD_REACTORS
330
524
102
}
330
1F
100
AcDbEntity
  8
実線
100
AcDbLine
 10
94.04916237729873
 20
815.3887919313147
 30
0.0
 11
83.54916237729872
 21
815.3887919313147
 31
0.0
  0
LINE
  5
364
102
{ACAD_REACTORS
330
524
102
}
330
1F
100
AcDbEntity
  8
実線
100
AcDbLine
 10
83.54916237729872
 20
815.3887919313147
 30
0.0
 11
83.54916237729872
 21
807.4887919313148
 31
0.0
  0
LINE
  5
365
102
{ACAD_REACTORS
330
524
102
}
330
1F
100
AcDbEntity
  8
実線
100
AcDbLine
 10
94.04916237729873
 20
807.4887919313148
 30
0.0
 11
83.54916237729872
 21
807.4887919313148
 31
0.0
  0
LINE
  5
366
102
{ACAD_REACTORS
330
524
102
}
330
1F
100
AcDbEntity
  8
実線
100
AcDbLine
 10
75.04916237729872
 20
749.1387919313146
 30
0.0
 11
75.04916237729872
 21
849.1387919313147
 31
0.0
  0
LINE
  5
367
102
{ACAD_REACTORS
330
524
102
}
330
1F
100
AcDbEntity
  8
実線
100
AcDbLine
 10
77.04916237729872
 20
812.9387919313149
 30
0.0
 11
77.04916237729872
 21
835.5387919313148
 31
0.0
  0
LINE
  5
368
102
{ACAD_REACTORS
330
524
102
}
330
1F
100
AcDbEntity
  8
実線
100
AcDbLine
 10
77.04916237729872
 20
809.9387919313148
 30
0.0
 11
77.04916237729872
 21
751.1387919313145
 31
0.0
  0
LINE
  5
369
102
{ACAD_REACTORS
330
524
102
}
330
1F
100
AcDbEntity
  8
実線
100
AcDbLine
 10
77.04916237729872
 20
849.1387919313147
 30
0.0
 11
75.04916237729872
 21
849.1387919313147
 31
0.0
  0
LINE
  5
36A
102
{ACAD_REACTORS
330
524
102
}
330
1F
100
AcDbEntity
  8
実線
100
AcDbLine
 10
181.5491623772989
 20
663.1387919313148
 30
0.0
 11
181.5491623772989
 21
672.1387919313148
 31
0.0
  0
LINE
  5
36B
102
{ACAD_REACTORS
330
524
102
}
330
1F
100
AcDbEntity
  8
実線
100
AcDbLine
 10
26.54916237729873
 20
672.1387919313148
 30
0.0
 11
26.54916237729873
 21
663.1387919313148
 31
0.0
  0
LINE
  5
36C
102
{ACAD_REACTORS
330
524
102
}
330
1F
100
AcDbEntity
  8
実線
100
AcDbLine
 10
181.5491623772989
 20
672.1387919313148
 30
0.0
 11
26.54916237729873
 21
672.1387919313148
 31
0.0
  0
LINE
  5
36D
102
{ACAD_REACTORS
330
524
102
}
330
1F
100
AcDbEntity
  8
実線
100
AcDbLine
 10
181.5491623772989
 20
663.1387919313148
 30
0.0
 11
26.54916237729873
 21
663.1387919313148
 31
0.0
  0
LINE
  5
36E
102
{ACAD_REACTORS
330
524
102
}
330
1F
100
AcDbEntity
  8
実線
100
AcDbLine
 10
121.3491623772987
 20
773.1387919313146
 30
0.0
 11
121.3491623772987
 21
785.1387919313148
 31
0.0
  0
LINE
  5
36F
102
{ACAD_REACTORS
330
524
102
}
330
1F
100
AcDbEntity
  8
実線
100
AcDbLine
 10
86.74916237729878
 20
785.1387919313148
 30
0.0
 11
86.74916237729878
 21
773.1387919313146
 31
0.0
  0
LINE
  5
370
102
{ACAD_REACTORS
330
524
102
}
330
1F
100
AcDbEntity
  8
実線
100
AcDbLine
 10
121.3491623772987
 20
785.1387919313148
 30
0.0
 11
86.74916237729878
 21
785.1387919313148
 31
0.0
  0
LINE
  5
371
102
{ACAD_REACTORS
330
524
102
}
330
1F
100
AcDbEntity
  8
実線
100
AcDbLine
 10
121.3491623772987
 20
785.1387919313148
 30
0.0
 11
121.3491623772987
 21
797.1387919313148
 31
0.0
  0
LINE
  5
372
102
{ACAD_REACTORS
330
524
102
}
330
1F
100
AcDbEntity
  8
実線
100
AcDbLine
 10
86.74916237729878
 20
797.1387919313148
 30
0.0
 11
86.74916237729878
 21
785.1387919313148
 31
0.0
  0
LINE
  5
373
102
{ACAD_REACTORS
330
524
102
}
330
1F
100
AcDbEntity
  8
実線
100
AcDbLine
 10
121.3491623772987
 20
797.1387919313148
 30
0.0
 11
86.74916237729878
 21
797.1387919313148
 31
0.0
  0
LINE
  5
374
102
{ACAD_REACTORS
330
524
102
}
330
1F
100
AcDbEntity
  8
実線
100
AcDbLine
 10
114.0491623772989
 20
797.1387919313148
 30
0.0
 11
114.0491623772989
 21
819.6387919313147
 31
0.0
  0
LINE
  5
375
102
{ACAD_REACTORS
330
524
102
}
330
1F
100
AcDbEntity
  8
実線
100
AcDbLine
 10
94.04916237729873
 20
819.6387919313147
 30
0.0
 11
94.04916237729873
 21
797.1387919313148
 31
0.0
  0
LINE
  5
376
102
{ACAD_REACTORS
330
524
102
}
330
1F
100
AcDbEntity
  8
実線
100
AcDbLine
 10
135.7991623773089
 20
322.7387919313148
 30
0.0
 11
135.7991623773089
 21
329.1387919313148
 31
0.0
  0
LINE
  5
377
102
{ACAD_REACTORS
330
524
102
}
330
1F
100
AcDbEntity
  8
実線
100
AcDbLine
 10
72.29916237730908
 20
329.1387919313148
 30
0.0
 11
72.29916237730908
 21
322.7387919313148
 31
0.0
  0
LINE
  5
378
102
{ACAD_REACTORS
330
524
102
}
330
1F
100
AcDbEntity
  8
実線
100
AcDbLine
 10
72.29916237730908
 20
322.7387919313148
 30
0.0
 11
65.29916237730891
 21
319.6387919313146
 31
0.0
  0
LINE
  5
379
102
{ACAD_REACTORS
330
524
102
}
330
1F
100
AcDbEntity
  8
実線
100
AcDbLine
 10
142.7991623773089
 20
319.6387919313146
 30
0.0
 11
135.7991623773089
 21
322.7387919313148
 31
0.0
  0
LINE
  5
37A
102
{ACAD_REACTORS
330
524
102
}
330
1F
100
AcDbEntity
  8
実線
100
AcDbLine
 10
72.29916237730908
 20
322.7387919313148
 30
0.0
 11
135.7991623773089
 21
322.7387919313148
 31
0.0
  0
LINE
  5
37B
102
{ACAD_REACTORS
330
524
102
}
330
1F
100
AcDbEntity
  8
実線
100
AcDbLine
 10
142.7991623773089
 20
316.1387919313146
 30
0.0
 11
142.7991623773089
 21
319.6387919313146
 31
0.0
  0
LINE
  5
37C
102
{ACAD_REACTORS
330
524
102
}
330
1F
100
AcDbEntity
  8
実線
100
AcDbLine
 10
65.29916237730891
 20
319.6387919313146
 30
0.0
 11
65.29916237730891
 21
316.1387919313146
 31
0.0
  0
LINE
  5
37D
102
{ACAD_REACTORS
330
524
102
}
330
1F
100
AcDbEntity
  8
実線
100
AcDbLine
 10
65.29916237730891
 20
316.1387919313146
 30
0.0
 11
142.7991623773089
 21
316.1387919313146
 31
0.0
  0
LINE
  5
37E
102
{ACAD_REACTORS
330
524
102
}
330
1F
100
AcDbEntity
  8
実線
100
AcDbLine
 10
65.29916237730891
 20
319.6387919313146
 30
0.0
 11
142.7991623773089
 21
319.6387919313146
 31
0.0
  0
CIRCLE
  5
37F
102
{ACAD_REACTORS
330
524
102
}
330
1F
100
AcDbEntity
  8
実線
100
AcDbCircle
 10
104.0491623773089
 20
365.1387919313146
 30
0.0
 40
38.75
  0
LINE
  5
380
102
{ACAD_REACTORS
330
524
102
}
330
1F
100
AcDbEntity
  8
実線
100
AcDbLine
 10
159.0491623772989
 20
425.6387919313148
 30
0.0
 11
159.0491623772989
 21
663.1387919313148
 31
0.0
  0
LINE
  5
381
102
{ACAD_REACTORS
330
524
102
}
330
1F
100
AcDbEntity
  8
実線
100
AcDbLine
 10
49.0491623772989
 20
663.1387919313148
 30
0.0
 11
49.0491623772989
 21
425.6387919313148
 31
0.0
  0
LINE
  5
382
102
{ACAD_REACTORS
330
524
102
}
330
1F
100
AcDbEntity
  8
実線
100
AcDbLine
 10
49.0491623772989
 20
425.6387919313148
 30
0.0
 11
159.0491623772989
 21
425.6387919313148
 31
0.0
  0
LINE
  5
383
102
{ACAD_REACTORS
330
524
102
}
330
1F
100
AcDbEntity
  8
実線
100
AcDbLine
 10
124.0491623772989
 20
749.1387919313146
 30
0.0
 11
124.0491623772989
 21
773.1387919313146
 31
0.0
  0
LINE
  5
384
102
{ACAD_REACTORS
330
524
102
}
330
1F
100
AcDbEntity
  8
実線
100
AcDbLine
 10
84.04916237729873
 20
773.1387919313147
 30
0.0
 11
84.04916237729873
 21
749.1387919313151
 31
0.0
  0
LINE
  5
385
102
{ACAD_REACTORS
330
524
102
}
330
1F
100
AcDbEntity
  8
実線
100
AcDbLine
 10
124.0491623772989
 20
773.1387919313147
 30
0.0
 11
84.04916237729873
 21
773.1387919313147
 31
0.0
  0
LINE
  5
386
102
{ACAD_REACTORS
330
524
102
}
330
1F
100
AcDbEntity
  8
実線
100
AcDbLine
 10
181.5491623772989
 20
672.1387919313148
 30
0.0
 11
181.5491623772989
 21
744.1387919313148
 31
0.0
  0
LINE
  5
387
102
{ACAD_REACTORS
330
524
102
}
330
1F
100
AcDbEntity
  8
実線
100
AcDbLine
 10
26.54916237729873
 20
744.1387919313148
 30
0.0
 11
26.54916237729873
 21
672.1387919313148
 31
0.0
  0
LINE
  5
388
102
{ACAD_REACTORS
330
524
102
}
330
1F
100
AcDbEntity
  8
実線
100
AcDbLine
 10
31.54916237729873
 20
749.1387919313146
 30
0.0
 11
176.5491623772989
 21
749.1387919313146
 31
0.0
  0
ARC
  5
389
102
{ACAD_REACTORS
330
524
102
}
330
1F
100
AcDbEntity
  8
実線
100
AcDbCircle
 10
176.5491623772989
 20
744.1387919313148
 30
0.0
 40
5.0
100
AcDbArc
 50
0.0
 51
90.0
  0
ARC
  5
38A
102
{ACAD_REACTORS
330
524
102
}
330
1F
100
AcDbEntity
  8
実線
100
AcDbCircle
 10
31.54916237729873
 20
744.1387919313148
 30
0.0
 40
5.0
100
AcDbArc
 50
90.0
 51
180.0
  0
LINE
  5
38B
102
{ACAD_REACTORS
330
524
102
}
330
1F
100
AcDbEntity
  8
実線
100
AcDbLine
 10
26.54916237729873
 20
744.1387919313148
 30
0.0
 11
181.5491623772989
 21
744.1387919313148
 31
0.0
  0
LINE
  5
38C
102
{ACAD_REACTORS
330
524
102
}
330
1F
100
AcDbEntity
  8
実線
100
AcDbLine
 10
43.26947319946998
 20
405.6387919313148
 30
0.0
 11
164.8288515551476
 21
405.6387919313148
 31
0.0
  0
LINE
  5
38D
102
{ACAD_REACTORS
330
524
102
}
330
1F
100
AcDbEntity
  8
実線
100
AcDbLine
 10
159.0491623773089
 20
345.1387919313146
 30
0.0
 11
159.0491623773089
 21
390.6387919313147
 31
0.0
  0
LINE
  5
38E
102
{ACAD_REACTORS
330
524
102
}
330
1F
100
AcDbEntity
  8
実線
100
AcDbLine
 10
49.04916237730891
 20
390.6387919313147
 30
0.0
 11
49.04916237730891
 21
345.1387919313146
 31
0.0
  0
LINE
  5
38F
102
{ACAD_REACTORS
330
524
102
}
330
1F
100
AcDbEntity
  8
実線
100
AcDbLine
 10
89.71171141836924
 20
329.1387919313148
 30
0.0
 11
65.0491623773089
 21
329.1387919313148
 31
0.0
  0
LINE
  5
390
102
{ACAD_REACTORS
330
524
102
}
330
1F
100
AcDbEntity
  8
実線
100
AcDbLine
 10
143.0491623773088
 20
329.1387919313148
 30
0.0
 11
118.3866133362486
 21
329.1387919313148
 31
0.0
  0
ARC
  5
391
102
{ACAD_REACTORS
330
524
102
}
330
1F
100
AcDbEntity
  8
実線
100
AcDbCircle
 10
65.0491623773089
 20
345.1387919313146
 30
0.0
 40
16.0
100
AcDbArc
 50
180.0
 51
270.0
  0
ARC
  5
392
102
{ACAD_REACTORS
330
524
102
}
330
1F
100
AcDbEntity
  8
実線
100
AcDbCircle
 10
143.0491623773088
 20
345.1387919313146
 30
0.0
 40
16.0
100
AcDbArc
 50
270.0
 51
0.0
  0
LINE
  5
393
102
{ACAD_REACTORS
330
524
102
}
330
1F
100
AcDbEntity
  8
実線
100
AcDbLine
 10
164.8288515551476
 20
390.6387919313147
 30
0.0
 11
164.8288515551476
 21
405.6387919313148
 31
0.0
  0
LINE
  5
394
102
{ACAD_REACTORS
330
524
102
}
330
1F
100
AcDbEntity
  8
実線
100
AcDbLine
 10
164.8288515551476
 20
390.6387919313147
 30
0.0
 11
133.2264223583286
 21
390.6387919313147
 31
0.0
  0
LINE
  5
395
102
{ACAD_REACTORS
330
524
102
}
330
1F
100
AcDbEntity
  8
実線
100
AcDbLine
 10
43.26947319946998
 20
390.6387919313147
 30
0.0
 11
74.87190239628955
 21
390.6387919313147
 31
0.0
  0
LINE
  5
396
102
{ACAD_REACTORS
330
524
102
}
330
1F
100
AcDbEntity
  8
実線
100
AcDbLine
 10
43.26947319946998
 20
405.6387919313148
 30
0.0
 11
43.26947319946998
 21
390.6387919313147
 31
0.0
  0
LINE
  5
397
102
{ACAD_REACTORS
330
524
102
}
330
1F
100
AcDbEntity
  8
実線
100
AcDbLine
 10
130.85913452725
 20
393.1171387966923
 30
0.0
 11
130.85913452725
 21
405.6387919313148
 31
0.0
  0
LINE
  5
398
102
{ACAD_REACTORS
330
524
102
}
330
1F
100
AcDbEntity
  8
実線
100
AcDbLine
 10
77.23919022736771
 20
393.1171387966923
 30
0.0
 11
77.23919022736771
 21
405.6387919313148
 31
0.0
  0
LINE
  5
399
102
{ACAD_REACTORS
330
524
102
}
330
1F
100
AcDbEntity
  8
実線
100
AcDbLine
 10
159.0491623772989
 20
422.6387919313147
 30
0.0
 11
159.0491623772989
 21
425.6387919313148
 31
0.0
  0
LINE
  5
39A
102
{ACAD_REACTORS
330
524
102
}
330
1F
100
AcDbEntity
  8
実線
100
AcDbLine
 10
49.0491623772989
 20
425.6387919313148
 30
0.0
 11
49.0491623772989
 21
422.6387919313147
 31
0.0
  0
LINE
  5
39B
102
{ACAD_REACTORS
330
524
102
}
330
1F
100
AcDbEntity
  8
実線
100
AcDbLine
 10
164.8288515551377
 20
405.6387919313148
 30
0.0
 11
164.8288515551377
 21
422.6387919313147
 31
0.0
  0
LINE
  5
39C
102
{ACAD_REACTORS
330
524
102
}
330
1F
100
AcDbEntity
  8
実線
100
AcDbLine
 10
164.8288515551377
 20
422.6387919313147
 30
0.0
 11
130.85913452724
 21
422.6387919313147
 31
0.0
  0
LINE
  5
39D
102
{ACAD_REACTORS
330
524
102
}
330
1F
100
AcDbEntity
  8
実線
100
AcDbLine
 10
43.26947319945992
 20
422.6387919313147
 30
0.0
 11
77.23919022735771
 21
422.6387919313147
 31
0.0
  0
LINE
  5
39E
102
{ACAD_REACTORS
330
524
102
}
330
1F
100
AcDbEntity
  8
実線
100
AcDbLine
 10
43.26947319945992
 20
422.6387919313147
 30
0.0
 11
43.26947319945992
 21
405.6387919313148
 31
0.0
  0
LINE
  5
39F
102
{ACAD_REACTORS
330
524
102
}
330
1F
100
AcDbEntity
  8
実線
100
AcDbLine
 10
130.85913452724
 20
405.6387919313148
 30
0.0
 11
130.85913452724
 21
422.6387919313147
 31
0.0
  0
LINE
  5
3A0
102
{ACAD_REACTORS
330
524
102
}
330
1F
100
AcDbEntity
  8
実線
100
AcDbLine
 10
77.23919022735771
 20
405.6387919313148
 30
0.0
 11
77.23919022735771
 21
422.6387919313147
 31
0.0
  0
LINE
  5
3A1
102
{ACAD_REACTORS
330
524
102
}
330
1F
100
AcDbEntity
  8
実線
100
AcDbLine
 10
84.04916237729873
 20
751.1387919313145
 30
0.0
 11
77.04916237729872
 21
751.1387919313145
 31
0.0
  0
LINE
  5
3A2
102
{ACAD_REACTORS
330
524
102
}
330
1F
100
AcDbEntity
  8
実線
100
AcDbLine
 10
77.04916237729872
 20
749.1387919313146
 30
0.0
 11
77.04916237729872
 21
751.1387919313145
 31
0.0
  0
LINE
  5
3A3
102
{ACAD_REACTORS
330
523
102
}
330
1F
100
AcDbEntity
  8
実線
100
AcDbLine
 10
424.0491623773086
 20
826.6387919313148
 30
0.0
 11
384.0491623773088
 21
826.6387919313148
 31
0.0
  0
LINE
  5
3A4
102
{ACAD_REACTORS
330
523
102
}
330
1F
100
AcDbEntity
  8
実線
100
AcDbLine
 10
424.0491623773086
 20
826.6387919313148
 30
0.0
 11
424.0491623773086
 21
836.6387919313147
 31
0.0
  0
LINE
  5
3A5
102
{ACAD_REACTORS
330
523
102
}
330
1F
100
AcDbEntity
  8
実線
100
AcDbLine
 10
384.0491623773088
 20
836.6387919313147
 30
0.0
 11
384.0491623773088
 21
826.6387919313148
 31
0.0
  0
LINE
  5
3A6
102
{ACAD_REACTORS
330
523
102
}
330
1F
100
AcDbEntity
  8
実線
100
AcDbLine
 10
424.0491623773086
 20
836.6387919313147
 30
0.0
 11
384.0491623773088
 21
836.6387919313147
 31
0.0
  0
LINE
  5
3A7
102
{ACAD_REACTORS
330
523
102
}
330
1F
100
AcDbEntity
  8
実線
100
AcDbLine
 10
417.0491623773086
 20
819.6387919313147
 30
0.0
 11
391.0491623773087
 21
819.6387919313147
 31
0.0
  0
LINE
  5
3A8
102
{ACAD_REACTORS
330
523
102
}
330
1F
100
AcDbEntity
  8
実線
100
AcDbLine
 10
417.0491623773086
 20
819.6387919313147
 30
0.0
 11
417.0491623773086
 21
826.6387919313148
 31
0.0
  0
LINE
  5
3A9
102
{ACAD_REACTORS
330
523
102
}
330
1F
100
AcDbEntity
  8
実線
100
AcDbLine
 10
391.0491623773087
 20
826.6387919313148
 30
0.0
 11
391.0491623773087
 21
819.6387919313147
 31
0.0
  0
LINE
  5
3AA
102
{ACAD_REACTORS
330
523
102
}
330
1F
100
AcDbEntity
  8
実線
100
AcDbLine
 10
424.6491623773087
 20
840.9887919313149
 30
0.0
 11
432.5491623773087
 21
840.9887919313149
 31
0.0
  0
LINE
  5
3AB
102
{ACAD_REACTORS
330
523
102
}
330
1F
100
AcDbEntity
  8
実線
100
AcDbLine
 10
424.6491623773087
 20
833.0887919313148
 30
0.0
 11
424.6491623773087
 21
840.9887919313149
 31
0.0
  0
LINE
  5
3AC
102
{ACAD_REACTORS
330
523
102
}
330
1F
100
AcDbEntity
  8
実線
100
AcDbLine
 10
432.5491623773087
 20
833.0887919313148
 30
0.0
 11
424.6491623773087
 21
833.0887919313148
 31
0.0
  0
LINE
  5
3AD
102
{ACAD_REACTORS
330
523
102
}
330
1F
100
AcDbEntity
  8
実線
100
AcDbLine
 10
432.5491623773087
 20
794.1387919313148
 30
0.0
 11
434.5491623773088
 21
794.1387919313148
 31
0.0
  0
LINE
  5
3AE
102
{ACAD_REACTORS
330
523
102
}
330
1F
100
AcDbEntity
  8
実線
100
AcDbLine
 10
432.5491623773087
 20
849.1387919313147
 30
0.0
 11
432.5491623773087
 21
794.1387919313146
 31
0.0
  0
LINE
  5
3AF
102
{ACAD_REACTORS
330
523
102
}
330
1F
100
AcDbEntity
  8
実線
100
AcDbLine
 10
434.5491623773088
 20
794.1387919313148
 30
0.0
 11
434.5491623773088
 21
849.1387919313147
 31
0.0
  0
LINE
  5
3B0
102
{ACAD_REACTORS
330
523
102
}
330
1F
100
AcDbEntity
  8
実線
100
AcDbLine
 10
434.5491623773088
 20
849.1387919313147
 30
0.0
 11
432.5491623773087
 21
849.1387919313147
 31
0.0
  0
LINE
  5
3B1
102
{ACAD_REACTORS
330
523
102
}
330
1F
100
AcDbEntity
  8
実線
100
AcDbLine
 10
432.5491623773087
 20
807.4887919313148
 30
0.0
 11
424.6491623773087
 21
807.4887919313148
 31
0.0
  0
LINE
  5
3B2
102
{ACAD_REACTORS
330
523
102
}
330
1F
100
AcDbEntity
  8
実線
100
AcDbLine
 10
424.6491623773087
 20
815.3887919313147
 30
0.0
 11
432.5491623773087
 21
815.3887919313147
 31
0.0
  0
LINE
  5
3B3
102
{ACAD_REACTORS
330
523
102
}
330
1F
100
AcDbEntity
  8
実線
100
AcDbLine
 10
424.6491623773087
 20
807.4887919313148
 30
0.0
 11
424.6491623773087
 21
815.3887919313147
 31
0.0
  0
LINE
  5
3B4
102
{ACAD_REACTORS
330
523
102
}
330
1F
100
AcDbEntity
  8
実線
100
AcDbLine
 10
458.5491623773087
 20
849.1387919313147
 30
0.0
 11
434.5491623773088
 21
849.1387919313147
 31
0.0
  0
LINE
  5
3B5
102
{ACAD_REACTORS
330
523
102
}
330
1F
100
AcDbEntity
  8
実線
100
AcDbLine
 10
432.5491623773087
 20
751.1387919313145
 30
0.0
 11
432.5491623773087
 21
794.1387919313148
 31
0.0
  0
LINE
  5
3B6
102
{ACAD_REACTORS
330
523
102
}
330
1F
100
AcDbEntity
  8
実線
100
AcDbLine
 10
458.5491623773087
 20
751.1387919313145
 30
0.0
 11
458.5491623773087
 21
849.1387919313147
 31
0.0
  0
LINE
  5
3B7
102
{ACAD_REACTORS
330
523
102
}
330
1F
100
AcDbEntity
  8
実線
100
AcDbLine
 10
481.5491623773088
 20
663.1387919313148
 30
0.0
 11
326.5491623773087
 21
663.1387919313148
 31
0.0
  0
LINE
  5
3B8
102
{ACAD_REACTORS
330
523
102
}
330
1F
100
AcDbEntity
  8
実線
100
AcDbLine
 10
481.5491623773088
 20
663.1387919313148
 30
0.0
 11
481.5491623773088
 21
672.1387919313148
 31
0.0
  0
LINE
  5
3B9
102
{ACAD_REACTORS
330
523
102
}
330
1F
100
AcDbEntity
  8
実線
100
AcDbLine
 10
326.5491623773087
 20
672.1387919313148
 30
0.0
 11
326.5491623773087
 21
663.1387919313148
 31
0.0
  0
LINE
  5
3BA
102
{ACAD_REACTORS
330
523
102
}
330
1F
100
AcDbEntity
  8
実線
100
AcDbLine
 10
421.3491623773088
 20
773.1387919313146
 30
0.0
 11
421.3491623773088
 21
785.1387919313148
 31
0.0
  0
LINE
  5
3BB
102
{ACAD_REACTORS
330
523
102
}
330
1F
100
AcDbEntity
  8
実線
100
AcDbLine
 10
386.7491623773089
 20
785.1387919313148
 30
0.0
 11
386.7491623773089
 21
773.1387919313146
 31
0.0
  0
LINE
  5
3BC
102
{ACAD_REACTORS
330
523
102
}
330
1F
100
AcDbEntity
  8
実線
100
AcDbLine
 10
421.3491623773088
 20
785.1387919313148
 30
0.0
 11
386.7491623773089
 21
785.1387919313148
 31
0.0
  0
LINE
  5
3BD
102
{ACAD_REACTORS
330
523
102
}
330
1F
100
AcDbEntity
  8
実線
100
AcDbLine
 10
421.3491623773088
 20
785.1387919313148
 30
0.0
 11
421.3491623773088
 21
797.1387919313148
 31
0.0
  0
LINE
  5
3BE
102
{ACAD_REACTORS
330
523
102
}
330
1F
100
AcDbEntity
  8
実線
100
AcDbLine
 10
386.7491623773089
 20
797.1387919313148
 30
0.0
 11
386.7491623773089
 21
785.1387919313148
 31
0.0
  0
LINE
  5
3BF
102
{ACAD_REACTORS
330
523
102
}
330
1F
100
AcDbEntity
  8
実線
100
AcDbLine
 10
421.3491623773088
 20
797.1387919313148
 30
0.0
 11
386.7491623773089
 21
797.1387919313148
 31
0.0
  0
LINE
  5
3C0
102
{ACAD_REACTORS
330
523
102
}
330
1F
100
AcDbEntity
  8
実線
100
AcDbLine
 10
414.0491623773086
 20
797.1387919313148
 30
0.0
 11
414.0491623773086
 21
819.6387919313147
 31
0.0
  0
LINE
  5
3C1
102
{ACAD_REACTORS
330
523
102
}
330
1F
100
AcDbEntity
  8
実線
100
AcDbLine
 10
394.0491623773088
 20
819.6387919313147
 30
0.0
 11
394.0491623773088
 21
797.1387919313148
 31
0.0
  0
LINE
  5
3C2
102
{ACAD_REACTORS
330
523
102
}
330
1F
100
AcDbEntity
  8
実線
100
AcDbLine
 10
435.7991623773086
 20
322.7387919313148
 30
0.0
 11
435.7991623773086
 21
329.1387919313148
 31
0.0
  0
LINE
  5
3C3
102
{ACAD_REACTORS
330
523
102
}
330
1F
100
AcDbEntity
  8
実線
100
AcDbLine
 10
372.2991623773088
 20
329.1387919313148
 30
0.0
 11
372.2991623773088
 21
322.7387919313148
 31
0.0
  0
LINE
  5
3C4
102
{ACAD_REACTORS
330
523
102
}
330
1F
100
AcDbEntity
  8
実線
100
AcDbLine
 10
372.2991623773088
 20
322.7387919313148
 30
0.0
 11
365.2991623773088
 21
319.6387919313146
 31
0.0
  0
LINE
  5
3C5
102
{ACAD_REACTORS
330
523
102
}
330
1F
100
AcDbEntity
  8
実線
100
AcDbLine
 10
442.7991623773086
 20
319.6387919313146
 30
0.0
 11
435.7991623773086
 21
322.7387919313148
 31
0.0
  0
LINE
  5
3C6
102
{ACAD_REACTORS
330
523
102
}
330
1F
100
AcDbEntity
  8
実線
100
AcDbLine
 10
372.2991623773088
 20
322.7387919313148
 30
0.0
 11
435.7991623773086
 21
322.7387919313148
 31
0.0
  0
LINE
  5
3C7
102
{ACAD_REACTORS
330
523
102
}
330
1F
100
AcDbEntity
  8
実線
100
AcDbLine
 10
442.7991623773086
 20
316.1387919313146
 30
0.0
 11
442.7991623773086
 21
319.6387919313146
 31
0.0
  0
LINE
  5
3C8
102
{ACAD_REACTORS
330
523
102
}
330
1F
100
AcDbEntity
  8
実線
100
AcDbLine
 10
365.299162377309
 20
319.6387919313146
 30
0.0
 11
365.299162377309
 21
316.1387919313146
 31
0.0
  0
LINE
  5
3C9
102
{ACAD_REACTORS
330
523
102
}
330
1F
100
AcDbEntity
  8
実線
100
AcDbLine
 10
442.7991623773086
 20
316.1387919313146
 30
0.0
 11
365.299162377309
 21
316.1387919313146
 31
0.0
  0
LINE
  5
3CA
102
{ACAD_REACTORS
330
523
102
}
330
1F
100
AcDbEntity
  8
実線
100
AcDbLine
 10
442.7991623773086
 20
319.6387919313146
 30
0.0
 11
365.299162377309
 21
319.6387919313146
 31
0.0
  0
LINE
  5
3CB
102
{ACAD_REACTORS
330
523
102
}
330
1F
100
AcDbEntity
  8
実線
100
AcDbLine
 10
305.6491623773088
 20
333.3887919313146
 30
0.0
 11
354.1892590628221
 21
333.3887919313146
 31
0.0
  0
LINE
  5
3CC
102
{ACAD_REACTORS
330
523
102
}
330
1F
100
AcDbEntity
  8
実線
100
AcDbLine
 10
343.2694731994701
 20
396.8887919313147
 30
0.0
 11
305.6491623773088
 21
396.8887919313147
 31
0.0
  0
LINE
  5
3CD
102
{ACAD_REACTORS
330
523
102
}
330
1F
100
AcDbEntity
  8
実線
100
AcDbLine
 10
305.6491623773088
 20
396.8887919313147
 30
0.0
 11
302.549162377309
 21
403.8887919313147
 31
0.0
  0
LINE
  5
3CE
102
{ACAD_REACTORS
330
523
102
}
330
1F
100
AcDbEntity
  8
実線
100
AcDbLine
 10
302.5491623773087
 20
326.3887919313146
 30
0.0
 11
305.6491623773088
 21
333.3887919313146
 31
0.0
  0
LINE
  5
3CF
102
{ACAD_REACTORS
330
523
102
}
330
1F
100
AcDbEntity
  8
実線
100
AcDbLine
 10
305.6491623773088
 20
396.8887919313147
 30
0.0
 11
305.6491623773088
 21
333.3887919313146
 31
0.0
  0
LINE
  5
3D0
102
{ACAD_REACTORS
330
523
102
}
330
1F
100
AcDbEntity
  8
実線
100
AcDbLine
 10
299.049162377309
 20
326.3887919313146
 30
0.0
 11
302.5491623773087
 21
326.3887919313146
 31
0.0
  0
LINE
  5
3D1
102
{ACAD_REACTORS
330
523
102
}
330
1F
100
AcDbEntity
  8
実線
100
AcDbLine
 10
302.5491623773087
 20
403.8887919313147
 30
0.0
 11
299.049162377309
 21
403.8887919313147
 31
0.0
  0
LINE
  5
3D2
102
{ACAD_REACTORS
330
523
102
}
330
1F
100
AcDbEntity
  8
実線
100
AcDbLine
 10
299.049162377309
 20
326.3887919313146
 30
0.0
 11
299.049162377309
 21
403.8887919313147
 31
0.0
  0
LINE
  5
3D3
102
{ACAD_REACTORS
330
523
102
}
330
1F
100
AcDbEntity
  8
実線
100
AcDbLine
 10
302.5491623773087
 20
326.3887919313146
 30
0.0
 11
302.5491623773087
 21
403.8887919313147
 31
0.0
  0
LINE
  5
3D4
102
{ACAD_REACTORS
330
523
102
}
330
1F
100
AcDbEntity
  8
実線
100
AcDbLine
 10
459.0491623773088
 20
425.6387919313148
 30
0.0
 11
349.0491623773088
 21
425.6387919313148
 31
0.0
  0
LINE
  5
3D5
102
{ACAD_REACTORS
330
523
102
}
330
1F
100
AcDbEntity
  8
実線
100
AcDbLine
 10
459.0491623773088
 20
425.6387919313148
 30
0.0
 11
459.0491623773088
 21
663.1387919313148
 31
0.0
  0
LINE
  5
3D6
102
{ACAD_REACTORS
330
523
102
}
330
1F
100
AcDbEntity
  8
実線
100
AcDbLine
 10
349.0491623773088
 20
663.1387919313148
 30
0.0
 11
349.0491623773088
 21
425.6387919313148
 31
0.0
  0
LINE
  5
3D7
102
{ACAD_REACTORS
330
523
102
}
330
1F
100
AcDbEntity
  8
実線
100
AcDbLine
 10
424.0491623773086
 20
749.1387919313146
 30
0.0
 11
424.0491623773086
 21
773.1387919313146
 31
0.0
  0
LINE
  5
3D8
102
{ACAD_REACTORS
330
523
102
}
330
1F
100
AcDbEntity
  8
実線
100
AcDbLine
 10
384.0491623773088
 20
773.1387919313147
 30
0.0
 11
384.0491623773088
 21
749.1387919313151
 31
0.0
  0
LINE
  5
3D9
102
{ACAD_REACTORS
330
523
102
}
330
1F
100
AcDbEntity
  8
実線
100
AcDbLine
 10
424.0491623773086
 20
773.1387919313147
 30
0.0
 11
384.0491623773088
 21
773.1387919313147
 31
0.0
  0
LINE
  5
3DA
102
{ACAD_REACTORS
330
523
102
}
330
1F
100
AcDbEntity
  8
実線
100
AcDbLine
 10
481.5491623773088
 20
672.1387919313148
 30
0.0
 11
326.5491623773087
 21
672.1387919313148
 31
0.0
  0
LINE
  5
3DB
102
{ACAD_REACTORS
330
523
102
}
330
1F
100
AcDbEntity
  8
実線
100
AcDbLine
 10
481.5491623773088
 20
672.1387919313148
 30
0.0
 11
481.5491623773088
 21
744.1387919313148
 31
0.0
  0
LINE
  5
3DC
102
{ACAD_REACTORS
330
523
102
}
330
1F
100
AcDbEntity
  8
実線
100
AcDbLine
 10
326.5491623773087
 20
744.1387919313148
 30
0.0
 11
326.5491623773087
 21
672.1387919313148
 31
0.0
  0
LINE
  5
3DD
102
{ACAD_REACTORS
330
523
102
}
330
1F
100
AcDbEntity
  8
実線
100
AcDbLine
 10
476.5491623773086
 20
749.1387919313146
 30
0.0
 11
331.5491623773087
 21
749.1387919313146
 31
0.0
  0
ARC
  5
3DE
102
{ACAD_REACTORS
330
523
102
}
330
1F
100
AcDbEntity
  8
実線
100
AcDbCircle
 10
476.5491623773086
 20
744.1387919313148
 30
0.0
 40
5.0
100
AcDbArc
 50
0.0
 51
90.0
  0
ARC
  5
3DF
102
{ACAD_REACTORS
330
523
102
}
330
1F
100
AcDbEntity
  8
実線
100
AcDbCircle
 10
331.5491623773087
 20
744.1387919313148
 30
0.0
 40
5.0
100
AcDbArc
 50
90.0
 51
180.0
  0
LINE
  5
3E0
102
{ACAD_REACTORS
330
523
102
}
330
1F
100
AcDbEntity
  8
実線
100
AcDbLine
 10
481.5491623773088
 20
744.1387919313148
 30
0.0
 11
326.5491623773087
 21
744.1387919313148
 31
0.0
  0
LINE
  5
3E1
102
{ACAD_REACTORS
330
523
102
}
330
1F
100
AcDbEntity
  8
実線
100
AcDbLine
 10
459.0491623773088
 20
345.1387919313146
 30
0.0
 11
459.0491623773088
 21
390.6387919313147
 31
0.0
  0
LINE
  5
3E2
102
{ACAD_REACTORS
330
523
102
}
330
1F
100
AcDbEntity
  8
実線
100
AcDbLine
 10
443.0491623747583
 20
329.1387919313148
 30
0.0
 11
365.0491623773087
 21
329.1387919313148
 31
0.0
  0
ARC
  5
3E3
102
{ACAD_REACTORS
330
523
102
}
330
1F
100
AcDbEntity
  8
実線
100
AcDbCircle
 10
365.0491623773087
 20
345.1387919313146
 30
0.0
 40
16.0
100
AcDbArc
 50
227.2544307753404
 51
270.0
  0
ARC
  5
3E4
102
{ACAD_REACTORS
330
523
102
}
330
1F
100
AcDbEntity
  8
実線
100
AcDbCircle
 10
443.0491623773088
 20
345.1387919313146
 30
0.0
 40
16.0
100
AcDbArc
 50
270.0
 51
0.0
  0
LINE
  5
3E5
102
{ACAD_REACTORS
330
523
102
}
330
1F
100
AcDbEntity
  8
実線
100
AcDbLine
 10
343.2694731994707
 20
390.6387919313147
 30
0.0
 11
377.2391902273676
 21
390.6387919313147
 31
0.0
  0
LINE
  5
3E6
102
{ACAD_REACTORS
330
523
102
}
330
1F
100
AcDbEntity
  8
実線
100
AcDbLine
 10
343.2694731994707
 20
405.6387919313148
 30
0.0
 11
343.2694731994707
 21
390.6387919313147
 31
0.0
  0
LINE
  5
3E7
102
{ACAD_REACTORS
330
523
102
}
330
1F
100
AcDbEntity
  8
実線
100
AcDbLine
 10
464.8288515551476
 20
390.6387919313147
 30
0.0
 11
464.8288515551476
 21
405.6387919313148
 31
0.0
  0
LINE
  5
3E8
102
{ACAD_REACTORS
330
523
102
}
330
1F
100
AcDbEntity
  8
実線
100
AcDbLine
 10
464.8288515551476
 20
390.6387919313147
 30
0.0
 11
430.85913452725
 21
390.6387919313147
 31
0.0
  0
LINE
  5
3E9
102
{ACAD_REACTORS
330
523
102
}
330
1F
100
AcDbEntity
  8
実線
100
AcDbLine
 10
377.2391902273676
 20
390.6387919313147
 30
0.0
 11
377.2391902273676
 21
405.6387919313148
 31
0.0
  0
LINE
  5
3EA
102
{ACAD_REACTORS
330
523
102
}
330
1F
100
AcDbEntity
  8
実線
100
AcDbLine
 10
430.85913452725
 20
390.6387919313147
 30
0.0
 11
430.85913452725
 21
405.6387919313148
 31
0.0
  0
LINE
  5
3EB
102
{ACAD_REACTORS
330
523
102
}
330
1F
100
AcDbEntity
  8
実線
100
AcDbLine
 10
464.8288515551476
 20
405.6387919313148
 30
0.0
 11
343.2694731994701
 21
405.6387919313148
 31
0.0
  0
LINE
  5
3EC
102
{ACAD_REACTORS
330
523
102
}
330
1F
100
AcDbEntity
  8
実線
100
AcDbLine
 10
459.0491623773088
 20
422.6387919313147
 30
0.0
 11
459.0491623773088
 21
425.6387919313148
 31
0.0
  0
LINE
  5
3ED
102
{ACAD_REACTORS
330
523
102
}
330
1F
100
AcDbEntity
  8
実線
100
AcDbLine
 10
349.0491623773088
 20
425.6387919313148
 30
0.0
 11
349.0491623773088
 21
422.6387919313147
 31
0.0
  0
LINE
  5
3EE
102
{ACAD_REACTORS
330
523
102
}
330
1F
100
AcDbEntity
  8
実線
100
AcDbLine
 10
343.2694731994701
 20
422.6387919313147
 30
0.0
 11
377.2391902273676
 21
422.6387919313147
 31
0.0
  0
LINE
  5
3EF
102
{ACAD_REACTORS
330
523
102
}
330
1F
100
AcDbEntity
  8
実線
100
AcDbLine
 10
343.2694731994701
 20
422.6387919313147
 30
0.0
 11
343.2694731994701
 21
405.6387919313148
 31
0.0
  0
LINE
  5
3F0
102
{ACAD_REACTORS
330
523
102
}
330
1F
100
AcDbEntity
  8
実線
100
AcDbLine
 10
464.8288515551476
 20
405.6387919313148
 30
0.0
 11
464.8288515551476
 21
422.6387919313147
 31
0.0
  0
LINE
  5
3F1
102
{ACAD_REACTORS
330
523
102
}
330
1F
100
AcDbEntity
  8
実線
100
AcDbLine
 10
464.8288515551476
 20
422.6387919313147
 30
0.0
 11
430.85913452725
 21
422.6387919313147
 31
0.0
  0
LINE
  5
3F2
102
{ACAD_REACTORS
330
523
102
}
330
1F
100
AcDbEntity
  8
実線
100
AcDbLine
 10
377.2391902273676
 20
405.6387919313148
 30
0.0
 11
377.2391902273676
 21
422.6387919313147
 31
0.0
  0
LINE
  5
3F3
102
{ACAD_REACTORS
330
523
102
}
330
1F
100
AcDbEntity
  8
実線
100
AcDbLine
 10
430.85913452725
 20
405.6387919313148
 30
0.0
 11
430.85913452725
 21
422.6387919313147
 31
0.0
  0
LINE
  5
3F4
102
{ACAD_REACTORS
330
523
102
}
330
1F
100
AcDbEntity
  8
実線
100
AcDbLine
 10
465.0491623773087
 20
751.1387919313145
 30
0.0
 11
430.0491623773088
 21
751.1387919313145
 31
0.0
  0
LINE
  5
3F5
102
{ACAD_REACTORS
330
523
102
}
330
1F
100
AcDbEntity
  8
実線
100
AcDbLine
 10
465.0491623773087
 20
749.1387919313146
 30
0.0
 11
465.0491623773087
 21
751.1387919313145
 31
0.0
  0
LINE
  5
3F6
102
{ACAD_REACTORS
330
523
102
}
330
1F
100
AcDbEntity
  8
実線
100
AcDbLine
 10
430.0491623773088
 20
749.1387919313146
 30
0.0
 11
430.0491623773088
 21
751.1387919313145
 31
0.0
  0
LINE
  5
503
102
{ACAD_REACTORS
330
520
102
}
330
1F
100
AcDbEntity
  8
中心線
100
AcDbLine
 10
297.049162377309
 20
125.1387919313147
 30
0.0
 11
511.049162377309
 21
125.1387919313147
 31
0.0
  0
LINE
  5
504
102
{ACAD_REACTORS
330
520
102
}
330
1F
100
AcDbEntity
  8
中心線
100
AcDbLine
 10
404.0491623773086
 20
40.1387919313147
 30
0.0
 11
404.0491623773086
 21
210.1387919313147
 31
0.0
  0
LINE
  5
516
102
{ACAD_REACTORS
330
56B
102
}
330
1F
100
AcDbEntity
  8
中心線
100
AcDbLine
 10
297.0491623773088
 20
1025.138791931323
 30
0.0
 11
511.0491623773087
 21
1025.138791931323
 31
0.0
  0
LINE
  5
517
102
{ACAD_REACTORS
330
56B
102
}
330
1F
100
AcDbEntity
  8
中心線
100
AcDbLine
 10
404.0491623773087
 20
935.1387919313252
 30
0.0
 11
404.0491623773087
 21
1115.138791931325
 31
0.0
  0
LINE
  5
518
102
{ACAD_REACTORS
330
521
102
}
330
1F
100
AcDbEntity
  8
中心線
100
AcDbLine
 10
897.0491623773074
 20
365.1387919313146
 30
0.0
 11
1111.049162377307
 21
365.1387919313146
 31
0.0
  0
LINE
  5
519
102
{ACAD_REACTORS
330
521
102
}
330
1F
100
AcDbEntity
  8
中心線
100
AcDbLine
 10
1004.049162377307
 20
280.1387919313146
 30
0.0
 11
1004.049162377307
 21
857.5258263412996
 31
0.0
  0
LINE
  5
51A
102
{ACAD_REACTORS
330
522
102
}
330
1F
100
AcDbEntity
  8
中心線
100
AcDbLine
 10
619.0491623773087
 20
365.1387919313146
 30
0.0
 11
789.0491623773087
 21
365.1387919313146
 31
0.0
  0
LINE
  5
51B
102
{ACAD_REACTORS
330
522
102
}
330
1F
100
AcDbEntity
  8
中心線
100
AcDbLine
 10
704.0491623773083
 20
280.1387919313146
 30
0.0
 11
704.0491623773083
 21
857.5258263412996
 31
0.0
  0
LINE
  5
51C
102
{ACAD_REACTORS
330
523
102
}
330
1F
100
AcDbEntity
  8
中心線
100
AcDbLine
 10
297.049162377309
 20
365.1387919313146
 30
0.0
 11
511.049162377309
 21
365.1387919313145
 31
0.0
  0
LINE
  5
51D
102
{ACAD_REACTORS
330
523
102
}
330
1F
100
AcDbEntity
  8
中心線
100
AcDbLine
 10
404.049162377309
 20
280.1387919313145
 30
0.0
 11
404.049162377309
 21
857.5258263412996
 31
0.0
  0
LINE
  5
51E
102
{ACAD_REACTORS
330
524
102
}
330
1F
100
AcDbEntity
  8
中心線
100
AcDbLine
 10
19.0491623773089
 20
365.1387919313146
 30
0.0
 11
189.0491623773089
 21
365.1387919313146
 31
0.0
  0
LINE
  5
51F
102
{ACAD_REACTORS
330
524
102
}
330
1F
100
AcDbEntity
  8
中心線
100
AcDbLine
 10
104.0491623773089
 20
280.1387919313145
 30
0.0
 11
104.0491623773089
 21
857.5258263412996
 31
0.0
  0
ENDSEC
  0
SECTION
  2
OBJECTS
  0
DICTIONARY
  5
C
330
0
100
AcDbDictionary
281
     1
  3
ACAD_CIP_PREVIOUS_PRODUCT_INFO
350
264
  3
ACAD_COLOR
350
25A
  3
ACAD_DETAILVIEWSTYLE
350
25D
  3
ACAD_GROUP
350
D
  3
ACAD_LAYOUT
350
1A
  3
ACAD_MATERIAL
350
43
  3
ACAD_MLEADERSTYLE
350
5B
  3
ACAD_MLINESTYLE
350
17
  3
ACAD_PLOTSETTINGS
350
19
  3
ACAD_PLOTSTYLENAME
350
E
  3
ACAD_SCALELIST
350
47
  3
ACAD_SECTIONVIEWSTYLE
350
25B
  3
ACAD_TABLESTYLE
350
59
  3
ACAD_VISUALSTYLE
350
2A
  3
ACDB_RECOMPOSE_DATA
350
609
  3
AcDbVariableDictionary
350
20F
  3
DWGPROPS
350
60A
  0
DICTIONARY
  5
3FD
330
2
100
AcDbDictionary
280
     1
281
     1
  3
ACAD_LAYERSTATES
360
3FE
  0
DICTIONARY
  5
526
330
10
100
AcDbDictionary
280
     1
281
     1
  3
ADSK_XREC_LAYER_RECONCILED
360
527
  0
DICTIONARY
  5
3F9
330
3F8
100
AcDbDictionary
280
     1
281
     1
  3
ADSK_XREC_LAYER_RECONCILED
360
528
  0
DICTIONARY
  5
3FB
330
3FA
100
AcDbDictionary
280
     1
281
     1
  3
ADSK_XREC_LAYER_RECONCILED
360
529
  0
DICTIONARY
  5
293
330
1F
100
AcDbDictionary
280
     1
281
     1
  3
ACAD_SORTENTS
360
294
  0
XRECORD
  5
264
102
{ACAD_REACTORS
330
C
102
}
330
C
100
AcDbXrecord
280
     1
300
ACDLT
300
2016
300
ACDLT_F_S
  0
DICTIONARY
  5
25A
102
{ACAD_REACTORS
330
C
102
}
330
C
100
AcDbDictionary
281
     1
  0
DICTIONARY
  5
25D
102
{ACAD_REACTORS
330
C
102
}
330
C
100
AcDbDictionary
281
     1
  3
Metric50
350
25E
  0
DICTIONARY
  5
D
102
{ACAD_REACTORS
330
C
102
}
330
C
100
AcDbDictionary
281
     1
  3
*A1
350
520
  3
*A2
350
521
  3
*A3
350
522
  3
*A4
350
523
  3
*A5
350
524
  3
*A6
350
56B
  0
DICTIONARY
  5
1A
102
{ACAD_REACTORS
330
C
102
}
330
C
100
AcDbDictionary
281
     1
  3
Layout1
350
1E
  3
Model
350
22
  3
レイアウト1
350
25F
  0
DICTIONARY
  5
43
102
{ACAD_REACTORS
330
C
102
}
330
C
100
AcDbDictionary
281
     1
  3
ByBlock
350
45
  3
ByLayer
350
44
  3
Global
350
46
  0
DICTIONARY
  5
5B
102
{ACAD_REACTORS
330
C
102
}
330
C
100
AcDbDictionary
281
     1
  3
Standard
350
5C
  0
DICTIONARY
  5
17
102
{ACAD_REACTORS
330
C
102
}
330
C
100
AcDbDictionary
281
     1
  3
Standard
350
18
  0
DICTIONARY
  5
19
102
{ACAD_REACTORS
330
C
102
}
330
C
100
AcDbDictionary
281
     1
  0
ACDBDICTIONARYWDFLT
  5
E
102
{ACAD_REACTORS
330
C
102
}
330
C
100
AcDbDictionary
281
     1
  3
Normal
350
F
100
AcDbDictionaryWithDefault
340
F
  0
DICTIONARY
  5
47
102
{ACAD_REACTORS
330
C
102
}
330
C
100
AcDbDictionary
281
     1
  3
A0
350
48
  3
A1
350
49
  3
A2
350
4A
  3
A3
350
4B
  3
A4
350
4C
  3
A5
350
4D
  3
A6
350
4E
  3
A7
350
4F
  3
A8
350
50
  3
A9
350
51
  3
B0
350
52
  3
B1
350
53
  3
B2
350
54
  3
B3
350
55
  3
B4
350
56
  3
B5
350
57
  3
B6
350
58
  0
DICTIONARY
  5
25B
102
{ACAD_REACTORS
330
C
102
}
330
C
100
AcDbDictionary
281
     1
  3
Metric50
350
25C
  0
DICTIONARY
  5
59
102
{ACAD_REACTORS
330
C
102
}
330
C
100
AcDbDictionary
281
     1
  3
Standard
350
5A
  0
DICTIONARY
  5
2A
102
{ACAD_REACTORS
330
C
102
}
330
C
100
AcDbDictionary
281
     1
  3
2dWireframe
350
2F
  3
Basic
350
32
  3
Brighten
350
36
  3
ColorChange
350
3A
  3
Conceptual
350
34
  3
Dim
350
35
  3
EdgeColorOff
350
3D
  3
Facepattern
350
39
  3
Flat
350
2B
  3
FlatWithEdges
350
2C
  3
Gouraud
350
2D
  3
GouraudWithEdges
350
2E
  3
Hidden
350
31
  3
JitterOff
350
3B
  3
Linepattern
350
38
  3
OverhangOff
350
3C
  3
Realistic
350
33
  3
Shaded
350
42
  3
Shaded with edges
350
41
  3
Shades of Gray
350
3E
  3
Sketchy
350
3F
  3
Thicken
350
37
  3
Wireframe
350
30
  3
X-Ray
350
40
  0
XRECORD
  5
609
102
{ACAD_REACTORS
330
C
102
}
330
C
100
AcDbXrecord
280
     1
 90
        1
330
5A
  0
DICTIONARY
  5
20F
102
{ACAD_REACTORS
330
C
102
}
330
C
100
AcDbDictionary
281
     1
  3
CANNOSCALE
350
21D
  3
CENTEREXE
350
216
  3
CENTERLTYPEFILE
350
217
  3
CMLEADERSTYLE
350
211
  3
CTABLESTYLE
350
210
  3
CVIEWDETAILSTYLE
350
52A
  3
CVIEWSECTIONSTYLE
350
52B
  3
DIMASSOC
350
218
  3
HIDETEXT
350
219
  3
INDEXCTL
350
575
  3
LAYEREVAL
350
52D
  3
LAYERNOTIFY
350
52E
  3
LIGHTINGUNITS
350
52C
  3
LOFTANG1
350
5C7
  3
LOFTANG2
350
5C8
  3
MSLTSCALE
350
21E
  3
PSOLHEIGHT
350
5C6
  3
PSOLWIDTH
350
5C5
  3
SORTENTS
350
574
  3
XCLIPFRAME
350
5C9
  0
XRECORD
  5
60A
102
{ACAD_REACTORS
330
C
102
}
330
C
100
AcDbXrecord
280
     1
  1
DWGPROPS COOKIE
  2

  3

  4

  6
File was created by TR2_DExp
  7

  8
fujino
  9

300
=
301
=
302
=
303
=
304
=
305
=
306
=
307
=
308
=
309
=
 40
0.0219052430555556
 41
2455188.75
 42
2459754.565824919
  1

 90
        0
  0
DICTIONARY
  5
3FE
102
{ACAD_REACTORS
330
3FD
102
}
330
3FD
100
AcDbDictionary
281
     1
  0
XRECORD
  5
527
102
{ACAD_REACTORS
330
526
102
}
330
526
100
AcDbXrecord
280
     1
290
     1
  0
XRECORD
  5
528
102
{ACAD_REACTORS
330
3F9
102
}
330
3F9
100
AcDbXrecord
280
     1
290
     1
  0
XRECORD
  5
529
102
{ACAD_REACTORS
330
3FB
102
}
330
3FB
100
AcDbXrecord
280
     1
290
     1
  0
SORTENTSTABLE
  5
294
102
{ACAD_REACTORS
330
293
102
}
330
293
100
AcDbSortentsTable
330
1F
331
3F5
  5
2B9
331
397
  5
304
331
3F1
  5
2B5
331
393
  5
300
331
38F
  5
2FC
331
3CE
  5
290
331
31F
  5
323
331
31B
  5
31F
331
38B
  5
2F8
331
3CA
  5
28C
331
317
  5
31B
331
356
  5
2C3
331
313
  5
317
331
352
  5
2BF
331
2A7
  5
3B7
331
2A3
  5
3B3
331
2DE
  5
377
331
29F
  5
3AF
331
29B
  5
3AB
331
2DA
  5
373
331
387
  5
2F4
331
3C6
  5
288
331
3C2
  5
284
331
51D
  5
51D
331
383
  5
2F0
331
37F
  5
2EC
331
3BE
  5
280
331
34E
  5
2BB
331
519
  5
519
331
30F
  5
313
331
34A
  5
34E
331
37B
  5
2E8
331
3BA
  5
27C
331
30B
  5
3A4
331
307
  5
3A0
331
346
  5
34A
331
303
  5
39C
331
342
  5
346
331
28F
  5
3F3
331
2D6
  5
36F
331
28B
  5
3EF
331
2D2
  5
36B
331
2CE
  5
367
331
287
  5
3EB
331
283
  5
3E7
331
2CA
  5
363
331
377
  5
2E4
331
3B6
  5
278
331
3B2
  5
274
331
3ED
  5
2B1
331
373
  5
2E0
331
36F
  5
2DC
331
3AE
  5
270
331
3E9
  5
2AD
331
2FF
  5
398
331
33E
  5
342
331
290
  5
3F4
331
36B
  5
2D8
331
3AA
  5
26C
331
33A
  5
33E
331
3E5
  5
2A9
331
2FB
  5
394
331
2F7
  5
390
331
336
  5
33A
331
3E1
  5
2A5
331
2F3
  5
38C
331
332
  5
336
331
27F
  5
3E3
331
2C6
  5
35F
331
27B
  5
3DF
331
2C2
  5
35B
331
2BE
  5
357
331
277
  5
3DB
331
273
  5
3D7
331
2BA
  5
353
331
367
  5
2D4
331
3A6
  5
268
331
3A2
  5
30F
331
3DD
  5
2A1
331
363
  5
2D0
331
39E
  5
30B
331
3D9
  5
29D
331
2EF
  5
388
331
32E
  5
332
331
35F
  5
2CC
331
35B
  5
2C8
331
39A
  5
307
331
32A
  5
32E
331
3D5
  5
299
331
2EB
  5
384
331
2E7
  5
380
331
326
  5
32A
331
3D1
  5
295
331
2E3
  5
37C
331
322
  5
326
331
26F
  5
3D3
331
2B6
  5
3C6
331
26B
  5
3CF
331
2B2
  5
3C2
331
2AE
  5
3BE
331
2AA
  5
3BA
331
3F4
  5
2B8
331
396
  5
303
331
3F0
  5
2B4
331
267
  5
3CB
331
392
  5
2FF
331
38E
  5
2FB
331
3CD
  5
28F
331
31E
  5
322
331
31A
  5
31E
331
38A
  5
2F7
331
3C9
  5
28B
331
316
  5
31A
331
355
  5
2C2
331
312
  5
316
331
351
  5
2BE
331
2A6
  5
3B6
331
2A2
  5
3B2
331
29E
  5
3AE
331
2DD
  5
376
331
29A
  5
3AA
331
2D9
  5
372
331
504
  5
504
331
386
  5
2F3
331
3C5
  5
287
331
3C1
  5
283
331
51C
  5
51C
331
382
  5
2EF
331
37E
  5
2EB
331
3BD
  5
27F
331
34D
  5
351
331
518
  5
518
331
30E
  5
312
331
30A
  5
3A3
331
349
  5
34D
331
37A
  5
2E7
331
3B9
  5
27B
331
306
  5
39F
331
345
  5
349
331
302
  5
39B
331
341
  5
345
331
28E
  5
3F2
331
2D5
  5
36E
331
2D1
  5
36A
331
2CD
  5
366
331
286
  5
3EA
331
282
  5
3E6
331
2C9
  5
362
331
376
  5
2E3
331
3B5
  5
277
331
3B1
  5
273
331
297
  5
3A7
331
3EC
  5
2B0
331
372
  5
2DF
331
36E
  5
2DB
331
3AD
  5
26F
331
33D
  5
341
331
3E8
  5
2AC
331
2FE
  5
397
331
36A
  5
2D7
331
3A9
  5
26B
331
339
  5
33D
331
3E4
  5
2A8
331
2FA
  5
393
331
2F6
  5
38F
331
335
  5
339
331
3E0
  5
2A4
331
2F2
  5
38B
331
331
  5
335
331
27E
  5
3E2
331
2C5
  5
35E
331
27A
  5
3DE
331
2C1
  5
35A
331
2BD
  5
356
331
276
  5
3DA
331
272
  5
3D6
331
2B9
  5
352
331
366
  5
2D3
331
3A5
  5
267
331
3A1
  5
30E
331
3DC
  5
2A0
331
362
  5
2CF
331
35E
  5
2CB
331
39D
  5
30A
331
3D8
  5
29C
331
2EE
  5
387
331
32D
  5
331
331
35A
  5
2C7
331
399
  5
306
331
329
  5
32D
331
3D4
  5
298
331
2EA
  5
383
331
2E6
  5
37F
331
325
  5
329
331
3D0
  5
292
331
2E2
  5
37B
331
321
  5
325
331
26E
  5
3D2
331
2B5
  5
3C5
331
26A
  5
3CE
331
2B1
  5
3C1
331
2AD
  5
3BD
331
2A9
  5
3B9
331
3F3
  5
2B7
331
395
  5
302
331
391
  5
2FE
331
266
  5
3CA
331
38D
  5
2FA
331
3CC
  5
28E
331
31D
  5
321
331
389
  5
2F6
331
3C8
  5
28A
331
319
  5
31D
331
315
  5
319
331
354
  5
2C1
331
311
  5
315
331
350
  5
2BD
331
2A5
  5
3B5
331
2A1
  5
3B1
331
29D
  5
3AD
331
2DC
  5
375
331
299
  5
3A9
331
2D8
  5
371
331
3C4
  5
286
331
503
  5
503
331
51F
  5
51F
331
385
  5
2F2
331
3C0
  5
282
331
51B
  5
51B
331
381
  5
2EE
331
37D
  5
2EA
331
3BC
  5
27E
331
34C
  5
350
331
517
  5
517
331
30D
  5
311
331
309
  5
3A2
331
348
  5
34C
331
379
  5
2E6
331
3B8
  5
27A
331
305
  5
39E
331
344
  5
348
331
301
  5
39A
331
340
  5
344
331
2D4
  5
36D
331
2D0
  5
369
331
285
  5
3E9
331
2CC
  5
365
331
281
  5
3E5
331
2C8
  5
361
331
3EF
  5
2B3
331
375
  5
2E2
331
3B4
  5
276
331
3B0
  5
272
331
296
  5
3A6
331
3EB
  5
2AF
331
371
  5
2DE
331
292
  5
3F6
331
36D
  5
2DA
331
3AC
  5
26E
331
33C
  5
340
331
3E7
  5
2AB
331
2FD
  5
396
331
369
  5
2D6
331
3A8
  5
26A
331
2F9
  5
392
331
338
  5
33C
331
3E3
  5
2A7
331
2F5
  5
38E
331
334
  5
338
331
2F1
  5
38A
331
330
  5
334
331
27D
  5
3E1
331
2C4
  5
35D
331
2C0
  5
359
331
279
  5
3DD
331
2BC
  5
355
331
275
  5
3D9
331
271
  5
3D5
331
2B8
  5
3C8
331
3DF
  5
2A3
331
365
  5
2D2
331
3A4
  5
266
331
3A0
  5
30D
331
3DB
  5
29F
331
361
  5
2CE
331
35D
  5
2CA
331
39C
  5
309
331
32C
  5
330
331
3D7
  5
29B
331
2ED
  5
386
331
359
  5
2C6
331
398
  5
305
331
328
  5
32C
331
3D3
  5
297
331
2E9
  5
382
331
2E5
  5
37E
331
324
  5
328
331
2E1
  5
37A
331
320
  5
324
331
26D
  5
3D1
331
2B4
  5
3C4
331
269
  5
3CD
331
2B0
  5
3C0
331
2AC
  5
3BC
331
2A8
  5
3B8
331
3F6
  5
2BA
331
3F2
  5
2B6
331
394
  5
301
331
390
  5
2FD
331
3CF
  5
291
331
265
  5
3C9
331
38C
  5
2F9
331
3CB
  5
28D
331
31C
  5
320
331
388
  5
2F5
331
318
  5
31C
331
357
  5
2C4
331
314
  5
318
331
353
  5
2C0
331
310
  5
314
331
2A4
  5
3B4
331
2DF
  5
378
331
2A0
  5
3B0
331
29C
  5
3AC
331
2DB
  5
374
331
298
  5
3A8
331
3C7
  5
289
331
3C3
  5
285
331
51E
  5
51E
331
384
  5
2F1
331
380
  5
2ED
331
3BF
  5
281
331
51A
  5
51A
331
34F
  5
2BC
331
37C
  5
2E9
331
3BB
  5
27D
331
34B
  5
34F
331
516
  5
516
331
30C
  5
310
331
308
  5
3A1
331
347
  5
34B
331
378
  5
2E5
331
304
  5
39D
331
343
  5
347
331
300
  5
399
331
2D7
  5
370
331
2D3
  5
36C
331
2CF
  5
368
331
288
  5
3EC
331
284
  5
3E8
331
2CB
  5
364
331
280
  5
3E4
331
3B7
  5
279
331
3B3
  5
275
331
3EE
  5
2B2
331
374
  5
2E1
331
3AF
  5
271
331
295
  5
3A5
331
3EA
  5
2AE
331
33F
  5
343
331
370
  5
2DD
331
291
  5
3F5
331
36C
  5
2D9
331
3AB
  5
26D
331
33B
  5
33F
331
3E6
  5
2AA
331
2FC
  5
395
331
368
  5
2D5
331
2F8
  5
391
331
337
  5
33B
331
3E2
  5
2A6
331
2F4
  5
38D
331
333
  5
337
331
2F0
  5
389
331
2C7
  5
360
331
27C
  5
3E0
331
2C3
  5
35C
331
2BF
  5
358
331
278
  5
3DC
331
274
  5
3D8
331
2BB
  5
354
331
270
  5
3D4
331
3A7
  5
269
331
3DE
  5
2A2
331
364
  5
2D1
331
3A3
  5
265
331
39F
  5
30C
331
3DA
  5
29E
331
32F
  5
333
331
360
  5
2CD
331
35C
  5
2C9
331
39B
  5
308
331
32B
  5
32F
331
3D6
  5
29A
331
2EC
  5
385
331
358
  5
2C5
331
2E8
  5
381
331
327
  5
32B
331
3D2
  5
296
331
2E4
  5
37D
331
323
  5
327
331
2E0
  5
379
331
2B7
  5
3C7
331
26C
  5
3D0
331
2B3
  5
3C3
331
2AF
  5
3BF
331
268
  5
3CC
331
2AB
  5
3BB
  0
ACDBDETAILVIEWSTYLE
  5
25E
102
{ACAD_XDICTIONARY
360
642
102
}
102
{ACAD_REACTORS
330
25D
102
}
330
25D
100
AcDbModelDocViewStyle
 70
     0
  3
Metric50
290
     0
100
AcDbDetailViewStyle
 70
     0
 71
     0
 90
        3
 71
     1
340
11
 40
5.0
340
0
 40
5.0
300

 40
0.0
280
     1
 71
     2
340
16
 90
       25
 71
     3
340
11
 40
5.0
 90
        0
 40
15.0
 90
        1
300
%<\AcVar ViewDetailId>% (%<\AcVar ViewScale \f "%sn">%)
 71
     4
340
16
 90
       25
340
16
 90
       25
280
     0
  0
GROUP
  5
520
102
{ACAD_REACTORS
330
D
102
}
330
D
100
AcDbGroup
300

 70
     1
 71
     1
340
504
340
503
340
2B8
340
2B7
340
2B6
340
2B5
340
2B4
340
2B3
340
2B2
340
2B1
340
2B0
340
2AF
340
2AE
340
2AD
340
2AC
340
2AB
340
2AA
340
2A9
340
2A8
340
2A7
340
2A6
340
2A5
340
2A4
340
2A3
340
2A2
340
2A1
340
2A0
340
29F
340
29E
340
29D
340
29C
340
29B
340
29A
340
299
340
298
340
297
340
296
340
295
  0
GROUP
  5
521
102
{ACAD_REACTORS
330
D
102
}
330
D
100
AcDbGroup
300

 70
     1
 71
     1
340
519
340
518
340
30B
340
30A
340
309
340
308
340
307
340
306
340
305
340
304
340
303
340
302
340
301
340
300
340
2FF
340
2FE
340
2FD
340
2FC
340
2FB
340
2FA
340
2F9
340
2F8
340
2F7
340
2F6
340
2F5
340
2F4
340
2F3
340
2F2
340
2F1
340
2F0
340
2EF
340
2EE
340
2ED
340
2EC
340
2EB
340
2EA
340
2E9
340
2E8
340
2E7
340
2E6
340
2E5
340
2E4
340
2E3
340
2E2
340
2E1
340
2E0
340
2DF
340
2DE
340
2DD
340
2DC
340
2DB
340
2DA
340
2D9
340
2D8
340
2D7
340
2D6
340
2D5
340
2D4
340
2D3
340
2D2
340
2D1
340
2D0
340
2CF
340
2CE
340
2CD
340
2CC
340
2CB
340
2CA
340
2C9
340
2C8
340
2C7
340
2C6
340
2C5
340
2C4
340
2C3
340
2C2
340
2C1
340
2C0
340
2BF
340
2BE
340
2BD
340
2BC
340
2BB
340
2BA
340
2B9
  0
GROUP
  5
522
102
{ACAD_REACTORS
330
D
102
}
330
D
100
AcDbGroup
300

 70
     1
 71
     1
340
51B
340
51A
340
34D
340
34C
340
34B
340
34A
340
349
340
348
340
347
340
346
340
345
340
344
340
343
340
342
340
341
340
340
340
33F
340
33E
340
33D
340
33C
340
33B
340
33A
340
339
340
338
340
337
340
336
340
335
340
334
340
333
340
332
340
331
340
330
340
32F
340
32E
340
32D
340
32C
340
32B
340
32A
340
329
340
328
340
327
340
326
340
325
340
324
340
323
340
322
340
321
340
320
340
31F
340
31E
340
31D
340
31C
340
31B
340
31A
340
319
340
318
340
317
340
316
340
315
340
314
340
313
340
312
340
311
340
310
340
30F
340
30E
340
30D
340
30C
  0
GROUP
  5
523
102
{ACAD_REACTORS
330
D
102
}
330
D
100
AcDbGroup
300

 70
     1
 71
     1
340
51D
340
51C
340
3F6
340
3F5
340
3F4
340
3F3
340
3F2
340
3F1
340
3F0
340
3EF
340
3EE
340
3ED
340
3EC
340
3EB
340
3EA
340
3E9
340
3E8
340
3E7
340
3E6
340
3E5
340
3E4
340
3E3
340
3E2
340
3E1
340
3E0
340
3DF
340
3DE
340
3DD
340
3DC
340
3DB
340
3DA
340
3D9
340
3D8
340
3D7
340
3D6
340
3D5
340
3D4
340
3D3
340
3D2
340
3D1
340
3D0
340
3CF
340
3CE
340
3CD
340
3CC
340
3CB
340
3CA
340
3C9
340
3C8
340
3C7
340
3C6
340
3C5
340
3C4
340
3C3
340
3C2
340
3C1
340
3C0
340
3BF
340
3BE
340
3BD
340
3BC
340
3BB
340
3BA
340
3B9
340
3B8
340
3B7
340
3B6
340
3B5
340
3B4
340
3B3
340
3B2
340
3B1
340
3B0
340
3AF
340
3AE
340
3AD
340
3AC
340
3AB
340
3AA
340
3A9
340
3A8
340
3A7
340
3A6
340
3A5
340
3A4
340
3A3
  0
GROUP
  5
524
102
{ACAD_REACTORS
330
D
102
}
330
D
100
AcDbGroup
300

 70
     1
 71
     1
340
51F
340
51E
340
3A2
340
3A1
340
3A0
340
39F
340
39E
340
39D
340
39C
340
39B
340
39A
340
399
340
398
340
397
340
396
340
395
340
394
340
393
340
392
340
391
340
390
340
38F
340
38E
340
38D
340
38C
340
38B
340
38A
340
389
340
388
340
387
340
386
340
385
340
384
340
383
340
382
340
381
340
380
340
37F
340
37E
340
37D
340
37C
340
37B
340
37A
340
379
340
378
340
377
340
376
340
375
340
374
340
373
340
372
340
371
340
370
340
36F
340
36E
340
36D
340
36C
340
36B
340
36A
340
369
340
368
340
367
340
366
340
365
340
364
340
363
340
362
340
361
340
360
340
35F
340
35E
340
35D
340
35C
340
35B
340
35A
340
359
340
358
340
357
340
356
340
355
340
354
340
353
340
352
340
351
340
350
340
34F
340
34E
  0
GROUP
  5
56B
102
{ACAD_REACTORS
330
D
102
}
330
D
100
AcDbGroup
300

 70
     1
 71
     1
340
517
340
516
340
292
340
291
340
290
340
28F
340
28E
340
28B
340
288
340
287
340
286
340
285
340
284
340
283
340
282
340
281
340
280
340
27F
340
27E
340
27D
340
27C
340
27B
340
27A
340
279
340
278
340
277
340
276
340
275
340
274
340
273
340
272
340
271
340
270
340
26F
340
26E
340
26D
340
26C
340
26B
340
26A
340
269
340
268
340
267
340
266
340
265
  0
LAYOUT
  5
1E
102
{ACAD_XDICTIONARY
360
60B
102
}
102
{ACAD_REACTORS
330
1A
102
}
330
1A
100
AcDbPlotSettings
  1

  2
none_device
  4

  6

 40
0.0
 41
0.0
 42
0.0
 43
0.0
 44
0.0
 45
0.0
 46
0.0
 47
0.0
 48
0.0
 49
0.0
140
0.0
141
0.0
142
1.0
143
1.0
 70
   688
 72
     1
 73
     0
 74
     5
  7

 75
    16
147
1.0
148
0.0
149
0.0
100
AcDbLayout
  1
Layout1
 70
     1
 71
     1
 10
0.0
 20
0.0
 11
420.0
 21
297.0
 12
0.0
 22
0.0
 32
0.0
 14
1.000000000000000E+20
 24
1.000000000000000E+20
 34
1.000000000000000E+20
 15
-1.000000000000000E+20
 25
-1.000000000000000E+20
 35
-1.000000000000000E+20
146
0.0
 13
0.0
 23
0.0
 33
0.0
 16
1.0
 26
0.0
 36
0.0
 17
0.0
 27
1.0
 37
0.0
 76
     0
330
1B
  0
LAYOUT
  5
22
102
{ACAD_XDICTIONARY
360
60D
102
}
102
{ACAD_REACTORS
330
1A
102
}
330
1A
100
AcDbPlotSettings
  1

  2
none_device
  4
Letter_(8.50_x_11.00_Inches)
  6

 40
6.349999999999997
 41
6.349999999999997
 42
6.350005079999997
 43
6.350005079999997
 44
215.9
 45
279.4
 46
0.0
 47
0.0
 48
0.0
 49
0.0
140
0.0
141
0.0
142
1.0
143
1.0
 70
  1712
 72
     1
 73
     0
 74
     0
  7

 75
     0
147
1.0
148
0.0
149
0.0
100
AcDbLayout
  1
Model
 70
     1
 71
     0
 10
-444.81410408021
 20
-459.8279209137063
 11
1125.707685470581
 21
849.1889038086039
 12
0.0
 22
0.0
 32
0.0
 14
-444.81410408021
 24
-459.8279209137063
 34
0.0
 15
1125.707685470581
 25
849.1889038086039
 35
0.0
146
0.0
 13
0.0
 23
0.0
 33
0.0
 16
1.0
 26
0.0
 36
0.0
 17
0.0
 27
1.0
 37
0.0
 76
     0
330
1F
331
29
  0
LAYOUT
  5
25F
102
{ACAD_XDICTIONARY
360
644
102
}
102
{ACAD_REACTORS
330
1A
102
}
330
1A
100
AcDbPlotSettings
  1

  2
青梅 FX DocuCentre-V C2275 T2
  4

  6

 40
0.0
 41
0.0
 42
0.0
 43
0.0
 44
0.0
 45
0.0
 46
0.0
 47
0.0
 48
0.0
 49
0.0
140
0.0
141
0.0
142
1.0
143
1.0
 70
   688
 72
     0
 73
     0
 74
     5
  7
AutoCAD_PEN.ctb
 75
    16
147
1.0
148
0.0
149
0.0
100
AcDbLayout
  1
レイアウト1
 70
     1
 71
     2
 10
0.0
 20
0.0
 11
12.0
 21
9.0
 12
0.0
 22
0.0
 32
0.0
 14
0.0
 24
0.0
 34
0.0
 15
0.0
 25
0.0
 35
0.0
146
0.0
 13
0.0
 23
0.0
 33
0.0
 16
1.0
 26
0.0
 36
0.0
 17
0.0
 27
1.0
 37
0.0
 76
     0
330
23
  0
MATERIAL
  5
45
102
{ACAD_XDICTIONARY
360
251
102
}
102
{ACAD_REACTORS
330
43
102
}
330
43
100
AcDbMaterial
  1
ByBlock
  0
MATERIAL
  5
44
102
{ACAD_XDICTIONARY
360
24F
102
}
102
{ACAD_REACTORS
330
43
102
}
330
43
100
AcDbMaterial
  1
ByLayer
  0
MATERIAL
  5
46
102
{ACAD_XDICTIONARY
360
253
102
}
102
{ACAD_REACTORS
330
43
102
}
330
43
100
AcDbMaterial
  1
Global
  0
MLEADERSTYLE
  5
5C
102
{ACAD_REACTORS
330
5B
102
}
330
5B
100
AcDbMLeaderStyle
170
     2
171
     1
172
     0
 90
        2
 40
0.0
 41
0.0
173
     1
 91
-1056964608
340
14
 92
       -2
290
     1
 42
2.0
291
     1
 43
8.0
  3
Standard
 44
4.0
300

342
11
174
     1
178
     6
175
     1
176
     0
 93
-1056964608
 45
4.0
292
     0
297
     0
 46
4.0
 94
-1056964608
 47
1.0
 49
1.0
140
1.0
293
     1
141
0.0
294
     1
177
     0
142
1.0
295
     0
296
     0
143
3.75
1001
ACAD_MLEADERVER
1070
     2
  0
MLINESTYLE
  5
18
102
{ACAD_REACTORS
330
17
102
}
330
17
100
AcDbMlineStyle
  2
STANDARD
 70
     0
  3

 62
   256
 51
90.0
 52
90.0
 71
     2
 49
0.5
 62
   256
  6
BYLAYER
 49
-0.5
 62
   256
  6
BYLAYER
  0
ACDBPLACEHOLDER
  5
F
102
{ACAD_REACTORS
330
E
102
}
330
E
  0
SCALE
  5
48
102
{ACAD_REACTORS
330
47
102
}
330
47
100
AcDbScale
 70
     0
300
1:1
140
1.0
141
1.0
290
     1
  0
SCALE
  5
49
102
{ACAD_REACTORS
330
47
102
}
330
47
100
AcDbScale
 70
     0
300
1:2
140
1.0
141
2.0
290
     0
  0
SCALE
  5
4A
102
{ACAD_REACTORS
330
47
102
}
330
47
100
AcDbScale
 70
     0
300
1:4
140
1.0
141
4.0
290
     0
  0
SCALE
  5
4B
102
{ACAD_REACTORS
330
47
102
}
330
47
100
AcDbScale
 70
     0
300
1:5
140
1.0
141
5.0
290
     0
  0
SCALE
  5
4C
102
{ACAD_REACTORS
330
47
102
}
330
47
100
AcDbScale
 70
     0
300
1:8
140
1.0
141
8.0
290
     0
  0
SCALE
  5
4D
102
{ACAD_REACTORS
330
47
102
}
330
47
100
AcDbScale
 70
     0
300
1:10
140
1.0
141
10.0
290
     0
  0
SCALE
  5
4E
102
{ACAD_REACTORS
330
47
102
}
330
47
100
AcDbScale
 70
     0
300
1:16
140
1.0
141
16.0
290
     0
  0
SCALE
  5
4F
102
{ACAD_REACTORS
330
47
102
}
330
47
100
AcDbScale
 70
     0
300
1:20
140
1.0
141
20.0
290
     0
  0
SCALE
  5
50
102
{ACAD_REACTORS
330
47
102
}
330
47
100
AcDbScale
 70
     0
300
1:30
140
1.0
141
30.0
290
     0
  0
SCALE
  5
51
102
{ACAD_REACTORS
330
47
102
}
330
47
100
AcDbScale
 70
     0
300
1:40
140
1.0
141
40.0
290
     0
  0
SCALE
  5
52
102
{ACAD_REACTORS
330
47
102
}
330
47
100
AcDbScale
 70
     0
300
1:50
140
1.0
141
50.0
290
     0
  0
SCALE
  5
53
102
{ACAD_REACTORS
330
47
102
}
330
47
100
AcDbScale
 70
     0
300
1:100
140
1.0
141
100.0
290
     0
  0
SCALE
  5
54
102
{ACAD_REACTORS
330
47
102
}
330
47
100
AcDbScale
 70
     0
300
2:1
140
2.0
141
1.0
290
     0
  0
SCALE
  5
55
102
{ACAD_REACTORS
330
47
102
}
330
47
100
AcDbScale
 70
     0
300
4:1
140
4.0
141
1.0
290
     0
  0
SCALE
  5
56
102
{ACAD_REACTORS
330
47
102
}
330
47
100
AcDbScale
 70
     0
300
8:1
140
8.0
141
1.0
290
     0
  0
SCALE
  5
57
102
{ACAD_REACTORS
330
47
102
}
330
47
100
AcDbScale
 70
     0
300
10:1
140
10.0
141
1.0
290
     0
  0
SCALE
  5
58
102
{ACAD_REACTORS
330
47
102
}
330
47
100
AcDbScale
 70
     0
300
100:1
140
100.0
141
1.0
290
     0
  0
ACDBSECTIONVIEWSTYLE
  5
25C
102
{ACAD_XDICTIONARY
360
640
102
}
102
{ACAD_REACTORS
330
25B
102
}
330
25B
100
AcDbModelDocViewStyle
 70
     0
  3
Metric50
290
     0
100
AcDbSectionViewStyle
 70
     0
 71
     0
 90
      102
 71
     1
340
11
 40
5.0
340
0
340
0
 40
5.0
300
I, O, Q, S, X, Z
 40
10.0
 90
        0
 40
2.5
 90
        0
 71
     2
340
16
 90
       25
340
16
 90
       50
 40
5.0
 40
2.5
 40
5.0
 71
     3
340
11
 40
5.0
 90
        0
 40
15.0
 90
        1
300
%<\AcVar ViewSectionStartId>%-%<\AcVar ViewSectionEndId>% (%<\AcVar ViewScale \f "%sn">%)
 71
     4
300
ANSI31
 40
1.0
 90
        0
290
     0
290
     0
 90
        6
 40
0.0
 40
1.570796326794896
 40
0.2617993877991494
 40
1.308996938995747
 40
-0.2617993877991494
 40
1.832595714594044
  0
TABLESTYLE
  5
5A
102
{ACAD_XDICTIONARY
360
52F
102
}
102
{ACAD_REACTORS
330
59
102
}
330
59
100
AcDbTableStyle
  3
Standard
 70
     0
 71
     0
 40
1.5
 41
1.5
280
     0
281
     0
  7
Standard
140
4.5
170
     2
 62
     0
 63
     7
283
     0
274
    -2
284
     1
 64
     0
275
    -2
285
     1
 65
     0
276
    -2
286
     1
 66
     0
277
    -2
287
     1
 67
     0
278
    -2
288
     1
 68
     0
279
    -2
289
     1
 69
     0
  7
Standard
140
6.0
170
     5
 62
     0
 63
     7
283
     0
274
    -2
284
     1
 64
     0
275
    -2
285
     1
 65
     0
276
    -2
286
     1
 66
     0
277
    -2
287
     1
 67
     0
278
    -2
288
     1
 68
     0
279
    -2
289
     1
 69
     0
  7
Standard
140
4.5
170
     5
 62
     0
 63
     7
283
     0
274
    -2
284
     1
 64
     0
275
    -2
285
     1
 65
     0
276
    -2
286
     1
 66
     0
277
    -2
287
     1
 67
     0
278
    -2
288
     1
 68
     0
279
    -2
289
     1
 69
     0
  0
VISUALSTYLE
  5
2F
102
{ACAD_XDICTIONARY
360
617
102
}
102
{ACAD_REACTORS
330
2A
102
}
330
2A
100
AcDbVisualStyle
  2

 70
     4
 71
     0
 72
     2
 73
     0
 90
        0
 40
-0.6
 41
-30.0
 62
     5
 63
     7
 74
     1
 91
        4
 64
     7
 65
   257
 75
     1
175
     1
 42
1.0
 92
        0
 66
   257
 43
1.0
 76
     1
 77
     6
 78
     2
 67
     7
 79
     5
170
     0
171
     0
290
     0
174
     0
 93
        1
 44
0.0
173
     0
291
     0
 45
0.0
1001
ACAD
1000
AcDbSavedByObjectVersion
1070
     0
  0
VISUALSTYLE
  5
32
102
{ACAD_XDICTIONARY
360
61D
102
}
102
{ACAD_REACTORS
330
2A
102
}
330
2A
100
AcDbVisualStyle
  2

 70
     7
 71
     1
 72
     0
 73
     1
 90
        0
 40
-0.6
 41
-30.0
 62
     5
 63
     7
 74
     0
 91
        4
 64
     7
 65
   257
 75
     1
175
     1
 42
1.0
 92
        8
 66
     7
 43
1.0
 76
     1
 77
     6
 78
     2
 67
     7
 79
     5
170
     0
171
     0
290
     0
174
     0
 93
        1
 44
0.0
173
     0
291
     1
 45
0.0
1001
ACAD
1000
AcDbSavedByObjectVersion
1070
     0
  0
VISUALSTYLE
  5
36
102
{ACAD_XDICTIONARY
360
625
102
}
102
{ACAD_REACTORS
330
2A
102
}
330
2A
100
AcDbVisualStyle
  2

 70
    12
 71
     2
 72
     2
 73
     0
 90
        0
 40
-0.6
 41
-30.0
 62
     5
 63
     7
 74
     1
 91
        4
 64
     7
 65
   257
 75
     1
175
     1
 42
1.0
 92
        8
 66
     7
 43
1.0
 76
     1
 77
     6
 78
     2
 67
     7
 79
     5
170
     0
171
     0
290
     0
174
     0
 93
        1
 44
50.0
173
     0
291
     1
 45
0.0
1001
ACAD
1000
AcDbSavedByObjectVersion
1070
     0
  0
VISUALSTYLE
  5
3A
102
{ACAD_XDICTIONARY
360
62D
102
}
102
{ACAD_REACTORS
330
2A
102
}
330
2A
100
AcDbVisualStyle
  2

 70
    16
 71
     2
 72
     2
 73
     3
 90
        0
 40
-0.6
 41
-30.0
 62
     5
 63
     8
 74
     1
 91
        4
 64
     7
 65
   257
 75
     1
175
     1
 42
1.0
 92
        8
 66
     8
 43
1.0
 76
     1
 77
     6
 78
     2
 67
     7
 79
     5
170
     0
171
     0
290
     0
174
     0
 93
        1
 44
0.0
173
     0
291
     1
 45
0.0
1001
ACAD
1000
AcDbSavedByObjectVersion
1070
     0
  0
VISUALSTYLE
  5
34
102
{ACAD_XDICTIONARY
360
621
102
}
102
{ACAD_REACTORS
330
2A
102
}
330
2A
100
AcDbVisualStyle
  2

 70
     9
 71
     3
 72
     2
 73
     0
 90
        0
 40
-0.6
 41
-30.0
 62
     5
 63
     7
 74
     2
 91
        2
 64
     7
 65
   257
 75
     1
175
     1
 42
179.0
 92
        8
 66
     7
 43
1.0
 76
     1
 77
     6
 78
     2
 67
     7
 79
     3
170
     0
171
     0
290
     0
174
     0
 93
        1
 44
0.0
173
     0
291
     0
 45
0.0
1001
ACAD
1000
AcDbSavedByObjectVersion
1070
     0
  0
VISUALSTYLE
  5
35
102
{ACAD_XDICTIONARY
360
623
102
}
102
{ACAD_REACTORS
330
2A
102
}
330
2A
100
AcDbVisualStyle
  2

 70
    11
 71
     2
 72
     2
 73
     0
 90
        0
 40
-0.6
 41
-30.0
 62
     5
 63
     7
 74
     1
 91
        4
 64
     7
 65
   257
 75
     1
175
     1
 42
1.0
 92
        8
 66
     7
 43
1.0
 76
     1
 77
     6
 78
     2
 67
     7
 79
     5
170
     0
171
     0
290
     0
174
     0
 93
        1
 44
-50.0
173
     0
291
     1
 45
0.0
1001
ACAD
1000
AcDbSavedByObjectVersion
1070
     0
  0
VISUALSTYLE
  5
3D
102
{ACAD_XDICTIONARY
360
633
102
}
102
{ACAD_REACTORS
330
2A
102
}
330
2A
100
AcDbVisualStyle
  2

 70
    22
 71
     2
 72
     2
 73
     0
 90
        0
 40
-0.6
 41
-30.0
 62
     5
 63
     7
 74
     1
 91
        4
 64
     7
 65
   257
 75
     1
175
     1
 42
1.0
 92
        8
 66
     7
 43
1.0
 76
     1
 77
     6
 78
     2
 67
     7
 79
     5
170
     0
171
     0
290
     0
174
     0
 93
        1
 44
0.0
173
     0
291
     1
 45
0.0
1001
ACAD
1000
AcDbSavedByObjectVersion
1070
     0
  0
VISUALSTYLE
  5
39
102
{ACAD_XDICTIONARY
360
62B
102
}
102
{ACAD_REACTORS
330
2A
102
}
330
2A
100
AcDbVisualStyle
  2

 70
    15
 71
     2
 72
     2
 73
     0
 90
        0
 40
-0.6
 41
-30.0
 62
     5
 63
     7
 74
     1
 91
        4
 64
     7
 65
   257
 75
     1
175
     1
 42
1.0
 92
        8
 66
     7
 43
1.0
 76
     1
 77
     6
 78
     2
 67
     7
 79
     5
170
     0
171
     0
290
     0
174
     0
 93
        1
 44
0.0
173
     0
291
     1
 45
0.0
1001
ACAD
1000
AcDbSavedByObjectVersion
1070
     0
  0
VISUALSTYLE
  5
2B
102
{ACAD_XDICTIONARY
360
60F
102
}
102
{ACAD_REACTORS
330
2A
102
}
330
2A
100
AcDbVisualStyle
  2

 70
     0
 71
     2
 72
     1
 73
     1
 90
        2
 40
-0.6
 41
30.0
 62
     5
 63
     7
 74
     0
 91
        0
 64
     7
 65
   257
 75
     1
175
     1
 42
1.0
 92
        8
 66
     7
 43
1.0
 76
     1
 77
     6
 78
     2
 67
     7
 79
     5
170
     0
171
     0
290
     0
174
     0
 93
       13
 44
0.0
173
     0
291
     1
 45
0.0
1001
ACAD
1000
AcDbSavedByObjectVersion
1070
     0
  0
VISUALSTYLE
  5
2C
102
{ACAD_XDICTIONARY
360
611
102
}
102
{ACAD_REACTORS
330
2A
102
}
330
2A
100
AcDbVisualStyle
  2

 70
     1
 71
     2
 72
     1
 73
     1
 90
        2
 40
-0.6
 41
30.0
 62
     5
 63
     7
 74
     1
 91
        0
 64
     7
 65
   257
 75
     1
175
     1
 42
1.0
 92
        0
 66
   257
 43
1.0
 76
     1
 77
     6
 78
     2
 67
     7
 79
     5
170
     0
171
     0
290
     0
174
     0
 93
       13
 44
0.0
173
     0
291
     1
 45
0.0
1001
ACAD
1000
AcDbSavedByObjectVersion
1070
     0
  0
VISUALSTYLE
  5
2D
102
{ACAD_XDICTIONARY
360
613
102
}
102
{ACAD_REACTORS
330
2A
102
}
330
2A
100
AcDbVisualStyle
  2

 70
     2
 71
     2
 72
     2
 73
     1
 90
        2
 40
-0.6
 41
30.0
 62
     5
 63
     7
 74
     0
 91
        0
 64
     7
 65
   257
 75
     1
175
     1
 42
1.0
 92
        0
 66
     7
 43
1.0
 76
     1
 77
     6
 78
     2
 67
     7
 79
     5
170
     0
171
     0
290
     0
174
     0
 93
       13
 44
0.0
173
     0
291
     1
 45
0.0
1001
ACAD
1000
AcDbSavedByObjectVersion
1070
     0
  0
VISUALSTYLE
  5
2E
102
{ACAD_XDICTIONARY
360
615
102
}
102
{ACAD_REACTORS
330
2A
102
}
330
2A
100
AcDbVisualStyle
  2

 70
     3
 71
     2
 72
     2
 73
     1
 90
        2
 40
-0.6
 41
30.0
 62
     5
 63
     7
 74
     1
 91
        0
 64
     7
 65
   257
 75
     1
175
     1
 42
1.0
 92
        0
 66
   257
 43
1.0
 76
     1
 77
     6
 78
     2
 67
     7
 79
     5
170
     0
171
     0
290
     0
174
     0
 93
       13
 44
0.0
173
     0
291
     1
 45
0.0
1001
ACAD
1000
AcDbSavedByObjectVersion
1070
     0
  0
VISUALSTYLE
  5
31
102
{ACAD_XDICTIONARY
360
61B
102
}
102
{ACAD_REACTORS
330
2A
102
}
330
2A
100
AcDbVisualStyle
  2

 70
     6
 71
     1
 72
     2
 73
     2
 90
        0
 40
-0.6
 41
-30.0
 62
     5
 63
     7
 74
     2
 91
        2
 64
     7
 65
   257
 75
     2
175
     1
 42
40.0
 92
        0
 66
   257
 43
1.0
 76
     1
 77
     6
 78
     2
 67
     7
 79
     3
170
     0
171
     0
290
     0
174
     0
 93
        1
 44
0.0
173
     0
291
     0
 45
0.0
1001
ACAD
1000
AcDbSavedByObjectVersion
1070
     0
  0
VISUALSTYLE
  5
3B
102
{ACAD_XDICTIONARY
360
62F
102
}
102
{ACAD_REACTORS
330
2A
102
}
330
2A
100
AcDbVisualStyle
  2

 70
    20
 71
     2
 72
     2
 73
     0
 90
        0
 40
-0.6
 41
-30.0
 62
     5
 63
     7
 74
     1
 91
        4
 64
     7
 65
   257
 75
     1
175
     1
 42
1.0
 92
       10
 66
     7
 43
1.0
 76
     1
 77
     6
 78
     2
 67
     7
 79
     5
170
     0
171
     0
290
     0
174
     0
 93
        1
 44
0.0
173
     0
291
     1
 45
0.0
1001
ACAD
1000
AcDbSavedByObjectVersion
1070
     0
  0
VISUALSTYLE
  5
38
102
{ACAD_XDICTIONARY
360
629
102
}
102
{ACAD_REACTORS
330
2A
102
}
330
2A
100
AcDbVisualStyle
  2

 70
    14
 71
     2
 72
     2
 73
     0
 90
        0
 40
-0.6
 41
-30.0
 62
     5
 63
     7
 74
     1
 91
        4
 64
     7
 65
   257
 75
     7
175
     7
 42
1.0
 92
        8
 66
     7
 43
1.0
 76
     1
 77
     6
 78
     2
 67
     7
 79
     5
170
     0
171
     0
290
     0
174
     0
 93
        1
 44
0.0
173
     0
291
     1
 45
0.0
1001
ACAD
1000
AcDbSavedByObjectVersion
1070
     0
  0
VISUALSTYLE
  5
3C
102
{ACAD_XDICTIONARY
360
631
102
}
102
{ACAD_REACTORS
330
2A
102
}
330
2A
100
AcDbVisualStyle
  2

 70
    21
 71
     2
 72
     2
 73
     0
 90
        0
 40
-0.6
 41
-30.0
 62
     5
 63
     7
 74
     1
 91
        4
 64
     7
 65
   257
 75
     1
175
     1
 42
1.0
 92
        9
 66
     7
 43
1.0
 76
     1
 77
     6
 78
     2
 67
     7
 79
     5
170
     0
171
     0
290
     0
174
     0
 93
        1
 44
0.0
173
     0
291
     1
 45
0.0
1001
ACAD
1000
AcDbSavedByObjectVersion
1070
     0
  0
VISUALSTYLE
  5
33
102
{ACAD_XDICTIONARY
360
61F
102
}
102
{ACAD_REACTORS
330
2A
102
}
330
2A
100
AcDbVisualStyle
  2

 70
     8
 71
     2
 72
     3
 73
     0
 90
        2
 40
-0.6
 41
30.0
 62
     5
 63
     7
 74
     0
 91
        0
 64
     7
 65
   257
 75
     1
175
     1
 42
1.0
 92
        8
 66
   257
 43
1.0
 76
     1
 77
     6
 78
     2
 67
     7
 79
     3
170
     0
171
     0
290
     0
174
     0
 93
       13
 44
0.0
173
     0
291
     0
 45
0.0
1001
ACAD
1000
AcDbSavedByObjectVersion
1070
     0
  0
VISUALSTYLE
  5
42
102
{ACAD_XDICTIONARY
360
63D
102
}
102
{ACAD_REACTORS
330
2A
102
}
330
2A
100
AcDbVisualStyle
  2

 70
    27
 71
     2
 72
     2
 73
     1
 90
        2
 40
-0.6
 41
30.0
 62
     5
 63
     7
 74
     0
 91
        4
 64
     7
 65
   257
 75
     1
175
     1
 42
1.0
 92
        8
 66
   257
 43
1.0
 76
     1
 77
     6
 78
     2
 67
     8
 79
     3
170
     0
171
     0
290
     0
174
     0
 93
        5
 44
0.0
173
     0
291
     0
 45
0.0
1001
ACAD
1000
AcDbSavedByObjectVersion
1070
     0
  0
VISUALSTYLE
  5
41
102
{ACAD_XDICTIONARY
360
63B
102
}
102
{ACAD_REACTORS
330
2A
102
}
330
2A
100
AcDbVisualStyle
  2

 70
    26
 71
     2
 72
     2
 73
     1
 90
        2
 40
-0.6
 41
30.0
 62
     5
 63
     7
 74
     1
 91
       10
 64
     7
 65
   257
 75
     2
175
     1
 42
1.0
 92
        8
 66
   257
 43
1.0
 76
     1
 77
     6
 78
     2
 67
     7
 79
     3
170
     0
171
     0
290
     0
174
     0
 93
        5
 44
0.0
173
     0
291
     0
 45
0.0
1001
ACAD
1000
AcDbSavedByObjectVersion
1070
     0
  0
VISUALSTYLE
  5
3E
102
{ACAD_XDICTIONARY
360
635
102
}
102
{ACAD_REACTORS
330
2A
102
}
330
2A
100
AcDbVisualStyle
  2

 70
    23
 71
     2
 72
     2
 73
     3
 90
        0
 40
-0.6
 41
-30.0
 62
     5
 63
     7
 74
     2
 91
        2
 64
     7
 65
     7
 75
     1
175
     1
 42
40.0
 92
        8
 66
     7
 43
1.0
 76
     1
 77
     6
 78
     2
 67
     7
 79
     3
170
     0
171
     0
290
     0
174
     0
 93
        1
 44
0.0
173
     0
291
     0
 45
0.0
1001
ACAD
1000
AcDbSavedByObjectVersion
1070
     0
  0
VISUALSTYLE
  5
3F
102
{ACAD_XDICTIONARY
360
637
102
}
102
{ACAD_REACTORS
330
2A
102
}
330
2A
100
AcDbVisualStyle
  2

 70
    24
 71
     1
 72
     2
 73
     2
 90
        0
 40
-0.6
 41
-30.0
 62
     5
 63
     7
 74
     2
 91
        2
 64
     7
 65
     7
 75
     1
175
     1
 42
40.0
 92
       11
 66
     7
 43
1.0
 76
     1
 77
     6
 78
     2
 67
     7
 79
     6
170
     0
171
     0
290
     0
174
     0
 93
        1
 44
0.0
173
     0
291
     0
 45
0.0
1001
ACAD
1000
AcDbSavedByObjectVersion
1070
     0
  0
VISUALSTYLE
  5
37
102
{ACAD_XDICTIONARY
360
627
102
}
102
{ACAD_REACTORS
330
2A
102
}
330
2A
100
AcDbVisualStyle
  2

 70
    13
 71
     2
 72
     2
 73
     0
 90
        0
 40
-0.6
 41
-30.0
 62
     5
 63
     7
 74
     1
 91
        4
 64
     7
 65
   257
 75
     1
175
     1
 42
1.0
 92
       12
 66
     7
 43
1.0
 76
     1
 77
     6
 78
     2
 67
     7
 79
     5
170
     0
171
     0
290
     0
174
     0
 93
        1
 44
0.0
173
     0
291
     1
 45
0.0
1001
ACAD
1000
AcDbSavedByObjectVersion
1070
     0
  0
VISUALSTYLE
  5
30
102
{ACAD_XDICTIONARY
360
619
102
}
102
{ACAD_REACTORS
330
2A
102
}
330
2A
100
AcDbVisualStyle
  2

 70
     5
 71
     0
 72
     2
 73
     0
 90
        0
 40
-0.6
 41
-30.0
 62
     5
 63
     7
 74
     1
 91
        4
 64
     7
 65
   257
 75
     1
175
     1
 42
1.0
 92
        0
 66
   257
 43
1.0
 76
     1
 77
     6
 78
     2
 67
     7
 79
     3
170
     0
171
     0
290
     0
174
     0
 93
        1
 44
0.0
173
     0
291
     0
 45
0.0
1001
ACAD
1000
AcDbSavedByObjectVersion
1070
     0
  0
VISUALSTYLE
  5
40
102
{ACAD_XDICTIONARY
360
639
102
}
102
{ACAD_REACTORS
330
2A
102
}
330
2A
100
AcDbVisualStyle
  2

 70
    25
 71
     2
 72
     2
 73
     1
 90
        1
 40
0.5
 41
-30.0
 62
     5
 63
     7
 74
     1
 91
        0
 64
     7
 65
   257
 75
     1
175
     1
 42
1.0
 92
        8
 66
     7
 43
1.0
 76
     1
 77
     6
 78
     2
 67
     7
 79
     3
170
     0
171
     0
290
     0
174
     0
 93
       13
 44
0.0
173
     0
291
     0
 45
0.0
1001
ACAD
1000
AcDbSavedByObjectVersion
1070
     0
  0
DICTIONARYVAR
  5
21D
102
{ACAD_REACTORS
330
20F
102
}
330
20F
100
DictionaryVariables
280
     0
  1
1:1
  0
DICTIONARYVAR
  5
216
102
{ACAD_REACTORS
330
20F
102
}
330
20F
100
DictionaryVariables
280
     0
  1
3.500000
  0
DICTIONARYVAR
  5
217
102
{ACAD_REACTORS
330
20F
102
}
330
20F
100
DictionaryVariables
280
     0
  1
acadiso.lin
  0
DICTIONARYVAR
  5
211
102
{ACAD_REACTORS
330
20F
102
}
330
20F
100
DictionaryVariables
280
     0
  1
STANDARD
  0
DICTIONARYVAR
  5
210
102
{ACAD_REACTORS
330
20F
102
}
330
20F
100
DictionaryVariables
280
     0
  1
STANDARD
  0
DICTIONARYVAR
  5
52A
102
{ACAD_REACTORS
330
20F
102
}
330
20F
100
DictionaryVariables
280
     0
  1
Metric50
  0
DICTIONARYVAR
  5
52B
102
{ACAD_REACTORS
330
20F
102
}
330
20F
100
DictionaryVariables
280
     0
  1
Metric50
  0
DICTIONARYVAR
  5
218
102
{ACAD_REACTORS
330
20F
102
}
330
20F
100
DictionaryVariables
280
     0
  1
2
  0
DICTIONARYVAR
  5
219
102
{ACAD_REACTORS
330
20F
102
}
330
20F
100
DictionaryVariables
280
     0
  1
1
  0
DICTIONARYVAR
  5
575
102
{ACAD_REACTORS
330
20F
102
}
330
20F
100
DictionaryVariables
280
     0
  1
0
  0
DICTIONARYVAR
  5
52D
102
{ACAD_REACTORS
330
20F
102
}
330
20F
100
DictionaryVariables
280
     0
  1
1
  0
DICTIONARYVAR
  5
52E
102
{ACAD_REACTORS
330
20F
102
}
330
20F
100
DictionaryVariables
280
     0
  1
15
  0
DICTIONARYVAR
  5
52C
102
{ACAD_REACTORS
330
20F
102
}
330
20F
100
DictionaryVariables
280
     0
  1
0
  0
DICTIONARYVAR
  5
5C7
102
{ACAD_REACTORS
330
20F
102
}
330
20F
100
DictionaryVariables
280
     0
  1
1.570796
  0
DICTIONARYVAR
  5
5C8
102
{ACAD_REACTORS
330
20F
102
}
330
20F
100
DictionaryVariables
280
     0
  1
1.570796
  0
DICTIONARYVAR
  5
21E
102
{ACAD_REACTORS
330
20F
102
}
330
20F
100
DictionaryVariables
280
     0
  1
1
  0
DICTIONARYVAR
  5
5C6
102
{ACAD_REACTORS
330
20F
102
}
330
20F
100
DictionaryVariables
280
     0
  1
80.000000
  0
DICTIONARYVAR
  5
5C5
102
{ACAD_REACTORS
330
20F
102
}
330
20F
100
DictionaryVariables
280
     0
  1
5.000000
  0
DICTIONARYVAR
  5
574
102
{ACAD_REACTORS
330
20F
102
}
330
20F
100
DictionaryVariables
280
     0
  1
127
  0
DICTIONARYVAR
  5
5C9
102
{ACAD_REACTORS
330
20F
102
}
330
20F
100
DictionaryVariables
280
     0
  1
2
  0
DICTIONARY
  5
642
330
25E
100
AcDbDictionary
280
     1
281
     1
  3
ACAD_XREC_ROUNDTRIP
360
643
  0
DICTIONARY
  5
60B
330
1E
100
AcDbDictionary
280
     1
281
     1
  3
ACAD_XREC_ROUNDTRIP
360
60C
  0
DICTIONARY
  5
60D
330
22
100
AcDbDictionary
280
     1
281
     1
  3
ACAD_XREC_ROUNDTRIP
360
60E
  0
DICTIONARY
  5
644
330
25F
100
AcDbDictionary
280
     1
281
     1
  3
ACAD_XREC_ROUNDTRIP
360
645
  0
DICTIONARY
  5
251
330
45
100
AcDbDictionary
280
     1
281
     1
  3
ACAD_XREC_ROUNDTRIP
360
252
  0
DICTIONARY
  5
24F
330
44
100
AcDbDictionary
280
     1
281
     1
  3
ACAD_XREC_ROUNDTRIP
360
250
  0
DICTIONARY
  5
253
330
46
100
AcDbDictionary
280
     1
281
     1
  3
ACAD_XREC_ROUNDTRIP
360
254
  0
DICTIONARY
  5
640
330
25C
100
AcDbDictionary
280
     1
281
     1
  3
ACAD_XREC_ROUNDTRIP
360
641
  0
DICTIONARY
  5
52F
330
5A
100
AcDbDictionary
280
     1
281
     1
  3
ACAD_ROUNDTRIP_2008_TABLESTYLE_CELLSTYLEMAP
360
608
  3
ACAD_XREC_ROUNDTRIP
360
63F
  0
DICTIONARY
  5
617
330
2F
100
AcDbDictionary
280
     1
281
     1
  3
ACAD_XREC_ROUNDTRIP
360
618
  0
DICTIONARY
  5
61D
330
32
100
AcDbDictionary
280
     1
281
     1
  3
ACAD_XREC_ROUNDTRIP
360
61E
  0
DICTIONARY
  5
625
330
36
100
AcDbDictionary
280
     1
281
     1
  3
ACAD_XREC_ROUNDTRIP
360
626
  0
DICTIONARY
  5
62D
330
3A
100
AcDbDictionary
280
     1
281
     1
  3
ACAD_XREC_ROUNDTRIP
360
62E
  0
DICTIONARY
  5
621
330
34
100
AcDbDictionary
280
     1
281
     1
  3
ACAD_XREC_ROUNDTRIP
360
622
  0
DICTIONARY
  5
623
330
35
100
AcDbDictionary
280
     1
281
     1
  3
ACAD_XREC_ROUNDTRIP
360
624
  0
DICTIONARY
  5
633
330
3D
100
AcDbDictionary
280
     1
281
     1
  3
ACAD_XREC_ROUNDTRIP
360
634
  0
DICTIONARY
  5
62B
330
39
100
AcDbDictionary
280
     1
281
     1
  3
ACAD_XREC_ROUNDTRIP
360
62C
  0
DICTIONARY
  5
60F
330
2B
100
AcDbDictionary
280
     1
281
     1
  3
ACAD_XREC_ROUNDTRIP
360
610
  0
DICTIONARY
  5
611
330
2C
100
AcDbDictionary
280
     1
281
     1
  3
ACAD_XREC_ROUNDTRIP
360
612
  0
DICTIONARY
  5
613
330
2D
100
AcDbDictionary
280
     1
281
     1
  3
ACAD_XREC_ROUNDTRIP
360
614
  0
DICTIONARY
  5
615
330
2E
100
AcDbDictionary
280
     1
281
     1
  3
ACAD_XREC_ROUNDTRIP
360
616
  0
DICTIONARY
  5
61B
330
31
100
AcDbDictionary
280
     1
281
     1
  3
ACAD_XREC_ROUNDTRIP
360
61C
  0
DICTIONARY
  5
62F
330
3B
100
AcDbDictionary
280
     1
281
     1
  3
ACAD_XREC_ROUNDTRIP
360
630
  0
DICTIONARY
  5
629
330
38
100
AcDbDictionary
280
     1
281
     1
  3
ACAD_XREC_ROUNDTRIP
360
62A
  0
DICTIONARY
  5
631
330
3C
100
AcDbDictionary
280
     1
281
     1
  3
ACAD_XREC_ROUNDTRIP
360
632
  0
DICTIONARY
  5
61F
330
33
100
AcDbDictionary
280
     1
281
     1
  3
ACAD_XREC_ROUNDTRIP
360
620
  0
DICTIONARY
  5
63D
330
42
100
AcDbDictionary
280
     1
281
     1
  3
ACAD_XREC_ROUNDTRIP
360
63E
  0
DICTIONARY
  5
63B
330
41
100
AcDbDictionary
280
     1
281
     1
  3
ACAD_XREC_ROUNDTRIP
360
63C
  0
DICTIONARY
  5
635
330
3E
100
AcDbDictionary
280
     1
281
     1
  3
ACAD_XREC_ROUNDTRIP
360
636
  0
DICTIONARY
  5
637
330
3F
100
AcDbDictionary
280
     1
281
     1
  3
ACAD_XREC_ROUNDTRIP
360
638
  0
DICTIONARY
  5
627
330
37
100
AcDbDictionary
280
     1
281
     1
  3
ACAD_XREC_ROUNDTRIP
360
628
  0
DICTIONARY
  5
619
330
30
100
AcDbDictionary
280
     1
281
     1
  3
ACAD_XREC_ROUNDTRIP
360
61A
  0
DICTIONARY
  5
639
330
40
100
AcDbDictionary
280
     1
281
     1
  3
ACAD_XREC_ROUNDTRIP
360
63A
  0
XRECORD
  5
643
102
{ACAD_REACTORS
330
642
102
}
330
642
100
AcDbXrecord
280
     1
102
DISPLAYNAME
  1
Metric50
102
FLAGS
 90
        0
  0
XRECORD
  5
60C
102
{ACAD_REACTORS
330
60B
102
}
330
60B
100
AcDbXrecord
280
     1
102
SHADEPLOT
 70
     0
102
SHADEPLOTRESLEVEL
 70
     2
102
SHADEPLOTCUSTOMDPI
 70
   300
  0
XRECORD
  5
60E
102
{ACAD_REACTORS
330
60D
102
}
330
60D
100
AcDbXrecord
280
     1
102
SHADEPLOT
 70
     0
102
SHADEPLOTRESLEVEL
 70
     2
102
SHADEPLOTCUSTOMDPI
 70
   300
  0
XRECORD
  5
645
102
{ACAD_REACTORS
330
644
102
}
330
644
100
AcDbXrecord
280
     1
102
SHADEPLOT
 70
     0
102
SHADEPLOTRESLEVEL
 70
     2
102
SHADEPLOTCUSTOMDPI
 70
   300
  0
XRECORD
  5
252
102
{ACAD_REACTORS
330
251
102
}
330
251
100
AcDbXrecord
280
     1
102
MATERIAL
148
0.0
149
0.0
149
0.0
 93
        0
 94
      127
282
     0
 72
     1
 77
     1
171
     1
175
     1
179
     1
273
     0
  0
XRECORD
  5
250
102
{ACAD_REACTORS
330
24F
102
}
330
24F
100
AcDbXrecord
280
     1
102
MATERIAL
148
0.0
149
0.0
149
0.0
 93
        0
 94
      127
282
     0
 72
     1
 77
     1
171
     1
175
     1
179
     1
273
     0
  0
XRECORD
  5
254
102
{ACAD_REACTORS
330
253
102
}
330
253
100
AcDbXrecord
280
     1
102
MATERIAL
148
0.0
149
0.0
149
0.0
 93
        0
 94
      127
282
     0
 72
     1
 77
     1
171
     1
175
     1
179
     1
273
     0
  0
XRECORD
  5
641
102
{ACAD_REACTORS
330
640
102
}
330
640
100
AcDbXrecord
280
     1
102
DISPLAYNAME
  1
Metric50
102
FLAGS
 90
        0
  0
CELLSTYLEMAP
  5
608
102
{ACAD_REACTORS
330
52F
102
}
330
52F
100
AcDbCellStyleMap
 90
        3
300
CELLSTYLE
  1
TABLEFORMAT_BEGIN
 90
        5
170
     1
 91
        0
 92
    32768
 62
   257
 93
        1
300
CONTENTFORMAT
  1
CONTENTFORMAT_BEGIN
 90
        0
 91
        0
 92
        4
 93
        0
300

 40
0.0
140
1.0
 94
        5
 62
     0
340
11
144
6.0
309
CONTENTFORMAT_END
171
     1
301
MARGIN
  1
CELLMARGIN_BEGIN
 40
1.5
 40
1.5
 40
1.5
 40
1.5
 40
0.18
 40
0.18
309
CELLMARGIN_END
 94
        6
 95
        1
302
GRIDFORMAT
  1
GRIDFORMAT_BEGIN
 90
        0
 91
        1
 62
     0
 92
       -2
340
0
 93
        0
 40
0.045
309
GRIDFORMAT_END
 95
        2
302
GRIDFORMAT
  1
GRIDFORMAT_BEGIN
 90
        0
 91
        1
 62
     0
 92
       -2
340
0
 93
        0
 40
0.045
309
GRIDFORMAT_END
 95
        4
302
GRIDFORMAT
  1
GRIDFORMAT_BEGIN
 90
        0
 91
        1
 62
     0
 92
       -2
340
0
 93
        0
 40
0.045
309
GRIDFORMAT_END
 95
        8
302
GRIDFORMAT
  1
GRIDFORMAT_BEGIN
 90
        0
 91
        1
 62
     0
 92
       -2
340
0
 93
        0
 40
0.045
309
GRIDFORMAT_END
 95
       16
302
GRIDFORMAT
  1
GRIDFORMAT_BEGIN
 90
        0
 91
        1
 62
     0
 92
       -2
340
0
 93
        0
 40
0.045
309
GRIDFORMAT_END
 95
       32
302
GRIDFORMAT
  1
GRIDFORMAT_BEGIN
 90
        0
 91
        1
 62
     0
 92
       -2
340
0
 93
        0
 40
0.045
309
GRIDFORMAT_END
309
TABLEFORMAT_END
  1
CELLSTYLE_BEGIN
 90
        1
 91
        1
300
_TITLE
309
CELLSTYLE_END
300
CELLSTYLE
  1
TABLEFORMAT_BEGIN
 90
        5
170
     1
 91
        0
 92
        0
 62
   257
 93
        1
300
CONTENTFORMAT
  1
CONTENTFORMAT_BEGIN
 90
        0
 91
        0
 92
        4
 93
        0
300

 40
0.0
140
1.0
 94
        5
 62
     0
340
11
144
4.5
309
CONTENTFORMAT_END
171
     1
301
MARGIN
  1
CELLMARGIN_BEGIN
 40
1.5
 40
1.5
 40
1.5
 40
1.5
 40
0.18
 40
0.18
309
CELLMARGIN_END
 94
        6
 95
        1
302
GRIDFORMAT
  1
GRIDFORMAT_BEGIN
 90
        0
 91
        1
 62
     0
 92
       -2
340
0
 93
        0
 40
0.045
309
GRIDFORMAT_END
 95
        2
302
GRIDFORMAT
  1
GRIDFORMAT_BEGIN
 90
        0
 91
        1
 62
     0
 92
       -2
340
0
 93
        0
 40
0.045
309
GRIDFORMAT_END
 95
        4
302
GRIDFORMAT
  1
GRIDFORMAT_BEGIN
 90
        0
 91
        1
 62
     0
 92
       -2
340
0
 93
        0
 40
0.045
309
GRIDFORMAT_END
 95
        8
302
GRIDFORMAT
  1
GRIDFORMAT_BEGIN
 90
        0
 91
        1
 62
     0
 92
       -2
340
0
 93
        0
 40
0.045
309
GRIDFORMAT_END
 95
       16
302
GRIDFORMAT
  1
GRIDFORMAT_BEGIN
 90
        0
 91
        1
 62
     0
 92
       -2
340
0
 93
        0
 40
0.045
309
GRIDFORMAT_END
 95
       32
302
GRIDFORMAT
  1
GRIDFORMAT_BEGIN
 90
        0
 91
        1
 62
     0
 92
       -2
340
0
 93
        0
 40
0.045
309
GRIDFORMAT_END
309
TABLEFORMAT_END
  1
CELLSTYLE_BEGIN
 90
        2
 91
        1
300
_HEADER
309
CELLSTYLE_END
300
CELLSTYLE
  1
TABLEFORMAT_BEGIN
 90
        5
170
     1
 91
        0
 92
        0
 62
   257
 93
        1
300
CONTENTFORMAT
  1
CONTENTFORMAT_BEGIN
 90
        0
 91
        0
 92
        4
 93
        0
300

 40
0.0
140
1.0
 94
        2
 62
     0
340
11
144
4.5
309
CONTENTFORMAT_END
171
     1
301
MARGIN
  1
CELLMARGIN_BEGIN
 40
1.5
 40
1.5
 40
1.5
 40
1.5
 40
0.18
 40
0.18
309
CELLMARGIN_END
 94
        6
 95
        1
302
GRIDFORMAT
  1
GRIDFORMAT_BEGIN
 90
        0
 91
        1
 62
     0
 92
       -2
340
0
 93
        0
 40
0.045
309
GRIDFORMAT_END
 95
        2
302
GRIDFORMAT
  1
GRIDFORMAT_BEGIN
 90
        0
 91
        1
 62
     0
 92
       -2
340
0
 93
        0
 40
0.045
309
GRIDFORMAT_END
 95
        4
302
GRIDFORMAT
  1
GRIDFORMAT_BEGIN
 90
        0
 91
        1
 62
     0
 92
       -2
340
0
 93
        0
 40
0.045
309
GRIDFORMAT_END
 95
        8
302
GRIDFORMAT
  1
GRIDFORMAT_BEGIN
 90
        0
 91
        1
 62
     0
 92
       -2
340
0
 93
        0
 40
0.045
309
GRIDFORMAT_END
 95
       16
302
GRIDFORMAT
  1
GRIDFORMAT_BEGIN
 90
        0
 91
        1
 62
     0
 92
       -2
340
0
 93
        0
 40
0.045
309
GRIDFORMAT_END
 95
       32
302
GRIDFORMAT
  1
GRIDFORMAT_BEGIN
 90
        0
 91
        1
 62
     0
 92
       -2
340
0
 93
        0
 40
0.045
309
GRIDFORMAT_END
309
TABLEFORMAT_END
  1
CELLSTYLE_BEGIN
 90
        3
 91
        2
300
_DATA
309
CELLSTYLE_END
  0
XRECORD
  5
63F
102
{ACAD_REACTORS
330
52F
102
}
330
52F
100
AcDbXrecord
280
     1
102
ACAD_ROUNDTRIP_PRE2007_TABLESTYLE
 90
        4
 91
        0
  1

 92
        4
 93
        0
  2

 94
        4
 95
        0
  3

  0
XRECORD
  5
618
102
{ACAD_REACTORS
330
617
102
}
330
617
100
AcDbXrecord
280
     1
102
RTVSPost2010Prop28
280
     1
102
RTVSPost2010PropOp28
 70
     1
102
RTVSPost2010Prop29
280
     1
102
RTVSPost2010PropOp29
 70
     1
102
RTVSPost2010Prop30
280
     0
102
RTVSPost2010PropOp30
 70
     1
102
RTVSPost2010Prop31
280
     0
102
RTVSPost2010PropOp31
 70
     1
102
RTVSPost2010Prop32
280
     0
102
RTVSPost2010PropOp32
 70
     1
102
RTVSPost2010Prop33
280
     0
102
RTVSPost2010PropOp33
 70
     1
102
RTVSPost2010Prop34
280
     0
102
RTVSPost2010PropOp34
 70
     1
102
RTVSPost2010Prop35
280
     0
102
RTVSPost2010PropOp35
 70
     1
102
RTVSPost2010Prop36
280
     0
102
RTVSPost2010PropOp36
 70
     1
102
RTVSPost2010Prop37
 90
       50
102
RTVSPost2010PropOp37
 70
     1
102
RTVSPost2010Prop38
140
0.0
102
RTVSPost2010PropOp38
 70
     1
102
RTVSPost2010Prop39
140
1.0
102
RTVSPost2010PropOp39
 70
     1
102
RTVSPost2010Prop40
 90
        0
102
RTVSPost2010PropOp40
 70
     1
102
RTVSPost2010Prop41ColorIndex
 90
       18
102
RTVSPost2010Prop41ColorRGB
 90
        0
102
RTVSPost2010PropOp41
 70
     1
102
RTVSPost2010Prop42
 90
       50
102
RTVSPost2010PropOp42
 70
     1
102
RTVSPost2010Prop43
 90
        3
102
RTVSPost2010PropOp43
 70
     1
102
RTVSPost2010Prop44ColorIndex
 90
        5
102
RTVSPost2010Prop44ColorRGB
 90
      255
102
RTVSPost2010PropOp44
 70
     1
102
RTVSPost2010Prop45
280
     0
102
RTVSPost2010PropOp45
 70
     1
102
RTVSPost2010Prop46
 90
       50
102
RTVSPost2010PropOp46
 70
     1
102
RTVSPost2010Prop47
 90
       50
102
RTVSPost2010PropOp47
 70
     1
102
RTVSPost2010Prop48
 90
       50
102
RTVSPost2010PropOp48
 70
     1
102
RTVSPost2010Prop49
280
     0
102
RTVSPost2010PropOp49
 70
     1
102
RTVSPost2010Prop50
 90
       50
102
RTVSPost2010PropOp50
 70
     1
102
RTVSPost2010Prop51ColorIndex
 90
      256
102
RTVSPost2010Prop51ColorRGB
 90
-16777216
102
RTVSPost2010PropOp51
 70
     0
102
RTVSPost2010Prop52
140
1.0
102
RTVSPost2010PropOp52
 70
     0
102
RTVSPost2010Prop53
 90
        2
102
RTVSPost2010PropOp53
 70
     1
102
RTVSPost2010Prop54
  1
strokes_ogs.tif
102
RTVSPost2010PropOp54
 70
     1
102
RTVSPost2010Prop55
280
     0
102
RTVSPost2010PropOp55
 70
     1
102
RTVSPost2010Prop56
140
1.0
102
RTVSPost2010PropOp56
 70
     1
102
RTVSPost2010Prop57
140
1.0
102
RTVSPost2010PropOp57
 70
     1
102
RTVSPropertyOp0
 70
     1
102
RTVSPropertyOp1
 70
     1
102
RTVSPropertyOp2
 70
     1
102
RTVSPropertyOp3
 70
     1
102
RTVSPropertyOp4
 70
     1
102
RTVSPropertyOp5
 70
     1
102
RTVSPropertyOp6
 70
     1
102
RTVSPropertyOp7
 70
     1
102
RTVSPropertyOp8
 70
     1
102
RTVSPropertyOp9
 70
     1
102
RTVSPropertyOp10
 70
     1
102
RTVSPropertyOp11
 70
     1
102
RTVSPropertyOp12
 70
     1
102
RTVSPropertyOp13
 70
     1
102
RTVSPropertyOp14
 70
     1
102
RTVSPropertyOp15
 70
     1
102
RTVSPropertyOp16
 70
     1
102
RTVSPropertyOp17
 70
     1
102
RTVSPropertyOp18
 70
     1
102
RTVSPropertyOp19
 70
     1
102
RTVSPropertyOp20
 70
     1
102
RTVSPropertyOp21
 70
     1
102
RTVSPropertyOp22
 70
     1
102
RTVSPropertyOp23
 70
     1
102
RTVSPropertyOp24
 70
     1
102
RTVSPropertyOp25
 70
     1
102
RTVSPropertyOp26
 70
     1
102
RTVSPropertyOp27
 70
     1
102
RTVSPropertyOp28
 70
     1
102
RTVSPropertyOp29
 70
     1
102
RTVSPropertyOp30
 70
     1
102
RTVSPropertyOp31
 70
     1
102
RTVSPropertyOp32
 70
     1
102
RTVSPropertyOp33
 70
     1
102
RTVSPropertyOp34
 70
     1
102
RTVSPropertyOp35
 70
     1
102
RTVSPropertyOp36
 70
     1
102
RTVSPropertyOp37
 70
     1
102
RTVSPropertyOp38
 70
     1
102
RTVSPropertyOp39
 70
     1
102
RTVSPropertyOp40
 70
     1
102
RTVSPropertyOp41
 70
     1
102
RTVSPropertyOp42
 70
     1
102
RTVSPropertyOp43
 70
     1
102
RTVSPropertyOp44
 70
     1
102
RTVSPropertyOp45
 70
     1
102
RTVSPropertyOp46
 70
     1
102
RTVSPropertyOp47
 70
     1
102
RTVSPropertyOp48
 70
     1
102
RTVSPropertyOp49
 70
     1
102
RTVSPropertyOp50
 70
     1
102
RTVSPropertyOp51
 70
     0
102
RTVSPropertyOp52
 70
     0
102
RTVSPropertyOp53
 70
     1
102
RTVSPropertyOp54
 70
     1
102
RTVSPropertyOp55
 70
     1
102
RTVSPropertyOp56
 70
     1
102
RTVSPropertyOp57
 70
     1
102
RTVSPropertyOp58
 70
     1
102
RTVSPropertyOp59
 70
     1
102
RTVSPropertyOp60
 70
     1
102
RTVSPropertyOp61
 70
     1
102
RTVSPropertyOp62
 70
     1
  0
XRECORD
  5
61E
102
{ACAD_REACTORS
330
61D
102
}
330
61D
100
AcDbXrecord
280
     1
102
RTVSPost2010Prop28
280
     0
102
RTVSPost2010PropOp28
 70
     1
102
RTVSPost2010Prop29
280
     1
102
RTVSPost2010PropOp29
 70
     1
102
RTVSPost2010Prop30
280
     1
102
RTVSPost2010PropOp30
 70
     1
102
RTVSPost2010Prop31
280
     0
102
RTVSPost2010PropOp31
 70
     1
102
RTVSPost2010Prop32
280
     0
102
RTVSPost2010PropOp32
 70
     1
102
RTVSPost2010Prop33
280
     0
102
RTVSPost2010PropOp33
 70
     1
102
RTVSPost2010Prop34
280
     0
102
RTVSPost2010PropOp34
 70
     1
102
RTVSPost2010Prop35
280
     0
102
RTVSPost2010PropOp35
 70
     1
102
RTVSPost2010Prop36
280
     0
102
RTVSPost2010PropOp36
 70
     1
102
RTVSPost2010Prop37
 90
       50
102
RTVSPost2010PropOp37
 70
     1
102
RTVSPost2010Prop38
140
0.0
102
RTVSPost2010PropOp38
 70
     1
102
RTVSPost2010Prop39
140
1.0
102
RTVSPost2010PropOp39
 70
     1
102
RTVSPost2010Prop40
 90
        0
102
RTVSPost2010PropOp40
 70
     1
102
RTVSPost2010Prop41ColorIndex
 90
       18
102
RTVSPost2010Prop41ColorRGB
 90
        0
102
RTVSPost2010PropOp41
 70
     1
102
RTVSPost2010Prop42
 90
       50
102
RTVSPost2010PropOp42
 70
     1
102
RTVSPost2010Prop43
 90
        3
102
RTVSPost2010PropOp43
 70
     1
102
RTVSPost2010Prop44ColorIndex
 90
        5
102
RTVSPost2010Prop44ColorRGB
 90
      255
102
RTVSPost2010PropOp44
 70
     1
102
RTVSPost2010Prop45
280
     0
102
RTVSPost2010PropOp45
 70
     1
102
RTVSPost2010Prop46
 90
       50
102
RTVSPost2010PropOp46
 70
     1
102
RTVSPost2010Prop47
 90
       50
102
RTVSPost2010PropOp47
 70
     1
102
RTVSPost2010Prop48
 90
       50
102
RTVSPost2010PropOp48
 70
     1
102
RTVSPost2010Prop49
280
     0
102
RTVSPost2010PropOp49
 70
     1
102
RTVSPost2010Prop50
 90
       50
102
RTVSPost2010PropOp50
 70
     1
102
RTVSPost2010Prop51ColorIndex
 90
      256
102
RTVSPost2010Prop51ColorRGB
 90
-16777216
102
RTVSPost2010PropOp51
 70
     0
102
RTVSPost2010Prop52
140
1.0
102
RTVSPost2010PropOp52
 70
     0
102
RTVSPost2010Prop53
 90
        2
102
RTVSPost2010PropOp53
 70
     1
102
RTVSPost2010Prop54
  1
strokes_ogs.tif
102
RTVSPost2010PropOp54
 70
     1
102
RTVSPost2010Prop55
280
     0
102
RTVSPost2010PropOp55
 70
     1
102
RTVSPost2010Prop56
140
1.0
102
RTVSPost2010PropOp56
 70
     1
102
RTVSPost2010Prop57
140
1.0
102
RTVSPost2010PropOp57
 70
     1
102
RTVSPropertyOp0
 70
     1
102
RTVSPropertyOp1
 70
     1
102
RTVSPropertyOp2
 70
     1
102
RTVSPropertyOp3
 70
     1
102
RTVSPropertyOp4
 70
     1
102
RTVSPropertyOp5
 70
     1
102
RTVSPropertyOp6
 70
     1
102
RTVSPropertyOp7
 70
     1
102
RTVSPropertyOp8
 70
     1
102
RTVSPropertyOp9
 70
     1
102
RTVSPropertyOp10
 70
     1
102
RTVSPropertyOp11
 70
     1
102
RTVSPropertyOp12
 70
     1
102
RTVSPropertyOp13
 70
     1
102
RTVSPropertyOp14
 70
     1
102
RTVSPropertyOp15
 70
     1
102
RTVSPropertyOp16
 70
     1
102
RTVSPropertyOp17
 70
     1
102
RTVSPropertyOp18
 70
     1
102
RTVSPropertyOp19
 70
     1
102
RTVSPropertyOp20
 70
     1
102
RTVSPropertyOp21
 70
     1
102
RTVSPropertyOp22
 70
     1
102
RTVSPropertyOp23
 70
     1
102
RTVSPropertyOp24
 70
     1
102
RTVSPropertyOp25
 70
     1
102
RTVSPropertyOp26
 70
     1
102
RTVSPropertyOp27
 70
     1
102
RTVSPropertyOp28
 70
     1
102
RTVSPropertyOp29
 70
     1
102
RTVSPropertyOp30
 70
     1
102
RTVSPropertyOp31
 70
     1
102
RTVSPropertyOp32
 70
     1
102
RTVSPropertyOp33
 70
     1
102
RTVSPropertyOp34
 70
     1
102
RTVSPropertyOp35
 70
     1
102
RTVSPropertyOp36
 70
     1
102
RTVSPropertyOp37
 70
     1
102
RTVSPropertyOp38
 70
     1
102
RTVSPropertyOp39
 70
     1
102
RTVSPropertyOp40
 70
     1
102
RTVSPropertyOp41
 70
     1
102
RTVSPropertyOp42
 70
     1
102
RTVSPropertyOp43
 70
     1
102
RTVSPropertyOp44
 70
     1
102
RTVSPropertyOp45
 70
     1
102
RTVSPropertyOp46
 70
     1
102
RTVSPropertyOp47
 70
     1
102
RTVSPropertyOp48
 70
     1
102
RTVSPropertyOp49
 70
     1
102
RTVSPropertyOp50
 70
     1
102
RTVSPropertyOp51
 70
     0
102
RTVSPropertyOp52
 70
     0
102
RTVSPropertyOp53
 70
     1
102
RTVSPropertyOp54
 70
     1
102
RTVSPropertyOp55
 70
     1
102
RTVSPropertyOp56
 70
     1
102
RTVSPropertyOp57
 70
     1
102
RTVSPropertyOp58
 70
     1
102
RTVSPropertyOp59
 70
     1
102
RTVSPropertyOp60
 70
     1
102
RTVSPropertyOp61
 70
     1
102
RTVSPropertyOp62
 70
     1
  0
XRECORD
  5
626
102
{ACAD_REACTORS
330
625
102
}
330
625
100
AcDbXrecord
280
     1
102
RTVSPost2010Prop28
280
     0
102
RTVSPost2010PropOp28
 70
     1
102
RTVSPost2010Prop29
280
     1
102
RTVSPost2010PropOp29
 70
     1
102
RTVSPost2010Prop30
280
     1
102
RTVSPost2010PropOp30
 70
     1
102
RTVSPost2010Prop31
280
     0
102
RTVSPost2010PropOp31
 70
     1
102
RTVSPost2010Prop32
280
     0
102
RTVSPost2010PropOp32
 70
     1
102
RTVSPost2010Prop33
280
     0
102
RTVSPost2010PropOp33
 70
     1
102
RTVSPost2010Prop34
280
     0
102
RTVSPost2010PropOp34
 70
     1
102
RTVSPost2010Prop35
280
     0
102
RTVSPost2010PropOp35
 70
     1
102
RTVSPost2010Prop36
280
     0
102
RTVSPost2010PropOp36
 70
     1
102
RTVSPost2010Prop37
 90
       50
102
RTVSPost2010PropOp37
 70
     1
102
RTVSPost2010Prop38
140
0.0
102
RTVSPost2010PropOp38
 70
     1
102
RTVSPost2010Prop39
140
1.0
102
RTVSPost2010PropOp39
 70
     1
102
RTVSPost2010Prop40
 90
        0
102
RTVSPost2010PropOp40
 70
     1
102
RTVSPost2010Prop41ColorIndex
 90
       18
102
RTVSPost2010Prop41ColorRGB
 90
        0
102
RTVSPost2010PropOp41
 70
     1
102
RTVSPost2010Prop42
 90
       50
102
RTVSPost2010PropOp42
 70
     1
102
RTVSPost2010Prop43
 90
        3
102
RTVSPost2010PropOp43
 70
     1
102
RTVSPost2010Prop44ColorIndex
 90
        5
102
RTVSPost2010Prop44ColorRGB
 90
      255
102
RTVSPost2010PropOp44
 70
     1
102
RTVSPost2010Prop45
280
     0
102
RTVSPost2010PropOp45
 70
     1
102
RTVSPost2010Prop46
 90
       50
102
RTVSPost2010PropOp46
 70
     1
102
RTVSPost2010Prop47
 90
       50
102
RTVSPost2010PropOp47
 70
     1
102
RTVSPost2010Prop48
 90
       50
102
RTVSPost2010PropOp48
 70
     1
102
RTVSPost2010Prop49
280
     0
102
RTVSPost2010PropOp49
 70
     1
102
RTVSPost2010Prop50
 90
       50
102
RTVSPost2010PropOp50
 70
     1
102
RTVSPost2010Prop51ColorIndex
 90
      256
102
RTVSPost2010Prop51ColorRGB
 90
-16777216
102
RTVSPost2010PropOp51
 70
     0
102
RTVSPost2010Prop52
140
1.0
102
RTVSPost2010PropOp52
 70
     0
102
RTVSPost2010Prop53
 90
        2
102
RTVSPost2010PropOp53
 70
     1
102
RTVSPost2010Prop54
  1
strokes_ogs.tif
102
RTVSPost2010PropOp54
 70
     1
102
RTVSPost2010Prop55
280
     0
102
RTVSPost2010PropOp55
 70
     1
102
RTVSPost2010Prop56
140
1.0
102
RTVSPost2010PropOp56
 70
     1
102
RTVSPost2010Prop57
140
1.0
102
RTVSPost2010PropOp57
 70
     1
102
RTVSPropertyOp0
 70
     1
102
RTVSPropertyOp1
 70
     1
102
RTVSPropertyOp2
 70
     1
102
RTVSPropertyOp3
 70
     1
102
RTVSPropertyOp4
 70
     1
102
RTVSPropertyOp5
 70
     1
102
RTVSPropertyOp6
 70
     1
102
RTVSPropertyOp7
 70
     1
102
RTVSPropertyOp8
 70
     1
102
RTVSPropertyOp9
 70
     1
102
RTVSPropertyOp10
 70
     1
102
RTVSPropertyOp11
 70
     1
102
RTVSPropertyOp12
 70
     1
102
RTVSPropertyOp13
 70
     1
102
RTVSPropertyOp14
 70
     1
102
RTVSPropertyOp15
 70
     1
102
RTVSPropertyOp16
 70
     1
102
RTVSPropertyOp17
 70
     1
102
RTVSPropertyOp18
 70
     1
102
RTVSPropertyOp19
 70
     1
102
RTVSPropertyOp20
 70
     1
102
RTVSPropertyOp21
 70
     1
102
RTVSPropertyOp22
 70
     1
102
RTVSPropertyOp23
 70
     1
102
RTVSPropertyOp24
 70
     1
102
RTVSPropertyOp25
 70
     1
102
RTVSPropertyOp26
 70
     1
102
RTVSPropertyOp27
 70
     1
102
RTVSPropertyOp28
 70
     1
102
RTVSPropertyOp29
 70
     1
102
RTVSPropertyOp30
 70
     1
102
RTVSPropertyOp31
 70
     1
102
RTVSPropertyOp32
 70
     1
102
RTVSPropertyOp33
 70
     1
102
RTVSPropertyOp34
 70
     1
102
RTVSPropertyOp35
 70
     1
102
RTVSPropertyOp36
 70
     1
102
RTVSPropertyOp37
 70
     1
102
RTVSPropertyOp38
 70
     1
102
RTVSPropertyOp39
 70
     1
102
RTVSPropertyOp40
 70
     1
102
RTVSPropertyOp41
 70
     1
102
RTVSPropertyOp42
 70
     1
102
RTVSPropertyOp43
 70
     1
102
RTVSPropertyOp44
 70
     1
102
RTVSPropertyOp45
 70
     1
102
RTVSPropertyOp46
 70
     1
102
RTVSPropertyOp47
 70
     1
102
RTVSPropertyOp48
 70
     1
102
RTVSPropertyOp49
 70
     1
102
RTVSPropertyOp50
 70
     1
102
RTVSPropertyOp51
 70
     0
102
RTVSPropertyOp52
 70
     0
102
RTVSPropertyOp53
 70
     1
102
RTVSPropertyOp54
 70
     1
102
RTVSPropertyOp55
 70
     1
102
RTVSPropertyOp56
 70
     1
102
RTVSPropertyOp57
 70
     1
102
RTVSPropertyOp58
 70
     1
102
RTVSPropertyOp59
 70
     1
102
RTVSPropertyOp60
 70
     1
102
RTVSPropertyOp61
 70
     1
102
RTVSPropertyOp62
 70
     1
  0
XRECORD
  5
62E
102
{ACAD_REACTORS
330
62D
102
}
330
62D
100
AcDbXrecord
280
     1
102
RTVSPost2010Prop28
280
     0
102
RTVSPost2010PropOp28
 70
     1
102
RTVSPost2010Prop29
280
     1
102
RTVSPost2010PropOp29
 70
     1
102
RTVSPost2010Prop30
280
     1
102
RTVSPost2010PropOp30
 70
     1
102
RTVSPost2010Prop31
280
     0
102
RTVSPost2010PropOp31
 70
     1
102
RTVSPost2010Prop32
280
     0
102
RTVSPost2010PropOp32
 70
     1
102
RTVSPost2010Prop33
280
     0
102
RTVSPost2010PropOp33
 70
     1
102
RTVSPost2010Prop34
280
     0
102
RTVSPost2010PropOp34
 70
     1
102
RTVSPost2010Prop35
280
     0
102
RTVSPost2010PropOp35
 70
     1
102
RTVSPost2010Prop36
280
     0
102
RTVSPost2010PropOp36
 70
     1
102
RTVSPost2010Prop37
 90
       50
102
RTVSPost2010PropOp37
 70
     1
102
RTVSPost2010Prop38
140
0.0
102
RTVSPost2010PropOp38
 70
     1
102
RTVSPost2010Prop39
140
1.0
102
RTVSPost2010PropOp39
 70
     1
102
RTVSPost2010Prop40
 90
        0
102
RTVSPost2010PropOp40
 70
     1
102
RTVSPost2010Prop41ColorIndex
 90
       18
102
RTVSPost2010Prop41ColorRGB
 90
        0
102
RTVSPost2010PropOp41
 70
     1
102
RTVSPost2010Prop42
 90
       50
102
RTVSPost2010PropOp42
 70
     1
102
RTVSPost2010Prop43
 90
        3
102
RTVSPost2010PropOp43
 70
     1
102
RTVSPost2010Prop44ColorIndex
 90
        5
102
RTVSPost2010Prop44ColorRGB
 90
      255
102
RTVSPost2010PropOp44
 70
     1
102
RTVSPost2010Prop45
280
     0
102
RTVSPost2010PropOp45
 70
     1
102
RTVSPost2010Prop46
 90
       50
102
RTVSPost2010PropOp46
 70
     1
102
RTVSPost2010Prop47
 90
       50
102
RTVSPost2010PropOp47
 70
     1
102
RTVSPost2010Prop48
 90
       50
102
RTVSPost2010PropOp48
 70
     1
102
RTVSPost2010Prop49
280
     0
102
RTVSPost2010PropOp49
 70
     1
102
RTVSPost2010Prop50
 90
       50
102
RTVSPost2010PropOp50
 70
     1
102
RTVSPost2010Prop51ColorIndex
 90
      256
102
RTVSPost2010Prop51ColorRGB
 90
-16777216
102
RTVSPost2010PropOp51
 70
     0
102
RTVSPost2010Prop52
140
1.0
102
RTVSPost2010PropOp52
 70
     0
102
RTVSPost2010Prop53
 90
        2
102
RTVSPost2010PropOp53
 70
     1
102
RTVSPost2010Prop54
  1
strokes_ogs.tif
102
RTVSPost2010PropOp54
 70
     1
102
RTVSPost2010Prop55
280
     0
102
RTVSPost2010PropOp55
 70
     1
102
RTVSPost2010Prop56
140
1.0
102
RTVSPost2010PropOp56
 70
     1
102
RTVSPost2010Prop57
140
1.0
102
RTVSPost2010PropOp57
 70
     1
102
RTVSPropertyOp0
 70
     1
102
RTVSPropertyOp1
 70
     1
102
RTVSPropertyOp2
 70
     1
102
RTVSPropertyOp3
 70
     1
102
RTVSPropertyOp4
 70
     1
102
RTVSPropertyOp5
 70
     1
102
RTVSPropertyOp6
 70
     1
102
RTVSPropertyOp7
 70
     1
102
RTVSPropertyOp8
 70
     1
102
RTVSPropertyOp9
 70
     1
102
RTVSPropertyOp10
 70
     1
102
RTVSPropertyOp11
 70
     1
102
RTVSPropertyOp12
 70
     1
102
RTVSPropertyOp13
 70
     1
102
RTVSPropertyOp14
 70
     1
102
RTVSPropertyOp15
 70
     1
102
RTVSPropertyOp16
 70
     1
102
RTVSPropertyOp17
 70
     1
102
RTVSPropertyOp18
 70
     1
102
RTVSPropertyOp19
 70
     1
102
RTVSPropertyOp20
 70
     1
102
RTVSPropertyOp21
 70
     1
102
RTVSPropertyOp22
 70
     1
102
RTVSPropertyOp23
 70
     1
102
RTVSPropertyOp24
 70
     1
102
RTVSPropertyOp25
 70
     1
102
RTVSPropertyOp26
 70
     1
102
RTVSPropertyOp27
 70
     1
102
RTVSPropertyOp28
 70
     1
102
RTVSPropertyOp29
 70
     1
102
RTVSPropertyOp30
 70
     1
102
RTVSPropertyOp31
 70
     1
102
RTVSPropertyOp32
 70
     1
102
RTVSPropertyOp33
 70
     1
102
RTVSPropertyOp34
 70
     1
102
RTVSPropertyOp35
 70
     1
102
RTVSPropertyOp36
 70
     1
102
RTVSPropertyOp37
 70
     1
102
RTVSPropertyOp38
 70
     1
102
RTVSPropertyOp39
 70
     1
102
RTVSPropertyOp40
 70
     1
102
RTVSPropertyOp41
 70
     1
102
RTVSPropertyOp42
 70
     1
102
RTVSPropertyOp43
 70
     1
102
RTVSPropertyOp44
 70
     1
102
RTVSPropertyOp45
 70
     1
102
RTVSPropertyOp46
 70
     1
102
RTVSPropertyOp47
 70
     1
102
RTVSPropertyOp48
 70
     1
102
RTVSPropertyOp49
 70
     1
102
RTVSPropertyOp50
 70
     1
102
RTVSPropertyOp51
 70
     0
102
RTVSPropertyOp52
 70
     0
102
RTVSPropertyOp53
 70
     1
102
RTVSPropertyOp54
 70
     1
102
RTVSPropertyOp55
 70
     1
102
RTVSPropertyOp56
 70
     1
102
RTVSPropertyOp57
 70
     1
102
RTVSPropertyOp58
 70
     1
102
RTVSPropertyOp59
 70
     1
102
RTVSPropertyOp60
 70
     1
102
RTVSPropertyOp61
 70
     1
102
RTVSPropertyOp62
 70
     1
  0
XRECORD
  5
622
102
{ACAD_REACTORS
330
621
102
}
330
621
100
AcDbXrecord
280
     1
102
RTVSPost2010Prop28
280
     0
102
RTVSPost2010PropOp28
 70
     1
102
RTVSPost2010Prop29
280
     1
102
RTVSPost2010PropOp29
 70
     1
102
RTVSPost2010Prop30
280
     1
102
RTVSPost2010PropOp30
 70
     1
102
RTVSPost2010Prop31
280
     0
102
RTVSPost2010PropOp31
 70
     1
102
RTVSPost2010Prop32
280
     0
102
RTVSPost2010PropOp32
 70
     1
102
RTVSPost2010Prop33
280
     0
102
RTVSPost2010PropOp33
 70
     1
102
RTVSPost2010Prop34
280
     0
102
RTVSPost2010PropOp34
 70
     1
102
RTVSPost2010Prop35
280
     0
102
RTVSPost2010PropOp35
 70
     1
102
RTVSPost2010Prop36
280
     0
102
RTVSPost2010PropOp36
 70
     1
102
RTVSPost2010Prop37
 90
       50
102
RTVSPost2010PropOp37
 70
     1
102
RTVSPost2010Prop38
140
0.0
102
RTVSPost2010PropOp38
 70
     1
102
RTVSPost2010Prop39
140
1.0
102
RTVSPost2010PropOp39
 70
     1
102
RTVSPost2010Prop40
 90
        0
102
RTVSPost2010PropOp40
 70
     1
102
RTVSPost2010Prop41ColorIndex
 90
       18
102
RTVSPost2010Prop41ColorRGB
 90
        0
102
RTVSPost2010PropOp41
 70
     1
102
RTVSPost2010Prop42
 90
       50
102
RTVSPost2010PropOp42
 70
     1
102
RTVSPost2010Prop43
 90
        3
102
RTVSPost2010PropOp43
 70
     1
102
RTVSPost2010Prop44ColorIndex
 90
        5
102
RTVSPost2010Prop44ColorRGB
 90
      255
102
RTVSPost2010PropOp44
 70
     1
102
RTVSPost2010Prop45
280
     0
102
RTVSPost2010PropOp45
 70
     1
102
RTVSPost2010Prop46
 90
       50
102
RTVSPost2010PropOp46
 70
     1
102
RTVSPost2010Prop47
 90
       50
102
RTVSPost2010PropOp47
 70
     1
102
RTVSPost2010Prop48
 90
       50
102
RTVSPost2010PropOp48
 70
     1
102
RTVSPost2010Prop49
280
     0
102
RTVSPost2010PropOp49
 70
     1
102
RTVSPost2010Prop50
 90
       50
102
RTVSPost2010PropOp50
 70
     1
102
RTVSPost2010Prop51ColorIndex
 90
      256
102
RTVSPost2010Prop51ColorRGB
 90
-16777216
102
RTVSPost2010PropOp51
 70
     0
102
RTVSPost2010Prop52
140
1.0
102
RTVSPost2010PropOp52
 70
     0
102
RTVSPost2010Prop53
 90
        2
102
RTVSPost2010PropOp53
 70
     1
102
RTVSPost2010Prop54
  1
strokes_ogs.tif
102
RTVSPost2010PropOp54
 70
     1
102
RTVSPost2010Prop55
280
     0
102
RTVSPost2010PropOp55
 70
     1
102
RTVSPost2010Prop56
140
1.0
102
RTVSPost2010PropOp56
 70
     1
102
RTVSPost2010Prop57
140
1.0
102
RTVSPost2010PropOp57
 70
     1
102
RTVSPropertyOp0
 70
     1
102
RTVSPropertyOp1
 70
     1
102
RTVSPropertyOp2
 70
     1
102
RTVSPropertyOp3
 70
     1
102
RTVSPropertyOp4
 70
     1
102
RTVSPropertyOp5
 70
     1
102
RTVSPropertyOp6
 70
     1
102
RTVSPropertyOp7
 70
     1
102
RTVSPropertyOp8
 70
     1
102
RTVSPropertyOp9
 70
     1
102
RTVSPropertyOp10
 70
     1
102
RTVSPropertyOp11
 70
     1
102
RTVSPropertyOp12
 70
     1
102
RTVSPropertyOp13
 70
     1
102
RTVSPropertyOp14
 70
     1
102
RTVSPropertyOp15
 70
     1
102
RTVSPropertyOp16
 70
     1
102
RTVSPropertyOp17
 70
     1
102
RTVSPropertyOp18
 70
     1
102
RTVSPropertyOp19
 70
     1
102
RTVSPropertyOp20
 70
     1
102
RTVSPropertyOp21
 70
     1
102
RTVSPropertyOp22
 70
     1
102
RTVSPropertyOp23
 70
     1
102
RTVSPropertyOp24
 70
     1
102
RTVSPropertyOp25
 70
     1
102
RTVSPropertyOp26
 70
     1
102
RTVSPropertyOp27
 70
     1
102
RTVSPropertyOp28
 70
     1
102
RTVSPropertyOp29
 70
     1
102
RTVSPropertyOp30
 70
     1
102
RTVSPropertyOp31
 70
     1
102
RTVSPropertyOp32
 70
     1
102
RTVSPropertyOp33
 70
     1
102
RTVSPropertyOp34
 70
     1
102
RTVSPropertyOp35
 70
     1
102
RTVSPropertyOp36
 70
     1
102
RTVSPropertyOp37
 70
     1
102
RTVSPropertyOp38
 70
     1
102
RTVSPropertyOp39
 70
     1
102
RTVSPropertyOp40
 70
     1
102
RTVSPropertyOp41
 70
     1
102
RTVSPropertyOp42
 70
     1
102
RTVSPropertyOp43
 70
     1
102
RTVSPropertyOp44
 70
     1
102
RTVSPropertyOp45
 70
     1
102
RTVSPropertyOp46
 70
     1
102
RTVSPropertyOp47
 70
     1
102
RTVSPropertyOp48
 70
     1
102
RTVSPropertyOp49
 70
     1
102
RTVSPropertyOp50
 70
     1
102
RTVSPropertyOp51
 70
     0
102
RTVSPropertyOp52
 70
     0
102
RTVSPropertyOp53
 70
     1
102
RTVSPropertyOp54
 70
     1
102
RTVSPropertyOp55
 70
     1
102
RTVSPropertyOp56
 70
     1
102
RTVSPropertyOp57
 70
     1
102
RTVSPropertyOp58
 70
     1
102
RTVSPropertyOp59
 70
     1
102
RTVSPropertyOp60
 70
     1
102
RTVSPropertyOp61
 70
     1
102
RTVSPropertyOp62
 70
     1
  0
XRECORD
  5
624
102
{ACAD_REACTORS
330
623
102
}
330
623
100
AcDbXrecord
280
     1
102
RTVSPost2010Prop28
280
     0
102
RTVSPost2010PropOp28
 70
     1
102
RTVSPost2010Prop29
280
     1
102
RTVSPost2010PropOp29
 70
     1
102
RTVSPost2010Prop30
280
     1
102
RTVSPost2010PropOp30
 70
     1
102
RTVSPost2010Prop31
280
     0
102
RTVSPost2010PropOp31
 70
     1
102
RTVSPost2010Prop32
280
     0
102
RTVSPost2010PropOp32
 70
     1
102
RTVSPost2010Prop33
280
     0
102
RTVSPost2010PropOp33
 70
     1
102
RTVSPost2010Prop34
280
     0
102
RTVSPost2010PropOp34
 70
     1
102
RTVSPost2010Prop35
280
     0
102
RTVSPost2010PropOp35
 70
     1
102
RTVSPost2010Prop36
280
     0
102
RTVSPost2010PropOp36
 70
     1
102
RTVSPost2010Prop37
 90
       50
102
RTVSPost2010PropOp37
 70
     1
102
RTVSPost2010Prop38
140
0.0
102
RTVSPost2010PropOp38
 70
     1
102
RTVSPost2010Prop39
140
1.0
102
RTVSPost2010PropOp39
 70
     1
102
RTVSPost2010Prop40
 90
        0
102
RTVSPost2010PropOp40
 70
     1
102
RTVSPost2010Prop41ColorIndex
 90
       18
102
RTVSPost2010Prop41ColorRGB
 90
        0
102
RTVSPost2010PropOp41
 70
     1
102
RTVSPost2010Prop42
 90
       50
102
RTVSPost2010PropOp42
 70
     1
102
RTVSPost2010Prop43
 90
        3
102
RTVSPost2010PropOp43
 70
     1
102
RTVSPost2010Prop44ColorIndex
 90
        5
102
RTVSPost2010Prop44ColorRGB
 90
      255
102
RTVSPost2010PropOp44
 70
     1
102
RTVSPost2010Prop45
280
     0
102
RTVSPost2010PropOp45
 70
     1
102
RTVSPost2010Prop46
 90
       50
102
RTVSPost2010PropOp46
 70
     1
102
RTVSPost2010Prop47
 90
       50
102
RTVSPost2010PropOp47
 70
     1
102
RTVSPost2010Prop48
 90
       50
102
RTVSPost2010PropOp48
 70
     1
102
RTVSPost2010Prop49
280
     0
102
RTVSPost2010PropOp49
 70
     1
102
RTVSPost2010Prop50
 90
       50
102
RTVSPost2010PropOp50
 70
     1
102
RTVSPost2010Prop51ColorIndex
 90
      256
102
RTVSPost2010Prop51ColorRGB
 90
-16777216
102
RTVSPost2010PropOp51
 70
     0
102
RTVSPost2010Prop52
140
1.0
102
RTVSPost2010PropOp52
 70
     0
102
RTVSPost2010Prop53
 90
        2
102
RTVSPost2010PropOp53
 70
     1
102
RTVSPost2010Prop54
  1
strokes_ogs.tif
102
RTVSPost2010PropOp54
 70
     1
102
RTVSPost2010Prop55
280
     0
102
RTVSPost2010PropOp55
 70
     1
102
RTVSPost2010Prop56
140
1.0
102
RTVSPost2010PropOp56
 70
     1
102
RTVSPost2010Prop57
140
1.0
102
RTVSPost2010PropOp57
 70
     1
102
RTVSPropertyOp0
 70
     1
102
RTVSPropertyOp1
 70
     1
102
RTVSPropertyOp2
 70
     1
102
RTVSPropertyOp3
 70
     1
102
RTVSPropertyOp4
 70
     1
102
RTVSPropertyOp5
 70
     1
102
RTVSPropertyOp6
 70
     1
102
RTVSPropertyOp7
 70
     1
102
RTVSPropertyOp8
 70
     1
102
RTVSPropertyOp9
 70
     1
102
RTVSPropertyOp10
 70
     1
102
RTVSPropertyOp11
 70
     1
102
RTVSPropertyOp12
 70
     1
102
RTVSPropertyOp13
 70
     1
102
RTVSPropertyOp14
 70
     1
102
RTVSPropertyOp15
 70
     1
102
RTVSPropertyOp16
 70
     1
102
RTVSPropertyOp17
 70
     1
102
RTVSPropertyOp18
 70
     1
102
RTVSPropertyOp19
 70
     1
102
RTVSPropertyOp20
 70
     1
102
RTVSPropertyOp21
 70
     1
102
RTVSPropertyOp22
 70
     1
102
RTVSPropertyOp23
 70
     1
102
RTVSPropertyOp24
 70
     1
102
RTVSPropertyOp25
 70
     1
102
RTVSPropertyOp26
 70
     1
102
RTVSPropertyOp27
 70
     1
102
RTVSPropertyOp28
 70
     1
102
RTVSPropertyOp29
 70
     1
102
RTVSPropertyOp30
 70
     1
102
RTVSPropertyOp31
 70
     1
102
RTVSPropertyOp32
 70
     1
102
RTVSPropertyOp33
 70
     1
102
RTVSPropertyOp34
 70
     1
102
RTVSPropertyOp35
 70
     1
102
RTVSPropertyOp36
 70
     1
102
RTVSPropertyOp37
 70
     1
102
RTVSPropertyOp38
 70
     1
102
RTVSPropertyOp39
 70
     1
102
RTVSPropertyOp40
 70
     1
102
RTVSPropertyOp41
 70
     1
102
RTVSPropertyOp42
 70
     1
102
RTVSPropertyOp43
 70
     1
102
RTVSPropertyOp44
 70
     1
102
RTVSPropertyOp45
 70
     1
102
RTVSPropertyOp46
 70
     1
102
RTVSPropertyOp47
 70
     1
102
RTVSPropertyOp48
 70
     1
102
RTVSPropertyOp49
 70
     1
102
RTVSPropertyOp50
 70
     1
102
RTVSPropertyOp51
 70
     0
102
RTVSPropertyOp52
 70
     0
102
RTVSPropertyOp53
 70
     1
102
RTVSPropertyOp54
 70
     1
102
RTVSPropertyOp55
 70
     1
102
RTVSPropertyOp56
 70
     1
102
RTVSPropertyOp57
 70
     1
102
RTVSPropertyOp58
 70
     1
102
RTVSPropertyOp59
 70
     1
102
RTVSPropertyOp60
 70
     1
102
RTVSPropertyOp61
 70
     1
102
RTVSPropertyOp62
 70
     1
  0
XRECORD
  5
634
102
{ACAD_REACTORS
330
633
102
}
330
633
100
AcDbXrecord
280
     1
102
RTVSPost2010Prop28
280
     0
102
RTVSPost2010PropOp28
 70
     0
102
RTVSPost2010Prop29
280
     1
102
RTVSPost2010PropOp29
 70
     0
102
RTVSPost2010Prop30
280
     1
102
RTVSPost2010PropOp30
 70
     0
102
RTVSPost2010Prop31
280
     0
102
RTVSPost2010PropOp31
 70
     0
102
RTVSPost2010Prop32
280
     0
102
RTVSPost2010PropOp32
 70
     0
102
RTVSPost2010Prop33
280
     0
102
RTVSPost2010PropOp33
 70
     0
102
RTVSPost2010Prop34
280
     0
102
RTVSPost2010PropOp34
 70
     0
102
RTVSPost2010Prop35
280
     0
102
RTVSPost2010PropOp35
 70
     0
102
RTVSPost2010Prop36
280
     0
102
RTVSPost2010PropOp36
 70
     0
102
RTVSPost2010Prop37
 90
       50
102
RTVSPost2010PropOp37
 70
     0
102
RTVSPost2010Prop38
140
0.0
102
RTVSPost2010PropOp38
 70
     0
102
RTVSPost2010Prop39
140
1.0
102
RTVSPost2010PropOp39
 70
     0
102
RTVSPost2010Prop40
 90
        0
102
RTVSPost2010PropOp40
 70
     0
102
RTVSPost2010Prop41ColorIndex
 90
       18
102
RTVSPost2010Prop41ColorRGB
 90
        0
102
RTVSPost2010PropOp41
 70
     0
102
RTVSPost2010Prop42
 90
       50
102
RTVSPost2010PropOp42
 70
     0
102
RTVSPost2010Prop43
 90
        3
102
RTVSPost2010PropOp43
 70
     0
102
RTVSPost2010Prop44ColorIndex
 90
        5
102
RTVSPost2010Prop44ColorRGB
 90
      255
102
RTVSPost2010PropOp44
 70
     0
102
RTVSPost2010Prop45
280
     0
102
RTVSPost2010PropOp45
 70
     0
102
RTVSPost2010Prop46
 90
       50
102
RTVSPost2010PropOp46
 70
     0
102
RTVSPost2010Prop47
 90
       50
102
RTVSPost2010PropOp47
 70
     0
102
RTVSPost2010Prop48
 90
       50
102
RTVSPost2010PropOp48
 70
     0
102
RTVSPost2010Prop49
280
     0
102
RTVSPost2010PropOp49
 70
     0
102
RTVSPost2010Prop50
 90
       50
102
RTVSPost2010PropOp50
 70
     0
102
RTVSPost2010Prop51ColorIndex
 90
      256
102
RTVSPost2010Prop51ColorRGB
 90
-16777216
102
RTVSPost2010PropOp51
 70
     0
102
RTVSPost2010Prop52
140
1.0
102
RTVSPost2010PropOp52
 70
     0
102
RTVSPost2010Prop53
 90
        2
102
RTVSPost2010PropOp53
 70
     0
102
RTVSPost2010Prop54
  1
strokes_ogs.tif
102
RTVSPost2010PropOp54
 70
     0
102
RTVSPost2010Prop55
280
     0
102
RTVSPost2010PropOp55
 70
     0
102
RTVSPost2010Prop56
140
1.0
102
RTVSPost2010PropOp56
 70
     0
102
RTVSPost2010Prop57
140
1.0
102
RTVSPost2010PropOp57
 70
     0
102
RTVSPropertyOp0
 70
     0
102
RTVSPropertyOp1
 70
     0
102
RTVSPropertyOp2
 70
     0
102
RTVSPropertyOp3
 70
     0
102
RTVSPropertyOp4
 70
     0
102
RTVSPropertyOp5
 70
     0
102
RTVSPropertyOp6
 70
     0
102
RTVSPropertyOp7
 70
     0
102
RTVSPropertyOp8
 70
     0
102
RTVSPropertyOp9
 70
     0
102
RTVSPropertyOp10
 70
     0
102
RTVSPropertyOp11
 70
     0
102
RTVSPropertyOp12
 70
     0
102
RTVSPropertyOp13
 70
     0
102
RTVSPropertyOp14
 70
     2
102
RTVSPropertyOp15
 70
     0
102
RTVSPropertyOp16
 70
     0
102
RTVSPropertyOp17
 70
     0
102
RTVSPropertyOp18
 70
     0
102
RTVSPropertyOp19
 70
     0
102
RTVSPropertyOp20
 70
     0
102
RTVSPropertyOp21
 70
     0
102
RTVSPropertyOp22
 70
     0
102
RTVSPropertyOp23
 70
     0
102
RTVSPropertyOp24
 70
     0
102
RTVSPropertyOp25
 70
     0
102
RTVSPropertyOp26
 70
     0
102
RTVSPropertyOp27
 70
     0
102
RTVSPropertyOp28
 70
     0
102
RTVSPropertyOp29
 70
     0
102
RTVSPropertyOp30
 70
     0
102
RTVSPropertyOp31
 70
     0
102
RTVSPropertyOp32
 70
     0
102
RTVSPropertyOp33
 70
     0
102
RTVSPropertyOp34
 70
     0
102
RTVSPropertyOp35
 70
     0
102
RTVSPropertyOp36
 70
     0
102
RTVSPropertyOp37
 70
     0
102
RTVSPropertyOp38
 70
     0
102
RTVSPropertyOp39
 70
     0
102
RTVSPropertyOp40
 70
     0
102
RTVSPropertyOp41
 70
     0
102
RTVSPropertyOp42
 70
     0
102
RTVSPropertyOp43
 70
     0
102
RTVSPropertyOp44
 70
     0
102
RTVSPropertyOp45
 70
     0
102
RTVSPropertyOp46
 70
     0
102
RTVSPropertyOp47
 70
     0
102
RTVSPropertyOp48
 70
     0
102
RTVSPropertyOp49
 70
     0
102
RTVSPropertyOp50
 70
     0
102
RTVSPropertyOp51
 70
     0
102
RTVSPropertyOp52
 70
     0
102
RTVSPropertyOp53
 70
     0
102
RTVSPropertyOp54
 70
     0
102
RTVSPropertyOp55
 70
     0
102
RTVSPropertyOp56
 70
     0
102
RTVSPropertyOp57
 70
     0
102
RTVSPropertyOp58
 70
     1
102
RTVSPropertyOp59
 70
     1
102
RTVSPropertyOp60
 70
     1
102
RTVSPropertyOp61
 70
     1
102
RTVSPropertyOp62
 70
     1
  0
XRECORD
  5
62C
102
{ACAD_REACTORS
330
62B
102
}
330
62B
100
AcDbXrecord
280
     1
102
RTVSPost2010Prop28
280
     0
102
RTVSPost2010PropOp28
 70
     1
102
RTVSPost2010Prop29
280
     1
102
RTVSPost2010PropOp29
 70
     1
102
RTVSPost2010Prop30
280
     1
102
RTVSPost2010PropOp30
 70
     1
102
RTVSPost2010Prop31
280
     0
102
RTVSPost2010PropOp31
 70
     1
102
RTVSPost2010Prop32
280
     0
102
RTVSPost2010PropOp32
 70
     1
102
RTVSPost2010Prop33
280
     0
102
RTVSPost2010PropOp33
 70
     1
102
RTVSPost2010Prop34
280
     0
102
RTVSPost2010PropOp34
 70
     1
102
RTVSPost2010Prop35
280
     0
102
RTVSPost2010PropOp35
 70
     1
102
RTVSPost2010Prop36
280
     0
102
RTVSPost2010PropOp36
 70
     1
102
RTVSPost2010Prop37
 90
       50
102
RTVSPost2010PropOp37
 70
     1
102
RTVSPost2010Prop38
140
0.0
102
RTVSPost2010PropOp38
 70
     1
102
RTVSPost2010Prop39
140
1.0
102
RTVSPost2010PropOp39
 70
     1
102
RTVSPost2010Prop40
 90
        0
102
RTVSPost2010PropOp40
 70
     1
102
RTVSPost2010Prop41ColorIndex
 90
       18
102
RTVSPost2010Prop41ColorRGB
 90
        0
102
RTVSPost2010PropOp41
 70
     1
102
RTVSPost2010Prop42
 90
       50
102
RTVSPost2010PropOp42
 70
     1
102
RTVSPost2010Prop43
 90
        3
102
RTVSPost2010PropOp43
 70
     1
102
RTVSPost2010Prop44ColorIndex
 90
        5
102
RTVSPost2010Prop44ColorRGB
 90
      255
102
RTVSPost2010PropOp44
 70
     1
102
RTVSPost2010Prop45
280
     0
102
RTVSPost2010PropOp45
 70
     1
102
RTVSPost2010Prop46
 90
       50
102
RTVSPost2010PropOp46
 70
     1
102
RTVSPost2010Prop47
 90
       50
102
RTVSPost2010PropOp47
 70
     1
102
RTVSPost2010Prop48
 90
       50
102
RTVSPost2010PropOp48
 70
     1
102
RTVSPost2010Prop49
280
     0
102
RTVSPost2010PropOp49
 70
     1
102
RTVSPost2010Prop50
 90
       50
102
RTVSPost2010PropOp50
 70
     1
102
RTVSPost2010Prop51ColorIndex
 90
      256
102
RTVSPost2010Prop51ColorRGB
 90
-16777216
102
RTVSPost2010PropOp51
 70
     0
102
RTVSPost2010Prop52
140
1.0
102
RTVSPost2010PropOp52
 70
     0
102
RTVSPost2010Prop53
 90
        2
102
RTVSPost2010PropOp53
 70
     1
102
RTVSPost2010Prop54
  1
strokes_ogs.tif
102
RTVSPost2010PropOp54
 70
     1
102
RTVSPost2010Prop55
280
     0
102
RTVSPost2010PropOp55
 70
     1
102
RTVSPost2010Prop56
140
1.0
102
RTVSPost2010PropOp56
 70
     1
102
RTVSPost2010Prop57
140
1.0
102
RTVSPost2010PropOp57
 70
     1
102
RTVSPropertyOp0
 70
     1
102
RTVSPropertyOp1
 70
     1
102
RTVSPropertyOp2
 70
     1
102
RTVSPropertyOp3
 70
     1
102
RTVSPropertyOp4
 70
     1
102
RTVSPropertyOp5
 70
     1
102
RTVSPropertyOp6
 70
     1
102
RTVSPropertyOp7
 70
     1
102
RTVSPropertyOp8
 70
     1
102
RTVSPropertyOp9
 70
     1
102
RTVSPropertyOp10
 70
     1
102
RTVSPropertyOp11
 70
     1
102
RTVSPropertyOp12
 70
     1
102
RTVSPropertyOp13
 70
     1
102
RTVSPropertyOp14
 70
     1
102
RTVSPropertyOp15
 70
     1
102
RTVSPropertyOp16
 70
     1
102
RTVSPropertyOp17
 70
     1
102
RTVSPropertyOp18
 70
     1
102
RTVSPropertyOp19
 70
     1
102
RTVSPropertyOp20
 70
     1
102
RTVSPropertyOp21
 70
     1
102
RTVSPropertyOp22
 70
     1
102
RTVSPropertyOp23
 70
     1
102
RTVSPropertyOp24
 70
     1
102
RTVSPropertyOp25
 70
     1
102
RTVSPropertyOp26
 70
     1
102
RTVSPropertyOp27
 70
     1
102
RTVSPropertyOp28
 70
     1
102
RTVSPropertyOp29
 70
     1
102
RTVSPropertyOp30
 70
     1
102
RTVSPropertyOp31
 70
     1
102
RTVSPropertyOp32
 70
     1
102
RTVSPropertyOp33
 70
     1
102
RTVSPropertyOp34
 70
     1
102
RTVSPropertyOp35
 70
     1
102
RTVSPropertyOp36
 70
     1
102
RTVSPropertyOp37
 70
     1
102
RTVSPropertyOp38
 70
     1
102
RTVSPropertyOp39
 70
     1
102
RTVSPropertyOp40
 70
     1
102
RTVSPropertyOp41
 70
     1
102
RTVSPropertyOp42
 70
     1
102
RTVSPropertyOp43
 70
     1
102
RTVSPropertyOp44
 70
     1
102
RTVSPropertyOp45
 70
     1
102
RTVSPropertyOp46
 70
     1
102
RTVSPropertyOp47
 70
     1
102
RTVSPropertyOp48
 70
     1
102
RTVSPropertyOp49
 70
     1
102
RTVSPropertyOp50
 70
     1
102
RTVSPropertyOp51
 70
     0
102
RTVSPropertyOp52
 70
     0
102
RTVSPropertyOp53
 70
     1
102
RTVSPropertyOp54
 70
     1
102
RTVSPropertyOp55
 70
     1
102
RTVSPropertyOp56
 70
     1
102
RTVSPropertyOp57
 70
     1
102
RTVSPropertyOp58
 70
     1
102
RTVSPropertyOp59
 70
     1
102
RTVSPropertyOp60
 70
     1
102
RTVSPropertyOp61
 70
     1
102
RTVSPropertyOp62
 70
     1
  0
XRECORD
  5
610
102
{ACAD_REACTORS
330
60F
102
}
330
60F
100
AcDbXrecord
280
     1
102
RTVSPost2010Prop28
280
     0
102
RTVSPost2010PropOp28
 70
     1
102
RTVSPost2010Prop29
280
     1
102
RTVSPost2010PropOp29
 70
     1
102
RTVSPost2010Prop30
280
     1
102
RTVSPost2010PropOp30
 70
     1
102
RTVSPost2010Prop31
280
     0
102
RTVSPost2010PropOp31
 70
     1
102
RTVSPost2010Prop32
280
     0
102
RTVSPost2010PropOp32
 70
     1
102
RTVSPost2010Prop33
280
     0
102
RTVSPost2010PropOp33
 70
     1
102
RTVSPost2010Prop34
280
     0
102
RTVSPost2010PropOp34
 70
     1
102
RTVSPost2010Prop35
280
     0
102
RTVSPost2010PropOp35
 70
     1
102
RTVSPost2010Prop36
280
     0
102
RTVSPost2010PropOp36
 70
     1
102
RTVSPost2010Prop37
 90
       50
102
RTVSPost2010PropOp37
 70
     1
102
RTVSPost2010Prop38
140
0.0
102
RTVSPost2010PropOp38
 70
     1
102
RTVSPost2010Prop39
140
1.0
102
RTVSPost2010PropOp39
 70
     1
102
RTVSPost2010Prop40
 90
        0
102
RTVSPost2010PropOp40
 70
     1
102
RTVSPost2010Prop41ColorIndex
 90
       18
102
RTVSPost2010Prop41ColorRGB
 90
        0
102
RTVSPost2010PropOp41
 70
     1
102
RTVSPost2010Prop42
 90
       50
102
RTVSPost2010PropOp42
 70
     1
102
RTVSPost2010Prop43
 90
        3
102
RTVSPost2010PropOp43
 70
     1
102
RTVSPost2010Prop44ColorIndex
 90
        5
102
RTVSPost2010Prop44ColorRGB
 90
      255
102
RTVSPost2010PropOp44
 70
     1
102
RTVSPost2010Prop45
280
     0
102
RTVSPost2010PropOp45
 70
     1
102
RTVSPost2010Prop46
 90
       50
102
RTVSPost2010PropOp46
 70
     1
102
RTVSPost2010Prop47
 90
       50
102
RTVSPost2010PropOp47
 70
     1
102
RTVSPost2010Prop48
 90
       50
102
RTVSPost2010PropOp48
 70
     1
102
RTVSPost2010Prop49
280
     0
102
RTVSPost2010PropOp49
 70
     1
102
RTVSPost2010Prop50
 90
       50
102
RTVSPost2010PropOp50
 70
     1
102
RTVSPost2010Prop51ColorIndex
 90
      256
102
RTVSPost2010Prop51ColorRGB
 90
-16777216
102
RTVSPost2010PropOp51
 70
     0
102
RTVSPost2010Prop52
140
1.0
102
RTVSPost2010PropOp52
 70
     0
102
RTVSPost2010Prop53
 90
        2
102
RTVSPost2010PropOp53
 70
     1
102
RTVSPost2010Prop54
  1
strokes_ogs.tif
102
RTVSPost2010PropOp54
 70
     1
102
RTVSPost2010Prop55
280
     0
102
RTVSPost2010PropOp55
 70
     1
102
RTVSPost2010Prop56
140
1.0
102
RTVSPost2010PropOp56
 70
     1
102
RTVSPost2010Prop57
140
1.0
102
RTVSPost2010PropOp57
 70
     1
102
RTVSPropertyOp0
 70
     1
102
RTVSPropertyOp1
 70
     1
102
RTVSPropertyOp2
 70
     1
102
RTVSPropertyOp3
 70
     1
102
RTVSPropertyOp4
 70
     1
102
RTVSPropertyOp5
 70
     1
102
RTVSPropertyOp6
 70
     1
102
RTVSPropertyOp7
 70
     1
102
RTVSPropertyOp8
 70
     1
102
RTVSPropertyOp9
 70
     1
102
RTVSPropertyOp10
 70
     1
102
RTVSPropertyOp11
 70
     1
102
RTVSPropertyOp12
 70
     1
102
RTVSPropertyOp13
 70
     1
102
RTVSPropertyOp14
 70
     1
102
RTVSPropertyOp15
 70
     1
102
RTVSPropertyOp16
 70
     1
102
RTVSPropertyOp17
 70
     1
102
RTVSPropertyOp18
 70
     1
102
RTVSPropertyOp19
 70
     1
102
RTVSPropertyOp20
 70
     1
102
RTVSPropertyOp21
 70
     1
102
RTVSPropertyOp22
 70
     1
102
RTVSPropertyOp23
 70
     1
102
RTVSPropertyOp24
 70
     1
102
RTVSPropertyOp25
 70
     1
102
RTVSPropertyOp26
 70
     1
102
RTVSPropertyOp27
 70
     1
102
RTVSPropertyOp28
 70
     1
102
RTVSPropertyOp29
 70
     1
102
RTVSPropertyOp30
 70
     1
102
RTVSPropertyOp31
 70
     1
102
RTVSPropertyOp32
 70
     1
102
RTVSPropertyOp33
 70
     1
102
RTVSPropertyOp34
 70
     1
102
RTVSPropertyOp35
 70
     1
102
RTVSPropertyOp36
 70
     1
102
RTVSPropertyOp37
 70
     1
102
RTVSPropertyOp38
 70
     1
102
RTVSPropertyOp39
 70
     1
102
RTVSPropertyOp40
 70
     1
102
RTVSPropertyOp41
 70
     1
102
RTVSPropertyOp42
 70
     1
102
RTVSPropertyOp43
 70
     1
102
RTVSPropertyOp44
 70
     1
102
RTVSPropertyOp45
 70
     1
102
RTVSPropertyOp46
 70
     1
102
RTVSPropertyOp47
 70
     1
102
RTVSPropertyOp48
 70
     1
102
RTVSPropertyOp49
 70
     1
102
RTVSPropertyOp50
 70
     1
102
RTVSPropertyOp51
 70
     0
102
RTVSPropertyOp52
 70
     0
102
RTVSPropertyOp53
 70
     1
102
RTVSPropertyOp54
 70
     1
102
RTVSPropertyOp55
 70
     1
102
RTVSPropertyOp56
 70
     1
102
RTVSPropertyOp57
 70
     1
102
RTVSPropertyOp58
 70
     1
102
RTVSPropertyOp59
 70
     1
102
RTVSPropertyOp60
 70
     1
102
RTVSPropertyOp61
 70
     1
102
RTVSPropertyOp62
 70
     1
  0
XRECORD
  5
612
102
{ACAD_REACTORS
330
611
102
}
330
611
100
AcDbXrecord
280
     1
102
RTVSPost2010Prop28
280
     0
102
RTVSPost2010PropOp28
 70
     1
102
RTVSPost2010Prop29
280
     1
102
RTVSPost2010PropOp29
 70
     1
102
RTVSPost2010Prop30
280
     1
102
RTVSPost2010PropOp30
 70
     1
102
RTVSPost2010Prop31
280
     0
102
RTVSPost2010PropOp31
 70
     1
102
RTVSPost2010Prop32
280
     0
102
RTVSPost2010PropOp32
 70
     1
102
RTVSPost2010Prop33
280
     0
102
RTVSPost2010PropOp33
 70
     1
102
RTVSPost2010Prop34
280
     0
102
RTVSPost2010PropOp34
 70
     1
102
RTVSPost2010Prop35
280
     0
102
RTVSPost2010PropOp35
 70
     1
102
RTVSPost2010Prop36
280
     0
102
RTVSPost2010PropOp36
 70
     1
102
RTVSPost2010Prop37
 90
       50
102
RTVSPost2010PropOp37
 70
     1
102
RTVSPost2010Prop38
140
0.0
102
RTVSPost2010PropOp38
 70
     1
102
RTVSPost2010Prop39
140
1.0
102
RTVSPost2010PropOp39
 70
     1
102
RTVSPost2010Prop40
 90
        0
102
RTVSPost2010PropOp40
 70
     1
102
RTVSPost2010Prop41ColorIndex
 90
       18
102
RTVSPost2010Prop41ColorRGB
 90
        0
102
RTVSPost2010PropOp41
 70
     1
102
RTVSPost2010Prop42
 90
       50
102
RTVSPost2010PropOp42
 70
     1
102
RTVSPost2010Prop43
 90
        3
102
RTVSPost2010PropOp43
 70
     1
102
RTVSPost2010Prop44ColorIndex
 90
        5
102
RTVSPost2010Prop44ColorRGB
 90
      255
102
RTVSPost2010PropOp44
 70
     1
102
RTVSPost2010Prop45
280
     0
102
RTVSPost2010PropOp45
 70
     1
102
RTVSPost2010Prop46
 90
       50
102
RTVSPost2010PropOp46
 70
     1
102
RTVSPost2010Prop47
 90
       50
102
RTVSPost2010PropOp47
 70
     1
102
RTVSPost2010Prop48
 90
       50
102
RTVSPost2010PropOp48
 70
     1
102
RTVSPost2010Prop49
280
     0
102
RTVSPost2010PropOp49
 70
     1
102
RTVSPost2010Prop50
 90
       50
102
RTVSPost2010PropOp50
 70
     1
102
RTVSPost2010Prop51ColorIndex
 90
      256
102
RTVSPost2010Prop51ColorRGB
 90
-16777216
102
RTVSPost2010PropOp51
 70
     0
102
RTVSPost2010Prop52
140
1.0
102
RTVSPost2010PropOp52
 70
     0
102
RTVSPost2010Prop53
 90
        2
102
RTVSPost2010PropOp53
 70
     1
102
RTVSPost2010Prop54
  1
strokes_ogs.tif
102
RTVSPost2010PropOp54
 70
     1
102
RTVSPost2010Prop55
280
     0
102
RTVSPost2010PropOp55
 70
     1
102
RTVSPost2010Prop56
140
1.0
102
RTVSPost2010PropOp56
 70
     1
102
RTVSPost2010Prop57
140
1.0
102
RTVSPost2010PropOp57
 70
     1
102
RTVSPropertyOp0
 70
     1
102
RTVSPropertyOp1
 70
     1
102
RTVSPropertyOp2
 70
     1
102
RTVSPropertyOp3
 70
     1
102
RTVSPropertyOp4
 70
     1
102
RTVSPropertyOp5
 70
     1
102
RTVSPropertyOp6
 70
     1
102
RTVSPropertyOp7
 70
     1
102
RTVSPropertyOp8
 70
     1
102
RTVSPropertyOp9
 70
     1
102
RTVSPropertyOp10
 70
     1
102
RTVSPropertyOp11
 70
     1
102
RTVSPropertyOp12
 70
     1
102
RTVSPropertyOp13
 70
     1
102
RTVSPropertyOp14
 70
     1
102
RTVSPropertyOp15
 70
     1
102
RTVSPropertyOp16
 70
     1
102
RTVSPropertyOp17
 70
     1
102
RTVSPropertyOp18
 70
     1
102
RTVSPropertyOp19
 70
     1
102
RTVSPropertyOp20
 70
     1
102
RTVSPropertyOp21
 70
     1
102
RTVSPropertyOp22
 70
     1
102
RTVSPropertyOp23
 70
     1
102
RTVSPropertyOp24
 70
     1
102
RTVSPropertyOp25
 70
     1
102
RTVSPropertyOp26
 70
     1
102
RTVSPropertyOp27
 70
     1
102
RTVSPropertyOp28
 70
     1
102
RTVSPropertyOp29
 70
     1
102
RTVSPropertyOp30
 70
     1
102
RTVSPropertyOp31
 70
     1
102
RTVSPropertyOp32
 70
     1
102
RTVSPropertyOp33
 70
     1
102
RTVSPropertyOp34
 70
     1
102
RTVSPropertyOp35
 70
     1
102
RTVSPropertyOp36
 70
     1
102
RTVSPropertyOp37
 70
     1
102
RTVSPropertyOp38
 70
     1
102
RTVSPropertyOp39
 70
     1
102
RTVSPropertyOp40
 70
     1
102
RTVSPropertyOp41
 70
     1
102
RTVSPropertyOp42
 70
     1
102
RTVSPropertyOp43
 70
     1
102
RTVSPropertyOp44
 70
     1
102
RTVSPropertyOp45
 70
     1
102
RTVSPropertyOp46
 70
     1
102
RTVSPropertyOp47
 70
     1
102
RTVSPropertyOp48
 70
     1
102
RTVSPropertyOp49
 70
     1
102
RTVSPropertyOp50
 70
     1
102
RTVSPropertyOp51
 70
     0
102
RTVSPropertyOp52
 70
     0
102
RTVSPropertyOp53
 70
     1
102
RTVSPropertyOp54
 70
     1
102
RTVSPropertyOp55
 70
     1
102
RTVSPropertyOp56
 70
     1
102
RTVSPropertyOp57
 70
     1
102
RTVSPropertyOp58
 70
     1
102
RTVSPropertyOp59
 70
     1
102
RTVSPropertyOp60
 70
     1
102
RTVSPropertyOp61
 70
     1
102
RTVSPropertyOp62
 70
     1
  0
XRECORD
  5
614
102
{ACAD_REACTORS
330
613
102
}
330
613
100
AcDbXrecord
280
     1
102
RTVSPost2010Prop28
280
     0
102
RTVSPost2010PropOp28
 70
     1
102
RTVSPost2010Prop29
280
     1
102
RTVSPost2010PropOp29
 70
     1
102
RTVSPost2010Prop30
280
     1
102
RTVSPost2010PropOp30
 70
     1
102
RTVSPost2010Prop31
280
     0
102
RTVSPost2010PropOp31
 70
     1
102
RTVSPost2010Prop32
280
     0
102
RTVSPost2010PropOp32
 70
     1
102
RTVSPost2010Prop33
280
     0
102
RTVSPost2010PropOp33
 70
     1
102
RTVSPost2010Prop34
280
     0
102
RTVSPost2010PropOp34
 70
     1
102
RTVSPost2010Prop35
280
     0
102
RTVSPost2010PropOp35
 70
     1
102
RTVSPost2010Prop36
280
     0
102
RTVSPost2010PropOp36
 70
     1
102
RTVSPost2010Prop37
 90
       50
102
RTVSPost2010PropOp37
 70
     1
102
RTVSPost2010Prop38
140
0.0
102
RTVSPost2010PropOp38
 70
     1
102
RTVSPost2010Prop39
140
1.0
102
RTVSPost2010PropOp39
 70
     1
102
RTVSPost2010Prop40
 90
        0
102
RTVSPost2010PropOp40
 70
     1
102
RTVSPost2010Prop41ColorIndex
 90
       18
102
RTVSPost2010Prop41ColorRGB
 90
        0
102
RTVSPost2010PropOp41
 70
     1
102
RTVSPost2010Prop42
 90
       50
102
RTVSPost2010PropOp42
 70
     1
102
RTVSPost2010Prop43
 90
        3
102
RTVSPost2010PropOp43
 70
     1
102
RTVSPost2010Prop44ColorIndex
 90
        5
102
RTVSPost2010Prop44ColorRGB
 90
      255
102
RTVSPost2010PropOp44
 70
     1
102
RTVSPost2010Prop45
280
     0
102
RTVSPost2010PropOp45
 70
     1
102
RTVSPost2010Prop46
 90
       50
102
RTVSPost2010PropOp46
 70
     1
102
RTVSPost2010Prop47
 90
       50
102
RTVSPost2010PropOp47
 70
     1
102
RTVSPost2010Prop48
 90
       50
102
RTVSPost2010PropOp48
 70
     1
102
RTVSPost2010Prop49
280
     0
102
RTVSPost2010PropOp49
 70
     1
102
RTVSPost2010Prop50
 90
       50
102
RTVSPost2010PropOp50
 70
     1
102
RTVSPost2010Prop51ColorIndex
 90
      256
102
RTVSPost2010Prop51ColorRGB
 90
-16777216
102
RTVSPost2010PropOp51
 70
     0
102
RTVSPost2010Prop52
140
1.0
102
RTVSPost2010PropOp52
 70
     0
102
RTVSPost2010Prop53
 90
        2
102
RTVSPost2010PropOp53
 70
     1
102
RTVSPost2010Prop54
  1
strokes_ogs.tif
102
RTVSPost2010PropOp54
 70
     1
102
RTVSPost2010Prop55
280
     0
102
RTVSPost2010PropOp55
 70
     1
102
RTVSPost2010Prop56
140
1.0
102
RTVSPost2010PropOp56
 70
     1
102
RTVSPost2010Prop57
140
1.0
102
RTVSPost2010PropOp57
 70
     1
102
RTVSPropertyOp0
 70
     1
102
RTVSPropertyOp1
 70
     1
102
RTVSPropertyOp2
 70
     1
102
RTVSPropertyOp3
 70
     1
102
RTVSPropertyOp4
 70
     1
102
RTVSPropertyOp5
 70
     1
102
RTVSPropertyOp6
 70
     1
102
RTVSPropertyOp7
 70
     1
102
RTVSPropertyOp8
 70
     1
102
RTVSPropertyOp9
 70
     1
102
RTVSPropertyOp10
 70
     1
102
RTVSPropertyOp11
 70
     1
102
RTVSPropertyOp12
 70
     1
102
RTVSPropertyOp13
 70
     1
102
RTVSPropertyOp14
 70
     1
102
RTVSPropertyOp15
 70
     1
102
RTVSPropertyOp16
 70
     1
102
RTVSPropertyOp17
 70
     1
102
RTVSPropertyOp18
 70
     1
102
RTVSPropertyOp19
 70
     1
102
RTVSPropertyOp20
 70
     1
102
RTVSPropertyOp21
 70
     1
102
RTVSPropertyOp22
 70
     1
102
RTVSPropertyOp23
 70
     1
102
RTVSPropertyOp24
 70
     1
102
RTVSPropertyOp25
 70
     1
102
RTVSPropertyOp26
 70
     1
102
RTVSPropertyOp27
 70
     1
102
RTVSPropertyOp28
 70
     1
102
RTVSPropertyOp29
 70
     1
102
RTVSPropertyOp30
 70
     1
102
RTVSPropertyOp31
 70
     1
102
RTVSPropertyOp32
 70
     1
102
RTVSPropertyOp33
 70
     1
102
RTVSPropertyOp34
 70
     1
102
RTVSPropertyOp35
 70
     1
102
RTVSPropertyOp36
 70
     1
102
RTVSPropertyOp37
 70
     1
102
RTVSPropertyOp38
 70
     1
102
RTVSPropertyOp39
 70
     1
102
RTVSPropertyOp40
 70
     1
102
RTVSPropertyOp41
 70
     1
102
RTVSPropertyOp42
 70
     1
102
RTVSPropertyOp43
 70
     1
102
RTVSPropertyOp44
 70
     1
102
RTVSPropertyOp45
 70
     1
102
RTVSPropertyOp46
 70
     1
102
RTVSPropertyOp47
 70
     1
102
RTVSPropertyOp48
 70
     1
102
RTVSPropertyOp49
 70
     1
102
RTVSPropertyOp50
 70
     1
102
RTVSPropertyOp51
 70
     0
102
RTVSPropertyOp52
 70
     0
102
RTVSPropertyOp53
 70
     1
102
RTVSPropertyOp54
 70
     1
102
RTVSPropertyOp55
 70
     1
102
RTVSPropertyOp56
 70
     1
102
RTVSPropertyOp57
 70
     1
102
RTVSPropertyOp58
 70
     1
102
RTVSPropertyOp59
 70
     1
102
RTVSPropertyOp60
 70
     1
102
RTVSPropertyOp61
 70
     1
102
RTVSPropertyOp62
 70
     1
  0
XRECORD
  5
616
102
{ACAD_REACTORS
330
615
102
}
330
615
100
AcDbXrecord
280
     1
102
RTVSPost2010Prop28
280
     0
102
RTVSPost2010PropOp28
 70
     1
102
RTVSPost2010Prop29
280
     1
102
RTVSPost2010PropOp29
 70
     1
102
RTVSPost2010Prop30
280
     1
102
RTVSPost2010PropOp30
 70
     1
102
RTVSPost2010Prop31
280
     0
102
RTVSPost2010PropOp31
 70
     1
102
RTVSPost2010Prop32
280
     0
102
RTVSPost2010PropOp32
 70
     1
102
RTVSPost2010Prop33
280
     0
102
RTVSPost2010PropOp33
 70
     1
102
RTVSPost2010Prop34
280
     0
102
RTVSPost2010PropOp34
 70
     1
102
RTVSPost2010Prop35
280
     0
102
RTVSPost2010PropOp35
 70
     1
102
RTVSPost2010Prop36
280
     0
102
RTVSPost2010PropOp36
 70
     1
102
RTVSPost2010Prop37
 90
       50
102
RTVSPost2010PropOp37
 70
     1
102
RTVSPost2010Prop38
140
0.0
102
RTVSPost2010PropOp38
 70
     1
102
RTVSPost2010Prop39
140
1.0
102
RTVSPost2010PropOp39
 70
     1
102
RTVSPost2010Prop40
 90
        0
102
RTVSPost2010PropOp40
 70
     1
102
RTVSPost2010Prop41ColorIndex
 90
       18
102
RTVSPost2010Prop41ColorRGB
 90
        0
102
RTVSPost2010PropOp41
 70
     1
102
RTVSPost2010Prop42
 90
       50
102
RTVSPost2010PropOp42
 70
     1
102
RTVSPost2010Prop43
 90
        3
102
RTVSPost2010PropOp43
 70
     1
102
RTVSPost2010Prop44ColorIndex
 90
        5
102
RTVSPost2010Prop44ColorRGB
 90
      255
102
RTVSPost2010PropOp44
 70
     1
102
RTVSPost2010Prop45
280
     0
102
RTVSPost2010PropOp45
 70
     1
102
RTVSPost2010Prop46
 90
       50
102
RTVSPost2010PropOp46
 70
     1
102
RTVSPost2010Prop47
 90
       50
102
RTVSPost2010PropOp47
 70
     1
102
RTVSPost2010Prop48
 90
       50
102
RTVSPost2010PropOp48
 70
     1
102
RTVSPost2010Prop49
280
     0
102
RTVSPost2010PropOp49
 70
     1
102
RTVSPost2010Prop50
 90
       50
102
RTVSPost2010PropOp50
 70
     1
102
RTVSPost2010Prop51ColorIndex
 90
      256
102
RTVSPost2010Prop51ColorRGB
 90
-16777216
102
RTVSPost2010PropOp51
 70
     0
102
RTVSPost2010Prop52
140
1.0
102
RTVSPost2010PropOp52
 70
     0
102
RTVSPost2010Prop53
 90
        2
102
RTVSPost2010PropOp53
 70
     1
102
RTVSPost2010Prop54
  1
strokes_ogs.tif
102
RTVSPost2010PropOp54
 70
     1
102
RTVSPost2010Prop55
280
     0
102
RTVSPost2010PropOp55
 70
     1
102
RTVSPost2010Prop56
140
1.0
102
RTVSPost2010PropOp56
 70
     1
102
RTVSPost2010Prop57
140
1.0
102
RTVSPost2010PropOp57
 70
     1
102
RTVSPropertyOp0
 70
     1
102
RTVSPropertyOp1
 70
     1
102
RTVSPropertyOp2
 70
     1
102
RTVSPropertyOp3
 70
     1
102
RTVSPropertyOp4
 70
     1
102
RTVSPropertyOp5
 70
     1
102
RTVSPropertyOp6
 70
     1
102
RTVSPropertyOp7
 70
     1
102
RTVSPropertyOp8
 70
     1
102
RTVSPropertyOp9
 70
     1
102
RTVSPropertyOp10
 70
     1
102
RTVSPropertyOp11
 70
     1
102
RTVSPropertyOp12
 70
     1
102
RTVSPropertyOp13
 70
     1
102
RTVSPropertyOp14
 70
     1
102
RTVSPropertyOp15
 70
     1
102
RTVSPropertyOp16
 70
     1
102
RTVSPropertyOp17
 70
     1
102
RTVSPropertyOp18
 70
     1
102
RTVSPropertyOp19
 70
     1
102
RTVSPropertyOp20
 70
     1
102
RTVSPropertyOp21
 70
     1
102
RTVSPropertyOp22
 70
     1
102
RTVSPropertyOp23
 70
     1
102
RTVSPropertyOp24
 70
     1
102
RTVSPropertyOp25
 70
     1
102
RTVSPropertyOp26
 70
     1
102
RTVSPropertyOp27
 70
     1
102
RTVSPropertyOp28
 70
     1
102
RTVSPropertyOp29
 70
     1
102
RTVSPropertyOp30
 70
     1
102
RTVSPropertyOp31
 70
     1
102
RTVSPropertyOp32
 70
     1
102
RTVSPropertyOp33
 70
     1
102
RTVSPropertyOp34
 70
     1
102
RTVSPropertyOp35
 70
     1
102
RTVSPropertyOp36
 70
     1
102
RTVSPropertyOp37
 70
     1
102
RTVSPropertyOp38
 70
     1
102
RTVSPropertyOp39
 70
     1
102
RTVSPropertyOp40
 70
     1
102
RTVSPropertyOp41
 70
     1
102
RTVSPropertyOp42
 70
     1
102
RTVSPropertyOp43
 70
     1
102
RTVSPropertyOp44
 70
     1
102
RTVSPropertyOp45
 70
     1
102
RTVSPropertyOp46
 70
     1
102
RTVSPropertyOp47
 70
     1
102
RTVSPropertyOp48
 70
     1
102
RTVSPropertyOp49
 70
     1
102
RTVSPropertyOp50
 70
     1
102
RTVSPropertyOp51
 70
     0
102
RTVSPropertyOp52
 70
     0
102
RTVSPropertyOp53
 70
     1
102
RTVSPropertyOp54
 70
     1
102
RTVSPropertyOp55
 70
     1
102
RTVSPropertyOp56
 70
     1
102
RTVSPropertyOp57
 70
     1
102
RTVSPropertyOp58
 70
     1
102
RTVSPropertyOp59
 70
     1
102
RTVSPropertyOp60
 70
     1
102
RTVSPropertyOp61
 70
     1
102
RTVSPropertyOp62
 70
     1
  0
XRECORD
  5
61C
102
{ACAD_REACTORS
330
61B
102
}
330
61B
100
AcDbXrecord
280
     1
102
RTVSPost2010Prop28
280
     0
102
RTVSPost2010PropOp28
 70
     1
102
RTVSPost2010Prop29
280
     1
102
RTVSPost2010PropOp29
 70
     1
102
RTVSPost2010Prop30
280
     1
102
RTVSPost2010PropOp30
 70
     1
102
RTVSPost2010Prop31
280
     0
102
RTVSPost2010PropOp31
 70
     1
102
RTVSPost2010Prop32
280
     0
102
RTVSPost2010PropOp32
 70
     1
102
RTVSPost2010Prop33
280
     0
102
RTVSPost2010PropOp33
 70
     1
102
RTVSPost2010Prop34
280
     0
102
RTVSPost2010PropOp34
 70
     1
102
RTVSPost2010Prop35
280
     0
102
RTVSPost2010PropOp35
 70
     1
102
RTVSPost2010Prop36
280
     0
102
RTVSPost2010PropOp36
 70
     1
102
RTVSPost2010Prop37
 90
       50
102
RTVSPost2010PropOp37
 70
     1
102
RTVSPost2010Prop38
140
0.0
102
RTVSPost2010PropOp38
 70
     1
102
RTVSPost2010Prop39
140
1.0
102
RTVSPost2010PropOp39
 70
     1
102
RTVSPost2010Prop40
 90
        0
102
RTVSPost2010PropOp40
 70
     1
102
RTVSPost2010Prop41ColorIndex
 90
       18
102
RTVSPost2010Prop41ColorRGB
 90
        0
102
RTVSPost2010PropOp41
 70
     1
102
RTVSPost2010Prop42
 90
       50
102
RTVSPost2010PropOp42
 70
     1
102
RTVSPost2010Prop43
 90
        3
102
RTVSPost2010PropOp43
 70
     1
102
RTVSPost2010Prop44ColorIndex
 90
        5
102
RTVSPost2010Prop44ColorRGB
 90
      255
102
RTVSPost2010PropOp44
 70
     1
102
RTVSPost2010Prop45
280
     0
102
RTVSPost2010PropOp45
 70
     1
102
RTVSPost2010Prop46
 90
       50
102
RTVSPost2010PropOp46
 70
     1
102
RTVSPost2010Prop47
 90
       50
102
RTVSPost2010PropOp47
 70
     1
102
RTVSPost2010Prop48
 90
       50
102
RTVSPost2010PropOp48
 70
     1
102
RTVSPost2010Prop49
280
     0
102
RTVSPost2010PropOp49
 70
     1
102
RTVSPost2010Prop50
 90
       50
102
RTVSPost2010PropOp50
 70
     1
102
RTVSPost2010Prop51ColorIndex
 90
      256
102
RTVSPost2010Prop51ColorRGB
 90
-16777216
102
RTVSPost2010PropOp51
 70
     0
102
RTVSPost2010Prop52
140
1.0
102
RTVSPost2010PropOp52
 70
     0
102
RTVSPost2010Prop53
 90
        2
102
RTVSPost2010PropOp53
 70
     1
102
RTVSPost2010Prop54
  1
strokes_ogs.tif
102
RTVSPost2010PropOp54
 70
     1
102
RTVSPost2010Prop55
280
     0
102
RTVSPost2010PropOp55
 70
     1
102
RTVSPost2010Prop56
140
1.0
102
RTVSPost2010PropOp56
 70
     1
102
RTVSPost2010Prop57
140
1.0
102
RTVSPost2010PropOp57
 70
     1
102
RTVSPropertyOp0
 70
     1
102
RTVSPropertyOp1
 70
     1
102
RTVSPropertyOp2
 70
     1
102
RTVSPropertyOp3
 70
     1
102
RTVSPropertyOp4
 70
     1
102
RTVSPropertyOp5
 70
     1
102
RTVSPropertyOp6
 70
     1
102
RTVSPropertyOp7
 70
     1
102
RTVSPropertyOp8
 70
     1
102
RTVSPropertyOp9
 70
     1
102
RTVSPropertyOp10
 70
     1
102
RTVSPropertyOp11
 70
     1
102
RTVSPropertyOp12
 70
     1
102
RTVSPropertyOp13
 70
     1
102
RTVSPropertyOp14
 70
     1
102
RTVSPropertyOp15
 70
     1
102
RTVSPropertyOp16
 70
     1
102
RTVSPropertyOp17
 70
     1
102
RTVSPropertyOp18
 70
     1
102
RTVSPropertyOp19
 70
     1
102
RTVSPropertyOp20
 70
     1
102
RTVSPropertyOp21
 70
     1
102
RTVSPropertyOp22
 70
     1
102
RTVSPropertyOp23
 70
     1
102
RTVSPropertyOp24
 70
     1
102
RTVSPropertyOp25
 70
     1
102
RTVSPropertyOp26
 70
     1
102
RTVSPropertyOp27
 70
     1
102
RTVSPropertyOp28
 70
     1
102
RTVSPropertyOp29
 70
     1
102
RTVSPropertyOp30
 70
     1
102
RTVSPropertyOp31
 70
     1
102
RTVSPropertyOp32
 70
     1
102
RTVSPropertyOp33
 70
     1
102
RTVSPropertyOp34
 70
     1
102
RTVSPropertyOp35
 70
     1
102
RTVSPropertyOp36
 70
     1
102
RTVSPropertyOp37
 70
     1
102
RTVSPropertyOp38
 70
     1
102
RTVSPropertyOp39
 70
     1
102
RTVSPropertyOp40
 70
     1
102
RTVSPropertyOp41
 70
     1
102
RTVSPropertyOp42
 70
     1
102
RTVSPropertyOp43
 70
     1
102
RTVSPropertyOp44
 70
     1
102
RTVSPropertyOp45
 70
     1
102
RTVSPropertyOp46
 70
     1
102
RTVSPropertyOp47
 70
     1
102
RTVSPropertyOp48
 70
     1
102
RTVSPropertyOp49
 70
     1
102
RTVSPropertyOp50
 70
     1
102
RTVSPropertyOp51
 70
     0
102
RTVSPropertyOp52
 70
     0
102
RTVSPropertyOp53
 70
     1
102
RTVSPropertyOp54
 70
     1
102
RTVSPropertyOp55
 70
     1
102
RTVSPropertyOp56
 70
     1
102
RTVSPropertyOp57
 70
     1
102
RTVSPropertyOp58
 70
     1
102
RTVSPropertyOp59
 70
     1
102
RTVSPropertyOp60
 70
     1
102
RTVSPropertyOp61
 70
     1
102
RTVSPropertyOp62
 70
     1
  0
XRECORD
  5
630
102
{ACAD_REACTORS
330
62F
102
}
330
62F
100
AcDbXrecord
280
     1
102
RTVSPost2010Prop28
280
     0
102
RTVSPost2010PropOp28
 70
     0
102
RTVSPost2010Prop29
280
     1
102
RTVSPost2010PropOp29
 70
     0
102
RTVSPost2010Prop30
280
     1
102
RTVSPost2010PropOp30
 70
     0
102
RTVSPost2010Prop31
280
     0
102
RTVSPost2010PropOp31
 70
     0
102
RTVSPost2010Prop32
280
     0
102
RTVSPost2010PropOp32
 70
     0
102
RTVSPost2010Prop33
280
     0
102
RTVSPost2010PropOp33
 70
     0
102
RTVSPost2010Prop34
280
     0
102
RTVSPost2010PropOp34
 70
     0
102
RTVSPost2010Prop35
280
     0
102
RTVSPost2010PropOp35
 70
     0
102
RTVSPost2010Prop36
280
     0
102
RTVSPost2010PropOp36
 70
     0
102
RTVSPost2010Prop37
 90
       50
102
RTVSPost2010PropOp37
 70
     0
102
RTVSPost2010Prop38
140
0.0
102
RTVSPost2010PropOp38
 70
     0
102
RTVSPost2010Prop39
140
1.0
102
RTVSPost2010PropOp39
 70
     0
102
RTVSPost2010Prop40
 90
        0
102
RTVSPost2010PropOp40
 70
     0
102
RTVSPost2010Prop41ColorIndex
 90
       18
102
RTVSPost2010Prop41ColorRGB
 90
        0
102
RTVSPost2010PropOp41
 70
     0
102
RTVSPost2010Prop42
 90
       50
102
RTVSPost2010PropOp42
 70
     0
102
RTVSPost2010Prop43
 90
        3
102
RTVSPost2010PropOp43
 70
     0
102
RTVSPost2010Prop44ColorIndex
 90
        5
102
RTVSPost2010Prop44ColorRGB
 90
      255
102
RTVSPost2010PropOp44
 70
     0
102
RTVSPost2010Prop45
280
     0
102
RTVSPost2010PropOp45
 70
     0
102
RTVSPost2010Prop46
 90
       50
102
RTVSPost2010PropOp46
 70
     0
102
RTVSPost2010Prop47
 90
       50
102
RTVSPost2010PropOp47
 70
     0
102
RTVSPost2010Prop48
 90
       50
102
RTVSPost2010PropOp48
 70
     0
102
RTVSPost2010Prop49
280
     0
102
RTVSPost2010PropOp49
 70
     0
102
RTVSPost2010Prop50
 90
       50
102
RTVSPost2010PropOp50
 70
     0
102
RTVSPost2010Prop51ColorIndex
 90
      256
102
RTVSPost2010Prop51ColorRGB
 90
-16777216
102
RTVSPost2010PropOp51
 70
     0
102
RTVSPost2010Prop52
140
1.0
102
RTVSPost2010PropOp52
 70
     0
102
RTVSPost2010Prop53
 90
        2
102
RTVSPost2010PropOp53
 70
     0
102
RTVSPost2010Prop54
  1
strokes_ogs.tif
102
RTVSPost2010PropOp54
 70
     0
102
RTVSPost2010Prop55
280
     0
102
RTVSPost2010PropOp55
 70
     0
102
RTVSPost2010Prop56
140
1.0
102
RTVSPost2010PropOp56
 70
     0
102
RTVSPost2010Prop57
140
1.0
102
RTVSPost2010PropOp57
 70
     0
102
RTVSPropertyOp0
 70
     0
102
RTVSPropertyOp1
 70
     0
102
RTVSPropertyOp2
 70
     0
102
RTVSPropertyOp3
 70
     0
102
RTVSPropertyOp4
 70
     0
102
RTVSPropertyOp5
 70
     0
102
RTVSPropertyOp6
 70
     0
102
RTVSPropertyOp7
 70
     0
102
RTVSPropertyOp8
 70
     0
102
RTVSPropertyOp9
 70
     0
102
RTVSPropertyOp10
 70
     0
102
RTVSPropertyOp11
 70
     0
102
RTVSPropertyOp12
 70
     0
102
RTVSPropertyOp13
 70
     0
102
RTVSPropertyOp14
 70
     2
102
RTVSPropertyOp15
 70
     0
102
RTVSPropertyOp16
 70
     0
102
RTVSPropertyOp17
 70
     0
102
RTVSPropertyOp18
 70
     0
102
RTVSPropertyOp19
 70
     0
102
RTVSPropertyOp20
 70
     0
102
RTVSPropertyOp21
 70
     0
102
RTVSPropertyOp22
 70
     0
102
RTVSPropertyOp23
 70
     0
102
RTVSPropertyOp24
 70
     0
102
RTVSPropertyOp25
 70
     0
102
RTVSPropertyOp26
 70
     0
102
RTVSPropertyOp27
 70
     0
102
RTVSPropertyOp28
 70
     0
102
RTVSPropertyOp29
 70
     0
102
RTVSPropertyOp30
 70
     0
102
RTVSPropertyOp31
 70
     0
102
RTVSPropertyOp32
 70
     0
102
RTVSPropertyOp33
 70
     0
102
RTVSPropertyOp34
 70
     0
102
RTVSPropertyOp35
 70
     0
102
RTVSPropertyOp36
 70
     0
102
RTVSPropertyOp37
 70
     0
102
RTVSPropertyOp38
 70
     0
102
RTVSPropertyOp39
 70
     0
102
RTVSPropertyOp40
 70
     0
102
RTVSPropertyOp41
 70
     0
102
RTVSPropertyOp42
 70
     0
102
RTVSPropertyOp43
 70
     0
102
RTVSPropertyOp44
 70
     0
102
RTVSPropertyOp45
 70
     0
102
RTVSPropertyOp46
 70
     0
102
RTVSPropertyOp47
 70
     0
102
RTVSPropertyOp48
 70
     0
102
RTVSPropertyOp49
 70
     0
102
RTVSPropertyOp50
 70
     0
102
RTVSPropertyOp51
 70
     0
102
RTVSPropertyOp52
 70
     0
102
RTVSPropertyOp53
 70
     0
102
RTVSPropertyOp54
 70
     0
102
RTVSPropertyOp55
 70
     0
102
RTVSPropertyOp56
 70
     0
102
RTVSPropertyOp57
 70
     0
102
RTVSPropertyOp58
 70
     1
102
RTVSPropertyOp59
 70
     1
102
RTVSPropertyOp60
 70
     1
102
RTVSPropertyOp61
 70
     1
102
RTVSPropertyOp62
 70
     1
  0
XRECORD
  5
62A
102
{ACAD_REACTORS
330
629
102
}
330
629
100
AcDbXrecord
280
     1
102
RTVSPost2010Prop28
280
     0
102
RTVSPost2010PropOp28
 70
     1
102
RTVSPost2010Prop29
280
     1
102
RTVSPost2010PropOp29
 70
     1
102
RTVSPost2010Prop30
280
     1
102
RTVSPost2010PropOp30
 70
     1
102
RTVSPost2010Prop31
280
     0
102
RTVSPost2010PropOp31
 70
     1
102
RTVSPost2010Prop32
280
     0
102
RTVSPost2010PropOp32
 70
     1
102
RTVSPost2010Prop33
280
     0
102
RTVSPost2010PropOp33
 70
     1
102
RTVSPost2010Prop34
280
     0
102
RTVSPost2010PropOp34
 70
     1
102
RTVSPost2010Prop35
280
     0
102
RTVSPost2010PropOp35
 70
     1
102
RTVSPost2010Prop36
280
     0
102
RTVSPost2010PropOp36
 70
     1
102
RTVSPost2010Prop37
 90
       50
102
RTVSPost2010PropOp37
 70
     1
102
RTVSPost2010Prop38
140
0.0
102
RTVSPost2010PropOp38
 70
     1
102
RTVSPost2010Prop39
140
1.0
102
RTVSPost2010PropOp39
 70
     1
102
RTVSPost2010Prop40
 90
        0
102
RTVSPost2010PropOp40
 70
     1
102
RTVSPost2010Prop41ColorIndex
 90
       18
102
RTVSPost2010Prop41ColorRGB
 90
        0
102
RTVSPost2010PropOp41
 70
     1
102
RTVSPost2010Prop42
 90
       50
102
RTVSPost2010PropOp42
 70
     1
102
RTVSPost2010Prop43
 90
        3
102
RTVSPost2010PropOp43
 70
     1
102
RTVSPost2010Prop44ColorIndex
 90
        5
102
RTVSPost2010Prop44ColorRGB
 90
      255
102
RTVSPost2010PropOp44
 70
     1
102
RTVSPost2010Prop45
280
     0
102
RTVSPost2010PropOp45
 70
     1
102
RTVSPost2010Prop46
 90
       50
102
RTVSPost2010PropOp46
 70
     1
102
RTVSPost2010Prop47
 90
       50
102
RTVSPost2010PropOp47
 70
     1
102
RTVSPost2010Prop48
 90
       50
102
RTVSPost2010PropOp48
 70
     1
102
RTVSPost2010Prop49
280
     0
102
RTVSPost2010PropOp49
 70
     1
102
RTVSPost2010Prop50
 90
       50
102
RTVSPost2010PropOp50
 70
     1
102
RTVSPost2010Prop51ColorIndex
 90
      256
102
RTVSPost2010Prop51ColorRGB
 90
-16777216
102
RTVSPost2010PropOp51
 70
     0
102
RTVSPost2010Prop52
140
1.0
102
RTVSPost2010PropOp52
 70
     0
102
RTVSPost2010Prop53
 90
        2
102
RTVSPost2010PropOp53
 70
     1
102
RTVSPost2010Prop54
  1
strokes_ogs.tif
102
RTVSPost2010PropOp54
 70
     1
102
RTVSPost2010Prop55
280
     0
102
RTVSPost2010PropOp55
 70
     1
102
RTVSPost2010Prop56
140
1.0
102
RTVSPost2010PropOp56
 70
     1
102
RTVSPost2010Prop57
140
1.0
102
RTVSPost2010PropOp57
 70
     1
102
RTVSPropertyOp0
 70
     1
102
RTVSPropertyOp1
 70
     1
102
RTVSPropertyOp2
 70
     1
102
RTVSPropertyOp3
 70
     1
102
RTVSPropertyOp4
 70
     1
102
RTVSPropertyOp5
 70
     1
102
RTVSPropertyOp6
 70
     1
102
RTVSPropertyOp7
 70
     1
102
RTVSPropertyOp8
 70
     1
102
RTVSPropertyOp9
 70
     1
102
RTVSPropertyOp10
 70
     1
102
RTVSPropertyOp11
 70
     1
102
RTVSPropertyOp12
 70
     1
102
RTVSPropertyOp13
 70
     1
102
RTVSPropertyOp14
 70
     1
102
RTVSPropertyOp15
 70
     1
102
RTVSPropertyOp16
 70
     1
102
RTVSPropertyOp17
 70
     1
102
RTVSPropertyOp18
 70
     1
102
RTVSPropertyOp19
 70
     1
102
RTVSPropertyOp20
 70
     1
102
RTVSPropertyOp21
 70
     1
102
RTVSPropertyOp22
 70
     1
102
RTVSPropertyOp23
 70
     1
102
RTVSPropertyOp24
 70
     1
102
RTVSPropertyOp25
 70
     1
102
RTVSPropertyOp26
 70
     1
102
RTVSPropertyOp27
 70
     1
102
RTVSPropertyOp28
 70
     1
102
RTVSPropertyOp29
 70
     1
102
RTVSPropertyOp30
 70
     1
102
RTVSPropertyOp31
 70
     1
102
RTVSPropertyOp32
 70
     1
102
RTVSPropertyOp33
 70
     1
102
RTVSPropertyOp34
 70
     1
102
RTVSPropertyOp35
 70
     1
102
RTVSPropertyOp36
 70
     1
102
RTVSPropertyOp37
 70
     1
102
RTVSPropertyOp38
 70
     1
102
RTVSPropertyOp39
 70
     1
102
RTVSPropertyOp40
 70
     1
102
RTVSPropertyOp41
 70
     1
102
RTVSPropertyOp42
 70
     1
102
RTVSPropertyOp43
 70
     1
102
RTVSPropertyOp44
 70
     1
102
RTVSPropertyOp45
 70
     1
102
RTVSPropertyOp46
 70
     1
102
RTVSPropertyOp47
 70
     1
102
RTVSPropertyOp48
 70
     1
102
RTVSPropertyOp49
 70
     1
102
RTVSPropertyOp50
 70
     1
102
RTVSPropertyOp51
 70
     0
102
RTVSPropertyOp52
 70
     0
102
RTVSPropertyOp53
 70
     1
102
RTVSPropertyOp54
 70
     1
102
RTVSPropertyOp55
 70
     1
102
RTVSPropertyOp56
 70
     1
102
RTVSPropertyOp57
 70
     1
102
RTVSPropertyOp58
 70
     1
102
RTVSPropertyOp59
 70
     1
102
RTVSPropertyOp60
 70
     1
102
RTVSPropertyOp61
 70
     1
102
RTVSPropertyOp62
 70
     1
  0
XRECORD
  5
632
102
{ACAD_REACTORS
330
631
102
}
330
631
100
AcDbXrecord
280
     1
102
RTVSPost2010Prop28
280
     0
102
RTVSPost2010PropOp28
 70
     0
102
RTVSPost2010Prop29
280
     1
102
RTVSPost2010PropOp29
 70
     0
102
RTVSPost2010Prop30
280
     1
102
RTVSPost2010PropOp30
 70
     0
102
RTVSPost2010Prop31
280
     0
102
RTVSPost2010PropOp31
 70
     0
102
RTVSPost2010Prop32
280
     0
102
RTVSPost2010PropOp32
 70
     0
102
RTVSPost2010Prop33
280
     0
102
RTVSPost2010PropOp33
 70
     0
102
RTVSPost2010Prop34
280
     0
102
RTVSPost2010PropOp34
 70
     0
102
RTVSPost2010Prop35
280
     0
102
RTVSPost2010PropOp35
 70
     0
102
RTVSPost2010Prop36
280
     0
102
RTVSPost2010PropOp36
 70
     0
102
RTVSPost2010Prop37
 90
       50
102
RTVSPost2010PropOp37
 70
     0
102
RTVSPost2010Prop38
140
0.0
102
RTVSPost2010PropOp38
 70
     0
102
RTVSPost2010Prop39
140
1.0
102
RTVSPost2010PropOp39
 70
     0
102
RTVSPost2010Prop40
 90
        0
102
RTVSPost2010PropOp40
 70
     0
102
RTVSPost2010Prop41ColorIndex
 90
       18
102
RTVSPost2010Prop41ColorRGB
 90
        0
102
RTVSPost2010PropOp41
 70
     0
102
RTVSPost2010Prop42
 90
       50
102
RTVSPost2010PropOp42
 70
     0
102
RTVSPost2010Prop43
 90
        3
102
RTVSPost2010PropOp43
 70
     0
102
RTVSPost2010Prop44ColorIndex
 90
        5
102
RTVSPost2010Prop44ColorRGB
 90
      255
102
RTVSPost2010PropOp44
 70
     0
102
RTVSPost2010Prop45
280
     0
102
RTVSPost2010PropOp45
 70
     0
102
RTVSPost2010Prop46
 90
       50
102
RTVSPost2010PropOp46
 70
     0
102
RTVSPost2010Prop47
 90
       50
102
RTVSPost2010PropOp47
 70
     0
102
RTVSPost2010Prop48
 90
       50
102
RTVSPost2010PropOp48
 70
     0
102
RTVSPost2010Prop49
280
     0
102
RTVSPost2010PropOp49
 70
     0
102
RTVSPost2010Prop50
 90
       50
102
RTVSPost2010PropOp50
 70
     0
102
RTVSPost2010Prop51ColorIndex
 90
      256
102
RTVSPost2010Prop51ColorRGB
 90
-16777216
102
RTVSPost2010PropOp51
 70
     0
102
RTVSPost2010Prop52
140
1.0
102
RTVSPost2010PropOp52
 70
     0
102
RTVSPost2010Prop53
 90
        2
102
RTVSPost2010PropOp53
 70
     0
102
RTVSPost2010Prop54
  1
strokes_ogs.tif
102
RTVSPost2010PropOp54
 70
     0
102
RTVSPost2010Prop55
280
     0
102
RTVSPost2010PropOp55
 70
     0
102
RTVSPost2010Prop56
140
1.0
102
RTVSPost2010PropOp56
 70
     0
102
RTVSPost2010Prop57
140
1.0
102
RTVSPost2010PropOp57
 70
     0
102
RTVSPropertyOp0
 70
     0
102
RTVSPropertyOp1
 70
     0
102
RTVSPropertyOp2
 70
     0
102
RTVSPropertyOp3
 70
     0
102
RTVSPropertyOp4
 70
     0
102
RTVSPropertyOp5
 70
     0
102
RTVSPropertyOp6
 70
     0
102
RTVSPropertyOp7
 70
     0
102
RTVSPropertyOp8
 70
     0
102
RTVSPropertyOp9
 70
     0
102
RTVSPropertyOp10
 70
     0
102
RTVSPropertyOp11
 70
     0
102
RTVSPropertyOp12
 70
     0
102
RTVSPropertyOp13
 70
     0
102
RTVSPropertyOp14
 70
     2
102
RTVSPropertyOp15
 70
     0
102
RTVSPropertyOp16
 70
     0
102
RTVSPropertyOp17
 70
     0
102
RTVSPropertyOp18
 70
     0
102
RTVSPropertyOp19
 70
     0
102
RTVSPropertyOp20
 70
     0
102
RTVSPropertyOp21
 70
     0
102
RTVSPropertyOp22
 70
     0
102
RTVSPropertyOp23
 70
     0
102
RTVSPropertyOp24
 70
     0
102
RTVSPropertyOp25
 70
     0
102
RTVSPropertyOp26
 70
     0
102
RTVSPropertyOp27
 70
     0
102
RTVSPropertyOp28
 70
     0
102
RTVSPropertyOp29
 70
     0
102
RTVSPropertyOp30
 70
     0
102
RTVSPropertyOp31
 70
     0
102
RTVSPropertyOp32
 70
     0
102
RTVSPropertyOp33
 70
     0
102
RTVSPropertyOp34
 70
     0
102
RTVSPropertyOp35
 70
     0
102
RTVSPropertyOp36
 70
     0
102
RTVSPropertyOp37
 70
     0
102
RTVSPropertyOp38
 70
     0
102
RTVSPropertyOp39
 70
     0
102
RTVSPropertyOp40
 70
     0
102
RTVSPropertyOp41
 70
     0
102
RTVSPropertyOp42
 70
     0
102
RTVSPropertyOp43
 70
     0
102
RTVSPropertyOp44
 70
     0
102
RTVSPropertyOp45
 70
     0
102
RTVSPropertyOp46
 70
     0
102
RTVSPropertyOp47
 70
     0
102
RTVSPropertyOp48
 70
     0
102
RTVSPropertyOp49
 70
     0
102
RTVSPropertyOp50
 70
     0
102
RTVSPropertyOp51
 70
     0
102
RTVSPropertyOp52
 70
     0
102
RTVSPropertyOp53
 70
     0
102
RTVSPropertyOp54
 70
     0
102
RTVSPropertyOp55
 70
     0
102
RTVSPropertyOp56
 70
     0
102
RTVSPropertyOp57
 70
     0
102
RTVSPropertyOp58
 70
     1
102
RTVSPropertyOp59
 70
     1
102
RTVSPropertyOp60
 70
     1
102
RTVSPropertyOp61
 70
     1
102
RTVSPropertyOp62
 70
     1
  0
XRECORD
  5
620
102
{ACAD_REACTORS
330
61F
102
}
330
61F
100
AcDbXrecord
280
     1
102
RTVSPost2010Prop28
280
     0
102
RTVSPost2010PropOp28
 70
     1
102
RTVSPost2010Prop29
280
     1
102
RTVSPost2010PropOp29
 70
     1
102
RTVSPost2010Prop30
280
     1
102
RTVSPost2010PropOp30
 70
     1
102
RTVSPost2010Prop31
280
     0
102
RTVSPost2010PropOp31
 70
     1
102
RTVSPost2010Prop32
280
     0
102
RTVSPost2010PropOp32
 70
     1
102
RTVSPost2010Prop33
280
     0
102
RTVSPost2010PropOp33
 70
     1
102
RTVSPost2010Prop34
280
     0
102
RTVSPost2010PropOp34
 70
     1
102
RTVSPost2010Prop35
280
     0
102
RTVSPost2010PropOp35
 70
     1
102
RTVSPost2010Prop36
280
     0
102
RTVSPost2010PropOp36
 70
     1
102
RTVSPost2010Prop37
 90
       50
102
RTVSPost2010PropOp37
 70
     1
102
RTVSPost2010Prop38
140
0.0
102
RTVSPost2010PropOp38
 70
     1
102
RTVSPost2010Prop39
140
1.0
102
RTVSPost2010PropOp39
 70
     1
102
RTVSPost2010Prop40
 90
        0
102
RTVSPost2010PropOp40
 70
     1
102
RTVSPost2010Prop41ColorIndex
 90
       18
102
RTVSPost2010Prop41ColorRGB
 90
        0
102
RTVSPost2010PropOp41
 70
     1
102
RTVSPost2010Prop42
 90
       50
102
RTVSPost2010PropOp42
 70
     1
102
RTVSPost2010Prop43
 90
        3
102
RTVSPost2010PropOp43
 70
     1
102
RTVSPost2010Prop44ColorIndex
 90
        5
102
RTVSPost2010Prop44ColorRGB
 90
      255
102
RTVSPost2010PropOp44
 70
     1
102
RTVSPost2010Prop45
280
     0
102
RTVSPost2010PropOp45
 70
     1
102
RTVSPost2010Prop46
 90
       50
102
RTVSPost2010PropOp46
 70
     1
102
RTVSPost2010Prop47
 90
       50
102
RTVSPost2010PropOp47
 70
     1
102
RTVSPost2010Prop48
 90
       50
102
RTVSPost2010PropOp48
 70
     1
102
RTVSPost2010Prop49
280
     0
102
RTVSPost2010PropOp49
 70
     1
102
RTVSPost2010Prop50
 90
       50
102
RTVSPost2010PropOp50
 70
     1
102
RTVSPost2010Prop51ColorIndex
 90
      256
102
RTVSPost2010Prop51ColorRGB
 90
-16777216
102
RTVSPost2010PropOp51
 70
     0
102
RTVSPost2010Prop52
140
1.0
102
RTVSPost2010PropOp52
 70
     0
102
RTVSPost2010Prop53
 90
        2
102
RTVSPost2010PropOp53
 70
     1
102
RTVSPost2010Prop54
  1
strokes_ogs.tif
102
RTVSPost2010PropOp54
 70
     1
102
RTVSPost2010Prop55
280
     0
102
RTVSPost2010PropOp55
 70
     1
102
RTVSPost2010Prop56
140
1.0
102
RTVSPost2010PropOp56
 70
     1
102
RTVSPost2010Prop57
140
1.0
102
RTVSPost2010PropOp57
 70
     1
102
RTVSPropertyOp0
 70
     1
102
RTVSPropertyOp1
 70
     1
102
RTVSPropertyOp2
 70
     1
102
RTVSPropertyOp3
 70
     1
102
RTVSPropertyOp4
 70
     1
102
RTVSPropertyOp5
 70
     1
102
RTVSPropertyOp6
 70
     1
102
RTVSPropertyOp7
 70
     1
102
RTVSPropertyOp8
 70
     1
102
RTVSPropertyOp9
 70
     1
102
RTVSPropertyOp10
 70
     1
102
RTVSPropertyOp11
 70
     1
102
RTVSPropertyOp12
 70
     1
102
RTVSPropertyOp13
 70
     1
102
RTVSPropertyOp14
 70
     1
102
RTVSPropertyOp15
 70
     1
102
RTVSPropertyOp16
 70
     1
102
RTVSPropertyOp17
 70
     1
102
RTVSPropertyOp18
 70
     1
102
RTVSPropertyOp19
 70
     1
102
RTVSPropertyOp20
 70
     1
102
RTVSPropertyOp21
 70
     1
102
RTVSPropertyOp22
 70
     1
102
RTVSPropertyOp23
 70
     1
102
RTVSPropertyOp24
 70
     1
102
RTVSPropertyOp25
 70
     1
102
RTVSPropertyOp26
 70
     1
102
RTVSPropertyOp27
 70
     1
102
RTVSPropertyOp28
 70
     1
102
RTVSPropertyOp29
 70
     1
102
RTVSPropertyOp30
 70
     1
102
RTVSPropertyOp31
 70
     1
102
RTVSPropertyOp32
 70
     1
102
RTVSPropertyOp33
 70
     1
102
RTVSPropertyOp34
 70
     1
102
RTVSPropertyOp35
 70
     1
102
RTVSPropertyOp36
 70
     1
102
RTVSPropertyOp37
 70
     1
102
RTVSPropertyOp38
 70
     1
102
RTVSPropertyOp39
 70
     1
102
RTVSPropertyOp40
 70
     1
102
RTVSPropertyOp41
 70
     1
102
RTVSPropertyOp42
 70
     1
102
RTVSPropertyOp43
 70
     1
102
RTVSPropertyOp44
 70
     1
102
RTVSPropertyOp45
 70
     1
102
RTVSPropertyOp46
 70
     1
102
RTVSPropertyOp47
 70
     1
102
RTVSPropertyOp48
 70
     1
102
RTVSPropertyOp49
 70
     1
102
RTVSPropertyOp50
 70
     1
102
RTVSPropertyOp51
 70
     0
102
RTVSPropertyOp52
 70
     0
102
RTVSPropertyOp53
 70
     1
102
RTVSPropertyOp54
 70
     1
102
RTVSPropertyOp55
 70
     1
102
RTVSPropertyOp56
 70
     1
102
RTVSPropertyOp57
 70
     1
102
RTVSPropertyOp58
 70
     1
102
RTVSPropertyOp59
 70
     1
102
RTVSPropertyOp60
 70
     1
102
RTVSPropertyOp61
 70
     1
102
RTVSPropertyOp62
 70
     1
  0
XRECORD
  5
63E
102
{ACAD_REACTORS
330
63D
102
}
330
63D
100
AcDbXrecord
280
     1
102
RTVSPost2010Prop28
280
     0
102
RTVSPost2010PropOp28
 70
     1
102
RTVSPost2010Prop29
280
     1
102
RTVSPost2010PropOp29
 70
     1
102
RTVSPost2010Prop30
280
     1
102
RTVSPost2010PropOp30
 70
     1
102
RTVSPost2010Prop31
280
     0
102
RTVSPost2010PropOp31
 70
     1
102
RTVSPost2010Prop32
280
     0
102
RTVSPost2010PropOp32
 70
     1
102
RTVSPost2010Prop33
280
     0
102
RTVSPost2010PropOp33
 70
     1
102
RTVSPost2010Prop34
280
     0
102
RTVSPost2010PropOp34
 70
     1
102
RTVSPost2010Prop35
280
     0
102
RTVSPost2010PropOp35
 70
     1
102
RTVSPost2010Prop36
280
     0
102
RTVSPost2010PropOp36
 70
     1
102
RTVSPost2010Prop37
 90
       50
102
RTVSPost2010PropOp37
 70
     1
102
RTVSPost2010Prop38
140
0.0
102
RTVSPost2010PropOp38
 70
     1
102
RTVSPost2010Prop39
140
1.0
102
RTVSPost2010PropOp39
 70
     1
102
RTVSPost2010Prop40
 90
        0
102
RTVSPost2010PropOp40
 70
     1
102
RTVSPost2010Prop41ColorIndex
 90
       18
102
RTVSPost2010Prop41ColorRGB
 90
        0
102
RTVSPost2010PropOp41
 70
     1
102
RTVSPost2010Prop42
 90
       50
102
RTVSPost2010PropOp42
 70
     1
102
RTVSPost2010Prop43
 90
        3
102
RTVSPost2010PropOp43
 70
     1
102
RTVSPost2010Prop44ColorIndex
 90
        5
102
RTVSPost2010Prop44ColorRGB
 90
      255
102
RTVSPost2010PropOp44
 70
     1
102
RTVSPost2010Prop45
280
     0
102
RTVSPost2010PropOp45
 70
     1
102
RTVSPost2010Prop46
 90
       50
102
RTVSPost2010PropOp46
 70
     1
102
RTVSPost2010Prop47
 90
       50
102
RTVSPost2010PropOp47
 70
     1
102
RTVSPost2010Prop48
 90
       50
102
RTVSPost2010PropOp48
 70
     1
102
RTVSPost2010Prop49
280
     0
102
RTVSPost2010PropOp49
 70
     1
102
RTVSPost2010Prop50
 90
       50
102
RTVSPost2010PropOp50
 70
     1
102
RTVSPost2010Prop51ColorIndex
 90
      256
102
RTVSPost2010Prop51ColorRGB
 90
-16777216
102
RTVSPost2010PropOp51
 70
     0
102
RTVSPost2010Prop52
140
1.0
102
RTVSPost2010PropOp52
 70
     0
102
RTVSPost2010Prop53
 90
        2
102
RTVSPost2010PropOp53
 70
     1
102
RTVSPost2010Prop54
  1
strokes_ogs.tif
102
RTVSPost2010PropOp54
 70
     1
102
RTVSPost2010Prop55
280
     0
102
RTVSPost2010PropOp55
 70
     1
102
RTVSPost2010Prop56
140
1.0
102
RTVSPost2010PropOp56
 70
     1
102
RTVSPost2010Prop57
140
1.0
102
RTVSPost2010PropOp57
 70
     1
102
RTVSPropertyOp0
 70
     1
102
RTVSPropertyOp1
 70
     1
102
RTVSPropertyOp2
 70
     1
102
RTVSPropertyOp3
 70
     1
102
RTVSPropertyOp4
 70
     1
102
RTVSPropertyOp5
 70
     1
102
RTVSPropertyOp6
 70
     1
102
RTVSPropertyOp7
 70
     1
102
RTVSPropertyOp8
 70
     1
102
RTVSPropertyOp9
 70
     1
102
RTVSPropertyOp10
 70
     1
102
RTVSPropertyOp11
 70
     1
102
RTVSPropertyOp12
 70
     1
102
RTVSPropertyOp13
 70
     1
102
RTVSPropertyOp14
 70
     1
102
RTVSPropertyOp15
 70
     1
102
RTVSPropertyOp16
 70
     1
102
RTVSPropertyOp17
 70
     1
102
RTVSPropertyOp18
 70
     1
102
RTVSPropertyOp19
 70
     1
102
RTVSPropertyOp20
 70
     1
102
RTVSPropertyOp21
 70
     1
102
RTVSPropertyOp22
 70
     1
102
RTVSPropertyOp23
 70
     1
102
RTVSPropertyOp24
 70
     1
102
RTVSPropertyOp25
 70
     1
102
RTVSPropertyOp26
 70
     1
102
RTVSPropertyOp27
 70
     1
102
RTVSPropertyOp28
 70
     1
102
RTVSPropertyOp29
 70
     1
102
RTVSPropertyOp30
 70
     1
102
RTVSPropertyOp31
 70
     1
102
RTVSPropertyOp32
 70
     1
102
RTVSPropertyOp33
 70
     1
102
RTVSPropertyOp34
 70
     1
102
RTVSPropertyOp35
 70
     1
102
RTVSPropertyOp36
 70
     1
102
RTVSPropertyOp37
 70
     1
102
RTVSPropertyOp38
 70
     1
102
RTVSPropertyOp39
 70
     1
102
RTVSPropertyOp40
 70
     1
102
RTVSPropertyOp41
 70
     1
102
RTVSPropertyOp42
 70
     1
102
RTVSPropertyOp43
 70
     1
102
RTVSPropertyOp44
 70
     1
102
RTVSPropertyOp45
 70
     1
102
RTVSPropertyOp46
 70
     1
102
RTVSPropertyOp47
 70
     1
102
RTVSPropertyOp48
 70
     1
102
RTVSPropertyOp49
 70
     1
102
RTVSPropertyOp50
 70
     1
102
RTVSPropertyOp51
 70
     0
102
RTVSPropertyOp52
 70
     0
102
RTVSPropertyOp53
 70
     1
102
RTVSPropertyOp54
 70
     1
102
RTVSPropertyOp55
 70
     1
102
RTVSPropertyOp56
 70
     1
102
RTVSPropertyOp57
 70
     1
102
RTVSPropertyOp58
 70
     1
102
RTVSPropertyOp59
 70
     1
102
RTVSPropertyOp60
 70
     1
102
RTVSPropertyOp61
 70
     1
102
RTVSPropertyOp62
 70
     1
  0
XRECORD
  5
63C
102
{ACAD_REACTORS
330
63B
102
}
330
63B
100
AcDbXrecord
280
     1
102
RTVSPost2010Prop28
280
     0
102
RTVSPost2010PropOp28
 70
     1
102
RTVSPost2010Prop29
280
     1
102
RTVSPost2010PropOp29
 70
     1
102
RTVSPost2010Prop30
280
     1
102
RTVSPost2010PropOp30
 70
     1
102
RTVSPost2010Prop31
280
     0
102
RTVSPost2010PropOp31
 70
     1
102
RTVSPost2010Prop32
280
     0
102
RTVSPost2010PropOp32
 70
     1
102
RTVSPost2010Prop33
280
     0
102
RTVSPost2010PropOp33
 70
     1
102
RTVSPost2010Prop34
280
     0
102
RTVSPost2010PropOp34
 70
     1
102
RTVSPost2010Prop35
280
     0
102
RTVSPost2010PropOp35
 70
     1
102
RTVSPost2010Prop36
280
     0
102
RTVSPost2010PropOp36
 70
     1
102
RTVSPost2010Prop37
 90
       50
102
RTVSPost2010PropOp37
 70
     1
102
RTVSPost2010Prop38
140
0.0
102
RTVSPost2010PropOp38
 70
     1
102
RTVSPost2010Prop39
140
1.0
102
RTVSPost2010PropOp39
 70
     1
102
RTVSPost2010Prop40
 90
        0
102
RTVSPost2010PropOp40
 70
     1
102
RTVSPost2010Prop41ColorIndex
 90
       18
102
RTVSPost2010Prop41ColorRGB
 90
        0
102
RTVSPost2010PropOp41
 70
     1
102
RTVSPost2010Prop42
 90
       50
102
RTVSPost2010PropOp42
 70
     1
102
RTVSPost2010Prop43
 90
        3
102
RTVSPost2010PropOp43
 70
     1
102
RTVSPost2010Prop44ColorIndex
 90
        5
102
RTVSPost2010Prop44ColorRGB
 90
      255
102
RTVSPost2010PropOp44
 70
     1
102
RTVSPost2010Prop45
280
     0
102
RTVSPost2010PropOp45
 70
     1
102
RTVSPost2010Prop46
 90
       50
102
RTVSPost2010PropOp46
 70
     1
102
RTVSPost2010Prop47
 90
       50
102
RTVSPost2010PropOp47
 70
     1
102
RTVSPost2010Prop48
 90
       50
102
RTVSPost2010PropOp48
 70
     1
102
RTVSPost2010Prop49
280
     0
102
RTVSPost2010PropOp49
 70
     1
102
RTVSPost2010Prop50
 90
       50
102
RTVSPost2010PropOp50
 70
     1
102
RTVSPost2010Prop51ColorIndex
 90
      256
102
RTVSPost2010Prop51ColorRGB
 90
-16777216
102
RTVSPost2010PropOp51
 70
     0
102
RTVSPost2010Prop52
140
1.0
102
RTVSPost2010PropOp52
 70
     0
102
RTVSPost2010Prop53
 90
        2
102
RTVSPost2010PropOp53
 70
     1
102
RTVSPost2010Prop54
  1
strokes_ogs.tif
102
RTVSPost2010PropOp54
 70
     1
102
RTVSPost2010Prop55
280
     0
102
RTVSPost2010PropOp55
 70
     1
102
RTVSPost2010Prop56
140
1.0
102
RTVSPost2010PropOp56
 70
     1
102
RTVSPost2010Prop57
140
1.0
102
RTVSPost2010PropOp57
 70
     1
102
RTVSPropertyOp0
 70
     1
102
RTVSPropertyOp1
 70
     1
102
RTVSPropertyOp2
 70
     1
102
RTVSPropertyOp3
 70
     1
102
RTVSPropertyOp4
 70
     1
102
RTVSPropertyOp5
 70
     1
102
RTVSPropertyOp6
 70
     1
102
RTVSPropertyOp7
 70
     1
102
RTVSPropertyOp8
 70
     1
102
RTVSPropertyOp9
 70
     1
102
RTVSPropertyOp10
 70
     1
102
RTVSPropertyOp11
 70
     1
102
RTVSPropertyOp12
 70
     1
102
RTVSPropertyOp13
 70
     1
102
RTVSPropertyOp14
 70
     1
102
RTVSPropertyOp15
 70
     1
102
RTVSPropertyOp16
 70
     1
102
RTVSPropertyOp17
 70
     1
102
RTVSPropertyOp18
 70
     1
102
RTVSPropertyOp19
 70
     1
102
RTVSPropertyOp20
 70
     1
102
RTVSPropertyOp21
 70
     1
102
RTVSPropertyOp22
 70
     1
102
RTVSPropertyOp23
 70
     1
102
RTVSPropertyOp24
 70
     1
102
RTVSPropertyOp25
 70
     1
102
RTVSPropertyOp26
 70
     1
102
RTVSPropertyOp27
 70
     1
102
RTVSPropertyOp28
 70
     1
102
RTVSPropertyOp29
 70
     1
102
RTVSPropertyOp30
 70
     1
102
RTVSPropertyOp31
 70
     1
102
RTVSPropertyOp32
 70
     1
102
RTVSPropertyOp33
 70
     1
102
RTVSPropertyOp34
 70
     1
102
RTVSPropertyOp35
 70
     1
102
RTVSPropertyOp36
 70
     1
102
RTVSPropertyOp37
 70
     1
102
RTVSPropertyOp38
 70
     1
102
RTVSPropertyOp39
 70
     1
102
RTVSPropertyOp40
 70
     1
102
RTVSPropertyOp41
 70
     1
102
RTVSPropertyOp42
 70
     1
102
RTVSPropertyOp43
 70
     1
102
RTVSPropertyOp44
 70
     1
102
RTVSPropertyOp45
 70
     1
102
RTVSPropertyOp46
 70
     1
102
RTVSPropertyOp47
 70
     1
102
RTVSPropertyOp48
 70
     1
102
RTVSPropertyOp49
 70
     1
102
RTVSPropertyOp50
 70
     1
102
RTVSPropertyOp51
 70
     0
102
RTVSPropertyOp52
 70
     0
102
RTVSPropertyOp53
 70
     1
102
RTVSPropertyOp54
 70
     1
102
RTVSPropertyOp55
 70
     1
102
RTVSPropertyOp56
 70
     1
102
RTVSPropertyOp57
 70
     1
102
RTVSPropertyOp58
 70
     1
102
RTVSPropertyOp59
 70
     1
102
RTVSPropertyOp60
 70
     1
102
RTVSPropertyOp61
 70
     1
102
RTVSPropertyOp62
 70
     1
  0
XRECORD
  5
636
102
{ACAD_REACTORS
330
635
102
}
330
635
100
AcDbXrecord
280
     1
102
RTVSPost2010Prop28
280
     0
102
RTVSPost2010PropOp28
 70
     1
102
RTVSPost2010Prop29
280
     1
102
RTVSPost2010PropOp29
 70
     1
102
RTVSPost2010Prop30
280
     1
102
RTVSPost2010PropOp30
 70
     1
102
RTVSPost2010Prop31
280
     0
102
RTVSPost2010PropOp31
 70
     1
102
RTVSPost2010Prop32
280
     0
102
RTVSPost2010PropOp32
 70
     1
102
RTVSPost2010Prop33
280
     0
102
RTVSPost2010PropOp33
 70
     1
102
RTVSPost2010Prop34
280
     0
102
RTVSPost2010PropOp34
 70
     1
102
RTVSPost2010Prop35
280
     0
102
RTVSPost2010PropOp35
 70
     1
102
RTVSPost2010Prop36
280
     0
102
RTVSPost2010PropOp36
 70
     1
102
RTVSPost2010Prop37
 90
       50
102
RTVSPost2010PropOp37
 70
     1
102
RTVSPost2010Prop38
140
0.0
102
RTVSPost2010PropOp38
 70
     1
102
RTVSPost2010Prop39
140
1.0
102
RTVSPost2010PropOp39
 70
     1
102
RTVSPost2010Prop40
 90
        0
102
RTVSPost2010PropOp40
 70
     1
102
RTVSPost2010Prop41ColorIndex
 90
       18
102
RTVSPost2010Prop41ColorRGB
 90
        0
102
RTVSPost2010PropOp41
 70
     1
102
RTVSPost2010Prop42
 90
       50
102
RTVSPost2010PropOp42
 70
     1
102
RTVSPost2010Prop43
 90
        3
102
RTVSPost2010PropOp43
 70
     1
102
RTVSPost2010Prop44ColorIndex
 90
        5
102
RTVSPost2010Prop44ColorRGB
 90
      255
102
RTVSPost2010PropOp44
 70
     1
102
RTVSPost2010Prop45
280
     0
102
RTVSPost2010PropOp45
 70
     1
102
RTVSPost2010Prop46
 90
       50
102
RTVSPost2010PropOp46
 70
     1
102
RTVSPost2010Prop47
 90
       50
102
RTVSPost2010PropOp47
 70
     1
102
RTVSPost2010Prop48
 90
       50
102
RTVSPost2010PropOp48
 70
     1
102
RTVSPost2010Prop49
280
     0
102
RTVSPost2010PropOp49
 70
     1
102
RTVSPost2010Prop50
 90
       50
102
RTVSPost2010PropOp50
 70
     1
102
RTVSPost2010Prop51ColorIndex
 90
      256
102
RTVSPost2010Prop51ColorRGB
 90
-16777216
102
RTVSPost2010PropOp51
 70
     0
102
RTVSPost2010Prop52
140
1.0
102
RTVSPost2010PropOp52
 70
     0
102
RTVSPost2010Prop53
 90
        2
102
RTVSPost2010PropOp53
 70
     1
102
RTVSPost2010Prop54
  1
strokes_ogs.tif
102
RTVSPost2010PropOp54
 70
     1
102
RTVSPost2010Prop55
280
     0
102
RTVSPost2010PropOp55
 70
     1
102
RTVSPost2010Prop56
140
1.0
102
RTVSPost2010PropOp56
 70
     1
102
RTVSPost2010Prop57
140
1.0
102
RTVSPost2010PropOp57
 70
     1
102
RTVSPropertyOp0
 70
     1
102
RTVSPropertyOp1
 70
     1
102
RTVSPropertyOp2
 70
     1
102
RTVSPropertyOp3
 70
     1
102
RTVSPropertyOp4
 70
     1
102
RTVSPropertyOp5
 70
     1
102
RTVSPropertyOp6
 70
     1
102
RTVSPropertyOp7
 70
     1
102
RTVSPropertyOp8
 70
     1
102
RTVSPropertyOp9
 70
     1
102
RTVSPropertyOp10
 70
     1
102
RTVSPropertyOp11
 70
     1
102
RTVSPropertyOp12
 70
     1
102
RTVSPropertyOp13
 70
     1
102
RTVSPropertyOp14
 70
     1
102
RTVSPropertyOp15
 70
     1
102
RTVSPropertyOp16
 70
     1
102
RTVSPropertyOp17
 70
     1
102
RTVSPropertyOp18
 70
     1
102
RTVSPropertyOp19
 70
     1
102
RTVSPropertyOp20
 70
     1
102
RTVSPropertyOp21
 70
     1
102
RTVSPropertyOp22
 70
     1
102
RTVSPropertyOp23
 70
     1
102
RTVSPropertyOp24
 70
     1
102
RTVSPropertyOp25
 70
     1
102
RTVSPropertyOp26
 70
     1
102
RTVSPropertyOp27
 70
     1
102
RTVSPropertyOp28
 70
     1
102
RTVSPropertyOp29
 70
     1
102
RTVSPropertyOp30
 70
     1
102
RTVSPropertyOp31
 70
     1
102
RTVSPropertyOp32
 70
     1
102
RTVSPropertyOp33
 70
     1
102
RTVSPropertyOp34
 70
     1
102
RTVSPropertyOp35
 70
     1
102
RTVSPropertyOp36
 70
     1
102
RTVSPropertyOp37
 70
     1
102
RTVSPropertyOp38
 70
     1
102
RTVSPropertyOp39
 70
     1
102
RTVSPropertyOp40
 70
     1
102
RTVSPropertyOp41
 70
     1
102
RTVSPropertyOp42
 70
     1
102
RTVSPropertyOp43
 70
     1
102
RTVSPropertyOp44
 70
     1
102
RTVSPropertyOp45
 70
     1
102
RTVSPropertyOp46
 70
     1
102
RTVSPropertyOp47
 70
     1
102
RTVSPropertyOp48
 70
     1
102
RTVSPropertyOp49
 70
     1
102
RTVSPropertyOp50
 70
     1
102
RTVSPropertyOp51
 70
     0
102
RTVSPropertyOp52
 70
     0
102
RTVSPropertyOp53
 70
     1
102
RTVSPropertyOp54
 70
     1
102
RTVSPropertyOp55
 70
     1
102
RTVSPropertyOp56
 70
     1
102
RTVSPropertyOp57
 70
     1
102
RTVSPropertyOp58
 70
     1
102
RTVSPropertyOp59
 70
     1
102
RTVSPropertyOp60
 70
     1
102
RTVSPropertyOp61
 70
     1
102
RTVSPropertyOp62
 70
     1
  0
XRECORD
  5
638
102
{ACAD_REACTORS
330
637
102
}
330
637
100
AcDbXrecord
280
     1
102
RTVSPost2010Prop28
280
     0
102
RTVSPost2010PropOp28
 70
     1
102
RTVSPost2010Prop29
280
     1
102
RTVSPost2010PropOp29
 70
     1
102
RTVSPost2010Prop30
280
     1
102
RTVSPost2010PropOp30
 70
     1
102
RTVSPost2010Prop31
280
     0
102
RTVSPost2010PropOp31
 70
     1
102
RTVSPost2010Prop32
280
     0
102
RTVSPost2010PropOp32
 70
     1
102
RTVSPost2010Prop33
280
     0
102
RTVSPost2010PropOp33
 70
     1
102
RTVSPost2010Prop34
280
     0
102
RTVSPost2010PropOp34
 70
     1
102
RTVSPost2010Prop35
280
     0
102
RTVSPost2010PropOp35
 70
     1
102
RTVSPost2010Prop36
280
     0
102
RTVSPost2010PropOp36
 70
     1
102
RTVSPost2010Prop37
 90
       50
102
RTVSPost2010PropOp37
 70
     1
102
RTVSPost2010Prop38
140
0.0
102
RTVSPost2010PropOp38
 70
     1
102
RTVSPost2010Prop39
140
1.0
102
RTVSPost2010PropOp39
 70
     1
102
RTVSPost2010Prop40
 90
        0
102
RTVSPost2010PropOp40
 70
     1
102
RTVSPost2010Prop41ColorIndex
 90
       18
102
RTVSPost2010Prop41ColorRGB
 90
        0
102
RTVSPost2010PropOp41
 70
     1
102
RTVSPost2010Prop42
 90
       50
102
RTVSPost2010PropOp42
 70
     1
102
RTVSPost2010Prop43
 90
        3
102
RTVSPost2010PropOp43
 70
     1
102
RTVSPost2010Prop44ColorIndex
 90
        5
102
RTVSPost2010Prop44ColorRGB
 90
      255
102
RTVSPost2010PropOp44
 70
     1
102
RTVSPost2010Prop45
280
     0
102
RTVSPost2010PropOp45
 70
     1
102
RTVSPost2010Prop46
 90
       50
102
RTVSPost2010PropOp46
 70
     1
102
RTVSPost2010Prop47
 90
       50
102
RTVSPost2010PropOp47
 70
     1
102
RTVSPost2010Prop48
 90
       50
102
RTVSPost2010PropOp48
 70
     1
102
RTVSPost2010Prop49
280
     0
102
RTVSPost2010PropOp49
 70
     1
102
RTVSPost2010Prop50
 90
       50
102
RTVSPost2010PropOp50
 70
     1
102
RTVSPost2010Prop51ColorIndex
 90
      256
102
RTVSPost2010Prop51ColorRGB
 90
-16777216
102
RTVSPost2010PropOp51
 70
     0
102
RTVSPost2010Prop52
140
1.0
102
RTVSPost2010PropOp52
 70
     0
102
RTVSPost2010Prop53
 90
        2
102
RTVSPost2010PropOp53
 70
     1
102
RTVSPost2010Prop54
  1
strokes_ogs.tif
102
RTVSPost2010PropOp54
 70
     1
102
RTVSPost2010Prop55
280
     0
102
RTVSPost2010PropOp55
 70
     1
102
RTVSPost2010Prop56
140
1.0
102
RTVSPost2010PropOp56
 70
     1
102
RTVSPost2010Prop57
140
1.0
102
RTVSPost2010PropOp57
 70
     1
102
RTVSPropertyOp0
 70
     1
102
RTVSPropertyOp1
 70
     1
102
RTVSPropertyOp2
 70
     1
102
RTVSPropertyOp3
 70
     1
102
RTVSPropertyOp4
 70
     1
102
RTVSPropertyOp5
 70
     1
102
RTVSPropertyOp6
 70
     1
102
RTVSPropertyOp7
 70
     1
102
RTVSPropertyOp8
 70
     1
102
RTVSPropertyOp9
 70
     1
102
RTVSPropertyOp10
 70
     1
102
RTVSPropertyOp11
 70
     1
102
RTVSPropertyOp12
 70
     1
102
RTVSPropertyOp13
 70
     1
102
RTVSPropertyOp14
 70
     1
102
RTVSPropertyOp15
 70
     1
102
RTVSPropertyOp16
 70
     1
102
RTVSPropertyOp17
 70
     1
102
RTVSPropertyOp18
 70
     1
102
RTVSPropertyOp19
 70
     1
102
RTVSPropertyOp20
 70
     1
102
RTVSPropertyOp21
 70
     1
102
RTVSPropertyOp22
 70
     1
102
RTVSPropertyOp23
 70
     1
102
RTVSPropertyOp24
 70
     1
102
RTVSPropertyOp25
 70
     1
102
RTVSPropertyOp26
 70
     1
102
RTVSPropertyOp27
 70
     1
102
RTVSPropertyOp28
 70
     1
102
RTVSPropertyOp29
 70
     1
102
RTVSPropertyOp30
 70
     1
102
RTVSPropertyOp31
 70
     1
102
RTVSPropertyOp32
 70
     1
102
RTVSPropertyOp33
 70
     1
102
RTVSPropertyOp34
 70
     1
102
RTVSPropertyOp35
 70
     1
102
RTVSPropertyOp36
 70
     1
102
RTVSPropertyOp37
 70
     1
102
RTVSPropertyOp38
 70
     1
102
RTVSPropertyOp39
 70
     1
102
RTVSPropertyOp40
 70
     1
102
RTVSPropertyOp41
 70
     1
102
RTVSPropertyOp42
 70
     1
102
RTVSPropertyOp43
 70
     1
102
RTVSPropertyOp44
 70
     1
102
RTVSPropertyOp45
 70
     1
102
RTVSPropertyOp46
 70
     1
102
RTVSPropertyOp47
 70
     1
102
RTVSPropertyOp48
 70
     1
102
RTVSPropertyOp49
 70
     1
102
RTVSPropertyOp50
 70
     1
102
RTVSPropertyOp51
 70
     0
102
RTVSPropertyOp52
 70
     0
102
RTVSPropertyOp53
 70
     1
102
RTVSPropertyOp54
 70
     1
102
RTVSPropertyOp55
 70
     1
102
RTVSPropertyOp56
 70
     1
102
RTVSPropertyOp57
 70
     1
102
RTVSPropertyOp58
 70
     1
102
RTVSPropertyOp59
 70
     1
102
RTVSPropertyOp60
 70
     1
102
RTVSPropertyOp61
 70
     1
102
RTVSPropertyOp62
 70
     1
  0
XRECORD
  5
628
102
{ACAD_REACTORS
330
627
102
}
330
627
100
AcDbXrecord
280
     1
102
RTVSPost2010Prop28
280
     0
102
RTVSPost2010PropOp28
 70
     1
102
RTVSPost2010Prop29
280
     1
102
RTVSPost2010PropOp29
 70
     1
102
RTVSPost2010Prop30
280
     1
102
RTVSPost2010PropOp30
 70
     1
102
RTVSPost2010Prop31
280
     0
102
RTVSPost2010PropOp31
 70
     1
102
RTVSPost2010Prop32
280
     0
102
RTVSPost2010PropOp32
 70
     1
102
RTVSPost2010Prop33
280
     0
102
RTVSPost2010PropOp33
 70
     1
102
RTVSPost2010Prop34
280
     0
102
RTVSPost2010PropOp34
 70
     1
102
RTVSPost2010Prop35
280
     0
102
RTVSPost2010PropOp35
 70
     1
102
RTVSPost2010Prop36
280
     0
102
RTVSPost2010PropOp36
 70
     1
102
RTVSPost2010Prop37
 90
       50
102
RTVSPost2010PropOp37
 70
     1
102
RTVSPost2010Prop38
140
0.0
102
RTVSPost2010PropOp38
 70
     1
102
RTVSPost2010Prop39
140
1.0
102
RTVSPost2010PropOp39
 70
     1
102
RTVSPost2010Prop40
 90
        0
102
RTVSPost2010PropOp40
 70
     1
102
RTVSPost2010Prop41ColorIndex
 90
       18
102
RTVSPost2010Prop41ColorRGB
 90
        0
102
RTVSPost2010PropOp41
 70
     1
102
RTVSPost2010Prop42
 90
       50
102
RTVSPost2010PropOp42
 70
     1
102
RTVSPost2010Prop43
 90
        3
102
RTVSPost2010PropOp43
 70
     1
102
RTVSPost2010Prop44ColorIndex
 90
        5
102
RTVSPost2010Prop44ColorRGB
 90
      255
102
RTVSPost2010PropOp44
 70
     1
102
RTVSPost2010Prop45
280
     0
102
RTVSPost2010PropOp45
 70
     1
102
RTVSPost2010Prop46
 90
       50
102
RTVSPost2010PropOp46
 70
     1
102
RTVSPost2010Prop47
 90
       50
102
RTVSPost2010PropOp47
 70
     1
102
RTVSPost2010Prop48
 90
       50
102
RTVSPost2010PropOp48
 70
     1
102
RTVSPost2010Prop49
280
     0
102
RTVSPost2010PropOp49
 70
     1
102
RTVSPost2010Prop50
 90
       50
102
RTVSPost2010PropOp50
 70
     1
102
RTVSPost2010Prop51ColorIndex
 90
      256
102
RTVSPost2010Prop51ColorRGB
 90
-16777216
102
RTVSPost2010PropOp51
 70
     0
102
RTVSPost2010Prop52
140
1.0
102
RTVSPost2010PropOp52
 70
     0
102
RTVSPost2010Prop53
 90
        2
102
RTVSPost2010PropOp53
 70
     1
102
RTVSPost2010Prop54
  1
strokes_ogs.tif
102
RTVSPost2010PropOp54
 70
     1
102
RTVSPost2010Prop55
280
     0
102
RTVSPost2010PropOp55
 70
     1
102
RTVSPost2010Prop56
140
1.0
102
RTVSPost2010PropOp56
 70
     1
102
RTVSPost2010Prop57
140
1.0
102
RTVSPost2010PropOp57
 70
     1
102
RTVSPropertyOp0
 70
     1
102
RTVSPropertyOp1
 70
     1
102
RTVSPropertyOp2
 70
     1
102
RTVSPropertyOp3
 70
     1
102
RTVSPropertyOp4
 70
     1
102
RTVSPropertyOp5
 70
     1
102
RTVSPropertyOp6
 70
     1
102
RTVSPropertyOp7
 70
     1
102
RTVSPropertyOp8
 70
     1
102
RTVSPropertyOp9
 70
     1
102
RTVSPropertyOp10
 70
     1
102
RTVSPropertyOp11
 70
     1
102
RTVSPropertyOp12
 70
     1
102
RTVSPropertyOp13
 70
     1
102
RTVSPropertyOp14
 70
     1
102
RTVSPropertyOp15
 70
     1
102
RTVSPropertyOp16
 70
     1
102
RTVSPropertyOp17
 70
     1
102
RTVSPropertyOp18
 70
     1
102
RTVSPropertyOp19
 70
     1
102
RTVSPropertyOp20
 70
     1
102
RTVSPropertyOp21
 70
     1
102
RTVSPropertyOp22
 70
     1
102
RTVSPropertyOp23
 70
     1
102
RTVSPropertyOp24
 70
     1
102
RTVSPropertyOp25
 70
     1
102
RTVSPropertyOp26
 70
     1
102
RTVSPropertyOp27
 70
     1
102
RTVSPropertyOp28
 70
     1
102
RTVSPropertyOp29
 70
     1
102
RTVSPropertyOp30
 70
     1
102
RTVSPropertyOp31
 70
     1
102
RTVSPropertyOp32
 70
     1
102
RTVSPropertyOp33
 70
     1
102
RTVSPropertyOp34
 70
     1
102
RTVSPropertyOp35
 70
     1
102
RTVSPropertyOp36
 70
     1
102
RTVSPropertyOp37
 70
     1
102
RTVSPropertyOp38
 70
     1
102
RTVSPropertyOp39
 70
     1
102
RTVSPropertyOp40
 70
     1
102
RTVSPropertyOp41
 70
     1
102
RTVSPropertyOp42
 70
     1
102
RTVSPropertyOp43
 70
     1
102
RTVSPropertyOp44
 70
     1
102
RTVSPropertyOp45
 70
     1
102
RTVSPropertyOp46
 70
     1
102
RTVSPropertyOp47
 70
     1
102
RTVSPropertyOp48
 70
     1
102
RTVSPropertyOp49
 70
     1
102
RTVSPropertyOp50
 70
     1
102
RTVSPropertyOp51
 70
     0
102
RTVSPropertyOp52
 70
     0
102
RTVSPropertyOp53
 70
     1
102
RTVSPropertyOp54
 70
     1
102
RTVSPropertyOp55
 70
     1
102
RTVSPropertyOp56
 70
     1
102
RTVSPropertyOp57
 70
     1
102
RTVSPropertyOp58
 70
     1
102
RTVSPropertyOp59
 70
     1
102
RTVSPropertyOp60
 70
     1
102
RTVSPropertyOp61
 70
     1
102
RTVSPropertyOp62
 70
     1
  0
XRECORD
  5
61A
102
{ACAD_REACTORS
330
619
102
}
330
619
100
AcDbXrecord
280
     1
102
RTVSPost2010Prop28
280
     0
102
RTVSPost2010PropOp28
 70
     1
102
RTVSPost2010Prop29
280
     1
102
RTVSPost2010PropOp29
 70
     1
102
RTVSPost2010Prop30
280
     1
102
RTVSPost2010PropOp30
 70
     1
102
RTVSPost2010Prop31
280
     0
102
RTVSPost2010PropOp31
 70
     1
102
RTVSPost2010Prop32
280
     0
102
RTVSPost2010PropOp32
 70
     1
102
RTVSPost2010Prop33
280
     0
102
RTVSPost2010PropOp33
 70
     1
102
RTVSPost2010Prop34
280
     0
102
RTVSPost2010PropOp34
 70
     1
102
RTVSPost2010Prop35
280
     0
102
RTVSPost2010PropOp35
 70
     1
102
RTVSPost2010Prop36
280
     0
102
RTVSPost2010PropOp36
 70
     1
102
RTVSPost2010Prop37
 90
       50
102
RTVSPost2010PropOp37
 70
     1
102
RTVSPost2010Prop38
140
0.0
102
RTVSPost2010PropOp38
 70
     1
102
RTVSPost2010Prop39
140
1.0
102
RTVSPost2010PropOp39
 70
     1
102
RTVSPost2010Prop40
 90
        0
102
RTVSPost2010PropOp40
 70
     1
102
RTVSPost2010Prop41ColorIndex
 90
       18
102
RTVSPost2010Prop41ColorRGB
 90
        0
102
RTVSPost2010PropOp41
 70
     1
102
RTVSPost2010Prop42
 90
       50
102
RTVSPost2010PropOp42
 70
     1
102
RTVSPost2010Prop43
 90
        3
102
RTVSPost2010PropOp43
 70
     1
102
RTVSPost2010Prop44ColorIndex
 90
        5
102
RTVSPost2010Prop44ColorRGB
 90
      255
102
RTVSPost2010PropOp44
 70
     1
102
RTVSPost2010Prop45
280
     0
102
RTVSPost2010PropOp45
 70
     1
102
RTVSPost2010Prop46
 90
       50
102
RTVSPost2010PropOp46
 70
     1
102
RTVSPost2010Prop47
 90
       50
102
RTVSPost2010PropOp47
 70
     1
102
RTVSPost2010Prop48
 90
       50
102
RTVSPost2010PropOp48
 70
     1
102
RTVSPost2010Prop49
280
     0
102
RTVSPost2010PropOp49
 70
     1
102
RTVSPost2010Prop50
 90
       50
102
RTVSPost2010PropOp50
 70
     1
102
RTVSPost2010Prop51ColorIndex
 90
      256
102
RTVSPost2010Prop51ColorRGB
 90
-16777216
102
RTVSPost2010PropOp51
 70
     0
102
RTVSPost2010Prop52
140
1.0
102
RTVSPost2010PropOp52
 70
     0
102
RTVSPost2010Prop53
 90
        2
102
RTVSPost2010PropOp53
 70
     1
102
RTVSPost2010Prop54
  1
strokes_ogs.tif
102
RTVSPost2010PropOp54
 70
     1
102
RTVSPost2010Prop55
280
     0
102
RTVSPost2010PropOp55
 70
     1
102
RTVSPost2010Prop56
140
1.0
102
RTVSPost2010PropOp56
 70
     1
102
RTVSPost2010Prop57
140
1.0
102
RTVSPost2010PropOp57
 70
     1
102
RTVSPropertyOp0
 70
     1
102
RTVSPropertyOp1
 70
     1
102
RTVSPropertyOp2
 70
     1
102
RTVSPropertyOp3
 70
     1
102
RTVSPropertyOp4
 70
     1
102
RTVSPropertyOp5
 70
     1
102
RTVSPropertyOp6
 70
     1
102
RTVSPropertyOp7
 70
     1
102
RTVSPropertyOp8
 70
     1
102
RTVSPropertyOp9
 70
     1
102
RTVSPropertyOp10
 70
     1
102
RTVSPropertyOp11
 70
     1
102
RTVSPropertyOp12
 70
     1
102
RTVSPropertyOp13
 70
     1
102
RTVSPropertyOp14
 70
     1
102
RTVSPropertyOp15
 70
     1
102
RTVSPropertyOp16
 70
     1
102
RTVSPropertyOp17
 70
     1
102
RTVSPropertyOp18
 70
     1
102
RTVSPropertyOp19
 70
     1
102
RTVSPropertyOp20
 70
     1
102
RTVSPropertyOp21
 70
     1
102
RTVSPropertyOp22
 70
     1
102
RTVSPropertyOp23
 70
     1
102
RTVSPropertyOp24
 70
     1
102
RTVSPropertyOp25
 70
     1
102
RTVSPropertyOp26
 70
     1
102
RTVSPropertyOp27
 70
     1
102
RTVSPropertyOp28
 70
     1
102
RTVSPropertyOp29
 70
     1
102
RTVSPropertyOp30
 70
     1
102
RTVSPropertyOp31
 70
     1
102
RTVSPropertyOp32
 70
     1
102
RTVSPropertyOp33
 70
     1
102
RTVSPropertyOp34
 70
     1
102
RTVSPropertyOp35
 70
     1
102
RTVSPropertyOp36
 70
     1
102
RTVSPropertyOp37
 70
     1
102
RTVSPropertyOp38
 70
     1
102
RTVSPropertyOp39
 70
     1
102
RTVSPropertyOp40
 70
     1
102
RTVSPropertyOp41
 70
     1
102
RTVSPropertyOp42
 70
     1
102
RTVSPropertyOp43
 70
     1
102
RTVSPropertyOp44
 70
     1
102
RTVSPropertyOp45
 70
     1
102
RTVSPropertyOp46
 70
     1
102
RTVSPropertyOp47
 70
     1
102
RTVSPropertyOp48
 70
     1
102
RTVSPropertyOp49
 70
     1
102
RTVSPropertyOp50
 70
     1
102
RTVSPropertyOp51
 70
     0
102
RTVSPropertyOp52
 70
     0
102
RTVSPropertyOp53
 70
     1
102
RTVSPropertyOp54
 70
     1
102
RTVSPropertyOp55
 70
     1
102
RTVSPropertyOp56
 70
     1
102
RTVSPropertyOp57
 70
     1
102
RTVSPropertyOp58
 70
     1
102
RTVSPropertyOp59
 70
     1
102
RTVSPropertyOp60
 70
     1
102
RTVSPropertyOp61
 70
     1
102
RTVSPropertyOp62
 70
     1
  0
XRECORD
  5
63A
102
{ACAD_REACTORS
330
639
102
}
330
639
100
AcDbXrecord
280
     1
102
RTVSPost2010Prop28
280
     0
102
RTVSPost2010PropOp28
 70
     1
102
RTVSPost2010Prop29
280
     1
102
RTVSPost2010PropOp29
 70
     1
102
RTVSPost2010Prop30
280
     1
102
RTVSPost2010PropOp30
 70
     1
102
RTVSPost2010Prop31
280
     0
102
RTVSPost2010PropOp31
 70
     1
102
RTVSPost2010Prop32
280
     0
102
RTVSPost2010PropOp32
 70
     1
102
RTVSPost2010Prop33
280
     0
102
RTVSPost2010PropOp33
 70
     1
102
RTVSPost2010Prop34
280
     0
102
RTVSPost2010PropOp34
 70
     1
102
RTVSPost2010Prop35
280
     0
102
RTVSPost2010PropOp35
 70
     1
102
RTVSPost2010Prop36
280
     0
102
RTVSPost2010PropOp36
 70
     1
102
RTVSPost2010Prop37
 90
       50
102
RTVSPost2010PropOp37
 70
     1
102
RTVSPost2010Prop38
140
0.0
102
RTVSPost2010PropOp38
 70
     1
102
RTVSPost2010Prop39
140
1.0
102
RTVSPost2010PropOp39
 70
     1
102
RTVSPost2010Prop40
 90
        0
102
RTVSPost2010PropOp40
 70
     1
102
RTVSPost2010Prop41ColorIndex
 90
       18
102
RTVSPost2010Prop41ColorRGB
 90
        0
102
RTVSPost2010PropOp41
 70
     1
102
RTVSPost2010Prop42
 90
       50
102
RTVSPost2010PropOp42
 70
     1
102
RTVSPost2010Prop43
 90
        3
102
RTVSPost2010PropOp43
 70
     1
102
RTVSPost2010Prop44ColorIndex
 90
        5
102
RTVSPost2010Prop44ColorRGB
 90
      255
102
RTVSPost2010PropOp44
 70
     1
102
RTVSPost2010Prop45
280
     0
102
RTVSPost2010PropOp45
 70
     1
102
RTVSPost2010Prop46
 90
       50
102
RTVSPost2010PropOp46
 70
     1
102
RTVSPost2010Prop47
 90
       50
102
RTVSPost2010PropOp47
 70
     1
102
RTVSPost2010Prop48
 90
       50
102
RTVSPost2010PropOp48
 70
     1
102
RTVSPost2010Prop49
280
     0
102
RTVSPost2010PropOp49
 70
     1
102
RTVSPost2010Prop50
 90
       50
102
RTVSPost2010PropOp50
 70
     1
102
RTVSPost2010Prop51ColorIndex
 90
      256
102
RTVSPost2010Prop51ColorRGB
 90
-16777216
102
RTVSPost2010PropOp51
 70
     0
102
RTVSPost2010Prop52
140
1.0
102
RTVSPost2010PropOp52
 70
     0
102
RTVSPost2010Prop53
 90
        2
102
RTVSPost2010PropOp53
 70
     1
102
RTVSPost2010Prop54
  1
strokes_ogs.tif
102
RTVSPost2010PropOp54
 70
     1
102
RTVSPost2010Prop55
280
     0
102
RTVSPost2010PropOp55
 70
     1
102
RTVSPost2010Prop56
140
1.0
102
RTVSPost2010PropOp56
 70
     1
102
RTVSPost2010Prop57
140
1.0
102
RTVSPost2010PropOp57
 70
     1
102
RTVSPropertyOp0
 70
     1
102
RTVSPropertyOp1
 70
     1
102
RTVSPropertyOp2
 70
     1
102
RTVSPropertyOp3
 70
     1
102
RTVSPropertyOp4
 70
     1
102
RTVSPropertyOp5
 70
     1
102
RTVSPropertyOp6
 70
     1
102
RTVSPropertyOp7
 70
     1
102
RTVSPropertyOp8
 70
     1
102
RTVSPropertyOp9
 70
     1
102
RTVSPropertyOp10
 70
     1
102
RTVSPropertyOp11
 70
     1
102
RTVSPropertyOp12
 70
     1
102
RTVSPropertyOp13
 70
     1
102
RTVSPropertyOp14
 70
     1
102
RTVSPropertyOp15
 70
     1
102
RTVSPropertyOp16
 70
     1
102
RTVSPropertyOp17
 70
     1
102
RTVSPropertyOp18
 70
     1
102
RTVSPropertyOp19
 70
     1
102
RTVSPropertyOp20
 70
     1
102
RTVSPropertyOp21
 70
     1
102
RTVSPropertyOp22
 70
     1
102
RTVSPropertyOp23
 70
     1
102
RTVSPropertyOp24
 70
     1
102
RTVSPropertyOp25
 70
     1
102
RTVSPropertyOp26
 70
     1
102
RTVSPropertyOp27
 70
     1
102
RTVSPropertyOp28
 70
     1
102
RTVSPropertyOp29
 70
     1
102
RTVSPropertyOp30
 70
     1
102
RTVSPropertyOp31
 70
     1
102
RTVSPropertyOp32
 70
     1
102
RTVSPropertyOp33
 70
     1
102
RTVSPropertyOp34
 70
     1
102
RTVSPropertyOp35
 70
     1
102
RTVSPropertyOp36
 70
     1
102
RTVSPropertyOp37
 70
     1
102
RTVSPropertyOp38
 70
     1
102
RTVSPropertyOp39
 70
     1
102
RTVSPropertyOp40
 70
     1
102
RTVSPropertyOp41
 70
     1
102
RTVSPropertyOp42
 70
     1
102
RTVSPropertyOp43
 70
     1
102
RTVSPropertyOp44
 70
     1
102
RTVSPropertyOp45
 70
     1
102
RTVSPropertyOp46
 70
     1
102
RTVSPropertyOp47
 70
     1
102
RTVSPropertyOp48
 70
     1
102
RTVSPropertyOp49
 70
     1
102
RTVSPropertyOp50
 70
     1
102
RTVSPropertyOp51
 70
     0
102
RTVSPropertyOp52
 70
     0
102
RTVSPropertyOp53
 70
     1
102
RTVSPropertyOp54
 70
     1
102
RTVSPropertyOp55
 70
     1
102
RTVSPropertyOp56
 70
     1
102
RTVSPropertyOp57
 70
     1
102
RTVSPropertyOp58
 70
     1
102
RTVSPropertyOp59
 70
     1
102
RTVSPropertyOp60
 70
     1
102
RTVSPropertyOp61
 70
     1
102
RTVSPropertyOp62
 70
     1
  0
ENDSEC
  0
EOF
