  0
SECTION
  2
HEADER
  9
$ACADVER
  1
AC1024
  9
$ACADMAINTVER
 70
   205
  9
$DWGCODEPAGE
  3
ANSI_932
  9
$COMMENTS
  1
File was created by TR2_DExp
  9
$LASTSAVEDBY
  1
y.minamitani
  9
$INSBASE
 10
0.0
 20
0.0
 30
0.0
  9
$EXTMIN
 10
36.67402710083536
 20
42.68375829555089
 30
0.0
  9
$EXTMAX
 10
3616.157162120768
 20
1717.964146173988
 30
0.0
  9
$LIMMIN
 10
-577.3498840332128
 20
-951.9838867187596
  9
$LIMMAX
 10
1241.451984405507
 20
803.535865783701
  9
$ORTHOMODE
 70
     0
  9
$REGENMODE
 70
     1
  9
$FILLMODE
 70
     1
  9
$QTEXTMODE
 70
     0
  9
$MIRRTEXT
 70
     1
  9
$LTSCALE
 40
0.3831076554426058
  9
$ATTMODE
 70
     1
  9
$TEXTSIZE
 40
2.5
  9
$TRACEWID
 40
1.0
  9
$TEXTSTYLE
  7
Standard
  9
$CLAYER
  8
中心線
  9
$CELTYPE
  6
ByLayer
  9
$CECOLOR
 62
   256
  9
$CELTSCALE
 40
1.0
  9
$DISPSILH
 70
     0
  9
$DIMSCALE
 40
1.0
  9
$DIMASZ
 40
2.5
  9
$DIMEXO
 40
0.625
  9
$DIMDLI
 40
3.75
  9
$DIMRND
 40
0.0
  9
$DIMDLE
 40
0.0
  9
$DIMEXE
 40
1.25
  9
$DIMTP
 40
0.0
  9
$DIMTM
 40
0.0
  9
$DIMTXT
 40
2.5
  9
$DIMCEN
 40
2.5
  9
$DIMTSZ
 40
0.0
  9
$DIMTOL
 70
     0
  9
$DIMLIM
 70
     0
  9
$DIMTIH
 70
     0
  9
$DIMTOH
 70
     0
  9
$DIMSE1
 70
     0
  9
$DIMSE2
 70
     0
  9
$DIMTAD
 70
     1
  9
$DIMZIN
 70
     0
  9
$DIMBLK
  1

  9
$DIMASO
 70
     1
  9
$DIMSHO
 70
     1
  9
$DIMPOST
  1

  9
$DIMAPOST
  1

  9
$DIMALT
 70
     0
  9
$DIMALTD
 70
     3
  9
$DIMALTF
 40
0.03937007874016
  9
$DIMLFAC
 40
1.0
  9
$DIMTOFL
 70
     1
  9
$DIMTVP
 40
0.0
  9
$DIMTIX
 70
     0
  9
$DIMSOXD
 70
     0
  9
$DIMSAH
 70
     0
  9
$DIMBLK1
  1

  9
$DIMBLK2
  1

  9
$DIMSTYLE
  2
Standard
  9
$DIMCLRD
 70
     0
  9
$DIMCLRE
 70
     0
  9
$DIMCLRT
 70
     0
  9
$DIMTFAC
 40
0.75
  9
$DIMGAP
 40
0.625
  9
$DIMJUST
 70
     0
  9
$DIMSD1
 70
     0
  9
$DIMSD2
 70
     0
  9
$DIMTOLJ
 70
     0
  9
$DIMTZIN
 70
     8
  9
$DIMALTZ
 70
     0
  9
$DIMALTTZ
 70
     0
  9
$DIMUPT
 70
     0
  9
$DIMDEC
 70
     2
  9
$DIMTDEC
 70
     2
  9
$DIMALTU
 70
     2
  9
$DIMALTTD
 70
     3
  9
$DIMTXSTY
  7
Standard
  9
$DIMAUNIT
 70
     0
  9
$DIMADEC
 70
     0
  9
$DIMALTRND
 40
0.0
  9
$DIMAZIN
 70
     0
  9
$DIMDSEP
 70
    46
  9
$DIMATFIT
 70
     3
  9
$DIMFRAC
 70
     0
  9
$DIMLDRBLK
  1

  9
$DIMLUNIT
 70
     2
  9
$DIMLWD
 70
    -2
  9
$DIMLWE
 70
    -2
  9
$DIMTMOVE
 70
     0
  9
$DIMFXL
 40
1.0
  9
$DIMFXLON
 70
     0
  9
$DIMJOGANG
 40
0.7853981633974483
  9
$DIMTFILL
 70
     0
  9
$DIMTFILLCLR
 70
     0
  9
$DIMARCSYM
 70
     0
  9
$DIMLTYPE
  6

  9
$DIMLTEX1
  6

  9
$DIMLTEX2
  6

  9
$DIMTXTDIRECTION
 70
     0
  9
$LUNITS
 70
     2
  9
$LUPREC
 70
     4
  9
$SKETCHINC
 40
1.0
  9
$FILLETRAD
 40
0.0
  9
$AUNITS
 70
     0
  9
$AUPREC
 70
     0
  9
$MENU
  1
.
  9
$ELEVATION
 40
0.0
  9
$PELEVATION
 40
0.0
  9
$THICKNESS
 40
0.0
  9
$LIMCHECK
 70
     0
  9
$CHAMFERA
 40
10.0
  9
$CHAMFERB
 40
10.0
  9
$CHAMFERC
 40
20.0
  9
$CHAMFERD
 40
0.0
  9
$SKPOLY
 70
     0
  9
$TDCREATE
 40
2455188.750000000
  9
$TDUCREATE
 40
2455188.375000000
  9
$TDUPDATE
 40
2459755.443193970
  9
$TDUUPDATE
 40
2459755.068193970
  9
$TDINDWG
 40
0.0228577315
  9
$TDUSRTIMER
 40
0.0228573958
  9
$USRTIMER
 70
     1
  9
$ANGBASE
 50
0.0
  9
$ANGDIR
 70
     0
  9
$PDMODE
 70
     0
  9
$PDSIZE
 40
0.0
  9
$PLINEWID
 40
0.0
  9
$SPLFRAME
 70
     0
  9
$SPLINETYPE
 70
     6
  9
$SPLINESEGS
 70
     8
  9
$HANDSEED
  5
121E
  9
$SURFTAB1
 70
     6
  9
$SURFTAB2
 70
     6
  9
$SURFTYPE
 70
     6
  9
$SURFU
 70
     6
  9
$SURFV
 70
     6
  9
$UCSBASE
  2

  9
$UCSNAME
  2

  9
$UCSORG
 10
0.0
 20
0.0
 30
0.0
  9
$UCSXDIR
 10
1.0
 20
0.0
 30
0.0
  9
$UCSYDIR
 10
0.0
 20
1.0
 30
0.0
  9
$UCSORTHOREF
  2

  9
$UCSORTHOVIEW
 70
     0
  9
$UCSORGTOP
 10
0.0
 20
0.0
 30
0.0
  9
$UCSORGBOTTOM
 10
0.0
 20
0.0
 30
0.0
  9
$UCSORGLEFT
 10
0.0
 20
0.0
 30
0.0
  9
$UCSORGRIGHT
 10
0.0
 20
0.0
 30
0.0
  9
$UCSORGFRONT
 10
0.0
 20
0.0
 30
0.0
  9
$UCSORGBACK
 10
0.0
 20
0.0
 30
0.0
  9
$PUCSBASE
  2

  9
$PUCSNAME
  2

  9
$PUCSORG
 10
0.0
 20
0.0
 30
0.0
  9
$PUCSXDIR
 10
1.0
 20
0.0
 30
0.0
  9
$PUCSYDIR
 10
0.0
 20
1.0
 30
0.0
  9
$PUCSORTHOREF
  2

  9
$PUCSORTHOVIEW
 70
     0
  9
$PUCSORGTOP
 10
0.0
 20
0.0
 30
0.0
  9
$PUCSORGBOTTOM
 10
0.0
 20
0.0
 30
0.0
  9
$PUCSORGLEFT
 10
0.0
 20
0.0
 30
0.0
  9
$PUCSORGRIGHT
 10
0.0
 20
0.0
 30
0.0
  9
$PUCSORGFRONT
 10
0.0
 20
0.0
 30
0.0
  9
$PUCSORGBACK
 10
0.0
 20
0.0
 30
0.0
  9
$USERI1
 70
     0
  9
$USERI2
 70
     0
  9
$USERI3
 70
     0
  9
$USERI4
 70
     0
  9
$USERI5
 70
     0
  9
$USERR1
 40
0.0
  9
$USERR2
 40
0.0
  9
$USERR3
 40
0.0
  9
$USERR4
 40
0.0
  9
$USERR5
 40
0.0
  9
$WORLDVIEW
 70
     1
  9
$SHADEDGE
 70
     3
  9
$SHADEDIF
 70
    70
  9
$TILEMODE
 70
     1
  9
$MAXACTVP
 70
    64
  9
$PINSBASE
 10
0.0
 20
0.0
 30
0.0
  9
$PLIMCHECK
 70
     0
  9
$PEXTMIN
 10
1.000000000000000E+20
 20
1.000000000000000E+20
 30
1.000000000000000E+20
  9
$PEXTMAX
 10
-1.000000000000000E+20
 20
-1.000000000000000E+20
 30
-1.000000000000000E+20
  9
$PLIMMIN
 10
0.0
 20
0.0
  9
$PLIMMAX
 10
420.0
 20
297.0
  9
$UNITMODE
 70
     0
  9
$VISRETAIN
 70
     1
  9
$PLINEGEN
 70
     0
  9
$PSLTSCALE
 70
     1
  9
$TREEDEPTH
 70
  3020
  9
$CMLSTYLE
  2
Standard
  9
$CMLJUST
 70
     0
  9
$CMLSCALE
 40
20.0
  9
$PROXYGRAPHICS
 70
     1
  9
$MEASUREMENT
 70
     1
  9
$CELWEIGHT
370
    -1
  9
$ENDCAPS
280
     0
  9
$JOINSTYLE
280
     0
  9
$LWDISPLAY
290
     0
  9
$INSUNITS
 70
     4
  9
$HYPERLINKBASE
  1

  9
$STYLESHEET
  1

  9
$XEDIT
290
     1
  9
$CEPSNTYPE
380
     0
  9
$PSTYLEMODE
290
     1
  9
$FINGERPRINTGUID
  2
{8E2E0281-7951-4272-8FB3-C077550E28AF}
  9
$VERSIONGUID
  2
{229A695E-9509-4373-81A0-04350823E745}
  9
$EXTNAMES
290
     1
  9
$PSVPSCALE
 40
0.0
  9
$OLESTARTUP
290
     0
  9
$SORTENTS
280
   127
  9
$INDEXCTL
280
     0
  9
$HIDETEXT
280
     1
  9
$XCLIPFRAME
280
     2
  9
$HALOGAP
280
     0
  9
$OBSCOLOR
 70
   257
  9
$OBSLTYPE
280
     0
  9
$INTERSECTIONDISPLAY
280
     0
  9
$INTERSECTIONCOLOR
 70
   257
  9
$DIMASSOC
280
     2
  9
$PROJECTNAME
  1

  9
$CAMERADISPLAY
290
     0
  9
$LENSLENGTH
 40
50.0
  9
$CAMERAHEIGHT
 40
0.0
  9
$STEPSPERSEC
 40
2.0
  9
$STEPSIZE
 40
6.0
  9
$3DDWFPREC
 40
2.0
  9
$PSOLWIDTH
 40
5.0
  9
$PSOLHEIGHT
 40
80.0
  9
$LOFTANG1
 40
1.570795999999999
  9
$LOFTANG2
 40
1.570795999999999
  9
$LOFTMAG1
 40
0.0
  9
$LOFTMAG2
 40
0.0
  9
$LOFTPARAM
 70
     7
  9
$LOFTNORMALS
280
     1
  9
$LATITUDE
 40
37.795
  9
$LONGITUDE
 40
-122.394
  9
$NORTHDIRECTION
 40
0.0
  9
$TIMEZONE
 70
 -8000
  9
$LIGHTGLYPHDISPLAY
280
     1
  9
$TILEMODELIGHTSYNCH
280
     1
  9
$CMATERIAL
347
44
  9
$SOLIDHIST
280
     0
  9
$SHOWHIST
280
     1
  9
$DWFFRAME
280
     2
  9
$DGNFRAME
280
     0
  9
$REALWORLDSCALE
290
     1
  9
$INTERFERECOLOR
 62
     1
  9
$INTERFEREOBJVS
345
33
  9
$INTERFEREVPVS
346
30
  9
$CSHADOW
280
     0
  9
$SHADOWPLANELOCATION
 40
0.0
  0
ENDSEC
  0
SECTION
  2
CLASSES
  0
CLASS
  1
ACDBDICTIONARYWDFLT
  2
AcDbDictionaryWithDefault
  3
ObjectDBX Classes
 90
        0
 91
        1
280
     0
281
     0
  0
CLASS
  1
VISUALSTYLE
  2
AcDbVisualStyle
  3
ObjectDBX Classes
 90
     4095
 91
       24
280
     0
281
     0
  0
CLASS
  1
MATERIAL
  2
AcDbMaterial
  3
ObjectDBX Classes
 90
     1153
 91
        3
280
     0
281
     0
  0
CLASS
  1
SCALE
  2
AcDbScale
  3
ObjectDBX Classes
 90
     1153
 91
       17
280
     0
281
     0
  0
CLASS
  1
TABLESTYLE
  2
AcDbTableStyle
  3
ObjectDBX Classes
 90
     4095
 91
        1
280
     0
281
     0
  0
CLASS
  1
MLEADERSTYLE
  2
AcDbMLeaderStyle
  3
ACDB_MLEADERSTYLE_CLASS
 90
     4095
 91
        1
280
     0
281
     0
  0
CLASS
  1
SUN
  2
AcDbSun
  3
SCENEOE
 90
     1153
 91
        0
280
     0
281
     0
  0
CLASS
  1
DICTIONARYVAR
  2
AcDbDictionaryVar
  3
ObjectDBX Classes
 90
        0
 91
       21
280
     0
281
     0
  0
CLASS
  1
ACDBSECTIONVIEWSTYLE
  2
AcDbSectionViewStyle
  3
ObjectDBX Classes
 90
     1025
 91
        1
280
     0
281
     0
  0
CLASS
  1
ACDBDETAILVIEWSTYLE
  2
AcDbDetailViewStyle
  3
ObjectDBX Classes
 90
     1025
 91
        1
280
     0
281
     0
  0
CLASS
  1
SORTENTSTABLE
  2
AcDbSortentsTable
  3
ObjectDBX Classes
 90
        0
 91
        2
280
     0
281
     0
  0
CLASS
  1
CELLSTYLEMAP
  2
AcDbCellStyleMap
  3
ObjectDBX Classes
 90
     1152
 91
        2
280
     0
281
     0
  0
ENDSEC
  0
SECTION
  2
TABLES
  0
TABLE
  2
VPORT
  5
8
330
0
100
AcDbSymbolTable
 70
     1
  0
VPORT
  5
29
330
8
100
AcDbSymbolTableRecord
100
AcDbViewportTableRecord
  2
*Active
 70
     0
 10
0.0
 20
0.0
 11
1.0
 21
1.0
 12
305.2834337198083
 22
707.1368728995722
 13
0.0
 23
0.0
 14
10.0
 24
10.0
 15
10.0
 25
10.0
 16
0.0
 26
0.0
 36
1.0
 17
0.0
 27
0.0
 37
0.0
 40
2075.540819699394
 41
1.941176470588235
 42
50.0
 43
0.0
 44
0.0
 50
0.0
 51
0.0
 71
     0
 72
 20000
 73
     1
 74
     3
 75
     0
 76
     0
 77
     0
 78
     0
281
     0
 65
     1
110
0.0
120
0.0
130
0.0
111
1.0
121
0.0
131
0.0
112
0.0
122
1.0
132
0.0
 79
     0
146
0.0
348
2F
 60
     3
 61
     5
292
     1
282
     1
141
0.0
142
0.0
 63
   250
421
  3355443
1001
ACAD_NAV_VCDISPLAY
1070
     3
  0
ENDTAB
  0
TABLE
  2
LTYPE
  5
5
330
0
100
AcDbSymbolTable
 70
     4
  0
LTYPE
  5
14
330
5
100
AcDbSymbolTableRecord
100
AcDbLinetypeTableRecord
  2
ByBlock
 70
     0
  3

 72
    65
 73
     0
 40
0.0
  0
LTYPE
  5
15
330
5
100
AcDbSymbolTableRecord
100
AcDbLinetypeTableRecord
  2
ByLayer
 70
     0
  3

 72
    65
 73
     0
 40
0.0
  0
LTYPE
  5
16
330
5
100
AcDbSymbolTableRecord
100
AcDbLinetypeTableRecord
  2
Continuous
 70
     0
  3
Solid line
 72
    65
 73
     0
 40
0.0
  0
LTYPE
  5
470
330
5
100
AcDbSymbolTableRecord
100
AcDbLinetypeTableRecord
  2
CENTER2
 70
     0
  3
Center (.5x) ___ _ ___ _ ___ _ ___ _ ___ _ ___
 72
    65
 73
     4
 40
28.575
 49
19.05
 74
     0
 49
-3.174999999999998
 74
     0
 49
3.174999999999998
 74
     0
 49
-3.174999999999998
 74
     0
  0
ENDTAB
  0
TABLE
  2
LAYER
  5
2
102
{ACAD_XDICTIONARY
360
476
102
}
330
0
100
AcDbSymbolTable
 70
     5
  0
LAYER
  5
10
102
{ACAD_XDICTIONARY
360
9D3
102
}
330
2
100
AcDbSymbolTableRecord
100
AcDbLayerTableRecord
  2
0
 70
     0
 62
     7
  6
Continuous
370
    -3
390
F
347
46
  0
LAYER
  5
66
330
2
100
AcDbSymbolTableRecord
100
AcDbLayerTableRecord
  2
Defpoints
 70
     0
 62
     7
  6
Continuous
290
     0
370
    -3
390
F
347
46
  0
LAYER
  5
471
102
{ACAD_XDICTIONARY
360
472
102
}
330
2
100
AcDbSymbolTableRecord
100
AcDbLayerTableRecord
  2
中心線
 70
     0
 62
     3
  6
CENTER2
370
    -3
390
F
347
46
  0
LAYER
  5
473
102
{ACAD_XDICTIONARY
360
474
102
}
330
2
100
AcDbSymbolTableRecord
100
AcDbLayerTableRecord
  2
実線
 70
     0
 62
     7
  6
Continuous
370
    -3
390
F
347
46
  0
ENDTAB
  0
TABLE
  2
STYLE
  5
3
330
0
100
AcDbSymbolTable
 70
     1
  0
STYLE
  5
11
330
3
100
AcDbSymbolTableRecord
100
AcDbTextStyleTableRecord
  2
Standard
 70
     0
 40
0.0
 41
1.0
 50
0.0
 71
     0
 42
2.5
  3
txt
  4
extfont2
  0
ENDTAB
  0
TABLE
  2
VIEW
  5
6
330
0
100
AcDbSymbolTable
 70
     0
  0
ENDTAB
  0
TABLE
  2
UCS
  5
7
330
0
100
AcDbSymbolTable
 70
     0
  0
ENDTAB
  0
TABLE
  2
APPID
  5
9
330
0
100
AcDbSymbolTable
 70
     3
  0
APPID
  5
12
330
9
100
AcDbSymbolTableRecord
100
AcDbRegAppTableRecord
  2
ACAD
 70
     0
  0
APPID
  5
460
330
9
100
AcDbSymbolTableRecord
100
AcDbRegAppTableRecord
  2
ACAD_MLEADERVER
 70
     0
  0
APPID
  5
475
330
9
100
AcDbSymbolTableRecord
100
AcDbRegAppTableRecord
  2
ACAD_NAV_VCDISPLAY
 70
     0
  0
ENDTAB
  0
TABLE
  2
DIMSTYLE
  5
A
330
0
100
AcDbSymbolTable
 70
     1
100
AcDbDimStyleTable
 71
     0
  0
DIMSTYLE
105
27
330
A
100
AcDbSymbolTableRecord
100
AcDbDimStyleTableRecord
  2
Standard
 70
     0
 41
2.5
 42
0.625
 43
3.75
 44
1.25
 73
     0
 74
     0
 77
     1
140
2.5
141
2.5
143
0.03937007874016
146
0.75
147
0.625
171
     3
172
     1
271
     2
272
     2
274
     3
283
     0
284
     8
340
11
  0
ENDTAB
  0
TABLE
  2
BLOCK_RECORD
  5
1
330
0
100
AcDbSymbolTable
 70
     2
  0
BLOCK_RECORD
  5
1F
102
{ACAD_XDICTIONARY
360
682
102
}
330
1
100
AcDbSymbolTableRecord
100
AcDbBlockTableRecord
  2
*Model_Space
340
22
 70
     0
280
     1
281
     0
  0
BLOCK_RECORD
  5
1B
330
1
100
AcDbSymbolTableRecord
100
AcDbBlockTableRecord
  2
*Paper_Space
340
1E
 70
     0
280
     1
281
     0
  0
BLOCK_RECORD
  5
23
330
1
100
AcDbSymbolTableRecord
100
AcDbBlockTableRecord
  2
*Paper_Space0
340
46A
 70
     0
280
     1
281
     0
  0
ENDTAB
  0
ENDSEC
  0
SECTION
  2
BLOCKS
  0
BLOCK
  5
20
330
1F
100
AcDbEntity
  8
0
100
AcDbBlockBegin
  2
*Model_Space
 70
     0
 10
0.0
 20
0.0
 30
0.0
  3
*Model_Space
  1

  0
ENDBLK
  5
21
330
1F
100
AcDbEntity
  8
0
100
AcDbBlockEnd
  0
BLOCK
  5
1C
330
1B
100
AcDbEntity
 67
     1
  8
0
100
AcDbBlockBegin
  2
*Paper_Space
 70
     0
 10
0.0
 20
0.0
 30
0.0
  3
*Paper_Space
  1

  0
ENDBLK
  5
1D
330
1B
100
AcDbEntity
 67
     1
  8
0
100
AcDbBlockEnd
  0
BLOCK
  5
24
330
23
100
AcDbEntity
 67
     1
  8
0
100
AcDbBlockBegin
  2
*Paper_Space0
 70
     0
 10
0.0
 20
0.0
 30
0.0
  3
*Paper_Space0
  1

  0
ENDBLK
  5
25
330
23
100
AcDbEntity
 67
     1
  8
0
100
AcDbBlockEnd
  0
ENDSEC
  0
SECTION
  2
ENTITIES
  0
LINE
  5
9AF
102
{ACAD_REACTORS
330
11E7
102
}
330
1F
100
AcDbEntity
  8
中心線
100
AcDbLine
 10
518.6740271008353
 20
133.4452635904982
 30
0.0
 11
344.6740271008355
 21
133.4452635904982
 31
0.0
  0
LINE
  5
9B0
102
{ACAD_REACTORS
330
11E7
102
}
330
1F
100
AcDbEntity
  8
中心線
100
AcDbLine
 10
431.6740271008353
 20
220.4452635904946
 30
0.0
 11
431.6740271008353
 21
46.44526359049461
 31
0.0
  0
LINE
  5
9B1
102
{ACAD_REACTORS
330
11E6
102
}
330
1F
100
AcDbEntity
  8
中心線
100
AcDbLine
 10
518.6740271008391
 20
1333.445263590494
 30
0.0
 11
344.6740271008392
 21
1333.445263590494
 31
0.0
  0
LINE
  5
9B2
102
{ACAD_REACTORS
330
11E6
102
}
330
1F
100
AcDbEntity
  8
中心線
100
AcDbLine
 10
431.6740271008353
 20
1420.445263590494
 30
0.0
 11
431.6740271008353
 21
1246.445263590495
 31
0.0
  0
LINE
  5
9B3
102
{ACAD_REACTORS
330
11E2
102
}
330
1F
100
AcDbEntity
  8
中心線
100
AcDbLine
 10
1031.674027100835
 20
293.4452635904946
 30
0.0
 11
1031.674027100835
 21
1173.445263590494
 31
0.0
  0
LINE
  5
9B4
102
{ACAD_REACTORS
330
11E2
102
}
330
1F
100
AcDbEntity
  8
中心線
100
AcDbLine
 10
944.6740271008355
 20
692.9452635904948
 30
0.0
 11
1118.674027100835
 21
692.9452635904948
 31
0.0
  0
LINE
  5
9B5
102
{ACAD_REACTORS
330
11E2
102
}
330
1F
100
AcDbEntity
  8
中心線
100
AcDbLine
 10
936.6740271008456
 20
733.4452635904945
 30
0.0
 11
1126.674027100845
 21
733.4452635904945
 31
0.0
  0
LINE
  5
9B6
102
{ACAD_REACTORS
330
11E2
102
}
330
1F
100
AcDbEntity
  8
中心線
100
AcDbLine
 10
966.6740271008455
 20
773.945263590495
 30
0.0
 11
1096.674027100846
 21
773.945263590495
 31
0.0
  0
LINE
  5
9B7
102
{ACAD_REACTORS
330
11E3
102
}
330
1F
100
AcDbEntity
  8
中心線
100
AcDbLine
 10
731.6740271008248
 20
293.4452635904946
 30
0.0
 11
731.6740271008248
 21
1173.445263590494
 31
0.0
  0
LINE
  5
9B8
102
{ACAD_REACTORS
330
11E3
102
}
330
1F
100
AcDbEntity
  8
中心線
100
AcDbLine
 10
666.6740271008252
 20
692.9452635904948
 30
0.0
 11
796.6740271008252
 21
692.9452635904948
 31
0.0
  0
LINE
  5
9B9
102
{ACAD_REACTORS
330
11E3
102
}
330
1F
100
AcDbEntity
  8
中心線
100
AcDbLine
 10
636.6740271008352
 20
733.4452635904945
 30
0.0
 11
826.6740271008352
 21
733.4452635904945
 31
0.0
  0
LINE
  5
9BA
102
{ACAD_REACTORS
330
11E3
102
}
330
1F
100
AcDbEntity
  8
中心線
100
AcDbLine
 10
644.6740271008247
 20
773.945263590495
 30
0.0
 11
818.6740271008247
 21
773.945263590495
 31
0.0
  0
LINE
  5
9BB
102
{ACAD_REACTORS
330
11E4
102
}
330
1F
100
AcDbEntity
  8
中心線
100
AcDbLine
 10
431.6740271008354
 20
293.4452635904946
 30
0.0
 11
431.6740271008353
 21
1173.445263590494
 31
0.0
  0
LINE
  5
9BC
102
{ACAD_REACTORS
330
11E4
102
}
330
1F
100
AcDbEntity
  8
中心線
100
AcDbLine
 10
344.6740271008355
 20
692.9452635904948
 30
0.0
 11
518.6740271008353
 21
692.9452635904948
 31
0.0
  0
LINE
  5
9BD
102
{ACAD_REACTORS
330
11E4
102
}
330
1F
100
AcDbEntity
  8
中心線
100
AcDbLine
 10
336.6740271008453
 20
733.4452635904945
 30
0.0
 11
526.6740271008451
 21
733.4452635904945
 31
0.0
  0
LINE
  5
9BE
102
{ACAD_REACTORS
330
11E4
102
}
330
1F
100
AcDbEntity
  8
中心線
100
AcDbLine
 10
366.6740271008355
 20
773.945263590495
 30
0.0
 11
496.6740271008355
 21
773.945263590495
 31
0.0
  0
LINE
  5
9BF
102
{ACAD_REACTORS
330
11E5
102
}
330
1F
100
AcDbEntity
  8
中心線
100
AcDbLine
 10
131.6740271008251
 20
293.4452635904945
 30
0.0
 11
131.6740271008251
 21
1173.445263590494
 31
0.0
  0
LINE
  5
9C0
102
{ACAD_REACTORS
330
11E5
102
}
330
1F
100
AcDbEntity
  8
中心線
100
AcDbLine
 10
66.67402710083528
 20
692.9452635904948
 30
0.0
 11
196.6740271008353
 21
692.9452635904948
 31
0.0
  0
LINE
  5
9C1
102
{ACAD_REACTORS
330
11E5
102
}
330
1F
100
AcDbEntity
  8
中心線
100
AcDbLine
 10
36.67402710083536
 20
733.4452635904945
 30
0.0
 11
226.6740271008353
 21
733.4452635904945
 31
0.0
  0
LINE
  5
9C2
102
{ACAD_REACTORS
330
11E5
102
}
330
1F
100
AcDbEntity
  8
中心線
100
AcDbLine
 10
44.67402710083529
 20
773.945263590495
 30
0.0
 11
218.6740271008352
 21
773.945263590495
 31
0.0
  0
LINE
  5
A54
102
{ACAD_REACTORS
330
11E6
102
}
330
1F
100
AcDbEntity
  8
中心線
100
AcDbLine
 10
431.674027100836
 20
1333.445263590492
 30
0.0
 11
370.1557371376094
 21
1271.926973627265
 31
0.0
  0
LINE
  5
A57
102
{ACAD_REACTORS
330
11E7
102
}
330
1F
100
AcDbEntity
  8
中心線
100
AcDbLine
 10
431.6740271008353
 20
133.4452635904947
 30
0.0
 11
370.1557371376059
 21
194.9635535537243
 31
0.0
  0
LINE
  5
E54
102
{ACAD_REACTORS
330
11E4
102
}
330
1F
100
AcDbEntity
  8
実線
100
AcDbLine
 10
445.6740271008247
 20
308.745263590495
 30
0.0
 11
417.6740271008247
 21
308.745263590495
 31
0.0
  0
LINE
  5
E55
102
{ACAD_REACTORS
330
11E4
102
}
330
1F
100
AcDbEntity
  8
実線
100
AcDbLine
 10
417.6740271008247
 20
318.745263590495
 30
0.0
 11
417.6740271008247
 21
308.745263590495
 31
0.0
  0
LINE
  5
E56
102
{ACAD_REACTORS
330
11E4
102
}
330
1F
100
AcDbEntity
  8
実線
100
AcDbLine
 10
445.6740271008252
 20
308.745263590495
 30
0.0
 11
445.6740271008252
 21
318.745263590495
 31
0.0
  0
LINE
  5
E57
102
{ACAD_REACTORS
330
11E4
102
}
330
1F
100
AcDbEntity
  8
実線
100
AcDbLine
 10
417.6740271008247
 20
318.745263590495
 30
0.0
 11
445.6740271008247
 21
318.745263590495
 31
0.0
  0
CIRCLE
  5
E58
102
{ACAD_REACTORS
330
11E4
102
}
330
1F
100
AcDbEntity
  8
実線
100
AcDbCircle
 10
450.224027100825
 20
311.945263590495
 30
0.0
 40
1.5
  0
CIRCLE
  5
E59
102
{ACAD_REACTORS
330
11E4
102
}
330
1F
100
AcDbEntity
  8
実線
100
AcDbCircle
 10
450.224027100825
 20
331.945263590495
 30
0.0
 40
1.5
  0
LINE
  5
E5A
102
{ACAD_REACTORS
330
11E4
102
}
330
1F
100
AcDbEntity
  8
実線
100
AcDbLine
 10
446.2740271008251
 20
327.995263590495
 30
0.0
 11
446.2740271008251
 21
335.895263590495
 31
0.0
  0
LINE
  5
E5B
102
{ACAD_REACTORS
330
11E4
102
}
330
1F
100
AcDbEntity
  8
実線
100
AcDbLine
 10
454.1740271008252
 20
327.995263590495
 30
0.0
 11
446.2740271008251
 21
327.995263590495
 31
0.0
  0
LINE
  5
E5C
102
{ACAD_REACTORS
330
11E4
102
}
330
1F
100
AcDbEntity
  8
実線
100
AcDbLine
 10
446.2740271008251
 20
335.895263590495
 30
0.0
 11
454.1740271008252
 21
335.895263590495
 31
0.0
  0
LINE
  5
E5D
102
{ACAD_REACTORS
330
11E4
102
}
330
1F
100
AcDbEntity
  8
実線
100
AcDbLine
 10
446.2740271008251
 20
315.895263590495
 30
0.0
 11
454.1740271008252
 21
315.895263590495
 31
0.0
  0
LINE
  5
E5E
102
{ACAD_REACTORS
330
11E4
102
}
330
1F
100
AcDbEntity
  8
実線
100
AcDbLine
 10
454.1740271008252
 20
307.995263590495
 30
0.0
 11
446.2740271008251
 21
307.995263590495
 31
0.0
  0
LINE
  5
E5F
102
{ACAD_REACTORS
330
11E4
102
}
330
1F
100
AcDbEntity
  8
実線
100
AcDbLine
 10
446.2740271008251
 20
307.995263590495
 30
0.0
 11
446.2740271008251
 21
315.8952635904951
 31
0.0
  0
LINE
  5
E60
102
{ACAD_REACTORS
330
11E4
102
}
330
1F
100
AcDbEntity
  8
実線
100
AcDbLine
 10
456.1740271008248
 20
1136.445263590495
 30
0.0
 11
456.1740271008248
 21
1133.445263590495
 31
0.0
  0
LINE
  5
E61
102
{ACAD_REACTORS
330
11E4
102
}
330
1F
100
AcDbEntity
  8
実線
100
AcDbLine
 10
451.6740271008248
 20
1133.445263590495
 30
0.0
 11
456.1740271008248
 21
1133.445263590495
 31
0.0
  0
LINE
  5
E62
102
{ACAD_REACTORS
330
11E4
102
}
330
1F
100
AcDbEntity
  8
実線
100
AcDbLine
 10
456.1740271008248
 20
1136.445263590495
 30
0.0
 11
451.6740271008248
 21
1136.445263590495
 31
0.0
  0
LINE
  5
E63
102
{ACAD_REACTORS
330
11E4
102
}
330
1F
100
AcDbEntity
  8
実線
100
AcDbLine
 10
456.1740271008248
 20
1156.445263590495
 30
0.0
 11
456.1740271008248
 21
1153.445263590495
 31
0.0
  0
LINE
  5
E64
102
{ACAD_REACTORS
330
11E4
102
}
330
1F
100
AcDbEntity
  8
実線
100
AcDbLine
 10
451.6740271008248
 20
1153.445263590495
 30
0.0
 11
456.1740271008248
 21
1153.445263590495
 31
0.0
  0
LINE
  5
E65
102
{ACAD_REACTORS
330
11E4
102
}
330
1F
100
AcDbEntity
  8
実線
100
AcDbLine
 10
456.1740271008248
 20
1156.445263590495
 30
0.0
 11
451.6740271008248
 21
1156.445263590495
 31
0.0
  0
LINE
  5
E66
102
{ACAD_REACTORS
330
11E4
102
}
330
1F
100
AcDbEntity
  8
実線
100
AcDbLine
 10
417.6740271008247
 20
1158.145263590495
 30
0.0
 11
417.6740271008247
 21
1148.145263590495
 31
0.0
  0
LINE
  5
E67
102
{ACAD_REACTORS
330
11E4
102
}
330
1F
100
AcDbEntity
  8
実線
100
AcDbLine
 10
424.6740271008247
 20
1158.145263590495
 30
0.0
 11
417.6740271008247
 21
1158.145263590495
 31
0.0
  0
LINE
  5
E68
102
{ACAD_REACTORS
330
11E4
102
}
330
1F
100
AcDbEntity
  8
実線
100
AcDbLine
 10
424.6740271008247
 20
1148.145263590495
 30
0.0
 11
417.6740271008247
 21
1148.145263590495
 31
0.0
  0
LINE
  5
E69
102
{ACAD_REACTORS
330
11E4
102
}
330
1F
100
AcDbEntity
  8
実線
100
AcDbLine
 10
420.6740271008247
 20
1148.145263590495
 30
0.0
 11
420.6740271008247
 21
1124.945263590495
 31
0.0
  0
LINE
  5
E6A
102
{ACAD_REACTORS
330
11E4
102
}
330
1F
100
AcDbEntity
  8
実線
100
AcDbLine
 10
507.33445268792
 20
726.4452635904947
 30
0.0
 11
489.1618084113656
 21
726.4452635904947
 31
0.0
  0
LINE
  5
E6B
102
{ACAD_REACTORS
330
11E4
102
}
330
1F
100
AcDbEntity
  8
実線
100
AcDbLine
 10
507.33445268792
 20
748.4452635904947
 30
0.0
 11
489.1618084113656
 21
748.4452635904947
 31
0.0
  0
LINE
  5
E6C
102
{ACAD_REACTORS
330
11E4
102
}
330
1F
100
AcDbEntity
  8
実線
100
AcDbLine
 10
507.33445268792
 20
748.4452635904947
 30
0.0
 11
507.33445268792
 21
726.4452635904947
 31
0.0
  0
LINE
  5
E6D
102
{ACAD_REACTORS
330
11E4
102
}
330
1F
100
AcDbEntity
  8
実線
100
AcDbLine
 10
506.4859245504963
 20
726.4452635904947
 30
0.0
 11
506.4859245504963
 21
748.4452635904947
 31
0.0
  0
LINE
  5
E6E
102
{ACAD_REACTORS
330
11E4
102
}
330
1F
100
AcDbEntity
  8
実線
100
AcDbLine
 10
489.1618084113656
 20
726.4452635904947
 30
0.0
 11
489.1618084113656
 21
748.4452635904947
 31
0.0
  0
LINE
  5
E6F
102
{ACAD_REACTORS
330
11E4
102
}
330
1F
100
AcDbEntity
  8
実線
100
AcDbLine
 10
509.8093264219309
 20
728.4452635904949
 30
0.0
 11
511.930646765491
 21
728.4452635904949
 31
0.0
  0
LINE
  5
E70
102
{ACAD_REACTORS
330
11E4
102
}
330
1F
100
AcDbEntity
  8
実線
100
AcDbLine
 10
511.930646765491
 20
738.4452635904949
 30
0.0
 11
509.8093264219309
 21
738.4452635904949
 31
0.0
  0
ELLIPSE
  5
E71
102
{ACAD_REACTORS
330
11E4
102
}
330
1F
100
AcDbEntity
  8
実線
100
AcDbEllipse
 10
511.930646765491
 20
733.4452635904949
 30
0.0
 11
0.0
 21
5.0
 31
0.0
210
0.0
220
0.0
230
1.0
 40
0.7071067811865475
 41
3.141592653589792
 42
6.283185307179585
  0
ELLIPSE
  5
E72
102
{ACAD_REACTORS
330
11E4
102
}
330
1F
100
AcDbEntity
  8
実線
100
AcDbEllipse
 10
511.930646765491
 20
733.4452635904949
 30
0.0
 11
0.0
 21
5.0
 31
0.0
210
0.0
220
0.0
230
1.0
 40
0.7071067811865475
 41
2.460039442056495
 42
3.141592653589792
  0
ELLIPSE
  5
E73
102
{ACAD_REACTORS
330
11E4
102
}
330
1F
100
AcDbEntity
  8
実線
100
AcDbEllipse
 10
509.8093264219309
 20
733.4452635904949
 30
0.0
 11
0.0
 21
5.0
 31
0.0
210
0.0
220
0.0
230
1.0
 40
0.7071067811865475
 41
3.111588151789471
 42
3.141592653589792
  0
ELLIPSE
  5
E74
102
{ACAD_REACTORS
330
11E4
102
}
330
1F
100
AcDbEntity
  8
実線
100
AcDbEllipse
 10
509.8093264219309
 20
733.4452635904949
 30
0.0
 11
0.0
 21
5.0
 31
0.0
210
0.0
220
0.0
230
1.0
 40
0.7071067811865475
 41
0.0
 42
0.0300045018003233
  0
ELLIPSE
  5
E75
102
{ACAD_REACTORS
330
11E4
102
}
330
1F
100
AcDbEntity
  8
実線
100
AcDbEllipse
 10
511.930646765491
 20
733.4452635904949
 30
0.0
 11
0.0
 21
5.0
 31
0.0
210
0.0
220
0.0
230
1.0
 40
0.7071067811865475
 41
0.0
 42
0.6815532115332981
  0
LINE
  5
E76
102
{ACAD_REACTORS
330
11E4
102
}
330
1F
100
AcDbEntity
  8
実線
100
AcDbLine
 10
370.8943379229963
 20
814.4452635904949
 30
0.0
 11
492.4537162786736
 21
814.4452635904949
 31
0.0
  0
LINE
  5
E77
102
{ACAD_REACTORS
330
11E4
102
}
330
1F
100
AcDbEntity
  8
実線
100
AcDbLine
 10
492.4537162786736
 20
799.4452635904949
 30
0.0
 11
492.4537162786736
 21
814.4452635904949
 31
0.0
  0
LINE
  5
E78
102
{ACAD_REACTORS
330
11E4
102
}
330
1F
100
AcDbEntity
  8
実線
100
AcDbLine
 10
492.4537162786736
 20
799.4452635904949
 30
0.0
 11
460.8512870818544
 21
799.4452635904949
 31
0.0
  0
LINE
  5
E79
102
{ACAD_REACTORS
330
11E4
102
}
330
1F
100
AcDbEntity
  8
実線
100
AcDbLine
 10
370.8943379229963
 20
799.4452635904949
 30
0.0
 11
402.4967671198155
 21
799.4452635904949
 31
0.0
  0
LINE
  5
E7A
102
{ACAD_REACTORS
330
11E4
102
}
330
1F
100
AcDbEntity
  8
実線
100
AcDbLine
 10
370.8943379229963
 20
814.4452635904949
 30
0.0
 11
370.8943379229963
 21
799.4452635904949
 31
0.0
  0
LINE
  5
E7B
102
{ACAD_REACTORS
330
11E4
102
}
330
1F
100
AcDbEntity
  8
実線
100
AcDbLine
 10
458.4839992507763
 20
801.9236104558725
 30
0.0
 11
458.4839992507763
 21
814.4452635904949
 31
0.0
  0
LINE
  5
E7C
102
{ACAD_REACTORS
330
11E4
102
}
330
1F
100
AcDbEntity
  8
実線
100
AcDbLine
 10
404.8640549508941
 20
801.9236104558725
 30
0.0
 11
404.8640549508941
 21
814.4452635904949
 31
0.0
  0
LINE
  5
E7D
102
{ACAD_REACTORS
330
11E4
102
}
330
1F
100
AcDbEntity
  8
実線
100
AcDbLine
 10
404.2806288186334
 20
723.445263590495
 30
0.0
 11
441.8161627245658
 21
723.445263590495
 31
0.0
  0
LINE
  5
E7E
102
{ACAD_REACTORS
330
11E4
102
}
330
1F
100
AcDbEntity
  8
実線
100
AcDbLine
 10
407.7718828455594
 20
743.4452635904949
 30
0.0
 11
404.2806288186334
 21
743.4452635904949
 31
0.0
  0
ELLIPSE
  5
E7F
102
{ACAD_REACTORS
330
11E4
102
}
330
1F
100
AcDbEntity
  8
実線
100
AcDbEllipse
 10
392.0760473543883
 20
733.4452635904949
 30
0.0
 11
0.0
 21
10.85000000000002
 31
0.0
210
0.0
220
0.0
230
1.0
 40
0.7071067811865476
 41
3.163667641207053
 42
6.261110319562203
  0
ELLIPSE
  5
E80
102
{ACAD_REACTORS
330
11E4
102
}
330
1F
100
AcDbEntity
  8
実線
100
AcDbEllipse
 10
381.4694456365901
 20
733.4452635904949
 30
0.0
 11
0.0
 21
17.0
 31
0.0
210
0.0
220
0.0
230
1.0
 40
0.7071067811865476
 41
0.0
 42
3.141592653589792
  0
LINE
  5
E81
102
{ACAD_REACTORS
330
11E4
102
}
330
1F
100
AcDbEntity
  8
実線
100
AcDbLine
 10
381.4694456365901
 20
716.4452635904949
 30
0.0
 11
382.9897252161413
 21
716.4452635904949
 31
0.0
  0
LINE
  5
E82
102
{ACAD_REACTORS
330
11E4
102
}
330
1F
100
AcDbEntity
  8
実線
100
AcDbLine
 10
382.9897252161413
 20
750.4452635904949
 30
0.0
 11
381.4694456365901
 21
750.4452635904949
 31
0.0
  0
ELLIPSE
  5
E83
102
{ACAD_REACTORS
330
11E4
102
}
330
1F
100
AcDbEntity
  8
実線
100
AcDbEllipse
 10
381.4694456365901
 20
733.4452635904949
 30
0.0
 11
0.0
 21
17.0
 31
0.0
210
0.0
220
0.0
230
1.0
 40
0.7071067811865476
 41
3.141592653589792
 42
6.283185307179585
  0
ELLIPSE
  5
E84
102
{ACAD_REACTORS
330
11E4
102
}
330
1F
100
AcDbEntity
  8
実線
100
AcDbEllipse
 10
382.9897252161413
 20
733.4452635904949
 30
0.0
 11
0.0
 21
17.0
 31
0.0
210
0.0
220
0.0
230
1.0
 40
0.7071067811865476
 41
3.141592653589792
 42
6.283185307179585
  0
LINE
  5
E85
102
{ACAD_REACTORS
330
11E4
102
}
330
1F
100
AcDbEntity
  8
実線
100
AcDbLine
 10
376.6740271008248
 20
632.4452635904949
 30
0.0
 11
376.6740271008248
 21
414.9452635904949
 31
0.0
  0
LINE
  5
E86
102
{ACAD_REACTORS
330
11E4
102
}
330
1F
100
AcDbEntity
  8
実線
100
AcDbLine
 10
486.6740271008247
 20
414.9452635904949
 30
0.0
 11
486.6740271008247
 21
632.4452635904949
 31
0.0
  0
LINE
  5
E87
102
{ACAD_REACTORS
330
11E4
102
}
330
1F
100
AcDbEntity
  8
実線
100
AcDbLine
 10
366.6740271008248
 20
346.945263590495
 30
0.0
 11
496.6740271008247
 21
346.945263590495
 31
0.0
  0
LINE
  5
E88
102
{ACAD_REACTORS
330
11E4
102
}
330
1F
100
AcDbEntity
  8
実線
100
AcDbLine
 10
366.6740271008248
 20
404.9452635904948
 30
0.0
 11
366.6740271008248
 21
346.9452635904949
 31
0.0
  0
LINE
  5
E89
102
{ACAD_REACTORS
330
11E4
102
}
330
1F
100
AcDbEntity
  8
実線
100
AcDbLine
 10
496.6740271008247
 20
346.945263590495
 30
0.0
 11
496.6740271008247
 21
404.9452635904949
 31
0.0
  0
LINE
  5
E8A
102
{ACAD_REACTORS
330
11E4
102
}
330
1F
100
AcDbEntity
  8
実線
100
AcDbLine
 10
376.6740271008248
 20
414.9452635904949
 30
0.0
 11
486.6740271008247
 21
414.9452635904949
 31
0.0
  0
LINE
  5
E8B
102
{ACAD_REACTORS
330
11E4
102
}
330
1F
100
AcDbEntity
  8
実線
100
AcDbLine
 10
366.6740271008248
 20
404.9452635904948
 30
0.0
 11
496.6740271008247
 21
404.9452635904948
 31
0.0
  0
LINE
  5
E8C
102
{ACAD_REACTORS
330
11E4
102
}
330
1F
100
AcDbEntity
  8
実線
100
AcDbLine
 10
376.6740271008248
 20
414.9452635904949
 30
0.0
 11
366.6740271008248
 21
404.9452635904949
 31
0.0
  0
LINE
  5
E8D
102
{ACAD_REACTORS
330
11E4
102
}
330
1F
100
AcDbEntity
  8
実線
100
AcDbLine
 10
496.6740271008247
 20
404.9452635904948
 30
0.0
 11
486.6740271008247
 21
414.9452635904948
 31
0.0
  0
LINE
  5
E8E
102
{ACAD_REACTORS
330
11E4
102
}
330
1F
100
AcDbEntity
  8
実線
100
AcDbLine
 10
486.6740271008247
 20
834.445263590495
 30
0.0
 11
486.6740271008247
 21
1051.945263590495
 31
0.0
  0
LINE
  5
E8F
102
{ACAD_REACTORS
330
11E4
102
}
330
1F
100
AcDbEntity
  8
実線
100
AcDbLine
 10
376.6740271008248
 20
1051.945263590495
 30
0.0
 11
376.6740271008248
 21
834.445263590495
 31
0.0
  0
LINE
  5
E90
102
{ACAD_REACTORS
330
11E4
102
}
330
1F
100
AcDbEntity
  8
実線
100
AcDbLine
 10
496.6740271008247
 20
1061.945263590495
 30
0.0
 11
496.6740271008247
 21
1119.945263590495
 31
0.0
  0
LINE
  5
E91
102
{ACAD_REACTORS
330
11E4
102
}
330
1F
100
AcDbEntity
  8
実線
100
AcDbLine
 10
366.6740271008248
 20
1119.945263590495
 30
0.0
 11
366.6740271008248
 21
1061.945263590495
 31
0.0
  0
LINE
  5
E92
102
{ACAD_REACTORS
330
11E4
102
}
330
1F
100
AcDbEntity
  8
実線
100
AcDbLine
 10
496.6740271008247
 20
1119.945263590495
 30
0.0
 11
366.6740271008248
 21
1119.945263590495
 31
0.0
  0
LINE
  5
E93
102
{ACAD_REACTORS
330
11E4
102
}
330
1F
100
AcDbEntity
  8
実線
100
AcDbLine
 10
486.6740271008247
 20
1051.945263590495
 30
0.0
 11
496.6740271008247
 21
1061.945263590495
 31
0.0
  0
LINE
  5
E94
102
{ACAD_REACTORS
330
11E4
102
}
330
1F
100
AcDbEntity
  8
実線
100
AcDbLine
 10
366.6740271008248
 20
1061.945263590495
 30
0.0
 11
376.6740271008248
 21
1051.945263590495
 31
0.0
  0
LINE
  5
E95
102
{ACAD_REACTORS
330
11E4
102
}
330
1F
100
AcDbEntity
  8
実線
100
AcDbLine
 10
376.6740271008248
 20
1051.945263590495
 30
0.0
 11
486.6740271008247
 21
1051.945263590495
 31
0.0
  0
LINE
  5
E96
102
{ACAD_REACTORS
330
11E4
102
}
330
1F
100
AcDbEntity
  8
実線
100
AcDbLine
 10
366.6740271008248
 20
1061.945263590495
 30
0.0
 11
496.6740271008247
 21
1061.945263590495
 31
0.0
  0
LINE
  5
E97
102
{ACAD_REACTORS
330
11E4
102
}
330
1F
100
AcDbEntity
  8
実線
100
AcDbLine
 10
471.2720068472817
 20
703.7467787806599
 30
0.0
 11
464.3180826482034
 21
703.7467787806599
 31
0.0
  0
LINE
  5
E98
102
{ACAD_REACTORS
330
11E4
102
}
330
1F
100
AcDbEntity
  8
実線
100
AcDbLine
 10
437.6740271008352
 20
733.4452635904949
 30
0.0
 11
450.2720068472817
 21
733.4452635904949
 31
0.0
  0
LINE
  5
E99
102
{ACAD_REACTORS
330
11E4
102
}
330
1F
100
AcDbEntity
  8
実線
100
AcDbLine
 10
471.2720068472817
 20
763.1437484003299
 30
0.0
 11
468.8881342323602
 21
763.1437484003299
 31
0.0
  0
LINE
  5
E9A
102
{ACAD_REACTORS
330
11E4
102
}
330
1F
100
AcDbEntity
  8
実線
100
AcDbLine
 10
383.0963893941612
 20
750.444594327505
 30
0.0
 11
388.4604686583093
 21
758.030547972508
 31
0.0
  0
LINE
  5
E9B
102
{ACAD_REACTORS
330
11E4
102
}
330
1F
100
AcDbEntity
  8
実線
100
AcDbLine
 10
465.3311035662523
 20
754.7420424075515
 30
0.0
 11
471.2720068472817
 21
763.1437484003299
 31
0.0
  0
LINE
  5
E9C
102
{ACAD_REACTORS
330
11E4
102
}
330
1F
100
AcDbEntity
  8
実線
100
AcDbLine
 10
492.4537162786741
 20
661.1952635904949
 30
0.0
 11
510.0740271008349
 21
661.1952635904949
 31
0.0
  0
LINE
  5
E9D
102
{ACAD_REACTORS
330
11E4
102
}
330
1F
100
AcDbEntity
  8
実線
100
AcDbLine
 10
516.6740271008352
 20
654.1952635904949
 30
0.0
 11
516.6740271008352
 21
726.4452635904947
 31
0.0
  0
LINE
  5
E9E
102
{ACAD_REACTORS
330
11E4
102
}
330
1F
100
AcDbEntity
  8
実線
100
AcDbLine
 10
513.1740271008352
 20
654.1952635904949
 30
0.0
 11
516.6740271008352
 21
654.1952635904949
 31
0.0
  0
LINE
  5
E9F
102
{ACAD_REACTORS
330
11E4
102
}
330
1F
100
AcDbEntity
  8
実線
100
AcDbLine
 10
513.1740271008352
 20
654.1952635904949
 30
0.0
 11
513.1740271008352
 21
722.5051841140673
 31
0.0
  0
LINE
  5
EA0
102
{ACAD_REACTORS
330
11E4
102
}
330
1F
100
AcDbEntity
  8
実線
100
AcDbLine
 10
510.0740271008349
 20
661.1952635904949
 30
0.0
 11
510.0740271008349
 21
718.1211220707107
 31
0.0
  0
LINE
  5
EA1
102
{ACAD_REACTORS
330
11E4
102
}
330
1F
100
AcDbEntity
  8
実線
100
AcDbLine
 10
510.0740271008349
 20
661.1952635904949
 30
0.0
 11
513.1740271008352
 21
654.1952635904949
 31
0.0
  0
LINE
  5
EA2
102
{ACAD_REACTORS
330
11E4
102
}
330
1F
100
AcDbEntity
  8
実線
100
AcDbLine
 10
353.2740271008352
 20
661.1952635904949
 30
0.0
 11
370.8943379229959
 21
661.1952635904949
 31
0.0
  0
LINE
  5
EA3
102
{ACAD_REACTORS
330
11E4
102
}
330
1F
100
AcDbEntity
  8
実線
100
AcDbLine
 10
371.1631975316782
 20
724.6952635904949
 30
0.0
 11
353.2740271008352
 21
724.6952635904949
 31
0.0
  0
LINE
  5
EA4
102
{ACAD_REACTORS
330
11E4
102
}
330
1F
100
AcDbEntity
  8
実線
100
AcDbLine
 10
353.2740271008352
 20
724.6952635904949
 30
0.0
 11
350.1740271008352
 21
731.6952635904949
 31
0.0
  0
LINE
  5
EA5
102
{ACAD_REACTORS
330
11E4
102
}
330
1F
100
AcDbEntity
  8
実線
100
AcDbLine
 10
350.1740271008352
 20
654.1952635904949
 30
0.0
 11
353.2740271008352
 21
661.1952635904949
 31
0.0
  0
LINE
  5
EA6
102
{ACAD_REACTORS
330
11E4
102
}
330
1F
100
AcDbEntity
  8
実線
100
AcDbLine
 10
353.2740271008352
 20
724.6952635904949
 30
0.0
 11
353.2740271008352
 21
661.1952635904949
 31
0.0
  0
LINE
  5
EA7
102
{ACAD_REACTORS
330
11E4
102
}
330
1F
100
AcDbEntity
  8
実線
100
AcDbLine
 10
346.6740271008352
 20
654.1952635904949
 30
0.0
 11
350.1740271008352
 21
654.1952635904949
 31
0.0
  0
LINE
  5
EA8
102
{ACAD_REACTORS
330
11E4
102
}
330
1F
100
AcDbEntity
  8
実線
100
AcDbLine
 10
350.1740271008352
 20
731.6952635904949
 30
0.0
 11
346.6740271008352
 21
731.6952635904949
 31
0.0
  0
LINE
  5
EA9
102
{ACAD_REACTORS
330
11E4
102
}
330
1F
100
AcDbEntity
  8
実線
100
AcDbLine
 10
346.6740271008352
 20
654.1952635904949
 30
0.0
 11
346.6740271008352
 21
731.6952635904949
 31
0.0
  0
LINE
  5
EAA
102
{ACAD_REACTORS
330
11E4
102
}
330
1F
100
AcDbEntity
  8
実線
100
AcDbLine
 10
350.1740271008352
 20
654.1952635904949
 30
0.0
 11
350.1740271008352
 21
731.6952635904949
 31
0.0
  0
CIRCLE
  5
EAB
102
{ACAD_REACTORS
330
11E4
102
}
330
1F
100
AcDbEntity
  8
実線
100
AcDbCircle
 10
431.6740271008352
 20
773.945263590495
 30
0.0
 40
38.75
  0
ELLIPSE
  5
EAC
102
{ACAD_REACTORS
330
11E4
102
}
330
1F
100
AcDbEntity
  8
実線
100
AcDbEllipse
 10
392.0760473543883
 20
733.4452635904949
 30
0.0
 11
0.0
 21
12.5
 31
0.0
210
0.0
220
0.0
230
1.0
 40
0.7071067811865476
 41
0.0
 42
0.1009417606597615
  0
LINE
  5
EAD
102
{ACAD_REACTORS
330
11E4
102
}
330
1F
100
AcDbEntity
  8
実線
100
AcDbLine
 10
404.8866700083558
 20
745.9452635904949
 30
0.0
 11
392.0760473543883
 21
745.9452635904949
 31
0.0
  0
LINE
  5
EAE
102
{ACAD_REACTORS
330
11E4
102
}
330
1F
100
AcDbEntity
  8
実線
100
AcDbLine
 10
392.0760473543883
 20
720.9452635904949
 30
0.0
 11
406.0512235756505
 21
720.9452635904949
 31
0.0
  0
ELLIPSE
  5
EAF
102
{ACAD_REACTORS
330
11E4
102
}
330
1F
100
AcDbEntity
  8
実線
100
AcDbEllipse
 10
392.0760473543883
 20
733.4452635904949
 30
0.0
 11
0.0
 21
12.5
 31
0.0
210
0.0
220
0.0
230
1.0
 40
0.7071067811865476
 41
3.141592653589792
 42
6.283185307179585
  0
ELLIPSE
  5
EB0
102
{ACAD_REACTORS
330
11E4
102
}
330
1F
100
AcDbEntity
  8
実線
100
AcDbEllipse
 10
392.0760473543883
 20
733.4452635904949
 30
0.0
 11
0.0
 21
12.5
 31
0.0
210
0.0
220
0.0
230
1.0
 40
0.7071067811865476
 41
3.04065089292993
 42
3.141592653589792
  0
LINE
  5
EB1
102
{ACAD_REACTORS
330
11E4
102
}
330
1F
100
AcDbEntity
  8
実線
100
AcDbLine
 10
439.2731465127558
 20
722.6952635904949
 30
0.0
 11
411.6878381578385
 21
722.6952635904949
 31
0.0
  0
LINE
  5
EB2
102
{ACAD_REACTORS
330
11E4
102
}
330
1F
100
AcDbEntity
  8
実線
100
AcDbLine
 10
514.8802156669403
 20
751.4452635904947
 30
0.0
 11
514.8802156669403
 21
757.9452635904947
 31
0.0
  0
LINE
  5
EB3
102
{ACAD_REACTORS
330
11E4
102
}
330
1F
100
AcDbEntity
  8
実線
100
AcDbLine
 10
511.8802156669403
 20
757.9452635904947
 30
0.0
 11
511.8802156669403
 21
751.4452635904947
 31
0.0
  0
LINE
  5
EB4
102
{ACAD_REACTORS
330
11E4
102
}
330
1F
100
AcDbEntity
  8
実線
100
AcDbLine
 10
511.8802156669403
 20
757.9452635904947
 30
0.0
 11
514.8802156669403
 21
757.9452635904947
 31
0.0
  0
LINE
  5
EB5
102
{ACAD_REACTORS
330
11E4
102
}
330
1F
100
AcDbEntity
  8
実線
100
AcDbLine
 10
492.4537162786736
 20
667.4452635904949
 30
0.0
 11
370.8943379229963
 21
667.4452635904949
 31
0.0
  0
LINE
  5
EB6
102
{ACAD_REACTORS
330
11E4
102
}
330
1F
100
AcDbEntity
  8
実線
100
AcDbLine
 10
370.8943379229963
 20
667.4452635904949
 30
0.0
 11
370.8943379229963
 21
652.445263590495
 31
0.0
  0
LINE
  5
EB7
102
{ACAD_REACTORS
330
11E4
102
}
330
1F
100
AcDbEntity
  8
実線
100
AcDbLine
 10
492.4537162786741
 20
652.445263590495
 30
0.0
 11
492.4537162786741
 21
667.4452635904949
 31
0.0
  0
LINE
  5
EB8
102
{ACAD_REACTORS
330
11E4
102
}
330
1F
100
AcDbEntity
  8
実線
100
AcDbLine
 10
404.8640549508941
 20
667.4452635904949
 30
0.0
 11
404.8640549508941
 21
652.445263590495
 31
0.0
  0
LINE
  5
EB9
102
{ACAD_REACTORS
330
11E4
102
}
330
1F
100
AcDbEntity
  8
実線
100
AcDbLine
 10
458.4839992507763
 20
667.4452635904949
 30
0.0
 11
458.4839992507763
 21
652.445263590495
 31
0.0
  0
LINE
  5
EBA
102
{ACAD_REACTORS
330
11E4
102
}
330
1F
100
AcDbEntity
  8
実線
100
AcDbLine
 10
518.9663592383144
 20
751.4452635904947
 30
0.0
 11
518.9663592383144
 21
726.4452635904947
 31
0.0
  0
LINE
  5
EBB
102
{ACAD_REACTORS
330
11E4
102
}
330
1F
100
AcDbEntity
  8
実線
100
AcDbLine
 10
518.9663592383144
 20
751.4452635904947
 30
0.0
 11
509.7032604048349
 21
751.4452635904947
 31
0.0
  0
LINE
  5
EBC
102
{ACAD_REACTORS
330
11E4
102
}
330
1F
100
AcDbEntity
  8
実線
100
AcDbLine
 10
518.9663592383144
 20
726.4452635904947
 30
0.0
 11
509.7032604048349
 21
726.4452635904947
 31
0.0
  0
LINE
  5
EBD
102
{ACAD_REACTORS
330
11E4
102
}
330
1F
100
AcDbEntity
  8
実線
100
AcDbLine
 10
513.3802156669402
 20
738.0056912020133
 30
0.0
 11
513.3802156669402
 21
751.4452635904947
 31
0.0
  0
LINE
  5
EBE
102
{ACAD_REACTORS
330
11E4
102
}
330
1F
100
AcDbEntity
  8
実線
100
AcDbLine
 10
513.3802156669402
 20
726.4452635904947
 30
0.0
 11
513.3802156669402
 21
728.8848359789765
 31
0.0
  0
LINE
  5
EBF
102
{ACAD_REACTORS
330
11E4
102
}
330
1F
100
AcDbEntity
  8
実線
100
AcDbLine
 10
509.7032604048349
 20
751.4452635904947
 30
0.0
 11
498.5309732620875
 21
751.4452635904947
 31
0.0
  0
LINE
  5
EC0
102
{ACAD_REACTORS
330
11E4
102
}
330
1F
100
AcDbEntity
  8
実線
100
AcDbLine
 10
507.33445268792
 20
726.4452635904947
 30
0.0
 11
509.7032604048349
 21
726.4452635904947
 31
0.0
  0
LINE
  5
EC1
102
{ACAD_REACTORS
330
11E4
102
}
330
1F
100
AcDbEntity
  8
実線
100
AcDbLine
 10
509.7032604048349
 20
726.4452635904947
 30
0.0
 11
509.7032604048349
 21
751.4452635904947
 31
0.0
  0
LINE
  5
EC2
102
{ACAD_REACTORS
330
11E4
102
}
330
1F
100
AcDbEntity
  8
実線
100
AcDbLine
 10
504.1171168334613
 20
748.4452635904947
 30
0.0
 11
504.1171168334613
 21
751.4452635904947
 31
0.0
  0
LINE
  5
EC3
102
{ACAD_REACTORS
330
11E4
102
}
330
1F
100
AcDbEntity
  8
実線
100
AcDbLine
 10
498.5309732620875
 20
748.4452635904947
 30
0.0
 11
498.5309732620875
 21
751.4452635904947
 31
0.0
  0
LINE
  5
EC4
102
{ACAD_REACTORS
330
11E4
102
}
330
1F
100
AcDbEntity
  8
実線
100
AcDbLine
 10
523.3857766207302
 20
748.4452635904947
 30
0.0
 11
518.9663592383144
 21
748.4452635904947
 31
0.0
  0
LINE
  5
EC5
102
{ACAD_REACTORS
330
11E4
102
}
330
1F
100
AcDbEntity
  8
実線
100
AcDbLine
 10
523.3857766207302
 20
726.4452635904947
 30
0.0
 11
518.9663592383144
 21
726.4452635904947
 31
0.0
  0
LINE
  5
EC6
102
{ACAD_REACTORS
330
11E4
102
}
330
1F
100
AcDbEntity
  8
実線
100
AcDbLine
 10
523.3857766207302
 20
748.4452635904947
 30
0.0
 11
523.3857766207302
 21
726.4452635904947
 31
0.0
  0
LINE
  5
EC7
102
{ACAD_REACTORS
330
11E4
102
}
330
1F
100
AcDbEntity
  8
実線
100
AcDbLine
 10
522.5372484833065
 20
726.4452635904947
 30
0.0
 11
522.5372484833065
 21
748.4452635904947
 31
0.0
  0
LINE
  5
EC8
102
{ACAD_REACTORS
330
11E4
102
}
330
1F
100
AcDbEntity
  8
実線
100
AcDbLine
 10
450.2720068472817
 20
733.4452635904949
 30
0.0
 11
471.2720068472817
 21
703.7467787806599
 31
0.0
  0
LINE
  5
EC9
102
{ACAD_REACTORS
330
11E4
102
}
330
1F
100
AcDbEntity
  8
実線
100
AcDbLine
 10
471.2720068472817
 20
703.7467787806599
 30
0.0
 11
499.9098314853368
 21
703.7467787806599
 31
0.0
  0
LINE
  5
ECA
102
{ACAD_REACTORS
330
11E4
102
}
330
1F
100
AcDbEntity
  8
実線
100
AcDbLine
 10
450.2720068472817
 20
733.4452635904949
 30
0.0
 11
478.9098314853368
 21
733.4452635904949
 31
0.0
  0
LINE
  5
ECB
102
{ACAD_REACTORS
330
11E4
102
}
330
1F
100
AcDbEntity
  8
実線
100
AcDbLine
 10
471.2720068472817
 20
763.1437484003299
 30
0.0
 11
499.9098314853368
 21
763.1437484003299
 31
0.0
  0
LINE
  5
ECC
102
{ACAD_REACTORS
330
11E4
102
}
330
1F
100
AcDbEntity
  8
実線
100
AcDbLine
 10
460.9980231480867
 20
748.6141413133282
 30
0.0
 11
450.2720068472817
 21
733.4452635904949
 31
0.0
  0
LINE
  5
ECD
102
{ACAD_REACTORS
330
11E4
102
}
330
1F
100
AcDbEntity
  8
実線
100
AcDbLine
 10
489.5164332031349
 20
748.4452635904947
 30
0.0
 11
499.9098314853368
 21
763.1437484003299
 31
0.0
  0
LINE
  5
ECE
102
{ACAD_REACTORS
330
11E4
102
}
330
1F
100
AcDbEntity
  8
実線
100
AcDbLine
 10
478.9098314853368
 20
733.4452635904949
 30
0.0
 11
489.1618084113656
 21
747.943748400421
 31
0.0
  0
LINE
  5
ECF
102
{ACAD_REACTORS
330
11E4
102
}
330
1F
100
AcDbEntity
  8
実線
100
AcDbLine
 10
499.9098314853368
 20
703.7467787806599
 30
0.0
 11
478.9098314853368
 21
733.4452635904949
 31
0.0
  0
LINE
  5
ED0
102
{ACAD_REACTORS
330
11E4
102
}
330
1F
100
AcDbEntity
  8
実線
100
AcDbLine
 10
515.960084017031
 20
726.4452635904947
 30
0.0
 11
499.9098314853368
 21
703.7467787806599
 31
0.0
  0
LINE
  5
ED1
102
{ACAD_REACTORS
330
11E4
102
}
330
1F
100
AcDbEntity
  8
実線
100
AcDbLine
 10
505.6171168334612
 20
755.0724280566791
 30
0.0
 11
508.181909423979
 21
751.4452635904947
 31
0.0
  0
LINE
  5
ED2
102
{ACAD_REACTORS
330
11E4
102
}
330
1F
100
AcDbEntity
  8
実線
100
AcDbLine
 10
499.9098314853368
 20
763.1437484003299
 30
0.0
 11
503.5857153462666
 21
757.9452635904947
 31
0.0
  0
LINE
  5
ED3
102
{ACAD_REACTORS
330
11E4
102
}
330
1F
100
AcDbEntity
  8
実線
100
AcDbLine
 10
505.6171168334612
 20
751.4452635904947
 30
0.0
 11
505.6171168334612
 21
757.9452635904947
 31
0.0
  0
LINE
  5
ED4
102
{ACAD_REACTORS
330
11E4
102
}
330
1F
100
AcDbEntity
  8
実線
100
AcDbLine
 10
502.6171168334612
 20
757.9452635904947
 30
0.0
 11
502.6171168334612
 21
751.4452635904947
 31
0.0
  0
LINE
  5
ED5
102
{ACAD_REACTORS
330
11E4
102
}
330
1F
100
AcDbEntity
  8
実線
100
AcDbLine
 10
502.6171168334612
 20
757.9452635904947
 30
0.0
 11
505.6171168334612
 21
757.9452635904947
 31
0.0
  0
LINE
  5
ED6
102
{ACAD_REACTORS
330
11E4
102
}
330
1F
100
AcDbEntity
  8
実線
100
AcDbLine
 10
420.6740271008247
 20
341.945263590495
 30
0.0
 11
420.6740271008247
 21
318.745263590495
 31
0.0
  0
LINE
  5
ED7
102
{ACAD_REACTORS
330
11E4
102
}
330
1F
100
AcDbEntity
  8
実線
100
AcDbLine
 10
442.6740271008248
 20
318.745263590495
 30
0.0
 11
442.6740271008248
 21
341.945263590495
 31
0.0
  0
LINE
  5
ED8
102
{ACAD_REACTORS
330
11E4
102
}
330
1F
100
AcDbEntity
  8
実線
100
AcDbLine
 10
424.6740271008247
 20
1164.945263590495
 30
0.0
 11
424.6740271008247
 21
1124.945263590495
 31
0.0
  0
LINE
  5
ED9
102
{ACAD_REACTORS
330
11E4
102
}
330
1F
100
AcDbEntity
  8
実線
100
AcDbLine
 10
466.6740271008247
 20
1124.945263590495
 30
0.0
 11
466.6740271008247
 21
1126.145263590495
 31
0.0
  0
LINE
  5
EDA
102
{ACAD_REACTORS
330
11E4
102
}
330
1F
100
AcDbEntity
  8
実線
100
AcDbLine
 10
466.6740271008247
 20
1126.145263590495
 30
0.0
 11
451.6740271008248
 21
1126.145263590495
 31
0.0
  0
LINE
  5
EDB
102
{ACAD_REACTORS
330
11E4
102
}
330
1F
100
AcDbEntity
  8
実線
100
AcDbLine
 10
451.6740271008248
 20
1126.145263590495
 30
0.0
 11
451.6740271008248
 21
1164.945263590495
 31
0.0
  0
LINE
  5
EDC
102
{ACAD_REACTORS
330
11E4
102
}
330
1F
100
AcDbEntity
  8
実線
100
AcDbLine
 10
451.6740271008248
 20
1164.945263590495
 30
0.0
 11
424.6740271008247
 21
1164.945263590495
 31
0.0
  0
LINE
  5
EDD
102
{ACAD_REACTORS
330
11E4
102
}
330
1F
100
AcDbEntity
  8
実線
100
AcDbLine
 10
434.6740271008248
 20
1126.145263590495
 30
0.0
 11
424.6740271008247
 21
1126.145263590495
 31
0.0
  0
LINE
  5
EDE
102
{ACAD_REACTORS
330
11E4
102
}
330
1F
100
AcDbEntity
  8
実線
100
AcDbLine
 10
434.6740271008248
 20
1124.945263590495
 30
0.0
 11
434.6740271008248
 21
1126.145263590495
 31
0.0
  0
LINE
  5
EDF
102
{ACAD_REACTORS
330
11E4
102
}
330
1F
100
AcDbEntity
  8
実線
100
AcDbLine
 10
477.8396931867842
 20
763.1437484003299
 30
0.0
 11
479.5733735014104
 21
766.1465707893446
 31
0.0
  0
LINE
  5
EE0
102
{ACAD_REACTORS
330
11E4
102
}
330
1F
100
AcDbEntity
  8
実線
100
AcDbLine
 10
383.77468070026
 20
766.1465707893446
 30
0.0
 11
395.4379108494982
 21
745.9452635904949
 31
0.0
  0
ARC
  5
EE1
102
{ACAD_REACTORS
330
11E4
102
}
330
1F
100
AcDbEntity
  8
実線
100
AcDbCircle
 10
433.6740271008352
 20
792.6465707893444
 30
0.0
 40
53.0
100
AcDbArc
 50
330.0000000000041
 51
0.0
  0
ARC
  5
EE2
102
{ACAD_REACTORS
330
11E4
102
}
330
1F
100
AcDbEntity
  8
実線
100
AcDbCircle
 10
429.6740271008352
 20
792.6465707893444
 30
0.0
 40
53.0
100
AcDbArc
 50
180.0
 51
209.9999999999959
  0
LINE
  5
EE3
102
{ACAD_REACTORS
330
11E4
102
}
330
1F
100
AcDbEntity
  8
実線
100
AcDbLine
 10
486.6740271008352
 20
792.6465707893444
 30
0.0
 11
486.6740271008352
 21
799.4452635904949
 31
0.0
  0
LINE
  5
EE4
102
{ACAD_REACTORS
330
11E4
102
}
330
1F
100
AcDbEntity
  8
実線
100
AcDbLine
 10
376.6740271008353
 20
799.4452635904949
 30
0.0
 11
376.6740271008353
 21
792.6465707893444
 31
0.0
  0
LINE
  5
EE5
102
{ACAD_REACTORS
330
11E4
102
}
330
1F
100
AcDbEntity
  8
実線
100
AcDbLine
 10
376.6740271008248
 20
834.445263590495
 30
0.0
 11
486.6740271008247
 21
834.445263590495
 31
0.0
  0
LINE
  5
EE6
102
{ACAD_REACTORS
330
11E4
102
}
330
1F
100
AcDbEntity
  8
実線
100
AcDbLine
 10
486.6740271008247
 20
831.4452635904949
 30
0.0
 11
486.6740271008247
 21
834.445263590495
 31
0.0
  0
LINE
  5
EE7
102
{ACAD_REACTORS
330
11E4
102
}
330
1F
100
AcDbEntity
  8
実線
100
AcDbLine
 10
376.6740271008248
 20
834.445263590495
 30
0.0
 11
376.6740271008248
 21
831.4452635904949
 31
0.0
  0
LINE
  5
EE8
102
{ACAD_REACTORS
330
11E4
102
}
330
1F
100
AcDbEntity
  8
実線
100
AcDbLine
 10
492.4537162786637
 20
814.4452635904949
 30
0.0
 11
492.4537162786637
 21
831.4452635904949
 31
0.0
  0
LINE
  5
EE9
102
{ACAD_REACTORS
330
11E4
102
}
330
1F
100
AcDbEntity
  8
実線
100
AcDbLine
 10
492.4537162786637
 20
831.4452635904949
 30
0.0
 11
458.4839992507664
 21
831.4452635904949
 31
0.0
  0
LINE
  5
EEA
102
{ACAD_REACTORS
330
11E4
102
}
330
1F
100
AcDbEntity
  8
実線
100
AcDbLine
 10
370.8943379229863
 20
831.4452635904949
 30
0.0
 11
404.8640549508836
 21
831.4452635904949
 31
0.0
  0
LINE
  5
EEB
102
{ACAD_REACTORS
330
11E4
102
}
330
1F
100
AcDbEntity
  8
実線
100
AcDbLine
 10
370.8943379229863
 20
831.4452635904949
 30
0.0
 11
370.8943379229863
 21
814.4452635904949
 31
0.0
  0
LINE
  5
EEC
102
{ACAD_REACTORS
330
11E4
102
}
330
1F
100
AcDbEntity
  8
実線
100
AcDbLine
 10
458.4839992507664
 20
814.4452635904949
 30
0.0
 11
458.4839992507664
 21
831.4452635904949
 31
0.0
  0
LINE
  5
EED
102
{ACAD_REACTORS
330
11E4
102
}
330
1F
100
AcDbEntity
  8
実線
100
AcDbLine
 10
404.8640549508836
 20
814.4452635904949
 30
0.0
 11
404.8640549508836
 21
831.4452635904949
 31
0.0
  0
LINE
  5
EEE
102
{ACAD_REACTORS
330
11E4
102
}
330
1F
100
AcDbEntity
  8
実線
100
AcDbLine
 10
491.6740271008247
 20
341.9452635904949
 30
0.0
 11
371.6740271008248
 21
341.9452635904949
 31
0.0
  0
ARC
  5
EEF
102
{ACAD_REACTORS
330
11E4
102
}
330
1F
100
AcDbEntity
  8
実線
100
AcDbCircle
 10
371.6740271008248
 20
346.945263590495
 30
0.0
 40
5.0
100
AcDbArc
 50
180.0
 51
270.0
  0
ARC
  5
EF0
102
{ACAD_REACTORS
330
11E4
102
}
330
1F
100
AcDbEntity
  8
実線
100
AcDbCircle
 10
491.6740271008247
 20
346.945263590495
 30
0.0
 40
5.0
100
AcDbArc
 50
270.0
 51
0.0
  0
LINE
  5
EF1
102
{ACAD_REACTORS
330
11E4
102
}
330
1F
100
AcDbEntity
  8
実線
100
AcDbLine
 10
475.1740271008247
 20
341.945263590495
 30
0.0
 11
475.1740271008247
 21
340.745263590495
 31
0.0
  0
LINE
  5
EF2
102
{ACAD_REACTORS
330
11E4
102
}
330
1F
100
AcDbEntity
  8
実線
100
AcDbLine
 10
475.1740271008247
 20
340.745263590495
 30
0.0
 11
446.1740271008252
 21
340.745263590495
 31
0.0
  0
LINE
  5
EF3
102
{ACAD_REACTORS
330
11E4
102
}
330
1F
100
AcDbEntity
  8
実線
100
AcDbLine
 10
455.374027100825
 20
301.9452635904951
 30
0.0
 11
455.374027100825
 21
341.945263590495
 31
0.0
  0
LINE
  5
EF4
102
{ACAD_REACTORS
330
11E4
102
}
330
1F
100
AcDbEntity
  8
実線
100
AcDbLine
 10
454.1740271008247
 20
301.945263590495
 30
0.0
 11
455.374027100825
 21
301.945263590495
 31
0.0
  0
LINE
  5
EF5
102
{ACAD_REACTORS
330
11E4
102
}
330
1F
100
AcDbEntity
  8
実線
100
AcDbLine
 10
454.1740271008247
 20
340.745263590495
 30
0.0
 11
454.1740271008247
 21
301.9452635904951
 31
0.0
  0
LINE
  5
EF6
102
{ACAD_REACTORS
330
11E4
102
}
330
1F
100
AcDbEntity
  8
実線
100
AcDbLine
 10
446.1740271008247
 20
341.945263590495
 30
0.0
 11
446.1740271008247
 21
340.745263590495
 31
0.0
  0
LINE
  5
EF7
102
{ACAD_REACTORS
330
11E4
102
}
330
1F
100
AcDbEntity
  8
実線
100
AcDbLine
 10
371.6740271008248
 20
1124.945263590495
 30
0.0
 11
491.6740271000767
 21
1124.945263590495
 31
0.0
  0
ARC
  5
EF8
102
{ACAD_REACTORS
330
11E4
102
}
330
1F
100
AcDbEntity
  8
実線
100
AcDbCircle
 10
491.6740271008247
 20
1119.945263590495
 30
0.0
 40
5.0
100
AcDbArc
 50
0.0
 51
90.0
  0
ARC
  5
EF9
102
{ACAD_REACTORS
330
11E4
102
}
330
1F
100
AcDbEntity
  8
実線
100
AcDbCircle
 10
371.6740271008248
 20
1119.945263590495
 30
0.0
 40
5.0
100
AcDbArc
 50
90.0
 51
180.0
  0
LINE
  5
EFA
102
{ACAD_REACTORS
330
11E4
102
}
330
1F
100
AcDbEntity
  8
実線
100
AcDbLine
 10
492.4537162786641
 20
652.445263590495
 30
0.0
 11
370.8943379229863
 21
652.445263590495
 31
0.0
  0
LINE
  5
EFB
102
{ACAD_REACTORS
330
11E4
102
}
330
1F
100
AcDbEntity
  8
実線
100
AcDbLine
 10
376.6740271008248
 20
635.4452635904949
 30
0.0
 11
376.6740271008248
 21
632.4452635904949
 31
0.0
  0
LINE
  5
EFC
102
{ACAD_REACTORS
330
11E4
102
}
330
1F
100
AcDbEntity
  8
実線
100
AcDbLine
 10
486.6740271008247
 20
632.4452635904949
 30
0.0
 11
486.6740271008247
 21
635.4452635904949
 31
0.0
  0
LINE
  5
EFD
102
{ACAD_REACTORS
330
11E4
102
}
330
1F
100
AcDbEntity
  8
実線
100
AcDbLine
 10
376.6740271008248
 20
632.4452635904949
 30
0.0
 11
486.6740271008247
 21
632.4452635904949
 31
0.0
  0
LINE
  5
EFE
102
{ACAD_REACTORS
330
11E4
102
}
330
1F
100
AcDbEntity
  8
実線
100
AcDbLine
 10
370.8943379229863
 20
652.445263590495
 30
0.0
 11
370.8943379229863
 21
635.4452635904949
 31
0.0
  0
LINE
  5
EFF
102
{ACAD_REACTORS
330
11E4
102
}
330
1F
100
AcDbEntity
  8
実線
100
AcDbLine
 10
370.8943379229863
 20
635.4452635904949
 30
0.0
 11
404.8640549508836
 21
635.4452635904949
 31
0.0
  0
LINE
  5
F00
102
{ACAD_REACTORS
330
11E4
102
}
330
1F
100
AcDbEntity
  8
実線
100
AcDbLine
 10
492.4537162786641
 20
635.4452635904949
 30
0.0
 11
458.4839992507664
 21
635.4452635904949
 31
0.0
  0
LINE
  5
F01
102
{ACAD_REACTORS
330
11E4
102
}
330
1F
100
AcDbEntity
  8
実線
100
AcDbLine
 10
492.4537162786641
 20
635.4452635904949
 30
0.0
 11
492.4537162786641
 21
652.445263590495
 31
0.0
  0
LINE
  5
F02
102
{ACAD_REACTORS
330
11E4
102
}
330
1F
100
AcDbEntity
  8
実線
100
AcDbLine
 10
404.8640549508836
 20
652.445263590495
 30
0.0
 11
404.8640549508836
 21
635.4452635904949
 31
0.0
  0
LINE
  5
F03
102
{ACAD_REACTORS
330
11E4
102
}
330
1F
100
AcDbEntity
  8
実線
100
AcDbLine
 10
458.4839992507664
 20
652.445263590495
 30
0.0
 11
458.4839992507664
 21
635.4452635904949
 31
0.0
  0
LINE
  5
F04
102
{ACAD_REACTORS
330
11E5
102
}
330
1F
100
AcDbEntity
  8
実線
100
AcDbLine
 10
117.6740271008357
 20
318.7452635904949
 30
0.0
 11
117.6740271008357
 21
308.7452635904949
 31
0.0
  0
LINE
  5
F05
102
{ACAD_REACTORS
330
11E5
102
}
330
1F
100
AcDbEntity
  8
実線
100
AcDbLine
 10
145.6740271008357
 20
308.7452635904949
 30
0.0
 11
145.6740271008357
 21
318.7452635904949
 31
0.0
  0
LINE
  5
F06
102
{ACAD_REACTORS
330
11E5
102
}
330
1F
100
AcDbEntity
  8
実線
100
AcDbLine
 10
117.6740271008357
 20
308.7452635904949
 30
0.0
 11
145.6740271008357
 21
308.7452635904949
 31
0.0
  0
LINE
  5
F07
102
{ACAD_REACTORS
330
11E5
102
}
330
1F
100
AcDbEntity
  8
実線
100
AcDbLine
 10
117.6740271008357
 20
318.7452635904949
 30
0.0
 11
145.6740271008357
 21
318.7452635904949
 31
0.0
  0
LINE
  5
F08
102
{ACAD_REACTORS
330
11E5
102
}
330
1F
100
AcDbEntity
  8
実線
100
AcDbLine
 10
156.1740271008357
 20
313.4452635904949
 30
0.0
 11
156.1740271008357
 21
310.445263590495
 31
0.0
  0
LINE
  5
F09
102
{ACAD_REACTORS
330
11E5
102
}
330
1F
100
AcDbEntity
  8
実線
100
AcDbLine
 10
149.6740271008357
 20
310.445263590495
 30
0.0
 11
156.1740271008357
 21
310.445263590495
 31
0.0
  0
LINE
  5
F0A
102
{ACAD_REACTORS
330
11E5
102
}
330
1F
100
AcDbEntity
  8
実線
100
AcDbLine
 10
156.1740271008357
 20
313.4452635904949
 30
0.0
 11
149.6740271008357
 21
313.4452635904949
 31
0.0
  0
LINE
  5
F0B
102
{ACAD_REACTORS
330
11E5
102
}
330
1F
100
AcDbEntity
  8
実線
100
AcDbLine
 10
156.1740271008357
 20
333.4452635904948
 30
0.0
 11
156.1740271008357
 21
330.4452635904949
 31
0.0
  0
LINE
  5
F0C
102
{ACAD_REACTORS
330
11E5
102
}
330
1F
100
AcDbEntity
  8
実線
100
AcDbLine
 10
149.6740271008357
 20
330.4452635904949
 30
0.0
 11
156.1740271008357
 21
330.4452635904949
 31
0.0
  0
LINE
  5
F0D
102
{ACAD_REACTORS
330
11E5
102
}
330
1F
100
AcDbEntity
  8
実線
100
AcDbLine
 10
156.1740271008357
 20
333.4452635904948
 30
0.0
 11
149.6740271008357
 21
333.4452635904948
 31
0.0
  0
LINE
  5
F0E
102
{ACAD_REACTORS
330
11E5
102
}
330
1F
100
AcDbEntity
  8
実線
100
AcDbLine
 10
142.6740271008357
 20
335.8952635904949
 30
0.0
 11
149.6740271008357
 21
335.8952635904949
 31
0.0
  0
LINE
  5
F0F
102
{ACAD_REACTORS
330
11E5
102
}
330
1F
100
AcDbEntity
  8
実線
100
AcDbLine
 10
142.6740271008357
 20
327.9952635904949
 30
0.0
 11
149.6740271008357
 21
327.9952635904949
 31
0.0
  0
LINE
  5
F10
102
{ACAD_REACTORS
330
11E5
102
}
330
1F
100
AcDbEntity
  8
実線
100
AcDbLine
 10
149.6740271008357
 20
327.9952635904948
 30
0.0
 11
149.6740271008357
 21
335.8952635904949
 31
0.0
  0
LINE
  5
F11
102
{ACAD_REACTORS
330
11E5
102
}
330
1F
100
AcDbEntity
  8
実線
100
AcDbLine
 10
124.6740271008357
 20
308.7452635904949
 30
0.0
 11
124.6740271008357
 21
307.9952635904949
 31
0.0
  0
LINE
  5
F12
102
{ACAD_REACTORS
330
11E5
102
}
330
1F
100
AcDbEntity
  8
実線
100
AcDbLine
 10
145.6740271008357
 20
315.8952635904949
 30
0.0
 11
149.6740271008357
 21
315.8952635904949
 31
0.0
  0
LINE
  5
F13
102
{ACAD_REACTORS
330
11E5
102
}
330
1F
100
AcDbEntity
  8
実線
100
AcDbLine
 10
124.6740271008357
 20
307.9952635904949
 30
0.0
 11
149.6740271008357
 21
307.9952635904949
 31
0.0
  0
LINE
  5
F14
102
{ACAD_REACTORS
330
11E5
102
}
330
1F
100
AcDbEntity
  8
実線
100
AcDbLine
 10
149.6740271008357
 20
307.9952635904949
 30
0.0
 11
149.6740271008357
 21
315.8952635904949
 31
0.0
  0
LINE
  5
F15
102
{ACAD_REACTORS
330
11E5
102
}
330
1F
100
AcDbEntity
  8
実線
100
AcDbLine
 10
154.1740271008348
 20
1150.995263590494
 30
0.0
 11
146.2740271008347
 21
1150.995263590494
 31
0.0
  0
LINE
  5
F16
102
{ACAD_REACTORS
330
11E5
102
}
330
1F
100
AcDbEntity
  8
実線
100
AcDbLine
 10
146.2740271008347
 20
1158.895263590494
 30
0.0
 11
154.1740271008348
 21
1158.895263590494
 31
0.0
  0
LINE
  5
F17
102
{ACAD_REACTORS
330
11E5
102
}
330
1F
100
AcDbEntity
  8
実線
100
AcDbLine
 10
146.2740271008347
 20
1150.995263590494
 30
0.0
 11
146.2740271008347
 21
1158.895263590494
 31
0.0
  0
LINE
  5
F18
102
{ACAD_REACTORS
330
11E5
102
}
330
1F
100
AcDbEntity
  8
実線
100
AcDbLine
 10
146.2740271008347
 20
1138.895263590494
 30
0.0
 11
154.1740271008348
 21
1138.895263590494
 31
0.0
  0
LINE
  5
F19
102
{ACAD_REACTORS
330
11E5
102
}
330
1F
100
AcDbEntity
  8
実線
100
AcDbLine
 10
146.2740271008347
 20
1130.995263590494
 30
0.0
 11
146.2740271008347
 21
1138.895263590494
 31
0.0
  0
LINE
  5
F1A
102
{ACAD_REACTORS
330
11E5
102
}
330
1F
100
AcDbEntity
  8
実線
100
AcDbLine
 10
154.1740271008348
 20
1130.995263590494
 30
0.0
 11
146.2740271008347
 21
1130.995263590494
 31
0.0
  0
LINE
  5
F1B
102
{ACAD_REACTORS
330
11E5
102
}
330
1F
100
AcDbEntity
  8
実線
100
AcDbLine
 10
145.6740271008348
 20
1148.145263590494
 30
0.0
 11
145.6740271008348
 21
1158.145263590495
 31
0.0
  0
LINE
  5
F1C
102
{ACAD_REACTORS
330
11E5
102
}
330
1F
100
AcDbEntity
  8
実線
100
AcDbLine
 10
117.6740271008348
 20
1158.145263590495
 30
0.0
 11
117.6740271008348
 21
1148.145263590494
 31
0.0
  0
LINE
  5
F1D
102
{ACAD_REACTORS
330
11E5
102
}
330
1F
100
AcDbEntity
  8
実線
100
AcDbLine
 10
145.6740271008348
 20
1158.145263590495
 30
0.0
 11
117.6740271008348
 21
1158.145263590495
 31
0.0
  0
LINE
  5
F1E
102
{ACAD_REACTORS
330
11E5
102
}
330
1F
100
AcDbEntity
  8
実線
100
AcDbLine
 10
145.6740271008348
 20
1148.145263590494
 30
0.0
 11
117.6740271008348
 21
1148.145263590494
 31
0.0
  0
LINE
  5
F1F
102
{ACAD_REACTORS
330
11E5
102
}
330
1F
100
AcDbEntity
  8
実線
100
AcDbLine
 10
142.6740271008348
 20
1124.945263590495
 30
0.0
 11
142.6740271008348
 21
1148.145263590494
 31
0.0
  0
LINE
  5
F20
102
{ACAD_REACTORS
330
11E5
102
}
330
1F
100
AcDbEntity
  8
実線
100
AcDbLine
 10
120.6740271008348
 20
1148.145263590494
 30
0.0
 11
120.6740271008348
 21
1124.945263590495
 31
0.0
  0
LINE
  5
F21
102
{ACAD_REACTORS
330
11E5
102
}
330
1F
100
AcDbEntity
  8
実線
100
AcDbLine
 10
216.6740271008352
 20
748.4452635904946
 30
0.0
 11
227.9819706984381
 21
748.4452635904946
 31
0.0
  0
LINE
  5
F22
102
{ACAD_REACTORS
330
11E5
102
}
330
1F
100
AcDbEntity
  8
実線
100
AcDbLine
 10
215.960084017031
 20
726.4452635904945
 30
0.0
 11
227.9819706984381
 21
726.4452635904945
 31
0.0
  0
LINE
  5
F23
102
{ACAD_REACTORS
330
11E5
102
}
330
1F
100
AcDbEntity
  8
実線
100
AcDbLine
 10
227.9819706984381
 20
726.4452635904945
 30
0.0
 11
227.9819706984381
 21
748.4452635904946
 31
0.0
  0
LINE
  5
F24
102
{ACAD_REACTORS
330
11E5
102
}
330
1F
100
AcDbEntity
  8
実線
100
AcDbLine
 10
70.89433792299633
 20
799.4452635904949
 30
0.0
 11
192.4537162786741
 21
799.4452635904949
 31
0.0
  0
LINE
  5
F25
102
{ACAD_REACTORS
330
11E5
102
}
330
1F
100
AcDbEntity
  8
実線
100
AcDbLine
 10
70.89433792299633
 20
814.4452635904949
 30
0.0
 11
192.4537162786741
 21
814.4452635904949
 31
0.0
  0
LINE
  5
F26
102
{ACAD_REACTORS
330
11E5
102
}
330
1F
100
AcDbEntity
  8
実線
100
AcDbLine
 10
192.4537162786741
 20
799.4452635904949
 30
0.0
 11
192.4537162786741
 21
814.4452635904949
 31
0.0
  0
LINE
  5
F27
102
{ACAD_REACTORS
330
11E5
102
}
330
1F
100
AcDbEntity
  8
実線
100
AcDbLine
 10
70.89433792299633
 20
814.4452635904949
 30
0.0
 11
70.89433792299633
 21
799.4452635904949
 31
0.0
  0
LINE
  5
F28
102
{ACAD_REACTORS
330
11E5
102
}
330
1F
100
AcDbEntity
  8
実線
100
AcDbLine
 10
158.4839992507764
 20
799.4452635904949
 30
0.0
 11
158.4839992507764
 21
814.4452635904949
 31
0.0
  0
LINE
  5
F29
102
{ACAD_REACTORS
330
11E5
102
}
330
1F
100
AcDbEntity
  8
実線
100
AcDbLine
 10
104.8640549508941
 20
799.4452635904949
 30
0.0
 11
104.8640549508941
 21
814.4452635904949
 31
0.0
  0
ELLIPSE
  5
F2A
102
{ACAD_REACTORS
330
11E5
102
}
330
1F
100
AcDbEntity
  8
実線
100
AcDbEllipse
 10
171.2720068472817
 20
733.4452635904948
 30
0.0
 11
0.0
 21
10.85000000000002
 31
0.0
210
0.0
220
0.0
230
1.0
 40
0.7071067811865475
 41
0.022074987617799
 42
3.119517665971818
  0
ELLIPSE
  5
F2B
102
{ACAD_REACTORS
330
11E5
102
}
330
1F
100
AcDbEntity
  8
実線
100
AcDbEllipse
 10
181.8786085650799
 20
733.4452635904948
 30
0.0
 11
0.0
 21
17.0
 31
0.0
210
0.0
220
0.0
230
1.0
 40
0.7071067811865475
 41
0.0
 42
3.141592653589792
  0
ELLIPSE
  5
F2C
102
{ACAD_REACTORS
330
11E5
102
}
330
1F
100
AcDbEntity
  8
実線
100
AcDbEllipse
 10
180.3583289855291
 20
733.4452635904948
 30
0.0
 11
0.0
 21
17.0
 31
0.0
210
0.0
220
0.0
230
1.0
 40
0.7071067811865475
 41
0.0
 42
3.141592653589792
  0
LINE
  5
F2D
102
{ACAD_REACTORS
330
11E5
102
}
330
1F
100
AcDbEntity
  8
実線
100
AcDbLine
 10
181.8786085650799
 20
750.4452635904948
 30
0.0
 11
180.3583289855291
 21
750.4452635904948
 31
0.0
  0
LINE
  5
F2E
102
{ACAD_REACTORS
330
11E5
102
}
330
1F
100
AcDbEntity
  8
実線
100
AcDbLine
 10
180.3583289855291
 20
716.4452635904948
 30
0.0
 11
181.8786085650799
 21
716.4452635904948
 31
0.0
  0
ELLIPSE
  5
F2F
102
{ACAD_REACTORS
330
11E5
102
}
330
1F
100
AcDbEntity
  8
実線
100
AcDbEllipse
 10
181.8786085650799
 20
733.4452635904948
 30
0.0
 11
0.0
 21
17.0
 31
0.0
210
0.0
220
0.0
230
1.0
 40
0.7071067811865475
 41
3.141592653589792
 42
6.283185307179585
  0
LINE
  5
F30
102
{ACAD_REACTORS
330
11E5
102
}
330
1F
100
AcDbEntity
  8
実線
100
AcDbLine
 10
76.6740271008357
 20
632.4452635904948
 30
0.0
 11
76.6740271008357
 21
414.9452635904948
 31
0.0
  0
LINE
  5
F31
102
{ACAD_REACTORS
330
11E5
102
}
330
1F
100
AcDbEntity
  8
実線
100
AcDbLine
 10
186.6740271008357
 20
414.9452635904948
 30
0.0
 11
186.6740271008357
 21
632.4452635904948
 31
0.0
  0
LINE
  5
F32
102
{ACAD_REACTORS
330
11E5
102
}
330
1F
100
AcDbEntity
  8
実線
100
AcDbLine
 10
186.6740271008357
 20
414.9452635904948
 30
0.0
 11
76.6740271008357
 21
414.9452635904948
 31
0.0
  0
LINE
  5
F33
102
{ACAD_REACTORS
330
11E5
102
}
330
1F
100
AcDbEntity
  8
実線
100
AcDbLine
 10
76.6740271008357
 20
414.9452635904948
 30
0.0
 11
66.6740271008357
 21
404.9452635904948
 31
0.0
  0
LINE
  5
F34
102
{ACAD_REACTORS
330
11E5
102
}
330
1F
100
AcDbEntity
  8
実線
100
AcDbLine
 10
196.6740271008357
 20
404.9452635904946
 30
0.0
 11
186.6740271008357
 21
414.9452635904947
 31
0.0
  0
LINE
  5
F35
102
{ACAD_REACTORS
330
11E5
102
}
330
1F
100
AcDbEntity
  8
実線
100
AcDbLine
 10
196.6740271008357
 20
346.9452635904949
 30
0.0
 11
66.6740271008357
 21
346.9452635904949
 31
0.0
  0
LINE
  5
F36
102
{ACAD_REACTORS
330
11E5
102
}
330
1F
100
AcDbEntity
  8
実線
100
AcDbLine
 10
196.6740271008357
 20
404.9452635904946
 30
0.0
 11
66.6740271008357
 21
404.9452635904946
 31
0.0
  0
LINE
  5
F37
102
{ACAD_REACTORS
330
11E5
102
}
330
1F
100
AcDbEntity
  8
実線
100
AcDbLine
 10
66.6740271008357
 20
404.9452635904946
 30
0.0
 11
66.6740271008357
 21
346.9452635904948
 31
0.0
  0
LINE
  5
F38
102
{ACAD_REACTORS
330
11E5
102
}
330
1F
100
AcDbEntity
  8
実線
100
AcDbLine
 10
196.6740271008357
 20
346.9452635904949
 30
0.0
 11
196.6740271008357
 21
404.9452635904948
 31
0.0
  0
LINE
  5
F39
102
{ACAD_REACTORS
330
11E5
102
}
330
1F
100
AcDbEntity
  8
実線
100
AcDbLine
 10
186.6740271008348
 20
834.4452635904948
 30
0.0
 11
186.6740271008348
 21
1051.945263590495
 31
0.0
  0
LINE
  5
F3A
102
{ACAD_REACTORS
330
11E5
102
}
330
1F
100
AcDbEntity
  8
実線
100
AcDbLine
 10
76.67402710083479
 20
1051.945263590495
 30
0.0
 11
76.67402710083479
 21
834.4452635904948
 31
0.0
  0
LINE
  5
F3B
102
{ACAD_REACTORS
330
11E5
102
}
330
1F
100
AcDbEntity
  8
実線
100
AcDbLine
 10
66.67402710083479
 20
1119.945263590495
 30
0.0
 11
196.6740271008348
 21
1119.945263590495
 31
0.0
  0
LINE
  5
F3C
102
{ACAD_REACTORS
330
11E5
102
}
330
1F
100
AcDbEntity
  8
実線
100
AcDbLine
 10
196.6740271008348
 20
1061.945263590495
 30
0.0
 11
196.6740271008348
 21
1119.945263590495
 31
0.0
  0
LINE
  5
F3D
102
{ACAD_REACTORS
330
11E5
102
}
330
1F
100
AcDbEntity
  8
実線
100
AcDbLine
 10
66.67402710083479
 20
1119.945263590495
 30
0.0
 11
66.67402710083479
 21
1061.945263590495
 31
0.0
  0
LINE
  5
F3E
102
{ACAD_REACTORS
330
11E5
102
}
330
1F
100
AcDbEntity
  8
実線
100
AcDbLine
 10
76.67402710083479
 20
1051.945263590495
 30
0.0
 11
186.6740271008348
 21
1051.945263590495
 31
0.0
  0
LINE
  5
F3F
102
{ACAD_REACTORS
330
11E5
102
}
330
1F
100
AcDbEntity
  8
実線
100
AcDbLine
 10
66.67402710083479
 20
1061.945263590495
 30
0.0
 11
196.6740271008348
 21
1061.945263590495
 31
0.0
  0
LINE
  5
F40
102
{ACAD_REACTORS
330
11E5
102
}
330
1F
100
AcDbEntity
  8
実線
100
AcDbLine
 10
186.6740271008348
 20
1051.945263590495
 30
0.0
 11
196.6740271008348
 21
1061.945263590495
 31
0.0
  0
LINE
  5
F41
102
{ACAD_REACTORS
330
11E5
102
}
330
1F
100
AcDbEntity
  8
実線
100
AcDbLine
 10
66.67402710083479
 20
1061.945263590495
 30
0.0
 11
76.67402710083479
 21
1051.945263590495
 31
0.0
  0
LINE
  5
F42
102
{ACAD_REACTORS
330
11E5
102
}
330
1F
100
AcDbEntity
  8
実線
100
AcDbLine
 10
99.02997155346703
 20
763.1437484003298
 30
0.0
 11
92.07604735438872
 21
763.1437484003298
 31
0.0
  0
LINE
  5
F43
102
{ACAD_REACTORS
330
11E5
102
}
330
1F
100
AcDbEntity
  8
実線
100
AcDbLine
 10
113.0760473543887
 20
733.4452635904948
 30
0.0
 11
92.07604735438872
 21
763.1437484003298
 31
0.0
  0
LINE
  5
F44
102
{ACAD_REACTORS
330
11E5
102
}
330
1F
100
AcDbEntity
  8
実線
100
AcDbLine
 10
92.07604735438872
 20
763.1437484003298
 30
0.0
 11
71.07604735438872
 21
733.4452635904948
 31
0.0
  0
LINE
  5
F45
102
{ACAD_REACTORS
330
11E5
102
}
330
1F
100
AcDbEntity
  8
実線
100
AcDbLine
 10
92.07604735438872
 20
703.7467787806598
 30
0.0
 11
71.07604735438872
 21
733.4452635904948
 31
0.0
  0
LINE
  5
F46
102
{ACAD_REACTORS
330
11E5
102
}
330
1F
100
AcDbEntity
  8
実線
100
AcDbLine
 10
113.0760473543887
 20
733.4452635904948
 30
0.0
 11
139.2789964147669
 21
733.4452635904948
 31
0.0
  0
LINE
  5
F47
102
{ACAD_REACTORS
330
11E5
102
}
330
1F
100
AcDbEntity
  8
実線
100
AcDbLine
 10
102.3500310535833
 20
718.2763858676611
 30
0.0
 11
113.0760473543887
 21
733.4452635904948
 31
0.0
  0
LINE
  5
F48
102
{ACAD_REACTORS
330
11E5
102
}
330
1F
100
AcDbEntity
  8
実線
100
AcDbLine
 10
92.07604735438872
 20
703.7467787806598
 30
0.0
 11
98.01695063541821
 21
712.1484847734385
 31
0.0
  0
LINE
  5
F49
102
{ACAD_REACTORS
330
11E5
102
}
330
1F
100
AcDbEntity
  8
実線
100
AcDbLine
 10
94.45991996931025
 20
703.7467787806598
 30
0.0
 11
92.07604735438872
 21
703.7467787806598
 31
0.0
  0
CIRCLE
  5
F4A
102
{ACAD_REACTORS
330
11E5
102
}
330
1F
100
AcDbEntity
  8
実線
100
AcDbCircle
 10
131.6740271008352
 20
692.9452635904948
 30
0.0
 40
38.75
  0
LINE
  5
F4B
102
{ACAD_REACTORS
330
11E5
102
}
330
1F
100
AcDbEntity
  8
実線
100
AcDbLine
 10
53.27402710083515
 20
742.1952635904948
 30
0.0
 11
77.26323168977069
 21
742.1952635904948
 31
0.0
  0
LINE
  5
F4C
102
{ACAD_REACTORS
330
11E5
102
}
330
1F
100
AcDbEntity
  8
実線
100
AcDbLine
 10
70.89433792299633
 20
805.6952635904949
 30
0.0
 11
53.27402710083515
 21
805.6952635904949
 31
0.0
  0
LINE
  5
F4D
102
{ACAD_REACTORS
330
11E5
102
}
330
1F
100
AcDbEntity
  8
実線
100
AcDbLine
 10
53.27402710083515
 20
805.6952635904949
 30
0.0
 11
50.17402710083525
 21
812.6952635904949
 31
0.0
  0
LINE
  5
F4E
102
{ACAD_REACTORS
330
11E5
102
}
330
1F
100
AcDbEntity
  8
実線
100
AcDbLine
 10
50.17402710083525
 20
735.1952635904948
 30
0.0
 11
53.27402710083515
 21
742.1952635904948
 31
0.0
  0
LINE
  5
F4F
102
{ACAD_REACTORS
330
11E5
102
}
330
1F
100
AcDbEntity
  8
実線
100
AcDbLine
 10
53.27402710083515
 20
805.6952635904949
 30
0.0
 11
53.27402710083515
 21
742.1952635904948
 31
0.0
  0
LINE
  5
F50
102
{ACAD_REACTORS
330
11E5
102
}
330
1F
100
AcDbEntity
  8
実線
100
AcDbLine
 10
46.67402710083524
 20
735.1952635904948
 30
0.0
 11
50.17402710083525
 21
735.1952635904948
 31
0.0
  0
LINE
  5
F51
102
{ACAD_REACTORS
330
11E5
102
}
330
1F
100
AcDbEntity
  8
実線
100
AcDbLine
 10
50.17402710083525
 20
812.6952635904949
 30
0.0
 11
46.67402710083524
 21
812.6952635904949
 31
0.0
  0
LINE
  5
F52
102
{ACAD_REACTORS
330
11E5
102
}
330
1F
100
AcDbEntity
  8
実線
100
AcDbLine
 10
46.67402710083524
 20
735.1952635904948
 30
0.0
 11
46.67402710083524
 21
812.6952635904949
 31
0.0
  0
LINE
  5
F53
102
{ACAD_REACTORS
330
11E5
102
}
330
1F
100
AcDbEntity
  8
実線
100
AcDbLine
 10
50.17402710083525
 20
735.1952635904948
 30
0.0
 11
50.17402710083525
 21
812.6952635904949
 31
0.0
  0
LINE
  5
F54
102
{ACAD_REACTORS
330
11E5
102
}
330
1F
100
AcDbEntity
  8
実線
100
AcDbLine
 10
210.0740271008354
 20
805.6952635904949
 30
0.0
 11
192.4537162786741
 21
805.6952635904949
 31
0.0
  0
LINE
  5
F55
102
{ACAD_REACTORS
330
11E5
102
}
330
1F
100
AcDbEntity
  8
実線
100
AcDbLine
 10
192.1848566699918
 20
742.1952635904948
 30
0.0
 11
210.0740271008354
 21
742.1952635904948
 31
0.0
  0
LINE
  5
F56
102
{ACAD_REACTORS
330
11E5
102
}
330
1F
100
AcDbEntity
  8
実線
100
AcDbLine
 10
216.6740271008352
 20
735.1952635904948
 30
0.0
 11
216.6740271008352
 21
812.6952635904949
 31
0.0
  0
LINE
  5
F57
102
{ACAD_REACTORS
330
11E5
102
}
330
1F
100
AcDbEntity
  8
実線
100
AcDbLine
 10
216.6740271008352
 20
812.6952635904949
 30
0.0
 11
213.1740271008352
 21
812.6952635904949
 31
0.0
  0
LINE
  5
F58
102
{ACAD_REACTORS
330
11E5
102
}
330
1F
100
AcDbEntity
  8
実線
100
AcDbLine
 10
213.1740271008352
 20
735.1952635904948
 30
0.0
 11
216.6740271008352
 21
735.1952635904948
 31
0.0
  0
LINE
  5
F59
102
{ACAD_REACTORS
330
11E5
102
}
330
1F
100
AcDbEntity
  8
実線
100
AcDbLine
 10
213.1740271008352
 20
735.1952635904948
 30
0.0
 11
213.1740271008352
 21
812.6952635904949
 31
0.0
  0
LINE
  5
F5A
102
{ACAD_REACTORS
330
11E5
102
}
330
1F
100
AcDbEntity
  8
実線
100
AcDbLine
 10
210.0740271008354
 20
742.1952635904948
 30
0.0
 11
210.0740271008354
 21
805.6952635904949
 31
0.0
  0
LINE
  5
F5B
102
{ACAD_REACTORS
330
11E5
102
}
330
1F
100
AcDbEntity
  8
実線
100
AcDbLine
 10
210.0740271008354
 20
742.1952635904948
 30
0.0
 11
213.1740271008352
 21
735.1952635904948
 31
0.0
  0
LINE
  5
F5C
102
{ACAD_REACTORS
330
11E5
102
}
330
1F
100
AcDbEntity
  8
実線
100
AcDbLine
 10
213.1740271008352
 20
812.6952635904949
 30
0.0
 11
210.0740271008354
 21
805.6952635904949
 31
0.0
  0
ELLIPSE
  5
F5D
102
{ACAD_REACTORS
330
11E5
102
}
330
1F
100
AcDbEntity
  8
実線
100
AcDbEllipse
 10
171.2720068472817
 20
733.4452635904948
 30
0.0
 11
0.0
 21
12.5
 31
0.0
210
0.0
220
0.0
230
1.0
 40
0.7071067811865475
 41
0.0
 42
1.570796326794897
  0
LINE
  5
F5E
102
{ACAD_REACTORS
330
11E5
102
}
330
1F
100
AcDbEntity
  8
実線
100
AcDbLine
 10
158.4613841933146
 20
720.9452635904948
 30
0.0
 11
171.2720068472817
 21
720.9452635904948
 31
0.0
  0
LINE
  5
F5F
102
{ACAD_REACTORS
330
11E5
102
}
330
1F
100
AcDbEntity
  8
実線
100
AcDbLine
 10
171.2720068472817
 20
745.9452635904948
 30
0.0
 11
157.2968306260199
 21
745.9452635904948
 31
0.0
  0
ELLIPSE
  5
F60
102
{ACAD_REACTORS
330
11E5
102
}
330
1F
100
AcDbEntity
  8
実線
100
AcDbEllipse
 10
171.2720068472817
 20
733.4452635904948
 30
0.0
 11
0.0
 21
12.5
 31
0.0
210
0.0
220
0.0
230
1.0
 40
0.7071067811865475
 41
3.141592653589792
 42
3.242534414249328
  0
ELLIPSE
  5
F61
102
{ACAD_REACTORS
330
11E5
102
}
330
1F
100
AcDbEntity
  8
実線
100
AcDbEllipse
 10
171.2720068472817
 20
733.4452635904948
 30
0.0
 11
0.0
 21
12.5
 31
0.0
210
0.0
220
0.0
230
1.0
 40
0.7071067811865475
 41
6.182243546520003
 42
6.283185307179585
  0
ELLIPSE
  5
F62
102
{ACAD_REACTORS
330
11E5
102
}
330
1F
100
AcDbEntity
  8
実線
100
AcDbEllipse
 10
171.2720068472817
 20
733.4452635904948
 30
0.0
 11
0.0
 21
12.5
 31
0.0
210
0.0
220
0.0
230
1.0
 40
0.7071067811865475
 41
1.570796326794897
 42
3.141592653589792
  0
LINE
  5
F63
102
{ACAD_REACTORS
330
11E5
102
}
330
1F
100
AcDbEntity
  8
実線
100
AcDbLine
 10
151.6602160438319
 20
744.1952635904948
 30
0.0
 11
124.0749076889146
 21
744.1952635904948
 31
0.0
  0
LINE
  5
F64
102
{ACAD_REACTORS
330
11E5
102
}
330
1F
100
AcDbEntity
  8
実線
100
AcDbLine
 10
192.4537162786737
 20
667.4452635904948
 30
0.0
 11
160.8512870818549
 21
667.4452635904948
 31
0.0
  0
LINE
  5
F65
102
{ACAD_REACTORS
330
11E5
102
}
330
1F
100
AcDbEntity
  8
実線
100
AcDbLine
 10
192.4537162786737
 20
652.4452635904948
 30
0.0
 11
192.4537162786737
 21
667.4452635904948
 31
0.0
  0
LINE
  5
F66
102
{ACAD_REACTORS
330
11E5
102
}
330
1F
100
AcDbEntity
  8
実線
100
AcDbLine
 10
70.89433792299633
 20
667.4452635904948
 30
0.0
 11
70.89433792299633
 21
652.4452635904948
 31
0.0
  0
LINE
  5
F67
102
{ACAD_REACTORS
330
11E5
102
}
330
1F
100
AcDbEntity
  8
実線
100
AcDbLine
 10
70.89433792299633
 20
667.4452635904948
 30
0.0
 11
102.4967671198155
 21
667.4452635904948
 31
0.0
  0
LINE
  5
F68
102
{ACAD_REACTORS
330
11E5
102
}
330
1F
100
AcDbEntity
  8
実線
100
AcDbLine
 10
158.4839992507764
 20
664.9669167251174
 30
0.0
 11
158.4839992507764
 21
652.4452635904948
 31
0.0
  0
LINE
  5
F69
102
{ACAD_REACTORS
330
11E5
102
}
330
1F
100
AcDbEntity
  8
実線
100
AcDbLine
 10
104.8640549508941
 20
664.9669167251174
 30
0.0
 11
104.8640549508941
 21
652.4452635904948
 31
0.0
  0
LINE
  5
F6A
102
{ACAD_REACTORS
330
11E5
102
}
330
1F
100
AcDbEntity
  8
実線
100
AcDbLine
 10
223.9161067065556
 20
751.4452635904945
 30
0.0
 11
216.6740271008352
 21
751.4452635904945
 31
0.0
  0
LINE
  5
F6B
102
{ACAD_REACTORS
330
11E5
102
}
330
1F
100
AcDbEntity
  8
実線
100
AcDbLine
 10
223.9161067065556
 20
748.4452635904946
 30
0.0
 11
223.9161067065556
 21
751.4452635904945
 31
0.0
  0
LINE
  5
F6C
102
{ACAD_REACTORS
330
11E5
102
}
330
1F
100
AcDbEntity
  8
実線
100
AcDbLine
 10
218.329963135182
 20
748.4452635904946
 30
0.0
 11
218.329963135182
 21
751.4452635904945
 31
0.0
  0
LINE
  5
F6D
102
{ACAD_REACTORS
330
11E5
102
}
330
1F
100
AcDbEntity
  8
実線
100
AcDbLine
 10
180.2516648075093
 20
716.4459328534848
 30
0.0
 11
174.8875855433607
 21
708.8599792084818
 31
0.0
  0
LINE
  5
F6E
102
{ACAD_REACTORS
330
11E5
102
}
330
1F
100
AcDbEntity
  8
実線
100
AcDbLine
 10
177.8396931867846
 20
703.7467787806598
 30
0.0
 11
199.9098314853372
 21
703.7467787806598
 31
0.0
  0
LINE
  5
F6F
102
{ACAD_REACTORS
330
11E5
102
}
330
1F
100
AcDbEntity
  8
実線
100
AcDbLine
 10
199.9098314853372
 20
703.7467787806598
 30
0.0
 11
220.9098314853372
 21
733.4452635904948
 31
0.0
  0
LINE
  5
F70
102
{ACAD_REACTORS
330
11E5
102
}
330
1F
100
AcDbEntity
  8
実線
100
AcDbLine
 10
193.8994238452514
 20
733.4452635904948
 30
0.0
 11
220.9098314853372
 21
733.4452635904948
 31
0.0
  0
LINE
  5
F71
102
{ACAD_REACTORS
330
11E5
102
}
330
1F
100
AcDbEntity
  8
実線
100
AcDbLine
 10
220.9098314853372
 20
733.4452635904948
 30
0.0
 11
216.6740271008352
 21
739.4355955986169
 31
0.0
  0
LINE
  5
F72
102
{ACAD_REACTORS
330
11E5
102
}
330
1F
100
AcDbEntity
  8
実線
100
AcDbLine
 10
219.829963135182
 20
751.4452635904945
 30
0.0
 11
219.829963135182
 21
757.9452635904946
 31
0.0
  0
LINE
  5
F73
102
{ACAD_REACTORS
330
11E5
102
}
330
1F
100
AcDbEntity
  8
実線
100
AcDbLine
 10
216.829963135182
 20
757.9452635904946
 30
0.0
 11
216.829963135182
 21
751.4452635904945
 31
0.0
  0
LINE
  5
F74
102
{ACAD_REACTORS
330
11E5
102
}
330
1F
100
AcDbEntity
  8
実線
100
AcDbLine
 10
219.829963135182
 20
757.9452635904946
 30
0.0
 11
216.829963135182
 21
757.9452635904946
 31
0.0
  0
LINE
  5
F75
102
{ACAD_REACTORS
330
11E5
102
}
330
1F
100
AcDbEntity
  8
実線
100
AcDbLine
 10
120.6740271008357
 20
341.9452635904948
 30
0.0
 11
120.6740271008357
 21
318.7452635904949
 31
0.0
  0
LINE
  5
F76
102
{ACAD_REACTORS
330
11E5
102
}
330
1F
100
AcDbEntity
  8
実線
100
AcDbLine
 10
142.6740271008357
 20
318.7452635904949
 30
0.0
 11
142.6740271008357
 21
341.9452635904948
 31
0.0
  0
LINE
  5
F77
102
{ACAD_REACTORS
330
11E5
102
}
330
1F
100
AcDbEntity
  8
実線
100
AcDbLine
 10
88.46046865830976
 20
708.8599792084818
 30
0.0
 11
83.77468070025997
 21
700.7439563916453
 31
0.0
  0
LINE
  5
F78
102
{ACAD_REACTORS
330
11E5
102
}
330
1F
100
AcDbEntity
  8
実線
100
AcDbLine
 10
179.5733735014105
 20
700.7439563916451
 30
0.0
 11
167.9101433521723
 21
720.9452635904948
 31
0.0
  0
ARC
  5
F79
102
{ACAD_REACTORS
330
11E5
102
}
330
1F
100
AcDbEntity
  8
実線
100
AcDbCircle
 10
129.6740271008352
 20
674.2439563916451
 30
0.0
 40
53.0
100
AcDbArc
 50
150.0000000000041
 51
180.0
  0
ARC
  5
F7A
102
{ACAD_REACTORS
330
11E5
102
}
330
1F
100
AcDbEntity
  8
実線
100
AcDbCircle
 10
133.6740271008352
 20
674.2439563916451
 30
0.0
 40
53.0
100
AcDbArc
 50
0.0
 51
29.99999999999588
  0
LINE
  5
F7B
102
{ACAD_REACTORS
330
11E5
102
}
330
1F
100
AcDbEntity
  8
実線
100
AcDbLine
 10
76.67402710083525
 20
674.2439563916451
 30
0.0
 11
76.67402710083525
 21
667.4452635904946
 31
0.0
  0
LINE
  5
F7C
102
{ACAD_REACTORS
330
11E5
102
}
330
1F
100
AcDbEntity
  8
実線
100
AcDbLine
 10
186.6740271008352
 20
667.4452635904948
 30
0.0
 11
186.6740271008352
 21
674.2439563916454
 31
0.0
  0
LINE
  5
F7D
102
{ACAD_REACTORS
330
11E5
102
}
330
1F
100
AcDbEntity
  8
実線
100
AcDbLine
 10
154.1740271008348
 20
1126.145263590495
 30
0.0
 11
146.1740271008348
 21
1126.145263590495
 31
0.0
  0
LINE
  5
F7E
102
{ACAD_REACTORS
330
11E5
102
}
330
1F
100
AcDbEntity
  8
実線
100
AcDbLine
 10
146.1740271008348
 20
1124.945263590495
 30
0.0
 11
146.1740271008348
 21
1126.145263590495
 31
0.0
  0
LINE
  5
F7F
102
{ACAD_REACTORS
330
11E5
102
}
330
1F
100
AcDbEntity
  8
実線
100
AcDbLine
 10
155.3740271008346
 20
1164.945263590495
 30
0.0
 11
154.1740271008348
 21
1164.945263590495
 31
0.0
  0
LINE
  5
F80
102
{ACAD_REACTORS
330
11E5
102
}
330
1F
100
AcDbEntity
  8
実線
100
AcDbLine
 10
154.1740271008348
 20
1164.945263590495
 30
0.0
 11
154.1740271008348
 21
1124.945263590495
 31
0.0
  0
LINE
  5
F81
102
{ACAD_REACTORS
330
11E5
102
}
330
1F
100
AcDbEntity
  8
実線
100
AcDbLine
 10
175.1740271008348
 20
1124.945263590495
 30
0.0
 11
175.1740271008348
 21
1126.145263590495
 31
0.0
  0
LINE
  5
F82
102
{ACAD_REACTORS
330
11E5
102
}
330
1F
100
AcDbEntity
  8
実線
100
AcDbLine
 10
175.1740271008348
 20
1126.145263590495
 30
0.0
 11
155.3740271008346
 21
1126.145263590495
 31
0.0
  0
LINE
  5
F83
102
{ACAD_REACTORS
330
11E5
102
}
330
1F
100
AcDbEntity
  8
実線
100
AcDbLine
 10
155.3740271008346
 20
1126.145263590495
 30
0.0
 11
155.3740271008346
 21
1164.945263590495
 31
0.0
  0
LINE
  5
F84
102
{ACAD_REACTORS
330
11E5
102
}
330
1F
100
AcDbEntity
  8
実線
100
AcDbLine
 10
186.6740271008348
 20
834.4452635904948
 30
0.0
 11
76.67402710083479
 21
834.4452635904948
 31
0.0
  0
LINE
  5
F85
102
{ACAD_REACTORS
330
11E5
102
}
330
1F
100
AcDbEntity
  8
実線
100
AcDbLine
 10
186.6740271008348
 20
831.4452635904949
 30
0.0
 11
186.6740271008348
 21
834.4452635904948
 31
0.0
  0
LINE
  5
F86
102
{ACAD_REACTORS
330
11E5
102
}
330
1F
100
AcDbEntity
  8
実線
100
AcDbLine
 10
76.67402710083479
 20
834.4452635904948
 30
0.0
 11
76.67402710083479
 21
831.4452635904949
 31
0.0
  0
LINE
  5
F87
102
{ACAD_REACTORS
330
11E5
102
}
330
1F
100
AcDbEntity
  8
実線
100
AcDbLine
 10
192.4537162786737
 20
814.4452635904949
 30
0.0
 11
192.4537162786737
 21
831.4452635904949
 31
0.0
  0
LINE
  5
F88
102
{ACAD_REACTORS
330
11E5
102
}
330
1F
100
AcDbEntity
  8
実線
100
AcDbLine
 10
192.4537162786737
 20
831.4452635904949
 30
0.0
 11
158.4839992507759
 21
831.4452635904949
 31
0.0
  0
LINE
  5
F89
102
{ACAD_REACTORS
330
11E5
102
}
330
1F
100
AcDbEntity
  8
実線
100
AcDbLine
 10
70.89433792299587
 20
831.4452635904949
 30
0.0
 11
104.8640549508936
 21
831.4452635904949
 31
0.0
  0
LINE
  5
F8A
102
{ACAD_REACTORS
330
11E5
102
}
330
1F
100
AcDbEntity
  8
実線
100
AcDbLine
 10
70.89433792299587
 20
831.4452635904949
 30
0.0
 11
70.89433792299587
 21
814.4452635904949
 31
0.0
  0
LINE
  5
F8B
102
{ACAD_REACTORS
330
11E5
102
}
330
1F
100
AcDbEntity
  8
実線
100
AcDbLine
 10
158.4839992507759
 20
814.4452635904949
 30
0.0
 11
158.4839992507759
 21
831.4452635904949
 31
0.0
  0
LINE
  5
F8C
102
{ACAD_REACTORS
330
11E5
102
}
330
1F
100
AcDbEntity
  8
実線
100
AcDbLine
 10
104.8640549508936
 20
814.4452635904949
 30
0.0
 11
104.8640549508936
 21
831.4452635904949
 31
0.0
  0
LINE
  5
F8D
102
{ACAD_REACTORS
330
11E5
102
}
330
1F
100
AcDbEntity
  8
実線
100
AcDbLine
 10
191.6740271004282
 20
341.9452635904948
 30
0.0
 11
71.6740271008357
 21
341.9452635904948
 31
0.0
  0
ARC
  5
F8E
102
{ACAD_REACTORS
330
11E5
102
}
330
1F
100
AcDbEntity
  8
実線
100
AcDbCircle
 10
71.6740271008357
 20
346.9452635904949
 30
0.0
 40
5.0
100
AcDbArc
 50
180.0
 51
270.0
  0
ARC
  5
F8F
102
{ACAD_REACTORS
330
11E5
102
}
330
1F
100
AcDbEntity
  8
実線
100
AcDbCircle
 10
191.6740271008357
 20
346.9452635904949
 30
0.0
 40
5.0
100
AcDbArc
 50
270.0
 51
0.0
  0
LINE
  5
F90
102
{ACAD_REACTORS
330
11E5
102
}
330
1F
100
AcDbEntity
  8
実線
100
AcDbLine
 10
124.6740271008357
 20
307.9952635904949
 30
0.0
 11
124.6740271008357
 21
301.945263590495
 31
0.0
  0
LINE
  5
F91
102
{ACAD_REACTORS
330
11E5
102
}
330
1F
100
AcDbEntity
  8
実線
100
AcDbLine
 10
124.6740271008357
 20
301.9452635904948
 30
0.0
 11
151.6740271008357
 21
301.9452635904948
 31
0.0
  0
LINE
  5
F92
102
{ACAD_REACTORS
330
11E5
102
}
330
1F
100
AcDbEntity
  8
実線
100
AcDbLine
 10
151.6740271008357
 20
310.445263590495
 30
0.0
 11
151.6740271008357
 21
301.9452635904948
 31
0.0
  0
LINE
  5
F93
102
{ACAD_REACTORS
330
11E5
102
}
330
1F
100
AcDbEntity
  8
実線
100
AcDbLine
 10
151.6740271008357
 20
330.4452635904949
 30
0.0
 11
151.6740271008357
 21
313.4452635904949
 31
0.0
  0
LINE
  5
F94
102
{ACAD_REACTORS
330
11E5
102
}
330
1F
100
AcDbEntity
  8
実線
100
AcDbLine
 10
151.6740271008357
 20
340.7452635904949
 30
0.0
 11
151.6740271008357
 21
333.4452635904949
 31
0.0
  0
LINE
  5
F95
102
{ACAD_REACTORS
330
11E5
102
}
330
1F
100
AcDbEntity
  8
実線
100
AcDbLine
 10
145.6740271008357
 20
341.9452635904948
 30
0.0
 11
145.6740271008357
 21
340.7452635904949
 31
0.0
  0
LINE
  5
F96
102
{ACAD_REACTORS
330
11E5
102
}
330
1F
100
AcDbEntity
  8
実線
100
AcDbLine
 10
145.6740271008357
 20
340.7452635904949
 30
0.0
 11
166.6740271008357
 21
340.7452635904949
 31
0.0
  0
LINE
  5
F97
102
{ACAD_REACTORS
330
11E5
102
}
330
1F
100
AcDbEntity
  8
実線
100
AcDbLine
 10
166.6740271008357
 20
341.9452635904948
 30
0.0
 11
166.6740271008357
 21
340.7452635904949
 31
0.0
  0
LINE
  5
F98
102
{ACAD_REACTORS
330
11E5
102
}
330
1F
100
AcDbEntity
  8
実線
100
AcDbLine
 10
191.6740271008348
 20
1124.945263590495
 30
0.0
 11
71.67402710083479
 21
1124.945263590495
 31
0.0
  0
ARC
  5
F99
102
{ACAD_REACTORS
330
11E5
102
}
330
1F
100
AcDbEntity
  8
実線
100
AcDbCircle
 10
191.6740271008348
 20
1119.945263590495
 30
0.0
 40
5.0
100
AcDbArc
 50
0.0
 51
90.0
  0
ARC
  5
F9A
102
{ACAD_REACTORS
330
11E5
102
}
330
1F
100
AcDbEntity
  8
実線
100
AcDbCircle
 10
71.67402710083479
 20
1119.945263590495
 30
0.0
 40
5.0
100
AcDbArc
 50
90.0
 51
180.0
  0
LINE
  5
F9B
102
{ACAD_REACTORS
330
11E5
102
}
330
1F
100
AcDbEntity
  8
実線
100
AcDbLine
 10
192.4537162786746
 20
652.4452635904948
 30
0.0
 11
70.89433792299678
 21
652.4452635904948
 31
0.0
  0
LINE
  5
F9C
102
{ACAD_REACTORS
330
11E5
102
}
330
1F
100
AcDbEntity
  8
実線
100
AcDbLine
 10
76.6740271008357
 20
632.4452635904948
 30
0.0
 11
186.6740271008357
 21
632.4452635904948
 31
0.0
  0
LINE
  5
F9D
102
{ACAD_REACTORS
330
11E5
102
}
330
1F
100
AcDbEntity
  8
実線
100
AcDbLine
 10
76.6740271008357
 20
635.4452635904948
 30
0.0
 11
76.6740271008357
 21
632.4452635904948
 31
0.0
  0
LINE
  5
F9E
102
{ACAD_REACTORS
330
11E5
102
}
330
1F
100
AcDbEntity
  8
実線
100
AcDbLine
 10
186.6740271008357
 20
632.4452635904948
 30
0.0
 11
186.6740271008357
 21
635.4452635904948
 31
0.0
  0
LINE
  5
F9F
102
{ACAD_REACTORS
330
11E5
102
}
330
1F
100
AcDbEntity
  8
実線
100
AcDbLine
 10
70.89433792299678
 20
652.4452635904948
 30
0.0
 11
70.89433792299678
 21
635.4452635904948
 31
0.0
  0
LINE
  5
FA0
102
{ACAD_REACTORS
330
11E5
102
}
330
1F
100
AcDbEntity
  8
実線
100
AcDbLine
 10
70.89433792299678
 20
635.4452635904948
 30
0.0
 11
104.8640549508945
 21
635.4452635904948
 31
0.0
  0
LINE
  5
FA1
102
{ACAD_REACTORS
330
11E5
102
}
330
1F
100
AcDbEntity
  8
実線
100
AcDbLine
 10
192.4537162786746
 20
635.4452635904948
 30
0.0
 11
158.4839992507768
 21
635.4452635904948
 31
0.0
  0
LINE
  5
FA2
102
{ACAD_REACTORS
330
11E5
102
}
330
1F
100
AcDbEntity
  8
実線
100
AcDbLine
 10
192.4537162786746
 20
635.4452635904948
 30
0.0
 11
192.4537162786746
 21
652.4452635904948
 31
0.0
  0
LINE
  5
FA3
102
{ACAD_REACTORS
330
11E5
102
}
330
1F
100
AcDbEntity
  8
実線
100
AcDbLine
 10
104.8640549508945
 20
652.4452635904948
 30
0.0
 11
104.8640549508945
 21
635.4452635904948
 31
0.0
  0
LINE
  5
FA4
102
{ACAD_REACTORS
330
11E5
102
}
330
1F
100
AcDbEntity
  8
実線
100
AcDbLine
 10
158.4839992507768
 20
652.4452635904948
 30
0.0
 11
158.4839992507768
 21
635.4452635904948
 31
0.0
  0
LINE
  5
FA5
102
{ACAD_REACTORS
330
11E3
102
}
330
1F
100
AcDbEntity
  8
実線
100
AcDbLine
 10
738.6740271008243
 20
308.7452635904949
 30
0.0
 11
745.6740271008243
 21
308.7452635904949
 31
0.0
  0
LINE
  5
FA6
102
{ACAD_REACTORS
330
11E3
102
}
330
1F
100
AcDbEntity
  8
実線
100
AcDbLine
 10
745.6740271008243
 20
318.7452635904949
 30
0.0
 11
738.6740271008243
 21
318.7452635904949
 31
0.0
  0
LINE
  5
FA7
102
{ACAD_REACTORS
330
11E3
102
}
330
1F
100
AcDbEntity
  8
実線
100
AcDbLine
 10
745.6740271008243
 20
308.7452635904949
 30
0.0
 11
745.6740271008243
 21
318.7452635904949
 31
0.0
  0
LINE
  5
FA8
102
{ACAD_REACTORS
330
11E3
102
}
330
1F
100
AcDbEntity
  8
実線
100
AcDbLine
 10
711.6740271008243
 20
313.4452635904947
 30
0.0
 11
707.1740271008243
 21
313.4452635904947
 31
0.0
  0
LINE
  5
FA9
102
{ACAD_REACTORS
330
11E3
102
}
330
1F
100
AcDbEntity
  8
実線
100
AcDbLine
 10
707.1740271008243
 20
310.445263590495
 30
0.0
 11
711.6740271008243
 21
310.445263590495
 31
0.0
  0
LINE
  5
FAA
102
{ACAD_REACTORS
330
11E3
102
}
330
1F
100
AcDbEntity
  8
実線
100
AcDbLine
 10
707.1740271008243
 20
313.4452635904949
 30
0.0
 11
707.1740271008243
 21
310.445263590495
 31
0.0
  0
LINE
  5
FAB
102
{ACAD_REACTORS
330
11E3
102
}
330
1F
100
AcDbEntity
  8
実線
100
AcDbLine
 10
711.6740271008243
 20
333.4452635904948
 30
0.0
 11
707.1740271008243
 21
333.4452635904948
 31
0.0
  0
LINE
  5
FAC
102
{ACAD_REACTORS
330
11E3
102
}
330
1F
100
AcDbEntity
  8
実線
100
AcDbLine
 10
707.1740271008243
 20
330.4452635904949
 30
0.0
 11
711.6740271008243
 21
330.4452635904949
 31
0.0
  0
LINE
  5
FAD
102
{ACAD_REACTORS
330
11E3
102
}
330
1F
100
AcDbEntity
  8
実線
100
AcDbLine
 10
707.1740271008243
 20
333.4452635904948
 30
0.0
 11
707.1740271008243
 21
330.4452635904949
 31
0.0
  0
LINE
  5
FAE
102
{ACAD_REACTORS
330
11E3
102
}
330
1F
100
AcDbEntity
  8
実線
100
AcDbLine
 10
717.0740271008253
 20
1158.895263590494
 30
0.0
 11
717.0740271008253
 21
1150.995263590494
 31
0.0
  0
LINE
  5
FAF
102
{ACAD_REACTORS
330
11E3
102
}
330
1F
100
AcDbEntity
  8
実線
100
AcDbLine
 10
709.1740271008252
 20
1158.895263590494
 30
0.0
 11
717.0740271008253
 21
1158.895263590494
 31
0.0
  0
LINE
  5
FB0
102
{ACAD_REACTORS
330
11E3
102
}
330
1F
100
AcDbEntity
  8
実線
100
AcDbLine
 10
717.0740271008253
 20
1150.995263590494
 30
0.0
 11
709.1740271008252
 21
1150.995263590494
 31
0.0
  0
LINE
  5
FB1
102
{ACAD_REACTORS
330
11E3
102
}
330
1F
100
AcDbEntity
  8
実線
100
AcDbLine
 10
709.1740271008252
 20
1138.895263590494
 30
0.0
 11
717.0740271008253
 21
1138.895263590494
 31
0.0
  0
LINE
  5
FB2
102
{ACAD_REACTORS
330
11E3
102
}
330
1F
100
AcDbEntity
  8
実線
100
AcDbLine
 10
717.0740271008253
 20
1130.995263590494
 30
0.0
 11
709.1740271008252
 21
1130.995263590494
 31
0.0
  0
LINE
  5
FB3
102
{ACAD_REACTORS
330
11E3
102
}
330
1F
100
AcDbEntity
  8
実線
100
AcDbLine
 10
717.0740271008253
 20
1138.895263590494
 30
0.0
 11
717.0740271008253
 21
1130.995263590494
 31
0.0
  0
CIRCLE
  5
FB4
102
{ACAD_REACTORS
330
11E3
102
}
330
1F
100
AcDbEntity
  8
実線
100
AcDbCircle
 10
713.124027100825
 20
1134.945263590495
 30
0.0
 40
1.5
  0
CIRCLE
  5
FB5
102
{ACAD_REACTORS
330
11E3
102
}
330
1F
100
AcDbEntity
  8
実線
100
AcDbCircle
 10
713.124027100825
 20
1154.945263590495
 30
0.0
 40
1.5
  0
LINE
  5
FB6
102
{ACAD_REACTORS
330
11E3
102
}
330
1F
100
AcDbEntity
  8
実線
100
AcDbLine
 10
745.6740271008252
 20
1158.145263590495
 30
0.0
 11
717.6740271008252
 21
1158.145263590495
 31
0.0
  0
LINE
  5
FB7
102
{ACAD_REACTORS
330
11E3
102
}
330
1F
100
AcDbEntity
  8
実線
100
AcDbLine
 10
717.6740271008252
 20
1148.145263590494
 30
0.0
 11
745.6740271008252
 21
1148.145263590494
 31
0.0
  0
LINE
  5
FB8
102
{ACAD_REACTORS
330
11E3
102
}
330
1F
100
AcDbEntity
  8
実線
100
AcDbLine
 10
745.6740271008252
 20
1148.145263590494
 30
0.0
 11
745.6740271008252
 21
1158.145263590495
 31
0.0
  0
LINE
  5
FB9
102
{ACAD_REACTORS
330
11E3
102
}
330
1F
100
AcDbEntity
  8
実線
100
AcDbLine
 10
717.6740271008252
 20
1158.145263590495
 30
0.0
 11
717.6740271008252
 21
1148.145263590494
 31
0.0
  0
LINE
  5
FBA
102
{ACAD_REACTORS
330
11E3
102
}
330
1F
100
AcDbEntity
  8
実線
100
AcDbLine
 10
742.6740271008252
 20
1124.945263590495
 30
0.0
 11
742.6740271008252
 21
1148.145263590494
 31
0.0
  0
LINE
  5
FBB
102
{ACAD_REACTORS
330
11E3
102
}
330
1F
100
AcDbEntity
  8
実線
100
AcDbLine
 10
720.6740271008252
 20
1148.145263590494
 30
0.0
 11
720.6740271008252
 21
1124.945263590495
 31
0.0
  0
LINE
  5
FBC
102
{ACAD_REACTORS
330
11E3
102
}
330
1F
100
AcDbEntity
  8
実線
100
AcDbLine
 10
635.3660835032219
 20
748.4452635904946
 30
0.0
 11
639.4319474951039
 21
748.4452635904946
 31
0.0
  0
LINE
  5
FBD
102
{ACAD_REACTORS
330
11E3
102
}
330
1F
100
AcDbEntity
  8
実線
100
AcDbLine
 10
635.3660835032219
 20
726.4452635904945
 30
0.0
 11
635.3660835032219
 21
748.4452635904946
 31
0.0
  0
LINE
  5
FBE
102
{ACAD_REACTORS
330
11E3
102
}
330
1F
100
AcDbEntity
  8
実線
100
AcDbLine
 10
635.3660835032219
 20
726.4452635904945
 30
0.0
 11
639.4319474951039
 21
726.4452635904945
 31
0.0
  0
LINE
  5
FBF
102
{ACAD_REACTORS
330
11E3
102
}
330
1F
100
AcDbEntity
  8
実線
100
AcDbLine
 10
652.6901996423521
 20
748.4452635904946
 30
0.0
 11
650.6042346378517
 21
748.4452635904946
 31
0.0
  0
LINE
  5
FC0
102
{ACAD_REACTORS
330
11E3
102
}
330
1F
100
AcDbEntity
  8
実線
100
AcDbLine
 10
636.2146116406456
 20
748.4452635904946
 30
0.0
 11
636.2146116406456
 21
726.4452635904945
 31
0.0
  0
LINE
  5
FC1
102
{ACAD_REACTORS
330
11E3
102
}
330
1F
100
AcDbEntity
  8
実線
100
AcDbLine
 10
652.6901996423521
 20
726.4452635904945
 30
0.0
 11
650.6042346378517
 21
726.4452635904945
 31
0.0
  0
ELLIPSE
  5
FC2
102
{ACAD_REACTORS
330
11E3
102
}
330
1F
100
AcDbEntity
  8
実線
100
AcDbEllipse
 10
651.417407436169
 20
733.4452635904948
 30
0.0
 11
-0.0000000000000036
 21
5.0
 31
0.0
210
0.0
220
0.0
230
1.0
 40
0.7071067811865478
 41
0.0
 42
1.570796326794897
  0
ELLIPSE
  5
FC3
102
{ACAD_REACTORS
330
11E3
102
}
330
1F
100
AcDbEntity
  8
実線
100
AcDbEllipse
 10
653.5387277797285
 20
733.4452635904948
 30
0.0
 11
0.0
 21
5.0
 31
0.0
210
0.0
220
0.0
230
1.0
 40
0.7071067811865478
 41
4.71238898038469
 42
6.283185307179585
  0
LINE
  5
FC4
102
{ACAD_REACTORS
330
11E3
102
}
330
1F
100
AcDbEntity
  8
実線
100
AcDbLine
 10
653.5387277797285
 20
738.4452635904948
 30
0.0
 11
651.417407436169
 21
738.4452635904948
 31
0.0
  0
LINE
  5
FC5
102
{ACAD_REACTORS
330
11E3
102
}
330
1F
100
AcDbEntity
  8
実線
100
AcDbLine
 10
651.417407436169
 20
728.4452635904948
 30
0.0
 11
653.5387277797285
 21
728.4452635904948
 31
0.0
  0
ELLIPSE
  5
FC6
102
{ACAD_REACTORS
330
11E3
102
}
330
1F
100
AcDbEntity
  8
実線
100
AcDbEllipse
 10
651.417407436169
 20
733.4452635904948
 30
0.0
 11
-0.0000000000000036
 21
5.0
 31
0.0
210
0.0
220
0.0
230
1.0
 40
0.7071067811865478
 41
3.141592653589792
 42
6.283185307179585
  0
ELLIPSE
  5
FC7
102
{ACAD_REACTORS
330
11E3
102
}
330
1F
100
AcDbEntity
  8
実線
100
AcDbEllipse
 10
651.417407436169
 20
733.4452635904948
 30
0.0
 11
-0.0000000000000036
 21
5.0
 31
0.0
210
0.0
220
0.0
230
1.0
 40
0.7071067811865478
 41
1.570796326794896
 42
3.141592653589792
  0
ELLIPSE
  5
FC8
102
{ACAD_REACTORS
330
11E3
102
}
330
1F
100
AcDbEntity
  8
実線
100
AcDbEllipse
 10
653.5387277797285
 20
733.4452635904948
 30
0.0
 11
0.0
 21
5.0
 31
0.0
210
0.0
220
0.0
230
1.0
 40
0.7071067811865478
 41
3.141592653589792
 42
4.71238898038469
  0
LINE
  5
FC9
102
{ACAD_REACTORS
330
11E3
102
}
330
1F
100
AcDbEntity
  8
実線
100
AcDbLine
 10
792.4537162786637
 20
814.4452635904949
 30
0.0
 11
670.8943379229863
 21
814.4452635904949
 31
0.0
  0
LINE
  5
FCA
102
{ACAD_REACTORS
330
11E3
102
}
330
1F
100
AcDbEntity
  8
実線
100
AcDbLine
 10
792.4537162786637
 20
799.4452635904949
 30
0.0
 11
670.8943379229863
 21
799.4452635904949
 31
0.0
  0
LINE
  5
FCB
102
{ACAD_REACTORS
330
11E3
102
}
330
1F
100
AcDbEntity
  8
実線
100
AcDbLine
 10
670.8943379229863
 20
814.4452635904949
 30
0.0
 11
670.8943379229863
 21
799.4452635904949
 31
0.0
  0
LINE
  5
FCC
102
{ACAD_REACTORS
330
11E3
102
}
330
1F
100
AcDbEntity
  8
実線
100
AcDbLine
 10
792.4537162786637
 20
799.4452635904949
 30
0.0
 11
792.4537162786637
 21
814.4452635904949
 31
0.0
  0
LINE
  5
FCD
102
{ACAD_REACTORS
330
11E3
102
}
330
1F
100
AcDbEntity
  8
実線
100
AcDbLine
 10
704.8640549508836
 20
799.4452635904949
 30
0.0
 11
704.8640549508836
 21
814.4452635904949
 31
0.0
  0
LINE
  5
FCE
102
{ACAD_REACTORS
330
11E3
102
}
330
1F
100
AcDbEntity
  8
実線
100
AcDbLine
 10
758.4839992507659
 20
799.4452635904949
 30
0.0
 11
758.4839992507659
 21
814.4452635904949
 31
0.0
  0
LINE
  5
FCF
102
{ACAD_REACTORS
330
11E3
102
}
330
1F
100
AcDbEntity
  8
実線
100
AcDbLine
 10
676.6740271008243
 20
632.4452635904948
 30
0.0
 11
676.6740271008243
 21
414.9452635904948
 31
0.0
  0
LINE
  5
FD0
102
{ACAD_REACTORS
330
11E3
102
}
330
1F
100
AcDbEntity
  8
実線
100
AcDbLine
 10
786.6740271008243
 20
414.9452635904948
 30
0.0
 11
786.6740271008243
 21
632.4452635904948
 31
0.0
  0
LINE
  5
FD1
102
{ACAD_REACTORS
330
11E3
102
}
330
1F
100
AcDbEntity
  8
実線
100
AcDbLine
 10
666.6740271008243
 20
404.9452635904946
 30
0.0
 11
666.6740271008243
 21
346.9452635904948
 31
0.0
  0
LINE
  5
FD2
102
{ACAD_REACTORS
330
11E3
102
}
330
1F
100
AcDbEntity
  8
実線
100
AcDbLine
 10
796.6740271008243
 20
346.9452635904949
 30
0.0
 11
796.6740271008243
 21
404.9452635904948
 31
0.0
  0
LINE
  5
FD3
102
{ACAD_REACTORS
330
11E3
102
}
330
1F
100
AcDbEntity
  8
実線
100
AcDbLine
 10
676.6740271008243
 20
414.9452635904948
 30
0.0
 11
666.6740271008243
 21
404.9452635904948
 31
0.0
  0
LINE
  5
FD4
102
{ACAD_REACTORS
330
11E3
102
}
330
1F
100
AcDbEntity
  8
実線
100
AcDbLine
 10
796.6740271008243
 20
404.9452635904946
 30
0.0
 11
786.6740271008243
 21
414.9452635904947
 31
0.0
  0
LINE
  5
FD5
102
{ACAD_REACTORS
330
11E3
102
}
330
1F
100
AcDbEntity
  8
実線
100
AcDbLine
 10
786.6740271008243
 20
414.9452635904948
 30
0.0
 11
676.6740271008243
 21
414.9452635904948
 31
0.0
  0
LINE
  5
FD6
102
{ACAD_REACTORS
330
11E3
102
}
330
1F
100
AcDbEntity
  8
実線
100
AcDbLine
 10
796.6740271008243
 20
404.9452635904946
 30
0.0
 11
666.6740271008243
 21
404.9452635904946
 31
0.0
  0
LINE
  5
FD7
102
{ACAD_REACTORS
330
11E3
102
}
330
1F
100
AcDbEntity
  8
実線
100
AcDbLine
 10
786.6740271008252
 20
834.4452635904948
 30
0.0
 11
786.6740271008252
 21
1051.945263590495
 31
0.0
  0
LINE
  5
FD8
102
{ACAD_REACTORS
330
11E3
102
}
330
1F
100
AcDbEntity
  8
実線
100
AcDbLine
 10
676.6740271008252
 20
1051.945263590495
 30
0.0
 11
676.6740271008252
 21
834.4452635904948
 31
0.0
  0
LINE
  5
FD9
102
{ACAD_REACTORS
330
11E3
102
}
330
1F
100
AcDbEntity
  8
実線
100
AcDbLine
 10
786.6740271008252
 20
1051.945263590495
 30
0.0
 11
796.6740271008252
 21
1061.945263590495
 31
0.0
  0
LINE
  5
FDA
102
{ACAD_REACTORS
330
11E3
102
}
330
1F
100
AcDbEntity
  8
実線
100
AcDbLine
 10
666.6740271008252
 20
1061.945263590495
 30
0.0
 11
676.6740271008252
 21
1051.945263590495
 31
0.0
  0
LINE
  5
FDB
102
{ACAD_REACTORS
330
11E3
102
}
330
1F
100
AcDbEntity
  8
実線
100
AcDbLine
 10
676.6740271008252
 20
1051.945263590495
 30
0.0
 11
786.6740271008252
 21
1051.945263590495
 31
0.0
  0
LINE
  5
FDC
102
{ACAD_REACTORS
330
11E3
102
}
330
1F
100
AcDbEntity
  8
実線
100
AcDbLine
 10
796.6740271008252
 20
1061.945263590495
 30
0.0
 11
796.6740271008252
 21
1119.945263590495
 31
0.0
  0
LINE
  5
FDD
102
{ACAD_REACTORS
330
11E3
102
}
330
1F
100
AcDbEntity
  8
実線
100
AcDbLine
 10
666.6740271008252
 20
1119.945263590495
 30
0.0
 11
666.6740271008252
 21
1061.945263590495
 31
0.0
  0
LINE
  5
FDE
102
{ACAD_REACTORS
330
11E3
102
}
330
1F
100
AcDbEntity
  8
実線
100
AcDbLine
 10
796.6740271008252
 20
1061.945263590495
 30
0.0
 11
666.6740271008252
 21
1061.945263590495
 31
0.0
  0
LINE
  5
FDF
102
{ACAD_REACTORS
330
11E3
102
}
330
1F
100
AcDbEntity
  8
実線
100
AcDbLine
 10
774.8875855433502
 20
708.8599792084818
 30
0.0
 11
792.2720068472713
 21
733.445263590495
 31
0.0
  0
LINE
  5
FE0
102
{ACAD_REACTORS
330
11E3
102
}
330
1F
100
AcDbEntity
  8
実線
100
AcDbLine
 10
692.0760473543782
 20
703.7467787806598
 30
0.0
 11
694.4599199692998
 21
703.7467787806598
 31
0.0
  0
LINE
  5
FE1
102
{ACAD_REACTORS
330
11E3
102
}
330
1F
100
AcDbEntity
  8
実線
100
AcDbLine
 10
786.0848225118894
 20
742.1952635904948
 30
0.0
 11
792.2720068472713
 21
733.4452635904948
 31
0.0
  0
LINE
  5
FE2
102
{ACAD_REACTORS
330
11E3
102
}
330
1F
100
AcDbEntity
  8
実線
100
AcDbLine
 10
692.0760473543782
 20
763.1437484003298
 30
0.0
 11
699.0299715534561
 21
763.1437484003298
 31
0.0
  0
LINE
  5
FE3
102
{ACAD_REACTORS
330
11E3
102
}
330
1F
100
AcDbEntity
  8
実線
100
AcDbLine
 10
739.2789964147564
 20
733.4452635904948
 30
0.0
 11
713.0760473543782
 21
733.4452635904948
 31
0.0
  0
LINE
  5
FE4
102
{ACAD_REACTORS
330
11E3
102
}
330
1F
100
AcDbEntity
  8
実線
100
AcDbLine
 10
792.2720068472713
 20
733.4452635904948
 30
0.0
 11
780.1108416121032
 21
733.4452635904948
 31
0.0
  0
LINE
  5
FE5
102
{ACAD_REACTORS
330
11E3
102
}
330
1F
100
AcDbEntity
  8
実線
100
AcDbLine
 10
702.3500310535728
 20
718.2763858676613
 30
0.0
 11
713.0760473543782
 21
733.4452635904948
 31
0.0
  0
LINE
  5
FE6
102
{ACAD_REACTORS
330
11E3
102
}
330
1F
100
AcDbEntity
  8
実線
100
AcDbLine
 10
692.0760473543782
 20
703.7467787806598
 30
0.0
 11
698.0169506354073
 21
712.1484847734383
 31
0.0
  0
CIRCLE
  5
FE7
102
{ACAD_REACTORS
330
11E3
102
}
330
1F
100
AcDbEntity
  8
実線
100
AcDbCircle
 10
731.6740271008248
 20
692.9452635904948
 30
0.0
 40
38.75
  0
LINE
  5
FE8
102
{ACAD_REACTORS
330
11E3
102
}
330
1F
100
AcDbEntity
  8
実線
100
AcDbLine
 10
810.0740271008248
 20
805.6952635904949
 30
0.0
 11
792.4537162786637
 21
805.6952635904949
 31
0.0
  0
LINE
  5
FE9
102
{ACAD_REACTORS
330
11E3
102
}
330
1F
100
AcDbEntity
  8
実線
100
AcDbLine
 10
777.5841974337477
 20
742.1952635904948
 30
0.0
 11
810.0740271008248
 21
742.1952635904948
 31
0.0
  0
LINE
  5
FEA
102
{ACAD_REACTORS
330
11E3
102
}
330
1F
100
AcDbEntity
  8
実線
100
AcDbLine
 10
816.6740271008247
 20
735.1952635904948
 30
0.0
 11
816.6740271008247
 21
812.6952635904949
 31
0.0
  0
LINE
  5
FEB
102
{ACAD_REACTORS
330
11E3
102
}
330
1F
100
AcDbEntity
  8
実線
100
AcDbLine
 10
816.6740271008247
 20
812.6952635904949
 30
0.0
 11
813.1740271008247
 21
812.6952635904949
 31
0.0
  0
LINE
  5
FEC
102
{ACAD_REACTORS
330
11E3
102
}
330
1F
100
AcDbEntity
  8
実線
100
AcDbLine
 10
813.1740271008247
 20
735.1952635904948
 30
0.0
 11
816.6740271008247
 21
735.1952635904948
 31
0.0
  0
LINE
  5
FED
102
{ACAD_REACTORS
330
11E3
102
}
330
1F
100
AcDbEntity
  8
実線
100
AcDbLine
 10
813.1740271008247
 20
735.1952635904948
 30
0.0
 11
813.1740271008247
 21
812.6952635904949
 31
0.0
  0
LINE
  5
FEE
102
{ACAD_REACTORS
330
11E3
102
}
330
1F
100
AcDbEntity
  8
実線
100
AcDbLine
 10
810.0740271008248
 20
742.1952635904948
 30
0.0
 11
810.0740271008248
 21
805.6952635904949
 31
0.0
  0
LINE
  5
FEF
102
{ACAD_REACTORS
330
11E3
102
}
330
1F
100
AcDbEntity
  8
実線
100
AcDbLine
 10
810.0740271008248
 20
742.1952635904948
 30
0.0
 11
813.1740271008247
 21
735.1952635904948
 31
0.0
  0
LINE
  5
FF0
102
{ACAD_REACTORS
330
11E3
102
}
330
1F
100
AcDbEntity
  8
実線
100
AcDbLine
 10
813.1740271008247
 20
812.6952635904949
 30
0.0
 11
810.0740271008248
 21
805.6952635904949
 31
0.0
  0
LINE
  5
FF1
102
{ACAD_REACTORS
330
11E3
102
}
330
1F
100
AcDbEntity
  8
実線
100
AcDbLine
 10
670.8943379229863
 20
805.6952635904949
 30
0.0
 11
653.2740271008247
 21
805.6952635904949
 31
0.0
  0
LINE
  5
FF2
102
{ACAD_REACTORS
330
11E3
102
}
330
1F
100
AcDbEntity
  8
実線
100
AcDbLine
 10
650.1740271008247
 20
812.6952635904949
 30
0.0
 11
646.6740271008248
 21
812.6952635904949
 31
0.0
  0
LINE
  5
FF3
102
{ACAD_REACTORS
330
11E3
102
}
330
1F
100
AcDbEntity
  8
実線
100
AcDbLine
 10
646.6740271008248
 20
751.4452635904945
 30
0.0
 11
646.6740271008248
 21
812.6952635904949
 31
0.0
  0
LINE
  5
FF4
102
{ACAD_REACTORS
330
11E3
102
}
330
1F
100
AcDbEntity
  8
実線
100
AcDbLine
 10
653.2740271008247
 20
805.6952635904949
 30
0.0
 11
650.1740271008247
 21
812.6952635904949
 31
0.0
  0
LINE
  5
FF5
102
{ACAD_REACTORS
330
11E3
102
}
330
1F
100
AcDbEntity
  8
実線
100
AcDbLine
 10
650.1740271008247
 20
812.6952635904949
 30
0.0
 11
650.1740271008247
 21
751.4452635904945
 31
0.0
  0
LINE
  5
FF6
102
{ACAD_REACTORS
330
11E3
102
}
330
1F
100
AcDbEntity
  8
実線
100
AcDbLine
 10
653.2740271008247
 20
805.6952635904949
 30
0.0
 11
653.2740271008247
 21
748.769405110279
 31
0.0
  0
LINE
  5
FF7
102
{ACAD_REACTORS
330
11E3
102
}
330
1F
100
AcDbEntity
  8
実線
100
AcDbLine
 10
771.2720068472713
 20
745.9452635904948
 30
0.0
 11
757.2968306260094
 21
745.9452635904948
 31
0.0
  0
LINE
  5
FF8
102
{ACAD_REACTORS
330
11E3
102
}
330
1F
100
AcDbEntity
  8
実線
100
AcDbLine
 10
758.4613841933037
 20
720.9452635904948
 30
0.0
 11
771.2720068472713
 21
720.9452635904948
 31
0.0
  0
ELLIPSE
  5
FF9
102
{ACAD_REACTORS
330
11E3
102
}
330
1F
100
AcDbEntity
  8
実線
100
AcDbEllipse
 10
771.2720068472713
 20
733.4452635904948
 30
0.0
 11
0.0
 21
12.5
 31
0.0
210
0.0
220
0.0
230
1.0
 40
0.7071067811865475
 41
3.141592653589792
 42
6.283185307179585
  0
ELLIPSE
  5
FFA
102
{ACAD_REACTORS
330
11E3
102
}
330
1F
100
AcDbEntity
  8
実線
100
AcDbEllipse
 10
771.2720068472713
 20
733.4452635904948
 30
0.0
 11
0.0
 21
12.5
 31
0.0
210
0.0
220
0.0
230
1.0
 40
0.7071067811865475
 41
1.570796326794897
 42
3.141592653589792
  0
ELLIPSE
  5
FFB
102
{ACAD_REACTORS
330
11E3
102
}
330
1F
100
AcDbEntity
  8
実線
100
AcDbEllipse
 10
771.2720068472713
 20
733.4452635904948
 30
0.0
 11
0.0
 21
12.5
 31
0.0
210
0.0
220
0.0
230
1.0
 40
0.7071067811865475
 41
0.0
 42
1.570796326794897
  0
LINE
  5
FFC
102
{ACAD_REACTORS
330
11E3
102
}
330
1F
100
AcDbEntity
  8
実線
100
AcDbLine
 10
751.660216043821
 20
744.1952635904948
 30
0.0
 11
724.0749076889041
 21
744.1952635904948
 31
0.0
  0
LINE
  5
FFD
102
{ACAD_REACTORS
330
11E3
102
}
330
1F
100
AcDbEntity
  8
実線
100
AcDbLine
 10
665.6806848365691
 20
757.9452635904946
 30
0.0
 11
662.680684836569
 21
757.9452635904946
 31
0.0
  0
LINE
  5
FFE
102
{ACAD_REACTORS
330
11E3
102
}
330
1F
100
AcDbEntity
  8
実線
100
AcDbLine
 10
665.6806848365691
 20
751.4452635904945
 30
0.0
 11
665.6806848365691
 21
757.9452635904946
 31
0.0
  0
LINE
  5
FFF
102
{ACAD_REACTORS
330
11E3
102
}
330
1F
100
AcDbEntity
  8
実線
100
AcDbLine
 10
662.680684836569
 20
757.9452635904946
 30
0.0
 11
662.680684836569
 21
751.4452635904945
 31
0.0
  0
LINE
  5
1000
102
{ACAD_REACTORS
330
11E3
102
}
330
1F
100
AcDbEntity
  8
実線
100
AcDbLine
 10
792.4537162786637
 20
652.4452635904948
 30
0.0
 11
670.8943379229858
 21
652.4452635904948
 31
0.0
  0
LINE
  5
1001
102
{ACAD_REACTORS
330
11E3
102
}
330
1F
100
AcDbEntity
  8
実線
100
AcDbLine
 10
670.8943379229858
 20
667.4452635904948
 30
0.0
 11
670.8943379229858
 21
652.4452635904948
 31
0.0
  0
LINE
  5
1002
102
{ACAD_REACTORS
330
11E3
102
}
330
1F
100
AcDbEntity
  8
実線
100
AcDbLine
 10
670.8943379229858
 20
667.4452635904948
 30
0.0
 11
702.4967671198051
 21
667.4452635904948
 31
0.0
  0
LINE
  5
1003
102
{ACAD_REACTORS
330
11E3
102
}
330
1F
100
AcDbEntity
  8
実線
100
AcDbLine
 10
792.4537162786633
 20
667.4452635904948
 30
0.0
 11
760.8512870818445
 21
667.4452635904948
 31
0.0
  0
LINE
  5
1004
102
{ACAD_REACTORS
330
11E3
102
}
330
1F
100
AcDbEntity
  8
実線
100
AcDbLine
 10
792.4537162786633
 20
652.4452635904948
 30
0.0
 11
792.4537162786633
 21
667.4452635904948
 31
0.0
  0
LINE
  5
1005
102
{ACAD_REACTORS
330
11E3
102
}
330
1F
100
AcDbEntity
  8
実線
100
AcDbLine
 10
704.8640549508836
 20
664.9669167251174
 30
0.0
 11
704.8640549508836
 21
652.4452635904946
 31
0.0
  0
LINE
  5
1006
102
{ACAD_REACTORS
330
11E3
102
}
330
1F
100
AcDbEntity
  8
実線
100
AcDbLine
 10
758.4839992507659
 20
664.9669167251174
 30
0.0
 11
758.4839992507659
 21
652.4452635904948
 31
0.0
  0
LINE
  5
1007
102
{ACAD_REACTORS
330
11E3
102
}
330
1F
100
AcDbEntity
  8
実線
100
AcDbLine
 10
669.7668284079423
 20
751.4452635904945
 30
0.0
 11
658.5945412651949
 21
751.4452635904945
 31
0.0
  0
LINE
  5
1008
102
{ACAD_REACTORS
330
11E3
102
}
330
1F
100
AcDbEntity
  8
実線
100
AcDbLine
 10
669.7668284079423
 20
748.4452635904946
 30
0.0
 11
669.7668284079423
 21
751.4452635904945
 31
0.0
  0
LINE
  5
1009
102
{ACAD_REACTORS
330
11E3
102
}
330
1F
100
AcDbEntity
  8
実線
100
AcDbLine
 10
664.180684836569
 20
748.4452635904946
 30
0.0
 11
664.180684836569
 21
751.4452635904945
 31
0.0
  0
LINE
  5
100A
102
{ACAD_REACTORS
330
11E3
102
}
330
1F
100
AcDbEntity
  8
実線
100
AcDbLine
 10
658.5945412651949
 20
726.4452635904945
 30
0.0
 11
658.5945412651949
 21
751.4452635904945
 31
0.0
  0
LINE
  5
100B
102
{ACAD_REACTORS
330
11E3
102
}
330
1F
100
AcDbEntity
  8
実線
100
AcDbLine
 10
658.5945412651949
 20
726.4452635904945
 30
0.0
 11
660.6097955915766
 21
726.4452635904945
 31
0.0
  0
LINE
  5
100C
102
{ACAD_REACTORS
330
11E3
102
}
330
1F
100
AcDbEntity
  8
実線
100
AcDbLine
 10
639.4319474951044
 20
726.4452635904945
 30
0.0
 11
650.6042346378517
 21
726.4452635904945
 31
0.0
  0
LINE
  5
100D
102
{ACAD_REACTORS
330
11E3
102
}
330
1F
100
AcDbEntity
  8
実線
100
AcDbLine
 10
639.4319474951044
 20
751.4452635904945
 30
0.0
 11
650.6042346378517
 21
751.4452635904945
 31
0.0
  0
LINE
  5
100E
102
{ACAD_REACTORS
330
11E3
102
}
330
1F
100
AcDbEntity
  8
実線
100
AcDbLine
 10
639.4319474951044
 20
751.4452635904945
 30
0.0
 11
639.4319474951044
 21
726.4452635904945
 31
0.0
  0
LINE
  5
100F
102
{ACAD_REACTORS
330
11E3
102
}
330
1F
100
AcDbEntity
  8
実線
100
AcDbLine
 10
650.6042346378517
 20
738.3112167345515
 30
0.0
 11
650.6042346378517
 21
751.4452635904945
 31
0.0
  0
LINE
  5
1010
102
{ACAD_REACTORS
330
11E3
102
}
330
1F
100
AcDbEntity
  8
実線
100
AcDbLine
 10
650.6042346378517
 20
726.4452635904945
 30
0.0
 11
650.6042346378517
 21
728.5793104464381
 31
0.0
  0
LINE
  5
1011
102
{ACAD_REACTORS
330
11E3
102
}
330
1F
100
AcDbEntity
  8
実線
100
AcDbLine
 10
645.018091066478
 20
726.4452635904945
 30
0.0
 11
645.018091066478
 21
751.4452635904945
 31
0.0
  0
LINE
  5
1012
102
{ACAD_REACTORS
330
11E3
102
}
330
1F
100
AcDbEntity
  8
実線
100
AcDbLine
 10
658.5945412651949
 20
736.4452635900919
 30
0.0
 11
656.3671549046885
 21
736.4452635900919
 31
0.0
  0
LINE
  5
1013
102
{ACAD_REACTORS
330
11E3
102
}
330
1F
100
AcDbEntity
  8
実線
100
AcDbLine
 10
656.3671549046885
 20
730.4452635908977
 30
0.0
 11
658.5945412651949
 21
730.4452635908977
 31
0.0
  0
LINE
  5
1014
102
{ACAD_REACTORS
330
11E3
102
}
330
1F
100
AcDbEntity
  8
実線
100
AcDbLine
 10
674.1862457903585
 20
726.4452635904945
 30
0.0
 11
660.6097955915766
 21
726.4452635904945
 31
0.0
  0
LINE
  5
1015
102
{ACAD_REACTORS
330
11E3
102
}
330
1F
100
AcDbEntity
  8
実線
100
AcDbLine
 10
674.1862457903585
 20
748.4452635904946
 30
0.0
 11
660.6097955915766
 21
748.4452635904946
 31
0.0
  0
LINE
  5
1016
102
{ACAD_REACTORS
330
11E3
102
}
330
1F
100
AcDbEntity
  8
実線
100
AcDbLine
 10
674.1862457903585
 20
748.4452635904946
 30
0.0
 11
674.1862457903585
 21
726.4452635904945
 31
0.0
  0
LINE
  5
1017
102
{ACAD_REACTORS
330
11E3
102
}
330
1F
100
AcDbEntity
  8
実線
100
AcDbLine
 10
660.6097955915766
 20
726.4452635904945
 30
0.0
 11
660.6097955915766
 21
748.4452635904946
 31
0.0
  0
LINE
  5
1018
102
{ACAD_REACTORS
330
11E3
102
}
330
1F
100
AcDbEntity
  8
実線
100
AcDbLine
 10
661.4583237290007
 20
748.4452635904946
 30
0.0
 11
661.4583237290007
 21
726.4452635904945
 31
0.0
  0
LINE
  5
1019
102
{ACAD_REACTORS
330
11E3
102
}
330
1F
100
AcDbEntity
  8
実線
100
AcDbLine
 10
692.0760473543782
 20
763.1437484003298
 30
0.0
 11
663.4382227163228
 21
763.1437484003298
 31
0.0
  0
LINE
  5
101A
102
{ACAD_REACTORS
330
11E3
102
}
330
1F
100
AcDbEntity
  8
実線
100
AcDbLine
 10
713.0760473543782
 20
733.4452635904948
 30
0.0
 11
692.0760473543782
 21
763.1437484003298
 31
0.0
  0
LINE
  5
101B
102
{ACAD_REACTORS
330
11E3
102
}
330
1F
100
AcDbEntity
  8
実線
100
AcDbLine
 10
653.044824434121
 20
748.4452635904946
 30
0.0
 11
663.4382227163228
 21
763.1437484003298
 31
0.0
  0
LINE
  5
101C
102
{ACAD_REACTORS
330
11E3
102
}
330
1F
100
AcDbEntity
  8
実線
100
AcDbLine
 10
663.4382227163228
 20
703.7467787806598
 30
0.0
 11
647.3879701846286
 21
726.4452635904945
 31
0.0
  0
LINE
  5
101D
102
{ACAD_REACTORS
330
11E3
102
}
330
1F
100
AcDbEntity
  8
実線
100
AcDbLine
 10
674.1862457903585
 20
747.9437484003296
 30
0.0
 11
684.4382227163228
 21
733.4452635904948
 31
0.0
  0
LINE
  5
101E
102
{ACAD_REACTORS
330
11E3
102
}
330
1F
100
AcDbEntity
  8
実線
100
AcDbLine
 10
663.4382227163228
 20
763.1437484003298
 30
0.0
 11
673.8316209985246
 21
748.4452635904946
 31
0.0
  0
LINE
  5
101F
102
{ACAD_REACTORS
330
11E3
102
}
330
1F
100
AcDbEntity
  8
実線
100
AcDbLine
 10
713.0760473543782
 20
733.4452635904948
 30
0.0
 11
684.4382227163228
 21
733.4452635904948
 31
0.0
  0
LINE
  5
1020
102
{ACAD_REACTORS
330
11E3
102
}
330
1F
100
AcDbEntity
  8
実線
100
AcDbLine
 10
684.4382227163228
 20
733.4452635904948
 30
0.0
 11
663.4382227163228
 21
703.7467787806598
 31
0.0
  0
LINE
  5
1021
102
{ACAD_REACTORS
330
11E3
102
}
330
1F
100
AcDbEntity
  8
実線
100
AcDbLine
 10
692.0760473543782
 20
703.7467787806598
 30
0.0
 11
663.4382227163228
 21
703.7467787806598
 31
0.0
  0
LINE
  5
1022
102
{ACAD_REACTORS
330
11E3
102
}
330
1F
100
AcDbEntity
  8
実線
100
AcDbLine
 10
646.5180910664781
 20
757.9452635904946
 30
0.0
 11
643.518091066478
 21
757.9452635904946
 31
0.0
  0
LINE
  5
1023
102
{ACAD_REACTORS
330
11E3
102
}
330
1F
100
AcDbEntity
  8
実線
100
AcDbLine
 10
646.5180910664781
 20
751.4452635904945
 30
0.0
 11
646.5180910664781
 21
757.9452635904946
 31
0.0
  0
LINE
  5
1024
102
{ACAD_REACTORS
330
11E3
102
}
330
1F
100
AcDbEntity
  8
実線
100
AcDbLine
 10
643.518091066478
 20
757.9452635904946
 30
0.0
 11
643.518091066478
 21
751.4452635904945
 31
0.0
  0
LINE
  5
1025
102
{ACAD_REACTORS
330
11E3
102
}
330
1F
100
AcDbEntity
  8
実線
100
AcDbLine
 10
742.6740271008243
 20
318.7452635904949
 30
0.0
 11
742.6740271008243
 21
341.9452635904948
 31
0.0
  0
LINE
  5
1026
102
{ACAD_REACTORS
330
11E3
102
}
330
1F
100
AcDbEntity
  8
実線
100
AcDbLine
 10
685.5083610148754
 20
703.7467787806598
 30
0.0
 11
683.7746807002495
 21
700.7439563916451
 31
0.0
  0
LINE
  5
1027
102
{ACAD_REACTORS
330
11E3
102
}
330
1F
100
AcDbEntity
  8
実線
100
AcDbLine
 10
779.5733735014001
 20
700.7439563916451
 30
0.0
 11
767.9101433521618
 21
720.9452635904948
 31
0.0
  0
ARC
  5
1028
102
{ACAD_REACTORS
330
11E3
102
}
330
1F
100
AcDbEntity
  8
実線
100
AcDbCircle
 10
729.6740271008247
 20
674.2439563916451
 30
0.0
 40
53.0
100
AcDbArc
 50
150.0000000000041
 51
180.0
  0
ARC
  5
1029
102
{ACAD_REACTORS
330
11E3
102
}
330
1F
100
AcDbEntity
  8
実線
100
AcDbCircle
 10
733.6740271008247
 20
674.2439563916451
 30
0.0
 40
53.0
100
AcDbArc
 50
0.0
 51
29.99999999999588
  0
LINE
  5
102A
102
{ACAD_REACTORS
330
11E3
102
}
330
1F
100
AcDbEntity
  8
実線
100
AcDbLine
 10
676.6740271008248
 20
674.2439563916451
 30
0.0
 11
676.6740271008248
 21
667.4452635904946
 31
0.0
  0
LINE
  5
102B
102
{ACAD_REACTORS
330
11E3
102
}
330
1F
100
AcDbEntity
  8
実線
100
AcDbLine
 10
786.6740271008247
 20
667.4452635904948
 30
0.0
 11
786.6740271008247
 21
674.2439563916454
 31
0.0
  0
LINE
  5
102C
102
{ACAD_REACTORS
330
11E3
102
}
330
1F
100
AcDbEntity
  8
実線
100
AcDbLine
 10
688.1740271008252
 20
1126.145263590495
 30
0.0
 11
717.1740271008252
 21
1126.145263590495
 31
0.0
  0
LINE
  5
102D
102
{ACAD_REACTORS
330
11E3
102
}
330
1F
100
AcDbEntity
  8
実線
100
AcDbLine
 10
688.1740271008252
 20
1124.945263590495
 30
0.0
 11
688.1740271008252
 21
1126.145263590495
 31
0.0
  0
LINE
  5
102E
102
{ACAD_REACTORS
330
11E3
102
}
330
1F
100
AcDbEntity
  8
実線
100
AcDbLine
 10
707.9740271008254
 20
1164.945263590495
 30
0.0
 11
707.9740271008254
 21
1124.945263590495
 31
0.0
  0
LINE
  5
102F
102
{ACAD_REACTORS
330
11E3
102
}
330
1F
100
AcDbEntity
  8
実線
100
AcDbLine
 10
709.1740271008252
 20
1164.945263590495
 30
0.0
 11
707.9740271008254
 21
1164.945263590495
 31
0.0
  0
LINE
  5
1030
102
{ACAD_REACTORS
330
11E3
102
}
330
1F
100
AcDbEntity
  8
実線
100
AcDbLine
 10
709.1740271008252
 20
1126.145263590495
 30
0.0
 11
709.1740271008252
 21
1164.945263590495
 31
0.0
  0
LINE
  5
1031
102
{ACAD_REACTORS
330
11E3
102
}
330
1F
100
AcDbEntity
  8
実線
100
AcDbLine
 10
717.1740271008252
 20
1124.945263590495
 30
0.0
 11
717.1740271008252
 21
1126.145263590495
 31
0.0
  0
LINE
  5
1032
102
{ACAD_REACTORS
330
11E3
102
}
330
1F
100
AcDbEntity
  8
実線
100
AcDbLine
 10
786.6740271008252
 20
831.4452635904949
 30
0.0
 11
786.6740271008252
 21
834.4452635904948
 31
0.0
  0
LINE
  5
1033
102
{ACAD_REACTORS
330
11E3
102
}
330
1F
100
AcDbEntity
  8
実線
100
AcDbLine
 10
676.6740271008252
 20
834.4452635904948
 30
0.0
 11
676.6740271008252
 21
831.4452635904949
 31
0.0
  0
LINE
  5
1034
102
{ACAD_REACTORS
330
11E3
102
}
330
1F
100
AcDbEntity
  8
実線
100
AcDbLine
 10
786.6740271008252
 20
834.4452635904948
 30
0.0
 11
676.6740271008252
 21
834.4452635904948
 31
0.0
  0
LINE
  5
1035
102
{ACAD_REACTORS
330
11E3
102
}
330
1F
100
AcDbEntity
  8
実線
100
AcDbLine
 10
670.8943379229872
 20
831.4452635904949
 30
0.0
 11
704.864054950884
 21
831.4452635904949
 31
0.0
  0
LINE
  5
1036
102
{ACAD_REACTORS
330
11E3
102
}
330
1F
100
AcDbEntity
  8
実線
100
AcDbLine
 10
670.8943379229872
 20
831.4452635904949
 30
0.0
 11
670.8943379229872
 21
814.4452635904949
 31
0.0
  0
LINE
  5
1037
102
{ACAD_REACTORS
330
11E3
102
}
330
1F
100
AcDbEntity
  8
実線
100
AcDbLine
 10
792.4537162786641
 20
814.4452635904949
 30
0.0
 11
792.4537162786641
 21
831.4452635904949
 31
0.0
  0
LINE
  5
1038
102
{ACAD_REACTORS
330
11E3
102
}
330
1F
100
AcDbEntity
  8
実線
100
AcDbLine
 10
792.4537162786641
 20
831.4452635904949
 30
0.0
 11
758.4839992507664
 21
831.4452635904949
 31
0.0
  0
LINE
  5
1039
102
{ACAD_REACTORS
330
11E3
102
}
330
1F
100
AcDbEntity
  8
実線
100
AcDbLine
 10
704.864054950884
 20
814.4452635904949
 30
0.0
 11
704.864054950884
 21
831.4452635904949
 31
0.0
  0
LINE
  5
103A
102
{ACAD_REACTORS
330
11E3
102
}
330
1F
100
AcDbEntity
  8
実線
100
AcDbLine
 10
758.4839992507664
 20
814.4452635904949
 30
0.0
 11
758.4839992507664
 21
831.4452635904949
 31
0.0
  0
LINE
  5
103B
102
{ACAD_REACTORS
330
11E3
102
}
330
1F
100
AcDbEntity
  8
実線
100
AcDbLine
 10
791.6740271008243
 20
341.9452635904948
 30
0.0
 11
671.6740271008243
 21
341.9452635904948
 31
0.0
  0
LINE
  5
103C
102
{ACAD_REACTORS
330
11E3
102
}
330
1F
100
AcDbEntity
  8
実線
100
AcDbLine
 10
796.6740271008243
 20
346.9452635904949
 30
0.0
 11
666.6740271008243
 21
346.9452635904949
 31
0.0
  0
ARC
  5
103D
102
{ACAD_REACTORS
330
11E3
102
}
330
1F
100
AcDbEntity
  8
実線
100
AcDbCircle
 10
671.6740271008243
 20
346.9452635904949
 30
0.0
 40
5.0
100
AcDbArc
 50
180.0
 51
270.0
  0
ARC
  5
103E
102
{ACAD_REACTORS
330
11E3
102
}
330
1F
100
AcDbEntity
  8
実線
100
AcDbCircle
 10
791.6740271008243
 20
346.9452635904949
 30
0.0
 40
5.0
100
AcDbArc
 50
270.0
 51
0.0
  0
LINE
  5
103F
102
{ACAD_REACTORS
330
11E3
102
}
330
1F
100
AcDbEntity
  8
実線
100
AcDbLine
 10
738.6740271008243
 20
301.945263590495
 30
0.0
 11
738.6740271008243
 21
341.9452635904949
 31
0.0
  0
LINE
  5
1040
102
{ACAD_REACTORS
330
11E3
102
}
330
1F
100
AcDbEntity
  8
実線
100
AcDbLine
 10
696.6740271008243
 20
341.9452635904948
 30
0.0
 11
696.6740271008243
 21
340.7452635904949
 31
0.0
  0
LINE
  5
1041
102
{ACAD_REACTORS
330
11E3
102
}
330
1F
100
AcDbEntity
  8
実線
100
AcDbLine
 10
696.6740271008243
 20
340.7452635904949
 30
0.0
 11
711.6740271008243
 21
340.7452635904949
 31
0.0
  0
LINE
  5
1042
102
{ACAD_REACTORS
330
11E3
102
}
330
1F
100
AcDbEntity
  8
実線
100
AcDbLine
 10
711.6740271008243
 20
340.7452635904949
 30
0.0
 11
711.6740271008243
 21
301.945263590495
 31
0.0
  0
LINE
  5
1043
102
{ACAD_REACTORS
330
11E3
102
}
330
1F
100
AcDbEntity
  8
実線
100
AcDbLine
 10
711.6740271008243
 20
301.9452635904948
 30
0.0
 11
738.6740271008243
 21
301.9452635904948
 31
0.0
  0
LINE
  5
1044
102
{ACAD_REACTORS
330
11E3
102
}
330
1F
100
AcDbEntity
  8
実線
100
AcDbLine
 10
728.6740271008243
 20
341.9452635904948
 30
0.0
 11
728.6740271008243
 21
340.7452635904949
 31
0.0
  0
LINE
  5
1045
102
{ACAD_REACTORS
330
11E3
102
}
330
1F
100
AcDbEntity
  8
実線
100
AcDbLine
 10
728.6740271008243
 20
340.7452635904949
 30
0.0
 11
738.6740271008243
 21
340.7452635904949
 31
0.0
  0
LINE
  5
1046
102
{ACAD_REACTORS
330
11E3
102
}
330
1F
100
AcDbEntity
  8
実線
100
AcDbLine
 10
671.6740271008252
 20
1124.945263590495
 30
0.0
 11
791.6740271008252
 21
1124.945263590495
 31
0.0
  0
ARC
  5
1047
102
{ACAD_REACTORS
330
11E3
102
}
330
1F
100
AcDbEntity
  8
実線
100
AcDbCircle
 10
791.6740271008252
 20
1119.945263590495
 30
0.0
 40
5.0
100
AcDbArc
 50
0.0
 51
90.0
  0
ARC
  5
1048
102
{ACAD_REACTORS
330
11E3
102
}
330
1F
100
AcDbEntity
  8
実線
100
AcDbCircle
 10
671.6740271008252
 20
1119.945263590495
 30
0.0
 40
5.0
100
AcDbArc
 50
90.0
 51
180.0
  0
LINE
  5
1049
102
{ACAD_REACTORS
330
11E3
102
}
330
1F
100
AcDbEntity
  8
実線
100
AcDbLine
 10
666.6740271008252
 20
1119.945263590495
 30
0.0
 11
796.6740271008252
 21
1119.945263590495
 31
0.0
  0
LINE
  5
104A
102
{ACAD_REACTORS
330
11E3
102
}
330
1F
100
AcDbEntity
  8
実線
100
AcDbLine
 10
676.6740271008243
 20
635.4452635904948
 30
0.0
 11
676.6740271008243
 21
632.4452635904948
 31
0.0
  0
LINE
  5
104B
102
{ACAD_REACTORS
330
11E3
102
}
330
1F
100
AcDbEntity
  8
実線
100
AcDbLine
 10
786.6740271008243
 20
632.4452635904948
 30
0.0
 11
786.6740271008243
 21
635.4452635904948
 31
0.0
  0
LINE
  5
104C
102
{ACAD_REACTORS
330
11E3
102
}
330
1F
100
AcDbEntity
  8
実線
100
AcDbLine
 10
676.6740271008243
 20
632.4452635904948
 30
0.0
 11
786.6740271008243
 21
632.4452635904948
 31
0.0
  0
LINE
  5
104D
102
{ACAD_REACTORS
330
11E3
102
}
330
1F
100
AcDbEntity
  8
実線
100
AcDbLine
 10
792.4537162786623
 20
635.4452635904948
 30
0.0
 11
758.4839992507654
 21
635.4452635904948
 31
0.0
  0
LINE
  5
104E
102
{ACAD_REACTORS
330
11E3
102
}
330
1F
100
AcDbEntity
  8
実線
100
AcDbLine
 10
792.4537162786623
 20
635.4452635904948
 30
0.0
 11
792.4537162786623
 21
652.4452635904948
 31
0.0
  0
LINE
  5
104F
102
{ACAD_REACTORS
330
11E3
102
}
330
1F
100
AcDbEntity
  8
実線
100
AcDbLine
 10
670.8943379229854
 20
652.4452635904948
 30
0.0
 11
670.8943379229854
 21
635.4452635904948
 31
0.0
  0
LINE
  5
1050
102
{ACAD_REACTORS
330
11E3
102
}
330
1F
100
AcDbEntity
  8
実線
100
AcDbLine
 10
670.8943379229854
 20
635.4452635904948
 30
0.0
 11
704.8640549508832
 21
635.4452635904948
 31
0.0
  0
LINE
  5
1051
102
{ACAD_REACTORS
330
11E3
102
}
330
1F
100
AcDbEntity
  8
実線
100
AcDbLine
 10
758.4839992507654
 20
652.4452635904948
 30
0.0
 11
758.4839992507654
 21
635.4452635904948
 31
0.0
  0
LINE
  5
1052
102
{ACAD_REACTORS
330
11E3
102
}
330
1F
100
AcDbEntity
  8
実線
100
AcDbLine
 10
704.8640549508832
 20
652.4452635904948
 30
0.0
 11
704.8640549508832
 21
635.4452635904948
 31
0.0
  0
LINE
  5
1053
102
{ACAD_REACTORS
330
11E3
102
}
330
1F
100
AcDbEntity
  8
実線
100
AcDbLine
 10
652.6901996423521
 20
738.4452635904948
 30
0.0
 11
652.6901996423521
 21
748.4452635904946
 31
0.0
  0
LINE
  5
1054
102
{ACAD_REACTORS
330
11E3
102
}
330
1F
100
AcDbEntity
  8
実線
100
AcDbLine
 10
652.6901996423521
 20
726.4452635904948
 30
0.0
 11
652.6901996423521
 21
728.4452635904948
 31
0.0
  0
LINE
  5
1055
102
{ACAD_REACTORS
330
11E3
102
}
330
1F
100
AcDbEntity
  8
実線
100
AcDbLine
 10
658.5945412651949
 20
726.4452635904948
 30
0.0
 11
652.6901996423521
 21
726.4452635904948
 31
0.0
  0
LINE
  5
1056
102
{ACAD_REACTORS
330
11E3
102
}
330
1F
100
AcDbEntity
  8
実線
100
AcDbLine
 10
652.6901996423521
 20
748.4452635904946
 30
0.0
 11
658.5945412651949
 21
748.4452635904946
 31
0.0
  0
LINE
  5
1057
102
{ACAD_REACTORS
330
11E2
102
}
330
1F
100
AcDbEntity
  8
実線
100
AcDbLine
 10
1017.674027100845
 20
318.745263590495
 30
0.0
 11
1045.674027100845
 21
318.745263590495
 31
0.0
  0
LINE
  5
1058
102
{ACAD_REACTORS
330
11E2
102
}
330
1F
100
AcDbEntity
  8
実線
100
AcDbLine
 10
1017.674027100845
 20
318.745263590495
 30
0.0
 11
1017.674027100845
 21
308.745263590495
 31
0.0
  0
LINE
  5
1059
102
{ACAD_REACTORS
330
11E2
102
}
330
1F
100
AcDbEntity
  8
実線
100
AcDbLine
 10
1045.674027100845
 20
308.745263590495
 30
0.0
 11
1045.674027100845
 21
318.745263590495
 31
0.0
  0
LINE
  5
105A
102
{ACAD_REACTORS
330
11E2
102
}
330
1F
100
AcDbEntity
  8
実線
100
AcDbLine
 10
1017.674027100845
 20
308.745263590495
 30
0.0
 11
1045.674027100845
 21
308.745263590495
 31
0.0
  0
LINE
  5
105B
102
{ACAD_REACTORS
330
11E2
102
}
330
1F
100
AcDbEntity
  8
実線
100
AcDbLine
 10
1009.174027100844
 20
335.895263590495
 30
0.0
 11
1017.074027100845
 21
335.895263590495
 31
0.0
  0
LINE
  5
105C
102
{ACAD_REACTORS
330
11E2
102
}
330
1F
100
AcDbEntity
  8
実線
100
AcDbLine
 10
1017.074027100845
 20
327.995263590495
 30
0.0
 11
1009.174027100844
 21
327.995263590495
 31
0.0
  0
LINE
  5
105D
102
{ACAD_REACTORS
330
11E2
102
}
330
1F
100
AcDbEntity
  8
実線
100
AcDbLine
 10
1017.074027100845
 20
335.895263590495
 30
0.0
 11
1017.074027100845
 21
327.995263590495
 31
0.0
  0
LINE
  5
105E
102
{ACAD_REACTORS
330
11E2
102
}
330
1F
100
AcDbEntity
  8
実線
100
AcDbLine
 10
1017.074027100845
 20
307.995263590495
 30
0.0
 11
1009.174027100844
 21
307.995263590495
 31
0.0
  0
LINE
  5
105F
102
{ACAD_REACTORS
330
11E2
102
}
330
1F
100
AcDbEntity
  8
実線
100
AcDbLine
 10
1017.074027100845
 20
315.895263590495
 30
0.0
 11
1017.074027100845
 21
307.995263590495
 31
0.0
  0
LINE
  5
1060
102
{ACAD_REACTORS
330
11E2
102
}
330
1F
100
AcDbEntity
  8
実線
100
AcDbLine
 10
1009.174027100844
 20
315.895263590495
 30
0.0
 11
1017.074027100845
 21
315.895263590495
 31
0.0
  0
LINE
  5
1061
102
{ACAD_REACTORS
330
11E2
102
}
330
1F
100
AcDbEntity
  8
実線
100
AcDbLine
 10
1038.674027100845
 20
1158.895263590495
 30
0.0
 11
1013.674027100845
 21
1158.895263590495
 31
0.0
  0
LINE
  5
1062
102
{ACAD_REACTORS
330
11E2
102
}
330
1F
100
AcDbEntity
  8
実線
100
AcDbLine
 10
1013.674027100845
 20
1158.895263590495
 30
0.0
 11
1013.674027100845
 21
1150.995263590495
 31
0.0
  0
LINE
  5
1063
102
{ACAD_REACTORS
330
11E2
102
}
330
1F
100
AcDbEntity
  8
実線
100
AcDbLine
 10
1017.674027100845
 20
1150.995263590495
 30
0.0
 11
1013.674027100845
 21
1150.995263590495
 31
0.0
  0
LINE
  5
1064
102
{ACAD_REACTORS
330
11E2
102
}
330
1F
100
AcDbEntity
  8
実線
100
AcDbLine
 10
1038.674027100845
 20
1158.145263590495
 30
0.0
 11
1038.674027100845
 21
1158.895263590495
 31
0.0
  0
LINE
  5
1065
102
{ACAD_REACTORS
330
11E2
102
}
330
1F
100
AcDbEntity
  8
実線
100
AcDbLine
 10
1020.674027100845
 20
1138.895263590495
 30
0.0
 11
1013.674027100845
 21
1138.895263590495
 31
0.0
  0
LINE
  5
1066
102
{ACAD_REACTORS
330
11E2
102
}
330
1F
100
AcDbEntity
  8
実線
100
AcDbLine
 10
1020.674027100845
 20
1130.995263590495
 30
0.0
 11
1013.674027100845
 21
1130.995263590495
 31
0.0
  0
LINE
  5
1067
102
{ACAD_REACTORS
330
11E2
102
}
330
1F
100
AcDbEntity
  8
実線
100
AcDbLine
 10
1013.674027100845
 20
1138.895263590495
 30
0.0
 11
1013.674027100845
 21
1130.995263590495
 31
0.0
  0
LINE
  5
1068
102
{ACAD_REACTORS
330
11E2
102
}
330
1F
100
AcDbEntity
  8
実線
100
AcDbLine
 10
1013.674027100845
 20
1136.445263590495
 30
0.0
 11
1007.174027100845
 21
1136.445263590495
 31
0.0
  0
LINE
  5
1069
102
{ACAD_REACTORS
330
11E2
102
}
330
1F
100
AcDbEntity
  8
実線
100
AcDbLine
 10
1007.174027100845
 20
1133.445263590495
 30
0.0
 11
1013.674027100845
 21
1133.445263590495
 31
0.0
  0
LINE
  5
106A
102
{ACAD_REACTORS
330
11E2
102
}
330
1F
100
AcDbEntity
  8
実線
100
AcDbLine
 10
1007.174027100845
 20
1136.445263590495
 30
0.0
 11
1007.174027100845
 21
1133.445263590495
 31
0.0
  0
LINE
  5
106B
102
{ACAD_REACTORS
330
11E2
102
}
330
1F
100
AcDbEntity
  8
実線
100
AcDbLine
 10
1013.674027100845
 20
1156.445263590495
 30
0.0
 11
1007.174027100845
 21
1156.445263590495
 31
0.0
  0
LINE
  5
106C
102
{ACAD_REACTORS
330
11E2
102
}
330
1F
100
AcDbEntity
  8
実線
100
AcDbLine
 10
1007.174027100845
 20
1153.445263590495
 30
0.0
 11
1013.674027100845
 21
1153.445263590495
 31
0.0
  0
LINE
  5
106D
102
{ACAD_REACTORS
330
11E2
102
}
330
1F
100
AcDbEntity
  8
実線
100
AcDbLine
 10
1007.174027100845
 20
1156.445263590495
 30
0.0
 11
1007.174027100845
 21
1153.445263590495
 31
0.0
  0
LINE
  5
106E
102
{ACAD_REACTORS
330
11E2
102
}
330
1F
100
AcDbEntity
  8
実線
100
AcDbLine
 10
1017.674027100845
 20
1158.145263590495
 30
0.0
 11
1045.674027100845
 21
1158.145263590495
 31
0.0
  0
LINE
  5
106F
102
{ACAD_REACTORS
330
11E2
102
}
330
1F
100
AcDbEntity
  8
実線
100
AcDbLine
 10
1045.674027100845
 20
1148.145263590495
 30
0.0
 11
1045.674027100845
 21
1158.145263590495
 31
0.0
  0
LINE
  5
1070
102
{ACAD_REACTORS
330
11E2
102
}
330
1F
100
AcDbEntity
  8
実線
100
AcDbLine
 10
1017.674027100845
 20
1158.145263590495
 30
0.0
 11
1017.674027100845
 21
1148.145263590495
 31
0.0
  0
LINE
  5
1071
102
{ACAD_REACTORS
330
11E2
102
}
330
1F
100
AcDbEntity
  8
実線
100
AcDbLine
 10
1017.674027100845
 20
1148.145263590495
 30
0.0
 11
1045.674027100845
 21
1148.145263590495
 31
0.0
  0
LINE
  5
1072
102
{ACAD_REACTORS
330
11E2
102
}
330
1F
100
AcDbEntity
  8
実線
100
AcDbLine
 10
1042.674027100845
 20
1124.945263590495
 30
0.0
 11
1042.674027100845
 21
1148.145263590495
 31
0.0
  0
LINE
  5
1073
102
{ACAD_REACTORS
330
11E2
102
}
330
1F
100
AcDbEntity
  8
実線
100
AcDbLine
 10
1020.674027100845
 20
1148.145263590495
 30
0.0
 11
1020.674027100845
 21
1124.945263590495
 31
0.0
  0
LINE
  5
1074
102
{ACAD_REACTORS
330
11E2
102
}
330
1F
100
AcDbEntity
  8
実線
100
AcDbLine
 10
970.8943379229959
 20
814.4452635904949
 30
0.0
 11
1092.453716278674
 21
814.4452635904949
 31
0.0
  0
LINE
  5
1075
102
{ACAD_REACTORS
330
11E2
102
}
330
1F
100
AcDbEntity
  8
実線
100
AcDbLine
 10
1092.453716278674
 20
799.4452635904949
 30
0.0
 11
1092.453716278674
 21
814.4452635904949
 31
0.0
  0
LINE
  5
1076
102
{ACAD_REACTORS
330
11E2
102
}
330
1F
100
AcDbEntity
  8
実線
100
AcDbLine
 10
1092.453716278674
 20
799.4452635904949
 30
0.0
 11
1060.851287081854
 21
799.4452635904949
 31
0.0
  0
LINE
  5
1077
102
{ACAD_REACTORS
330
11E2
102
}
330
1F
100
AcDbEntity
  8
実線
100
AcDbLine
 10
970.8943379229959
 20
799.4452635904949
 30
0.0
 11
1002.496767119815
 21
799.4452635904949
 31
0.0
  0
LINE
  5
1078
102
{ACAD_REACTORS
330
11E2
102
}
330
1F
100
AcDbEntity
  8
実線
100
AcDbLine
 10
970.8943379229959
 20
814.4452635904949
 30
0.0
 11
970.8943379229959
 21
799.4452635904949
 31
0.0
  0
LINE
  5
1079
102
{ACAD_REACTORS
330
11E2
102
}
330
1F
100
AcDbEntity
  8
実線
100
AcDbLine
 10
1058.483999250776
 20
801.9236104558723
 30
0.0
 11
1058.483999250776
 21
814.4452635904949
 31
0.0
  0
LINE
  5
107A
102
{ACAD_REACTORS
330
11E2
102
}
330
1F
100
AcDbEntity
  8
実線
100
AcDbLine
 10
1004.864054950894
 20
801.9236104558725
 30
0.0
 11
1004.864054950894
 21
814.4452635904949
 31
0.0
  0
ELLIPSE
  5
107B
102
{ACAD_REACTORS
330
11E2
102
}
330
1F
100
AcDbEntity
  8
実線
100
AcDbEllipse
 10
1081.87860856508
 20
733.4452635904949
 30
0.0
 11
0.0
 21
17.0
 31
0.0
210
0.0
220
0.0
230
1.0
 40
0.7071067811865476
 41
4.171724414095665
 42
6.283185307179585
  0
ELLIPSE
  5
107C
102
{ACAD_REACTORS
330
11E2
102
}
330
1F
100
AcDbEntity
  8
実線
100
AcDbEllipse
 10
1080.358328985528
 20
733.4452635904949
 30
0.0
 11
0.0
 21
17.0
 31
0.0
210
0.0
220
0.0
230
1.0
 40
0.7071067811865476
 41
4.171724414095665
 42
6.283185307179585
  0
LINE
  5
107D
102
{ACAD_REACTORS
330
11E2
102
}
330
1F
100
AcDbEntity
  8
実線
100
AcDbLine
 10
1081.87860856508
 20
750.4452635904949
 30
0.0
 11
1080.358328985528
 21
750.4452635904949
 31
0.0
  0
ELLIPSE
  5
107E
102
{ACAD_REACTORS
330
11E2
102
}
330
1F
100
AcDbEntity
  8
実線
100
AcDbEllipse
 10
1080.358328985528
 20
733.4452635904949
 30
0.0
 11
0.0
 21
17.0
 31
0.0
210
0.0
220
0.0
230
1.0
 40
0.7071067811865476
 41
0.0
 42
0.0088734062780788
  0
LINE
  5
107F
102
{ACAD_REACTORS
330
11E2
102
}
330
1F
100
AcDbEntity
  8
実線
100
AcDbLine
 10
976.6740271008453
 20
632.4452635904949
 30
0.0
 11
976.6740271008453
 21
414.9452635904949
 31
0.0
  0
LINE
  5
1080
102
{ACAD_REACTORS
330
11E2
102
}
330
1F
100
AcDbEntity
  8
実線
100
AcDbLine
 10
1086.674027100845
 20
414.9452635904949
 30
0.0
 11
1086.674027100845
 21
632.4452635904949
 31
0.0
  0
LINE
  5
1081
102
{ACAD_REACTORS
330
11E2
102
}
330
1F
100
AcDbEntity
  8
実線
100
AcDbLine
 10
976.6740271008453
 20
414.9452635904949
 30
0.0
 11
966.6740271008452
 21
404.9452635904949
 31
0.0
  0
LINE
  5
1082
102
{ACAD_REACTORS
330
11E2
102
}
330
1F
100
AcDbEntity
  8
実線
100
AcDbLine
 10
1096.674027100845
 20
404.9452635904948
 30
0.0
 11
1086.674027100845
 21
414.9452635904948
 31
0.0
  0
LINE
  5
1083
102
{ACAD_REACTORS
330
11E2
102
}
330
1F
100
AcDbEntity
  8
実線
100
AcDbLine
 10
1086.674027100845
 20
414.9452635904949
 30
0.0
 11
976.6740271008453
 21
414.9452635904949
 31
0.0
  0
LINE
  5
1084
102
{ACAD_REACTORS
330
11E2
102
}
330
1F
100
AcDbEntity
  8
実線
100
AcDbLine
 10
966.6740271008452
 20
404.9452635904948
 30
0.0
 11
966.6740271008452
 21
346.9452635904949
 31
0.0
  0
LINE
  5
1085
102
{ACAD_REACTORS
330
11E2
102
}
330
1F
100
AcDbEntity
  8
実線
100
AcDbLine
 10
1096.674027100845
 20
346.945263590495
 30
0.0
 11
1096.674027100845
 21
404.9452635904949
 31
0.0
  0
LINE
  5
1086
102
{ACAD_REACTORS
330
11E2
102
}
330
1F
100
AcDbEntity
  8
実線
100
AcDbLine
 10
966.6740271008452
 20
404.9452635904948
 30
0.0
 11
1096.674027100845
 21
404.9452635904948
 31
0.0
  0
LINE
  5
1087
102
{ACAD_REACTORS
330
11E2
102
}
330
1F
100
AcDbEntity
  8
実線
100
AcDbLine
 10
966.6740271008452
 20
346.945263590495
 30
0.0
 11
1096.674027100845
 21
346.945263590495
 31
0.0
  0
LINE
  5
1088
102
{ACAD_REACTORS
330
11E2
102
}
330
1F
100
AcDbEntity
  8
実線
100
AcDbLine
 10
1086.674027100845
 20
834.445263590495
 30
0.0
 11
1086.674027100845
 21
1051.945263590495
 31
0.0
  0
LINE
  5
1089
102
{ACAD_REACTORS
330
11E2
102
}
330
1F
100
AcDbEntity
  8
実線
100
AcDbLine
 10
976.6740271008453
 20
1051.945263590495
 30
0.0
 11
976.6740271008453
 21
834.445263590495
 31
0.0
  0
LINE
  5
108A
102
{ACAD_REACTORS
330
11E2
102
}
330
1F
100
AcDbEntity
  8
実線
100
AcDbLine
 10
1086.674027100845
 20
1051.945263590495
 30
0.0
 11
976.6740271008453
 21
1051.945263590495
 31
0.0
  0
LINE
  5
108B
102
{ACAD_REACTORS
330
11E2
102
}
330
1F
100
AcDbEntity
  8
実線
100
AcDbLine
 10
1086.674027100845
 20
1051.945263590495
 30
0.0
 11
1096.674027100845
 21
1061.945263590495
 31
0.0
  0
LINE
  5
108C
102
{ACAD_REACTORS
330
11E2
102
}
330
1F
100
AcDbEntity
  8
実線
100
AcDbLine
 10
966.6740271008452
 20
1061.945263590495
 30
0.0
 11
976.6740271008453
 21
1051.945263590495
 31
0.0
  0
LINE
  5
108D
102
{ACAD_REACTORS
330
11E2
102
}
330
1F
100
AcDbEntity
  8
実線
100
AcDbLine
 10
1096.674027100845
 20
1061.945263590495
 30
0.0
 11
966.6740271008452
 21
1061.945263590495
 31
0.0
  0
LINE
  5
108E
102
{ACAD_REACTORS
330
11E2
102
}
330
1F
100
AcDbEntity
  8
実線
100
AcDbLine
 10
1096.674027100845
 20
1061.945263590495
 30
0.0
 11
1096.674027100845
 21
1119.945263590495
 31
0.0
  0
LINE
  5
108F
102
{ACAD_REACTORS
330
11E2
102
}
330
1F
100
AcDbEntity
  8
実線
100
AcDbLine
 10
966.6740271008452
 20
1119.945263590495
 30
0.0
 11
966.6740271008452
 21
1061.945263590495
 31
0.0
  0
LINE
  5
1090
102
{ACAD_REACTORS
330
11E2
102
}
330
1F
100
AcDbEntity
  8
実線
100
AcDbLine
 10
1004.280628818633
 20
723.445263590495
 30
0.0
 11
1041.816162724566
 21
723.445263590495
 31
0.0
  0
LINE
  5
1091
102
{ACAD_REACTORS
330
11E2
102
}
330
1F
100
AcDbEntity
  8
実線
100
AcDbLine
 10
1007.771882845559
 20
743.4452635904949
 30
0.0
 11
1004.280628818633
 21
743.4452635904949
 31
0.0
  0
LINE
  5
1092
102
{ACAD_REACTORS
330
11E2
102
}
330
1F
100
AcDbEntity
  8
実線
100
AcDbLine
 10
977.2632316897707
 20
724.6952635904949
 30
0.0
 11
971.0760473543883
 21
733.4452635904949
 31
0.0
  0
LINE
  5
1093
102
{ACAD_REACTORS
330
11E2
102
}
330
1F
100
AcDbEntity
  8
実線
100
AcDbLine
 10
1064.318082648203
 20
703.7467787806599
 30
0.0
 11
1071.272006847282
 21
703.7467787806599
 31
0.0
  0
LINE
  5
1094
102
{ACAD_REACTORS
330
11E2
102
}
330
1F
100
AcDbEntity
  8
実線
100
AcDbLine
 10
1068.88813423236
 20
763.1437484003299
 30
0.0
 11
1071.272006847282
 21
763.1437484003299
 31
0.0
  0
LINE
  5
1095
102
{ACAD_REACTORS
330
11E2
102
}
330
1F
100
AcDbEntity
  8
実線
100
AcDbLine
 10
983.2372125895563
 20
733.4452635904949
 30
0.0
 11
971.0760473543883
 21
733.4452635904949
 31
0.0
  0
LINE
  5
1096
102
{ACAD_REACTORS
330
11E2
102
}
330
1F
100
AcDbEntity
  8
実線
100
AcDbLine
 10
1050.272006847282
 20
733.4452635904949
 30
0.0
 11
1037.674027100835
 21
733.4452635904949
 31
0.0
  0
LINE
  5
1097
102
{ACAD_REACTORS
330
11E2
102
}
330
1F
100
AcDbEntity
  8
実線
100
AcDbLine
 10
1092.272006847282
 20
733.4452635904949
 30
0.0
 11
1071.272006847282
 21
763.1437484003299
 31
0.0
  0
LINE
  5
1098
102
{ACAD_REACTORS
330
11E2
102
}
330
1F
100
AcDbEntity
  8
実線
100
AcDbLine
 10
1060.998023148087
 20
748.6141413133282
 30
0.0
 11
1050.272006847282
 21
733.4452635904952
 31
0.0
  0
LINE
  5
1099
102
{ACAD_REACTORS
330
11E2
102
}
330
1F
100
AcDbEntity
  8
実線
100
AcDbLine
 10
1071.272006847282
 20
763.1437484003299
 30
0.0
 11
1065.331103566252
 21
754.7420424075515
 31
0.0
  0
LINE
  5
109A
102
{ACAD_REACTORS
330
11E2
102
}
330
1F
100
AcDbEntity
  8
実線
100
AcDbLine
 10
1071.272006847282
 20
703.7467787806599
 30
0.0
 11
1050.272006847282
 21
733.4452635904949
 31
0.0
  0
LINE
  5
109B
102
{ACAD_REACTORS
330
11E2
102
}
330
1F
100
AcDbEntity
  8
実線
100
AcDbLine
 10
1071.272006847282
 20
703.7467787806599
 30
0.0
 11
1092.272006847282
 21
733.4452635904949
 31
0.0
  0
LINE
  5
109C
102
{ACAD_REACTORS
330
11E2
102
}
330
1F
100
AcDbEntity
  8
実線
100
AcDbLine
 10
953.2740271008352
 20
661.1952635904949
 30
0.0
 11
970.8943379229959
 21
661.1952635904949
 31
0.0
  0
LINE
  5
109D
102
{ACAD_REACTORS
330
11E2
102
}
330
1F
100
AcDbEntity
  8
実線
100
AcDbLine
 10
985.7638567679119
 20
724.6952635904949
 30
0.0
 11
953.2740271008352
 21
724.6952635904949
 31
0.0
  0
LINE
  5
109E
102
{ACAD_REACTORS
330
11E2
102
}
330
1F
100
AcDbEntity
  8
実線
100
AcDbLine
 10
946.6740271008347
 20
654.1952635904949
 30
0.0
 11
950.1740271008348
 21
654.1952635904949
 31
0.0
  0
LINE
  5
109F
102
{ACAD_REACTORS
330
11E2
102
}
330
1F
100
AcDbEntity
  8
実線
100
AcDbLine
 10
950.1740271008348
 20
731.6952635904949
 30
0.0
 11
946.6740271008347
 21
731.6952635904949
 31
0.0
  0
LINE
  5
10A0
102
{ACAD_REACTORS
330
11E2
102
}
330
1F
100
AcDbEntity
  8
実線
100
AcDbLine
 10
946.6740271008347
 20
654.1952635904949
 30
0.0
 11
946.6740271008347
 21
731.6952635904949
 31
0.0
  0
LINE
  5
10A1
102
{ACAD_REACTORS
330
11E2
102
}
330
1F
100
AcDbEntity
  8
実線
100
AcDbLine
 10
953.2740271008352
 20
724.6952635904949
 30
0.0
 11
950.1740271008348
 21
731.6952635904949
 31
0.0
  0
LINE
  5
10A2
102
{ACAD_REACTORS
330
11E2
102
}
330
1F
100
AcDbEntity
  8
実線
100
AcDbLine
 10
950.1740271008348
 20
654.1952635904949
 30
0.0
 11
953.2740271008352
 21
661.1952635904949
 31
0.0
  0
LINE
  5
10A3
102
{ACAD_REACTORS
330
11E2
102
}
330
1F
100
AcDbEntity
  8
実線
100
AcDbLine
 10
950.1740271008348
 20
731.6952635904949
 30
0.0
 11
950.1740271008348
 21
654.1952635904949
 31
0.0
  0
LINE
  5
10A4
102
{ACAD_REACTORS
330
11E2
102
}
330
1F
100
AcDbEntity
  8
実線
100
AcDbLine
 10
953.2740271008352
 20
724.6952635904949
 30
0.0
 11
953.2740271008352
 21
661.1952635904949
 31
0.0
  0
LINE
  5
10A5
102
{ACAD_REACTORS
330
11E2
102
}
330
1F
100
AcDbEntity
  8
実線
100
AcDbLine
 10
1110.074027100835
 20
724.6952635904949
 30
0.0
 11
1086.084822511899
 21
724.6952635904949
 31
0.0
  0
LINE
  5
10A6
102
{ACAD_REACTORS
330
11E2
102
}
330
1F
100
AcDbEntity
  8
実線
100
AcDbLine
 10
1092.453716278674
 20
661.1952635904949
 30
0.0
 11
1110.074027100835
 21
661.1952635904949
 31
0.0
  0
LINE
  5
10A7
102
{ACAD_REACTORS
330
11E2
102
}
330
1F
100
AcDbEntity
  8
実線
100
AcDbLine
 10
1110.074027100835
 20
661.1952635904949
 30
0.0
 11
1110.074027100835
 21
724.6952635904949
 31
0.0
  0
LINE
  5
10A8
102
{ACAD_REACTORS
330
11E2
102
}
330
1F
100
AcDbEntity
  8
実線
100
AcDbLine
 10
1110.074027100835
 20
661.1952635904949
 30
0.0
 11
1113.174027100835
 21
654.1952635904949
 31
0.0
  0
LINE
  5
10A9
102
{ACAD_REACTORS
330
11E2
102
}
330
1F
100
AcDbEntity
  8
実線
100
AcDbLine
 10
1113.174027100835
 20
731.6952635904949
 30
0.0
 11
1110.074027100835
 21
724.6952635904949
 31
0.0
  0
LINE
  5
10AA
102
{ACAD_REACTORS
330
11E2
102
}
330
1F
100
AcDbEntity
  8
実線
100
AcDbLine
 10
1116.674027100835
 20
654.1952635904949
 30
0.0
 11
1116.674027100835
 21
731.6952635904949
 31
0.0
  0
LINE
  5
10AB
102
{ACAD_REACTORS
330
11E2
102
}
330
1F
100
AcDbEntity
  8
実線
100
AcDbLine
 10
1113.174027100835
 20
654.1952635904949
 30
0.0
 11
1113.174027100835
 21
731.6952635904949
 31
0.0
  0
LINE
  5
10AC
102
{ACAD_REACTORS
330
11E2
102
}
330
1F
100
AcDbEntity
  8
実線
100
AcDbLine
 10
1116.674027100835
 20
731.6952635904949
 30
0.0
 11
1113.174027100835
 21
731.6952635904949
 31
0.0
  0
LINE
  5
10AD
102
{ACAD_REACTORS
330
11E2
102
}
330
1F
100
AcDbEntity
  8
実線
100
AcDbLine
 10
1113.174027100835
 20
654.1952635904949
 30
0.0
 11
1116.674027100835
 21
654.1952635904949
 31
0.0
  0
CIRCLE
  5
10AE
102
{ACAD_REACTORS
330
11E2
102
}
330
1F
100
AcDbEntity
  8
実線
100
AcDbCircle
 10
1031.674027100835
 20
773.945263590495
 30
0.0
 40
38.75
  0
ELLIPSE
  5
10AF
102
{ACAD_REACTORS
330
11E2
102
}
330
1F
100
AcDbEntity
  8
実線
100
AcDbEllipse
 10
992.0760473543882
 20
733.4452635904949
 30
0.0
 11
0.0
 21
12.5
 31
0.0
210
0.0
220
0.0
230
1.0
 40
0.7071067811865476
 41
0.0
 42
1.570796326794897
  0
LINE
  5
10B0
102
{ACAD_REACTORS
330
11E2
102
}
330
1F
100
AcDbEntity
  8
実線
100
AcDbLine
 10
992.0760473543882
 20
720.9452635904949
 30
0.0
 11
1006.05122357565
 21
720.9452635904949
 31
0.0
  0
LINE
  5
10B1
102
{ACAD_REACTORS
330
11E2
102
}
330
1F
100
AcDbEntity
  8
実線
100
AcDbLine
 10
1004.886670008356
 20
745.9452635904949
 30
0.0
 11
992.0760473543882
 21
745.9452635904949
 31
0.0
  0
ELLIPSE
  5
10B2
102
{ACAD_REACTORS
330
11E2
102
}
330
1F
100
AcDbEntity
  8
実線
100
AcDbEllipse
 10
992.0760473543882
 20
733.4452635904949
 30
0.0
 11
0.0
 21
12.5
 31
0.0
210
0.0
220
0.0
230
1.0
 40
0.7071067811865476
 41
3.141592653589792
 42
6.283185307179585
  0
ELLIPSE
  5
10B3
102
{ACAD_REACTORS
330
11E2
102
}
330
1F
100
AcDbEntity
  8
実線
100
AcDbEllipse
 10
992.0760473543882
 20
733.4452635904949
 30
0.0
 11
0.0
 21
12.5
 31
0.0
210
0.0
220
0.0
230
1.0
 40
0.7071067811865476
 41
1.570796326794897
 42
3.141592653589792
  0
LINE
  5
10B4
102
{ACAD_REACTORS
330
11E2
102
}
330
1F
100
AcDbEntity
  8
実線
100
AcDbLine
 10
1011.687838157838
 20
722.6952635904949
 30
0.0
 11
1039.273146512755
 21
722.6952635904949
 31
0.0
  0
LINE
  5
10B5
102
{ACAD_REACTORS
330
11E2
102
}
330
1F
100
AcDbEntity
  8
実線
100
AcDbLine
 10
948.4678385347297
 20
757.9452635904947
 30
0.0
 11
951.4678385347297
 21
757.9452635904947
 31
0.0
  0
LINE
  5
10B6
102
{ACAD_REACTORS
330
11E2
102
}
330
1F
100
AcDbEntity
  8
実線
100
AcDbLine
 10
951.4678385347297
 20
751.4452635904947
 30
0.0
 11
951.4678385347297
 21
757.9452635904947
 31
0.0
  0
LINE
  5
10B7
102
{ACAD_REACTORS
330
11E2
102
}
330
1F
100
AcDbEntity
  8
実線
100
AcDbLine
 10
948.4678385347297
 20
757.9452635904947
 30
0.0
 11
948.4678385347297
 21
751.4452635904947
 31
0.0
  0
LINE
  5
10B8
102
{ACAD_REACTORS
330
11E2
102
}
330
1F
100
AcDbEntity
  8
実線
100
AcDbLine
 10
1092.453716278674
 20
652.445263590495
 30
0.0
 11
970.8943379229959
 21
652.445263590495
 31
0.0
  0
LINE
  5
10B9
102
{ACAD_REACTORS
330
11E2
102
}
330
1F
100
AcDbEntity
  8
実線
100
AcDbLine
 10
1092.453716278674
 20
667.4452635904949
 30
0.0
 11
970.8943379229959
 21
667.4452635904949
 31
0.0
  0
LINE
  5
10BA
102
{ACAD_REACTORS
330
11E2
102
}
330
1F
100
AcDbEntity
  8
実線
100
AcDbLine
 10
970.8943379229959
 20
667.4452635904949
 30
0.0
 11
970.8943379229959
 21
652.445263590495
 31
0.0
  0
LINE
  5
10BB
102
{ACAD_REACTORS
330
11E2
102
}
330
1F
100
AcDbEntity
  8
実線
100
AcDbLine
 10
1092.453716278674
 20
652.445263590495
 30
0.0
 11
1092.453716278674
 21
667.4452635904949
 31
0.0
  0
LINE
  5
10BC
102
{ACAD_REACTORS
330
11E2
102
}
330
1F
100
AcDbEntity
  8
実線
100
AcDbLine
 10
1004.864054950894
 20
667.4452635904949
 30
0.0
 11
1004.864054950894
 21
652.445263590495
 31
0.0
  0
LINE
  5
10BD
102
{ACAD_REACTORS
330
11E2
102
}
330
1F
100
AcDbEntity
  8
実線
100
AcDbLine
 10
1058.483999250776
 20
667.4452635904949
 30
0.0
 11
1058.483999250776
 21
652.445263590495
 31
0.0
  0
LINE
  5
10BE
102
{ACAD_REACTORS
330
11E2
102
}
330
1F
100
AcDbEntity
  8
実線
100
AcDbLine
 10
944.3816949633555
 20
751.4452635904947
 30
0.0
 11
955.1661447776909
 21
751.4452635904947
 31
0.0
  0
LINE
  5
10BF
102
{ACAD_REACTORS
330
11E2
102
}
330
1F
100
AcDbEntity
  8
実線
100
AcDbLine
 10
944.3816949633555
 20
748.4452635904947
 30
0.0
 11
944.3816949633555
 21
751.4452635904947
 31
0.0
  0
LINE
  5
10C0
102
{ACAD_REACTORS
330
11E2
102
}
330
1F
100
AcDbEntity
  8
実線
100
AcDbLine
 10
949.9678385347296
 20
748.4452635904947
 30
0.0
 11
949.9678385347296
 21
751.4452635904947
 31
0.0
  0
LINE
  5
10C1
102
{ACAD_REACTORS
330
11E2
102
}
330
1F
100
AcDbEntity
  8
実線
100
AcDbLine
 10
939.9622775809397
 20
748.4452635904947
 30
0.0
 11
953.0448244341314
 21
748.4452635904947
 31
0.0
  0
LINE
  5
10C2
102
{ACAD_REACTORS
330
11E2
102
}
330
1F
100
AcDbEntity
  8
実線
100
AcDbLine
 10
939.9622775809397
 20
748.4452635904947
 30
0.0
 11
939.9622775809397
 21
726.4452635904947
 31
0.0
  0
LINE
  5
10C3
102
{ACAD_REACTORS
330
11E2
102
}
330
1F
100
AcDbEntity
  8
実線
100
AcDbLine
 10
946.6740271008347
 20
726.4452635904947
 30
0.0
 11
939.9622775809397
 21
726.4452635904947
 31
0.0
  0
LINE
  5
10C4
102
{ACAD_REACTORS
330
11E2
102
}
330
1F
100
AcDbEntity
  8
実線
100
AcDbLine
 10
952.6901996422976
 20
747.9437484003301
 30
0.0
 11
952.6901996422976
 21
748.4452635904947
 31
0.0
  0
LINE
  5
10C5
102
{ACAD_REACTORS
330
11E2
102
}
330
1F
100
AcDbEntity
  8
実線
100
AcDbLine
 10
942.4382227163333
 20
733.4452635904949
 30
0.0
 11
946.6740271008347
 21
727.4549315823731
 31
0.0
  0
LINE
  5
10C6
102
{ACAD_REACTORS
330
11E2
102
}
330
1F
100
AcDbEntity
  8
実線
100
AcDbLine
 10
985.5083610148858
 20
763.1437484003299
 30
0.0
 11
963.4382227163332
 21
763.1437484003299
 31
0.0
  0
LINE
  5
10C7
102
{ACAD_REACTORS
330
11E2
102
}
330
1F
100
AcDbEntity
  8
実線
100
AcDbLine
 10
942.4382227163333
 20
733.4452635904949
 30
0.0
 11
963.4382227163332
 21
763.1437484003299
 31
0.0
  0
LINE
  5
10C8
102
{ACAD_REACTORS
330
11E2
102
}
330
1F
100
AcDbEntity
  8
実線
100
AcDbLine
 10
971.0760473543883
 20
733.4452635904949
 30
0.0
 11
942.4382227163333
 21
733.4452635904949
 31
0.0
  0
LINE
  5
10C9
102
{ACAD_REACTORS
330
11E2
102
}
330
1F
100
AcDbEntity
  8
実線
100
AcDbLine
 10
971.0760473543883
 20
733.4452635904949
 30
0.0
 11
988.4604686583093
 21
758.030547972508
 31
0.0
  0
LINE
  5
10CA
102
{ACAD_REACTORS
330
11E2
102
}
330
1F
100
AcDbEntity
  8
実線
100
AcDbLine
 10
957.7309373682087
 20
757.9452635904947
 30
0.0
 11
959.7623388554033
 21
757.9452635904947
 31
0.0
  0
LINE
  5
10CB
102
{ACAD_REACTORS
330
11E2
102
}
330
1F
100
AcDbEntity
  8
実線
100
AcDbLine
 10
957.7309373682087
 20
757.9452635904947
 30
0.0
 11
957.7309373682087
 21
755.0724280566791
 31
0.0
  0
LINE
  5
10CC
102
{ACAD_REACTORS
330
11E2
102
}
330
1F
100
AcDbEntity
  8
実線
100
AcDbLine
 10
1020.674027100845
 20
341.945263590495
 30
0.0
 11
1020.674027100845
 21
318.745263590495
 31
0.0
  0
LINE
  5
10CD
102
{ACAD_REACTORS
330
11E2
102
}
330
1F
100
AcDbEntity
  8
実線
100
AcDbLine
 10
1042.674027100845
 20
318.745263590495
 30
0.0
 11
1042.674027100845
 21
341.945263590495
 31
0.0
  0
LINE
  5
10CE
102
{ACAD_REACTORS
330
11E2
102
}
330
1F
100
AcDbEntity
  8
実線
100
AcDbLine
 10
1038.674027100845
 20
1158.895263590495
 30
0.0
 11
1038.674027100845
 21
1164.945263590495
 31
0.0
  0
LINE
  5
10CF
102
{ACAD_REACTORS
330
11E2
102
}
330
1F
100
AcDbEntity
  8
実線
100
AcDbLine
 10
1038.674027100845
 20
1164.945263590495
 30
0.0
 11
1011.674027100845
 21
1164.945263590495
 31
0.0
  0
LINE
  5
10D0
102
{ACAD_REACTORS
330
11E2
102
}
330
1F
100
AcDbEntity
  8
実線
100
AcDbLine
 10
1011.674027100845
 20
1156.445263590495
 30
0.0
 11
1011.674027100845
 21
1164.945263590495
 31
0.0
  0
LINE
  5
10D1
102
{ACAD_REACTORS
330
11E2
102
}
330
1F
100
AcDbEntity
  8
実線
100
AcDbLine
 10
1011.674027100845
 20
1136.445263590495
 30
0.0
 11
1011.674027100845
 21
1153.445263590495
 31
0.0
  0
LINE
  5
10D2
102
{ACAD_REACTORS
330
11E2
102
}
330
1F
100
AcDbEntity
  8
実線
100
AcDbLine
 10
1011.674027100845
 20
1126.145263590495
 30
0.0
 11
1011.674027100845
 21
1133.445263590495
 31
0.0
  0
LINE
  5
10D3
102
{ACAD_REACTORS
330
11E2
102
}
330
1F
100
AcDbEntity
  8
実線
100
AcDbLine
 10
996.6740271008452
 20
1124.945263590495
 30
0.0
 11
996.6740271008452
 21
1126.145263590495
 31
0.0
  0
LINE
  5
10D4
102
{ACAD_REACTORS
330
11E2
102
}
330
1F
100
AcDbEntity
  8
実線
100
AcDbLine
 10
1017.674027100845
 20
1124.945263590495
 30
0.0
 11
1017.674027100845
 21
1126.145263590495
 31
0.0
  0
LINE
  5
10D5
102
{ACAD_REACTORS
330
11E2
102
}
330
1F
100
AcDbEntity
  8
実線
100
AcDbLine
 10
1017.674027100845
 20
1126.145263590495
 30
0.0
 11
996.6740271008452
 21
1126.145263590495
 31
0.0
  0
LINE
  5
10D6
102
{ACAD_REACTORS
330
11E2
102
}
330
1F
100
AcDbEntity
  8
実線
100
AcDbLine
 10
1074.887585543361
 20
758.030547972508
 30
0.0
 11
1079.57337350141
 21
766.1465707893446
 31
0.0
  0
LINE
  5
10D7
102
{ACAD_REACTORS
330
11E2
102
}
330
1F
100
AcDbEntity
  8
実線
100
AcDbLine
 10
983.7746807002595
 20
766.1465707893446
 30
0.0
 11
995.4379108494977
 21
745.9452635904949
 31
0.0
  0
LINE
  5
10D8
102
{ACAD_REACTORS
330
11E2
102
}
330
1F
100
AcDbEntity
  8
実線
100
AcDbLine
 10
1086.674027100835
 20
792.6465707893444
 30
0.0
 11
1086.674027100835
 21
799.4452635904949
 31
0.0
  0
LINE
  5
10D9
102
{ACAD_REACTORS
330
11E2
102
}
330
1F
100
AcDbEntity
  8
実線
100
AcDbLine
 10
976.6740271008348
 20
799.4452635904949
 30
0.0
 11
976.6740271008348
 21
792.6465707893444
 31
0.0
  0
ARC
  5
10DA
102
{ACAD_REACTORS
330
11E2
102
}
330
1F
100
AcDbEntity
  8
実線
100
AcDbCircle
 10
1033.674027100835
 20
792.6465707893444
 30
0.0
 40
53.0
100
AcDbArc
 50
330.0000000000041
 51
0.0
  0
ARC
  5
10DB
102
{ACAD_REACTORS
330
11E2
102
}
330
1F
100
AcDbEntity
  8
実線
100
AcDbCircle
 10
1029.674027100835
 20
792.6465707893444
 30
0.0
 40
53.0
100
AcDbArc
 50
180.0
 51
209.9999999999959
  0
LINE
  5
10DC
102
{ACAD_REACTORS
330
11E2
102
}
330
1F
100
AcDbEntity
  8
実線
100
AcDbLine
 10
1086.674027100845
 20
831.4452635904949
 30
0.0
 11
1086.674027100845
 21
834.445263590495
 31
0.0
  0
LINE
  5
10DD
102
{ACAD_REACTORS
330
11E2
102
}
330
1F
100
AcDbEntity
  8
実線
100
AcDbLine
 10
976.6740271008453
 20
834.445263590495
 30
0.0
 11
976.6740271008453
 21
831.4452635904949
 31
0.0
  0
LINE
  5
10DE
102
{ACAD_REACTORS
330
11E2
102
}
330
1F
100
AcDbEntity
  8
実線
100
AcDbLine
 10
1086.674027100845
 20
834.445263590495
 30
0.0
 11
976.6740271008453
 21
834.445263590495
 31
0.0
  0
LINE
  5
10DF
102
{ACAD_REACTORS
330
11E2
102
}
330
1F
100
AcDbEntity
  8
実線
100
AcDbLine
 10
1092.453716278684
 20
814.4452635904949
 30
0.0
 11
1092.453716278684
 21
831.4452635904949
 31
0.0
  0
LINE
  5
10E0
102
{ACAD_REACTORS
330
11E2
102
}
330
1F
100
AcDbEntity
  8
実線
100
AcDbLine
 10
1092.453716278684
 20
831.4452635904949
 30
0.0
 11
1058.483999250786
 21
831.4452635904949
 31
0.0
  0
LINE
  5
10E1
102
{ACAD_REACTORS
330
11E2
102
}
330
1F
100
AcDbEntity
  8
実線
100
AcDbLine
 10
970.8943379230058
 20
831.4452635904949
 30
0.0
 11
1004.864054950903
 21
831.4452635904949
 31
0.0
  0
LINE
  5
10E2
102
{ACAD_REACTORS
330
11E2
102
}
330
1F
100
AcDbEntity
  8
実線
100
AcDbLine
 10
970.8943379230058
 20
831.4452635904949
 30
0.0
 11
970.8943379230058
 21
814.4452635904949
 31
0.0
  0
LINE
  5
10E3
102
{ACAD_REACTORS
330
11E2
102
}
330
1F
100
AcDbEntity
  8
実線
100
AcDbLine
 10
1058.483999250786
 20
814.4452635904949
 30
0.0
 11
1058.483999250786
 21
831.4452635904949
 31
0.0
  0
LINE
  5
10E4
102
{ACAD_REACTORS
330
11E2
102
}
330
1F
100
AcDbEntity
  8
実線
100
AcDbLine
 10
1004.864054950903
 20
814.4452635904949
 30
0.0
 11
1004.864054950903
 21
831.4452635904949
 31
0.0
  0
LINE
  5
10E5
102
{ACAD_REACTORS
330
11E2
102
}
330
1F
100
AcDbEntity
  8
実線
100
AcDbLine
 10
971.6740271008452
 20
341.9452635904949
 30
0.0
 11
1091.674027100845
 21
341.9452635904949
 31
0.0
  0
ARC
  5
10E6
102
{ACAD_REACTORS
330
11E2
102
}
330
1F
100
AcDbEntity
  8
実線
100
AcDbCircle
 10
971.6740271008452
 20
346.945263590495
 30
0.0
 40
5.0
100
AcDbArc
 50
180.0
 51
270.0
  0
ARC
  5
10E7
102
{ACAD_REACTORS
330
11E2
102
}
330
1F
100
AcDbEntity
  8
実線
100
AcDbCircle
 10
1091.674027100845
 20
346.945263590495
 30
0.0
 40
5.0
100
AcDbArc
 50
270.0
 51
0.0
  0
LINE
  5
10E8
102
{ACAD_REACTORS
330
11E2
102
}
330
1F
100
AcDbEntity
  8
実線
100
AcDbLine
 10
1017.174027100845
 20
341.945263590495
 30
0.0
 11
1017.174027100845
 21
340.745263590495
 31
0.0
  0
LINE
  5
10E9
102
{ACAD_REACTORS
330
11E2
102
}
330
1F
100
AcDbEntity
  8
実線
100
AcDbLine
 10
1009.174027100844
 20
340.745263590495
 30
0.0
 11
1017.174027100845
 21
340.745263590495
 31
0.0
  0
LINE
  5
10EA
102
{ACAD_REACTORS
330
11E2
102
}
330
1F
100
AcDbEntity
  8
実線
100
AcDbLine
 10
1009.174027100844
 20
301.9452635904951
 30
0.0
 11
1009.174027100844
 21
341.9452635904951
 31
0.0
  0
LINE
  5
10EB
102
{ACAD_REACTORS
330
11E2
102
}
330
1F
100
AcDbEntity
  8
実線
100
AcDbLine
 10
1007.974027100845
 20
340.745263590495
 30
0.0
 11
1007.974027100845
 21
301.9452635904951
 31
0.0
  0
LINE
  5
10EC
102
{ACAD_REACTORS
330
11E2
102
}
330
1F
100
AcDbEntity
  8
実線
100
AcDbLine
 10
988.1740271008448
 20
340.745263590495
 30
0.0
 11
1007.974027100845
 21
340.745263590495
 31
0.0
  0
LINE
  5
10ED
102
{ACAD_REACTORS
330
11E2
102
}
330
1F
100
AcDbEntity
  8
実線
100
AcDbLine
 10
1007.974027100845
 20
301.945263590495
 30
0.0
 11
1009.174027100844
 21
301.945263590495
 31
0.0
  0
LINE
  5
10EE
102
{ACAD_REACTORS
330
11E2
102
}
330
1F
100
AcDbEntity
  8
実線
100
AcDbLine
 10
988.1740271008448
 20
341.945263590495
 30
0.0
 11
988.1740271008448
 21
340.745263590495
 31
0.0
  0
LINE
  5
10EF
102
{ACAD_REACTORS
330
11E2
102
}
330
1F
100
AcDbEntity
  8
実線
100
AcDbLine
 10
1091.674027100845
 20
1124.945263590495
 30
0.0
 11
971.6740271008452
 21
1124.945263590495
 31
0.0
  0
ARC
  5
10F0
102
{ACAD_REACTORS
330
11E2
102
}
330
1F
100
AcDbEntity
  8
実線
100
AcDbCircle
 10
1091.674027100845
 20
1119.945263590495
 30
0.0
 40
5.0
100
AcDbArc
 50
0.0
 51
90.0
  0
ARC
  5
10F1
102
{ACAD_REACTORS
330
11E2
102
}
330
1F
100
AcDbEntity
  8
実線
100
AcDbCircle
 10
971.6740271008452
 20
1119.945263590495
 30
0.0
 40
5.0
100
AcDbArc
 50
90.0
 51
180.0
  0
LINE
  5
10F2
102
{ACAD_REACTORS
330
11E2
102
}
330
1F
100
AcDbEntity
  8
実線
100
AcDbLine
 10
1096.674027100845
 20
1119.945263590495
 30
0.0
 11
966.6740271008452
 21
1119.945263590495
 31
0.0
  0
LINE
  5
10F3
102
{ACAD_REACTORS
330
11E2
102
}
330
1F
100
AcDbEntity
  8
実線
100
AcDbLine
 10
1086.674027100845
 20
632.4452635904949
 30
0.0
 11
976.6740271008448
 21
632.4452635904949
 31
0.0
  0
LINE
  5
10F4
102
{ACAD_REACTORS
330
11E2
102
}
330
1F
100
AcDbEntity
  8
実線
100
AcDbLine
 10
976.6740271008448
 20
635.4452635904949
 30
0.0
 11
976.6740271008448
 21
632.4452635904949
 31
0.0
  0
LINE
  5
10F5
102
{ACAD_REACTORS
330
11E2
102
}
330
1F
100
AcDbEntity
  8
実線
100
AcDbLine
 10
1086.674027100845
 20
632.4452635904949
 30
0.0
 11
1086.674027100845
 21
635.4452635904949
 31
0.0
  0
LINE
  5
10F6
102
{ACAD_REACTORS
330
11E2
102
}
330
1F
100
AcDbEntity
  8
実線
100
AcDbLine
 10
970.8943379230063
 20
652.445263590495
 30
0.0
 11
970.8943379230063
 21
635.4452635904949
 31
0.0
  0
LINE
  5
10F7
102
{ACAD_REACTORS
330
11E2
102
}
330
1F
100
AcDbEntity
  8
実線
100
AcDbLine
 10
970.8943379230063
 20
635.4452635904949
 30
0.0
 11
1004.864054950903
 21
635.4452635904949
 31
0.0
  0
LINE
  5
10F8
102
{ACAD_REACTORS
330
11E2
102
}
330
1F
100
AcDbEntity
  8
実線
100
AcDbLine
 10
1092.453716278684
 20
635.4452635904949
 30
0.0
 11
1058.483999250786
 21
635.4452635904949
 31
0.0
  0
LINE
  5
10F9
102
{ACAD_REACTORS
330
11E2
102
}
330
1F
100
AcDbEntity
  8
実線
100
AcDbLine
 10
1092.453716278684
 20
635.4452635904949
 30
0.0
 11
1092.453716278684
 21
652.445263590495
 31
0.0
  0
LINE
  5
10FA
102
{ACAD_REACTORS
330
11E2
102
}
330
1F
100
AcDbEntity
  8
実線
100
AcDbLine
 10
1004.864054950903
 20
652.445263590495
 30
0.0
 11
1004.864054950903
 21
635.4452635904949
 31
0.0
  0
LINE
  5
10FB
102
{ACAD_REACTORS
330
11E2
102
}
330
1F
100
AcDbEntity
  8
実線
100
AcDbLine
 10
1058.483999250786
 20
652.445263590495
 30
0.0
 11
1058.483999250786
 21
635.4452635904949
 31
0.0
  0
CIRCLE
  5
10FC
102
{ACAD_REACTORS
330
11E7
102
}
330
1F
100
AcDbEntity
  8
実線
100
AcDbCircle
 10
431.674027100832
 20
133.4452635904982
 30
0.0
 40
14.0
  0
LINE
  5
10FD
102
{ACAD_REACTORS
330
11E7
102
}
330
1F
100
AcDbEntity
  8
実線
100
AcDbLine
 10
451.7240271008322
 20
151.4452635904982
 30
0.0
 11
451.7240271008322
 21
157.9452635904982
 31
0.0
  0
LINE
  5
10FE
102
{ACAD_REACTORS
330
11E7
102
}
330
1F
100
AcDbEntity
  8
実線
100
AcDbLine
 10
448.7240271008322
 20
157.9452635904982
 30
0.0
 11
448.7240271008322
 21
151.4452635904982
 31
0.0
  0
LINE
  5
10FF
102
{ACAD_REACTORS
330
11E7
102
}
330
1F
100
AcDbEntity
  8
実線
100
AcDbLine
 10
451.7240271008322
 20
157.9452635904982
 30
0.0
 11
448.7240271008322
 21
157.9452635904982
 31
0.0
  0
LINE
  5
1100
102
{ACAD_REACTORS
330
11E7
102
}
330
1F
100
AcDbEntity
  8
実線
100
AcDbLine
 10
446.2740271008324
 20
126.4452635904981
 30
0.0
 11
446.2740271008324
 21
151.4452635904981
 31
0.0
  0
LINE
  5
1101
102
{ACAD_REACTORS
330
11E7
102
}
330
1F
100
AcDbEntity
  8
実線
100
AcDbLine
 10
454.1740271008325
 20
151.4452635904981
 30
0.0
 11
446.2740271008324
 21
151.4452635904981
 31
0.0
  0
LINE
  5
1102
102
{ACAD_REACTORS
330
11E7
102
}
330
1F
100
AcDbEntity
  8
実線
100
AcDbLine
 10
446.2740271008324
 20
126.4452635904981
 30
0.0
 11
454.1740271008325
 21
126.4452635904981
 31
0.0
  0
LINE
  5
1103
102
{ACAD_REACTORS
330
11E7
102
}
330
1F
100
AcDbEntity
  8
実線
100
AcDbLine
 10
489.1618084113729
 20
212.4290910489704
 30
0.0
 11
506.4859245505036
 21
229.7532071881006
 31
0.0
  0
LINE
  5
1104
102
{ACAD_REACTORS
330
11E7
102
}
330
1F
100
AcDbEntity
  8
実線
100
AcDbLine
 10
507.3344526879273
 20
228.9046790506766
 30
0.0
 11
490.0103365487971
 21
211.5805629115464
 31
0.0
  0
LINE
  5
1105
102
{ACAD_REACTORS
330
11E7
102
}
330
1F
100
AcDbEntity
  8
実線
100
AcDbLine
 10
507.3344526879273
 20
228.9046790506766
 30
0.0
 11
506.4859245505036
 21
229.7532071881006
 31
0.0
  0
LINE
  5
1106
102
{ACAD_REACTORS
330
11E7
102
}
330
1F
100
AcDbEntity
  8
実線
100
AcDbLine
 10
513.3448603278711
 20
208.045029005661
 30
0.0
 11
515.4661806714307
 21
210.1663493492206
 31
0.0
  0
LINE
  5
1107
102
{ACAD_REACTORS
330
11E7
102
}
330
1F
100
AcDbEntity
  8
実線
100
AcDbLine
 10
508.3951128595654
 20
217.2374171610861
 30
0.0
 11
506.2737925160059
 21
215.1160968175265
 31
0.0
  0
LINE
  5
1108
102
{ACAD_REACTORS
330
11E7
102
}
330
1F
100
AcDbEntity
  8
実線
100
AcDbLine
 10
508.3951128595654
 20
217.2374171610861
 30
0.0
 11
515.4661806714307
 21
210.1663493492205
 31
0.0
  0
LINE
  5
1109
102
{ACAD_REACTORS
330
11E7
102
}
330
1F
100
AcDbEntity
  8
実線
100
AcDbLine
 10
506.2737925160059
 20
215.1160968175265
 30
0.0
 11
513.3448603278711
 21
208.045029005661
 31
0.0
  0
LINE
  5
110A
102
{ACAD_REACTORS
330
11E7
102
}
330
1F
100
AcDbEntity
  8
実線
100
AcDbLine
 10
393.0417496407681
 20
189.746506473207
 30
0.0
 11
395.0105404963201
 21
194.1503807553627
 31
0.0
  0
LINE
  5
110B
102
{ACAD_REACTORS
330
11E7
102
}
330
1F
100
AcDbEntity
  8
実線
100
AcDbLine
 10
370.9689099359771
 20
170.1087501950199
 30
0.0
 11
375.3727842181329
 21
172.0775410505718
 31
0.0
  0
LINE
  5
110C
102
{ACAD_REACTORS
330
11E7
102
}
330
1F
100
AcDbEntity
  8
実線
100
AcDbLine
 10
373.117714687568
 20
175.2981141057129
 30
0.0
 11
369.4486303564263
 21
171.629029774571
 31
0.0
  0
LINE
  5
110D
102
{ACAD_REACTORS
330
11E7
102
}
330
1F
100
AcDbEntity
  8
実線
100
AcDbLine
 10
374.3699279590241
 20
173.5097682180669
 30
0.0
 11
370.9689099359771
 21
170.1087501950199
 31
0.0
  0
LINE
  5
110E
102
{ACAD_REACTORS
330
11E7
102
}
330
1F
100
AcDbEntity
  8
実線
100
AcDbLine
 10
369.4486303564263
 20
171.629029774571
 30
0.0
 11
370.9689099359771
 21
170.1087501950199
 31
0.0
  0
LINE
  5
110F
102
{ACAD_REACTORS
330
11E7
102
}
330
1F
100
AcDbEntity
  8
実線
100
AcDbLine
 10
395.0105404963201
 20
194.1503807553627
 30
0.0
 11
393.4902609167689
 21
195.6706603349136
 31
0.0
  0
LINE
  5
1110
102
{ACAD_REACTORS
330
11E7
102
}
330
1F
100
AcDbEntity
  8
実線
100
AcDbLine
 10
393.4902609167689
 20
195.6706603349136
 30
0.0
 11
389.8211765856268
 21
192.0015760037716
 31
0.0
  0
LINE
  5
1111
102
{ACAD_REACTORS
330
11E7
102
}
330
1F
100
AcDbEntity
  8
実線
100
AcDbLine
 10
395.0105404963201
 20
194.1503807553627
 30
0.0
 11
391.6095224732726
 21
190.7493627323155
 31
0.0
  0
CIRCLE
  5
1112
102
{ACAD_REACTORS
330
11E7
102
}
330
1F
100
AcDbEntity
  8
実線
100
AcDbCircle
 10
431.674027100832
 20
133.4452635904982
 30
0.0
 40
65.0
  0
LINE
  5
1113
102
{ACAD_REACTORS
330
11E7
102
}
330
1F
100
AcDbEntity
  8
実線
100
AcDbLine
 10
510.0740271008421
 20
165.1952635904975
 30
0.0
 11
488.3920797824962
 21
165.1952635904975
 31
0.0
  0
LINE
  5
1114
102
{ACAD_REACTORS
330
11E7
102
}
330
1F
100
AcDbEntity
  8
実線
100
AcDbLine
 10
488.3920797824957
 20
101.6952635904975
 30
0.0
 11
510.0740271008421
 21
101.6952635904975
 31
0.0
  0
LINE
  5
1115
102
{ACAD_REACTORS
330
11E7
102
}
330
1F
100
AcDbEntity
  8
実線
100
AcDbLine
 10
510.0740271008421
 20
165.1952635904975
 30
0.0
 11
510.0740271008421
 21
101.6952635904975
 31
0.0
  0
LINE
  5
1116
102
{ACAD_REACTORS
330
11E7
102
}
330
1F
100
AcDbEntity
  8
実線
100
AcDbLine
 10
510.0740271008421
 20
101.6952635904975
 30
0.0
 11
513.1740271008425
 21
94.69526359049751
 31
0.0
  0
LINE
  5
1117
102
{ACAD_REACTORS
330
11E7
102
}
330
1F
100
AcDbEntity
  8
実線
100
AcDbLine
 10
513.1740271008425
 20
172.1952635904975
 30
0.0
 11
510.0740271008421
 21
165.1952635904975
 31
0.0
  0
LINE
  5
1118
102
{ACAD_REACTORS
330
11E7
102
}
330
1F
100
AcDbEntity
  8
実線
100
AcDbLine
 10
516.6740271008425
 20
172.1952635904975
 30
0.0
 11
516.6740271008425
 21
94.69526359049751
 31
0.0
  0
LINE
  5
1119
102
{ACAD_REACTORS
330
11E7
102
}
330
1F
100
AcDbEntity
  8
実線
100
AcDbLine
 10
513.1740271008425
 20
172.1952635904975
 30
0.0
 11
513.1740271008425
 21
94.69526359049751
 31
0.0
  0
LINE
  5
111A
102
{ACAD_REACTORS
330
11E7
102
}
330
1F
100
AcDbEntity
  8
実線
100
AcDbLine
 10
516.6740271008425
 20
172.1952635904975
 30
0.0
 11
513.1740271008425
 21
172.1952635904975
 31
0.0
  0
LINE
  5
111B
102
{ACAD_REACTORS
330
11E7
102
}
330
1F
100
AcDbEntity
  8
実線
100
AcDbLine
 10
513.1740271008425
 20
94.69526359049751
 30
0.0
 11
516.6740271008425
 21
94.69526359049751
 31
0.0
  0
LINE
  5
111C
102
{ACAD_REACTORS
330
11E7
102
}
330
1F
100
AcDbEntity
  8
実線
100
AcDbLine
 10
353.2740271008425
 20
101.6952635904975
 30
0.0
 11
374.9559744191688
 21
101.6952635904975
 31
0.0
  0
LINE
  5
111D
102
{ACAD_REACTORS
330
11E7
102
}
330
1F
100
AcDbEntity
  8
実線
100
AcDbLine
 10
374.9559744191679
 20
165.1952635904975
 30
0.0
 11
353.2740271008425
 21
165.1952635904975
 31
0.0
  0
LINE
  5
111E
102
{ACAD_REACTORS
330
11E7
102
}
330
1F
100
AcDbEntity
  8
実線
100
AcDbLine
 10
346.6740271008425
 20
94.69526359049751
 30
0.0
 11
346.6740271008425
 21
172.1952635904975
 31
0.0
  0
LINE
  5
111F
102
{ACAD_REACTORS
330
11E7
102
}
330
1F
100
AcDbEntity
  8
実線
100
AcDbLine
 10
346.6740271008425
 20
94.69526359049751
 30
0.0
 11
350.1740271008425
 21
94.69526359049751
 31
0.0
  0
LINE
  5
1120
102
{ACAD_REACTORS
330
11E7
102
}
330
1F
100
AcDbEntity
  8
実線
100
AcDbLine
 10
350.1740271008425
 20
172.1952635904975
 30
0.0
 11
346.6740271008425
 21
172.1952635904975
 31
0.0
  0
LINE
  5
1121
102
{ACAD_REACTORS
330
11E7
102
}
330
1F
100
AcDbEntity
  8
実線
100
AcDbLine
 10
350.1740271008425
 20
94.69526359049751
 30
0.0
 11
350.1740271008425
 21
172.1952635904975
 31
0.0
  0
LINE
  5
1122
102
{ACAD_REACTORS
330
11E7
102
}
330
1F
100
AcDbEntity
  8
実線
100
AcDbLine
 10
353.2740271008425
 20
101.6952635904975
 30
0.0
 11
353.2740271008425
 21
165.1952635904975
 31
0.0
  0
LINE
  5
1123
102
{ACAD_REACTORS
330
11E7
102
}
330
1F
100
AcDbEntity
  8
実線
100
AcDbLine
 10
353.2740271008425
 20
165.1952635904975
 30
0.0
 11
350.1740271008425
 21
172.1952635904975
 31
0.0
  0
LINE
  5
1124
102
{ACAD_REACTORS
330
11E7
102
}
330
1F
100
AcDbEntity
  8
実線
100
AcDbLine
 10
350.1740271008425
 20
94.69526359049751
 30
0.0
 11
353.2740271008425
 21
101.6952635904975
 31
0.0
  0
LINE
  5
1125
102
{ACAD_REACTORS
330
11E7
102
}
330
1F
100
AcDbEntity
  8
実線
100
AcDbLine
 10
463.4240271008425
 20
55.04526359049754
 30
0.0
 11
463.4240271008425
 21
76.72721090883993
 31
0.0
  0
LINE
  5
1126
102
{ACAD_REACTORS
330
11E7
102
}
330
1F
100
AcDbEntity
  8
実線
100
AcDbLine
 10
399.9240271008425
 20
76.72721090882856
 30
0.0
 11
399.9240271008425
 21
55.04526359049754
 31
0.0
  0
LINE
  5
1127
102
{ACAD_REACTORS
330
11E7
102
}
330
1F
100
AcDbEntity
  8
実線
100
AcDbLine
 10
463.4240271008425
 20
55.04526359049754
 30
0.0
 11
399.9240271008425
 21
55.04526359049754
 31
0.0
  0
LINE
  5
1128
102
{ACAD_REACTORS
330
11E7
102
}
330
1F
100
AcDbEntity
  8
実線
100
AcDbLine
 10
399.9240271008425
 20
55.04526359049754
 30
0.0
 11
392.9240271008425
 21
51.94526359049752
 31
0.0
  0
LINE
  5
1129
102
{ACAD_REACTORS
330
11E7
102
}
330
1F
100
AcDbEntity
  8
実線
100
AcDbLine
 10
470.4240271008425
 20
51.94526359049752
 30
0.0
 11
463.4240271008425
 21
55.04526359049754
 31
0.0
  0
LINE
  5
112A
102
{ACAD_REACTORS
330
11E7
102
}
330
1F
100
AcDbEntity
  8
実線
100
AcDbLine
 10
470.4240271008425
 20
48.44526359049751
 30
0.0
 11
392.9240271008425
 21
48.44526359049751
 31
0.0
  0
LINE
  5
112B
102
{ACAD_REACTORS
330
11E7
102
}
330
1F
100
AcDbEntity
  8
実線
100
AcDbLine
 10
470.4240271008425
 20
51.94526359049752
 30
0.0
 11
392.9240271008425
 21
51.94526359049752
 31
0.0
  0
LINE
  5
112C
102
{ACAD_REACTORS
330
11E7
102
}
330
1F
100
AcDbEntity
  8
実線
100
AcDbLine
 10
470.4240271008425
 20
48.44526359049751
 30
0.0
 11
470.4240271008425
 21
51.94526359049752
 31
0.0
  0
LINE
  5
112D
102
{ACAD_REACTORS
330
11E7
102
}
330
1F
100
AcDbEntity
  8
実線
100
AcDbLine
 10
392.9240271008425
 20
51.94526359049752
 30
0.0
 11
392.9240271008425
 21
48.44526359049751
 31
0.0
  0
LINE
  5
112E
102
{ACAD_REACTORS
330
11E7
102
}
330
1F
100
AcDbEntity
  8
実線
100
AcDbLine
 10
399.9240271008425
 20
211.8452635904976
 30
0.0
 11
399.9240271008425
 21
190.1633162721676
 31
0.0
  0
LINE
  5
112F
102
{ACAD_REACTORS
330
11E7
102
}
330
1F
100
AcDbEntity
  8
実線
100
AcDbLine
 10
463.4240271008425
 20
207.1952635904975
 30
0.0
 11
463.4240271008425
 21
211.8452635904976
 31
0.0
  0
LINE
  5
1130
102
{ACAD_REACTORS
330
11E7
102
}
330
1F
100
AcDbEntity
  8
実線
100
AcDbLine
 10
392.9240271008425
 20
218.4452635904975
 30
0.0
 11
470.4240271008425
 21
218.4452635904975
 31
0.0
  0
LINE
  5
1131
102
{ACAD_REACTORS
330
11E7
102
}
330
1F
100
AcDbEntity
  8
実線
100
AcDbLine
 10
392.9240271008425
 20
218.4452635904975
 30
0.0
 11
392.9240271008425
 21
214.9452635904975
 31
0.0
  0
LINE
  5
1132
102
{ACAD_REACTORS
330
11E7
102
}
330
1F
100
AcDbEntity
  8
実線
100
AcDbLine
 10
470.4240271008425
 20
214.9452635904975
 30
0.0
 11
470.4240271008425
 21
218.4452635904975
 31
0.0
  0
LINE
  5
1133
102
{ACAD_REACTORS
330
11E7
102
}
330
1F
100
AcDbEntity
  8
実線
100
AcDbLine
 10
392.9240271008425
 20
214.9452635904975
 30
0.0
 11
470.4240271008425
 21
214.9452635904975
 31
0.0
  0
LINE
  5
1134
102
{ACAD_REACTORS
330
11E7
102
}
330
1F
100
AcDbEntity
  8
実線
100
AcDbLine
 10
399.9240271008425
 20
211.8452635904976
 30
0.0
 11
463.4240271008425
 21
211.8452635904976
 31
0.0
  0
LINE
  5
1135
102
{ACAD_REACTORS
330
11E7
102
}
330
1F
100
AcDbEntity
  8
実線
100
AcDbLine
 10
463.4240271008425
 20
211.8452635904976
 30
0.0
 11
470.4240271008425
 21
214.9452635904975
 31
0.0
  0
LINE
  5
1136
102
{ACAD_REACTORS
330
11E7
102
}
330
1F
100
AcDbEntity
  8
実線
100
AcDbLine
 10
392.9240271008425
 20
214.9452635904975
 30
0.0
 11
399.9240271008425
 21
211.8452635904976
 31
0.0
  0
LINE
  5
1137
102
{ACAD_REACTORS
330
11E7
102
}
330
1F
100
AcDbEntity
  8
実線
100
AcDbLine
 10
513.3802156669475
 20
206.5247494261273
 30
0.0
 11
518.9663592383217
 21
200.9386058547536
 31
0.0
  0
LINE
  5
1138
102
{ACAD_REACTORS
330
11E7
102
}
330
1F
100
AcDbEntity
  8
実線
100
AcDbLine
 10
507.7940720955739
 20
200.9386058547536
 30
0.0
 11
513.3802156669475
 21
206.5247494261273
 31
0.0
  0
LINE
  5
1139
102
{ACAD_REACTORS
330
11E7
102
}
330
1F
100
AcDbEntity
  8
実線
100
AcDbLine
 10
513.3802156669475
 20
195.3524622833798
 30
0.0
 11
507.7940720955739
 21
200.9386058547536
 31
0.0
  0
LINE
  5
113A
102
{ACAD_REACTORS
330
11E7
102
}
330
1F
100
AcDbEntity
  8
実線
100
AcDbLine
 10
509.7032604048422
 20
220.1011996248444
 30
0.0
 11
504.1171168334686
 21
214.5150560534706
 31
0.0
  0
LINE
  5
113B
102
{ACAD_REACTORS
330
11E7
102
}
330
1F
100
AcDbEntity
  8
実線
100
AcDbLine
 10
504.1171168334686
 20
225.687343196218
 30
0.0
 11
509.7032604048422
 21
220.1011996248444
 31
0.0
  0
LINE
  5
113C
102
{ACAD_REACTORS
330
11E7
102
}
330
1F
100
AcDbEntity
  8
実線
100
AcDbLine
 10
504.1171168334686
 20
214.5150560534706
 30
0.0
 11
498.5309732620948
 21
220.1011996248444
 31
0.0
  0
LINE
  5
113D
102
{ACAD_REACTORS
330
11E7
102
}
330
1F
100
AcDbEntity
  8
実線
100
AcDbLine
 10
502.8796799660426
 20
200.4082757691485
 30
0.0
 11
511.9306467652132
 21
209.459242568319
 31
0.0
  0
LINE
  5
113E
102
{ACAD_REACTORS
330
11E7
102
}
330
1F
100
AcDbEntity
  8
実線
100
AcDbLine
 10
507.6880060786638
 20
213.7018832548684
 30
0.0
 11
498.6370392794928
 21
204.6509164556979
 31
0.0
  0
LINE
  5
113F
102
{ACAD_REACTORS
330
11E7
102
}
330
1F
100
AcDbEntity
  8
実線
100
AcDbLine
 10
522.5372484833137
 20
204.5094950997455
 30
0.0
 11
509.8093264219555
 21
191.7815730383876
 31
0.0
  0
LINE
  5
1140
102
{ACAD_REACTORS
330
11E7
102
}
330
1F
100
AcDbEntity
  8
実線
100
AcDbLine
 10
510.6578545593797
 20
190.9330449009638
 30
0.0
 11
523.3857766207375
 21
203.6609669623217
 31
0.0
  0
LINE
  5
1141
102
{ACAD_REACTORS
330
11E7
102
}
330
1F
100
AcDbEntity
  8
実線
100
AcDbLine
 10
523.3857766207375
 20
203.6609669623217
 30
0.0
 11
522.5372484833137
 21
204.5094950997455
 31
0.0
  0
LINE
  5
1142
102
{ACAD_REACTORS
330
11E7
102
}
330
1F
100
AcDbEntity
  8
実線
100
AcDbLine
 10
478.909831485344
 20
222.6810679749994
 30
0.0
 11
520.9098314853441
 21
180.6810679749994
 31
0.0
  0
LINE
  5
1143
102
{ACAD_REACTORS
330
11E7
102
}
330
1F
100
AcDbEntity
  8
実線
100
AcDbLine
 10
451.5580092943596
 20
195.3292457840147
 30
0.0
 11
478.909831485344
 21
222.6810679749994
 31
0.0
  0
LINE
  5
1144
102
{ACAD_REACTORS
330
11E7
102
}
330
1F
100
AcDbEntity
  8
実線
100
AcDbLine
 10
505.4240271008425
 20
165.1952635904975
 30
0.0
 11
520.9098314853441
 21
180.6810679749994
 31
0.0
  0
LINE
  5
1145
102
{ACAD_REACTORS
330
11E7
102
}
330
1F
100
AcDbEntity
  8
実線
100
AcDbLine
 10
488.2425695957659
 20
190.0138060854213
 30
0.0
 11
499.909831485344
 21
201.6810679749994
 31
0.0
  0
LINE
  5
1146
102
{ACAD_REACTORS
330
11E7
102
}
330
1F
100
AcDbEntity
  8
実線
100
AcDbLine
 10
475.174027100832
 20
126.4452635904981
 30
0.0
 11
454.174027100832
 21
126.4452635904981
 31
0.0
  0
LINE
  5
1147
102
{ACAD_REACTORS
330
11E7
102
}
330
1F
100
AcDbEntity
  8
実線
100
AcDbLine
 10
455.3740271008323
 20
136.4452635904981
 30
0.0
 11
475.174027100832
 21
136.4452635904981
 31
0.0
  0
LINE
  5
1148
102
{ACAD_REACTORS
330
11E7
102
}
330
1F
100
AcDbEntity
  8
実線
100
AcDbLine
 10
469.674027100832
 20
136.4452635904982
 30
0.0
 11
469.674027100832
 21
126.4452635904982
 31
0.0
  0
LINE
  5
1149
102
{ACAD_REACTORS
330
11E7
102
}
330
1F
100
AcDbEntity
  8
実線
100
AcDbLine
 10
464.674027100832
 20
131.4452635904982
 30
0.0
 11
474.674027100832
 21
131.4452635904982
 31
0.0
  0
CIRCLE
  5
114A
102
{ACAD_REACTORS
330
11E7
102
}
330
1F
100
AcDbEntity
  8
実線
100
AcDbCircle
 10
469.674027100832
 20
131.4452635904982
 30
0.0
 40
2.0
  0
LINE
  5
114B
102
{ACAD_REACTORS
330
11E7
102
}
330
1F
100
AcDbEntity
  8
実線
100
AcDbLine
 10
475.174027100832
 20
136.4452635904981
 30
0.0
 11
475.174027100832
 21
126.4452635904981
 31
0.0
  0
LINE
  5
114C
102
{ACAD_REACTORS
330
11E7
102
}
330
1F
100
AcDbEntity
  8
実線
100
AcDbLine
 10
455.3740271008323
 20
168.4452635904981
 30
0.0
 11
455.3740271008323
 21
126.4452635904981
 31
0.0
  0
LINE
  5
114D
102
{ACAD_REACTORS
330
11E7
102
}
330
1F
100
AcDbEntity
  8
実線
100
AcDbLine
 10
451.6740271008321
 20
168.4452635904982
 30
0.0
 11
451.6740271008321
 21
158.4452635904982
 31
0.0
  0
LINE
  5
114E
102
{ACAD_REACTORS
330
11E7
102
}
330
1F
100
AcDbEntity
  8
実線
100
AcDbLine
 10
446.674027100832
 20
163.4452635904982
 30
0.0
 11
456.674027100832
 21
163.4452635904982
 31
0.0
  0
CIRCLE
  5
114F
102
{ACAD_REACTORS
330
11E7
102
}
330
1F
100
AcDbEntity
  8
実線
100
AcDbCircle
 10
451.6740271008321
 20
163.4452635904982
 30
0.0
 40
2.0
  0
LINE
  5
1150
102
{ACAD_REACTORS
330
11E7
102
}
330
1F
100
AcDbEntity
  8
実線
100
AcDbLine
 10
446.2740271008324
 20
147.4452635904981
 30
0.0
 11
446.1740271008324
 21
147.4452635904981
 31
0.0
  0
LINE
  5
1151
102
{ACAD_REACTORS
330
11E7
102
}
330
1F
100
AcDbEntity
  8
実線
100
AcDbLine
 10
446.174027100832
 20
168.4452635904981
 30
0.0
 11
455.3740271008323
 21
168.4452635904981
 31
0.0
  0
LINE
  5
1152
102
{ACAD_REACTORS
330
11E7
102
}
330
1F
100
AcDbEntity
  8
実線
100
AcDbLine
 10
446.174027100832
 20
147.4452635904981
 30
0.0
 11
446.174027100832
 21
168.4452635904981
 31
0.0
  0
LINE
  5
1153
102
{ACAD_REACTORS
330
11E7
102
}
330
1F
100
AcDbEntity
  8
実線
100
AcDbLine
 10
454.174027100832
 20
126.4452635904981
 30
0.0
 11
454.174027100832
 21
153.4452635904982
 31
0.0
  0
LINE
  5
1154
102
{ACAD_REACTORS
330
11E7
102
}
330
1F
100
AcDbEntity
  8
実線
100
AcDbLine
 10
454.174027100832
 20
153.4452635904981
 30
0.0
 11
455.3740271008323
 21
153.4452635904981
 31
0.0
  0
LINE
  5
1155
102
{ACAD_REACTORS
330
11E7
102
}
330
1F
100
AcDbEntity
  8
実線
100
AcDbLine
 10
490.6452367215611
 20
175.8906487255421
 30
0.0
 11
485.9584442340451
 21
169.1972153764823
 31
0.0
  0
LINE
  5
1156
102
{ACAD_REACTORS
330
11E7
102
}
330
1F
100
AcDbEntity
  8
実線
100
AcDbLine
 10
467.4259788868166
 20
187.7296807237109
 30
0.0
 11
474.1194122358765
 21
192.4164732112269
 31
0.0
  0
ARC
  5
1157
102
{ACAD_REACTORS
330
11E7
102
}
330
1F
100
AcDbEntity
  8
実線
100
AcDbCircle
 10
482.4537162786709
 20
181.6264130890528
 30
0.0
 40
10.00000000000038
100
AcDbArc
 50
325.0000000000147
 51
43.49585801793874
  0
ARC
  5
1158
102
{ACAD_REACTORS
330
11E7
102
}
330
1F
100
AcDbEntity
  8
実線
100
AcDbCircle
 10
431.6740271008425
 20
133.4452635904975
 30
0.0
 40
79.99999999999343
100
AcDbArc
 50
43.49585801793874
 51
46.50414198207132
  0
ARC
  5
1159
102
{ACAD_REACTORS
330
11E7
102
}
330
1F
100
AcDbEntity
  8
実線
100
AcDbCircle
 10
479.855176599387
 20
184.224952768337
 30
0.0
 40
10.0
100
AcDbArc
 50
46.50414198204134
 51
125.0000000000116
  0
LINE
  5
115A
102
{ACAD_REACTORS
330
11E7
102
}
330
1F
100
AcDbEntity
  8
実線
100
AcDbLine
 10
485.9584442340451
 20
97.69331180451372
 30
0.0
 11
490.6452367215611
 21
90.99987845545394
 31
0.0
  0
ARC
  5
115B
102
{ACAD_REACTORS
330
11E7
102
}
330
1F
100
AcDbEntity
  8
実線
100
AcDbCircle
 10
482.4537162786709
 20
85.26411409194343
 30
0.0
 40
9.999999999999982
100
AcDbArc
 50
316.5041419820612
 51
34.99999999998531
  0
ARC
  5
115C
102
{ACAD_REACTORS
330
11E7
102
}
330
1F
100
AcDbEntity
  8
実線
100
AcDbCircle
 10
431.6740271008425
 20
133.4452635904983
 30
0.0
 40
79.99999999999268
100
AcDbArc
 50
313.4958580179286
 51
316.5041419820612
  0
LINE
  5
115D
102
{ACAD_REACTORS
330
11E7
102
}
330
1F
100
AcDbEntity
  8
実線
100
AcDbLine
 10
474.1194122358765
 20
74.47405396976972
 30
0.0
 11
467.4259788868166
 21
79.16084645728545
 31
0.0
  0
ARC
  5
115E
102
{ACAD_REACTORS
330
11E7
102
}
330
1F
100
AcDbEntity
  8
実線
100
AcDbCircle
 10
479.855176599387
 20
82.66557441265929
 30
0.0
 40
9.999999999999591
100
AcDbArc
 50
234.9999999999884
 51
313.4958580179587
  0
LINE
  5
115F
102
{ACAD_REACTORS
330
11E7
102
}
330
1F
100
AcDbEntity
  8
実線
100
AcDbLine
 10
372.7028174801035
 20
90.99987845545394
 30
0.0
 11
377.3896099676194
 21
97.69331180451372
 31
0.0
  0
ARC
  5
1160
102
{ACAD_REACTORS
330
11E7
102
}
330
1F
100
AcDbEntity
  8
実線
100
AcDbCircle
 10
380.8943379229936
 20
85.26411409194343
 30
0.0
 40
10.00000000000002
100
AcDbArc
 50
145.0000000000147
 51
223.4958580179387
  0
ARC
  5
1161
102
{ACAD_REACTORS
330
11E7
102
}
330
1F
100
AcDbEntity
  8
実線
100
AcDbCircle
 10
431.674027100832
 20
133.4452635904979
 30
0.0
 40
79.9999999999998
100
AcDbArc
 50
223.4958580179387
 51
226.5041419820414
  0
ARC
  5
1162
102
{ACAD_REACTORS
330
11E7
102
}
330
1F
100
AcDbEntity
  8
実線
100
AcDbCircle
 10
383.4928776022776
 20
82.66557441265929
 30
0.0
 40
9.999999999999996
100
AcDbArc
 50
226.5041419820414
 51
305.0000000000115
  0
LINE
  5
1163
102
{ACAD_REACTORS
330
11E7
102
}
330
1F
100
AcDbEntity
  8
実線
100
AcDbLine
 10
395.9220753148479
 20
79.16084645728535
 30
0.0
 11
389.228641965788
 21
74.47405396976939
 31
0.0
  0
LINE
  5
1164
102
{ACAD_REACTORS
330
11E7
102
}
330
1F
100
AcDbEntity
  8
実線
100
AcDbLine
 10
377.3896099676194
 20
169.1972153764826
 30
0.0
 11
372.7028174801035
 21
175.8906487255423
 31
0.0
  0
LINE
  5
1165
102
{ACAD_REACTORS
330
11E7
102
}
330
1F
100
AcDbEntity
  8
実線
100
AcDbLine
 10
389.228641965788
 20
192.4164732112269
 30
0.0
 11
395.9220753148479
 21
187.7296807237108
 31
0.0
  0
ARC
  5
1166
102
{ACAD_REACTORS
330
11E7
102
}
330
1F
100
AcDbEntity
  8
実線
100
AcDbCircle
 10
383.4928776022776
 20
184.224952768337
 30
0.0
 40
9.999999999999976
100
AcDbArc
 50
54.9999999999884
 51
133.4958580179586
  0
ARC
  5
1167
102
{ACAD_REACTORS
330
11E7
102
}
330
1F
100
AcDbEntity
  8
実線
100
AcDbCircle
 10
431.674027100832
 20
133.4452635904981
 30
0.0
 40
79.99999999999985
100
AcDbArc
 50
133.4958580179586
 51
136.5041419820612
  0
ARC
  5
1168
102
{ACAD_REACTORS
330
11E7
102
}
330
1F
100
AcDbEntity
  8
実線
100
AcDbCircle
 10
380.8943379229936
 20
181.6264130890527
 30
0.0
 40
9.999999999999991
100
AcDbArc
 50
136.5041419820612
 51
214.9999999999852
  0
LINE
  5
1169
102
{ACAD_REACTORS
330
11E7
102
}
330
1F
100
AcDbEntity
  8
実線
100
AcDbLine
 10
510.6578545593797
 20
192.6301011758116
 30
0.0
 11
490.8588646862208
 21
212.4290910489703
 31
0.0
  0
LINE
  5
116A
102
{ACAD_REACTORS
330
11E6
102
}
330
1F
100
AcDbEntity
  8
実線
100
AcDbLine
 10
424.6740271008352
 20
1318.845263590491
 30
0.0
 11
449.6740271008352
 21
1318.845263590491
 31
0.0
  0
LINE
  5
116B
102
{ACAD_REACTORS
330
11E6
102
}
330
1F
100
AcDbEntity
  8
実線
100
AcDbLine
 10
424.6740271008352
 20
1318.845263590491
 30
0.0
 11
424.6740271008352
 21
1310.945263590491
 31
0.0
  0
LINE
  5
116C
102
{ACAD_REACTORS
330
11E6
102
}
330
1F
100
AcDbEntity
  8
実線
100
AcDbLine
 10
449.6740271008352
 20
1310.945263590491
 30
0.0
 11
449.6740271008352
 21
1318.845263590491
 31
0.0
  0
LINE
  5
116D
102
{ACAD_REACTORS
330
11E6
102
}
330
1F
100
AcDbEntity
  8
実線
100
AcDbLine
 10
456.1740271008352
 20
1313.395263590491
 30
0.0
 11
456.1740271008352
 21
1316.395263590491
 31
0.0
  0
LINE
  5
116E
102
{ACAD_REACTORS
330
11E6
102
}
330
1F
100
AcDbEntity
  8
実線
100
AcDbLine
 10
449.6740271008352
 20
1313.395263590491
 30
0.0
 11
456.1740271008352
 21
1313.395263590491
 31
0.0
  0
LINE
  5
116F
102
{ACAD_REACTORS
330
11E6
102
}
330
1F
100
AcDbEntity
  8
実線
100
AcDbLine
 10
456.1740271008352
 20
1316.395263590491
 30
0.0
 11
449.6740271008352
 21
1316.395263590491
 31
0.0
  0
CIRCLE
  5
1170
102
{ACAD_REACTORS
330
11E6
102
}
330
1F
100
AcDbEntity
  8
実線
100
AcDbCircle
 10
431.6740271008352
 20
1333.445263590491
 30
0.0
 40
14.0
  0
LINE
  5
1171
102
{ACAD_REACTORS
330
11E6
102
}
330
1F
100
AcDbEntity
  8
実線
100
AcDbLine
 10
489.1618084113761
 20
1254.461436132018
 30
0.0
 11
506.4859245505068
 21
1237.137319992887
 31
0.0
  0
LINE
  5
1172
102
{ACAD_REACTORS
330
11E6
102
}
330
1F
100
AcDbEntity
  8
実線
100
AcDbLine
 10
506.4859245505068
 20
1237.137319992888
 30
0.0
 11
507.3344526879305
 21
1237.985848130312
 31
0.0
  0
LINE
  5
1173
102
{ACAD_REACTORS
330
11E6
102
}
330
1F
100
AcDbEntity
  8
実線
100
AcDbLine
 10
504.1171168334718
 20
1241.20318398477
 30
0.0
 11
507.3344526879305
 21
1237.985848130312
 31
0.0
  0
LINE
  5
1174
102
{ACAD_REACTORS
330
11E6
102
}
330
1F
100
AcDbEntity
  8
実線
100
AcDbLine
 10
498.530973262098
 20
1246.789327556144
 30
0.0
 11
490.0103365488003
 21
1255.309964269442
 31
0.0
  0
LINE
  5
1175
102
{ACAD_REACTORS
330
11E6
102
}
330
1F
100
AcDbEntity
  8
実線
100
AcDbLine
 10
489.5164332031454
 20
1254.816060923787
 30
0.0
 11
489.1618084113761
 21
1254.461436132018
 31
0.0
  0
LINE
  5
1176
102
{ACAD_REACTORS
330
11E6
102
}
330
1F
100
AcDbEntity
  8
実線
100
AcDbLine
 10
513.3448603278743
 20
1258.845498175327
 30
0.0
 11
506.2737925160091
 21
1251.774430363462
 31
0.0
  0
LINE
  5
1177
102
{ACAD_REACTORS
330
11E6
102
}
330
1F
100
AcDbEntity
  8
実線
100
AcDbLine
 10
515.4661806714338
 20
1256.724177831767
 30
0.0
 11
508.3951128595685
 21
1249.653110019902
 31
0.0
  0
LINE
  5
1178
102
{ACAD_REACTORS
330
11E6
102
}
330
1F
100
AcDbEntity
  8
実線
100
AcDbLine
 10
506.2737925160091
 20
1251.774430363462
 30
0.0
 11
508.3951128595685
 21
1249.653110019902
 31
0.0
  0
LINE
  5
1179
102
{ACAD_REACTORS
330
11E6
102
}
330
1F
100
AcDbEntity
  8
実線
100
AcDbLine
 10
515.4661806714338
 20
1256.724177831767
 30
0.0
 11
513.3448603278743
 21
1258.845498175327
 31
0.0
  0
LINE
  5
117A
102
{ACAD_REACTORS
330
11E6
102
}
330
1F
100
AcDbEntity
  8
実線
100
AcDbLine
 10
375.3727842181361
 20
1294.812986130416
 30
0.0
 11
370.9689099359803
 21
1296.781776985968
 31
0.0
  0
LINE
  5
117B
102
{ACAD_REACTORS
330
11E6
102
}
330
1F
100
AcDbEntity
  8
実線
100
AcDbLine
 10
395.0105404963233
 20
1272.740146425626
 30
0.0
 11
393.0417496407713
 21
1277.144020707781
 31
0.0
  0
LINE
  5
117C
102
{ACAD_REACTORS
330
11E6
102
}
330
1F
100
AcDbEntity
  8
実線
100
AcDbLine
 10
393.4902609167721
 20
1271.219866846075
 30
0.0
 11
395.0105404963233
 21
1272.740146425626
 31
0.0
  0
LINE
  5
117D
102
{ACAD_REACTORS
330
11E6
102
}
330
1F
100
AcDbEntity
  8
実線
100
AcDbLine
 10
370.9689099359803
 20
1296.781776985968
 30
0.0
 11
369.4486303564295
 21
1295.261497406417
 31
0.0
  0
LINE
  5
117E
102
{ACAD_REACTORS
330
11E6
102
}
330
1F
100
AcDbEntity
  8
実線
100
AcDbLine
 10
389.8211765856304
 20
1274.888951177216
 30
0.0
 11
393.4902609167721
 21
1271.219866846075
 31
0.0
  0
LINE
  5
117F
102
{ACAD_REACTORS
330
11E6
102
}
330
1F
100
AcDbEntity
  8
実線
100
AcDbLine
 10
369.4486303564295
 20
1295.261497406417
 30
0.0
 11
373.1177146875712
 21
1291.592413075275
 31
0.0
  0
LINE
  5
1180
102
{ACAD_REACTORS
330
11E6
102
}
330
1F
100
AcDbEntity
  8
実線
100
AcDbLine
 10
391.6095224732762
 20
1276.141164448672
 30
0.0
 11
395.0105404963233
 21
1272.740146425626
 31
0.0
  0
LINE
  5
1181
102
{ACAD_REACTORS
330
11E6
102
}
330
1F
100
AcDbEntity
  8
実線
100
AcDbLine
 10
370.9689099359803
 20
1296.781776985968
 30
0.0
 11
374.3699279590273
 21
1293.380758962921
 31
0.0
  0
CIRCLE
  5
1182
102
{ACAD_REACTORS
330
11E6
102
}
330
1F
100
AcDbEntity
  8
実線
100
AcDbCircle
 10
431.6740271008352
 20
1333.445263590491
 30
0.0
 40
65.0
  0
LINE
  5
1183
102
{ACAD_REACTORS
330
11E6
102
}
330
1F
100
AcDbEntity
  8
実線
100
AcDbLine
 10
510.0740271008453
 20
1365.195263590491
 30
0.0
 11
488.3920797824994
 21
1365.195263590491
 31
0.0
  0
LINE
  5
1184
102
{ACAD_REACTORS
330
11E6
102
}
330
1F
100
AcDbEntity
  8
実線
100
AcDbLine
 10
505.4240271008457
 20
1301.695263590491
 30
0.0
 11
510.0740271008453
 21
1301.695263590491
 31
0.0
  0
LINE
  5
1185
102
{ACAD_REACTORS
330
11E6
102
}
330
1F
100
AcDbEntity
  8
実線
100
AcDbLine
 10
510.0740271008453
 20
1301.695263590491
 30
0.0
 11
513.1740271008457
 21
1294.695263590491
 31
0.0
  0
LINE
  5
1186
102
{ACAD_REACTORS
330
11E6
102
}
330
1F
100
AcDbEntity
  8
実線
100
AcDbLine
 10
513.1740271008457
 20
1372.195263590491
 30
0.0
 11
510.0740271008453
 21
1365.195263590491
 31
0.0
  0
LINE
  5
1187
102
{ACAD_REACTORS
330
11E6
102
}
330
1F
100
AcDbEntity
  8
実線
100
AcDbLine
 10
510.0740271008453
 20
1301.695263590491
 30
0.0
 11
510.0740271008453
 21
1365.195263590491
 31
0.0
  0
LINE
  5
1188
102
{ACAD_REACTORS
330
11E6
102
}
330
1F
100
AcDbEntity
  8
実線
100
AcDbLine
 10
516.6740271008457
 20
1372.195263590491
 30
0.0
 11
513.1740271008457
 21
1372.195263590491
 31
0.0
  0
LINE
  5
1189
102
{ACAD_REACTORS
330
11E6
102
}
330
1F
100
AcDbEntity
  8
実線
100
AcDbLine
 10
513.1740271008457
 20
1294.695263590491
 30
0.0
 11
516.6740271008457
 21
1294.695263590491
 31
0.0
  0
LINE
  5
118A
102
{ACAD_REACTORS
330
11E6
102
}
330
1F
100
AcDbEntity
  8
実線
100
AcDbLine
 10
516.6740271008457
 20
1294.695263590491
 30
0.0
 11
516.6740271008457
 21
1372.195263590491
 31
0.0
  0
LINE
  5
118B
102
{ACAD_REACTORS
330
11E6
102
}
330
1F
100
AcDbEntity
  8
実線
100
AcDbLine
 10
513.1740271008457
 20
1294.695263590491
 30
0.0
 11
513.1740271008457
 21
1372.195263590491
 31
0.0
  0
LINE
  5
118C
102
{ACAD_REACTORS
330
11E6
102
}
330
1F
100
AcDbEntity
  8
実線
100
AcDbLine
 10
353.2740271008456
 20
1301.695263590491
 30
0.0
 11
374.955974419172
 21
1301.695263590491
 31
0.0
  0
LINE
  5
118D
102
{ACAD_REACTORS
330
11E6
102
}
330
1F
100
AcDbEntity
  8
実線
100
AcDbLine
 10
374.9559744191711
 20
1365.195263590491
 30
0.0
 11
353.2740271008456
 21
1365.195263590491
 31
0.0
  0
LINE
  5
118E
102
{ACAD_REACTORS
330
11E6
102
}
330
1F
100
AcDbEntity
  8
実線
100
AcDbLine
 10
346.6740271008457
 20
1294.695263590491
 30
0.0
 11
350.1740271008457
 21
1294.695263590491
 31
0.0
  0
LINE
  5
118F
102
{ACAD_REACTORS
330
11E6
102
}
330
1F
100
AcDbEntity
  8
実線
100
AcDbLine
 10
350.1740271008457
 20
1372.195263590491
 30
0.0
 11
346.6740271008457
 21
1372.195263590491
 31
0.0
  0
LINE
  5
1190
102
{ACAD_REACTORS
330
11E6
102
}
330
1F
100
AcDbEntity
  8
実線
100
AcDbLine
 10
346.6740271008457
 20
1372.195263590491
 30
0.0
 11
346.6740271008457
 21
1294.695263590491
 31
0.0
  0
LINE
  5
1191
102
{ACAD_REACTORS
330
11E6
102
}
330
1F
100
AcDbEntity
  8
実線
100
AcDbLine
 10
353.2740271008456
 20
1365.195263590491
 30
0.0
 11
350.1740271008457
 21
1372.195263590491
 31
0.0
  0
LINE
  5
1192
102
{ACAD_REACTORS
330
11E6
102
}
330
1F
100
AcDbEntity
  8
実線
100
AcDbLine
 10
350.1740271008457
 20
1294.695263590491
 30
0.0
 11
353.2740271008456
 21
1301.695263590491
 31
0.0
  0
LINE
  5
1193
102
{ACAD_REACTORS
330
11E6
102
}
330
1F
100
AcDbEntity
  8
実線
100
AcDbLine
 10
350.1740271008457
 20
1372.195263590491
 30
0.0
 11
350.1740271008457
 21
1294.695263590491
 31
0.0
  0
LINE
  5
1194
102
{ACAD_REACTORS
330
11E6
102
}
330
1F
100
AcDbEntity
  8
実線
100
AcDbLine
 10
353.2740271008456
 20
1365.195263590491
 30
0.0
 11
353.2740271008456
 21
1301.695263590491
 31
0.0
  0
LINE
  5
1195
102
{ACAD_REACTORS
330
11E6
102
}
330
1F
100
AcDbEntity
  8
実線
100
AcDbLine
 10
399.9240271008457
 20
1411.845263590491
 30
0.0
 11
399.9240271008457
 21
1390.163316272161
 31
0.0
  0
LINE
  5
1196
102
{ACAD_REACTORS
330
11E6
102
}
330
1F
100
AcDbEntity
  8
実線
100
AcDbLine
 10
463.4240271008457
 20
1390.163316272149
 30
0.0
 11
463.4240271008457
 21
1411.845263590491
 31
0.0
  0
LINE
  5
1197
102
{ACAD_REACTORS
330
11E6
102
}
330
1F
100
AcDbEntity
  8
実線
100
AcDbLine
 10
392.9240271008457
 20
1418.445263590491
 30
0.0
 11
392.9240271008457
 21
1414.945263590491
 31
0.0
  0
LINE
  5
1198
102
{ACAD_REACTORS
330
11E6
102
}
330
1F
100
AcDbEntity
  8
実線
100
AcDbLine
 10
470.4240271008456
 20
1414.945263590491
 30
0.0
 11
470.4240271008456
 21
1418.445263590491
 31
0.0
  0
LINE
  5
1199
102
{ACAD_REACTORS
330
11E6
102
}
330
1F
100
AcDbEntity
  8
実線
100
AcDbLine
 10
470.4240271008456
 20
1418.445263590491
 30
0.0
 11
392.9240271008457
 21
1418.445263590491
 31
0.0
  0
LINE
  5
119A
102
{ACAD_REACTORS
330
11E6
102
}
330
1F
100
AcDbEntity
  8
実線
100
AcDbLine
 10
463.4240271008457
 20
1411.845263590491
 30
0.0
 11
470.4240271008456
 21
1414.945263590491
 31
0.0
  0
LINE
  5
119B
102
{ACAD_REACTORS
330
11E6
102
}
330
1F
100
AcDbEntity
  8
実線
100
AcDbLine
 10
392.9240271008457
 20
1414.945263590491
 30
0.0
 11
399.9240271008457
 21
1411.845263590491
 31
0.0
  0
LINE
  5
119C
102
{ACAD_REACTORS
330
11E6
102
}
330
1F
100
AcDbEntity
  8
実線
100
AcDbLine
 10
470.4240271008456
 20
1414.945263590491
 30
0.0
 11
392.9240271008457
 21
1414.945263590491
 31
0.0
  0
LINE
  5
119D
102
{ACAD_REACTORS
330
11E6
102
}
330
1F
100
AcDbEntity
  8
実線
100
AcDbLine
 10
463.4240271008457
 20
1411.845263590491
 30
0.0
 11
399.9240271008457
 21
1411.845263590491
 31
0.0
  0
LINE
  5
119E
102
{ACAD_REACTORS
330
11E6
102
}
330
1F
100
AcDbEntity
  8
実線
100
AcDbLine
 10
463.4240271008457
 20
1255.04526359049
 30
0.0
 11
463.4240271008457
 21
1276.727210908833
 31
0.0
  0
LINE
  5
119F
102
{ACAD_REACTORS
330
11E6
102
}
330
1F
100
AcDbEntity
  8
実線
100
AcDbLine
 10
399.9240271008457
 20
1276.727210908822
 30
0.0
 11
399.9240271008457
 21
1255.04526359049
 31
0.0
  0
LINE
  5
11A0
102
{ACAD_REACTORS
330
11E6
102
}
330
1F
100
AcDbEntity
  8
実線
100
AcDbLine
 10
399.9240271008457
 20
1255.04526359049
 30
0.0
 11
392.9240271008457
 21
1251.945263590491
 31
0.0
  0
LINE
  5
11A1
102
{ACAD_REACTORS
330
11E6
102
}
330
1F
100
AcDbEntity
  8
実線
100
AcDbLine
 10
470.4240271008456
 20
1251.945263590491
 30
0.0
 11
463.4240271008457
 21
1255.04526359049
 31
0.0
  0
LINE
  5
11A2
102
{ACAD_REACTORS
330
11E6
102
}
330
1F
100
AcDbEntity
  8
実線
100
AcDbLine
 10
399.9240271008457
 20
1255.04526359049
 30
0.0
 11
463.4240271008457
 21
1255.04526359049
 31
0.0
  0
LINE
  5
11A3
102
{ACAD_REACTORS
330
11E6
102
}
330
1F
100
AcDbEntity
  8
実線
100
AcDbLine
 10
470.4240271008456
 20
1248.445263590491
 30
0.0
 11
470.4240271008456
 21
1251.945263590491
 31
0.0
  0
LINE
  5
11A4
102
{ACAD_REACTORS
330
11E6
102
}
330
1F
100
AcDbEntity
  8
実線
100
AcDbLine
 10
392.9240271008457
 20
1251.945263590491
 30
0.0
 11
392.9240271008457
 21
1248.445263590491
 31
0.0
  0
LINE
  5
11A5
102
{ACAD_REACTORS
330
11E6
102
}
330
1F
100
AcDbEntity
  8
実線
100
AcDbLine
 10
392.9240271008457
 20
1248.445263590491
 30
0.0
 11
470.4240271008456
 21
1248.445263590491
 31
0.0
  0
LINE
  5
11A6
102
{ACAD_REACTORS
330
11E6
102
}
330
1F
100
AcDbEntity
  8
実線
100
AcDbLine
 10
392.9240271008457
 20
1251.945263590491
 30
0.0
 11
470.4240271008456
 21
1251.945263590491
 31
0.0
  0
CIRCLE
  5
11A7
102
{ACAD_REACTORS
330
11E6
102
}
330
1F
100
AcDbEntity
  8
実線
100
AcDbCircle
 10
513.3802156669507
 20
1265.951921326235
 30
0.0
 40
1.5
  0
LINE
  5
11A8
102
{ACAD_REACTORS
330
11E6
102
}
330
1F
100
AcDbEntity
  8
実線
100
AcDbLine
 10
507.7940720955771
 20
1265.951921326235
 30
0.0
 11
513.3802156669507
 21
1271.538064897608
 31
0.0
  0
LINE
  5
11A9
102
{ACAD_REACTORS
330
11E6
102
}
330
1F
100
AcDbEntity
  8
実線
100
AcDbLine
 10
513.3802156669507
 20
1271.538064897608
 30
0.0
 11
518.9663592383249
 21
1265.951921326235
 31
0.0
  0
LINE
  5
11AA
102
{ACAD_REACTORS
330
11E6
102
}
330
1F
100
AcDbEntity
  8
実線
100
AcDbLine
 10
513.3802156669507
 20
1260.365777754861
 30
0.0
 11
507.7940720955771
 21
1265.951921326235
 31
0.0
  0
LINE
  5
11AB
102
{ACAD_REACTORS
330
11E6
102
}
330
1F
100
AcDbEntity
  8
実線
100
AcDbLine
 10
518.9663592383249
 20
1265.951921326235
 30
0.0
 11
513.3802156669507
 21
1260.365777754861
 31
0.0
  0
LINE
  5
11AC
102
{ACAD_REACTORS
330
11E6
102
}
330
1F
100
AcDbEntity
  8
実線
100
AcDbLine
 10
504.1171168334718
 20
1252.375471127518
 30
0.0
 11
509.7032604048454
 21
1246.789327556144
 31
0.0
  0
LINE
  5
11AD
102
{ACAD_REACTORS
330
11E6
102
}
330
1F
100
AcDbEntity
  8
実線
100
AcDbLine
 10
509.7032604048454
 20
1246.789327556144
 30
0.0
 11
504.1171168334718
 21
1241.20318398477
 31
0.0
  0
LINE
  5
11AE
102
{ACAD_REACTORS
330
11E6
102
}
330
1F
100
AcDbEntity
  8
実線
100
AcDbLine
 10
498.530973262098
 20
1246.789327556144
 30
0.0
 11
504.1171168334718
 21
1252.375471127518
 31
0.0
  0
LINE
  5
11AF
102
{ACAD_REACTORS
330
11E6
102
}
330
1F
100
AcDbEntity
  8
実線
100
AcDbLine
 10
504.1171168334718
 20
1241.20318398477
 30
0.0
 11
498.530973262098
 21
1246.789327556144
 31
0.0
  0
LINE
  5
11B0
102
{ACAD_REACTORS
330
11E6
102
}
330
1F
100
AcDbEntity
  8
実線
100
AcDbLine
 10
498.637039279496
 20
1262.23961072529
 30
0.0
 11
507.688006078667
 21
1253.18864392612
 31
0.0
  0
LINE
  5
11B1
102
{ACAD_REACTORS
330
11E6
102
}
330
1F
100
AcDbEntity
  8
実線
100
AcDbLine
 10
511.9306467652164
 20
1257.431284612669
 30
0.0
 11
502.8796799660458
 21
1266.48225141184
 31
0.0
  0
LINE
  5
11B2
102
{ACAD_REACTORS
330
11E6
102
}
330
1F
100
AcDbEntity
  8
実線
100
AcDbLine
 10
518.9663592383249
 20
1265.951921326235
 30
0.0
 11
522.5372484833169
 21
1262.381032081242
 31
0.0
  0
LINE
  5
11B3
102
{ACAD_REACTORS
330
11E6
102
}
330
1F
100
AcDbEntity
  8
実線
100
AcDbLine
 10
513.3802156669507
 20
1271.538064897608
 30
0.0
 11
509.8093264219587
 21
1275.108954142601
 31
0.0
  0
LINE
  5
11B4
102
{ACAD_REACTORS
330
11E6
102
}
330
1F
100
AcDbEntity
  8
実線
100
AcDbLine
 10
522.5372484833169
 20
1262.381032081242
 30
0.0
 11
523.3857766207406
 21
1263.229560218666
 31
0.0
  0
LINE
  5
11B5
102
{ACAD_REACTORS
330
11E6
102
}
330
1F
100
AcDbEntity
  8
実線
100
AcDbLine
 10
510.6578545593829
 20
1275.957482280025
 30
0.0
 11
523.3857766207406
 21
1263.229560218666
 31
0.0
  0
LINE
  5
11B6
102
{ACAD_REACTORS
330
11E6
102
}
330
1F
100
AcDbEntity
  8
実線
100
AcDbLine
 10
510.6578545593829
 20
1275.957482280025
 30
0.0
 11
510.303229767549
 21
1275.602857488191
 31
0.0
  0
LINE
  5
11B7
102
{ACAD_REACTORS
330
11E6
102
}
330
1F
100
AcDbEntity
  8
実線
100
AcDbLine
 10
489.5164332031454
 20
1254.816060923787
 30
0.0
 11
510.303229767549
 21
1275.602857488191
 31
0.0
  0
LINE
  5
11B8
102
{ACAD_REACTORS
330
11E6
102
}
330
1F
100
AcDbEntity
  8
実線
100
AcDbLine
 10
478.9098314853472
 20
1244.209459205989
 30
0.0
 11
489.1618084113761
 21
1254.461436132018
 31
0.0
  0
LINE
  5
11B9
102
{ACAD_REACTORS
330
11E6
102
}
330
1F
100
AcDbEntity
  8
実線
100
AcDbLine
 10
463.4240271008457
 20
1259.69526359049
 30
0.0
 11
478.9098314853472
 21
1244.209459205989
 31
0.0
  0
LINE
  5
11BA
102
{ACAD_REACTORS
330
11E6
102
}
330
1F
100
AcDbEntity
  8
実線
100
AcDbLine
 10
488.2425695957691
 20
1276.876721095567
 30
0.0
 11
499.9098314853472
 21
1265.209459205989
 31
0.0
  0
LINE
  5
11BB
102
{ACAD_REACTORS
330
11E6
102
}
330
1F
100
AcDbEntity
  8
実線
100
AcDbLine
 10
510.6578545593829
 20
1275.957482280025
 30
0.0
 11
520.9098314853472
 21
1286.209459205989
 31
0.0
  0
LINE
  5
11BC
102
{ACAD_REACTORS
330
11E6
102
}
330
1F
100
AcDbEntity
  8
実線
100
AcDbLine
 10
493.5580092943569
 20
1313.561281396979
 30
0.0
 11
520.9098314853472
 21
1286.209459205989
 31
0.0
  0
CIRCLE
  5
11BD
102
{ACAD_REACTORS
330
11E6
102
}
330
1F
100
AcDbEntity
  8
実線
100
AcDbCircle
 10
504.1171168334718
 20
1246.789327556144
 30
0.0
 40
1.5
  0
LINE
  5
11BE
102
{ACAD_REACTORS
330
11E6
102
}
330
1F
100
AcDbEntity
  8
実線
100
AcDbLine
 10
424.6740271008352
 20
1289.945263590491
 30
0.0
 11
424.6740271008352
 21
1310.945263590491
 31
0.0
  0
LINE
  5
11BF
102
{ACAD_REACTORS
330
11E6
102
}
330
1F
100
AcDbEntity
  8
実線
100
AcDbLine
 10
434.6740271008352
 20
1289.945263590491
 30
0.0
 11
424.6740271008352
 21
1289.945263590491
 31
0.0
  0
LINE
  5
11C0
102
{ACAD_REACTORS
330
11E6
102
}
330
1F
100
AcDbEntity
  8
実線
100
AcDbLine
 10
434.6740271008352
 20
1309.745263590491
 30
0.0
 11
434.6740271008352
 21
1289.945263590491
 31
0.0
  0
LINE
  5
11C1
102
{ACAD_REACTORS
330
11E6
102
}
330
1F
100
AcDbEntity
  8
実線
100
AcDbLine
 10
429.6740271008352
 20
1300.445263590491
 30
0.0
 11
429.6740271008352
 21
1290.445263590491
 31
0.0
  0
LINE
  5
11C2
102
{ACAD_REACTORS
330
11E6
102
}
330
1F
100
AcDbEntity
  8
実線
100
AcDbLine
 10
424.6740271008352
 20
1295.445263590491
 30
0.0
 11
434.6740271008352
 21
1295.445263590491
 31
0.0
  0
CIRCLE
  5
11C3
102
{ACAD_REACTORS
330
11E6
102
}
330
1F
100
AcDbEntity
  8
実線
100
AcDbCircle
 10
429.6740271008352
 20
1295.445263590491
 30
0.0
 40
2.0
  0
LINE
  5
11C4
102
{ACAD_REACTORS
330
11E6
102
}
330
1F
100
AcDbEntity
  8
実線
100
AcDbLine
 10
466.6740271008352
 20
1309.745263590491
 30
0.0
 11
424.6740271008352
 21
1309.745263590491
 31
0.0
  0
LINE
  5
11C5
102
{ACAD_REACTORS
330
11E6
102
}
330
1F
100
AcDbEntity
  8
実線
100
AcDbLine
 10
461.6740271008352
 20
1318.445263590491
 30
0.0
 11
461.6740271008352
 21
1308.445263590491
 31
0.0
  0
LINE
  5
11C6
102
{ACAD_REACTORS
330
11E6
102
}
330
1F
100
AcDbEntity
  8
実線
100
AcDbLine
 10
456.6740271008352
 20
1313.445263590491
 30
0.0
 11
466.6740271008352
 21
1313.445263590491
 31
0.0
  0
CIRCLE
  5
11C7
102
{ACAD_REACTORS
330
11E6
102
}
330
1F
100
AcDbEntity
  8
実線
100
AcDbCircle
 10
461.6740271008352
 20
1313.445263590491
 30
0.0
 40
2.0
  0
LINE
  5
11C8
102
{ACAD_REACTORS
330
11E6
102
}
330
1F
100
AcDbEntity
  8
実線
100
AcDbLine
 10
445.6740271008352
 20
1318.845263590491
 30
0.0
 11
445.6740271008352
 21
1318.945263590491
 31
0.0
  0
LINE
  5
11C9
102
{ACAD_REACTORS
330
11E6
102
}
330
1F
100
AcDbEntity
  8
実線
100
AcDbLine
 10
466.6740271008352
 20
1318.945263590491
 30
0.0
 11
466.6740271008352
 21
1309.745263590491
 31
0.0
  0
LINE
  5
11CA
102
{ACAD_REACTORS
330
11E6
102
}
330
1F
100
AcDbEntity
  8
実線
100
AcDbLine
 10
445.6740271008352
 20
1318.945263590491
 30
0.0
 11
466.6740271008352
 21
1318.945263590491
 31
0.0
  0
LINE
  5
11CB
102
{ACAD_REACTORS
330
11E6
102
}
330
1F
100
AcDbEntity
  8
実線
100
AcDbLine
 10
451.6740271008352
 20
1310.945263590491
 30
0.0
 11
451.6740271008352
 21
1309.745263590491
 31
0.0
  0
LINE
  5
11CC
102
{ACAD_REACTORS
330
11E6
102
}
330
1F
100
AcDbEntity
  8
実線
100
AcDbLine
 10
424.6740271008352
 20
1310.945263590491
 30
0.0
 11
451.6740271008352
 21
1310.945263590491
 31
0.0
  0
LINE
  5
11CD
102
{ACAD_REACTORS
330
11E6
102
}
330
1F
100
AcDbEntity
  8
実線
100
AcDbLine
 10
389.2286419657912
 20
1392.41647321122
 30
0.0
 11
395.9220753148511
 21
1387.729680723704
 31
0.0
  0
ARC
  5
11CE
102
{ACAD_REACTORS
330
11E6
102
}
330
1F
100
AcDbEntity
  8
実線
100
AcDbCircle
 10
383.4928776022807
 20
1384.22495276833
 30
0.0
 40
9.999999999999976
100
AcDbArc
 50
54.99999999998824
 51
133.4958580179591
  0
ARC
  5
11CF
102
{ACAD_REACTORS
330
11E6
102
}
330
1F
100
AcDbEntity
  8
実線
100
AcDbCircle
 10
431.6740271008352
 20
1333.445263590491
 30
0.0
 40
79.99999999999985
100
AcDbArc
 50
133.4958580179591
 51
136.5041419820617
  0
ARC
  5
11D0
102
{ACAD_REACTORS
330
11E6
102
}
330
1F
100
AcDbEntity
  8
実線
100
AcDbCircle
 10
380.8943379229968
 20
1381.626413089046
 30
0.0
 40
9.999999999999991
100
AcDbArc
 50
136.5041419820617
 51
214.9999999999845
  0
LINE
  5
11D1
102
{ACAD_REACTORS
330
11E6
102
}
330
1F
100
AcDbEntity
  8
実線
100
AcDbLine
 10
377.3896099676226
 20
1369.197215376476
 30
0.0
 11
372.7028174801067
 21
1375.890648725535
 31
0.0
  0
LINE
  5
11D2
102
{ACAD_REACTORS
330
11E6
102
}
330
1F
100
AcDbEntity
  8
実線
100
AcDbLine
 10
474.1194122358797
 20
1274.474053969763
 30
0.0
 11
467.4259788868198
 21
1279.160846457279
 31
0.0
  0
ARC
  5
11D3
102
{ACAD_REACTORS
330
11E6
102
}
330
1F
100
AcDbEntity
  8
実線
100
AcDbCircle
 10
479.8551765993902
 20
1282.665574412652
 30
0.0
 40
9.999999999999591
100
AcDbArc
 50
234.9999999999882
 51
313.4958580179591
  0
ARC
  5
11D4
102
{ACAD_REACTORS
330
11E6
102
}
330
1F
100
AcDbEntity
  8
実線
100
AcDbCircle
 10
431.6740271008456
 20
1333.445263590491
 30
0.0
 40
79.99999999999268
100
AcDbArc
 50
313.495858017929
 51
316.5041419820617
  0
ARC
  5
11D5
102
{ACAD_REACTORS
330
11E6
102
}
330
1F
100
AcDbEntity
  8
実線
100
AcDbCircle
 10
482.4537162786741
 20
1285.264114091937
 30
0.0
 40
9.999999999999982
100
AcDbArc
 50
316.5041419820617
 51
34.99999999998455
  0
LINE
  5
11D6
102
{ACAD_REACTORS
330
11E6
102
}
330
1F
100
AcDbEntity
  8
実線
100
AcDbLine
 10
485.9584442340483
 20
1297.693311804507
 30
0.0
 11
490.6452367215642
 21
1290.999878455447
 31
0.0
  0
ARC
  5
11D7
102
{ACAD_REACTORS
330
11E6
102
}
330
1F
100
AcDbEntity
  8
実線
100
AcDbCircle
 10
431.6740271008352
 20
1333.445263590491
 30
0.0
 40
79.9999999999998
100
AcDbArc
 50
223.4958580179383
 51
226.5041419820409
  0
LINE
  5
11D8
102
{ACAD_REACTORS
330
11E6
102
}
330
1F
100
AcDbEntity
  8
実線
100
AcDbLine
 10
372.7028174801067
 20
1290.999878455447
 30
0.0
 11
377.3896099676226
 21
1297.693311804507
 31
0.0
  0
ARC
  5
11D9
102
{ACAD_REACTORS
330
11E6
102
}
330
1F
100
AcDbEntity
  8
実線
100
AcDbCircle
 10
380.8943379229968
 20
1285.264114091937
 30
0.0
 40
10.00000000000002
100
AcDbArc
 50
145.0000000000154
 51
223.4958580179383
  0
ARC
  5
11DA
102
{ACAD_REACTORS
330
11E6
102
}
330
1F
100
AcDbEntity
  8
実線
100
AcDbCircle
 10
383.4928776022807
 20
1282.665574412652
 30
0.0
 40
9.999999999999996
100
AcDbArc
 50
226.5041419820409
 51
305.0000000000118
  0
LINE
  5
11DB
102
{ACAD_REACTORS
330
11E6
102
}
330
1F
100
AcDbEntity
  8
実線
100
AcDbLine
 10
395.9220753148511
 20
1279.160846457279
 30
0.0
 11
389.2286419657912
 21
1274.474053969762
 31
0.0
  0
ARC
  5
11DC
102
{ACAD_REACTORS
330
11E6
102
}
330
1F
100
AcDbEntity
  8
実線
100
AcDbCircle
 10
431.6740271008456
 20
1333.445263590491
 30
0.0
 40
79.99999999999343
100
AcDbArc
 50
43.49585801793829
 51
46.50414198207102
  0
ARC
  5
11DD
102
{ACAD_REACTORS
330
11E6
102
}
330
1F
100
AcDbEntity
  8
実線
100
AcDbCircle
 10
482.4537162786741
 20
1381.626413089046
 30
0.0
 40
10.00000000000038
100
AcDbArc
 50
325.0000000000154
 51
43.49585801793829
  0
LINE
  5
11DE
102
{ACAD_REACTORS
330
11E6
102
}
330
1F
100
AcDbEntity
  8
実線
100
AcDbLine
 10
467.4259788868198
 20
1387.729680723704
 30
0.0
 11
474.1194122358797
 21
1392.41647321122
 31
0.0
  0
LINE
  5
11DF
102
{ACAD_REACTORS
330
11E6
102
}
330
1F
100
AcDbEntity
  8
実線
100
AcDbLine
 10
490.6452367215642
 20
1375.890648725535
 30
0.0
 11
485.9584442340483
 21
1369.197215376475
 31
0.0
  0
ARC
  5
11E0
102
{ACAD_REACTORS
330
11E6
102
}
330
1F
100
AcDbEntity
  8
実線
100
AcDbCircle
 10
479.8551765993898
 20
1384.22495276833
 30
0.0
 40
10.0
100
AcDbArc
 50
46.50414198204092
 51
125.0000000000117
  0
LINE
  5
11E1
102
{ACAD_REACTORS
330
11E6
102
}
330
1F
100
AcDbEntity
  8
実線
100
AcDbLine
 10
490.858864686224
 20
1254.461436132018
 30
0.0
 11
510.6578545593829
 21
1274.260426005177
 31
0.0
  0
ENDSEC
  0
SECTION
  2
OBJECTS
  0
DICTIONARY
  5
C
330
0
100
AcDbDictionary
281
     1
  3
ACAD_CIP_PREVIOUS_PRODUCT_INFO
350
46F
  3
ACAD_COLOR
350
465
  3
ACAD_DETAILVIEWSTYLE
350
468
  3
ACAD_GROUP
350
D
  3
ACAD_LAYOUT
350
1A
  3
ACAD_MATERIAL
350
43
  3
ACAD_MLEADERSTYLE
350
5B
  3
ACAD_MLINESTYLE
350
17
  3
ACAD_PLOTSETTINGS
350
19
  3
ACAD_PLOTSTYLENAME
350
E
  3
ACAD_SCALELIST
350
47
  3
ACAD_SECTIONVIEWSTYLE
350
466
  3
ACAD_TABLESTYLE
350
59
  3
ACAD_VISUALSTYLE
350
2A
  3
ACDB_RECOMPOSE_DATA
350
11E9
  3
AcDbVariableDictionary
350
41A
  0
DICTIONARY
  5
476
330
2
100
AcDbDictionary
280
     1
281
     1
  3
ACAD_LAYERSTATES
360
477
  0
DICTIONARY
  5
9D3
330
10
100
AcDbDictionary
280
     1
281
     1
  3
ADSK_XREC_LAYER_RECONCILED
360
9D4
  0
DICTIONARY
  5
472
330
471
100
AcDbDictionary
280
     1
281
     1
  3
ADSK_XREC_LAYER_RECONCILED
360
9D5
  0
DICTIONARY
  5
474
330
473
100
AcDbDictionary
280
     1
281
     1
  3
ADSK_XREC_LAYER_RECONCILED
360
9D6
  0
DICTIONARY
  5
682
330
1F
100
AcDbDictionary
280
     1
281
     1
  3
ACAD_SORTENTS
360
683
  0
XRECORD
  5
46F
102
{ACAD_REACTORS
330
C
102
}
330
C
100
AcDbXrecord
280
     1
300
ACDLT
300
2016
300
ACDLT_F_S
  0
DICTIONARY
  5
465
102
{ACAD_REACTORS
330
C
102
}
330
C
100
AcDbDictionary
281
     1
  0
DICTIONARY
  5
468
102
{ACAD_REACTORS
330
C
102
}
330
C
100
AcDbDictionary
281
     1
  3
Metric50
350
469
  0
DICTIONARY
  5
D
102
{ACAD_REACTORS
330
C
102
}
330
C
100
AcDbDictionary
281
     1
  3
*A10
350
11E5
  3
*A11
350
11E6
  3
*A12
350
11E7
  3
*A7
350
11E2
  3
*A8
350
11E3
  3
*A9
350
11E4
  0
DICTIONARY
  5
1A
102
{ACAD_REACTORS
330
C
102
}
330
C
100
AcDbDictionary
281
     1
  3
Layout1
350
1E
  3
Model
350
22
  3
レイアウト1
350
46A
  0
DICTIONARY
  5
43
102
{ACAD_REACTORS
330
C
102
}
330
C
100
AcDbDictionary
281
     1
  3
ByBlock
350
45
  3
ByLayer
350
44
  3
Global
350
46
  0
DICTIONARY
  5
5B
102
{ACAD_REACTORS
330
C
102
}
330
C
100
AcDbDictionary
281
     1
  3
Standard
350
5C
  0
DICTIONARY
  5
17
102
{ACAD_REACTORS
330
C
102
}
330
C
100
AcDbDictionary
281
     1
  3
Standard
350
18
  0
DICTIONARY
  5
19
102
{ACAD_REACTORS
330
C
102
}
330
C
100
AcDbDictionary
281
     1
  0
ACDBDICTIONARYWDFLT
  5
E
102
{ACAD_REACTORS
330
C
102
}
330
C
100
AcDbDictionary
281
     1
  3
Normal
350
F
100
AcDbDictionaryWithDefault
340
F
  0
DICTIONARY
  5
47
102
{ACAD_REACTORS
330
C
102
}
330
C
100
AcDbDictionary
281
     1
  3
A0
350
48
  3
A1
350
49
  3
A2
350
4A
  3
A3
350
4B
  3
A4
350
4C
  3
A5
350
4D
  3
A6
350
4E
  3
A7
350
4F
  3
A8
350
50
  3
A9
350
51
  3
B0
350
52
  3
B1
350
53
  3
B2
350
54
  3
B3
350
55
  3
B4
350
56
  3
B5
350
57
  3
B6
350
58
  0
DICTIONARY
  5
466
102
{ACAD_REACTORS
330
C
102
}
330
C
100
AcDbDictionary
281
     1
  3
Metric50
350
467
  0
DICTIONARY
  5
59
102
{ACAD_REACTORS
330
C
102
}
330
C
100
AcDbDictionary
281
     1
  3
Standard
350
5A
  0
DICTIONARY
  5
2A
102
{ACAD_REACTORS
330
C
102
}
330
C
100
AcDbDictionary
281
     1
  3
2dWireframe
350
2F
  3
Basic
350
32
  3
Brighten
350
36
  3
ColorChange
350
3A
  3
Conceptual
350
34
  3
Dim
350
35
  3
EdgeColorOff
350
3D
  3
Facepattern
350
39
  3
Flat
350
2B
  3
FlatWithEdges
350
2C
  3
Gouraud
350
2D
  3
GouraudWithEdges
350
2E
  3
Hidden
350
31
  3
JitterOff
350
3B
  3
Linepattern
350
38
  3
OverhangOff
350
3C
  3
Realistic
350
33
  3
Shaded
350
42
  3
Shaded with edges
350
41
  3
Shades of Gray
350
3E
  3
Sketchy
350
3F
  3
Thicken
350
37
  3
Wireframe
350
30
  3
X-Ray
350
40
  0
XRECORD
  5
11E9
102
{ACAD_REACTORS
330
C
102
}
330
C
100
AcDbXrecord
280
     1
 90
        1
330
5A
  0
DICTIONARY
  5
41A
102
{ACAD_REACTORS
330
C
102
}
330
C
100
AcDbDictionary
281
     1
  3
CANNOSCALE
350
428
  3
CENTEREXE
350
421
  3
CENTERLTYPEFILE
350
422
  3
CMLEADERSTYLE
350
41C
  3
CTABLESTYLE
350
41B
  3
CVIEWDETAILSTYLE
350
9D7
  3
CVIEWSECTIONSTYLE
350
9D8
  3
DIMASSOC
350
423
  3
HIDETEXT
350
424
  3
INDEXCTL
350
A73
  3
LAYEREVAL
350
9DA
  3
LAYERNOTIFY
350
9DB
  3
LIGHTINGUNITS
350
9D9
  3
MSLTSCALE
350
429
  3
SORTENTS
350
A72
  0
DICTIONARY
  5
477
102
{ACAD_REACTORS
330
476
102
}
330
476
100
AcDbDictionary
281
     1
  0
XRECORD
  5
9D4
102
{ACAD_REACTORS
330
9D3
102
}
330
9D3
100
AcDbXrecord
280
     1
290
     1
  0
XRECORD
  5
9D5
102
{ACAD_REACTORS
330
472
102
}
330
472
100
AcDbXrecord
280
     1
290
     1
  0
XRECORD
  5
9D6
102
{ACAD_REACTORS
330
474
102
}
330
474
100
AcDbXrecord
280
     1
290
     1
  0
SORTENTSTABLE
  5
683
102
{ACAD_REACTORS
330
682
102
}
330
682
100
AcDbSortentsTable
330
1F
331
9AF
  5
9AF
331
9C2
  5
9C2
331
9BE
  5
9BE
331
9BA
  5
9BA
331
9B6
  5
9B6
331
9B2
  5
9B2
331
A54
  5
A54
331
9C1
  5
9C1
331
9BD
  5
9BD
331
9B9
  5
9B9
331
9B5
  5
9B5
331
9B1
  5
9B1
331
A57
  5
A57
331
9C0
  5
9C0
331
9BC
  5
9BC
331
9B8
  5
9B8
331
9B4
  5
9B4
331
9B0
  5
9B0
331
9BF
  5
9BF
331
9BB
  5
9BB
331
9B7
  5
9B7
331
9B3
  5
9B3
  0
ACDBDETAILVIEWSTYLE
  5
469
102
{ACAD_XDICTIONARY
360
121C
102
}
102
{ACAD_REACTORS
330
468
102
}
330
468
100
AcDbModelDocViewStyle
 70
     0
  3
Metric50
290
     0
100
AcDbDetailViewStyle
 70
     0
 71
     0
 90
        3
 71
     1
340
11
 62
   256
 40
5.0
340
0
 62
   256
 40
5.0
300

 40
0.0
280
     1
 71
     2
340
16
 90
       25
 62
   256
 71
     3
340
11
 62
   256
 40
5.0
 90
        0
 40
15.0
 90
        1
300
%<\AcVar ViewDetailId>% (%<\AcVar ViewScale \f "%sn">%)
 71
     4
340
16
 90
       25
 62
   256
340
16
 90
       25
 62
   256
280
     0
  0
GROUP
  5
11E5
102
{ACAD_REACTORS
330
D
102
}
330
D
100
AcDbGroup
300

 70
     1
 71
     1
340
FA4
340
FA3
340
FA2
340
FA1
340
FA0
340
F9F
340
F9E
340
F9D
340
F9C
340
F9B
340
F9A
340
F99
340
F98
340
F97
340
F96
340
F95
340
F94
340
F93
340
F92
340
F91
340
F90
340
F8F
340
F8E
340
F8D
340
F8C
340
F8B
340
F8A
340
F89
340
F88
340
F87
340
F86
340
F85
340
F84
340
F83
340
F82
340
F81
340
F80
340
F7F
340
F7E
340
F7D
340
F7C
340
F7B
340
F7A
340
F79
340
F78
340
F77
340
F76
340
F75
340
F74
340
F73
340
F72
340
F71
340
F70
340
F6F
340
F6E
340
F6D
340
F6C
340
F6B
340
F6A
340
F69
340
F68
340
F67
340
F66
340
F65
340
F64
340
F63
340
F62
340
F61
340
F60
340
F5F
340
F5E
340
F5D
340
F5C
340
F5B
340
F5A
340
F59
340
F58
340
F57
340
F56
340
F55
340
F54
340
F53
340
F52
340
F51
340
F50
340
F4F
340
F4E
340
F4D
340
F4C
340
F4B
340
F4A
340
F49
340
F48
340
F47
340
F46
340
F45
340
F44
340
F43
340
F42
340
F41
340
F40
340
F3F
340
F3E
340
F3D
340
F3C
340
F3B
340
F3A
340
F39
340
F38
340
F37
340
F36
340
F35
340
F34
340
F33
340
F32
340
F31
340
F30
340
F2F
340
F2E
340
F2D
340
F2C
340
F2B
340
F2A
340
F29
340
F28
340
F27
340
F26
340
F25
340
F24
340
F23
340
F22
340
F21
340
F20
340
F1F
340
F1E
340
F1D
340
F1C
340
F1B
340
F1A
340
F19
340
F18
340
F17
340
F16
340
F15
340
F14
340
F13
340
F12
340
F11
340
F10
340
F0F
340
F0E
340
F0D
340
F0C
340
F0B
340
F0A
340
F09
340
F08
340
F07
340
F06
340
F05
340
F04
340
9C2
340
9C1
340
9C0
340
9BF
  0
GROUP
  5
11E6
102
{ACAD_REACTORS
330
D
102
}
330
D
100
AcDbGroup
300

 70
     1
 71
     1
340
11E1
340
11E0
340
11DF
340
11DE
340
11DD
340
11DC
340
11DB
340
11DA
340
11D9
340
11D8
340
11D7
340
11D6
340
11D5
340
11D4
340
11D3
340
11D2
340
11D1
340
11D0
340
11CF
340
11CE
340
11CD
340
11CC
340
11CB
340
11CA
340
11C9
340
11C8
340
11C7
340
11C6
340
11C5
340
11C4
340
11C3
340
11C2
340
11C1
340
11C0
340
11BF
340
11BE
340
11BD
340
11BC
340
11BB
340
11BA
340
11B9
340
11B8
340
11B7
340
11B6
340
11B5
340
11B4
340
11B3
340
11B2
340
11B1
340
11B0
340
11AF
340
11AE
340
11AD
340
11AC
340
11AB
340
11AA
340
11A9
340
11A8
340
11A7
340
11A6
340
11A5
340
11A4
340
11A3
340
11A2
340
11A1
340
11A0
340
119F
340
119E
340
119D
340
119C
340
119B
340
119A
340
1199
340
1198
340
1197
340
1196
340
1195
340
1194
340
1193
340
1192
340
1191
340
1190
340
118F
340
118E
340
118D
340
118C
340
118B
340
118A
340
1189
340
1188
340
1187
340
1186
340
1185
340
1184
340
1183
340
1182
340
1181
340
1180
340
117F
340
117E
340
117D
340
117C
340
117B
340
117A
340
1179
340
1178
340
1177
340
1176
340
1175
340
1174
340
1173
340
1172
340
1171
340
1170
340
116F
340
116E
340
116D
340
116C
340
116B
340
116A
340
A54
340
9B2
340
9B1
  0
GROUP
  5
11E7
102
{ACAD_REACTORS
330
D
102
}
330
D
100
AcDbGroup
300

 70
     1
 71
     1
340
1169
340
1168
340
1167
340
1166
340
1165
340
1164
340
1163
340
1162
340
1161
340
1160
340
115F
340
115E
340
115D
340
115C
340
115B
340
115A
340
1159
340
1158
340
1157
340
1156
340
1155
340
1154
340
1153
340
1152
340
1151
340
1150
340
114F
340
114E
340
114D
340
114C
340
114B
340
114A
340
1149
340
1148
340
1147
340
1146
340
1145
340
1144
340
1143
340
1142
340
1141
340
1140
340
113F
340
113E
340
113D
340
113C
340
113B
340
113A
340
1139
340
1138
340
1137
340
1136
340
1135
340
1134
340
1133
340
1132
340
1131
340
1130
340
112F
340
112E
340
112D
340
112C
340
112B
340
112A
340
1129
340
1128
340
1127
340
1126
340
1125
340
1124
340
1123
340
1122
340
1121
340
1120
340
111F
340
111E
340
111D
340
111C
340
111B
340
111A
340
1119
340
1118
340
1117
340
1116
340
1115
340
1114
340
1113
340
1112
340
1111
340
1110
340
110F
340
110E
340
110D
340
110C
340
110B
340
110A
340
1109
340
1108
340
1107
340
1106
340
1105
340
1104
340
1103
340
1102
340
1101
340
1100
340
10FF
340
10FE
340
10FD
340
10FC
340
A57
340
9B0
340
9AF
  0
GROUP
  5
11E2
102
{ACAD_REACTORS
330
D
102
}
330
D
100
AcDbGroup
300

 70
     1
 71
     1
340
10FB
340
10FA
340
10F9
340
10F8
340
10F7
340
10F6
340
10F5
340
10F4
340
10F3
340
10F2
340
10F1
340
10F0
340
10EF
340
10EE
340
10ED
340
10EC
340
10EB
340
10EA
340
10E9
340
10E8
340
10E7
340
10E6
340
10E5
340
10E4
340
10E3
340
10E2
340
10E1
340
10E0
340
10DF
340
10DE
340
10DD
340
10DC
340
10DB
340
10DA
340
10D9
340
10D8
340
10D7
340
10D6
340
10D5
340
10D4
340
10D3
340
10D2
340
10D1
340
10D0
340
10CF
340
10CE
340
10CD
340
10CC
340
10CB
340
10CA
340
10C9
340
10C8
340
10C7
340
10C6
340
10C5
340
10C4
340
10C3
340
10C2
340
10C1
340
10C0
340
10BF
340
10BE
340
10BD
340
10BC
340
10BB
340
10BA
340
10B9
340
10B8
340
10B7
340
10B6
340
10B5
340
10B4
340
10B3
340
10B2
340
10B1
340
10B0
340
10AF
340
10AE
340
10AD
340
10AC
340
10AB
340
10AA
340
10A9
340
10A8
340
10A7
340
10A6
340
10A5
340
10A4
340
10A3
340
10A2
340
10A1
340
10A0
340
109F
340
109E
340
109D
340
109C
340
109B
340
109A
340
1099
340
1098
340
1097
340
1096
340
1095
340
1094
340
1093
340
1092
340
1091
340
1090
340
108F
340
108E
340
108D
340
108C
340
108B
340
108A
340
1089
340
1088
340
1087
340
1086
340
1085
340
1084
340
1083
340
1082
340
1081
340
1080
340
107F
340
107E
340
107D
340
107C
340
107B
340
107A
340
1079
340
1078
340
1077
340
1076
340
1075
340
1074
340
1073
340
1072
340
1071
340
1070
340
106F
340
106E
340
106D
340
106C
340
106B
340
106A
340
1069
340
1068
340
1067
340
1066
340
1065
340
1064
340
1063
340
1062
340
1061
340
1060
340
105F
340
105E
340
105D
340
105C
340
105B
340
105A
340
1059
340
1058
340
1057
340
9B6
340
9B5
340
9B4
340
9B3
  0
GROUP
  5
11E3
102
{ACAD_REACTORS
330
D
102
}
330
D
100
AcDbGroup
300

 70
     1
 71
     1
340
1056
340
1055
340
1054
340
1053
340
1052
340
1051
340
1050
340
104F
340
104E
340
104D
340
104C
340
104B
340
104A
340
1049
340
1048
340
1047
340
1046
340
1045
340
1044
340
1043
340
1042
340
1041
340
1040
340
103F
340
103E
340
103D
340
103C
340
103B
340
103A
340
1039
340
1038
340
1037
340
1036
340
1035
340
1034
340
1033
340
1032
340
1031
340
1030
340
102F
340
102E
340
102D
340
102C
340
102B
340
102A
340
1029
340
1028
340
1027
340
1026
340
1025
340
1024
340
1023
340
1022
340
1021
340
1020
340
101F
340
101E
340
101D
340
101C
340
101B
340
101A
340
1019
340
1018
340
1017
340
1016
340
1015
340
1014
340
1013
340
1012
340
1011
340
1010
340
100F
340
100E
340
100D
340
100C
340
100B
340
100A
340
1009
340
1008
340
1007
340
1006
340
1005
340
1004
340
1003
340
1002
340
1001
340
1000
340
FFF
340
FFE
340
FFD
340
FFC
340
FFB
340
FFA
340
FF9
340
FF8
340
FF7
340
FF6
340
FF5
340
FF4
340
FF3
340
FF2
340
FF1
340
FF0
340
FEF
340
FEE
340
FED
340
FEC
340
FEB
340
FEA
340
FE9
340
FE8
340
FE7
340
FE6
340
FE5
340
FE4
340
FE3
340
FE2
340
FE1
340
FE0
340
FDF
340
FDE
340
FDD
340
FDC
340
FDB
340
FDA
340
FD9
340
FD8
340
FD7
340
FD6
340
FD5
340
FD4
340
FD3
340
FD2
340
FD1
340
FD0
340
FCF
340
FCE
340
FCD
340
FCC
340
FCB
340
FCA
340
FC9
340
FC8
340
FC7
340
FC6
340
FC5
340
FC4
340
FC3
340
FC2
340
FC1
340
FC0
340
FBF
340
FBE
340
FBD
340
FBC
340
FBB
340
FBA
340
FB9
340
FB8
340
FB7
340
FB6
340
FB5
340
FB4
340
FB3
340
FB2
340
FB1
340
FB0
340
FAF
340
FAE
340
FAD
340
FAC
340
FAB
340
FAA
340
FA9
340
FA8
340
FA7
340
FA6
340
FA5
340
9BA
340
9B9
340
9B8
340
9B7
  0
GROUP
  5
11E4
102
{ACAD_REACTORS
330
D
102
}
330
D
100
AcDbGroup
300

 70
     1
 71
     1
340
F03
340
F02
340
F01
340
F00
340
EFF
340
EFE
340
EFD
340
EFC
340
EFB
340
EFA
340
EF9
340
EF8
340
EF7
340
EF6
340
EF5
340
EF4
340
EF3
340
EF2
340
EF1
340
EF0
340
EEF
340
EEE
340
EED
340
EEC
340
EEB
340
EEA
340
EE9
340
EE8
340
EE7
340
EE6
340
EE5
340
EE4
340
EE3
340
EE2
340
EE1
340
EE0
340
EDF
340
EDE
340
EDD
340
EDC
340
EDB
340
EDA
340
ED9
340
ED8
340
ED7
340
ED6
340
ED5
340
ED4
340
ED3
340
ED2
340
ED1
340
ED0
340
ECF
340
ECE
340
ECD
340
ECC
340
ECB
340
ECA
340
EC9
340
EC8
340
EC7
340
EC6
340
EC5
340
EC4
340
EC3
340
EC2
340
EC1
340
EC0
340
EBF
340
EBE
340
EBD
340
EBC
340
EBB
340
EBA
340
EB9
340
EB8
340
EB7
340
EB6
340
EB5
340
EB4
340
EB3
340
EB2
340
EB1
340
EB0
340
EAF
340
EAE
340
EAD
340
EAC
340
EAB
340
EAA
340
EA9
340
EA8
340
EA7
340
EA6
340
EA5
340
EA4
340
EA3
340
EA2
340
EA1
340
EA0
340
E9F
340
E9E
340
E9D
340
E9C
340
E9B
340
E9A
340
E99
340
E98
340
E97
340
E96
340
E95
340
E94
340
E93
340
E92
340
E91
340
E90
340
E8F
340
E8E
340
E8D
340
E8C
340
E8B
340
E8A
340
E89
340
E88
340
E87
340
E86
340
E85
340
E84
340
E83
340
E82
340
E81
340
E80
340
E7F
340
E7E
340
E7D
340
E7C
340
E7B
340
E7A
340
E79
340
E78
340
E77
340
E76
340
E75
340
E74
340
E73
340
E72
340
E71
340
E70
340
E6F
340
E6E
340
E6D
340
E6C
340
E6B
340
E6A
340
E69
340
E68
340
E67
340
E66
340
E65
340
E64
340
E63
340
E62
340
E61
340
E60
340
E5F
340
E5E
340
E5D
340
E5C
340
E5B
340
E5A
340
E59
340
E58
340
E57
340
E56
340
E55
340
E54
340
9BE
340
9BD
340
9BC
340
9BB
  0
LAYOUT
  5
1E
102
{ACAD_REACTORS
330
1A
102
}
330
1A
100
AcDbPlotSettings
  1

  2
none_device
  4

  6

 40
0.0
 41
0.0
 42
0.0
 43
0.0
 44
0.0
 45
0.0
 46
0.0
 47
0.0
 48
0.0
 49
0.0
140
0.0
141
0.0
142
1.0
143
1.0
 70
   688
 72
     1
 73
     0
 74
     5
  7

 75
    16
147
1.0
 76
     0
 77
     2
 78
   300
148
0.0
149
0.0
100
AcDbLayout
  1
Layout1
 70
     1
 71
     1
 10
0.0
 20
0.0
 11
420.0
 21
297.0
 12
0.0
 22
0.0
 32
0.0
 14
1.000000000000000E+20
 24
1.000000000000000E+20
 34
1.000000000000000E+20
 15
-1.000000000000000E+20
 25
-1.000000000000000E+20
 35
-1.000000000000000E+20
146
0.0
 13
0.0
 23
0.0
 33
0.0
 16
1.0
 26
0.0
 36
0.0
 17
0.0
 27
1.0
 37
0.0
 76
     0
330
1B
  0
LAYOUT
  5
22
102
{ACAD_REACTORS
330
1A
102
}
330
1A
100
AcDbPlotSettings
  1

  2
none_device
  4
Letter_(8.50_x_11.00_Inches)
  6

 40
6.349999999999997
 41
6.349999999999997
 42
6.350005079999997
 43
6.350005079999997
 44
215.9
 45
279.4
 46
0.0
 47
0.0
 48
0.0
 49
0.0
140
0.0
141
0.0
142
1.0
143
1.0
 70
  1712
 72
     1
 73
     0
 74
     0
  7

 75
     0
147
1.0
 76
     0
 77
     2
 78
   300
148
0.0
149
0.0
100
AcDbLayout
  1
Model
 70
     1
 71
     0
 10
-577.3498840332128
 20
-951.9838867187596
 11
1241.451984405507
 21
803.535865783701
 12
0.0
 22
0.0
 32
0.0
 14
-577.3498840332128
 24
-951.9838867187596
 34
0.0
 15
1241.451984405507
 25
803.535865783701
 35
0.0
146
0.0
 13
0.0
 23
0.0
 33
0.0
 16
1.0
 26
0.0
 36
0.0
 17
0.0
 27
1.0
 37
0.0
 76
     0
330
1F
331
29
  0
LAYOUT
  5
46A
102
{ACAD_REACTORS
330
1A
102
}
330
1A
100
AcDbPlotSettings
  1

  2
青梅 FX DocuCentre-V C2275 T2
  4

  6

 40
0.0
 41
0.0
 42
0.0
 43
0.0
 44
0.0
 45
0.0
 46
0.0
 47
0.0
 48
0.0
 49
0.0
140
0.0
141
0.0
142
1.0
143
1.0
 70
   688
 72
     0
 73
     0
 74
     5
  7
AutoCAD_PEN.ctb
 75
    16
147
1.0
 76
     0
 77
     2
 78
   300
148
0.0
149
0.0
100
AcDbLayout
  1
レイアウト1
 70
     1
 71
     2
 10
0.0
 20
0.0
 11
12.0
 21
9.0
 12
0.0
 22
0.0
 32
0.0
 14
0.0
 24
0.0
 34
0.0
 15
0.0
 25
0.0
 35
0.0
146
0.0
 13
0.0
 23
0.0
 33
0.0
 16
1.0
 26
0.0
 36
0.0
 17
0.0
 27
1.0
 37
0.0
 76
     0
330
23
  0
MATERIAL
  5
45
102
{ACAD_XDICTIONARY
360
45C
102
}
102
{ACAD_REACTORS
330
43
102
}
330
43
100
AcDbMaterial
  1
ByBlock
  0
MATERIAL
  5
44
102
{ACAD_XDICTIONARY
360
45A
102
}
102
{ACAD_REACTORS
330
43
102
}
330
43
100
AcDbMaterial
  1
ByLayer
  0
MATERIAL
  5
46
102
{ACAD_XDICTIONARY
360
45E
102
}
102
{ACAD_REACTORS
330
43
102
}
330
43
100
AcDbMaterial
  1
Global
  0
MLEADERSTYLE
  5
5C
102
{ACAD_REACTORS
330
5B
102
}
330
5B
100
AcDbMLeaderStyle
179
     2
170
     2
171
     1
172
     0
 90
        2
 40
0.0
 41
0.0
173
     1
 91
-1056964608
340
14
 92
       -2
290
     1
 42
2.0
291
     1
 43
8.0
  3
Standard
 44
4.0
300

342
11
174
     1
178
     6
175
     1
176
     0
 93
-1056964608
 45
4.0
292
     0
297
     0
 46
4.0
 94
-1056964608
 47
1.0
 49
1.0
140
1.0
293
     1
141
0.0
294
     1
177
     0
142
1.0
295
     0
296
     0
143
3.75
271
     0
272
     9
273
     9
1001
ACAD_MLEADERVER
1070
     2
  0
MLINESTYLE
  5
18
102
{ACAD_REACTORS
330
17
102
}
330
17
100
AcDbMlineStyle
  2
STANDARD
 70
     0
  3

 62
   256
 51
90.0
 52
90.0
 71
     2
 49
0.5
 62
   256
  6
BYLAYER
 49
-0.5
 62
   256
  6
BYLAYER
  0
ACDBPLACEHOLDER
  5
F
102
{ACAD_REACTORS
330
E
102
}
330
E
  0
SCALE
  5
48
102
{ACAD_REACTORS
330
47
102
}
330
47
100
AcDbScale
 70
     0
300
1:1
140
1.0
141
1.0
290
     1
  0
SCALE
  5
49
102
{ACAD_REACTORS
330
47
102
}
330
47
100
AcDbScale
 70
     0
300
1:2
140
1.0
141
2.0
290
     0
  0
SCALE
  5
4A
102
{ACAD_REACTORS
330
47
102
}
330
47
100
AcDbScale
 70
     0
300
1:4
140
1.0
141
4.0
290
     0
  0
SCALE
  5
4B
102
{ACAD_REACTORS
330
47
102
}
330
47
100
AcDbScale
 70
     0
300
1:5
140
1.0
141
5.0
290
     0
  0
SCALE
  5
4C
102
{ACAD_REACTORS
330
47
102
}
330
47
100
AcDbScale
 70
     0
300
1:8
140
1.0
141
8.0
290
     0
  0
SCALE
  5
4D
102
{ACAD_REACTORS
330
47
102
}
330
47
100
AcDbScale
 70
     0
300
1:10
140
1.0
141
10.0
290
     0
  0
SCALE
  5
4E
102
{ACAD_REACTORS
330
47
102
}
330
47
100
AcDbScale
 70
     0
300
1:16
140
1.0
141
16.0
290
     0
  0
SCALE
  5
4F
102
{ACAD_REACTORS
330
47
102
}
330
47
100
AcDbScale
 70
     0
300
1:20
140
1.0
141
20.0
290
     0
  0
SCALE
  5
50
102
{ACAD_REACTORS
330
47
102
}
330
47
100
AcDbScale
 70
     0
300
1:30
140
1.0
141
30.0
290
     0
  0
SCALE
  5
51
102
{ACAD_REACTORS
330
47
102
}
330
47
100
AcDbScale
 70
     0
300
1:40
140
1.0
141
40.0
290
     0
  0
SCALE
  5
52
102
{ACAD_REACTORS
330
47
102
}
330
47
100
AcDbScale
 70
     0
300
1:50
140
1.0
141
50.0
290
     0
  0
SCALE
  5
53
102
{ACAD_REACTORS
330
47
102
}
330
47
100
AcDbScale
 70
     0
300
1:100
140
1.0
141
100.0
290
     0
  0
SCALE
  5
54
102
{ACAD_REACTORS
330
47
102
}
330
47
100
AcDbScale
 70
     0
300
2:1
140
2.0
141
1.0
290
     0
  0
SCALE
  5
55
102
{ACAD_REACTORS
330
47
102
}
330
47
100
AcDbScale
 70
     0
300
4:1
140
4.0
141
1.0
290
     0
  0
SCALE
  5
56
102
{ACAD_REACTORS
330
47
102
}
330
47
100
AcDbScale
 70
     0
300
8:1
140
8.0
141
1.0
290
     0
  0
SCALE
  5
57
102
{ACAD_REACTORS
330
47
102
}
330
47
100
AcDbScale
 70
     0
300
10:1
140
10.0
141
1.0
290
     0
  0
SCALE
  5
58
102
{ACAD_REACTORS
330
47
102
}
330
47
100
AcDbScale
 70
     0
300
100:1
140
100.0
141
1.0
290
     0
  0
ACDBSECTIONVIEWSTYLE
  5
467
102
{ACAD_XDICTIONARY
360
121A
102
}
102
{ACAD_REACTORS
330
466
102
}
330
466
100
AcDbModelDocViewStyle
 70
     0
  3
Metric50
290
     0
100
AcDbSectionViewStyle
 70
     0
 71
     0
 90
      102
 71
     1
340
11
 62
   256
 40
5.0
340
0
340
0
 62
   256
 40
5.0
300
I, O, Q, S, X, Z
 40
10.0
 90
        0
 40
2.5
 90
        0
 71
     2
340
16
 90
       25
 62
   256
340
16
 90
       50
 62
   256
 40
5.0
 40
2.5
 40
5.0
 71
     3
340
11
 62
   256
 40
5.0
 90
        0
 40
15.0
 90
        1
300
%<\AcVar ViewSectionStartId>%-%<\AcVar ViewSectionEndId>% (%<\AcVar ViewScale \f "%sn">%)
 71
     4
 62
   256
 62
   257
300
ANSI31
 40
1.0
 90
        0
290
     0
290
     0
 90
        6
 40
0.0
 40
1.570796326794896
 40
0.2617993877991494
 40
1.308996938995747
 40
-0.2617993877991494
 40
1.832595714594044
  0
TABLESTYLE
  5
5A
102
{ACAD_XDICTIONARY
360
9DC
102
}
102
{ACAD_REACTORS
330
59
102
}
330
59
100
AcDbTableStyle
280
     0
  3
Standard
 70
     0
 71
     0
 40
1.5
 41
1.5
280
     0
281
     0
  7
Standard
140
4.5
170
     2
 62
     0
 63
     7
283
     0
 90
        4
 91
        0
  1

274
    -2
284
     1
 64
     0
275
    -2
285
     1
 65
     0
276
    -2
286
     1
 66
     0
277
    -2
287
     1
 67
     0
278
    -2
288
     1
 68
     0
279
    -2
289
     1
 69
     0
  7
Standard
140
6.0
170
     5
 62
     0
 63
     7
283
     0
 90
        4
 91
        0
  1

274
    -2
284
     1
 64
     0
275
    -2
285
     1
 65
     0
276
    -2
286
     1
 66
     0
277
    -2
287
     1
 67
     0
278
    -2
288
     1
 68
     0
279
    -2
289
     1
 69
     0
  7
Standard
140
4.5
170
     5
 62
     0
 63
     7
283
     0
 90
        4
 91
        0
  1

274
    -2
284
     1
 64
     0
275
    -2
285
     1
 65
     0
276
    -2
286
     1
 66
     0
277
    -2
287
     1
 67
     0
278
    -2
288
     1
 68
     0
279
    -2
289
     1
 69
     0
  0
VISUALSTYLE
  5
2F
102
{ACAD_XDICTIONARY
360
11F2
102
}
102
{ACAD_REACTORS
330
2A
102
}
330
2A
100
AcDbVisualStyle
  2

 70
     4
177
     2
291
     0
 71
     0
176
     1
 72
     2
176
     1
 73
     0
176
     1
 90
        0
176
     1
 40
0.6
176
     1
 41
30.0
176
     1
 63
     7
176
     1
 74
     1
176
     1
 91
        4
176
     1
 64
     7
176
     1
 65
   257
176
     1
 75
     1
176
     1
175
     1
176
     1
 42
1.0
176
     1
 92
        0
176
     1
 66
   257
176
     1
 43
1.0
176
     1
 76
     1
176
     1
 77
     6
176
     1
 78
     2
176
     1
 67
     7
176
     1
 79
     5
176
     1
170
     0
176
     1
171
     0
176
     1
290
     0
176
     1
 93
        1
176
     1
 44
0.0
176
     1
173
     0
176
     1
1001
ACAD
1000
AcDbSavedByObjectVersion
1070
     0
  0
VISUALSTYLE
  5
32
102
{ACAD_XDICTIONARY
360
11F8
102
}
102
{ACAD_REACTORS
330
2A
102
}
330
2A
100
AcDbVisualStyle
  2

 70
     7
177
     2
291
     1
 71
     1
176
     1
 72
     0
176
     1
 73
     1
176
     1
 90
        0
176
     1
 40
0.6
176
     1
 41
30.0
176
     1
 63
     7
176
     1
 74
     0
176
     1
 91
        4
176
     1
 64
     7
176
     1
 65
   257
176
     1
 75
     1
176
     1
175
     1
176
     1
 42
1.0
176
     1
 92
        8
176
     1
 66
     7
176
     1
 43
1.0
176
     1
 76
     1
176
     1
 77
     6
176
     1
 78
     2
176
     1
 67
     7
176
     1
 79
     5
176
     1
170
     0
176
     1
171
     0
176
     1
290
     0
176
     1
 93
        1
176
     1
 44
0.0
176
     1
173
     0
176
     1
1001
ACAD
1000
AcDbSavedByObjectVersion
1070
     0
  0
VISUALSTYLE
  5
36
102
{ACAD_XDICTIONARY
360
1200
102
}
102
{ACAD_REACTORS
330
2A
102
}
330
2A
100
AcDbVisualStyle
  2

 70
    12
177
     2
291
     1
 71
     2
176
     1
 72
     2
176
     1
 73
     0
176
     1
 90
        0
176
     1
 40
0.6
176
     1
 41
30.0
176
     1
 63
     7
176
     1
 74
     1
176
     1
 91
        4
176
     1
 64
     7
176
     1
 65
   257
176
     1
 75
     1
176
     1
175
     1
176
     1
 42
1.0
176
     1
 92
        8
176
     1
 66
     7
176
     1
 43
1.0
176
     1
 76
     1
176
     1
 77
     6
176
     1
 78
     2
176
     1
 67
     7
176
     1
 79
     5
176
     1
170
     0
176
     1
171
     0
176
     1
290
     0
176
     1
 93
        1
176
     1
 44
50.0
176
     1
173
     0
176
     1
1001
ACAD
1000
AcDbSavedByObjectVersion
1070
     0
  0
VISUALSTYLE
  5
3A
102
{ACAD_XDICTIONARY
360
1208
102
}
102
{ACAD_REACTORS
330
2A
102
}
330
2A
100
AcDbVisualStyle
  2

 70
    16
177
     2
291
     1
 71
     2
176
     1
 72
     2
176
     1
 73
     3
176
     1
 90
        0
176
     1
 40
0.6
176
     1
 41
30.0
176
     1
 63
     8
176
     1
 74
     1
176
     1
 91
        4
176
     1
 64
     7
176
     1
 65
   257
176
     1
 75
     1
176
     1
175
     1
176
     1
 42
1.0
176
     1
 92
        8
176
     1
 66
     8
176
     1
 43
1.0
176
     1
 76
     1
176
     1
 77
     6
176
     1
 78
     2
176
     1
 67
     7
176
     1
 79
     5
176
     1
170
     0
176
     1
171
     0
176
     1
290
     0
176
     1
 93
        1
176
     1
 44
0.0
176
     1
173
     0
176
     1
1001
ACAD
1000
AcDbSavedByObjectVersion
1070
     0
  0
VISUALSTYLE
  5
34
102
{ACAD_XDICTIONARY
360
11FC
102
}
102
{ACAD_REACTORS
330
2A
102
}
330
2A
100
AcDbVisualStyle
  2

 70
     9
177
     2
291
     0
 71
     3
176
     1
 72
     2
176
     1
 73
     0
176
     1
 90
        0
176
     1
 40
0.6
176
     1
 41
30.0
176
     1
 63
     7
176
     1
 74
     2
176
     1
 91
        2
176
     1
 64
     7
176
     1
 65
   257
176
     1
 75
     1
176
     1
175
     1
176
     1
 42
179.0
176
     1
 92
        8
176
     1
 66
     7
176
     1
 43
1.0
176
     1
 76
     1
176
     1
 77
     6
176
     1
 78
     2
176
     1
 67
     7
176
     1
 79
     3
176
     1
170
     0
176
     1
171
     0
176
     1
290
     0
176
     1
 93
        1
176
     1
 44
0.0
176
     1
173
     0
176
     1
1001
ACAD
1000
AcDbSavedByObjectVersion
1070
     0
  0
VISUALSTYLE
  5
35
102
{ACAD_XDICTIONARY
360
11FE
102
}
102
{ACAD_REACTORS
330
2A
102
}
330
2A
100
AcDbVisualStyle
  2

 70
    11
177
     2
291
     1
 71
     2
176
     1
 72
     2
176
     1
 73
     0
176
     1
 90
        0
176
     1
 40
0.6
176
     1
 41
30.0
176
     1
 63
     7
176
     1
 74
     1
176
     1
 91
        4
176
     1
 64
     7
176
     1
 65
   257
176
     1
 75
     1
176
     1
175
     1
176
     1
 42
1.0
176
     1
 92
        8
176
     1
 66
     7
176
     1
 43
1.0
176
     1
 76
     1
176
     1
 77
     6
176
     1
 78
     2
176
     1
 67
     7
176
     1
 79
     5
176
     1
170
     0
176
     1
171
     0
176
     1
290
     0
176
     1
 93
        1
176
     1
 44
-50.0
176
     1
173
     0
176
     1
1001
ACAD
1000
AcDbSavedByObjectVersion
1070
     0
  0
VISUALSTYLE
  5
3D
102
{ACAD_XDICTIONARY
360
120E
102
}
102
{ACAD_REACTORS
330
2A
102
}
330
2A
100
AcDbVisualStyle
  2

 70
    22
177
     2
291
     1
 71
     2
176
     0
 72
     2
176
     0
 73
     0
176
     0
 90
        0
176
     0
 40
0.6
176
     0
 41
30.0
176
     0
 63
     7
176
     0
 74
     1
176
     0
 91
        4
176
     0
 64
     7
176
     0
 65
   257
176
     0
 75
     1
176
     0
175
     1
176
     0
 42
1.0
176
     0
 92
        8
176
     2
 66
     7
176
     0
 43
1.0
176
     0
 76
     1
176
     0
 77
     6
176
     0
 78
     2
176
     0
 67
     7
176
     0
 79
     5
176
     0
170
     0
176
     0
171
     0
176
     0
290
     0
176
     0
 93
        1
176
     0
 44
0.0
176
     0
173
     0
176
     0
1001
ACAD
1000
AcDbSavedByObjectVersion
1070
     0
  0
VISUALSTYLE
  5
39
102
{ACAD_XDICTIONARY
360
1206
102
}
102
{ACAD_REACTORS
330
2A
102
}
330
2A
100
AcDbVisualStyle
  2

 70
    15
177
     2
291
     1
 71
     2
176
     1
 72
     2
176
     1
 73
     0
176
     1
 90
        0
176
     1
 40
0.6
176
     1
 41
30.0
176
     1
 63
     7
176
     1
 74
     1
176
     1
 91
        4
176
     1
 64
     7
176
     1
 65
   257
176
     1
 75
     1
176
     1
175
     1
176
     1
 42
1.0
176
     1
 92
        8
176
     1
 66
     7
176
     1
 43
1.0
176
     1
 76
     1
176
     1
 77
     6
176
     1
 78
     2
176
     1
 67
     7
176
     1
 79
     5
176
     1
170
     0
176
     1
171
     0
176
     1
290
     0
176
     1
 93
        1
176
     1
 44
0.0
176
     1
173
     0
176
     1
1001
ACAD
1000
AcDbSavedByObjectVersion
1070
     0
  0
VISUALSTYLE
  5
2B
102
{ACAD_XDICTIONARY
360
11EA
102
}
102
{ACAD_REACTORS
330
2A
102
}
330
2A
100
AcDbVisualStyle
  2

 70
     0
177
     2
291
     1
 71
     2
176
     1
 72
     1
176
     1
 73
     1
176
     1
 90
        2
176
     1
 40
0.6
176
     1
 41
30.0
176
     1
 63
     7
176
     1
 74
     0
176
     1
 91
        0
176
     1
 64
     7
176
     1
 65
   257
176
     1
 75
     1
176
     1
175
     1
176
     1
 42
1.0
176
     1
 92
        8
176
     1
 66
     7
176
     1
 43
1.0
176
     1
 76
     1
176
     1
 77
     6
176
     1
 78
     2
176
     1
 67
     7
176
     1
 79
     5
176
     1
170
     0
176
     1
171
     0
176
     1
290
     0
176
     1
 93
       13
176
     1
 44
0.0
176
     1
173
     0
176
     1
1001
ACAD
1000
AcDbSavedByObjectVersion
1070
     0
  0
VISUALSTYLE
  5
2C
102
{ACAD_XDICTIONARY
360
11EC
102
}
102
{ACAD_REACTORS
330
2A
102
}
330
2A
100
AcDbVisualStyle
  2

 70
     1
177
     2
291
     1
 71
     2
176
     1
 72
     1
176
     1
 73
     1
176
     1
 90
        2
176
     1
 40
0.6
176
     1
 41
30.0
176
     1
 63
     7
176
     1
 74
     1
176
     1
 91
        0
176
     1
 64
     7
176
     1
 65
   257
176
     1
 75
     1
176
     1
175
     1
176
     1
 42
1.0
176
     1
 92
        0
176
     1
 66
   257
176
     1
 43
1.0
176
     1
 76
     1
176
     1
 77
     6
176
     1
 78
     2
176
     1
 67
     7
176
     1
 79
     5
176
     1
170
     0
176
     1
171
     0
176
     1
290
     0
176
     1
 93
       13
176
     1
 44
0.0
176
     1
173
     0
176
     1
1001
ACAD
1000
AcDbSavedByObjectVersion
1070
     0
  0
VISUALSTYLE
  5
2D
102
{ACAD_XDICTIONARY
360
11EE
102
}
102
{ACAD_REACTORS
330
2A
102
}
330
2A
100
AcDbVisualStyle
  2

 70
     2
177
     2
291
     1
 71
     2
176
     1
 72
     2
176
     1
 73
     1
176
     1
 90
        2
176
     1
 40
0.6
176
     1
 41
30.0
176
     1
 63
     7
176
     1
 74
     0
176
     1
 91
        0
176
     1
 64
     7
176
     1
 65
   257
176
     1
 75
     1
176
     1
175
     1
176
     1
 42
1.0
176
     1
 92
        0
176
     1
 66
     7
176
     1
 43
1.0
176
     1
 76
     1
176
     1
 77
     6
176
     1
 78
     2
176
     1
 67
     7
176
     1
 79
     5
176
     1
170
     0
176
     1
171
     0
176
     1
290
     0
176
     1
 93
       13
176
     1
 44
0.0
176
     1
173
     0
176
     1
1001
ACAD
1000
AcDbSavedByObjectVersion
1070
     0
  0
VISUALSTYLE
  5
2E
102
{ACAD_XDICTIONARY
360
11F0
102
}
102
{ACAD_REACTORS
330
2A
102
}
330
2A
100
AcDbVisualStyle
  2

 70
     3
177
     2
291
     1
 71
     2
176
     1
 72
     2
176
     1
 73
     1
176
     1
 90
        2
176
     1
 40
0.6
176
     1
 41
30.0
176
     1
 63
     7
176
     1
 74
     1
176
     1
 91
        0
176
     1
 64
     7
176
     1
 65
   257
176
     1
 75
     1
176
     1
175
     1
176
     1
 42
1.0
176
     1
 92
        0
176
     1
 66
   257
176
     1
 43
1.0
176
     1
 76
     1
176
     1
 77
     6
176
     1
 78
     2
176
     1
 67
     7
176
     1
 79
     5
176
     1
170
     0
176
     1
171
     0
176
     1
290
     0
176
     1
 93
       13
176
     1
 44
0.0
176
     1
173
     0
176
     1
1001
ACAD
1000
AcDbSavedByObjectVersion
1070
     0
  0
VISUALSTYLE
  5
31
102
{ACAD_XDICTIONARY
360
11F6
102
}
102
{ACAD_REACTORS
330
2A
102
}
330
2A
100
AcDbVisualStyle
  2

 70
     6
177
     2
291
     0
 71
     1
176
     1
 72
     2
176
     1
 73
     2
176
     1
 90
        0
176
     1
 40
0.6
176
     1
 41
30.0
176
     1
 63
     7
176
     1
 74
     2
176
     1
 91
        2
176
     1
 64
     7
176
     1
 65
   257
176
     1
 75
     2
176
     1
175
     1
176
     1
 42
40.0
176
     1
 92
        0
176
     1
 66
   257
176
     1
 43
1.0
176
     1
 76
     1
176
     1
 77
     6
176
     1
 78
     2
176
     1
 67
     7
176
     1
 79
     3
176
     1
170
     0
176
     1
171
     0
176
     1
290
     0
176
     1
 93
        1
176
     1
 44
0.0
176
     1
173
     0
176
     1
1001
ACAD
1000
AcDbSavedByObjectVersion
1070
     0
  0
VISUALSTYLE
  5
3B
102
{ACAD_XDICTIONARY
360
120A
102
}
102
{ACAD_REACTORS
330
2A
102
}
330
2A
100
AcDbVisualStyle
  2

 70
    20
177
     2
291
     1
 71
     2
176
     0
 72
     2
176
     0
 73
     0
176
     0
 90
        0
176
     0
 40
0.6
176
     0
 41
30.0
176
     0
 63
     7
176
     0
 74
     1
176
     0
 91
        4
176
     0
 64
     7
176
     0
 65
   257
176
     0
 75
     1
176
     0
175
     1
176
     0
 42
1.0
176
     0
 92
       10
176
     2
 66
     7
176
     0
 43
1.0
176
     0
 76
     1
176
     0
 77
     6
176
     0
 78
     2
176
     0
 67
     7
176
     0
 79
     5
176
     0
170
     0
176
     0
171
     0
176
     0
290
     0
176
     0
 93
        1
176
     0
 44
0.0
176
     0
173
     0
176
     0
1001
ACAD
1000
AcDbSavedByObjectVersion
1070
     0
  0
VISUALSTYLE
  5
38
102
{ACAD_XDICTIONARY
360
1204
102
}
102
{ACAD_REACTORS
330
2A
102
}
330
2A
100
AcDbVisualStyle
  2

 70
    14
177
     2
291
     1
 71
     2
176
     1
 72
     2
176
     1
 73
     0
176
     1
 90
        0
176
     1
 40
0.6
176
     1
 41
30.0
176
     1
 63
     7
176
     1
 74
     1
176
     1
 91
        4
176
     1
 64
     7
176
     1
 65
   257
176
     1
 75
     7
176
     1
175
     7
176
     1
 42
1.0
176
     1
 92
        8
176
     1
 66
     7
176
     1
 43
1.0
176
     1
 76
     1
176
     1
 77
     6
176
     1
 78
     2
176
     1
 67
     7
176
     1
 79
     5
176
     1
170
     0
176
     1
171
     0
176
     1
290
     0
176
     1
 93
        1
176
     1
 44
0.0
176
     1
173
     0
176
     1
1001
ACAD
1000
AcDbSavedByObjectVersion
1070
     0
  0
VISUALSTYLE
  5
3C
102
{ACAD_XDICTIONARY
360
120C
102
}
102
{ACAD_REACTORS
330
2A
102
}
330
2A
100
AcDbVisualStyle
  2

 70
    21
177
     2
291
     1
 71
     2
176
     0
 72
     2
176
     0
 73
     0
176
     0
 90
        0
176
     0
 40
0.6
176
     0
 41
30.0
176
     0
 63
     7
176
     0
 74
     1
176
     0
 91
        4
176
     0
 64
     7
176
     0
 65
   257
176
     0
 75
     1
176
     0
175
     1
176
     0
 42
1.0
176
     0
 92
        9
176
     2
 66
     7
176
     0
 43
1.0
176
     0
 76
     1
176
     0
 77
     6
176
     0
 78
     2
176
     0
 67
     7
176
     0
 79
     5
176
     0
170
     0
176
     0
171
     0
176
     0
290
     0
176
     0
 93
        1
176
     0
 44
0.0
176
     0
173
     0
176
     0
1001
ACAD
1000
AcDbSavedByObjectVersion
1070
     0
  0
VISUALSTYLE
  5
33
102
{ACAD_XDICTIONARY
360
11FA
102
}
102
{ACAD_REACTORS
330
2A
102
}
330
2A
100
AcDbVisualStyle
  2

 70
     8
177
     2
291
     0
 71
     2
176
     1
 72
     3
176
     1
 73
     0
176
     1
 90
        2
176
     1
 40
0.6
176
     1
 41
30.0
176
     1
 63
     7
176
     1
 74
     0
176
     1
 91
        0
176
     1
 64
     7
176
     1
 65
   257
176
     1
 75
     1
176
     1
175
     1
176
     1
 42
1.0
176
     1
 92
        8
176
     1
 66
   257
176
     1
 43
1.0
176
     1
 76
     1
176
     1
 77
     6
176
     1
 78
     2
176
     1
 67
     7
176
     1
 79
     3
176
     1
170
     0
176
     1
171
     0
176
     1
290
     0
176
     1
 93
       13
176
     1
 44
0.0
176
     1
173
     0
176
     1
1001
ACAD
1000
AcDbSavedByObjectVersion
1070
     0
  0
VISUALSTYLE
  5
42
102
{ACAD_XDICTIONARY
360
1218
102
}
102
{ACAD_REACTORS
330
2A
102
}
330
2A
100
AcDbVisualStyle
  2

 70
    27
177
     2
291
     0
 71
     2
176
     1
 72
     2
176
     1
 73
     1
176
     1
 90
        2
176
     1
 40
0.6
176
     1
 41
30.0
176
     1
 63
     7
176
     1
 74
     0
176
     1
 91
        4
176
     1
 64
     7
176
     1
 65
   257
176
     1
 75
     1
176
     1
175
     1
176
     1
 42
1.0
176
     1
 92
        8
176
     1
 66
   257
176
     1
 43
1.0
176
     1
 76
     1
176
     1
 77
     6
176
     1
 78
     2
176
     1
 67
     8
176
     1
 79
     3
176
     1
170
     0
176
     1
171
     0
176
     1
290
     0
176
     1
 93
        5
176
     1
 44
0.0
176
     1
173
     0
176
     1
1001
ACAD
1000
AcDbSavedByObjectVersion
1070
     0
  0
VISUALSTYLE
  5
41
102
{ACAD_XDICTIONARY
360
1216
102
}
102
{ACAD_REACTORS
330
2A
102
}
330
2A
100
AcDbVisualStyle
  2

 70
    26
177
     2
291
     0
 71
     2
176
     1
 72
     2
176
     1
 73
     1
176
     1
 90
        2
176
     1
 40
0.6
176
     1
 41
30.0
176
     1
 63
     7
176
     1
 74
     1
176
     1
 91
       10
176
     1
 64
     7
176
     1
 65
   257
176
     1
 75
     2
176
     1
175
     1
176
     1
 42
1.0
176
     1
 92
        8
176
     1
 66
   257
176
     1
 43
1.0
176
     1
 76
     1
176
     1
 77
     6
176
     1
 78
     2
176
     1
 67
     7
176
     1
 79
     3
176
     1
170
     0
176
     1
171
     0
176
     1
290
     0
176
     1
 93
        5
176
     1
 44
0.0
176
     1
173
     0
176
     1
1001
ACAD
1000
AcDbSavedByObjectVersion
1070
     0
  0
VISUALSTYLE
  5
3E
102
{ACAD_XDICTIONARY
360
1210
102
}
102
{ACAD_REACTORS
330
2A
102
}
330
2A
100
AcDbVisualStyle
  2

 70
    23
177
     2
291
     0
 71
     2
176
     1
 72
     2
176
     1
 73
     3
176
     1
 90
        0
176
     1
 40
0.6
176
     1
 41
30.0
176
     1
 63
     7
176
     1
 74
     2
176
     1
 91
        2
176
     1
 64
     7
176
     1
 65
     7
176
     1
 75
     1
176
     1
175
     1
176
     1
 42
40.0
176
     1
 92
        8
176
     1
 66
     7
176
     1
 43
1.0
176
     1
 76
     1
176
     1
 77
     6
176
     1
 78
     2
176
     1
 67
     7
176
     1
 79
     3
176
     1
170
     0
176
     1
171
     0
176
     1
290
     0
176
     1
 93
        1
176
     1
 44
0.0
176
     1
173
     0
176
     1
1001
ACAD
1000
AcDbSavedByObjectVersion
1070
     0
  0
VISUALSTYLE
  5
3F
102
{ACAD_XDICTIONARY
360
1212
102
}
102
{ACAD_REACTORS
330
2A
102
}
330
2A
100
AcDbVisualStyle
  2

 70
    24
177
     2
291
     0
 71
     1
176
     1
 72
     2
176
     1
 73
     2
176
     1
 90
        0
176
     1
 40
0.6
176
     1
 41
30.0
176
     1
 63
     7
176
     1
 74
     2
176
     1
 91
        2
176
     1
 64
     7
176
     1
 65
     7
176
     1
 75
     1
176
     1
175
     1
176
     1
 42
40.0
176
     1
 92
       11
176
     1
 66
     7
176
     1
 43
1.0
176
     1
 76
     1
176
     1
 77
     6
176
     1
 78
     2
176
     1
 67
     7
176
     1
 79
     6
176
     1
170
     0
176
     1
171
     0
176
     1
290
     0
176
     1
 93
        1
176
     1
 44
0.0
176
     1
173
     0
176
     1
1001
ACAD
1000
AcDbSavedByObjectVersion
1070
     0
  0
VISUALSTYLE
  5
37
102
{ACAD_XDICTIONARY
360
1202
102
}
102
{ACAD_REACTORS
330
2A
102
}
330
2A
100
AcDbVisualStyle
  2

 70
    13
177
     2
291
     1
 71
     2
176
     1
 72
     2
176
     1
 73
     0
176
     1
 90
        0
176
     1
 40
0.6
176
     1
 41
30.0
176
     1
 63
     7
176
     1
 74
     1
176
     1
 91
        4
176
     1
 64
     7
176
     1
 65
   257
176
     1
 75
     1
176
     1
175
     1
176
     1
 42
1.0
176
     1
 92
       12
176
     1
 66
     7
176
     1
 43
1.0
176
     1
 76
     1
176
     1
 77
     6
176
     1
 78
     2
176
     1
 67
     7
176
     1
 79
     5
176
     1
170
     0
176
     1
171
     0
176
     1
290
     0
176
     1
 93
        1
176
     1
 44
0.0
176
     1
173
     0
176
     1
1001
ACAD
1000
AcDbSavedByObjectVersion
1070
     0
  0
VISUALSTYLE
  5
30
102
{ACAD_XDICTIONARY
360
11F4
102
}
102
{ACAD_REACTORS
330
2A
102
}
330
2A
100
AcDbVisualStyle
  2

 70
     5
177
     2
291
     0
 71
     0
176
     1
 72
     2
176
     1
 73
     0
176
     1
 90
        0
176
     1
 40
0.6
176
     1
 41
30.0
176
     1
 63
     7
176
     1
 74
     1
176
     1
 91
        4
176
     1
 64
     7
176
     1
 65
   257
176
     1
 75
     1
176
     1
175
     1
176
     1
 42
1.0
176
     1
 92
        0
176
     1
 66
   257
176
     1
 43
1.0
176
     1
 76
     1
176
     1
 77
     6
176
     1
 78
     2
176
     1
 67
     7
176
     1
 79
     3
176
     1
170
     0
176
     1
171
     0
176
     1
290
     0
176
     1
 93
        1
176
     1
 44
0.0
176
     1
173
     0
176
     1
1001
ACAD
1000
AcDbSavedByObjectVersion
1070
     0
  0
VISUALSTYLE
  5
40
102
{ACAD_XDICTIONARY
360
1214
102
}
102
{ACAD_REACTORS
330
2A
102
}
330
2A
100
AcDbVisualStyle
  2

 70
    25
177
     2
291
     0
 71
     2
176
     1
 72
     2
176
     1
 73
     1
176
     1
 90
        1
176
     1
 40
0.5
176
     1
 41
30.0
176
     1
 63
     7
176
     1
 74
     1
176
     1
 91
        0
176
     1
 64
     7
176
     1
 65
   257
176
     1
 75
     1
176
     1
175
     1
176
     1
 42
1.0
176
     1
 92
        8
176
     1
 66
     7
176
     1
 43
1.0
176
     1
 76
     1
176
     1
 77
     6
176
     1
 78
     2
176
     1
 67
     7
176
     1
 79
     3
176
     1
170
     0
176
     1
171
     0
176
     1
290
     0
176
     1
 93
       13
176
     1
 44
0.0
176
     1
173
     0
176
     1
1001
ACAD
1000
AcDbSavedByObjectVersion
1070
     0
  0
DICTIONARYVAR
  5
428
102
{ACAD_REACTORS
330
41A
102
}
330
41A
100
DictionaryVariables
280
     0
  1
1:1
  0
DICTIONARYVAR
  5
421
102
{ACAD_REACTORS
330
41A
102
}
330
41A
100
DictionaryVariables
280
     0
  1
3.500000
  0
DICTIONARYVAR
  5
422
102
{ACAD_REACTORS
330
41A
102
}
330
41A
100
DictionaryVariables
280
     0
  1
acadiso.lin
  0
DICTIONARYVAR
  5
41C
102
{ACAD_REACTORS
330
41A
102
}
330
41A
100
DictionaryVariables
280
     0
  1
STANDARD
  0
DICTIONARYVAR
  5
41B
102
{ACAD_REACTORS
330
41A
102
}
330
41A
100
DictionaryVariables
280
     0
  1
STANDARD
  0
DICTIONARYVAR
  5
9D7
102
{ACAD_REACTORS
330
41A
102
}
330
41A
100
DictionaryVariables
280
     0
  1
Metric50
  0
DICTIONARYVAR
  5
9D8
102
{ACAD_REACTORS
330
41A
102
}
330
41A
100
DictionaryVariables
280
     0
  1
Metric50
  0
DICTIONARYVAR
  5
423
102
{ACAD_REACTORS
330
41A
102
}
330
41A
100
DictionaryVariables
280
     0
  1
2
  0
DICTIONARYVAR
  5
424
102
{ACAD_REACTORS
330
41A
102
}
330
41A
100
DictionaryVariables
280
     0
  1
1
  0
DICTIONARYVAR
  5
A73
102
{ACAD_REACTORS
330
41A
102
}
330
41A
100
DictionaryVariables
280
     0
  1
0
  0
DICTIONARYVAR
  5
9DA
102
{ACAD_REACTORS
330
41A
102
}
330
41A
100
DictionaryVariables
280
     0
  1
1
  0
DICTIONARYVAR
  5
9DB
102
{ACAD_REACTORS
330
41A
102
}
330
41A
100
DictionaryVariables
280
     0
  1
15
  0
DICTIONARYVAR
  5
9D9
102
{ACAD_REACTORS
330
41A
102
}
330
41A
100
DictionaryVariables
280
     0
  1
0
  0
DICTIONARYVAR
  5
429
102
{ACAD_REACTORS
330
41A
102
}
330
41A
100
DictionaryVariables
280
     0
  1
1
  0
DICTIONARYVAR
  5
A72
102
{ACAD_REACTORS
330
41A
102
}
330
41A
100
DictionaryVariables
280
     0
  1
127
  0
DICTIONARY
  5
121C
330
469
100
AcDbDictionary
280
     1
281
     1
  3
ACAD_XREC_ROUNDTRIP
360
121D
  0
DICTIONARY
  5
45C
330
45
100
AcDbDictionary
280
     1
281
     1
  3
ACAD_XREC_ROUNDTRIP
360
45D
  0
DICTIONARY
  5
45A
330
44
100
AcDbDictionary
280
     1
281
     1
  3
ACAD_XREC_ROUNDTRIP
360
45B
  0
DICTIONARY
  5
45E
330
46
100
AcDbDictionary
280
     1
281
     1
  3
ACAD_XREC_ROUNDTRIP
360
45F
  0
DICTIONARY
  5
121A
330
467
100
AcDbDictionary
280
     1
281
     1
  3
ACAD_XREC_ROUNDTRIP
360
121B
  0
DICTIONARY
  5
9DC
330
5A
100
AcDbDictionary
280
     1
281
     1
  3
ACAD_ROUNDTRIP_2008_TABLESTYLE_CELLSTYLEMAP
360
11E8
  0
DICTIONARY
  5
11F2
330
2F
100
AcDbDictionary
280
     1
281
     1
  3
ACAD_XREC_ROUNDTRIP
360
11F3
  0
DICTIONARY
  5
11F8
330
32
100
AcDbDictionary
280
     1
281
     1
  3
ACAD_XREC_ROUNDTRIP
360
11F9
  0
DICTIONARY
  5
1200
330
36
100
AcDbDictionary
280
     1
281
     1
  3
ACAD_XREC_ROUNDTRIP
360
1201
  0
DICTIONARY
  5
1208
330
3A
100
AcDbDictionary
280
     1
281
     1
  3
ACAD_XREC_ROUNDTRIP
360
1209
  0
DICTIONARY
  5
11FC
330
34
100
AcDbDictionary
280
     1
281
     1
  3
ACAD_XREC_ROUNDTRIP
360
11FD
  0
DICTIONARY
  5
11FE
330
35
100
AcDbDictionary
280
     1
281
     1
  3
ACAD_XREC_ROUNDTRIP
360
11FF
  0
DICTIONARY
  5
120E
330
3D
100
AcDbDictionary
280
     1
281
     1
  3
ACAD_XREC_ROUNDTRIP
360
120F
  0
DICTIONARY
  5
1206
330
39
100
AcDbDictionary
280
     1
281
     1
  3
ACAD_XREC_ROUNDTRIP
360
1207
  0
DICTIONARY
  5
11EA
330
2B
100
AcDbDictionary
280
     1
281
     1
  3
ACAD_XREC_ROUNDTRIP
360
11EB
  0
DICTIONARY
  5
11EC
330
2C
100
AcDbDictionary
280
     1
281
     1
  3
ACAD_XREC_ROUNDTRIP
360
11ED
  0
DICTIONARY
  5
11EE
330
2D
100
AcDbDictionary
280
     1
281
     1
  3
ACAD_XREC_ROUNDTRIP
360
11EF
  0
DICTIONARY
  5
11F0
330
2E
100
AcDbDictionary
280
     1
281
     1
  3
ACAD_XREC_ROUNDTRIP
360
11F1
  0
DICTIONARY
  5
11F6
330
31
100
AcDbDictionary
280
     1
281
     1
  3
ACAD_XREC_ROUNDTRIP
360
11F7
  0
DICTIONARY
  5
120A
330
3B
100
AcDbDictionary
280
     1
281
     1
  3
ACAD_XREC_ROUNDTRIP
360
120B
  0
DICTIONARY
  5
1204
330
38
100
AcDbDictionary
280
     1
281
     1
  3
ACAD_XREC_ROUNDTRIP
360
1205
  0
DICTIONARY
  5
120C
330
3C
100
AcDbDictionary
280
     1
281
     1
  3
ACAD_XREC_ROUNDTRIP
360
120D
  0
DICTIONARY
  5
11FA
330
33
100
AcDbDictionary
280
     1
281
     1
  3
ACAD_XREC_ROUNDTRIP
360
11FB
  0
DICTIONARY
  5
1218
330
42
100
AcDbDictionary
280
     1
281
     1
  3
ACAD_XREC_ROUNDTRIP
360
1219
  0
DICTIONARY
  5
1216
330
41
100
AcDbDictionary
280
     1
281
     1
  3
ACAD_XREC_ROUNDTRIP
360
1217
  0
DICTIONARY
  5
1210
330
3E
100
AcDbDictionary
280
     1
281
     1
  3
ACAD_XREC_ROUNDTRIP
360
1211
  0
DICTIONARY
  5
1212
330
3F
100
AcDbDictionary
280
     1
281
     1
  3
ACAD_XREC_ROUNDTRIP
360
1213
  0
DICTIONARY
  5
1202
330
37
100
AcDbDictionary
280
     1
281
     1
  3
ACAD_XREC_ROUNDTRIP
360
1203
  0
DICTIONARY
  5
11F4
330
30
100
AcDbDictionary
280
     1
281
     1
  3
ACAD_XREC_ROUNDTRIP
360
11F5
  0
DICTIONARY
  5
1214
330
40
100
AcDbDictionary
280
     1
281
     1
  3
ACAD_XREC_ROUNDTRIP
360
1215
  0
XRECORD
  5
121D
102
{ACAD_REACTORS
330
121C
102
}
330
121C
100
AcDbXrecord
280
     1
102
DISPLAYNAME
  1
Metric50
102
FLAGS
 90
        0
  0
XRECORD
  5
45D
102
{ACAD_REACTORS
330
45C
102
}
330
45C
100
AcDbXrecord
280
     1
102
MATERIAL
148
0.0
149
0.0
149
0.0
 93
        0
 94
      127
282
     0
 72
     1
 77
     1
171
     1
175
     1
179
     1
273
     0
  0
XRECORD
  5
45B
102
{ACAD_REACTORS
330
45A
102
}
330
45A
100
AcDbXrecord
280
     1
102
MATERIAL
148
0.0
149
0.0
149
0.0
 93
        0
 94
      127
282
     0
 72
     1
 77
     1
171
     1
175
     1
179
     1
273
     0
  0
XRECORD
  5
45F
102
{ACAD_REACTORS
330
45E
102
}
330
45E
100
AcDbXrecord
280
     1
102
MATERIAL
148
0.0
149
0.0
149
0.0
 93
        0
 94
      127
282
     0
 72
     1
 77
     1
171
     1
175
     1
179
     1
273
     0
  0
XRECORD
  5
121B
102
{ACAD_REACTORS
330
121A
102
}
330
121A
100
AcDbXrecord
280
     1
102
DISPLAYNAME
  1
Metric50
102
FLAGS
 90
        0
  0
CELLSTYLEMAP
  5
11E8
102
{ACAD_REACTORS
330
9DC
102
}
330
9DC
100
AcDbCellStyleMap
 90
        3
300
CELLSTYLE
  1
TABLEFORMAT_BEGIN
 90
        5
170
     1
 91
        0
 92
    32768
 62
   257
 93
        1
300
CONTENTFORMAT
  1
CONTENTFORMAT_BEGIN
 90
        0
 91
        0
 92
        4
 93
        0
300

 40
0.0
140
1.0
 94
        5
 62
     0
340
11
144
6.0
309
CONTENTFORMAT_END
171
     1
301
MARGIN
  1
CELLMARGIN_BEGIN
 40
1.5
 40
1.5
 40
1.5
 40
1.5
 40
0.18
 40
0.18
309
CELLMARGIN_END
 94
        6
 95
        1
302
GRIDFORMAT
  1
GRIDFORMAT_BEGIN
 90
        0
 91
        1
 62
     0
 92
       -2
340
0
 93
        0
 40
0.045
309
GRIDFORMAT_END
 95
        2
302
GRIDFORMAT
  1
GRIDFORMAT_BEGIN
 90
        0
 91
        1
 62
     0
 92
       -2
340
0
 93
        0
 40
0.045
309
GRIDFORMAT_END
 95
        4
302
GRIDFORMAT
  1
GRIDFORMAT_BEGIN
 90
        0
 91
        1
 62
     0
 92
       -2
340
0
 93
        0
 40
0.045
309
GRIDFORMAT_END
 95
        8
302
GRIDFORMAT
  1
GRIDFORMAT_BEGIN
 90
        0
 91
        1
 62
     0
 92
       -2
340
0
 93
        0
 40
0.045
309
GRIDFORMAT_END
 95
       16
302
GRIDFORMAT
  1
GRIDFORMAT_BEGIN
 90
        0
 91
        1
 62
     0
 92
       -2
340
0
 93
        0
 40
0.045
309
GRIDFORMAT_END
 95
       32
302
GRIDFORMAT
  1
GRIDFORMAT_BEGIN
 90
        0
 91
        1
 62
     0
 92
       -2
340
0
 93
        0
 40
0.045
309
GRIDFORMAT_END
309
TABLEFORMAT_END
  1
CELLSTYLE_BEGIN
 90
        1
 91
        1
300
_TITLE
309
CELLSTYLE_END
300
CELLSTYLE
  1
TABLEFORMAT_BEGIN
 90
        5
170
     1
 91
        0
 92
        0
 62
   257
 93
        1
300
CONTENTFORMAT
  1
CONTENTFORMAT_BEGIN
 90
        0
 91
        0
 92
        4
 93
        0
300

 40
0.0
140
1.0
 94
        5
 62
     0
340
11
144
4.5
309
CONTENTFORMAT_END
171
     1
301
MARGIN
  1
CELLMARGIN_BEGIN
 40
1.5
 40
1.5
 40
1.5
 40
1.5
 40
0.18
 40
0.18
309
CELLMARGIN_END
 94
        6
 95
        1
302
GRIDFORMAT
  1
GRIDFORMAT_BEGIN
 90
        0
 91
        1
 62
     0
 92
       -2
340
0
 93
        0
 40
0.045
309
GRIDFORMAT_END
 95
        2
302
GRIDFORMAT
  1
GRIDFORMAT_BEGIN
 90
        0
 91
        1
 62
     0
 92
       -2
340
0
 93
        0
 40
0.045
309
GRIDFORMAT_END
 95
        4
302
GRIDFORMAT
  1
GRIDFORMAT_BEGIN
 90
        0
 91
        1
 62
     0
 92
       -2
340
0
 93
        0
 40
0.045
309
GRIDFORMAT_END
 95
        8
302
GRIDFORMAT
  1
GRIDFORMAT_BEGIN
 90
        0
 91
        1
 62
     0
 92
       -2
340
0
 93
        0
 40
0.045
309
GRIDFORMAT_END
 95
       16
302
GRIDFORMAT
  1
GRIDFORMAT_BEGIN
 90
        0
 91
        1
 62
     0
 92
       -2
340
0
 93
        0
 40
0.045
309
GRIDFORMAT_END
 95
       32
302
GRIDFORMAT
  1
GRIDFORMAT_BEGIN
 90
        0
 91
        1
 62
     0
 92
       -2
340
0
 93
        0
 40
0.045
309
GRIDFORMAT_END
309
TABLEFORMAT_END
  1
CELLSTYLE_BEGIN
 90
        2
 91
        1
300
_HEADER
309
CELLSTYLE_END
300
CELLSTYLE
  1
TABLEFORMAT_BEGIN
 90
        5
170
     1
 91
        0
 92
        0
 62
   257
 93
        1
300
CONTENTFORMAT
  1
CONTENTFORMAT_BEGIN
 90
        0
 91
        0
 92
        4
 93
        0
300

 40
0.0
140
1.0
 94
        2
 62
     0
340
11
144
4.5
309
CONTENTFORMAT_END
171
     1
301
MARGIN
  1
CELLMARGIN_BEGIN
 40
1.5
 40
1.5
 40
1.5
 40
1.5
 40
0.18
 40
0.18
309
CELLMARGIN_END
 94
        6
 95
        1
302
GRIDFORMAT
  1
GRIDFORMAT_BEGIN
 90
        0
 91
        1
 62
     0
 92
       -2
340
0
 93
        0
 40
0.045
309
GRIDFORMAT_END
 95
        2
302
GRIDFORMAT
  1
GRIDFORMAT_BEGIN
 90
        0
 91
        1
 62
     0
 92
       -2
340
0
 93
        0
 40
0.045
309
GRIDFORMAT_END
 95
        4
302
GRIDFORMAT
  1
GRIDFORMAT_BEGIN
 90
        0
 91
        1
 62
     0
 92
       -2
340
0
 93
        0
 40
0.045
309
GRIDFORMAT_END
 95
        8
302
GRIDFORMAT
  1
GRIDFORMAT_BEGIN
 90
        0
 91
        1
 62
     0
 92
       -2
340
0
 93
        0
 40
0.045
309
GRIDFORMAT_END
 95
       16
302
GRIDFORMAT
  1
GRIDFORMAT_BEGIN
 90
        0
 91
        1
 62
     0
 92
       -2
340
0
 93
        0
 40
0.045
309
GRIDFORMAT_END
 95
       32
302
GRIDFORMAT
  1
GRIDFORMAT_BEGIN
 90
        0
 91
        1
 62
     0
 92
       -2
340
0
 93
        0
 40
0.045
309
GRIDFORMAT_END
309
TABLEFORMAT_END
  1
CELLSTYLE_BEGIN
 90
        3
 91
        2
300
_DATA
309
CELLSTYLE_END
  0
XRECORD
  5
11F3
102
{ACAD_REACTORS
330
11F2
102
}
330
11F2
100
AcDbXrecord
280
     1
102
RTVSPost2010Prop28
280
     1
102
RTVSPost2010PropOp28
 70
     1
102
RTVSPost2010Prop29
280
     1
102
RTVSPost2010PropOp29
 70
     1
102
RTVSPost2010Prop30
280
     0
102
RTVSPost2010PropOp30
 70
     1
102
RTVSPost2010Prop31
280
     0
102
RTVSPost2010PropOp31
 70
     1
102
RTVSPost2010Prop32
280
     0
102
RTVSPost2010PropOp32
 70
     1
102
RTVSPost2010Prop33
280
     0
102
RTVSPost2010PropOp33
 70
     1
102
RTVSPost2010Prop34
280
     0
102
RTVSPost2010PropOp34
 70
     1
102
RTVSPost2010Prop35
280
     0
102
RTVSPost2010PropOp35
 70
     1
102
RTVSPost2010Prop36
280
     0
102
RTVSPost2010PropOp36
 70
     1
102
RTVSPost2010Prop37
 90
       50
102
RTVSPost2010PropOp37
 70
     1
102
RTVSPost2010Prop38
140
0.0
102
RTVSPost2010PropOp38
 70
     1
102
RTVSPost2010Prop39
140
1.0
102
RTVSPost2010PropOp39
 70
     1
102
RTVSPost2010Prop40
 90
        0
102
RTVSPost2010PropOp40
 70
     1
102
RTVSPost2010Prop41ColorIndex
 90
       18
102
RTVSPost2010Prop41ColorRGB
 90
        0
102
RTVSPost2010PropOp41
 70
     1
102
RTVSPost2010Prop42
 90
       50
102
RTVSPost2010PropOp42
 70
     1
102
RTVSPost2010Prop43
 90
        3
102
RTVSPost2010PropOp43
 70
     1
102
RTVSPost2010Prop44ColorIndex
 90
        5
102
RTVSPost2010Prop44ColorRGB
 90
      255
102
RTVSPost2010PropOp44
 70
     1
102
RTVSPost2010Prop45
280
     0
102
RTVSPost2010PropOp45
 70
     1
102
RTVSPost2010Prop46
 90
       50
102
RTVSPost2010PropOp46
 70
     1
102
RTVSPost2010Prop47
 90
       50
102
RTVSPost2010PropOp47
 70
     1
102
RTVSPost2010Prop48
 90
       50
102
RTVSPost2010PropOp48
 70
     1
102
RTVSPost2010Prop49
280
     0
102
RTVSPost2010PropOp49
 70
     1
102
RTVSPost2010Prop50
 90
       50
102
RTVSPost2010PropOp50
 70
     1
102
RTVSPost2010Prop51ColorIndex
 90
      256
102
RTVSPost2010Prop51ColorRGB
 90
-16777216
102
RTVSPost2010PropOp51
 70
     0
102
RTVSPost2010Prop52
140
1.0
102
RTVSPost2010PropOp52
 70
     0
102
RTVSPost2010Prop53
 90
        2
102
RTVSPost2010PropOp53
 70
     1
102
RTVSPost2010Prop54
  1
strokes_ogs.tif
102
RTVSPost2010PropOp54
 70
     1
102
RTVSPost2010Prop55
280
     0
102
RTVSPost2010PropOp55
 70
     1
102
RTVSPost2010Prop56
140
1.0
102
RTVSPost2010PropOp56
 70
     1
102
RTVSPost2010Prop57
140
1.0
102
RTVSPost2010PropOp57
 70
     1
  0
XRECORD
  5
11F9
102
{ACAD_REACTORS
330
11F8
102
}
330
11F8
100
AcDbXrecord
280
     1
102
RTVSPost2010Prop28
280
     0
102
RTVSPost2010PropOp28
 70
     1
102
RTVSPost2010Prop29
280
     1
102
RTVSPost2010PropOp29
 70
     1
102
RTVSPost2010Prop30
280
     1
102
RTVSPost2010PropOp30
 70
     1
102
RTVSPost2010Prop31
280
     0
102
RTVSPost2010PropOp31
 70
     1
102
RTVSPost2010Prop32
280
     0
102
RTVSPost2010PropOp32
 70
     1
102
RTVSPost2010Prop33
280
     0
102
RTVSPost2010PropOp33
 70
     1
102
RTVSPost2010Prop34
280
     0
102
RTVSPost2010PropOp34
 70
     1
102
RTVSPost2010Prop35
280
     0
102
RTVSPost2010PropOp35
 70
     1
102
RTVSPost2010Prop36
280
     0
102
RTVSPost2010PropOp36
 70
     1
102
RTVSPost2010Prop37
 90
       50
102
RTVSPost2010PropOp37
 70
     1
102
RTVSPost2010Prop38
140
0.0
102
RTVSPost2010PropOp38
 70
     1
102
RTVSPost2010Prop39
140
1.0
102
RTVSPost2010PropOp39
 70
     1
102
RTVSPost2010Prop40
 90
        0
102
RTVSPost2010PropOp40
 70
     1
102
RTVSPost2010Prop41ColorIndex
 90
       18
102
RTVSPost2010Prop41ColorRGB
 90
        0
102
RTVSPost2010PropOp41
 70
     1
102
RTVSPost2010Prop42
 90
       50
102
RTVSPost2010PropOp42
 70
     1
102
RTVSPost2010Prop43
 90
        3
102
RTVSPost2010PropOp43
 70
     1
102
RTVSPost2010Prop44ColorIndex
 90
        5
102
RTVSPost2010Prop44ColorRGB
 90
      255
102
RTVSPost2010PropOp44
 70
     1
102
RTVSPost2010Prop45
280
     0
102
RTVSPost2010PropOp45
 70
     1
102
RTVSPost2010Prop46
 90
       50
102
RTVSPost2010PropOp46
 70
     1
102
RTVSPost2010Prop47
 90
       50
102
RTVSPost2010PropOp47
 70
     1
102
RTVSPost2010Prop48
 90
       50
102
RTVSPost2010PropOp48
 70
     1
102
RTVSPost2010Prop49
280
     0
102
RTVSPost2010PropOp49
 70
     1
102
RTVSPost2010Prop50
 90
       50
102
RTVSPost2010PropOp50
 70
     1
102
RTVSPost2010Prop51ColorIndex
 90
      256
102
RTVSPost2010Prop51ColorRGB
 90
-16777216
102
RTVSPost2010PropOp51
 70
     0
102
RTVSPost2010Prop52
140
1.0
102
RTVSPost2010PropOp52
 70
     0
102
RTVSPost2010Prop53
 90
        2
102
RTVSPost2010PropOp53
 70
     1
102
RTVSPost2010Prop54
  1
strokes_ogs.tif
102
RTVSPost2010PropOp54
 70
     1
102
RTVSPost2010Prop55
280
     0
102
RTVSPost2010PropOp55
 70
     1
102
RTVSPost2010Prop56
140
1.0
102
RTVSPost2010PropOp56
 70
     1
102
RTVSPost2010Prop57
140
1.0
102
RTVSPost2010PropOp57
 70
     1
  0
XRECORD
  5
1201
102
{ACAD_REACTORS
330
1200
102
}
330
1200
100
AcDbXrecord
280
     1
102
RTVSPost2010Prop28
280
     0
102
RTVSPost2010PropOp28
 70
     1
102
RTVSPost2010Prop29
280
     1
102
RTVSPost2010PropOp29
 70
     1
102
RTVSPost2010Prop30
280
     1
102
RTVSPost2010PropOp30
 70
     1
102
RTVSPost2010Prop31
280
     0
102
RTVSPost2010PropOp31
 70
     1
102
RTVSPost2010Prop32
280
     0
102
RTVSPost2010PropOp32
 70
     1
102
RTVSPost2010Prop33
280
     0
102
RTVSPost2010PropOp33
 70
     1
102
RTVSPost2010Prop34
280
     0
102
RTVSPost2010PropOp34
 70
     1
102
RTVSPost2010Prop35
280
     0
102
RTVSPost2010PropOp35
 70
     1
102
RTVSPost2010Prop36
280
     0
102
RTVSPost2010PropOp36
 70
     1
102
RTVSPost2010Prop37
 90
       50
102
RTVSPost2010PropOp37
 70
     1
102
RTVSPost2010Prop38
140
0.0
102
RTVSPost2010PropOp38
 70
     1
102
RTVSPost2010Prop39
140
1.0
102
RTVSPost2010PropOp39
 70
     1
102
RTVSPost2010Prop40
 90
        0
102
RTVSPost2010PropOp40
 70
     1
102
RTVSPost2010Prop41ColorIndex
 90
       18
102
RTVSPost2010Prop41ColorRGB
 90
        0
102
RTVSPost2010PropOp41
 70
     1
102
RTVSPost2010Prop42
 90
       50
102
RTVSPost2010PropOp42
 70
     1
102
RTVSPost2010Prop43
 90
        3
102
RTVSPost2010PropOp43
 70
     1
102
RTVSPost2010Prop44ColorIndex
 90
        5
102
RTVSPost2010Prop44ColorRGB
 90
      255
102
RTVSPost2010PropOp44
 70
     1
102
RTVSPost2010Prop45
280
     0
102
RTVSPost2010PropOp45
 70
     1
102
RTVSPost2010Prop46
 90
       50
102
RTVSPost2010PropOp46
 70
     1
102
RTVSPost2010Prop47
 90
       50
102
RTVSPost2010PropOp47
 70
     1
102
RTVSPost2010Prop48
 90
       50
102
RTVSPost2010PropOp48
 70
     1
102
RTVSPost2010Prop49
280
     0
102
RTVSPost2010PropOp49
 70
     1
102
RTVSPost2010Prop50
 90
       50
102
RTVSPost2010PropOp50
 70
     1
102
RTVSPost2010Prop51ColorIndex
 90
      256
102
RTVSPost2010Prop51ColorRGB
 90
-16777216
102
RTVSPost2010PropOp51
 70
     0
102
RTVSPost2010Prop52
140
1.0
102
RTVSPost2010PropOp52
 70
     0
102
RTVSPost2010Prop53
 90
        2
102
RTVSPost2010PropOp53
 70
     1
102
RTVSPost2010Prop54
  1
strokes_ogs.tif
102
RTVSPost2010PropOp54
 70
     1
102
RTVSPost2010Prop55
280
     0
102
RTVSPost2010PropOp55
 70
     1
102
RTVSPost2010Prop56
140
1.0
102
RTVSPost2010PropOp56
 70
     1
102
RTVSPost2010Prop57
140
1.0
102
RTVSPost2010PropOp57
 70
     1
  0
XRECORD
  5
1209
102
{ACAD_REACTORS
330
1208
102
}
330
1208
100
AcDbXrecord
280
     1
102
RTVSPost2010Prop28
280
     0
102
RTVSPost2010PropOp28
 70
     1
102
RTVSPost2010Prop29
280
     1
102
RTVSPost2010PropOp29
 70
     1
102
RTVSPost2010Prop30
280
     1
102
RTVSPost2010PropOp30
 70
     1
102
RTVSPost2010Prop31
280
     0
102
RTVSPost2010PropOp31
 70
     1
102
RTVSPost2010Prop32
280
     0
102
RTVSPost2010PropOp32
 70
     1
102
RTVSPost2010Prop33
280
     0
102
RTVSPost2010PropOp33
 70
     1
102
RTVSPost2010Prop34
280
     0
102
RTVSPost2010PropOp34
 70
     1
102
RTVSPost2010Prop35
280
     0
102
RTVSPost2010PropOp35
 70
     1
102
RTVSPost2010Prop36
280
     0
102
RTVSPost2010PropOp36
 70
     1
102
RTVSPost2010Prop37
 90
       50
102
RTVSPost2010PropOp37
 70
     1
102
RTVSPost2010Prop38
140
0.0
102
RTVSPost2010PropOp38
 70
     1
102
RTVSPost2010Prop39
140
1.0
102
RTVSPost2010PropOp39
 70
     1
102
RTVSPost2010Prop40
 90
        0
102
RTVSPost2010PropOp40
 70
     1
102
RTVSPost2010Prop41ColorIndex
 90
       18
102
RTVSPost2010Prop41ColorRGB
 90
        0
102
RTVSPost2010PropOp41
 70
     1
102
RTVSPost2010Prop42
 90
       50
102
RTVSPost2010PropOp42
 70
     1
102
RTVSPost2010Prop43
 90
        3
102
RTVSPost2010PropOp43
 70
     1
102
RTVSPost2010Prop44ColorIndex
 90
        5
102
RTVSPost2010Prop44ColorRGB
 90
      255
102
RTVSPost2010PropOp44
 70
     1
102
RTVSPost2010Prop45
280
     0
102
RTVSPost2010PropOp45
 70
     1
102
RTVSPost2010Prop46
 90
       50
102
RTVSPost2010PropOp46
 70
     1
102
RTVSPost2010Prop47
 90
       50
102
RTVSPost2010PropOp47
 70
     1
102
RTVSPost2010Prop48
 90
       50
102
RTVSPost2010PropOp48
 70
     1
102
RTVSPost2010Prop49
280
     0
102
RTVSPost2010PropOp49
 70
     1
102
RTVSPost2010Prop50
 90
       50
102
RTVSPost2010PropOp50
 70
     1
102
RTVSPost2010Prop51ColorIndex
 90
      256
102
RTVSPost2010Prop51ColorRGB
 90
-16777216
102
RTVSPost2010PropOp51
 70
     0
102
RTVSPost2010Prop52
140
1.0
102
RTVSPost2010PropOp52
 70
     0
102
RTVSPost2010Prop53
 90
        2
102
RTVSPost2010PropOp53
 70
     1
102
RTVSPost2010Prop54
  1
strokes_ogs.tif
102
RTVSPost2010PropOp54
 70
     1
102
RTVSPost2010Prop55
280
     0
102
RTVSPost2010PropOp55
 70
     1
102
RTVSPost2010Prop56
140
1.0
102
RTVSPost2010PropOp56
 70
     1
102
RTVSPost2010Prop57
140
1.0
102
RTVSPost2010PropOp57
 70
     1
  0
XRECORD
  5
11FD
102
{ACAD_REACTORS
330
11FC
102
}
330
11FC
100
AcDbXrecord
280
     1
102
RTVSPost2010Prop28
280
     0
102
RTVSPost2010PropOp28
 70
     1
102
RTVSPost2010Prop29
280
     1
102
RTVSPost2010PropOp29
 70
     1
102
RTVSPost2010Prop30
280
     1
102
RTVSPost2010PropOp30
 70
     1
102
RTVSPost2010Prop31
280
     0
102
RTVSPost2010PropOp31
 70
     1
102
RTVSPost2010Prop32
280
     0
102
RTVSPost2010PropOp32
 70
     1
102
RTVSPost2010Prop33
280
     0
102
RTVSPost2010PropOp33
 70
     1
102
RTVSPost2010Prop34
280
     0
102
RTVSPost2010PropOp34
 70
     1
102
RTVSPost2010Prop35
280
     0
102
RTVSPost2010PropOp35
 70
     1
102
RTVSPost2010Prop36
280
     0
102
RTVSPost2010PropOp36
 70
     1
102
RTVSPost2010Prop37
 90
       50
102
RTVSPost2010PropOp37
 70
     1
102
RTVSPost2010Prop38
140
0.0
102
RTVSPost2010PropOp38
 70
     1
102
RTVSPost2010Prop39
140
1.0
102
RTVSPost2010PropOp39
 70
     1
102
RTVSPost2010Prop40
 90
        0
102
RTVSPost2010PropOp40
 70
     1
102
RTVSPost2010Prop41ColorIndex
 90
       18
102
RTVSPost2010Prop41ColorRGB
 90
        0
102
RTVSPost2010PropOp41
 70
     1
102
RTVSPost2010Prop42
 90
       50
102
RTVSPost2010PropOp42
 70
     1
102
RTVSPost2010Prop43
 90
        3
102
RTVSPost2010PropOp43
 70
     1
102
RTVSPost2010Prop44ColorIndex
 90
        5
102
RTVSPost2010Prop44ColorRGB
 90
      255
102
RTVSPost2010PropOp44
 70
     1
102
RTVSPost2010Prop45
280
     0
102
RTVSPost2010PropOp45
 70
     1
102
RTVSPost2010Prop46
 90
       50
102
RTVSPost2010PropOp46
 70
     1
102
RTVSPost2010Prop47
 90
       50
102
RTVSPost2010PropOp47
 70
     1
102
RTVSPost2010Prop48
 90
       50
102
RTVSPost2010PropOp48
 70
     1
102
RTVSPost2010Prop49
280
     0
102
RTVSPost2010PropOp49
 70
     1
102
RTVSPost2010Prop50
 90
       50
102
RTVSPost2010PropOp50
 70
     1
102
RTVSPost2010Prop51ColorIndex
 90
      256
102
RTVSPost2010Prop51ColorRGB
 90
-16777216
102
RTVSPost2010PropOp51
 70
     0
102
RTVSPost2010Prop52
140
1.0
102
RTVSPost2010PropOp52
 70
     0
102
RTVSPost2010Prop53
 90
        2
102
RTVSPost2010PropOp53
 70
     1
102
RTVSPost2010Prop54
  1
strokes_ogs.tif
102
RTVSPost2010PropOp54
 70
     1
102
RTVSPost2010Prop55
280
     0
102
RTVSPost2010PropOp55
 70
     1
102
RTVSPost2010Prop56
140
1.0
102
RTVSPost2010PropOp56
 70
     1
102
RTVSPost2010Prop57
140
1.0
102
RTVSPost2010PropOp57
 70
     1
  0
XRECORD
  5
11FF
102
{ACAD_REACTORS
330
11FE
102
}
330
11FE
100
AcDbXrecord
280
     1
102
RTVSPost2010Prop28
280
     0
102
RTVSPost2010PropOp28
 70
     1
102
RTVSPost2010Prop29
280
     1
102
RTVSPost2010PropOp29
 70
     1
102
RTVSPost2010Prop30
280
     1
102
RTVSPost2010PropOp30
 70
     1
102
RTVSPost2010Prop31
280
     0
102
RTVSPost2010PropOp31
 70
     1
102
RTVSPost2010Prop32
280
     0
102
RTVSPost2010PropOp32
 70
     1
102
RTVSPost2010Prop33
280
     0
102
RTVSPost2010PropOp33
 70
     1
102
RTVSPost2010Prop34
280
     0
102
RTVSPost2010PropOp34
 70
     1
102
RTVSPost2010Prop35
280
     0
102
RTVSPost2010PropOp35
 70
     1
102
RTVSPost2010Prop36
280
     0
102
RTVSPost2010PropOp36
 70
     1
102
RTVSPost2010Prop37
 90
       50
102
RTVSPost2010PropOp37
 70
     1
102
RTVSPost2010Prop38
140
0.0
102
RTVSPost2010PropOp38
 70
     1
102
RTVSPost2010Prop39
140
1.0
102
RTVSPost2010PropOp39
 70
     1
102
RTVSPost2010Prop40
 90
        0
102
RTVSPost2010PropOp40
 70
     1
102
RTVSPost2010Prop41ColorIndex
 90
       18
102
RTVSPost2010Prop41ColorRGB
 90
        0
102
RTVSPost2010PropOp41
 70
     1
102
RTVSPost2010Prop42
 90
       50
102
RTVSPost2010PropOp42
 70
     1
102
RTVSPost2010Prop43
 90
        3
102
RTVSPost2010PropOp43
 70
     1
102
RTVSPost2010Prop44ColorIndex
 90
        5
102
RTVSPost2010Prop44ColorRGB
 90
      255
102
RTVSPost2010PropOp44
 70
     1
102
RTVSPost2010Prop45
280
     0
102
RTVSPost2010PropOp45
 70
     1
102
RTVSPost2010Prop46
 90
       50
102
RTVSPost2010PropOp46
 70
     1
102
RTVSPost2010Prop47
 90
       50
102
RTVSPost2010PropOp47
 70
     1
102
RTVSPost2010Prop48
 90
       50
102
RTVSPost2010PropOp48
 70
     1
102
RTVSPost2010Prop49
280
     0
102
RTVSPost2010PropOp49
 70
     1
102
RTVSPost2010Prop50
 90
       50
102
RTVSPost2010PropOp50
 70
     1
102
RTVSPost2010Prop51ColorIndex
 90
      256
102
RTVSPost2010Prop51ColorRGB
 90
-16777216
102
RTVSPost2010PropOp51
 70
     0
102
RTVSPost2010Prop52
140
1.0
102
RTVSPost2010PropOp52
 70
     0
102
RTVSPost2010Prop53
 90
        2
102
RTVSPost2010PropOp53
 70
     1
102
RTVSPost2010Prop54
  1
strokes_ogs.tif
102
RTVSPost2010PropOp54
 70
     1
102
RTVSPost2010Prop55
280
     0
102
RTVSPost2010PropOp55
 70
     1
102
RTVSPost2010Prop56
140
1.0
102
RTVSPost2010PropOp56
 70
     1
102
RTVSPost2010Prop57
140
1.0
102
RTVSPost2010PropOp57
 70
     1
  0
XRECORD
  5
120F
102
{ACAD_REACTORS
330
120E
102
}
330
120E
100
AcDbXrecord
280
     1
102
RTVSPost2010Prop28
280
     0
102
RTVSPost2010PropOp28
 70
     0
102
RTVSPost2010Prop29
280
     1
102
RTVSPost2010PropOp29
 70
     0
102
RTVSPost2010Prop30
280
     1
102
RTVSPost2010PropOp30
 70
     0
102
RTVSPost2010Prop31
280
     0
102
RTVSPost2010PropOp31
 70
     0
102
RTVSPost2010Prop32
280
     0
102
RTVSPost2010PropOp32
 70
     0
102
RTVSPost2010Prop33
280
     0
102
RTVSPost2010PropOp33
 70
     0
102
RTVSPost2010Prop34
280
     0
102
RTVSPost2010PropOp34
 70
     0
102
RTVSPost2010Prop35
280
     0
102
RTVSPost2010PropOp35
 70
     0
102
RTVSPost2010Prop36
280
     0
102
RTVSPost2010PropOp36
 70
     0
102
RTVSPost2010Prop37
 90
       50
102
RTVSPost2010PropOp37
 70
     0
102
RTVSPost2010Prop38
140
0.0
102
RTVSPost2010PropOp38
 70
     0
102
RTVSPost2010Prop39
140
1.0
102
RTVSPost2010PropOp39
 70
     0
102
RTVSPost2010Prop40
 90
        0
102
RTVSPost2010PropOp40
 70
     0
102
RTVSPost2010Prop41ColorIndex
 90
       18
102
RTVSPost2010Prop41ColorRGB
 90
        0
102
RTVSPost2010PropOp41
 70
     0
102
RTVSPost2010Prop42
 90
       50
102
RTVSPost2010PropOp42
 70
     0
102
RTVSPost2010Prop43
 90
        3
102
RTVSPost2010PropOp43
 70
     0
102
RTVSPost2010Prop44ColorIndex
 90
        5
102
RTVSPost2010Prop44ColorRGB
 90
      255
102
RTVSPost2010PropOp44
 70
     0
102
RTVSPost2010Prop45
280
     0
102
RTVSPost2010PropOp45
 70
     0
102
RTVSPost2010Prop46
 90
       50
102
RTVSPost2010PropOp46
 70
     0
102
RTVSPost2010Prop47
 90
       50
102
RTVSPost2010PropOp47
 70
     0
102
RTVSPost2010Prop48
 90
       50
102
RTVSPost2010PropOp48
 70
     0
102
RTVSPost2010Prop49
280
     0
102
RTVSPost2010PropOp49
 70
     0
102
RTVSPost2010Prop50
 90
       50
102
RTVSPost2010PropOp50
 70
     0
102
RTVSPost2010Prop51ColorIndex
 90
      256
102
RTVSPost2010Prop51ColorRGB
 90
-16777216
102
RTVSPost2010PropOp51
 70
     0
102
RTVSPost2010Prop52
140
1.0
102
RTVSPost2010PropOp52
 70
     0
102
RTVSPost2010Prop53
 90
        2
102
RTVSPost2010PropOp53
 70
     0
102
RTVSPost2010Prop54
  1
strokes_ogs.tif
102
RTVSPost2010PropOp54
 70
     0
102
RTVSPost2010Prop55
280
     0
102
RTVSPost2010PropOp55
 70
     0
102
RTVSPost2010Prop56
140
1.0
102
RTVSPost2010PropOp56
 70
     0
102
RTVSPost2010Prop57
140
1.0
102
RTVSPost2010PropOp57
 70
     0
  0
XRECORD
  5
1207
102
{ACAD_REACTORS
330
1206
102
}
330
1206
100
AcDbXrecord
280
     1
102
RTVSPost2010Prop28
280
     0
102
RTVSPost2010PropOp28
 70
     1
102
RTVSPost2010Prop29
280
     1
102
RTVSPost2010PropOp29
 70
     1
102
RTVSPost2010Prop30
280
     1
102
RTVSPost2010PropOp30
 70
     1
102
RTVSPost2010Prop31
280
     0
102
RTVSPost2010PropOp31
 70
     1
102
RTVSPost2010Prop32
280
     0
102
RTVSPost2010PropOp32
 70
     1
102
RTVSPost2010Prop33
280
     0
102
RTVSPost2010PropOp33
 70
     1
102
RTVSPost2010Prop34
280
     0
102
RTVSPost2010PropOp34
 70
     1
102
RTVSPost2010Prop35
280
     0
102
RTVSPost2010PropOp35
 70
     1
102
RTVSPost2010Prop36
280
     0
102
RTVSPost2010PropOp36
 70
     1
102
RTVSPost2010Prop37
 90
       50
102
RTVSPost2010PropOp37
 70
     1
102
RTVSPost2010Prop38
140
0.0
102
RTVSPost2010PropOp38
 70
     1
102
RTVSPost2010Prop39
140
1.0
102
RTVSPost2010PropOp39
 70
     1
102
RTVSPost2010Prop40
 90
        0
102
RTVSPost2010PropOp40
 70
     1
102
RTVSPost2010Prop41ColorIndex
 90
       18
102
RTVSPost2010Prop41ColorRGB
 90
        0
102
RTVSPost2010PropOp41
 70
     1
102
RTVSPost2010Prop42
 90
       50
102
RTVSPost2010PropOp42
 70
     1
102
RTVSPost2010Prop43
 90
        3
102
RTVSPost2010PropOp43
 70
     1
102
RTVSPost2010Prop44ColorIndex
 90
        5
102
RTVSPost2010Prop44ColorRGB
 90
      255
102
RTVSPost2010PropOp44
 70
     1
102
RTVSPost2010Prop45
280
     0
102
RTVSPost2010PropOp45
 70
     1
102
RTVSPost2010Prop46
 90
       50
102
RTVSPost2010PropOp46
 70
     1
102
RTVSPost2010Prop47
 90
       50
102
RTVSPost2010PropOp47
 70
     1
102
RTVSPost2010Prop48
 90
       50
102
RTVSPost2010PropOp48
 70
     1
102
RTVSPost2010Prop49
280
     0
102
RTVSPost2010PropOp49
 70
     1
102
RTVSPost2010Prop50
 90
       50
102
RTVSPost2010PropOp50
 70
     1
102
RTVSPost2010Prop51ColorIndex
 90
      256
102
RTVSPost2010Prop51ColorRGB
 90
-16777216
102
RTVSPost2010PropOp51
 70
     0
102
RTVSPost2010Prop52
140
1.0
102
RTVSPost2010PropOp52
 70
     0
102
RTVSPost2010Prop53
 90
        2
102
RTVSPost2010PropOp53
 70
     1
102
RTVSPost2010Prop54
  1
strokes_ogs.tif
102
RTVSPost2010PropOp54
 70
     1
102
RTVSPost2010Prop55
280
     0
102
RTVSPost2010PropOp55
 70
     1
102
RTVSPost2010Prop56
140
1.0
102
RTVSPost2010PropOp56
 70
     1
102
RTVSPost2010Prop57
140
1.0
102
RTVSPost2010PropOp57
 70
     1
  0
XRECORD
  5
11EB
102
{ACAD_REACTORS
330
11EA
102
}
330
11EA
100
AcDbXrecord
280
     1
102
RTVSPost2010Prop28
280
     0
102
RTVSPost2010PropOp28
 70
     1
102
RTVSPost2010Prop29
280
     1
102
RTVSPost2010PropOp29
 70
     1
102
RTVSPost2010Prop30
280
     1
102
RTVSPost2010PropOp30
 70
     1
102
RTVSPost2010Prop31
280
     0
102
RTVSPost2010PropOp31
 70
     1
102
RTVSPost2010Prop32
280
     0
102
RTVSPost2010PropOp32
 70
     1
102
RTVSPost2010Prop33
280
     0
102
RTVSPost2010PropOp33
 70
     1
102
RTVSPost2010Prop34
280
     0
102
RTVSPost2010PropOp34
 70
     1
102
RTVSPost2010Prop35
280
     0
102
RTVSPost2010PropOp35
 70
     1
102
RTVSPost2010Prop36
280
     0
102
RTVSPost2010PropOp36
 70
     1
102
RTVSPost2010Prop37
 90
       50
102
RTVSPost2010PropOp37
 70
     1
102
RTVSPost2010Prop38
140
0.0
102
RTVSPost2010PropOp38
 70
     1
102
RTVSPost2010Prop39
140
1.0
102
RTVSPost2010PropOp39
 70
     1
102
RTVSPost2010Prop40
 90
        0
102
RTVSPost2010PropOp40
 70
     1
102
RTVSPost2010Prop41ColorIndex
 90
       18
102
RTVSPost2010Prop41ColorRGB
 90
        0
102
RTVSPost2010PropOp41
 70
     1
102
RTVSPost2010Prop42
 90
       50
102
RTVSPost2010PropOp42
 70
     1
102
RTVSPost2010Prop43
 90
        3
102
RTVSPost2010PropOp43
 70
     1
102
RTVSPost2010Prop44ColorIndex
 90
        5
102
RTVSPost2010Prop44ColorRGB
 90
      255
102
RTVSPost2010PropOp44
 70
     1
102
RTVSPost2010Prop45
280
     0
102
RTVSPost2010PropOp45
 70
     1
102
RTVSPost2010Prop46
 90
       50
102
RTVSPost2010PropOp46
 70
     1
102
RTVSPost2010Prop47
 90
       50
102
RTVSPost2010PropOp47
 70
     1
102
RTVSPost2010Prop48
 90
       50
102
RTVSPost2010PropOp48
 70
     1
102
RTVSPost2010Prop49
280
     0
102
RTVSPost2010PropOp49
 70
     1
102
RTVSPost2010Prop50
 90
       50
102
RTVSPost2010PropOp50
 70
     1
102
RTVSPost2010Prop51ColorIndex
 90
      256
102
RTVSPost2010Prop51ColorRGB
 90
-16777216
102
RTVSPost2010PropOp51
 70
     0
102
RTVSPost2010Prop52
140
1.0
102
RTVSPost2010PropOp52
 70
     0
102
RTVSPost2010Prop53
 90
        2
102
RTVSPost2010PropOp53
 70
     1
102
RTVSPost2010Prop54
  1
strokes_ogs.tif
102
RTVSPost2010PropOp54
 70
     1
102
RTVSPost2010Prop55
280
     0
102
RTVSPost2010PropOp55
 70
     1
102
RTVSPost2010Prop56
140
1.0
102
RTVSPost2010PropOp56
 70
     1
102
RTVSPost2010Prop57
140
1.0
102
RTVSPost2010PropOp57
 70
     1
  0
XRECORD
  5
11ED
102
{ACAD_REACTORS
330
11EC
102
}
330
11EC
100
AcDbXrecord
280
     1
102
RTVSPost2010Prop28
280
     0
102
RTVSPost2010PropOp28
 70
     1
102
RTVSPost2010Prop29
280
     1
102
RTVSPost2010PropOp29
 70
     1
102
RTVSPost2010Prop30
280
     1
102
RTVSPost2010PropOp30
 70
     1
102
RTVSPost2010Prop31
280
     0
102
RTVSPost2010PropOp31
 70
     1
102
RTVSPost2010Prop32
280
     0
102
RTVSPost2010PropOp32
 70
     1
102
RTVSPost2010Prop33
280
     0
102
RTVSPost2010PropOp33
 70
     1
102
RTVSPost2010Prop34
280
     0
102
RTVSPost2010PropOp34
 70
     1
102
RTVSPost2010Prop35
280
     0
102
RTVSPost2010PropOp35
 70
     1
102
RTVSPost2010Prop36
280
     0
102
RTVSPost2010PropOp36
 70
     1
102
RTVSPost2010Prop37
 90
       50
102
RTVSPost2010PropOp37
 70
     1
102
RTVSPost2010Prop38
140
0.0
102
RTVSPost2010PropOp38
 70
     1
102
RTVSPost2010Prop39
140
1.0
102
RTVSPost2010PropOp39
 70
     1
102
RTVSPost2010Prop40
 90
        0
102
RTVSPost2010PropOp40
 70
     1
102
RTVSPost2010Prop41ColorIndex
 90
       18
102
RTVSPost2010Prop41ColorRGB
 90
        0
102
RTVSPost2010PropOp41
 70
     1
102
RTVSPost2010Prop42
 90
       50
102
RTVSPost2010PropOp42
 70
     1
102
RTVSPost2010Prop43
 90
        3
102
RTVSPost2010PropOp43
 70
     1
102
RTVSPost2010Prop44ColorIndex
 90
        5
102
RTVSPost2010Prop44ColorRGB
 90
      255
102
RTVSPost2010PropOp44
 70
     1
102
RTVSPost2010Prop45
280
     0
102
RTVSPost2010PropOp45
 70
     1
102
RTVSPost2010Prop46
 90
       50
102
RTVSPost2010PropOp46
 70
     1
102
RTVSPost2010Prop47
 90
       50
102
RTVSPost2010PropOp47
 70
     1
102
RTVSPost2010Prop48
 90
       50
102
RTVSPost2010PropOp48
 70
     1
102
RTVSPost2010Prop49
280
     0
102
RTVSPost2010PropOp49
 70
     1
102
RTVSPost2010Prop50
 90
       50
102
RTVSPost2010PropOp50
 70
     1
102
RTVSPost2010Prop51ColorIndex
 90
      256
102
RTVSPost2010Prop51ColorRGB
 90
-16777216
102
RTVSPost2010PropOp51
 70
     0
102
RTVSPost2010Prop52
140
1.0
102
RTVSPost2010PropOp52
 70
     0
102
RTVSPost2010Prop53
 90
        2
102
RTVSPost2010PropOp53
 70
     1
102
RTVSPost2010Prop54
  1
strokes_ogs.tif
102
RTVSPost2010PropOp54
 70
     1
102
RTVSPost2010Prop55
280
     0
102
RTVSPost2010PropOp55
 70
     1
102
RTVSPost2010Prop56
140
1.0
102
RTVSPost2010PropOp56
 70
     1
102
RTVSPost2010Prop57
140
1.0
102
RTVSPost2010PropOp57
 70
     1
  0
XRECORD
  5
11EF
102
{ACAD_REACTORS
330
11EE
102
}
330
11EE
100
AcDbXrecord
280
     1
102
RTVSPost2010Prop28
280
     0
102
RTVSPost2010PropOp28
 70
     1
102
RTVSPost2010Prop29
280
     1
102
RTVSPost2010PropOp29
 70
     1
102
RTVSPost2010Prop30
280
     1
102
RTVSPost2010PropOp30
 70
     1
102
RTVSPost2010Prop31
280
     0
102
RTVSPost2010PropOp31
 70
     1
102
RTVSPost2010Prop32
280
     0
102
RTVSPost2010PropOp32
 70
     1
102
RTVSPost2010Prop33
280
     0
102
RTVSPost2010PropOp33
 70
     1
102
RTVSPost2010Prop34
280
     0
102
RTVSPost2010PropOp34
 70
     1
102
RTVSPost2010Prop35
280
     0
102
RTVSPost2010PropOp35
 70
     1
102
RTVSPost2010Prop36
280
     0
102
RTVSPost2010PropOp36
 70
     1
102
RTVSPost2010Prop37
 90
       50
102
RTVSPost2010PropOp37
 70
     1
102
RTVSPost2010Prop38
140
0.0
102
RTVSPost2010PropOp38
 70
     1
102
RTVSPost2010Prop39
140
1.0
102
RTVSPost2010PropOp39
 70
     1
102
RTVSPost2010Prop40
 90
        0
102
RTVSPost2010PropOp40
 70
     1
102
RTVSPost2010Prop41ColorIndex
 90
       18
102
RTVSPost2010Prop41ColorRGB
 90
        0
102
RTVSPost2010PropOp41
 70
     1
102
RTVSPost2010Prop42
 90
       50
102
RTVSPost2010PropOp42
 70
     1
102
RTVSPost2010Prop43
 90
        3
102
RTVSPost2010PropOp43
 70
     1
102
RTVSPost2010Prop44ColorIndex
 90
        5
102
RTVSPost2010Prop44ColorRGB
 90
      255
102
RTVSPost2010PropOp44
 70
     1
102
RTVSPost2010Prop45
280
     0
102
RTVSPost2010PropOp45
 70
     1
102
RTVSPost2010Prop46
 90
       50
102
RTVSPost2010PropOp46
 70
     1
102
RTVSPost2010Prop47
 90
       50
102
RTVSPost2010PropOp47
 70
     1
102
RTVSPost2010Prop48
 90
       50
102
RTVSPost2010PropOp48
 70
     1
102
RTVSPost2010Prop49
280
     0
102
RTVSPost2010PropOp49
 70
     1
102
RTVSPost2010Prop50
 90
       50
102
RTVSPost2010PropOp50
 70
     1
102
RTVSPost2010Prop51ColorIndex
 90
      256
102
RTVSPost2010Prop51ColorRGB
 90
-16777216
102
RTVSPost2010PropOp51
 70
     0
102
RTVSPost2010Prop52
140
1.0
102
RTVSPost2010PropOp52
 70
     0
102
RTVSPost2010Prop53
 90
        2
102
RTVSPost2010PropOp53
 70
     1
102
RTVSPost2010Prop54
  1
strokes_ogs.tif
102
RTVSPost2010PropOp54
 70
     1
102
RTVSPost2010Prop55
280
     0
102
RTVSPost2010PropOp55
 70
     1
102
RTVSPost2010Prop56
140
1.0
102
RTVSPost2010PropOp56
 70
     1
102
RTVSPost2010Prop57
140
1.0
102
RTVSPost2010PropOp57
 70
     1
  0
XRECORD
  5
11F1
102
{ACAD_REACTORS
330
11F0
102
}
330
11F0
100
AcDbXrecord
280
     1
102
RTVSPost2010Prop28
280
     0
102
RTVSPost2010PropOp28
 70
     1
102
RTVSPost2010Prop29
280
     1
102
RTVSPost2010PropOp29
 70
     1
102
RTVSPost2010Prop30
280
     1
102
RTVSPost2010PropOp30
 70
     1
102
RTVSPost2010Prop31
280
     0
102
RTVSPost2010PropOp31
 70
     1
102
RTVSPost2010Prop32
280
     0
102
RTVSPost2010PropOp32
 70
     1
102
RTVSPost2010Prop33
280
     0
102
RTVSPost2010PropOp33
 70
     1
102
RTVSPost2010Prop34
280
     0
102
RTVSPost2010PropOp34
 70
     1
102
RTVSPost2010Prop35
280
     0
102
RTVSPost2010PropOp35
 70
     1
102
RTVSPost2010Prop36
280
     0
102
RTVSPost2010PropOp36
 70
     1
102
RTVSPost2010Prop37
 90
       50
102
RTVSPost2010PropOp37
 70
     1
102
RTVSPost2010Prop38
140
0.0
102
RTVSPost2010PropOp38
 70
     1
102
RTVSPost2010Prop39
140
1.0
102
RTVSPost2010PropOp39
 70
     1
102
RTVSPost2010Prop40
 90
        0
102
RTVSPost2010PropOp40
 70
     1
102
RTVSPost2010Prop41ColorIndex
 90
       18
102
RTVSPost2010Prop41ColorRGB
 90
        0
102
RTVSPost2010PropOp41
 70
     1
102
RTVSPost2010Prop42
 90
       50
102
RTVSPost2010PropOp42
 70
     1
102
RTVSPost2010Prop43
 90
        3
102
RTVSPost2010PropOp43
 70
     1
102
RTVSPost2010Prop44ColorIndex
 90
        5
102
RTVSPost2010Prop44ColorRGB
 90
      255
102
RTVSPost2010PropOp44
 70
     1
102
RTVSPost2010Prop45
280
     0
102
RTVSPost2010PropOp45
 70
     1
102
RTVSPost2010Prop46
 90
       50
102
RTVSPost2010PropOp46
 70
     1
102
RTVSPost2010Prop47
 90
       50
102
RTVSPost2010PropOp47
 70
     1
102
RTVSPost2010Prop48
 90
       50
102
RTVSPost2010PropOp48
 70
     1
102
RTVSPost2010Prop49
280
     0
102
RTVSPost2010PropOp49
 70
     1
102
RTVSPost2010Prop50
 90
       50
102
RTVSPost2010PropOp50
 70
     1
102
RTVSPost2010Prop51ColorIndex
 90
      256
102
RTVSPost2010Prop51ColorRGB
 90
-16777216
102
RTVSPost2010PropOp51
 70
     0
102
RTVSPost2010Prop52
140
1.0
102
RTVSPost2010PropOp52
 70
     0
102
RTVSPost2010Prop53
 90
        2
102
RTVSPost2010PropOp53
 70
     1
102
RTVSPost2010Prop54
  1
strokes_ogs.tif
102
RTVSPost2010PropOp54
 70
     1
102
RTVSPost2010Prop55
280
     0
102
RTVSPost2010PropOp55
 70
     1
102
RTVSPost2010Prop56
140
1.0
102
RTVSPost2010PropOp56
 70
     1
102
RTVSPost2010Prop57
140
1.0
102
RTVSPost2010PropOp57
 70
     1
  0
XRECORD
  5
11F7
102
{ACAD_REACTORS
330
11F6
102
}
330
11F6
100
AcDbXrecord
280
     1
102
RTVSPost2010Prop28
280
     0
102
RTVSPost2010PropOp28
 70
     1
102
RTVSPost2010Prop29
280
     1
102
RTVSPost2010PropOp29
 70
     1
102
RTVSPost2010Prop30
280
     1
102
RTVSPost2010PropOp30
 70
     1
102
RTVSPost2010Prop31
280
     0
102
RTVSPost2010PropOp31
 70
     1
102
RTVSPost2010Prop32
280
     0
102
RTVSPost2010PropOp32
 70
     1
102
RTVSPost2010Prop33
280
     0
102
RTVSPost2010PropOp33
 70
     1
102
RTVSPost2010Prop34
280
     0
102
RTVSPost2010PropOp34
 70
     1
102
RTVSPost2010Prop35
280
     0
102
RTVSPost2010PropOp35
 70
     1
102
RTVSPost2010Prop36
280
     0
102
RTVSPost2010PropOp36
 70
     1
102
RTVSPost2010Prop37
 90
       50
102
RTVSPost2010PropOp37
 70
     1
102
RTVSPost2010Prop38
140
0.0
102
RTVSPost2010PropOp38
 70
     1
102
RTVSPost2010Prop39
140
1.0
102
RTVSPost2010PropOp39
 70
     1
102
RTVSPost2010Prop40
 90
        0
102
RTVSPost2010PropOp40
 70
     1
102
RTVSPost2010Prop41ColorIndex
 90
       18
102
RTVSPost2010Prop41ColorRGB
 90
        0
102
RTVSPost2010PropOp41
 70
     1
102
RTVSPost2010Prop42
 90
       50
102
RTVSPost2010PropOp42
 70
     1
102
RTVSPost2010Prop43
 90
        3
102
RTVSPost2010PropOp43
 70
     1
102
RTVSPost2010Prop44ColorIndex
 90
        5
102
RTVSPost2010Prop44ColorRGB
 90
      255
102
RTVSPost2010PropOp44
 70
     1
102
RTVSPost2010Prop45
280
     0
102
RTVSPost2010PropOp45
 70
     1
102
RTVSPost2010Prop46
 90
       50
102
RTVSPost2010PropOp46
 70
     1
102
RTVSPost2010Prop47
 90
       50
102
RTVSPost2010PropOp47
 70
     1
102
RTVSPost2010Prop48
 90
       50
102
RTVSPost2010PropOp48
 70
     1
102
RTVSPost2010Prop49
280
     0
102
RTVSPost2010PropOp49
 70
     1
102
RTVSPost2010Prop50
 90
       50
102
RTVSPost2010PropOp50
 70
     1
102
RTVSPost2010Prop51ColorIndex
 90
      256
102
RTVSPost2010Prop51ColorRGB
 90
-16777216
102
RTVSPost2010PropOp51
 70
     0
102
RTVSPost2010Prop52
140
1.0
102
RTVSPost2010PropOp52
 70
     0
102
RTVSPost2010Prop53
 90
        2
102
RTVSPost2010PropOp53
 70
     1
102
RTVSPost2010Prop54
  1
strokes_ogs.tif
102
RTVSPost2010PropOp54
 70
     1
102
RTVSPost2010Prop55
280
     0
102
RTVSPost2010PropOp55
 70
     1
102
RTVSPost2010Prop56
140
1.0
102
RTVSPost2010PropOp56
 70
     1
102
RTVSPost2010Prop57
140
1.0
102
RTVSPost2010PropOp57
 70
     1
  0
XRECORD
  5
120B
102
{ACAD_REACTORS
330
120A
102
}
330
120A
100
AcDbXrecord
280
     1
102
RTVSPost2010Prop28
280
     0
102
RTVSPost2010PropOp28
 70
     0
102
RTVSPost2010Prop29
280
     1
102
RTVSPost2010PropOp29
 70
     0
102
RTVSPost2010Prop30
280
     1
102
RTVSPost2010PropOp30
 70
     0
102
RTVSPost2010Prop31
280
     0
102
RTVSPost2010PropOp31
 70
     0
102
RTVSPost2010Prop32
280
     0
102
RTVSPost2010PropOp32
 70
     0
102
RTVSPost2010Prop33
280
     0
102
RTVSPost2010PropOp33
 70
     0
102
RTVSPost2010Prop34
280
     0
102
RTVSPost2010PropOp34
 70
     0
102
RTVSPost2010Prop35
280
     0
102
RTVSPost2010PropOp35
 70
     0
102
RTVSPost2010Prop36
280
     0
102
RTVSPost2010PropOp36
 70
     0
102
RTVSPost2010Prop37
 90
       50
102
RTVSPost2010PropOp37
 70
     0
102
RTVSPost2010Prop38
140
0.0
102
RTVSPost2010PropOp38
 70
     0
102
RTVSPost2010Prop39
140
1.0
102
RTVSPost2010PropOp39
 70
     0
102
RTVSPost2010Prop40
 90
        0
102
RTVSPost2010PropOp40
 70
     0
102
RTVSPost2010Prop41ColorIndex
 90
       18
102
RTVSPost2010Prop41ColorRGB
 90
        0
102
RTVSPost2010PropOp41
 70
     0
102
RTVSPost2010Prop42
 90
       50
102
RTVSPost2010PropOp42
 70
     0
102
RTVSPost2010Prop43
 90
        3
102
RTVSPost2010PropOp43
 70
     0
102
RTVSPost2010Prop44ColorIndex
 90
        5
102
RTVSPost2010Prop44ColorRGB
 90
      255
102
RTVSPost2010PropOp44
 70
     0
102
RTVSPost2010Prop45
280
     0
102
RTVSPost2010PropOp45
 70
     0
102
RTVSPost2010Prop46
 90
       50
102
RTVSPost2010PropOp46
 70
     0
102
RTVSPost2010Prop47
 90
       50
102
RTVSPost2010PropOp47
 70
     0
102
RTVSPost2010Prop48
 90
       50
102
RTVSPost2010PropOp48
 70
     0
102
RTVSPost2010Prop49
280
     0
102
RTVSPost2010PropOp49
 70
     0
102
RTVSPost2010Prop50
 90
       50
102
RTVSPost2010PropOp50
 70
     0
102
RTVSPost2010Prop51ColorIndex
 90
      256
102
RTVSPost2010Prop51ColorRGB
 90
-16777216
102
RTVSPost2010PropOp51
 70
     0
102
RTVSPost2010Prop52
140
1.0
102
RTVSPost2010PropOp52
 70
     0
102
RTVSPost2010Prop53
 90
        2
102
RTVSPost2010PropOp53
 70
     0
102
RTVSPost2010Prop54
  1
strokes_ogs.tif
102
RTVSPost2010PropOp54
 70
     0
102
RTVSPost2010Prop55
280
     0
102
RTVSPost2010PropOp55
 70
     0
102
RTVSPost2010Prop56
140
1.0
102
RTVSPost2010PropOp56
 70
     0
102
RTVSPost2010Prop57
140
1.0
102
RTVSPost2010PropOp57
 70
     0
  0
XRECORD
  5
1205
102
{ACAD_REACTORS
330
1204
102
}
330
1204
100
AcDbXrecord
280
     1
102
RTVSPost2010Prop28
280
     0
102
RTVSPost2010PropOp28
 70
     1
102
RTVSPost2010Prop29
280
     1
102
RTVSPost2010PropOp29
 70
     1
102
RTVSPost2010Prop30
280
     1
102
RTVSPost2010PropOp30
 70
     1
102
RTVSPost2010Prop31
280
     0
102
RTVSPost2010PropOp31
 70
     1
102
RTVSPost2010Prop32
280
     0
102
RTVSPost2010PropOp32
 70
     1
102
RTVSPost2010Prop33
280
     0
102
RTVSPost2010PropOp33
 70
     1
102
RTVSPost2010Prop34
280
     0
102
RTVSPost2010PropOp34
 70
     1
102
RTVSPost2010Prop35
280
     0
102
RTVSPost2010PropOp35
 70
     1
102
RTVSPost2010Prop36
280
     0
102
RTVSPost2010PropOp36
 70
     1
102
RTVSPost2010Prop37
 90
       50
102
RTVSPost2010PropOp37
 70
     1
102
RTVSPost2010Prop38
140
0.0
102
RTVSPost2010PropOp38
 70
     1
102
RTVSPost2010Prop39
140
1.0
102
RTVSPost2010PropOp39
 70
     1
102
RTVSPost2010Prop40
 90
        0
102
RTVSPost2010PropOp40
 70
     1
102
RTVSPost2010Prop41ColorIndex
 90
       18
102
RTVSPost2010Prop41ColorRGB
 90
        0
102
RTVSPost2010PropOp41
 70
     1
102
RTVSPost2010Prop42
 90
       50
102
RTVSPost2010PropOp42
 70
     1
102
RTVSPost2010Prop43
 90
        3
102
RTVSPost2010PropOp43
 70
     1
102
RTVSPost2010Prop44ColorIndex
 90
        5
102
RTVSPost2010Prop44ColorRGB
 90
      255
102
RTVSPost2010PropOp44
 70
     1
102
RTVSPost2010Prop45
280
     0
102
RTVSPost2010PropOp45
 70
     1
102
RTVSPost2010Prop46
 90
       50
102
RTVSPost2010PropOp46
 70
     1
102
RTVSPost2010Prop47
 90
       50
102
RTVSPost2010PropOp47
 70
     1
102
RTVSPost2010Prop48
 90
       50
102
RTVSPost2010PropOp48
 70
     1
102
RTVSPost2010Prop49
280
     0
102
RTVSPost2010PropOp49
 70
     1
102
RTVSPost2010Prop50
 90
       50
102
RTVSPost2010PropOp50
 70
     1
102
RTVSPost2010Prop51ColorIndex
 90
      256
102
RTVSPost2010Prop51ColorRGB
 90
-16777216
102
RTVSPost2010PropOp51
 70
     0
102
RTVSPost2010Prop52
140
1.0
102
RTVSPost2010PropOp52
 70
     0
102
RTVSPost2010Prop53
 90
        2
102
RTVSPost2010PropOp53
 70
     1
102
RTVSPost2010Prop54
  1
strokes_ogs.tif
102
RTVSPost2010PropOp54
 70
     1
102
RTVSPost2010Prop55
280
     0
102
RTVSPost2010PropOp55
 70
     1
102
RTVSPost2010Prop56
140
1.0
102
RTVSPost2010PropOp56
 70
     1
102
RTVSPost2010Prop57
140
1.0
102
RTVSPost2010PropOp57
 70
     1
  0
XRECORD
  5
120D
102
{ACAD_REACTORS
330
120C
102
}
330
120C
100
AcDbXrecord
280
     1
102
RTVSPost2010Prop28
280
     0
102
RTVSPost2010PropOp28
 70
     0
102
RTVSPost2010Prop29
280
     1
102
RTVSPost2010PropOp29
 70
     0
102
RTVSPost2010Prop30
280
     1
102
RTVSPost2010PropOp30
 70
     0
102
RTVSPost2010Prop31
280
     0
102
RTVSPost2010PropOp31
 70
     0
102
RTVSPost2010Prop32
280
     0
102
RTVSPost2010PropOp32
 70
     0
102
RTVSPost2010Prop33
280
     0
102
RTVSPost2010PropOp33
 70
     0
102
RTVSPost2010Prop34
280
     0
102
RTVSPost2010PropOp34
 70
     0
102
RTVSPost2010Prop35
280
     0
102
RTVSPost2010PropOp35
 70
     0
102
RTVSPost2010Prop36
280
     0
102
RTVSPost2010PropOp36
 70
     0
102
RTVSPost2010Prop37
 90
       50
102
RTVSPost2010PropOp37
 70
     0
102
RTVSPost2010Prop38
140
0.0
102
RTVSPost2010PropOp38
 70
     0
102
RTVSPost2010Prop39
140
1.0
102
RTVSPost2010PropOp39
 70
     0
102
RTVSPost2010Prop40
 90
        0
102
RTVSPost2010PropOp40
 70
     0
102
RTVSPost2010Prop41ColorIndex
 90
       18
102
RTVSPost2010Prop41ColorRGB
 90
        0
102
RTVSPost2010PropOp41
 70
     0
102
RTVSPost2010Prop42
 90
       50
102
RTVSPost2010PropOp42
 70
     0
102
RTVSPost2010Prop43
 90
        3
102
RTVSPost2010PropOp43
 70
     0
102
RTVSPost2010Prop44ColorIndex
 90
        5
102
RTVSPost2010Prop44ColorRGB
 90
      255
102
RTVSPost2010PropOp44
 70
     0
102
RTVSPost2010Prop45
280
     0
102
RTVSPost2010PropOp45
 70
     0
102
RTVSPost2010Prop46
 90
       50
102
RTVSPost2010PropOp46
 70
     0
102
RTVSPost2010Prop47
 90
       50
102
RTVSPost2010PropOp47
 70
     0
102
RTVSPost2010Prop48
 90
       50
102
RTVSPost2010PropOp48
 70
     0
102
RTVSPost2010Prop49
280
     0
102
RTVSPost2010PropOp49
 70
     0
102
RTVSPost2010Prop50
 90
       50
102
RTVSPost2010PropOp50
 70
     0
102
RTVSPost2010Prop51ColorIndex
 90
      256
102
RTVSPost2010Prop51ColorRGB
 90
-16777216
102
RTVSPost2010PropOp51
 70
     0
102
RTVSPost2010Prop52
140
1.0
102
RTVSPost2010PropOp52
 70
     0
102
RTVSPost2010Prop53
 90
        2
102
RTVSPost2010PropOp53
 70
     0
102
RTVSPost2010Prop54
  1
strokes_ogs.tif
102
RTVSPost2010PropOp54
 70
     0
102
RTVSPost2010Prop55
280
     0
102
RTVSPost2010PropOp55
 70
     0
102
RTVSPost2010Prop56
140
1.0
102
RTVSPost2010PropOp56
 70
     0
102
RTVSPost2010Prop57
140
1.0
102
RTVSPost2010PropOp57
 70
     0
  0
XRECORD
  5
11FB
102
{ACAD_REACTORS
330
11FA
102
}
330
11FA
100
AcDbXrecord
280
     1
102
RTVSPost2010Prop28
280
     0
102
RTVSPost2010PropOp28
 70
     1
102
RTVSPost2010Prop29
280
     1
102
RTVSPost2010PropOp29
 70
     1
102
RTVSPost2010Prop30
280
     1
102
RTVSPost2010PropOp30
 70
     1
102
RTVSPost2010Prop31
280
     0
102
RTVSPost2010PropOp31
 70
     1
102
RTVSPost2010Prop32
280
     0
102
RTVSPost2010PropOp32
 70
     1
102
RTVSPost2010Prop33
280
     0
102
RTVSPost2010PropOp33
 70
     1
102
RTVSPost2010Prop34
280
     0
102
RTVSPost2010PropOp34
 70
     1
102
RTVSPost2010Prop35
280
     0
102
RTVSPost2010PropOp35
 70
     1
102
RTVSPost2010Prop36
280
     0
102
RTVSPost2010PropOp36
 70
     1
102
RTVSPost2010Prop37
 90
       50
102
RTVSPost2010PropOp37
 70
     1
102
RTVSPost2010Prop38
140
0.0
102
RTVSPost2010PropOp38
 70
     1
102
RTVSPost2010Prop39
140
1.0
102
RTVSPost2010PropOp39
 70
     1
102
RTVSPost2010Prop40
 90
        0
102
RTVSPost2010PropOp40
 70
     1
102
RTVSPost2010Prop41ColorIndex
 90
       18
102
RTVSPost2010Prop41ColorRGB
 90
        0
102
RTVSPost2010PropOp41
 70
     1
102
RTVSPost2010Prop42
 90
       50
102
RTVSPost2010PropOp42
 70
     1
102
RTVSPost2010Prop43
 90
        3
102
RTVSPost2010PropOp43
 70
     1
102
RTVSPost2010Prop44ColorIndex
 90
        5
102
RTVSPost2010Prop44ColorRGB
 90
      255
102
RTVSPost2010PropOp44
 70
     1
102
RTVSPost2010Prop45
280
     0
102
RTVSPost2010PropOp45
 70
     1
102
RTVSPost2010Prop46
 90
       50
102
RTVSPost2010PropOp46
 70
     1
102
RTVSPost2010Prop47
 90
       50
102
RTVSPost2010PropOp47
 70
     1
102
RTVSPost2010Prop48
 90
       50
102
RTVSPost2010PropOp48
 70
     1
102
RTVSPost2010Prop49
280
     0
102
RTVSPost2010PropOp49
 70
     1
102
RTVSPost2010Prop50
 90
       50
102
RTVSPost2010PropOp50
 70
     1
102
RTVSPost2010Prop51ColorIndex
 90
      256
102
RTVSPost2010Prop51ColorRGB
 90
-16777216
102
RTVSPost2010PropOp51
 70
     0
102
RTVSPost2010Prop52
140
1.0
102
RTVSPost2010PropOp52
 70
     0
102
RTVSPost2010Prop53
 90
        2
102
RTVSPost2010PropOp53
 70
     1
102
RTVSPost2010Prop54
  1
strokes_ogs.tif
102
RTVSPost2010PropOp54
 70
     1
102
RTVSPost2010Prop55
280
     0
102
RTVSPost2010PropOp55
 70
     1
102
RTVSPost2010Prop56
140
1.0
102
RTVSPost2010PropOp56
 70
     1
102
RTVSPost2010Prop57
140
1.0
102
RTVSPost2010PropOp57
 70
     1
  0
XRECORD
  5
1219
102
{ACAD_REACTORS
330
1218
102
}
330
1218
100
AcDbXrecord
280
     1
102
RTVSPost2010Prop28
280
     0
102
RTVSPost2010PropOp28
 70
     1
102
RTVSPost2010Prop29
280
     1
102
RTVSPost2010PropOp29
 70
     1
102
RTVSPost2010Prop30
280
     1
102
RTVSPost2010PropOp30
 70
     1
102
RTVSPost2010Prop31
280
     0
102
RTVSPost2010PropOp31
 70
     1
102
RTVSPost2010Prop32
280
     0
102
RTVSPost2010PropOp32
 70
     1
102
RTVSPost2010Prop33
280
     0
102
RTVSPost2010PropOp33
 70
     1
102
RTVSPost2010Prop34
280
     0
102
RTVSPost2010PropOp34
 70
     1
102
RTVSPost2010Prop35
280
     0
102
RTVSPost2010PropOp35
 70
     1
102
RTVSPost2010Prop36
280
     0
102
RTVSPost2010PropOp36
 70
     1
102
RTVSPost2010Prop37
 90
       50
102
RTVSPost2010PropOp37
 70
     1
102
RTVSPost2010Prop38
140
0.0
102
RTVSPost2010PropOp38
 70
     1
102
RTVSPost2010Prop39
140
1.0
102
RTVSPost2010PropOp39
 70
     1
102
RTVSPost2010Prop40
 90
        0
102
RTVSPost2010PropOp40
 70
     1
102
RTVSPost2010Prop41ColorIndex
 90
       18
102
RTVSPost2010Prop41ColorRGB
 90
        0
102
RTVSPost2010PropOp41
 70
     1
102
RTVSPost2010Prop42
 90
       50
102
RTVSPost2010PropOp42
 70
     1
102
RTVSPost2010Prop43
 90
        3
102
RTVSPost2010PropOp43
 70
     1
102
RTVSPost2010Prop44ColorIndex
 90
        5
102
RTVSPost2010Prop44ColorRGB
 90
      255
102
RTVSPost2010PropOp44
 70
     1
102
RTVSPost2010Prop45
280
     0
102
RTVSPost2010PropOp45
 70
     1
102
RTVSPost2010Prop46
 90
       50
102
RTVSPost2010PropOp46
 70
     1
102
RTVSPost2010Prop47
 90
       50
102
RTVSPost2010PropOp47
 70
     1
102
RTVSPost2010Prop48
 90
       50
102
RTVSPost2010PropOp48
 70
     1
102
RTVSPost2010Prop49
280
     0
102
RTVSPost2010PropOp49
 70
     1
102
RTVSPost2010Prop50
 90
       50
102
RTVSPost2010PropOp50
 70
     1
102
RTVSPost2010Prop51ColorIndex
 90
      256
102
RTVSPost2010Prop51ColorRGB
 90
-16777216
102
RTVSPost2010PropOp51
 70
     0
102
RTVSPost2010Prop52
140
1.0
102
RTVSPost2010PropOp52
 70
     0
102
RTVSPost2010Prop53
 90
        2
102
RTVSPost2010PropOp53
 70
     1
102
RTVSPost2010Prop54
  1
strokes_ogs.tif
102
RTVSPost2010PropOp54
 70
     1
102
RTVSPost2010Prop55
280
     0
102
RTVSPost2010PropOp55
 70
     1
102
RTVSPost2010Prop56
140
1.0
102
RTVSPost2010PropOp56
 70
     1
102
RTVSPost2010Prop57
140
1.0
102
RTVSPost2010PropOp57
 70
     1
  0
XRECORD
  5
1217
102
{ACAD_REACTORS
330
1216
102
}
330
1216
100
AcDbXrecord
280
     1
102
RTVSPost2010Prop28
280
     0
102
RTVSPost2010PropOp28
 70
     1
102
RTVSPost2010Prop29
280
     1
102
RTVSPost2010PropOp29
 70
     1
102
RTVSPost2010Prop30
280
     1
102
RTVSPost2010PropOp30
 70
     1
102
RTVSPost2010Prop31
280
     0
102
RTVSPost2010PropOp31
 70
     1
102
RTVSPost2010Prop32
280
     0
102
RTVSPost2010PropOp32
 70
     1
102
RTVSPost2010Prop33
280
     0
102
RTVSPost2010PropOp33
 70
     1
102
RTVSPost2010Prop34
280
     0
102
RTVSPost2010PropOp34
 70
     1
102
RTVSPost2010Prop35
280
     0
102
RTVSPost2010PropOp35
 70
     1
102
RTVSPost2010Prop36
280
     0
102
RTVSPost2010PropOp36
 70
     1
102
RTVSPost2010Prop37
 90
       50
102
RTVSPost2010PropOp37
 70
     1
102
RTVSPost2010Prop38
140
0.0
102
RTVSPost2010PropOp38
 70
     1
102
RTVSPost2010Prop39
140
1.0
102
RTVSPost2010PropOp39
 70
     1
102
RTVSPost2010Prop40
 90
        0
102
RTVSPost2010PropOp40
 70
     1
102
RTVSPost2010Prop41ColorIndex
 90
       18
102
RTVSPost2010Prop41ColorRGB
 90
        0
102
RTVSPost2010PropOp41
 70
     1
102
RTVSPost2010Prop42
 90
       50
102
RTVSPost2010PropOp42
 70
     1
102
RTVSPost2010Prop43
 90
        3
102
RTVSPost2010PropOp43
 70
     1
102
RTVSPost2010Prop44ColorIndex
 90
        5
102
RTVSPost2010Prop44ColorRGB
 90
      255
102
RTVSPost2010PropOp44
 70
     1
102
RTVSPost2010Prop45
280
     0
102
RTVSPost2010PropOp45
 70
     1
102
RTVSPost2010Prop46
 90
       50
102
RTVSPost2010PropOp46
 70
     1
102
RTVSPost2010Prop47
 90
       50
102
RTVSPost2010PropOp47
 70
     1
102
RTVSPost2010Prop48
 90
       50
102
RTVSPost2010PropOp48
 70
     1
102
RTVSPost2010Prop49
280
     0
102
RTVSPost2010PropOp49
 70
     1
102
RTVSPost2010Prop50
 90
       50
102
RTVSPost2010PropOp50
 70
     1
102
RTVSPost2010Prop51ColorIndex
 90
      256
102
RTVSPost2010Prop51ColorRGB
 90
-16777216
102
RTVSPost2010PropOp51
 70
     0
102
RTVSPost2010Prop52
140
1.0
102
RTVSPost2010PropOp52
 70
     0
102
RTVSPost2010Prop53
 90
        2
102
RTVSPost2010PropOp53
 70
     1
102
RTVSPost2010Prop54
  1
strokes_ogs.tif
102
RTVSPost2010PropOp54
 70
     1
102
RTVSPost2010Prop55
280
     0
102
RTVSPost2010PropOp55
 70
     1
102
RTVSPost2010Prop56
140
1.0
102
RTVSPost2010PropOp56
 70
     1
102
RTVSPost2010Prop57
140
1.0
102
RTVSPost2010PropOp57
 70
     1
  0
XRECORD
  5
1211
102
{ACAD_REACTORS
330
1210
102
}
330
1210
100
AcDbXrecord
280
     1
102
RTVSPost2010Prop28
280
     0
102
RTVSPost2010PropOp28
 70
     1
102
RTVSPost2010Prop29
280
     1
102
RTVSPost2010PropOp29
 70
     1
102
RTVSPost2010Prop30
280
     1
102
RTVSPost2010PropOp30
 70
     1
102
RTVSPost2010Prop31
280
     0
102
RTVSPost2010PropOp31
 70
     1
102
RTVSPost2010Prop32
280
     0
102
RTVSPost2010PropOp32
 70
     1
102
RTVSPost2010Prop33
280
     0
102
RTVSPost2010PropOp33
 70
     1
102
RTVSPost2010Prop34
280
     0
102
RTVSPost2010PropOp34
 70
     1
102
RTVSPost2010Prop35
280
     0
102
RTVSPost2010PropOp35
 70
     1
102
RTVSPost2010Prop36
280
     0
102
RTVSPost2010PropOp36
 70
     1
102
RTVSPost2010Prop37
 90
       50
102
RTVSPost2010PropOp37
 70
     1
102
RTVSPost2010Prop38
140
0.0
102
RTVSPost2010PropOp38
 70
     1
102
RTVSPost2010Prop39
140
1.0
102
RTVSPost2010PropOp39
 70
     1
102
RTVSPost2010Prop40
 90
        0
102
RTVSPost2010PropOp40
 70
     1
102
RTVSPost2010Prop41ColorIndex
 90
       18
102
RTVSPost2010Prop41ColorRGB
 90
        0
102
RTVSPost2010PropOp41
 70
     1
102
RTVSPost2010Prop42
 90
       50
102
RTVSPost2010PropOp42
 70
     1
102
RTVSPost2010Prop43
 90
        3
102
RTVSPost2010PropOp43
 70
     1
102
RTVSPost2010Prop44ColorIndex
 90
        5
102
RTVSPost2010Prop44ColorRGB
 90
      255
102
RTVSPost2010PropOp44
 70
     1
102
RTVSPost2010Prop45
280
     0
102
RTVSPost2010PropOp45
 70
     1
102
RTVSPost2010Prop46
 90
       50
102
RTVSPost2010PropOp46
 70
     1
102
RTVSPost2010Prop47
 90
       50
102
RTVSPost2010PropOp47
 70
     1
102
RTVSPost2010Prop48
 90
       50
102
RTVSPost2010PropOp48
 70
     1
102
RTVSPost2010Prop49
280
     0
102
RTVSPost2010PropOp49
 70
     1
102
RTVSPost2010Prop50
 90
       50
102
RTVSPost2010PropOp50
 70
     1
102
RTVSPost2010Prop51ColorIndex
 90
      256
102
RTVSPost2010Prop51ColorRGB
 90
-16777216
102
RTVSPost2010PropOp51
 70
     0
102
RTVSPost2010Prop52
140
1.0
102
RTVSPost2010PropOp52
 70
     0
102
RTVSPost2010Prop53
 90
        2
102
RTVSPost2010PropOp53
 70
     1
102
RTVSPost2010Prop54
  1
strokes_ogs.tif
102
RTVSPost2010PropOp54
 70
     1
102
RTVSPost2010Prop55
280
     0
102
RTVSPost2010PropOp55
 70
     1
102
RTVSPost2010Prop56
140
1.0
102
RTVSPost2010PropOp56
 70
     1
102
RTVSPost2010Prop57
140
1.0
102
RTVSPost2010PropOp57
 70
     1
  0
XRECORD
  5
1213
102
{ACAD_REACTORS
330
1212
102
}
330
1212
100
AcDbXrecord
280
     1
102
RTVSPost2010Prop28
280
     0
102
RTVSPost2010PropOp28
 70
     1
102
RTVSPost2010Prop29
280
     1
102
RTVSPost2010PropOp29
 70
     1
102
RTVSPost2010Prop30
280
     1
102
RTVSPost2010PropOp30
 70
     1
102
RTVSPost2010Prop31
280
     0
102
RTVSPost2010PropOp31
 70
     1
102
RTVSPost2010Prop32
280
     0
102
RTVSPost2010PropOp32
 70
     1
102
RTVSPost2010Prop33
280
     0
102
RTVSPost2010PropOp33
 70
     1
102
RTVSPost2010Prop34
280
     0
102
RTVSPost2010PropOp34
 70
     1
102
RTVSPost2010Prop35
280
     0
102
RTVSPost2010PropOp35
 70
     1
102
RTVSPost2010Prop36
280
     0
102
RTVSPost2010PropOp36
 70
     1
102
RTVSPost2010Prop37
 90
       50
102
RTVSPost2010PropOp37
 70
     1
102
RTVSPost2010Prop38
140
0.0
102
RTVSPost2010PropOp38
 70
     1
102
RTVSPost2010Prop39
140
1.0
102
RTVSPost2010PropOp39
 70
     1
102
RTVSPost2010Prop40
 90
        0
102
RTVSPost2010PropOp40
 70
     1
102
RTVSPost2010Prop41ColorIndex
 90
       18
102
RTVSPost2010Prop41ColorRGB
 90
        0
102
RTVSPost2010PropOp41
 70
     1
102
RTVSPost2010Prop42
 90
       50
102
RTVSPost2010PropOp42
 70
     1
102
RTVSPost2010Prop43
 90
        3
102
RTVSPost2010PropOp43
 70
     1
102
RTVSPost2010Prop44ColorIndex
 90
        5
102
RTVSPost2010Prop44ColorRGB
 90
      255
102
RTVSPost2010PropOp44
 70
     1
102
RTVSPost2010Prop45
280
     0
102
RTVSPost2010PropOp45
 70
     1
102
RTVSPost2010Prop46
 90
       50
102
RTVSPost2010PropOp46
 70
     1
102
RTVSPost2010Prop47
 90
       50
102
RTVSPost2010PropOp47
 70
     1
102
RTVSPost2010Prop48
 90
       50
102
RTVSPost2010PropOp48
 70
     1
102
RTVSPost2010Prop49
280
     0
102
RTVSPost2010PropOp49
 70
     1
102
RTVSPost2010Prop50
 90
       50
102
RTVSPost2010PropOp50
 70
     1
102
RTVSPost2010Prop51ColorIndex
 90
      256
102
RTVSPost2010Prop51ColorRGB
 90
-16777216
102
RTVSPost2010PropOp51
 70
     0
102
RTVSPost2010Prop52
140
1.0
102
RTVSPost2010PropOp52
 70
     0
102
RTVSPost2010Prop53
 90
        2
102
RTVSPost2010PropOp53
 70
     1
102
RTVSPost2010Prop54
  1
strokes_ogs.tif
102
RTVSPost2010PropOp54
 70
     1
102
RTVSPost2010Prop55
280
     0
102
RTVSPost2010PropOp55
 70
     1
102
RTVSPost2010Prop56
140
1.0
102
RTVSPost2010PropOp56
 70
     1
102
RTVSPost2010Prop57
140
1.0
102
RTVSPost2010PropOp57
 70
     1
  0
XRECORD
  5
1203
102
{ACAD_REACTORS
330
1202
102
}
330
1202
100
AcDbXrecord
280
     1
102
RTVSPost2010Prop28
280
     0
102
RTVSPost2010PropOp28
 70
     1
102
RTVSPost2010Prop29
280
     1
102
RTVSPost2010PropOp29
 70
     1
102
RTVSPost2010Prop30
280
     1
102
RTVSPost2010PropOp30
 70
     1
102
RTVSPost2010Prop31
280
     0
102
RTVSPost2010PropOp31
 70
     1
102
RTVSPost2010Prop32
280
     0
102
RTVSPost2010PropOp32
 70
     1
102
RTVSPost2010Prop33
280
     0
102
RTVSPost2010PropOp33
 70
     1
102
RTVSPost2010Prop34
280
     0
102
RTVSPost2010PropOp34
 70
     1
102
RTVSPost2010Prop35
280
     0
102
RTVSPost2010PropOp35
 70
     1
102
RTVSPost2010Prop36
280
     0
102
RTVSPost2010PropOp36
 70
     1
102
RTVSPost2010Prop37
 90
       50
102
RTVSPost2010PropOp37
 70
     1
102
RTVSPost2010Prop38
140
0.0
102
RTVSPost2010PropOp38
 70
     1
102
RTVSPost2010Prop39
140
1.0
102
RTVSPost2010PropOp39
 70
     1
102
RTVSPost2010Prop40
 90
        0
102
RTVSPost2010PropOp40
 70
     1
102
RTVSPost2010Prop41ColorIndex
 90
       18
102
RTVSPost2010Prop41ColorRGB
 90
        0
102
RTVSPost2010PropOp41
 70
     1
102
RTVSPost2010Prop42
 90
       50
102
RTVSPost2010PropOp42
 70
     1
102
RTVSPost2010Prop43
 90
        3
102
RTVSPost2010PropOp43
 70
     1
102
RTVSPost2010Prop44ColorIndex
 90
        5
102
RTVSPost2010Prop44ColorRGB
 90
      255
102
RTVSPost2010PropOp44
 70
     1
102
RTVSPost2010Prop45
280
     0
102
RTVSPost2010PropOp45
 70
     1
102
RTVSPost2010Prop46
 90
       50
102
RTVSPost2010PropOp46
 70
     1
102
RTVSPost2010Prop47
 90
       50
102
RTVSPost2010PropOp47
 70
     1
102
RTVSPost2010Prop48
 90
       50
102
RTVSPost2010PropOp48
 70
     1
102
RTVSPost2010Prop49
280
     0
102
RTVSPost2010PropOp49
 70
     1
102
RTVSPost2010Prop50
 90
       50
102
RTVSPost2010PropOp50
 70
     1
102
RTVSPost2010Prop51ColorIndex
 90
      256
102
RTVSPost2010Prop51ColorRGB
 90
-16777216
102
RTVSPost2010PropOp51
 70
     0
102
RTVSPost2010Prop52
140
1.0
102
RTVSPost2010PropOp52
 70
     0
102
RTVSPost2010Prop53
 90
        2
102
RTVSPost2010PropOp53
 70
     1
102
RTVSPost2010Prop54
  1
strokes_ogs.tif
102
RTVSPost2010PropOp54
 70
     1
102
RTVSPost2010Prop55
280
     0
102
RTVSPost2010PropOp55
 70
     1
102
RTVSPost2010Prop56
140
1.0
102
RTVSPost2010PropOp56
 70
     1
102
RTVSPost2010Prop57
140
1.0
102
RTVSPost2010PropOp57
 70
     1
  0
XRECORD
  5
11F5
102
{ACAD_REACTORS
330
11F4
102
}
330
11F4
100
AcDbXrecord
280
     1
102
RTVSPost2010Prop28
280
     0
102
RTVSPost2010PropOp28
 70
     1
102
RTVSPost2010Prop29
280
     1
102
RTVSPost2010PropOp29
 70
     1
102
RTVSPost2010Prop30
280
     1
102
RTVSPost2010PropOp30
 70
     1
102
RTVSPost2010Prop31
280
     0
102
RTVSPost2010PropOp31
 70
     1
102
RTVSPost2010Prop32
280
     0
102
RTVSPost2010PropOp32
 70
     1
102
RTVSPost2010Prop33
280
     0
102
RTVSPost2010PropOp33
 70
     1
102
RTVSPost2010Prop34
280
     0
102
RTVSPost2010PropOp34
 70
     1
102
RTVSPost2010Prop35
280
     0
102
RTVSPost2010PropOp35
 70
     1
102
RTVSPost2010Prop36
280
     0
102
RTVSPost2010PropOp36
 70
     1
102
RTVSPost2010Prop37
 90
       50
102
RTVSPost2010PropOp37
 70
     1
102
RTVSPost2010Prop38
140
0.0
102
RTVSPost2010PropOp38
 70
     1
102
RTVSPost2010Prop39
140
1.0
102
RTVSPost2010PropOp39
 70
     1
102
RTVSPost2010Prop40
 90
        0
102
RTVSPost2010PropOp40
 70
     1
102
RTVSPost2010Prop41ColorIndex
 90
       18
102
RTVSPost2010Prop41ColorRGB
 90
        0
102
RTVSPost2010PropOp41
 70
     1
102
RTVSPost2010Prop42
 90
       50
102
RTVSPost2010PropOp42
 70
     1
102
RTVSPost2010Prop43
 90
        3
102
RTVSPost2010PropOp43
 70
     1
102
RTVSPost2010Prop44ColorIndex
 90
        5
102
RTVSPost2010Prop44ColorRGB
 90
      255
102
RTVSPost2010PropOp44
 70
     1
102
RTVSPost2010Prop45
280
     0
102
RTVSPost2010PropOp45
 70
     1
102
RTVSPost2010Prop46
 90
       50
102
RTVSPost2010PropOp46
 70
     1
102
RTVSPost2010Prop47
 90
       50
102
RTVSPost2010PropOp47
 70
     1
102
RTVSPost2010Prop48
 90
       50
102
RTVSPost2010PropOp48
 70
     1
102
RTVSPost2010Prop49
280
     0
102
RTVSPost2010PropOp49
 70
     1
102
RTVSPost2010Prop50
 90
       50
102
RTVSPost2010PropOp50
 70
     1
102
RTVSPost2010Prop51ColorIndex
 90
      256
102
RTVSPost2010Prop51ColorRGB
 90
-16777216
102
RTVSPost2010PropOp51
 70
     0
102
RTVSPost2010Prop52
140
1.0
102
RTVSPost2010PropOp52
 70
     0
102
RTVSPost2010Prop53
 90
        2
102
RTVSPost2010PropOp53
 70
     1
102
RTVSPost2010Prop54
  1
strokes_ogs.tif
102
RTVSPost2010PropOp54
 70
     1
102
RTVSPost2010Prop55
280
     0
102
RTVSPost2010PropOp55
 70
     1
102
RTVSPost2010Prop56
140
1.0
102
RTVSPost2010PropOp56
 70
     1
102
RTVSPost2010Prop57
140
1.0
102
RTVSPost2010PropOp57
 70
     1
  0
XRECORD
  5
1215
102
{ACAD_REACTORS
330
1214
102
}
330
1214
100
AcDbXrecord
280
     1
102
RTVSPost2010Prop28
280
     0
102
RTVSPost2010PropOp28
 70
     1
102
RTVSPost2010Prop29
280
     1
102
RTVSPost2010PropOp29
 70
     1
102
RTVSPost2010Prop30
280
     1
102
RTVSPost2010PropOp30
 70
     1
102
RTVSPost2010Prop31
280
     0
102
RTVSPost2010PropOp31
 70
     1
102
RTVSPost2010Prop32
280
     0
102
RTVSPost2010PropOp32
 70
     1
102
RTVSPost2010Prop33
280
     0
102
RTVSPost2010PropOp33
 70
     1
102
RTVSPost2010Prop34
280
     0
102
RTVSPost2010PropOp34
 70
     1
102
RTVSPost2010Prop35
280
     0
102
RTVSPost2010PropOp35
 70
     1
102
RTVSPost2010Prop36
280
     0
102
RTVSPost2010PropOp36
 70
     1
102
RTVSPost2010Prop37
 90
       50
102
RTVSPost2010PropOp37
 70
     1
102
RTVSPost2010Prop38
140
0.0
102
RTVSPost2010PropOp38
 70
     1
102
RTVSPost2010Prop39
140
1.0
102
RTVSPost2010PropOp39
 70
     1
102
RTVSPost2010Prop40
 90
        0
102
RTVSPost2010PropOp40
 70
     1
102
RTVSPost2010Prop41ColorIndex
 90
       18
102
RTVSPost2010Prop41ColorRGB
 90
        0
102
RTVSPost2010PropOp41
 70
     1
102
RTVSPost2010Prop42
 90
       50
102
RTVSPost2010PropOp42
 70
     1
102
RTVSPost2010Prop43
 90
        3
102
RTVSPost2010PropOp43
 70
     1
102
RTVSPost2010Prop44ColorIndex
 90
        5
102
RTVSPost2010Prop44ColorRGB
 90
      255
102
RTVSPost2010PropOp44
 70
     1
102
RTVSPost2010Prop45
280
     0
102
RTVSPost2010PropOp45
 70
     1
102
RTVSPost2010Prop46
 90
       50
102
RTVSPost2010PropOp46
 70
     1
102
RTVSPost2010Prop47
 90
       50
102
RTVSPost2010PropOp47
 70
     1
102
RTVSPost2010Prop48
 90
       50
102
RTVSPost2010PropOp48
 70
     1
102
RTVSPost2010Prop49
280
     0
102
RTVSPost2010PropOp49
 70
     1
102
RTVSPost2010Prop50
 90
       50
102
RTVSPost2010PropOp50
 70
     1
102
RTVSPost2010Prop51ColorIndex
 90
      256
102
RTVSPost2010Prop51ColorRGB
 90
-16777216
102
RTVSPost2010PropOp51
 70
     0
102
RTVSPost2010Prop52
140
1.0
102
RTVSPost2010PropOp52
 70
     0
102
RTVSPost2010Prop53
 90
        2
102
RTVSPost2010PropOp53
 70
     1
102
RTVSPost2010Prop54
  1
strokes_ogs.tif
102
RTVSPost2010PropOp54
 70
     1
102
RTVSPost2010Prop55
280
     0
102
RTVSPost2010PropOp55
 70
     1
102
RTVSPost2010Prop56
140
1.0
102
RTVSPost2010PropOp56
 70
     1
102
RTVSPost2010Prop57
140
1.0
102
RTVSPost2010PropOp57
 70
     1
  0
ENDSEC
  0
EOF
