  0
SECTION
  2
HEADER
  9
$ACADVER
  1
AC1015
  9
$ACADMAINTVER
 70
    20
  9
$DWGCODEPAGE
  3
ANSI_932
  9
$INSBASE
 10
0.0
 20
0.0
 30
0.0
  9
$EXTMIN
 10
-224.0132298466694
 20
23.67814609861842
 30
0.0
  9
$EXTMAX
 10
1868.113171650197
 20
1746.237545385019
 30
0.0
  9
$LIMMIN
 10
-470.7061920166109
 20
-863.2368049621678
  9
$LIMMAX
 10
964.4921188354384
 20
660.9706230163671
  9
$ORTHOMODE
 70
     0
  9
$REGENMODE
 70
     1
  9
$FILLMODE
 70
     1
  9
$QTEXTMODE
 70
     0
  9
$MIRRTEXT
 70
     1
  9
$LTSCALE
 40
0.3183409443051796
  9
$ATTMODE
 70
     1
  9
$TEXTSIZE
 40
2.5
  9
$TRACEWID
 40
1.0
  9
$TEXTSTYLE
  7
Standard
  9
$CLAYER
  8
0
  9
$CELTYPE
  6
ByLayer
  9
$CECOLOR
 62
   256
  9
$CELTSCALE
 40
1.0
  9
$DISPSILH
 70
     0
  9
$DIMSCALE
 40
1.0
  9
$DIMASZ
 40
2.5
  9
$DIMEXO
 40
0.625
  9
$DIMDLI
 40
3.75
  9
$DIMRND
 40
0.0
  9
$DIMDLE
 40
0.0
  9
$DIMEXE
 40
1.25
  9
$DIMTP
 40
0.0
  9
$DIMTM
 40
0.0
  9
$DIMTXT
 40
2.5
  9
$DIMCEN
 40
2.5
  9
$DIMTSZ
 40
0.0
  9
$DIMTOL
 70
     0
  9
$DIMLIM
 70
     0
  9
$DIMTIH
 70
     0
  9
$DIMTOH
 70
     0
  9
$DIMSE1
 70
     0
  9
$DIMSE2
 70
     0
  9
$DIMTAD
 70
     1
  9
$DIMZIN
 70
     0
  9
$DIMBLK
  1

  9
$DIMASO
 70
     1
  9
$DIMSHO
 70
     1
  9
$DIMPOST
  1

  9
$DIMAPOST
  1

  9
$DIMALT
 70
     0
  9
$DIMALTD
 70
     3
  9
$DIMALTF
 40
0.03937007874016
  9
$DIMLFAC
 40
1.0
  9
$DIMTOFL
 70
     1
  9
$DIMTVP
 40
0.0
  9
$DIMTIX
 70
     0
  9
$DIMSOXD
 70
     0
  9
$DIMSAH
 70
     0
  9
$DIMBLK1
  1

  9
$DIMBLK2
  1

  9
$DIMSTYLE
  2
Standard
  9
$DIMCLRD
 70
     0
  9
$DIMCLRE
 70
     0
  9
$DIMCLRT
 70
     0
  9
$DIMTFAC
 40
0.75
  9
$DIMGAP
 40
0.625
  9
$DIMJUST
 70
     0
  9
$DIMSD1
 70
     0
  9
$DIMSD2
 70
     0
  9
$DIMTOLJ
 70
     0
  9
$DIMTZIN
 70
     8
  9
$DIMALTZ
 70
     0
  9
$DIMALTTZ
 70
     0
  9
$DIMUPT
 70
     0
  9
$DIMDEC
 70
     2
  9
$DIMTDEC
 70
     2
  9
$DIMALTU
 70
     2
  9
$DIMALTTD
 70
     3
  9
$DIMTXSTY
  7
Standard
  9
$DIMAUNIT
 70
     0
  9
$DIMADEC
 70
     0
  9
$DIMALTRND
 40
0.0
  9
$DIMAZIN
 70
     0
  9
$DIMDSEP
 70
    46
  9
$DIMATFIT
 70
     3
  9
$DIMFRAC
 70
     0
  9
$DIMLDRBLK
  1

  9
$DIMLUNIT
 70
     2
  9
$DIMLWD
 70
    -2
  9
$DIMLWE
 70
    -2
  9
$DIMTMOVE
 70
     0
  9
$LUNITS
 70
     2
  9
$LUPREC
 70
     4
  9
$SKETCHINC
 40
1.0
  9
$FILLETRAD
 40
0.0
  9
$AUNITS
 70
     0
  9
$AUPREC
 70
     0
  9
$MENU
  1
.
  9
$ELEVATION
 40
0.0
  9
$PELEVATION
 40
0.0
  9
$THICKNESS
 40
0.0
  9
$LIMCHECK
 70
     0
  9
$CHAMFERA
 40
10.0
  9
$CHAMFERB
 40
10.0
  9
$CHAMFERC
 40
20.0
  9
$CHAMFERD
 40
0.0
  9
$SKPOLY
 70
     0
  9
$TDCREATE
 40
2455188.750000000
  9
$TDUCREATE
 40
2455188.375000000
  9
$TDUPDATE
 40
2459753.492503334
  9
$TDUUPDATE
 40
2459753.117503334
  9
$TDINDWG
 40
0.0161096296
  9
$TDUSRTIMER
 40
0.0161094792
  9
$USRTIMER
 70
     1
  9
$ANGBASE
 50
0.0
  9
$ANGDIR
 70
     0
  9
$PDMODE
 70
     0
  9
$PDSIZE
 40
0.0
  9
$PLINEWID
 40
0.0
  9
$SPLFRAME
 70
     0
  9
$SPLINETYPE
 70
     6
  9
$SPLINESEGS
 70
     8
  9
$HANDSEED
  5
918
  9
$SURFTAB1
 70
     6
  9
$SURFTAB2
 70
     6
  9
$SURFTYPE
 70
     6
  9
$SURFU
 70
     6
  9
$SURFV
 70
     6
  9
$UCSBASE
  2

  9
$UCSNAME
  2

  9
$UCSORG
 10
0.0
 20
0.0
 30
0.0
  9
$UCSXDIR
 10
1.0
 20
0.0
 30
0.0
  9
$UCSYDIR
 10
0.0
 20
1.0
 30
0.0
  9
$UCSORTHOREF
  2

  9
$UCSORTHOVIEW
 70
     0
  9
$UCSORGTOP
 10
0.0
 20
0.0
 30
0.0
  9
$UCSORGBOTTOM
 10
0.0
 20
0.0
 30
0.0
  9
$UCSORGLEFT
 10
0.0
 20
0.0
 30
0.0
  9
$UCSORGRIGHT
 10
0.0
 20
0.0
 30
0.0
  9
$UCSORGFRONT
 10
0.0
 20
0.0
 30
0.0
  9
$UCSORGBACK
 10
0.0
 20
0.0
 30
0.0
  9
$PUCSBASE
  2

  9
$PUCSNAME
  2

  9
$PUCSORG
 10
0.0
 20
0.0
 30
0.0
  9
$PUCSXDIR
 10
1.0
 20
0.0
 30
0.0
  9
$PUCSYDIR
 10
0.0
 20
1.0
 30
0.0
  9
$PUCSORTHOREF
  2

  9
$PUCSORTHOVIEW
 70
     0
  9
$PUCSORGTOP
 10
0.0
 20
0.0
 30
0.0
  9
$PUCSORGBOTTOM
 10
0.0
 20
0.0
 30
0.0
  9
$PUCSORGLEFT
 10
0.0
 20
0.0
 30
0.0
  9
$PUCSORGRIGHT
 10
0.0
 20
0.0
 30
0.0
  9
$PUCSORGFRONT
 10
0.0
 20
0.0
 30
0.0
  9
$PUCSORGBACK
 10
0.0
 20
0.0
 30
0.0
  9
$USERI1
 70
     0
  9
$USERI2
 70
     0
  9
$USERI3
 70
     0
  9
$USERI4
 70
     0
  9
$USERI5
 70
     0
  9
$USERR1
 40
0.0
  9
$USERR2
 40
0.0
  9
$USERR3
 40
0.0
  9
$USERR4
 40
0.0
  9
$USERR5
 40
0.0
  9
$WORLDVIEW
 70
     1
  9
$SHADEDGE
 70
     3
  9
$SHADEDIF
 70
    70
  9
$TILEMODE
 70
     1
  9
$MAXACTVP
 70
    64
  9
$PINSBASE
 10
0.0
 20
0.0
 30
0.0
  9
$PLIMCHECK
 70
     0
  9
$PEXTMIN
 10
1.000000000000000E+20
 20
1.000000000000000E+20
 30
1.000000000000000E+20
  9
$PEXTMAX
 10
-1.000000000000000E+20
 20
-1.000000000000000E+20
 30
-1.000000000000000E+20
  9
$PLIMMIN
 10
0.0
 20
0.0
  9
$PLIMMAX
 10
420.0
 20
297.0
  9
$UNITMODE
 70
     0
  9
$VISRETAIN
 70
     1
  9
$PLINEGEN
 70
     0
  9
$PSLTSCALE
 70
     1
  9
$TREEDEPTH
 70
  3020
  9
$CMLSTYLE
  2
Standard
  9
$CMLJUST
 70
     0
  9
$CMLSCALE
 40
20.0
  9
$PROXYGRAPHICS
 70
     1
  9
$MEASUREMENT
 70
     1
  9
$CELWEIGHT
370
    -1
  9
$ENDCAPS
280
     0
  9
$JOINSTYLE
280
     0
  9
$LWDISPLAY
290
     0
  9
$INSUNITS
 70
     4
  9
$HYPERLINKBASE
  1

  9
$STYLESHEET
  1

  9
$XEDIT
290
     1
  9
$CEPSNTYPE
380
     0
  9
$PSTYLEMODE
290
     1
  9
$FINGERPRINTGUID
  2
{45E4A399-6A52-4E5B-8450-E4ACECE27B1A}
  9
$VERSIONGUID
  2
{C5A45611-2031-4374-9789-669E880ED069}
  9
$EXTNAMES
290
     1
  9
$PSVPSCALE
 40
0.0
  9
$OLESTARTUP
290
     0
  0
ENDSEC
  0
SECTION
  2
CLASSES
  0
CLASS
  1
ACDBDICTIONARYWDFLT
  2
AcDbDictionaryWithDefault
  3
ObjectDBX Classes
 90
        0
280
     0
281
     0
  0
CLASS
  1
VISUALSTYLE
  2
AcDbVisualStyle
  3
ObjectDBX Classes
 90
     4095
280
     0
281
     0
  0
CLASS
  1
MATERIAL
  2
AcDbMaterial
  3
ObjectDBX Classes
 90
     1153
280
     0
281
     0
  0
CLASS
  1
SCALE
  2
AcDbScale
  3
ObjectDBX Classes
 90
     1153
280
     0
281
     0
  0
CLASS
  1
TABLESTYLE
  2
AcDbTableStyle
  3
ObjectDBX Classes
 90
     4095
280
     0
281
     0
  0
CLASS
  1
MLEADERSTYLE
  2
AcDbMLeaderStyle
  3
ACDB_MLEADERSTYLE_CLASS
 90
     4095
280
     0
281
     0
  0
CLASS
  1
SUN
  2
AcDbSun
  3
SCENEOE
 90
    33921
280
     0
281
     0
  0
CLASS
  1
DICTIONARYVAR
  2
AcDbDictionaryVar
  3
ObjectDBX Classes
 90
        0
280
     0
281
     0
  0
CLASS
  1
ACDBSECTIONVIEWSTYLE
  2
AcDbSectionViewStyle
  3
ObjectDBX Classes
 90
     1025
280
     0
281
     0
  0
CLASS
  1
ACDBDETAILVIEWSTYLE
  2
AcDbDetailViewStyle
  3
ObjectDBX Classes
 90
     1025
280
     0
281
     0
  0
CLASS
  1
SORTENTSTABLE
  2
AcDbSortentsTable
  3
ObjectDBX Classes
 90
        0
280
     0
281
     0
  0
CLASS
  1
CELLSTYLEMAP
  2
AcDbCellStyleMap
  3
ObjectDBX Classes
 90
     1152
280
     0
281
     0
  0
CLASS
  1
ACDBPLACEHOLDER
  2
AcDbPlaceHolder
  3
ObjectDBX Classes
 90
        0
280
     0
281
     0
  0
CLASS
  1
LAYOUT
  2
AcDbLayout
  3
ObjectDBX Classes
 90
        0
280
     0
281
     0
  0
ENDSEC
  0
SECTION
  2
TABLES
  0
TABLE
  2
VPORT
  5
8
330
0
100
AcDbSymbolTable
 70
     1
  0
VPORT
  5
29
330
8
100
AcDbSymbolTableRecord
100
AcDbViewportTableRecord
  2
*Active
 70
     0
 10
0.0
 20
0.0
 11
1.0
 21
1.0
 12
1432.565856760849
 22
942.2330484762206
 13
0.0
 23
0.0
 14
10.0
 24
10.0
 15
10.0
 25
10.0
 16
0.0
 26
0.0
 36
1.0
 17
0.0
 27
0.0
 37
0.0
 40
2074.18760293824
 41
2.204301075268817
 42
50.0
 43
0.0
 44
0.0
 50
0.0
 51
0.0
 71
     0
 72
 20000
 73
     1
 74
     3
 75
     0
 76
     0
 77
     0
 78
     0
281
     0
 65
     1
110
0.0
120
0.0
130
0.0
111
1.0
121
0.0
131
0.0
112
0.0
122
1.0
132
0.0
 79
     0
146
0.0
1001
ACAD_NAV_VCDISPLAY
1070
     3
  0
ENDTAB
  0
TABLE
  2
LTYPE
  5
5
330
0
100
AcDbSymbolTable
 70
     2
  0
LTYPE
  5
14
330
5
100
AcDbSymbolTableRecord
100
AcDbLinetypeTableRecord
  2
ByBlock
 70
     0
  3

 72
    65
 73
     0
 40
0.0
  0
LTYPE
  5
15
330
5
100
AcDbSymbolTableRecord
100
AcDbLinetypeTableRecord
  2
ByLayer
 70
     0
  3

 72
    65
 73
     0
 40
0.0
  0
LTYPE
  5
16
330
5
100
AcDbSymbolTableRecord
100
AcDbLinetypeTableRecord
  2
Continuous
 70
     0
  3
Solid line
 72
    65
 73
     0
 40
0.0
  0
LTYPE
  5
33A
330
5
100
AcDbSymbolTableRecord
100
AcDbLinetypeTableRecord
  2
CENTER2
 70
     0
  3
Center (.5x) ___ _ ___ _ ___ _ ___ _ ___ _ ___
 72
    65
 73
     4
 40
28.575
 49
19.05
 74
     0
 49
-3.174999999999998
 74
     0
 49
3.174999999999998
 74
     0
 49
-3.174999999999998
 74
     0
  0
ENDTAB
  0
TABLE
  2
LAYER
  5
2
102
{ACAD_XDICTIONARY
360
340
102
}
330
0
100
AcDbSymbolTable
 70
     4
  0
LAYER
  5
10
102
{ACAD_XDICTIONARY
360
81E
102
}
330
2
100
AcDbSymbolTableRecord
100
AcDbLayerTableRecord
  2
0
 70
     0
 62
     7
  6
Continuous
370
    -3
390
F
  0
LAYER
  5
66
330
2
100
AcDbSymbolTableRecord
100
AcDbLayerTableRecord
  2
Defpoints
 70
     0
 62
     7
  6
Continuous
290
     0
370
    -3
390
F
  0
LAYER
  5
33B
102
{ACAD_XDICTIONARY
360
33C
102
}
330
2
100
AcDbSymbolTableRecord
100
AcDbLayerTableRecord
  2
中心線
 70
     0
 62
     3
  6
CENTER2
370
    -3
390
F
  0
LAYER
  5
33D
102
{ACAD_XDICTIONARY
360
33E
102
}
330
2
100
AcDbSymbolTableRecord
100
AcDbLayerTableRecord
  2
実線
 70
     0
 62
     7
  6
Continuous
370
    -3
390
F
  0
ENDTAB
  0
TABLE
  2
STYLE
  5
3
330
0
100
AcDbSymbolTable
 70
     1
  0
STYLE
  5
11
330
3
100
AcDbSymbolTableRecord
100
AcDbTextStyleTableRecord
  2
Standard
 70
     0
 40
0.0
 41
1.0
 50
0.0
 71
     0
 42
2.5
  3
txt
  4
extfont2
  0
ENDTAB
  0
TABLE
  2
VIEW
  5
6
330
0
100
AcDbSymbolTable
 70
     0
  0
ENDTAB
  0
TABLE
  2
UCS
  5
7
330
0
100
AcDbSymbolTable
 70
     0
  0
ENDTAB
  0
TABLE
  2
APPID
  5
9
330
0
100
AcDbSymbolTable
 70
     4
  0
APPID
  5
12
330
9
100
AcDbSymbolTableRecord
100
AcDbRegAppTableRecord
  2
ACAD
 70
     0
  0
APPID
  5
32A
330
9
100
AcDbSymbolTableRecord
100
AcDbRegAppTableRecord
  2
ACAD_MLEADERVER
 70
     0
  0
APPID
  5
33F
330
9
100
AcDbSymbolTableRecord
100
AcDbRegAppTableRecord
  2
ACAD_NAV_VCDISPLAY
 70
     0
  0
APPID
  5
805
330
9
100
AcDbSymbolTableRecord
100
AcDbRegAppTableRecord
  2
ACAD_EXEMPT_FROM_CAD_STANDARDS
 70
     0
  0
ENDTAB
  0
TABLE
  2
DIMSTYLE
  5
A
330
0
100
AcDbSymbolTable
 70
     1
100
AcDbDimStyleTable
 71
     1
340
27
  0
DIMSTYLE
105
27
330
A
100
AcDbSymbolTableRecord
100
AcDbDimStyleTableRecord
  2
Standard
 70
     0
 41
2.5
 42
0.625
 43
3.75
 44
1.25
 73
     0
 74
     0
 77
     1
140
2.5
141
2.5
143
0.03937007874016
146
0.75
147
0.625
171
     3
172
     1
271
     2
272
     2
274
     3
283
     0
284
     8
340
11
  0
ENDTAB
  0
TABLE
  2
BLOCK_RECORD
  5
1
330
0
100
AcDbSymbolTable
 70
     1
  0
BLOCK_RECORD
  5
1F
102
{ACAD_XDICTIONARY
360
5E2
102
}
330
1
100
AcDbSymbolTableRecord
100
AcDbBlockTableRecord
  2
*Model_Space
340
22
  0
BLOCK_RECORD
  5
1B
330
1
100
AcDbSymbolTableRecord
100
AcDbBlockTableRecord
  2
*Paper_Space
340
1E
  0
BLOCK_RECORD
  5
23
330
1
100
AcDbSymbolTableRecord
100
AcDbBlockTableRecord
  2
*Paper_Space0
340
334
  0
ENDTAB
  0
ENDSEC
  0
SECTION
  2
BLOCKS
  0
BLOCK
  5
20
330
1F
100
AcDbEntity
  8
0
100
AcDbBlockBegin
  2
*Model_Space
 70
     0
 10
0.0
 20
0.0
 30
0.0
  3
*Model_Space
  1

  0
ENDBLK
  5
21
330
1F
100
AcDbEntity
  8
0
100
AcDbBlockEnd
  0
BLOCK
  5
1C
330
1B
100
AcDbEntity
 67
     1
  8
0
100
AcDbBlockBegin
  2
*Paper_Space
 70
     0
 10
0.0
 20
0.0
 30
0.0
  3
*Paper_Space
  1

  0
ENDBLK
  5
1D
330
1B
100
AcDbEntity
 67
     1
  8
0
100
AcDbBlockEnd
  0
BLOCK
  5
24
330
23
100
AcDbEntity
 67
     1
  8
0
100
AcDbBlockBegin
  2
*Paper_Space0
 70
     0
 10
0.0
 20
0.0
 30
0.0
  3
*Paper_Space0
  1

  0
ENDBLK
  5
25
330
23
100
AcDbEntity
 67
     1
  8
0
100
AcDbBlockEnd
  0
ENDSEC
  0
SECTION
  2
ENTITIES
  0
LINE
  5
596
102
{ACAD_REACTORS
330
8B8
102
}
330
1F
100
AcDbEntity
  8
実線
100
AcDbLine
 10
394.6489400499635
 20
189.0781460986214
 30
0.0
 11
394.6489400499635
 21
167.3961987802914
 31
0.0
  0
LINE
  5
597
102
{ACAD_REACTORS
330
8B8
102
}
330
1F
100
AcDbEntity
  8
実線
100
AcDbLine
 10
458.1489400499634
 20
184.4281460986213
 30
0.0
 11
458.1489400499634
 21
189.0781460986214
 31
0.0
  0
LINE
  5
598
102
{ACAD_REACTORS
330
8B8
102
}
330
1F
100
AcDbEntity
  8
実線
100
AcDbLine
 10
387.6489400499634
 20
195.6781460986213
 30
0.0
 11
465.1489400499634
 21
195.6781460986213
 31
0.0
  0
LINE
  5
599
102
{ACAD_REACTORS
330
8B8
102
}
330
1F
100
AcDbEntity
  8
実線
100
AcDbLine
 10
387.6489400499634
 20
195.6781460986213
 30
0.0
 11
387.6489400499634
 21
192.1781460986214
 31
0.0
  0
LINE
  5
59A
102
{ACAD_REACTORS
330
8B8
102
}
330
1F
100
AcDbEntity
  8
実線
100
AcDbLine
 10
465.1489400499634
 20
192.1781460986214
 30
0.0
 11
465.1489400499634
 21
195.6781460986213
 31
0.0
  0
LINE
  5
59B
102
{ACAD_REACTORS
330
8B8
102
}
330
1F
100
AcDbEntity
  8
実線
100
AcDbLine
 10
387.6489400499634
 20
192.1781460986214
 30
0.0
 11
465.1489400499634
 21
192.1781460986214
 31
0.0
  0
LINE
  5
59C
102
{ACAD_REACTORS
330
8B8
102
}
330
1F
100
AcDbEntity
  8
実線
100
AcDbLine
 10
394.6489400499635
 20
189.0781460986214
 30
0.0
 11
458.1489400499634
 21
189.0781460986214
 31
0.0
  0
LINE
  5
59D
102
{ACAD_REACTORS
330
8B8
102
}
330
1F
100
AcDbEntity
  8
実線
100
AcDbLine
 10
458.1489400499634
 20
189.0781460986214
 30
0.0
 11
465.1489400499634
 21
192.1781460986214
 31
0.0
  0
LINE
  5
59E
102
{ACAD_REACTORS
330
8B8
102
}
330
1F
100
AcDbEntity
  8
実線
100
AcDbLine
 10
387.6489400499634
 20
192.1781460986214
 30
0.0
 11
394.6489400499635
 21
189.0781460986214
 31
0.0
  0
LINE
  5
59F
102
{ACAD_REACTORS
330
8B8
102
}
330
1F
100
AcDbEntity
  8
実線
100
AcDbLine
 10
458.1489400499634
 20
32.27814609862139
 30
0.0
 11
458.1489400499634
 21
53.96009341696379
 31
0.0
  0
LINE
  5
5A0
102
{ACAD_REACTORS
330
8B8
102
}
330
1F
100
AcDbEntity
  8
実線
100
AcDbLine
 10
394.6489400499635
 20
53.96009341695236
 30
0.0
 11
394.6489400499635
 21
32.27814609862139
 31
0.0
  0
LINE
  5
5A1
102
{ACAD_REACTORS
330
8B8
102
}
330
1F
100
AcDbEntity
  8
実線
100
AcDbLine
 10
458.1489400499634
 20
32.27814609862139
 30
0.0
 11
394.6489400499635
 21
32.27814609862139
 31
0.0
  0
LINE
  5
5A2
102
{ACAD_REACTORS
330
8B8
102
}
330
1F
100
AcDbEntity
  8
実線
100
AcDbLine
 10
394.6489400499635
 20
32.27814609862139
 30
0.0
 11
387.6489400499634
 21
29.17814609862137
 31
0.0
  0
LINE
  5
5A3
102
{ACAD_REACTORS
330
8B8
102
}
330
1F
100
AcDbEntity
  8
実線
100
AcDbLine
 10
465.1489400499634
 20
29.17814609862137
 30
0.0
 11
458.1489400499634
 21
32.27814609862139
 31
0.0
  0
LINE
  5
5A4
102
{ACAD_REACTORS
330
8B8
102
}
330
1F
100
AcDbEntity
  8
実線
100
AcDbLine
 10
465.1489400499634
 20
25.67814609862137
 30
0.0
 11
387.6489400499634
 21
25.67814609862137
 31
0.0
  0
LINE
  5
5A5
102
{ACAD_REACTORS
330
8B8
102
}
330
1F
100
AcDbEntity
  8
実線
100
AcDbLine
 10
465.1489400499634
 20
29.17814609862137
 30
0.0
 11
387.6489400499634
 21
29.17814609862137
 31
0.0
  0
LINE
  5
5A6
102
{ACAD_REACTORS
330
8B8
102
}
330
1F
100
AcDbEntity
  8
実線
100
AcDbLine
 10
465.1489400499634
 20
25.67814609862137
 30
0.0
 11
465.1489400499634
 21
29.17814609862137
 31
0.0
  0
LINE
  5
5A7
102
{ACAD_REACTORS
330
8B8
102
}
330
1F
100
AcDbEntity
  8
実線
100
AcDbLine
 10
387.6489400499634
 20
29.17814609862137
 30
0.0
 11
387.6489400499634
 21
25.67814609862137
 31
0.0
  0
LINE
  5
5A8
102
{ACAD_REACTORS
330
8B8
102
}
330
1F
100
AcDbEntity
  8
実線
100
AcDbLine
 10
347.9989400499635
 20
78.92814609862137
 30
0.0
 11
369.6808873682899
 21
78.92814609862137
 31
0.0
  0
LINE
  5
5A9
102
{ACAD_REACTORS
330
8B8
102
}
330
1F
100
AcDbEntity
  8
実線
100
AcDbLine
 10
369.6808873682892
 20
142.4281460986214
 30
0.0
 11
347.9989400499635
 21
142.4281460986214
 31
0.0
  0
LINE
  5
5AA
102
{ACAD_REACTORS
330
8B8
102
}
330
1F
100
AcDbEntity
  8
実線
100
AcDbLine
 10
341.3989400499635
 20
71.92814609862137
 30
0.0
 11
341.3989400499635
 21
149.4281460986213
 31
0.0
  0
LINE
  5
5AB
102
{ACAD_REACTORS
330
8B8
102
}
330
1F
100
AcDbEntity
  8
実線
100
AcDbLine
 10
341.3989400499635
 20
71.92814609862137
 30
0.0
 11
344.8989400499635
 21
71.92814609862137
 31
0.0
  0
LINE
  5
5AC
102
{ACAD_REACTORS
330
8B8
102
}
330
1F
100
AcDbEntity
  8
実線
100
AcDbLine
 10
344.8989400499635
 20
149.4281460986213
 30
0.0
 11
341.3989400499635
 21
149.4281460986213
 31
0.0
  0
LINE
  5
5AD
102
{ACAD_REACTORS
330
8B8
102
}
330
1F
100
AcDbEntity
  8
実線
100
AcDbLine
 10
344.8989400499635
 20
71.92814609862137
 30
0.0
 11
344.8989400499635
 21
149.4281460986213
 31
0.0
  0
LINE
  5
5AE
102
{ACAD_REACTORS
330
8B8
102
}
330
1F
100
AcDbEntity
  8
実線
100
AcDbLine
 10
347.9989400499635
 20
78.92814609862137
 30
0.0
 11
347.9989400499635
 21
142.4281460986214
 31
0.0
  0
LINE
  5
5AF
102
{ACAD_REACTORS
330
8B8
102
}
330
1F
100
AcDbEntity
  8
実線
100
AcDbLine
 10
347.9989400499635
 20
142.4281460986214
 30
0.0
 11
344.8989400499635
 21
149.4281460986213
 31
0.0
  0
LINE
  5
5B0
102
{ACAD_REACTORS
330
8B8
102
}
330
1F
100
AcDbEntity
  8
実線
100
AcDbLine
 10
344.8989400499635
 20
71.92814609862137
 30
0.0
 11
347.9989400499635
 21
78.92814609862137
 31
0.0
  0
LINE
  5
5B1
102
{ACAD_REACTORS
330
8B8
102
}
330
1F
100
AcDbEntity
  8
実線
100
AcDbLine
 10
504.7989400499634
 20
142.4281460986214
 30
0.0
 11
483.1169927316174
 21
142.4281460986214
 31
0.0
  0
LINE
  5
5B2
102
{ACAD_REACTORS
330
8B8
102
}
330
1F
100
AcDbEntity
  8
実線
100
AcDbLine
 10
483.1169927316169
 20
78.92814609862137
 30
0.0
 11
504.7989400499634
 21
78.92814609862137
 31
0.0
  0
LINE
  5
5B3
102
{ACAD_REACTORS
330
8B8
102
}
330
1F
100
AcDbEntity
  8
実線
100
AcDbLine
 10
511.3989400499634
 20
149.4281460986213
 30
0.0
 11
511.3989400499634
 21
71.92814609862137
 31
0.0
  0
LINE
  5
5B4
102
{ACAD_REACTORS
330
8B8
102
}
330
1F
100
AcDbEntity
  8
実線
100
AcDbLine
 10
511.3989400499634
 20
149.4281460986213
 30
0.0
 11
507.8989400499635
 21
149.4281460986213
 31
0.0
  0
LINE
  5
5B5
102
{ACAD_REACTORS
330
8B8
102
}
330
1F
100
AcDbEntity
  8
実線
100
AcDbLine
 10
507.8989400499635
 20
71.92814609862137
 30
0.0
 11
511.3989400499634
 21
71.92814609862137
 31
0.0
  0
LINE
  5
5B6
102
{ACAD_REACTORS
330
8B8
102
}
330
1F
100
AcDbEntity
  8
実線
100
AcDbLine
 10
507.8989400499635
 20
149.4281460986213
 30
0.0
 11
507.8989400499635
 21
71.92814609862137
 31
0.0
  0
LINE
  5
5B7
102
{ACAD_REACTORS
330
8B8
102
}
330
1F
100
AcDbEntity
  8
実線
100
AcDbLine
 10
504.7989400499634
 20
142.4281460986214
 30
0.0
 11
504.7989400499634
 21
78.92814609862137
 31
0.0
  0
LINE
  5
5B8
102
{ACAD_REACTORS
330
8B8
102
}
330
1F
100
AcDbEntity
  8
実線
100
AcDbLine
 10
504.7989400499634
 20
78.92814609862137
 30
0.0
 11
507.8989400499635
 21
71.92814609862137
 31
0.0
  0
LINE
  5
5B9
102
{ACAD_REACTORS
330
8B8
102
}
330
1F
100
AcDbEntity
  8
実線
100
AcDbLine
 10
507.8989400499635
 20
149.4281460986213
 30
0.0
 11
504.7989400499634
 21
142.4281460986214
 31
0.0
  0
CIRCLE
  5
5BA
102
{ACAD_REACTORS
330
8B8
102
}
330
1F
100
AcDbEntity
  8
実線
100
AcDbCircle
 10
426.3989400499533
 20
110.6781460986221
 30
0.0
 40
11.0
  0
LINE
  5
5BB
102
{ACAD_REACTORS
330
8B8
102
}
330
1F
100
AcDbEntity
  8
実線
100
AcDbLine
 10
387.7666625898891
 20
166.9793889813306
 30
0.0
 11
389.7354534454411
 21
171.3832632634866
 31
0.0
  0
LINE
  5
5BC
102
{ACAD_REACTORS
330
8B8
102
}
330
1F
100
AcDbEntity
  8
実線
100
AcDbLine
 10
365.6938228850983
 20
147.3416327031437
 30
0.0
 11
370.097697167254
 21
149.3104235586956
 31
0.0
  0
LINE
  5
5BD
102
{ACAD_REACTORS
330
8B8
102
}
330
1F
100
AcDbEntity
  8
実線
100
AcDbLine
 10
367.8426276366892
 20
152.5309966138367
 30
0.0
 11
364.1735433055473
 21
148.8619122826949
 31
0.0
  0
LINE
  5
5BE
102
{ACAD_REACTORS
330
8B8
102
}
330
1F
100
AcDbEntity
  8
実線
100
AcDbLine
 10
369.0948409081451
 20
150.7426507261908
 30
0.0
 11
365.6938228850983
 21
147.3416327031437
 31
0.0
  0
LINE
  5
5BF
102
{ACAD_REACTORS
330
8B8
102
}
330
1F
100
AcDbEntity
  8
実線
100
AcDbLine
 10
364.1735433055473
 20
148.8619122826949
 30
0.0
 11
365.6938228850983
 21
147.3416327031437
 31
0.0
  0
LINE
  5
5C0
102
{ACAD_REACTORS
330
8B8
102
}
330
1F
100
AcDbEntity
  8
実線
100
AcDbLine
 10
389.7354534454411
 20
171.3832632634866
 30
0.0
 11
388.2151738658899
 21
172.9035428430374
 31
0.0
  0
LINE
  5
5C1
102
{ACAD_REACTORS
330
8B8
102
}
330
1F
100
AcDbEntity
  8
実線
100
AcDbLine
 10
388.2151738658899
 20
172.9035428430374
 30
0.0
 11
384.5460895347478
 21
169.2344585118954
 31
0.0
  0
LINE
  5
5C2
102
{ACAD_REACTORS
330
8B8
102
}
330
1F
100
AcDbEntity
  8
実線
100
AcDbLine
 10
389.7354534454411
 20
171.3832632634866
 30
0.0
 11
386.334435422394
 21
167.9822452404394
 31
0.0
  0
LINE
  5
5C3
102
{ACAD_REACTORS
330
8B8
102
}
330
1F
100
AcDbEntity
  8
実線
100
AcDbLine
 10
500.1489400499634
 20
142.4281460986214
 30
0.0
 11
515.6347444344652
 21
157.9139504831232
 31
0.0
  0
LINE
  5
5C4
102
{ACAD_REACTORS
330
8B8
102
}
330
1F
100
AcDbEntity
  8
実線
100
AcDbLine
 10
515.6347444344652
 20
157.9139504831232
 30
0.0
 11
473.6347444344652
 21
199.9139504831232
 31
0.0
  0
LINE
  5
5C5
102
{ACAD_REACTORS
330
8B8
102
}
330
1F
100
AcDbEntity
  8
実線
100
AcDbLine
 10
482.9674825448871
 20
167.2466885935451
 30
0.0
 11
494.6347444344652
 21
178.9139504831232
 31
0.0
  0
LINE
  5
5C6
102
{ACAD_REACTORS
330
8B8
102
}
330
1F
100
AcDbEntity
  8
実線
100
AcDbLine
 10
446.2829222434808
 20
172.5621282921385
 30
0.0
 11
473.6347444344652
 21
199.9139504831232
 31
0.0
  0
LINE
  5
5C7
102
{ACAD_REACTORS
330
8B8
102
}
330
1F
100
AcDbEntity
  8
実線
100
AcDbLine
 10
496.7560647777401
 20
176.7926301398484
 30
0.0
 11
506.6555597143343
 21
186.6921250764429
 31
0.0
  0
LINE
  5
5C8
102
{ACAD_REACTORS
330
8B8
102
}
330
1F
100
AcDbEntity
  8
実線
100
AcDbLine
 10
502.4129190277849
 20
190.9347657629923
 30
0.0
 11
492.5134240911907
 21
181.0352708263979
 31
0.0
  0
LINE
  5
5C9
102
{ACAD_REACTORS
330
8B8
102
}
330
1F
100
AcDbEntity
  8
実線
100
AcDbLine
 10
508.0697732769922
 20
185.2779115137847
 30
0.0
 11
510.191093620552
 21
187.3992318573444
 31
0.0
  0
LINE
  5
5CA
102
{ACAD_REACTORS
330
8B8
102
}
330
1F
100
AcDbEntity
  8
実線
100
AcDbLine
 10
503.1200258086865
 20
194.4702996692099
 30
0.0
 11
500.9987054651267
 21
192.3489793256503
 31
0.0
  0
LINE
  5
5CB
102
{ACAD_REACTORS
330
8B8
102
}
330
1F
100
AcDbEntity
  8
実線
100
AcDbLine
 10
503.1200258086865
 20
194.4702996692099
 30
0.0
 11
510.191093620552
 21
187.3992318573444
 31
0.0
  0
LINE
  5
5CC
102
{ACAD_REACTORS
330
8B8
102
}
330
1F
100
AcDbEntity
  8
実線
100
AcDbLine
 10
500.9987054651267
 20
192.3489793256503
 30
0.0
 11
508.0697732769922
 21
185.2779115137847
 31
0.0
  0
LINE
  5
5CD
102
{ACAD_REACTORS
330
8B8
102
}
330
1F
100
AcDbEntity
  8
実線
100
AcDbLine
 10
462.1508918359377
 20
164.9625632318347
 30
0.0
 11
468.8443251849975
 21
169.6493557193507
 31
0.0
  0
ARC
  5
5CE
102
{ACAD_REACTORS
330
8B8
102
}
330
1F
100
AcDbEntity
  8
実線
100
AcDbCircle
 10
474.5800895485081
 20
161.4578352764609
 30
0.0
 40
10.0
100
AcDbArc
 50
46.50414198205946
 51
124.9999999999974
  0
ARC
  5
5CF
102
{ACAD_REACTORS
330
8B8
102
}
330
1F
100
AcDbEntity
  8
実線
100
AcDbCircle
 10
426.3989400499635
 20
110.6781460986213
 30
0.0
 40
79.99999999999343
100
AcDbArc
 50
43.49585801794513
 51
46.50414198206407
  0
ARC
  5
5D0
102
{ACAD_REACTORS
330
8B8
102
}
330
1F
100
AcDbEntity
  8
実線
100
AcDbCircle
 10
477.178629227792
 20
158.8592955971766
 30
0.0
 40
10.00000000000038
100
AcDbArc
 50
325.0000000000026
 51
43.49585801794513
  0
LINE
  5
5D1
102
{ACAD_REACTORS
330
8B8
102
}
330
1F
100
AcDbEntity
  8
実線
100
AcDbLine
 10
485.3701496706825
 20
153.123531233666
 30
0.0
 11
480.6833571831661
 21
146.4300978846062
 31
0.0
  0
ARC
  5
5D2
102
{ACAD_REACTORS
330
8B8
102
}
330
1F
100
AcDbEntity
  8
実線
100
AcDbCircle
 10
474.5800895485081
 20
59.89845692078318
 30
0.0
 40
9.999999999999591
100
AcDbArc
 50
235.0000000000026
 51
313.4958580179406
  0
LINE
  5
5D3
102
{ACAD_REACTORS
330
8B8
102
}
330
1F
100
AcDbEntity
  8
実線
100
AcDbLine
 10
468.8443251849978
 20
51.70693647789358
 30
0.0
 11
462.150891835938
 21
56.39372896540931
 31
0.0
  0
ARC
  5
5D4
102
{ACAD_REACTORS
330
8B8
102
}
330
1F
100
AcDbEntity
  8
実線
100
AcDbCircle
 10
426.3989400499635
 20
110.6781460986221
 30
0.0
 40
79.99999999999268
100
AcDbArc
 50
313.4958580179359
 51
316.5041419820549
  0
ARC
  5
5D5
102
{ACAD_REACTORS
330
8B8
102
}
330
1F
100
AcDbEntity
  8
実線
100
AcDbCircle
 10
477.178629227792
 20
62.49699660006729
 30
0.0
 40
9.999999999999982
100
AcDbArc
 50
316.5041419820549
 51
34.99999999999737
  0
LINE
  5
5D6
102
{ACAD_REACTORS
330
8B8
102
}
330
1F
100
AcDbEntity
  8
実線
100
AcDbLine
 10
480.6833571831661
 20
74.92619431263756
 30
0.0
 11
485.370149670682
 21
68.23276096357779
 31
0.0
  0
LINE
  5
5D7
102
{ACAD_REACTORS
330
8B8
102
}
330
1F
100
AcDbEntity
  8
実線
100
AcDbLine
 10
367.4277304292246
 20
68.23276096357779
 30
0.0
 11
372.1145229167406
 21
74.92619431263756
 31
0.0
  0
ARC
  5
5D8
102
{ACAD_REACTORS
330
8B8
102
}
330
1F
100
AcDbEntity
  8
実線
100
AcDbCircle
 10
375.6192508721146
 20
62.49699660006729
 30
0.0
 40
10.00000000000002
100
AcDbArc
 50
145.0000000000026
 51
223.4958580179451
  0
ARC
  5
5D9
102
{ACAD_REACTORS
330
8B8
102
}
330
1F
100
AcDbEntity
  8
実線
100
AcDbCircle
 10
426.398940049953
 20
110.6781460986218
 30
0.0
 40
79.9999999999998
100
AcDbArc
 50
223.4958580179451
 51
226.5041419820594
  0
ARC
  5
5DA
102
{ACAD_REACTORS
330
8B8
102
}
330
1F
100
AcDbEntity
  8
実線
100
AcDbCircle
 10
378.2177905513987
 20
59.89845692078318
 30
0.0
 40
9.999999999999996
100
AcDbArc
 50
226.5041419820594
 51
304.9999999999974
  0
LINE
  5
5DB
102
{ACAD_REACTORS
330
8B8
102
}
330
1F
100
AcDbEntity
  8
実線
100
AcDbLine
 10
390.6469882639689
 20
56.39372896540919
 30
0.0
 11
383.9535549149091
 21
51.70693647789329
 31
0.0
  0
LINE
  5
5DC
102
{ACAD_REACTORS
330
8B8
102
}
330
1F
100
AcDbEntity
  8
実線
100
AcDbLine
 10
383.9535549149091
 20
169.6493557193507
 30
0.0
 11
390.6469882639689
 21
164.9625632318347
 31
0.0
  0
ARC
  5
5DD
102
{ACAD_REACTORS
330
8B8
102
}
330
1F
100
AcDbEntity
  8
実線
100
AcDbCircle
 10
378.2177905513987
 20
161.4578352764609
 30
0.0
 40
9.999999999999976
100
AcDbArc
 50
55.00000000000264
 51
133.4958580179405
  0
ARC
  5
5DE
102
{ACAD_REACTORS
330
8B8
102
}
330
1F
100
AcDbEntity
  8
実線
100
AcDbCircle
 10
426.398940049953
 20
110.678146098622
 30
0.0
 40
79.99999999999984
100
AcDbArc
 50
133.4958580179405
 51
136.5041419820548
  0
ARC
  5
5DF
102
{ACAD_REACTORS
330
8B8
102
}
330
1F
100
AcDbEntity
  8
実線
100
AcDbCircle
 10
375.6192508721146
 20
158.8592955971766
 30
0.0
 40
9.999999999999991
100
AcDbArc
 50
136.5041419820548
 51
214.9999999999974
  0
LINE
  5
5E0
102
{ACAD_REACTORS
330
8B8
102
}
330
1F
100
AcDbEntity
  8
実線
100
AcDbLine
 10
372.1145229167406
 20
146.4300978846065
 30
0.0
 11
367.4277304292246
 21
153.1235312336661
 31
0.0
  0
CIRCLE
  5
5E1
102
{ACAD_REACTORS
330
8B8
102
}
330
1F
100
AcDbEntity
  8
実線
100
AcDbCircle
 10
426.3989400499533
 20
110.6781460986221
 30
0.0
 40
65.0
  0
LINE
  5
5E4
102
{ACAD_REACTORS
330
8B9
102
}
330
1F
100
AcDbEntity
  8
実線
100
AcDbLine
 10
458.1489400499634
 20
1232.278146098622
 30
0.0
 11
458.1489400499634
 21
1253.960093416964
 31
0.0
  0
LINE
  5
5E5
102
{ACAD_REACTORS
330
8B9
102
}
330
1F
100
AcDbEntity
  8
実線
100
AcDbLine
 10
394.6489400499635
 20
1253.960093416953
 30
0.0
 11
394.6489400499635
 21
1232.278146098622
 31
0.0
  0
LINE
  5
5E6
102
{ACAD_REACTORS
330
8B9
102
}
330
1F
100
AcDbEntity
  8
実線
100
AcDbLine
 10
465.1489400499634
 20
1225.678146098622
 30
0.0
 11
465.1489400499634
 21
1229.178146098622
 31
0.0
  0
LINE
  5
5E7
102
{ACAD_REACTORS
330
8B9
102
}
330
1F
100
AcDbEntity
  8
実線
100
AcDbLine
 10
387.6489400499634
 20
1229.178146098622
 30
0.0
 11
387.6489400499634
 21
1225.678146098622
 31
0.0
  0
LINE
  5
5E8
102
{ACAD_REACTORS
330
8B9
102
}
330
1F
100
AcDbEntity
  8
実線
100
AcDbLine
 10
387.6489400499634
 20
1225.678146098622
 30
0.0
 11
465.1489400499634
 21
1225.678146098622
 31
0.0
  0
LINE
  5
5E9
102
{ACAD_REACTORS
330
8B9
102
}
330
1F
100
AcDbEntity
  8
実線
100
AcDbLine
 10
394.6489400499635
 20
1232.278146098622
 30
0.0
 11
387.6489400499634
 21
1229.178146098622
 31
0.0
  0
LINE
  5
5EA
102
{ACAD_REACTORS
330
8B9
102
}
330
1F
100
AcDbEntity
  8
実線
100
AcDbLine
 10
465.1489400499634
 20
1229.178146098622
 30
0.0
 11
458.1489400499634
 21
1232.278146098622
 31
0.0
  0
LINE
  5
5EB
102
{ACAD_REACTORS
330
8B9
102
}
330
1F
100
AcDbEntity
  8
実線
100
AcDbLine
 10
387.6489400499634
 20
1229.178146098622
 30
0.0
 11
465.1489400499634
 21
1229.178146098622
 31
0.0
  0
LINE
  5
5EC
102
{ACAD_REACTORS
330
8B9
102
}
330
1F
100
AcDbEntity
  8
実線
100
AcDbLine
 10
394.6489400499635
 20
1232.278146098622
 30
0.0
 11
458.1489400499634
 21
1232.278146098622
 31
0.0
  0
LINE
  5
5ED
102
{ACAD_REACTORS
330
8B9
102
}
330
1F
100
AcDbEntity
  8
実線
100
AcDbLine
 10
394.6489400499635
 20
1389.078146098622
 30
0.0
 11
394.6489400499635
 21
1367.396198780292
 31
0.0
  0
LINE
  5
5EE
102
{ACAD_REACTORS
330
8B9
102
}
330
1F
100
AcDbEntity
  8
実線
100
AcDbLine
 10
458.1489400499634
 20
1367.39619878028
 30
0.0
 11
458.1489400499634
 21
1389.078146098622
 31
0.0
  0
LINE
  5
5EF
102
{ACAD_REACTORS
330
8B9
102
}
330
1F
100
AcDbEntity
  8
実線
100
AcDbLine
 10
387.6489400499634
 20
1395.678146098622
 30
0.0
 11
387.6489400499634
 21
1392.178146098622
 31
0.0
  0
LINE
  5
5F0
102
{ACAD_REACTORS
330
8B9
102
}
330
1F
100
AcDbEntity
  8
実線
100
AcDbLine
 10
465.1489400499634
 20
1392.178146098622
 30
0.0
 11
465.1489400499634
 21
1395.678146098622
 31
0.0
  0
LINE
  5
5F1
102
{ACAD_REACTORS
330
8B9
102
}
330
1F
100
AcDbEntity
  8
実線
100
AcDbLine
 10
465.1489400499634
 20
1395.678146098622
 30
0.0
 11
387.6489400499634
 21
1395.678146098622
 31
0.0
  0
LINE
  5
5F2
102
{ACAD_REACTORS
330
8B9
102
}
330
1F
100
AcDbEntity
  8
実線
100
AcDbLine
 10
458.1489400499634
 20
1389.078146098622
 30
0.0
 11
465.1489400499634
 21
1392.178146098622
 31
0.0
  0
LINE
  5
5F3
102
{ACAD_REACTORS
330
8B9
102
}
330
1F
100
AcDbEntity
  8
実線
100
AcDbLine
 10
387.6489400499634
 20
1392.178146098622
 30
0.0
 11
394.6489400499635
 21
1389.078146098622
 31
0.0
  0
LINE
  5
5F4
102
{ACAD_REACTORS
330
8B9
102
}
330
1F
100
AcDbEntity
  8
実線
100
AcDbLine
 10
465.1489400499634
 20
1392.178146098622
 30
0.0
 11
387.6489400499634
 21
1392.178146098622
 31
0.0
  0
LINE
  5
5F5
102
{ACAD_REACTORS
330
8B9
102
}
330
1F
100
AcDbEntity
  8
実線
100
AcDbLine
 10
458.1489400499634
 20
1389.078146098622
 30
0.0
 11
394.6489400499635
 21
1389.078146098622
 31
0.0
  0
LINE
  5
5F6
102
{ACAD_REACTORS
330
8B9
102
}
330
1F
100
AcDbEntity
  8
実線
100
AcDbLine
 10
347.9989400499635
 20
1278.928146098622
 30
0.0
 11
369.6808873682899
 21
1278.928146098622
 31
0.0
  0
LINE
  5
5F7
102
{ACAD_REACTORS
330
8B9
102
}
330
1F
100
AcDbEntity
  8
実線
100
AcDbLine
 10
369.6808873682892
 20
1342.428146098622
 30
0.0
 11
347.9989400499635
 21
1342.428146098622
 31
0.0
  0
LINE
  5
5F8
102
{ACAD_REACTORS
330
8B9
102
}
330
1F
100
AcDbEntity
  8
実線
100
AcDbLine
 10
347.9989400499635
 20
1342.428146098622
 30
0.0
 11
344.8989400499635
 21
1349.428146098622
 31
0.0
  0
LINE
  5
5F9
102
{ACAD_REACTORS
330
8B9
102
}
330
1F
100
AcDbEntity
  8
実線
100
AcDbLine
 10
344.8989400499635
 20
1271.928146098622
 30
0.0
 11
347.9989400499635
 21
1278.928146098622
 31
0.0
  0
LINE
  5
5FA
102
{ACAD_REACTORS
330
8B9
102
}
330
1F
100
AcDbEntity
  8
実線
100
AcDbLine
 10
347.9989400499635
 20
1342.428146098622
 30
0.0
 11
347.9989400499635
 21
1278.928146098622
 31
0.0
  0
LINE
  5
5FB
102
{ACAD_REACTORS
330
8B9
102
}
330
1F
100
AcDbEntity
  8
実線
100
AcDbLine
 10
341.3989400499635
 20
1271.928146098622
 30
0.0
 11
344.8989400499635
 21
1271.928146098622
 31
0.0
  0
LINE
  5
5FC
102
{ACAD_REACTORS
330
8B9
102
}
330
1F
100
AcDbEntity
  8
実線
100
AcDbLine
 10
344.8989400499635
 20
1349.428146098622
 30
0.0
 11
341.3989400499635
 21
1349.428146098622
 31
0.0
  0
LINE
  5
5FD
102
{ACAD_REACTORS
330
8B9
102
}
330
1F
100
AcDbEntity
  8
実線
100
AcDbLine
 10
341.3989400499635
 20
1349.428146098622
 30
0.0
 11
341.3989400499635
 21
1271.928146098622
 31
0.0
  0
LINE
  5
5FE
102
{ACAD_REACTORS
330
8B9
102
}
330
1F
100
AcDbEntity
  8
実線
100
AcDbLine
 10
344.8989400499635
 20
1349.428146098622
 30
0.0
 11
344.8989400499635
 21
1271.928146098622
 31
0.0
  0
LINE
  5
5FF
102
{ACAD_REACTORS
330
8B9
102
}
330
1F
100
AcDbEntity
  8
実線
100
AcDbLine
 10
504.7989400499634
 20
1342.428146098622
 30
0.0
 11
483.1169927316174
 21
1342.428146098622
 31
0.0
  0
LINE
  5
600
102
{ACAD_REACTORS
330
8B9
102
}
330
1F
100
AcDbEntity
  8
実線
100
AcDbLine
 10
500.1489400499634
 20
1278.928146098622
 30
0.0
 11
504.7989400499637
 21
1278.928146098622
 31
0.0
  0
LINE
  5
601
102
{ACAD_REACTORS
330
8B9
102
}
330
1F
100
AcDbEntity
  8
実線
100
AcDbLine
 10
504.7989400499634
 20
1278.928146098622
 30
0.0
 11
507.8989400499635
 21
1271.928146098622
 31
0.0
  0
LINE
  5
602
102
{ACAD_REACTORS
330
8B9
102
}
330
1F
100
AcDbEntity
  8
実線
100
AcDbLine
 10
507.8989400499635
 20
1349.428146098622
 30
0.0
 11
504.7989400499634
 21
1342.428146098622
 31
0.0
  0
LINE
  5
603
102
{ACAD_REACTORS
330
8B9
102
}
330
1F
100
AcDbEntity
  8
実線
100
AcDbLine
 10
504.7989400499634
 20
1278.928146098622
 30
0.0
 11
504.7989400499634
 21
1342.428146098622
 31
0.0
  0
LINE
  5
604
102
{ACAD_REACTORS
330
8B9
102
}
330
1F
100
AcDbEntity
  8
実線
100
AcDbLine
 10
511.3989400499634
 20
1349.428146098622
 30
0.0
 11
507.8989400499635
 21
1349.428146098622
 31
0.0
  0
LINE
  5
605
102
{ACAD_REACTORS
330
8B9
102
}
330
1F
100
AcDbEntity
  8
実線
100
AcDbLine
 10
507.8989400499635
 20
1271.928146098622
 30
0.0
 11
511.3989400499634
 21
1271.928146098622
 31
0.0
  0
LINE
  5
606
102
{ACAD_REACTORS
330
8B9
102
}
330
1F
100
AcDbEntity
  8
実線
100
AcDbLine
 10
511.3989400499634
 20
1271.928146098622
 30
0.0
 11
511.3989400499634
 21
1349.428146098622
 31
0.0
  0
LINE
  5
607
102
{ACAD_REACTORS
330
8B9
102
}
330
1F
100
AcDbEntity
  8
実線
100
AcDbLine
 10
507.8989400499635
 20
1271.928146098622
 30
0.0
 11
507.8989400499635
 21
1349.428146098622
 31
0.0
  0
CIRCLE
  5
608
102
{ACAD_REACTORS
330
8B9
102
}
330
1F
100
AcDbEntity
  8
実線
100
AcDbCircle
 10
426.3989400499533
 20
1310.678146098622
 30
0.0
 40
11.0
  0
CIRCLE
  5
609
102
{ACAD_REACTORS
330
8B9
102
}
330
1F
100
AcDbEntity
  8
実線
100
AcDbCircle
 10
426.3989400499533
 20
1310.678146098622
 30
0.0
 40
65.0
  0
LINE
  5
60A
102
{ACAD_REACTORS
330
8B9
102
}
330
1F
100
AcDbEntity
  8
実線
100
AcDbLine
 10
388.2151738658899
 20
1248.452749354205
 30
0.0
 11
389.7354534454411
 21
1249.973028933756
 31
0.0
  0
LINE
  5
60B
102
{ACAD_REACTORS
330
8B9
102
}
330
1F
100
AcDbEntity
  8
実線
100
AcDbLine
 10
365.6938228850983
 20
1274.014659494099
 30
0.0
 11
364.1735433055473
 21
1272.494379914548
 31
0.0
  0
LINE
  5
60C
102
{ACAD_REACTORS
330
8B9
102
}
330
1F
100
AcDbEntity
  8
実線
100
AcDbLine
 10
384.5460895347482
 20
1252.121833685347
 30
0.0
 11
388.2151738658899
 21
1248.452749354205
 31
0.0
  0
LINE
  5
60D
102
{ACAD_REACTORS
330
8B9
102
}
330
1F
100
AcDbEntity
  8
実線
100
AcDbLine
 10
364.1735433055473
 20
1272.494379914548
 30
0.0
 11
367.8426276366892
 21
1268.825295583406
 31
0.0
  0
LINE
  5
60E
102
{ACAD_REACTORS
330
8B9
102
}
330
1F
100
AcDbEntity
  8
実線
100
AcDbLine
 10
370.097697167254
 20
1272.045868638547
 30
0.0
 11
365.6938228850983
 21
1274.014659494099
 31
0.0
  0
LINE
  5
60F
102
{ACAD_REACTORS
330
8B9
102
}
330
1F
100
AcDbEntity
  8
実線
100
AcDbLine
 10
389.7354534454411
 20
1249.973028933756
 30
0.0
 11
387.7666625898891
 21
1254.376903215912
 31
0.0
  0
LINE
  5
610
102
{ACAD_REACTORS
330
8B9
102
}
330
1F
100
AcDbEntity
  8
実線
100
AcDbLine
 10
386.3344354223942
 20
1253.374046956803
 30
0.0
 11
389.7354534454411
 21
1249.973028933756
 31
0.0
  0
LINE
  5
611
102
{ACAD_REACTORS
330
8B9
102
}
330
1F
100
AcDbEntity
  8
実線
100
AcDbLine
 10
365.6938228850983
 20
1274.014659494099
 30
0.0
 11
369.0948409081451
 21
1270.613641471052
 31
0.0
  0
LINE
  5
612
102
{ACAD_REACTORS
330
8B9
102
}
330
1F
100
AcDbEntity
  8
実線
100
AcDbLine
 10
458.1489400499634
 20
1236.928146098621
 30
0.0
 11
473.6347444344652
 21
1221.44234171412
 31
0.0
  0
LINE
  5
613
102
{ACAD_REACTORS
330
8B9
102
}
330
1F
100
AcDbEntity
  8
実線
100
AcDbLine
 10
473.6347444344652
 20
1221.44234171412
 30
0.0
 11
515.6347444344651
 21
1263.44234171412
 31
0.0
  0
LINE
  5
614
102
{ACAD_REACTORS
330
8B9
102
}
330
1F
100
AcDbEntity
  8
実線
100
AcDbLine
 10
482.967482544887
 20
1254.109603603698
 30
0.0
 11
494.6347444344652
 21
1242.44234171412
 31
0.0
  0
LINE
  5
615
102
{ACAD_REACTORS
330
8B9
102
}
330
1F
100
AcDbEntity
  8
実線
100
AcDbLine
 10
488.2829222434749
 20
1290.79416390511
 30
0.0
 11
515.6347444344652
 21
1263.442341714119
 31
0.0
  0
LINE
  5
616
102
{ACAD_REACTORS
330
8B9
102
}
330
1F
100
AcDbEntity
  8
実線
100
AcDbLine
 10
492.5134240911907
 20
1240.321021370845
 30
0.0
 11
502.4129190277849
 21
1230.421526434251
 31
0.0
  0
LINE
  5
617
102
{ACAD_REACTORS
330
8B9
102
}
330
1F
100
AcDbEntity
  8
実線
100
AcDbLine
 10
506.6555597143343
 20
1234.6641671208
 30
0.0
 11
496.7560647777401
 21
1244.563662057395
 31
0.0
  0
LINE
  5
618
102
{ACAD_REACTORS
330
8B9
102
}
330
1F
100
AcDbEntity
  8
実線
100
AcDbLine
 10
508.0697732769922
 20
1236.078380683458
 30
0.0
 11
500.9987054651267
 21
1229.007312871593
 31
0.0
  0
LINE
  5
619
102
{ACAD_REACTORS
330
8B9
102
}
330
1F
100
AcDbEntity
  8
実線
100
AcDbLine
 10
510.191093620552
 20
1233.957060339899
 30
0.0
 11
503.1200258086865
 21
1226.885992528033
 31
0.0
  0
LINE
  5
61A
102
{ACAD_REACTORS
330
8B9
102
}
330
1F
100
AcDbEntity
  8
実線
100
AcDbLine
 10
500.9987054651267
 20
1229.007312871593
 30
0.0
 11
503.1200258086865
 21
1226.885992528033
 31
0.0
  0
LINE
  5
61B
102
{ACAD_REACTORS
330
8B9
102
}
330
1F
100
AcDbEntity
  8
実線
100
AcDbLine
 10
510.191093620552
 20
1233.957060339899
 30
0.0
 11
508.0697732769922
 21
1236.078380683458
 31
0.0
  0
LINE
  5
61C
102
{ACAD_REACTORS
330
8B9
102
}
330
1F
100
AcDbEntity
  8
実線
100
AcDbLine
 10
462.1508918359377
 20
1364.962563231834
 30
0.0
 11
468.8443251849975
 21
1369.649355719351
 31
0.0
  0
ARC
  5
61D
102
{ACAD_REACTORS
330
8B9
102
}
330
1F
100
AcDbEntity
  8
実線
100
AcDbCircle
 10
474.5800895485079
 20
1361.457835276461
 30
0.0
 40
10.0
100
AcDbArc
 50
46.50414198205946
 51
124.9999999999974
  0
ARC
  5
61E
102
{ACAD_REACTORS
330
8B9
102
}
330
1F
100
AcDbEntity
  8
実線
100
AcDbCircle
 10
426.3989400499635
 20
1310.678146098622
 30
0.0
 40
79.99999999999343
100
AcDbArc
 50
43.49585801794513
 51
46.50414198206407
  0
ARC
  5
61F
102
{ACAD_REACTORS
330
8B9
102
}
330
1F
100
AcDbEntity
  8
実線
100
AcDbCircle
 10
477.178629227792
 20
1358.859295597177
 30
0.0
 40
10.00000000000038
100
AcDbArc
 50
325.0000000000026
 51
43.49585801794513
  0
LINE
  5
620
102
{ACAD_REACTORS
330
8B9
102
}
330
1F
100
AcDbEntity
  8
実線
100
AcDbLine
 10
485.3701496706825
 20
1353.123531233666
 30
0.0
 11
480.6833571831661
 21
1346.430097884606
 31
0.0
  0
ARC
  5
621
102
{ACAD_REACTORS
330
8B9
102
}
330
1F
100
AcDbEntity
  8
実線
100
AcDbCircle
 10
474.5800895485081
 20
1259.898456920783
 30
0.0
 40
9.999999999999591
100
AcDbArc
 50
235.0000000000026
 51
313.4958580179406
  0
LINE
  5
622
102
{ACAD_REACTORS
330
8B9
102
}
330
1F
100
AcDbEntity
  8
実線
100
AcDbLine
 10
468.8443251849978
 20
1251.706936477894
 30
0.0
 11
462.150891835938
 21
1256.393728965409
 31
0.0
  0
ARC
  5
623
102
{ACAD_REACTORS
330
8B9
102
}
330
1F
100
AcDbEntity
  8
実線
100
AcDbCircle
 10
426.3989400499635
 20
1310.678146098623
 30
0.0
 40
79.99999999999268
100
AcDbArc
 50
313.4958580179359
 51
316.5041419820549
  0
ARC
  5
624
102
{ACAD_REACTORS
330
8B9
102
}
330
1F
100
AcDbEntity
  8
実線
100
AcDbCircle
 10
477.178629227792
 20
1262.496996600067
 30
0.0
 40
9.999999999999982
100
AcDbArc
 50
316.5041419820549
 51
34.99999999999737
  0
LINE
  5
625
102
{ACAD_REACTORS
330
8B9
102
}
330
1F
100
AcDbEntity
  8
実線
100
AcDbLine
 10
480.6833571831661
 20
1274.926194312637
 30
0.0
 11
485.370149670682
 21
1268.232760963578
 31
0.0
  0
LINE
  5
626
102
{ACAD_REACTORS
330
8B9
102
}
330
1F
100
AcDbEntity
  8
実線
100
AcDbLine
 10
367.4277304292246
 20
1268.232760963578
 30
0.0
 11
372.1145229167406
 21
1274.926194312637
 31
0.0
  0
ARC
  5
627
102
{ACAD_REACTORS
330
8B9
102
}
330
1F
100
AcDbEntity
  8
実線
100
AcDbCircle
 10
375.6192508721146
 20
1262.496996600067
 30
0.0
 40
10.00000000000002
100
AcDbArc
 50
145.0000000000026
 51
223.4958580179451
  0
ARC
  5
628
102
{ACAD_REACTORS
330
8B9
102
}
330
1F
100
AcDbEntity
  8
実線
100
AcDbCircle
 10
426.398940049953
 20
1310.678146098622
 30
0.0
 40
79.9999999999998
100
AcDbArc
 50
223.4958580179451
 51
226.5041419820594
  0
ARC
  5
629
102
{ACAD_REACTORS
330
8B9
102
}
330
1F
100
AcDbEntity
  8
実線
100
AcDbCircle
 10
378.2177905513987
 20
1259.898456920783
 30
0.0
 40
9.999999999999996
100
AcDbArc
 50
226.5041419820594
 51
304.9999999999974
  0
LINE
  5
62A
102
{ACAD_REACTORS
330
8B9
102
}
330
1F
100
AcDbEntity
  8
実線
100
AcDbLine
 10
390.6469882639689
 20
1256.393728965409
 30
0.0
 11
383.9535549149091
 21
1251.706936477893
 31
0.0
  0
LINE
  5
62B
102
{ACAD_REACTORS
330
8B9
102
}
330
1F
100
AcDbEntity
  8
実線
100
AcDbLine
 10
383.9535549149091
 20
1369.649355719351
 30
0.0
 11
390.6469882639689
 21
1364.962563231834
 31
0.0
  0
ARC
  5
62C
102
{ACAD_REACTORS
330
8B9
102
}
330
1F
100
AcDbEntity
  8
実線
100
AcDbCircle
 10
378.2177905513986
 20
1361.457835276461
 30
0.0
 40
9.999999999999976
100
AcDbArc
 50
55.00000000000264
 51
133.4958580179405
  0
ARC
  5
62D
102
{ACAD_REACTORS
330
8B9
102
}
330
1F
100
AcDbEntity
  8
実線
100
AcDbCircle
 10
426.398940049953
 20
1310.678146098622
 30
0.0
 40
79.99999999999984
100
AcDbArc
 50
133.4958580179405
 51
136.5041419820548
  0
ARC
  5
62E
102
{ACAD_REACTORS
330
8B9
102
}
330
1F
100
AcDbEntity
  8
実線
100
AcDbCircle
 10
375.6192508721146
 20
1358.859295597177
 30
0.0
 40
9.999999999999991
100
AcDbArc
 50
136.5041419820548
 51
214.9999999999974
  0
LINE
  5
62F
102
{ACAD_REACTORS
330
8B9
102
}
330
1F
100
AcDbEntity
  8
実線
100
AcDbLine
 10
372.1145229167406
 20
1346.430097884607
 30
0.0
 11
367.4277304292246
 21
1353.123531233666
 31
0.0
  0
LINE
  5
630
102
{ACAD_REACTORS
330
866
102
}
330
1F
100
AcDbEntity
  8
実線
100
AcDbLine
 10
1087.178629227782
 20
629.6781460986184
 30
0.0
 11
965.6192508721046
 21
629.6781460986184
 31
0.0
  0
LINE
  5
631
102
{ACAD_REACTORS
330
866
102
}
330
1F
100
AcDbEntity
  8
実線
100
AcDbLine
 10
1087.178629227782
 20
644.6781460986183
 30
0.0
 11
965.6192508721046
 21
644.6781460986183
 31
0.0
  0
LINE
  5
632
102
{ACAD_REACTORS
330
866
102
}
330
1F
100
AcDbEntity
  8
実線
100
AcDbLine
 10
965.6192508721046
 20
644.6781460986183
 30
0.0
 11
965.6192508721046
 21
629.6781460986184
 31
0.0
  0
LINE
  5
633
102
{ACAD_REACTORS
330
866
102
}
330
1F
100
AcDbEntity
  8
実線
100
AcDbLine
 10
1087.178629227782
 20
629.6781460986184
 30
0.0
 11
1087.178629227782
 21
644.6781460986183
 31
0.0
  0
LINE
  5
634
102
{ACAD_REACTORS
330
866
102
}
330
1F
100
AcDbEntity
  8
実線
100
AcDbLine
 10
999.5889679000024
 20
644.6781460986183
 30
0.0
 11
999.5889679000024
 21
629.6781460986184
 31
0.0
  0
LINE
  5
635
102
{ACAD_REACTORS
330
866
102
}
330
1F
100
AcDbEntity
  8
実線
100
AcDbLine
 10
1053.208912199884
 20
644.6781460986183
 30
0.0
 11
1053.208912199884
 21
629.6781460986184
 31
0.0
  0
LINE
  5
636
102
{ACAD_REACTORS
330
866
102
}
330
1F
100
AcDbEntity
  8
実線
100
AcDbLine
 10
1006.412751106946
 20
699.9281460986184
 30
0.0
 11
1033.998059461863
 21
699.9281460986184
 31
0.0
  0
ELLIPSE
  5
637
102
{ACAD_REACTORS
330
866
102
}
330
1F
100
AcDbEntity
  8
実線
100
AcDbEllipse
 10
986.8009603034966
 20
710.6781460986184
 30
0.0
 11
0.0
 21
12.5
 31
0.0
210
0.0
220
0.0
230
1.0
 40
0.7071067811865476
 41
0.0
 42
1.570796326794897
  0
LINE
  5
638
102
{ACAD_REACTORS
330
866
102
}
330
1F
100
AcDbEntity
  8
実線
100
AcDbLine
 10
986.8009603034966
 20
698.1781460986184
 30
0.0
 11
1000.776136524758
 21
698.1781460986184
 31
0.0
  0
LINE
  5
639
102
{ACAD_REACTORS
330
866
102
}
330
1F
100
AcDbEntity
  8
実線
100
AcDbLine
 10
999.6115829574645
 20
723.1781460986186
 30
0.0
 11
986.8009603034966
 21
723.1781460986186
 31
0.0
  0
ELLIPSE
  5
63A
102
{ACAD_REACTORS
330
866
102
}
330
1F
100
AcDbEntity
  8
実線
100
AcDbEllipse
 10
986.8009603034966
 20
710.6781460986184
 30
0.0
 11
0.0
 21
12.5
 31
0.0
210
0.0
220
0.0
230
1.0
 40
0.7071067811865476
 41
3.141592653589792
 42
6.283185307179584
  0
ELLIPSE
  5
63B
102
{ACAD_REACTORS
330
866
102
}
330
1F
100
AcDbEntity
  8
実線
100
AcDbEllipse
 10
986.8009603034966
 20
710.6781460986184
 30
0.0
 11
0.0
 21
12.5
 31
0.0
210
0.0
220
0.0
230
1.0
 40
0.7071067811865476
 41
1.570796326794897
 42
3.141592653589792
  0
CIRCLE
  5
63C
102
{ACAD_REACTORS
330
866
102
}
330
1F
100
AcDbEntity
  8
実線
100
AcDbCircle
 10
1026.398940049943
 20
751.1781460986187
 30
0.0
 40
38.75
  0
LINE
  5
63D
102
{ACAD_REACTORS
330
866
102
}
330
1F
100
AcDbEntity
  8
実線
100
AcDbLine
 10
1104.798940049943
 20
701.9281460986184
 30
0.0
 11
1080.809735461007
 21
701.9281460986184
 31
0.0
  0
LINE
  5
63E
102
{ACAD_REACTORS
330
866
102
}
330
1F
100
AcDbEntity
  8
実線
100
AcDbLine
 10
1087.178629227782
 20
638.4281460986183
 30
0.0
 11
1104.798940049943
 21
638.4281460986183
 31
0.0
  0
LINE
  5
63F
102
{ACAD_REACTORS
330
866
102
}
330
1F
100
AcDbEntity
  8
実線
100
AcDbLine
 10
1111.398940049943
 20
631.4281460986184
 30
0.0
 11
1111.398940049943
 21
708.9281460986184
 31
0.0
  0
LINE
  5
640
102
{ACAD_REACTORS
330
866
102
}
330
1F
100
AcDbEntity
  8
実線
100
AcDbLine
 10
1111.398940049943
 20
708.9281460986184
 30
0.0
 11
1107.898940049943
 21
708.9281460986184
 31
0.0
  0
LINE
  5
641
102
{ACAD_REACTORS
330
866
102
}
330
1F
100
AcDbEntity
  8
実線
100
AcDbLine
 10
1107.898940049943
 20
631.4281460986184
 30
0.0
 11
1111.398940049943
 21
631.4281460986184
 31
0.0
  0
LINE
  5
642
102
{ACAD_REACTORS
330
866
102
}
330
1F
100
AcDbEntity
  8
実線
100
AcDbLine
 10
1107.898940049943
 20
631.4281460986184
 30
0.0
 11
1107.898940049943
 21
708.9281460986184
 31
0.0
  0
LINE
  5
643
102
{ACAD_REACTORS
330
866
102
}
330
1F
100
AcDbEntity
  8
実線
100
AcDbLine
 10
1104.798940049943
 20
638.4281460986183
 30
0.0
 11
1104.798940049943
 21
701.9281460986184
 31
0.0
  0
LINE
  5
644
102
{ACAD_REACTORS
330
866
102
}
330
1F
100
AcDbEntity
  8
実線
100
AcDbLine
 10
1104.798940049943
 20
638.4281460986183
 30
0.0
 11
1107.898940049943
 21
631.4281460986184
 31
0.0
  0
LINE
  5
645
102
{ACAD_REACTORS
330
866
102
}
330
1F
100
AcDbEntity
  8
実線
100
AcDbLine
 10
1107.898940049943
 20
708.9281460986184
 30
0.0
 11
1104.798940049943
 21
701.9281460986184
 31
0.0
  0
LINE
  5
646
102
{ACAD_REACTORS
330
866
102
}
330
1F
100
AcDbEntity
  8
実線
100
AcDbLine
 10
947.9989400499432
 20
638.4281460986183
 30
0.0
 11
965.6192508721046
 21
638.4281460986183
 31
0.0
  0
LINE
  5
647
102
{ACAD_REACTORS
330
866
102
}
330
1F
100
AcDbEntity
  8
実線
100
AcDbLine
 10
980.4887697170205
 20
701.9281460986184
 30
0.0
 11
947.9989400499432
 21
701.9281460986184
 31
0.0
  0
LINE
  5
648
102
{ACAD_REACTORS
330
866
102
}
330
1F
100
AcDbEntity
  8
実線
100
AcDbLine
 10
947.9989400499432
 20
701.9281460986184
 30
0.0
 11
944.8989400499433
 21
708.9281460986184
 31
0.0
  0
LINE
  5
649
102
{ACAD_REACTORS
330
866
102
}
330
1F
100
AcDbEntity
  8
実線
100
AcDbLine
 10
944.8989400499433
 20
631.4281460986184
 30
0.0
 11
947.9989400499432
 21
638.4281460986183
 31
0.0
  0
LINE
  5
64A
102
{ACAD_REACTORS
330
866
102
}
330
1F
100
AcDbEntity
  8
実線
100
AcDbLine
 10
947.9989400499432
 20
701.9281460986184
 30
0.0
 11
947.9989400499432
 21
638.4281460986183
 31
0.0
  0
LINE
  5
64B
102
{ACAD_REACTORS
330
866
102
}
330
1F
100
AcDbEntity
  8
実線
100
AcDbLine
 10
941.3989400499433
 20
631.4281460986184
 30
0.0
 11
944.8989400499433
 21
631.4281460986184
 31
0.0
  0
LINE
  5
64C
102
{ACAD_REACTORS
330
866
102
}
330
1F
100
AcDbEntity
  8
実線
100
AcDbLine
 10
944.8989400499433
 20
708.9281460986184
 30
0.0
 11
941.3989400499433
 21
708.9281460986184
 31
0.0
  0
LINE
  5
64D
102
{ACAD_REACTORS
330
866
102
}
330
1F
100
AcDbEntity
  8
実線
100
AcDbLine
 10
941.3989400499433
 20
631.4281460986184
 30
0.0
 11
941.3989400499433
 21
708.9281460986184
 31
0.0
  0
LINE
  5
64E
102
{ACAD_REACTORS
330
866
102
}
330
1F
100
AcDbEntity
  8
実線
100
AcDbLine
 10
944.8989400499433
 20
631.4281460986184
 30
0.0
 11
944.8989400499433
 21
708.9281460986184
 31
0.0
  0
LINE
  5
64F
102
{ACAD_REACTORS
330
866
102
}
330
1F
100
AcDbEntity
  8
実線
100
AcDbLine
 10
1059.042995597311
 20
680.9796612887835
 30
0.0
 11
1065.99691979639
 21
680.9796612887835
 31
0.0
  0
LINE
  5
650
102
{ACAD_REACTORS
330
866
102
}
330
1F
100
AcDbEntity
  8
実線
100
AcDbLine
 10
1063.613047181468
 20
740.3766309084536
 30
0.0
 11
1065.99691979639
 21
740.3766309084536
 31
0.0
  0
LINE
  5
651
102
{ACAD_REACTORS
330
866
102
}
330
1F
100
AcDbEntity
  8
実線
100
AcDbLine
 10
965.8009603034965
 20
710.6781460986184
 30
0.0
 11
983.1853816074174
 21
735.2634304806316
 31
0.0
  0
LINE
  5
652
102
{ACAD_REACTORS
330
866
102
}
330
1F
100
AcDbEntity
  8
実線
100
AcDbLine
 10
977.9621255386643
 20
710.6781460986184
 30
0.0
 11
965.8009603034965
 21
710.6781460986184
 31
0.0
  0
LINE
  5
653
102
{ACAD_REACTORS
330
866
102
}
330
1F
100
AcDbEntity
  8
実線
100
AcDbLine
 10
1044.99691979639
 20
710.6781460986184
 30
0.0
 11
1032.398940049943
 21
710.6781460986184
 31
0.0
  0
LINE
  5
654
102
{ACAD_REACTORS
330
866
102
}
330
1F
100
AcDbEntity
  8
実線
100
AcDbLine
 10
1086.99691979639
 20
710.6781460986184
 30
0.0
 11
1065.99691979639
 21
740.3766309084536
 31
0.0
  0
LINE
  5
655
102
{ACAD_REACTORS
330
866
102
}
330
1F
100
AcDbEntity
  8
実線
100
AcDbLine
 10
1055.722936097195
 20
725.8470238214516
 30
0.0
 11
1044.99691979639
 21
710.6781460986184
 31
0.0
  0
LINE
  5
656
102
{ACAD_REACTORS
330
866
102
}
330
1F
100
AcDbEntity
  8
実線
100
AcDbLine
 10
1065.99691979639
 20
740.3766309084536
 30
0.0
 11
1060.05601651536
 21
731.9749249156757
 31
0.0
  0
LINE
  5
657
102
{ACAD_REACTORS
330
866
102
}
330
1F
100
AcDbEntity
  8
実線
100
AcDbLine
 10
1065.99691979639
 20
680.9796612887835
 30
0.0
 11
1044.99691979639
 21
710.6781460986184
 31
0.0
  0
LINE
  5
658
102
{ACAD_REACTORS
330
866
102
}
330
1F
100
AcDbEntity
  8
実線
100
AcDbLine
 10
1065.99691979639
 20
680.9796612887835
 30
0.0
 11
1086.99691979639
 21
710.6781460986184
 31
0.0
  0
LINE
  5
659
102
{ACAD_REACTORS
330
866
102
}
330
1F
100
AcDbEntity
  8
実線
100
AcDbLine
 10
1015.398940049953
 20
1132.778146098618
 30
0.0
 11
1037.398940049953
 21
1132.778146098618
 31
0.0
  0
LINE
  5
65A
102
{ACAD_REACTORS
330
866
102
}
330
1F
100
AcDbEntity
  8
実線
100
AcDbLine
 10
1037.398940049953
 20
1102.178146098618
 30
0.0
 11
1037.398940049953
 21
1132.778146098618
 31
0.0
  0
LINE
  5
65B
102
{ACAD_REACTORS
330
866
102
}
330
1F
100
AcDbEntity
  8
実線
100
AcDbLine
 10
1015.398940049953
 20
1132.778146098618
 30
0.0
 11
1015.398940049953
 21
1102.178146098618
 31
0.0
  0
LINE
  5
65C
102
{ACAD_REACTORS
330
866
102
}
330
1F
100
AcDbEntity
  8
実線
100
AcDbLine
 10
1015.398940049953
 20
319.1781460986185
 30
0.0
 11
1015.398940049953
 21
288.5781460986184
 31
0.0
  0
LINE
  5
65D
102
{ACAD_REACTORS
330
866
102
}
330
1F
100
AcDbEntity
  8
実線
100
AcDbLine
 10
1037.398940049953
 20
288.5781460986185
 30
0.0
 11
1037.398940049953
 21
319.1781460986185
 31
0.0
  0
LINE
  5
65E
102
{ACAD_REACTORS
330
866
102
}
330
1F
100
AcDbEntity
  8
実線
100
AcDbLine
 10
1015.398940049953
 20
288.5781460986185
 30
0.0
 11
1037.398940049953
 21
288.5781460986185
 31
0.0
  0
LINE
  5
65F
102
{ACAD_REACTORS
330
866
102
}
330
1F
100
AcDbEntity
  8
実線
100
AcDbLine
 10
999.0055417677416
 20
700.6781460986184
 30
0.0
 11
1036.541075673674
 21
700.6781460986184
 31
0.0
  0
LINE
  5
660
102
{ACAD_REACTORS
330
866
102
}
330
1F
100
AcDbEntity
  8
実線
100
AcDbLine
 10
1002.496795794667
 20
720.6781460986186
 30
0.0
 11
999.0055417677416
 21
720.6781460986186
 31
0.0
  0
LINE
  5
661
102
{ACAD_REACTORS
330
866
102
}
330
1F
100
AcDbEntity
  8
実線
100
AcDbLine
 10
1081.398940049953
 20
811.6781460986187
 30
0.0
 11
1081.398940049953
 21
1029.178146098619
 31
0.0
  0
LINE
  5
662
102
{ACAD_REACTORS
330
866
102
}
330
1F
100
AcDbEntity
  8
実線
100
AcDbLine
 10
971.3989400499533
 20
1029.178146098619
 30
0.0
 11
971.3989400499533
 21
811.6781460986187
 31
0.0
  0
LINE
  5
663
102
{ACAD_REACTORS
330
866
102
}
330
1F
100
AcDbEntity
  8
実線
100
AcDbLine
 10
1081.398940049953
 20
1029.178146098619
 30
0.0
 11
971.3989400499533
 21
1029.178146098619
 31
0.0
  0
LINE
  5
664
102
{ACAD_REACTORS
330
866
102
}
330
1F
100
AcDbEntity
  8
実線
100
AcDbLine
 10
1081.398940049953
 20
1029.178146098619
 30
0.0
 11
1091.398940049953
 21
1039.178146098619
 31
0.0
  0
LINE
  5
665
102
{ACAD_REACTORS
330
866
102
}
330
1F
100
AcDbEntity
  8
実線
100
AcDbLine
 10
961.3989400499534
 20
1039.178146098619
 30
0.0
 11
971.3989400499533
 21
1029.178146098619
 31
0.0
  0
LINE
  5
666
102
{ACAD_REACTORS
330
866
102
}
330
1F
100
AcDbEntity
  8
実線
100
AcDbLine
 10
1091.398940049953
 20
1039.178146098619
 30
0.0
 11
961.3989400499534
 21
1039.178146098619
 31
0.0
  0
LINE
  5
667
102
{ACAD_REACTORS
330
866
102
}
330
1F
100
AcDbEntity
  8
実線
100
AcDbLine
 10
1091.398940049953
 20
1039.178146098619
 30
0.0
 11
1091.398940049953
 21
1097.178146098618
 31
0.0
  0
LINE
  5
668
102
{ACAD_REACTORS
330
866
102
}
330
1F
100
AcDbEntity
  8
実線
100
AcDbLine
 10
961.3989400499534
 20
1097.178146098618
 30
0.0
 11
961.3989400499534
 21
1039.178146098619
 31
0.0
  0
LINE
  5
669
102
{ACAD_REACTORS
330
866
102
}
330
1F
100
AcDbEntity
  8
実線
100
AcDbLine
 10
971.3989400499533
 20
609.6781460986185
 30
0.0
 11
971.3989400499533
 21
392.1781460986184
 31
0.0
  0
LINE
  5
66A
102
{ACAD_REACTORS
330
866
102
}
330
1F
100
AcDbEntity
  8
実線
100
AcDbLine
 10
1081.398940049953
 20
392.1781460986184
 30
0.0
 11
1081.398940049953
 21
609.6781460986185
 31
0.0
  0
LINE
  5
66B
102
{ACAD_REACTORS
330
866
102
}
330
1F
100
AcDbEntity
  8
実線
100
AcDbLine
 10
961.3989400499534
 20
382.1781460986184
 30
0.0
 11
961.3989400499534
 21
324.1781460986184
 31
0.0
  0
LINE
  5
66C
102
{ACAD_REACTORS
330
866
102
}
330
1F
100
AcDbEntity
  8
実線
100
AcDbLine
 10
1091.398940049953
 20
324.1781460986184
 30
0.0
 11
1091.398940049953
 21
382.1781460986184
 31
0.0
  0
LINE
  5
66D
102
{ACAD_REACTORS
330
866
102
}
330
1F
100
AcDbEntity
  8
実線
100
AcDbLine
 10
971.3989400499533
 20
392.1781460986184
 30
0.0
 11
961.3989400499534
 21
382.1781460986184
 31
0.0
  0
LINE
  5
66E
102
{ACAD_REACTORS
330
866
102
}
330
1F
100
AcDbEntity
  8
実線
100
AcDbLine
 10
1091.398940049953
 20
382.1781460986184
 30
0.0
 11
1081.398940049953
 21
392.1781460986184
 31
0.0
  0
LINE
  5
66F
102
{ACAD_REACTORS
330
866
102
}
330
1F
100
AcDbEntity
  8
実線
100
AcDbLine
 10
1081.398940049953
 20
392.1781460986184
 30
0.0
 11
971.3989400499533
 21
392.1781460986184
 31
0.0
  0
LINE
  5
670
102
{ACAD_REACTORS
330
866
102
}
330
1F
100
AcDbEntity
  8
実線
100
AcDbLine
 10
1091.398940049953
 20
382.1781460986184
 30
0.0
 11
961.3989400499534
 21
382.1781460986184
 31
0.0
  0
ELLIPSE
  5
671
102
{ACAD_REACTORS
330
866
102
}
330
1F
100
AcDbEntity
  8
実線
100
AcDbEllipse
 10
1076.603521514188
 20
710.6781460986184
 30
0.0
 11
0.0
 21
17.0
 31
0.0
210
0.0
220
0.0
230
1.0
 40
0.7071067811865476
 41
4.171724414095665
 42
6.283185307179584
  0
LINE
  5
672
102
{ACAD_REACTORS
330
866
102
}
330
1F
100
AcDbEntity
  8
実線
100
AcDbLine
 10
1076.603521514188
 20
727.6781460986186
 30
0.0
 11
1075.083241934636
 21
727.6781460986186
 31
0.0
  0
ELLIPSE
  5
673
102
{ACAD_REACTORS
330
866
102
}
330
1F
100
AcDbEntity
  8
実線
100
AcDbEllipse
 10
1075.083241934636
 20
710.6781460986184
 30
0.0
 11
0.0
 21
17.0
 31
0.0
210
0.0
220
0.0
230
1.0
 40
0.7071067811865476
 41
0.0
 42
0.0088734062780788
  0
ELLIPSE
  5
674
102
{ACAD_REACTORS
330
866
102
}
330
1F
100
AcDbEntity
  8
実線
100
AcDbEllipse
 10
1075.083241934636
 20
710.6781460986184
 30
0.0
 11
0.0
 21
17.0
 31
0.0
210
0.0
220
0.0
230
1.0
 40
0.7071067811865476
 41
4.171724414095665
 42
6.283185307179584
  0
LINE
  5
675
102
{ACAD_REACTORS
330
866
102
}
330
1F
100
AcDbEntity
  8
実線
100
AcDbLine
 10
980.2332739639947
 20
740.3766309084536
 30
0.0
 11
958.1631356654414
 21
740.3766309084536
 31
0.0
  0
LINE
  5
676
102
{ACAD_REACTORS
330
866
102
}
330
1F
100
AcDbEntity
  8
実線
100
AcDbLine
 10
958.1631356654414
 20
740.3766309084536
 30
0.0
 11
937.1631356654413
 21
710.6781460986184
 31
0.0
  0
LINE
  5
677
102
{ACAD_REACTORS
330
866
102
}
330
1F
100
AcDbEntity
  8
実線
100
AcDbLine
 10
965.8009603034965
 20
710.6781460986184
 30
0.0
 11
937.1631356654413
 21
710.6781460986184
 31
0.0
  0
LINE
  5
678
102
{ACAD_REACTORS
330
866
102
}
330
1F
100
AcDbEntity
  8
実線
100
AcDbLine
 10
937.1631356654413
 20
710.6781460986184
 30
0.0
 11
941.3989400499433
 21
704.6878140904968
 31
0.0
  0
LINE
  5
679
102
{ACAD_REACTORS
330
866
102
}
330
1F
100
AcDbEntity
  8
実線
100
AcDbLine
 10
971.9881446388786
 20
701.9281460986184
 30
0.0
 11
965.8009603034965
 21
710.6781460986184
 31
0.0
  0
LINE
  5
67A
102
{ACAD_REACTORS
330
866
102
}
330
1F
100
AcDbEntity
  8
実線
100
AcDbLine
 10
965.6192508721046
 20
791.6781460986187
 30
0.0
 11
1087.178629227782
 21
791.6781460986187
 31
0.0
  0
LINE
  5
67B
102
{ACAD_REACTORS
330
866
102
}
330
1F
100
AcDbEntity
  8
実線
100
AcDbLine
 10
1087.178629227782
 20
776.6781460986187
 30
0.0
 11
1087.178629227782
 21
791.6781460986187
 31
0.0
  0
LINE
  5
67C
102
{ACAD_REACTORS
330
866
102
}
330
1F
100
AcDbEntity
  8
実線
100
AcDbLine
 10
1087.178629227782
 20
776.6781460986187
 30
0.0
 11
1055.576200030962
 21
776.6781460986187
 31
0.0
  0
LINE
  5
67D
102
{ACAD_REACTORS
330
866
102
}
330
1F
100
AcDbEntity
  8
実線
100
AcDbLine
 10
965.6192508721046
 20
776.6781460986187
 30
0.0
 11
997.2216800689235
 21
776.6781460986187
 31
0.0
  0
LINE
  5
67E
102
{ACAD_REACTORS
330
866
102
}
330
1F
100
AcDbEntity
  8
実線
100
AcDbLine
 10
965.6192508721046
 20
791.6781460986187
 30
0.0
 11
965.6192508721046
 21
776.6781460986187
 31
0.0
  0
LINE
  5
67F
102
{ACAD_REACTORS
330
866
102
}
330
1F
100
AcDbEntity
  8
実線
100
AcDbLine
 10
1053.208912199884
 20
779.1564929639958
 30
0.0
 11
1053.208912199884
 21
791.6781460986187
 31
0.0
  0
LINE
  5
680
102
{ACAD_REACTORS
330
866
102
}
330
1F
100
AcDbEntity
  8
実線
100
AcDbLine
 10
999.5889679000024
 20
779.1564929639958
 30
0.0
 11
999.5889679000024
 21
791.6781460986187
 31
0.0
  0
LINE
  5
681
102
{ACAD_REACTORS
330
866
102
}
330
1F
100
AcDbEntity
  8
実線
100
AcDbLine
 10
1081.398940049953
 20
609.6781460986185
 30
0.0
 11
971.3989400499533
 21
609.6781460986185
 31
0.0
  0
LINE
  5
682
102
{ACAD_REACTORS
330
866
102
}
330
1F
100
AcDbEntity
  8
実線
100
AcDbLine
 10
971.3989400499533
 20
612.6781460986184
 30
0.0
 11
971.3989400499533
 21
609.6781460986185
 31
0.0
  0
LINE
  5
683
102
{ACAD_REACTORS
330
866
102
}
330
1F
100
AcDbEntity
  8
実線
100
AcDbLine
 10
1081.398940049953
 20
609.6781460986185
 30
0.0
 11
1081.398940049953
 21
612.6781460986184
 31
0.0
  0
LINE
  5
684
102
{ACAD_REACTORS
330
866
102
}
330
1F
100
AcDbEntity
  8
実線
100
AcDbLine
 10
965.6192508721144
 20
629.6781460986184
 30
0.0
 11
965.6192508721144
 21
612.6781460986184
 31
0.0
  0
LINE
  5
685
102
{ACAD_REACTORS
330
866
102
}
330
1F
100
AcDbEntity
  8
実線
100
AcDbLine
 10
965.6192508721144
 20
612.6781460986184
 30
0.0
 11
999.5889679000127
 21
612.6781460986184
 31
0.0
  0
LINE
  5
686
102
{ACAD_REACTORS
330
866
102
}
330
1F
100
AcDbEntity
  8
実線
100
AcDbLine
 10
1087.178629227792
 20
612.6781460986184
 30
0.0
 11
1053.208912199894
 21
612.6781460986184
 31
0.0
  0
LINE
  5
687
102
{ACAD_REACTORS
330
866
102
}
330
1F
100
AcDbEntity
  8
実線
100
AcDbLine
 10
1087.178629227792
 20
612.6781460986184
 30
0.0
 11
1087.178629227792
 21
629.6781460986184
 31
0.0
  0
LINE
  5
688
102
{ACAD_REACTORS
330
866
102
}
330
1F
100
AcDbEntity
  8
実線
100
AcDbLine
 10
999.5889679000127
 20
629.6781460986184
 30
0.0
 11
999.5889679000127
 21
612.6781460986184
 31
0.0
  0
LINE
  5
689
102
{ACAD_REACTORS
330
866
102
}
330
1F
100
AcDbEntity
  8
実線
100
AcDbLine
 10
1053.208912199894
 20
629.6781460986184
 30
0.0
 11
1053.208912199894
 21
612.6781460986184
 31
0.0
  0
LINE
  5
68A
102
{ACAD_REACTORS
330
866
102
}
330
1F
100
AcDbEntity
  8
実線
100
AcDbLine
 10
1086.398940049953
 20
319.1781460986185
 30
0.0
 11
966.3989400499533
 21
319.1781460986185
 31
0.0
  0
LINE
  5
68B
102
{ACAD_REACTORS
330
866
102
}
330
1F
100
AcDbEntity
  8
実線
100
AcDbLine
 10
1091.398940049953
 20
324.1781460986184
 30
0.0
 11
961.3989400499534
 21
324.1781460986184
 31
0.0
  0
ARC
  5
68C
102
{ACAD_REACTORS
330
866
102
}
330
1F
100
AcDbEntity
  8
実線
100
AcDbCircle
 10
966.3989400499533
 20
324.1781460986184
 30
0.0
 40
5.0
100
AcDbArc
 50
180.0
 51
270.0
  0
ARC
  5
68D
102
{ACAD_REACTORS
330
866
102
}
330
1F
100
AcDbEntity
  8
実線
100
AcDbCircle
 10
1086.398940049953
 20
324.1781460986184
 30
0.0
 40
5.0
100
AcDbArc
 50
270.0
 51
0.0
  0
LINE
  5
68E
102
{ACAD_REACTORS
330
866
102
}
330
1F
100
AcDbEntity
  8
実線
100
AcDbLine
 10
1069.612498492468
 20
735.2634304806316
 30
0.0
 11
1074.298286450519
 21
743.3794532974677
 31
0.0
  0
LINE
  5
68F
102
{ACAD_REACTORS
330
866
102
}
330
1F
100
AcDbEntity
  8
実線
100
AcDbLine
 10
978.4995936493682
 20
743.3794532974677
 30
0.0
 11
990.1628237986063
 21
723.1781460986186
 31
0.0
  0
LINE
  5
690
102
{ACAD_REACTORS
330
866
102
}
330
1F
100
AcDbEntity
  8
実線
100
AcDbLine
 10
1081.398940049943
 20
769.8794532974678
 30
0.0
 11
1081.398940049943
 21
776.6781460986187
 31
0.0
  0
LINE
  5
691
102
{ACAD_REACTORS
330
866
102
}
330
1F
100
AcDbEntity
  8
実線
100
AcDbLine
 10
971.3989400499434
 20
776.6781460986187
 30
0.0
 11
971.3989400499434
 21
769.8794532974678
 31
0.0
  0
ARC
  5
692
102
{ACAD_REACTORS
330
866
102
}
330
1F
100
AcDbEntity
  8
実線
100
AcDbCircle
 10
1028.398940049943
 20
769.8794532974678
 30
0.0
 40
53.0
100
AcDbArc
 50
329.9999999999995
 51
0.0
  0
ARC
  5
693
102
{ACAD_REACTORS
330
866
102
}
330
1F
100
AcDbEntity
  8
実線
100
AcDbCircle
 10
1024.398940049943
 20
769.8794532974678
 30
0.0
 40
53.0
100
AcDbArc
 50
180.0
 51
210.0000000000005
  0
LINE
  5
694
102
{ACAD_REACTORS
330
866
102
}
330
1F
100
AcDbEntity
  8
実線
100
AcDbLine
 10
1081.398940049953
 20
808.6781460986188
 30
0.0
 11
1081.398940049953
 21
811.6781460986187
 31
0.0
  0
LINE
  5
695
102
{ACAD_REACTORS
330
866
102
}
330
1F
100
AcDbEntity
  8
実線
100
AcDbLine
 10
971.3989400499533
 20
811.6781460986187
 30
0.0
 11
971.3989400499533
 21
808.6781460986188
 31
0.0
  0
LINE
  5
696
102
{ACAD_REACTORS
330
866
102
}
330
1F
100
AcDbEntity
  8
実線
100
AcDbLine
 10
1081.398940049953
 20
811.6781460986187
 30
0.0
 11
971.3989400499533
 21
811.6781460986187
 31
0.0
  0
LINE
  5
697
102
{ACAD_REACTORS
330
866
102
}
330
1F
100
AcDbEntity
  8
実線
100
AcDbLine
 10
1087.178629227792
 20
791.6781460986187
 30
0.0
 11
1087.178629227792
 21
808.6781460986188
 31
0.0
  0
LINE
  5
698
102
{ACAD_REACTORS
330
866
102
}
330
1F
100
AcDbEntity
  8
実線
100
AcDbLine
 10
1087.178629227792
 20
808.6781460986188
 30
0.0
 11
1053.208912199894
 21
808.6781460986188
 31
0.0
  0
LINE
  5
699
102
{ACAD_REACTORS
330
866
102
}
330
1F
100
AcDbEntity
  8
実線
100
AcDbLine
 10
965.6192508721144
 20
808.6781460986188
 30
0.0
 11
999.5889679000127
 21
808.6781460986188
 31
0.0
  0
LINE
  5
69A
102
{ACAD_REACTORS
330
866
102
}
330
1F
100
AcDbEntity
  8
実線
100
AcDbLine
 10
965.6192508721144
 20
808.6781460986188
 30
0.0
 11
965.6192508721144
 21
791.6781460986187
 31
0.0
  0
LINE
  5
69B
102
{ACAD_REACTORS
330
866
102
}
330
1F
100
AcDbEntity
  8
実線
100
AcDbLine
 10
1053.208912199894
 20
791.6781460986187
 30
0.0
 11
1053.208912199894
 21
808.6781460986188
 31
0.0
  0
LINE
  5
69C
102
{ACAD_REACTORS
330
866
102
}
330
1F
100
AcDbEntity
  8
実線
100
AcDbLine
 10
999.5889679000127
 20
791.6781460986187
 30
0.0
 11
999.5889679000127
 21
808.6781460986188
 31
0.0
  0
LINE
  5
69D
102
{ACAD_REACTORS
330
866
102
}
330
1F
100
AcDbEntity
  8
実線
100
AcDbLine
 10
966.3989400499533
 20
1102.178146098618
 30
0.0
 11
1086.398940049953
 21
1102.178146098618
 31
0.0
  0
LINE
  5
69E
102
{ACAD_REACTORS
330
866
102
}
330
1F
100
AcDbEntity
  8
実線
100
AcDbLine
 10
961.3989400499534
 20
1097.178146098618
 30
0.0
 11
1091.398940049953
 21
1097.178146098618
 31
0.0
  0
ARC
  5
69F
102
{ACAD_REACTORS
330
866
102
}
330
1F
100
AcDbEntity
  8
実線
100
AcDbCircle
 10
1086.398940049953
 20
1097.178146098618
 30
0.0
 40
5.0
100
AcDbArc
 50
0.0
 51
90.0
  0
ARC
  5
6A0
102
{ACAD_REACTORS
330
866
102
}
330
1F
100
AcDbEntity
  8
実線
100
AcDbCircle
 10
966.3989400499533
 20
1097.178146098618
 30
0.0
 40
5.0
100
AcDbArc
 50
90.0
 51
180.0
  0
LINE
  5
6A1
102
{ACAD_REACTORS
330
867
102
}
330
1F
100
AcDbEntity
  8
実線
100
AcDbLine
 10
787.1786292277914
 20
629.6781460986184
 30
0.0
 11
665.6192508721133
 21
629.6781460986184
 31
0.0
  0
LINE
  5
6A2
102
{ACAD_REACTORS
330
867
102
}
330
1F
100
AcDbEntity
  8
実線
100
AcDbLine
 10
665.6192508721133
 20
644.6781460986183
 30
0.0
 11
665.6192508721133
 21
629.6781460986184
 31
0.0
  0
LINE
  5
6A3
102
{ACAD_REACTORS
330
867
102
}
330
1F
100
AcDbEntity
  8
実線
100
AcDbLine
 10
665.6192508721133
 20
644.6781460986183
 30
0.0
 11
697.2216800689334
 21
644.6781460986183
 31
0.0
  0
LINE
  5
6A4
102
{ACAD_REACTORS
330
867
102
}
330
1F
100
AcDbEntity
  8
実線
100
AcDbLine
 10
787.1786292277914
 20
644.6781460986183
 30
0.0
 11
755.5762000309712
 21
644.6781460986183
 31
0.0
  0
LINE
  5
6A5
102
{ACAD_REACTORS
330
867
102
}
330
1F
100
AcDbEntity
  8
実線
100
AcDbLine
 10
787.1786292277914
 20
629.6781460986184
 30
0.0
 11
787.1786292277914
 21
644.6781460986183
 31
0.0
  0
LINE
  5
6A6
102
{ACAD_REACTORS
330
867
102
}
330
1F
100
AcDbEntity
  8
実線
100
AcDbLine
 10
699.5889679000113
 20
642.199799233241
 30
0.0
 11
699.5889679000113
 21
629.6781460986184
 31
0.0
  0
LINE
  5
6A7
102
{ACAD_REACTORS
330
867
102
}
330
1F
100
AcDbEntity
  8
実線
100
AcDbLine
 10
753.2089121998933
 20
642.199799233241
 30
0.0
 11
753.2089121998933
 21
629.6781460986184
 31
0.0
  0
LINE
  5
6A8
102
{ACAD_REACTORS
330
867
102
}
330
1F
100
AcDbEntity
  8
実線
100
AcDbLine
 10
746.3851289929484
 20
721.4281460986186
 30
0.0
 11
718.7998206380314
 21
721.4281460986186
 31
0.0
  0
ELLIPSE
  5
6A9
102
{ACAD_REACTORS
330
867
102
}
330
1F
100
AcDbEntity
  8
実線
100
AcDbEllipse
 10
765.9969197963994
 20
710.6781460986184
 30
0.0
 11
0.0
 21
12.5
 31
0.0
210
0.0
220
0.0
230
1.0
 40
0.7071067811865475
 41
0.0
 42
1.570796326794897
  0
LINE
  5
6AA
102
{ACAD_REACTORS
330
867
102
}
330
1F
100
AcDbEntity
  8
実線
100
AcDbLine
 10
765.9969197963994
 20
723.1781460986186
 30
0.0
 11
752.0217435751371
 21
723.1781460986186
 31
0.0
  0
LINE
  5
6AB
102
{ACAD_REACTORS
330
867
102
}
330
1F
100
AcDbEntity
  8
実線
100
AcDbLine
 10
753.1862971424313
 20
698.1781460986184
 30
0.0
 11
765.9969197963994
 21
698.1781460986184
 31
0.0
  0
ELLIPSE
  5
6AC
102
{ACAD_REACTORS
330
867
102
}
330
1F
100
AcDbEntity
  8
実線
100
AcDbEllipse
 10
765.9969197963994
 20
710.6781460986184
 30
0.0
 11
0.0
 21
12.5
 31
0.0
210
0.0
220
0.0
230
1.0
 40
0.7071067811865475
 41
3.141592653589792
 42
6.283185307179584
  0
ELLIPSE
  5
6AD
102
{ACAD_REACTORS
330
867
102
}
330
1F
100
AcDbEntity
  8
実線
100
AcDbEllipse
 10
765.9969197963994
 20
710.6781460986184
 30
0.0
 11
0.0
 21
12.5
 31
0.0
210
0.0
220
0.0
230
1.0
 40
0.7071067811865475
 41
1.570796326794897
 42
3.141592653589792
  0
LINE
  5
6AE
102
{ACAD_REACTORS
330
867
102
}
330
1F
100
AcDbEntity
  8
実線
100
AcDbLine
 10
665.6192508721133
 20
782.9281460986187
 30
0.0
 11
647.9989400499523
 21
782.9281460986187
 31
0.0
  0
LINE
  5
6AF
102
{ACAD_REACTORS
330
867
102
}
330
1F
100
AcDbEntity
  8
実線
100
AcDbLine
 10
647.9989400499523
 20
782.9281460986187
 30
0.0
 11
644.8989400499522
 21
789.9281460986188
 31
0.0
  0
LINE
  5
6B0
102
{ACAD_REACTORS
330
867
102
}
330
1F
100
AcDbEntity
  8
実線
100
AcDbLine
 10
647.9989400499523
 20
782.9281460986187
 30
0.0
 11
647.9989400499523
 21
726.0022876184026
 31
0.0
  0
LINE
  5
6B1
102
{ACAD_REACTORS
330
867
102
}
330
1F
100
AcDbEntity
  8
実線
100
AcDbLine
 10
644.8989400499522
 20
789.9281460986188
 30
0.0
 11
641.3989400499522
 21
789.9281460986188
 31
0.0
  0
LINE
  5
6B2
102
{ACAD_REACTORS
330
867
102
}
330
1F
100
AcDbEntity
  8
実線
100
AcDbLine
 10
641.3989400499522
 20
716.6684781067405
 30
0.0
 11
641.3989400499522
 21
789.9281460986188
 31
0.0
  0
LINE
  5
6B3
102
{ACAD_REACTORS
330
867
102
}
330
1F
100
AcDbEntity
  8
実線
100
AcDbLine
 10
644.8989400499522
 20
721.6182255750466
 30
0.0
 11
644.8989400499522
 21
789.9281460986188
 31
0.0
  0
LINE
  5
6B4
102
{ACAD_REACTORS
330
867
102
}
330
1F
100
AcDbEntity
  8
実線
100
AcDbLine
 10
804.7989400499522
 20
782.9281460986187
 30
0.0
 11
787.1786292277914
 21
782.9281460986187
 31
0.0
  0
LINE
  5
6B5
102
{ACAD_REACTORS
330
867
102
}
330
1F
100
AcDbEntity
  8
実線
100
AcDbLine
 10
772.3091103828753
 20
719.4281460986186
 30
0.0
 11
804.7989400499522
 21
719.4281460986186
 31
0.0
  0
LINE
  5
6B6
102
{ACAD_REACTORS
330
867
102
}
330
1F
100
AcDbEntity
  8
実線
100
AcDbLine
 10
811.3989400499521
 20
712.4281460986184
 30
0.0
 11
811.3989400499521
 21
789.9281460986188
 31
0.0
  0
LINE
  5
6B7
102
{ACAD_REACTORS
330
867
102
}
330
1F
100
AcDbEntity
  8
実線
100
AcDbLine
 10
811.3989400499521
 20
789.9281460986188
 30
0.0
 11
807.8989400499521
 21
789.9281460986188
 31
0.0
  0
LINE
  5
6B8
102
{ACAD_REACTORS
330
867
102
}
330
1F
100
AcDbEntity
  8
実線
100
AcDbLine
 10
807.8989400499521
 20
712.4281460986184
 30
0.0
 11
811.3989400499521
 21
712.4281460986184
 31
0.0
  0
LINE
  5
6B9
102
{ACAD_REACTORS
330
867
102
}
330
1F
100
AcDbEntity
  8
実線
100
AcDbLine
 10
807.8989400499521
 20
712.4281460986184
 30
0.0
 11
807.8989400499521
 21
789.9281460986188
 31
0.0
  0
LINE
  5
6BA
102
{ACAD_REACTORS
330
867
102
}
330
1F
100
AcDbEntity
  8
実線
100
AcDbLine
 10
804.7989400499522
 20
719.4281460986186
 30
0.0
 11
804.7989400499522
 21
782.9281460986187
 31
0.0
  0
LINE
  5
6BB
102
{ACAD_REACTORS
330
867
102
}
330
1F
100
AcDbEntity
  8
実線
100
AcDbLine
 10
804.7989400499522
 20
719.4281460986186
 30
0.0
 11
807.8989400499521
 21
712.4281460986184
 31
0.0
  0
LINE
  5
6BC
102
{ACAD_REACTORS
330
867
102
}
330
1F
100
AcDbEntity
  8
実線
100
AcDbLine
 10
807.8989400499521
 20
789.9281460986188
 30
0.0
 11
804.7989400499522
 21
782.9281460986187
 31
0.0
  0
CIRCLE
  5
6BD
102
{ACAD_REACTORS
330
867
102
}
330
1F
100
AcDbEntity
  8
実線
100
AcDbCircle
 10
726.3989400499522
 20
670.1781460986183
 30
0.0
 40
38.75
  0
LINE
  5
6BE
102
{ACAD_REACTORS
330
867
102
}
330
1F
100
AcDbEntity
  8
実線
100
AcDbLine
 10
780.8097354610163
 20
719.4281460986186
 30
0.0
 11
786.9969197963994
 21
710.6781460986184
 31
0.0
  0
LINE
  5
6BF
102
{ACAD_REACTORS
330
867
102
}
330
1F
100
AcDbEntity
  8
実線
100
AcDbLine
 10
686.8009603035052
 20
740.3766309084536
 30
0.0
 11
693.7548845025842
 21
740.3766309084536
 31
0.0
  0
LINE
  5
6C0
102
{ACAD_REACTORS
330
867
102
}
330
1F
100
AcDbEntity
  8
実線
100
AcDbLine
 10
769.6124984924773
 20
686.0928617166052
 30
0.0
 11
786.9969197963994
 21
710.6781460986184
 31
0.0
  0
LINE
  5
6C1
102
{ACAD_REACTORS
330
867
102
}
330
1F
100
AcDbEntity
  8
実線
100
AcDbLine
 10
734.0039093638843
 20
710.6781460986184
 30
0.0
 11
707.8009603035052
 21
710.6781460986184
 31
0.0
  0
LINE
  5
6C2
102
{ACAD_REACTORS
330
867
102
}
330
1F
100
AcDbEntity
  8
実線
100
AcDbLine
 10
786.9969197963994
 20
710.6781460986184
 30
0.0
 11
774.8357545612302
 21
710.6781460986184
 31
0.0
  0
LINE
  5
6C3
102
{ACAD_REACTORS
330
867
102
}
330
1F
100
AcDbEntity
  8
実線
100
AcDbLine
 10
686.8009603035052
 20
680.9796612887835
 30
0.0
 11
689.1848329184274
 21
680.9796612887835
 31
0.0
  0
LINE
  5
6C4
102
{ACAD_REACTORS
330
867
102
}
330
1F
100
AcDbEntity
  8
実線
100
AcDbLine
 10
737.3989400499522
 20
1132.778146098618
 30
0.0
 11
715.3989400499533
 21
1132.778146098618
 31
0.0
  0
LINE
  5
6C5
102
{ACAD_REACTORS
330
867
102
}
330
1F
100
AcDbEntity
  8
実線
100
AcDbLine
 10
737.3989400499522
 20
1102.178146098618
 30
0.0
 11
737.3989400499522
 21
1132.778146098618
 31
0.0
  0
LINE
  5
6C6
102
{ACAD_REACTORS
330
867
102
}
330
1F
100
AcDbEntity
  8
実線
100
AcDbLine
 10
715.3989400499533
 20
1132.778146098618
 30
0.0
 11
715.3989400499533
 21
1102.178146098618
 31
0.0
  0
LINE
  5
6C7
102
{ACAD_REACTORS
330
867
102
}
330
1F
100
AcDbEntity
  8
実線
100
AcDbLine
 10
715.3989400499512
 20
288.5781460986185
 30
0.0
 11
737.3989400499513
 21
288.5781460986185
 31
0.0
  0
LINE
  5
6C8
102
{ACAD_REACTORS
330
867
102
}
330
1F
100
AcDbEntity
  8
実線
100
AcDbLine
 10
715.3989400499512
 20
319.1781460986185
 30
0.0
 11
715.3989400499512
 21
288.5781460986184
 31
0.0
  0
LINE
  5
6C9
102
{ACAD_REACTORS
330
867
102
}
330
1F
100
AcDbEntity
  8
実線
100
AcDbLine
 10
737.3989400499513
 20
288.5781460986185
 30
0.0
 11
737.3989400499513
 21
319.1781460986185
 31
0.0
  0
LINE
  5
6CA
102
{ACAD_REACTORS
330
867
102
}
330
1F
100
AcDbEntity
  8
実線
100
AcDbLine
 10
781.3989400499533
 20
811.6781460986187
 30
0.0
 11
781.3989400499533
 21
1029.178146098619
 31
0.0
  0
LINE
  5
6CB
102
{ACAD_REACTORS
330
867
102
}
330
1F
100
AcDbEntity
  8
実線
100
AcDbLine
 10
671.3989400499522
 20
1029.178146098619
 30
0.0
 11
671.3989400499522
 21
811.6781460986187
 31
0.0
  0
LINE
  5
6CC
102
{ACAD_REACTORS
330
867
102
}
330
1F
100
AcDbEntity
  8
実線
100
AcDbLine
 10
781.3989400499533
 20
1029.178146098619
 30
0.0
 11
791.3989400499533
 21
1039.178146098619
 31
0.0
  0
LINE
  5
6CD
102
{ACAD_REACTORS
330
867
102
}
330
1F
100
AcDbEntity
  8
実線
100
AcDbLine
 10
661.3989400499534
 20
1039.178146098619
 30
0.0
 11
671.3989400499522
 21
1029.178146098619
 31
0.0
  0
LINE
  5
6CE
102
{ACAD_REACTORS
330
867
102
}
330
1F
100
AcDbEntity
  8
実線
100
AcDbLine
 10
671.3989400499522
 20
1029.178146098619
 30
0.0
 11
781.3989400499533
 21
1029.178146098619
 31
0.0
  0
LINE
  5
6CF
102
{ACAD_REACTORS
330
867
102
}
330
1F
100
AcDbEntity
  8
実線
100
AcDbLine
 10
791.3989400499533
 20
1039.178146098619
 30
0.0
 11
791.3989400499533
 21
1097.178146098618
 31
0.0
  0
LINE
  5
6D0
102
{ACAD_REACTORS
330
867
102
}
330
1F
100
AcDbEntity
  8
実線
100
AcDbLine
 10
661.3989400499534
 20
1097.178146098618
 30
0.0
 11
661.3989400499534
 21
1039.178146098619
 31
0.0
  0
LINE
  5
6D1
102
{ACAD_REACTORS
330
867
102
}
330
1F
100
AcDbEntity
  8
実線
100
AcDbLine
 10
791.3989400499533
 20
1039.178146098619
 30
0.0
 11
661.3989400499534
 21
1039.178146098619
 31
0.0
  0
LINE
  5
6D2
102
{ACAD_REACTORS
330
867
102
}
330
1F
100
AcDbEntity
  8
実線
100
AcDbLine
 10
791.3989400499533
 20
1097.178146098618
 30
0.0
 11
661.3989400499534
 21
1097.178146098618
 31
0.0
  0
LINE
  5
6D3
102
{ACAD_REACTORS
330
867
102
}
330
1F
100
AcDbEntity
  8
実線
100
AcDbLine
 10
671.3989400499522
 20
609.6781460986185
 30
0.0
 11
671.3989400499522
 21
392.1781460986184
 31
0.0
  0
LINE
  5
6D4
102
{ACAD_REACTORS
330
867
102
}
330
1F
100
AcDbEntity
  8
実線
100
AcDbLine
 10
781.3989400499512
 20
392.1781460986184
 30
0.0
 11
781.3989400499512
 21
609.6781460986185
 31
0.0
  0
LINE
  5
6D5
102
{ACAD_REACTORS
330
867
102
}
330
1F
100
AcDbEntity
  8
実線
100
AcDbLine
 10
661.3989400499522
 20
382.1781460986184
 30
0.0
 11
661.3989400499522
 21
324.1781460986184
 31
0.0
  0
LINE
  5
6D6
102
{ACAD_REACTORS
330
867
102
}
330
1F
100
AcDbEntity
  8
実線
100
AcDbLine
 10
791.3989400499513
 20
324.1781460986184
 30
0.0
 11
791.3989400499513
 21
382.1781460986184
 31
0.0
  0
LINE
  5
6D7
102
{ACAD_REACTORS
330
867
102
}
330
1F
100
AcDbEntity
  8
実線
100
AcDbLine
 10
661.3989400499522
 20
324.1781460986184
 30
0.0
 11
791.3989400499513
 21
324.1781460986184
 31
0.0
  0
LINE
  5
6D8
102
{ACAD_REACTORS
330
867
102
}
330
1F
100
AcDbEntity
  8
実線
100
AcDbLine
 10
671.3989400499522
 20
392.1781460986184
 30
0.0
 11
661.3989400499522
 21
382.1781460986184
 31
0.0
  0
LINE
  5
6D9
102
{ACAD_REACTORS
330
867
102
}
330
1F
100
AcDbEntity
  8
実線
100
AcDbLine
 10
791.3989400499513
 20
382.1781460986184
 30
0.0
 11
781.3989400499512
 21
392.1781460986184
 31
0.0
  0
LINE
  5
6DA
102
{ACAD_REACTORS
330
867
102
}
330
1F
100
AcDbEntity
  8
実線
100
AcDbLine
 10
781.3989400499512
 20
392.1781460986184
 30
0.0
 11
671.3989400499522
 21
392.1781460986184
 31
0.0
  0
LINE
  5
6DB
102
{ACAD_REACTORS
330
867
102
}
330
1F
100
AcDbEntity
  8
実線
100
AcDbLine
 10
791.3989400499513
 20
382.1781460986184
 30
0.0
 11
661.3989400499522
 21
382.1781460986184
 31
0.0
  0
LINE
  5
6DC
102
{ACAD_REACTORS
330
867
102
}
330
1F
100
AcDbEntity
  8
実線
100
AcDbLine
 10
686.8009603035052
 20
740.3766309084536
 30
0.0
 11
658.1631356654504
 21
740.3766309084536
 31
0.0
  0
LINE
  5
6DD
102
{ACAD_REACTORS
330
867
102
}
330
1F
100
AcDbEntity
  8
実線
100
AcDbLine
 10
707.8009603035052
 20
710.6781460986184
 30
0.0
 11
686.8009603035052
 21
740.3766309084536
 31
0.0
  0
LINE
  5
6DE
102
{ACAD_REACTORS
330
867
102
}
330
1F
100
AcDbEntity
  8
実線
100
AcDbLine
 10
658.1631356654504
 20
740.3766309084536
 30
0.0
 11
679.1631356654504
 21
710.6781460986184
 31
0.0
  0
LINE
  5
6DF
102
{ACAD_REACTORS
330
867
102
}
330
1F
100
AcDbEntity
  8
実線
100
AcDbLine
 10
637.1631356654504
 20
710.6781460986184
 30
0.0
 11
658.1631356654504
 21
740.3766309084536
 31
0.0
  0
LINE
  5
6E0
102
{ACAD_REACTORS
330
867
102
}
330
1F
100
AcDbEntity
  8
実線
100
AcDbLine
 10
658.1631356654504
 20
680.9796612887836
 30
0.0
 11
637.1631356654504
 21
710.6781460986184
 31
0.0
  0
LINE
  5
6E1
102
{ACAD_REACTORS
330
867
102
}
330
1F
100
AcDbEntity
  8
実線
100
AcDbLine
 10
707.8009603035052
 20
710.6781460986184
 30
0.0
 11
679.1631356654504
 21
710.6781460986184
 31
0.0
  0
LINE
  5
6E2
102
{ACAD_REACTORS
330
867
102
}
330
1F
100
AcDbEntity
  8
実線
100
AcDbLine
 10
679.1631356654504
 20
710.6781460986184
 30
0.0
 11
658.1631356654504
 21
680.9796612887835
 31
0.0
  0
LINE
  5
6E3
102
{ACAD_REACTORS
330
867
102
}
330
1F
100
AcDbEntity
  8
実線
100
AcDbLine
 10
686.8009603035052
 20
680.9796612887835
 30
0.0
 11
658.1631356654504
 21
680.9796612887835
 31
0.0
  0
LINE
  5
6E4
102
{ACAD_REACTORS
330
867
102
}
330
1F
100
AcDbEntity
  8
実線
100
AcDbLine
 10
697.0749440027002
 20
695.5092683757849
 30
0.0
 11
707.8009603035052
 21
710.6781460986184
 31
0.0
  0
LINE
  5
6E5
102
{ACAD_REACTORS
330
867
102
}
330
1F
100
AcDbEntity
  8
実線
100
AcDbLine
 10
686.8009603035052
 20
680.9796612887835
 30
0.0
 11
692.7418635845354
 21
689.3813672815621
 31
0.0
  0
ELLIPSE
  5
6E6
102
{ACAD_REACTORS
330
867
102
}
330
1F
100
AcDbEntity
  8
実線
100
AcDbEllipse
 10
658.1631356654504
 20
710.6781460986184
 30
0.0
 11
0.0
 21
2.999999999597037
 31
0.0
210
0.0
220
0.0
230
1.0
 40
0.7071067811865474
 41
4.71238898038469
 42
6.283185346604351
  0
LINE
  5
6E7
102
{ACAD_REACTORS
330
867
102
}
330
1F
100
AcDbEntity
  8
実線
100
AcDbLine
 10
658.1631356654504
 20
713.6781460982157
 30
0.0
 11
651.0920678538163
 21
713.6781460982157
 31
0.0
  0
LINE
  5
6E8
102
{ACAD_REACTORS
330
867
102
}
330
1F
100
AcDbEntity
  8
実線
100
AcDbLine
 10
651.0920678538163
 20
707.6781460990213
 30
0.0
 11
658.1631356654504
 21
707.6781460990213
 31
0.0
  0
ELLIPSE
  5
6E9
102
{ACAD_REACTORS
330
867
102
}
330
1F
100
AcDbEntity
  8
実線
100
AcDbEllipse
 10
658.1631356654504
 20
710.6781460986184
 30
0.0
 11
0.0
 21
2.999999999597037
 31
0.0
210
0.0
220
0.0
230
1.0
 40
0.7071067811865474
 41
3.14159269301456
 42
4.71238898038469
  0
ELLIPSE
  5
6EA
102
{ACAD_REACTORS
330
867
102
}
330
1F
100
AcDbEntity
  8
実線
100
AcDbEllipse
 10
646.1423203852961
 20
710.6781460986184
 30
0.0
 11
0.0000000000000018
 21
5.0
 31
0.0
210
0.0
220
0.0
230
1.0
 40
0.7071067811865475
 41
0.0
 42
1.570796326794897
  0
ELLIPSE
  5
6EB
102
{ACAD_REACTORS
330
867
102
}
330
1F
100
AcDbEntity
  8
実線
100
AcDbEllipse
 10
648.2636407288562
 20
710.6781460986184
 30
0.0
 11
0.0
 21
5.0
 31
0.0
210
0.0
220
0.0
230
1.0
 40
0.7071067811865475
 41
4.71238898038469
 42
6.283185307179584
  0
LINE
  5
6EC
102
{ACAD_REACTORS
330
867
102
}
330
1F
100
AcDbEntity
  8
実線
100
AcDbLine
 10
648.2636407288562
 20
715.6781460986183
 30
0.0
 11
646.1423203852961
 21
715.6781460986183
 31
0.0
  0
LINE
  5
6ED
102
{ACAD_REACTORS
330
867
102
}
330
1F
100
AcDbEntity
  8
実線
100
AcDbLine
 10
646.1423203852961
 20
705.6781460986184
 30
0.0
 11
648.2636407288562
 21
705.6781460986184
 31
0.0
  0
ELLIPSE
  5
6EE
102
{ACAD_REACTORS
330
867
102
}
330
1F
100
AcDbEntity
  8
実線
100
AcDbEllipse
 10
646.1423203852961
 20
710.6781460986184
 30
0.0
 11
0.0000000000000018
 21
5.0
 31
0.0
210
0.0
220
0.0
230
1.0
 40
0.7071067811865475
 41
3.141592653589792
 42
6.283185307179584
  0
ELLIPSE
  5
6EF
102
{ACAD_REACTORS
330
867
102
}
330
1F
100
AcDbEntity
  8
実線
100
AcDbEllipse
 10
646.1423203852961
 20
710.6781460986184
 30
0.0
 11
0.0000000000000018
 21
5.0
 31
0.0
210
0.0
220
0.0
230
1.0
 40
0.7071067811865475
 41
1.570796326794897
 42
3.141592653589792
  0
ELLIPSE
  5
6F0
102
{ACAD_REACTORS
330
867
102
}
330
1F
100
AcDbEntity
  8
実線
100
AcDbEllipse
 10
648.2636407288562
 20
710.6781460986184
 30
0.0
 11
0.0
 21
5.0
 31
0.0
210
0.0
220
0.0
230
1.0
 40
0.7071067811865475
 41
3.141592653589792
 42
4.71238898038469
  0
LINE
  5
6F1
102
{ACAD_REACTORS
330
867
102
}
330
1F
100
AcDbEntity
  8
実線
100
AcDbLine
 10
787.1786292277914
 20
791.6781460986187
 30
0.0
 11
665.6192508721133
 21
791.6781460986187
 31
0.0
  0
LINE
  5
6F2
102
{ACAD_REACTORS
330
867
102
}
330
1F
100
AcDbEntity
  8
実線
100
AcDbLine
 10
787.1786292277914
 20
776.6781460986187
 30
0.0
 11
665.6192508721133
 21
776.6781460986187
 31
0.0
  0
LINE
  5
6F3
102
{ACAD_REACTORS
330
867
102
}
330
1F
100
AcDbEntity
  8
実線
100
AcDbLine
 10
665.6192508721133
 20
791.6781460986187
 30
0.0
 11
665.6192508721133
 21
776.6781460986187
 31
0.0
  0
LINE
  5
6F4
102
{ACAD_REACTORS
330
867
102
}
330
1F
100
AcDbEntity
  8
実線
100
AcDbLine
 10
787.1786292277914
 20
776.6781460986187
 30
0.0
 11
787.1786292277914
 21
791.6781460986187
 31
0.0
  0
LINE
  5
6F5
102
{ACAD_REACTORS
330
867
102
}
330
1F
100
AcDbEntity
  8
実線
100
AcDbLine
 10
699.5889679000113
 20
776.6781460986187
 30
0.0
 11
699.5889679000113
 21
791.6781460986187
 31
0.0
  0
LINE
  5
6F6
102
{ACAD_REACTORS
330
867
102
}
330
1F
100
AcDbEntity
  8
実線
100
AcDbLine
 10
753.2089121998933
 20
776.6781460986187
 30
0.0
 11
753.2089121998933
 21
791.6781460986187
 31
0.0
  0
LINE
  5
6F7
102
{ACAD_REACTORS
330
867
102
}
330
1F
100
AcDbEntity
  8
実線
100
AcDbLine
 10
671.3989400499522
 20
612.6781460986184
 30
0.0
 11
671.3989400499522
 21
609.6781460986185
 31
0.0
  0
LINE
  5
6F8
102
{ACAD_REACTORS
330
867
102
}
330
1F
100
AcDbEntity
  8
実線
100
AcDbLine
 10
781.3989400499512
 20
609.6781460986185
 30
0.0
 11
781.3989400499512
 21
612.6781460986184
 31
0.0
  0
LINE
  5
6F9
102
{ACAD_REACTORS
330
867
102
}
330
1F
100
AcDbEntity
  8
実線
100
AcDbLine
 10
671.3989400499522
 20
609.6781460986185
 30
0.0
 11
781.3989400499512
 21
609.6781460986185
 31
0.0
  0
LINE
  5
6FA
102
{ACAD_REACTORS
330
867
102
}
330
1F
100
AcDbEntity
  8
実線
100
AcDbLine
 10
787.1786292277902
 20
612.6781460986184
 30
0.0
 11
753.2089121998933
 21
612.6781460986184
 31
0.0
  0
LINE
  5
6FB
102
{ACAD_REACTORS
330
867
102
}
330
1F
100
AcDbEntity
  8
実線
100
AcDbLine
 10
787.1786292277902
 20
612.6781460986184
 30
0.0
 11
787.1786292277902
 21
629.6781460986184
 31
0.0
  0
LINE
  5
6FC
102
{ACAD_REACTORS
330
867
102
}
330
1F
100
AcDbEntity
  8
実線
100
AcDbLine
 10
665.6192508721133
 20
629.6781460986184
 30
0.0
 11
665.6192508721133
 21
612.6781460986184
 31
0.0
  0
LINE
  5
6FD
102
{ACAD_REACTORS
330
867
102
}
330
1F
100
AcDbEntity
  8
実線
100
AcDbLine
 10
665.6192508721133
 20
612.6781460986184
 30
0.0
 11
699.5889679000104
 21
612.6781460986184
 31
0.0
  0
LINE
  5
6FE
102
{ACAD_REACTORS
330
867
102
}
330
1F
100
AcDbEntity
  8
実線
100
AcDbLine
 10
753.2089121998933
 20
629.6781460986184
 30
0.0
 11
753.2089121998933
 21
612.6781460986184
 31
0.0
  0
LINE
  5
6FF
102
{ACAD_REACTORS
330
867
102
}
330
1F
100
AcDbEntity
  8
実線
100
AcDbLine
 10
699.5889679000104
 20
629.6781460986184
 30
0.0
 11
699.5889679000104
 21
612.6781460986184
 31
0.0
  0
LINE
  5
700
102
{ACAD_REACTORS
330
867
102
}
330
1F
100
AcDbEntity
  8
実線
100
AcDbLine
 10
680.2332739640032
 20
680.9796612887835
 30
0.0
 11
678.4995936493774
 21
677.9768388997689
 31
0.0
  0
LINE
  5
701
102
{ACAD_REACTORS
330
867
102
}
330
1F
100
AcDbEntity
  8
実線
100
AcDbLine
 10
774.2982864505273
 20
677.9768388997689
 30
0.0
 11
762.6350563012892
 21
698.1781460986184
 31
0.0
  0
LINE
  5
702
102
{ACAD_REACTORS
330
867
102
}
330
1F
100
AcDbEntity
  8
実線
100
AcDbLine
 10
671.3989400499522
 20
651.4768388997689
 30
0.0
 11
671.3989400499522
 21
644.6781460986183
 31
0.0
  0
LINE
  5
703
102
{ACAD_REACTORS
330
867
102
}
330
1F
100
AcDbEntity
  8
実線
100
AcDbLine
 10
781.3989400499522
 20
644.6781460986183
 30
0.0
 11
781.3989400499522
 21
651.4768388997691
 31
0.0
  0
ARC
  5
704
102
{ACAD_REACTORS
330
867
102
}
330
1F
100
AcDbEntity
  8
実線
100
AcDbCircle
 10
724.3989400499522
 20
651.4768388997689
 30
0.0
 40
53.0
100
AcDbArc
 50
149.9999999999994
 51
180.0
  0
ARC
  5
705
102
{ACAD_REACTORS
330
867
102
}
330
1F
100
AcDbEntity
  8
実線
100
AcDbCircle
 10
728.3989400499522
 20
651.4768388997689
 30
0.0
 40
53.0
100
AcDbArc
 50
0.0
 51
30.00000000000055
  0
LINE
  5
706
102
{ACAD_REACTORS
330
867
102
}
330
1F
100
AcDbEntity
  8
実線
100
AcDbLine
 10
786.3989400499522
 20
319.1781460986185
 30
0.0
 11
666.3989400499513
 21
319.1781460986185
 31
0.0
  0
ARC
  5
707
102
{ACAD_REACTORS
330
867
102
}
330
1F
100
AcDbEntity
  8
実線
100
AcDbCircle
 10
666.3989400499513
 20
324.1781460986184
 30
0.0
 40
5.0
100
AcDbArc
 50
180.0
 51
270.0
  0
ARC
  5
708
102
{ACAD_REACTORS
330
867
102
}
330
1F
100
AcDbEntity
  8
実線
100
AcDbCircle
 10
786.3989400499522
 20
324.1781460986184
 30
0.0
 40
5.0
100
AcDbArc
 50
270.0
 51
0.0
  0
LINE
  5
709
102
{ACAD_REACTORS
330
867
102
}
330
1F
100
AcDbEntity
  8
実線
100
AcDbLine
 10
781.3989400499533
 20
808.6781460986188
 30
0.0
 11
781.3989400499533
 21
811.6781460986187
 31
0.0
  0
LINE
  5
70A
102
{ACAD_REACTORS
330
867
102
}
330
1F
100
AcDbEntity
  8
実線
100
AcDbLine
 10
671.3989400499522
 20
811.6781460986187
 30
0.0
 11
671.3989400499522
 21
808.6781460986188
 31
0.0
  0
LINE
  5
70B
102
{ACAD_REACTORS
330
867
102
}
330
1F
100
AcDbEntity
  8
実線
100
AcDbLine
 10
781.3989400499533
 20
811.6781460986187
 30
0.0
 11
671.3989400499522
 21
811.6781460986187
 31
0.0
  0
LINE
  5
70C
102
{ACAD_REACTORS
330
867
102
}
330
1F
100
AcDbEntity
  8
実線
100
AcDbLine
 10
665.6192508721144
 20
808.6781460986188
 30
0.0
 11
699.5889679000121
 21
808.6781460986188
 31
0.0
  0
LINE
  5
70D
102
{ACAD_REACTORS
330
867
102
}
330
1F
100
AcDbEntity
  8
実線
100
AcDbLine
 10
665.6192508721144
 20
808.6781460986188
 30
0.0
 11
665.6192508721144
 21
791.6781460986187
 31
0.0
  0
LINE
  5
70E
102
{ACAD_REACTORS
330
867
102
}
330
1F
100
AcDbEntity
  8
実線
100
AcDbLine
 10
787.1786292277914
 20
791.6781460986187
 30
0.0
 11
787.1786292277914
 21
808.6781460986188
 31
0.0
  0
LINE
  5
70F
102
{ACAD_REACTORS
330
867
102
}
330
1F
100
AcDbEntity
  8
実線
100
AcDbLine
 10
787.1786292277914
 20
808.6781460986188
 30
0.0
 11
753.2089121998942
 21
808.6781460986188
 31
0.0
  0
LINE
  5
710
102
{ACAD_REACTORS
330
867
102
}
330
1F
100
AcDbEntity
  8
実線
100
AcDbLine
 10
699.5889679000121
 20
791.6781460986187
 30
0.0
 11
699.5889679000121
 21
808.6781460986188
 31
0.0
  0
LINE
  5
711
102
{ACAD_REACTORS
330
867
102
}
330
1F
100
AcDbEntity
  8
実線
100
AcDbLine
 10
753.2089121998942
 20
791.6781460986187
 30
0.0
 11
753.2089121998942
 21
808.6781460986188
 31
0.0
  0
LINE
  5
712
102
{ACAD_REACTORS
330
867
102
}
330
1F
100
AcDbEntity
  8
実線
100
AcDbLine
 10
786.3989400499534
 20
1102.178146098618
 30
0.0
 11
666.3989400499533
 21
1102.178146098618
 31
0.0
  0
ARC
  5
713
102
{ACAD_REACTORS
330
867
102
}
330
1F
100
AcDbEntity
  8
実線
100
AcDbCircle
 10
786.3989400499534
 20
1097.178146098618
 30
0.0
 40
5.0
100
AcDbArc
 50
0.0
 51
90.0
  0
ARC
  5
714
102
{ACAD_REACTORS
330
867
102
}
330
1F
100
AcDbEntity
  8
実線
100
AcDbCircle
 10
666.3989400499533
 20
1097.178146098618
 30
0.0
 40
5.0
100
AcDbArc
 50
90.0
 51
180.0
  0
LINE
  5
715
102
{ACAD_REACTORS
330
869
102
}
330
1F
100
AcDbEntity
  8
実線
100
AcDbLine
 10
187.1786292277923
 20
644.6781460986183
 30
0.0
 11
155.5762000309734
 21
644.6781460986183
 31
0.0
  0
LINE
  5
716
102
{ACAD_REACTORS
330
869
102
}
330
1F
100
AcDbEntity
  8
実線
100
AcDbLine
 10
187.1786292277923
 20
629.6781460986182
 30
0.0
 11
187.1786292277923
 21
644.6781460986183
 31
0.0
  0
LINE
  5
717
102
{ACAD_REACTORS
330
869
102
}
330
1F
100
AcDbEntity
  8
実線
100
AcDbLine
 10
65.61925087211523
 20
644.6781460986183
 30
0.0
 11
65.61925087211523
 21
629.6781460986182
 31
0.0
  0
LINE
  5
718
102
{ACAD_REACTORS
330
869
102
}
330
1F
100
AcDbEntity
  8
実線
100
AcDbLine
 10
65.61925087211523
 20
644.6781460986183
 30
0.0
 11
97.22168006893452
 21
644.6781460986183
 31
0.0
  0
LINE
  5
719
102
{ACAD_REACTORS
330
869
102
}
330
1F
100
AcDbEntity
  8
実線
100
AcDbLine
 10
153.2089121998953
 20
642.1997992332409
 30
0.0
 11
153.2089121998953
 21
629.6781460986182
 31
0.0
  0
LINE
  5
71A
102
{ACAD_REACTORS
330
869
102
}
330
1F
100
AcDbEntity
  8
実線
100
AcDbLine
 10
99.58896790001279
 20
642.1997992332409
 30
0.0
 11
99.58896790001279
 21
629.6781460986182
 31
0.0
  0
LINE
  5
71B
102
{ACAD_REACTORS
330
869
102
}
330
1F
100
AcDbEntity
  8
実線
100
AcDbLine
 10
146.3851289929505
 20
721.4281460986185
 30
0.0
 11
118.7998206380335
 21
721.4281460986185
 31
0.0
  0
ELLIPSE
  5
71C
102
{ACAD_REACTORS
330
869
102
}
330
1F
100
AcDbEntity
  8
実線
100
AcDbEllipse
 10
165.9969197964007
 20
710.6781460986183
 30
0.0
 11
0.0
 21
12.5
 31
0.0
210
0.0
220
0.0
230
1.0
 40
0.7071067811865475
 41
0.0
 42
1.570796326794897
  0
LINE
  5
71D
102
{ACAD_REACTORS
330
869
102
}
330
1F
100
AcDbEntity
  8
実線
100
AcDbLine
 10
153.1862971424332
 20
698.1781460986183
 30
0.0
 11
165.9969197964007
 21
698.1781460986183
 31
0.0
  0
LINE
  5
71E
102
{ACAD_REACTORS
330
869
102
}
330
1F
100
AcDbEntity
  8
実線
100
AcDbLine
 10
165.9969197964007
 20
723.1781460986185
 30
0.0
 11
152.0217435751386
 21
723.1781460986185
 31
0.0
  0
ELLIPSE
  5
71F
102
{ACAD_REACTORS
330
869
102
}
330
1F
100
AcDbEntity
  8
実線
100
AcDbEllipse
 10
165.9969197964007
 20
710.6781460986183
 30
0.0
 11
0.0
 21
12.5
 31
0.0
210
0.0
220
0.0
230
1.0
 40
0.7071067811865475
 41
3.141592653589792
 42
3.242534414249328
  0
ELLIPSE
  5
720
102
{ACAD_REACTORS
330
869
102
}
330
1F
100
AcDbEntity
  8
実線
100
AcDbEllipse
 10
165.9969197964007
 20
710.6781460986183
 30
0.0
 11
0.0
 21
12.5
 31
0.0
210
0.0
220
0.0
230
1.0
 40
0.7071067811865475
 41
6.182243546520003
 42
6.283185307179584
  0
ELLIPSE
  5
721
102
{ACAD_REACTORS
330
869
102
}
330
1F
100
AcDbEntity
  8
実線
100
AcDbEllipse
 10
165.9969197964007
 20
710.6781460986183
 30
0.0
 11
0.0
 21
12.5
 31
0.0
210
0.0
220
0.0
230
1.0
 40
0.7071067811865475
 41
1.570796326794897
 42
3.141592653589792
  0
LINE
  5
722
102
{ACAD_REACTORS
330
869
102
}
330
1F
100
AcDbEntity
  8
実線
100
AcDbLine
 10
204.798940049954
 20
782.9281460986185
 30
0.0
 11
187.1786292277923
 21
782.9281460986185
 31
0.0
  0
LINE
  5
723
102
{ACAD_REACTORS
330
869
102
}
330
1F
100
AcDbEntity
  8
実線
100
AcDbLine
 10
186.9097696191106
 20
719.4281460986185
 30
0.0
 11
204.798940049954
 21
719.4281460986185
 31
0.0
  0
LINE
  5
724
102
{ACAD_REACTORS
330
869
102
}
330
1F
100
AcDbEntity
  8
実線
100
AcDbLine
 10
211.398940049954
 20
712.4281460986183
 30
0.0
 11
211.398940049954
 21
789.9281460986185
 31
0.0
  0
LINE
  5
725
102
{ACAD_REACTORS
330
869
102
}
330
1F
100
AcDbEntity
  8
実線
100
AcDbLine
 10
211.398940049954
 20
789.9281460986185
 30
0.0
 11
207.898940049954
 21
789.9281460986185
 31
0.0
  0
LINE
  5
726
102
{ACAD_REACTORS
330
869
102
}
330
1F
100
AcDbEntity
  8
実線
100
AcDbLine
 10
207.898940049954
 20
712.4281460986183
 30
0.0
 11
211.398940049954
 21
712.4281460986183
 31
0.0
  0
LINE
  5
727
102
{ACAD_REACTORS
330
869
102
}
330
1F
100
AcDbEntity
  8
実線
100
AcDbLine
 10
207.898940049954
 20
712.4281460986183
 30
0.0
 11
207.898940049954
 21
789.9281460986185
 31
0.0
  0
LINE
  5
728
102
{ACAD_REACTORS
330
869
102
}
330
1F
100
AcDbEntity
  8
実線
100
AcDbLine
 10
204.798940049954
 20
719.4281460986185
 30
0.0
 11
204.798940049954
 21
782.9281460986185
 31
0.0
  0
LINE
  5
729
102
{ACAD_REACTORS
330
869
102
}
330
1F
100
AcDbEntity
  8
実線
100
AcDbLine
 10
204.798940049954
 20
719.4281460986185
 30
0.0
 11
207.898940049954
 21
712.4281460986183
 31
0.0
  0
LINE
  5
72A
102
{ACAD_REACTORS
330
869
102
}
330
1F
100
AcDbEntity
  8
実線
100
AcDbLine
 10
207.898940049954
 20
789.9281460986185
 30
0.0
 11
204.798940049954
 21
782.9281460986185
 31
0.0
  0
LINE
  5
72B
102
{ACAD_REACTORS
330
869
102
}
330
1F
100
AcDbEntity
  8
実線
100
AcDbLine
 10
47.99894004995394
 20
719.4281460986185
 30
0.0
 11
71.98814463888959
 21
719.4281460986185
 31
0.0
  0
LINE
  5
72C
102
{ACAD_REACTORS
330
869
102
}
330
1F
100
AcDbEntity
  8
実線
100
AcDbLine
 10
65.61925087211523
 20
782.9281460986185
 30
0.0
 11
47.99894004995394
 21
782.9281460986185
 31
0.0
  0
LINE
  5
72D
102
{ACAD_REACTORS
330
869
102
}
330
1F
100
AcDbEntity
  8
実線
100
AcDbLine
 10
41.39894004995397
 20
712.4281460986183
 30
0.0
 11
44.89894004995398
 21
712.4281460986183
 31
0.0
  0
LINE
  5
72E
102
{ACAD_REACTORS
330
869
102
}
330
1F
100
AcDbEntity
  8
実線
100
AcDbLine
 10
44.89894004995398
 20
789.9281460986185
 30
0.0
 11
41.39894004995397
 21
789.9281460986185
 31
0.0
  0
LINE
  5
72F
102
{ACAD_REACTORS
330
869
102
}
330
1F
100
AcDbEntity
  8
実線
100
AcDbLine
 10
41.39894004995397
 20
712.4281460986183
 30
0.0
 11
41.39894004995397
 21
789.9281460986185
 31
0.0
  0
LINE
  5
730
102
{ACAD_REACTORS
330
869
102
}
330
1F
100
AcDbEntity
  8
実線
100
AcDbLine
 10
47.99894004995394
 20
782.9281460986185
 30
0.0
 11
44.89894004995398
 21
789.9281460986185
 31
0.0
  0
LINE
  5
731
102
{ACAD_REACTORS
330
869
102
}
330
1F
100
AcDbEntity
  8
実線
100
AcDbLine
 10
44.89894004995398
 20
712.4281460986183
 30
0.0
 11
47.99894004995394
 21
719.4281460986185
 31
0.0
  0
LINE
  5
732
102
{ACAD_REACTORS
330
869
102
}
330
1F
100
AcDbEntity
  8
実線
100
AcDbLine
 10
44.89894004995398
 20
789.9281460986185
 30
0.0
 11
44.89894004995398
 21
712.4281460986183
 31
0.0
  0
LINE
  5
733
102
{ACAD_REACTORS
330
869
102
}
330
1F
100
AcDbEntity
  8
実線
100
AcDbLine
 10
47.99894004995394
 20
782.9281460986185
 30
0.0
 11
47.99894004995394
 21
719.4281460986185
 31
0.0
  0
CIRCLE
  5
734
102
{ACAD_REACTORS
330
869
102
}
330
1F
100
AcDbEntity
  8
実線
100
AcDbCircle
 10
126.398940049954
 20
670.1781460986182
 30
0.0
 40
38.75
  0
LINE
  5
735
102
{ACAD_REACTORS
330
869
102
}
330
1F
100
AcDbEntity
  8
実線
100
AcDbLine
 10
86.80096030350728
 20
740.3766309084535
 30
0.0
 11
65.80096030350739
 21
710.6781460986183
 31
0.0
  0
LINE
  5
736
102
{ACAD_REACTORS
330
869
102
}
330
1F
100
AcDbEntity
  8
実線
100
AcDbLine
 10
86.80096030350728
 20
680.9796612887834
 30
0.0
 11
65.80096030350739
 21
710.6781460986183
 31
0.0
  0
LINE
  5
737
102
{ACAD_REACTORS
330
869
102
}
330
1F
100
AcDbEntity
  8
実線
100
AcDbLine
 10
97.07494400270206
 20
695.5092683757848
 30
0.0
 11
107.8009603035072
 21
710.6781460986183
 31
0.0
  0
LINE
  5
738
102
{ACAD_REACTORS
330
869
102
}
330
1F
100
AcDbEntity
  8
実線
100
AcDbLine
 10
86.80096030350728
 20
680.9796612887834
 30
0.0
 11
92.74186358453675
 21
689.3813672815621
 31
0.0
  0
LINE
  5
739
102
{ACAD_REACTORS
330
869
102
}
330
1F
100
AcDbEntity
  8
実線
100
AcDbLine
 10
89.1848329184288
 20
680.9796612887834
 30
0.0
 11
86.80096030350728
 21
680.9796612887834
 31
0.0
  0
LINE
  5
73A
102
{ACAD_REACTORS
330
869
102
}
330
1F
100
AcDbEntity
  8
実線
100
AcDbLine
 10
174.976577756628
 20
693.6788153616084
 30
0.0
 11
169.6124984924795
 21
686.0928617166051
 31
0.0
  0
LINE
  5
73B
102
{ACAD_REACTORS
330
869
102
}
330
1F
100
AcDbEntity
  8
実線
100
AcDbLine
 10
107.8009603035072
 20
710.6781460986183
 30
0.0
 11
134.0039093638857
 21
710.6781460986183
 31
0.0
  0
LINE
  5
73C
102
{ACAD_REACTORS
330
869
102
}
330
1F
100
AcDbEntity
  8
実線
100
AcDbLine
 10
93.75488450258558
 20
740.3766309084535
 30
0.0
 11
86.80096030350728
 21
740.3766309084535
 31
0.0
  0
LINE
  5
73D
102
{ACAD_REACTORS
330
869
102
}
330
1F
100
AcDbEntity
  8
実線
100
AcDbLine
 10
107.8009603035072
 20
710.6781460986183
 30
0.0
 11
86.80096030350728
 21
740.3766309084535
 31
0.0
  0
LINE
  5
73E
102
{ACAD_REACTORS
330
869
102
}
330
1F
100
AcDbEntity
  8
実線
100
AcDbLine
 10
137.3989400499533
 20
1102.178146098618
 30
0.0
 11
137.3989400499533
 21
1132.778146098618
 31
0.0
  0
LINE
  5
73F
102
{ACAD_REACTORS
330
869
102
}
330
1F
100
AcDbEntity
  8
実線
100
AcDbLine
 10
115.3989400499533
 20
1132.778146098618
 30
0.0
 11
115.3989400499533
 21
1102.178146098618
 31
0.0
  0
LINE
  5
740
102
{ACAD_REACTORS
330
869
102
}
330
1F
100
AcDbEntity
  8
実線
100
AcDbLine
 10
137.3989400499533
 20
1132.778146098618
 30
0.0
 11
115.3989400499533
 21
1132.778146098618
 31
0.0
  0
LINE
  5
741
102
{ACAD_REACTORS
330
869
102
}
330
1F
100
AcDbEntity
  8
実線
100
AcDbLine
 10
115.3989400499546
 20
319.1781460986184
 30
0.0
 11
115.3989400499546
 21
288.5781460986183
 31
0.0
  0
LINE
  5
742
102
{ACAD_REACTORS
330
869
102
}
330
1F
100
AcDbEntity
  8
実線
100
AcDbLine
 10
137.3989400499545
 20
288.5781460986184
 30
0.0
 11
137.3989400499545
 21
319.1781460986184
 31
0.0
  0
LINE
  5
743
102
{ACAD_REACTORS
330
869
102
}
330
1F
100
AcDbEntity
  8
実線
100
AcDbLine
 10
115.3989400499546
 20
288.5781460986184
 30
0.0
 11
137.3989400499545
 21
288.5781460986184
 31
0.0
  0
LINE
  5
744
102
{ACAD_REACTORS
330
869
102
}
330
1F
100
AcDbEntity
  8
実線
100
AcDbLine
 10
181.3989400499534
 20
811.6781460986185
 30
0.0
 11
181.3989400499534
 21
1029.178146098618
 31
0.0
  0
LINE
  5
745
102
{ACAD_REACTORS
330
869
102
}
330
1F
100
AcDbEntity
  8
実線
100
AcDbLine
 10
71.39894004995335
 20
1029.178146098618
 30
0.0
 11
71.39894004995335
 21
811.6781460986185
 31
0.0
  0
LINE
  5
746
102
{ACAD_REACTORS
330
869
102
}
330
1F
100
AcDbEntity
  8
実線
100
AcDbLine
 10
71.39894004995335
 20
1029.178146098618
 30
0.0
 11
181.3989400499533
 21
1029.178146098618
 31
0.0
  0
LINE
  5
747
102
{ACAD_REACTORS
330
869
102
}
330
1F
100
AcDbEntity
  8
実線
100
AcDbLine
 10
181.3989400499533
 20
1029.178146098618
 30
0.0
 11
191.3989400499534
 21
1039.178146098618
 31
0.0
  0
LINE
  5
748
102
{ACAD_REACTORS
330
869
102
}
330
1F
100
AcDbEntity
  8
実線
100
AcDbLine
 10
61.39894004995335
 20
1039.178146098618
 30
0.0
 11
71.39894004995335
 21
1029.178146098618
 31
0.0
  0
LINE
  5
749
102
{ACAD_REACTORS
330
869
102
}
330
1F
100
AcDbEntity
  8
実線
100
AcDbLine
 10
61.39894004995335
 20
1039.178146098618
 30
0.0
 11
191.3989400499534
 21
1039.178146098618
 31
0.0
  0
LINE
  5
74A
102
{ACAD_REACTORS
330
869
102
}
330
1F
100
AcDbEntity
  8
実線
100
AcDbLine
 10
191.3989400499534
 20
1039.178146098618
 30
0.0
 11
191.3989400499534
 21
1097.178146098618
 31
0.0
  0
LINE
  5
74B
102
{ACAD_REACTORS
330
869
102
}
330
1F
100
AcDbEntity
  8
実線
100
AcDbLine
 10
61.39894004995335
 20
1097.178146098618
 30
0.0
 11
61.39894004995335
 21
1039.178146098618
 31
0.0
  0
LINE
  5
74C
102
{ACAD_REACTORS
330
869
102
}
330
1F
100
AcDbEntity
  8
実線
100
AcDbLine
 10
71.3989400499546
 20
609.6781460986184
 30
0.0
 11
71.3989400499546
 21
392.1781460986183
 31
0.0
  0
LINE
  5
74D
102
{ACAD_REACTORS
330
869
102
}
330
1F
100
AcDbEntity
  8
実線
100
AcDbLine
 10
181.3989400499545
 20
392.1781460986183
 30
0.0
 11
181.3989400499545
 21
609.6781460986184
 31
0.0
  0
LINE
  5
74E
102
{ACAD_REACTORS
330
869
102
}
330
1F
100
AcDbEntity
  8
実線
100
AcDbLine
 10
191.3989400499545
 20
324.1781460986183
 30
0.0
 11
61.3989400499546
 21
324.1781460986183
 31
0.0
  0
LINE
  5
74F
102
{ACAD_REACTORS
330
869
102
}
330
1F
100
AcDbEntity
  8
実線
100
AcDbLine
 10
61.3989400499546
 20
382.1781460986183
 30
0.0
 11
61.3989400499546
 21
324.1781460986183
 31
0.0
  0
LINE
  5
750
102
{ACAD_REACTORS
330
869
102
}
330
1F
100
AcDbEntity
  8
実線
100
AcDbLine
 10
191.3989400499545
 20
324.1781460986183
 30
0.0
 11
191.3989400499545
 21
382.1781460986183
 31
0.0
  0
LINE
  5
751
102
{ACAD_REACTORS
330
869
102
}
330
1F
100
AcDbEntity
  8
実線
100
AcDbLine
 10
181.3989400499545
 20
392.1781460986183
 30
0.0
 11
71.3989400499546
 21
392.1781460986183
 31
0.0
  0
LINE
  5
752
102
{ACAD_REACTORS
330
869
102
}
330
1F
100
AcDbEntity
  8
実線
100
AcDbLine
 10
191.3989400499545
 20
382.1781460986183
 30
0.0
 11
61.3989400499546
 21
382.1781460986183
 31
0.0
  0
LINE
  5
753
102
{ACAD_REACTORS
330
869
102
}
330
1F
100
AcDbEntity
  8
実線
100
AcDbLine
 10
71.3989400499546
 20
392.1781460986183
 30
0.0
 11
61.3989400499546
 21
382.1781460986183
 31
0.0
  0
LINE
  5
754
102
{ACAD_REACTORS
330
869
102
}
330
1F
100
AcDbEntity
  8
実線
100
AcDbLine
 10
191.3989400499545
 20
382.1781460986183
 30
0.0
 11
181.3989400499545
 21
392.1781460986183
 31
0.0
  0
ELLIPSE
  5
755
102
{ACAD_REACTORS
330
869
102
}
330
1F
100
AcDbEntity
  8
実線
100
AcDbEllipse
 10
165.9969197964007
 20
710.6781460986183
 30
0.0
 11
0.0
 21
10.85000000000002
 31
0.0
210
0.0
220
0.0
230
1.0
 40
0.7071067811865475
 41
0.022074987617799
 42
3.119517665971818
  0
ELLIPSE
  5
756
102
{ACAD_REACTORS
330
869
102
}
330
1F
100
AcDbEntity
  8
実線
100
AcDbEllipse
 10
175.0832419346478
 20
710.6781460986183
 30
0.0
 11
0.0
 21
17.0
 31
0.0
210
0.0
220
0.0
230
1.0
 40
0.7071067811865475
 41
0.0
 42
3.141592653589792
  0
LINE
  5
757
102
{ACAD_REACTORS
330
869
102
}
330
1F
100
AcDbEntity
  8
実線
100
AcDbLine
 10
176.6035215141988
 20
727.6781460986185
 30
0.0
 11
175.0832419346478
 21
727.6781460986185
 31
0.0
  0
LINE
  5
758
102
{ACAD_REACTORS
330
869
102
}
330
1F
100
AcDbEntity
  8
実線
100
AcDbLine
 10
175.0832419346478
 20
693.6781460986183
 30
0.0
 11
176.6035215141988
 21
693.6781460986183
 31
0.0
  0
ELLIPSE
  5
759
102
{ACAD_REACTORS
330
869
102
}
330
1F
100
AcDbEntity
  8
実線
100
AcDbEllipse
 10
176.6035215141988
 20
710.6781460986183
 30
0.0
 11
0.0
 21
17.0
 31
0.0
210
0.0
220
0.0
230
1.0
 40
0.7071067811865475
 41
3.141592653589792
 42
6.283185307179584
  0
ELLIPSE
  5
75A
102
{ACAD_REACTORS
330
869
102
}
330
1F
100
AcDbEntity
  8
実線
100
AcDbEllipse
 10
176.6035215141988
 20
710.6781460986183
 30
0.0
 11
0.0
 21
17.0
 31
0.0
210
0.0
220
0.0
230
1.0
 40
0.7071067811865475
 41
0.0
 42
3.141592653589792
  0
LINE
  5
75B
102
{ACAD_REACTORS
330
869
102
}
330
1F
100
AcDbEntity
  8
実線
100
AcDbLine
 10
215.6347444344558
 20
710.6781460986183
 30
0.0
 11
211.398940049954
 21
716.6684781067403
 31
0.0
  0
LINE
  5
75C
102
{ACAD_REACTORS
330
869
102
}
330
1F
100
AcDbEntity
  8
実線
100
AcDbLine
 10
172.564606135903
 20
680.9796612887834
 30
0.0
 11
194.6347444344558
 21
680.9796612887834
 31
0.0
  0
LINE
  5
75D
102
{ACAD_REACTORS
330
869
102
}
330
1F
100
AcDbEntity
  8
実線
100
AcDbLine
 10
194.6347444344558
 20
680.9796612887835
 30
0.0
 11
215.6347444344558
 21
710.6781460986183
 31
0.0
  0
LINE
  5
75E
102
{ACAD_REACTORS
330
869
102
}
330
1F
100
AcDbEntity
  8
実線
100
AcDbLine
 10
188.6243367943702
 20
710.6781460986183
 30
0.0
 11
215.6347444344558
 21
710.6781460986183
 31
0.0
  0
LINE
  5
75F
102
{ACAD_REACTORS
330
869
102
}
330
1F
100
AcDbEntity
  8
実線
100
AcDbLine
 10
65.61925087211523
 20
776.6781460986185
 30
0.0
 11
187.1786292277928
 21
776.6781460986185
 31
0.0
  0
LINE
  5
760
102
{ACAD_REACTORS
330
869
102
}
330
1F
100
AcDbEntity
  8
実線
100
AcDbLine
 10
65.61925087211523
 20
791.6781460986185
 30
0.0
 11
187.1786292277928
 21
791.6781460986185
 31
0.0
  0
LINE
  5
761
102
{ACAD_REACTORS
330
869
102
}
330
1F
100
AcDbEntity
  8
実線
100
AcDbLine
 10
187.1786292277928
 20
776.6781460986185
 30
0.0
 11
187.1786292277928
 21
791.6781460986185
 31
0.0
  0
LINE
  5
762
102
{ACAD_REACTORS
330
869
102
}
330
1F
100
AcDbEntity
  8
実線
100
AcDbLine
 10
65.61925087211523
 20
791.6781460986185
 30
0.0
 11
65.61925087211523
 21
776.6781460986185
 31
0.0
  0
LINE
  5
763
102
{ACAD_REACTORS
330
869
102
}
330
1F
100
AcDbEntity
  8
実線
100
AcDbLine
 10
153.2089121998953
 20
776.6781460986185
 30
0.0
 11
153.2089121998953
 21
791.6781460986185
 31
0.0
  0
LINE
  5
764
102
{ACAD_REACTORS
330
869
102
}
330
1F
100
AcDbEntity
  8
実線
100
AcDbLine
 10
99.58896790001269
 20
776.6781460986185
 30
0.0
 11
99.58896790001269
 21
791.6781460986185
 31
0.0
  0
LINE
  5
765
102
{ACAD_REACTORS
330
869
102
}
330
1F
100
AcDbEntity
  8
実線
100
AcDbLine
 10
187.1786292277933
 20
629.6781460986182
 30
0.0
 11
65.6192508721158
 21
629.6781460986182
 31
0.0
  0
LINE
  5
766
102
{ACAD_REACTORS
330
869
102
}
330
1F
100
AcDbEntity
  8
実線
100
AcDbLine
 10
71.3989400499546
 20
609.6781460986184
 30
0.0
 11
181.3989400499545
 21
609.6781460986184
 31
0.0
  0
LINE
  5
767
102
{ACAD_REACTORS
330
869
102
}
330
1F
100
AcDbEntity
  8
実線
100
AcDbLine
 10
71.3989400499546
 20
612.6781460986182
 30
0.0
 11
71.3989400499546
 21
609.6781460986184
 31
0.0
  0
LINE
  5
768
102
{ACAD_REACTORS
330
869
102
}
330
1F
100
AcDbEntity
  8
実線
100
AcDbLine
 10
181.3989400499545
 20
609.6781460986184
 30
0.0
 11
181.3989400499545
 21
612.6781460986182
 31
0.0
  0
LINE
  5
769
102
{ACAD_REACTORS
330
869
102
}
330
1F
100
AcDbEntity
  8
実線
100
AcDbLine
 10
65.6192508721158
 20
629.6781460986182
 30
0.0
 11
65.6192508721158
 21
612.6781460986182
 31
0.0
  0
LINE
  5
76A
102
{ACAD_REACTORS
330
869
102
}
330
1F
100
AcDbEntity
  8
実線
100
AcDbLine
 10
65.6192508721158
 20
612.6781460986182
 30
0.0
 11
99.58896790001336
 21
612.6781460986182
 31
0.0
  0
LINE
  5
76B
102
{ACAD_REACTORS
330
869
102
}
330
1F
100
AcDbEntity
  8
実線
100
AcDbLine
 10
187.1786292277933
 20
612.6781460986182
 30
0.0
 11
153.2089121998959
 21
612.6781460986182
 31
0.0
  0
LINE
  5
76C
102
{ACAD_REACTORS
330
869
102
}
330
1F
100
AcDbEntity
  8
実線
100
AcDbLine
 10
187.1786292277933
 20
612.6781460986182
 30
0.0
 11
187.1786292277933
 21
629.6781460986182
 31
0.0
  0
LINE
  5
76D
102
{ACAD_REACTORS
330
869
102
}
330
1F
100
AcDbEntity
  8
実線
100
AcDbLine
 10
99.58896790001336
 20
629.6781460986182
 30
0.0
 11
99.58896790001336
 21
612.6781460986182
 31
0.0
  0
LINE
  5
76E
102
{ACAD_REACTORS
330
869
102
}
330
1F
100
AcDbEntity
  8
実線
100
AcDbLine
 10
153.2089121998959
 20
629.6781460986182
 30
0.0
 11
153.2089121998959
 21
612.6781460986182
 31
0.0
  0
LINE
  5
76F
102
{ACAD_REACTORS
330
869
102
}
330
1F
100
AcDbEntity
  8
実線
100
AcDbLine
 10
83.1853816074285
 20
686.0928617166051
 30
0.0
 11
78.49959364937877
 21
677.9768388997689
 31
0.0
  0
LINE
  5
770
102
{ACAD_REACTORS
330
869
102
}
330
1F
100
AcDbEntity
  8
実線
100
AcDbLine
 10
174.2982864505292
 20
677.9768388997688
 30
0.0
 11
162.635056301291
 21
698.1781460986183
 31
0.0
  0
LINE
  5
771
102
{ACAD_REACTORS
330
869
102
}
330
1F
100
AcDbEntity
  8
実線
100
AcDbLine
 10
71.39894004995397
 20
651.4768388997688
 30
0.0
 11
71.39894004995397
 21
644.6781460986183
 31
0.0
  0
LINE
  5
772
102
{ACAD_REACTORS
330
869
102
}
330
1F
100
AcDbEntity
  8
実線
100
AcDbLine
 10
181.398940049954
 20
644.6781460986183
 30
0.0
 11
181.398940049954
 21
651.4768388997689
 31
0.0
  0
ARC
  5
773
102
{ACAD_REACTORS
330
869
102
}
330
1F
100
AcDbEntity
  8
実線
100
AcDbCircle
 10
124.3989400499539
 20
651.4768388997688
 30
0.0
 40
53.0
100
AcDbArc
 50
149.9999999999994
 51
180.0
  0
ARC
  5
774
102
{ACAD_REACTORS
330
869
102
}
330
1F
100
AcDbEntity
  8
実線
100
AcDbCircle
 10
128.398940049954
 20
651.4768388997688
 30
0.0
 40
53.0
100
AcDbArc
 50
0.0
 51
30.00000000000055
  0
LINE
  5
775
102
{ACAD_REACTORS
330
869
102
}
330
1F
100
AcDbEntity
  8
実線
100
AcDbLine
 10
66.3989400499546
 20
319.1781460986184
 30
0.0
 11
186.3989400499545
 21
319.1781460986184
 31
0.0
  0
ARC
  5
776
102
{ACAD_REACTORS
330
869
102
}
330
1F
100
AcDbEntity
  8
実線
100
AcDbCircle
 10
66.3989400499546
 20
324.1781460986183
 30
0.0
 40
5.0
100
AcDbArc
 50
180.0
 51
270.0
  0
ARC
  5
777
102
{ACAD_REACTORS
330
869
102
}
330
1F
100
AcDbEntity
  8
実線
100
AcDbCircle
 10
186.3989400499545
 20
324.1781460986183
 30
0.0
 40
5.0
100
AcDbArc
 50
270.0
 51
0.0
  0
LINE
  5
778
102
{ACAD_REACTORS
330
869
102
}
330
1F
100
AcDbEntity
  8
実線
100
AcDbLine
 10
181.3989400499534
 20
811.6781460986185
 30
0.0
 11
71.39894004995335
 21
811.6781460986185
 31
0.0
  0
LINE
  5
779
102
{ACAD_REACTORS
330
869
102
}
330
1F
100
AcDbEntity
  8
実線
100
AcDbLine
 10
181.3989400499534
 20
808.6781460986184
 30
0.0
 11
181.3989400499534
 21
811.6781460986185
 31
0.0
  0
LINE
  5
77A
102
{ACAD_REACTORS
330
869
102
}
330
1F
100
AcDbEntity
  8
実線
100
AcDbLine
 10
71.39894004995335
 20
811.6781460986185
 30
0.0
 11
71.39894004995335
 21
808.6781460986184
 31
0.0
  0
LINE
  5
77B
102
{ACAD_REACTORS
330
869
102
}
330
1F
100
AcDbEntity
  8
実線
100
AcDbLine
 10
187.1786292277922
 20
791.6781460986185
 30
0.0
 11
187.1786292277922
 21
808.6781460986184
 31
0.0
  0
LINE
  5
77C
102
{ACAD_REACTORS
330
869
102
}
330
1F
100
AcDbEntity
  8
実線
100
AcDbLine
 10
187.1786292277922
 20
808.6781460986184
 30
0.0
 11
153.2089121998945
 21
808.6781460986184
 31
0.0
  0
LINE
  5
77D
102
{ACAD_REACTORS
330
869
102
}
330
1F
100
AcDbEntity
  8
実線
100
AcDbLine
 10
65.61925087211455
 20
808.6781460986184
 30
0.0
 11
99.58896790001222
 21
808.6781460986184
 31
0.0
  0
LINE
  5
77E
102
{ACAD_REACTORS
330
869
102
}
330
1F
100
AcDbEntity
  8
実線
100
AcDbLine
 10
65.61925087211455
 20
808.6781460986184
 30
0.0
 11
65.61925087211455
 21
791.6781460986185
 31
0.0
  0
LINE
  5
77F
102
{ACAD_REACTORS
330
869
102
}
330
1F
100
AcDbEntity
  8
実線
100
AcDbLine
 10
153.2089121998945
 20
791.6781460986185
 30
0.0
 11
153.2089121998945
 21
808.6781460986184
 31
0.0
  0
LINE
  5
780
102
{ACAD_REACTORS
330
869
102
}
330
1F
100
AcDbEntity
  8
実線
100
AcDbLine
 10
99.58896790001222
 20
791.6781460986185
 30
0.0
 11
99.58896790001222
 21
808.6781460986184
 31
0.0
  0
LINE
  5
781
102
{ACAD_REACTORS
330
869
102
}
330
1F
100
AcDbEntity
  8
実線
100
AcDbLine
 10
66.39894004995335
 20
1102.178146098618
 30
0.0
 11
186.3989400499534
 21
1102.178146098618
 31
0.0
  0
ARC
  5
782
102
{ACAD_REACTORS
330
869
102
}
330
1F
100
AcDbEntity
  8
実線
100
AcDbCircle
 10
186.3989400499534
 20
1097.178146098618
 30
0.0
 40
5.0
100
AcDbArc
 50
0.0
 51
90.0
  0
ARC
  5
783
102
{ACAD_REACTORS
330
869
102
}
330
1F
100
AcDbEntity
  8
実線
100
AcDbCircle
 10
66.39894004995335
 20
1097.178146098618
 30
0.0
 40
5.0
100
AcDbArc
 50
90.0
 51
180.0
  0
LINE
  5
784
102
{ACAD_REACTORS
330
869
102
}
330
1F
100
AcDbEntity
  8
実線
100
AcDbLine
 10
61.39894004995335
 20
1097.178146098618
 30
0.0
 11
191.3989400499534
 21
1097.178146098618
 31
0.0
  0
LINE
  5
785
102
{ACAD_REACTORS
330
868
102
}
330
1F
100
AcDbEntity
  8
実線
100
AcDbLine
 10
487.1786292278023
 20
644.6781460986183
 30
0.0
 11
365.6192508721245
 21
644.6781460986183
 31
0.0
  0
LINE
  5
786
102
{ACAD_REACTORS
330
868
102
}
330
1F
100
AcDbEntity
  8
実線
100
AcDbLine
 10
365.6192508721245
 20
644.6781460986183
 30
0.0
 11
365.6192508721245
 21
629.6781460986184
 31
0.0
  0
LINE
  5
787
102
{ACAD_REACTORS
330
868
102
}
330
1F
100
AcDbEntity
  8
実線
100
AcDbLine
 10
487.1786292278024
 20
629.6781460986184
 30
0.0
 11
487.1786292278024
 21
644.6781460986183
 31
0.0
  0
LINE
  5
788
102
{ACAD_REACTORS
330
868
102
}
330
1F
100
AcDbEntity
  8
実線
100
AcDbLine
 10
399.5889679000224
 20
644.6781460986183
 30
0.0
 11
399.5889679000224
 21
629.6781460986184
 31
0.0
  0
LINE
  5
789
102
{ACAD_REACTORS
330
868
102
}
330
1F
100
AcDbEntity
  8
実線
100
AcDbLine
 10
453.2089121999047
 20
644.6781460986183
 30
0.0
 11
453.2089121999047
 21
629.6781460986184
 31
0.0
  0
LINE
  5
78A
102
{ACAD_REACTORS
330
868
102
}
330
1F
100
AcDbEntity
  8
実線
100
AcDbLine
 10
433.9980594618841
 20
699.9281460986184
 30
0.0
 11
406.4127511069671
 21
699.9281460986184
 31
0.0
  0
LINE
  5
78B
102
{ACAD_REACTORS
330
868
102
}
330
1F
100
AcDbEntity
  8
実線
100
AcDbLine
 10
399.6115829574842
 20
723.1781460986186
 30
0.0
 11
386.8009603035168
 21
723.1781460986186
 31
0.0
  0
LINE
  5
78C
102
{ACAD_REACTORS
330
868
102
}
330
1F
100
AcDbEntity
  8
実線
100
AcDbLine
 10
386.8009603035168
 20
698.1781460986184
 30
0.0
 11
400.7761365247789
 21
698.1781460986184
 31
0.0
  0
ELLIPSE
  5
78D
102
{ACAD_REACTORS
330
868
102
}
330
1F
100
AcDbEntity
  8
実線
100
AcDbEllipse
 10
386.8009603035168
 20
710.6781460986184
 30
0.0
 11
0.0
 21
12.5
 31
0.0
210
0.0
220
0.0
230
1.0
 40
0.7071067811865476
 41
3.141592653589792
 42
6.283185307179584
  0
ELLIPSE
  5
78E
102
{ACAD_REACTORS
330
868
102
}
330
1F
100
AcDbEntity
  8
実線
100
AcDbEllipse
 10
386.8009603035168
 20
710.6781460986184
 30
0.0
 11
0.0
 21
12.5
 31
0.0
210
0.0
220
0.0
230
1.0
 40
0.7071067811865476
 41
3.04065089292993
 42
3.141592653589792
  0
ELLIPSE
  5
78F
102
{ACAD_REACTORS
330
868
102
}
330
1F
100
AcDbEntity
  8
実線
100
AcDbEllipse
 10
386.8009603035168
 20
710.6781460986184
 30
0.0
 11
0.0
 21
12.5
 31
0.0
210
0.0
220
0.0
230
1.0
 40
0.7071067811865476
 41
0.0
 42
0.1009417606597615
  0
CIRCLE
  5
790
102
{ACAD_REACTORS
330
868
102
}
330
1F
100
AcDbEntity
  8
実線
100
AcDbCircle
 10
426.3989400499635
 20
751.1781460986187
 30
0.0
 40
38.75
  0
LINE
  5
791
102
{ACAD_REACTORS
330
868
102
}
330
1F
100
AcDbEntity
  8
実線
100
AcDbLine
 10
347.9989400499635
 20
638.4281460986183
 30
0.0
 11
365.6192508721245
 21
638.4281460986183
 31
0.0
  0
LINE
  5
792
102
{ACAD_REACTORS
330
868
102
}
330
1F
100
AcDbEntity
  8
実線
100
AcDbLine
 10
365.8881104808066
 20
701.9281460986184
 30
0.0
 11
347.9989400499635
 21
701.9281460986184
 31
0.0
  0
LINE
  5
793
102
{ACAD_REACTORS
330
868
102
}
330
1F
100
AcDbEntity
  8
実線
100
AcDbLine
 10
347.9989400499635
 20
701.9281460986184
 30
0.0
 11
344.8989400499635
 21
708.9281460986184
 31
0.0
  0
LINE
  5
794
102
{ACAD_REACTORS
330
868
102
}
330
1F
100
AcDbEntity
  8
実線
100
AcDbLine
 10
344.8989400499635
 20
631.4281460986184
 30
0.0
 11
347.9989400499635
 21
638.4281460986183
 31
0.0
  0
LINE
  5
795
102
{ACAD_REACTORS
330
868
102
}
330
1F
100
AcDbEntity
  8
実線
100
AcDbLine
 10
347.9989400499635
 20
701.9281460986184
 30
0.0
 11
347.9989400499635
 21
638.4281460986183
 31
0.0
  0
LINE
  5
796
102
{ACAD_REACTORS
330
868
102
}
330
1F
100
AcDbEntity
  8
実線
100
AcDbLine
 10
341.3989400499635
 20
631.4281460986184
 30
0.0
 11
344.8989400499635
 21
631.4281460986184
 31
0.0
  0
LINE
  5
797
102
{ACAD_REACTORS
330
868
102
}
330
1F
100
AcDbEntity
  8
実線
100
AcDbLine
 10
344.8989400499635
 20
708.9281460986184
 30
0.0
 11
341.3989400499635
 21
708.9281460986184
 31
0.0
  0
LINE
  5
798
102
{ACAD_REACTORS
330
868
102
}
330
1F
100
AcDbEntity
  8
実線
100
AcDbLine
 10
341.3989400499635
 20
631.4281460986184
 30
0.0
 11
341.3989400499635
 21
708.9281460986184
 31
0.0
  0
LINE
  5
799
102
{ACAD_REACTORS
330
868
102
}
330
1F
100
AcDbEntity
  8
実線
100
AcDbLine
 10
344.8989400499635
 20
631.4281460986184
 30
0.0
 11
344.8989400499635
 21
708.9281460986184
 31
0.0
  0
LINE
  5
79A
102
{ACAD_REACTORS
330
868
102
}
330
1F
100
AcDbEntity
  8
実線
100
AcDbLine
 10
487.1786292278024
 20
638.4281460986183
 30
0.0
 11
504.7989400499637
 21
638.4281460986183
 31
0.0
  0
LINE
  5
79B
102
{ACAD_REACTORS
330
868
102
}
330
1F
100
AcDbEntity
  8
実線
100
AcDbLine
 10
511.3989400499634
 20
631.4281460986184
 30
0.0
 11
511.3989400499634
 21
704.6878140904968
 31
0.0
  0
LINE
  5
79C
102
{ACAD_REACTORS
330
868
102
}
330
1F
100
AcDbEntity
  8
実線
100
AcDbLine
 10
507.8989400499635
 20
631.4281460986184
 30
0.0
 11
511.3989400499634
 21
631.4281460986184
 31
0.0
  0
LINE
  5
79D
102
{ACAD_REACTORS
330
868
102
}
330
1F
100
AcDbEntity
  8
実線
100
AcDbLine
 10
507.8989400499635
 20
631.4281460986184
 30
0.0
 11
507.8989400499635
 21
699.7380666221906
 31
0.0
  0
LINE
  5
79E
102
{ACAD_REACTORS
330
868
102
}
330
1F
100
AcDbEntity
  8
実線
100
AcDbLine
 10
504.7989400499634
 20
638.4281460986183
 30
0.0
 11
504.7989400499634
 21
695.3540045788344
 31
0.0
  0
LINE
  5
79F
102
{ACAD_REACTORS
330
868
102
}
330
1F
100
AcDbEntity
  8
実線
100
AcDbLine
 10
504.7989400499634
 20
638.4281460986183
 30
0.0
 11
507.8989400499635
 21
631.4281460986184
 31
0.0
  0
LINE
  5
7A0
102
{ACAD_REACTORS
330
868
102
}
330
1F
100
AcDbEntity
  8
実線
100
AcDbLine
 10
460.0560165153809
 20
731.9749249156747
 30
0.0
 11
465.9969197964101
 21
740.3766309084536
 31
0.0
  0
LINE
  5
7A1
102
{ACAD_REACTORS
330
868
102
}
330
1F
100
AcDbEntity
  8
実線
100
AcDbLine
 10
444.9969197964101
 20
710.6781460986184
 30
0.0
 11
455.7229360972152
 21
725.8470238214516
 31
0.0
  0
LINE
  5
7A2
102
{ACAD_REACTORS
330
868
102
}
330
1F
100
AcDbEntity
  8
実線
100
AcDbLine
 10
465.9969197964101
 20
740.3766309084536
 30
0.0
 11
463.6130471814887
 21
740.3766309084536
 31
0.0
  0
LINE
  5
7A3
102
{ACAD_REACTORS
330
868
102
}
330
1F
100
AcDbEntity
  8
実線
100
AcDbLine
 10
377.8213023432896
 20
727.6774768356286
 30
0.0
 11
383.1853816074381
 21
735.2634304806316
 31
0.0
  0
LINE
  5
7A4
102
{ACAD_REACTORS
330
868
102
}
330
1F
100
AcDbEntity
  8
実線
100
AcDbLine
 10
432.3989400499636
 20
710.6781460986184
 30
0.0
 11
444.9969197964101
 21
710.6781460986184
 31
0.0
  0
LINE
  5
7A5
102
{ACAD_REACTORS
330
868
102
}
330
1F
100
AcDbEntity
  8
実線
100
AcDbLine
 10
465.9969197964101
 20
680.9796612887835
 30
0.0
 11
459.0429955973321
 21
680.9796612887835
 31
0.0
  0
LINE
  5
7A6
102
{ACAD_REACTORS
330
868
102
}
330
1F
100
AcDbEntity
  8
実線
100
AcDbLine
 10
437.3989400499533
 20
1102.178146098618
 30
0.0
 11
437.3989400499533
 21
1132.778146098618
 31
0.0
  0
LINE
  5
7A7
102
{ACAD_REACTORS
330
868
102
}
330
1F
100
AcDbEntity
  8
実線
100
AcDbLine
 10
415.3989400499533
 20
1132.778146098618
 30
0.0
 11
415.3989400499533
 21
1102.178146098618
 31
0.0
  0
LINE
  5
7A8
102
{ACAD_REACTORS
330
868
102
}
330
1F
100
AcDbEntity
  8
実線
100
AcDbLine
 10
437.3989400499533
 20
1132.778146098618
 30
0.0
 11
415.3989400499533
 21
1132.778146098618
 31
0.0
  0
LINE
  5
7A9
102
{ACAD_REACTORS
330
868
102
}
330
1F
100
AcDbEntity
  8
実線
100
AcDbLine
 10
437.3989400499533
 20
288.5781460986185
 30
0.0
 11
415.3989400499533
 21
288.5781460986185
 31
0.0
  0
LINE
  5
7AA
102
{ACAD_REACTORS
330
868
102
}
330
1F
100
AcDbEntity
  8
実線
100
AcDbLine
 10
415.3989400499533
 20
319.1781460986185
 30
0.0
 11
415.3989400499533
 21
288.5781460986184
 31
0.0
  0
LINE
  5
7AB
102
{ACAD_REACTORS
330
868
102
}
330
1F
100
AcDbEntity
  8
実線
100
AcDbLine
 10
437.3989400499533
 20
288.5781460986185
 30
0.0
 11
437.3989400499533
 21
319.1781460986185
 31
0.0
  0
LINE
  5
7AC
102
{ACAD_REACTORS
330
868
102
}
330
1F
100
AcDbEntity
  8
実線
100
AcDbLine
 10
481.3989400499532
 20
811.6781460986187
 30
0.0
 11
481.3989400499532
 21
1029.178146098619
 31
0.0
  0
LINE
  5
7AD
102
{ACAD_REACTORS
330
868
102
}
330
1F
100
AcDbEntity
  8
実線
100
AcDbLine
 10
371.3989400499534
 20
1029.178146098619
 30
0.0
 11
371.3989400499534
 21
811.6781460986187
 31
0.0
  0
LINE
  5
7AE
102
{ACAD_REACTORS
330
868
102
}
330
1F
100
AcDbEntity
  8
実線
100
AcDbLine
 10
481.3989400499532
 20
1029.178146098619
 30
0.0
 11
491.3989400499532
 21
1039.178146098619
 31
0.0
  0
LINE
  5
7AF
102
{ACAD_REACTORS
330
868
102
}
330
1F
100
AcDbEntity
  8
実線
100
AcDbLine
 10
361.3989400499534
 20
1039.178146098619
 30
0.0
 11
371.3989400499534
 21
1029.178146098619
 31
0.0
  0
LINE
  5
7B0
102
{ACAD_REACTORS
330
868
102
}
330
1F
100
AcDbEntity
  8
実線
100
AcDbLine
 10
371.3989400499534
 20
1029.178146098619
 30
0.0
 11
481.3989400499532
 21
1029.178146098619
 31
0.0
  0
LINE
  5
7B1
102
{ACAD_REACTORS
330
868
102
}
330
1F
100
AcDbEntity
  8
実線
100
AcDbLine
 10
491.3989400499532
 20
1039.178146098619
 30
0.0
 11
491.3989400499532
 21
1097.178146098618
 31
0.0
  0
LINE
  5
7B2
102
{ACAD_REACTORS
330
868
102
}
330
1F
100
AcDbEntity
  8
実線
100
AcDbLine
 10
361.3989400499534
 20
1097.178146098618
 30
0.0
 11
361.3989400499534
 21
1039.178146098619
 31
0.0
  0
LINE
  5
7B3
102
{ACAD_REACTORS
330
868
102
}
330
1F
100
AcDbEntity
  8
実線
100
AcDbLine
 10
491.3989400499532
 20
1039.178146098619
 30
0.0
 11
361.3989400499534
 21
1039.178146098619
 31
0.0
  0
LINE
  5
7B4
102
{ACAD_REACTORS
330
868
102
}
330
1F
100
AcDbEntity
  8
実線
100
AcDbLine
 10
491.3989400499532
 20
1097.178146098618
 30
0.0
 11
361.3989400499534
 21
1097.178146098618
 31
0.0
  0
LINE
  5
7B5
102
{ACAD_REACTORS
330
868
102
}
330
1F
100
AcDbEntity
  8
実線
100
AcDbLine
 10
371.3989400499534
 20
609.6781460986185
 30
0.0
 11
371.3989400499534
 21
392.1781460986184
 31
0.0
  0
LINE
  5
7B6
102
{ACAD_REACTORS
330
868
102
}
330
1F
100
AcDbEntity
  8
実線
100
AcDbLine
 10
481.3989400499532
 20
392.1781460986184
 30
0.0
 11
481.3989400499532
 21
609.6781460986185
 31
0.0
  0
LINE
  5
7B7
102
{ACAD_REACTORS
330
868
102
}
330
1F
100
AcDbEntity
  8
実線
100
AcDbLine
 10
371.3989400499534
 20
392.1781460986184
 30
0.0
 11
481.3989400499532
 21
392.1781460986184
 31
0.0
  0
LINE
  5
7B8
102
{ACAD_REACTORS
330
868
102
}
330
1F
100
AcDbEntity
  8
実線
100
AcDbLine
 10
371.3989400499535
 20
392.1781460986184
 30
0.0
 11
361.3989400499534
 21
382.1781460986184
 31
0.0
  0
LINE
  5
7B9
102
{ACAD_REACTORS
330
868
102
}
330
1F
100
AcDbEntity
  8
実線
100
AcDbLine
 10
491.3989400499532
 20
382.1781460986184
 30
0.0
 11
481.3989400499532
 21
392.1781460986184
 31
0.0
  0
LINE
  5
7BA
102
{ACAD_REACTORS
330
868
102
}
330
1F
100
AcDbEntity
  8
実線
100
AcDbLine
 10
361.3989400499534
 20
382.1781460986184
 30
0.0
 11
491.3989400499532
 21
382.1781460986184
 31
0.0
  0
LINE
  5
7BB
102
{ACAD_REACTORS
330
868
102
}
330
1F
100
AcDbEntity
  8
実線
100
AcDbLine
 10
361.3989400499534
 20
324.1781460986184
 30
0.0
 11
491.3989400499532
 21
324.1781460986184
 31
0.0
  0
LINE
  5
7BC
102
{ACAD_REACTORS
330
868
102
}
330
1F
100
AcDbEntity
  8
実線
100
AcDbLine
 10
361.3989400499534
 20
382.1781460986184
 30
0.0
 11
361.3989400499534
 21
324.1781460986184
 31
0.0
  0
LINE
  5
7BD
102
{ACAD_REACTORS
330
868
102
}
330
1F
100
AcDbEntity
  8
実線
100
AcDbLine
 10
491.3989400499532
 20
324.1781460986184
 30
0.0
 11
491.3989400499532
 21
382.1781460986184
 31
0.0
  0
ELLIPSE
  5
7BE
102
{ACAD_REACTORS
330
868
102
}
330
1F
100
AcDbEntity
  8
実線
100
AcDbEllipse
 10
386.8009603035168
 20
710.6781460986184
 30
0.0
 11
0.0
 21
10.85000000000002
 31
0.0
210
0.0
220
0.0
230
1.0
 40
0.7071067811865476
 41
3.163667641207053
 42
6.261110319562202
  0
ELLIPSE
  5
7BF
102
{ACAD_REACTORS
330
868
102
}
330
1F
100
AcDbEntity
  8
実線
100
AcDbEllipse
 10
376.1943585857185
 20
710.6781460986184
 30
0.0
 11
0.0
 21
17.0
 31
0.0
210
0.0
220
0.0
230
1.0
 40
0.7071067811865476
 41
0.0
 42
3.141592653589792
  0
LINE
  5
7C0
102
{ACAD_REACTORS
330
868
102
}
330
1F
100
AcDbEntity
  8
実線
100
AcDbLine
 10
376.1943585857185
 20
693.6781460986184
 30
0.0
 11
377.7146381652698
 21
693.6781460986184
 31
0.0
  0
LINE
  5
7C1
102
{ACAD_REACTORS
330
868
102
}
330
1F
100
AcDbEntity
  8
実線
100
AcDbLine
 10
377.7146381652698
 20
727.6781460986186
 30
0.0
 11
376.1943585857185
 21
727.6781460986186
 31
0.0
  0
ELLIPSE
  5
7C2
102
{ACAD_REACTORS
330
868
102
}
330
1F
100
AcDbEntity
  8
実線
100
AcDbEllipse
 10
376.1943585857185
 20
710.6781460986184
 30
0.0
 11
0.0
 21
17.0
 31
0.0
210
0.0
220
0.0
230
1.0
 40
0.7071067811865476
 41
3.141592653589792
 42
6.283185307179584
  0
ELLIPSE
  5
7C3
102
{ACAD_REACTORS
330
868
102
}
330
1F
100
AcDbEntity
  8
実線
100
AcDbEllipse
 10
377.7146381652698
 20
710.6781460986184
 30
0.0
 11
0.0
 21
17.0
 31
0.0
210
0.0
220
0.0
230
1.0
 40
0.7071067811865476
 41
3.141592653589792
 42
6.283185307179584
  0
LINE
  5
7C4
102
{ACAD_REACTORS
330
868
102
}
330
1F
100
AcDbEntity
  8
実線
100
AcDbLine
 10
494.6347444344652
 20
740.3766309084536
 30
0.0
 11
515.6347444344652
 21
710.6781460986184
 31
0.0
  0
LINE
  5
7C5
102
{ACAD_REACTORS
330
868
102
}
330
1F
100
AcDbEntity
  8
実線
100
AcDbLine
 10
515.6347444344652
 20
710.6781460986184
 30
0.0
 11
494.6347444344652
 21
680.9796612887835
 31
0.0
  0
LINE
  5
7C6
102
{ACAD_REACTORS
330
868
102
}
330
1F
100
AcDbEntity
  8
実線
100
AcDbLine
 10
473.6347444344652
 20
710.6781460986184
 30
0.0
 11
494.6347444344652
 21
740.3766309084536
 31
0.0
  0
LINE
  5
7C7
102
{ACAD_REACTORS
330
868
102
}
330
1F
100
AcDbEntity
  8
実線
100
AcDbLine
 10
465.9969197964101
 20
740.3766309084536
 30
0.0
 11
494.6347444344652
 21
740.3766309084536
 31
0.0
  0
LINE
  5
7C8
102
{ACAD_REACTORS
330
868
102
}
330
1F
100
AcDbEntity
  8
実線
100
AcDbLine
 10
465.9969197964101
 20
680.9796612887835
 30
0.0
 11
494.6347444344652
 21
680.9796612887835
 31
0.0
  0
LINE
  5
7C9
102
{ACAD_REACTORS
330
868
102
}
330
1F
100
AcDbEntity
  8
実線
100
AcDbLine
 10
494.6347444344652
 20
680.9796612887836
 30
0.0
 11
473.6347444344652
 21
710.6781460986184
 31
0.0
  0
LINE
  5
7CA
102
{ACAD_REACTORS
330
868
102
}
330
1F
100
AcDbEntity
  8
実線
100
AcDbLine
 10
444.9969197964101
 20
710.6781460986184
 30
0.0
 11
473.6347444344652
 21
710.6781460986184
 31
0.0
  0
LINE
  5
7CB
102
{ACAD_REACTORS
330
868
102
}
330
1F
100
AcDbEntity
  8
実線
100
AcDbLine
 10
444.9969197964101
 20
710.6781460986184
 30
0.0
 11
465.9969197964101
 21
680.9796612887835
 31
0.0
  0
LINE
  5
7CC
102
{ACAD_REACTORS
330
868
102
}
330
1F
100
AcDbEntity
  8
実線
100
AcDbLine
 10
494.6347444344652
 20
707.6781460990213
 30
0.0
 11
501.7058122460996
 21
707.6781460990213
 31
0.0
  0
LINE
  5
7CD
102
{ACAD_REACTORS
330
868
102
}
330
1F
100
AcDbEntity
  8
実線
100
AcDbLine
 10
501.7058122460996
 20
713.6781460982157
 30
0.0
 11
494.6347444344652
 21
713.6781460982157
 31
0.0
  0
ELLIPSE
  5
7CE
102
{ACAD_REACTORS
330
868
102
}
330
1F
100
AcDbEntity
  8
実線
100
AcDbEllipse
 10
494.6347444344652
 20
710.6781460986184
 30
0.0
 11
0.0
 21
2.999999999597037
 31
0.0
210
0.0
220
0.0
230
1.0
 40
0.7071067811865476
 41
6.28318526775482
 42
9.424777921344613
  0
ELLIPSE
  5
7CF
102
{ACAD_REACTORS
330
868
102
}
330
1F
100
AcDbEntity
  8
実線
100
AcDbEllipse
 10
506.6555597146192
 20
710.6781460986184
 30
0.0
 11
0.0
 21
5.0
 31
0.0
210
0.0
220
0.0
230
1.0
 40
0.7071067811865479
 41
0.0
 42
1.570796326794897
  0
LINE
  5
7D0
102
{ACAD_REACTORS
330
868
102
}
330
1F
100
AcDbEntity
  8
実線
100
AcDbLine
 10
504.5342393710597
 20
705.6781460986184
 30
0.0
 11
506.6555597146192
 21
705.6781460986184
 31
0.0
  0
LINE
  5
7D1
102
{ACAD_REACTORS
330
868
102
}
330
1F
100
AcDbEntity
  8
実線
100
AcDbLine
 10
506.6555597146192
 20
715.6781460986183
 30
0.0
 11
504.5342393710597
 21
715.6781460986183
 31
0.0
  0
ELLIPSE
  5
7D2
102
{ACAD_REACTORS
330
868
102
}
330
1F
100
AcDbEntity
  8
実線
100
AcDbEllipse
 10
506.6555597146192
 20
710.6781460986184
 30
0.0
 11
0.0
 21
5.0
 31
0.0
210
0.0
220
0.0
230
1.0
 40
0.7071067811865479
 41
3.141592653589792
 42
6.283185307179584
  0
ELLIPSE
  5
7D3
102
{ACAD_REACTORS
330
868
102
}
330
1F
100
AcDbEntity
  8
実線
100
AcDbEllipse
 10
506.6555597146192
 20
710.6781460986184
 30
0.0
 11
0.0
 21
5.0
 31
0.0
210
0.0
220
0.0
230
1.0
 40
0.7071067811865479
 41
1.570796326794897
 42
3.141592653589792
  0
ELLIPSE
  5
7D4
102
{ACAD_REACTORS
330
868
102
}
330
1F
100
AcDbEntity
  8
実線
100
AcDbEllipse
 10
504.5342393710597
 20
710.6781460986184
 30
0.0
 11
0.0
 21
5.0
 31
0.0
210
0.0
220
0.0
230
1.0
 40
0.7071067811865479
 41
0.0
 42
3.141592653589792
  0
LINE
  5
7D5
102
{ACAD_REACTORS
330
868
102
}
330
1F
100
AcDbEntity
  8
実線
100
AcDbLine
 10
399.0055417677617
 20
700.6781460986184
 30
0.0
 11
436.5410756736945
 21
700.6781460986184
 31
0.0
  0
LINE
  5
7D6
102
{ACAD_REACTORS
330
868
102
}
330
1F
100
AcDbEntity
  8
実線
100
AcDbLine
 10
402.4967957946879
 20
720.6781460986186
 30
0.0
 11
399.0055417677617
 21
720.6781460986186
 31
0.0
  0
LINE
  5
7D7
102
{ACAD_REACTORS
330
868
102
}
330
1F
100
AcDbEntity
  8
実線
100
AcDbLine
 10
365.6192508721245
 20
791.6781460986187
 30
0.0
 11
487.1786292278023
 21
791.6781460986187
 31
0.0
  0
LINE
  5
7D8
102
{ACAD_REACTORS
330
868
102
}
330
1F
100
AcDbEntity
  8
実線
100
AcDbLine
 10
487.1786292278023
 20
776.6781460986187
 30
0.0
 11
487.1786292278023
 21
791.6781460986187
 31
0.0
  0
LINE
  5
7D9
102
{ACAD_REACTORS
330
868
102
}
330
1F
100
AcDbEntity
  8
実線
100
AcDbLine
 10
487.1786292278023
 20
776.6781460986187
 30
0.0
 11
455.576200030983
 21
776.6781460986187
 31
0.0
  0
LINE
  5
7DA
102
{ACAD_REACTORS
330
868
102
}
330
1F
100
AcDbEntity
  8
実線
100
AcDbLine
 10
365.6192508721245
 20
776.6781460986187
 30
0.0
 11
397.221680068944
 21
776.6781460986187
 31
0.0
  0
LINE
  5
7DB
102
{ACAD_REACTORS
330
868
102
}
330
1F
100
AcDbEntity
  8
実線
100
AcDbLine
 10
365.6192508721245
 20
791.6781460986187
 30
0.0
 11
365.6192508721245
 21
776.6781460986187
 31
0.0
  0
LINE
  5
7DC
102
{ACAD_REACTORS
330
868
102
}
330
1F
100
AcDbEntity
  8
実線
100
AcDbLine
 10
453.2089121999047
 20
779.1564929639958
 30
0.0
 11
453.2089121999047
 21
791.6781460986187
 31
0.0
  0
LINE
  5
7DD
102
{ACAD_REACTORS
330
868
102
}
330
1F
100
AcDbEntity
  8
実線
100
AcDbLine
 10
399.5889679000224
 20
779.1564929639958
 30
0.0
 11
399.5889679000224
 21
791.6781460986187
 31
0.0
  0
LINE
  5
7DE
102
{ACAD_REACTORS
330
868
102
}
330
1F
100
AcDbEntity
  8
実線
100
AcDbLine
 10
487.1786292277926
 20
629.6781460986184
 30
0.0
 11
365.6192508721144
 21
629.6781460986184
 31
0.0
  0
LINE
  5
7DF
102
{ACAD_REACTORS
330
868
102
}
330
1F
100
AcDbEntity
  8
実線
100
AcDbLine
 10
371.3989400499534
 20
612.6781460986184
 30
0.0
 11
371.3989400499534
 21
609.6781460986185
 31
0.0
  0
LINE
  5
7E0
102
{ACAD_REACTORS
330
868
102
}
330
1F
100
AcDbEntity
  8
実線
100
AcDbLine
 10
481.3989400499532
 20
609.6781460986185
 30
0.0
 11
481.3989400499532
 21
612.6781460986184
 31
0.0
  0
LINE
  5
7E1
102
{ACAD_REACTORS
330
868
102
}
330
1F
100
AcDbEntity
  8
実線
100
AcDbLine
 10
371.3989400499534
 20
609.6781460986185
 30
0.0
 11
481.3989400499532
 21
609.6781460986185
 31
0.0
  0
LINE
  5
7E2
102
{ACAD_REACTORS
330
868
102
}
330
1F
100
AcDbEntity
  8
実線
100
AcDbLine
 10
365.6192508721144
 20
629.6781460986184
 30
0.0
 11
365.6192508721144
 21
612.6781460986184
 31
0.0
  0
LINE
  5
7E3
102
{ACAD_REACTORS
330
868
102
}
330
1F
100
AcDbEntity
  8
実線
100
AcDbLine
 10
365.6192508721144
 20
612.6781460986184
 30
0.0
 11
399.5889679000121
 21
612.6781460986184
 31
0.0
  0
LINE
  5
7E4
102
{ACAD_REACTORS
330
868
102
}
330
1F
100
AcDbEntity
  8
実線
100
AcDbLine
 10
487.1786292277926
 20
612.6781460986184
 30
0.0
 11
453.2089121998945
 21
612.6781460986184
 31
0.0
  0
LINE
  5
7E5
102
{ACAD_REACTORS
330
868
102
}
330
1F
100
AcDbEntity
  8
実線
100
AcDbLine
 10
487.1786292277926
 20
612.6781460986184
 30
0.0
 11
487.1786292277926
 21
629.6781460986184
 31
0.0
  0
LINE
  5
7E6
102
{ACAD_REACTORS
330
868
102
}
330
1F
100
AcDbEntity
  8
実線
100
AcDbLine
 10
399.5889679000121
 20
629.6781460986184
 30
0.0
 11
399.5889679000121
 21
612.6781460986184
 31
0.0
  0
LINE
  5
7E7
102
{ACAD_REACTORS
330
868
102
}
330
1F
100
AcDbEntity
  8
実線
100
AcDbLine
 10
453.2089121998945
 20
629.6781460986184
 30
0.0
 11
453.2089121998945
 21
612.6781460986184
 31
0.0
  0
LINE
  5
7E8
102
{ACAD_REACTORS
330
868
102
}
330
1F
100
AcDbEntity
  8
実線
100
AcDbLine
 10
486.398940049658
 20
319.1781460986185
 30
0.0
 11
366.3989400499533
 21
319.1781460986185
 31
0.0
  0
ARC
  5
7E9
102
{ACAD_REACTORS
330
868
102
}
330
1F
100
AcDbEntity
  8
実線
100
AcDbCircle
 10
366.3989400499533
 20
324.1781460986184
 30
0.0
 40
5.0
100
AcDbArc
 50
180.0
 51
270.0
  0
ARC
  5
7EA
102
{ACAD_REACTORS
330
868
102
}
330
1F
100
AcDbEntity
  8
実線
100
AcDbCircle
 10
486.3989400499532
 20
324.1781460986184
 30
0.0
 40
5.0
100
AcDbArc
 50
270.0
 51
0.0
  0
LINE
  5
7EB
102
{ACAD_REACTORS
330
868
102
}
330
1F
100
AcDbEntity
  8
実線
100
AcDbLine
 10
472.5646061359125
 20
740.3766309084536
 30
0.0
 11
474.2982864505387
 21
743.3794532974677
 31
0.0
  0
LINE
  5
7EC
102
{ACAD_REACTORS
330
868
102
}
330
1F
100
AcDbEntity
  8
実線
100
AcDbLine
 10
378.4995936493882
 20
743.3794532974677
 30
0.0
 11
390.1628237986264
 21
723.1781460986186
 31
0.0
  0
ARC
  5
7ED
102
{ACAD_REACTORS
330
868
102
}
330
1F
100
AcDbEntity
  8
実線
100
AcDbCircle
 10
428.3989400499636
 20
769.8794532974678
 30
0.0
 40
53.0
100
AcDbArc
 50
329.9999999999995
 51
0.0
  0
ARC
  5
7EE
102
{ACAD_REACTORS
330
868
102
}
330
1F
100
AcDbEntity
  8
実線
100
AcDbCircle
 10
424.3989400499636
 20
769.8794532974678
 30
0.0
 40
53.0
100
AcDbArc
 50
180.0
 51
209.9999999999997
  0
LINE
  5
7EF
102
{ACAD_REACTORS
330
868
102
}
330
1F
100
AcDbEntity
  8
実線
100
AcDbLine
 10
481.3989400499634
 20
769.8794532974678
 30
0.0
 11
481.3989400499634
 21
776.6781460986187
 31
0.0
  0
LINE
  5
7F0
102
{ACAD_REACTORS
330
868
102
}
330
1F
100
AcDbEntity
  8
実線
100
AcDbLine
 10
371.3989400499636
 20
776.6781460986187
 30
0.0
 11
371.3989400499636
 21
769.8794532974678
 31
0.0
  0
LINE
  5
7F1
102
{ACAD_REACTORS
330
868
102
}
330
1F
100
AcDbEntity
  8
実線
100
AcDbLine
 10
371.3989400499534
 20
811.6781460986187
 30
0.0
 11
481.3989400499532
 21
811.6781460986187
 31
0.0
  0
LINE
  5
7F2
102
{ACAD_REACTORS
330
868
102
}
330
1F
100
AcDbEntity
  8
実線
100
AcDbLine
 10
481.3989400499532
 20
808.6781460986188
 30
0.0
 11
481.3989400499532
 21
811.6781460986187
 31
0.0
  0
LINE
  5
7F3
102
{ACAD_REACTORS
330
868
102
}
330
1F
100
AcDbEntity
  8
実線
100
AcDbLine
 10
371.3989400499534
 20
811.6781460986187
 30
0.0
 11
371.3989400499534
 21
808.6781460986188
 31
0.0
  0
LINE
  5
7F4
102
{ACAD_REACTORS
330
868
102
}
330
1F
100
AcDbEntity
  8
実線
100
AcDbLine
 10
487.178629227792
 20
791.6781460986187
 30
0.0
 11
487.178629227792
 21
808.6781460986188
 31
0.0
  0
LINE
  5
7F5
102
{ACAD_REACTORS
330
868
102
}
330
1F
100
AcDbEntity
  8
実線
100
AcDbLine
 10
487.178629227792
 20
808.6781460986188
 30
0.0
 11
453.2089121998945
 21
808.6781460986188
 31
0.0
  0
LINE
  5
7F6
102
{ACAD_REACTORS
330
868
102
}
330
1F
100
AcDbEntity
  8
実線
100
AcDbLine
 10
365.6192508721144
 20
808.6781460986188
 30
0.0
 11
399.5889679000121
 21
808.6781460986188
 31
0.0
  0
LINE
  5
7F7
102
{ACAD_REACTORS
330
868
102
}
330
1F
100
AcDbEntity
  8
実線
100
AcDbLine
 10
365.6192508721144
 20
808.6781460986188
 30
0.0
 11
365.6192508721144
 21
791.6781460986187
 31
0.0
  0
LINE
  5
7F8
102
{ACAD_REACTORS
330
868
102
}
330
1F
100
AcDbEntity
  8
実線
100
AcDbLine
 10
453.2089121998945
 20
791.6781460986187
 30
0.0
 11
453.2089121998945
 21
808.6781460986188
 31
0.0
  0
LINE
  5
7F9
102
{ACAD_REACTORS
330
868
102
}
330
1F
100
AcDbEntity
  8
実線
100
AcDbLine
 10
399.5889679000121
 20
791.6781460986187
 30
0.0
 11
399.5889679000121
 21
808.6781460986188
 31
0.0
  0
LINE
  5
7FA
102
{ACAD_REACTORS
330
868
102
}
330
1F
100
AcDbEntity
  8
実線
100
AcDbLine
 10
366.3989400502489
 20
1102.178146098618
 30
0.0
 11
486.3989400499532
 21
1102.178146098618
 31
0.0
  0
ARC
  5
7FB
102
{ACAD_REACTORS
330
868
102
}
330
1F
100
AcDbEntity
  8
実線
100
AcDbCircle
 10
486.3989400499532
 20
1097.178146098618
 30
0.0
 40
5.0
100
AcDbArc
 50
0.0
 51
90.0
  0
ARC
  5
7FC
102
{ACAD_REACTORS
330
868
102
}
330
1F
100
AcDbEntity
  8
実線
100
AcDbCircle
 10
366.3989400499533
 20
1097.178146098618
 30
0.0
 40
5.0
100
AcDbArc
 50
90.0
 51
180.0
  0
LINE
  5
7FD
102
{ACAD_REACTORS
330
8B8
102
}
330
1F
100
AcDbEntity
  8
中心線
100
AcDbLine
 10
513.3989400499534
 20
110.6781460986221
 30
0.0
 11
339.3989400499535
 21
110.6781460986221
 31
0.0
  0
LINE
  5
7FE
102
{ACAD_REACTORS
330
8B8
102
}
330
1F
100
AcDbEntity
  8
中心線
100
AcDbLine
 10
426.3989400499534
 20
197.6781460986184
 30
0.0
 11
426.3989400499534
 21
23.67814609861842
 31
0.0
  0
LINE
  5
7FF
102
{ACAD_REACTORS
330
8B9
102
}
330
1F
100
AcDbEntity
  8
中心線
100
AcDbLine
 10
513.3989400499534
 20
1310.678146098623
 30
0.0
 11
339.3989400499535
 21
1310.678146098623
 31
0.0
  0
LINE
  5
800
102
{ACAD_REACTORS
330
8B9
102
}
330
1F
100
AcDbEntity
  8
中心線
100
AcDbLine
 10
426.3989400499534
 20
1397.678146098618
 30
0.0
 11
426.3989400499534
 21
1223.678146098618
 31
0.0
  0
LINE
  5
801
102
{ACAD_REACTORS
330
866
102
}
330
1F
100
AcDbEntity
  8
中心線
100
AcDbLine
 10
1026.398940049953
 20
280.6781460986184
 30
0.0
 11
1026.398940049953
 21
1140.678146098618
 31
0.0
  0
LINE
  5
804
102
{ACAD_REACTORS
330
866
102
}
330
1F
100
AcDbEntity
  8
中心線
100
AcDbLine
 10
939.3989400499533
 20
670.1781460986183
 30
0.0
 11
1113.398940049953
 21
670.1781460986183
 31
0.0
  0
LINE
  5
80C
102
{ACAD_REACTORS
330
867
102
}
330
1F
100
AcDbEntity
  8
中心線
100
AcDbLine
 10
726.3989400499533
 20
280.6781460986184
 30
0.0
 11
726.3989400499531
 21
1140.678146098618
 31
0.0
  0
LINE
  5
80F
102
{ACAD_REACTORS
330
867
102
}
330
1F
100
AcDbEntity
  8
中心線
100
AcDbLine
 10
661.3989400499534
 20
670.1781460986183
 30
0.0
 11
791.3989400499533
 21
670.1781460986183
 31
0.0
  0
LINE
  5
810
102
{ACAD_REACTORS
330
868
102
}
330
1F
100
AcDbEntity
  8
中心線
100
AcDbLine
 10
426.3989400499533
 20
280.6781460986184
 30
0.0
 11
426.3989400499533
 21
1140.678146098618
 31
0.0
  0
LINE
  5
813
102
{ACAD_REACTORS
330
868
102
}
330
1F
100
AcDbEntity
  8
中心線
100
AcDbLine
 10
339.3989400499533
 20
670.1781460986183
 30
0.0
 11
513.3989400499533
 21
670.1781460986183
 31
0.0
  0
LINE
  5
814
102
{ACAD_REACTORS
330
869
102
}
330
1F
100
AcDbEntity
  8
中心線
100
AcDbLine
 10
126.3989400499533
 20
280.6781460986183
 30
0.0
 11
126.3989400499533
 21
1140.678146098618
 31
0.0
  0
LINE
  5
817
102
{ACAD_REACTORS
330
869
102
}
330
1F
100
AcDbEntity
  8
中心線
100
AcDbLine
 10
61.39894004995335
 20
670.1781460986182
 30
0.0
 11
191.3989400499533
 21
670.1781460986182
 31
0.0
  0
LINE
  5
85E
102
{ACAD_REACTORS
330
869
102
}
330
1F
100
AcDbEntity
  8
中心線
100
AcDbLine
 10
31.39894004995336
 20
710.6781460986183
 30
0.0
 11
221.3989400499534
 21
710.6781460986183
 31
0.0
  0
LINE
  5
85F
102
{ACAD_REACTORS
330
869
102
}
330
1F
100
AcDbEntity
  8
中心線
100
AcDbLine
 10
39.39894004995336
 20
751.1781460986185
 30
0.0
 11
213.3989400499534
 21
751.1781460986185
 31
0.0
  0
LINE
  5
860
102
{ACAD_REACTORS
330
868
102
}
330
1F
100
AcDbEntity
  8
中心線
100
AcDbLine
 10
331.3989400499636
 20
710.6781460986184
 30
0.0
 11
521.3989400499635
 21
710.6781460986184
 31
0.0
  0
LINE
  5
861
102
{ACAD_REACTORS
330
868
102
}
330
1F
100
AcDbEntity
  8
中心線
100
AcDbLine
 10
361.3989400499534
 20
751.1781460986187
 30
0.0
 11
491.3989400499533
 21
751.1781460986187
 31
0.0
  0
LINE
  5
862
102
{ACAD_REACTORS
330
867
102
}
330
1F
100
AcDbEntity
  8
中心線
100
AcDbLine
 10
631.3989400499533
 20
710.6781460986184
 30
0.0
 11
821.3989400499533
 21
710.6781460986184
 31
0.0
  0
LINE
  5
863
102
{ACAD_REACTORS
330
867
102
}
330
1F
100
AcDbEntity
  8
中心線
100
AcDbLine
 10
639.3989400499531
 20
751.1781460986187
 30
0.0
 11
813.3989400499531
 21
751.1781460986187
 31
0.0
  0
LINE
  5
864
102
{ACAD_REACTORS
330
866
102
}
330
1F
100
AcDbEntity
  8
中心線
100
AcDbLine
 10
931.3989400499533
 20
710.6781460986184
 30
0.0
 11
1121.398940049953
 21
710.6781460986184
 31
0.0
  0
LINE
  5
865
102
{ACAD_REACTORS
330
866
102
}
330
1F
100
AcDbEntity
  8
中心線
100
AcDbLine
 10
961.3989400499534
 20
751.1781460986187
 30
0.0
 11
1091.398940049953
 21
751.1781460986187
 31
0.0
  0
LINE
  5
8B6
102
{ACAD_REACTORS
330
8B9
102
}
330
1F
100
AcDbEntity
  8
中心線
100
AcDbLine
 10
426.3989400499501
 20
1310.678146098622
 30
0.0
 11
364.8806500867204
 21
1249.159856135392
 31
0.0
  0
LINE
  5
8B7
102
{ACAD_REACTORS
330
8B8
102
}
330
1F
100
AcDbEntity
  8
中心線
100
AcDbLine
 10
426.398940049952
 20
110.678146098622
 30
0.0
 11
364.8806500867249
 21
172.1964360618491
 31
0.0
  0
ENDSEC
  0
SECTION
  2
OBJECTS
  0
DICTIONARY
  5
C
330
0
100
AcDbDictionary
281
     1
  3
ACAD_CIP_PREVIOUS_PRODUCT_INFO
350
339
  3
ACAD_COLOR
350
32F
  3
ACAD_DETAILVIEWSTYLE
350
332
  3
ACAD_GROUP
350
D
  3
ACAD_LAYOUT
350
1A
  3
ACAD_MATERIAL
350
43
  3
ACAD_MLEADERSTYLE
350
5B
  3
ACAD_MLINESTYLE
350
17
  3
ACAD_PLOTSETTINGS
350
19
  3
ACAD_PLOTSTYLENAME
350
E
  3
ACAD_SCALELIST
350
47
  3
ACAD_SECTIONVIEWSTYLE
350
330
  3
ACAD_TABLESTYLE
350
59
  3
ACAD_VISUALSTYLE
350
2A
  3
ACDB_RECOMPOSE_DATA
350
8DB
  3
AcDbVariableDictionary
350
2E4
  3
DWGPROPS
350
8DC
  0
DICTIONARY
  5
340
330
2
100
AcDbDictionary
280
     1
281
     1
  3
ACAD_LAYERSTATES
360
341
  0
DICTIONARY
  5
81E
330
10
100
AcDbDictionary
280
     1
281
     1
  3
ADSK_XREC_LAYER_RECONCILED
360
81F
  0
DICTIONARY
  5
33C
330
33B
100
AcDbDictionary
280
     1
281
     1
  3
ADSK_XREC_LAYER_RECONCILED
360
820
  0
DICTIONARY
  5
33E
330
33D
100
AcDbDictionary
280
     1
281
     1
  3
ADSK_XREC_LAYER_RECONCILED
360
821
  0
DICTIONARY
  5
5E2
330
1F
100
AcDbDictionary
280
     1
281
     1
  3
ACAD_SORTENTS
360
5E3
  0
XRECORD
  5
339
102
{ACAD_REACTORS
330
C
102
}
330
C
100
AcDbXrecord
280
     1
300
ACDLT
300
2016
300
ACDLT_F_S
  0
DICTIONARY
  5
32F
102
{ACAD_REACTORS
330
C
102
}
330
C
100
AcDbDictionary
281
     1
  0
DICTIONARY
  5
332
102
{ACAD_REACTORS
330
C
102
}
330
C
100
AcDbDictionary
281
     1
  3
Metric50
350
333
  0
DICTIONARY
  5
D
102
{ACAD_REACTORS
330
C
102
}
330
C
100
AcDbDictionary
281
     1
  3
*A1
350
869
  3
*A4
350
866
  3
*A5
350
867
  3
*A6
350
868
  3
*A7
350
8B8
  3
*A8
350
8B9
  0
DICTIONARY
  5
1A
102
{ACAD_REACTORS
330
C
102
}
330
C
100
AcDbDictionary
281
     1
  3
Layout1
350
1E
  3
Model
350
22
  3
レイアウト1
350
334
  0
DICTIONARY
  5
43
102
{ACAD_REACTORS
330
C
102
}
330
C
100
AcDbDictionary
281
     1
  3
ByBlock
350
45
  3
ByLayer
350
44
  3
Global
350
46
  0
DICTIONARY
  5
5B
102
{ACAD_REACTORS
330
C
102
}
330
C
100
AcDbDictionary
281
     1
  3
Standard
350
5C
  0
DICTIONARY
  5
17
102
{ACAD_REACTORS
330
C
102
}
330
C
100
AcDbDictionary
281
     1
  3
Standard
350
18
  0
DICTIONARY
  5
19
102
{ACAD_REACTORS
330
C
102
}
330
C
100
AcDbDictionary
281
     1
  0
ACDBDICTIONARYWDFLT
  5
E
102
{ACAD_REACTORS
330
C
102
}
330
C
100
AcDbDictionary
281
     1
  3
Normal
350
F
100
AcDbDictionaryWithDefault
340
F
  0
DICTIONARY
  5
47
102
{ACAD_REACTORS
330
C
102
}
330
C
100
AcDbDictionary
281
     1
  3
A0
350
48
  3
A1
350
49
  3
A2
350
4A
  3
A3
350
4B
  3
A4
350
4C
  3
A5
350
4D
  3
A6
350
4E
  3
A7
350
4F
  3
A8
350
50
  3
A9
350
51
  3
B0
350
52
  3
B1
350
53
  3
B2
350
54
  3
B3
350
55
  3
B4
350
56
  3
B5
350
57
  3
B6
350
58
  0
DICTIONARY
  5
330
102
{ACAD_REACTORS
330
C
102
}
330
C
100
AcDbDictionary
281
     1
  3
Metric50
350
331
  0
DICTIONARY
  5
59
102
{ACAD_REACTORS
330
C
102
}
330
C
100
AcDbDictionary
281
     1
  3
Standard
350
5A
  0
DICTIONARY
  5
2A
102
{ACAD_REACTORS
330
C
102
}
330
C
100
AcDbDictionary
281
     1
  3
2dWireframe
350
2F
  3
Basic
350
32
  3
Brighten
350
36
  3
ColorChange
350
3A
  3
Conceptual
350
34
  3
Dim
350
35
  3
EdgeColorOff
350
3D
  3
Facepattern
350
39
  3
Flat
350
2B
  3
FlatWithEdges
350
2C
  3
Gouraud
350
2D
  3
GouraudWithEdges
350
2E
  3
Hidden
350
31
  3
JitterOff
350
3B
  3
Linepattern
350
38
  3
OverhangOff
350
3C
  3
Realistic
350
33
  3
Shaded
350
42
  3
Shaded with edges
350
41
  3
Shades of Gray
350
3E
  3
Sketchy
350
3F
  3
Thicken
350
37
  3
Wireframe
350
30
  3
X-Ray
350
40
  0
XRECORD
  5
8DB
102
{ACAD_REACTORS
330
C
102
}
330
C
100
AcDbXrecord
280
     1
 90
        1
330
5A
  0
DICTIONARY
  5
2E4
102
{ACAD_REACTORS
330
C
102
}
330
C
100
AcDbDictionary
281
     1
  3
CANNOSCALE
350
2F2
  3
CENTEREXE
350
2EB
  3
CENTERLTYPEFILE
350
2EC
  3
CMLEADERSTYLE
350
2E6
  3
CTABLESTYLE
350
2E5
  3
CVIEWDETAILSTYLE
350
822
  3
CVIEWSECTIONSTYLE
350
823
  3
DIMASSOC
350
2ED
  3
HIDETEXT
350
2EE
  3
INDEXCTL
350
8D3
  3
LAYEREVAL
350
825
  3
LAYERNOTIFY
350
826
  3
LIGHTINGUNITS
350
824
  3
LOFTANG1
350
8D6
  3
LOFTANG2
350
8D7
  3
LONGITUDE
350
8D8
  3
MSLTSCALE
350
2F3
  3
PSOLHEIGHT
350
8D5
  3
PSOLWIDTH
350
8D4
  3
SORTENTS
350
8D2
  3
XCLIPFRAME
350
8D9
  0
XRECORD
  5
8DC
102
{ACAD_REACTORS
330
C
102
}
330
C
100
AcDbXrecord
280
     1
  1
DWGPROPS COOKIE
  2

  3

  4

  6
File was created by TR2_DExp
  7

  8
fujino
  9

300
=
301
=
302
=
303
=
304
=
305
=
306
=
307
=
308
=
309
=
 40
0.0161087847222222
 41
2455188.75
 42
2459753.492503334
  1

 90
        0
  0
DICTIONARY
  5
341
102
{ACAD_REACTORS
330
340
102
}
330
340
100
AcDbDictionary
281
     1
  0
XRECORD
  5
81F
102
{ACAD_REACTORS
330
81E
102
}
330
81E
100
AcDbXrecord
280
     1
290
     1
  0
XRECORD
  5
820
102
{ACAD_REACTORS
330
33C
102
}
330
33C
100
AcDbXrecord
280
     1
290
     1
  0
XRECORD
  5
821
102
{ACAD_REACTORS
330
33E
102
}
330
33E
100
AcDbXrecord
280
     1
290
     1
  0
SORTENTSTABLE
  5
5E3
102
{ACAD_REACTORS
330
5E2
102
}
330
5E2
100
AcDbSortentsTable
330
1F
331
70E
  5
5C4
331
745
  5
517
331
70A
  5
5C0
331
741
  5
513
331
73D
  5
50F
331
706
  5
5BC
331
702
  5
5B8
331
739
  5
50B
331
6D4
  5
58A
331
62F
  5
689
331
666
  5
603
331
695
  5
632
331
6D0
  5
586
331
62B
  5
685
331
662
  5
5FF
331
691
  5
62E
331
68D
  5
62A
331
6CC
  5
582
331
77F
  5
551
331
7BE
  5
4A8
331
627
  5
681
331
65E
  5
5FB
331
65A
  5
5F7
331
689
  5
626
331
6C8
  5
57E
331
77B
  5
54D
331
7BA
  5
4A4
331
623
  5
67D
331
7B6
  5
4A0
331
777
  5
549
331
7B2
  5
49C
331
773
  5
545
331
7F5
  5
4DF
331
5FD
  5
657
331
5B6
  5
6AA
331
7F1
  5
4DB
331
5B2
  5
6A6
331
5F9
  5
653
331
7ED
  5
4D7
331
5AE
  5
6A2
331
5F5
  5
64F
331
7E9
  5
4D3
331
5AA
  5
69E
331
5F1
  5
64B
331
6FE
  5
5B4
331
735
  5
507
331
6FA
  5
5B0
331
731
  5
503
331
72D
  5
4FF
331
6F6
  5
5AC
331
729
  5
4FB
331
6F2
  5
5A8
331
61F
  5
679
331
656
  5
5F3
331
685
  5
622
331
6C4
  5
57A
331
8B7
  5
8B7
331
6C0
  5
576
331
61B
  5
675
331
652
  5
5EF
331
681
  5
61E
331
6BC
  5
572
331
76F
  5
541
331
7AE
  5
498
331
64E
  5
5EB
331
64A
  5
5E7
331
6B8
  5
56E
331
76B
  5
53D
331
5E6
  5
640
331
7AA
  5
494
331
767
  5
539
331
7A6
  5
490
331
7A2
  5
48C
331
763
  5
535
331
7E5
  5
4CF
331
5ED
  5
647
331
7E1
  5
4CB
331
5E9
  5
643
331
7DD
  5
4C7
331
5DD
  5
6D1
331
7D9
  5
4C3
331
5D9
  5
6CD
331
725
  5
4F7
331
721
  5
4F3
331
75C
  5
52E
331
71D
  5
4EF
331
719
  5
4EB
331
758
  5
52A
331
646
  5
5E1
331
6B4
  5
56A
331
6B0
  5
566
331
6EF
  5
5A5
331
642
  5
5DD
331
67D
  5
61A
331
6AC
  5
562
331
6EB
  5
5A1
331
79E
  5
488
331
63E
  5
5D9
331
63A
  5
5D5
331
679
  5
616
331
6A8
  5
55E
331
79A
  5
484
331
7D5
  5
4BF
331
796
  5
480
331
792
  5
47C
331
5A5
  5
699
331
7D1
  5
4BB
331
5D5
  5
6C9
331
5A1
  5
695
331
5D1
  5
6C5
331
814
  5
814
331
5CD
  5
6C1
331
614
  5
66E
331
810
  5
810
331
610
  5
66A
331
5C9
  5
6BD
331
754
  5
526
331
750
  5
522
331
74C
  5
51E
331
715
  5
4E7
331
711
  5
5C7
331
748
  5
51A
331
6E7
  5
59D
331
6E3
  5
599
331
636
  5
5D1
331
675
  5
612
331
6A4
  5
55A
331
6A0
  5
63D
331
6DF
  5
595
331
632
  5
5CD
331
671
  5
60E
331
66D
  5
60A
331
69C
  5
639
331
6DB
  5
591
331
78E
  5
478
331
7CD
  5
4B7
331
862
  5
862
331
669
  5
606
331
698
  5
635
331
78A
  5
474
331
59D
  5
691
331
7C9
  5
4B3
331
7C5
  5
4AF
331
786
  5
470
331
599
  5
68D
331
782
  5
554
331
7C1
  5
4AB
331
80C
  5
80C
331
5C5
  5
6B9
331
60C
  5
666
331
5C1
  5
6B5
331
608
  5
662
331
7FC
  5
4E6
331
5BD
  5
6B1
331
604
  5
65E
331
600
  5
65A
331
5B9
  5
6AD
331
7F8
  5
4E2
331
70D
  5
5C3
331
744
  5
516
331
709
  5
5BF
331
740
  5
512
331
73C
  5
50E
331
705
  5
5BB
331
701
  5
5B7
331
738
  5
50A
331
6D7
  5
58D
331
6D3
  5
589
331
62E
  5
688
331
665
  5
602
331
694
  5
631
331
690
  5
62D
331
6CF
  5
585
331
62A
  5
684
331
661
  5
5FE
331
68C
  5
629
331
6CB
  5
581
331
77E
  5
550
331
7BD
  5
4A7
331
626
  5
680
331
65D
  5
5FA
331
659
  5
5F6
331
688
  5
625
331
77A
  5
54C
331
7B9
  5
4A3
331
622
  5
67C
331
7B5
  5
49F
331
776
  5
548
331
772
  5
544
331
7B1
  5
49B
331
7F4
  5
4DE
331
5B5
  5
6A9
331
5FC
  5
656
331
7F0
  5
4DA
331
5B1
  5
6A5
331
5F8
  5
652
331
7EC
  5
4D6
331
5AD
  5
6A1
331
5F4
  5
64E
331
5F0
  5
64A
331
5A9
  5
69D
331
7E8
  5
4D2
331
6FD
  5
5B3
331
734
  5
506
331
6F9
  5
5AF
331
730
  5
502
331
72C
  5
4FE
331
6F5
  5
5AB
331
6F1
  5
5A7
331
728
  5
4FA
331
6C7
  5
57D
331
6C3
  5
579
331
61E
  5
678
331
655
  5
5F2
331
684
  5
621
331
8B6
  5
8B6
331
6BF
  5
575
331
61A
  5
674
331
651
  5
5EE
331
680
  5
61D
331
6BB
  5
571
331
76E
  5
540
331
7AD
  5
497
331
64D
  5
5EA
331
649
  5
5E6
331
76A
  5
53C
331
5E5
  5
63F
331
7A9
  5
493
331
7A5
  5
48F
331
766
  5
538
331
5E1
  5
6D5
331
7A1
  5
48B
331
762
  5
534
331
7E4
  5
4CE
331
5EC
  5
646
331
7E0
  5
4CA
331
5E8
  5
642
331
7DC
  5
4C6
331
5DC
  5
6D0
331
7D8
  5
4C2
331
5D8
  5
6CC
331
724
  5
4F6
331
75F
  5
531
331
720
  5
4F2
331
71C
  5
4EE
331
75B
  5
52D
331
718
  5
4EA
331
6B7
  5
56D
331
645
  5
5E0
331
6B3
  5
569
331
6AF
  5
565
331
6EE
  5
5A4
331
641
  5
5DC
331
67C
  5
619
331
6AB
  5
561
331
6EA
  5
5A0
331
79D
  5
487
331
63D
  5
5D8
331
639
  5
5D4
331
678
  5
615
331
799
  5
483
331
7D4
  5
4BE
331
795
  5
47F
331
791
  5
47B
331
85F
  5
85F
331
5A4
  5
698
331
7D0
  5
4BA
331
801
  5
801
331
5D4
  5
6C8
331
5A0
  5
694
331
817
  5
817
331
5D0
  5
6C4
331
617
  5
671
331
813
  5
813
331
5CC
  5
6C0
331
613
  5
66D
331
5C8
  5
6BC
331
757
  5
529
331
753
  5
525
331
74F
  5
521
331
74B
  5
51D
331
714
  5
5CA
331
710
  5
5C6
331
6A7
  5
55D
331
6E6
  5
59C
331
6E2
  5
598
331
635
  5
5D0
331
674
  5
611
331
6A3
  5
559
331
69F
  5
63C
331
6DE
  5
594
331
631
  5
5CC
331
670
  5
60D
331
865
  5
865
331
66C
  5
609
331
69B
  5
638
331
6DA
  5
590
331
78D
  5
477
331
7CC
  5
4B6
331
861
  5
861
331
668
  5
605
331
789
  5
473
331
59C
  5
690
331
7C8
  5
4B2
331
7C4
  5
4AE
331
598
  5
68C
331
785
  5
46F
331
80F
  5
80F
331
781
  5
553
331
60F
  5
669
331
7C0
  5
4AA
331
5C4
  5
6B8
331
60B
  5
665
331
7FF
  5
7FF
331
5C0
  5
6B4
331
607
  5
661
331
7FB
  5
4E5
331
5BC
  5
6B0
331
603
  5
65D
331
5B8
  5
6AC
331
747
  5
519
331
70C
  5
5C2
331
743
  5
515
331
708
  5
5BE
331
73F
  5
511
331
73B
  5
50D
331
704
  5
5BA
331
700
  5
5B6
331
697
  5
634
331
6D6
  5
58C
331
6D2
  5
588
331
62D
  5
687
331
664
  5
601
331
693
  5
630
331
68F
  5
62C
331
6CE
  5
584
331
629
  5
683
331
660
  5
5FD
331
65C
  5
5F9
331
68B
  5
628
331
6CA
  5
580
331
77D
  5
54F
331
7BC
  5
4A6
331
625
  5
67F
331
658
  5
5F5
331
779
  5
54B
331
7B8
  5
4A2
331
621
  5
67B
331
7B4
  5
49E
331
775
  5
547
331
771
  5
543
331
7B0
  5
49A
331
5FF
  5
659
331
7F7
  5
4E1
331
7F3
  5
4DD
331
5B4
  5
6A8
331
5FB
  5
655
331
7EF
  5
4D9
331
5B0
  5
6A4
331
5F7
  5
651
331
7EB
  5
4D5
331
5AC
  5
6A0
331
5F3
  5
64D
331
5A8
  5
69C
331
737
  5
509
331
6FC
  5
5B2
331
733
  5
505
331
6F8
  5
5AE
331
72F
  5
501
331
72B
  5
4FD
331
6F4
  5
5AA
331
6F0
  5
5A6
331
687
  5
624
331
6C6
  5
57C
331
6C2
  5
578
331
61D
  5
677
331
654
  5
5F1
331
683
  5
620
331
6BE
  5
574
331
619
  5
673
331
650
  5
5ED
331
6BA
  5
570
331
76D
  5
53F
331
7AC
  5
496
331
64C
  5
5E9
331
648
  5
5E5
331
769
  5
53B
331
5E4
  5
63E
331
7A8
  5
492
331
7A4
  5
48E
331
765
  5
537
331
5E0
  5
6D4
331
761
  5
533
331
7A0
  5
48A
331
5EF
  5
649
331
7E7
  5
4D1
331
7E3
  5
4CD
331
5EB
  5
645
331
7DF
  5
4C9
331
5DF
  5
6D3
331
7DB
  5
4C5
331
5DB
  5
6CF
331
727
  5
4F9
331
723
  5
4F5
331
75E
  5
530
331
71F
  5
4F1
331
71B
  5
4ED
331
75A
  5
52C
331
6B6
  5
56C
331
6B2
  5
568
331
644
  5
5DF
331
6AE
  5
564
331
6ED
  5
5A3
331
640
  5
5DB
331
67F
  5
61C
331
67B
  5
618
331
6AA
  5
560
331
6E9
  5
59F
331
79C
  5
486
331
63C
  5
5D7
331
7D7
  5
4C1
331
638
  5
5D3
331
798
  5
482
331
794
  5
47E
331
5A7
  5
69B
331
7D3
  5
4BD
331
790
  5
47A
331
85E
  5
85E
331
804
  5
804
331
5D7
  5
6CB
331
5A3
  5
697
331
800
  5
800
331
5D3
  5
6C7
331
5CF
  5
6C3
331
616
  5
670
331
612
  5
66C
331
5CB
  5
6BF
331
756
  5
528
331
752
  5
524
331
74E
  5
520
331
717
  5
4E9
331
713
  5
5C9
331
74A
  5
51C
331
6E5
  5
59B
331
677
  5
614
331
6A6
  5
55C
331
6E1
  5
597
331
634
  5
5CF
331
673
  5
610
331
6A2
  5
558
331
69E
  5
63B
331
6DD
  5
593
331
7CF
  5
4B9
331
630
  5
5CB
331
66F
  5
60C
331
864
  5
864
331
66B
  5
608
331
69A
  5
637
331
6D9
  5
58F
331
78C
  5
476
331
59F
  5
693
331
7CB
  5
4B5
331
860
  5
860
331
7C7
  5
4B1
331
788
  5
472
331
59B
  5
68F
331
7C3
  5
4AD
331
597
  5
68B
331
784
  5
556
331
780
  5
552
331
60E
  5
668
331
5C7
  5
6BB
331
5C3
  5
6B7
331
60A
  5
664
331
7FE
  5
7FE
331
5BF
  5
6B3
331
606
  5
660
331
7FA
  5
4E4
331
5BB
  5
6AF
331
602
  5
65C
331
70F
  5
5C5
331
746
  5
518
331
70B
  5
5C1
331
742
  5
514
331
73E
  5
510
331
707
  5
5BD
331
73A
  5
50C
331
703
  5
5B9
331
667
  5
604
331
696
  5
633
331
6D5
  5
58B
331
6D1
  5
587
331
62C
  5
686
331
663
  5
600
331
692
  5
62F
331
68E
  5
62B
331
6CD
  5
583
331
7BF
  5
4A9
331
628
  5
682
331
65F
  5
5FC
331
65B
  5
5F8
331
68A
  5
627
331
6C9
  5
57F
331
77C
  5
54E
331
7BB
  5
4A5
331
624
  5
67E
331
620
  5
67A
331
778
  5
54A
331
7B7
  5
4A1
331
7B3
  5
49D
331
774
  5
546
331
7F6
  5
4E0
331
770
  5
542
331
5FE
  5
658
331
5B7
  5
6AB
331
7F2
  5
4DC
331
5B3
  5
6A7
331
5FA
  5
654
331
7EE
  5
4D8
331
5AF
  5
6A3
331
5F6
  5
650
331
7EA
  5
4D4
331
5AB
  5
69F
331
5F2
  5
64C
331
6FF
  5
5B5
331
736
  5
508
331
6FB
  5
5B1
331
732
  5
504
331
6F7
  5
5AD
331
72E
  5
500
331
72A
  5
4FC
331
6F3
  5
5A9
331
657
  5
5F4
331
686
  5
623
331
6C5
  5
57B
331
6C1
  5
577
331
61C
  5
676
331
653
  5
5F0
331
682
  5
61F
331
6BD
  5
573
331
7AF
  5
499
331
618
  5
672
331
64F
  5
5EC
331
64B
  5
5E8
331
6B9
  5
56F
331
76C
  5
53E
331
5E7
  5
641
331
7AB
  5
495
331
768
  5
53A
331
7A7
  5
491
331
7A3
  5
48D
331
764
  5
536
331
760
  5
532
331
5EE
  5
648
331
7E6
  5
4D0
331
7E2
  5
4CC
331
5EA
  5
644
331
7DE
  5
4C8
331
5DE
  5
6D2
331
7DA
  5
4C4
331
5DA
  5
6CE
331
726
  5
4F8
331
722
  5
4F4
331
75D
  5
52F
331
71E
  5
4F0
331
71A
  5
4EC
331
759
  5
52B
331
647
  5
5E4
331
6B5
  5
56B
331
6B1
  5
567
331
643
  5
5DE
331
67E
  5
61B
331
6AD
  5
563
331
6EC
  5
5A2
331
79F
  5
489
331
63F
  5
5DA
331
67A
  5
617
331
6A9
  5
55F
331
6E8
  5
59E
331
79B
  5
485
331
63B
  5
5D6
331
7D6
  5
4C0
331
797
  5
481
331
793
  5
47D
331
5A6
  5
69A
331
7D2
  5
4BC
331
5D6
  5
6CA
331
5A2
  5
696
331
5D2
  5
6C6
331
5CE
  5
6C2
331
615
  5
66F
331
611
  5
66B
331
5CA
  5
6BE
331
755
  5
527
331
751
  5
523
331
74D
  5
51F
331
716
  5
4E8
331
712
  5
5C8
331
749
  5
51B
331
6E4
  5
59A
331
637
  5
5D2
331
676
  5
613
331
6A5
  5
55B
331
6A1
  5
557
331
6E0
  5
596
331
633
  5
5CE
331
672
  5
60F
331
69D
  5
63A
331
6DC
  5
592
331
78F
  5
479
331
7CE
  5
4B8
331
66E
  5
60B
331
863
  5
863
331
66A
  5
607
331
699
  5
636
331
6D8
  5
58E
331
78B
  5
475
331
59E
  5
692
331
7CA
  5
4B4
331
7C6
  5
4B0
331
787
  5
471
331
59A
  5
68E
331
783
  5
555
331
596
  5
68A
331
7C2
  5
4AC
331
5C6
  5
6BA
331
60D
  5
667
331
5C2
  5
6B6
331
609
  5
663
331
7FD
  5
7FD
331
5BE
  5
6B2
331
605
  5
65F
331
601
  5
65B
331
5BA
  5
6AE
331
7F9
  5
4E3
  0
ACDBDETAILVIEWSTYLE
  5
333
102
{ACAD_XDICTIONARY
360
914
102
}
102
{ACAD_REACTORS
330
332
102
}
330
332
100
AcDbModelDocViewStyle
 70
     0
  3
Metric50
290
     0
100
AcDbDetailViewStyle
 70
     0
 71
     0
 90
        3
 71
     1
340
11
 40
5.0
340
0
 40
5.0
300

 40
0.0
280
     1
 71
     2
340
16
 90
       25
 71
     3
340
11
 40
5.0
 90
        0
 40
15.0
 90
        1
300
%<\AcVar ViewDetailId>% (%<\AcVar ViewScale \f "%sn">%)
 71
     4
340
16
 90
       25
340
16
 90
       25
280
     0
  0
GROUP
  5
869
102
{ACAD_REACTORS
330
D
102
}
330
D
100
AcDbGroup
300

 70
     1
 71
     1
340
85F
340
85E
340
817
340
814
340
784
340
783
340
782
340
781
340
780
340
77F
340
77E
340
77D
340
77C
340
77B
340
77A
340
779
340
778
340
777
340
776
340
775
340
774
340
773
340
772
340
771
340
770
340
76F
340
76E
340
76D
340
76C
340
76B
340
76A
340
769
340
768
340
767
340
766
340
765
340
764
340
763
340
762
340
761
340
760
340
75F
340
75E
340
75D
340
75C
340
75B
340
75A
340
759
340
758
340
757
340
756
340
755
340
754
340
753
340
752
340
751
340
750
340
74F
340
74E
340
74D
340
74C
340
74B
340
74A
340
749
340
748
340
747
340
746
340
745
340
744
340
743
340
742
340
741
340
740
340
73F
340
73E
340
73D
340
73C
340
73B
340
73A
340
739
340
738
340
737
340
736
340
735
340
734
340
733
340
732
340
731
340
730
340
72F
340
72E
340
72D
340
72C
340
72B
340
72A
340
729
340
728
340
727
340
726
340
725
340
724
340
723
340
722
340
721
340
720
340
71F
340
71E
340
71D
340
71C
340
71B
340
71A
340
719
340
718
340
717
340
716
340
715
  0
GROUP
  5
866
102
{ACAD_REACTORS
330
D
102
}
330
D
100
AcDbGroup
300

 70
     1
 71
     1
340
865
340
864
340
804
340
801
340
6A0
340
69F
340
69E
340
69D
340
69C
340
69B
340
69A
340
699
340
698
340
697
340
696
340
695
340
694
340
693
340
692
340
691
340
690
340
68F
340
68E
340
68D
340
68C
340
68B
340
68A
340
689
340
688
340
687
340
686
340
685
340
684
340
683
340
682
340
681
340
680
340
67F
340
67E
340
67D
340
67C
340
67B
340
67A
340
679
340
678
340
677
340
676
340
675
340
674
340
673
340
672
340
671
340
670
340
66F
340
66E
340
66D
340
66C
340
66B
340
66A
340
669
340
668
340
667
340
666
340
665
340
664
340
663
340
662
340
661
340
660
340
65F
340
65E
340
65D
340
65C
340
65B
340
65A
340
659
340
658
340
657
340
656
340
655
340
654
340
653
340
652
340
651
340
650
340
64F
340
64E
340
64D
340
64C
340
64B
340
64A
340
649
340
648
340
647
340
646
340
645
340
644
340
643
340
642
340
641
340
640
340
63F
340
63E
340
63D
340
63C
340
63B
340
63A
340
639
340
638
340
637
340
636
340
635
340
634
340
633
340
632
340
631
340
630
  0
GROUP
  5
867
102
{ACAD_REACTORS
330
D
102
}
330
D
100
AcDbGroup
300

 70
     1
 71
     1
340
863
340
862
340
80F
340
80C
340
714
340
713
340
712
340
711
340
710
340
70F
340
70E
340
70D
340
70C
340
70B
340
70A
340
709
340
708
340
707
340
706
340
705
340
704
340
703
340
702
340
701
340
700
340
6FF
340
6FE
340
6FD
340
6FC
340
6FB
340
6FA
340
6F9
340
6F8
340
6F7
340
6F6
340
6F5
340
6F4
340
6F3
340
6F2
340
6F1
340
6F0
340
6EF
340
6EE
340
6ED
340
6EC
340
6EB
340
6EA
340
6E9
340
6E8
340
6E7
340
6E6
340
6E5
340
6E4
340
6E3
340
6E2
340
6E1
340
6E0
340
6DF
340
6DE
340
6DD
340
6DC
340
6DB
340
6DA
340
6D9
340
6D8
340
6D7
340
6D6
340
6D5
340
6D4
340
6D3
340
6D2
340
6D1
340
6D0
340
6CF
340
6CE
340
6CD
340
6CC
340
6CB
340
6CA
340
6C9
340
6C8
340
6C7
340
6C6
340
6C5
340
6C4
340
6C3
340
6C2
340
6C1
340
6C0
340
6BF
340
6BE
340
6BD
340
6BC
340
6BB
340
6BA
340
6B9
340
6B8
340
6B7
340
6B6
340
6B5
340
6B4
340
6B3
340
6B2
340
6B1
340
6B0
340
6AF
340
6AE
340
6AD
340
6AC
340
6AB
340
6AA
340
6A9
340
6A8
340
6A7
340
6A6
340
6A5
340
6A4
340
6A3
340
6A2
340
6A1
  0
GROUP
  5
868
102
{ACAD_REACTORS
330
D
102
}
330
D
100
AcDbGroup
300

 70
     1
 71
     1
340
861
340
860
340
813
340
810
340
7FC
340
7FB
340
7FA
340
7F9
340
7F8
340
7F7
340
7F6
340
7F5
340
7F4
340
7F3
340
7F2
340
7F1
340
7F0
340
7EF
340
7EE
340
7ED
340
7EC
340
7EB
340
7EA
340
7E9
340
7E8
340
7E7
340
7E6
340
7E5
340
7E4
340
7E3
340
7E2
340
7E1
340
7E0
340
7DF
340
7DE
340
7DD
340
7DC
340
7DB
340
7DA
340
7D9
340
7D8
340
7D7
340
7D6
340
7D5
340
7D4
340
7D3
340
7D2
340
7D1
340
7D0
340
7CF
340
7CE
340
7CD
340
7CC
340
7CB
340
7CA
340
7C9
340
7C8
340
7C7
340
7C6
340
7C5
340
7C4
340
7C3
340
7C2
340
7C1
340
7C0
340
7BF
340
7BE
340
7BD
340
7BC
340
7BB
340
7BA
340
7B9
340
7B8
340
7B7
340
7B6
340
7B5
340
7B4
340
7B3
340
7B2
340
7B1
340
7B0
340
7AF
340
7AE
340
7AD
340
7AC
340
7AB
340
7AA
340
7A9
340
7A8
340
7A7
340
7A6
340
7A5
340
7A4
340
7A3
340
7A2
340
7A1
340
7A0
340
79F
340
79E
340
79D
340
79C
340
79B
340
79A
340
799
340
798
340
797
340
796
340
795
340
794
340
793
340
792
340
791
340
790
340
78F
340
78E
340
78D
340
78C
340
78B
340
78A
340
789
340
788
340
787
340
786
340
785
  0
GROUP
  5
8B8
102
{ACAD_REACTORS
330
D
102
}
330
D
100
AcDbGroup
300

 70
     1
 71
     1
340
8B7
340
7FE
340
7FD
340
5E1
340
5E0
340
5DF
340
5DE
340
5DD
340
5DC
340
5DB
340
5DA
340
5D9
340
5D8
340
5D7
340
5D6
340
5D5
340
5D4
340
5D3
340
5D2
340
5D1
340
5D0
340
5CF
340
5CE
340
5CD
340
5CC
340
5CB
340
5CA
340
5C9
340
5C8
340
5C7
340
5C6
340
5C5
340
5C4
340
5C3
340
5C2
340
5C1
340
5C0
340
5BF
340
5BE
340
5BD
340
5BC
340
5BB
340
5BA
340
5B9
340
5B8
340
5B7
340
5B6
340
5B5
340
5B4
340
5B3
340
5B2
340
5B1
340
5B0
340
5AF
340
5AE
340
5AD
340
5AC
340
5AB
340
5AA
340
5A9
340
5A8
340
5A7
340
5A6
340
5A5
340
5A4
340
5A3
340
5A2
340
5A1
340
5A0
340
59F
340
59E
340
59D
340
59C
340
59B
340
59A
340
599
340
598
340
597
340
596
  0
GROUP
  5
8B9
102
{ACAD_REACTORS
330
D
102
}
330
D
100
AcDbGroup
300

 70
     1
 71
     1
340
8B6
340
800
340
7FF
340
62F
340
62E
340
62D
340
62C
340
62B
340
62A
340
629
340
628
340
627
340
626
340
625
340
624
340
623
340
622
340
621
340
620
340
61F
340
61E
340
61D
340
61C
340
61B
340
61A
340
619
340
618
340
617
340
616
340
615
340
614
340
613
340
612
340
611
340
610
340
60F
340
60E
340
60D
340
60C
340
60B
340
60A
340
609
340
608
340
607
340
606
340
605
340
604
340
603
340
602
340
601
340
600
340
5FF
340
5FE
340
5FD
340
5FC
340
5FB
340
5FA
340
5F9
340
5F8
340
5F7
340
5F6
340
5F5
340
5F4
340
5F3
340
5F2
340
5F1
340
5F0
340
5EF
340
5EE
340
5ED
340
5EC
340
5EB
340
5EA
340
5E9
340
5E8
340
5E7
340
5E6
340
5E5
340
5E4
  0
LAYOUT
  5
1E
102
{ACAD_XDICTIONARY
360
8DD
102
}
102
{ACAD_REACTORS
330
1A
102
}
330
1A
100
AcDbPlotSettings
  1

  2
none_device
  4

  6

 40
0.0
 41
0.0
 42
0.0
 43
0.0
 44
0.0
 45
0.0
 46
0.0
 47
0.0
 48
0.0
 49
0.0
140
0.0
141
0.0
142
1.0
143
1.0
 70
   688
 72
     1
 73
     0
 74
     5
  7

 75
    16
147
1.0
148
0.0
149
0.0
100
AcDbLayout
  1
Layout1
 70
     1
 71
     1
 10
0.0
 20
0.0
 11
420.0
 21
297.0
 12
0.0
 22
0.0
 32
0.0
 14
1.000000000000000E+20
 24
1.000000000000000E+20
 34
1.000000000000000E+20
 15
-1.000000000000000E+20
 25
-1.000000000000000E+20
 35
-1.000000000000000E+20
146
0.0
 13
0.0
 23
0.0
 33
0.0
 16
1.0
 26
0.0
 36
0.0
 17
0.0
 27
1.0
 37
0.0
 76
     0
330
1B
  0
LAYOUT
  5
22
102
{ACAD_XDICTIONARY
360
8DF
102
}
102
{ACAD_REACTORS
330
1A
102
}
330
1A
100
AcDbPlotSettings
  1

  2
none_device
  4
Letter_(8.50_x_11.00_Inches)
  6

 40
6.349999999999998
 41
6.349999999999998
 42
6.350005079999998
 43
6.350005079999998
 44
215.9
 45
279.4
 46
0.0
 47
0.0
 48
0.0
 49
0.0
140
0.0
141
0.0
142
1.0
143
1.0
 70
  1712
 72
     1
 73
     0
 74
     0
  7

 75
     0
147
1.0
148
0.0
149
0.0
100
AcDbLayout
  1
Model
 70
     1
 71
     0
 10
-470.7061920166109
 20
-863.2368049621678
 11
964.4921188354384
 21
660.9706230163671
 12
0.0
 22
0.0
 32
0.0
 14
-470.7061920166109
 24
-863.2368049621678
 34
0.0
 15
964.4921188354384
 25
660.9706230163671
 35
0.0
146
0.0
 13
0.0
 23
0.0
 33
0.0
 16
1.0
 26
0.0
 36
0.0
 17
0.0
 27
1.0
 37
0.0
 76
     0
330
1F
331
29
  0
LAYOUT
  5
334
102
{ACAD_XDICTIONARY
360
916
102
}
102
{ACAD_REACTORS
330
1A
102
}
330
1A
100
AcDbPlotSettings
  1

  2
青梅 FX DocuCentre-V C2275 T2
  4

  6

 40
0.0
 41
0.0
 42
0.0
 43
0.0
 44
0.0
 45
0.0
 46
0.0
 47
0.0
 48
0.0
 49
0.0
140
0.0
141
0.0
142
1.0
143
1.0
 70
   688
 72
     0
 73
     0
 74
     5
  7
AutoCAD_PEN.ctb
 75
    16
147
1.0
148
0.0
149
0.0
100
AcDbLayout
  1
レイアウト1
 70
     1
 71
     2
 10
0.0
 20
0.0
 11
12.0
 21
9.0
 12
0.0
 22
0.0
 32
0.0
 14
0.0
 24
0.0
 34
0.0
 15
0.0
 25
0.0
 35
0.0
146
0.0
 13
0.0
 23
0.0
 33
0.0
 16
1.0
 26
0.0
 36
0.0
 17
0.0
 27
1.0
 37
0.0
 76
     0
330
23
  0
MATERIAL
  5
45
102
{ACAD_XDICTIONARY
360
326
102
}
102
{ACAD_REACTORS
330
43
102
}
330
43
100
AcDbMaterial
  1
ByBlock
  0
MATERIAL
  5
44
102
{ACAD_XDICTIONARY
360
324
102
}
102
{ACAD_REACTORS
330
43
102
}
330
43
100
AcDbMaterial
  1
ByLayer
  0
MATERIAL
  5
46
102
{ACAD_XDICTIONARY
360
328
102
}
102
{ACAD_REACTORS
330
43
102
}
330
43
100
AcDbMaterial
  1
Global
  0
MLEADERSTYLE
  5
5C
102
{ACAD_REACTORS
330
5B
102
}
330
5B
100
AcDbMLeaderStyle
170
     2
171
     1
172
     0
 90
        2
 40
0.0
 41
0.0
173
     1
 91
-1056964608
340
14
 92
       -2
290
     1
 42
2.0
291
     1
 43
8.0
  3
Standard
 44
4.0
300

342
11
174
     1
178
     6
175
     1
176
     0
 93
-1056964608
 45
4.0
292
     0
297
     0
 46
4.0
 94
-1056964608
 47
1.0
 49
1.0
140
1.0
293
     1
141
0.0
294
     1
177
     0
142
1.0
295
     0
296
     0
143
3.75
1001
ACAD_MLEADERVER
1070
     2
  0
MLINESTYLE
  5
18
102
{ACAD_REACTORS
330
17
102
}
330
17
100
AcDbMlineStyle
  2
STANDARD
 70
     0
  3

 62
   256
 51
90.0
 52
90.0
 71
     2
 49
0.5
 62
   256
  6
BYLAYER
 49
-0.5
 62
   256
  6
BYLAYER
  0
ACDBPLACEHOLDER
  5
F
102
{ACAD_REACTORS
330
E
102
}
330
E
  0
SCALE
  5
48
102
{ACAD_REACTORS
330
47
102
}
330
47
100
AcDbScale
 70
     0
300
1:1
140
1.0
141
1.0
290
     1
  0
SCALE
  5
49
102
{ACAD_REACTORS
330
47
102
}
330
47
100
AcDbScale
 70
     0
300
1:2
140
1.0
141
2.0
290
     0
  0
SCALE
  5
4A
102
{ACAD_REACTORS
330
47
102
}
330
47
100
AcDbScale
 70
     0
300
1:4
140
1.0
141
4.0
290
     0
  0
SCALE
  5
4B
102
{ACAD_REACTORS
330
47
102
}
330
47
100
AcDbScale
 70
     0
300
1:5
140
1.0
141
5.0
290
     0
  0
SCALE
  5
4C
102
{ACAD_REACTORS
330
47
102
}
330
47
100
AcDbScale
 70
     0
300
1:8
140
1.0
141
8.0
290
     0
  0
SCALE
  5
4D
102
{ACAD_REACTORS
330
47
102
}
330
47
100
AcDbScale
 70
     0
300
1:10
140
1.0
141
10.0
290
     0
  0
SCALE
  5
4E
102
{ACAD_REACTORS
330
47
102
}
330
47
100
AcDbScale
 70
     0
300
1:16
140
1.0
141
16.0
290
     0
  0
SCALE
  5
4F
102
{ACAD_REACTORS
330
47
102
}
330
47
100
AcDbScale
 70
     0
300
1:20
140
1.0
141
20.0
290
     0
  0
SCALE
  5
50
102
{ACAD_REACTORS
330
47
102
}
330
47
100
AcDbScale
 70
     0
300
1:30
140
1.0
141
30.0
290
     0
  0
SCALE
  5
51
102
{ACAD_REACTORS
330
47
102
}
330
47
100
AcDbScale
 70
     0
300
1:40
140
1.0
141
40.0
290
     0
  0
SCALE
  5
52
102
{ACAD_REACTORS
330
47
102
}
330
47
100
AcDbScale
 70
     0
300
1:50
140
1.0
141
50.0
290
     0
  0
SCALE
  5
53
102
{ACAD_REACTORS
330
47
102
}
330
47
100
AcDbScale
 70
     0
300
1:100
140
1.0
141
100.0
290
     0
  0
SCALE
  5
54
102
{ACAD_REACTORS
330
47
102
}
330
47
100
AcDbScale
 70
     0
300
2:1
140
2.0
141
1.0
290
     0
  0
SCALE
  5
55
102
{ACAD_REACTORS
330
47
102
}
330
47
100
AcDbScale
 70
     0
300
4:1
140
4.0
141
1.0
290
     0
  0
SCALE
  5
56
102
{ACAD_REACTORS
330
47
102
}
330
47
100
AcDbScale
 70
     0
300
8:1
140
8.0
141
1.0
290
     0
  0
SCALE
  5
57
102
{ACAD_REACTORS
330
47
102
}
330
47
100
AcDbScale
 70
     0
300
10:1
140
10.0
141
1.0
290
     0
  0
SCALE
  5
58
102
{ACAD_REACTORS
330
47
102
}
330
47
100
AcDbScale
 70
     0
300
100:1
140
100.0
141
1.0
290
     0
  0
ACDBSECTIONVIEWSTYLE
  5
331
102
{ACAD_XDICTIONARY
360
912
102
}
102
{ACAD_REACTORS
330
330
102
}
330
330
100
AcDbModelDocViewStyle
 70
     0
  3
Metric50
290
     0
100
AcDbSectionViewStyle
 70
     0
 71
     0
 90
      102
 71
     1
340
11
 40
5.0
340
0
340
0
 40
5.0
300
I, O, Q, S, X, Z
 40
10.0
 90
        0
 40
2.5
 90
        0
 71
     2
340
16
 90
       25
340
16
 90
       50
 40
5.0
 40
2.5
 40
5.0
 71
     3
340
11
 40
5.0
 90
        0
 40
15.0
 90
        1
300
%<\AcVar ViewSectionStartId>%-%<\AcVar ViewSectionEndId>% (%<\AcVar ViewScale \f "%sn">%)
 71
     4
300
ANSI31
 40
1.0
 90
        0
290
     0
290
     0
 90
        6
 40
0.0
 40
1.570796326794896
 40
0.2617993877991494
 40
1.308996938995747
 40
-0.2617993877991494
 40
1.832595714594045
  0
TABLESTYLE
  5
5A
102
{ACAD_XDICTIONARY
360
871
102
}
102
{ACAD_REACTORS
330
59
102
}
330
59
100
AcDbTableStyle
  3
Standard
 70
     0
 71
     0
 40
1.5
 41
1.5
280
     0
281
     0
  7
Standard
140
4.5
170
     2
 62
     0
 63
     7
283
     0
274
    -2
284
     1
 64
     0
275
    -2
285
     1
 65
     0
276
    -2
286
     1
 66
     0
277
    -2
287
     1
 67
     0
278
    -2
288
     1
 68
     0
279
    -2
289
     1
 69
     0
  7
Standard
140
6.0
170
     5
 62
     0
 63
     7
283
     0
274
    -2
284
     1
 64
     0
275
    -2
285
     1
 65
     0
276
    -2
286
     1
 66
     0
277
    -2
287
     1
 67
     0
278
    -2
288
     1
 68
     0
279
    -2
289
     1
 69
     0
  7
Standard
140
4.5
170
     5
 62
     0
 63
     7
283
     0
274
    -2
284
     1
 64
     0
275
    -2
285
     1
 65
     0
276
    -2
286
     1
 66
     0
277
    -2
287
     1
 67
     0
278
    -2
288
     1
 68
     0
279
    -2
289
     1
 69
     0
  0
VISUALSTYLE
  5
2F
102
{ACAD_XDICTIONARY
360
8E9
102
}
102
{ACAD_REACTORS
330
2A
102
}
330
2A
100
AcDbVisualStyle
  2

 70
     4
 71
     0
 72
     2
 73
     0
 90
        0
 40
-0.6
 41
-30.0
 62
     5
 63
     7
 74
     1
 91
        4
 64
     7
 65
   257
 75
     1
175
     1
 42
1.0
 92
        0
 66
   257
 43
1.0
 76
     1
 77
     6
 78
     2
 67
     7
 79
     5
170
     0
171
     0
290
     0
174
     0
 93
        1
 44
0.0
173
     0
291
     0
 45
0.0
1001
ACAD
1000
AcDbSavedByObjectVersion
1070
     0
  0
VISUALSTYLE
  5
32
102
{ACAD_XDICTIONARY
360
8EF
102
}
102
{ACAD_REACTORS
330
2A
102
}
330
2A
100
AcDbVisualStyle
  2

 70
     7
 71
     1
 72
     0
 73
     1
 90
        0
 40
-0.6
 41
-30.0
 62
     5
 63
     7
 74
     0
 91
        4
 64
     7
 65
   257
 75
     1
175
     1
 42
1.0
 92
        8
 66
     7
 43
1.0
 76
     1
 77
     6
 78
     2
 67
     7
 79
     5
170
     0
171
     0
290
     0
174
     0
 93
        1
 44
0.0
173
     0
291
     1
 45
0.0
1001
ACAD
1000
AcDbSavedByObjectVersion
1070
     0
  0
VISUALSTYLE
  5
36
102
{ACAD_XDICTIONARY
360
8F7
102
}
102
{ACAD_REACTORS
330
2A
102
}
330
2A
100
AcDbVisualStyle
  2

 70
    12
 71
     2
 72
     2
 73
     0
 90
        0
 40
-0.6
 41
-30.0
 62
     5
 63
     7
 74
     1
 91
        4
 64
     7
 65
   257
 75
     1
175
     1
 42
1.0
 92
        8
 66
     7
 43
1.0
 76
     1
 77
     6
 78
     2
 67
     7
 79
     5
170
     0
171
     0
290
     0
174
     0
 93
        1
 44
50.0
173
     0
291
     1
 45
0.0
1001
ACAD
1000
AcDbSavedByObjectVersion
1070
     0
  0
VISUALSTYLE
  5
3A
102
{ACAD_XDICTIONARY
360
8FF
102
}
102
{ACAD_REACTORS
330
2A
102
}
330
2A
100
AcDbVisualStyle
  2

 70
    16
 71
     2
 72
     2
 73
     3
 90
        0
 40
-0.6
 41
-30.0
 62
     5
 63
     8
 74
     1
 91
        4
 64
     7
 65
   257
 75
     1
175
     1
 42
1.0
 92
        8
 66
     8
 43
1.0
 76
     1
 77
     6
 78
     2
 67
     7
 79
     5
170
     0
171
     0
290
     0
174
     0
 93
        1
 44
0.0
173
     0
291
     1
 45
0.0
1001
ACAD
1000
AcDbSavedByObjectVersion
1070
     0
  0
VISUALSTYLE
  5
34
102
{ACAD_XDICTIONARY
360
8F3
102
}
102
{ACAD_REACTORS
330
2A
102
}
330
2A
100
AcDbVisualStyle
  2

 70
     9
 71
     3
 72
     2
 73
     0
 90
        0
 40
-0.6
 41
-30.0
 62
     5
 63
     7
 74
     2
 91
        2
 64
     7
 65
   257
 75
     1
175
     1
 42
179.0
 92
        8
 66
     7
 43
1.0
 76
     1
 77
     6
 78
     2
 67
     7
 79
     3
170
     0
171
     0
290
     0
174
     0
 93
        1
 44
0.0
173
     0
291
     0
 45
0.0
1001
ACAD
1000
AcDbSavedByObjectVersion
1070
     0
  0
VISUALSTYLE
  5
35
102
{ACAD_XDICTIONARY
360
8F5
102
}
102
{ACAD_REACTORS
330
2A
102
}
330
2A
100
AcDbVisualStyle
  2

 70
    11
 71
     2
 72
     2
 73
     0
 90
        0
 40
-0.6
 41
-30.0
 62
     5
 63
     7
 74
     1
 91
        4
 64
     7
 65
   257
 75
     1
175
     1
 42
1.0
 92
        8
 66
     7
 43
1.0
 76
     1
 77
     6
 78
     2
 67
     7
 79
     5
170
     0
171
     0
290
     0
174
     0
 93
        1
 44
-50.0
173
     0
291
     1
 45
0.0
1001
ACAD
1000
AcDbSavedByObjectVersion
1070
     0
  0
VISUALSTYLE
  5
3D
102
{ACAD_XDICTIONARY
360
905
102
}
102
{ACAD_REACTORS
330
2A
102
}
330
2A
100
AcDbVisualStyle
  2

 70
    22
 71
     2
 72
     2
 73
     0
 90
        0
 40
-0.6
 41
-30.0
 62
     5
 63
     7
 74
     1
 91
        4
 64
     7
 65
   257
 75
     1
175
     1
 42
1.0
 92
        8
 66
     7
 43
1.0
 76
     1
 77
     6
 78
     2
 67
     7
 79
     5
170
     0
171
     0
290
     0
174
     0
 93
        1
 44
0.0
173
     0
291
     1
 45
0.0
1001
ACAD
1000
AcDbSavedByObjectVersion
1070
     0
  0
VISUALSTYLE
  5
39
102
{ACAD_XDICTIONARY
360
8FD
102
}
102
{ACAD_REACTORS
330
2A
102
}
330
2A
100
AcDbVisualStyle
  2

 70
    15
 71
     2
 72
     2
 73
     0
 90
        0
 40
-0.6
 41
-30.0
 62
     5
 63
     7
 74
     1
 91
        4
 64
     7
 65
   257
 75
     1
175
     1
 42
1.0
 92
        8
 66
     7
 43
1.0
 76
     1
 77
     6
 78
     2
 67
     7
 79
     5
170
     0
171
     0
290
     0
174
     0
 93
        1
 44
0.0
173
     0
291
     1
 45
0.0
1001
ACAD
1000
AcDbSavedByObjectVersion
1070
     0
  0
VISUALSTYLE
  5
2B
102
{ACAD_XDICTIONARY
360
8E1
102
}
102
{ACAD_REACTORS
330
2A
102
}
330
2A
100
AcDbVisualStyle
  2

 70
     0
 71
     2
 72
     1
 73
     1
 90
        2
 40
-0.6
 41
30.0
 62
     5
 63
     7
 74
     0
 91
        0
 64
     7
 65
   257
 75
     1
175
     1
 42
1.0
 92
        8
 66
     7
 43
1.0
 76
     1
 77
     6
 78
     2
 67
     7
 79
     5
170
     0
171
     0
290
     0
174
     0
 93
       13
 44
0.0
173
     0
291
     1
 45
0.0
1001
ACAD
1000
AcDbSavedByObjectVersion
1070
     0
  0
VISUALSTYLE
  5
2C
102
{ACAD_XDICTIONARY
360
8E3
102
}
102
{ACAD_REACTORS
330
2A
102
}
330
2A
100
AcDbVisualStyle
  2

 70
     1
 71
     2
 72
     1
 73
     1
 90
        2
 40
-0.6
 41
30.0
 62
     5
 63
     7
 74
     1
 91
        0
 64
     7
 65
   257
 75
     1
175
     1
 42
1.0
 92
        0
 66
   257
 43
1.0
 76
     1
 77
     6
 78
     2
 67
     7
 79
     5
170
     0
171
     0
290
     0
174
     0
 93
       13
 44
0.0
173
     0
291
     1
 45
0.0
1001
ACAD
1000
AcDbSavedByObjectVersion
1070
     0
  0
VISUALSTYLE
  5
2D
102
{ACAD_XDICTIONARY
360
8E5
102
}
102
{ACAD_REACTORS
330
2A
102
}
330
2A
100
AcDbVisualStyle
  2

 70
     2
 71
     2
 72
     2
 73
     1
 90
        2
 40
-0.6
 41
30.0
 62
     5
 63
     7
 74
     0
 91
        0
 64
     7
 65
   257
 75
     1
175
     1
 42
1.0
 92
        0
 66
     7
 43
1.0
 76
     1
 77
     6
 78
     2
 67
     7
 79
     5
170
     0
171
     0
290
     0
174
     0
 93
       13
 44
0.0
173
     0
291
     1
 45
0.0
1001
ACAD
1000
AcDbSavedByObjectVersion
1070
     0
  0
VISUALSTYLE
  5
2E
102
{ACAD_XDICTIONARY
360
8E7
102
}
102
{ACAD_REACTORS
330
2A
102
}
330
2A
100
AcDbVisualStyle
  2

 70
     3
 71
     2
 72
     2
 73
     1
 90
        2
 40
-0.6
 41
30.0
 62
     5
 63
     7
 74
     1
 91
        0
 64
     7
 65
   257
 75
     1
175
     1
 42
1.0
 92
        0
 66
   257
 43
1.0
 76
     1
 77
     6
 78
     2
 67
     7
 79
     5
170
     0
171
     0
290
     0
174
     0
 93
       13
 44
0.0
173
     0
291
     1
 45
0.0
1001
ACAD
1000
AcDbSavedByObjectVersion
1070
     0
  0
VISUALSTYLE
  5
31
102
{ACAD_XDICTIONARY
360
8ED
102
}
102
{ACAD_REACTORS
330
2A
102
}
330
2A
100
AcDbVisualStyle
  2

 70
     6
 71
     1
 72
     2
 73
     2
 90
        0
 40
-0.6
 41
-30.0
 62
     5
 63
     7
 74
     2
 91
        2
 64
     7
 65
   257
 75
     2
175
     1
 42
40.0
 92
        0
 66
   257
 43
1.0
 76
     1
 77
     6
 78
     2
 67
     7
 79
     3
170
     0
171
     0
290
     0
174
     0
 93
        1
 44
0.0
173
     0
291
     0
 45
0.0
1001
ACAD
1000
AcDbSavedByObjectVersion
1070
     0
  0
VISUALSTYLE
  5
3B
102
{ACAD_XDICTIONARY
360
901
102
}
102
{ACAD_REACTORS
330
2A
102
}
330
2A
100
AcDbVisualStyle
  2

 70
    20
 71
     2
 72
     2
 73
     0
 90
        0
 40
-0.6
 41
-30.0
 62
     5
 63
     7
 74
     1
 91
        4
 64
     7
 65
   257
 75
     1
175
     1
 42
1.0
 92
       10
 66
     7
 43
1.0
 76
     1
 77
     6
 78
     2
 67
     7
 79
     5
170
     0
171
     0
290
     0
174
     0
 93
        1
 44
0.0
173
     0
291
     1
 45
0.0
1001
ACAD
1000
AcDbSavedByObjectVersion
1070
     0
  0
VISUALSTYLE
  5
38
102
{ACAD_XDICTIONARY
360
8FB
102
}
102
{ACAD_REACTORS
330
2A
102
}
330
2A
100
AcDbVisualStyle
  2

 70
    14
 71
     2
 72
     2
 73
     0
 90
        0
 40
-0.6
 41
-30.0
 62
     5
 63
     7
 74
     1
 91
        4
 64
     7
 65
   257
 75
     7
175
     7
 42
1.0
 92
        8
 66
     7
 43
1.0
 76
     1
 77
     6
 78
     2
 67
     7
 79
     5
170
     0
171
     0
290
     0
174
     0
 93
        1
 44
0.0
173
     0
291
     1
 45
0.0
1001
ACAD
1000
AcDbSavedByObjectVersion
1070
     0
  0
VISUALSTYLE
  5
3C
102
{ACAD_XDICTIONARY
360
903
102
}
102
{ACAD_REACTORS
330
2A
102
}
330
2A
100
AcDbVisualStyle
  2

 70
    21
 71
     2
 72
     2
 73
     0
 90
        0
 40
-0.6
 41
-30.0
 62
     5
 63
     7
 74
     1
 91
        4
 64
     7
 65
   257
 75
     1
175
     1
 42
1.0
 92
        9
 66
     7
 43
1.0
 76
     1
 77
     6
 78
     2
 67
     7
 79
     5
170
     0
171
     0
290
     0
174
     0
 93
        1
 44
0.0
173
     0
291
     1
 45
0.0
1001
ACAD
1000
AcDbSavedByObjectVersion
1070
     0
  0
VISUALSTYLE
  5
33
102
{ACAD_XDICTIONARY
360
8F1
102
}
102
{ACAD_REACTORS
330
2A
102
}
330
2A
100
AcDbVisualStyle
  2

 70
     8
 71
     2
 72
     3
 73
     0
 90
        2
 40
-0.6
 41
30.0
 62
     5
 63
     7
 74
     0
 91
        0
 64
     7
 65
   257
 75
     1
175
     1
 42
1.0
 92
        8
 66
   257
 43
1.0
 76
     1
 77
     6
 78
     2
 67
     7
 79
     3
170
     0
171
     0
290
     0
174
     0
 93
       13
 44
0.0
173
     0
291
     0
 45
0.0
1001
ACAD
1000
AcDbSavedByObjectVersion
1070
     0
  0
VISUALSTYLE
  5
42
102
{ACAD_XDICTIONARY
360
90F
102
}
102
{ACAD_REACTORS
330
2A
102
}
330
2A
100
AcDbVisualStyle
  2

 70
    27
 71
     2
 72
     2
 73
     1
 90
        2
 40
-0.6
 41
30.0
 62
     5
 63
     7
 74
     0
 91
        4
 64
     7
 65
   257
 75
     1
175
     1
 42
1.0
 92
        8
 66
   257
 43
1.0
 76
     1
 77
     6
 78
     2
 67
     8
 79
     3
170
     0
171
     0
290
     0
174
     0
 93
        5
 44
0.0
173
     0
291
     0
 45
0.0
1001
ACAD
1000
AcDbSavedByObjectVersion
1070
     0
  0
VISUALSTYLE
  5
41
102
{ACAD_XDICTIONARY
360
90D
102
}
102
{ACAD_REACTORS
330
2A
102
}
330
2A
100
AcDbVisualStyle
  2

 70
    26
 71
     2
 72
     2
 73
     1
 90
        2
 40
-0.6
 41
30.0
 62
     5
 63
     7
 74
     1
 91
       10
 64
     7
 65
   257
 75
     2
175
     1
 42
1.0
 92
        8
 66
   257
 43
1.0
 76
     1
 77
     6
 78
     2
 67
     7
 79
     3
170
     0
171
     0
290
     0
174
     0
 93
        5
 44
0.0
173
     0
291
     0
 45
0.0
1001
ACAD
1000
AcDbSavedByObjectVersion
1070
     0
  0
VISUALSTYLE
  5
3E
102
{ACAD_XDICTIONARY
360
907
102
}
102
{ACAD_REACTORS
330
2A
102
}
330
2A
100
AcDbVisualStyle
  2

 70
    23
 71
     2
 72
     2
 73
     3
 90
        0
 40
-0.6
 41
-30.0
 62
     5
 63
     7
 74
     2
 91
        2
 64
     7
 65
     7
 75
     1
175
     1
 42
40.0
 92
        8
 66
     7
 43
1.0
 76
     1
 77
     6
 78
     2
 67
     7
 79
     3
170
     0
171
     0
290
     0
174
     0
 93
        1
 44
0.0
173
     0
291
     0
 45
0.0
1001
ACAD
1000
AcDbSavedByObjectVersion
1070
     0
  0
VISUALSTYLE
  5
3F
102
{ACAD_XDICTIONARY
360
909
102
}
102
{ACAD_REACTORS
330
2A
102
}
330
2A
100
AcDbVisualStyle
  2

 70
    24
 71
     1
 72
     2
 73
     2
 90
        0
 40
-0.6
 41
-30.0
 62
     5
 63
     7
 74
     2
 91
        2
 64
     7
 65
     7
 75
     1
175
     1
 42
40.0
 92
       11
 66
     7
 43
1.0
 76
     1
 77
     6
 78
     2
 67
     7
 79
     6
170
     0
171
     0
290
     0
174
     0
 93
        1
 44
0.0
173
     0
291
     0
 45
0.0
1001
ACAD
1000
AcDbSavedByObjectVersion
1070
     0
  0
VISUALSTYLE
  5
37
102
{ACAD_XDICTIONARY
360
8F9
102
}
102
{ACAD_REACTORS
330
2A
102
}
330
2A
100
AcDbVisualStyle
  2

 70
    13
 71
     2
 72
     2
 73
     0
 90
        0
 40
-0.6
 41
-30.0
 62
     5
 63
     7
 74
     1
 91
        4
 64
     7
 65
   257
 75
     1
175
     1
 42
1.0
 92
       12
 66
     7
 43
1.0
 76
     1
 77
     6
 78
     2
 67
     7
 79
     5
170
     0
171
     0
290
     0
174
     0
 93
        1
 44
0.0
173
     0
291
     1
 45
0.0
1001
ACAD
1000
AcDbSavedByObjectVersion
1070
     0
  0
VISUALSTYLE
  5
30
102
{ACAD_XDICTIONARY
360
8EB
102
}
102
{ACAD_REACTORS
330
2A
102
}
330
2A
100
AcDbVisualStyle
  2

 70
     5
 71
     0
 72
     2
 73
     0
 90
        0
 40
-0.6
 41
-30.0
 62
     5
 63
     7
 74
     1
 91
        4
 64
     7
 65
   257
 75
     1
175
     1
 42
1.0
 92
        0
 66
   257
 43
1.0
 76
     1
 77
     6
 78
     2
 67
     7
 79
     3
170
     0
171
     0
290
     0
174
     0
 93
        1
 44
0.0
173
     0
291
     0
 45
0.0
1001
ACAD
1000
AcDbSavedByObjectVersion
1070
     0
  0
VISUALSTYLE
  5
40
102
{ACAD_XDICTIONARY
360
90B
102
}
102
{ACAD_REACTORS
330
2A
102
}
330
2A
100
AcDbVisualStyle
  2

 70
    25
 71
     2
 72
     2
 73
     1
 90
        1
 40
0.5
 41
-30.0
 62
     5
 63
     7
 74
     1
 91
        0
 64
     7
 65
   257
 75
     1
175
     1
 42
1.0
 92
        8
 66
     7
 43
1.0
 76
     1
 77
     6
 78
     2
 67
     7
 79
     3
170
     0
171
     0
290
     0
174
     0
 93
       13
 44
0.0
173
     0
291
     0
 45
0.0
1001
ACAD
1000
AcDbSavedByObjectVersion
1070
     0
  0
DICTIONARYVAR
  5
2F2
102
{ACAD_REACTORS
330
2E4
102
}
330
2E4
100
DictionaryVariables
280
     0
  1
1:1
  0
DICTIONARYVAR
  5
2EB
102
{ACAD_REACTORS
330
2E4
102
}
330
2E4
100
DictionaryVariables
280
     0
  1
3.500000
  0
DICTIONARYVAR
  5
2EC
102
{ACAD_REACTORS
330
2E4
102
}
330
2E4
100
DictionaryVariables
280
     0
  1
acadiso.lin
  0
DICTIONARYVAR
  5
2E6
102
{ACAD_REACTORS
330
2E4
102
}
330
2E4
100
DictionaryVariables
280
     0
  1
STANDARD
  0
DICTIONARYVAR
  5
2E5
102
{ACAD_REACTORS
330
2E4
102
}
330
2E4
100
DictionaryVariables
280
     0
  1
STANDARD
  0
DICTIONARYVAR
  5
822
102
{ACAD_REACTORS
330
2E4
102
}
330
2E4
100
DictionaryVariables
280
     0
  1
Metric50
  0
DICTIONARYVAR
  5
823
102
{ACAD_REACTORS
330
2E4
102
}
330
2E4
100
DictionaryVariables
280
     0
  1
Metric50
  0
DICTIONARYVAR
  5
2ED
102
{ACAD_REACTORS
330
2E4
102
}
330
2E4
100
DictionaryVariables
280
     0
  1
2
  0
DICTIONARYVAR
  5
2EE
102
{ACAD_REACTORS
330
2E4
102
}
330
2E4
100
DictionaryVariables
280
     0
  1
1
  0
DICTIONARYVAR
  5
8D3
102
{ACAD_REACTORS
330
2E4
102
}
330
2E4
100
DictionaryVariables
280
     0
  1
0
  0
DICTIONARYVAR
  5
825
102
{ACAD_REACTORS
330
2E4
102
}
330
2E4
100
DictionaryVariables
280
     0
  1
1
  0
DICTIONARYVAR
  5
826
102
{ACAD_REACTORS
330
2E4
102
}
330
2E4
100
DictionaryVariables
280
     0
  1
15
  0
DICTIONARYVAR
  5
824
102
{ACAD_REACTORS
330
2E4
102
}
330
2E4
100
DictionaryVariables
280
     0
  1
0
  0
DICTIONARYVAR
  5
8D6
102
{ACAD_REACTORS
330
2E4
102
}
330
2E4
100
DictionaryVariables
280
     0
  1
1.570796
  0
DICTIONARYVAR
  5
8D7
102
{ACAD_REACTORS
330
2E4
102
}
330
2E4
100
DictionaryVariables
280
     0
  1
1.570796
  0
DICTIONARYVAR
  5
8D8
102
{ACAD_REACTORS
330
2E4
102
}
330
2E4
100
DictionaryVariables
280
     0
  1
-122.394000
  0
DICTIONARYVAR
  5
2F3
102
{ACAD_REACTORS
330
2E4
102
}
330
2E4
100
DictionaryVariables
280
     0
  1
1
  0
DICTIONARYVAR
  5
8D5
102
{ACAD_REACTORS
330
2E4
102
}
330
2E4
100
DictionaryVariables
280
     0
  1
80.000000
  0
DICTIONARYVAR
  5
8D4
102
{ACAD_REACTORS
330
2E4
102
}
330
2E4
100
DictionaryVariables
280
     0
  1
5.000000
  0
DICTIONARYVAR
  5
8D2
102
{ACAD_REACTORS
330
2E4
102
}
330
2E4
100
DictionaryVariables
280
     0
  1
127
  0
DICTIONARYVAR
  5
8D9
102
{ACAD_REACTORS
330
2E4
102
}
330
2E4
100
DictionaryVariables
280
     0
  1
2
  0
DICTIONARY
  5
914
330
333
100
AcDbDictionary
280
     1
281
     1
  3
ACAD_XREC_ROUNDTRIP
360
915
  0
DICTIONARY
  5
8DD
330
1E
100
AcDbDictionary
280
     1
281
     1
  3
ACAD_XREC_ROUNDTRIP
360
8DE
  0
DICTIONARY
  5
8DF
330
22
100
AcDbDictionary
280
     1
281
     1
  3
ACAD_XREC_ROUNDTRIP
360
8E0
  0
DICTIONARY
  5
916
330
334
100
AcDbDictionary
280
     1
281
     1
  3
ACAD_XREC_ROUNDTRIP
360
917
  0
DICTIONARY
  5
326
330
45
100
AcDbDictionary
280
     1
281
     1
  3
ACAD_XREC_ROUNDTRIP
360
327
  0
DICTIONARY
  5
324
330
44
100
AcDbDictionary
280
     1
281
     1
  3
ACAD_XREC_ROUNDTRIP
360
325
  0
DICTIONARY
  5
328
330
46
100
AcDbDictionary
280
     1
281
     1
  3
ACAD_XREC_ROUNDTRIP
360
329
  0
DICTIONARY
  5
912
330
331
100
AcDbDictionary
280
     1
281
     1
  3
ACAD_XREC_ROUNDTRIP
360
913
  0
DICTIONARY
  5
871
330
5A
100
AcDbDictionary
280
     1
281
     1
  3
ACAD_ROUNDTRIP_2008_TABLESTYLE_CELLSTYLEMAP
360
8DA
  3
ACAD_XREC_ROUNDTRIP
360
911
  0
DICTIONARY
  5
8E9
330
2F
100
AcDbDictionary
280
     1
281
     1
  3
ACAD_XREC_ROUNDTRIP
360
8EA
  0
DICTIONARY
  5
8EF
330
32
100
AcDbDictionary
280
     1
281
     1
  3
ACAD_XREC_ROUNDTRIP
360
8F0
  0
DICTIONARY
  5
8F7
330
36
100
AcDbDictionary
280
     1
281
     1
  3
ACAD_XREC_ROUNDTRIP
360
8F8
  0
DICTIONARY
  5
8FF
330
3A
100
AcDbDictionary
280
     1
281
     1
  3
ACAD_XREC_ROUNDTRIP
360
900
  0
DICTIONARY
  5
8F3
330
34
100
AcDbDictionary
280
     1
281
     1
  3
ACAD_XREC_ROUNDTRIP
360
8F4
  0
DICTIONARY
  5
8F5
330
35
100
AcDbDictionary
280
     1
281
     1
  3
ACAD_XREC_ROUNDTRIP
360
8F6
  0
DICTIONARY
  5
905
330
3D
100
AcDbDictionary
280
     1
281
     1
  3
ACAD_XREC_ROUNDTRIP
360
906
  0
DICTIONARY
  5
8FD
330
39
100
AcDbDictionary
280
     1
281
     1
  3
ACAD_XREC_ROUNDTRIP
360
8FE
  0
DICTIONARY
  5
8E1
330
2B
100
AcDbDictionary
280
     1
281
     1
  3
ACAD_XREC_ROUNDTRIP
360
8E2
  0
DICTIONARY
  5
8E3
330
2C
100
AcDbDictionary
280
     1
281
     1
  3
ACAD_XREC_ROUNDTRIP
360
8E4
  0
DICTIONARY
  5
8E5
330
2D
100
AcDbDictionary
280
     1
281
     1
  3
ACAD_XREC_ROUNDTRIP
360
8E6
  0
DICTIONARY
  5
8E7
330
2E
100
AcDbDictionary
280
     1
281
     1
  3
ACAD_XREC_ROUNDTRIP
360
8E8
  0
DICTIONARY
  5
8ED
330
31
100
AcDbDictionary
280
     1
281
     1
  3
ACAD_XREC_ROUNDTRIP
360
8EE
  0
DICTIONARY
  5
901
330
3B
100
AcDbDictionary
280
     1
281
     1
  3
ACAD_XREC_ROUNDTRIP
360
902
  0
DICTIONARY
  5
8FB
330
38
100
AcDbDictionary
280
     1
281
     1
  3
ACAD_XREC_ROUNDTRIP
360
8FC
  0
DICTIONARY
  5
903
330
3C
100
AcDbDictionary
280
     1
281
     1
  3
ACAD_XREC_ROUNDTRIP
360
904
  0
DICTIONARY
  5
8F1
330
33
100
AcDbDictionary
280
     1
281
     1
  3
ACAD_XREC_ROUNDTRIP
360
8F2
  0
DICTIONARY
  5
90F
330
42
100
AcDbDictionary
280
     1
281
     1
  3
ACAD_XREC_ROUNDTRIP
360
910
  0
DICTIONARY
  5
90D
330
41
100
AcDbDictionary
280
     1
281
     1
  3
ACAD_XREC_ROUNDTRIP
360
90E
  0
DICTIONARY
  5
907
330
3E
100
AcDbDictionary
280
     1
281
     1
  3
ACAD_XREC_ROUNDTRIP
360
908
  0
DICTIONARY
  5
909
330
3F
100
AcDbDictionary
280
     1
281
     1
  3
ACAD_XREC_ROUNDTRIP
360
90A
  0
DICTIONARY
  5
8F9
330
37
100
AcDbDictionary
280
     1
281
     1
  3
ACAD_XREC_ROUNDTRIP
360
8FA
  0
DICTIONARY
  5
8EB
330
30
100
AcDbDictionary
280
     1
281
     1
  3
ACAD_XREC_ROUNDTRIP
360
8EC
  0
DICTIONARY
  5
90B
330
40
100
AcDbDictionary
280
     1
281
     1
  3
ACAD_XREC_ROUNDTRIP
360
90C
  0
XRECORD
  5
915
102
{ACAD_REACTORS
330
914
102
}
330
914
100
AcDbXrecord
280
     1
102
DISPLAYNAME
  1
Metric50
102
FLAGS
 90
        0
  0
XRECORD
  5
8DE
102
{ACAD_REACTORS
330
8DD
102
}
330
8DD
100
AcDbXrecord
280
     1
102
SHADEPLOT
 70
     0
102
SHADEPLOTRESLEVEL
 70
     2
102
SHADEPLOTCUSTOMDPI
 70
   300
  0
XRECORD
  5
8E0
102
{ACAD_REACTORS
330
8DF
102
}
330
8DF
100
AcDbXrecord
280
     1
102
SHADEPLOT
 70
     0
102
SHADEPLOTRESLEVEL
 70
     2
102
SHADEPLOTCUSTOMDPI
 70
   300
  0
XRECORD
  5
917
102
{ACAD_REACTORS
330
916
102
}
330
916
100
AcDbXrecord
280
     1
102
SHADEPLOT
 70
     0
102
SHADEPLOTRESLEVEL
 70
     2
102
SHADEPLOTCUSTOMDPI
 70
   300
  0
XRECORD
  5
327
102
{ACAD_REACTORS
330
326
102
}
330
326
100
AcDbXrecord
280
     1
102
MATERIAL
148
0.0
149
0.0
149
0.0
 93
        0
 94
      127
282
     0
 72
     1
 77
     1
171
     1
175
     1
179
     1
273
     0
  0
XRECORD
  5
325
102
{ACAD_REACTORS
330
324
102
}
330
324
100
AcDbXrecord
280
     1
102
MATERIAL
148
0.0
149
0.0
149
0.0
 93
        0
 94
      127
282
     0
 72
     1
 77
     1
171
     1
175
     1
179
     1
273
     0
  0
XRECORD
  5
329
102
{ACAD_REACTORS
330
328
102
}
330
328
100
AcDbXrecord
280
     1
102
MATERIAL
148
0.0
149
0.0
149
0.0
 93
        0
 94
      127
282
     0
 72
     1
 77
     1
171
     1
175
     1
179
     1
273
     0
  0
XRECORD
  5
913
102
{ACAD_REACTORS
330
912
102
}
330
912
100
AcDbXrecord
280
     1
102
DISPLAYNAME
  1
Metric50
102
FLAGS
 90
        0
  0
CELLSTYLEMAP
  5
8DA
102
{ACAD_REACTORS
330
871
102
}
330
871
100
AcDbCellStyleMap
 90
        3
300
CELLSTYLE
  1
TABLEFORMAT_BEGIN
 90
        5
170
     1
 91
        0
 92
    32768
 62
   257
 93
        1
300
CONTENTFORMAT
  1
CONTENTFORMAT_BEGIN
 90
        0
 91
        0
 92
        4
 93
        0
300

 40
0.0
140
1.0
 94
        5
 62
     0
340
11
144
6.0
309
CONTENTFORMAT_END
171
     1
301
MARGIN
  1
CELLMARGIN_BEGIN
 40
1.5
 40
1.5
 40
1.5
 40
1.5
 40
0.18
 40
0.18
309
CELLMARGIN_END
 94
        6
 95
        1
302
GRIDFORMAT
  1
GRIDFORMAT_BEGIN
 90
        0
 91
        1
 62
     0
 92
       -2
340
0
 93
        0
 40
0.045
309
GRIDFORMAT_END
 95
        2
302
GRIDFORMAT
  1
GRIDFORMAT_BEGIN
 90
        0
 91
        1
 62
     0
 92
       -2
340
0
 93
        0
 40
0.045
309
GRIDFORMAT_END
 95
        4
302
GRIDFORMAT
  1
GRIDFORMAT_BEGIN
 90
        0
 91
        1
 62
     0
 92
       -2
340
0
 93
        0
 40
0.045
309
GRIDFORMAT_END
 95
        8
302
GRIDFORMAT
  1
GRIDFORMAT_BEGIN
 90
        0
 91
        1
 62
     0
 92
       -2
340
0
 93
        0
 40
0.045
309
GRIDFORMAT_END
 95
       16
302
GRIDFORMAT
  1
GRIDFORMAT_BEGIN
 90
        0
 91
        1
 62
     0
 92
       -2
340
0
 93
        0
 40
0.045
309
GRIDFORMAT_END
 95
       32
302
GRIDFORMAT
  1
GRIDFORMAT_BEGIN
 90
        0
 91
        1
 62
     0
 92
       -2
340
0
 93
        0
 40
0.045
309
GRIDFORMAT_END
309
TABLEFORMAT_END
  1
CELLSTYLE_BEGIN
 90
        1
 91
        1
300
_TITLE
309
CELLSTYLE_END
300
CELLSTYLE
  1
TABLEFORMAT_BEGIN
 90
        5
170
     1
 91
        0
 92
        0
 62
   257
 93
        1
300
CONTENTFORMAT
  1
CONTENTFORMAT_BEGIN
 90
        0
 91
        0
 92
        4
 93
        0
300

 40
0.0
140
1.0
 94
        5
 62
     0
340
11
144
4.5
309
CONTENTFORMAT_END
171
     1
301
MARGIN
  1
CELLMARGIN_BEGIN
 40
1.5
 40
1.5
 40
1.5
 40
1.5
 40
0.18
 40
0.18
309
CELLMARGIN_END
 94
        6
 95
        1
302
GRIDFORMAT
  1
GRIDFORMAT_BEGIN
 90
        0
 91
        1
 62
     0
 92
       -2
340
0
 93
        0
 40
0.045
309
GRIDFORMAT_END
 95
        2
302
GRIDFORMAT
  1
GRIDFORMAT_BEGIN
 90
        0
 91
        1
 62
     0
 92
       -2
340
0
 93
        0
 40
0.045
309
GRIDFORMAT_END
 95
        4
302
GRIDFORMAT
  1
GRIDFORMAT_BEGIN
 90
        0
 91
        1
 62
     0
 92
       -2
340
0
 93
        0
 40
0.045
309
GRIDFORMAT_END
 95
        8
302
GRIDFORMAT
  1
GRIDFORMAT_BEGIN
 90
        0
 91
        1
 62
     0
 92
       -2
340
0
 93
        0
 40
0.045
309
GRIDFORMAT_END
 95
       16
302
GRIDFORMAT
  1
GRIDFORMAT_BEGIN
 90
        0
 91
        1
 62
     0
 92
       -2
340
0
 93
        0
 40
0.045
309
GRIDFORMAT_END
 95
       32
302
GRIDFORMAT
  1
GRIDFORMAT_BEGIN
 90
        0
 91
        1
 62
     0
 92
       -2
340
0
 93
        0
 40
0.045
309
GRIDFORMAT_END
309
TABLEFORMAT_END
  1
CELLSTYLE_BEGIN
 90
        2
 91
        1
300
_HEADER
309
CELLSTYLE_END
300
CELLSTYLE
  1
TABLEFORMAT_BEGIN
 90
        5
170
     1
 91
        0
 92
        0
 62
   257
 93
        1
300
CONTENTFORMAT
  1
CONTENTFORMAT_BEGIN
 90
        0
 91
        0
 92
        4
 93
        0
300

 40
0.0
140
1.0
 94
        2
 62
     0
340
11
144
4.5
309
CONTENTFORMAT_END
171
     1
301
MARGIN
  1
CELLMARGIN_BEGIN
 40
1.5
 40
1.5
 40
1.5
 40
1.5
 40
0.18
 40
0.18
309
CELLMARGIN_END
 94
        6
 95
        1
302
GRIDFORMAT
  1
GRIDFORMAT_BEGIN
 90
        0
 91
        1
 62
     0
 92
       -2
340
0
 93
        0
 40
0.045
309
GRIDFORMAT_END
 95
        2
302
GRIDFORMAT
  1
GRIDFORMAT_BEGIN
 90
        0
 91
        1
 62
     0
 92
       -2
340
0
 93
        0
 40
0.045
309
GRIDFORMAT_END
 95
        4
302
GRIDFORMAT
  1
GRIDFORMAT_BEGIN
 90
        0
 91
        1
 62
     0
 92
       -2
340
0
 93
        0
 40
0.045
309
GRIDFORMAT_END
 95
        8
302
GRIDFORMAT
  1
GRIDFORMAT_BEGIN
 90
        0
 91
        1
 62
     0
 92
       -2
340
0
 93
        0
 40
0.045
309
GRIDFORMAT_END
 95
       16
302
GRIDFORMAT
  1
GRIDFORMAT_BEGIN
 90
        0
 91
        1
 62
     0
 92
       -2
340
0
 93
        0
 40
0.045
309
GRIDFORMAT_END
 95
       32
302
GRIDFORMAT
  1
GRIDFORMAT_BEGIN
 90
        0
 91
        1
 62
     0
 92
       -2
340
0
 93
        0
 40
0.045
309
GRIDFORMAT_END
309
TABLEFORMAT_END
  1
CELLSTYLE_BEGIN
 90
        3
 91
        2
300
_DATA
309
CELLSTYLE_END
  0
XRECORD
  5
911
102
{ACAD_REACTORS
330
871
102
}
330
871
100
AcDbXrecord
280
     1
102
ACAD_ROUNDTRIP_PRE2007_TABLESTYLE
 90
        4
 91
        0
  1

 92
        4
 93
        0
  2

 94
        4
 95
        0
  3

  0
XRECORD
  5
8EA
102
{ACAD_REACTORS
330
8E9
102
}
330
8E9
100
AcDbXrecord
280
     1
102
RTVSPost2010Prop28
280
     1
102
RTVSPost2010PropOp28
 70
     1
102
RTVSPost2010Prop29
280
     1
102
RTVSPost2010PropOp29
 70
     1
102
RTVSPost2010Prop30
280
     0
102
RTVSPost2010PropOp30
 70
     1
102
RTVSPost2010Prop31
280
     0
102
RTVSPost2010PropOp31
 70
     1
102
RTVSPost2010Prop32
280
     0
102
RTVSPost2010PropOp32
 70
     1
102
RTVSPost2010Prop33
280
     0
102
RTVSPost2010PropOp33
 70
     1
102
RTVSPost2010Prop34
280
     0
102
RTVSPost2010PropOp34
 70
     1
102
RTVSPost2010Prop35
280
     0
102
RTVSPost2010PropOp35
 70
     1
102
RTVSPost2010Prop36
280
     0
102
RTVSPost2010PropOp36
 70
     1
102
RTVSPost2010Prop37
 90
       50
102
RTVSPost2010PropOp37
 70
     1
102
RTVSPost2010Prop38
140
0.0
102
RTVSPost2010PropOp38
 70
     1
102
RTVSPost2010Prop39
140
1.0
102
RTVSPost2010PropOp39
 70
     1
102
RTVSPost2010Prop40
 90
        0
102
RTVSPost2010PropOp40
 70
     1
102
RTVSPost2010Prop41ColorIndex
 90
       18
102
RTVSPost2010Prop41ColorRGB
 90
        0
102
RTVSPost2010PropOp41
 70
     1
102
RTVSPost2010Prop42
 90
       50
102
RTVSPost2010PropOp42
 70
     1
102
RTVSPost2010Prop43
 90
        3
102
RTVSPost2010PropOp43
 70
     1
102
RTVSPost2010Prop44ColorIndex
 90
        5
102
RTVSPost2010Prop44ColorRGB
 90
      255
102
RTVSPost2010PropOp44
 70
     1
102
RTVSPost2010Prop45
280
     0
102
RTVSPost2010PropOp45
 70
     1
102
RTVSPost2010Prop46
 90
       50
102
RTVSPost2010PropOp46
 70
     1
102
RTVSPost2010Prop47
 90
       50
102
RTVSPost2010PropOp47
 70
     1
102
RTVSPost2010Prop48
 90
       50
102
RTVSPost2010PropOp48
 70
     1
102
RTVSPost2010Prop49
280
     0
102
RTVSPost2010PropOp49
 70
     1
102
RTVSPost2010Prop50
 90
       50
102
RTVSPost2010PropOp50
 70
     1
102
RTVSPost2010Prop51ColorIndex
 90
      256
102
RTVSPost2010Prop51ColorRGB
 90
-16777216
102
RTVSPost2010PropOp51
 70
     0
102
RTVSPost2010Prop52
140
1.0
102
RTVSPost2010PropOp52
 70
     0
102
RTVSPost2010Prop53
 90
        2
102
RTVSPost2010PropOp53
 70
     1
102
RTVSPost2010Prop54
  1
strokes_ogs.tif
102
RTVSPost2010PropOp54
 70
     1
102
RTVSPost2010Prop55
280
     0
102
RTVSPost2010PropOp55
 70
     1
102
RTVSPost2010Prop56
140
1.0
102
RTVSPost2010PropOp56
 70
     1
102
RTVSPost2010Prop57
140
1.0
102
RTVSPost2010PropOp57
 70
     1
102
RTVSPropertyOp0
 70
     1
102
RTVSPropertyOp1
 70
     1
102
RTVSPropertyOp2
 70
     1
102
RTVSPropertyOp3
 70
     1
102
RTVSPropertyOp4
 70
     1
102
RTVSPropertyOp5
 70
     1
102
RTVSPropertyOp6
 70
     1
102
RTVSPropertyOp7
 70
     1
102
RTVSPropertyOp8
 70
     1
102
RTVSPropertyOp9
 70
     1
102
RTVSPropertyOp10
 70
     1
102
RTVSPropertyOp11
 70
     1
102
RTVSPropertyOp12
 70
     1
102
RTVSPropertyOp13
 70
     1
102
RTVSPropertyOp14
 70
     1
102
RTVSPropertyOp15
 70
     1
102
RTVSPropertyOp16
 70
     1
102
RTVSPropertyOp17
 70
     1
102
RTVSPropertyOp18
 70
     1
102
RTVSPropertyOp19
 70
     1
102
RTVSPropertyOp20
 70
     1
102
RTVSPropertyOp21
 70
     1
102
RTVSPropertyOp22
 70
     1
102
RTVSPropertyOp23
 70
     1
102
RTVSPropertyOp24
 70
     1
102
RTVSPropertyOp25
 70
     1
102
RTVSPropertyOp26
 70
     1
102
RTVSPropertyOp27
 70
     1
102
RTVSPropertyOp28
 70
     1
102
RTVSPropertyOp29
 70
     1
102
RTVSPropertyOp30
 70
     1
102
RTVSPropertyOp31
 70
     1
102
RTVSPropertyOp32
 70
     1
102
RTVSPropertyOp33
 70
     1
102
RTVSPropertyOp34
 70
     1
102
RTVSPropertyOp35
 70
     1
102
RTVSPropertyOp36
 70
     1
102
RTVSPropertyOp37
 70
     1
102
RTVSPropertyOp38
 70
     1
102
RTVSPropertyOp39
 70
     1
102
RTVSPropertyOp40
 70
     1
102
RTVSPropertyOp41
 70
     1
102
RTVSPropertyOp42
 70
     1
102
RTVSPropertyOp43
 70
     1
102
RTVSPropertyOp44
 70
     1
102
RTVSPropertyOp45
 70
     1
102
RTVSPropertyOp46
 70
     1
102
RTVSPropertyOp47
 70
     1
102
RTVSPropertyOp48
 70
     1
102
RTVSPropertyOp49
 70
     1
102
RTVSPropertyOp50
 70
     1
102
RTVSPropertyOp51
 70
     0
102
RTVSPropertyOp52
 70
     0
102
RTVSPropertyOp53
 70
     1
102
RTVSPropertyOp54
 70
     1
102
RTVSPropertyOp55
 70
     1
102
RTVSPropertyOp56
 70
     1
102
RTVSPropertyOp57
 70
     1
102
RTVSPropertyOp58
 70
     1
102
RTVSPropertyOp59
 70
     1
102
RTVSPropertyOp60
 70
     1
102
RTVSPropertyOp61
 70
     1
102
RTVSPropertyOp62
 70
     1
  0
XRECORD
  5
8F0
102
{ACAD_REACTORS
330
8EF
102
}
330
8EF
100
AcDbXrecord
280
     1
102
RTVSPost2010Prop28
280
     0
102
RTVSPost2010PropOp28
 70
     1
102
RTVSPost2010Prop29
280
     1
102
RTVSPost2010PropOp29
 70
     1
102
RTVSPost2010Prop30
280
     1
102
RTVSPost2010PropOp30
 70
     1
102
RTVSPost2010Prop31
280
     0
102
RTVSPost2010PropOp31
 70
     1
102
RTVSPost2010Prop32
280
     0
102
RTVSPost2010PropOp32
 70
     1
102
RTVSPost2010Prop33
280
     0
102
RTVSPost2010PropOp33
 70
     1
102
RTVSPost2010Prop34
280
     0
102
RTVSPost2010PropOp34
 70
     1
102
RTVSPost2010Prop35
280
     0
102
RTVSPost2010PropOp35
 70
     1
102
RTVSPost2010Prop36
280
     0
102
RTVSPost2010PropOp36
 70
     1
102
RTVSPost2010Prop37
 90
       50
102
RTVSPost2010PropOp37
 70
     1
102
RTVSPost2010Prop38
140
0.0
102
RTVSPost2010PropOp38
 70
     1
102
RTVSPost2010Prop39
140
1.0
102
RTVSPost2010PropOp39
 70
     1
102
RTVSPost2010Prop40
 90
        0
102
RTVSPost2010PropOp40
 70
     1
102
RTVSPost2010Prop41ColorIndex
 90
       18
102
RTVSPost2010Prop41ColorRGB
 90
        0
102
RTVSPost2010PropOp41
 70
     1
102
RTVSPost2010Prop42
 90
       50
102
RTVSPost2010PropOp42
 70
     1
102
RTVSPost2010Prop43
 90
        3
102
RTVSPost2010PropOp43
 70
     1
102
RTVSPost2010Prop44ColorIndex
 90
        5
102
RTVSPost2010Prop44ColorRGB
 90
      255
102
RTVSPost2010PropOp44
 70
     1
102
RTVSPost2010Prop45
280
     0
102
RTVSPost2010PropOp45
 70
     1
102
RTVSPost2010Prop46
 90
       50
102
RTVSPost2010PropOp46
 70
     1
102
RTVSPost2010Prop47
 90
       50
102
RTVSPost2010PropOp47
 70
     1
102
RTVSPost2010Prop48
 90
       50
102
RTVSPost2010PropOp48
 70
     1
102
RTVSPost2010Prop49
280
     0
102
RTVSPost2010PropOp49
 70
     1
102
RTVSPost2010Prop50
 90
       50
102
RTVSPost2010PropOp50
 70
     1
102
RTVSPost2010Prop51ColorIndex
 90
      256
102
RTVSPost2010Prop51ColorRGB
 90
-16777216
102
RTVSPost2010PropOp51
 70
     0
102
RTVSPost2010Prop52
140
1.0
102
RTVSPost2010PropOp52
 70
     0
102
RTVSPost2010Prop53
 90
        2
102
RTVSPost2010PropOp53
 70
     1
102
RTVSPost2010Prop54
  1
strokes_ogs.tif
102
RTVSPost2010PropOp54
 70
     1
102
RTVSPost2010Prop55
280
     0
102
RTVSPost2010PropOp55
 70
     1
102
RTVSPost2010Prop56
140
1.0
102
RTVSPost2010PropOp56
 70
     1
102
RTVSPost2010Prop57
140
1.0
102
RTVSPost2010PropOp57
 70
     1
102
RTVSPropertyOp0
 70
     1
102
RTVSPropertyOp1
 70
     1
102
RTVSPropertyOp2
 70
     1
102
RTVSPropertyOp3
 70
     1
102
RTVSPropertyOp4
 70
     1
102
RTVSPropertyOp5
 70
     1
102
RTVSPropertyOp6
 70
     1
102
RTVSPropertyOp7
 70
     1
102
RTVSPropertyOp8
 70
     1
102
RTVSPropertyOp9
 70
     1
102
RTVSPropertyOp10
 70
     1
102
RTVSPropertyOp11
 70
     1
102
RTVSPropertyOp12
 70
     1
102
RTVSPropertyOp13
 70
     1
102
RTVSPropertyOp14
 70
     1
102
RTVSPropertyOp15
 70
     1
102
RTVSPropertyOp16
 70
     1
102
RTVSPropertyOp17
 70
     1
102
RTVSPropertyOp18
 70
     1
102
RTVSPropertyOp19
 70
     1
102
RTVSPropertyOp20
 70
     1
102
RTVSPropertyOp21
 70
     1
102
RTVSPropertyOp22
 70
     1
102
RTVSPropertyOp23
 70
     1
102
RTVSPropertyOp24
 70
     1
102
RTVSPropertyOp25
 70
     1
102
RTVSPropertyOp26
 70
     1
102
RTVSPropertyOp27
 70
     1
102
RTVSPropertyOp28
 70
     1
102
RTVSPropertyOp29
 70
     1
102
RTVSPropertyOp30
 70
     1
102
RTVSPropertyOp31
 70
     1
102
RTVSPropertyOp32
 70
     1
102
RTVSPropertyOp33
 70
     1
102
RTVSPropertyOp34
 70
     1
102
RTVSPropertyOp35
 70
     1
102
RTVSPropertyOp36
 70
     1
102
RTVSPropertyOp37
 70
     1
102
RTVSPropertyOp38
 70
     1
102
RTVSPropertyOp39
 70
     1
102
RTVSPropertyOp40
 70
     1
102
RTVSPropertyOp41
 70
     1
102
RTVSPropertyOp42
 70
     1
102
RTVSPropertyOp43
 70
     1
102
RTVSPropertyOp44
 70
     1
102
RTVSPropertyOp45
 70
     1
102
RTVSPropertyOp46
 70
     1
102
RTVSPropertyOp47
 70
     1
102
RTVSPropertyOp48
 70
     1
102
RTVSPropertyOp49
 70
     1
102
RTVSPropertyOp50
 70
     1
102
RTVSPropertyOp51
 70
     0
102
RTVSPropertyOp52
 70
     0
102
RTVSPropertyOp53
 70
     1
102
RTVSPropertyOp54
 70
     1
102
RTVSPropertyOp55
 70
     1
102
RTVSPropertyOp56
 70
     1
102
RTVSPropertyOp57
 70
     1
102
RTVSPropertyOp58
 70
     1
102
RTVSPropertyOp59
 70
     1
102
RTVSPropertyOp60
 70
     1
102
RTVSPropertyOp61
 70
     1
102
RTVSPropertyOp62
 70
     1
  0
XRECORD
  5
8F8
102
{ACAD_REACTORS
330
8F7
102
}
330
8F7
100
AcDbXrecord
280
     1
102
RTVSPost2010Prop28
280
     0
102
RTVSPost2010PropOp28
 70
     1
102
RTVSPost2010Prop29
280
     1
102
RTVSPost2010PropOp29
 70
     1
102
RTVSPost2010Prop30
280
     1
102
RTVSPost2010PropOp30
 70
     1
102
RTVSPost2010Prop31
280
     0
102
RTVSPost2010PropOp31
 70
     1
102
RTVSPost2010Prop32
280
     0
102
RTVSPost2010PropOp32
 70
     1
102
RTVSPost2010Prop33
280
     0
102
RTVSPost2010PropOp33
 70
     1
102
RTVSPost2010Prop34
280
     0
102
RTVSPost2010PropOp34
 70
     1
102
RTVSPost2010Prop35
280
     0
102
RTVSPost2010PropOp35
 70
     1
102
RTVSPost2010Prop36
280
     0
102
RTVSPost2010PropOp36
 70
     1
102
RTVSPost2010Prop37
 90
       50
102
RTVSPost2010PropOp37
 70
     1
102
RTVSPost2010Prop38
140
0.0
102
RTVSPost2010PropOp38
 70
     1
102
RTVSPost2010Prop39
140
1.0
102
RTVSPost2010PropOp39
 70
     1
102
RTVSPost2010Prop40
 90
        0
102
RTVSPost2010PropOp40
 70
     1
102
RTVSPost2010Prop41ColorIndex
 90
       18
102
RTVSPost2010Prop41ColorRGB
 90
        0
102
RTVSPost2010PropOp41
 70
     1
102
RTVSPost2010Prop42
 90
       50
102
RTVSPost2010PropOp42
 70
     1
102
RTVSPost2010Prop43
 90
        3
102
RTVSPost2010PropOp43
 70
     1
102
RTVSPost2010Prop44ColorIndex
 90
        5
102
RTVSPost2010Prop44ColorRGB
 90
      255
102
RTVSPost2010PropOp44
 70
     1
102
RTVSPost2010Prop45
280
     0
102
RTVSPost2010PropOp45
 70
     1
102
RTVSPost2010Prop46
 90
       50
102
RTVSPost2010PropOp46
 70
     1
102
RTVSPost2010Prop47
 90
       50
102
RTVSPost2010PropOp47
 70
     1
102
RTVSPost2010Prop48
 90
       50
102
RTVSPost2010PropOp48
 70
     1
102
RTVSPost2010Prop49
280
     0
102
RTVSPost2010PropOp49
 70
     1
102
RTVSPost2010Prop50
 90
       50
102
RTVSPost2010PropOp50
 70
     1
102
RTVSPost2010Prop51ColorIndex
 90
      256
102
RTVSPost2010Prop51ColorRGB
 90
-16777216
102
RTVSPost2010PropOp51
 70
     0
102
RTVSPost2010Prop52
140
1.0
102
RTVSPost2010PropOp52
 70
     0
102
RTVSPost2010Prop53
 90
        2
102
RTVSPost2010PropOp53
 70
     1
102
RTVSPost2010Prop54
  1
strokes_ogs.tif
102
RTVSPost2010PropOp54
 70
     1
102
RTVSPost2010Prop55
280
     0
102
RTVSPost2010PropOp55
 70
     1
102
RTVSPost2010Prop56
140
1.0
102
RTVSPost2010PropOp56
 70
     1
102
RTVSPost2010Prop57
140
1.0
102
RTVSPost2010PropOp57
 70
     1
102
RTVSPropertyOp0
 70
     1
102
RTVSPropertyOp1
 70
     1
102
RTVSPropertyOp2
 70
     1
102
RTVSPropertyOp3
 70
     1
102
RTVSPropertyOp4
 70
     1
102
RTVSPropertyOp5
 70
     1
102
RTVSPropertyOp6
 70
     1
102
RTVSPropertyOp7
 70
     1
102
RTVSPropertyOp8
 70
     1
102
RTVSPropertyOp9
 70
     1
102
RTVSPropertyOp10
 70
     1
102
RTVSPropertyOp11
 70
     1
102
RTVSPropertyOp12
 70
     1
102
RTVSPropertyOp13
 70
     1
102
RTVSPropertyOp14
 70
     1
102
RTVSPropertyOp15
 70
     1
102
RTVSPropertyOp16
 70
     1
102
RTVSPropertyOp17
 70
     1
102
RTVSPropertyOp18
 70
     1
102
RTVSPropertyOp19
 70
     1
102
RTVSPropertyOp20
 70
     1
102
RTVSPropertyOp21
 70
     1
102
RTVSPropertyOp22
 70
     1
102
RTVSPropertyOp23
 70
     1
102
RTVSPropertyOp24
 70
     1
102
RTVSPropertyOp25
 70
     1
102
RTVSPropertyOp26
 70
     1
102
RTVSPropertyOp27
 70
     1
102
RTVSPropertyOp28
 70
     1
102
RTVSPropertyOp29
 70
     1
102
RTVSPropertyOp30
 70
     1
102
RTVSPropertyOp31
 70
     1
102
RTVSPropertyOp32
 70
     1
102
RTVSPropertyOp33
 70
     1
102
RTVSPropertyOp34
 70
     1
102
RTVSPropertyOp35
 70
     1
102
RTVSPropertyOp36
 70
     1
102
RTVSPropertyOp37
 70
     1
102
RTVSPropertyOp38
 70
     1
102
RTVSPropertyOp39
 70
     1
102
RTVSPropertyOp40
 70
     1
102
RTVSPropertyOp41
 70
     1
102
RTVSPropertyOp42
 70
     1
102
RTVSPropertyOp43
 70
     1
102
RTVSPropertyOp44
 70
     1
102
RTVSPropertyOp45
 70
     1
102
RTVSPropertyOp46
 70
     1
102
RTVSPropertyOp47
 70
     1
102
RTVSPropertyOp48
 70
     1
102
RTVSPropertyOp49
 70
     1
102
RTVSPropertyOp50
 70
     1
102
RTVSPropertyOp51
 70
     0
102
RTVSPropertyOp52
 70
     0
102
RTVSPropertyOp53
 70
     1
102
RTVSPropertyOp54
 70
     1
102
RTVSPropertyOp55
 70
     1
102
RTVSPropertyOp56
 70
     1
102
RTVSPropertyOp57
 70
     1
102
RTVSPropertyOp58
 70
     1
102
RTVSPropertyOp59
 70
     1
102
RTVSPropertyOp60
 70
     1
102
RTVSPropertyOp61
 70
     1
102
RTVSPropertyOp62
 70
     1
  0
XRECORD
  5
900
102
{ACAD_REACTORS
330
8FF
102
}
330
8FF
100
AcDbXrecord
280
     1
102
RTVSPost2010Prop28
280
     0
102
RTVSPost2010PropOp28
 70
     1
102
RTVSPost2010Prop29
280
     1
102
RTVSPost2010PropOp29
 70
     1
102
RTVSPost2010Prop30
280
     1
102
RTVSPost2010PropOp30
 70
     1
102
RTVSPost2010Prop31
280
     0
102
RTVSPost2010PropOp31
 70
     1
102
RTVSPost2010Prop32
280
     0
102
RTVSPost2010PropOp32
 70
     1
102
RTVSPost2010Prop33
280
     0
102
RTVSPost2010PropOp33
 70
     1
102
RTVSPost2010Prop34
280
     0
102
RTVSPost2010PropOp34
 70
     1
102
RTVSPost2010Prop35
280
     0
102
RTVSPost2010PropOp35
 70
     1
102
RTVSPost2010Prop36
280
     0
102
RTVSPost2010PropOp36
 70
     1
102
RTVSPost2010Prop37
 90
       50
102
RTVSPost2010PropOp37
 70
     1
102
RTVSPost2010Prop38
140
0.0
102
RTVSPost2010PropOp38
 70
     1
102
RTVSPost2010Prop39
140
1.0
102
RTVSPost2010PropOp39
 70
     1
102
RTVSPost2010Prop40
 90
        0
102
RTVSPost2010PropOp40
 70
     1
102
RTVSPost2010Prop41ColorIndex
 90
       18
102
RTVSPost2010Prop41ColorRGB
 90
        0
102
RTVSPost2010PropOp41
 70
     1
102
RTVSPost2010Prop42
 90
       50
102
RTVSPost2010PropOp42
 70
     1
102
RTVSPost2010Prop43
 90
        3
102
RTVSPost2010PropOp43
 70
     1
102
RTVSPost2010Prop44ColorIndex
 90
        5
102
RTVSPost2010Prop44ColorRGB
 90
      255
102
RTVSPost2010PropOp44
 70
     1
102
RTVSPost2010Prop45
280
     0
102
RTVSPost2010PropOp45
 70
     1
102
RTVSPost2010Prop46
 90
       50
102
RTVSPost2010PropOp46
 70
     1
102
RTVSPost2010Prop47
 90
       50
102
RTVSPost2010PropOp47
 70
     1
102
RTVSPost2010Prop48
 90
       50
102
RTVSPost2010PropOp48
 70
     1
102
RTVSPost2010Prop49
280
     0
102
RTVSPost2010PropOp49
 70
     1
102
RTVSPost2010Prop50
 90
       50
102
RTVSPost2010PropOp50
 70
     1
102
RTVSPost2010Prop51ColorIndex
 90
      256
102
RTVSPost2010Prop51ColorRGB
 90
-16777216
102
RTVSPost2010PropOp51
 70
     0
102
RTVSPost2010Prop52
140
1.0
102
RTVSPost2010PropOp52
 70
     0
102
RTVSPost2010Prop53
 90
        2
102
RTVSPost2010PropOp53
 70
     1
102
RTVSPost2010Prop54
  1
strokes_ogs.tif
102
RTVSPost2010PropOp54
 70
     1
102
RTVSPost2010Prop55
280
     0
102
RTVSPost2010PropOp55
 70
     1
102
RTVSPost2010Prop56
140
1.0
102
RTVSPost2010PropOp56
 70
     1
102
RTVSPost2010Prop57
140
1.0
102
RTVSPost2010PropOp57
 70
     1
102
RTVSPropertyOp0
 70
     1
102
RTVSPropertyOp1
 70
     1
102
RTVSPropertyOp2
 70
     1
102
RTVSPropertyOp3
 70
     1
102
RTVSPropertyOp4
 70
     1
102
RTVSPropertyOp5
 70
     1
102
RTVSPropertyOp6
 70
     1
102
RTVSPropertyOp7
 70
     1
102
RTVSPropertyOp8
 70
     1
102
RTVSPropertyOp9
 70
     1
102
RTVSPropertyOp10
 70
     1
102
RTVSPropertyOp11
 70
     1
102
RTVSPropertyOp12
 70
     1
102
RTVSPropertyOp13
 70
     1
102
RTVSPropertyOp14
 70
     1
102
RTVSPropertyOp15
 70
     1
102
RTVSPropertyOp16
 70
     1
102
RTVSPropertyOp17
 70
     1
102
RTVSPropertyOp18
 70
     1
102
RTVSPropertyOp19
 70
     1
102
RTVSPropertyOp20
 70
     1
102
RTVSPropertyOp21
 70
     1
102
RTVSPropertyOp22
 70
     1
102
RTVSPropertyOp23
 70
     1
102
RTVSPropertyOp24
 70
     1
102
RTVSPropertyOp25
 70
     1
102
RTVSPropertyOp26
 70
     1
102
RTVSPropertyOp27
 70
     1
102
RTVSPropertyOp28
 70
     1
102
RTVSPropertyOp29
 70
     1
102
RTVSPropertyOp30
 70
     1
102
RTVSPropertyOp31
 70
     1
102
RTVSPropertyOp32
 70
     1
102
RTVSPropertyOp33
 70
     1
102
RTVSPropertyOp34
 70
     1
102
RTVSPropertyOp35
 70
     1
102
RTVSPropertyOp36
 70
     1
102
RTVSPropertyOp37
 70
     1
102
RTVSPropertyOp38
 70
     1
102
RTVSPropertyOp39
 70
     1
102
RTVSPropertyOp40
 70
     1
102
RTVSPropertyOp41
 70
     1
102
RTVSPropertyOp42
 70
     1
102
RTVSPropertyOp43
 70
     1
102
RTVSPropertyOp44
 70
     1
102
RTVSPropertyOp45
 70
     1
102
RTVSPropertyOp46
 70
     1
102
RTVSPropertyOp47
 70
     1
102
RTVSPropertyOp48
 70
     1
102
RTVSPropertyOp49
 70
     1
102
RTVSPropertyOp50
 70
     1
102
RTVSPropertyOp51
 70
     0
102
RTVSPropertyOp52
 70
     0
102
RTVSPropertyOp53
 70
     1
102
RTVSPropertyOp54
 70
     1
102
RTVSPropertyOp55
 70
     1
102
RTVSPropertyOp56
 70
     1
102
RTVSPropertyOp57
 70
     1
102
RTVSPropertyOp58
 70
     1
102
RTVSPropertyOp59
 70
     1
102
RTVSPropertyOp60
 70
     1
102
RTVSPropertyOp61
 70
     1
102
RTVSPropertyOp62
 70
     1
  0
XRECORD
  5
8F4
102
{ACAD_REACTORS
330
8F3
102
}
330
8F3
100
AcDbXrecord
280
     1
102
RTVSPost2010Prop28
280
     0
102
RTVSPost2010PropOp28
 70
     1
102
RTVSPost2010Prop29
280
     1
102
RTVSPost2010PropOp29
 70
     1
102
RTVSPost2010Prop30
280
     1
102
RTVSPost2010PropOp30
 70
     1
102
RTVSPost2010Prop31
280
     0
102
RTVSPost2010PropOp31
 70
     1
102
RTVSPost2010Prop32
280
     0
102
RTVSPost2010PropOp32
 70
     1
102
RTVSPost2010Prop33
280
     0
102
RTVSPost2010PropOp33
 70
     1
102
RTVSPost2010Prop34
280
     0
102
RTVSPost2010PropOp34
 70
     1
102
RTVSPost2010Prop35
280
     0
102
RTVSPost2010PropOp35
 70
     1
102
RTVSPost2010Prop36
280
     0
102
RTVSPost2010PropOp36
 70
     1
102
RTVSPost2010Prop37
 90
       50
102
RTVSPost2010PropOp37
 70
     1
102
RTVSPost2010Prop38
140
0.0
102
RTVSPost2010PropOp38
 70
     1
102
RTVSPost2010Prop39
140
1.0
102
RTVSPost2010PropOp39
 70
     1
102
RTVSPost2010Prop40
 90
        0
102
RTVSPost2010PropOp40
 70
     1
102
RTVSPost2010Prop41ColorIndex
 90
       18
102
RTVSPost2010Prop41ColorRGB
 90
        0
102
RTVSPost2010PropOp41
 70
     1
102
RTVSPost2010Prop42
 90
       50
102
RTVSPost2010PropOp42
 70
     1
102
RTVSPost2010Prop43
 90
        3
102
RTVSPost2010PropOp43
 70
     1
102
RTVSPost2010Prop44ColorIndex
 90
        5
102
RTVSPost2010Prop44ColorRGB
 90
      255
102
RTVSPost2010PropOp44
 70
     1
102
RTVSPost2010Prop45
280
     0
102
RTVSPost2010PropOp45
 70
     1
102
RTVSPost2010Prop46
 90
       50
102
RTVSPost2010PropOp46
 70
     1
102
RTVSPost2010Prop47
 90
       50
102
RTVSPost2010PropOp47
 70
     1
102
RTVSPost2010Prop48
 90
       50
102
RTVSPost2010PropOp48
 70
     1
102
RTVSPost2010Prop49
280
     0
102
RTVSPost2010PropOp49
 70
     1
102
RTVSPost2010Prop50
 90
       50
102
RTVSPost2010PropOp50
 70
     1
102
RTVSPost2010Prop51ColorIndex
 90
      256
102
RTVSPost2010Prop51ColorRGB
 90
-16777216
102
RTVSPost2010PropOp51
 70
     0
102
RTVSPost2010Prop52
140
1.0
102
RTVSPost2010PropOp52
 70
     0
102
RTVSPost2010Prop53
 90
        2
102
RTVSPost2010PropOp53
 70
     1
102
RTVSPost2010Prop54
  1
strokes_ogs.tif
102
RTVSPost2010PropOp54
 70
     1
102
RTVSPost2010Prop55
280
     0
102
RTVSPost2010PropOp55
 70
     1
102
RTVSPost2010Prop56
140
1.0
102
RTVSPost2010PropOp56
 70
     1
102
RTVSPost2010Prop57
140
1.0
102
RTVSPost2010PropOp57
 70
     1
102
RTVSPropertyOp0
 70
     1
102
RTVSPropertyOp1
 70
     1
102
RTVSPropertyOp2
 70
     1
102
RTVSPropertyOp3
 70
     1
102
RTVSPropertyOp4
 70
     1
102
RTVSPropertyOp5
 70
     1
102
RTVSPropertyOp6
 70
     1
102
RTVSPropertyOp7
 70
     1
102
RTVSPropertyOp8
 70
     1
102
RTVSPropertyOp9
 70
     1
102
RTVSPropertyOp10
 70
     1
102
RTVSPropertyOp11
 70
     1
102
RTVSPropertyOp12
 70
     1
102
RTVSPropertyOp13
 70
     1
102
RTVSPropertyOp14
 70
     1
102
RTVSPropertyOp15
 70
     1
102
RTVSPropertyOp16
 70
     1
102
RTVSPropertyOp17
 70
     1
102
RTVSPropertyOp18
 70
     1
102
RTVSPropertyOp19
 70
     1
102
RTVSPropertyOp20
 70
     1
102
RTVSPropertyOp21
 70
     1
102
RTVSPropertyOp22
 70
     1
102
RTVSPropertyOp23
 70
     1
102
RTVSPropertyOp24
 70
     1
102
RTVSPropertyOp25
 70
     1
102
RTVSPropertyOp26
 70
     1
102
RTVSPropertyOp27
 70
     1
102
RTVSPropertyOp28
 70
     1
102
RTVSPropertyOp29
 70
     1
102
RTVSPropertyOp30
 70
     1
102
RTVSPropertyOp31
 70
     1
102
RTVSPropertyOp32
 70
     1
102
RTVSPropertyOp33
 70
     1
102
RTVSPropertyOp34
 70
     1
102
RTVSPropertyOp35
 70
     1
102
RTVSPropertyOp36
 70
     1
102
RTVSPropertyOp37
 70
     1
102
RTVSPropertyOp38
 70
     1
102
RTVSPropertyOp39
 70
     1
102
RTVSPropertyOp40
 70
     1
102
RTVSPropertyOp41
 70
     1
102
RTVSPropertyOp42
 70
     1
102
RTVSPropertyOp43
 70
     1
102
RTVSPropertyOp44
 70
     1
102
RTVSPropertyOp45
 70
     1
102
RTVSPropertyOp46
 70
     1
102
RTVSPropertyOp47
 70
     1
102
RTVSPropertyOp48
 70
     1
102
RTVSPropertyOp49
 70
     1
102
RTVSPropertyOp50
 70
     1
102
RTVSPropertyOp51
 70
     0
102
RTVSPropertyOp52
 70
     0
102
RTVSPropertyOp53
 70
     1
102
RTVSPropertyOp54
 70
     1
102
RTVSPropertyOp55
 70
     1
102
RTVSPropertyOp56
 70
     1
102
RTVSPropertyOp57
 70
     1
102
RTVSPropertyOp58
 70
     1
102
RTVSPropertyOp59
 70
     1
102
RTVSPropertyOp60
 70
     1
102
RTVSPropertyOp61
 70
     1
102
RTVSPropertyOp62
 70
     1
  0
XRECORD
  5
8F6
102
{ACAD_REACTORS
330
8F5
102
}
330
8F5
100
AcDbXrecord
280
     1
102
RTVSPost2010Prop28
280
     0
102
RTVSPost2010PropOp28
 70
     1
102
RTVSPost2010Prop29
280
     1
102
RTVSPost2010PropOp29
 70
     1
102
RTVSPost2010Prop30
280
     1
102
RTVSPost2010PropOp30
 70
     1
102
RTVSPost2010Prop31
280
     0
102
RTVSPost2010PropOp31
 70
     1
102
RTVSPost2010Prop32
280
     0
102
RTVSPost2010PropOp32
 70
     1
102
RTVSPost2010Prop33
280
     0
102
RTVSPost2010PropOp33
 70
     1
102
RTVSPost2010Prop34
280
     0
102
RTVSPost2010PropOp34
 70
     1
102
RTVSPost2010Prop35
280
     0
102
RTVSPost2010PropOp35
 70
     1
102
RTVSPost2010Prop36
280
     0
102
RTVSPost2010PropOp36
 70
     1
102
RTVSPost2010Prop37
 90
       50
102
RTVSPost2010PropOp37
 70
     1
102
RTVSPost2010Prop38
140
0.0
102
RTVSPost2010PropOp38
 70
     1
102
RTVSPost2010Prop39
140
1.0
102
RTVSPost2010PropOp39
 70
     1
102
RTVSPost2010Prop40
 90
        0
102
RTVSPost2010PropOp40
 70
     1
102
RTVSPost2010Prop41ColorIndex
 90
       18
102
RTVSPost2010Prop41ColorRGB
 90
        0
102
RTVSPost2010PropOp41
 70
     1
102
RTVSPost2010Prop42
 90
       50
102
RTVSPost2010PropOp42
 70
     1
102
RTVSPost2010Prop43
 90
        3
102
RTVSPost2010PropOp43
 70
     1
102
RTVSPost2010Prop44ColorIndex
 90
        5
102
RTVSPost2010Prop44ColorRGB
 90
      255
102
RTVSPost2010PropOp44
 70
     1
102
RTVSPost2010Prop45
280
     0
102
RTVSPost2010PropOp45
 70
     1
102
RTVSPost2010Prop46
 90
       50
102
RTVSPost2010PropOp46
 70
     1
102
RTVSPost2010Prop47
 90
       50
102
RTVSPost2010PropOp47
 70
     1
102
RTVSPost2010Prop48
 90
       50
102
RTVSPost2010PropOp48
 70
     1
102
RTVSPost2010Prop49
280
     0
102
RTVSPost2010PropOp49
 70
     1
102
RTVSPost2010Prop50
 90
       50
102
RTVSPost2010PropOp50
 70
     1
102
RTVSPost2010Prop51ColorIndex
 90
      256
102
RTVSPost2010Prop51ColorRGB
 90
-16777216
102
RTVSPost2010PropOp51
 70
     0
102
RTVSPost2010Prop52
140
1.0
102
RTVSPost2010PropOp52
 70
     0
102
RTVSPost2010Prop53
 90
        2
102
RTVSPost2010PropOp53
 70
     1
102
RTVSPost2010Prop54
  1
strokes_ogs.tif
102
RTVSPost2010PropOp54
 70
     1
102
RTVSPost2010Prop55
280
     0
102
RTVSPost2010PropOp55
 70
     1
102
RTVSPost2010Prop56
140
1.0
102
RTVSPost2010PropOp56
 70
     1
102
RTVSPost2010Prop57
140
1.0
102
RTVSPost2010PropOp57
 70
     1
102
RTVSPropertyOp0
 70
     1
102
RTVSPropertyOp1
 70
     1
102
RTVSPropertyOp2
 70
     1
102
RTVSPropertyOp3
 70
     1
102
RTVSPropertyOp4
 70
     1
102
RTVSPropertyOp5
 70
     1
102
RTVSPropertyOp6
 70
     1
102
RTVSPropertyOp7
 70
     1
102
RTVSPropertyOp8
 70
     1
102
RTVSPropertyOp9
 70
     1
102
RTVSPropertyOp10
 70
     1
102
RTVSPropertyOp11
 70
     1
102
RTVSPropertyOp12
 70
     1
102
RTVSPropertyOp13
 70
     1
102
RTVSPropertyOp14
 70
     1
102
RTVSPropertyOp15
 70
     1
102
RTVSPropertyOp16
 70
     1
102
RTVSPropertyOp17
 70
     1
102
RTVSPropertyOp18
 70
     1
102
RTVSPropertyOp19
 70
     1
102
RTVSPropertyOp20
 70
     1
102
RTVSPropertyOp21
 70
     1
102
RTVSPropertyOp22
 70
     1
102
RTVSPropertyOp23
 70
     1
102
RTVSPropertyOp24
 70
     1
102
RTVSPropertyOp25
 70
     1
102
RTVSPropertyOp26
 70
     1
102
RTVSPropertyOp27
 70
     1
102
RTVSPropertyOp28
 70
     1
102
RTVSPropertyOp29
 70
     1
102
RTVSPropertyOp30
 70
     1
102
RTVSPropertyOp31
 70
     1
102
RTVSPropertyOp32
 70
     1
102
RTVSPropertyOp33
 70
     1
102
RTVSPropertyOp34
 70
     1
102
RTVSPropertyOp35
 70
     1
102
RTVSPropertyOp36
 70
     1
102
RTVSPropertyOp37
 70
     1
102
RTVSPropertyOp38
 70
     1
102
RTVSPropertyOp39
 70
     1
102
RTVSPropertyOp40
 70
     1
102
RTVSPropertyOp41
 70
     1
102
RTVSPropertyOp42
 70
     1
102
RTVSPropertyOp43
 70
     1
102
RTVSPropertyOp44
 70
     1
102
RTVSPropertyOp45
 70
     1
102
RTVSPropertyOp46
 70
     1
102
RTVSPropertyOp47
 70
     1
102
RTVSPropertyOp48
 70
     1
102
RTVSPropertyOp49
 70
     1
102
RTVSPropertyOp50
 70
     1
102
RTVSPropertyOp51
 70
     0
102
RTVSPropertyOp52
 70
     0
102
RTVSPropertyOp53
 70
     1
102
RTVSPropertyOp54
 70
     1
102
RTVSPropertyOp55
 70
     1
102
RTVSPropertyOp56
 70
     1
102
RTVSPropertyOp57
 70
     1
102
RTVSPropertyOp58
 70
     1
102
RTVSPropertyOp59
 70
     1
102
RTVSPropertyOp60
 70
     1
102
RTVSPropertyOp61
 70
     1
102
RTVSPropertyOp62
 70
     1
  0
XRECORD
  5
906
102
{ACAD_REACTORS
330
905
102
}
330
905
100
AcDbXrecord
280
     1
102
RTVSPost2010Prop28
280
     0
102
RTVSPost2010PropOp28
 70
     0
102
RTVSPost2010Prop29
280
     1
102
RTVSPost2010PropOp29
 70
     0
102
RTVSPost2010Prop30
280
     1
102
RTVSPost2010PropOp30
 70
     0
102
RTVSPost2010Prop31
280
     0
102
RTVSPost2010PropOp31
 70
     0
102
RTVSPost2010Prop32
280
     0
102
RTVSPost2010PropOp32
 70
     0
102
RTVSPost2010Prop33
280
     0
102
RTVSPost2010PropOp33
 70
     0
102
RTVSPost2010Prop34
280
     0
102
RTVSPost2010PropOp34
 70
     0
102
RTVSPost2010Prop35
280
     0
102
RTVSPost2010PropOp35
 70
     0
102
RTVSPost2010Prop36
280
     0
102
RTVSPost2010PropOp36
 70
     0
102
RTVSPost2010Prop37
 90
       50
102
RTVSPost2010PropOp37
 70
     0
102
RTVSPost2010Prop38
140
0.0
102
RTVSPost2010PropOp38
 70
     0
102
RTVSPost2010Prop39
140
1.0
102
RTVSPost2010PropOp39
 70
     0
102
RTVSPost2010Prop40
 90
        0
102
RTVSPost2010PropOp40
 70
     0
102
RTVSPost2010Prop41ColorIndex
 90
       18
102
RTVSPost2010Prop41ColorRGB
 90
        0
102
RTVSPost2010PropOp41
 70
     0
102
RTVSPost2010Prop42
 90
       50
102
RTVSPost2010PropOp42
 70
     0
102
RTVSPost2010Prop43
 90
        3
102
RTVSPost2010PropOp43
 70
     0
102
RTVSPost2010Prop44ColorIndex
 90
        5
102
RTVSPost2010Prop44ColorRGB
 90
      255
102
RTVSPost2010PropOp44
 70
     0
102
RTVSPost2010Prop45
280
     0
102
RTVSPost2010PropOp45
 70
     0
102
RTVSPost2010Prop46
 90
       50
102
RTVSPost2010PropOp46
 70
     0
102
RTVSPost2010Prop47
 90
       50
102
RTVSPost2010PropOp47
 70
     0
102
RTVSPost2010Prop48
 90
       50
102
RTVSPost2010PropOp48
 70
     0
102
RTVSPost2010Prop49
280
     0
102
RTVSPost2010PropOp49
 70
     0
102
RTVSPost2010Prop50
 90
       50
102
RTVSPost2010PropOp50
 70
     0
102
RTVSPost2010Prop51ColorIndex
 90
      256
102
RTVSPost2010Prop51ColorRGB
 90
-16777216
102
RTVSPost2010PropOp51
 70
     0
102
RTVSPost2010Prop52
140
1.0
102
RTVSPost2010PropOp52
 70
     0
102
RTVSPost2010Prop53
 90
        2
102
RTVSPost2010PropOp53
 70
     0
102
RTVSPost2010Prop54
  1
strokes_ogs.tif
102
RTVSPost2010PropOp54
 70
     0
102
RTVSPost2010Prop55
280
     0
102
RTVSPost2010PropOp55
 70
     0
102
RTVSPost2010Prop56
140
1.0
102
RTVSPost2010PropOp56
 70
     0
102
RTVSPost2010Prop57
140
1.0
102
RTVSPost2010PropOp57
 70
     0
102
RTVSPropertyOp0
 70
     0
102
RTVSPropertyOp1
 70
     0
102
RTVSPropertyOp2
 70
     0
102
RTVSPropertyOp3
 70
     0
102
RTVSPropertyOp4
 70
     0
102
RTVSPropertyOp5
 70
     0
102
RTVSPropertyOp6
 70
     0
102
RTVSPropertyOp7
 70
     0
102
RTVSPropertyOp8
 70
     0
102
RTVSPropertyOp9
 70
     0
102
RTVSPropertyOp10
 70
     0
102
RTVSPropertyOp11
 70
     0
102
RTVSPropertyOp12
 70
     0
102
RTVSPropertyOp13
 70
     0
102
RTVSPropertyOp14
 70
     2
102
RTVSPropertyOp15
 70
     0
102
RTVSPropertyOp16
 70
     0
102
RTVSPropertyOp17
 70
     0
102
RTVSPropertyOp18
 70
     0
102
RTVSPropertyOp19
 70
     0
102
RTVSPropertyOp20
 70
     0
102
RTVSPropertyOp21
 70
     0
102
RTVSPropertyOp22
 70
     0
102
RTVSPropertyOp23
 70
     0
102
RTVSPropertyOp24
 70
     0
102
RTVSPropertyOp25
 70
     0
102
RTVSPropertyOp26
 70
     0
102
RTVSPropertyOp27
 70
     0
102
RTVSPropertyOp28
 70
     0
102
RTVSPropertyOp29
 70
     0
102
RTVSPropertyOp30
 70
     0
102
RTVSPropertyOp31
 70
     0
102
RTVSPropertyOp32
 70
     0
102
RTVSPropertyOp33
 70
     0
102
RTVSPropertyOp34
 70
     0
102
RTVSPropertyOp35
 70
     0
102
RTVSPropertyOp36
 70
     0
102
RTVSPropertyOp37
 70
     0
102
RTVSPropertyOp38
 70
     0
102
RTVSPropertyOp39
 70
     0
102
RTVSPropertyOp40
 70
     0
102
RTVSPropertyOp41
 70
     0
102
RTVSPropertyOp42
 70
     0
102
RTVSPropertyOp43
 70
     0
102
RTVSPropertyOp44
 70
     0
102
RTVSPropertyOp45
 70
     0
102
RTVSPropertyOp46
 70
     0
102
RTVSPropertyOp47
 70
     0
102
RTVSPropertyOp48
 70
     0
102
RTVSPropertyOp49
 70
     0
102
RTVSPropertyOp50
 70
     0
102
RTVSPropertyOp51
 70
     0
102
RTVSPropertyOp52
 70
     0
102
RTVSPropertyOp53
 70
     0
102
RTVSPropertyOp54
 70
     0
102
RTVSPropertyOp55
 70
     0
102
RTVSPropertyOp56
 70
     0
102
RTVSPropertyOp57
 70
     0
102
RTVSPropertyOp58
 70
     1
102
RTVSPropertyOp59
 70
     1
102
RTVSPropertyOp60
 70
     1
102
RTVSPropertyOp61
 70
     1
102
RTVSPropertyOp62
 70
     1
  0
XRECORD
  5
8FE
102
{ACAD_REACTORS
330
8FD
102
}
330
8FD
100
AcDbXrecord
280
     1
102
RTVSPost2010Prop28
280
     0
102
RTVSPost2010PropOp28
 70
     1
102
RTVSPost2010Prop29
280
     1
102
RTVSPost2010PropOp29
 70
     1
102
RTVSPost2010Prop30
280
     1
102
RTVSPost2010PropOp30
 70
     1
102
RTVSPost2010Prop31
280
     0
102
RTVSPost2010PropOp31
 70
     1
102
RTVSPost2010Prop32
280
     0
102
RTVSPost2010PropOp32
 70
     1
102
RTVSPost2010Prop33
280
     0
102
RTVSPost2010PropOp33
 70
     1
102
RTVSPost2010Prop34
280
     0
102
RTVSPost2010PropOp34
 70
     1
102
RTVSPost2010Prop35
280
     0
102
RTVSPost2010PropOp35
 70
     1
102
RTVSPost2010Prop36
280
     0
102
RTVSPost2010PropOp36
 70
     1
102
RTVSPost2010Prop37
 90
       50
102
RTVSPost2010PropOp37
 70
     1
102
RTVSPost2010Prop38
140
0.0
102
RTVSPost2010PropOp38
 70
     1
102
RTVSPost2010Prop39
140
1.0
102
RTVSPost2010PropOp39
 70
     1
102
RTVSPost2010Prop40
 90
        0
102
RTVSPost2010PropOp40
 70
     1
102
RTVSPost2010Prop41ColorIndex
 90
       18
102
RTVSPost2010Prop41ColorRGB
 90
        0
102
RTVSPost2010PropOp41
 70
     1
102
RTVSPost2010Prop42
 90
       50
102
RTVSPost2010PropOp42
 70
     1
102
RTVSPost2010Prop43
 90
        3
102
RTVSPost2010PropOp43
 70
     1
102
RTVSPost2010Prop44ColorIndex
 90
        5
102
RTVSPost2010Prop44ColorRGB
 90
      255
102
RTVSPost2010PropOp44
 70
     1
102
RTVSPost2010Prop45
280
     0
102
RTVSPost2010PropOp45
 70
     1
102
RTVSPost2010Prop46
 90
       50
102
RTVSPost2010PropOp46
 70
     1
102
RTVSPost2010Prop47
 90
       50
102
RTVSPost2010PropOp47
 70
     1
102
RTVSPost2010Prop48
 90
       50
102
RTVSPost2010PropOp48
 70
     1
102
RTVSPost2010Prop49
280
     0
102
RTVSPost2010PropOp49
 70
     1
102
RTVSPost2010Prop50
 90
       50
102
RTVSPost2010PropOp50
 70
     1
102
RTVSPost2010Prop51ColorIndex
 90
      256
102
RTVSPost2010Prop51ColorRGB
 90
-16777216
102
RTVSPost2010PropOp51
 70
     0
102
RTVSPost2010Prop52
140
1.0
102
RTVSPost2010PropOp52
 70
     0
102
RTVSPost2010Prop53
 90
        2
102
RTVSPost2010PropOp53
 70
     1
102
RTVSPost2010Prop54
  1
strokes_ogs.tif
102
RTVSPost2010PropOp54
 70
     1
102
RTVSPost2010Prop55
280
     0
102
RTVSPost2010PropOp55
 70
     1
102
RTVSPost2010Prop56
140
1.0
102
RTVSPost2010PropOp56
 70
     1
102
RTVSPost2010Prop57
140
1.0
102
RTVSPost2010PropOp57
 70
     1
102
RTVSPropertyOp0
 70
     1
102
RTVSPropertyOp1
 70
     1
102
RTVSPropertyOp2
 70
     1
102
RTVSPropertyOp3
 70
     1
102
RTVSPropertyOp4
 70
     1
102
RTVSPropertyOp5
 70
     1
102
RTVSPropertyOp6
 70
     1
102
RTVSPropertyOp7
 70
     1
102
RTVSPropertyOp8
 70
     1
102
RTVSPropertyOp9
 70
     1
102
RTVSPropertyOp10
 70
     1
102
RTVSPropertyOp11
 70
     1
102
RTVSPropertyOp12
 70
     1
102
RTVSPropertyOp13
 70
     1
102
RTVSPropertyOp14
 70
     1
102
RTVSPropertyOp15
 70
     1
102
RTVSPropertyOp16
 70
     1
102
RTVSPropertyOp17
 70
     1
102
RTVSPropertyOp18
 70
     1
102
RTVSPropertyOp19
 70
     1
102
RTVSPropertyOp20
 70
     1
102
RTVSPropertyOp21
 70
     1
102
RTVSPropertyOp22
 70
     1
102
RTVSPropertyOp23
 70
     1
102
RTVSPropertyOp24
 70
     1
102
RTVSPropertyOp25
 70
     1
102
RTVSPropertyOp26
 70
     1
102
RTVSPropertyOp27
 70
     1
102
RTVSPropertyOp28
 70
     1
102
RTVSPropertyOp29
 70
     1
102
RTVSPropertyOp30
 70
     1
102
RTVSPropertyOp31
 70
     1
102
RTVSPropertyOp32
 70
     1
102
RTVSPropertyOp33
 70
     1
102
RTVSPropertyOp34
 70
     1
102
RTVSPropertyOp35
 70
     1
102
RTVSPropertyOp36
 70
     1
102
RTVSPropertyOp37
 70
     1
102
RTVSPropertyOp38
 70
     1
102
RTVSPropertyOp39
 70
     1
102
RTVSPropertyOp40
 70
     1
102
RTVSPropertyOp41
 70
     1
102
RTVSPropertyOp42
 70
     1
102
RTVSPropertyOp43
 70
     1
102
RTVSPropertyOp44
 70
     1
102
RTVSPropertyOp45
 70
     1
102
RTVSPropertyOp46
 70
     1
102
RTVSPropertyOp47
 70
     1
102
RTVSPropertyOp48
 70
     1
102
RTVSPropertyOp49
 70
     1
102
RTVSPropertyOp50
 70
     1
102
RTVSPropertyOp51
 70
     0
102
RTVSPropertyOp52
 70
     0
102
RTVSPropertyOp53
 70
     1
102
RTVSPropertyOp54
 70
     1
102
RTVSPropertyOp55
 70
     1
102
RTVSPropertyOp56
 70
     1
102
RTVSPropertyOp57
 70
     1
102
RTVSPropertyOp58
 70
     1
102
RTVSPropertyOp59
 70
     1
102
RTVSPropertyOp60
 70
     1
102
RTVSPropertyOp61
 70
     1
102
RTVSPropertyOp62
 70
     1
  0
XRECORD
  5
8E2
102
{ACAD_REACTORS
330
8E1
102
}
330
8E1
100
AcDbXrecord
280
     1
102
RTVSPost2010Prop28
280
     0
102
RTVSPost2010PropOp28
 70
     1
102
RTVSPost2010Prop29
280
     1
102
RTVSPost2010PropOp29
 70
     1
102
RTVSPost2010Prop30
280
     1
102
RTVSPost2010PropOp30
 70
     1
102
RTVSPost2010Prop31
280
     0
102
RTVSPost2010PropOp31
 70
     1
102
RTVSPost2010Prop32
280
     0
102
RTVSPost2010PropOp32
 70
     1
102
RTVSPost2010Prop33
280
     0
102
RTVSPost2010PropOp33
 70
     1
102
RTVSPost2010Prop34
280
     0
102
RTVSPost2010PropOp34
 70
     1
102
RTVSPost2010Prop35
280
     0
102
RTVSPost2010PropOp35
 70
     1
102
RTVSPost2010Prop36
280
     0
102
RTVSPost2010PropOp36
 70
     1
102
RTVSPost2010Prop37
 90
       50
102
RTVSPost2010PropOp37
 70
     1
102
RTVSPost2010Prop38
140
0.0
102
RTVSPost2010PropOp38
 70
     1
102
RTVSPost2010Prop39
140
1.0
102
RTVSPost2010PropOp39
 70
     1
102
RTVSPost2010Prop40
 90
        0
102
RTVSPost2010PropOp40
 70
     1
102
RTVSPost2010Prop41ColorIndex
 90
       18
102
RTVSPost2010Prop41ColorRGB
 90
        0
102
RTVSPost2010PropOp41
 70
     1
102
RTVSPost2010Prop42
 90
       50
102
RTVSPost2010PropOp42
 70
     1
102
RTVSPost2010Prop43
 90
        3
102
RTVSPost2010PropOp43
 70
     1
102
RTVSPost2010Prop44ColorIndex
 90
        5
102
RTVSPost2010Prop44ColorRGB
 90
      255
102
RTVSPost2010PropOp44
 70
     1
102
RTVSPost2010Prop45
280
     0
102
RTVSPost2010PropOp45
 70
     1
102
RTVSPost2010Prop46
 90
       50
102
RTVSPost2010PropOp46
 70
     1
102
RTVSPost2010Prop47
 90
       50
102
RTVSPost2010PropOp47
 70
     1
102
RTVSPost2010Prop48
 90
       50
102
RTVSPost2010PropOp48
 70
     1
102
RTVSPost2010Prop49
280
     0
102
RTVSPost2010PropOp49
 70
     1
102
RTVSPost2010Prop50
 90
       50
102
RTVSPost2010PropOp50
 70
     1
102
RTVSPost2010Prop51ColorIndex
 90
      256
102
RTVSPost2010Prop51ColorRGB
 90
-16777216
102
RTVSPost2010PropOp51
 70
     0
102
RTVSPost2010Prop52
140
1.0
102
RTVSPost2010PropOp52
 70
     0
102
RTVSPost2010Prop53
 90
        2
102
RTVSPost2010PropOp53
 70
     1
102
RTVSPost2010Prop54
  1
strokes_ogs.tif
102
RTVSPost2010PropOp54
 70
     1
102
RTVSPost2010Prop55
280
     0
102
RTVSPost2010PropOp55
 70
     1
102
RTVSPost2010Prop56
140
1.0
102
RTVSPost2010PropOp56
 70
     1
102
RTVSPost2010Prop57
140
1.0
102
RTVSPost2010PropOp57
 70
     1
102
RTVSPropertyOp0
 70
     1
102
RTVSPropertyOp1
 70
     1
102
RTVSPropertyOp2
 70
     1
102
RTVSPropertyOp3
 70
     1
102
RTVSPropertyOp4
 70
     1
102
RTVSPropertyOp5
 70
     1
102
RTVSPropertyOp6
 70
     1
102
RTVSPropertyOp7
 70
     1
102
RTVSPropertyOp8
 70
     1
102
RTVSPropertyOp9
 70
     1
102
RTVSPropertyOp10
 70
     1
102
RTVSPropertyOp11
 70
     1
102
RTVSPropertyOp12
 70
     1
102
RTVSPropertyOp13
 70
     1
102
RTVSPropertyOp14
 70
     1
102
RTVSPropertyOp15
 70
     1
102
RTVSPropertyOp16
 70
     1
102
RTVSPropertyOp17
 70
     1
102
RTVSPropertyOp18
 70
     1
102
RTVSPropertyOp19
 70
     1
102
RTVSPropertyOp20
 70
     1
102
RTVSPropertyOp21
 70
     1
102
RTVSPropertyOp22
 70
     1
102
RTVSPropertyOp23
 70
     1
102
RTVSPropertyOp24
 70
     1
102
RTVSPropertyOp25
 70
     1
102
RTVSPropertyOp26
 70
     1
102
RTVSPropertyOp27
 70
     1
102
RTVSPropertyOp28
 70
     1
102
RTVSPropertyOp29
 70
     1
102
RTVSPropertyOp30
 70
     1
102
RTVSPropertyOp31
 70
     1
102
RTVSPropertyOp32
 70
     1
102
RTVSPropertyOp33
 70
     1
102
RTVSPropertyOp34
 70
     1
102
RTVSPropertyOp35
 70
     1
102
RTVSPropertyOp36
 70
     1
102
RTVSPropertyOp37
 70
     1
102
RTVSPropertyOp38
 70
     1
102
RTVSPropertyOp39
 70
     1
102
RTVSPropertyOp40
 70
     1
102
RTVSPropertyOp41
 70
     1
102
RTVSPropertyOp42
 70
     1
102
RTVSPropertyOp43
 70
     1
102
RTVSPropertyOp44
 70
     1
102
RTVSPropertyOp45
 70
     1
102
RTVSPropertyOp46
 70
     1
102
RTVSPropertyOp47
 70
     1
102
RTVSPropertyOp48
 70
     1
102
RTVSPropertyOp49
 70
     1
102
RTVSPropertyOp50
 70
     1
102
RTVSPropertyOp51
 70
     0
102
RTVSPropertyOp52
 70
     0
102
RTVSPropertyOp53
 70
     1
102
RTVSPropertyOp54
 70
     1
102
RTVSPropertyOp55
 70
     1
102
RTVSPropertyOp56
 70
     1
102
RTVSPropertyOp57
 70
     1
102
RTVSPropertyOp58
 70
     1
102
RTVSPropertyOp59
 70
     1
102
RTVSPropertyOp60
 70
     1
102
RTVSPropertyOp61
 70
     1
102
RTVSPropertyOp62
 70
     1
  0
XRECORD
  5
8E4
102
{ACAD_REACTORS
330
8E3
102
}
330
8E3
100
AcDbXrecord
280
     1
102
RTVSPost2010Prop28
280
     0
102
RTVSPost2010PropOp28
 70
     1
102
RTVSPost2010Prop29
280
     1
102
RTVSPost2010PropOp29
 70
     1
102
RTVSPost2010Prop30
280
     1
102
RTVSPost2010PropOp30
 70
     1
102
RTVSPost2010Prop31
280
     0
102
RTVSPost2010PropOp31
 70
     1
102
RTVSPost2010Prop32
280
     0
102
RTVSPost2010PropOp32
 70
     1
102
RTVSPost2010Prop33
280
     0
102
RTVSPost2010PropOp33
 70
     1
102
RTVSPost2010Prop34
280
     0
102
RTVSPost2010PropOp34
 70
     1
102
RTVSPost2010Prop35
280
     0
102
RTVSPost2010PropOp35
 70
     1
102
RTVSPost2010Prop36
280
     0
102
RTVSPost2010PropOp36
 70
     1
102
RTVSPost2010Prop37
 90
       50
102
RTVSPost2010PropOp37
 70
     1
102
RTVSPost2010Prop38
140
0.0
102
RTVSPost2010PropOp38
 70
     1
102
RTVSPost2010Prop39
140
1.0
102
RTVSPost2010PropOp39
 70
     1
102
RTVSPost2010Prop40
 90
        0
102
RTVSPost2010PropOp40
 70
     1
102
RTVSPost2010Prop41ColorIndex
 90
       18
102
RTVSPost2010Prop41ColorRGB
 90
        0
102
RTVSPost2010PropOp41
 70
     1
102
RTVSPost2010Prop42
 90
       50
102
RTVSPost2010PropOp42
 70
     1
102
RTVSPost2010Prop43
 90
        3
102
RTVSPost2010PropOp43
 70
     1
102
RTVSPost2010Prop44ColorIndex
 90
        5
102
RTVSPost2010Prop44ColorRGB
 90
      255
102
RTVSPost2010PropOp44
 70
     1
102
RTVSPost2010Prop45
280
     0
102
RTVSPost2010PropOp45
 70
     1
102
RTVSPost2010Prop46
 90
       50
102
RTVSPost2010PropOp46
 70
     1
102
RTVSPost2010Prop47
 90
       50
102
RTVSPost2010PropOp47
 70
     1
102
RTVSPost2010Prop48
 90
       50
102
RTVSPost2010PropOp48
 70
     1
102
RTVSPost2010Prop49
280
     0
102
RTVSPost2010PropOp49
 70
     1
102
RTVSPost2010Prop50
 90
       50
102
RTVSPost2010PropOp50
 70
     1
102
RTVSPost2010Prop51ColorIndex
 90
      256
102
RTVSPost2010Prop51ColorRGB
 90
-16777216
102
RTVSPost2010PropOp51
 70
     0
102
RTVSPost2010Prop52
140
1.0
102
RTVSPost2010PropOp52
 70
     0
102
RTVSPost2010Prop53
 90
        2
102
RTVSPost2010PropOp53
 70
     1
102
RTVSPost2010Prop54
  1
strokes_ogs.tif
102
RTVSPost2010PropOp54
 70
     1
102
RTVSPost2010Prop55
280
     0
102
RTVSPost2010PropOp55
 70
     1
102
RTVSPost2010Prop56
140
1.0
102
RTVSPost2010PropOp56
 70
     1
102
RTVSPost2010Prop57
140
1.0
102
RTVSPost2010PropOp57
 70
     1
102
RTVSPropertyOp0
 70
     1
102
RTVSPropertyOp1
 70
     1
102
RTVSPropertyOp2
 70
     1
102
RTVSPropertyOp3
 70
     1
102
RTVSPropertyOp4
 70
     1
102
RTVSPropertyOp5
 70
     1
102
RTVSPropertyOp6
 70
     1
102
RTVSPropertyOp7
 70
     1
102
RTVSPropertyOp8
 70
     1
102
RTVSPropertyOp9
 70
     1
102
RTVSPropertyOp10
 70
     1
102
RTVSPropertyOp11
 70
     1
102
RTVSPropertyOp12
 70
     1
102
RTVSPropertyOp13
 70
     1
102
RTVSPropertyOp14
 70
     1
102
RTVSPropertyOp15
 70
     1
102
RTVSPropertyOp16
 70
     1
102
RTVSPropertyOp17
 70
     1
102
RTVSPropertyOp18
 70
     1
102
RTVSPropertyOp19
 70
     1
102
RTVSPropertyOp20
 70
     1
102
RTVSPropertyOp21
 70
     1
102
RTVSPropertyOp22
 70
     1
102
RTVSPropertyOp23
 70
     1
102
RTVSPropertyOp24
 70
     1
102
RTVSPropertyOp25
 70
     1
102
RTVSPropertyOp26
 70
     1
102
RTVSPropertyOp27
 70
     1
102
RTVSPropertyOp28
 70
     1
102
RTVSPropertyOp29
 70
     1
102
RTVSPropertyOp30
 70
     1
102
RTVSPropertyOp31
 70
     1
102
RTVSPropertyOp32
 70
     1
102
RTVSPropertyOp33
 70
     1
102
RTVSPropertyOp34
 70
     1
102
RTVSPropertyOp35
 70
     1
102
RTVSPropertyOp36
 70
     1
102
RTVSPropertyOp37
 70
     1
102
RTVSPropertyOp38
 70
     1
102
RTVSPropertyOp39
 70
     1
102
RTVSPropertyOp40
 70
     1
102
RTVSPropertyOp41
 70
     1
102
RTVSPropertyOp42
 70
     1
102
RTVSPropertyOp43
 70
     1
102
RTVSPropertyOp44
 70
     1
102
RTVSPropertyOp45
 70
     1
102
RTVSPropertyOp46
 70
     1
102
RTVSPropertyOp47
 70
     1
102
RTVSPropertyOp48
 70
     1
102
RTVSPropertyOp49
 70
     1
102
RTVSPropertyOp50
 70
     1
102
RTVSPropertyOp51
 70
     0
102
RTVSPropertyOp52
 70
     0
102
RTVSPropertyOp53
 70
     1
102
RTVSPropertyOp54
 70
     1
102
RTVSPropertyOp55
 70
     1
102
RTVSPropertyOp56
 70
     1
102
RTVSPropertyOp57
 70
     1
102
RTVSPropertyOp58
 70
     1
102
RTVSPropertyOp59
 70
     1
102
RTVSPropertyOp60
 70
     1
102
RTVSPropertyOp61
 70
     1
102
RTVSPropertyOp62
 70
     1
  0
XRECORD
  5
8E6
102
{ACAD_REACTORS
330
8E5
102
}
330
8E5
100
AcDbXrecord
280
     1
102
RTVSPost2010Prop28
280
     0
102
RTVSPost2010PropOp28
 70
     1
102
RTVSPost2010Prop29
280
     1
102
RTVSPost2010PropOp29
 70
     1
102
RTVSPost2010Prop30
280
     1
102
RTVSPost2010PropOp30
 70
     1
102
RTVSPost2010Prop31
280
     0
102
RTVSPost2010PropOp31
 70
     1
102
RTVSPost2010Prop32
280
     0
102
RTVSPost2010PropOp32
 70
     1
102
RTVSPost2010Prop33
280
     0
102
RTVSPost2010PropOp33
 70
     1
102
RTVSPost2010Prop34
280
     0
102
RTVSPost2010PropOp34
 70
     1
102
RTVSPost2010Prop35
280
     0
102
RTVSPost2010PropOp35
 70
     1
102
RTVSPost2010Prop36
280
     0
102
RTVSPost2010PropOp36
 70
     1
102
RTVSPost2010Prop37
 90
       50
102
RTVSPost2010PropOp37
 70
     1
102
RTVSPost2010Prop38
140
0.0
102
RTVSPost2010PropOp38
 70
     1
102
RTVSPost2010Prop39
140
1.0
102
RTVSPost2010PropOp39
 70
     1
102
RTVSPost2010Prop40
 90
        0
102
RTVSPost2010PropOp40
 70
     1
102
RTVSPost2010Prop41ColorIndex
 90
       18
102
RTVSPost2010Prop41ColorRGB
 90
        0
102
RTVSPost2010PropOp41
 70
     1
102
RTVSPost2010Prop42
 90
       50
102
RTVSPost2010PropOp42
 70
     1
102
RTVSPost2010Prop43
 90
        3
102
RTVSPost2010PropOp43
 70
     1
102
RTVSPost2010Prop44ColorIndex
 90
        5
102
RTVSPost2010Prop44ColorRGB
 90
      255
102
RTVSPost2010PropOp44
 70
     1
102
RTVSPost2010Prop45
280
     0
102
RTVSPost2010PropOp45
 70
     1
102
RTVSPost2010Prop46
 90
       50
102
RTVSPost2010PropOp46
 70
     1
102
RTVSPost2010Prop47
 90
       50
102
RTVSPost2010PropOp47
 70
     1
102
RTVSPost2010Prop48
 90
       50
102
RTVSPost2010PropOp48
 70
     1
102
RTVSPost2010Prop49
280
     0
102
RTVSPost2010PropOp49
 70
     1
102
RTVSPost2010Prop50
 90
       50
102
RTVSPost2010PropOp50
 70
     1
102
RTVSPost2010Prop51ColorIndex
 90
      256
102
RTVSPost2010Prop51ColorRGB
 90
-16777216
102
RTVSPost2010PropOp51
 70
     0
102
RTVSPost2010Prop52
140
1.0
102
RTVSPost2010PropOp52
 70
     0
102
RTVSPost2010Prop53
 90
        2
102
RTVSPost2010PropOp53
 70
     1
102
RTVSPost2010Prop54
  1
strokes_ogs.tif
102
RTVSPost2010PropOp54
 70
     1
102
RTVSPost2010Prop55
280
     0
102
RTVSPost2010PropOp55
 70
     1
102
RTVSPost2010Prop56
140
1.0
102
RTVSPost2010PropOp56
 70
     1
102
RTVSPost2010Prop57
140
1.0
102
RTVSPost2010PropOp57
 70
     1
102
RTVSPropertyOp0
 70
     1
102
RTVSPropertyOp1
 70
     1
102
RTVSPropertyOp2
 70
     1
102
RTVSPropertyOp3
 70
     1
102
RTVSPropertyOp4
 70
     1
102
RTVSPropertyOp5
 70
     1
102
RTVSPropertyOp6
 70
     1
102
RTVSPropertyOp7
 70
     1
102
RTVSPropertyOp8
 70
     1
102
RTVSPropertyOp9
 70
     1
102
RTVSPropertyOp10
 70
     1
102
RTVSPropertyOp11
 70
     1
102
RTVSPropertyOp12
 70
     1
102
RTVSPropertyOp13
 70
     1
102
RTVSPropertyOp14
 70
     1
102
RTVSPropertyOp15
 70
     1
102
RTVSPropertyOp16
 70
     1
102
RTVSPropertyOp17
 70
     1
102
RTVSPropertyOp18
 70
     1
102
RTVSPropertyOp19
 70
     1
102
RTVSPropertyOp20
 70
     1
102
RTVSPropertyOp21
 70
     1
102
RTVSPropertyOp22
 70
     1
102
RTVSPropertyOp23
 70
     1
102
RTVSPropertyOp24
 70
     1
102
RTVSPropertyOp25
 70
     1
102
RTVSPropertyOp26
 70
     1
102
RTVSPropertyOp27
 70
     1
102
RTVSPropertyOp28
 70
     1
102
RTVSPropertyOp29
 70
     1
102
RTVSPropertyOp30
 70
     1
102
RTVSPropertyOp31
 70
     1
102
RTVSPropertyOp32
 70
     1
102
RTVSPropertyOp33
 70
     1
102
RTVSPropertyOp34
 70
     1
102
RTVSPropertyOp35
 70
     1
102
RTVSPropertyOp36
 70
     1
102
RTVSPropertyOp37
 70
     1
102
RTVSPropertyOp38
 70
     1
102
RTVSPropertyOp39
 70
     1
102
RTVSPropertyOp40
 70
     1
102
RTVSPropertyOp41
 70
     1
102
RTVSPropertyOp42
 70
     1
102
RTVSPropertyOp43
 70
     1
102
RTVSPropertyOp44
 70
     1
102
RTVSPropertyOp45
 70
     1
102
RTVSPropertyOp46
 70
     1
102
RTVSPropertyOp47
 70
     1
102
RTVSPropertyOp48
 70
     1
102
RTVSPropertyOp49
 70
     1
102
RTVSPropertyOp50
 70
     1
102
RTVSPropertyOp51
 70
     0
102
RTVSPropertyOp52
 70
     0
102
RTVSPropertyOp53
 70
     1
102
RTVSPropertyOp54
 70
     1
102
RTVSPropertyOp55
 70
     1
102
RTVSPropertyOp56
 70
     1
102
RTVSPropertyOp57
 70
     1
102
RTVSPropertyOp58
 70
     1
102
RTVSPropertyOp59
 70
     1
102
RTVSPropertyOp60
 70
     1
102
RTVSPropertyOp61
 70
     1
102
RTVSPropertyOp62
 70
     1
  0
XRECORD
  5
8E8
102
{ACAD_REACTORS
330
8E7
102
}
330
8E7
100
AcDbXrecord
280
     1
102
RTVSPost2010Prop28
280
     0
102
RTVSPost2010PropOp28
 70
     1
102
RTVSPost2010Prop29
280
     1
102
RTVSPost2010PropOp29
 70
     1
102
RTVSPost2010Prop30
280
     1
102
RTVSPost2010PropOp30
 70
     1
102
RTVSPost2010Prop31
280
     0
102
RTVSPost2010PropOp31
 70
     1
102
RTVSPost2010Prop32
280
     0
102
RTVSPost2010PropOp32
 70
     1
102
RTVSPost2010Prop33
280
     0
102
RTVSPost2010PropOp33
 70
     1
102
RTVSPost2010Prop34
280
     0
102
RTVSPost2010PropOp34
 70
     1
102
RTVSPost2010Prop35
280
     0
102
RTVSPost2010PropOp35
 70
     1
102
RTVSPost2010Prop36
280
     0
102
RTVSPost2010PropOp36
 70
     1
102
RTVSPost2010Prop37
 90
       50
102
RTVSPost2010PropOp37
 70
     1
102
RTVSPost2010Prop38
140
0.0
102
RTVSPost2010PropOp38
 70
     1
102
RTVSPost2010Prop39
140
1.0
102
RTVSPost2010PropOp39
 70
     1
102
RTVSPost2010Prop40
 90
        0
102
RTVSPost2010PropOp40
 70
     1
102
RTVSPost2010Prop41ColorIndex
 90
       18
102
RTVSPost2010Prop41ColorRGB
 90
        0
102
RTVSPost2010PropOp41
 70
     1
102
RTVSPost2010Prop42
 90
       50
102
RTVSPost2010PropOp42
 70
     1
102
RTVSPost2010Prop43
 90
        3
102
RTVSPost2010PropOp43
 70
     1
102
RTVSPost2010Prop44ColorIndex
 90
        5
102
RTVSPost2010Prop44ColorRGB
 90
      255
102
RTVSPost2010PropOp44
 70
     1
102
RTVSPost2010Prop45
280
     0
102
RTVSPost2010PropOp45
 70
     1
102
RTVSPost2010Prop46
 90
       50
102
RTVSPost2010PropOp46
 70
     1
102
RTVSPost2010Prop47
 90
       50
102
RTVSPost2010PropOp47
 70
     1
102
RTVSPost2010Prop48
 90
       50
102
RTVSPost2010PropOp48
 70
     1
102
RTVSPost2010Prop49
280
     0
102
RTVSPost2010PropOp49
 70
     1
102
RTVSPost2010Prop50
 90
       50
102
RTVSPost2010PropOp50
 70
     1
102
RTVSPost2010Prop51ColorIndex
 90
      256
102
RTVSPost2010Prop51ColorRGB
 90
-16777216
102
RTVSPost2010PropOp51
 70
     0
102
RTVSPost2010Prop52
140
1.0
102
RTVSPost2010PropOp52
 70
     0
102
RTVSPost2010Prop53
 90
        2
102
RTVSPost2010PropOp53
 70
     1
102
RTVSPost2010Prop54
  1
strokes_ogs.tif
102
RTVSPost2010PropOp54
 70
     1
102
RTVSPost2010Prop55
280
     0
102
RTVSPost2010PropOp55
 70
     1
102
RTVSPost2010Prop56
140
1.0
102
RTVSPost2010PropOp56
 70
     1
102
RTVSPost2010Prop57
140
1.0
102
RTVSPost2010PropOp57
 70
     1
102
RTVSPropertyOp0
 70
     1
102
RTVSPropertyOp1
 70
     1
102
RTVSPropertyOp2
 70
     1
102
RTVSPropertyOp3
 70
     1
102
RTVSPropertyOp4
 70
     1
102
RTVSPropertyOp5
 70
     1
102
RTVSPropertyOp6
 70
     1
102
RTVSPropertyOp7
 70
     1
102
RTVSPropertyOp8
 70
     1
102
RTVSPropertyOp9
 70
     1
102
RTVSPropertyOp10
 70
     1
102
RTVSPropertyOp11
 70
     1
102
RTVSPropertyOp12
 70
     1
102
RTVSPropertyOp13
 70
     1
102
RTVSPropertyOp14
 70
     1
102
RTVSPropertyOp15
 70
     1
102
RTVSPropertyOp16
 70
     1
102
RTVSPropertyOp17
 70
     1
102
RTVSPropertyOp18
 70
     1
102
RTVSPropertyOp19
 70
     1
102
RTVSPropertyOp20
 70
     1
102
RTVSPropertyOp21
 70
     1
102
RTVSPropertyOp22
 70
     1
102
RTVSPropertyOp23
 70
     1
102
RTVSPropertyOp24
 70
     1
102
RTVSPropertyOp25
 70
     1
102
RTVSPropertyOp26
 70
     1
102
RTVSPropertyOp27
 70
     1
102
RTVSPropertyOp28
 70
     1
102
RTVSPropertyOp29
 70
     1
102
RTVSPropertyOp30
 70
     1
102
RTVSPropertyOp31
 70
     1
102
RTVSPropertyOp32
 70
     1
102
RTVSPropertyOp33
 70
     1
102
RTVSPropertyOp34
 70
     1
102
RTVSPropertyOp35
 70
     1
102
RTVSPropertyOp36
 70
     1
102
RTVSPropertyOp37
 70
     1
102
RTVSPropertyOp38
 70
     1
102
RTVSPropertyOp39
 70
     1
102
RTVSPropertyOp40
 70
     1
102
RTVSPropertyOp41
 70
     1
102
RTVSPropertyOp42
 70
     1
102
RTVSPropertyOp43
 70
     1
102
RTVSPropertyOp44
 70
     1
102
RTVSPropertyOp45
 70
     1
102
RTVSPropertyOp46
 70
     1
102
RTVSPropertyOp47
 70
     1
102
RTVSPropertyOp48
 70
     1
102
RTVSPropertyOp49
 70
     1
102
RTVSPropertyOp50
 70
     1
102
RTVSPropertyOp51
 70
     0
102
RTVSPropertyOp52
 70
     0
102
RTVSPropertyOp53
 70
     1
102
RTVSPropertyOp54
 70
     1
102
RTVSPropertyOp55
 70
     1
102
RTVSPropertyOp56
 70
     1
102
RTVSPropertyOp57
 70
     1
102
RTVSPropertyOp58
 70
     1
102
RTVSPropertyOp59
 70
     1
102
RTVSPropertyOp60
 70
     1
102
RTVSPropertyOp61
 70
     1
102
RTVSPropertyOp62
 70
     1
  0
XRECORD
  5
8EE
102
{ACAD_REACTORS
330
8ED
102
}
330
8ED
100
AcDbXrecord
280
     1
102
RTVSPost2010Prop28
280
     0
102
RTVSPost2010PropOp28
 70
     1
102
RTVSPost2010Prop29
280
     1
102
RTVSPost2010PropOp29
 70
     1
102
RTVSPost2010Prop30
280
     1
102
RTVSPost2010PropOp30
 70
     1
102
RTVSPost2010Prop31
280
     0
102
RTVSPost2010PropOp31
 70
     1
102
RTVSPost2010Prop32
280
     0
102
RTVSPost2010PropOp32
 70
     1
102
RTVSPost2010Prop33
280
     0
102
RTVSPost2010PropOp33
 70
     1
102
RTVSPost2010Prop34
280
     0
102
RTVSPost2010PropOp34
 70
     1
102
RTVSPost2010Prop35
280
     0
102
RTVSPost2010PropOp35
 70
     1
102
RTVSPost2010Prop36
280
     0
102
RTVSPost2010PropOp36
 70
     1
102
RTVSPost2010Prop37
 90
       50
102
RTVSPost2010PropOp37
 70
     1
102
RTVSPost2010Prop38
140
0.0
102
RTVSPost2010PropOp38
 70
     1
102
RTVSPost2010Prop39
140
1.0
102
RTVSPost2010PropOp39
 70
     1
102
RTVSPost2010Prop40
 90
        0
102
RTVSPost2010PropOp40
 70
     1
102
RTVSPost2010Prop41ColorIndex
 90
       18
102
RTVSPost2010Prop41ColorRGB
 90
        0
102
RTVSPost2010PropOp41
 70
     1
102
RTVSPost2010Prop42
 90
       50
102
RTVSPost2010PropOp42
 70
     1
102
RTVSPost2010Prop43
 90
        3
102
RTVSPost2010PropOp43
 70
     1
102
RTVSPost2010Prop44ColorIndex
 90
        5
102
RTVSPost2010Prop44ColorRGB
 90
      255
102
RTVSPost2010PropOp44
 70
     1
102
RTVSPost2010Prop45
280
     0
102
RTVSPost2010PropOp45
 70
     1
102
RTVSPost2010Prop46
 90
       50
102
RTVSPost2010PropOp46
 70
     1
102
RTVSPost2010Prop47
 90
       50
102
RTVSPost2010PropOp47
 70
     1
102
RTVSPost2010Prop48
 90
       50
102
RTVSPost2010PropOp48
 70
     1
102
RTVSPost2010Prop49
280
     0
102
RTVSPost2010PropOp49
 70
     1
102
RTVSPost2010Prop50
 90
       50
102
RTVSPost2010PropOp50
 70
     1
102
RTVSPost2010Prop51ColorIndex
 90
      256
102
RTVSPost2010Prop51ColorRGB
 90
-16777216
102
RTVSPost2010PropOp51
 70
     0
102
RTVSPost2010Prop52
140
1.0
102
RTVSPost2010PropOp52
 70
     0
102
RTVSPost2010Prop53
 90
        2
102
RTVSPost2010PropOp53
 70
     1
102
RTVSPost2010Prop54
  1
strokes_ogs.tif
102
RTVSPost2010PropOp54
 70
     1
102
RTVSPost2010Prop55
280
     0
102
RTVSPost2010PropOp55
 70
     1
102
RTVSPost2010Prop56
140
1.0
102
RTVSPost2010PropOp56
 70
     1
102
RTVSPost2010Prop57
140
1.0
102
RTVSPost2010PropOp57
 70
     1
102
RTVSPropertyOp0
 70
     1
102
RTVSPropertyOp1
 70
     1
102
RTVSPropertyOp2
 70
     1
102
RTVSPropertyOp3
 70
     1
102
RTVSPropertyOp4
 70
     1
102
RTVSPropertyOp5
 70
     1
102
RTVSPropertyOp6
 70
     1
102
RTVSPropertyOp7
 70
     1
102
RTVSPropertyOp8
 70
     1
102
RTVSPropertyOp9
 70
     1
102
RTVSPropertyOp10
 70
     1
102
RTVSPropertyOp11
 70
     1
102
RTVSPropertyOp12
 70
     1
102
RTVSPropertyOp13
 70
     1
102
RTVSPropertyOp14
 70
     1
102
RTVSPropertyOp15
 70
     1
102
RTVSPropertyOp16
 70
     1
102
RTVSPropertyOp17
 70
     1
102
RTVSPropertyOp18
 70
     1
102
RTVSPropertyOp19
 70
     1
102
RTVSPropertyOp20
 70
     1
102
RTVSPropertyOp21
 70
     1
102
RTVSPropertyOp22
 70
     1
102
RTVSPropertyOp23
 70
     1
102
RTVSPropertyOp24
 70
     1
102
RTVSPropertyOp25
 70
     1
102
RTVSPropertyOp26
 70
     1
102
RTVSPropertyOp27
 70
     1
102
RTVSPropertyOp28
 70
     1
102
RTVSPropertyOp29
 70
     1
102
RTVSPropertyOp30
 70
     1
102
RTVSPropertyOp31
 70
     1
102
RTVSPropertyOp32
 70
     1
102
RTVSPropertyOp33
 70
     1
102
RTVSPropertyOp34
 70
     1
102
RTVSPropertyOp35
 70
     1
102
RTVSPropertyOp36
 70
     1
102
RTVSPropertyOp37
 70
     1
102
RTVSPropertyOp38
 70
     1
102
RTVSPropertyOp39
 70
     1
102
RTVSPropertyOp40
 70
     1
102
RTVSPropertyOp41
 70
     1
102
RTVSPropertyOp42
 70
     1
102
RTVSPropertyOp43
 70
     1
102
RTVSPropertyOp44
 70
     1
102
RTVSPropertyOp45
 70
     1
102
RTVSPropertyOp46
 70
     1
102
RTVSPropertyOp47
 70
     1
102
RTVSPropertyOp48
 70
     1
102
RTVSPropertyOp49
 70
     1
102
RTVSPropertyOp50
 70
     1
102
RTVSPropertyOp51
 70
     0
102
RTVSPropertyOp52
 70
     0
102
RTVSPropertyOp53
 70
     1
102
RTVSPropertyOp54
 70
     1
102
RTVSPropertyOp55
 70
     1
102
RTVSPropertyOp56
 70
     1
102
RTVSPropertyOp57
 70
     1
102
RTVSPropertyOp58
 70
     1
102
RTVSPropertyOp59
 70
     1
102
RTVSPropertyOp60
 70
     1
102
RTVSPropertyOp61
 70
     1
102
RTVSPropertyOp62
 70
     1
  0
XRECORD
  5
902
102
{ACAD_REACTORS
330
901
102
}
330
901
100
AcDbXrecord
280
     1
102
RTVSPost2010Prop28
280
     0
102
RTVSPost2010PropOp28
 70
     0
102
RTVSPost2010Prop29
280
     1
102
RTVSPost2010PropOp29
 70
     0
102
RTVSPost2010Prop30
280
     1
102
RTVSPost2010PropOp30
 70
     0
102
RTVSPost2010Prop31
280
     0
102
RTVSPost2010PropOp31
 70
     0
102
RTVSPost2010Prop32
280
     0
102
RTVSPost2010PropOp32
 70
     0
102
RTVSPost2010Prop33
280
     0
102
RTVSPost2010PropOp33
 70
     0
102
RTVSPost2010Prop34
280
     0
102
RTVSPost2010PropOp34
 70
     0
102
RTVSPost2010Prop35
280
     0
102
RTVSPost2010PropOp35
 70
     0
102
RTVSPost2010Prop36
280
     0
102
RTVSPost2010PropOp36
 70
     0
102
RTVSPost2010Prop37
 90
       50
102
RTVSPost2010PropOp37
 70
     0
102
RTVSPost2010Prop38
140
0.0
102
RTVSPost2010PropOp38
 70
     0
102
RTVSPost2010Prop39
140
1.0
102
RTVSPost2010PropOp39
 70
     0
102
RTVSPost2010Prop40
 90
        0
102
RTVSPost2010PropOp40
 70
     0
102
RTVSPost2010Prop41ColorIndex
 90
       18
102
RTVSPost2010Prop41ColorRGB
 90
        0
102
RTVSPost2010PropOp41
 70
     0
102
RTVSPost2010Prop42
 90
       50
102
RTVSPost2010PropOp42
 70
     0
102
RTVSPost2010Prop43
 90
        3
102
RTVSPost2010PropOp43
 70
     0
102
RTVSPost2010Prop44ColorIndex
 90
        5
102
RTVSPost2010Prop44ColorRGB
 90
      255
102
RTVSPost2010PropOp44
 70
     0
102
RTVSPost2010Prop45
280
     0
102
RTVSPost2010PropOp45
 70
     0
102
RTVSPost2010Prop46
 90
       50
102
RTVSPost2010PropOp46
 70
     0
102
RTVSPost2010Prop47
 90
       50
102
RTVSPost2010PropOp47
 70
     0
102
RTVSPost2010Prop48
 90
       50
102
RTVSPost2010PropOp48
 70
     0
102
RTVSPost2010Prop49
280
     0
102
RTVSPost2010PropOp49
 70
     0
102
RTVSPost2010Prop50
 90
       50
102
RTVSPost2010PropOp50
 70
     0
102
RTVSPost2010Prop51ColorIndex
 90
      256
102
RTVSPost2010Prop51ColorRGB
 90
-16777216
102
RTVSPost2010PropOp51
 70
     0
102
RTVSPost2010Prop52
140
1.0
102
RTVSPost2010PropOp52
 70
     0
102
RTVSPost2010Prop53
 90
        2
102
RTVSPost2010PropOp53
 70
     0
102
RTVSPost2010Prop54
  1
strokes_ogs.tif
102
RTVSPost2010PropOp54
 70
     0
102
RTVSPost2010Prop55
280
     0
102
RTVSPost2010PropOp55
 70
     0
102
RTVSPost2010Prop56
140
1.0
102
RTVSPost2010PropOp56
 70
     0
102
RTVSPost2010Prop57
140
1.0
102
RTVSPost2010PropOp57
 70
     0
102
RTVSPropertyOp0
 70
     0
102
RTVSPropertyOp1
 70
     0
102
RTVSPropertyOp2
 70
     0
102
RTVSPropertyOp3
 70
     0
102
RTVSPropertyOp4
 70
     0
102
RTVSPropertyOp5
 70
     0
102
RTVSPropertyOp6
 70
     0
102
RTVSPropertyOp7
 70
     0
102
RTVSPropertyOp8
 70
     0
102
RTVSPropertyOp9
 70
     0
102
RTVSPropertyOp10
 70
     0
102
RTVSPropertyOp11
 70
     0
102
RTVSPropertyOp12
 70
     0
102
RTVSPropertyOp13
 70
     0
102
RTVSPropertyOp14
 70
     2
102
RTVSPropertyOp15
 70
     0
102
RTVSPropertyOp16
 70
     0
102
RTVSPropertyOp17
 70
     0
102
RTVSPropertyOp18
 70
     0
102
RTVSPropertyOp19
 70
     0
102
RTVSPropertyOp20
 70
     0
102
RTVSPropertyOp21
 70
     0
102
RTVSPropertyOp22
 70
     0
102
RTVSPropertyOp23
 70
     0
102
RTVSPropertyOp24
 70
     0
102
RTVSPropertyOp25
 70
     0
102
RTVSPropertyOp26
 70
     0
102
RTVSPropertyOp27
 70
     0
102
RTVSPropertyOp28
 70
     0
102
RTVSPropertyOp29
 70
     0
102
RTVSPropertyOp30
 70
     0
102
RTVSPropertyOp31
 70
     0
102
RTVSPropertyOp32
 70
     0
102
RTVSPropertyOp33
 70
     0
102
RTVSPropertyOp34
 70
     0
102
RTVSPropertyOp35
 70
     0
102
RTVSPropertyOp36
 70
     0
102
RTVSPropertyOp37
 70
     0
102
RTVSPropertyOp38
 70
     0
102
RTVSPropertyOp39
 70
     0
102
RTVSPropertyOp40
 70
     0
102
RTVSPropertyOp41
 70
     0
102
RTVSPropertyOp42
 70
     0
102
RTVSPropertyOp43
 70
     0
102
RTVSPropertyOp44
 70
     0
102
RTVSPropertyOp45
 70
     0
102
RTVSPropertyOp46
 70
     0
102
RTVSPropertyOp47
 70
     0
102
RTVSPropertyOp48
 70
     0
102
RTVSPropertyOp49
 70
     0
102
RTVSPropertyOp50
 70
     0
102
RTVSPropertyOp51
 70
     0
102
RTVSPropertyOp52
 70
     0
102
RTVSPropertyOp53
 70
     0
102
RTVSPropertyOp54
 70
     0
102
RTVSPropertyOp55
 70
     0
102
RTVSPropertyOp56
 70
     0
102
RTVSPropertyOp57
 70
     0
102
RTVSPropertyOp58
 70
     1
102
RTVSPropertyOp59
 70
     1
102
RTVSPropertyOp60
 70
     1
102
RTVSPropertyOp61
 70
     1
102
RTVSPropertyOp62
 70
     1
  0
XRECORD
  5
8FC
102
{ACAD_REACTORS
330
8FB
102
}
330
8FB
100
AcDbXrecord
280
     1
102
RTVSPost2010Prop28
280
     0
102
RTVSPost2010PropOp28
 70
     1
102
RTVSPost2010Prop29
280
     1
102
RTVSPost2010PropOp29
 70
     1
102
RTVSPost2010Prop30
280
     1
102
RTVSPost2010PropOp30
 70
     1
102
RTVSPost2010Prop31
280
     0
102
RTVSPost2010PropOp31
 70
     1
102
RTVSPost2010Prop32
280
     0
102
RTVSPost2010PropOp32
 70
     1
102
RTVSPost2010Prop33
280
     0
102
RTVSPost2010PropOp33
 70
     1
102
RTVSPost2010Prop34
280
     0
102
RTVSPost2010PropOp34
 70
     1
102
RTVSPost2010Prop35
280
     0
102
RTVSPost2010PropOp35
 70
     1
102
RTVSPost2010Prop36
280
     0
102
RTVSPost2010PropOp36
 70
     1
102
RTVSPost2010Prop37
 90
       50
102
RTVSPost2010PropOp37
 70
     1
102
RTVSPost2010Prop38
140
0.0
102
RTVSPost2010PropOp38
 70
     1
102
RTVSPost2010Prop39
140
1.0
102
RTVSPost2010PropOp39
 70
     1
102
RTVSPost2010Prop40
 90
        0
102
RTVSPost2010PropOp40
 70
     1
102
RTVSPost2010Prop41ColorIndex
 90
       18
102
RTVSPost2010Prop41ColorRGB
 90
        0
102
RTVSPost2010PropOp41
 70
     1
102
RTVSPost2010Prop42
 90
       50
102
RTVSPost2010PropOp42
 70
     1
102
RTVSPost2010Prop43
 90
        3
102
RTVSPost2010PropOp43
 70
     1
102
RTVSPost2010Prop44ColorIndex
 90
        5
102
RTVSPost2010Prop44ColorRGB
 90
      255
102
RTVSPost2010PropOp44
 70
     1
102
RTVSPost2010Prop45
280
     0
102
RTVSPost2010PropOp45
 70
     1
102
RTVSPost2010Prop46
 90
       50
102
RTVSPost2010PropOp46
 70
     1
102
RTVSPost2010Prop47
 90
       50
102
RTVSPost2010PropOp47
 70
     1
102
RTVSPost2010Prop48
 90
       50
102
RTVSPost2010PropOp48
 70
     1
102
RTVSPost2010Prop49
280
     0
102
RTVSPost2010PropOp49
 70
     1
102
RTVSPost2010Prop50
 90
       50
102
RTVSPost2010PropOp50
 70
     1
102
RTVSPost2010Prop51ColorIndex
 90
      256
102
RTVSPost2010Prop51ColorRGB
 90
-16777216
102
RTVSPost2010PropOp51
 70
     0
102
RTVSPost2010Prop52
140
1.0
102
RTVSPost2010PropOp52
 70
     0
102
RTVSPost2010Prop53
 90
        2
102
RTVSPost2010PropOp53
 70
     1
102
RTVSPost2010Prop54
  1
strokes_ogs.tif
102
RTVSPost2010PropOp54
 70
     1
102
RTVSPost2010Prop55
280
     0
102
RTVSPost2010PropOp55
 70
     1
102
RTVSPost2010Prop56
140
1.0
102
RTVSPost2010PropOp56
 70
     1
102
RTVSPost2010Prop57
140
1.0
102
RTVSPost2010PropOp57
 70
     1
102
RTVSPropertyOp0
 70
     1
102
RTVSPropertyOp1
 70
     1
102
RTVSPropertyOp2
 70
     1
102
RTVSPropertyOp3
 70
     1
102
RTVSPropertyOp4
 70
     1
102
RTVSPropertyOp5
 70
     1
102
RTVSPropertyOp6
 70
     1
102
RTVSPropertyOp7
 70
     1
102
RTVSPropertyOp8
 70
     1
102
RTVSPropertyOp9
 70
     1
102
RTVSPropertyOp10
 70
     1
102
RTVSPropertyOp11
 70
     1
102
RTVSPropertyOp12
 70
     1
102
RTVSPropertyOp13
 70
     1
102
RTVSPropertyOp14
 70
     1
102
RTVSPropertyOp15
 70
     1
102
RTVSPropertyOp16
 70
     1
102
RTVSPropertyOp17
 70
     1
102
RTVSPropertyOp18
 70
     1
102
RTVSPropertyOp19
 70
     1
102
RTVSPropertyOp20
 70
     1
102
RTVSPropertyOp21
 70
     1
102
RTVSPropertyOp22
 70
     1
102
RTVSPropertyOp23
 70
     1
102
RTVSPropertyOp24
 70
     1
102
RTVSPropertyOp25
 70
     1
102
RTVSPropertyOp26
 70
     1
102
RTVSPropertyOp27
 70
     1
102
RTVSPropertyOp28
 70
     1
102
RTVSPropertyOp29
 70
     1
102
RTVSPropertyOp30
 70
     1
102
RTVSPropertyOp31
 70
     1
102
RTVSPropertyOp32
 70
     1
102
RTVSPropertyOp33
 70
     1
102
RTVSPropertyOp34
 70
     1
102
RTVSPropertyOp35
 70
     1
102
RTVSPropertyOp36
 70
     1
102
RTVSPropertyOp37
 70
     1
102
RTVSPropertyOp38
 70
     1
102
RTVSPropertyOp39
 70
     1
102
RTVSPropertyOp40
 70
     1
102
RTVSPropertyOp41
 70
     1
102
RTVSPropertyOp42
 70
     1
102
RTVSPropertyOp43
 70
     1
102
RTVSPropertyOp44
 70
     1
102
RTVSPropertyOp45
 70
     1
102
RTVSPropertyOp46
 70
     1
102
RTVSPropertyOp47
 70
     1
102
RTVSPropertyOp48
 70
     1
102
RTVSPropertyOp49
 70
     1
102
RTVSPropertyOp50
 70
     1
102
RTVSPropertyOp51
 70
     0
102
RTVSPropertyOp52
 70
     0
102
RTVSPropertyOp53
 70
     1
102
RTVSPropertyOp54
 70
     1
102
RTVSPropertyOp55
 70
     1
102
RTVSPropertyOp56
 70
     1
102
RTVSPropertyOp57
 70
     1
102
RTVSPropertyOp58
 70
     1
102
RTVSPropertyOp59
 70
     1
102
RTVSPropertyOp60
 70
     1
102
RTVSPropertyOp61
 70
     1
102
RTVSPropertyOp62
 70
     1
  0
XRECORD
  5
904
102
{ACAD_REACTORS
330
903
102
}
330
903
100
AcDbXrecord
280
     1
102
RTVSPost2010Prop28
280
     0
102
RTVSPost2010PropOp28
 70
     0
102
RTVSPost2010Prop29
280
     1
102
RTVSPost2010PropOp29
 70
     0
102
RTVSPost2010Prop30
280
     1
102
RTVSPost2010PropOp30
 70
     0
102
RTVSPost2010Prop31
280
     0
102
RTVSPost2010PropOp31
 70
     0
102
RTVSPost2010Prop32
280
     0
102
RTVSPost2010PropOp32
 70
     0
102
RTVSPost2010Prop33
280
     0
102
RTVSPost2010PropOp33
 70
     0
102
RTVSPost2010Prop34
280
     0
102
RTVSPost2010PropOp34
 70
     0
102
RTVSPost2010Prop35
280
     0
102
RTVSPost2010PropOp35
 70
     0
102
RTVSPost2010Prop36
280
     0
102
RTVSPost2010PropOp36
 70
     0
102
RTVSPost2010Prop37
 90
       50
102
RTVSPost2010PropOp37
 70
     0
102
RTVSPost2010Prop38
140
0.0
102
RTVSPost2010PropOp38
 70
     0
102
RTVSPost2010Prop39
140
1.0
102
RTVSPost2010PropOp39
 70
     0
102
RTVSPost2010Prop40
 90
        0
102
RTVSPost2010PropOp40
 70
     0
102
RTVSPost2010Prop41ColorIndex
 90
       18
102
RTVSPost2010Prop41ColorRGB
 90
        0
102
RTVSPost2010PropOp41
 70
     0
102
RTVSPost2010Prop42
 90
       50
102
RTVSPost2010PropOp42
 70
     0
102
RTVSPost2010Prop43
 90
        3
102
RTVSPost2010PropOp43
 70
     0
102
RTVSPost2010Prop44ColorIndex
 90
        5
102
RTVSPost2010Prop44ColorRGB
 90
      255
102
RTVSPost2010PropOp44
 70
     0
102
RTVSPost2010Prop45
280
     0
102
RTVSPost2010PropOp45
 70
     0
102
RTVSPost2010Prop46
 90
       50
102
RTVSPost2010PropOp46
 70
     0
102
RTVSPost2010Prop47
 90
       50
102
RTVSPost2010PropOp47
 70
     0
102
RTVSPost2010Prop48
 90
       50
102
RTVSPost2010PropOp48
 70
     0
102
RTVSPost2010Prop49
280
     0
102
RTVSPost2010PropOp49
 70
     0
102
RTVSPost2010Prop50
 90
       50
102
RTVSPost2010PropOp50
 70
     0
102
RTVSPost2010Prop51ColorIndex
 90
      256
102
RTVSPost2010Prop51ColorRGB
 90
-16777216
102
RTVSPost2010PropOp51
 70
     0
102
RTVSPost2010Prop52
140
1.0
102
RTVSPost2010PropOp52
 70
     0
102
RTVSPost2010Prop53
 90
        2
102
RTVSPost2010PropOp53
 70
     0
102
RTVSPost2010Prop54
  1
strokes_ogs.tif
102
RTVSPost2010PropOp54
 70
     0
102
RTVSPost2010Prop55
280
     0
102
RTVSPost2010PropOp55
 70
     0
102
RTVSPost2010Prop56
140
1.0
102
RTVSPost2010PropOp56
 70
     0
102
RTVSPost2010Prop57
140
1.0
102
RTVSPost2010PropOp57
 70
     0
102
RTVSPropertyOp0
 70
     0
102
RTVSPropertyOp1
 70
     0
102
RTVSPropertyOp2
 70
     0
102
RTVSPropertyOp3
 70
     0
102
RTVSPropertyOp4
 70
     0
102
RTVSPropertyOp5
 70
     0
102
RTVSPropertyOp6
 70
     0
102
RTVSPropertyOp7
 70
     0
102
RTVSPropertyOp8
 70
     0
102
RTVSPropertyOp9
 70
     0
102
RTVSPropertyOp10
 70
     0
102
RTVSPropertyOp11
 70
     0
102
RTVSPropertyOp12
 70
     0
102
RTVSPropertyOp13
 70
     0
102
RTVSPropertyOp14
 70
     2
102
RTVSPropertyOp15
 70
     0
102
RTVSPropertyOp16
 70
     0
102
RTVSPropertyOp17
 70
     0
102
RTVSPropertyOp18
 70
     0
102
RTVSPropertyOp19
 70
     0
102
RTVSPropertyOp20
 70
     0
102
RTVSPropertyOp21
 70
     0
102
RTVSPropertyOp22
 70
     0
102
RTVSPropertyOp23
 70
     0
102
RTVSPropertyOp24
 70
     0
102
RTVSPropertyOp25
 70
     0
102
RTVSPropertyOp26
 70
     0
102
RTVSPropertyOp27
 70
     0
102
RTVSPropertyOp28
 70
     0
102
RTVSPropertyOp29
 70
     0
102
RTVSPropertyOp30
 70
     0
102
RTVSPropertyOp31
 70
     0
102
RTVSPropertyOp32
 70
     0
102
RTVSPropertyOp33
 70
     0
102
RTVSPropertyOp34
 70
     0
102
RTVSPropertyOp35
 70
     0
102
RTVSPropertyOp36
 70
     0
102
RTVSPropertyOp37
 70
     0
102
RTVSPropertyOp38
 70
     0
102
RTVSPropertyOp39
 70
     0
102
RTVSPropertyOp40
 70
     0
102
RTVSPropertyOp41
 70
     0
102
RTVSPropertyOp42
 70
     0
102
RTVSPropertyOp43
 70
     0
102
RTVSPropertyOp44
 70
     0
102
RTVSPropertyOp45
 70
     0
102
RTVSPropertyOp46
 70
     0
102
RTVSPropertyOp47
 70
     0
102
RTVSPropertyOp48
 70
     0
102
RTVSPropertyOp49
 70
     0
102
RTVSPropertyOp50
 70
     0
102
RTVSPropertyOp51
 70
     0
102
RTVSPropertyOp52
 70
     0
102
RTVSPropertyOp53
 70
     0
102
RTVSPropertyOp54
 70
     0
102
RTVSPropertyOp55
 70
     0
102
RTVSPropertyOp56
 70
     0
102
RTVSPropertyOp57
 70
     0
102
RTVSPropertyOp58
 70
     1
102
RTVSPropertyOp59
 70
     1
102
RTVSPropertyOp60
 70
     1
102
RTVSPropertyOp61
 70
     1
102
RTVSPropertyOp62
 70
     1
  0
XRECORD
  5
8F2
102
{ACAD_REACTORS
330
8F1
102
}
330
8F1
100
AcDbXrecord
280
     1
102
RTVSPost2010Prop28
280
     0
102
RTVSPost2010PropOp28
 70
     1
102
RTVSPost2010Prop29
280
     1
102
RTVSPost2010PropOp29
 70
     1
102
RTVSPost2010Prop30
280
     1
102
RTVSPost2010PropOp30
 70
     1
102
RTVSPost2010Prop31
280
     0
102
RTVSPost2010PropOp31
 70
     1
102
RTVSPost2010Prop32
280
     0
102
RTVSPost2010PropOp32
 70
     1
102
RTVSPost2010Prop33
280
     0
102
RTVSPost2010PropOp33
 70
     1
102
RTVSPost2010Prop34
280
     0
102
RTVSPost2010PropOp34
 70
     1
102
RTVSPost2010Prop35
280
     0
102
RTVSPost2010PropOp35
 70
     1
102
RTVSPost2010Prop36
280
     0
102
RTVSPost2010PropOp36
 70
     1
102
RTVSPost2010Prop37
 90
       50
102
RTVSPost2010PropOp37
 70
     1
102
RTVSPost2010Prop38
140
0.0
102
RTVSPost2010PropOp38
 70
     1
102
RTVSPost2010Prop39
140
1.0
102
RTVSPost2010PropOp39
 70
     1
102
RTVSPost2010Prop40
 90
        0
102
RTVSPost2010PropOp40
 70
     1
102
RTVSPost2010Prop41ColorIndex
 90
       18
102
RTVSPost2010Prop41ColorRGB
 90
        0
102
RTVSPost2010PropOp41
 70
     1
102
RTVSPost2010Prop42
 90
       50
102
RTVSPost2010PropOp42
 70
     1
102
RTVSPost2010Prop43
 90
        3
102
RTVSPost2010PropOp43
 70
     1
102
RTVSPost2010Prop44ColorIndex
 90
        5
102
RTVSPost2010Prop44ColorRGB
 90
      255
102
RTVSPost2010PropOp44
 70
     1
102
RTVSPost2010Prop45
280
     0
102
RTVSPost2010PropOp45
 70
     1
102
RTVSPost2010Prop46
 90
       50
102
RTVSPost2010PropOp46
 70
     1
102
RTVSPost2010Prop47
 90
       50
102
RTVSPost2010PropOp47
 70
     1
102
RTVSPost2010Prop48
 90
       50
102
RTVSPost2010PropOp48
 70
     1
102
RTVSPost2010Prop49
280
     0
102
RTVSPost2010PropOp49
 70
     1
102
RTVSPost2010Prop50
 90
       50
102
RTVSPost2010PropOp50
 70
     1
102
RTVSPost2010Prop51ColorIndex
 90
      256
102
RTVSPost2010Prop51ColorRGB
 90
-16777216
102
RTVSPost2010PropOp51
 70
     0
102
RTVSPost2010Prop52
140
1.0
102
RTVSPost2010PropOp52
 70
     0
102
RTVSPost2010Prop53
 90
        2
102
RTVSPost2010PropOp53
 70
     1
102
RTVSPost2010Prop54
  1
strokes_ogs.tif
102
RTVSPost2010PropOp54
 70
     1
102
RTVSPost2010Prop55
280
     0
102
RTVSPost2010PropOp55
 70
     1
102
RTVSPost2010Prop56
140
1.0
102
RTVSPost2010PropOp56
 70
     1
102
RTVSPost2010Prop57
140
1.0
102
RTVSPost2010PropOp57
 70
     1
102
RTVSPropertyOp0
 70
     1
102
RTVSPropertyOp1
 70
     1
102
RTVSPropertyOp2
 70
     1
102
RTVSPropertyOp3
 70
     1
102
RTVSPropertyOp4
 70
     1
102
RTVSPropertyOp5
 70
     1
102
RTVSPropertyOp6
 70
     1
102
RTVSPropertyOp7
 70
     1
102
RTVSPropertyOp8
 70
     1
102
RTVSPropertyOp9
 70
     1
102
RTVSPropertyOp10
 70
     1
102
RTVSPropertyOp11
 70
     1
102
RTVSPropertyOp12
 70
     1
102
RTVSPropertyOp13
 70
     1
102
RTVSPropertyOp14
 70
     1
102
RTVSPropertyOp15
 70
     1
102
RTVSPropertyOp16
 70
     1
102
RTVSPropertyOp17
 70
     1
102
RTVSPropertyOp18
 70
     1
102
RTVSPropertyOp19
 70
     1
102
RTVSPropertyOp20
 70
     1
102
RTVSPropertyOp21
 70
     1
102
RTVSPropertyOp22
 70
     1
102
RTVSPropertyOp23
 70
     1
102
RTVSPropertyOp24
 70
     1
102
RTVSPropertyOp25
 70
     1
102
RTVSPropertyOp26
 70
     1
102
RTVSPropertyOp27
 70
     1
102
RTVSPropertyOp28
 70
     1
102
RTVSPropertyOp29
 70
     1
102
RTVSPropertyOp30
 70
     1
102
RTVSPropertyOp31
 70
     1
102
RTVSPropertyOp32
 70
     1
102
RTVSPropertyOp33
 70
     1
102
RTVSPropertyOp34
 70
     1
102
RTVSPropertyOp35
 70
     1
102
RTVSPropertyOp36
 70
     1
102
RTVSPropertyOp37
 70
     1
102
RTVSPropertyOp38
 70
     1
102
RTVSPropertyOp39
 70
     1
102
RTVSPropertyOp40
 70
     1
102
RTVSPropertyOp41
 70
     1
102
RTVSPropertyOp42
 70
     1
102
RTVSPropertyOp43
 70
     1
102
RTVSPropertyOp44
 70
     1
102
RTVSPropertyOp45
 70
     1
102
RTVSPropertyOp46
 70
     1
102
RTVSPropertyOp47
 70
     1
102
RTVSPropertyOp48
 70
     1
102
RTVSPropertyOp49
 70
     1
102
RTVSPropertyOp50
 70
     1
102
RTVSPropertyOp51
 70
     0
102
RTVSPropertyOp52
 70
     0
102
RTVSPropertyOp53
 70
     1
102
RTVSPropertyOp54
 70
     1
102
RTVSPropertyOp55
 70
     1
102
RTVSPropertyOp56
 70
     1
102
RTVSPropertyOp57
 70
     1
102
RTVSPropertyOp58
 70
     1
102
RTVSPropertyOp59
 70
     1
102
RTVSPropertyOp60
 70
     1
102
RTVSPropertyOp61
 70
     1
102
RTVSPropertyOp62
 70
     1
  0
XRECORD
  5
910
102
{ACAD_REACTORS
330
90F
102
}
330
90F
100
AcDbXrecord
280
     1
102
RTVSPost2010Prop28
280
     0
102
RTVSPost2010PropOp28
 70
     1
102
RTVSPost2010Prop29
280
     1
102
RTVSPost2010PropOp29
 70
     1
102
RTVSPost2010Prop30
280
     1
102
RTVSPost2010PropOp30
 70
     1
102
RTVSPost2010Prop31
280
     0
102
RTVSPost2010PropOp31
 70
     1
102
RTVSPost2010Prop32
280
     0
102
RTVSPost2010PropOp32
 70
     1
102
RTVSPost2010Prop33
280
     0
102
RTVSPost2010PropOp33
 70
     1
102
RTVSPost2010Prop34
280
     0
102
RTVSPost2010PropOp34
 70
     1
102
RTVSPost2010Prop35
280
     0
102
RTVSPost2010PropOp35
 70
     1
102
RTVSPost2010Prop36
280
     0
102
RTVSPost2010PropOp36
 70
     1
102
RTVSPost2010Prop37
 90
       50
102
RTVSPost2010PropOp37
 70
     1
102
RTVSPost2010Prop38
140
0.0
102
RTVSPost2010PropOp38
 70
     1
102
RTVSPost2010Prop39
140
1.0
102
RTVSPost2010PropOp39
 70
     1
102
RTVSPost2010Prop40
 90
        0
102
RTVSPost2010PropOp40
 70
     1
102
RTVSPost2010Prop41ColorIndex
 90
       18
102
RTVSPost2010Prop41ColorRGB
 90
        0
102
RTVSPost2010PropOp41
 70
     1
102
RTVSPost2010Prop42
 90
       50
102
RTVSPost2010PropOp42
 70
     1
102
RTVSPost2010Prop43
 90
        3
102
RTVSPost2010PropOp43
 70
     1
102
RTVSPost2010Prop44ColorIndex
 90
        5
102
RTVSPost2010Prop44ColorRGB
 90
      255
102
RTVSPost2010PropOp44
 70
     1
102
RTVSPost2010Prop45
280
     0
102
RTVSPost2010PropOp45
 70
     1
102
RTVSPost2010Prop46
 90
       50
102
RTVSPost2010PropOp46
 70
     1
102
RTVSPost2010Prop47
 90
       50
102
RTVSPost2010PropOp47
 70
     1
102
RTVSPost2010Prop48
 90
       50
102
RTVSPost2010PropOp48
 70
     1
102
RTVSPost2010Prop49
280
     0
102
RTVSPost2010PropOp49
 70
     1
102
RTVSPost2010Prop50
 90
       50
102
RTVSPost2010PropOp50
 70
     1
102
RTVSPost2010Prop51ColorIndex
 90
      256
102
RTVSPost2010Prop51ColorRGB
 90
-16777216
102
RTVSPost2010PropOp51
 70
     0
102
RTVSPost2010Prop52
140
1.0
102
RTVSPost2010PropOp52
 70
     0
102
RTVSPost2010Prop53
 90
        2
102
RTVSPost2010PropOp53
 70
     1
102
RTVSPost2010Prop54
  1
strokes_ogs.tif
102
RTVSPost2010PropOp54
 70
     1
102
RTVSPost2010Prop55
280
     0
102
RTVSPost2010PropOp55
 70
     1
102
RTVSPost2010Prop56
140
1.0
102
RTVSPost2010PropOp56
 70
     1
102
RTVSPost2010Prop57
140
1.0
102
RTVSPost2010PropOp57
 70
     1
102
RTVSPropertyOp0
 70
     1
102
RTVSPropertyOp1
 70
     1
102
RTVSPropertyOp2
 70
     1
102
RTVSPropertyOp3
 70
     1
102
RTVSPropertyOp4
 70
     1
102
RTVSPropertyOp5
 70
     1
102
RTVSPropertyOp6
 70
     1
102
RTVSPropertyOp7
 70
     1
102
RTVSPropertyOp8
 70
     1
102
RTVSPropertyOp9
 70
     1
102
RTVSPropertyOp10
 70
     1
102
RTVSPropertyOp11
 70
     1
102
RTVSPropertyOp12
 70
     1
102
RTVSPropertyOp13
 70
     1
102
RTVSPropertyOp14
 70
     1
102
RTVSPropertyOp15
 70
     1
102
RTVSPropertyOp16
 70
     1
102
RTVSPropertyOp17
 70
     1
102
RTVSPropertyOp18
 70
     1
102
RTVSPropertyOp19
 70
     1
102
RTVSPropertyOp20
 70
     1
102
RTVSPropertyOp21
 70
     1
102
RTVSPropertyOp22
 70
     1
102
RTVSPropertyOp23
 70
     1
102
RTVSPropertyOp24
 70
     1
102
RTVSPropertyOp25
 70
     1
102
RTVSPropertyOp26
 70
     1
102
RTVSPropertyOp27
 70
     1
102
RTVSPropertyOp28
 70
     1
102
RTVSPropertyOp29
 70
     1
102
RTVSPropertyOp30
 70
     1
102
RTVSPropertyOp31
 70
     1
102
RTVSPropertyOp32
 70
     1
102
RTVSPropertyOp33
 70
     1
102
RTVSPropertyOp34
 70
     1
102
RTVSPropertyOp35
 70
     1
102
RTVSPropertyOp36
 70
     1
102
RTVSPropertyOp37
 70
     1
102
RTVSPropertyOp38
 70
     1
102
RTVSPropertyOp39
 70
     1
102
RTVSPropertyOp40
 70
     1
102
RTVSPropertyOp41
 70
     1
102
RTVSPropertyOp42
 70
     1
102
RTVSPropertyOp43
 70
     1
102
RTVSPropertyOp44
 70
     1
102
RTVSPropertyOp45
 70
     1
102
RTVSPropertyOp46
 70
     1
102
RTVSPropertyOp47
 70
     1
102
RTVSPropertyOp48
 70
     1
102
RTVSPropertyOp49
 70
     1
102
RTVSPropertyOp50
 70
     1
102
RTVSPropertyOp51
 70
     0
102
RTVSPropertyOp52
 70
     0
102
RTVSPropertyOp53
 70
     1
102
RTVSPropertyOp54
 70
     1
102
RTVSPropertyOp55
 70
     1
102
RTVSPropertyOp56
 70
     1
102
RTVSPropertyOp57
 70
     1
102
RTVSPropertyOp58
 70
     1
102
RTVSPropertyOp59
 70
     1
102
RTVSPropertyOp60
 70
     1
102
RTVSPropertyOp61
 70
     1
102
RTVSPropertyOp62
 70
     1
  0
XRECORD
  5
90E
102
{ACAD_REACTORS
330
90D
102
}
330
90D
100
AcDbXrecord
280
     1
102
RTVSPost2010Prop28
280
     0
102
RTVSPost2010PropOp28
 70
     1
102
RTVSPost2010Prop29
280
     1
102
RTVSPost2010PropOp29
 70
     1
102
RTVSPost2010Prop30
280
     1
102
RTVSPost2010PropOp30
 70
     1
102
RTVSPost2010Prop31
280
     0
102
RTVSPost2010PropOp31
 70
     1
102
RTVSPost2010Prop32
280
     0
102
RTVSPost2010PropOp32
 70
     1
102
RTVSPost2010Prop33
280
     0
102
RTVSPost2010PropOp33
 70
     1
102
RTVSPost2010Prop34
280
     0
102
RTVSPost2010PropOp34
 70
     1
102
RTVSPost2010Prop35
280
     0
102
RTVSPost2010PropOp35
 70
     1
102
RTVSPost2010Prop36
280
     0
102
RTVSPost2010PropOp36
 70
     1
102
RTVSPost2010Prop37
 90
       50
102
RTVSPost2010PropOp37
 70
     1
102
RTVSPost2010Prop38
140
0.0
102
RTVSPost2010PropOp38
 70
     1
102
RTVSPost2010Prop39
140
1.0
102
RTVSPost2010PropOp39
 70
     1
102
RTVSPost2010Prop40
 90
        0
102
RTVSPost2010PropOp40
 70
     1
102
RTVSPost2010Prop41ColorIndex
 90
       18
102
RTVSPost2010Prop41ColorRGB
 90
        0
102
RTVSPost2010PropOp41
 70
     1
102
RTVSPost2010Prop42
 90
       50
102
RTVSPost2010PropOp42
 70
     1
102
RTVSPost2010Prop43
 90
        3
102
RTVSPost2010PropOp43
 70
     1
102
RTVSPost2010Prop44ColorIndex
 90
        5
102
RTVSPost2010Prop44ColorRGB
 90
      255
102
RTVSPost2010PropOp44
 70
     1
102
RTVSPost2010Prop45
280
     0
102
RTVSPost2010PropOp45
 70
     1
102
RTVSPost2010Prop46
 90
       50
102
RTVSPost2010PropOp46
 70
     1
102
RTVSPost2010Prop47
 90
       50
102
RTVSPost2010PropOp47
 70
     1
102
RTVSPost2010Prop48
 90
       50
102
RTVSPost2010PropOp48
 70
     1
102
RTVSPost2010Prop49
280
     0
102
RTVSPost2010PropOp49
 70
     1
102
RTVSPost2010Prop50
 90
       50
102
RTVSPost2010PropOp50
 70
     1
102
RTVSPost2010Prop51ColorIndex
 90
      256
102
RTVSPost2010Prop51ColorRGB
 90
-16777216
102
RTVSPost2010PropOp51
 70
     0
102
RTVSPost2010Prop52
140
1.0
102
RTVSPost2010PropOp52
 70
     0
102
RTVSPost2010Prop53
 90
        2
102
RTVSPost2010PropOp53
 70
     1
102
RTVSPost2010Prop54
  1
strokes_ogs.tif
102
RTVSPost2010PropOp54
 70
     1
102
RTVSPost2010Prop55
280
     0
102
RTVSPost2010PropOp55
 70
     1
102
RTVSPost2010Prop56
140
1.0
102
RTVSPost2010PropOp56
 70
     1
102
RTVSPost2010Prop57
140
1.0
102
RTVSPost2010PropOp57
 70
     1
102
RTVSPropertyOp0
 70
     1
102
RTVSPropertyOp1
 70
     1
102
RTVSPropertyOp2
 70
     1
102
RTVSPropertyOp3
 70
     1
102
RTVSPropertyOp4
 70
     1
102
RTVSPropertyOp5
 70
     1
102
RTVSPropertyOp6
 70
     1
102
RTVSPropertyOp7
 70
     1
102
RTVSPropertyOp8
 70
     1
102
RTVSPropertyOp9
 70
     1
102
RTVSPropertyOp10
 70
     1
102
RTVSPropertyOp11
 70
     1
102
RTVSPropertyOp12
 70
     1
102
RTVSPropertyOp13
 70
     1
102
RTVSPropertyOp14
 70
     1
102
RTVSPropertyOp15
 70
     1
102
RTVSPropertyOp16
 70
     1
102
RTVSPropertyOp17
 70
     1
102
RTVSPropertyOp18
 70
     1
102
RTVSPropertyOp19
 70
     1
102
RTVSPropertyOp20
 70
     1
102
RTVSPropertyOp21
 70
     1
102
RTVSPropertyOp22
 70
     1
102
RTVSPropertyOp23
 70
     1
102
RTVSPropertyOp24
 70
     1
102
RTVSPropertyOp25
 70
     1
102
RTVSPropertyOp26
 70
     1
102
RTVSPropertyOp27
 70
     1
102
RTVSPropertyOp28
 70
     1
102
RTVSPropertyOp29
 70
     1
102
RTVSPropertyOp30
 70
     1
102
RTVSPropertyOp31
 70
     1
102
RTVSPropertyOp32
 70
     1
102
RTVSPropertyOp33
 70
     1
102
RTVSPropertyOp34
 70
     1
102
RTVSPropertyOp35
 70
     1
102
RTVSPropertyOp36
 70
     1
102
RTVSPropertyOp37
 70
     1
102
RTVSPropertyOp38
 70
     1
102
RTVSPropertyOp39
 70
     1
102
RTVSPropertyOp40
 70
     1
102
RTVSPropertyOp41
 70
     1
102
RTVSPropertyOp42
 70
     1
102
RTVSPropertyOp43
 70
     1
102
RTVSPropertyOp44
 70
     1
102
RTVSPropertyOp45
 70
     1
102
RTVSPropertyOp46
 70
     1
102
RTVSPropertyOp47
 70
     1
102
RTVSPropertyOp48
 70
     1
102
RTVSPropertyOp49
 70
     1
102
RTVSPropertyOp50
 70
     1
102
RTVSPropertyOp51
 70
     0
102
RTVSPropertyOp52
 70
     0
102
RTVSPropertyOp53
 70
     1
102
RTVSPropertyOp54
 70
     1
102
RTVSPropertyOp55
 70
     1
102
RTVSPropertyOp56
 70
     1
102
RTVSPropertyOp57
 70
     1
102
RTVSPropertyOp58
 70
     1
102
RTVSPropertyOp59
 70
     1
102
RTVSPropertyOp60
 70
     1
102
RTVSPropertyOp61
 70
     1
102
RTVSPropertyOp62
 70
     1
  0
XRECORD
  5
908
102
{ACAD_REACTORS
330
907
102
}
330
907
100
AcDbXrecord
280
     1
102
RTVSPost2010Prop28
280
     0
102
RTVSPost2010PropOp28
 70
     1
102
RTVSPost2010Prop29
280
     1
102
RTVSPost2010PropOp29
 70
     1
102
RTVSPost2010Prop30
280
     1
102
RTVSPost2010PropOp30
 70
     1
102
RTVSPost2010Prop31
280
     0
102
RTVSPost2010PropOp31
 70
     1
102
RTVSPost2010Prop32
280
     0
102
RTVSPost2010PropOp32
 70
     1
102
RTVSPost2010Prop33
280
     0
102
RTVSPost2010PropOp33
 70
     1
102
RTVSPost2010Prop34
280
     0
102
RTVSPost2010PropOp34
 70
     1
102
RTVSPost2010Prop35
280
     0
102
RTVSPost2010PropOp35
 70
     1
102
RTVSPost2010Prop36
280
     0
102
RTVSPost2010PropOp36
 70
     1
102
RTVSPost2010Prop37
 90
       50
102
RTVSPost2010PropOp37
 70
     1
102
RTVSPost2010Prop38
140
0.0
102
RTVSPost2010PropOp38
 70
     1
102
RTVSPost2010Prop39
140
1.0
102
RTVSPost2010PropOp39
 70
     1
102
RTVSPost2010Prop40
 90
        0
102
RTVSPost2010PropOp40
 70
     1
102
RTVSPost2010Prop41ColorIndex
 90
       18
102
RTVSPost2010Prop41ColorRGB
 90
        0
102
RTVSPost2010PropOp41
 70
     1
102
RTVSPost2010Prop42
 90
       50
102
RTVSPost2010PropOp42
 70
     1
102
RTVSPost2010Prop43
 90
        3
102
RTVSPost2010PropOp43
 70
     1
102
RTVSPost2010Prop44ColorIndex
 90
        5
102
RTVSPost2010Prop44ColorRGB
 90
      255
102
RTVSPost2010PropOp44
 70
     1
102
RTVSPost2010Prop45
280
     0
102
RTVSPost2010PropOp45
 70
     1
102
RTVSPost2010Prop46
 90
       50
102
RTVSPost2010PropOp46
 70
     1
102
RTVSPost2010Prop47
 90
       50
102
RTVSPost2010PropOp47
 70
     1
102
RTVSPost2010Prop48
 90
       50
102
RTVSPost2010PropOp48
 70
     1
102
RTVSPost2010Prop49
280
     0
102
RTVSPost2010PropOp49
 70
     1
102
RTVSPost2010Prop50
 90
       50
102
RTVSPost2010PropOp50
 70
     1
102
RTVSPost2010Prop51ColorIndex
 90
      256
102
RTVSPost2010Prop51ColorRGB
 90
-16777216
102
RTVSPost2010PropOp51
 70
     0
102
RTVSPost2010Prop52
140
1.0
102
RTVSPost2010PropOp52
 70
     0
102
RTVSPost2010Prop53
 90
        2
102
RTVSPost2010PropOp53
 70
     1
102
RTVSPost2010Prop54
  1
strokes_ogs.tif
102
RTVSPost2010PropOp54
 70
     1
102
RTVSPost2010Prop55
280
     0
102
RTVSPost2010PropOp55
 70
     1
102
RTVSPost2010Prop56
140
1.0
102
RTVSPost2010PropOp56
 70
     1
102
RTVSPost2010Prop57
140
1.0
102
RTVSPost2010PropOp57
 70
     1
102
RTVSPropertyOp0
 70
     1
102
RTVSPropertyOp1
 70
     1
102
RTVSPropertyOp2
 70
     1
102
RTVSPropertyOp3
 70
     1
102
RTVSPropertyOp4
 70
     1
102
RTVSPropertyOp5
 70
     1
102
RTVSPropertyOp6
 70
     1
102
RTVSPropertyOp7
 70
     1
102
RTVSPropertyOp8
 70
     1
102
RTVSPropertyOp9
 70
     1
102
RTVSPropertyOp10
 70
     1
102
RTVSPropertyOp11
 70
     1
102
RTVSPropertyOp12
 70
     1
102
RTVSPropertyOp13
 70
     1
102
RTVSPropertyOp14
 70
     1
102
RTVSPropertyOp15
 70
     1
102
RTVSPropertyOp16
 70
     1
102
RTVSPropertyOp17
 70
     1
102
RTVSPropertyOp18
 70
     1
102
RTVSPropertyOp19
 70
     1
102
RTVSPropertyOp20
 70
     1
102
RTVSPropertyOp21
 70
     1
102
RTVSPropertyOp22
 70
     1
102
RTVSPropertyOp23
 70
     1
102
RTVSPropertyOp24
 70
     1
102
RTVSPropertyOp25
 70
     1
102
RTVSPropertyOp26
 70
     1
102
RTVSPropertyOp27
 70
     1
102
RTVSPropertyOp28
 70
     1
102
RTVSPropertyOp29
 70
     1
102
RTVSPropertyOp30
 70
     1
102
RTVSPropertyOp31
 70
     1
102
RTVSPropertyOp32
 70
     1
102
RTVSPropertyOp33
 70
     1
102
RTVSPropertyOp34
 70
     1
102
RTVSPropertyOp35
 70
     1
102
RTVSPropertyOp36
 70
     1
102
RTVSPropertyOp37
 70
     1
102
RTVSPropertyOp38
 70
     1
102
RTVSPropertyOp39
 70
     1
102
RTVSPropertyOp40
 70
     1
102
RTVSPropertyOp41
 70
     1
102
RTVSPropertyOp42
 70
     1
102
RTVSPropertyOp43
 70
     1
102
RTVSPropertyOp44
 70
     1
102
RTVSPropertyOp45
 70
     1
102
RTVSPropertyOp46
 70
     1
102
RTVSPropertyOp47
 70
     1
102
RTVSPropertyOp48
 70
     1
102
RTVSPropertyOp49
 70
     1
102
RTVSPropertyOp50
 70
     1
102
RTVSPropertyOp51
 70
     0
102
RTVSPropertyOp52
 70
     0
102
RTVSPropertyOp53
 70
     1
102
RTVSPropertyOp54
 70
     1
102
RTVSPropertyOp55
 70
     1
102
RTVSPropertyOp56
 70
     1
102
RTVSPropertyOp57
 70
     1
102
RTVSPropertyOp58
 70
     1
102
RTVSPropertyOp59
 70
     1
102
RTVSPropertyOp60
 70
     1
102
RTVSPropertyOp61
 70
     1
102
RTVSPropertyOp62
 70
     1
  0
XRECORD
  5
90A
102
{ACAD_REACTORS
330
909
102
}
330
909
100
AcDbXrecord
280
     1
102
RTVSPost2010Prop28
280
     0
102
RTVSPost2010PropOp28
 70
     1
102
RTVSPost2010Prop29
280
     1
102
RTVSPost2010PropOp29
 70
     1
102
RTVSPost2010Prop30
280
     1
102
RTVSPost2010PropOp30
 70
     1
102
RTVSPost2010Prop31
280
     0
102
RTVSPost2010PropOp31
 70
     1
102
RTVSPost2010Prop32
280
     0
102
RTVSPost2010PropOp32
 70
     1
102
RTVSPost2010Prop33
280
     0
102
RTVSPost2010PropOp33
 70
     1
102
RTVSPost2010Prop34
280
     0
102
RTVSPost2010PropOp34
 70
     1
102
RTVSPost2010Prop35
280
     0
102
RTVSPost2010PropOp35
 70
     1
102
RTVSPost2010Prop36
280
     0
102
RTVSPost2010PropOp36
 70
     1
102
RTVSPost2010Prop37
 90
       50
102
RTVSPost2010PropOp37
 70
     1
102
RTVSPost2010Prop38
140
0.0
102
RTVSPost2010PropOp38
 70
     1
102
RTVSPost2010Prop39
140
1.0
102
RTVSPost2010PropOp39
 70
     1
102
RTVSPost2010Prop40
 90
        0
102
RTVSPost2010PropOp40
 70
     1
102
RTVSPost2010Prop41ColorIndex
 90
       18
102
RTVSPost2010Prop41ColorRGB
 90
        0
102
RTVSPost2010PropOp41
 70
     1
102
RTVSPost2010Prop42
 90
       50
102
RTVSPost2010PropOp42
 70
     1
102
RTVSPost2010Prop43
 90
        3
102
RTVSPost2010PropOp43
 70
     1
102
RTVSPost2010Prop44ColorIndex
 90
        5
102
RTVSPost2010Prop44ColorRGB
 90
      255
102
RTVSPost2010PropOp44
 70
     1
102
RTVSPost2010Prop45
280
     0
102
RTVSPost2010PropOp45
 70
     1
102
RTVSPost2010Prop46
 90
       50
102
RTVSPost2010PropOp46
 70
     1
102
RTVSPost2010Prop47
 90
       50
102
RTVSPost2010PropOp47
 70
     1
102
RTVSPost2010Prop48
 90
       50
102
RTVSPost2010PropOp48
 70
     1
102
RTVSPost2010Prop49
280
     0
102
RTVSPost2010PropOp49
 70
     1
102
RTVSPost2010Prop50
 90
       50
102
RTVSPost2010PropOp50
 70
     1
102
RTVSPost2010Prop51ColorIndex
 90
      256
102
RTVSPost2010Prop51ColorRGB
 90
-16777216
102
RTVSPost2010PropOp51
 70
     0
102
RTVSPost2010Prop52
140
1.0
102
RTVSPost2010PropOp52
 70
     0
102
RTVSPost2010Prop53
 90
        2
102
RTVSPost2010PropOp53
 70
     1
102
RTVSPost2010Prop54
  1
strokes_ogs.tif
102
RTVSPost2010PropOp54
 70
     1
102
RTVSPost2010Prop55
280
     0
102
RTVSPost2010PropOp55
 70
     1
102
RTVSPost2010Prop56
140
1.0
102
RTVSPost2010PropOp56
 70
     1
102
RTVSPost2010Prop57
140
1.0
102
RTVSPost2010PropOp57
 70
     1
102
RTVSPropertyOp0
 70
     1
102
RTVSPropertyOp1
 70
     1
102
RTVSPropertyOp2
 70
     1
102
RTVSPropertyOp3
 70
     1
102
RTVSPropertyOp4
 70
     1
102
RTVSPropertyOp5
 70
     1
102
RTVSPropertyOp6
 70
     1
102
RTVSPropertyOp7
 70
     1
102
RTVSPropertyOp8
 70
     1
102
RTVSPropertyOp9
 70
     1
102
RTVSPropertyOp10
 70
     1
102
RTVSPropertyOp11
 70
     1
102
RTVSPropertyOp12
 70
     1
102
RTVSPropertyOp13
 70
     1
102
RTVSPropertyOp14
 70
     1
102
RTVSPropertyOp15
 70
     1
102
RTVSPropertyOp16
 70
     1
102
RTVSPropertyOp17
 70
     1
102
RTVSPropertyOp18
 70
     1
102
RTVSPropertyOp19
 70
     1
102
RTVSPropertyOp20
 70
     1
102
RTVSPropertyOp21
 70
     1
102
RTVSPropertyOp22
 70
     1
102
RTVSPropertyOp23
 70
     1
102
RTVSPropertyOp24
 70
     1
102
RTVSPropertyOp25
 70
     1
102
RTVSPropertyOp26
 70
     1
102
RTVSPropertyOp27
 70
     1
102
RTVSPropertyOp28
 70
     1
102
RTVSPropertyOp29
 70
     1
102
RTVSPropertyOp30
 70
     1
102
RTVSPropertyOp31
 70
     1
102
RTVSPropertyOp32
 70
     1
102
RTVSPropertyOp33
 70
     1
102
RTVSPropertyOp34
 70
     1
102
RTVSPropertyOp35
 70
     1
102
RTVSPropertyOp36
 70
     1
102
RTVSPropertyOp37
 70
     1
102
RTVSPropertyOp38
 70
     1
102
RTVSPropertyOp39
 70
     1
102
RTVSPropertyOp40
 70
     1
102
RTVSPropertyOp41
 70
     1
102
RTVSPropertyOp42
 70
     1
102
RTVSPropertyOp43
 70
     1
102
RTVSPropertyOp44
 70
     1
102
RTVSPropertyOp45
 70
     1
102
RTVSPropertyOp46
 70
     1
102
RTVSPropertyOp47
 70
     1
102
RTVSPropertyOp48
 70
     1
102
RTVSPropertyOp49
 70
     1
102
RTVSPropertyOp50
 70
     1
102
RTVSPropertyOp51
 70
     0
102
RTVSPropertyOp52
 70
     0
102
RTVSPropertyOp53
 70
     1
102
RTVSPropertyOp54
 70
     1
102
RTVSPropertyOp55
 70
     1
102
RTVSPropertyOp56
 70
     1
102
RTVSPropertyOp57
 70
     1
102
RTVSPropertyOp58
 70
     1
102
RTVSPropertyOp59
 70
     1
102
RTVSPropertyOp60
 70
     1
102
RTVSPropertyOp61
 70
     1
102
RTVSPropertyOp62
 70
     1
  0
XRECORD
  5
8FA
102
{ACAD_REACTORS
330
8F9
102
}
330
8F9
100
AcDbXrecord
280
     1
102
RTVSPost2010Prop28
280
     0
102
RTVSPost2010PropOp28
 70
     1
102
RTVSPost2010Prop29
280
     1
102
RTVSPost2010PropOp29
 70
     1
102
RTVSPost2010Prop30
280
     1
102
RTVSPost2010PropOp30
 70
     1
102
RTVSPost2010Prop31
280
     0
102
RTVSPost2010PropOp31
 70
     1
102
RTVSPost2010Prop32
280
     0
102
RTVSPost2010PropOp32
 70
     1
102
RTVSPost2010Prop33
280
     0
102
RTVSPost2010PropOp33
 70
     1
102
RTVSPost2010Prop34
280
     0
102
RTVSPost2010PropOp34
 70
     1
102
RTVSPost2010Prop35
280
     0
102
RTVSPost2010PropOp35
 70
     1
102
RTVSPost2010Prop36
280
     0
102
RTVSPost2010PropOp36
 70
     1
102
RTVSPost2010Prop37
 90
       50
102
RTVSPost2010PropOp37
 70
     1
102
RTVSPost2010Prop38
140
0.0
102
RTVSPost2010PropOp38
 70
     1
102
RTVSPost2010Prop39
140
1.0
102
RTVSPost2010PropOp39
 70
     1
102
RTVSPost2010Prop40
 90
        0
102
RTVSPost2010PropOp40
 70
     1
102
RTVSPost2010Prop41ColorIndex
 90
       18
102
RTVSPost2010Prop41ColorRGB
 90
        0
102
RTVSPost2010PropOp41
 70
     1
102
RTVSPost2010Prop42
 90
       50
102
RTVSPost2010PropOp42
 70
     1
102
RTVSPost2010Prop43
 90
        3
102
RTVSPost2010PropOp43
 70
     1
102
RTVSPost2010Prop44ColorIndex
 90
        5
102
RTVSPost2010Prop44ColorRGB
 90
      255
102
RTVSPost2010PropOp44
 70
     1
102
RTVSPost2010Prop45
280
     0
102
RTVSPost2010PropOp45
 70
     1
102
RTVSPost2010Prop46
 90
       50
102
RTVSPost2010PropOp46
 70
     1
102
RTVSPost2010Prop47
 90
       50
102
RTVSPost2010PropOp47
 70
     1
102
RTVSPost2010Prop48
 90
       50
102
RTVSPost2010PropOp48
 70
     1
102
RTVSPost2010Prop49
280
     0
102
RTVSPost2010PropOp49
 70
     1
102
RTVSPost2010Prop50
 90
       50
102
RTVSPost2010PropOp50
 70
     1
102
RTVSPost2010Prop51ColorIndex
 90
      256
102
RTVSPost2010Prop51ColorRGB
 90
-16777216
102
RTVSPost2010PropOp51
 70
     0
102
RTVSPost2010Prop52
140
1.0
102
RTVSPost2010PropOp52
 70
     0
102
RTVSPost2010Prop53
 90
        2
102
RTVSPost2010PropOp53
 70
     1
102
RTVSPost2010Prop54
  1
strokes_ogs.tif
102
RTVSPost2010PropOp54
 70
     1
102
RTVSPost2010Prop55
280
     0
102
RTVSPost2010PropOp55
 70
     1
102
RTVSPost2010Prop56
140
1.0
102
RTVSPost2010PropOp56
 70
     1
102
RTVSPost2010Prop57
140
1.0
102
RTVSPost2010PropOp57
 70
     1
102
RTVSPropertyOp0
 70
     1
102
RTVSPropertyOp1
 70
     1
102
RTVSPropertyOp2
 70
     1
102
RTVSPropertyOp3
 70
     1
102
RTVSPropertyOp4
 70
     1
102
RTVSPropertyOp5
 70
     1
102
RTVSPropertyOp6
 70
     1
102
RTVSPropertyOp7
 70
     1
102
RTVSPropertyOp8
 70
     1
102
RTVSPropertyOp9
 70
     1
102
RTVSPropertyOp10
 70
     1
102
RTVSPropertyOp11
 70
     1
102
RTVSPropertyOp12
 70
     1
102
RTVSPropertyOp13
 70
     1
102
RTVSPropertyOp14
 70
     1
102
RTVSPropertyOp15
 70
     1
102
RTVSPropertyOp16
 70
     1
102
RTVSPropertyOp17
 70
     1
102
RTVSPropertyOp18
 70
     1
102
RTVSPropertyOp19
 70
     1
102
RTVSPropertyOp20
 70
     1
102
RTVSPropertyOp21
 70
     1
102
RTVSPropertyOp22
 70
     1
102
RTVSPropertyOp23
 70
     1
102
RTVSPropertyOp24
 70
     1
102
RTVSPropertyOp25
 70
     1
102
RTVSPropertyOp26
 70
     1
102
RTVSPropertyOp27
 70
     1
102
RTVSPropertyOp28
 70
     1
102
RTVSPropertyOp29
 70
     1
102
RTVSPropertyOp30
 70
     1
102
RTVSPropertyOp31
 70
     1
102
RTVSPropertyOp32
 70
     1
102
RTVSPropertyOp33
 70
     1
102
RTVSPropertyOp34
 70
     1
102
RTVSPropertyOp35
 70
     1
102
RTVSPropertyOp36
 70
     1
102
RTVSPropertyOp37
 70
     1
102
RTVSPropertyOp38
 70
     1
102
RTVSPropertyOp39
 70
     1
102
RTVSPropertyOp40
 70
     1
102
RTVSPropertyOp41
 70
     1
102
RTVSPropertyOp42
 70
     1
102
RTVSPropertyOp43
 70
     1
102
RTVSPropertyOp44
 70
     1
102
RTVSPropertyOp45
 70
     1
102
RTVSPropertyOp46
 70
     1
102
RTVSPropertyOp47
 70
     1
102
RTVSPropertyOp48
 70
     1
102
RTVSPropertyOp49
 70
     1
102
RTVSPropertyOp50
 70
     1
102
RTVSPropertyOp51
 70
     0
102
RTVSPropertyOp52
 70
     0
102
RTVSPropertyOp53
 70
     1
102
RTVSPropertyOp54
 70
     1
102
RTVSPropertyOp55
 70
     1
102
RTVSPropertyOp56
 70
     1
102
RTVSPropertyOp57
 70
     1
102
RTVSPropertyOp58
 70
     1
102
RTVSPropertyOp59
 70
     1
102
RTVSPropertyOp60
 70
     1
102
RTVSPropertyOp61
 70
     1
102
RTVSPropertyOp62
 70
     1
  0
XRECORD
  5
8EC
102
{ACAD_REACTORS
330
8EB
102
}
330
8EB
100
AcDbXrecord
280
     1
102
RTVSPost2010Prop28
280
     0
102
RTVSPost2010PropOp28
 70
     1
102
RTVSPost2010Prop29
280
     1
102
RTVSPost2010PropOp29
 70
     1
102
RTVSPost2010Prop30
280
     1
102
RTVSPost2010PropOp30
 70
     1
102
RTVSPost2010Prop31
280
     0
102
RTVSPost2010PropOp31
 70
     1
102
RTVSPost2010Prop32
280
     0
102
RTVSPost2010PropOp32
 70
     1
102
RTVSPost2010Prop33
280
     0
102
RTVSPost2010PropOp33
 70
     1
102
RTVSPost2010Prop34
280
     0
102
RTVSPost2010PropOp34
 70
     1
102
RTVSPost2010Prop35
280
     0
102
RTVSPost2010PropOp35
 70
     1
102
RTVSPost2010Prop36
280
     0
102
RTVSPost2010PropOp36
 70
     1
102
RTVSPost2010Prop37
 90
       50
102
RTVSPost2010PropOp37
 70
     1
102
RTVSPost2010Prop38
140
0.0
102
RTVSPost2010PropOp38
 70
     1
102
RTVSPost2010Prop39
140
1.0
102
RTVSPost2010PropOp39
 70
     1
102
RTVSPost2010Prop40
 90
        0
102
RTVSPost2010PropOp40
 70
     1
102
RTVSPost2010Prop41ColorIndex
 90
       18
102
RTVSPost2010Prop41ColorRGB
 90
        0
102
RTVSPost2010PropOp41
 70
     1
102
RTVSPost2010Prop42
 90
       50
102
RTVSPost2010PropOp42
 70
     1
102
RTVSPost2010Prop43
 90
        3
102
RTVSPost2010PropOp43
 70
     1
102
RTVSPost2010Prop44ColorIndex
 90
        5
102
RTVSPost2010Prop44ColorRGB
 90
      255
102
RTVSPost2010PropOp44
 70
     1
102
RTVSPost2010Prop45
280
     0
102
RTVSPost2010PropOp45
 70
     1
102
RTVSPost2010Prop46
 90
       50
102
RTVSPost2010PropOp46
 70
     1
102
RTVSPost2010Prop47
 90
       50
102
RTVSPost2010PropOp47
 70
     1
102
RTVSPost2010Prop48
 90
       50
102
RTVSPost2010PropOp48
 70
     1
102
RTVSPost2010Prop49
280
     0
102
RTVSPost2010PropOp49
 70
     1
102
RTVSPost2010Prop50
 90
       50
102
RTVSPost2010PropOp50
 70
     1
102
RTVSPost2010Prop51ColorIndex
 90
      256
102
RTVSPost2010Prop51ColorRGB
 90
-16777216
102
RTVSPost2010PropOp51
 70
     0
102
RTVSPost2010Prop52
140
1.0
102
RTVSPost2010PropOp52
 70
     0
102
RTVSPost2010Prop53
 90
        2
102
RTVSPost2010PropOp53
 70
     1
102
RTVSPost2010Prop54
  1
strokes_ogs.tif
102
RTVSPost2010PropOp54
 70
     1
102
RTVSPost2010Prop55
280
     0
102
RTVSPost2010PropOp55
 70
     1
102
RTVSPost2010Prop56
140
1.0
102
RTVSPost2010PropOp56
 70
     1
102
RTVSPost2010Prop57
140
1.0
102
RTVSPost2010PropOp57
 70
     1
102
RTVSPropertyOp0
 70
     1
102
RTVSPropertyOp1
 70
     1
102
RTVSPropertyOp2
 70
     1
102
RTVSPropertyOp3
 70
     1
102
RTVSPropertyOp4
 70
     1
102
RTVSPropertyOp5
 70
     1
102
RTVSPropertyOp6
 70
     1
102
RTVSPropertyOp7
 70
     1
102
RTVSPropertyOp8
 70
     1
102
RTVSPropertyOp9
 70
     1
102
RTVSPropertyOp10
 70
     1
102
RTVSPropertyOp11
 70
     1
102
RTVSPropertyOp12
 70
     1
102
RTVSPropertyOp13
 70
     1
102
RTVSPropertyOp14
 70
     1
102
RTVSPropertyOp15
 70
     1
102
RTVSPropertyOp16
 70
     1
102
RTVSPropertyOp17
 70
     1
102
RTVSPropertyOp18
 70
     1
102
RTVSPropertyOp19
 70
     1
102
RTVSPropertyOp20
 70
     1
102
RTVSPropertyOp21
 70
     1
102
RTVSPropertyOp22
 70
     1
102
RTVSPropertyOp23
 70
     1
102
RTVSPropertyOp24
 70
     1
102
RTVSPropertyOp25
 70
     1
102
RTVSPropertyOp26
 70
     1
102
RTVSPropertyOp27
 70
     1
102
RTVSPropertyOp28
 70
     1
102
RTVSPropertyOp29
 70
     1
102
RTVSPropertyOp30
 70
     1
102
RTVSPropertyOp31
 70
     1
102
RTVSPropertyOp32
 70
     1
102
RTVSPropertyOp33
 70
     1
102
RTVSPropertyOp34
 70
     1
102
RTVSPropertyOp35
 70
     1
102
RTVSPropertyOp36
 70
     1
102
RTVSPropertyOp37
 70
     1
102
RTVSPropertyOp38
 70
     1
102
RTVSPropertyOp39
 70
     1
102
RTVSPropertyOp40
 70
     1
102
RTVSPropertyOp41
 70
     1
102
RTVSPropertyOp42
 70
     1
102
RTVSPropertyOp43
 70
     1
102
RTVSPropertyOp44
 70
     1
102
RTVSPropertyOp45
 70
     1
102
RTVSPropertyOp46
 70
     1
102
RTVSPropertyOp47
 70
     1
102
RTVSPropertyOp48
 70
     1
102
RTVSPropertyOp49
 70
     1
102
RTVSPropertyOp50
 70
     1
102
RTVSPropertyOp51
 70
     0
102
RTVSPropertyOp52
 70
     0
102
RTVSPropertyOp53
 70
     1
102
RTVSPropertyOp54
 70
     1
102
RTVSPropertyOp55
 70
     1
102
RTVSPropertyOp56
 70
     1
102
RTVSPropertyOp57
 70
     1
102
RTVSPropertyOp58
 70
     1
102
RTVSPropertyOp59
 70
     1
102
RTVSPropertyOp60
 70
     1
102
RTVSPropertyOp61
 70
     1
102
RTVSPropertyOp62
 70
     1
  0
XRECORD
  5
90C
102
{ACAD_REACTORS
330
90B
102
}
330
90B
100
AcDbXrecord
280
     1
102
RTVSPost2010Prop28
280
     0
102
RTVSPost2010PropOp28
 70
     1
102
RTVSPost2010Prop29
280
     1
102
RTVSPost2010PropOp29
 70
     1
102
RTVSPost2010Prop30
280
     1
102
RTVSPost2010PropOp30
 70
     1
102
RTVSPost2010Prop31
280
     0
102
RTVSPost2010PropOp31
 70
     1
102
RTVSPost2010Prop32
280
     0
102
RTVSPost2010PropOp32
 70
     1
102
RTVSPost2010Prop33
280
     0
102
RTVSPost2010PropOp33
 70
     1
102
RTVSPost2010Prop34
280
     0
102
RTVSPost2010PropOp34
 70
     1
102
RTVSPost2010Prop35
280
     0
102
RTVSPost2010PropOp35
 70
     1
102
RTVSPost2010Prop36
280
     0
102
RTVSPost2010PropOp36
 70
     1
102
RTVSPost2010Prop37
 90
       50
102
RTVSPost2010PropOp37
 70
     1
102
RTVSPost2010Prop38
140
0.0
102
RTVSPost2010PropOp38
 70
     1
102
RTVSPost2010Prop39
140
1.0
102
RTVSPost2010PropOp39
 70
     1
102
RTVSPost2010Prop40
 90
        0
102
RTVSPost2010PropOp40
 70
     1
102
RTVSPost2010Prop41ColorIndex
 90
       18
102
RTVSPost2010Prop41ColorRGB
 90
        0
102
RTVSPost2010PropOp41
 70
     1
102
RTVSPost2010Prop42
 90
       50
102
RTVSPost2010PropOp42
 70
     1
102
RTVSPost2010Prop43
 90
        3
102
RTVSPost2010PropOp43
 70
     1
102
RTVSPost2010Prop44ColorIndex
 90
        5
102
RTVSPost2010Prop44ColorRGB
 90
      255
102
RTVSPost2010PropOp44
 70
     1
102
RTVSPost2010Prop45
280
     0
102
RTVSPost2010PropOp45
 70
     1
102
RTVSPost2010Prop46
 90
       50
102
RTVSPost2010PropOp46
 70
     1
102
RTVSPost2010Prop47
 90
       50
102
RTVSPost2010PropOp47
 70
     1
102
RTVSPost2010Prop48
 90
       50
102
RTVSPost2010PropOp48
 70
     1
102
RTVSPost2010Prop49
280
     0
102
RTVSPost2010PropOp49
 70
     1
102
RTVSPost2010Prop50
 90
       50
102
RTVSPost2010PropOp50
 70
     1
102
RTVSPost2010Prop51ColorIndex
 90
      256
102
RTVSPost2010Prop51ColorRGB
 90
-16777216
102
RTVSPost2010PropOp51
 70
     0
102
RTVSPost2010Prop52
140
1.0
102
RTVSPost2010PropOp52
 70
     0
102
RTVSPost2010Prop53
 90
        2
102
RTVSPost2010PropOp53
 70
     1
102
RTVSPost2010Prop54
  1
strokes_ogs.tif
102
RTVSPost2010PropOp54
 70
     1
102
RTVSPost2010Prop55
280
     0
102
RTVSPost2010PropOp55
 70
     1
102
RTVSPost2010Prop56
140
1.0
102
RTVSPost2010PropOp56
 70
     1
102
RTVSPost2010Prop57
140
1.0
102
RTVSPost2010PropOp57
 70
     1
102
RTVSPropertyOp0
 70
     1
102
RTVSPropertyOp1
 70
     1
102
RTVSPropertyOp2
 70
     1
102
RTVSPropertyOp3
 70
     1
102
RTVSPropertyOp4
 70
     1
102
RTVSPropertyOp5
 70
     1
102
RTVSPropertyOp6
 70
     1
102
RTVSPropertyOp7
 70
     1
102
RTVSPropertyOp8
 70
     1
102
RTVSPropertyOp9
 70
     1
102
RTVSPropertyOp10
 70
     1
102
RTVSPropertyOp11
 70
     1
102
RTVSPropertyOp12
 70
     1
102
RTVSPropertyOp13
 70
     1
102
RTVSPropertyOp14
 70
     1
102
RTVSPropertyOp15
 70
     1
102
RTVSPropertyOp16
 70
     1
102
RTVSPropertyOp17
 70
     1
102
RTVSPropertyOp18
 70
     1
102
RTVSPropertyOp19
 70
     1
102
RTVSPropertyOp20
 70
     1
102
RTVSPropertyOp21
 70
     1
102
RTVSPropertyOp22
 70
     1
102
RTVSPropertyOp23
 70
     1
102
RTVSPropertyOp24
 70
     1
102
RTVSPropertyOp25
 70
     1
102
RTVSPropertyOp26
 70
     1
102
RTVSPropertyOp27
 70
     1
102
RTVSPropertyOp28
 70
     1
102
RTVSPropertyOp29
 70
     1
102
RTVSPropertyOp30
 70
     1
102
RTVSPropertyOp31
 70
     1
102
RTVSPropertyOp32
 70
     1
102
RTVSPropertyOp33
 70
     1
102
RTVSPropertyOp34
 70
     1
102
RTVSPropertyOp35
 70
     1
102
RTVSPropertyOp36
 70
     1
102
RTVSPropertyOp37
 70
     1
102
RTVSPropertyOp38
 70
     1
102
RTVSPropertyOp39
 70
     1
102
RTVSPropertyOp40
 70
     1
102
RTVSPropertyOp41
 70
     1
102
RTVSPropertyOp42
 70
     1
102
RTVSPropertyOp43
 70
     1
102
RTVSPropertyOp44
 70
     1
102
RTVSPropertyOp45
 70
     1
102
RTVSPropertyOp46
 70
     1
102
RTVSPropertyOp47
 70
     1
102
RTVSPropertyOp48
 70
     1
102
RTVSPropertyOp49
 70
     1
102
RTVSPropertyOp50
 70
     1
102
RTVSPropertyOp51
 70
     0
102
RTVSPropertyOp52
 70
     0
102
RTVSPropertyOp53
 70
     1
102
RTVSPropertyOp54
 70
     1
102
RTVSPropertyOp55
 70
     1
102
RTVSPropertyOp56
 70
     1
102
RTVSPropertyOp57
 70
     1
102
RTVSPropertyOp58
 70
     1
102
RTVSPropertyOp59
 70
     1
102
RTVSPropertyOp60
 70
     1
102
RTVSPropertyOp61
 70
     1
102
RTVSPropertyOp62
 70
     1
  0
ENDSEC
  0
EOF
