  0
SECTION
  2
HEADER
  9
$ACADVER
  1
AC1015
  9
$ACADMAINTVER
 70
    20
  9
$DWGCODEPAGE
  3
ANSI_932
  9
$INSBASE
 10
0.0
 20
0.0
 30
0.0
  9
$EXTMIN
 10
35.93615285726623
 20
16.06506361332208
 30
0.0
  9
$EXTMAX
 10
1400.622036872266
 20
1175.411808475185
 30
0.0
  9
$LIMMIN
 10
-486.3556890487671
 20
-634.5764923095702
  9
$LIMMAX
 10
802.7806824345386
 20
377.501220703125
  9
$ORTHOMODE
 70
     1
  9
$REGENMODE
 70
     1
  9
$FILLMODE
 70
     1
  9
$QTEXTMODE
 70
     0
  9
$MIRRTEXT
 70
     1
  9
$LTSCALE
 40
0.142181396484375
  9
$ATTMODE
 70
     1
  9
$TEXTSIZE
 40
2.5
  9
$TRACEWID
 40
1.0
  9
$TEXTSTYLE
  7
Standard
  9
$CLAYER
  8
0
  9
$CELTYPE
  6
ByLayer
  9
$CECOLOR
 62
   256
  9
$CELTSCALE
 40
1.0
  9
$DISPSILH
 70
     0
  9
$DIMSCALE
 40
1.0
  9
$DIMASZ
 40
2.5
  9
$DIMEXO
 40
0.625
  9
$DIMDLI
 40
3.75
  9
$DIMRND
 40
0.0
  9
$DIMDLE
 40
0.0
  9
$DIMEXE
 40
1.25
  9
$DIMTP
 40
0.0
  9
$DIMTM
 40
0.0
  9
$DIMTXT
 40
2.5
  9
$DIMCEN
 40
2.5
  9
$DIMTSZ
 40
0.0
  9
$DIMTOL
 70
     0
  9
$DIMLIM
 70
     0
  9
$DIMTIH
 70
     0
  9
$DIMTOH
 70
     0
  9
$DIMSE1
 70
     0
  9
$DIMSE2
 70
     0
  9
$DIMTAD
 70
     1
  9
$DIMZIN
 70
     0
  9
$DIMBLK
  1

  9
$DIMASO
 70
     1
  9
$DIMSHO
 70
     1
  9
$DIMPOST
  1

  9
$DIMAPOST
  1

  9
$DIMALT
 70
     0
  9
$DIMALTD
 70
     3
  9
$DIMALTF
 40
0.03937007874016
  9
$DIMLFAC
 40
1.0
  9
$DIMTOFL
 70
     1
  9
$DIMTVP
 40
0.0
  9
$DIMTIX
 70
     0
  9
$DIMSOXD
 70
     0
  9
$DIMSAH
 70
     0
  9
$DIMBLK1
  1

  9
$DIMBLK2
  1

  9
$DIMSTYLE
  2
Standard
  9
$DIMCLRD
 70
     0
  9
$DIMCLRE
 70
     0
  9
$DIMCLRT
 70
     0
  9
$DIMTFAC
 40
0.75
  9
$DIMGAP
 40
0.625
  9
$DIMJUST
 70
     0
  9
$DIMSD1
 70
     0
  9
$DIMSD2
 70
     0
  9
$DIMTOLJ
 70
     0
  9
$DIMTZIN
 70
     8
  9
$DIMALTZ
 70
     0
  9
$DIMALTTZ
 70
     0
  9
$DIMUPT
 70
     0
  9
$DIMDEC
 70
     2
  9
$DIMTDEC
 70
     2
  9
$DIMALTU
 70
     2
  9
$DIMALTTD
 70
     3
  9
$DIMTXSTY
  7
Standard
  9
$DIMAUNIT
 70
     0
  9
$DIMADEC
 70
     0
  9
$DIMALTRND
 40
0.0
  9
$DIMAZIN
 70
     0
  9
$DIMDSEP
 70
    46
  9
$DIMATFIT
 70
     3
  9
$DIMFRAC
 70
     0
  9
$DIMLDRBLK
  1

  9
$DIMLUNIT
 70
     2
  9
$DIMLWD
 70
    -2
  9
$DIMLWE
 70
    -2
  9
$DIMTMOVE
 70
     0
  9
$LUNITS
 70
     2
  9
$LUPREC
 70
     4
  9
$SKETCHINC
 40
1.0
  9
$FILLETRAD
 40
0.0
  9
$AUNITS
 70
     0
  9
$AUPREC
 70
     0
  9
$MENU
  1
.
  9
$ELEVATION
 40
0.0
  9
$PELEVATION
 40
0.0
  9
$THICKNESS
 40
0.0
  9
$LIMCHECK
 70
     0
  9
$CHAMFERA
 40
10.0
  9
$CHAMFERB
 40
10.0
  9
$CHAMFERC
 40
20.0
  9
$CHAMFERD
 40
0.0
  9
$SKPOLY
 70
     0
  9
$TDCREATE
 40
2455188.750000000
  9
$TDUCREATE
 40
2455188.375000000
  9
$TDUPDATE
 40
2459759.390780359
  9
$TDUUPDATE
 40
2459759.015780359
  9
$TDINDWG
 40
0.0421153935
  9
$TDUSRTIMER
 40
0.0421152315
  9
$USRTIMER
 70
     1
  9
$ANGBASE
 50
0.0
  9
$ANGDIR
 70
     0
  9
$PDMODE
 70
     0
  9
$PDSIZE
 40
0.0
  9
$PLINEWID
 40
0.0
  9
$SPLFRAME
 70
     0
  9
$SPLINETYPE
 70
     6
  9
$SPLINESEGS
 70
     8
  9
$HANDSEED
  5
76A
  9
$SURFTAB1
 70
     6
  9
$SURFTAB2
 70
     6
  9
$SURFTYPE
 70
     6
  9
$SURFU
 70
     6
  9
$SURFV
 70
     6
  9
$UCSBASE
  2

  9
$UCSNAME
  2

  9
$UCSORG
 10
0.0
 20
0.0
 30
0.0
  9
$UCSXDIR
 10
1.0
 20
0.0
 30
0.0
  9
$UCSYDIR
 10
0.0
 20
1.0
 30
0.0
  9
$UCSORTHOREF
  2

  9
$UCSORTHOVIEW
 70
     0
  9
$UCSORGTOP
 10
0.0
 20
0.0
 30
0.0
  9
$UCSORGBOTTOM
 10
0.0
 20
0.0
 30
0.0
  9
$UCSORGLEFT
 10
0.0
 20
0.0
 30
0.0
  9
$UCSORGRIGHT
 10
0.0
 20
0.0
 30
0.0
  9
$UCSORGFRONT
 10
0.0
 20
0.0
 30
0.0
  9
$UCSORGBACK
 10
0.0
 20
0.0
 30
0.0
  9
$PUCSBASE
  2

  9
$PUCSNAME
  2

  9
$PUCSORG
 10
0.0
 20
0.0
 30
0.0
  9
$PUCSXDIR
 10
1.0
 20
0.0
 30
0.0
  9
$PUCSYDIR
 10
0.0
 20
1.0
 30
0.0
  9
$PUCSORTHOREF
  2

  9
$PUCSORTHOVIEW
 70
     0
  9
$PUCSORGTOP
 10
0.0
 20
0.0
 30
0.0
  9
$PUCSORGBOTTOM
 10
0.0
 20
0.0
 30
0.0
  9
$PUCSORGLEFT
 10
0.0
 20
0.0
 30
0.0
  9
$PUCSORGRIGHT
 10
0.0
 20
0.0
 30
0.0
  9
$PUCSORGFRONT
 10
0.0
 20
0.0
 30
0.0
  9
$PUCSORGBACK
 10
0.0
 20
0.0
 30
0.0
  9
$USERI1
 70
     0
  9
$USERI2
 70
     0
  9
$USERI3
 70
     0
  9
$USERI4
 70
     0
  9
$USERI5
 70
     0
  9
$USERR1
 40
0.0
  9
$USERR2
 40
0.0
  9
$USERR3
 40
0.0
  9
$USERR4
 40
0.0
  9
$USERR5
 40
0.0
  9
$WORLDVIEW
 70
     1
  9
$SHADEDGE
 70
     3
  9
$SHADEDIF
 70
    70
  9
$TILEMODE
 70
     1
  9
$MAXACTVP
 70
    64
  9
$PINSBASE
 10
0.0
 20
0.0
 30
0.0
  9
$PLIMCHECK
 70
     0
  9
$PEXTMIN
 10
1.000000000000000E+20
 20
1.000000000000000E+20
 30
1.000000000000000E+20
  9
$PEXTMAX
 10
-1.000000000000000E+20
 20
-1.000000000000000E+20
 30
-1.000000000000000E+20
  9
$PLIMMIN
 10
0.0
 20
0.0
  9
$PLIMMAX
 10
420.0
 20
297.0
  9
$UNITMODE
 70
     0
  9
$VISRETAIN
 70
     1
  9
$PLINEGEN
 70
     0
  9
$PSLTSCALE
 70
     1
  9
$TREEDEPTH
 70
  3020
  9
$CMLSTYLE
  2
Standard
  9
$CMLJUST
 70
     0
  9
$CMLSCALE
 40
20.0
  9
$PROXYGRAPHICS
 70
     1
  9
$MEASUREMENT
 70
     1
  9
$CELWEIGHT
370
    -1
  9
$ENDCAPS
280
     0
  9
$JOINSTYLE
280
     0
  9
$LWDISPLAY
290
     0
  9
$INSUNITS
 70
     4
  9
$HYPERLINKBASE
  1

  9
$STYLESHEET
  1

  9
$XEDIT
290
     1
  9
$CEPSNTYPE
380
     0
  9
$PSTYLEMODE
290
     1
  9
$FINGERPRINTGUID
  2
{8E92CA69-6983-4FD4-A291-77545C3D5D55}
  9
$VERSIONGUID
  2
{B0531360-1058-4821-9CFB-531061F79669}
  9
$EXTNAMES
290
     1
  9
$PSVPSCALE
 40
0.0
  9
$OLESTARTUP
290
     0
  0
ENDSEC
  0
SECTION
  2
CLASSES
  0
CLASS
  1
ACDBDICTIONARYWDFLT
  2
AcDbDictionaryWithDefault
  3
ObjectDBX Classes
 90
        0
280
     0
281
     0
  0
CLASS
  1
VISUALSTYLE
  2
AcDbVisualStyle
  3
ObjectDBX Classes
 90
     4095
280
     0
281
     0
  0
CLASS
  1
MATERIAL
  2
AcDbMaterial
  3
ObjectDBX Classes
 90
     1153
280
     0
281
     0
  0
CLASS
  1
SCALE
  2
AcDbScale
  3
ObjectDBX Classes
 90
     1153
280
     0
281
     0
  0
CLASS
  1
TABLESTYLE
  2
AcDbTableStyle
  3
ObjectDBX Classes
 90
     4095
280
     0
281
     0
  0
CLASS
  1
MLEADERSTYLE
  2
AcDbMLeaderStyle
  3
ACDB_MLEADERSTYLE_CLASS
 90
     4095
280
     0
281
     0
  0
CLASS
  1
SUN
  2
AcDbSun
  3
SCENEOE
 90
    33921
280
     0
281
     0
  0
CLASS
  1
DICTIONARYVAR
  2
AcDbDictionaryVar
  3
ObjectDBX Classes
 90
        0
280
     0
281
     0
  0
CLASS
  1
ACDBSECTIONVIEWSTYLE
  2
AcDbSectionViewStyle
  3
ObjectDBX Classes
 90
     1025
280
     0
281
     0
  0
CLASS
  1
ACDBDETAILVIEWSTYLE
  2
AcDbDetailViewStyle
  3
ObjectDBX Classes
 90
     1025
280
     0
281
     0
  0
CLASS
  1
SORTENTSTABLE
  2
AcDbSortentsTable
  3
ObjectDBX Classes
 90
        0
280
     0
281
     0
  0
CLASS
  1
CELLSTYLEMAP
  2
AcDbCellStyleMap
  3
ObjectDBX Classes
 90
     1152
280
     0
281
     0
  0
CLASS
  1
ACDBPLACEHOLDER
  2
AcDbPlaceHolder
  3
ObjectDBX Classes
 90
        0
280
     0
281
     0
  0
CLASS
  1
LAYOUT
  2
AcDbLayout
  3
ObjectDBX Classes
 90
        0
280
     0
281
     0
  0
ENDSEC
  0
SECTION
  2
TABLES
  0
TABLE
  2
VPORT
  5
8
330
0
100
AcDbSymbolTable
 70
     1
  0
VPORT
  5
29
330
8
100
AcDbSymbolTableRecord
100
AcDbViewportTableRecord
  2
*Active
 70
     0
 10
0.0
 20
0.0
 11
1.0
 21
1.0
 12
937.5114953181078
 22
259.3038271471701
 13
0.0
 23
0.0
 14
10.0
 24
10.0
 15
10.0
 25
10.0
 16
0.0
 26
0.0
 36
1.0
 17
0.0
 27
0.0
 37
0.0
 40
1461.052274873124
 41
2.204301075268817
 42
50.0
 43
0.0
 44
0.0
 50
0.0
 51
0.0
 71
     0
 72
 20000
 73
     1
 74
     3
 75
     0
 76
     0
 77
     0
 78
     0
281
     0
 65
     1
110
0.0
120
0.0
130
0.0
111
1.0
121
0.0
131
0.0
112
0.0
122
1.0
132
0.0
 79
     0
146
0.0
1001
ACAD_NAV_VCDISPLAY
1070
     3
  0
ENDTAB
  0
TABLE
  2
LTYPE
  5
5
330
0
100
AcDbSymbolTable
 70
     2
  0
LTYPE
  5
14
330
5
100
AcDbSymbolTableRecord
100
AcDbLinetypeTableRecord
  2
ByBlock
 70
     0
  3

 72
    65
 73
     0
 40
0.0
  0
LTYPE
  5
15
330
5
100
AcDbSymbolTableRecord
100
AcDbLinetypeTableRecord
  2
ByLayer
 70
     0
  3

 72
    65
 73
     0
 40
0.0
  0
LTYPE
  5
16
330
5
100
AcDbSymbolTableRecord
100
AcDbLinetypeTableRecord
  2
Continuous
 70
     0
  3
Solid line
 72
    65
 73
     0
 40
0.0
  0
LTYPE
  5
36F
330
5
100
AcDbSymbolTableRecord
100
AcDbLinetypeTableRecord
  2
CENTER2
 70
     0
  3
Center (.5x) ___ _ ___ _ ___ _ ___ _ ___ _ ___
 72
    65
 73
     4
 40
28.575
 49
19.05
 74
     0
 49
-3.174999999999998
 74
     0
 49
3.174999999999998
 74
     0
 49
-3.174999999999998
 74
     0
  0
ENDTAB
  0
TABLE
  2
LAYER
  5
2
102
{ACAD_XDICTIONARY
360
375
102
}
330
0
100
AcDbSymbolTable
 70
     4
  0
LAYER
  5
10
102
{ACAD_XDICTIONARY
360
612
102
}
330
2
100
AcDbSymbolTableRecord
100
AcDbLayerTableRecord
  2
0
 70
     0
 62
     7
  6
Continuous
370
    -3
390
F
  0
LAYER
  5
66
330
2
100
AcDbSymbolTableRecord
100
AcDbLayerTableRecord
  2
Defpoints
 70
     0
 62
     7
  6
Continuous
290
     0
370
    -3
390
F
  0
LAYER
  5
370
102
{ACAD_XDICTIONARY
360
371
102
}
330
2
100
AcDbSymbolTableRecord
100
AcDbLayerTableRecord
  2
中心線
 70
     0
 62
     3
  6
CENTER2
370
    -3
390
F
  0
LAYER
  5
372
102
{ACAD_XDICTIONARY
360
373
102
}
330
2
100
AcDbSymbolTableRecord
100
AcDbLayerTableRecord
  2
実線
 70
     0
 62
     7
  6
Continuous
370
    -3
390
F
  0
ENDTAB
  0
TABLE
  2
STYLE
  5
3
330
0
100
AcDbSymbolTable
 70
     1
  0
STYLE
  5
11
330
3
100
AcDbSymbolTableRecord
100
AcDbTextStyleTableRecord
  2
Standard
 70
     0
 40
0.0
 41
1.0
 50
0.0
 71
     0
 42
2.5
  3
txt
  4
extfont2
  0
ENDTAB
  0
TABLE
  2
VIEW
  5
6
330
0
100
AcDbSymbolTable
 70
     0
  0
ENDTAB
  0
TABLE
  2
UCS
  5
7
330
0
100
AcDbSymbolTable
 70
     0
  0
ENDTAB
  0
TABLE
  2
APPID
  5
9
330
0
100
AcDbSymbolTable
 70
     5
  0
APPID
  5
12
330
9
100
AcDbSymbolTableRecord
100
AcDbRegAppTableRecord
  2
ACAD
 70
     0
  0
APPID
  5
211
330
9
100
AcDbSymbolTableRecord
100
AcDbRegAppTableRecord
  2
ACAD_MLEADERVER
 70
     0
  0
APPID
  5
374
330
9
100
AcDbSymbolTableRecord
100
AcDbRegAppTableRecord
  2
ACAD_NAV_VCDISPLAY
 70
     0
  0
APPID
  5
5F3
330
9
100
AcDbSymbolTableRecord
100
AcDbRegAppTableRecord
  2
ACAD_EXEMPT_FROM_CAD_STANDARDS
 70
     0
  0
APPID
  5
661
330
9
100
AcDbSymbolTableRecord
100
AcDbRegAppTableRecord
  2
ACAD_DSTYLE_DIMRADIAL_EXTENSION
 70
     0
  0
ENDTAB
  0
TABLE
  2
DIMSTYLE
  5
A
330
0
100
AcDbSymbolTable
 70
     1
100
AcDbDimStyleTable
 71
     1
340
27
  0
DIMSTYLE
105
27
330
A
100
AcDbSymbolTableRecord
100
AcDbDimStyleTableRecord
  2
Standard
 70
     0
 41
2.5
 42
0.625
 43
3.75
 44
1.25
 73
     0
 74
     0
 77
     1
140
2.5
141
2.5
143
0.03937007874016
146
0.75
147
0.625
171
     3
172
     1
271
     2
272
     2
274
     3
283
     0
284
     8
340
11
  0
ENDTAB
  0
TABLE
  2
BLOCK_RECORD
  5
1
330
0
100
AcDbSymbolTable
 70
     1
  0
BLOCK_RECORD
  5
1F
102
{ACAD_XDICTIONARY
360
263
102
}
330
1
100
AcDbSymbolTableRecord
100
AcDbBlockTableRecord
  2
*Model_Space
340
22
  0
BLOCK_RECORD
  5
1B
330
1
100
AcDbSymbolTableRecord
100
AcDbBlockTableRecord
  2
*Paper_Space
340
1E
  0
BLOCK_RECORD
  5
23
330
1
100
AcDbSymbolTableRecord
100
AcDbBlockTableRecord
  2
*Paper_Space0
340
21B
  0
ENDTAB
  0
ENDSEC
  0
SECTION
  2
BLOCKS
  0
BLOCK
  5
20
330
1F
100
AcDbEntity
  8
0
100
AcDbBlockBegin
  2
*Model_Space
 70
     0
 10
0.0
 20
0.0
 30
0.0
  3
*Model_Space
  1

  0
ENDBLK
  5
21
330
1F
100
AcDbEntity
  8
0
100
AcDbBlockEnd
  0
BLOCK
  5
1C
330
1B
100
AcDbEntity
 67
     1
  8
0
100
AcDbBlockBegin
  2
*Paper_Space
 70
     0
 10
0.0
 20
0.0
 30
0.0
  3
*Paper_Space
  1

  0
ENDBLK
  5
1D
330
1B
100
AcDbEntity
 67
     1
  8
0
100
AcDbBlockEnd
  0
BLOCK
  5
24
330
23
100
AcDbEntity
 67
     1
  8
0
100
AcDbBlockBegin
  2
*Paper_Space0
 70
     0
 10
0.0
 20
0.0
 30
0.0
  3
*Paper_Space0
  1

  0
ENDBLK
  5
25
330
23
100
AcDbEntity
 67
     1
  8
0
100
AcDbBlockEnd
  0
ENDSEC
  0
SECTION
  2
ENTITIES
  0
LINE
  5
221
102
{ACAD_REACTORS
330
611
102
}
330
1F
100
AcDbEntity
  8
実線
100
AcDbLine
 10
303.0189772517237
 20
90.66506361332233
 30
0.0
 11
355.9361528572663
 21
90.66506361332233
 31
0.0
  0
LINE
  5
222
102
{ACAD_REACTORS
330
611
102
}
330
1F
100
AcDbEntity
  8
実線
100
AcDbLine
 10
355.9361528572663
 20
141.4650636133223
 30
0.0
 11
303.0189772517237
 21
141.4650636133223
 31
0.0
  0
ELLIPSE
  5
223
102
{ACAD_REACTORS
330
611
102
}
330
1F
100
AcDbEntity
  8
実線
100
AcDbEllipse
 10
302.0546161308512
 20
116.0650636133223
 30
0.0
 11
0.0
 21
25.39999999999999
 31
0.0
210
0.0
220
0.0
230
1.0
 40
0.7071067811865475
 41
3.19733779505123
 42
6.227440165718149
  0
LINE
  5
224
102
{ACAD_REACTORS
330
611
102
}
330
1F
100
AcDbEntity
  8
実線
100
AcDbLine
 10
355.9361528572663
 20
97.52456739558352
 30
0.0
 11
355.9361528572663
 21
90.66506361332233
 31
0.0
  0
LINE
  5
225
102
{ACAD_REACTORS
330
611
102
}
330
1F
100
AcDbEntity
  8
実線
100
AcDbLine
 10
355.9361528572663
 20
141.4650636133223
 30
0.0
 11
355.9361528572663
 21
134.6055598310608
 31
0.0
  0
LINE
  5
226
102
{ACAD_REACTORS
330
611
102
}
330
1F
100
AcDbEntity
  8
実線
100
AcDbLine
 10
358.2070182623634
 20
141.4650636133223
 30
0.0
 11
355.9361528572663
 21
141.4650636133223
 31
0.0
  0
LINE
  5
227
102
{ACAD_REACTORS
330
611
102
}
330
1F
100
AcDbEntity
  8
実線
100
AcDbLine
 10
377.7288493055485
 20
141.4650636133223
 30
0.0
 11
375.7828213892568
 21
141.4650636133223
 31
0.0
  0
LINE
  5
228
102
{ACAD_REACTORS
330
611
102
}
330
1F
100
AcDbEntity
  8
実線
100
AcDbLine
 10
375.7828213892567
 20
90.66506361332233
 30
0.0
 11
377.7288493055485
 21
90.66506361332233
 31
0.0
  0
LINE
  5
229
102
{ACAD_REACTORS
330
611
102
}
330
1F
100
AcDbEntity
  8
実線
100
AcDbLine
 10
355.9361528572663
 20
90.66506361332233
 30
0.0
 11
358.2070182623632
 21
90.66506361332233
 31
0.0
  0
ELLIPSE
  5
22A
102
{ACAD_REACTORS
330
611
102
}
330
1F
100
AcDbEntity
  8
実線
100
AcDbEllipse
 10
302.0546161308514
 20
116.0650636133223
 30
0.0
 11
0.0
 21
25.40000000000002
 31
0.0
210
0.0
220
0.0
230
1.0
 40
0.7071067811865474
 41
3.197337795051211
 42
4.71238898038469
  0
ELLIPSE
  5
22B
102
{ACAD_REACTORS
330
611
102
}
330
1F
100
AcDbEntity
  8
実線
100
AcDbEllipse
 10
302.0546161308514
 20
116.0650636133223
 30
0.0
 11
0.0
 21
25.40000000000002
 31
0.0
210
0.0
220
0.0
230
1.0
 40
0.7071067811865474
 41
4.71238898038469
 42
6.227440165718164
  0
ELLIPSE
  5
22C
102
{ACAD_REACTORS
330
611
102
}
330
1F
100
AcDbEntity
  8
実線
100
AcDbEllipse
 10
287.2053737259339
 20
116.0650636133223
 30
0.0
 11
0.0000000000000036
 21
32.0
 31
0.0
210
0.0
220
0.0
230
1.0
 40
0.7071067811865475
 41
3.141592653589792
 42
4.71238898038469
  0
ELLIPSE
  5
22D
102
{ACAD_REACTORS
330
611
102
}
330
1F
100
AcDbEntity
  8
実線
100
AcDbEllipse
 10
289.2559833913749
 20
116.0650636133223
 30
0.0
 11
0.0000000000000036
 21
32.0
 31
0.0
210
0.0
220
0.0
230
1.0
 40
0.7071067811865475
 41
3.141592653589792
 42
4.71238898038469
  0
LINE
  5
22E
102
{ACAD_REACTORS
330
611
102
}
330
1F
100
AcDbEntity
  8
実線
100
AcDbLine
 10
287.2053737259339
 20
84.06506361332231
 30
0.0
 11
289.2559833913749
 21
84.06506361332231
 31
0.0
  0
LINE
  5
22F
102
{ACAD_REACTORS
330
611
102
}
330
1F
100
AcDbEntity
  8
実線
100
AcDbLine
 10
289.2559833913749
 20
148.0650636133223
 30
0.0
 11
287.2053737259339
 21
148.0650636133223
 31
0.0
  0
ELLIPSE
  5
230
102
{ACAD_REACTORS
330
611
102
}
330
1F
100
AcDbEntity
  8
実線
100
AcDbEllipse
 10
287.2053737259339
 20
116.0650636133223
 30
0.0
 11
0.0000000000000036
 21
32.0
 31
0.0
210
0.0
220
0.0
230
1.0
 40
0.7071067811865475
 41
0.0
 42
3.141592653589792
  0
ELLIPSE
  5
231
102
{ACAD_REACTORS
330
611
102
}
330
1F
100
AcDbEntity
  8
実線
100
AcDbEllipse
 10
287.2053737259339
 20
116.0650636133223
 30
0.0
 11
0.0000000000000036
 21
32.0
 31
0.0
210
0.0
220
0.0
230
1.0
 40
0.7071067811865475
 41
4.71238898038469
 42
6.283185307179584
  0
ELLIPSE
  5
232
102
{ACAD_REACTORS
330
611
102
}
330
1F
100
AcDbEntity
  8
実線
100
AcDbEllipse
 10
289.2559833913749
 20
116.0650636133223
 30
0.0
 11
0.0000000000000036
 21
32.0
 31
0.0
210
0.0
220
0.0
230
1.0
 40
0.7071067811865475
 41
4.71238898038469
 42
6.283185307179584
  0
LINE
  5
233
102
{ACAD_REACTORS
330
611
102
}
330
1F
100
AcDbEntity
  8
実線
100
AcDbLine
 10
405.8281337353353
 20
105.5670798734933
 30
0.0
 11
388.2381060744874
 21
75.10025825836271
 31
0.0
  0
LINE
  5
234
102
{ACAD_REACTORS
330
611
102
}
330
1F
100
AcDbEntity
  8
実線
100
AcDbLine
 10
423.148641811024
 20
95.5670798734933
 30
0.0
 11
405.558614150176
 21
65.10025825836271
 31
0.0
  0
LINE
  5
235
102
{ACAD_REACTORS
330
611
102
}
330
1F
100
AcDbEntity
  8
実線
100
AcDbLine
 10
423.148641811024
 20
136.563047353151
 30
0.0
 11
405.5586141501763
 21
167.0298689682816
 31
0.0
  0
LINE
  5
236
102
{ACAD_REACTORS
330
611
102
}
330
1F
100
AcDbEntity
  8
実線
100
AcDbLine
 10
405.8281337353353
 20
126.563047353151
 30
0.0
 11
388.2381060744874
 21
157.0298689682816
 31
0.0
  0
LINE
  5
237
102
{ACAD_REACTORS
330
611
102
}
330
1F
100
AcDbEntity
  8
実線
100
AcDbLine
 10
441.3316830254396
 20
126.0650636133221
 30
0.0
 11
476.5117383471356
 21
126.0650636133221
 31
0.0
  0
LINE
  5
238
102
{ACAD_REACTORS
330
611
102
}
330
1F
100
AcDbEntity
  8
実線
100
AcDbLine
 10
441.3316830254398
 20
106.0650636133221
 30
0.0
 11
476.5117383471356
 21
106.0650636133221
 31
0.0
  0
CIRCLE
  5
239
102
{ACAD_REACTORS
330
611
102
}
330
1F
100
AcDbEntity
  8
実線
100
AcDbCircle
 10
423.4361528572663
 20
116.0650636133221
 30
0.0
 40
20.5
  0
CIRCLE
  5
23A
102
{ACAD_REACTORS
330
611
102
}
330
1F
100
AcDbEntity
  8
実線
100
AcDbCircle
 10
423.4361528572663
 20
116.0650636133221
 30
0.0
 40
70.0
  0
ARC
  5
23B
102
{ACAD_REACTORS
330
611
102
}
330
1F
100
AcDbEntity
  8
実線
100
AcDbCircle
 10
423.4361528572663
 20
116.0650636133221
 30
0.0
 40
54.0
100
AcDbArc
 50
10.67192928576424
 51
109.3280707142348
  0
ARC
  5
23C
102
{ACAD_REACTORS
330
611
102
}
330
1F
100
AcDbEntity
  8
実線
100
AcDbCircle
 10
423.4361528572663
 20
116.0650636133221
 30
0.0
 40
54.0
100
AcDbArc
 50
130.6719292857659
 51
229.3280707142341
  0
ARC
  5
23D
102
{ACAD_REACTORS
330
611
102
}
330
1F
100
AcDbEntity
  8
実線
100
AcDbCircle
 10
423.4361528572663
 20
116.0650636133221
 30
0.0
 40
54.0
100
AcDbArc
 50
250.6719292857651
 51
349.3280707142357
  0
ARC
  5
23E
102
{ACAD_REACTORS
330
611
102
}
330
1F
100
AcDbEntity
  8
実線
100
AcDbCircle
 10
423.4361528572663
 20
116.0650636133221
 30
0.0
 40
25.0
100
AcDbArc
 50
23.57817847820053
 51
96.42182152179922
  0
ARC
  5
23F
102
{ACAD_REACTORS
330
611
102
}
330
1F
100
AcDbEntity
  8
実線
100
AcDbCircle
 10
423.4361528572663
 20
116.0650636133221
 30
0.0
 40
25.0
100
AcDbArc
 50
143.5781784782024
 51
216.4218215217975
  0
ARC
  5
240
102
{ACAD_REACTORS
330
611
102
}
330
1F
100
AcDbEntity
  8
実線
100
AcDbCircle
 10
423.4361528572663
 20
116.0650636133221
 30
0.0
 40
25.0
100
AcDbArc
 50
263.5781784782008
 51
336.421821521798
  0
LINE
  5
241
102
{ACAD_REACTORS
330
611
102
}
330
1F
100
AcDbEntity
  8
中心線
100
AcDbLine
 10
472.933627540327
 20
178.0625382963781
 30
0.0
 11
472.933627540327
 21
153.0625382963781
 31
0.0
  0
LINE
  5
242
102
{ACAD_REACTORS
330
611
102
}
330
1F
100
AcDbEntity
  8
中心線
100
AcDbLine
 10
460.433627540327
 20
165.5625382963781
 30
0.0
 11
485.433627540327
 21
165.5625382963781
 31
0.0
  0
ARC
  5
243
102
{ACAD_REACTORS
330
611
102
}
330
1F
100
AcDbEntity
  8
実線
100
AcDbCircle
 10
472.933627540327
 20
165.5625382963781
 30
0.0
 40
9.5
100
AcDbArc
 50
317.1218257848442
 51
132.8781742150313
  0
LINE
  5
244
102
{ACAD_REACTORS
330
611
102
}
330
1F
100
AcDbEntity
  8
中心線
100
AcDbLine
 10
373.9386781742053
 20
79.06758893026654
 30
0.0
 11
373.9386781742053
 21
54.06758893026648
 31
0.0
  0
LINE
  5
245
102
{ACAD_REACTORS
330
611
102
}
330
1F
100
AcDbEntity
  8
中心線
100
AcDbLine
 10
361.4386781742053
 20
66.56758893026648
 30
0.0
 11
386.4386781742053
 21
66.56758893026648
 31
0.0
  0
ARC
  5
246
102
{ACAD_REACTORS
330
611
102
}
330
1F
100
AcDbEntity
  8
実線
100
AcDbCircle
 10
373.9386781742053
 20
66.56758893026648
 30
0.0
 40
9.5
100
AcDbArc
 50
137.1218257848811
 51
312.8781742150775
  0
LINE
  5
247
102
{ACAD_REACTORS
330
611
102
}
330
1F
100
AcDbEntity
  8
中心線
100
AcDbLine
 10
373.9386781742105
 20
178.0625382963832
 30
0.0
 11
373.9386781742105
 21
153.0625382963832
 31
0.0
  0
LINE
  5
248
102
{ACAD_REACTORS
330
611
102
}
330
1F
100
AcDbEntity
  8
中心線
100
AcDbLine
 10
361.4386781742105
 20
165.5625382963832
 30
0.0
 11
386.4386781742105
 21
165.5625382963832
 31
0.0
  0
ARC
  5
249
102
{ACAD_REACTORS
330
611
102
}
330
1F
100
AcDbEntity
  8
実線
100
AcDbCircle
 10
373.9386781742105
 20
165.5625382963832
 30
0.0
 40
9.5
100
AcDbArc
 50
47.12182578484418
 51
222.8781742150682
  0
LINE
  5
24A
102
{ACAD_REACTORS
330
611
102
}
330
1F
100
AcDbEntity
  8
中心線
100
AcDbLine
 10
472.933627540322
 20
79.06758893026142
 30
0.0
 11
472.933627540322
 21
54.06758893026142
 31
0.0
  0
LINE
  5
24B
102
{ACAD_REACTORS
330
611
102
}
330
1F
100
AcDbEntity
  8
中心線
100
AcDbLine
 10
460.433627540322
 20
66.56758893026142
 30
0.0
 11
485.433627540322
 21
66.56758893026142
 31
0.0
  0
ARC
  5
24C
102
{ACAD_REACTORS
330
611
102
}
330
1F
100
AcDbEntity
  8
実線
100
AcDbCircle
 10
472.933627540322
 20
66.56758893026142
 30
0.0
 40
9.5
100
AcDbArc
 50
227.121825784835
 51
42.87817421505898
  0
ARC
  5
24D
102
{ACAD_REACTORS
330
611
102
}
330
1F
100
AcDbEntity
  8
実線
100
AcDbCircle
 10
423.4361528572661
 20
116.0650636133223
 30
0.0
 40
87.5
100
AcDbArc
 50
196.8750620911461
 51
163.1249379088538
  0
ARC
  5
24E
102
{ACAD_REACTORS
330
611
102
}
330
1F
100
AcDbEntity
  8
実線
100
AcDbCircle
 10
379.4650761145048
 20
162.568229205378
 30
0.0
 40
10.00000000000003
100
AcDbArc
 50
76.76390317404553
 51
133.3968902048164
  0
ARC
  5
24F
102
{ACAD_REACTORS
330
611
102
}
330
1F
100
AcDbEntity
  8
実線
100
AcDbCircle
 10
376.9329872652105
 20
160.0361403560837
 30
0.0
 40
9.999999999999976
100
AcDbArc
 50
136.6031097951836
 51
193.2360968259528
  0
LINE
  5
250
102
{ACAD_REACTORS
330
611
102
}
330
1F
100
AcDbEntity
  8
実線
100
AcDbLine
 10
376.6426615381521
 20
143.0163005082771
 30
0.0
 11
379.8447061345267
 21
138.4433069004652
 31
0.0
  0
ARC
  5
251
102
{ACAD_REACTORS
330
611
102
}
330
1F
100
AcDbEntity
  8
実線
100
AcDbCircle
 10
423.4361528572663
 20
116.0650636133223
 30
0.0
 40
73.99999999999984
100
AcDbArc
 50
133.3968902048164
 51
136.6031097951836
  0
LINE
  5
252
102
{ACAD_REACTORS
330
611
102
}
330
1F
100
AcDbEntity
  8
実線
100
AcDbLine
 10
445.8143961444092
 20
72.47361689058249
 30
0.0
 11
450.3873897522213
 21
69.27157229420789
 31
0.0
  0
ARC
  5
253
102
{ACAD_REACTORS
330
611
102
}
330
1F
100
AcDbEntity
  8
実線
100
AcDbCircle
 10
423.4361528572661
 20
116.0650636133223
 30
0.0
 40
74.00000000000019
100
AcDbArc
 50
313.3968902048164
 51
316.6031097951836
  0
ARC
  5
254
102
{ACAD_REACTORS
330
611
102
}
330
1F
100
AcDbEntity
  8
実線
100
AcDbCircle
 10
469.9393184493223
 20
72.0939868705604
 30
0.0
 40
10.00000000000001
100
AcDbArc
 50
316.6031097951836
 51
13.23609682595447
  0
ARC
  5
255
102
{ACAD_REACTORS
330
611
102
}
330
1F
100
AcDbEntity
  8
実線
100
AcDbCircle
 10
467.407229600028
 20
69.5618980212663
 30
0.0
 40
10.0
100
AcDbArc
 50
256.7639031740455
 51
313.3968902048164
  0
LINE
  5
256
102
{ACAD_REACTORS
330
611
102
}
330
1F
100
AcDbEntity
  8
実線
100
AcDbLine
 10
470.2296441763807
 20
89.11382671836713
 30
0.0
 11
467.0275995800058
 21
93.68682032617897
 31
0.0
  0
LINE
  5
257
102
{ACAD_REACTORS
330
611
102
}
330
1F
100
AcDbEntity
  8
実線
100
AcDbLine
 10
467.0275995800058
 20
138.4433069004652
 30
0.0
 11
470.2296441763807
 21
143.0163005082771
 31
0.0
  0
ARC
  5
258
102
{ACAD_REACTORS
330
611
102
}
330
1F
100
AcDbEntity
  8
実線
100
AcDbCircle
 10
469.9393184493223
 20
160.0361403560837
 30
0.0
 40
10.00000000000001
100
AcDbArc
 50
346.7639031740455
 51
43.39689020481638
  0
ARC
  5
259
102
{ACAD_REACTORS
330
611
102
}
330
1F
100
AcDbEntity
  8
実線
100
AcDbCircle
 10
423.4361528572661
 20
116.0650636133223
 30
0.0
 40
73.99999999999997
100
AcDbArc
 50
43.39689020481638
 51
46.60310979518362
  0
ARC
  5
25A
102
{ACAD_REACTORS
330
611
102
}
330
1F
100
AcDbEntity
  8
実線
100
AcDbCircle
 10
467.407229600028
 20
162.568229205378
 30
0.0
 40
10.00000000000001
100
AcDbArc
 50
46.60310979518362
 51
103.2360968259544
  0
LINE
  5
25B
102
{ACAD_REACTORS
330
611
102
}
330
1F
100
AcDbEntity
  8
実線
100
AcDbLine
 10
450.3873897522214
 20
162.8585549324363
 30
0.0
 11
445.8143961444094
 21
159.6565103360616
 31
0.0
  0
LINE
  5
25C
102
{ACAD_REACTORS
330
611
102
}
330
1F
100
AcDbEntity
  8
実線
100
AcDbLine
 10
379.8447061345267
 20
93.68682032617897
 30
0.0
 11
376.6426615381521
 21
89.11382671836713
 31
0.0
  0
ARC
  5
25D
102
{ACAD_REACTORS
330
611
102
}
330
1F
100
AcDbEntity
  8
実線
100
AcDbCircle
 10
376.9329872652105
 20
72.0939868705604
 30
0.0
 40
10.00000000000002
100
AcDbArc
 50
166.7639031740471
 51
223.3968902048164
  0
ARC
  5
25E
102
{ACAD_REACTORS
330
611
102
}
330
1F
100
AcDbEntity
  8
実線
100
AcDbCircle
 10
423.4361528572661
 20
116.0650636133223
 30
0.0
 40
74.00000000000003
100
AcDbArc
 50
223.3968902048164
 51
226.6031097951836
  0
ARC
  5
25F
102
{ACAD_REACTORS
330
611
102
}
330
1F
100
AcDbEntity
  8
実線
100
AcDbCircle
 10
379.4650761145048
 20
69.5618980212663
 30
0.0
 40
10.00000000000001
100
AcDbArc
 50
226.6031097951836
 51
283.2360968259544
  0
ARC
  5
260
102
{ACAD_REACTORS
330
611
102
}
330
1F
100
AcDbEntity
  8
実線
100
AcDbCircle
 10
423.4361528572663
 20
116.0650636133221
 30
0.0
 40
49.0
100
AcDbArc
 50
11.77574398586392
 51
108.2242560141341
  0
ARC
  5
261
102
{ACAD_REACTORS
330
611
102
}
330
1F
100
AcDbEntity
  8
実線
100
AcDbCircle
 10
423.4361528572663
 20
116.0650636133221
 30
0.0
 40
49.0
100
AcDbArc
 50
131.7757439858657
 51
228.2242560141343
  0
ARC
  5
262
102
{ACAD_REACTORS
330
611
102
}
330
1F
100
AcDbEntity
  8
実線
100
AcDbCircle
 10
423.4361528572663
 20
116.0650636133221
 30
0.0
 40
49.0
100
AcDbArc
 50
251.7757439858659
 51
348.2242560141361
  0
ELLIPSE
  5
265
102
{ACAD_REACTORS
330
60C
102
}
330
1F
100
AcDbEntity
  8
実線
100
AcDbEllipse
 10
302.0546161308512
 20
776.0650636133223
 30
0.0
 11
0.0
 21
25.39999999999999
 31
0.0
210
0.0
220
0.0
230
1.0
 40
0.7071067811865475
 41
0.0
 42
3.141592653589792
  0
LINE
  5
266
102
{ACAD_REACTORS
330
60C
102
}
330
1F
100
AcDbEntity
  8
実線
100
AcDbLine
 10
339.7039010065009
 20
801.4650636133222
 30
0.0
 11
302.0546161308512
 21
801.4650636133222
 31
0.0
  0
LINE
  5
267
102
{ACAD_REACTORS
330
60C
102
}
330
1F
100
AcDbEntity
  8
実線
100
AcDbLine
 10
302.0546161308512
 20
750.6650636133222
 30
0.0
 11
339.7039010065009
 21
750.6650636133222
 31
0.0
  0
LINE
  5
268
102
{ACAD_REACTORS
330
60C
102
}
330
1F
100
AcDbEntity
  8
実線
100
AcDbLine
 10
287.2053737259339
 20
744.0650636133223
 30
0.0
 11
289.2559833913749
 21
744.0650636133223
 31
0.0
  0
LINE
  5
269
102
{ACAD_REACTORS
330
60C
102
}
330
1F
100
AcDbEntity
  8
実線
100
AcDbLine
 10
289.2559833913749
 20
808.0650636133222
 30
0.0
 11
287.2053737259339
 21
808.0650636133222
 31
0.0
  0
ELLIPSE
  5
26A
102
{ACAD_REACTORS
330
60C
102
}
330
1F
100
AcDbEntity
  8
実線
100
AcDbEllipse
 10
287.2053737259339
 20
776.0650636133223
 30
0.0
 11
0.0000000000000036
 21
32.0
 31
0.0
210
0.0
220
0.0
230
1.0
 40
0.7071067811865475
 41
0.0
 42
3.141592653589792
  0
ELLIPSE
  5
26B
102
{ACAD_REACTORS
330
60C
102
}
330
1F
100
AcDbEntity
  8
実線
100
AcDbEllipse
 10
289.2559833913749
 20
776.0650636133223
 30
0.0
 11
0.0000000000000036
 21
32.0
 31
0.0
210
0.0
220
0.0
230
1.0
 40
0.7071067811865475
 41
0.0
 42
3.141592653589792
  0
ELLIPSE
  5
26C
102
{ACAD_REACTORS
330
60C
102
}
330
1F
100
AcDbEntity
  8
実線
100
AcDbEllipse
 10
289.2559833913749
 20
776.0650636133223
 30
0.0
 11
0.0000000000000036
 21
32.0
 31
0.0
210
0.0
220
0.0
230
1.0
 40
0.7071067811865475
 41
3.141592653589792
 42
3.795439261331498
  0
ELLIPSE
  5
26D
102
{ACAD_REACTORS
330
60C
102
}
330
1F
100
AcDbEntity
  8
実線
100
AcDbEllipse
 10
289.2559833913749
 20
776.0650636133223
 30
0.0
 11
0.0000000000000036
 21
32.0
 31
0.0
210
0.0
220
0.0
230
1.0
 40
0.7071067811865475
 41
5.629338699437878
 42
6.283185307179584
  0
LINE
  5
26E
102
{ACAD_REACTORS
330
60C
102
}
330
1F
100
AcDbEntity
  8
実線
100
AcDbLine
 10
290.9530396662226
 20
750.6650636133222
 30
0.0
 11
302.0546161308514
 21
750.6650636133222
 31
0.0
  0
LINE
  5
26F
102
{ACAD_REACTORS
330
60C
102
}
330
1F
100
AcDbEntity
  8
実線
100
AcDbLine
 10
302.0546161308514
 20
801.4650636133222
 30
0.0
 11
290.9530396662226
 21
801.4650636133222
 31
0.0
  0
ELLIPSE
  5
270
102
{ACAD_REACTORS
330
60C
102
}
330
1F
100
AcDbEntity
  8
実線
100
AcDbEllipse
 10
290.9530396662226
 20
776.0650636133223
 30
0.0
 11
0.0
 21
25.40000000000001
 31
0.0
210
0.0
220
0.0
230
1.0
 40
0.7071067811865475
 41
0.0
 42
3.141592653589792
  0
ELLIPSE
  5
271
102
{ACAD_REACTORS
330
60C
102
}
330
1F
100
AcDbEntity
  8
実線
100
AcDbEllipse
 10
302.0546161308514
 20
776.0650636133223
 30
0.0
 11
0.0
 21
25.40000000000002
 31
0.0
210
0.0
220
0.0
230
1.0
 40
0.7071067811865474
 41
0.0
 42
3.141592653589792
  0
LINE
  5
272
102
{ACAD_REACTORS
330
60C
102
}
330
1F
100
AcDbEntity
  8
中心線
100
AcDbLine
 10
373.9386781742053
 20
838.0625382963783
 30
0.0
 11
373.9386781742053
 21
813.0625382963783
 31
0.0
  0
LINE
  5
273
102
{ACAD_REACTORS
330
60C
102
}
330
1F
100
AcDbEntity
  8
中心線
100
AcDbLine
 10
361.4386781742053
 20
825.5625382963783
 30
0.0
 11
386.4386781742053
 21
825.5625382963783
 31
0.0
  0
CIRCLE
  5
274
102
{ACAD_REACTORS
330
60C
102
}
330
1F
100
AcDbEntity
  8
実線
100
AcDbCircle
 10
373.9386781742053
 20
825.5625382963783
 30
0.0
 40
9.5
  0
LINE
  5
275
102
{ACAD_REACTORS
330
60C
102
}
330
1F
100
AcDbEntity
  8
中心線
100
AcDbLine
 10
373.9386781742105
 20
739.0675889302613
 30
0.0
 11
373.9386781742105
 21
714.0675889302615
 31
0.0
  0
LINE
  5
276
102
{ACAD_REACTORS
330
60C
102
}
330
1F
100
AcDbEntity
  8
中心線
100
AcDbLine
 10
361.4386781742105
 20
726.5675889302613
 30
0.0
 11
386.4386781742105
 21
726.5675889302613
 31
0.0
  0
CIRCLE
  5
277
102
{ACAD_REACTORS
330
60C
102
}
330
1F
100
AcDbEntity
  8
実線
100
AcDbCircle
 10
373.9386781742105
 20
726.5675889302613
 30
0.0
 40
9.5
  0
LINE
  5
278
102
{ACAD_REACTORS
330
60C
102
}
330
1F
100
AcDbEntity
  8
中心線
100
AcDbLine
 10
472.933627540327
 20
739.0675889302664
 30
0.0
 11
472.933627540327
 21
714.0675889302666
 31
0.0
  0
LINE
  5
279
102
{ACAD_REACTORS
330
60C
102
}
330
1F
100
AcDbEntity
  8
中心線
100
AcDbLine
 10
460.433627540327
 20
726.5675889302664
 30
0.0
 11
485.433627540327
 21
726.5675889302664
 31
0.0
  0
CIRCLE
  5
27A
102
{ACAD_REACTORS
330
60C
102
}
330
1F
100
AcDbEntity
  8
実線
100
AcDbCircle
 10
472.933627540327
 20
726.5675889302664
 30
0.0
 40
9.5
  0
LINE
  5
27B
102
{ACAD_REACTORS
330
60C
102
}
330
1F
100
AcDbEntity
  8
中心線
100
AcDbLine
 10
472.933627540322
 20
838.0625382963833
 30
0.0
 11
472.933627540322
 21
813.0625382963833
 31
0.0
  0
LINE
  5
27C
102
{ACAD_REACTORS
330
60C
102
}
330
1F
100
AcDbEntity
  8
中心線
100
AcDbLine
 10
460.433627540322
 20
825.5625382963833
 30
0.0
 11
485.433627540322
 21
825.5625382963833
 31
0.0
  0
CIRCLE
  5
27D
102
{ACAD_REACTORS
330
60C
102
}
330
1F
100
AcDbEntity
  8
実線
100
AcDbCircle
 10
472.933627540322
 20
825.5625382963833
 30
0.0
 40
9.5
  0
CIRCLE
  5
27E
102
{ACAD_REACTORS
330
60C
102
}
330
1F
100
AcDbEntity
  8
実線
100
AcDbCircle
 10
423.4361528572661
 20
776.0650636133223
 30
0.0
 40
87.5
  0
ARC
  5
27F
102
{ACAD_REACTORS
330
60C
102
}
330
1F
100
AcDbEntity
  8
実線
100
AcDbCircle
 10
469.9393184493222
 20
820.0361403560842
 30
0.0
 40
9.999999999999976
100
AcDbArc
 50
354.6189009678565
 51
43.39689020481638
  0
ARC
  5
280
102
{ACAD_REACTORS
330
60C
102
}
330
1F
100
AcDbEntity
  8
実線
100
AcDbCircle
 10
423.4361528572663
 20
776.0650636133223
 30
0.0
 40
73.99999999999984
100
AcDbArc
 50
43.39689020481638
 51
46.60310979518362
  0
ARC
  5
281
102
{ACAD_REACTORS
330
60C
102
}
330
1F
100
AcDbEntity
  8
実線
100
AcDbCircle
 10
467.4072296000278
 20
822.5682292053784
 30
0.0
 40
10.00000000000003
100
AcDbArc
 50
46.60310979518362
 51
95.38109903226125
  0
ARC
  5
282
102
{ACAD_REACTORS
330
60C
102
}
330
1F
100
AcDbEntity
  8
実線
100
AcDbCircle
 10
379.4650761145045
 20
822.5682292053784
 30
0.0
 40
10.00000000000001
100
AcDbArc
 50
84.61890096783694
 51
133.3968902048164
  0
ARC
  5
283
102
{ACAD_REACTORS
330
60C
102
}
330
1F
100
AcDbEntity
  8
実線
100
AcDbCircle
 10
423.4361528572663
 20
776.0650636133223
 30
0.0
 40
73.99999999999997
100
AcDbArc
 50
133.3968902048164
 51
136.6031097951836
  0
ARC
  5
284
102
{ACAD_REACTORS
330
60C
102
}
330
1F
100
AcDbEntity
  8
実線
100
AcDbCircle
 10
376.9329872652105
 20
820.0361403560842
 30
0.0
 40
10.00000000000001
100
AcDbArc
 50
136.6031097951836
 51
185.3810990322154
  0
ARC
  5
285
102
{ACAD_REACTORS
330
60C
102
}
330
1F
100
AcDbEntity
  8
実線
100
AcDbCircle
 10
469.9393184493222
 20
732.0939868705602
 30
0.0
 40
10.00000000000002
100
AcDbArc
 50
316.6031097951836
 51
5.381099032254609
  0
ARC
  5
286
102
{ACAD_REACTORS
330
60C
102
}
330
1F
100
AcDbEntity
  8
実線
100
AcDbCircle
 10
467.4072296000278
 20
729.5618980212663
 30
0.0
 40
10.00000000000001
100
AcDbArc
 50
264.6189009678892
 51
313.3968902048164
  0
ARC
  5
287
102
{ACAD_REACTORS
330
60C
102
}
330
1F
100
AcDbEntity
  8
実線
100
AcDbCircle
 10
423.4361528572663
 20
776.0650636133223
 30
0.0
 40
74.00000000000003
100
AcDbArc
 50
313.3968902048164
 51
316.6031097951836
  0
ARC
  5
288
102
{ACAD_REACTORS
330
60C
102
}
330
1F
100
AcDbEntity
  8
実線
100
AcDbCircle
 10
376.9329872652105
 20
732.0939868705602
 30
0.0
 40
10.00000000000001
100
AcDbArc
 50
174.61890096785
 51
223.3968902048164
  0
ARC
  5
289
102
{ACAD_REACTORS
330
60C
102
}
330
1F
100
AcDbEntity
  8
実線
100
AcDbCircle
 10
423.4361528572663
 20
776.0650636133223
 30
0.0
 40
74.00000000000019
100
AcDbArc
 50
223.3968902048164
 51
226.6031097951836
  0
ARC
  5
28A
102
{ACAD_REACTORS
330
60C
102
}
330
1F
100
AcDbEntity
  8
実線
100
AcDbCircle
 10
379.4650761145045
 20
729.5618980212663
 30
0.0
 40
10.0
100
AcDbArc
 50
226.6031097951836
 51
275.3810990322546
  0
ARC
  5
28B
102
{ACAD_REACTORS
330
60D
102
}
330
1F
100
AcDbEntity
  8
実線
100
AcDbCircle
 10
1014.858639162503
 20
412.3650636133221
 30
0.0
 40
101.6
100
AcDbArc
 50
45.0
 51
90.0
  0
ARC
  5
28C
102
{ACAD_REACTORS
330
60D
102
}
330
1F
100
AcDbEntity
  8
実線
100
AcDbCircle
 10
1014.858639162503
 20
412.3650636133221
 30
0.0
 40
50.80000000000001
100
AcDbArc
 50
45.0
 51
90.0
  0
LINE
  5
28D
102
{ACAD_REACTORS
330
60D
102
}
330
1F
100
AcDbEntity
  8
実線
100
AcDbLine
 10
1014.858639162503
 20
513.9650636133222
 30
0.0
 11
1014.858639162503
 21
463.1650636133223
 31
0.0
  0
LINE
  5
28E
102
{ACAD_REACTORS
330
60D
102
}
330
1F
100
AcDbEntity
  8
実線
100
AcDbLine
 10
1003.861804754559
 20
463.1650636133223
 30
0.0
 11
1014.858639162503
 21
463.1650636133223
 31
0.0
  0
LINE
  5
28F
102
{ACAD_REACTORS
330
60D
102
}
330
1F
100
AcDbEntity
  8
実線
100
AcDbLine
 10
1014.858639162503
 20
513.9650636133222
 30
0.0
 11
990.430676012153
 21
513.9650636133222
 31
0.0
  0
LINE
  5
290
102
{ACAD_REACTORS
330
60D
102
}
330
1F
100
AcDbEntity
  8
実線
100
AcDbLine
 10
1050.779663646779
 20
448.2860880975988
 30
0.0
 11
1086.700688131056
 21
484.2071125818753
 31
0.0
  0
LINE
  5
291
102
{ACAD_REACTORS
330
60D
102
}
330
1F
100
AcDbEntity
  8
実線
100
AcDbLine
 10
1097.802264595685
 20
473.1055361172467
 30
0.0
 11
1086.700688131056
 21
484.2071125818753
 31
0.0
  0
LINE
  5
292
102
{ACAD_REACTORS
330
60D
102
}
330
1F
100
AcDbEntity
  8
実線
100
AcDbLine
 10
1050.779663646779
 20
448.2860880975988
 30
0.0
 11
1061.881240111408
 21
437.1845116329699
 31
0.0
  0
LINE
  5
293
102
{ACAD_REACTORS
330
60D
102
}
330
1F
100
AcDbEntity
  8
実線
100
AcDbLine
 10
1061.881240111408
 20
437.1845116329699
 30
0.0
 11
1097.802264595685
 21
473.1055361172467
 31
0.0
  0
LINE
  5
294
102
{ACAD_REACTORS
330
60D
102
}
330
1F
100
AcDbEntity
  8
実線
100
AcDbLine
 10
1061.881240111408
 20
437.1845116329699
 30
0.0
 11
1058.911391630425
 21
430.8205506022911
 31
0.0
  0
LINE
  5
295
102
{ACAD_REACTORS
330
60D
102
}
330
1F
100
AcDbEntity
  8
実線
100
AcDbLine
 10
1104.166225626364
 20
476.0753845982301
 30
0.0
 11
1097.802264595685
 21
473.1055361172467
 31
0.0
  0
LINE
  5
296
102
{ACAD_REACTORS
330
60D
102
}
330
1F
100
AcDbEntity
  8
実線
100
AcDbLine
 10
1060.962001295866
 20
428.7699409368502
 30
0.0
 11
1106.216835291805
 21
474.0247749327892
 31
0.0
  0
LINE
  5
297
102
{ACAD_REACTORS
330
60D
102
}
330
1F
100
AcDbEntity
  8
実線
100
AcDbLine
 10
1058.911391630425
 20
430.8205506022911
 30
0.0
 11
1104.166225626364
 21
476.0753845982301
 31
0.0
  0
LINE
  5
298
102
{ACAD_REACTORS
330
60D
102
}
330
1F
100
AcDbEntity
  8
実線
100
AcDbLine
 10
1106.216835291805
 20
474.0247749327892
 30
0.0
 11
1104.166225626364
 21
476.0753845982301
 31
0.0
  0
LINE
  5
299
102
{ACAD_REACTORS
330
60D
102
}
330
1F
100
AcDbEntity
  8
実線
100
AcDbLine
 10
1058.911391630425
 20
430.8205506022911
 30
0.0
 11
1060.962001295866
 21
428.7699409368502
 31
0.0
  0
LINE
  5
29A
102
{ACAD_REACTORS
330
60D
102
}
330
1F
100
AcDbEntity
  8
実線
100
AcDbLine
 10
947.6461502087449
 20
345.8353484262408
 30
0.0
 11
956.6370245305812
 21
337.0650636133223
 31
0.0
  0
LINE
  5
29B
102
{ACAD_REACTORS
330
60D
102
}
330
1F
100
AcDbEntity
  8
実線
100
AcDbLine
 10
984.209051814166
 20
337.0650636133223
 30
0.0
 11
964.9666582844341
 21
355.8353484262408
 31
0.0
  0
LINE
  5
29C
102
{ACAD_REACTORS
330
60D
102
}
330
1F
100
AcDbEntity
  8
実線
100
AcDbLine
 10
966.8885437384769
 20
337.0650636133223
 30
0.0
 11
947.6461502087449
 21
355.8353484262408
 31
0.0
  0
LINE
  5
29D
102
{ACAD_REACTORS
330
60D
102
}
330
1F
100
AcDbEntity
  8
実線
100
AcDbLine
 10
929.463108994329
 20
345.8353484262408
 30
0.0
 11
911.4813603506579
 21
337.0650636133223
 31
0.0
  0
LINE
  5
29E
102
{ACAD_REACTORS
330
60D
102
}
330
1F
100
AcDbEntity
  8
実線
100
AcDbLine
 10
890.9783219348652
 20
337.0650636133223
 30
0.0
 11
929.463108994329
 21
355.8353484262408
 31
0.0
  0
LINE
  5
29F
102
{ACAD_REACTORS
330
60D
102
}
330
1F
100
AcDbEntity
  8
実線
100
AcDbLine
 10
926.8586391625031
 20
358.0650636133223
 30
0.0
 11
967.858639162503
 21
358.0650636133223
 31
0.0
  0
LINE
  5
2A0
102
{ACAD_REACTORS
330
60D
102
}
330
1F
100
AcDbEntity
  8
実線
100
AcDbLine
 10
926.8586391625031
 20
344.5650636133223
 30
0.0
 11
926.8586391625031
 21
341.0650636133223
 31
0.0
  0
LINE
  5
2A1
102
{ACAD_REACTORS
330
60D
102
}
330
1F
100
AcDbEntity
  8
実線
100
AcDbLine
 10
926.8586391625031
 20
358.0650636133223
 30
0.0
 11
926.8586391625031
 21
354.5650636133223
 31
0.0
  0
LINE
  5
2A2
102
{ACAD_REACTORS
330
60D
102
}
330
1F
100
AcDbEntity
  8
実線
100
AcDbLine
 10
967.858639162503
 20
353.0143217867537
 30
0.0
 11
967.858639162503
 21
358.0650636133223
 31
0.0
  0
LINE
  5
2A3
102
{ACAD_REACTORS
330
60D
102
}
330
1F
100
AcDbEntity
  8
実線
100
AcDbLine
 10
926.8586391625031
 20
341.0650636133223
 30
0.0
 11
952.536416847422
 21
341.0650636133223
 31
0.0
  0
LINE
  5
2A4
102
{ACAD_REACTORS
330
60D
102
}
330
1F
100
AcDbEntity
  8
実線
100
AcDbLine
 10
885.3586391625031
 20
321.0650636133223
 30
0.0
 11
1009.358639162503
 21
321.0650636133223
 31
0.0
  0
LINE
  5
2A5
102
{ACAD_REACTORS
330
60D
102
}
330
1F
100
AcDbEntity
  8
実線
100
AcDbLine
 10
1009.358639162503
 20
337.0650636133223
 30
0.0
 11
885.3586391625031
 21
337.0650636133223
 31
0.0
  0
ARC
  5
2A6
102
{ACAD_REACTORS
330
60D
102
}
330
1F
100
AcDbEntity
  8
実線
100
AcDbCircle
 10
885.3586391625031
 20
329.0650636133223
 30
0.0
 40
8.0
100
AcDbArc
 50
90.0
 51
270.0
  0
ARC
  5
2A7
102
{ACAD_REACTORS
330
60D
102
}
330
1F
100
AcDbEntity
  8
実線
100
AcDbCircle
 10
1009.358639162503
 20
329.0650636133223
 30
0.0
 40
8.0
100
AcDbArc
 50
270.0
 51
90.0
  0
LINE
  5
2A8
102
{ACAD_REACTORS
330
60D
102
}
330
1F
100
AcDbEntity
  8
実線
100
AcDbLine
 10
931.3586391625031
 20
372.2650636133224
 30
0.0
 11
931.3586391625031
 21
358.0650636133223
 31
0.0
  0
LINE
  5
2A9
102
{ACAD_REACTORS
330
60D
102
}
330
1F
100
AcDbEntity
  8
実線
100
AcDbLine
 10
963.358639162503
 20
358.0650636133223
 30
0.0
 11
963.358639162503
 21
372.2650636133224
 31
0.0
  0
LINE
  5
2AA
102
{ACAD_REACTORS
330
60D
102
}
330
1F
100
AcDbEntity
  8
実線
100
AcDbLine
 10
927.458639162503
 20
389.7650636133223
 30
0.0
 11
927.458639162503
 21
372.2650636133224
 31
0.0
  0
LINE
  5
2AB
102
{ACAD_REACTORS
330
60D
102
}
330
1F
100
AcDbEntity
  8
実線
100
AcDbLine
 10
967.2586391625021
 20
372.2650636133224
 30
0.0
 11
967.2586391625021
 21
389.7650636133223
 31
0.0
  0
LINE
  5
2AC
102
{ACAD_REACTORS
330
60D
102
}
330
1F
100
AcDbEntity
  8
実線
100
AcDbLine
 10
927.458639162503
 20
372.2650636133224
 30
0.0
 11
967.2586391625021
 21
372.2650636133224
 31
0.0
  0
LINE
  5
2AD
102
{ACAD_REACTORS
330
60D
102
}
330
1F
100
AcDbEntity
  8
実線
100
AcDbLine
 10
922.3586391625032
 20
439.0650636133222
 30
0.0
 11
922.3586391625032
 21
389.7650636133223
 31
0.0
  0
LINE
  5
2AE
102
{ACAD_REACTORS
330
60D
102
}
330
1F
100
AcDbEntity
  8
実線
100
AcDbLine
 10
972.3586391625032
 20
389.7650636133223
 30
0.0
 11
972.3586391625032
 21
439.0650636133222
 31
0.0
  0
LINE
  5
2AF
102
{ACAD_REACTORS
330
60D
102
}
330
1F
100
AcDbEntity
  8
実線
100
AcDbLine
 10
922.3586391625032
 20
389.7650636133223
 30
0.0
 11
972.3586391625032
 21
389.7650636133223
 31
0.0
  0
LINE
  5
2B0
102
{ACAD_REACTORS
330
60D
102
}
330
1F
100
AcDbEntity
  8
実線
100
AcDbLine
 10
1034.858639162503
 20
536.0650636133223
 30
0.0
 11
859.8586391625032
 21
536.0650636133223
 31
0.0
  0
LINE
  5
2B1
102
{ACAD_REACTORS
330
60D
102
}
330
1F
100
AcDbEntity
  8
実線
100
AcDbLine
 10
859.8586391625032
 20
518.0650636133221
 30
0.0
 11
1034.858639162503
 21
518.0650636133221
 31
0.0
  0
LINE
  5
2B2
102
{ACAD_REACTORS
330
60D
102
}
330
1F
100
AcDbEntity
  8
実線
100
AcDbLine
 10
1034.858639162503
 20
518.0650636133221
 30
0.0
 11
1034.858639162503
 21
536.0650636133223
 31
0.0
  0
LINE
  5
2B3
102
{ACAD_REACTORS
330
60D
102
}
330
1F
100
AcDbEntity
  8
実線
100
AcDbLine
 10
859.8586391625032
 20
536.0650636133223
 30
0.0
 11
859.8586391625032
 21
518.0650636133221
 31
0.0
  0
LINE
  5
2B4
102
{ACAD_REACTORS
330
60D
102
}
330
1F
100
AcDbEntity
  8
実線
100
AcDbLine
 10
898.3586391625031
 20
501.0650636133221
 30
0.0
 11
898.3586391625031
 21
469.0650636133223
 31
0.0
  0
ARC
  5
2B5
102
{ACAD_REACTORS
330
60D
102
}
330
1F
100
AcDbEntity
  8
実線
100
AcDbCircle
 10
979.358639162503
 20
501.0650636133221
 30
0.0
 40
17.0
100
AcDbArc
 50
49.36059232723332
 51
90.0
  0
ARC
  5
2B6
102
{ACAD_REACTORS
330
60D
102
}
330
1F
100
AcDbEntity
  8
実線
100
AcDbCircle
 10
915.3586391625031
 20
501.0650636133221
 30
0.0
 40
17.0
100
AcDbArc
 50
90.0
 51
180.0
  0
LINE
  5
2B7
102
{ACAD_REACTORS
330
60D
102
}
330
1F
100
AcDbEntity
  8
実線
100
AcDbLine
 10
890.8554735704472
 20
469.0650636133223
 30
0.0
 11
924.98039587536
 21
469.0650636133223
 31
0.0
  0
LINE
  5
2B8
102
{ACAD_REACTORS
330
60D
102
}
330
1F
100
AcDbEntity
  8
実線
100
AcDbLine
 10
890.8554735704472
 20
469.0650636133223
 30
0.0
 11
890.8554735704472
 21
454.0650636133222
 31
0.0
  0
LINE
  5
2B9
102
{ACAD_REACTORS
330
60D
102
}
330
1F
100
AcDbEntity
  8
実線
100
AcDbLine
 10
1003.861804754559
 20
454.0650636133222
 30
0.0
 11
1003.861804754559
 21
469.0650636133223
 31
0.0
  0
LINE
  5
2BA
102
{ACAD_REACTORS
330
60D
102
}
330
1F
100
AcDbEntity
  8
実線
100
AcDbLine
 10
1003.861804754559
 20
469.0650636133223
 30
0.0
 11
969.7368824496461
 21
469.0650636133223
 31
0.0
  0
LINE
  5
2BB
102
{ACAD_REACTORS
330
60D
102
}
330
1F
100
AcDbEntity
  8
実線
100
AcDbLine
 10
969.7368824496461
 20
454.0650636133222
 30
0.0
 11
969.7368824496461
 21
469.0650636133223
 31
0.0
  0
LINE
  5
2BC
102
{ACAD_REACTORS
330
60D
102
}
330
1F
100
AcDbEntity
  8
実線
100
AcDbLine
 10
924.98039587536
 20
454.0650636133222
 30
0.0
 11
924.98039587536
 21
469.0650636133223
 31
0.0
  0
LINE
  5
2BD
102
{ACAD_REACTORS
330
60D
102
}
330
1F
100
AcDbEntity
  8
実線
100
AcDbLine
 10
1003.861804754558
 20
454.0650636133222
 30
0.0
 11
890.8554735704472
 21
454.0650636133222
 31
0.0
  0
LINE
  5
2BE
102
{ACAD_REACTORS
330
60D
102
}
330
1F
100
AcDbEntity
  8
実線
100
AcDbLine
 10
898.3586391625031
 20
439.0650636133222
 30
0.0
 11
996.358639162503
 21
439.0650636133222
 31
0.0
  0
LINE
  5
2BF
102
{ACAD_REACTORS
330
60D
102
}
330
1F
100
AcDbEntity
  8
実線
100
AcDbLine
 10
996.358639162503
 20
439.0650636133222
 30
0.0
 11
996.358639162503
 21
444.0650636133223
 31
0.0
  0
LINE
  5
2C0
102
{ACAD_REACTORS
330
60D
102
}
330
1F
100
AcDbEntity
  8
実線
100
AcDbLine
 10
898.3586391625031
 20
444.0650636133223
 30
0.0
 11
898.3586391625031
 21
439.0650636133222
 31
0.0
  0
LINE
  5
2C1
102
{ACAD_REACTORS
330
60D
102
}
330
1F
100
AcDbEntity
  8
実線
100
AcDbLine
 10
890.8554735704472
 20
444.0650636133223
 30
0.0
 11
924.98039587536
 21
444.0650636133223
 31
0.0
  0
LINE
  5
2C2
102
{ACAD_REACTORS
330
60D
102
}
330
1F
100
AcDbEntity
  8
実線
100
AcDbLine
 10
890.8554735704472
 20
454.0650636133222
 30
0.0
 11
890.8554735704472
 21
444.0650636133223
 31
0.0
  0
LINE
  5
2C3
102
{ACAD_REACTORS
330
60D
102
}
330
1F
100
AcDbEntity
  8
実線
100
AcDbLine
 10
1003.861804754558
 20
444.0650636133223
 30
0.0
 11
1003.861804754558
 21
454.0650636133222
 31
0.0
  0
LINE
  5
2C4
102
{ACAD_REACTORS
330
60D
102
}
330
1F
100
AcDbEntity
  8
実線
100
AcDbLine
 10
1003.861804754558
 20
444.0650636133223
 30
0.0
 11
969.7368824496461
 21
444.0650636133223
 31
0.0
  0
LINE
  5
2C5
102
{ACAD_REACTORS
330
60D
102
}
330
1F
100
AcDbEntity
  8
実線
100
AcDbLine
 10
969.7368824496461
 20
444.0650636133223
 30
0.0
 11
969.7368824496461
 21
454.0650636133222
 31
0.0
  0
LINE
  5
2C6
102
{ACAD_REACTORS
330
60D
102
}
330
1F
100
AcDbEntity
  8
実線
100
AcDbLine
 10
924.98039587536
 20
444.0650636133223
 30
0.0
 11
924.98039587536
 21
454.0650636133222
 31
0.0
  0
ELLIPSE
  5
2C7
102
{ACAD_REACTORS
330
60E
102
}
330
1F
100
AcDbEntity
  8
実線
100
AcDbEllipse
 10
700.898823183499
 20
451.3973579348197
 30
0.0
 11
32.0
 21
0.0
 31
0.0
210
0.0
220
0.0
230
1.0
 40
0.7071067811865476
 41
5.60905480051228
 42
5.706777635287003
  0
ELLIPSE
  5
2C8
102
{ACAD_REACTORS
330
60E
102
}
330
1F
100
AcDbEntity
  8
実線
100
AcDbEllipse
 10
700.898823183499
 20
451.3973579348197
 30
0.0
 11
32.0
 21
0.0
 31
0.0
210
0.0
220
0.0
230
1.0
 40
0.7071067811865476
 41
3.718000325482377
 42
3.815723160257115
  0
LINE
  5
2C9
102
{ACAD_REACTORS
330
60E
102
}
330
1F
100
AcDbEntity
  8
実線
100
AcDbLine
 10
719.8669972040761
 20
341.0650636133223
 30
0.0
 11
726.9694580532139
 21
337.0650636133223
 31
0.0
  0
LINE
  5
2CA
102
{ACAD_REACTORS
330
60E
102
}
330
1F
100
AcDbEntity
  8
実線
100
AcDbLine
 10
754.725610176059
 20
337.0650636133223
 30
0.0
 11
721.3988231834995
 21
355.8342128985898
 31
0.0
  0
LINE
  5
2CB
102
{ACAD_REACTORS
330
60E
102
}
330
1F
100
AcDbEntity
  8
実線
100
AcDbLine
 10
721.3988231834995
 20
345.8342128985898
 30
0.0
 11
736.9694580532143
 21
337.0650636133223
 31
0.0
  0
LINE
  5
2CC
102
{ACAD_REACTORS
330
60E
102
}
330
1F
100
AcDbEntity
  8
実線
100
AcDbLine
 10
681.9306491629227
 20
341.0650636133223
 30
0.0
 11
674.8281883137847
 21
337.0650636133223
 31
0.0
  0
LINE
  5
2CD
102
{ACAD_REACTORS
330
60E
102
}
330
1F
100
AcDbEntity
  8
実線
100
AcDbLine
 10
647.0720361909398
 20
337.0650636133223
 30
0.0
 11
680.3988231834993
 21
355.8342128985898
 31
0.0
  0
LINE
  5
2CE
102
{ACAD_REACTORS
330
60E
102
}
330
1F
100
AcDbEntity
  8
実線
100
AcDbLine
 10
680.3988231834993
 20
345.8342128985898
 30
0.0
 11
664.8281883137847
 21
337.0650636133223
 31
0.0
  0
LINE
  5
2CF
102
{ACAD_REACTORS
330
60E
102
}
330
1F
100
AcDbEntity
  8
実線
100
AcDbLine
 10
710.8988231834995
 20
337.0650636133223
 30
0.0
 11
710.8988231834995
 21
355.8353484262408
 31
0.0
  0
LINE
  5
2D0
102
{ACAD_REACTORS
330
60E
102
}
330
1F
100
AcDbEntity
  8
実線
100
AcDbLine
 10
690.8988231834995
 20
337.0650636133223
 30
0.0
 11
690.8988231834995
 21
355.8353484262408
 31
0.0
  0
LINE
  5
2D1
102
{ACAD_REACTORS
330
60E
102
}
330
1F
100
AcDbEntity
  8
実線
100
AcDbLine
 10
721.3988231834995
 20
358.0650636133223
 30
0.0
 11
680.3988231834993
 21
358.0650636133223
 31
0.0
  0
LINE
  5
2D2
102
{ACAD_REACTORS
330
60E
102
}
330
1F
100
AcDbEntity
  8
実線
100
AcDbLine
 10
710.8988231834995
 20
341.0650636133223
 30
0.0
 11
721.3988231834995
 21
341.0650636133223
 31
0.0
  0
LINE
  5
2D3
102
{ACAD_REACTORS
330
60E
102
}
330
1F
100
AcDbEntity
  8
実線
100
AcDbLine
 10
680.3988231834993
 20
341.0650636133223
 30
0.0
 11
690.8988231834995
 21
341.0650636133223
 31
0.0
  0
LINE
  5
2D4
102
{ACAD_REACTORS
330
60E
102
}
330
1F
100
AcDbEntity
  8
実線
100
AcDbLine
 10
680.3988231834993
 20
358.0650636133223
 30
0.0
 11
680.3988231834993
 21
341.0650636133223
 31
0.0
  0
LINE
  5
2D5
102
{ACAD_REACTORS
330
60E
102
}
330
1F
100
AcDbEntity
  8
実線
100
AcDbLine
 10
721.3988231834995
 20
341.0650636133223
 30
0.0
 11
721.3988231834995
 21
358.0650636133223
 31
0.0
  0
LINE
  5
2D6
102
{ACAD_REACTORS
330
60E
102
}
330
1F
100
AcDbEntity
  8
実線
100
AcDbLine
 10
638.8988231834993
 20
321.0650636133223
 30
0.0
 11
762.8988231834995
 21
321.0650636133223
 31
0.0
  0
LINE
  5
2D7
102
{ACAD_REACTORS
330
60E
102
}
330
1F
100
AcDbEntity
  8
実線
100
AcDbLine
 10
762.8988231834995
 20
337.0650636133223
 30
0.0
 11
638.8988231834993
 21
337.0650636133223
 31
0.0
  0
ARC
  5
2D8
102
{ACAD_REACTORS
330
60E
102
}
330
1F
100
AcDbEntity
  8
実線
100
AcDbCircle
 10
638.8988231834993
 20
329.0650636133223
 30
0.0
 40
8.0
100
AcDbArc
 50
90.0
 51
270.0
  0
ARC
  5
2D9
102
{ACAD_REACTORS
330
60E
102
}
330
1F
100
AcDbEntity
  8
実線
100
AcDbCircle
 10
762.8988231834995
 20
329.0650636133223
 30
0.0
 40
8.0
100
AcDbArc
 50
270.0
 51
90.0
  0
LINE
  5
2DA
102
{ACAD_REACTORS
330
60E
102
}
330
1F
100
AcDbEntity
  8
実線
100
AcDbLine
 10
684.8988231834993
 20
372.2650636133224
 30
0.0
 11
684.8988231834993
 21
358.0650636133223
 31
0.0
  0
LINE
  5
2DB
102
{ACAD_REACTORS
330
60E
102
}
330
1F
100
AcDbEntity
  8
実線
100
AcDbLine
 10
716.8988231834995
 20
358.0650636133223
 30
0.0
 11
716.8988231834995
 21
372.2650636133224
 31
0.0
  0
LINE
  5
2DC
102
{ACAD_REACTORS
330
60E
102
}
330
1F
100
AcDbEntity
  8
実線
100
AcDbLine
 10
680.9988231834994
 20
372.2650636133224
 30
0.0
 11
720.7988231834994
 21
372.2650636133224
 31
0.0
  0
LINE
  5
2DD
102
{ACAD_REACTORS
330
60E
102
}
330
1F
100
AcDbEntity
  8
実線
100
AcDbLine
 10
680.9988231834994
 20
389.7650636133223
 30
0.0
 11
680.9988231834994
 21
372.2650636133224
 31
0.0
  0
LINE
  5
2DE
102
{ACAD_REACTORS
330
60E
102
}
330
1F
100
AcDbEntity
  8
実線
100
AcDbLine
 10
720.7988231834994
 20
372.2650636133224
 30
0.0
 11
720.7988231834994
 21
389.7650636133223
 31
0.0
  0
LINE
  5
2DF
102
{ACAD_REACTORS
330
60E
102
}
330
1F
100
AcDbEntity
  8
実線
100
AcDbLine
 10
675.8988231834995
 20
389.7650636133223
 30
0.0
 11
725.8988231834995
 21
389.7650636133223
 31
0.0
  0
LINE
  5
2E0
102
{ACAD_REACTORS
330
60E
102
}
330
1F
100
AcDbEntity
  8
実線
100
AcDbLine
 10
675.8988231834995
 20
439.0650636133222
 30
0.0
 11
675.8988231834995
 21
389.7650636133223
 31
0.0
  0
LINE
  5
2E1
102
{ACAD_REACTORS
330
60E
102
}
330
1F
100
AcDbEntity
  8
実線
100
AcDbLine
 10
725.8988231834995
 20
389.7650636133223
 30
0.0
 11
725.8988231834995
 21
439.0650636133222
 31
0.0
  0
LINE
  5
2E2
102
{ACAD_REACTORS
330
60E
102
}
330
1F
100
AcDbEntity
  8
実線
100
AcDbLine
 10
788.398823183499
 20
518.0650636133221
 30
0.0
 11
613.3988231834991
 21
518.0650636133221
 31
0.0
  0
LINE
  5
2E3
102
{ACAD_REACTORS
330
60E
102
}
330
1F
100
AcDbEntity
  8
実線
100
AcDbLine
 10
788.398823183499
 20
518.0650636133221
 30
0.0
 11
788.398823183499
 21
536.0650636133223
 31
0.0
  0
LINE
  5
2E4
102
{ACAD_REACTORS
330
60E
102
}
330
1F
100
AcDbEntity
  8
実線
100
AcDbLine
 10
613.3988231834991
 20
536.0650636133223
 30
0.0
 11
613.3988231834991
 21
518.0650636133221
 31
0.0
  0
LINE
  5
2E5
102
{ACAD_REACTORS
330
60E
102
}
330
1F
100
AcDbEntity
  8
実線
100
AcDbLine
 10
788.398823183499
 20
536.0650636133223
 30
0.0
 11
613.3988231834991
 21
536.0650636133223
 31
0.0
  0
LINE
  5
2E6
102
{ACAD_REACTORS
330
60E
102
}
330
1F
100
AcDbEntity
  8
実線
100
AcDbLine
 10
749.898823183499
 20
469.0650636133223
 30
0.0
 11
749.898823183499
 21
501.0650636133221
 31
0.0
  0
LINE
  5
2E7
102
{ACAD_REACTORS
330
60E
102
}
330
1F
100
AcDbEntity
  8
実線
100
AcDbLine
 10
651.8988231834992
 20
501.0650636133221
 30
0.0
 11
651.8988231834992
 21
469.0650636133223
 31
0.0
  0
ARC
  5
2E8
102
{ACAD_REACTORS
330
60E
102
}
330
1F
100
AcDbEntity
  8
実線
100
AcDbCircle
 10
732.8988231834991
 20
501.0650636133221
 30
0.0
 40
17.0
100
AcDbArc
 50
0.0
 51
90.0
  0
ARC
  5
2E9
102
{ACAD_REACTORS
330
60E
102
}
330
1F
100
AcDbEntity
  8
実線
100
AcDbCircle
 10
668.898823183499
 20
501.0650636133221
 30
0.0
 40
17.0
100
AcDbArc
 50
90.0
 51
180.0
  0
LINE
  5
2EA
102
{ACAD_REACTORS
330
60E
102
}
330
1F
100
AcDbEntity
  8
実線
100
AcDbLine
 10
757.4019887755549
 20
454.0650636133222
 30
0.0
 11
757.4019887755549
 21
469.0650636133223
 31
0.0
  0
LINE
  5
2EB
102
{ACAD_REACTORS
330
60E
102
}
330
1F
100
AcDbEntity
  8
実線
100
AcDbLine
 10
757.4019887755549
 20
469.0650636133223
 30
0.0
 11
723.2770664706422
 21
469.0650636133223
 31
0.0
  0
LINE
  5
2EC
102
{ACAD_REACTORS
330
60E
102
}
330
1F
100
AcDbEntity
  8
実線
100
AcDbLine
 10
644.3956575914434
 20
469.0650636133223
 30
0.0
 11
678.5205798963561
 21
469.0650636133223
 31
0.0
  0
LINE
  5
2ED
102
{ACAD_REACTORS
330
60E
102
}
330
1F
100
AcDbEntity
  8
実線
100
AcDbLine
 10
644.3956575914434
 20
469.0650636133223
 30
0.0
 11
644.3956575914434
 21
454.0650636133222
 31
0.0
  0
LINE
  5
2EE
102
{ACAD_REACTORS
330
60E
102
}
330
1F
100
AcDbEntity
  8
実線
100
AcDbLine
 10
678.5205798963561
 20
454.0650636133222
 30
0.0
 11
678.5205798963561
 21
469.0650636133223
 31
0.0
  0
LINE
  5
2EF
102
{ACAD_REACTORS
330
60E
102
}
330
1F
100
AcDbEntity
  8
実線
100
AcDbLine
 10
723.2770664706422
 20
454.0650636133222
 30
0.0
 11
723.2770664706422
 21
469.0650636133223
 31
0.0
  0
LINE
  5
2F0
102
{ACAD_REACTORS
330
60E
102
}
330
1F
100
AcDbEntity
  8
実線
100
AcDbLine
 10
644.3956575914435
 20
454.0650636133222
 30
0.0
 11
757.4019887755553
 21
454.0650636133222
 31
0.0
  0
LINE
  5
2F1
102
{ACAD_REACTORS
330
60E
102
}
330
1F
100
AcDbEntity
  8
実線
100
AcDbLine
 10
749.8988231834995
 20
439.0650636133222
 30
0.0
 11
651.8988231834993
 21
439.0650636133222
 31
0.0
  0
LINE
  5
2F2
102
{ACAD_REACTORS
330
60E
102
}
330
1F
100
AcDbEntity
  8
実線
100
AcDbLine
 10
749.8988231834995
 20
439.0650636133222
 30
0.0
 11
749.8988231834995
 21
444.0650636133223
 31
0.0
  0
LINE
  5
2F3
102
{ACAD_REACTORS
330
60E
102
}
330
1F
100
AcDbEntity
  8
実線
100
AcDbLine
 10
651.8988231834993
 20
444.0650636133223
 30
0.0
 11
651.8988231834993
 21
439.0650636133222
 31
0.0
  0
LINE
  5
2F4
102
{ACAD_REACTORS
330
60E
102
}
330
1F
100
AcDbEntity
  8
実線
100
AcDbLine
 10
757.4019887755553
 20
444.0650636133223
 30
0.0
 11
757.4019887755553
 21
454.0650636133222
 31
0.0
  0
LINE
  5
2F5
102
{ACAD_REACTORS
330
60E
102
}
330
1F
100
AcDbEntity
  8
実線
100
AcDbLine
 10
757.4019887755553
 20
444.0650636133223
 30
0.0
 11
723.2770664706424
 21
444.0650636133223
 31
0.0
  0
LINE
  5
2F6
102
{ACAD_REACTORS
330
60E
102
}
330
1F
100
AcDbEntity
  8
実線
100
AcDbLine
 10
644.3956575914435
 20
444.0650636133223
 30
0.0
 11
678.5205798963564
 21
444.0650636133223
 31
0.0
  0
LINE
  5
2F7
102
{ACAD_REACTORS
330
60E
102
}
330
1F
100
AcDbEntity
  8
実線
100
AcDbLine
 10
644.3956575914435
 20
454.0650636133222
 30
0.0
 11
644.3956575914435
 21
444.0650636133223
 31
0.0
  0
LINE
  5
2F8
102
{ACAD_REACTORS
330
60E
102
}
330
1F
100
AcDbEntity
  8
実線
100
AcDbLine
 10
723.2770664706424
 20
444.0650636133223
 30
0.0
 11
723.2770664706424
 21
454.0650636133222
 31
0.0
  0
LINE
  5
2F9
102
{ACAD_REACTORS
330
60E
102
}
330
1F
100
AcDbEntity
  8
実線
100
AcDbLine
 10
678.5205798963564
 20
444.0650636133223
 30
0.0
 11
678.5205798963564
 21
454.0650636133222
 31
0.0
  0
ARC
  5
2FA
102
{ACAD_REACTORS
330
610
102
}
330
1F
100
AcDbEntity
  8
実線
100
AcDbCircle
 10
123.4361528572661
 20
488.5650636133221
 30
0.0
 40
25.39999999999999
100
AcDbArc
 50
0.0
 51
180.0
  0
LINE
  5
2FB
102
{ACAD_REACTORS
330
610
102
}
330
1F
100
AcDbEntity
  8
実線
100
AcDbLine
 10
98.03615285726619
 20
488.5650636133221
 30
0.0
 11
98.03615285726619
 21
467.2109614606094
 31
0.0
  0
LINE
  5
2FC
102
{ACAD_REACTORS
330
610
102
}
330
1F
100
AcDbEntity
  8
実線
100
AcDbLine
 10
148.8361528572661
 20
467.2109614606096
 30
0.0
 11
148.8361528572661
 21
488.5650636133221
 31
0.0
  0
ELLIPSE
  5
2FD
102
{ACAD_REACTORS
330
610
102
}
330
1F
100
AcDbEntity
  8
実線
100
AcDbEllipse
 10
123.4361528572661
 20
466.2466003397372
 30
0.0
 11
25.39999999999999
 21
0.0
 31
0.0
210
0.0
220
0.0
230
1.0
 40
0.7071067811865476
 41
0.0557451414614292
 42
3.085847512128362
  0
ELLIPSE
  5
2FE
102
{ACAD_REACTORS
330
610
102
}
330
1F
100
AcDbEntity
  8
実線
100
AcDbEllipse
 10
123.4361528572661
 20
466.2466003397372
 30
0.0
 11
25.40000000000002
 21
0.0
 31
0.0
210
0.0
220
0.0
230
1.0
 40
0.7071067811865476
 41
0.0557451414614233
 42
3.08584751212837
  0
ELLIPSE
  5
2FF
102
{ACAD_REACTORS
330
610
102
}
330
1F
100
AcDbEntity
  8
実線
100
AcDbEllipse
 10
123.4361528572661
 20
451.3973579348197
 30
0.0
 11
32.0
 21
0.0
 31
0.0
210
0.0
220
0.0
230
1.0
 40
0.7071067811865476
 41
3.141592653589792
 42
4.71238898038469
  0
LINE
  5
300
102
{ACAD_REACTORS
330
610
102
}
330
1F
100
AcDbEntity
  8
実線
100
AcDbLine
 10
155.4361528572662
 20
451.3973579348197
 30
0.0
 11
155.4361528572662
 21
453.4479676002605
 31
0.0
  0
LINE
  5
301
102
{ACAD_REACTORS
330
610
102
}
330
1F
100
AcDbEntity
  8
実線
100
AcDbLine
 10
91.43615285726616
 20
453.4479676002605
 30
0.0
 11
91.43615285726616
 21
451.3973579348197
 31
0.0
  0
ELLIPSE
  5
302
102
{ACAD_REACTORS
330
610
102
}
330
1F
100
AcDbEntity
  8
実線
100
AcDbEllipse
 10
123.4361528572661
 20
451.3973579348197
 30
0.0
 11
32.0
 21
0.0
 31
0.0
210
0.0
220
0.0
230
1.0
 40
0.7071067811865476
 41
0.0
 42
3.141592653589792
  0
ELLIPSE
  5
303
102
{ACAD_REACTORS
330
610
102
}
330
1F
100
AcDbEntity
  8
実線
100
AcDbEllipse
 10
123.4361528572661
 20
451.3973579348197
 30
0.0
 11
32.0
 21
0.0
 31
0.0
210
0.0
220
0.0
230
1.0
 40
0.7071067811865476
 41
4.71238898038469
 42
6.283185307179584
  0
ELLIPSE
  5
304
102
{ACAD_REACTORS
330
610
102
}
330
1F
100
AcDbEntity
  8
実線
100
AcDbEllipse
 10
123.4361528572661
 20
453.4479676002605
 30
0.0
 11
32.0
 21
0.0
 31
0.0
210
0.0
220
0.0
230
1.0
 40
0.7071067811865476
 41
0.0
 42
3.141592653589792
  0
LINE
  5
305
102
{ACAD_REACTORS
330
610
102
}
330
1F
100
AcDbEntity
  8
実線
100
AcDbLine
 10
112.9381691174371
 20
345.8353484262408
 30
0.0
 11
97.36551798755142
 21
337.0650636133223
 31
0.0
  0
LINE
  5
306
102
{ACAD_REACTORS
330
610
102
}
330
1F
100
AcDbEntity
  8
実線
100
AcDbLine
 10
79.60936586470643
 20
337.0650636133223
 30
0.0
 11
112.9381691174371
 21
355.8353484262408
 31
0.0
  0
LINE
  5
307
102
{ACAD_REACTORS
330
610
102
}
330
1F
100
AcDbEntity
  8
実線
100
AcDbLine
 10
69.60936586470643
 20
337.0650636133223
 30
0.0
 11
102.9381691174371
 21
355.8353484262408
 31
0.0
  0
LINE
  5
308
102
{ACAD_REACTORS
330
610
102
}
330
1F
100
AcDbEntity
  8
実線
100
AcDbLine
 10
177.2629398498256
 20
337.0650636133223
 30
0.0
 11
143.9341365970949
 21
355.8353484262408
 31
0.0
  0
LINE
  5
309
102
{ACAD_REACTORS
330
610
102
}
330
1F
100
AcDbEntity
  8
実線
100
AcDbLine
 10
133.9341365970949
 20
345.8353484262408
 30
0.0
 11
149.5067877269807
 21
337.0650636133223
 31
0.0
  0
LINE
  5
30A
102
{ACAD_REACTORS
330
610
102
}
330
1F
100
AcDbEntity
  8
実線
100
AcDbLine
 10
167.2629398498256
 20
337.0650636133223
 30
0.0
 11
133.9341365970949
 21
355.8353484262408
 31
0.0
  0
LINE
  5
30B
102
{ACAD_REACTORS
330
610
102
}
330
1F
100
AcDbEntity
  8
実線
100
AcDbLine
 10
113.436152857266
 20
341.0650636133223
 30
0.0
 11
113.436152857266
 21
337.0650636133223
 31
0.0
  0
LINE
  5
30C
102
{ACAD_REACTORS
330
610
102
}
330
1F
100
AcDbEntity
  8
実線
100
AcDbLine
 10
133.436152857266
 20
341.0650636133223
 30
0.0
 11
133.436152857266
 21
337.0650636133223
 31
0.0
  0
LINE
  5
30D
102
{ACAD_REACTORS
330
610
102
}
330
1F
100
AcDbEntity
  8
実線
100
AcDbLine
 10
102.936152857266
 20
358.0650636133223
 30
0.0
 11
102.936152857266
 21
355.8342128985898
 31
0.0
  0
LINE
  5
30E
102
{ACAD_REACTORS
330
610
102
}
330
1F
100
AcDbEntity
  8
実線
100
AcDbLine
 10
143.936152857266
 20
355.8342128985898
 30
0.0
 11
143.936152857266
 21
358.0650636133223
 31
0.0
  0
LINE
  5
30F
102
{ACAD_REACTORS
330
610
102
}
330
1F
100
AcDbEntity
  8
実線
100
AcDbLine
 10
104.4679788366893
 20
341.0650636133223
 30
0.0
 11
142.4043268778426
 21
341.0650636133223
 31
0.0
  0
LINE
  5
310
102
{ACAD_REACTORS
330
610
102
}
330
1F
100
AcDbEntity
  8
実線
100
AcDbLine
 10
102.936152857266
 20
358.0650636133223
 30
0.0
 11
143.936152857266
 21
358.0650636133223
 31
0.0
  0
LINE
  5
311
102
{ACAD_REACTORS
330
610
102
}
330
1F
100
AcDbEntity
  8
実線
100
AcDbLine
 10
61.43615285726602
 20
321.0650636133223
 30
0.0
 11
185.436152857266
 21
321.0650636133223
 31
0.0
  0
LINE
  5
312
102
{ACAD_REACTORS
330
610
102
}
330
1F
100
AcDbEntity
  8
実線
100
AcDbLine
 10
185.436152857266
 20
337.0650636133223
 30
0.0
 11
61.43615285726602
 21
337.0650636133223
 31
0.0
  0
ARC
  5
313
102
{ACAD_REACTORS
330
610
102
}
330
1F
100
AcDbEntity
  8
実線
100
AcDbCircle
 10
61.43615285726602
 20
329.0650636133223
 30
0.0
 40
8.0
100
AcDbArc
 50
90.0
 51
270.0
  0
ARC
  5
314
102
{ACAD_REACTORS
330
610
102
}
330
1F
100
AcDbEntity
  8
実線
100
AcDbCircle
 10
185.436152857266
 20
329.0650636133223
 30
0.0
 40
8.0
100
AcDbArc
 50
270.0
 51
90.0
  0
LINE
  5
315
102
{ACAD_REACTORS
330
610
102
}
330
1F
100
AcDbEntity
  8
実線
100
AcDbLine
 10
107.436152857266
 20
372.2650636133224
 30
0.0
 11
107.436152857266
 21
358.0650636133223
 31
0.0
  0
LINE
  5
316
102
{ACAD_REACTORS
330
610
102
}
330
1F
100
AcDbEntity
  8
実線
100
AcDbLine
 10
139.436152857266
 20
358.0650636133223
 30
0.0
 11
139.436152857266
 21
372.2650636133224
 31
0.0
  0
LINE
  5
317
102
{ACAD_REACTORS
330
610
102
}
330
1F
100
AcDbEntity
  8
実線
100
AcDbLine
 10
103.536152857266
 20
389.7650636133223
 30
0.0
 11
103.536152857266
 21
372.2650636133224
 31
0.0
  0
LINE
  5
318
102
{ACAD_REACTORS
330
610
102
}
330
1F
100
AcDbEntity
  8
実線
100
AcDbLine
 10
143.336152857266
 20
372.2650636133224
 30
0.0
 11
143.336152857266
 21
389.7650636133223
 31
0.0
  0
LINE
  5
319
102
{ACAD_REACTORS
330
610
102
}
330
1F
100
AcDbEntity
  8
実線
100
AcDbLine
 10
103.536152857266
 20
372.2650636133224
 30
0.0
 11
143.336152857266
 21
372.2650636133224
 31
0.0
  0
LINE
  5
31A
102
{ACAD_REACTORS
330
610
102
}
330
1F
100
AcDbEntity
  8
実線
100
AcDbLine
 10
98.43615285726606
 20
437.2729110429943
 30
0.0
 11
98.43615285726606
 21
389.7650636133223
 31
0.0
  0
LINE
  5
31B
102
{ACAD_REACTORS
330
610
102
}
330
1F
100
AcDbEntity
  8
実線
100
AcDbLine
 10
148.436152857266
 20
389.7650636133223
 30
0.0
 11
148.436152857266
 21
437.2729110429937
 31
0.0
  0
LINE
  5
31C
102
{ACAD_REACTORS
330
610
102
}
330
1F
100
AcDbEntity
  8
実線
100
AcDbLine
 10
98.43615285726606
 20
389.7650636133223
 30
0.0
 11
148.436152857266
 21
389.7650636133223
 31
0.0
  0
LINE
  5
31D
102
{ACAD_REACTORS
330
610
102
}
330
1F
100
AcDbEntity
  8
実線
100
AcDbLine
 10
35.93615285726623
 20
536.0650636133223
 30
0.0
 11
210.9361528572662
 21
536.0650636133223
 31
0.0
  0
LINE
  5
31E
102
{ACAD_REACTORS
330
610
102
}
330
1F
100
AcDbEntity
  8
実線
100
AcDbLine
 10
210.9361528572662
 20
518.0650636133221
 30
0.0
 11
210.9361528572662
 21
536.0650636133223
 31
0.0
  0
LINE
  5
31F
102
{ACAD_REACTORS
330
610
102
}
330
1F
100
AcDbEntity
  8
実線
100
AcDbLine
 10
35.93615285726623
 20
536.0650636133223
 30
0.0
 11
35.93615285726623
 21
518.0650636133221
 31
0.0
  0
LINE
  5
320
102
{ACAD_REACTORS
330
610
102
}
330
1F
100
AcDbEntity
  8
実線
100
AcDbLine
 10
35.93615285726623
 20
518.0650636133221
 30
0.0
 11
210.9361528572662
 21
518.0650636133221
 31
0.0
  0
ARC
  5
321
102
{ACAD_REACTORS
330
610
102
}
330
1F
100
AcDbEntity
  8
実線
100
AcDbCircle
 10
155.4361528572662
 20
501.0650636133221
 30
0.0
 40
17.0
100
AcDbArc
 50
0.0
 51
90.0
  0
ARC
  5
322
102
{ACAD_REACTORS
330
610
102
}
330
1F
100
AcDbEntity
  8
実線
100
AcDbCircle
 10
91.43615285726616
 20
501.0650636133221
 30
0.0
 40
17.0
100
AcDbArc
 50
90.0
 51
180.0
  0
LINE
  5
323
102
{ACAD_REACTORS
330
610
102
}
330
1F
100
AcDbEntity
  8
実線
100
AcDbLine
 10
172.4361528572661
 20
469.0650636133223
 30
0.0
 11
172.4361528572661
 21
501.0650636133221
 31
0.0
  0
LINE
  5
324
102
{ACAD_REACTORS
330
610
102
}
330
1F
100
AcDbEntity
  8
実線
100
AcDbLine
 10
74.43615285726614
 20
501.0650636133221
 30
0.0
 11
74.43615285726614
 21
469.0650636133223
 31
0.0
  0
LINE
  5
325
102
{ACAD_REACTORS
330
610
102
}
330
1F
100
AcDbEntity
  8
実線
100
AcDbLine
 10
179.9393184493221
 20
454.0650636133222
 30
0.0
 11
179.9393184493221
 21
469.0650636133223
 31
0.0
  0
LINE
  5
326
102
{ACAD_REACTORS
330
610
102
}
330
1F
100
AcDbEntity
  8
実線
100
AcDbLine
 10
179.9393184493221
 20
469.0650636133223
 30
0.0
 11
148.8361528572661
 21
469.0650636133223
 31
0.0
  0
LINE
  5
327
102
{ACAD_REACTORS
330
610
102
}
330
1F
100
AcDbEntity
  8
実線
100
AcDbLine
 10
179.9393184493221
 20
454.0650636133222
 30
0.0
 11
155.4242504096579
 21
454.0650636133222
 31
0.0
  0
LINE
  5
328
102
{ACAD_REACTORS
330
610
102
}
330
1F
100
AcDbEntity
  8
実線
100
AcDbLine
 10
66.93298726521041
 20
469.0650636133223
 30
0.0
 11
98.03615285726619
 21
469.0650636133223
 31
0.0
  0
LINE
  5
329
102
{ACAD_REACTORS
330
610
102
}
330
1F
100
AcDbEntity
  8
実線
100
AcDbLine
 10
66.9329872652103
 20
469.0650636133223
 30
0.0
 11
66.9329872652103
 21
454.0650636133222
 31
0.0
  0
LINE
  5
32A
102
{ACAD_REACTORS
330
610
102
}
330
1F
100
AcDbEntity
  8
実線
100
AcDbLine
 10
172.436152857266
 20
439.0650636133222
 30
0.0
 11
172.436152857266
 21
444.0650636133223
 31
0.0
  0
LINE
  5
32B
102
{ACAD_REACTORS
330
610
102
}
330
1F
100
AcDbEntity
  8
実線
100
AcDbLine
 10
74.43615285726602
 20
444.0650636133223
 30
0.0
 11
74.43615285726602
 21
439.0650636133222
 31
0.0
  0
LINE
  5
32C
102
{ACAD_REACTORS
330
610
102
}
330
1F
100
AcDbEntity
  8
実線
100
AcDbLine
 10
150.2657826261602
 20
439.0650636133222
 30
0.0
 11
172.436152857266
 21
439.0650636133222
 31
0.0
  0
LINE
  5
32D
102
{ACAD_REACTORS
330
610
102
}
330
1F
100
AcDbEntity
  8
実線
100
AcDbLine
 10
96.60652308837212
 20
439.0650636133222
 30
0.0
 11
74.43615285726602
 21
439.0650636133222
 31
0.0
  0
LINE
  5
32E
102
{ACAD_REACTORS
330
610
102
}
330
1F
100
AcDbEntity
  8
実線
100
AcDbLine
 10
179.9393184493219
 20
444.0650636133223
 30
0.0
 11
179.9393184493219
 21
454.0650636133222
 31
0.0
  0
LINE
  5
32F
102
{ACAD_REACTORS
330
610
102
}
330
1F
100
AcDbEntity
  8
実線
100
AcDbLine
 10
179.9393184493219
 20
444.0650636133223
 30
0.0
 11
153.7094896400834
 21
444.0650636133223
 31
0.0
  0
LINE
  5
330
102
{ACAD_REACTORS
330
610
102
}
330
1F
100
AcDbEntity
  8
実線
100
AcDbLine
 10
66.9329872652101
 20
444.0650636133223
 30
0.0
 11
93.16281607444892
 21
444.0650636133223
 31
0.0
  0
LINE
  5
331
102
{ACAD_REACTORS
330
610
102
}
330
1F
100
AcDbEntity
  8
実線
100
AcDbLine
 10
66.9329872652101
 20
454.0650636133222
 30
0.0
 11
91.44805530487451
 21
454.0650636133222
 31
0.0
  0
LINE
  5
332
102
{ACAD_REACTORS
330
610
102
}
330
1F
100
AcDbEntity
  8
実線
100
AcDbLine
 10
66.9329872652101
 20
454.0650636133222
 30
0.0
 11
66.9329872652101
 21
444.0650636133223
 31
0.0
  0
ARC
  5
333
102
{ACAD_REACTORS
330
60F
102
}
330
1F
100
AcDbEntity
  8
実線
100
AcDbCircle
 10
355.9361528572663
 20
412.3650636133221
 30
0.0
 40
101.6
100
AcDbArc
 50
90.0
 51
135.0
  0
ARC
  5
334
102
{ACAD_REACTORS
330
60F
102
}
330
1F
100
AcDbEntity
  8
実線
100
AcDbCircle
 10
355.9361528572663
 20
412.3650636133221
 30
0.0
 40
50.80000000000001
100
AcDbArc
 50
90.0
 51
135.0
  0
LINE
  5
335
102
{ACAD_REACTORS
330
60F
102
}
330
1F
100
AcDbEntity
  8
実線
100
AcDbLine
 10
380.3641160076164
 20
513.9650636133222
 30
0.0
 11
355.9361528572663
 21
513.9650636133222
 31
0.0
  0
LINE
  5
336
102
{ACAD_REACTORS
330
60F
102
}
330
1F
100
AcDbEntity
  8
実線
100
AcDbLine
 10
355.9361528572663
 20
463.1650636133223
 30
0.0
 11
366.9329872652103
 21
463.1650636133223
 31
0.0
  0
LINE
  5
337
102
{ACAD_REACTORS
330
60F
102
}
330
1F
100
AcDbEntity
  8
実線
100
AcDbLine
 10
355.9361528572663
 20
513.9650636133222
 30
0.0
 11
355.9361528572663
 21
463.1650636133223
 31
0.0
  0
LINE
  5
338
102
{ACAD_REACTORS
330
60F
102
}
330
1F
100
AcDbEntity
  8
実線
100
AcDbLine
 10
308.9135519083608
 20
437.1845116329699
 30
0.0
 11
320.0151283729897
 21
448.2860880975988
 31
0.0
  0
LINE
  5
339
102
{ACAD_REACTORS
330
60F
102
}
330
1F
100
AcDbEntity
  8
実線
100
AcDbLine
 10
284.0941038887129
 20
484.2071125818753
 30
0.0
 11
272.9925274240843
 21
473.1055361172467
 31
0.0
  0
LINE
  5
33A
102
{ACAD_REACTORS
330
60F
102
}
330
1F
100
AcDbEntity
  8
実線
100
AcDbLine
 10
320.0151283729897
 20
448.2860880975988
 30
0.0
 11
284.0941038887129
 21
484.2071125818753
 31
0.0
  0
LINE
  5
33B
102
{ACAD_REACTORS
330
60F
102
}
330
1F
100
AcDbEntity
  8
実線
100
AcDbLine
 10
309.8327907239034
 20
428.7699409368502
 30
0.0
 11
311.8834003893444
 21
430.8205506022911
 31
0.0
  0
LINE
  5
33C
102
{ACAD_REACTORS
330
60F
102
}
330
1F
100
AcDbEntity
  8
実線
100
AcDbLine
 10
266.6285663934053
 20
476.0753845982301
 30
0.0
 11
264.5779567279643
 21
474.0247749327892
 31
0.0
  0
LINE
  5
33D
102
{ACAD_REACTORS
330
60F
102
}
330
1F
100
AcDbEntity
  8
実線
100
AcDbLine
 10
309.8327907239034
 20
428.7699409368502
 30
0.0
 11
264.5779567279643
 21
474.0247749327892
 31
0.0
  0
LINE
  5
33E
102
{ACAD_REACTORS
330
60F
102
}
330
1F
100
AcDbEntity
  8
実線
100
AcDbLine
 10
272.9925274240843
 20
473.1055361172467
 30
0.0
 11
266.6285663934054
 21
476.0753845982301
 31
0.0
  0
LINE
  5
33F
102
{ACAD_REACTORS
330
60F
102
}
330
1F
100
AcDbEntity
  8
実線
100
AcDbLine
 10
311.8834003893443
 20
430.8205506022911
 30
0.0
 11
308.9135519083608
 21
437.1845116329699
 31
0.0
  0
LINE
  5
340
102
{ACAD_REACTORS
330
60F
102
}
330
1F
100
AcDbEntity
  8
実線
100
AcDbLine
 10
266.6285663934053
 20
476.0753845982301
 30
0.0
 11
311.8834003893444
 21
430.8205506022911
 31
0.0
  0
LINE
  5
341
102
{ACAD_REACTORS
330
60F
102
}
330
1F
100
AcDbEntity
  8
実線
100
AcDbLine
 10
272.9925274240843
 20
473.1055361172467
 30
0.0
 11
308.9135519083608
 21
437.1845116329699
 31
0.0
  0
LINE
  5
342
102
{ACAD_REACTORS
330
60F
102
}
330
1F
100
AcDbEntity
  8
実線
100
AcDbLine
 10
423.148641811024
 20
345.8353484262408
 30
0.0
 11
414.1577674891884
 21
337.0650636133223
 31
0.0
  0
LINE
  5
343
102
{ACAD_REACTORS
330
60F
102
}
330
1F
100
AcDbEntity
  8
実線
100
AcDbLine
 10
403.9062482812918
 20
337.0650636133223
 30
0.0
 11
423.148641811024
 21
355.8353484262408
 31
0.0
  0
LINE
  5
344
102
{ACAD_REACTORS
330
60F
102
}
330
1F
100
AcDbEntity
  8
実線
100
AcDbLine
 10
386.5857402056033
 20
337.0650636133223
 30
0.0
 11
405.8281337353353
 21
355.8353484262408
 31
0.0
  0
LINE
  5
345
102
{ACAD_REACTORS
330
60F
102
}
330
1F
100
AcDbEntity
  8
実線
100
AcDbLine
 10
479.816470084904
 20
337.0650636133223
 30
0.0
 11
441.3316830254396
 21
355.8353484262408
 31
0.0
  0
LINE
  5
346
102
{ACAD_REACTORS
330
60F
102
}
330
1F
100
AcDbEntity
  8
実線
100
AcDbLine
 10
441.3316830254396
 20
345.8353484262408
 30
0.0
 11
459.3134316691109
 21
337.0650636133223
 31
0.0
  0
LINE
  5
347
102
{ACAD_REACTORS
330
60F
102
}
330
1F
100
AcDbEntity
  8
実線
100
AcDbLine
 10
443.9361528572663
 20
341.0650636133223
 30
0.0
 11
418.2583751723471
 21
341.0650636133223
 31
0.0
  0
LINE
  5
348
102
{ACAD_REACTORS
330
60F
102
}
330
1F
100
AcDbEntity
  8
実線
100
AcDbLine
 10
402.9361528572663
 20
358.0650636133223
 30
0.0
 11
402.9361528572663
 21
353.0143217867537
 31
0.0
  0
LINE
  5
349
102
{ACAD_REACTORS
330
60F
102
}
330
1F
100
AcDbEntity
  8
実線
100
AcDbLine
 10
443.9361528572663
 20
354.5650636133223
 30
0.0
 11
443.9361528572663
 21
358.0650636133223
 31
0.0
  0
LINE
  5
34A
102
{ACAD_REACTORS
330
60F
102
}
330
1F
100
AcDbEntity
  8
実線
100
AcDbLine
 10
443.9361528572663
 20
341.0650636133223
 30
0.0
 11
443.9361528572663
 21
344.5650636133223
 31
0.0
  0
LINE
  5
34B
102
{ACAD_REACTORS
330
60F
102
}
330
1F
100
AcDbEntity
  8
実線
100
AcDbLine
 10
402.9361528572663
 20
358.0650636133223
 30
0.0
 11
443.9361528572663
 21
358.0650636133223
 31
0.0
  0
LINE
  5
34C
102
{ACAD_REACTORS
330
60F
102
}
330
1F
100
AcDbEntity
  8
実線
100
AcDbLine
 10
361.4361528572664
 20
321.0650636133223
 30
0.0
 11
485.4361528572663
 21
321.0650636133223
 31
0.0
  0
LINE
  5
34D
102
{ACAD_REACTORS
330
60F
102
}
330
1F
100
AcDbEntity
  8
実線
100
AcDbLine
 10
485.4361528572663
 20
337.0650636133223
 30
0.0
 11
361.4361528572664
 21
337.0650636133223
 31
0.0
  0
ARC
  5
34E
102
{ACAD_REACTORS
330
60F
102
}
330
1F
100
AcDbEntity
  8
実線
100
AcDbCircle
 10
361.4361528572664
 20
329.0650636133223
 30
0.0
 40
8.0
100
AcDbArc
 50
90.0
 51
270.0
  0
ARC
  5
34F
102
{ACAD_REACTORS
330
60F
102
}
330
1F
100
AcDbEntity
  8
実線
100
AcDbCircle
 10
485.4361528572663
 20
329.0650636133223
 30
0.0
 40
8.0
100
AcDbArc
 50
270.0
 51
90.0
  0
LINE
  5
350
102
{ACAD_REACTORS
330
60F
102
}
330
1F
100
AcDbEntity
  8
実線
100
AcDbLine
 10
407.4361528572664
 20
372.2650636133224
 30
0.0
 11
407.4361528572664
 21
358.0650636133223
 31
0.0
  0
LINE
  5
351
102
{ACAD_REACTORS
330
60F
102
}
330
1F
100
AcDbEntity
  8
実線
100
AcDbLine
 10
439.4361528572663
 20
358.0650636133223
 30
0.0
 11
439.4361528572663
 21
372.2650636133224
 31
0.0
  0
LINE
  5
352
102
{ACAD_REACTORS
330
60F
102
}
330
1F
100
AcDbEntity
  8
実線
100
AcDbLine
 10
443.3361528572663
 20
372.2650636133224
 30
0.0
 11
403.5361528572662
 21
372.2650636133224
 31
0.0
  0
LINE
  5
353
102
{ACAD_REACTORS
330
60F
102
}
330
1F
100
AcDbEntity
  8
実線
100
AcDbLine
 10
403.5361528572663
 20
389.7650636133223
 30
0.0
 11
403.5361528572663
 21
372.2650636133224
 31
0.0
  0
LINE
  5
354
102
{ACAD_REACTORS
330
60F
102
}
330
1F
100
AcDbEntity
  8
実線
100
AcDbLine
 10
443.3361528572663
 20
372.2650636133224
 30
0.0
 11
443.3361528572663
 21
389.7650636133223
 31
0.0
  0
LINE
  5
355
102
{ACAD_REACTORS
330
60F
102
}
330
1F
100
AcDbEntity
  8
実線
100
AcDbLine
 10
448.4361528572663
 20
389.7650636133223
 30
0.0
 11
398.4361528572664
 21
389.7650636133223
 31
0.0
  0
LINE
  5
356
102
{ACAD_REACTORS
330
60F
102
}
330
1F
100
AcDbEntity
  8
実線
100
AcDbLine
 10
398.4361528572664
 20
439.0650636133222
 30
0.0
 11
398.4361528572664
 21
389.7650636133223
 31
0.0
  0
LINE
  5
357
102
{ACAD_REACTORS
330
60F
102
}
330
1F
100
AcDbEntity
  8
実線
100
AcDbLine
 10
448.4361528572663
 20
389.7650636133223
 30
0.0
 11
448.4361528572663
 21
439.0650636133222
 31
0.0
  0
LINE
  5
358
102
{ACAD_REACTORS
330
60F
102
}
330
1F
100
AcDbEntity
  8
実線
100
AcDbLine
 10
510.9361528572661
 20
518.0650636133221
 30
0.0
 11
510.9361528572661
 21
536.0650636133223
 31
0.0
  0
LINE
  5
359
102
{ACAD_REACTORS
330
60F
102
}
330
1F
100
AcDbEntity
  8
実線
100
AcDbLine
 10
335.9361528572662
 20
536.0650636133223
 30
0.0
 11
335.9361528572662
 21
518.0650636133221
 31
0.0
  0
LINE
  5
35A
102
{ACAD_REACTORS
330
60F
102
}
330
1F
100
AcDbEntity
  8
実線
100
AcDbLine
 10
510.9361528572661
 20
536.0650636133223
 30
0.0
 11
335.9361528572662
 21
536.0650636133223
 31
0.0
  0
LINE
  5
35B
102
{ACAD_REACTORS
330
60F
102
}
330
1F
100
AcDbEntity
  8
実線
100
AcDbLine
 10
510.9361528572661
 20
518.0650636133221
 30
0.0
 11
335.9361528572662
 21
518.0650636133221
 31
0.0
  0
ARC
  5
35C
102
{ACAD_REACTORS
330
60F
102
}
330
1F
100
AcDbEntity
  8
実線
100
AcDbCircle
 10
455.4361528572663
 20
501.0650636133221
 30
0.0
 40
17.0
100
AcDbArc
 50
0.0
 51
90.0
  0
ARC
  5
35D
102
{ACAD_REACTORS
330
60F
102
}
330
1F
100
AcDbEntity
  8
実線
100
AcDbCircle
 10
391.4361528572664
 20
501.0650636133221
 30
0.0
 40
17.0
100
AcDbArc
 50
90.0
 51
130.6394076727666
  0
LINE
  5
35E
102
{ACAD_REACTORS
330
60F
102
}
330
1F
100
AcDbEntity
  8
実線
100
AcDbLine
 10
479.939318449322
 20
454.0650636133222
 30
0.0
 11
366.9329872652103
 21
454.0650636133222
 31
0.0
  0
LINE
  5
35F
102
{ACAD_REACTORS
330
60F
102
}
330
1F
100
AcDbEntity
  8
実線
100
AcDbLine
 10
472.4361528572663
 20
469.0650636133223
 30
0.0
 11
472.4361528572663
 21
501.0650636133221
 31
0.0
  0
LINE
  5
360
102
{ACAD_REACTORS
330
60F
102
}
330
1F
100
AcDbEntity
  8
実線
100
AcDbLine
 10
366.9329872652103
 20
469.0650636133223
 30
0.0
 11
401.0579095701232
 21
469.0650636133223
 31
0.0
  0
LINE
  5
361
102
{ACAD_REACTORS
330
60F
102
}
330
1F
100
AcDbEntity
  8
実線
100
AcDbLine
 10
366.9329872652103
 20
469.0650636133223
 30
0.0
 11
366.9329872652103
 21
454.0650636133222
 31
0.0
  0
LINE
  5
362
102
{ACAD_REACTORS
330
60F
102
}
330
1F
100
AcDbEntity
  8
実線
100
AcDbLine
 10
479.939318449322
 20
454.0650636133222
 30
0.0
 11
479.939318449322
 21
469.0650636133223
 31
0.0
  0
LINE
  5
363
102
{ACAD_REACTORS
330
60F
102
}
330
1F
100
AcDbEntity
  8
実線
100
AcDbLine
 10
479.939318449322
 20
469.0650636133223
 30
0.0
 11
445.8143961444092
 21
469.0650636133223
 31
0.0
  0
LINE
  5
364
102
{ACAD_REACTORS
330
60F
102
}
330
1F
100
AcDbEntity
  8
実線
100
AcDbLine
 10
445.8143961444092
 20
454.0650636133222
 30
0.0
 11
445.8143961444092
 21
469.0650636133223
 31
0.0
  0
LINE
  5
365
102
{ACAD_REACTORS
330
60F
102
}
330
1F
100
AcDbEntity
  8
実線
100
AcDbLine
 10
401.0579095701232
 20
454.0650636133222
 30
0.0
 11
401.0579095701232
 21
469.0650636133223
 31
0.0
  0
LINE
  5
366
102
{ACAD_REACTORS
330
60F
102
}
330
1F
100
AcDbEntity
  8
実線
100
AcDbLine
 10
472.4361528572663
 20
439.0650636133222
 30
0.0
 11
472.4361528572663
 21
444.0650636133223
 31
0.0
  0
LINE
  5
367
102
{ACAD_REACTORS
330
60F
102
}
330
1F
100
AcDbEntity
  8
実線
100
AcDbLine
 10
374.4361528572664
 20
444.0650636133223
 30
0.0
 11
374.4361528572664
 21
439.0650636133222
 31
0.0
  0
LINE
  5
368
102
{ACAD_REACTORS
330
60F
102
}
330
1F
100
AcDbEntity
  8
実線
100
AcDbLine
 10
374.4361528572664
 20
439.0650636133222
 30
0.0
 11
472.4361528572663
 21
439.0650636133222
 31
0.0
  0
LINE
  5
369
102
{ACAD_REACTORS
330
60F
102
}
330
1F
100
AcDbEntity
  8
実線
100
AcDbLine
 10
479.9393184493221
 20
444.0650636133223
 30
0.0
 11
479.9393184493221
 21
454.0650636133222
 31
0.0
  0
LINE
  5
36A
102
{ACAD_REACTORS
330
60F
102
}
330
1F
100
AcDbEntity
  8
実線
100
AcDbLine
 10
479.9393184493221
 20
444.0650636133223
 30
0.0
 11
445.8143961444094
 21
444.0650636133223
 31
0.0
  0
LINE
  5
36B
102
{ACAD_REACTORS
330
60F
102
}
330
1F
100
AcDbEntity
  8
実線
100
AcDbLine
 10
366.9329872652105
 20
444.0650636133223
 30
0.0
 11
401.0579095701232
 21
444.0650636133223
 31
0.0
  0
LINE
  5
36C
102
{ACAD_REACTORS
330
60F
102
}
330
1F
100
AcDbEntity
  8
実線
100
AcDbLine
 10
366.9329872652105
 20
454.0650636133222
 30
0.0
 11
366.9329872652105
 21
444.0650636133223
 31
0.0
  0
LINE
  5
36D
102
{ACAD_REACTORS
330
60F
102
}
330
1F
100
AcDbEntity
  8
実線
100
AcDbLine
 10
445.8143961444094
 20
444.0650636133223
 30
0.0
 11
445.8143961444094
 21
454.0650636133222
 31
0.0
  0
LINE
  5
36E
102
{ACAD_REACTORS
330
60F
102
}
330
1F
100
AcDbEntity
  8
実線
100
AcDbLine
 10
401.0579095701232
 20
444.0650636133223
 30
0.0
 11
401.0579095701232
 21
454.0650636133222
 31
0.0
  0
LINE
  5
5ED
102
{ACAD_REACTORS
330
60D
102
}
330
1F
100
AcDbEntity
  8
中心線
100
AcDbLine
 10
848.2962325461661
 20
488.5650636133223
 30
0.0
 11
1046.421712615333
 21
488.5650636133223
 31
0.0
  0
LINE
  5
5EE
102
{ACAD_REACTORS
330
60D
102
}
330
1F
100
AcDbEntity
  8
中心線
100
AcDbLine
 10
947.3586391625032
 20
307.797441242392
 30
0.0
 11
947.3586391625032
 21
548.5650636133223
 31
0.0
  0
LINE
  5
5EF
102
{ACAD_REACTORS
330
60D
102
}
330
1F
100
AcDbEntity
  8
中心線
100
AcDbLine
 10
1046.421712615333
 20
488.5650636133223
 30
0.0
 11
1085.003631856208
 21
449.9831443724466
 31
0.0
  0
LINE
  5
5F0
102
{ACAD_REACTORS
330
60F
102
}
330
1F
100
AcDbEntity
  8
中心線
100
AcDbLine
 10
522.4992263100964
 20
488.5650636133223
 30
0.0
 11
324.3730794044359
 21
488.5650636133223
 31
0.0
  0
LINE
  5
5F1
102
{ACAD_REACTORS
330
60F
102
}
330
1F
100
AcDbEntity
  8
中心線
100
AcDbLine
 10
423.4361528572661
 20
307.797441242392
 30
0.0
 11
423.4361528572661
 21
548.5650636133223
 31
0.0
  0
LINE
  5
5F2
102
{ACAD_REACTORS
330
60F
102
}
330
1F
100
AcDbEntity
  8
中心線
100
AcDbLine
 10
324.3730794044359
 20
488.5650636133223
 30
0.0
 11
285.7911601635606
 21
449.9831443724467
 31
0.0
  0
LINE
  5
604
102
{ACAD_REACTORS
330
60E
102
}
330
1F
100
AcDbEntity
  8
中心線
100
AcDbLine
 10
700.898823183499
 20
307.797441242392
 30
0.0
 11
700.898823183499
 21
548.5650636133223
 31
0.0
  0
LINE
  5
605
102
{ACAD_REACTORS
330
60E
102
}
330
1F
100
AcDbEntity
  8
中心線
100
AcDbLine
 10
640.8988231834991
 20
488.5650636133223
 30
0.0
 11
760.8988231834991
 21
488.5650636133223
 31
0.0
  0
LINE
  5
606
102
{ACAD_REACTORS
330
610
102
}
330
1F
100
AcDbEntity
  8
中心線
100
AcDbLine
 10
123.4361528572662
 20
307.797441242392
 30
0.0
 11
123.4361528572661
 21
548.5650636133223
 31
0.0
  0
LINE
  5
607
102
{ACAD_REACTORS
330
610
102
}
330
1F
100
AcDbEntity
  8
中心線
100
AcDbLine
 10
63.43615285726617
 20
488.5650636133223
 30
0.0
 11
183.4361528572662
 21
488.5650636133223
 31
0.0
  0
LINE
  5
608
102
{ACAD_REACTORS
330
611
102
}
330
1F
100
AcDbEntity
  8
中心線
100
AcDbLine
 10
263.4361528572668
 20
116.0650636133218
 30
0.0
 11
583.4361528572667
 21
116.0650636133218
 31
0.0
  0
LINE
  5
609
102
{ACAD_REACTORS
330
611
102
}
330
1F
100
AcDbEntity
  8
中心線
100
AcDbLine
 10
423.4361528572667
 20
16.06506361332208
 30
0.0
 11
423.4361528572667
 21
216.0650636133221
 31
0.0
  0
LINE
  5
60A
102
{ACAD_REACTORS
330
60C
102
}
330
1F
100
AcDbEntity
  8
中心線
100
AcDbLine
 10
263.4361528572668
 20
776.0650636133223
 30
0.0
 11
583.4361528572667
 21
776.0650636133223
 31
0.0
  0
LINE
  5
60B
102
{ACAD_REACTORS
330
60C
102
}
330
1F
100
AcDbEntity
  8
中心線
100
AcDbLine
 10
423.4361528572667
 20
676.0650636133223
 30
0.0
 11
423.4361528572667
 21
876.0650636133222
 31
0.0
  0
ENDSEC
  0
SECTION
  2
OBJECTS
  0
DICTIONARY
  5
C
330
0
100
AcDbDictionary
281
     1
  3
ACAD_CIP_PREVIOUS_PRODUCT_INFO
350
220
  3
ACAD_COLOR
350
216
  3
ACAD_DETAILVIEWSTYLE
350
219
  3
ACAD_GROUP
350
D
  3
ACAD_LAYOUT
350
1A
  3
ACAD_MATERIAL
350
43
  3
ACAD_MLEADERSTYLE
350
5B
  3
ACAD_MLINESTYLE
350
17
  3
ACAD_PLOTSETTINGS
350
19
  3
ACAD_PLOTSTYLENAME
350
E
  3
ACAD_SCALELIST
350
47
  3
ACAD_SECTIONVIEWSTYLE
350
217
  3
ACAD_TABLESTYLE
350
59
  3
ACAD_VISUALSTYLE
350
2A
  3
ACDB_RECOMPOSE_DATA
350
72D
  3
AcDbVariableDictionary
350
1CB
  3
DWGPROPS
350
72E
  0
DICTIONARY
  5
375
330
2
100
AcDbDictionary
280
     1
281
     1
  3
ACAD_LAYERSTATES
360
376
  0
DICTIONARY
  5
612
330
10
100
AcDbDictionary
280
     1
281
     1
  3
ADSK_XREC_LAYER_RECONCILED
360
613
  0
DICTIONARY
  5
371
330
370
100
AcDbDictionary
280
     1
281
     1
  3
ADSK_XREC_LAYER_RECONCILED
360
614
  0
DICTIONARY
  5
373
330
372
100
AcDbDictionary
280
     1
281
     1
  3
ADSK_XREC_LAYER_RECONCILED
360
615
  0
DICTIONARY
  5
263
330
1F
100
AcDbDictionary
280
     1
281
     1
  3
ACAD_SORTENTS
360
264
  0
XRECORD
  5
220
102
{ACAD_REACTORS
330
C
102
}
330
C
100
AcDbXrecord
280
     1
300
ACDLT
300
2016
300
ACDLT_F_S
  0
DICTIONARY
  5
216
102
{ACAD_REACTORS
330
C
102
}
330
C
100
AcDbDictionary
281
     1
  0
DICTIONARY
  5
219
102
{ACAD_REACTORS
330
C
102
}
330
C
100
AcDbDictionary
281
     1
  3
Metric50
350
21A
  0
DICTIONARY
  5
D
102
{ACAD_REACTORS
330
C
102
}
330
C
100
AcDbDictionary
281
     1
  3
*A1
350
60C
  3
*A2
350
60D
  3
*A3
350
60E
  3
*A4
350
60F
  3
*A5
350
610
  3
*A6
350
611
  0
DICTIONARY
  5
1A
102
{ACAD_REACTORS
330
C
102
}
330
C
100
AcDbDictionary
281
     1
  3
Layout1
350
1E
  3
Model
350
22
  3
レイアウト1
350
21B
  0
DICTIONARY
  5
43
102
{ACAD_REACTORS
330
C
102
}
330
C
100
AcDbDictionary
281
     1
  3
ByBlock
350
45
  3
ByLayer
350
44
  3
Global
350
46
  0
DICTIONARY
  5
5B
102
{ACAD_REACTORS
330
C
102
}
330
C
100
AcDbDictionary
281
     1
  3
Standard
350
5C
  0
DICTIONARY
  5
17
102
{ACAD_REACTORS
330
C
102
}
330
C
100
AcDbDictionary
281
     1
  3
Standard
350
18
  0
DICTIONARY
  5
19
102
{ACAD_REACTORS
330
C
102
}
330
C
100
AcDbDictionary
281
     1
  0
ACDBDICTIONARYWDFLT
  5
E
102
{ACAD_REACTORS
330
C
102
}
330
C
100
AcDbDictionary
281
     1
  3
Normal
350
F
100
AcDbDictionaryWithDefault
340
F
  0
DICTIONARY
  5
47
102
{ACAD_REACTORS
330
C
102
}
330
C
100
AcDbDictionary
281
     1
  3
A0
350
48
  3
A1
350
49
  3
A2
350
4A
  3
A3
350
4B
  3
A4
350
4C
  3
A5
350
4D
  3
A6
350
4E
  3
A7
350
4F
  3
A8
350
50
  3
A9
350
51
  3
B0
350
52
  3
B1
350
53
  3
B2
350
54
  3
B3
350
55
  3
B4
350
56
  3
B5
350
57
  3
B6
350
58
  0
DICTIONARY
  5
217
102
{ACAD_REACTORS
330
C
102
}
330
C
100
AcDbDictionary
281
     1
  3
Metric50
350
218
  0
DICTIONARY
  5
59
102
{ACAD_REACTORS
330
C
102
}
330
C
100
AcDbDictionary
281
     1
  3
Standard
350
5A
  0
DICTIONARY
  5
2A
102
{ACAD_REACTORS
330
C
102
}
330
C
100
AcDbDictionary
281
     1
  3
2dWireframe
350
2F
  3
Basic
350
32
  3
Brighten
350
36
  3
ColorChange
350
3A
  3
Conceptual
350
34
  3
Dim
350
35
  3
EdgeColorOff
350
3D
  3
Facepattern
350
39
  3
Flat
350
2B
  3
FlatWithEdges
350
2C
  3
Gouraud
350
2D
  3
GouraudWithEdges
350
2E
  3
Hidden
350
31
  3
JitterOff
350
3B
  3
Linepattern
350
38
  3
OverhangOff
350
3C
  3
Realistic
350
33
  3
Shaded
350
42
  3
Shaded with edges
350
41
  3
Shades of Gray
350
3E
  3
Sketchy
350
3F
  3
Thicken
350
37
  3
Wireframe
350
30
  3
X-Ray
350
40
  0
XRECORD
  5
72D
102
{ACAD_REACTORS
330
C
102
}
330
C
100
AcDbXrecord
280
     1
 90
        1
330
5A
  0
DICTIONARY
  5
1CB
102
{ACAD_REACTORS
330
C
102
}
330
C
100
AcDbDictionary
281
     1
  3
CANNOSCALE
350
1D9
  3
CENTEREXE
350
1D2
  3
CENTERLTYPEFILE
350
1D3
  3
CMLEADERSTYLE
350
1CD
  3
CTABLESTYLE
350
1CC
  3
CVIEWDETAILSTYLE
350
616
  3
CVIEWSECTIONSTYLE
350
617
  3
DIMASSOC
350
1D4
  3
HIDETEXT
350
1D5
  3
INDEXCTL
350
664
  3
LAYEREVAL
350
619
  3
LAYERNOTIFY
350
61A
  3
LIGHTINGUNITS
350
618
  3
LOFTANG1
350
667
  3
LOFTANG2
350
668
  3
LONGITUDE
350
669
  3
MSLTSCALE
350
1DA
  3
PSOLHEIGHT
350
666
  3
PSOLWIDTH
350
665
  3
SORTENTS
350
663
  3
XCLIPFRAME
350
66A
  0
XRECORD
  5
72E
102
{ACAD_REACTORS
330
C
102
}
330
C
100
AcDbXrecord
280
     1
  1
DWGPROPS COOKIE
  2

  3

  4

  6
File was created by TR2_DExp
  7

  8
fujino
  9

300
=
301
=
302
=
303
=
304
=
305
=
306
=
307
=
308
=
309
=
 40
0.0421141782407408
 41
2455188.75
 42
2459759.390780359
  1

 90
        0
  0
DICTIONARY
  5
376
102
{ACAD_REACTORS
330
375
102
}
330
375
100
AcDbDictionary
281
     1
  0
XRECORD
  5
613
102
{ACAD_REACTORS
330
612
102
}
330
612
100
AcDbXrecord
280
     1
290
     1
  0
XRECORD
  5
614
102
{ACAD_REACTORS
330
371
102
}
330
371
100
AcDbXrecord
280
     1
290
     1
  0
XRECORD
  5
615
102
{ACAD_REACTORS
330
373
102
}
330
373
100
AcDbXrecord
280
     1
290
     1
  0
SORTENTSTABLE
  5
264
102
{ACAD_REACTORS
330
263
102
}
330
263
100
AcDbSortentsTable
330
1F
331
230
  5
33C
331
25F
  5
36B
331
29E
  5
2DE
331
369
  5
257
331
2D3
  5
2A4
331
25B
  5
367
331
2CF
  5
2A0
331
30E
  5
273
331
29A
  5
2DA
331
2CB
  5
29C
331
30A
  5
26F
331
347
  5
235
331
343
  5
231
331
33F
  5
22D
331
33B
  5
229
331
22C
  5
338
331
5F1
  5
5F1
331
228
  5
334
331
257
  5
363
331
296
  5
2D6
331
292
  5
2D2
331
253
  5
35F
331
224
  5
330
331
2C7
  5
298
331
306
  5
26B
331
28E
  5
2CE
331
302
  5
267
331
2C3
  5
303
331
24F
  5
35B
331
24B
  5
357
331
2BF
  5
2FF
331
2FE
  5
261
331
28A
  5
32C
331
2BB
  5
2FB
331
2FA
  5
25D
331
606
  5
606
331
337
  5
225
331
333
  5
221
331
5EE
  5
5EE
331
32F
  5
294
331
32B
  5
290
331
247
  5
353
331
286
  5
328
331
243
  5
34F
331
2B7
  5
2F7
331
2F6
  5
2C7
331
282
  5
324
331
27E
  5
320
331
2F2
  5
2C3
331
2B3
  5
2F3
331
23F
  5
34B
331
23B
  5
347
331
2EE
  5
2BF
331
27A
  5
31C
331
2AF
  5
2EF
331
2AB
  5
2EB
331
2EA
  5
2BB
331
327
  5
28C
331
366
  5
254
331
323
  5
288
331
362
  5
250
331
31F
  5
284
331
35E
  5
24C
331
35A
  5
248
331
31B
  5
280
331
260
  5
36C
331
276
  5
318
331
2A7
  5
2E7
331
2E6
  5
2B7
331
272
  5
314
331
26E
  5
310
331
2A3
  5
2E3
331
2E2
  5
2B3
331
2DE
  5
2AF
331
26A
  5
30C
331
2DA
  5
2AB
331
317
  5
27C
331
356
  5
244
331
313
  5
278
331
352
  5
240
331
34E
  5
23C
331
34A
  5
238
331
237
  5
343
331
60A
  5
60A
331
36C
  5
25A
331
2D6
  5
2A7
331
233
  5
33F
331
25E
  5
36A
331
29D
  5
2DD
331
368
  5
256
331
2D2
  5
2A3
331
25A
  5
366
331
2CE
  5
29F
331
30D
  5
272
331
299
  5
2D9
331
2CA
  5
29B
331
309
  5
26E
331
346
  5
234
331
342
  5
230
331
33E
  5
22C
331
33A
  5
228
331
22F
  5
33B
331
22B
  5
337
331
5F0
  5
5F0
331
227
  5
333
331
256
  5
362
331
295
  5
2D5
331
291
  5
2D1
331
252
  5
35E
331
223
  5
32F
331
2C6
  5
306
331
305
  5
26A
331
24E
  5
35A
331
301
  5
266
331
28D
  5
2CD
331
2C2
  5
302
331
24A
  5
356
331
2BE
  5
2FE
331
2FD
  5
260
331
289
  5
32B
331
2BA
  5
2FA
331
2F9
  5
2CA
331
605
  5
605
331
336
  5
224
331
332
  5
297
331
5ED
  5
5ED
331
32E
  5
293
331
32A
  5
28F
331
246
  5
352
331
285
  5
327
331
281
  5
323
331
242
  5
34E
331
2B6
  5
2F6
331
2F5
  5
2C6
331
27D
  5
31F
331
2F1
  5
2C2
331
2B2
  5
2F2
331
23E
  5
34A
331
23A
  5
346
331
2AE
  5
2EE
331
2ED
  5
2BE
331
279
  5
31B
331
2AA
  5
2EA
331
2E9
  5
2BA
331
326
  5
28B
331
365
  5
253
331
322
  5
287
331
361
  5
24F
331
31E
  5
283
331
35D
  5
24B
331
359
  5
247
331
31A
  5
27F
331
267
  5
309
331
275
  5
317
331
2A6
  5
2E6
331
2E5
  5
2B6
331
271
  5
313
331
2E1
  5
2B2
331
26D
  5
30F
331
2A2
  5
2E2
331
2DD
  5
2AE
331
269
  5
30B
331
2D9
  5
2AA
331
316
  5
27B
331
355
  5
243
331
312
  5
277
331
351
  5
23F
331
34D
  5
23B
331
349
  5
237
331
236
  5
342
331
609
  5
609
331
36B
  5
259
331
2D5
  5
2A6
331
232
  5
33E
331
25D
  5
369
331
29C
  5
2DC
331
2D1
  5
2A2
331
259
  5
365
331
2CD
  5
29E
331
30C
  5
271
331
298
  5
2D8
331
2C9
  5
29A
331
308
  5
26D
331
345
  5
233
331
341
  5
22F
331
33D
  5
22B
331
339
  5
227
331
22E
  5
33A
331
22A
  5
336
331
226
  5
332
331
255
  5
361
331
294
  5
2D4
331
290
  5
2D0
331
251
  5
35D
331
222
  5
32E
331
2C5
  5
305
331
304
  5
269
331
24D
  5
359
331
300
  5
265
331
28C
  5
2CC
331
2C1
  5
301
331
249
  5
355
331
2BD
  5
2FD
331
2FC
  5
25F
331
288
  5
32A
331
2B9
  5
2F9
331
2F8
  5
2C9
331
604
  5
604
331
335
  5
223
331
331
  5
296
331
32D
  5
292
331
329
  5
28E
331
245
  5
351
331
284
  5
326
331
280
  5
322
331
241
  5
34D
331
2B5
  5
2F5
331
2F4
  5
2C5
331
23D
  5
349
331
2F0
  5
2C1
331
27C
  5
31E
331
2B1
  5
2F1
331
239
  5
345
331
2AD
  5
2ED
331
2EC
  5
2BD
331
278
  5
31A
331
2A9
  5
2E9
331
2E8
  5
2B9
331
325
  5
28A
331
364
  5
252
331
321
  5
286
331
360
  5
24E
331
35C
  5
24A
331
31D
  5
282
331
358
  5
246
331
319
  5
27E
331
266
  5
308
331
262
  5
36E
331
274
  5
316
331
270
  5
312
331
2A5
  5
2E5
331
2E4
  5
2B5
331
2E0
  5
2B1
331
26C
  5
30E
331
2A1
  5
2E1
331
2DC
  5
2AD
331
268
  5
30A
331
2D8
  5
2A9
331
315
  5
27A
331
354
  5
242
331
311
  5
276
331
350
  5
23E
331
34C
  5
23A
331
348
  5
236
331
36E
  5
25C
331
235
  5
341
331
231
  5
33D
331
608
  5
608
331
29F
  5
2DF
331
36A
  5
258
331
2D4
  5
2A5
331
25C
  5
368
331
2D0
  5
2A1
331
30F
  5
274
331
29B
  5
2DB
331
258
  5
364
331
2CC
  5
29D
331
30B
  5
270
331
2C8
  5
299
331
344
  5
232
331
340
  5
22E
331
33C
  5
22A
331
338
  5
226
331
22D
  5
339
331
5F2
  5
5F2
331
229
  5
335
331
297
  5
2D7
331
225
  5
331
331
254
  5
360
331
307
  5
26C
331
293
  5
2D3
331
28F
  5
2CF
331
303
  5
268
331
2C4
  5
304
331
250
  5
35C
331
221
  5
32D
331
24C
  5
358
331
2FF
  5
262
331
28B
  5
2CB
331
2C0
  5
300
331
248
  5
354
331
2BC
  5
2FC
331
2FB
  5
25E
331
2B8
  5
2F8
331
607
  5
607
331
334
  5
222
331
5EF
  5
5EF
331
330
  5
295
331
32C
  5
291
331
328
  5
28D
331
287
  5
329
331
244
  5
350
331
2F7
  5
2C8
331
283
  5
325
331
27F
  5
321
331
240
  5
34C
331
2B4
  5
2F4
331
2F3
  5
2C4
331
23C
  5
348
331
2EF
  5
2C0
331
27B
  5
31D
331
2B0
  5
2F0
331
238
  5
344
331
2AC
  5
2EC
331
2EB
  5
2BC
331
2A8
  5
2E8
331
367
  5
255
331
324
  5
289
331
363
  5
251
331
320
  5
285
331
35F
  5
24D
331
35B
  5
249
331
31C
  5
281
331
318
  5
27D
331
265
  5
307
331
261
  5
36D
331
277
  5
319
331
2E7
  5
2B8
331
273
  5
315
331
26F
  5
311
331
2A4
  5
2E4
331
2E3
  5
2B4
331
2DF
  5
2B0
331
26B
  5
30D
331
2A0
  5
2E0
331
2DB
  5
2AC
331
357
  5
245
331
314
  5
279
331
353
  5
241
331
310
  5
275
331
34F
  5
23D
331
34B
  5
239
331
60B
  5
60B
331
36D
  5
25B
331
2D7
  5
2A8
331
234
  5
340
  0
ACDBDETAILVIEWSTYLE
  5
21A
102
{ACAD_XDICTIONARY
360
766
102
}
102
{ACAD_REACTORS
330
219
102
}
330
219
100
AcDbModelDocViewStyle
 70
     0
  3
Metric50
290
     0
100
AcDbDetailViewStyle
 70
     0
 71
     0
 90
        3
 71
     1
340
11
 40
5.0
340
0
 40
5.0
300

 40
0.0
280
     1
 71
     2
340
16
 90
       25
 71
     3
340
11
 40
5.0
 90
        0
 40
15.0
 90
        1
300
%<\AcVar ViewDetailId>% (%<\AcVar ViewScale \f "%sn">%)
 71
     4
340
16
 90
       25
340
16
 90
       25
280
     0
  0
GROUP
  5
60C
102
{ACAD_REACTORS
330
D
102
}
330
D
100
AcDbGroup
300

 70
     1
 71
     1
340
60B
340
60A
340
28A
340
289
340
288
340
287
340
286
340
285
340
284
340
283
340
282
340
281
340
280
340
27F
340
27E
340
27D
340
27C
340
27B
340
27A
340
279
340
278
340
277
340
276
340
275
340
274
340
273
340
272
340
271
340
270
340
26F
340
26E
340
26D
340
26C
340
26B
340
26A
340
269
340
268
340
267
340
266
340
265
  0
GROUP
  5
60D
102
{ACAD_REACTORS
330
D
102
}
330
D
100
AcDbGroup
300

 70
     1
 71
     1
340
5EF
340
5EE
340
5ED
340
2C6
340
2C5
340
2C4
340
2C3
340
2C2
340
2C1
340
2C0
340
2BF
340
2BE
340
2BD
340
2BC
340
2BB
340
2BA
340
2B9
340
2B8
340
2B7
340
2B6
340
2B5
340
2B4
340
2B3
340
2B2
340
2B1
340
2B0
340
2AF
340
2AE
340
2AD
340
2AC
340
2AB
340
2AA
340
2A9
340
2A8
340
2A7
340
2A6
340
2A5
340
2A4
340
2A3
340
2A2
340
2A1
340
2A0
340
29F
340
29E
340
29D
340
29C
340
29B
340
29A
340
299
340
298
340
297
340
296
340
295
340
294
340
293
340
292
340
291
340
290
340
28F
340
28E
340
28D
340
28C
340
28B
  0
GROUP
  5
60E
102
{ACAD_REACTORS
330
D
102
}
330
D
100
AcDbGroup
300

 70
     1
 71
     1
340
605
340
604
340
2F9
340
2F8
340
2F7
340
2F6
340
2F5
340
2F4
340
2F3
340
2F2
340
2F1
340
2F0
340
2EF
340
2EE
340
2ED
340
2EC
340
2EB
340
2EA
340
2E9
340
2E8
340
2E7
340
2E6
340
2E5
340
2E4
340
2E3
340
2E2
340
2E1
340
2E0
340
2DF
340
2DE
340
2DD
340
2DC
340
2DB
340
2DA
340
2D9
340
2D8
340
2D7
340
2D6
340
2D5
340
2D4
340
2D3
340
2D2
340
2D1
340
2D0
340
2CF
340
2CE
340
2CD
340
2CC
340
2CB
340
2CA
340
2C9
340
2C8
340
2C7
  0
GROUP
  5
60F
102
{ACAD_REACTORS
330
D
102
}
330
D
100
AcDbGroup
300

 70
     1
 71
     1
340
5F2
340
5F1
340
5F0
340
36E
340
36D
340
36C
340
36B
340
36A
340
369
340
368
340
367
340
366
340
365
340
364
340
363
340
362
340
361
340
360
340
35F
340
35E
340
35D
340
35C
340
35B
340
35A
340
359
340
358
340
357
340
356
340
355
340
354
340
353
340
352
340
351
340
350
340
34F
340
34E
340
34D
340
34C
340
34B
340
34A
340
349
340
348
340
347
340
346
340
345
340
344
340
343
340
342
340
341
340
340
340
33F
340
33E
340
33D
340
33C
340
33B
340
33A
340
339
340
338
340
337
340
336
340
335
340
334
340
333
  0
GROUP
  5
610
102
{ACAD_REACTORS
330
D
102
}
330
D
100
AcDbGroup
300

 70
     1
 71
     1
340
607
340
606
340
332
340
331
340
330
340
32F
340
32E
340
32D
340
32C
340
32B
340
32A
340
329
340
328
340
327
340
326
340
325
340
324
340
323
340
322
340
321
340
320
340
31F
340
31E
340
31D
340
31C
340
31B
340
31A
340
319
340
318
340
317
340
316
340
315
340
314
340
313
340
312
340
311
340
310
340
30F
340
30E
340
30D
340
30C
340
30B
340
30A
340
309
340
308
340
307
340
306
340
305
340
304
340
303
340
302
340
301
340
300
340
2FF
340
2FE
340
2FD
340
2FC
340
2FB
340
2FA
  0
GROUP
  5
611
102
{ACAD_REACTORS
330
D
102
}
330
D
100
AcDbGroup
300

 70
     1
 71
     1
340
609
340
608
340
262
340
261
340
260
340
25F
340
25E
340
25D
340
25C
340
25B
340
25A
340
259
340
258
340
257
340
256
340
255
340
254
340
253
340
252
340
251
340
250
340
24F
340
24E
340
24D
340
24C
340
24B
340
24A
340
249
340
248
340
247
340
246
340
245
340
244
340
243
340
242
340
241
340
240
340
23F
340
23E
340
23D
340
23C
340
23B
340
23A
340
239
340
238
340
237
340
236
340
235
340
234
340
233
340
232
340
231
340
230
340
22F
340
22E
340
22D
340
22C
340
22B
340
22A
340
229
340
228
340
227
340
226
340
225
340
224
340
223
340
222
340
221
  0
LAYOUT
  5
1E
102
{ACAD_XDICTIONARY
360
72F
102
}
102
{ACAD_REACTORS
330
1A
102
}
330
1A
100
AcDbPlotSettings
  1

  2
none_device
  4

  6

 40
0.0
 41
0.0
 42
0.0
 43
0.0
 44
0.0
 45
0.0
 46
0.0
 47
0.0
 48
0.0
 49
0.0
140
0.0
141
0.0
142
1.0
143
1.0
 70
   688
 72
     1
 73
     0
 74
     5
  7

 75
    16
147
1.0
148
0.0
149
0.0
100
AcDbLayout
  1
Layout1
 70
     1
 71
     1
 10
0.0
 20
0.0
 11
420.0
 21
297.0
 12
0.0
 22
0.0
 32
0.0
 14
1.000000000000000E+20
 24
1.000000000000000E+20
 34
1.000000000000000E+20
 15
-1.000000000000000E+20
 25
-1.000000000000000E+20
 35
-1.000000000000000E+20
146
0.0
 13
0.0
 23
0.0
 33
0.0
 16
1.0
 26
0.0
 36
0.0
 17
0.0
 27
1.0
 37
0.0
 76
     0
330
1B
  0
LAYOUT
  5
22
102
{ACAD_XDICTIONARY
360
731
102
}
102
{ACAD_REACTORS
330
1A
102
}
330
1A
100
AcDbPlotSettings
  1

  2
none_device
  4
Letter_(8.50_x_11.00_Inches)
  6

 40
6.349999999999998
 41
6.349999999999998
 42
6.350005079999998
 43
6.350005079999998
 44
215.9
 45
279.4
 46
0.0
 47
0.0
 48
0.0
 49
0.0
140
0.0
141
0.0
142
1.0
143
1.0
 70
  1712
 72
     1
 73
     0
 74
     0
  7

 75
     0
147
1.0
148
0.0
149
0.0
100
AcDbLayout
  1
Model
 70
     1
 71
     0
 10
-486.3556890487671
 20
-634.5764923095702
 11
802.7806824345386
 21
377.501220703125
 12
0.0
 22
0.0
 32
0.0
 14
-486.3556890487671
 24
-634.5764923095702
 34
0.0
 15
802.7806824345386
 25
377.501220703125
 35
0.0
146
0.0
 13
0.0
 23
0.0
 33
0.0
 16
1.0
 26
0.0
 36
0.0
 17
0.0
 27
1.0
 37
0.0
 76
     0
330
1F
331
29
  0
LAYOUT
  5
21B
102
{ACAD_XDICTIONARY
360
768
102
}
102
{ACAD_REACTORS
330
1A
102
}
330
1A
100
AcDbPlotSettings
  1

  2
青梅 FX DocuCentre-V C2275 T2
  4

  6

 40
0.0
 41
0.0
 42
0.0
 43
0.0
 44
0.0
 45
0.0
 46
0.0
 47
0.0
 48
0.0
 49
0.0
140
0.0
141
0.0
142
1.0
143
1.0
 70
   688
 72
     0
 73
     0
 74
     5
  7
AutoCAD_PEN.ctb
 75
    16
147
1.0
148
0.0
149
0.0
100
AcDbLayout
  1
レイアウト1
 70
     1
 71
     2
 10
0.0
 20
0.0
 11
12.0
 21
9.0
 12
0.0
 22
0.0
 32
0.0
 14
0.0
 24
0.0
 34
0.0
 15
0.0
 25
0.0
 35
0.0
146
0.0
 13
0.0
 23
0.0
 33
0.0
 16
1.0
 26
0.0
 36
0.0
 17
0.0
 27
1.0
 37
0.0
 76
     0
330
23
  0
MATERIAL
  5
45
102
{ACAD_XDICTIONARY
360
20D
102
}
102
{ACAD_REACTORS
330
43
102
}
330
43
100
AcDbMaterial
  1
ByBlock
  0
MATERIAL
  5
44
102
{ACAD_XDICTIONARY
360
20B
102
}
102
{ACAD_REACTORS
330
43
102
}
330
43
100
AcDbMaterial
  1
ByLayer
  0
MATERIAL
  5
46
102
{ACAD_XDICTIONARY
360
20F
102
}
102
{ACAD_REACTORS
330
43
102
}
330
43
100
AcDbMaterial
  1
Global
  0
MLEADERSTYLE
  5
5C
102
{ACAD_REACTORS
330
5B
102
}
330
5B
100
AcDbMLeaderStyle
170
     2
171
     1
172
     0
 90
        2
 40
0.0
 41
0.0
173
     1
 91
-1056964608
340
14
 92
       -2
290
     1
 42
2.0
291
     1
 43
8.0
  3
Standard
 44
4.0
300

342
11
174
     1
178
     6
175
     1
176
     0
 93
-1056964608
 45
4.0
292
     0
297
     0
 46
4.0
 94
-1056964608
 47
1.0
 49
1.0
140
1.0
293
     1
141
0.0
294
     1
177
     0
142
1.0
295
     0
296
     0
143
3.75
1001
ACAD_MLEADERVER
1070
     2
  0
MLINESTYLE
  5
18
102
{ACAD_REACTORS
330
17
102
}
330
17
100
AcDbMlineStyle
  2
STANDARD
 70
     0
  3

 62
   256
 51
90.0
 52
90.0
 71
     2
 49
0.5
 62
   256
  6
BYLAYER
 49
-0.5
 62
   256
  6
BYLAYER
  0
ACDBPLACEHOLDER
  5
F
102
{ACAD_REACTORS
330
E
102
}
330
E
  0
SCALE
  5
48
102
{ACAD_REACTORS
330
47
102
}
330
47
100
AcDbScale
 70
     0
300
1:1
140
1.0
141
1.0
290
     1
  0
SCALE
  5
49
102
{ACAD_REACTORS
330
47
102
}
330
47
100
AcDbScale
 70
     0
300
1:2
140
1.0
141
2.0
290
     0
  0
SCALE
  5
4A
102
{ACAD_REACTORS
330
47
102
}
330
47
100
AcDbScale
 70
     0
300
1:4
140
1.0
141
4.0
290
     0
  0
SCALE
  5
4B
102
{ACAD_REACTORS
330
47
102
}
330
47
100
AcDbScale
 70
     0
300
1:5
140
1.0
141
5.0
290
     0
  0
SCALE
  5
4C
102
{ACAD_REACTORS
330
47
102
}
330
47
100
AcDbScale
 70
     0
300
1:8
140
1.0
141
8.0
290
     0
  0
SCALE
  5
4D
102
{ACAD_REACTORS
330
47
102
}
330
47
100
AcDbScale
 70
     0
300
1:10
140
1.0
141
10.0
290
     0
  0
SCALE
  5
4E
102
{ACAD_REACTORS
330
47
102
}
330
47
100
AcDbScale
 70
     0
300
1:16
140
1.0
141
16.0
290
     0
  0
SCALE
  5
4F
102
{ACAD_REACTORS
330
47
102
}
330
47
100
AcDbScale
 70
     0
300
1:20
140
1.0
141
20.0
290
     0
  0
SCALE
  5
50
102
{ACAD_REACTORS
330
47
102
}
330
47
100
AcDbScale
 70
     0
300
1:30
140
1.0
141
30.0
290
     0
  0
SCALE
  5
51
102
{ACAD_REACTORS
330
47
102
}
330
47
100
AcDbScale
 70
     0
300
1:40
140
1.0
141
40.0
290
     0
  0
SCALE
  5
52
102
{ACAD_REACTORS
330
47
102
}
330
47
100
AcDbScale
 70
     0
300
1:50
140
1.0
141
50.0
290
     0
  0
SCALE
  5
53
102
{ACAD_REACTORS
330
47
102
}
330
47
100
AcDbScale
 70
     0
300
1:100
140
1.0
141
100.0
290
     0
  0
SCALE
  5
54
102
{ACAD_REACTORS
330
47
102
}
330
47
100
AcDbScale
 70
     0
300
2:1
140
2.0
141
1.0
290
     0
  0
SCALE
  5
55
102
{ACAD_REACTORS
330
47
102
}
330
47
100
AcDbScale
 70
     0
300
4:1
140
4.0
141
1.0
290
     0
  0
SCALE
  5
56
102
{ACAD_REACTORS
330
47
102
}
330
47
100
AcDbScale
 70
     0
300
8:1
140
8.0
141
1.0
290
     0
  0
SCALE
  5
57
102
{ACAD_REACTORS
330
47
102
}
330
47
100
AcDbScale
 70
     0
300
10:1
140
10.0
141
1.0
290
     0
  0
SCALE
  5
58
102
{ACAD_REACTORS
330
47
102
}
330
47
100
AcDbScale
 70
     0
300
100:1
140
100.0
141
1.0
290
     0
  0
ACDBSECTIONVIEWSTYLE
  5
218
102
{ACAD_XDICTIONARY
360
764
102
}
102
{ACAD_REACTORS
330
217
102
}
330
217
100
AcDbModelDocViewStyle
 70
     0
  3
Metric50
290
     0
100
AcDbSectionViewStyle
 70
     0
 71
     0
 90
      102
 71
     1
340
11
 40
5.0
340
0
340
0
 40
5.0
300
I, O, Q, S, X, Z
 40
10.0
 90
        0
 40
2.5
 90
        0
 71
     2
340
16
 90
       25
340
16
 90
       50
 40
5.0
 40
2.5
 40
5.0
 71
     3
340
11
 40
5.0
 90
        0
 40
15.0
 90
        1
300
%<\AcVar ViewSectionStartId>%-%<\AcVar ViewSectionEndId>% (%<\AcVar ViewScale \f "%sn">%)
 71
     4
300
ANSI31
 40
1.0
 90
        0
290
     0
290
     0
 90
        6
 40
0.0
 40
1.570796326794896
 40
0.2617993877991494
 40
1.308996938995747
 40
-0.2617993877991494
 40
1.832595714594045
  0
TABLESTYLE
  5
5A
102
{ACAD_XDICTIONARY
360
61B
102
}
102
{ACAD_REACTORS
330
59
102
}
330
59
100
AcDbTableStyle
  3
Standard
 70
     0
 71
     0
 40
1.5
 41
1.5
280
     0
281
     0
  7
Standard
140
4.5
170
     2
 62
     0
 63
     7
283
     0
274
    -2
284
     1
 64
     0
275
    -2
285
     1
 65
     0
276
    -2
286
     1
 66
     0
277
    -2
287
     1
 67
     0
278
    -2
288
     1
 68
     0
279
    -2
289
     1
 69
     0
  7
Standard
140
6.0
170
     5
 62
     0
 63
     7
283
     0
274
    -2
284
     1
 64
     0
275
    -2
285
     1
 65
     0
276
    -2
286
     1
 66
     0
277
    -2
287
     1
 67
     0
278
    -2
288
     1
 68
     0
279
    -2
289
     1
 69
     0
  7
Standard
140
4.5
170
     5
 62
     0
 63
     7
283
     0
274
    -2
284
     1
 64
     0
275
    -2
285
     1
 65
     0
276
    -2
286
     1
 66
     0
277
    -2
287
     1
 67
     0
278
    -2
288
     1
 68
     0
279
    -2
289
     1
 69
     0
  0
VISUALSTYLE
  5
2F
102
{ACAD_XDICTIONARY
360
73B
102
}
102
{ACAD_REACTORS
330
2A
102
}
330
2A
100
AcDbVisualStyle
  2

 70
     4
 71
     0
 72
     2
 73
     0
 90
        0
 40
-0.6
 41
-30.0
 62
     5
 63
     7
 74
     1
 91
        4
 64
     7
 65
   257
 75
     1
175
     1
 42
1.0
 92
        0
 66
   257
 43
1.0
 76
     1
 77
     6
 78
     2
 67
     7
 79
     5
170
     0
171
     0
290
     0
174
     0
 93
        1
 44
0.0
173
     0
291
     0
 45
0.0
1001
ACAD
1000
AcDbSavedByObjectVersion
1070
     0
  0
VISUALSTYLE
  5
32
102
{ACAD_XDICTIONARY
360
741
102
}
102
{ACAD_REACTORS
330
2A
102
}
330
2A
100
AcDbVisualStyle
  2

 70
     7
 71
     1
 72
     0
 73
     1
 90
        0
 40
-0.6
 41
-30.0
 62
     5
 63
     7
 74
     0
 91
        4
 64
     7
 65
   257
 75
     1
175
     1
 42
1.0
 92
        8
 66
     7
 43
1.0
 76
     1
 77
     6
 78
     2
 67
     7
 79
     5
170
     0
171
     0
290
     0
174
     0
 93
        1
 44
0.0
173
     0
291
     1
 45
0.0
1001
ACAD
1000
AcDbSavedByObjectVersion
1070
     0
  0
VISUALSTYLE
  5
36
102
{ACAD_XDICTIONARY
360
749
102
}
102
{ACAD_REACTORS
330
2A
102
}
330
2A
100
AcDbVisualStyle
  2

 70
    12
 71
     2
 72
     2
 73
     0
 90
        0
 40
-0.6
 41
-30.0
 62
     5
 63
     7
 74
     1
 91
        4
 64
     7
 65
   257
 75
     1
175
     1
 42
1.0
 92
        8
 66
     7
 43
1.0
 76
     1
 77
     6
 78
     2
 67
     7
 79
     5
170
     0
171
     0
290
     0
174
     0
 93
        1
 44
50.0
173
     0
291
     1
 45
0.0
1001
ACAD
1000
AcDbSavedByObjectVersion
1070
     0
  0
VISUALSTYLE
  5
3A
102
{ACAD_XDICTIONARY
360
751
102
}
102
{ACAD_REACTORS
330
2A
102
}
330
2A
100
AcDbVisualStyle
  2

 70
    16
 71
     2
 72
     2
 73
     3
 90
        0
 40
-0.6
 41
-30.0
 62
     5
 63
     8
 74
     1
 91
        4
 64
     7
 65
   257
 75
     1
175
     1
 42
1.0
 92
        8
 66
     8
 43
1.0
 76
     1
 77
     6
 78
     2
 67
     7
 79
     5
170
     0
171
     0
290
     0
174
     0
 93
        1
 44
0.0
173
     0
291
     1
 45
0.0
1001
ACAD
1000
AcDbSavedByObjectVersion
1070
     0
  0
VISUALSTYLE
  5
34
102
{ACAD_XDICTIONARY
360
745
102
}
102
{ACAD_REACTORS
330
2A
102
}
330
2A
100
AcDbVisualStyle
  2

 70
     9
 71
     3
 72
     2
 73
     0
 90
        0
 40
-0.6
 41
-30.0
 62
     5
 63
     7
 74
     2
 91
        2
 64
     7
 65
   257
 75
     1
175
     1
 42
179.0
 92
        8
 66
     7
 43
1.0
 76
     1
 77
     6
 78
     2
 67
     7
 79
     3
170
     0
171
     0
290
     0
174
     0
 93
        1
 44
0.0
173
     0
291
     0
 45
0.0
1001
ACAD
1000
AcDbSavedByObjectVersion
1070
     0
  0
VISUALSTYLE
  5
35
102
{ACAD_XDICTIONARY
360
747
102
}
102
{ACAD_REACTORS
330
2A
102
}
330
2A
100
AcDbVisualStyle
  2

 70
    11
 71
     2
 72
     2
 73
     0
 90
        0
 40
-0.6
 41
-30.0
 62
     5
 63
     7
 74
     1
 91
        4
 64
     7
 65
   257
 75
     1
175
     1
 42
1.0
 92
        8
 66
     7
 43
1.0
 76
     1
 77
     6
 78
     2
 67
     7
 79
     5
170
     0
171
     0
290
     0
174
     0
 93
        1
 44
-50.0
173
     0
291
     1
 45
0.0
1001
ACAD
1000
AcDbSavedByObjectVersion
1070
     0
  0
VISUALSTYLE
  5
3D
102
{ACAD_XDICTIONARY
360
757
102
}
102
{ACAD_REACTORS
330
2A
102
}
330
2A
100
AcDbVisualStyle
  2

 70
    22
 71
     2
 72
     2
 73
     0
 90
        0
 40
-0.6
 41
-30.0
 62
     5
 63
     7
 74
     1
 91
        4
 64
     7
 65
   257
 75
     1
175
     1
 42
1.0
 92
        8
 66
     7
 43
1.0
 76
     1
 77
     6
 78
     2
 67
     7
 79
     5
170
     0
171
     0
290
     0
174
     0
 93
        1
 44
0.0
173
     0
291
     1
 45
0.0
1001
ACAD
1000
AcDbSavedByObjectVersion
1070
     0
  0
VISUALSTYLE
  5
39
102
{ACAD_XDICTIONARY
360
74F
102
}
102
{ACAD_REACTORS
330
2A
102
}
330
2A
100
AcDbVisualStyle
  2

 70
    15
 71
     2
 72
     2
 73
     0
 90
        0
 40
-0.6
 41
-30.0
 62
     5
 63
     7
 74
     1
 91
        4
 64
     7
 65
   257
 75
     1
175
     1
 42
1.0
 92
        8
 66
     7
 43
1.0
 76
     1
 77
     6
 78
     2
 67
     7
 79
     5
170
     0
171
     0
290
     0
174
     0
 93
        1
 44
0.0
173
     0
291
     1
 45
0.0
1001
ACAD
1000
AcDbSavedByObjectVersion
1070
     0
  0
VISUALSTYLE
  5
2B
102
{ACAD_XDICTIONARY
360
733
102
}
102
{ACAD_REACTORS
330
2A
102
}
330
2A
100
AcDbVisualStyle
  2

 70
     0
 71
     2
 72
     1
 73
     1
 90
        2
 40
-0.6
 41
30.0
 62
     5
 63
     7
 74
     0
 91
        0
 64
     7
 65
   257
 75
     1
175
     1
 42
1.0
 92
        8
 66
     7
 43
1.0
 76
     1
 77
     6
 78
     2
 67
     7
 79
     5
170
     0
171
     0
290
     0
174
     0
 93
       13
 44
0.0
173
     0
291
     1
 45
0.0
1001
ACAD
1000
AcDbSavedByObjectVersion
1070
     0
  0
VISUALSTYLE
  5
2C
102
{ACAD_XDICTIONARY
360
735
102
}
102
{ACAD_REACTORS
330
2A
102
}
330
2A
100
AcDbVisualStyle
  2

 70
     1
 71
     2
 72
     1
 73
     1
 90
        2
 40
-0.6
 41
30.0
 62
     5
 63
     7
 74
     1
 91
        0
 64
     7
 65
   257
 75
     1
175
     1
 42
1.0
 92
        0
 66
   257
 43
1.0
 76
     1
 77
     6
 78
     2
 67
     7
 79
     5
170
     0
171
     0
290
     0
174
     0
 93
       13
 44
0.0
173
     0
291
     1
 45
0.0
1001
ACAD
1000
AcDbSavedByObjectVersion
1070
     0
  0
VISUALSTYLE
  5
2D
102
{ACAD_XDICTIONARY
360
737
102
}
102
{ACAD_REACTORS
330
2A
102
}
330
2A
100
AcDbVisualStyle
  2

 70
     2
 71
     2
 72
     2
 73
     1
 90
        2
 40
-0.6
 41
30.0
 62
     5
 63
     7
 74
     0
 91
        0
 64
     7
 65
   257
 75
     1
175
     1
 42
1.0
 92
        0
 66
     7
 43
1.0
 76
     1
 77
     6
 78
     2
 67
     7
 79
     5
170
     0
171
     0
290
     0
174
     0
 93
       13
 44
0.0
173
     0
291
     1
 45
0.0
1001
ACAD
1000
AcDbSavedByObjectVersion
1070
     0
  0
VISUALSTYLE
  5
2E
102
{ACAD_XDICTIONARY
360
739
102
}
102
{ACAD_REACTORS
330
2A
102
}
330
2A
100
AcDbVisualStyle
  2

 70
     3
 71
     2
 72
     2
 73
     1
 90
        2
 40
-0.6
 41
30.0
 62
     5
 63
     7
 74
     1
 91
        0
 64
     7
 65
   257
 75
     1
175
     1
 42
1.0
 92
        0
 66
   257
 43
1.0
 76
     1
 77
     6
 78
     2
 67
     7
 79
     5
170
     0
171
     0
290
     0
174
     0
 93
       13
 44
0.0
173
     0
291
     1
 45
0.0
1001
ACAD
1000
AcDbSavedByObjectVersion
1070
     0
  0
VISUALSTYLE
  5
31
102
{ACAD_XDICTIONARY
360
73F
102
}
102
{ACAD_REACTORS
330
2A
102
}
330
2A
100
AcDbVisualStyle
  2

 70
     6
 71
     1
 72
     2
 73
     2
 90
        0
 40
-0.6
 41
-30.0
 62
     5
 63
     7
 74
     2
 91
        2
 64
     7
 65
   257
 75
     2
175
     1
 42
40.0
 92
        0
 66
   257
 43
1.0
 76
     1
 77
     6
 78
     2
 67
     7
 79
     3
170
     0
171
     0
290
     0
174
     0
 93
        1
 44
0.0
173
     0
291
     0
 45
0.0
1001
ACAD
1000
AcDbSavedByObjectVersion
1070
     0
  0
VISUALSTYLE
  5
3B
102
{ACAD_XDICTIONARY
360
753
102
}
102
{ACAD_REACTORS
330
2A
102
}
330
2A
100
AcDbVisualStyle
  2

 70
    20
 71
     2
 72
     2
 73
     0
 90
        0
 40
-0.6
 41
-30.0
 62
     5
 63
     7
 74
     1
 91
        4
 64
     7
 65
   257
 75
     1
175
     1
 42
1.0
 92
       10
 66
     7
 43
1.0
 76
     1
 77
     6
 78
     2
 67
     7
 79
     5
170
     0
171
     0
290
     0
174
     0
 93
        1
 44
0.0
173
     0
291
     1
 45
0.0
1001
ACAD
1000
AcDbSavedByObjectVersion
1070
     0
  0
VISUALSTYLE
  5
38
102
{ACAD_XDICTIONARY
360
74D
102
}
102
{ACAD_REACTORS
330
2A
102
}
330
2A
100
AcDbVisualStyle
  2

 70
    14
 71
     2
 72
     2
 73
     0
 90
        0
 40
-0.6
 41
-30.0
 62
     5
 63
     7
 74
     1
 91
        4
 64
     7
 65
   257
 75
     7
175
     7
 42
1.0
 92
        8
 66
     7
 43
1.0
 76
     1
 77
     6
 78
     2
 67
     7
 79
     5
170
     0
171
     0
290
     0
174
     0
 93
        1
 44
0.0
173
     0
291
     1
 45
0.0
1001
ACAD
1000
AcDbSavedByObjectVersion
1070
     0
  0
VISUALSTYLE
  5
3C
102
{ACAD_XDICTIONARY
360
755
102
}
102
{ACAD_REACTORS
330
2A
102
}
330
2A
100
AcDbVisualStyle
  2

 70
    21
 71
     2
 72
     2
 73
     0
 90
        0
 40
-0.6
 41
-30.0
 62
     5
 63
     7
 74
     1
 91
        4
 64
     7
 65
   257
 75
     1
175
     1
 42
1.0
 92
        9
 66
     7
 43
1.0
 76
     1
 77
     6
 78
     2
 67
     7
 79
     5
170
     0
171
     0
290
     0
174
     0
 93
        1
 44
0.0
173
     0
291
     1
 45
0.0
1001
ACAD
1000
AcDbSavedByObjectVersion
1070
     0
  0
VISUALSTYLE
  5
33
102
{ACAD_XDICTIONARY
360
743
102
}
102
{ACAD_REACTORS
330
2A
102
}
330
2A
100
AcDbVisualStyle
  2

 70
     8
 71
     2
 72
     3
 73
     0
 90
        2
 40
-0.6
 41
30.0
 62
     5
 63
     7
 74
     0
 91
        0
 64
     7
 65
   257
 75
     1
175
     1
 42
1.0
 92
        8
 66
   257
 43
1.0
 76
     1
 77
     6
 78
     2
 67
     7
 79
     3
170
     0
171
     0
290
     0
174
     0
 93
       13
 44
0.0
173
     0
291
     0
 45
0.0
1001
ACAD
1000
AcDbSavedByObjectVersion
1070
     0
  0
VISUALSTYLE
  5
42
102
{ACAD_XDICTIONARY
360
761
102
}
102
{ACAD_REACTORS
330
2A
102
}
330
2A
100
AcDbVisualStyle
  2

 70
    27
 71
     2
 72
     2
 73
     1
 90
        2
 40
-0.6
 41
30.0
 62
     5
 63
     7
 74
     0
 91
        4
 64
     7
 65
   257
 75
     1
175
     1
 42
1.0
 92
        8
 66
   257
 43
1.0
 76
     1
 77
     6
 78
     2
 67
     8
 79
     3
170
     0
171
     0
290
     0
174
     0
 93
        5
 44
0.0
173
     0
291
     0
 45
0.0
1001
ACAD
1000
AcDbSavedByObjectVersion
1070
     0
  0
VISUALSTYLE
  5
41
102
{ACAD_XDICTIONARY
360
75F
102
}
102
{ACAD_REACTORS
330
2A
102
}
330
2A
100
AcDbVisualStyle
  2

 70
    26
 71
     2
 72
     2
 73
     1
 90
        2
 40
-0.6
 41
30.0
 62
     5
 63
     7
 74
     1
 91
       10
 64
     7
 65
   257
 75
     2
175
     1
 42
1.0
 92
        8
 66
   257
 43
1.0
 76
     1
 77
     6
 78
     2
 67
     7
 79
     3
170
     0
171
     0
290
     0
174
     0
 93
        5
 44
0.0
173
     0
291
     0
 45
0.0
1001
ACAD
1000
AcDbSavedByObjectVersion
1070
     0
  0
VISUALSTYLE
  5
3E
102
{ACAD_XDICTIONARY
360
759
102
}
102
{ACAD_REACTORS
330
2A
102
}
330
2A
100
AcDbVisualStyle
  2

 70
    23
 71
     2
 72
     2
 73
     3
 90
        0
 40
-0.6
 41
-30.0
 62
     5
 63
     7
 74
     2
 91
        2
 64
     7
 65
     7
 75
     1
175
     1
 42
40.0
 92
        8
 66
     7
 43
1.0
 76
     1
 77
     6
 78
     2
 67
     7
 79
     3
170
     0
171
     0
290
     0
174
     0
 93
        1
 44
0.0
173
     0
291
     0
 45
0.0
1001
ACAD
1000
AcDbSavedByObjectVersion
1070
     0
  0
VISUALSTYLE
  5
3F
102
{ACAD_XDICTIONARY
360
75B
102
}
102
{ACAD_REACTORS
330
2A
102
}
330
2A
100
AcDbVisualStyle
  2

 70
    24
 71
     1
 72
     2
 73
     2
 90
        0
 40
-0.6
 41
-30.0
 62
     5
 63
     7
 74
     2
 91
        2
 64
     7
 65
     7
 75
     1
175
     1
 42
40.0
 92
       11
 66
     7
 43
1.0
 76
     1
 77
     6
 78
     2
 67
     7
 79
     6
170
     0
171
     0
290
     0
174
     0
 93
        1
 44
0.0
173
     0
291
     0
 45
0.0
1001
ACAD
1000
AcDbSavedByObjectVersion
1070
     0
  0
VISUALSTYLE
  5
37
102
{ACAD_XDICTIONARY
360
74B
102
}
102
{ACAD_REACTORS
330
2A
102
}
330
2A
100
AcDbVisualStyle
  2

 70
    13
 71
     2
 72
     2
 73
     0
 90
        0
 40
-0.6
 41
-30.0
 62
     5
 63
     7
 74
     1
 91
        4
 64
     7
 65
   257
 75
     1
175
     1
 42
1.0
 92
       12
 66
     7
 43
1.0
 76
     1
 77
     6
 78
     2
 67
     7
 79
     5
170
     0
171
     0
290
     0
174
     0
 93
        1
 44
0.0
173
     0
291
     1
 45
0.0
1001
ACAD
1000
AcDbSavedByObjectVersion
1070
     0
  0
VISUALSTYLE
  5
30
102
{ACAD_XDICTIONARY
360
73D
102
}
102
{ACAD_REACTORS
330
2A
102
}
330
2A
100
AcDbVisualStyle
  2

 70
     5
 71
     0
 72
     2
 73
     0
 90
        0
 40
-0.6
 41
-30.0
 62
     5
 63
     7
 74
     1
 91
        4
 64
     7
 65
   257
 75
     1
175
     1
 42
1.0
 92
        0
 66
   257
 43
1.0
 76
     1
 77
     6
 78
     2
 67
     7
 79
     3
170
     0
171
     0
290
     0
174
     0
 93
        1
 44
0.0
173
     0
291
     0
 45
0.0
1001
ACAD
1000
AcDbSavedByObjectVersion
1070
     0
  0
VISUALSTYLE
  5
40
102
{ACAD_XDICTIONARY
360
75D
102
}
102
{ACAD_REACTORS
330
2A
102
}
330
2A
100
AcDbVisualStyle
  2

 70
    25
 71
     2
 72
     2
 73
     1
 90
        1
 40
0.5
 41
-30.0
 62
     5
 63
     7
 74
     1
 91
        0
 64
     7
 65
   257
 75
     1
175
     1
 42
1.0
 92
        8
 66
     7
 43
1.0
 76
     1
 77
     6
 78
     2
 67
     7
 79
     3
170
     0
171
     0
290
     0
174
     0
 93
       13
 44
0.0
173
     0
291
     0
 45
0.0
1001
ACAD
1000
AcDbSavedByObjectVersion
1070
     0
  0
DICTIONARYVAR
  5
1D9
102
{ACAD_REACTORS
330
1CB
102
}
330
1CB
100
DictionaryVariables
280
     0
  1
1:1
  0
DICTIONARYVAR
  5
1D2
102
{ACAD_REACTORS
330
1CB
102
}
330
1CB
100
DictionaryVariables
280
     0
  1
3.500000
  0
DICTIONARYVAR
  5
1D3
102
{ACAD_REACTORS
330
1CB
102
}
330
1CB
100
DictionaryVariables
280
     0
  1
acadiso.lin
  0
DICTIONARYVAR
  5
1CD
102
{ACAD_REACTORS
330
1CB
102
}
330
1CB
100
DictionaryVariables
280
     0
  1
STANDARD
  0
DICTIONARYVAR
  5
1CC
102
{ACAD_REACTORS
330
1CB
102
}
330
1CB
100
DictionaryVariables
280
     0
  1
STANDARD
  0
DICTIONARYVAR
  5
616
102
{ACAD_REACTORS
330
1CB
102
}
330
1CB
100
DictionaryVariables
280
     0
  1
Metric50
  0
DICTIONARYVAR
  5
617
102
{ACAD_REACTORS
330
1CB
102
}
330
1CB
100
DictionaryVariables
280
     0
  1
Metric50
  0
DICTIONARYVAR
  5
1D4
102
{ACAD_REACTORS
330
1CB
102
}
330
1CB
100
DictionaryVariables
280
     0
  1
2
  0
DICTIONARYVAR
  5
1D5
102
{ACAD_REACTORS
330
1CB
102
}
330
1CB
100
DictionaryVariables
280
     0
  1
1
  0
DICTIONARYVAR
  5
664
102
{ACAD_REACTORS
330
1CB
102
}
330
1CB
100
DictionaryVariables
280
     0
  1
0
  0
DICTIONARYVAR
  5
619
102
{ACAD_REACTORS
330
1CB
102
}
330
1CB
100
DictionaryVariables
280
     0
  1
1
  0
DICTIONARYVAR
  5
61A
102
{ACAD_REACTORS
330
1CB
102
}
330
1CB
100
DictionaryVariables
280
     0
  1
15
  0
DICTIONARYVAR
  5
618
102
{ACAD_REACTORS
330
1CB
102
}
330
1CB
100
DictionaryVariables
280
     0
  1
0
  0
DICTIONARYVAR
  5
667
102
{ACAD_REACTORS
330
1CB
102
}
330
1CB
100
DictionaryVariables
280
     0
  1
1.570796
  0
DICTIONARYVAR
  5
668
102
{ACAD_REACTORS
330
1CB
102
}
330
1CB
100
DictionaryVariables
280
     0
  1
1.570796
  0
DICTIONARYVAR
  5
669
102
{ACAD_REACTORS
330
1CB
102
}
330
1CB
100
DictionaryVariables
280
     0
  1
-122.394000
  0
DICTIONARYVAR
  5
1DA
102
{ACAD_REACTORS
330
1CB
102
}
330
1CB
100
DictionaryVariables
280
     0
  1
1
  0
DICTIONARYVAR
  5
666
102
{ACAD_REACTORS
330
1CB
102
}
330
1CB
100
DictionaryVariables
280
     0
  1
80.000000
  0
DICTIONARYVAR
  5
665
102
{ACAD_REACTORS
330
1CB
102
}
330
1CB
100
DictionaryVariables
280
     0
  1
5.000000
  0
DICTIONARYVAR
  5
663
102
{ACAD_REACTORS
330
1CB
102
}
330
1CB
100
DictionaryVariables
280
     0
  1
127
  0
DICTIONARYVAR
  5
66A
102
{ACAD_REACTORS
330
1CB
102
}
330
1CB
100
DictionaryVariables
280
     0
  1
2
  0
DICTIONARY
  5
766
330
21A
100
AcDbDictionary
280
     1
281
     1
  3
ACAD_XREC_ROUNDTRIP
360
767
  0
DICTIONARY
  5
72F
330
1E
100
AcDbDictionary
280
     1
281
     1
  3
ACAD_XREC_ROUNDTRIP
360
730
  0
DICTIONARY
  5
731
330
22
100
AcDbDictionary
280
     1
281
     1
  3
ACAD_XREC_ROUNDTRIP
360
732
  0
DICTIONARY
  5
768
330
21B
100
AcDbDictionary
280
     1
281
     1
  3
ACAD_XREC_ROUNDTRIP
360
769
  0
DICTIONARY
  5
20D
330
45
100
AcDbDictionary
280
     1
281
     1
  3
ACAD_XREC_ROUNDTRIP
360
20E
  0
DICTIONARY
  5
20B
330
44
100
AcDbDictionary
280
     1
281
     1
  3
ACAD_XREC_ROUNDTRIP
360
20C
  0
DICTIONARY
  5
20F
330
46
100
AcDbDictionary
280
     1
281
     1
  3
ACAD_XREC_ROUNDTRIP
360
210
  0
DICTIONARY
  5
764
330
218
100
AcDbDictionary
280
     1
281
     1
  3
ACAD_XREC_ROUNDTRIP
360
765
  0
DICTIONARY
  5
61B
330
5A
100
AcDbDictionary
280
     1
281
     1
  3
ACAD_ROUNDTRIP_2008_TABLESTYLE_CELLSTYLEMAP
360
72C
  3
ACAD_XREC_ROUNDTRIP
360
763
  0
DICTIONARY
  5
73B
330
2F
100
AcDbDictionary
280
     1
281
     1
  3
ACAD_XREC_ROUNDTRIP
360
73C
  0
DICTIONARY
  5
741
330
32
100
AcDbDictionary
280
     1
281
     1
  3
ACAD_XREC_ROUNDTRIP
360
742
  0
DICTIONARY
  5
749
330
36
100
AcDbDictionary
280
     1
281
     1
  3
ACAD_XREC_ROUNDTRIP
360
74A
  0
DICTIONARY
  5
751
330
3A
100
AcDbDictionary
280
     1
281
     1
  3
ACAD_XREC_ROUNDTRIP
360
752
  0
DICTIONARY
  5
745
330
34
100
AcDbDictionary
280
     1
281
     1
  3
ACAD_XREC_ROUNDTRIP
360
746
  0
DICTIONARY
  5
747
330
35
100
AcDbDictionary
280
     1
281
     1
  3
ACAD_XREC_ROUNDTRIP
360
748
  0
DICTIONARY
  5
757
330
3D
100
AcDbDictionary
280
     1
281
     1
  3
ACAD_XREC_ROUNDTRIP
360
758
  0
DICTIONARY
  5
74F
330
39
100
AcDbDictionary
280
     1
281
     1
  3
ACAD_XREC_ROUNDTRIP
360
750
  0
DICTIONARY
  5
733
330
2B
100
AcDbDictionary
280
     1
281
     1
  3
ACAD_XREC_ROUNDTRIP
360
734
  0
DICTIONARY
  5
735
330
2C
100
AcDbDictionary
280
     1
281
     1
  3
ACAD_XREC_ROUNDTRIP
360
736
  0
DICTIONARY
  5
737
330
2D
100
AcDbDictionary
280
     1
281
     1
  3
ACAD_XREC_ROUNDTRIP
360
738
  0
DICTIONARY
  5
739
330
2E
100
AcDbDictionary
280
     1
281
     1
  3
ACAD_XREC_ROUNDTRIP
360
73A
  0
DICTIONARY
  5
73F
330
31
100
AcDbDictionary
280
     1
281
     1
  3
ACAD_XREC_ROUNDTRIP
360
740
  0
DICTIONARY
  5
753
330
3B
100
AcDbDictionary
280
     1
281
     1
  3
ACAD_XREC_ROUNDTRIP
360
754
  0
DICTIONARY
  5
74D
330
38
100
AcDbDictionary
280
     1
281
     1
  3
ACAD_XREC_ROUNDTRIP
360
74E
  0
DICTIONARY
  5
755
330
3C
100
AcDbDictionary
280
     1
281
     1
  3
ACAD_XREC_ROUNDTRIP
360
756
  0
DICTIONARY
  5
743
330
33
100
AcDbDictionary
280
     1
281
     1
  3
ACAD_XREC_ROUNDTRIP
360
744
  0
DICTIONARY
  5
761
330
42
100
AcDbDictionary
280
     1
281
     1
  3
ACAD_XREC_ROUNDTRIP
360
762
  0
DICTIONARY
  5
75F
330
41
100
AcDbDictionary
280
     1
281
     1
  3
ACAD_XREC_ROUNDTRIP
360
760
  0
DICTIONARY
  5
759
330
3E
100
AcDbDictionary
280
     1
281
     1
  3
ACAD_XREC_ROUNDTRIP
360
75A
  0
DICTIONARY
  5
75B
330
3F
100
AcDbDictionary
280
     1
281
     1
  3
ACAD_XREC_ROUNDTRIP
360
75C
  0
DICTIONARY
  5
74B
330
37
100
AcDbDictionary
280
     1
281
     1
  3
ACAD_XREC_ROUNDTRIP
360
74C
  0
DICTIONARY
  5
73D
330
30
100
AcDbDictionary
280
     1
281
     1
  3
ACAD_XREC_ROUNDTRIP
360
73E
  0
DICTIONARY
  5
75D
330
40
100
AcDbDictionary
280
     1
281
     1
  3
ACAD_XREC_ROUNDTRIP
360
75E
  0
XRECORD
  5
767
102
{ACAD_REACTORS
330
766
102
}
330
766
100
AcDbXrecord
280
     1
102
DISPLAYNAME
  1
Metric50
102
FLAGS
 90
        0
  0
XRECORD
  5
730
102
{ACAD_REACTORS
330
72F
102
}
330
72F
100
AcDbXrecord
280
     1
102
SHADEPLOT
 70
     0
102
SHADEPLOTRESLEVEL
 70
     2
102
SHADEPLOTCUSTOMDPI
 70
   300
  0
XRECORD
  5
732
102
{ACAD_REACTORS
330
731
102
}
330
731
100
AcDbXrecord
280
     1
102
SHADEPLOT
 70
     0
102
SHADEPLOTRESLEVEL
 70
     2
102
SHADEPLOTCUSTOMDPI
 70
   300
  0
XRECORD
  5
769
102
{ACAD_REACTORS
330
768
102
}
330
768
100
AcDbXrecord
280
     1
102
SHADEPLOT
 70
     0
102
SHADEPLOTRESLEVEL
 70
     2
102
SHADEPLOTCUSTOMDPI
 70
   300
  0
XRECORD
  5
20E
102
{ACAD_REACTORS
330
20D
102
}
330
20D
100
AcDbXrecord
280
     1
102
MATERIAL
148
0.0
149
0.0
149
0.0
 93
        0
 94
      127
282
     0
 72
     1
 77
     1
171
     1
175
     1
179
     1
273
     0
  0
XRECORD
  5
20C
102
{ACAD_REACTORS
330
20B
102
}
330
20B
100
AcDbXrecord
280
     1
102
MATERIAL
148
0.0
149
0.0
149
0.0
 93
        0
 94
      127
282
     0
 72
     1
 77
     1
171
     1
175
     1
179
     1
273
     0
  0
XRECORD
  5
210
102
{ACAD_REACTORS
330
20F
102
}
330
20F
100
AcDbXrecord
280
     1
102
MATERIAL
148
0.0
149
0.0
149
0.0
 93
        0
 94
      127
282
     0
 72
     1
 77
     1
171
     1
175
     1
179
     1
273
     0
  0
XRECORD
  5
765
102
{ACAD_REACTORS
330
764
102
}
330
764
100
AcDbXrecord
280
     1
102
DISPLAYNAME
  1
Metric50
102
FLAGS
 90
        0
  0
CELLSTYLEMAP
  5
72C
102
{ACAD_REACTORS
330
61B
102
}
330
61B
100
AcDbCellStyleMap
 90
        3
300
CELLSTYLE
  1
TABLEFORMAT_BEGIN
 90
        5
170
     1
 91
        0
 92
    32768
 62
   257
 93
        1
300
CONTENTFORMAT
  1
CONTENTFORMAT_BEGIN
 90
        0
 91
        0
 92
        4
 93
        0
300

 40
0.0
140
1.0
 94
        5
 62
     0
340
11
144
6.0
309
CONTENTFORMAT_END
171
     1
301
MARGIN
  1
CELLMARGIN_BEGIN
 40
1.5
 40
1.5
 40
1.5
 40
1.5
 40
0.18
 40
0.18
309
CELLMARGIN_END
 94
        6
 95
        1
302
GRIDFORMAT
  1
GRIDFORMAT_BEGIN
 90
        0
 91
        1
 62
     0
 92
       -2
340
0
 93
        0
 40
0.045
309
GRIDFORMAT_END
 95
        2
302
GRIDFORMAT
  1
GRIDFORMAT_BEGIN
 90
        0
 91
        1
 62
     0
 92
       -2
340
0
 93
        0
 40
0.045
309
GRIDFORMAT_END
 95
        4
302
GRIDFORMAT
  1
GRIDFORMAT_BEGIN
 90
        0
 91
        1
 62
     0
 92
       -2
340
0
 93
        0
 40
0.045
309
GRIDFORMAT_END
 95
        8
302
GRIDFORMAT
  1
GRIDFORMAT_BEGIN
 90
        0
 91
        1
 62
     0
 92
       -2
340
0
 93
        0
 40
0.045
309
GRIDFORMAT_END
 95
       16
302
GRIDFORMAT
  1
GRIDFORMAT_BEGIN
 90
        0
 91
        1
 62
     0
 92
       -2
340
0
 93
        0
 40
0.045
309
GRIDFORMAT_END
 95
       32
302
GRIDFORMAT
  1
GRIDFORMAT_BEGIN
 90
        0
 91
        1
 62
     0
 92
       -2
340
0
 93
        0
 40
0.045
309
GRIDFORMAT_END
309
TABLEFORMAT_END
  1
CELLSTYLE_BEGIN
 90
        1
 91
        1
300
_TITLE
309
CELLSTYLE_END
300
CELLSTYLE
  1
TABLEFORMAT_BEGIN
 90
        5
170
     1
 91
        0
 92
        0
 62
   257
 93
        1
300
CONTENTFORMAT
  1
CONTENTFORMAT_BEGIN
 90
        0
 91
        0
 92
        4
 93
        0
300

 40
0.0
140
1.0
 94
        5
 62
     0
340
11
144
4.5
309
CONTENTFORMAT_END
171
     1
301
MARGIN
  1
CELLMARGIN_BEGIN
 40
1.5
 40
1.5
 40
1.5
 40
1.5
 40
0.18
 40
0.18
309
CELLMARGIN_END
 94
        6
 95
        1
302
GRIDFORMAT
  1
GRIDFORMAT_BEGIN
 90
        0
 91
        1
 62
     0
 92
       -2
340
0
 93
        0
 40
0.045
309
GRIDFORMAT_END
 95
        2
302
GRIDFORMAT
  1
GRIDFORMAT_BEGIN
 90
        0
 91
        1
 62
     0
 92
       -2
340
0
 93
        0
 40
0.045
309
GRIDFORMAT_END
 95
        4
302
GRIDFORMAT
  1
GRIDFORMAT_BEGIN
 90
        0
 91
        1
 62
     0
 92
       -2
340
0
 93
        0
 40
0.045
309
GRIDFORMAT_END
 95
        8
302
GRIDFORMAT
  1
GRIDFORMAT_BEGIN
 90
        0
 91
        1
 62
     0
 92
       -2
340
0
 93
        0
 40
0.045
309
GRIDFORMAT_END
 95
       16
302
GRIDFORMAT
  1
GRIDFORMAT_BEGIN
 90
        0
 91
        1
 62
     0
 92
       -2
340
0
 93
        0
 40
0.045
309
GRIDFORMAT_END
 95
       32
302
GRIDFORMAT
  1
GRIDFORMAT_BEGIN
 90
        0
 91
        1
 62
     0
 92
       -2
340
0
 93
        0
 40
0.045
309
GRIDFORMAT_END
309
TABLEFORMAT_END
  1
CELLSTYLE_BEGIN
 90
        2
 91
        1
300
_HEADER
309
CELLSTYLE_END
300
CELLSTYLE
  1
TABLEFORMAT_BEGIN
 90
        5
170
     1
 91
        0
 92
        0
 62
   257
 93
        1
300
CONTENTFORMAT
  1
CONTENTFORMAT_BEGIN
 90
        0
 91
        0
 92
        4
 93
        0
300

 40
0.0
140
1.0
 94
        2
 62
     0
340
11
144
4.5
309
CONTENTFORMAT_END
171
     1
301
MARGIN
  1
CELLMARGIN_BEGIN
 40
1.5
 40
1.5
 40
1.5
 40
1.5
 40
0.18
 40
0.18
309
CELLMARGIN_END
 94
        6
 95
        1
302
GRIDFORMAT
  1
GRIDFORMAT_BEGIN
 90
        0
 91
        1
 62
     0
 92
       -2
340
0
 93
        0
 40
0.045
309
GRIDFORMAT_END
 95
        2
302
GRIDFORMAT
  1
GRIDFORMAT_BEGIN
 90
        0
 91
        1
 62
     0
 92
       -2
340
0
 93
        0
 40
0.045
309
GRIDFORMAT_END
 95
        4
302
GRIDFORMAT
  1
GRIDFORMAT_BEGIN
 90
        0
 91
        1
 62
     0
 92
       -2
340
0
 93
        0
 40
0.045
309
GRIDFORMAT_END
 95
        8
302
GRIDFORMAT
  1
GRIDFORMAT_BEGIN
 90
        0
 91
        1
 62
     0
 92
       -2
340
0
 93
        0
 40
0.045
309
GRIDFORMAT_END
 95
       16
302
GRIDFORMAT
  1
GRIDFORMAT_BEGIN
 90
        0
 91
        1
 62
     0
 92
       -2
340
0
 93
        0
 40
0.045
309
GRIDFORMAT_END
 95
       32
302
GRIDFORMAT
  1
GRIDFORMAT_BEGIN
 90
        0
 91
        1
 62
     0
 92
       -2
340
0
 93
        0
 40
0.045
309
GRIDFORMAT_END
309
TABLEFORMAT_END
  1
CELLSTYLE_BEGIN
 90
        3
 91
        2
300
_DATA
309
CELLSTYLE_END
  0
XRECORD
  5
763
102
{ACAD_REACTORS
330
61B
102
}
330
61B
100
AcDbXrecord
280
     1
102
ACAD_ROUNDTRIP_PRE2007_TABLESTYLE
 90
        4
 91
        0
  1

 92
        4
 93
        0
  2

 94
        4
 95
        0
  3

  0
XRECORD
  5
73C
102
{ACAD_REACTORS
330
73B
102
}
330
73B
100
AcDbXrecord
280
     1
102
RTVSPost2010Prop28
280
     1
102
RTVSPost2010PropOp28
 70
     1
102
RTVSPost2010Prop29
280
     1
102
RTVSPost2010PropOp29
 70
     1
102
RTVSPost2010Prop30
280
     0
102
RTVSPost2010PropOp30
 70
     1
102
RTVSPost2010Prop31
280
     0
102
RTVSPost2010PropOp31
 70
     1
102
RTVSPost2010Prop32
280
     0
102
RTVSPost2010PropOp32
 70
     1
102
RTVSPost2010Prop33
280
     0
102
RTVSPost2010PropOp33
 70
     1
102
RTVSPost2010Prop34
280
     0
102
RTVSPost2010PropOp34
 70
     1
102
RTVSPost2010Prop35
280
     0
102
RTVSPost2010PropOp35
 70
     1
102
RTVSPost2010Prop36
280
     0
102
RTVSPost2010PropOp36
 70
     1
102
RTVSPost2010Prop37
 90
       50
102
RTVSPost2010PropOp37
 70
     1
102
RTVSPost2010Prop38
140
0.0
102
RTVSPost2010PropOp38
 70
     1
102
RTVSPost2010Prop39
140
1.0
102
RTVSPost2010PropOp39
 70
     1
102
RTVSPost2010Prop40
 90
        0
102
RTVSPost2010PropOp40
 70
     1
102
RTVSPost2010Prop41ColorIndex
 90
       18
102
RTVSPost2010Prop41ColorRGB
 90
        0
102
RTVSPost2010PropOp41
 70
     1
102
RTVSPost2010Prop42
 90
       50
102
RTVSPost2010PropOp42
 70
     1
102
RTVSPost2010Prop43
 90
        3
102
RTVSPost2010PropOp43
 70
     1
102
RTVSPost2010Prop44ColorIndex
 90
        5
102
RTVSPost2010Prop44ColorRGB
 90
      255
102
RTVSPost2010PropOp44
 70
     1
102
RTVSPost2010Prop45
280
     0
102
RTVSPost2010PropOp45
 70
     1
102
RTVSPost2010Prop46
 90
       50
102
RTVSPost2010PropOp46
 70
     1
102
RTVSPost2010Prop47
 90
       50
102
RTVSPost2010PropOp47
 70
     1
102
RTVSPost2010Prop48
 90
       50
102
RTVSPost2010PropOp48
 70
     1
102
RTVSPost2010Prop49
280
     0
102
RTVSPost2010PropOp49
 70
     1
102
RTVSPost2010Prop50
 90
       50
102
RTVSPost2010PropOp50
 70
     1
102
RTVSPost2010Prop51ColorIndex
 90
      256
102
RTVSPost2010Prop51ColorRGB
 90
-16777216
102
RTVSPost2010PropOp51
 70
     0
102
RTVSPost2010Prop52
140
1.0
102
RTVSPost2010PropOp52
 70
     0
102
RTVSPost2010Prop53
 90
        2
102
RTVSPost2010PropOp53
 70
     1
102
RTVSPost2010Prop54
  1
strokes_ogs.tif
102
RTVSPost2010PropOp54
 70
     1
102
RTVSPost2010Prop55
280
     0
102
RTVSPost2010PropOp55
 70
     1
102
RTVSPost2010Prop56
140
1.0
102
RTVSPost2010PropOp56
 70
     1
102
RTVSPost2010Prop57
140
1.0
102
RTVSPost2010PropOp57
 70
     1
102
RTVSPropertyOp0
 70
     1
102
RTVSPropertyOp1
 70
     1
102
RTVSPropertyOp2
 70
     1
102
RTVSPropertyOp3
 70
     1
102
RTVSPropertyOp4
 70
     1
102
RTVSPropertyOp5
 70
     1
102
RTVSPropertyOp6
 70
     1
102
RTVSPropertyOp7
 70
     1
102
RTVSPropertyOp8
 70
     1
102
RTVSPropertyOp9
 70
     1
102
RTVSPropertyOp10
 70
     1
102
RTVSPropertyOp11
 70
     1
102
RTVSPropertyOp12
 70
     1
102
RTVSPropertyOp13
 70
     1
102
RTVSPropertyOp14
 70
     1
102
RTVSPropertyOp15
 70
     1
102
RTVSPropertyOp16
 70
     1
102
RTVSPropertyOp17
 70
     1
102
RTVSPropertyOp18
 70
     1
102
RTVSPropertyOp19
 70
     1
102
RTVSPropertyOp20
 70
     1
102
RTVSPropertyOp21
 70
     1
102
RTVSPropertyOp22
 70
     1
102
RTVSPropertyOp23
 70
     1
102
RTVSPropertyOp24
 70
     1
102
RTVSPropertyOp25
 70
     1
102
RTVSPropertyOp26
 70
     1
102
RTVSPropertyOp27
 70
     1
102
RTVSPropertyOp28
 70
     1
102
RTVSPropertyOp29
 70
     1
102
RTVSPropertyOp30
 70
     1
102
RTVSPropertyOp31
 70
     1
102
RTVSPropertyOp32
 70
     1
102
RTVSPropertyOp33
 70
     1
102
RTVSPropertyOp34
 70
     1
102
RTVSPropertyOp35
 70
     1
102
RTVSPropertyOp36
 70
     1
102
RTVSPropertyOp37
 70
     1
102
RTVSPropertyOp38
 70
     1
102
RTVSPropertyOp39
 70
     1
102
RTVSPropertyOp40
 70
     1
102
RTVSPropertyOp41
 70
     1
102
RTVSPropertyOp42
 70
     1
102
RTVSPropertyOp43
 70
     1
102
RTVSPropertyOp44
 70
     1
102
RTVSPropertyOp45
 70
     1
102
RTVSPropertyOp46
 70
     1
102
RTVSPropertyOp47
 70
     1
102
RTVSPropertyOp48
 70
     1
102
RTVSPropertyOp49
 70
     1
102
RTVSPropertyOp50
 70
     1
102
RTVSPropertyOp51
 70
     0
102
RTVSPropertyOp52
 70
     0
102
RTVSPropertyOp53
 70
     1
102
RTVSPropertyOp54
 70
     1
102
RTVSPropertyOp55
 70
     1
102
RTVSPropertyOp56
 70
     1
102
RTVSPropertyOp57
 70
     1
102
RTVSPropertyOp58
 70
     1
102
RTVSPropertyOp59
 70
     1
102
RTVSPropertyOp60
 70
     1
102
RTVSPropertyOp61
 70
     1
102
RTVSPropertyOp62
 70
     1
  0
XRECORD
  5
742
102
{ACAD_REACTORS
330
741
102
}
330
741
100
AcDbXrecord
280
     1
102
RTVSPost2010Prop28
280
     0
102
RTVSPost2010PropOp28
 70
     1
102
RTVSPost2010Prop29
280
     1
102
RTVSPost2010PropOp29
 70
     1
102
RTVSPost2010Prop30
280
     1
102
RTVSPost2010PropOp30
 70
     1
102
RTVSPost2010Prop31
280
     0
102
RTVSPost2010PropOp31
 70
     1
102
RTVSPost2010Prop32
280
     0
102
RTVSPost2010PropOp32
 70
     1
102
RTVSPost2010Prop33
280
     0
102
RTVSPost2010PropOp33
 70
     1
102
RTVSPost2010Prop34
280
     0
102
RTVSPost2010PropOp34
 70
     1
102
RTVSPost2010Prop35
280
     0
102
RTVSPost2010PropOp35
 70
     1
102
RTVSPost2010Prop36
280
     0
102
RTVSPost2010PropOp36
 70
     1
102
RTVSPost2010Prop37
 90
       50
102
RTVSPost2010PropOp37
 70
     1
102
RTVSPost2010Prop38
140
0.0
102
RTVSPost2010PropOp38
 70
     1
102
RTVSPost2010Prop39
140
1.0
102
RTVSPost2010PropOp39
 70
     1
102
RTVSPost2010Prop40
 90
        0
102
RTVSPost2010PropOp40
 70
     1
102
RTVSPost2010Prop41ColorIndex
 90
       18
102
RTVSPost2010Prop41ColorRGB
 90
        0
102
RTVSPost2010PropOp41
 70
     1
102
RTVSPost2010Prop42
 90
       50
102
RTVSPost2010PropOp42
 70
     1
102
RTVSPost2010Prop43
 90
        3
102
RTVSPost2010PropOp43
 70
     1
102
RTVSPost2010Prop44ColorIndex
 90
        5
102
RTVSPost2010Prop44ColorRGB
 90
      255
102
RTVSPost2010PropOp44
 70
     1
102
RTVSPost2010Prop45
280
     0
102
RTVSPost2010PropOp45
 70
     1
102
RTVSPost2010Prop46
 90
       50
102
RTVSPost2010PropOp46
 70
     1
102
RTVSPost2010Prop47
 90
       50
102
RTVSPost2010PropOp47
 70
     1
102
RTVSPost2010Prop48
 90
       50
102
RTVSPost2010PropOp48
 70
     1
102
RTVSPost2010Prop49
280
     0
102
RTVSPost2010PropOp49
 70
     1
102
RTVSPost2010Prop50
 90
       50
102
RTVSPost2010PropOp50
 70
     1
102
RTVSPost2010Prop51ColorIndex
 90
      256
102
RTVSPost2010Prop51ColorRGB
 90
-16777216
102
RTVSPost2010PropOp51
 70
     0
102
RTVSPost2010Prop52
140
1.0
102
RTVSPost2010PropOp52
 70
     0
102
RTVSPost2010Prop53
 90
        2
102
RTVSPost2010PropOp53
 70
     1
102
RTVSPost2010Prop54
  1
strokes_ogs.tif
102
RTVSPost2010PropOp54
 70
     1
102
RTVSPost2010Prop55
280
     0
102
RTVSPost2010PropOp55
 70
     1
102
RTVSPost2010Prop56
140
1.0
102
RTVSPost2010PropOp56
 70
     1
102
RTVSPost2010Prop57
140
1.0
102
RTVSPost2010PropOp57
 70
     1
102
RTVSPropertyOp0
 70
     1
102
RTVSPropertyOp1
 70
     1
102
RTVSPropertyOp2
 70
     1
102
RTVSPropertyOp3
 70
     1
102
RTVSPropertyOp4
 70
     1
102
RTVSPropertyOp5
 70
     1
102
RTVSPropertyOp6
 70
     1
102
RTVSPropertyOp7
 70
     1
102
RTVSPropertyOp8
 70
     1
102
RTVSPropertyOp9
 70
     1
102
RTVSPropertyOp10
 70
     1
102
RTVSPropertyOp11
 70
     1
102
RTVSPropertyOp12
 70
     1
102
RTVSPropertyOp13
 70
     1
102
RTVSPropertyOp14
 70
     1
102
RTVSPropertyOp15
 70
     1
102
RTVSPropertyOp16
 70
     1
102
RTVSPropertyOp17
 70
     1
102
RTVSPropertyOp18
 70
     1
102
RTVSPropertyOp19
 70
     1
102
RTVSPropertyOp20
 70
     1
102
RTVSPropertyOp21
 70
     1
102
RTVSPropertyOp22
 70
     1
102
RTVSPropertyOp23
 70
     1
102
RTVSPropertyOp24
 70
     1
102
RTVSPropertyOp25
 70
     1
102
RTVSPropertyOp26
 70
     1
102
RTVSPropertyOp27
 70
     1
102
RTVSPropertyOp28
 70
     1
102
RTVSPropertyOp29
 70
     1
102
RTVSPropertyOp30
 70
     1
102
RTVSPropertyOp31
 70
     1
102
RTVSPropertyOp32
 70
     1
102
RTVSPropertyOp33
 70
     1
102
RTVSPropertyOp34
 70
     1
102
RTVSPropertyOp35
 70
     1
102
RTVSPropertyOp36
 70
     1
102
RTVSPropertyOp37
 70
     1
102
RTVSPropertyOp38
 70
     1
102
RTVSPropertyOp39
 70
     1
102
RTVSPropertyOp40
 70
     1
102
RTVSPropertyOp41
 70
     1
102
RTVSPropertyOp42
 70
     1
102
RTVSPropertyOp43
 70
     1
102
RTVSPropertyOp44
 70
     1
102
RTVSPropertyOp45
 70
     1
102
RTVSPropertyOp46
 70
     1
102
RTVSPropertyOp47
 70
     1
102
RTVSPropertyOp48
 70
     1
102
RTVSPropertyOp49
 70
     1
102
RTVSPropertyOp50
 70
     1
102
RTVSPropertyOp51
 70
     0
102
RTVSPropertyOp52
 70
     0
102
RTVSPropertyOp53
 70
     1
102
RTVSPropertyOp54
 70
     1
102
RTVSPropertyOp55
 70
     1
102
RTVSPropertyOp56
 70
     1
102
RTVSPropertyOp57
 70
     1
102
RTVSPropertyOp58
 70
     1
102
RTVSPropertyOp59
 70
     1
102
RTVSPropertyOp60
 70
     1
102
RTVSPropertyOp61
 70
     1
102
RTVSPropertyOp62
 70
     1
  0
XRECORD
  5
74A
102
{ACAD_REACTORS
330
749
102
}
330
749
100
AcDbXrecord
280
     1
102
RTVSPost2010Prop28
280
     0
102
RTVSPost2010PropOp28
 70
     1
102
RTVSPost2010Prop29
280
     1
102
RTVSPost2010PropOp29
 70
     1
102
RTVSPost2010Prop30
280
     1
102
RTVSPost2010PropOp30
 70
     1
102
RTVSPost2010Prop31
280
     0
102
RTVSPost2010PropOp31
 70
     1
102
RTVSPost2010Prop32
280
     0
102
RTVSPost2010PropOp32
 70
     1
102
RTVSPost2010Prop33
280
     0
102
RTVSPost2010PropOp33
 70
     1
102
RTVSPost2010Prop34
280
     0
102
RTVSPost2010PropOp34
 70
     1
102
RTVSPost2010Prop35
280
     0
102
RTVSPost2010PropOp35
 70
     1
102
RTVSPost2010Prop36
280
     0
102
RTVSPost2010PropOp36
 70
     1
102
RTVSPost2010Prop37
 90
       50
102
RTVSPost2010PropOp37
 70
     1
102
RTVSPost2010Prop38
140
0.0
102
RTVSPost2010PropOp38
 70
     1
102
RTVSPost2010Prop39
140
1.0
102
RTVSPost2010PropOp39
 70
     1
102
RTVSPost2010Prop40
 90
        0
102
RTVSPost2010PropOp40
 70
     1
102
RTVSPost2010Prop41ColorIndex
 90
       18
102
RTVSPost2010Prop41ColorRGB
 90
        0
102
RTVSPost2010PropOp41
 70
     1
102
RTVSPost2010Prop42
 90
       50
102
RTVSPost2010PropOp42
 70
     1
102
RTVSPost2010Prop43
 90
        3
102
RTVSPost2010PropOp43
 70
     1
102
RTVSPost2010Prop44ColorIndex
 90
        5
102
RTVSPost2010Prop44ColorRGB
 90
      255
102
RTVSPost2010PropOp44
 70
     1
102
RTVSPost2010Prop45
280
     0
102
RTVSPost2010PropOp45
 70
     1
102
RTVSPost2010Prop46
 90
       50
102
RTVSPost2010PropOp46
 70
     1
102
RTVSPost2010Prop47
 90
       50
102
RTVSPost2010PropOp47
 70
     1
102
RTVSPost2010Prop48
 90
       50
102
RTVSPost2010PropOp48
 70
     1
102
RTVSPost2010Prop49
280
     0
102
RTVSPost2010PropOp49
 70
     1
102
RTVSPost2010Prop50
 90
       50
102
RTVSPost2010PropOp50
 70
     1
102
RTVSPost2010Prop51ColorIndex
 90
      256
102
RTVSPost2010Prop51ColorRGB
 90
-16777216
102
RTVSPost2010PropOp51
 70
     0
102
RTVSPost2010Prop52
140
1.0
102
RTVSPost2010PropOp52
 70
     0
102
RTVSPost2010Prop53
 90
        2
102
RTVSPost2010PropOp53
 70
     1
102
RTVSPost2010Prop54
  1
strokes_ogs.tif
102
RTVSPost2010PropOp54
 70
     1
102
RTVSPost2010Prop55
280
     0
102
RTVSPost2010PropOp55
 70
     1
102
RTVSPost2010Prop56
140
1.0
102
RTVSPost2010PropOp56
 70
     1
102
RTVSPost2010Prop57
140
1.0
102
RTVSPost2010PropOp57
 70
     1
102
RTVSPropertyOp0
 70
     1
102
RTVSPropertyOp1
 70
     1
102
RTVSPropertyOp2
 70
     1
102
RTVSPropertyOp3
 70
     1
102
RTVSPropertyOp4
 70
     1
102
RTVSPropertyOp5
 70
     1
102
RTVSPropertyOp6
 70
     1
102
RTVSPropertyOp7
 70
     1
102
RTVSPropertyOp8
 70
     1
102
RTVSPropertyOp9
 70
     1
102
RTVSPropertyOp10
 70
     1
102
RTVSPropertyOp11
 70
     1
102
RTVSPropertyOp12
 70
     1
102
RTVSPropertyOp13
 70
     1
102
RTVSPropertyOp14
 70
     1
102
RTVSPropertyOp15
 70
     1
102
RTVSPropertyOp16
 70
     1
102
RTVSPropertyOp17
 70
     1
102
RTVSPropertyOp18
 70
     1
102
RTVSPropertyOp19
 70
     1
102
RTVSPropertyOp20
 70
     1
102
RTVSPropertyOp21
 70
     1
102
RTVSPropertyOp22
 70
     1
102
RTVSPropertyOp23
 70
     1
102
RTVSPropertyOp24
 70
     1
102
RTVSPropertyOp25
 70
     1
102
RTVSPropertyOp26
 70
     1
102
RTVSPropertyOp27
 70
     1
102
RTVSPropertyOp28
 70
     1
102
RTVSPropertyOp29
 70
     1
102
RTVSPropertyOp30
 70
     1
102
RTVSPropertyOp31
 70
     1
102
RTVSPropertyOp32
 70
     1
102
RTVSPropertyOp33
 70
     1
102
RTVSPropertyOp34
 70
     1
102
RTVSPropertyOp35
 70
     1
102
RTVSPropertyOp36
 70
     1
102
RTVSPropertyOp37
 70
     1
102
RTVSPropertyOp38
 70
     1
102
RTVSPropertyOp39
 70
     1
102
RTVSPropertyOp40
 70
     1
102
RTVSPropertyOp41
 70
     1
102
RTVSPropertyOp42
 70
     1
102
RTVSPropertyOp43
 70
     1
102
RTVSPropertyOp44
 70
     1
102
RTVSPropertyOp45
 70
     1
102
RTVSPropertyOp46
 70
     1
102
RTVSPropertyOp47
 70
     1
102
RTVSPropertyOp48
 70
     1
102
RTVSPropertyOp49
 70
     1
102
RTVSPropertyOp50
 70
     1
102
RTVSPropertyOp51
 70
     0
102
RTVSPropertyOp52
 70
     0
102
RTVSPropertyOp53
 70
     1
102
RTVSPropertyOp54
 70
     1
102
RTVSPropertyOp55
 70
     1
102
RTVSPropertyOp56
 70
     1
102
RTVSPropertyOp57
 70
     1
102
RTVSPropertyOp58
 70
     1
102
RTVSPropertyOp59
 70
     1
102
RTVSPropertyOp60
 70
     1
102
RTVSPropertyOp61
 70
     1
102
RTVSPropertyOp62
 70
     1
  0
XRECORD
  5
752
102
{ACAD_REACTORS
330
751
102
}
330
751
100
AcDbXrecord
280
     1
102
RTVSPost2010Prop28
280
     0
102
RTVSPost2010PropOp28
 70
     1
102
RTVSPost2010Prop29
280
     1
102
RTVSPost2010PropOp29
 70
     1
102
RTVSPost2010Prop30
280
     1
102
RTVSPost2010PropOp30
 70
     1
102
RTVSPost2010Prop31
280
     0
102
RTVSPost2010PropOp31
 70
     1
102
RTVSPost2010Prop32
280
     0
102
RTVSPost2010PropOp32
 70
     1
102
RTVSPost2010Prop33
280
     0
102
RTVSPost2010PropOp33
 70
     1
102
RTVSPost2010Prop34
280
     0
102
RTVSPost2010PropOp34
 70
     1
102
RTVSPost2010Prop35
280
     0
102
RTVSPost2010PropOp35
 70
     1
102
RTVSPost2010Prop36
280
     0
102
RTVSPost2010PropOp36
 70
     1
102
RTVSPost2010Prop37
 90
       50
102
RTVSPost2010PropOp37
 70
     1
102
RTVSPost2010Prop38
140
0.0
102
RTVSPost2010PropOp38
 70
     1
102
RTVSPost2010Prop39
140
1.0
102
RTVSPost2010PropOp39
 70
     1
102
RTVSPost2010Prop40
 90
        0
102
RTVSPost2010PropOp40
 70
     1
102
RTVSPost2010Prop41ColorIndex
 90
       18
102
RTVSPost2010Prop41ColorRGB
 90
        0
102
RTVSPost2010PropOp41
 70
     1
102
RTVSPost2010Prop42
 90
       50
102
RTVSPost2010PropOp42
 70
     1
102
RTVSPost2010Prop43
 90
        3
102
RTVSPost2010PropOp43
 70
     1
102
RTVSPost2010Prop44ColorIndex
 90
        5
102
RTVSPost2010Prop44ColorRGB
 90
      255
102
RTVSPost2010PropOp44
 70
     1
102
RTVSPost2010Prop45
280
     0
102
RTVSPost2010PropOp45
 70
     1
102
RTVSPost2010Prop46
 90
       50
102
RTVSPost2010PropOp46
 70
     1
102
RTVSPost2010Prop47
 90
       50
102
RTVSPost2010PropOp47
 70
     1
102
RTVSPost2010Prop48
 90
       50
102
RTVSPost2010PropOp48
 70
     1
102
RTVSPost2010Prop49
280
     0
102
RTVSPost2010PropOp49
 70
     1
102
RTVSPost2010Prop50
 90
       50
102
RTVSPost2010PropOp50
 70
     1
102
RTVSPost2010Prop51ColorIndex
 90
      256
102
RTVSPost2010Prop51ColorRGB
 90
-16777216
102
RTVSPost2010PropOp51
 70
     0
102
RTVSPost2010Prop52
140
1.0
102
RTVSPost2010PropOp52
 70
     0
102
RTVSPost2010Prop53
 90
        2
102
RTVSPost2010PropOp53
 70
     1
102
RTVSPost2010Prop54
  1
strokes_ogs.tif
102
RTVSPost2010PropOp54
 70
     1
102
RTVSPost2010Prop55
280
     0
102
RTVSPost2010PropOp55
 70
     1
102
RTVSPost2010Prop56
140
1.0
102
RTVSPost2010PropOp56
 70
     1
102
RTVSPost2010Prop57
140
1.0
102
RTVSPost2010PropOp57
 70
     1
102
RTVSPropertyOp0
 70
     1
102
RTVSPropertyOp1
 70
     1
102
RTVSPropertyOp2
 70
     1
102
RTVSPropertyOp3
 70
     1
102
RTVSPropertyOp4
 70
     1
102
RTVSPropertyOp5
 70
     1
102
RTVSPropertyOp6
 70
     1
102
RTVSPropertyOp7
 70
     1
102
RTVSPropertyOp8
 70
     1
102
RTVSPropertyOp9
 70
     1
102
RTVSPropertyOp10
 70
     1
102
RTVSPropertyOp11
 70
     1
102
RTVSPropertyOp12
 70
     1
102
RTVSPropertyOp13
 70
     1
102
RTVSPropertyOp14
 70
     1
102
RTVSPropertyOp15
 70
     1
102
RTVSPropertyOp16
 70
     1
102
RTVSPropertyOp17
 70
     1
102
RTVSPropertyOp18
 70
     1
102
RTVSPropertyOp19
 70
     1
102
RTVSPropertyOp20
 70
     1
102
RTVSPropertyOp21
 70
     1
102
RTVSPropertyOp22
 70
     1
102
RTVSPropertyOp23
 70
     1
102
RTVSPropertyOp24
 70
     1
102
RTVSPropertyOp25
 70
     1
102
RTVSPropertyOp26
 70
     1
102
RTVSPropertyOp27
 70
     1
102
RTVSPropertyOp28
 70
     1
102
RTVSPropertyOp29
 70
     1
102
RTVSPropertyOp30
 70
     1
102
RTVSPropertyOp31
 70
     1
102
RTVSPropertyOp32
 70
     1
102
RTVSPropertyOp33
 70
     1
102
RTVSPropertyOp34
 70
     1
102
RTVSPropertyOp35
 70
     1
102
RTVSPropertyOp36
 70
     1
102
RTVSPropertyOp37
 70
     1
102
RTVSPropertyOp38
 70
     1
102
RTVSPropertyOp39
 70
     1
102
RTVSPropertyOp40
 70
     1
102
RTVSPropertyOp41
 70
     1
102
RTVSPropertyOp42
 70
     1
102
RTVSPropertyOp43
 70
     1
102
RTVSPropertyOp44
 70
     1
102
RTVSPropertyOp45
 70
     1
102
RTVSPropertyOp46
 70
     1
102
RTVSPropertyOp47
 70
     1
102
RTVSPropertyOp48
 70
     1
102
RTVSPropertyOp49
 70
     1
102
RTVSPropertyOp50
 70
     1
102
RTVSPropertyOp51
 70
     0
102
RTVSPropertyOp52
 70
     0
102
RTVSPropertyOp53
 70
     1
102
RTVSPropertyOp54
 70
     1
102
RTVSPropertyOp55
 70
     1
102
RTVSPropertyOp56
 70
     1
102
RTVSPropertyOp57
 70
     1
102
RTVSPropertyOp58
 70
     1
102
RTVSPropertyOp59
 70
     1
102
RTVSPropertyOp60
 70
     1
102
RTVSPropertyOp61
 70
     1
102
RTVSPropertyOp62
 70
     1
  0
XRECORD
  5
746
102
{ACAD_REACTORS
330
745
102
}
330
745
100
AcDbXrecord
280
     1
102
RTVSPost2010Prop28
280
     0
102
RTVSPost2010PropOp28
 70
     1
102
RTVSPost2010Prop29
280
     1
102
RTVSPost2010PropOp29
 70
     1
102
RTVSPost2010Prop30
280
     1
102
RTVSPost2010PropOp30
 70
     1
102
RTVSPost2010Prop31
280
     0
102
RTVSPost2010PropOp31
 70
     1
102
RTVSPost2010Prop32
280
     0
102
RTVSPost2010PropOp32
 70
     1
102
RTVSPost2010Prop33
280
     0
102
RTVSPost2010PropOp33
 70
     1
102
RTVSPost2010Prop34
280
     0
102
RTVSPost2010PropOp34
 70
     1
102
RTVSPost2010Prop35
280
     0
102
RTVSPost2010PropOp35
 70
     1
102
RTVSPost2010Prop36
280
     0
102
RTVSPost2010PropOp36
 70
     1
102
RTVSPost2010Prop37
 90
       50
102
RTVSPost2010PropOp37
 70
     1
102
RTVSPost2010Prop38
140
0.0
102
RTVSPost2010PropOp38
 70
     1
102
RTVSPost2010Prop39
140
1.0
102
RTVSPost2010PropOp39
 70
     1
102
RTVSPost2010Prop40
 90
        0
102
RTVSPost2010PropOp40
 70
     1
102
RTVSPost2010Prop41ColorIndex
 90
       18
102
RTVSPost2010Prop41ColorRGB
 90
        0
102
RTVSPost2010PropOp41
 70
     1
102
RTVSPost2010Prop42
 90
       50
102
RTVSPost2010PropOp42
 70
     1
102
RTVSPost2010Prop43
 90
        3
102
RTVSPost2010PropOp43
 70
     1
102
RTVSPost2010Prop44ColorIndex
 90
        5
102
RTVSPost2010Prop44ColorRGB
 90
      255
102
RTVSPost2010PropOp44
 70
     1
102
RTVSPost2010Prop45
280
     0
102
RTVSPost2010PropOp45
 70
     1
102
RTVSPost2010Prop46
 90
       50
102
RTVSPost2010PropOp46
 70
     1
102
RTVSPost2010Prop47
 90
       50
102
RTVSPost2010PropOp47
 70
     1
102
RTVSPost2010Prop48
 90
       50
102
RTVSPost2010PropOp48
 70
     1
102
RTVSPost2010Prop49
280
     0
102
RTVSPost2010PropOp49
 70
     1
102
RTVSPost2010Prop50
 90
       50
102
RTVSPost2010PropOp50
 70
     1
102
RTVSPost2010Prop51ColorIndex
 90
      256
102
RTVSPost2010Prop51ColorRGB
 90
-16777216
102
RTVSPost2010PropOp51
 70
     0
102
RTVSPost2010Prop52
140
1.0
102
RTVSPost2010PropOp52
 70
     0
102
RTVSPost2010Prop53
 90
        2
102
RTVSPost2010PropOp53
 70
     1
102
RTVSPost2010Prop54
  1
strokes_ogs.tif
102
RTVSPost2010PropOp54
 70
     1
102
RTVSPost2010Prop55
280
     0
102
RTVSPost2010PropOp55
 70
     1
102
RTVSPost2010Prop56
140
1.0
102
RTVSPost2010PropOp56
 70
     1
102
RTVSPost2010Prop57
140
1.0
102
RTVSPost2010PropOp57
 70
     1
102
RTVSPropertyOp0
 70
     1
102
RTVSPropertyOp1
 70
     1
102
RTVSPropertyOp2
 70
     1
102
RTVSPropertyOp3
 70
     1
102
RTVSPropertyOp4
 70
     1
102
RTVSPropertyOp5
 70
     1
102
RTVSPropertyOp6
 70
     1
102
RTVSPropertyOp7
 70
     1
102
RTVSPropertyOp8
 70
     1
102
RTVSPropertyOp9
 70
     1
102
RTVSPropertyOp10
 70
     1
102
RTVSPropertyOp11
 70
     1
102
RTVSPropertyOp12
 70
     1
102
RTVSPropertyOp13
 70
     1
102
RTVSPropertyOp14
 70
     1
102
RTVSPropertyOp15
 70
     1
102
RTVSPropertyOp16
 70
     1
102
RTVSPropertyOp17
 70
     1
102
RTVSPropertyOp18
 70
     1
102
RTVSPropertyOp19
 70
     1
102
RTVSPropertyOp20
 70
     1
102
RTVSPropertyOp21
 70
     1
102
RTVSPropertyOp22
 70
     1
102
RTVSPropertyOp23
 70
     1
102
RTVSPropertyOp24
 70
     1
102
RTVSPropertyOp25
 70
     1
102
RTVSPropertyOp26
 70
     1
102
RTVSPropertyOp27
 70
     1
102
RTVSPropertyOp28
 70
     1
102
RTVSPropertyOp29
 70
     1
102
RTVSPropertyOp30
 70
     1
102
RTVSPropertyOp31
 70
     1
102
RTVSPropertyOp32
 70
     1
102
RTVSPropertyOp33
 70
     1
102
RTVSPropertyOp34
 70
     1
102
RTVSPropertyOp35
 70
     1
102
RTVSPropertyOp36
 70
     1
102
RTVSPropertyOp37
 70
     1
102
RTVSPropertyOp38
 70
     1
102
RTVSPropertyOp39
 70
     1
102
RTVSPropertyOp40
 70
     1
102
RTVSPropertyOp41
 70
     1
102
RTVSPropertyOp42
 70
     1
102
RTVSPropertyOp43
 70
     1
102
RTVSPropertyOp44
 70
     1
102
RTVSPropertyOp45
 70
     1
102
RTVSPropertyOp46
 70
     1
102
RTVSPropertyOp47
 70
     1
102
RTVSPropertyOp48
 70
     1
102
RTVSPropertyOp49
 70
     1
102
RTVSPropertyOp50
 70
     1
102
RTVSPropertyOp51
 70
     0
102
RTVSPropertyOp52
 70
     0
102
RTVSPropertyOp53
 70
     1
102
RTVSPropertyOp54
 70
     1
102
RTVSPropertyOp55
 70
     1
102
RTVSPropertyOp56
 70
     1
102
RTVSPropertyOp57
 70
     1
102
RTVSPropertyOp58
 70
     1
102
RTVSPropertyOp59
 70
     1
102
RTVSPropertyOp60
 70
     1
102
RTVSPropertyOp61
 70
     1
102
RTVSPropertyOp62
 70
     1
  0
XRECORD
  5
748
102
{ACAD_REACTORS
330
747
102
}
330
747
100
AcDbXrecord
280
     1
102
RTVSPost2010Prop28
280
     0
102
RTVSPost2010PropOp28
 70
     1
102
RTVSPost2010Prop29
280
     1
102
RTVSPost2010PropOp29
 70
     1
102
RTVSPost2010Prop30
280
     1
102
RTVSPost2010PropOp30
 70
     1
102
RTVSPost2010Prop31
280
     0
102
RTVSPost2010PropOp31
 70
     1
102
RTVSPost2010Prop32
280
     0
102
RTVSPost2010PropOp32
 70
     1
102
RTVSPost2010Prop33
280
     0
102
RTVSPost2010PropOp33
 70
     1
102
RTVSPost2010Prop34
280
     0
102
RTVSPost2010PropOp34
 70
     1
102
RTVSPost2010Prop35
280
     0
102
RTVSPost2010PropOp35
 70
     1
102
RTVSPost2010Prop36
280
     0
102
RTVSPost2010PropOp36
 70
     1
102
RTVSPost2010Prop37
 90
       50
102
RTVSPost2010PropOp37
 70
     1
102
RTVSPost2010Prop38
140
0.0
102
RTVSPost2010PropOp38
 70
     1
102
RTVSPost2010Prop39
140
1.0
102
RTVSPost2010PropOp39
 70
     1
102
RTVSPost2010Prop40
 90
        0
102
RTVSPost2010PropOp40
 70
     1
102
RTVSPost2010Prop41ColorIndex
 90
       18
102
RTVSPost2010Prop41ColorRGB
 90
        0
102
RTVSPost2010PropOp41
 70
     1
102
RTVSPost2010Prop42
 90
       50
102
RTVSPost2010PropOp42
 70
     1
102
RTVSPost2010Prop43
 90
        3
102
RTVSPost2010PropOp43
 70
     1
102
RTVSPost2010Prop44ColorIndex
 90
        5
102
RTVSPost2010Prop44ColorRGB
 90
      255
102
RTVSPost2010PropOp44
 70
     1
102
RTVSPost2010Prop45
280
     0
102
RTVSPost2010PropOp45
 70
     1
102
RTVSPost2010Prop46
 90
       50
102
RTVSPost2010PropOp46
 70
     1
102
RTVSPost2010Prop47
 90
       50
102
RTVSPost2010PropOp47
 70
     1
102
RTVSPost2010Prop48
 90
       50
102
RTVSPost2010PropOp48
 70
     1
102
RTVSPost2010Prop49
280
     0
102
RTVSPost2010PropOp49
 70
     1
102
RTVSPost2010Prop50
 90
       50
102
RTVSPost2010PropOp50
 70
     1
102
RTVSPost2010Prop51ColorIndex
 90
      256
102
RTVSPost2010Prop51ColorRGB
 90
-16777216
102
RTVSPost2010PropOp51
 70
     0
102
RTVSPost2010Prop52
140
1.0
102
RTVSPost2010PropOp52
 70
     0
102
RTVSPost2010Prop53
 90
        2
102
RTVSPost2010PropOp53
 70
     1
102
RTVSPost2010Prop54
  1
strokes_ogs.tif
102
RTVSPost2010PropOp54
 70
     1
102
RTVSPost2010Prop55
280
     0
102
RTVSPost2010PropOp55
 70
     1
102
RTVSPost2010Prop56
140
1.0
102
RTVSPost2010PropOp56
 70
     1
102
RTVSPost2010Prop57
140
1.0
102
RTVSPost2010PropOp57
 70
     1
102
RTVSPropertyOp0
 70
     1
102
RTVSPropertyOp1
 70
     1
102
RTVSPropertyOp2
 70
     1
102
RTVSPropertyOp3
 70
     1
102
RTVSPropertyOp4
 70
     1
102
RTVSPropertyOp5
 70
     1
102
RTVSPropertyOp6
 70
     1
102
RTVSPropertyOp7
 70
     1
102
RTVSPropertyOp8
 70
     1
102
RTVSPropertyOp9
 70
     1
102
RTVSPropertyOp10
 70
     1
102
RTVSPropertyOp11
 70
     1
102
RTVSPropertyOp12
 70
     1
102
RTVSPropertyOp13
 70
     1
102
RTVSPropertyOp14
 70
     1
102
RTVSPropertyOp15
 70
     1
102
RTVSPropertyOp16
 70
     1
102
RTVSPropertyOp17
 70
     1
102
RTVSPropertyOp18
 70
     1
102
RTVSPropertyOp19
 70
     1
102
RTVSPropertyOp20
 70
     1
102
RTVSPropertyOp21
 70
     1
102
RTVSPropertyOp22
 70
     1
102
RTVSPropertyOp23
 70
     1
102
RTVSPropertyOp24
 70
     1
102
RTVSPropertyOp25
 70
     1
102
RTVSPropertyOp26
 70
     1
102
RTVSPropertyOp27
 70
     1
102
RTVSPropertyOp28
 70
     1
102
RTVSPropertyOp29
 70
     1
102
RTVSPropertyOp30
 70
     1
102
RTVSPropertyOp31
 70
     1
102
RTVSPropertyOp32
 70
     1
102
RTVSPropertyOp33
 70
     1
102
RTVSPropertyOp34
 70
     1
102
RTVSPropertyOp35
 70
     1
102
RTVSPropertyOp36
 70
     1
102
RTVSPropertyOp37
 70
     1
102
RTVSPropertyOp38
 70
     1
102
RTVSPropertyOp39
 70
     1
102
RTVSPropertyOp40
 70
     1
102
RTVSPropertyOp41
 70
     1
102
RTVSPropertyOp42
 70
     1
102
RTVSPropertyOp43
 70
     1
102
RTVSPropertyOp44
 70
     1
102
RTVSPropertyOp45
 70
     1
102
RTVSPropertyOp46
 70
     1
102
RTVSPropertyOp47
 70
     1
102
RTVSPropertyOp48
 70
     1
102
RTVSPropertyOp49
 70
     1
102
RTVSPropertyOp50
 70
     1
102
RTVSPropertyOp51
 70
     0
102
RTVSPropertyOp52
 70
     0
102
RTVSPropertyOp53
 70
     1
102
RTVSPropertyOp54
 70
     1
102
RTVSPropertyOp55
 70
     1
102
RTVSPropertyOp56
 70
     1
102
RTVSPropertyOp57
 70
     1
102
RTVSPropertyOp58
 70
     1
102
RTVSPropertyOp59
 70
     1
102
RTVSPropertyOp60
 70
     1
102
RTVSPropertyOp61
 70
     1
102
RTVSPropertyOp62
 70
     1
  0
XRECORD
  5
758
102
{ACAD_REACTORS
330
757
102
}
330
757
100
AcDbXrecord
280
     1
102
RTVSPost2010Prop28
280
     0
102
RTVSPost2010PropOp28
 70
     0
102
RTVSPost2010Prop29
280
     1
102
RTVSPost2010PropOp29
 70
     0
102
RTVSPost2010Prop30
280
     1
102
RTVSPost2010PropOp30
 70
     0
102
RTVSPost2010Prop31
280
     0
102
RTVSPost2010PropOp31
 70
     0
102
RTVSPost2010Prop32
280
     0
102
RTVSPost2010PropOp32
 70
     0
102
RTVSPost2010Prop33
280
     0
102
RTVSPost2010PropOp33
 70
     0
102
RTVSPost2010Prop34
280
     0
102
RTVSPost2010PropOp34
 70
     0
102
RTVSPost2010Prop35
280
     0
102
RTVSPost2010PropOp35
 70
     0
102
RTVSPost2010Prop36
280
     0
102
RTVSPost2010PropOp36
 70
     0
102
RTVSPost2010Prop37
 90
       50
102
RTVSPost2010PropOp37
 70
     0
102
RTVSPost2010Prop38
140
0.0
102
RTVSPost2010PropOp38
 70
     0
102
RTVSPost2010Prop39
140
1.0
102
RTVSPost2010PropOp39
 70
     0
102
RTVSPost2010Prop40
 90
        0
102
RTVSPost2010PropOp40
 70
     0
102
RTVSPost2010Prop41ColorIndex
 90
       18
102
RTVSPost2010Prop41ColorRGB
 90
        0
102
RTVSPost2010PropOp41
 70
     0
102
RTVSPost2010Prop42
 90
       50
102
RTVSPost2010PropOp42
 70
     0
102
RTVSPost2010Prop43
 90
        3
102
RTVSPost2010PropOp43
 70
     0
102
RTVSPost2010Prop44ColorIndex
 90
        5
102
RTVSPost2010Prop44ColorRGB
 90
      255
102
RTVSPost2010PropOp44
 70
     0
102
RTVSPost2010Prop45
280
     0
102
RTVSPost2010PropOp45
 70
     0
102
RTVSPost2010Prop46
 90
       50
102
RTVSPost2010PropOp46
 70
     0
102
RTVSPost2010Prop47
 90
       50
102
RTVSPost2010PropOp47
 70
     0
102
RTVSPost2010Prop48
 90
       50
102
RTVSPost2010PropOp48
 70
     0
102
RTVSPost2010Prop49
280
     0
102
RTVSPost2010PropOp49
 70
     0
102
RTVSPost2010Prop50
 90
       50
102
RTVSPost2010PropOp50
 70
     0
102
RTVSPost2010Prop51ColorIndex
 90
      256
102
RTVSPost2010Prop51ColorRGB
 90
-16777216
102
RTVSPost2010PropOp51
 70
     0
102
RTVSPost2010Prop52
140
1.0
102
RTVSPost2010PropOp52
 70
     0
102
RTVSPost2010Prop53
 90
        2
102
RTVSPost2010PropOp53
 70
     0
102
RTVSPost2010Prop54
  1
strokes_ogs.tif
102
RTVSPost2010PropOp54
 70
     0
102
RTVSPost2010Prop55
280
     0
102
RTVSPost2010PropOp55
 70
     0
102
RTVSPost2010Prop56
140
1.0
102
RTVSPost2010PropOp56
 70
     0
102
RTVSPost2010Prop57
140
1.0
102
RTVSPost2010PropOp57
 70
     0
102
RTVSPropertyOp0
 70
     0
102
RTVSPropertyOp1
 70
     0
102
RTVSPropertyOp2
 70
     0
102
RTVSPropertyOp3
 70
     0
102
RTVSPropertyOp4
 70
     0
102
RTVSPropertyOp5
 70
     0
102
RTVSPropertyOp6
 70
     0
102
RTVSPropertyOp7
 70
     0
102
RTVSPropertyOp8
 70
     0
102
RTVSPropertyOp9
 70
     0
102
RTVSPropertyOp10
 70
     0
102
RTVSPropertyOp11
 70
     0
102
RTVSPropertyOp12
 70
     0
102
RTVSPropertyOp13
 70
     0
102
RTVSPropertyOp14
 70
     2
102
RTVSPropertyOp15
 70
     0
102
RTVSPropertyOp16
 70
     0
102
RTVSPropertyOp17
 70
     0
102
RTVSPropertyOp18
 70
     0
102
RTVSPropertyOp19
 70
     0
102
RTVSPropertyOp20
 70
     0
102
RTVSPropertyOp21
 70
     0
102
RTVSPropertyOp22
 70
     0
102
RTVSPropertyOp23
 70
     0
102
RTVSPropertyOp24
 70
     0
102
RTVSPropertyOp25
 70
     0
102
RTVSPropertyOp26
 70
     0
102
RTVSPropertyOp27
 70
     0
102
RTVSPropertyOp28
 70
     0
102
RTVSPropertyOp29
 70
     0
102
RTVSPropertyOp30
 70
     0
102
RTVSPropertyOp31
 70
     0
102
RTVSPropertyOp32
 70
     0
102
RTVSPropertyOp33
 70
     0
102
RTVSPropertyOp34
 70
     0
102
RTVSPropertyOp35
 70
     0
102
RTVSPropertyOp36
 70
     0
102
RTVSPropertyOp37
 70
     0
102
RTVSPropertyOp38
 70
     0
102
RTVSPropertyOp39
 70
     0
102
RTVSPropertyOp40
 70
     0
102
RTVSPropertyOp41
 70
     0
102
RTVSPropertyOp42
 70
     0
102
RTVSPropertyOp43
 70
     0
102
RTVSPropertyOp44
 70
     0
102
RTVSPropertyOp45
 70
     0
102
RTVSPropertyOp46
 70
     0
102
RTVSPropertyOp47
 70
     0
102
RTVSPropertyOp48
 70
     0
102
RTVSPropertyOp49
 70
     0
102
RTVSPropertyOp50
 70
     0
102
RTVSPropertyOp51
 70
     0
102
RTVSPropertyOp52
 70
     0
102
RTVSPropertyOp53
 70
     0
102
RTVSPropertyOp54
 70
     0
102
RTVSPropertyOp55
 70
     0
102
RTVSPropertyOp56
 70
     0
102
RTVSPropertyOp57
 70
     0
102
RTVSPropertyOp58
 70
     1
102
RTVSPropertyOp59
 70
     1
102
RTVSPropertyOp60
 70
     1
102
RTVSPropertyOp61
 70
     1
102
RTVSPropertyOp62
 70
     1
  0
XRECORD
  5
750
102
{ACAD_REACTORS
330
74F
102
}
330
74F
100
AcDbXrecord
280
     1
102
RTVSPost2010Prop28
280
     0
102
RTVSPost2010PropOp28
 70
     1
102
RTVSPost2010Prop29
280
     1
102
RTVSPost2010PropOp29
 70
     1
102
RTVSPost2010Prop30
280
     1
102
RTVSPost2010PropOp30
 70
     1
102
RTVSPost2010Prop31
280
     0
102
RTVSPost2010PropOp31
 70
     1
102
RTVSPost2010Prop32
280
     0
102
RTVSPost2010PropOp32
 70
     1
102
RTVSPost2010Prop33
280
     0
102
RTVSPost2010PropOp33
 70
     1
102
RTVSPost2010Prop34
280
     0
102
RTVSPost2010PropOp34
 70
     1
102
RTVSPost2010Prop35
280
     0
102
RTVSPost2010PropOp35
 70
     1
102
RTVSPost2010Prop36
280
     0
102
RTVSPost2010PropOp36
 70
     1
102
RTVSPost2010Prop37
 90
       50
102
RTVSPost2010PropOp37
 70
     1
102
RTVSPost2010Prop38
140
0.0
102
RTVSPost2010PropOp38
 70
     1
102
RTVSPost2010Prop39
140
1.0
102
RTVSPost2010PropOp39
 70
     1
102
RTVSPost2010Prop40
 90
        0
102
RTVSPost2010PropOp40
 70
     1
102
RTVSPost2010Prop41ColorIndex
 90
       18
102
RTVSPost2010Prop41ColorRGB
 90
        0
102
RTVSPost2010PropOp41
 70
     1
102
RTVSPost2010Prop42
 90
       50
102
RTVSPost2010PropOp42
 70
     1
102
RTVSPost2010Prop43
 90
        3
102
RTVSPost2010PropOp43
 70
     1
102
RTVSPost2010Prop44ColorIndex
 90
        5
102
RTVSPost2010Prop44ColorRGB
 90
      255
102
RTVSPost2010PropOp44
 70
     1
102
RTVSPost2010Prop45
280
     0
102
RTVSPost2010PropOp45
 70
     1
102
RTVSPost2010Prop46
 90
       50
102
RTVSPost2010PropOp46
 70
     1
102
RTVSPost2010Prop47
 90
       50
102
RTVSPost2010PropOp47
 70
     1
102
RTVSPost2010Prop48
 90
       50
102
RTVSPost2010PropOp48
 70
     1
102
RTVSPost2010Prop49
280
     0
102
RTVSPost2010PropOp49
 70
     1
102
RTVSPost2010Prop50
 90
       50
102
RTVSPost2010PropOp50
 70
     1
102
RTVSPost2010Prop51ColorIndex
 90
      256
102
RTVSPost2010Prop51ColorRGB
 90
-16777216
102
RTVSPost2010PropOp51
 70
     0
102
RTVSPost2010Prop52
140
1.0
102
RTVSPost2010PropOp52
 70
     0
102
RTVSPost2010Prop53
 90
        2
102
RTVSPost2010PropOp53
 70
     1
102
RTVSPost2010Prop54
  1
strokes_ogs.tif
102
RTVSPost2010PropOp54
 70
     1
102
RTVSPost2010Prop55
280
     0
102
RTVSPost2010PropOp55
 70
     1
102
RTVSPost2010Prop56
140
1.0
102
RTVSPost2010PropOp56
 70
     1
102
RTVSPost2010Prop57
140
1.0
102
RTVSPost2010PropOp57
 70
     1
102
RTVSPropertyOp0
 70
     1
102
RTVSPropertyOp1
 70
     1
102
RTVSPropertyOp2
 70
     1
102
RTVSPropertyOp3
 70
     1
102
RTVSPropertyOp4
 70
     1
102
RTVSPropertyOp5
 70
     1
102
RTVSPropertyOp6
 70
     1
102
RTVSPropertyOp7
 70
     1
102
RTVSPropertyOp8
 70
     1
102
RTVSPropertyOp9
 70
     1
102
RTVSPropertyOp10
 70
     1
102
RTVSPropertyOp11
 70
     1
102
RTVSPropertyOp12
 70
     1
102
RTVSPropertyOp13
 70
     1
102
RTVSPropertyOp14
 70
     1
102
RTVSPropertyOp15
 70
     1
102
RTVSPropertyOp16
 70
     1
102
RTVSPropertyOp17
 70
     1
102
RTVSPropertyOp18
 70
     1
102
RTVSPropertyOp19
 70
     1
102
RTVSPropertyOp20
 70
     1
102
RTVSPropertyOp21
 70
     1
102
RTVSPropertyOp22
 70
     1
102
RTVSPropertyOp23
 70
     1
102
RTVSPropertyOp24
 70
     1
102
RTVSPropertyOp25
 70
     1
102
RTVSPropertyOp26
 70
     1
102
RTVSPropertyOp27
 70
     1
102
RTVSPropertyOp28
 70
     1
102
RTVSPropertyOp29
 70
     1
102
RTVSPropertyOp30
 70
     1
102
RTVSPropertyOp31
 70
     1
102
RTVSPropertyOp32
 70
     1
102
RTVSPropertyOp33
 70
     1
102
RTVSPropertyOp34
 70
     1
102
RTVSPropertyOp35
 70
     1
102
RTVSPropertyOp36
 70
     1
102
RTVSPropertyOp37
 70
     1
102
RTVSPropertyOp38
 70
     1
102
RTVSPropertyOp39
 70
     1
102
RTVSPropertyOp40
 70
     1
102
RTVSPropertyOp41
 70
     1
102
RTVSPropertyOp42
 70
     1
102
RTVSPropertyOp43
 70
     1
102
RTVSPropertyOp44
 70
     1
102
RTVSPropertyOp45
 70
     1
102
RTVSPropertyOp46
 70
     1
102
RTVSPropertyOp47
 70
     1
102
RTVSPropertyOp48
 70
     1
102
RTVSPropertyOp49
 70
     1
102
RTVSPropertyOp50
 70
     1
102
RTVSPropertyOp51
 70
     0
102
RTVSPropertyOp52
 70
     0
102
RTVSPropertyOp53
 70
     1
102
RTVSPropertyOp54
 70
     1
102
RTVSPropertyOp55
 70
     1
102
RTVSPropertyOp56
 70
     1
102
RTVSPropertyOp57
 70
     1
102
RTVSPropertyOp58
 70
     1
102
RTVSPropertyOp59
 70
     1
102
RTVSPropertyOp60
 70
     1
102
RTVSPropertyOp61
 70
     1
102
RTVSPropertyOp62
 70
     1
  0
XRECORD
  5
734
102
{ACAD_REACTORS
330
733
102
}
330
733
100
AcDbXrecord
280
     1
102
RTVSPost2010Prop28
280
     0
102
RTVSPost2010PropOp28
 70
     1
102
RTVSPost2010Prop29
280
     1
102
RTVSPost2010PropOp29
 70
     1
102
RTVSPost2010Prop30
280
     1
102
RTVSPost2010PropOp30
 70
     1
102
RTVSPost2010Prop31
280
     0
102
RTVSPost2010PropOp31
 70
     1
102
RTVSPost2010Prop32
280
     0
102
RTVSPost2010PropOp32
 70
     1
102
RTVSPost2010Prop33
280
     0
102
RTVSPost2010PropOp33
 70
     1
102
RTVSPost2010Prop34
280
     0
102
RTVSPost2010PropOp34
 70
     1
102
RTVSPost2010Prop35
280
     0
102
RTVSPost2010PropOp35
 70
     1
102
RTVSPost2010Prop36
280
     0
102
RTVSPost2010PropOp36
 70
     1
102
RTVSPost2010Prop37
 90
       50
102
RTVSPost2010PropOp37
 70
     1
102
RTVSPost2010Prop38
140
0.0
102
RTVSPost2010PropOp38
 70
     1
102
RTVSPost2010Prop39
140
1.0
102
RTVSPost2010PropOp39
 70
     1
102
RTVSPost2010Prop40
 90
        0
102
RTVSPost2010PropOp40
 70
     1
102
RTVSPost2010Prop41ColorIndex
 90
       18
102
RTVSPost2010Prop41ColorRGB
 90
        0
102
RTVSPost2010PropOp41
 70
     1
102
RTVSPost2010Prop42
 90
       50
102
RTVSPost2010PropOp42
 70
     1
102
RTVSPost2010Prop43
 90
        3
102
RTVSPost2010PropOp43
 70
     1
102
RTVSPost2010Prop44ColorIndex
 90
        5
102
RTVSPost2010Prop44ColorRGB
 90
      255
102
RTVSPost2010PropOp44
 70
     1
102
RTVSPost2010Prop45
280
     0
102
RTVSPost2010PropOp45
 70
     1
102
RTVSPost2010Prop46
 90
       50
102
RTVSPost2010PropOp46
 70
     1
102
RTVSPost2010Prop47
 90
       50
102
RTVSPost2010PropOp47
 70
     1
102
RTVSPost2010Prop48
 90
       50
102
RTVSPost2010PropOp48
 70
     1
102
RTVSPost2010Prop49
280
     0
102
RTVSPost2010PropOp49
 70
     1
102
RTVSPost2010Prop50
 90
       50
102
RTVSPost2010PropOp50
 70
     1
102
RTVSPost2010Prop51ColorIndex
 90
      256
102
RTVSPost2010Prop51ColorRGB
 90
-16777216
102
RTVSPost2010PropOp51
 70
     0
102
RTVSPost2010Prop52
140
1.0
102
RTVSPost2010PropOp52
 70
     0
102
RTVSPost2010Prop53
 90
        2
102
RTVSPost2010PropOp53
 70
     1
102
RTVSPost2010Prop54
  1
strokes_ogs.tif
102
RTVSPost2010PropOp54
 70
     1
102
RTVSPost2010Prop55
280
     0
102
RTVSPost2010PropOp55
 70
     1
102
RTVSPost2010Prop56
140
1.0
102
RTVSPost2010PropOp56
 70
     1
102
RTVSPost2010Prop57
140
1.0
102
RTVSPost2010PropOp57
 70
     1
102
RTVSPropertyOp0
 70
     1
102
RTVSPropertyOp1
 70
     1
102
RTVSPropertyOp2
 70
     1
102
RTVSPropertyOp3
 70
     1
102
RTVSPropertyOp4
 70
     1
102
RTVSPropertyOp5
 70
     1
102
RTVSPropertyOp6
 70
     1
102
RTVSPropertyOp7
 70
     1
102
RTVSPropertyOp8
 70
     1
102
RTVSPropertyOp9
 70
     1
102
RTVSPropertyOp10
 70
     1
102
RTVSPropertyOp11
 70
     1
102
RTVSPropertyOp12
 70
     1
102
RTVSPropertyOp13
 70
     1
102
RTVSPropertyOp14
 70
     1
102
RTVSPropertyOp15
 70
     1
102
RTVSPropertyOp16
 70
     1
102
RTVSPropertyOp17
 70
     1
102
RTVSPropertyOp18
 70
     1
102
RTVSPropertyOp19
 70
     1
102
RTVSPropertyOp20
 70
     1
102
RTVSPropertyOp21
 70
     1
102
RTVSPropertyOp22
 70
     1
102
RTVSPropertyOp23
 70
     1
102
RTVSPropertyOp24
 70
     1
102
RTVSPropertyOp25
 70
     1
102
RTVSPropertyOp26
 70
     1
102
RTVSPropertyOp27
 70
     1
102
RTVSPropertyOp28
 70
     1
102
RTVSPropertyOp29
 70
     1
102
RTVSPropertyOp30
 70
     1
102
RTVSPropertyOp31
 70
     1
102
RTVSPropertyOp32
 70
     1
102
RTVSPropertyOp33
 70
     1
102
RTVSPropertyOp34
 70
     1
102
RTVSPropertyOp35
 70
     1
102
RTVSPropertyOp36
 70
     1
102
RTVSPropertyOp37
 70
     1
102
RTVSPropertyOp38
 70
     1
102
RTVSPropertyOp39
 70
     1
102
RTVSPropertyOp40
 70
     1
102
RTVSPropertyOp41
 70
     1
102
RTVSPropertyOp42
 70
     1
102
RTVSPropertyOp43
 70
     1
102
RTVSPropertyOp44
 70
     1
102
RTVSPropertyOp45
 70
     1
102
RTVSPropertyOp46
 70
     1
102
RTVSPropertyOp47
 70
     1
102
RTVSPropertyOp48
 70
     1
102
RTVSPropertyOp49
 70
     1
102
RTVSPropertyOp50
 70
     1
102
RTVSPropertyOp51
 70
     0
102
RTVSPropertyOp52
 70
     0
102
RTVSPropertyOp53
 70
     1
102
RTVSPropertyOp54
 70
     1
102
RTVSPropertyOp55
 70
     1
102
RTVSPropertyOp56
 70
     1
102
RTVSPropertyOp57
 70
     1
102
RTVSPropertyOp58
 70
     1
102
RTVSPropertyOp59
 70
     1
102
RTVSPropertyOp60
 70
     1
102
RTVSPropertyOp61
 70
     1
102
RTVSPropertyOp62
 70
     1
  0
XRECORD
  5
736
102
{ACAD_REACTORS
330
735
102
}
330
735
100
AcDbXrecord
280
     1
102
RTVSPost2010Prop28
280
     0
102
RTVSPost2010PropOp28
 70
     1
102
RTVSPost2010Prop29
280
     1
102
RTVSPost2010PropOp29
 70
     1
102
RTVSPost2010Prop30
280
     1
102
RTVSPost2010PropOp30
 70
     1
102
RTVSPost2010Prop31
280
     0
102
RTVSPost2010PropOp31
 70
     1
102
RTVSPost2010Prop32
280
     0
102
RTVSPost2010PropOp32
 70
     1
102
RTVSPost2010Prop33
280
     0
102
RTVSPost2010PropOp33
 70
     1
102
RTVSPost2010Prop34
280
     0
102
RTVSPost2010PropOp34
 70
     1
102
RTVSPost2010Prop35
280
     0
102
RTVSPost2010PropOp35
 70
     1
102
RTVSPost2010Prop36
280
     0
102
RTVSPost2010PropOp36
 70
     1
102
RTVSPost2010Prop37
 90
       50
102
RTVSPost2010PropOp37
 70
     1
102
RTVSPost2010Prop38
140
0.0
102
RTVSPost2010PropOp38
 70
     1
102
RTVSPost2010Prop39
140
1.0
102
RTVSPost2010PropOp39
 70
     1
102
RTVSPost2010Prop40
 90
        0
102
RTVSPost2010PropOp40
 70
     1
102
RTVSPost2010Prop41ColorIndex
 90
       18
102
RTVSPost2010Prop41ColorRGB
 90
        0
102
RTVSPost2010PropOp41
 70
     1
102
RTVSPost2010Prop42
 90
       50
102
RTVSPost2010PropOp42
 70
     1
102
RTVSPost2010Prop43
 90
        3
102
RTVSPost2010PropOp43
 70
     1
102
RTVSPost2010Prop44ColorIndex
 90
        5
102
RTVSPost2010Prop44ColorRGB
 90
      255
102
RTVSPost2010PropOp44
 70
     1
102
RTVSPost2010Prop45
280
     0
102
RTVSPost2010PropOp45
 70
     1
102
RTVSPost2010Prop46
 90
       50
102
RTVSPost2010PropOp46
 70
     1
102
RTVSPost2010Prop47
 90
       50
102
RTVSPost2010PropOp47
 70
     1
102
RTVSPost2010Prop48
 90
       50
102
RTVSPost2010PropOp48
 70
     1
102
RTVSPost2010Prop49
280
     0
102
RTVSPost2010PropOp49
 70
     1
102
RTVSPost2010Prop50
 90
       50
102
RTVSPost2010PropOp50
 70
     1
102
RTVSPost2010Prop51ColorIndex
 90
      256
102
RTVSPost2010Prop51ColorRGB
 90
-16777216
102
RTVSPost2010PropOp51
 70
     0
102
RTVSPost2010Prop52
140
1.0
102
RTVSPost2010PropOp52
 70
     0
102
RTVSPost2010Prop53
 90
        2
102
RTVSPost2010PropOp53
 70
     1
102
RTVSPost2010Prop54
  1
strokes_ogs.tif
102
RTVSPost2010PropOp54
 70
     1
102
RTVSPost2010Prop55
280
     0
102
RTVSPost2010PropOp55
 70
     1
102
RTVSPost2010Prop56
140
1.0
102
RTVSPost2010PropOp56
 70
     1
102
RTVSPost2010Prop57
140
1.0
102
RTVSPost2010PropOp57
 70
     1
102
RTVSPropertyOp0
 70
     1
102
RTVSPropertyOp1
 70
     1
102
RTVSPropertyOp2
 70
     1
102
RTVSPropertyOp3
 70
     1
102
RTVSPropertyOp4
 70
     1
102
RTVSPropertyOp5
 70
     1
102
RTVSPropertyOp6
 70
     1
102
RTVSPropertyOp7
 70
     1
102
RTVSPropertyOp8
 70
     1
102
RTVSPropertyOp9
 70
     1
102
RTVSPropertyOp10
 70
     1
102
RTVSPropertyOp11
 70
     1
102
RTVSPropertyOp12
 70
     1
102
RTVSPropertyOp13
 70
     1
102
RTVSPropertyOp14
 70
     1
102
RTVSPropertyOp15
 70
     1
102
RTVSPropertyOp16
 70
     1
102
RTVSPropertyOp17
 70
     1
102
RTVSPropertyOp18
 70
     1
102
RTVSPropertyOp19
 70
     1
102
RTVSPropertyOp20
 70
     1
102
RTVSPropertyOp21
 70
     1
102
RTVSPropertyOp22
 70
     1
102
RTVSPropertyOp23
 70
     1
102
RTVSPropertyOp24
 70
     1
102
RTVSPropertyOp25
 70
     1
102
RTVSPropertyOp26
 70
     1
102
RTVSPropertyOp27
 70
     1
102
RTVSPropertyOp28
 70
     1
102
RTVSPropertyOp29
 70
     1
102
RTVSPropertyOp30
 70
     1
102
RTVSPropertyOp31
 70
     1
102
RTVSPropertyOp32
 70
     1
102
RTVSPropertyOp33
 70
     1
102
RTVSPropertyOp34
 70
     1
102
RTVSPropertyOp35
 70
     1
102
RTVSPropertyOp36
 70
     1
102
RTVSPropertyOp37
 70
     1
102
RTVSPropertyOp38
 70
     1
102
RTVSPropertyOp39
 70
     1
102
RTVSPropertyOp40
 70
     1
102
RTVSPropertyOp41
 70
     1
102
RTVSPropertyOp42
 70
     1
102
RTVSPropertyOp43
 70
     1
102
RTVSPropertyOp44
 70
     1
102
RTVSPropertyOp45
 70
     1
102
RTVSPropertyOp46
 70
     1
102
RTVSPropertyOp47
 70
     1
102
RTVSPropertyOp48
 70
     1
102
RTVSPropertyOp49
 70
     1
102
RTVSPropertyOp50
 70
     1
102
RTVSPropertyOp51
 70
     0
102
RTVSPropertyOp52
 70
     0
102
RTVSPropertyOp53
 70
     1
102
RTVSPropertyOp54
 70
     1
102
RTVSPropertyOp55
 70
     1
102
RTVSPropertyOp56
 70
     1
102
RTVSPropertyOp57
 70
     1
102
RTVSPropertyOp58
 70
     1
102
RTVSPropertyOp59
 70
     1
102
RTVSPropertyOp60
 70
     1
102
RTVSPropertyOp61
 70
     1
102
RTVSPropertyOp62
 70
     1
  0
XRECORD
  5
738
102
{ACAD_REACTORS
330
737
102
}
330
737
100
AcDbXrecord
280
     1
102
RTVSPost2010Prop28
280
     0
102
RTVSPost2010PropOp28
 70
     1
102
RTVSPost2010Prop29
280
     1
102
RTVSPost2010PropOp29
 70
     1
102
RTVSPost2010Prop30
280
     1
102
RTVSPost2010PropOp30
 70
     1
102
RTVSPost2010Prop31
280
     0
102
RTVSPost2010PropOp31
 70
     1
102
RTVSPost2010Prop32
280
     0
102
RTVSPost2010PropOp32
 70
     1
102
RTVSPost2010Prop33
280
     0
102
RTVSPost2010PropOp33
 70
     1
102
RTVSPost2010Prop34
280
     0
102
RTVSPost2010PropOp34
 70
     1
102
RTVSPost2010Prop35
280
     0
102
RTVSPost2010PropOp35
 70
     1
102
RTVSPost2010Prop36
280
     0
102
RTVSPost2010PropOp36
 70
     1
102
RTVSPost2010Prop37
 90
       50
102
RTVSPost2010PropOp37
 70
     1
102
RTVSPost2010Prop38
140
0.0
102
RTVSPost2010PropOp38
 70
     1
102
RTVSPost2010Prop39
140
1.0
102
RTVSPost2010PropOp39
 70
     1
102
RTVSPost2010Prop40
 90
        0
102
RTVSPost2010PropOp40
 70
     1
102
RTVSPost2010Prop41ColorIndex
 90
       18
102
RTVSPost2010Prop41ColorRGB
 90
        0
102
RTVSPost2010PropOp41
 70
     1
102
RTVSPost2010Prop42
 90
       50
102
RTVSPost2010PropOp42
 70
     1
102
RTVSPost2010Prop43
 90
        3
102
RTVSPost2010PropOp43
 70
     1
102
RTVSPost2010Prop44ColorIndex
 90
        5
102
RTVSPost2010Prop44ColorRGB
 90
      255
102
RTVSPost2010PropOp44
 70
     1
102
RTVSPost2010Prop45
280
     0
102
RTVSPost2010PropOp45
 70
     1
102
RTVSPost2010Prop46
 90
       50
102
RTVSPost2010PropOp46
 70
     1
102
RTVSPost2010Prop47
 90
       50
102
RTVSPost2010PropOp47
 70
     1
102
RTVSPost2010Prop48
 90
       50
102
RTVSPost2010PropOp48
 70
     1
102
RTVSPost2010Prop49
280
     0
102
RTVSPost2010PropOp49
 70
     1
102
RTVSPost2010Prop50
 90
       50
102
RTVSPost2010PropOp50
 70
     1
102
RTVSPost2010Prop51ColorIndex
 90
      256
102
RTVSPost2010Prop51ColorRGB
 90
-16777216
102
RTVSPost2010PropOp51
 70
     0
102
RTVSPost2010Prop52
140
1.0
102
RTVSPost2010PropOp52
 70
     0
102
RTVSPost2010Prop53
 90
        2
102
RTVSPost2010PropOp53
 70
     1
102
RTVSPost2010Prop54
  1
strokes_ogs.tif
102
RTVSPost2010PropOp54
 70
     1
102
RTVSPost2010Prop55
280
     0
102
RTVSPost2010PropOp55
 70
     1
102
RTVSPost2010Prop56
140
1.0
102
RTVSPost2010PropOp56
 70
     1
102
RTVSPost2010Prop57
140
1.0
102
RTVSPost2010PropOp57
 70
     1
102
RTVSPropertyOp0
 70
     1
102
RTVSPropertyOp1
 70
     1
102
RTVSPropertyOp2
 70
     1
102
RTVSPropertyOp3
 70
     1
102
RTVSPropertyOp4
 70
     1
102
RTVSPropertyOp5
 70
     1
102
RTVSPropertyOp6
 70
     1
102
RTVSPropertyOp7
 70
     1
102
RTVSPropertyOp8
 70
     1
102
RTVSPropertyOp9
 70
     1
102
RTVSPropertyOp10
 70
     1
102
RTVSPropertyOp11
 70
     1
102
RTVSPropertyOp12
 70
     1
102
RTVSPropertyOp13
 70
     1
102
RTVSPropertyOp14
 70
     1
102
RTVSPropertyOp15
 70
     1
102
RTVSPropertyOp16
 70
     1
102
RTVSPropertyOp17
 70
     1
102
RTVSPropertyOp18
 70
     1
102
RTVSPropertyOp19
 70
     1
102
RTVSPropertyOp20
 70
     1
102
RTVSPropertyOp21
 70
     1
102
RTVSPropertyOp22
 70
     1
102
RTVSPropertyOp23
 70
     1
102
RTVSPropertyOp24
 70
     1
102
RTVSPropertyOp25
 70
     1
102
RTVSPropertyOp26
 70
     1
102
RTVSPropertyOp27
 70
     1
102
RTVSPropertyOp28
 70
     1
102
RTVSPropertyOp29
 70
     1
102
RTVSPropertyOp30
 70
     1
102
RTVSPropertyOp31
 70
     1
102
RTVSPropertyOp32
 70
     1
102
RTVSPropertyOp33
 70
     1
102
RTVSPropertyOp34
 70
     1
102
RTVSPropertyOp35
 70
     1
102
RTVSPropertyOp36
 70
     1
102
RTVSPropertyOp37
 70
     1
102
RTVSPropertyOp38
 70
     1
102
RTVSPropertyOp39
 70
     1
102
RTVSPropertyOp40
 70
     1
102
RTVSPropertyOp41
 70
     1
102
RTVSPropertyOp42
 70
     1
102
RTVSPropertyOp43
 70
     1
102
RTVSPropertyOp44
 70
     1
102
RTVSPropertyOp45
 70
     1
102
RTVSPropertyOp46
 70
     1
102
RTVSPropertyOp47
 70
     1
102
RTVSPropertyOp48
 70
     1
102
RTVSPropertyOp49
 70
     1
102
RTVSPropertyOp50
 70
     1
102
RTVSPropertyOp51
 70
     0
102
RTVSPropertyOp52
 70
     0
102
RTVSPropertyOp53
 70
     1
102
RTVSPropertyOp54
 70
     1
102
RTVSPropertyOp55
 70
     1
102
RTVSPropertyOp56
 70
     1
102
RTVSPropertyOp57
 70
     1
102
RTVSPropertyOp58
 70
     1
102
RTVSPropertyOp59
 70
     1
102
RTVSPropertyOp60
 70
     1
102
RTVSPropertyOp61
 70
     1
102
RTVSPropertyOp62
 70
     1
  0
XRECORD
  5
73A
102
{ACAD_REACTORS
330
739
102
}
330
739
100
AcDbXrecord
280
     1
102
RTVSPost2010Prop28
280
     0
102
RTVSPost2010PropOp28
 70
     1
102
RTVSPost2010Prop29
280
     1
102
RTVSPost2010PropOp29
 70
     1
102
RTVSPost2010Prop30
280
     1
102
RTVSPost2010PropOp30
 70
     1
102
RTVSPost2010Prop31
280
     0
102
RTVSPost2010PropOp31
 70
     1
102
RTVSPost2010Prop32
280
     0
102
RTVSPost2010PropOp32
 70
     1
102
RTVSPost2010Prop33
280
     0
102
RTVSPost2010PropOp33
 70
     1
102
RTVSPost2010Prop34
280
     0
102
RTVSPost2010PropOp34
 70
     1
102
RTVSPost2010Prop35
280
     0
102
RTVSPost2010PropOp35
 70
     1
102
RTVSPost2010Prop36
280
     0
102
RTVSPost2010PropOp36
 70
     1
102
RTVSPost2010Prop37
 90
       50
102
RTVSPost2010PropOp37
 70
     1
102
RTVSPost2010Prop38
140
0.0
102
RTVSPost2010PropOp38
 70
     1
102
RTVSPost2010Prop39
140
1.0
102
RTVSPost2010PropOp39
 70
     1
102
RTVSPost2010Prop40
 90
        0
102
RTVSPost2010PropOp40
 70
     1
102
RTVSPost2010Prop41ColorIndex
 90
       18
102
RTVSPost2010Prop41ColorRGB
 90
        0
102
RTVSPost2010PropOp41
 70
     1
102
RTVSPost2010Prop42
 90
       50
102
RTVSPost2010PropOp42
 70
     1
102
RTVSPost2010Prop43
 90
        3
102
RTVSPost2010PropOp43
 70
     1
102
RTVSPost2010Prop44ColorIndex
 90
        5
102
RTVSPost2010Prop44ColorRGB
 90
      255
102
RTVSPost2010PropOp44
 70
     1
102
RTVSPost2010Prop45
280
     0
102
RTVSPost2010PropOp45
 70
     1
102
RTVSPost2010Prop46
 90
       50
102
RTVSPost2010PropOp46
 70
     1
102
RTVSPost2010Prop47
 90
       50
102
RTVSPost2010PropOp47
 70
     1
102
RTVSPost2010Prop48
 90
       50
102
RTVSPost2010PropOp48
 70
     1
102
RTVSPost2010Prop49
280
     0
102
RTVSPost2010PropOp49
 70
     1
102
RTVSPost2010Prop50
 90
       50
102
RTVSPost2010PropOp50
 70
     1
102
RTVSPost2010Prop51ColorIndex
 90
      256
102
RTVSPost2010Prop51ColorRGB
 90
-16777216
102
RTVSPost2010PropOp51
 70
     0
102
RTVSPost2010Prop52
140
1.0
102
RTVSPost2010PropOp52
 70
     0
102
RTVSPost2010Prop53
 90
        2
102
RTVSPost2010PropOp53
 70
     1
102
RTVSPost2010Prop54
  1
strokes_ogs.tif
102
RTVSPost2010PropOp54
 70
     1
102
RTVSPost2010Prop55
280
     0
102
RTVSPost2010PropOp55
 70
     1
102
RTVSPost2010Prop56
140
1.0
102
RTVSPost2010PropOp56
 70
     1
102
RTVSPost2010Prop57
140
1.0
102
RTVSPost2010PropOp57
 70
     1
102
RTVSPropertyOp0
 70
     1
102
RTVSPropertyOp1
 70
     1
102
RTVSPropertyOp2
 70
     1
102
RTVSPropertyOp3
 70
     1
102
RTVSPropertyOp4
 70
     1
102
RTVSPropertyOp5
 70
     1
102
RTVSPropertyOp6
 70
     1
102
RTVSPropertyOp7
 70
     1
102
RTVSPropertyOp8
 70
     1
102
RTVSPropertyOp9
 70
     1
102
RTVSPropertyOp10
 70
     1
102
RTVSPropertyOp11
 70
     1
102
RTVSPropertyOp12
 70
     1
102
RTVSPropertyOp13
 70
     1
102
RTVSPropertyOp14
 70
     1
102
RTVSPropertyOp15
 70
     1
102
RTVSPropertyOp16
 70
     1
102
RTVSPropertyOp17
 70
     1
102
RTVSPropertyOp18
 70
     1
102
RTVSPropertyOp19
 70
     1
102
RTVSPropertyOp20
 70
     1
102
RTVSPropertyOp21
 70
     1
102
RTVSPropertyOp22
 70
     1
102
RTVSPropertyOp23
 70
     1
102
RTVSPropertyOp24
 70
     1
102
RTVSPropertyOp25
 70
     1
102
RTVSPropertyOp26
 70
     1
102
RTVSPropertyOp27
 70
     1
102
RTVSPropertyOp28
 70
     1
102
RTVSPropertyOp29
 70
     1
102
RTVSPropertyOp30
 70
     1
102
RTVSPropertyOp31
 70
     1
102
RTVSPropertyOp32
 70
     1
102
RTVSPropertyOp33
 70
     1
102
RTVSPropertyOp34
 70
     1
102
RTVSPropertyOp35
 70
     1
102
RTVSPropertyOp36
 70
     1
102
RTVSPropertyOp37
 70
     1
102
RTVSPropertyOp38
 70
     1
102
RTVSPropertyOp39
 70
     1
102
RTVSPropertyOp40
 70
     1
102
RTVSPropertyOp41
 70
     1
102
RTVSPropertyOp42
 70
     1
102
RTVSPropertyOp43
 70
     1
102
RTVSPropertyOp44
 70
     1
102
RTVSPropertyOp45
 70
     1
102
RTVSPropertyOp46
 70
     1
102
RTVSPropertyOp47
 70
     1
102
RTVSPropertyOp48
 70
     1
102
RTVSPropertyOp49
 70
     1
102
RTVSPropertyOp50
 70
     1
102
RTVSPropertyOp51
 70
     0
102
RTVSPropertyOp52
 70
     0
102
RTVSPropertyOp53
 70
     1
102
RTVSPropertyOp54
 70
     1
102
RTVSPropertyOp55
 70
     1
102
RTVSPropertyOp56
 70
     1
102
RTVSPropertyOp57
 70
     1
102
RTVSPropertyOp58
 70
     1
102
RTVSPropertyOp59
 70
     1
102
RTVSPropertyOp60
 70
     1
102
RTVSPropertyOp61
 70
     1
102
RTVSPropertyOp62
 70
     1
  0
XRECORD
  5
740
102
{ACAD_REACTORS
330
73F
102
}
330
73F
100
AcDbXrecord
280
     1
102
RTVSPost2010Prop28
280
     0
102
RTVSPost2010PropOp28
 70
     1
102
RTVSPost2010Prop29
280
     1
102
RTVSPost2010PropOp29
 70
     1
102
RTVSPost2010Prop30
280
     1
102
RTVSPost2010PropOp30
 70
     1
102
RTVSPost2010Prop31
280
     0
102
RTVSPost2010PropOp31
 70
     1
102
RTVSPost2010Prop32
280
     0
102
RTVSPost2010PropOp32
 70
     1
102
RTVSPost2010Prop33
280
     0
102
RTVSPost2010PropOp33
 70
     1
102
RTVSPost2010Prop34
280
     0
102
RTVSPost2010PropOp34
 70
     1
102
RTVSPost2010Prop35
280
     0
102
RTVSPost2010PropOp35
 70
     1
102
RTVSPost2010Prop36
280
     0
102
RTVSPost2010PropOp36
 70
     1
102
RTVSPost2010Prop37
 90
       50
102
RTVSPost2010PropOp37
 70
     1
102
RTVSPost2010Prop38
140
0.0
102
RTVSPost2010PropOp38
 70
     1
102
RTVSPost2010Prop39
140
1.0
102
RTVSPost2010PropOp39
 70
     1
102
RTVSPost2010Prop40
 90
        0
102
RTVSPost2010PropOp40
 70
     1
102
RTVSPost2010Prop41ColorIndex
 90
       18
102
RTVSPost2010Prop41ColorRGB
 90
        0
102
RTVSPost2010PropOp41
 70
     1
102
RTVSPost2010Prop42
 90
       50
102
RTVSPost2010PropOp42
 70
     1
102
RTVSPost2010Prop43
 90
        3
102
RTVSPost2010PropOp43
 70
     1
102
RTVSPost2010Prop44ColorIndex
 90
        5
102
RTVSPost2010Prop44ColorRGB
 90
      255
102
RTVSPost2010PropOp44
 70
     1
102
RTVSPost2010Prop45
280
     0
102
RTVSPost2010PropOp45
 70
     1
102
RTVSPost2010Prop46
 90
       50
102
RTVSPost2010PropOp46
 70
     1
102
RTVSPost2010Prop47
 90
       50
102
RTVSPost2010PropOp47
 70
     1
102
RTVSPost2010Prop48
 90
       50
102
RTVSPost2010PropOp48
 70
     1
102
RTVSPost2010Prop49
280
     0
102
RTVSPost2010PropOp49
 70
     1
102
RTVSPost2010Prop50
 90
       50
102
RTVSPost2010PropOp50
 70
     1
102
RTVSPost2010Prop51ColorIndex
 90
      256
102
RTVSPost2010Prop51ColorRGB
 90
-16777216
102
RTVSPost2010PropOp51
 70
     0
102
RTVSPost2010Prop52
140
1.0
102
RTVSPost2010PropOp52
 70
     0
102
RTVSPost2010Prop53
 90
        2
102
RTVSPost2010PropOp53
 70
     1
102
RTVSPost2010Prop54
  1
strokes_ogs.tif
102
RTVSPost2010PropOp54
 70
     1
102
RTVSPost2010Prop55
280
     0
102
RTVSPost2010PropOp55
 70
     1
102
RTVSPost2010Prop56
140
1.0
102
RTVSPost2010PropOp56
 70
     1
102
RTVSPost2010Prop57
140
1.0
102
RTVSPost2010PropOp57
 70
     1
102
RTVSPropertyOp0
 70
     1
102
RTVSPropertyOp1
 70
     1
102
RTVSPropertyOp2
 70
     1
102
RTVSPropertyOp3
 70
     1
102
RTVSPropertyOp4
 70
     1
102
RTVSPropertyOp5
 70
     1
102
RTVSPropertyOp6
 70
     1
102
RTVSPropertyOp7
 70
     1
102
RTVSPropertyOp8
 70
     1
102
RTVSPropertyOp9
 70
     1
102
RTVSPropertyOp10
 70
     1
102
RTVSPropertyOp11
 70
     1
102
RTVSPropertyOp12
 70
     1
102
RTVSPropertyOp13
 70
     1
102
RTVSPropertyOp14
 70
     1
102
RTVSPropertyOp15
 70
     1
102
RTVSPropertyOp16
 70
     1
102
RTVSPropertyOp17
 70
     1
102
RTVSPropertyOp18
 70
     1
102
RTVSPropertyOp19
 70
     1
102
RTVSPropertyOp20
 70
     1
102
RTVSPropertyOp21
 70
     1
102
RTVSPropertyOp22
 70
     1
102
RTVSPropertyOp23
 70
     1
102
RTVSPropertyOp24
 70
     1
102
RTVSPropertyOp25
 70
     1
102
RTVSPropertyOp26
 70
     1
102
RTVSPropertyOp27
 70
     1
102
RTVSPropertyOp28
 70
     1
102
RTVSPropertyOp29
 70
     1
102
RTVSPropertyOp30
 70
     1
102
RTVSPropertyOp31
 70
     1
102
RTVSPropertyOp32
 70
     1
102
RTVSPropertyOp33
 70
     1
102
RTVSPropertyOp34
 70
     1
102
RTVSPropertyOp35
 70
     1
102
RTVSPropertyOp36
 70
     1
102
RTVSPropertyOp37
 70
     1
102
RTVSPropertyOp38
 70
     1
102
RTVSPropertyOp39
 70
     1
102
RTVSPropertyOp40
 70
     1
102
RTVSPropertyOp41
 70
     1
102
RTVSPropertyOp42
 70
     1
102
RTVSPropertyOp43
 70
     1
102
RTVSPropertyOp44
 70
     1
102
RTVSPropertyOp45
 70
     1
102
RTVSPropertyOp46
 70
     1
102
RTVSPropertyOp47
 70
     1
102
RTVSPropertyOp48
 70
     1
102
RTVSPropertyOp49
 70
     1
102
RTVSPropertyOp50
 70
     1
102
RTVSPropertyOp51
 70
     0
102
RTVSPropertyOp52
 70
     0
102
RTVSPropertyOp53
 70
     1
102
RTVSPropertyOp54
 70
     1
102
RTVSPropertyOp55
 70
     1
102
RTVSPropertyOp56
 70
     1
102
RTVSPropertyOp57
 70
     1
102
RTVSPropertyOp58
 70
     1
102
RTVSPropertyOp59
 70
     1
102
RTVSPropertyOp60
 70
     1
102
RTVSPropertyOp61
 70
     1
102
RTVSPropertyOp62
 70
     1
  0
XRECORD
  5
754
102
{ACAD_REACTORS
330
753
102
}
330
753
100
AcDbXrecord
280
     1
102
RTVSPost2010Prop28
280
     0
102
RTVSPost2010PropOp28
 70
     0
102
RTVSPost2010Prop29
280
     1
102
RTVSPost2010PropOp29
 70
     0
102
RTVSPost2010Prop30
280
     1
102
RTVSPost2010PropOp30
 70
     0
102
RTVSPost2010Prop31
280
     0
102
RTVSPost2010PropOp31
 70
     0
102
RTVSPost2010Prop32
280
     0
102
RTVSPost2010PropOp32
 70
     0
102
RTVSPost2010Prop33
280
     0
102
RTVSPost2010PropOp33
 70
     0
102
RTVSPost2010Prop34
280
     0
102
RTVSPost2010PropOp34
 70
     0
102
RTVSPost2010Prop35
280
     0
102
RTVSPost2010PropOp35
 70
     0
102
RTVSPost2010Prop36
280
     0
102
RTVSPost2010PropOp36
 70
     0
102
RTVSPost2010Prop37
 90
       50
102
RTVSPost2010PropOp37
 70
     0
102
RTVSPost2010Prop38
140
0.0
102
RTVSPost2010PropOp38
 70
     0
102
RTVSPost2010Prop39
140
1.0
102
RTVSPost2010PropOp39
 70
     0
102
RTVSPost2010Prop40
 90
        0
102
RTVSPost2010PropOp40
 70
     0
102
RTVSPost2010Prop41ColorIndex
 90
       18
102
RTVSPost2010Prop41ColorRGB
 90
        0
102
RTVSPost2010PropOp41
 70
     0
102
RTVSPost2010Prop42
 90
       50
102
RTVSPost2010PropOp42
 70
     0
102
RTVSPost2010Prop43
 90
        3
102
RTVSPost2010PropOp43
 70
     0
102
RTVSPost2010Prop44ColorIndex
 90
        5
102
RTVSPost2010Prop44ColorRGB
 90
      255
102
RTVSPost2010PropOp44
 70
     0
102
RTVSPost2010Prop45
280
     0
102
RTVSPost2010PropOp45
 70
     0
102
RTVSPost2010Prop46
 90
       50
102
RTVSPost2010PropOp46
 70
     0
102
RTVSPost2010Prop47
 90
       50
102
RTVSPost2010PropOp47
 70
     0
102
RTVSPost2010Prop48
 90
       50
102
RTVSPost2010PropOp48
 70
     0
102
RTVSPost2010Prop49
280
     0
102
RTVSPost2010PropOp49
 70
     0
102
RTVSPost2010Prop50
 90
       50
102
RTVSPost2010PropOp50
 70
     0
102
RTVSPost2010Prop51ColorIndex
 90
      256
102
RTVSPost2010Prop51ColorRGB
 90
-16777216
102
RTVSPost2010PropOp51
 70
     0
102
RTVSPost2010Prop52
140
1.0
102
RTVSPost2010PropOp52
 70
     0
102
RTVSPost2010Prop53
 90
        2
102
RTVSPost2010PropOp53
 70
     0
102
RTVSPost2010Prop54
  1
strokes_ogs.tif
102
RTVSPost2010PropOp54
 70
     0
102
RTVSPost2010Prop55
280
     0
102
RTVSPost2010PropOp55
 70
     0
102
RTVSPost2010Prop56
140
1.0
102
RTVSPost2010PropOp56
 70
     0
102
RTVSPost2010Prop57
140
1.0
102
RTVSPost2010PropOp57
 70
     0
102
RTVSPropertyOp0
 70
     0
102
RTVSPropertyOp1
 70
     0
102
RTVSPropertyOp2
 70
     0
102
RTVSPropertyOp3
 70
     0
102
RTVSPropertyOp4
 70
     0
102
RTVSPropertyOp5
 70
     0
102
RTVSPropertyOp6
 70
     0
102
RTVSPropertyOp7
 70
     0
102
RTVSPropertyOp8
 70
     0
102
RTVSPropertyOp9
 70
     0
102
RTVSPropertyOp10
 70
     0
102
RTVSPropertyOp11
 70
     0
102
RTVSPropertyOp12
 70
     0
102
RTVSPropertyOp13
 70
     0
102
RTVSPropertyOp14
 70
     2
102
RTVSPropertyOp15
 70
     0
102
RTVSPropertyOp16
 70
     0
102
RTVSPropertyOp17
 70
     0
102
RTVSPropertyOp18
 70
     0
102
RTVSPropertyOp19
 70
     0
102
RTVSPropertyOp20
 70
     0
102
RTVSPropertyOp21
 70
     0
102
RTVSPropertyOp22
 70
     0
102
RTVSPropertyOp23
 70
     0
102
RTVSPropertyOp24
 70
     0
102
RTVSPropertyOp25
 70
     0
102
RTVSPropertyOp26
 70
     0
102
RTVSPropertyOp27
 70
     0
102
RTVSPropertyOp28
 70
     0
102
RTVSPropertyOp29
 70
     0
102
RTVSPropertyOp30
 70
     0
102
RTVSPropertyOp31
 70
     0
102
RTVSPropertyOp32
 70
     0
102
RTVSPropertyOp33
 70
     0
102
RTVSPropertyOp34
 70
     0
102
RTVSPropertyOp35
 70
     0
102
RTVSPropertyOp36
 70
     0
102
RTVSPropertyOp37
 70
     0
102
RTVSPropertyOp38
 70
     0
102
RTVSPropertyOp39
 70
     0
102
RTVSPropertyOp40
 70
     0
102
RTVSPropertyOp41
 70
     0
102
RTVSPropertyOp42
 70
     0
102
RTVSPropertyOp43
 70
     0
102
RTVSPropertyOp44
 70
     0
102
RTVSPropertyOp45
 70
     0
102
RTVSPropertyOp46
 70
     0
102
RTVSPropertyOp47
 70
     0
102
RTVSPropertyOp48
 70
     0
102
RTVSPropertyOp49
 70
     0
102
RTVSPropertyOp50
 70
     0
102
RTVSPropertyOp51
 70
     0
102
RTVSPropertyOp52
 70
     0
102
RTVSPropertyOp53
 70
     0
102
RTVSPropertyOp54
 70
     0
102
RTVSPropertyOp55
 70
     0
102
RTVSPropertyOp56
 70
     0
102
RTVSPropertyOp57
 70
     0
102
RTVSPropertyOp58
 70
     1
102
RTVSPropertyOp59
 70
     1
102
RTVSPropertyOp60
 70
     1
102
RTVSPropertyOp61
 70
     1
102
RTVSPropertyOp62
 70
     1
  0
XRECORD
  5
74E
102
{ACAD_REACTORS
330
74D
102
}
330
74D
100
AcDbXrecord
280
     1
102
RTVSPost2010Prop28
280
     0
102
RTVSPost2010PropOp28
 70
     1
102
RTVSPost2010Prop29
280
     1
102
RTVSPost2010PropOp29
 70
     1
102
RTVSPost2010Prop30
280
     1
102
RTVSPost2010PropOp30
 70
     1
102
RTVSPost2010Prop31
280
     0
102
RTVSPost2010PropOp31
 70
     1
102
RTVSPost2010Prop32
280
     0
102
RTVSPost2010PropOp32
 70
     1
102
RTVSPost2010Prop33
280
     0
102
RTVSPost2010PropOp33
 70
     1
102
RTVSPost2010Prop34
280
     0
102
RTVSPost2010PropOp34
 70
     1
102
RTVSPost2010Prop35
280
     0
102
RTVSPost2010PropOp35
 70
     1
102
RTVSPost2010Prop36
280
     0
102
RTVSPost2010PropOp36
 70
     1
102
RTVSPost2010Prop37
 90
       50
102
RTVSPost2010PropOp37
 70
     1
102
RTVSPost2010Prop38
140
0.0
102
RTVSPost2010PropOp38
 70
     1
102
RTVSPost2010Prop39
140
1.0
102
RTVSPost2010PropOp39
 70
     1
102
RTVSPost2010Prop40
 90
        0
102
RTVSPost2010PropOp40
 70
     1
102
RTVSPost2010Prop41ColorIndex
 90
       18
102
RTVSPost2010Prop41ColorRGB
 90
        0
102
RTVSPost2010PropOp41
 70
     1
102
RTVSPost2010Prop42
 90
       50
102
RTVSPost2010PropOp42
 70
     1
102
RTVSPost2010Prop43
 90
        3
102
RTVSPost2010PropOp43
 70
     1
102
RTVSPost2010Prop44ColorIndex
 90
        5
102
RTVSPost2010Prop44ColorRGB
 90
      255
102
RTVSPost2010PropOp44
 70
     1
102
RTVSPost2010Prop45
280
     0
102
RTVSPost2010PropOp45
 70
     1
102
RTVSPost2010Prop46
 90
       50
102
RTVSPost2010PropOp46
 70
     1
102
RTVSPost2010Prop47
 90
       50
102
RTVSPost2010PropOp47
 70
     1
102
RTVSPost2010Prop48
 90
       50
102
RTVSPost2010PropOp48
 70
     1
102
RTVSPost2010Prop49
280
     0
102
RTVSPost2010PropOp49
 70
     1
102
RTVSPost2010Prop50
 90
       50
102
RTVSPost2010PropOp50
 70
     1
102
RTVSPost2010Prop51ColorIndex
 90
      256
102
RTVSPost2010Prop51ColorRGB
 90
-16777216
102
RTVSPost2010PropOp51
 70
     0
102
RTVSPost2010Prop52
140
1.0
102
RTVSPost2010PropOp52
 70
     0
102
RTVSPost2010Prop53
 90
        2
102
RTVSPost2010PropOp53
 70
     1
102
RTVSPost2010Prop54
  1
strokes_ogs.tif
102
RTVSPost2010PropOp54
 70
     1
102
RTVSPost2010Prop55
280
     0
102
RTVSPost2010PropOp55
 70
     1
102
RTVSPost2010Prop56
140
1.0
102
RTVSPost2010PropOp56
 70
     1
102
RTVSPost2010Prop57
140
1.0
102
RTVSPost2010PropOp57
 70
     1
102
RTVSPropertyOp0
 70
     1
102
RTVSPropertyOp1
 70
     1
102
RTVSPropertyOp2
 70
     1
102
RTVSPropertyOp3
 70
     1
102
RTVSPropertyOp4
 70
     1
102
RTVSPropertyOp5
 70
     1
102
RTVSPropertyOp6
 70
     1
102
RTVSPropertyOp7
 70
     1
102
RTVSPropertyOp8
 70
     1
102
RTVSPropertyOp9
 70
     1
102
RTVSPropertyOp10
 70
     1
102
RTVSPropertyOp11
 70
     1
102
RTVSPropertyOp12
 70
     1
102
RTVSPropertyOp13
 70
     1
102
RTVSPropertyOp14
 70
     1
102
RTVSPropertyOp15
 70
     1
102
RTVSPropertyOp16
 70
     1
102
RTVSPropertyOp17
 70
     1
102
RTVSPropertyOp18
 70
     1
102
RTVSPropertyOp19
 70
     1
102
RTVSPropertyOp20
 70
     1
102
RTVSPropertyOp21
 70
     1
102
RTVSPropertyOp22
 70
     1
102
RTVSPropertyOp23
 70
     1
102
RTVSPropertyOp24
 70
     1
102
RTVSPropertyOp25
 70
     1
102
RTVSPropertyOp26
 70
     1
102
RTVSPropertyOp27
 70
     1
102
RTVSPropertyOp28
 70
     1
102
RTVSPropertyOp29
 70
     1
102
RTVSPropertyOp30
 70
     1
102
RTVSPropertyOp31
 70
     1
102
RTVSPropertyOp32
 70
     1
102
RTVSPropertyOp33
 70
     1
102
RTVSPropertyOp34
 70
     1
102
RTVSPropertyOp35
 70
     1
102
RTVSPropertyOp36
 70
     1
102
RTVSPropertyOp37
 70
     1
102
RTVSPropertyOp38
 70
     1
102
RTVSPropertyOp39
 70
     1
102
RTVSPropertyOp40
 70
     1
102
RTVSPropertyOp41
 70
     1
102
RTVSPropertyOp42
 70
     1
102
RTVSPropertyOp43
 70
     1
102
RTVSPropertyOp44
 70
     1
102
RTVSPropertyOp45
 70
     1
102
RTVSPropertyOp46
 70
     1
102
RTVSPropertyOp47
 70
     1
102
RTVSPropertyOp48
 70
     1
102
RTVSPropertyOp49
 70
     1
102
RTVSPropertyOp50
 70
     1
102
RTVSPropertyOp51
 70
     0
102
RTVSPropertyOp52
 70
     0
102
RTVSPropertyOp53
 70
     1
102
RTVSPropertyOp54
 70
     1
102
RTVSPropertyOp55
 70
     1
102
RTVSPropertyOp56
 70
     1
102
RTVSPropertyOp57
 70
     1
102
RTVSPropertyOp58
 70
     1
102
RTVSPropertyOp59
 70
     1
102
RTVSPropertyOp60
 70
     1
102
RTVSPropertyOp61
 70
     1
102
RTVSPropertyOp62
 70
     1
  0
XRECORD
  5
756
102
{ACAD_REACTORS
330
755
102
}
330
755
100
AcDbXrecord
280
     1
102
RTVSPost2010Prop28
280
     0
102
RTVSPost2010PropOp28
 70
     0
102
RTVSPost2010Prop29
280
     1
102
RTVSPost2010PropOp29
 70
     0
102
RTVSPost2010Prop30
280
     1
102
RTVSPost2010PropOp30
 70
     0
102
RTVSPost2010Prop31
280
     0
102
RTVSPost2010PropOp31
 70
     0
102
RTVSPost2010Prop32
280
     0
102
RTVSPost2010PropOp32
 70
     0
102
RTVSPost2010Prop33
280
     0
102
RTVSPost2010PropOp33
 70
     0
102
RTVSPost2010Prop34
280
     0
102
RTVSPost2010PropOp34
 70
     0
102
RTVSPost2010Prop35
280
     0
102
RTVSPost2010PropOp35
 70
     0
102
RTVSPost2010Prop36
280
     0
102
RTVSPost2010PropOp36
 70
     0
102
RTVSPost2010Prop37
 90
       50
102
RTVSPost2010PropOp37
 70
     0
102
RTVSPost2010Prop38
140
0.0
102
RTVSPost2010PropOp38
 70
     0
102
RTVSPost2010Prop39
140
1.0
102
RTVSPost2010PropOp39
 70
     0
102
RTVSPost2010Prop40
 90
        0
102
RTVSPost2010PropOp40
 70
     0
102
RTVSPost2010Prop41ColorIndex
 90
       18
102
RTVSPost2010Prop41ColorRGB
 90
        0
102
RTVSPost2010PropOp41
 70
     0
102
RTVSPost2010Prop42
 90
       50
102
RTVSPost2010PropOp42
 70
     0
102
RTVSPost2010Prop43
 90
        3
102
RTVSPost2010PropOp43
 70
     0
102
RTVSPost2010Prop44ColorIndex
 90
        5
102
RTVSPost2010Prop44ColorRGB
 90
      255
102
RTVSPost2010PropOp44
 70
     0
102
RTVSPost2010Prop45
280
     0
102
RTVSPost2010PropOp45
 70
     0
102
RTVSPost2010Prop46
 90
       50
102
RTVSPost2010PropOp46
 70
     0
102
RTVSPost2010Prop47
 90
       50
102
RTVSPost2010PropOp47
 70
     0
102
RTVSPost2010Prop48
 90
       50
102
RTVSPost2010PropOp48
 70
     0
102
RTVSPost2010Prop49
280
     0
102
RTVSPost2010PropOp49
 70
     0
102
RTVSPost2010Prop50
 90
       50
102
RTVSPost2010PropOp50
 70
     0
102
RTVSPost2010Prop51ColorIndex
 90
      256
102
RTVSPost2010Prop51ColorRGB
 90
-16777216
102
RTVSPost2010PropOp51
 70
     0
102
RTVSPost2010Prop52
140
1.0
102
RTVSPost2010PropOp52
 70
     0
102
RTVSPost2010Prop53
 90
        2
102
RTVSPost2010PropOp53
 70
     0
102
RTVSPost2010Prop54
  1
strokes_ogs.tif
102
RTVSPost2010PropOp54
 70
     0
102
RTVSPost2010Prop55
280
     0
102
RTVSPost2010PropOp55
 70
     0
102
RTVSPost2010Prop56
140
1.0
102
RTVSPost2010PropOp56
 70
     0
102
RTVSPost2010Prop57
140
1.0
102
RTVSPost2010PropOp57
 70
     0
102
RTVSPropertyOp0
 70
     0
102
RTVSPropertyOp1
 70
     0
102
RTVSPropertyOp2
 70
     0
102
RTVSPropertyOp3
 70
     0
102
RTVSPropertyOp4
 70
     0
102
RTVSPropertyOp5
 70
     0
102
RTVSPropertyOp6
 70
     0
102
RTVSPropertyOp7
 70
     0
102
RTVSPropertyOp8
 70
     0
102
RTVSPropertyOp9
 70
     0
102
RTVSPropertyOp10
 70
     0
102
RTVSPropertyOp11
 70
     0
102
RTVSPropertyOp12
 70
     0
102
RTVSPropertyOp13
 70
     0
102
RTVSPropertyOp14
 70
     2
102
RTVSPropertyOp15
 70
     0
102
RTVSPropertyOp16
 70
     0
102
RTVSPropertyOp17
 70
     0
102
RTVSPropertyOp18
 70
     0
102
RTVSPropertyOp19
 70
     0
102
RTVSPropertyOp20
 70
     0
102
RTVSPropertyOp21
 70
     0
102
RTVSPropertyOp22
 70
     0
102
RTVSPropertyOp23
 70
     0
102
RTVSPropertyOp24
 70
     0
102
RTVSPropertyOp25
 70
     0
102
RTVSPropertyOp26
 70
     0
102
RTVSPropertyOp27
 70
     0
102
RTVSPropertyOp28
 70
     0
102
RTVSPropertyOp29
 70
     0
102
RTVSPropertyOp30
 70
     0
102
RTVSPropertyOp31
 70
     0
102
RTVSPropertyOp32
 70
     0
102
RTVSPropertyOp33
 70
     0
102
RTVSPropertyOp34
 70
     0
102
RTVSPropertyOp35
 70
     0
102
RTVSPropertyOp36
 70
     0
102
RTVSPropertyOp37
 70
     0
102
RTVSPropertyOp38
 70
     0
102
RTVSPropertyOp39
 70
     0
102
RTVSPropertyOp40
 70
     0
102
RTVSPropertyOp41
 70
     0
102
RTVSPropertyOp42
 70
     0
102
RTVSPropertyOp43
 70
     0
102
RTVSPropertyOp44
 70
     0
102
RTVSPropertyOp45
 70
     0
102
RTVSPropertyOp46
 70
     0
102
RTVSPropertyOp47
 70
     0
102
RTVSPropertyOp48
 70
     0
102
RTVSPropertyOp49
 70
     0
102
RTVSPropertyOp50
 70
     0
102
RTVSPropertyOp51
 70
     0
102
RTVSPropertyOp52
 70
     0
102
RTVSPropertyOp53
 70
     0
102
RTVSPropertyOp54
 70
     0
102
RTVSPropertyOp55
 70
     0
102
RTVSPropertyOp56
 70
     0
102
RTVSPropertyOp57
 70
     0
102
RTVSPropertyOp58
 70
     1
102
RTVSPropertyOp59
 70
     1
102
RTVSPropertyOp60
 70
     1
102
RTVSPropertyOp61
 70
     1
102
RTVSPropertyOp62
 70
     1
  0
XRECORD
  5
744
102
{ACAD_REACTORS
330
743
102
}
330
743
100
AcDbXrecord
280
     1
102
RTVSPost2010Prop28
280
     0
102
RTVSPost2010PropOp28
 70
     1
102
RTVSPost2010Prop29
280
     1
102
RTVSPost2010PropOp29
 70
     1
102
RTVSPost2010Prop30
280
     1
102
RTVSPost2010PropOp30
 70
     1
102
RTVSPost2010Prop31
280
     0
102
RTVSPost2010PropOp31
 70
     1
102
RTVSPost2010Prop32
280
     0
102
RTVSPost2010PropOp32
 70
     1
102
RTVSPost2010Prop33
280
     0
102
RTVSPost2010PropOp33
 70
     1
102
RTVSPost2010Prop34
280
     0
102
RTVSPost2010PropOp34
 70
     1
102
RTVSPost2010Prop35
280
     0
102
RTVSPost2010PropOp35
 70
     1
102
RTVSPost2010Prop36
280
     0
102
RTVSPost2010PropOp36
 70
     1
102
RTVSPost2010Prop37
 90
       50
102
RTVSPost2010PropOp37
 70
     1
102
RTVSPost2010Prop38
140
0.0
102
RTVSPost2010PropOp38
 70
     1
102
RTVSPost2010Prop39
140
1.0
102
RTVSPost2010PropOp39
 70
     1
102
RTVSPost2010Prop40
 90
        0
102
RTVSPost2010PropOp40
 70
     1
102
RTVSPost2010Prop41ColorIndex
 90
       18
102
RTVSPost2010Prop41ColorRGB
 90
        0
102
RTVSPost2010PropOp41
 70
     1
102
RTVSPost2010Prop42
 90
       50
102
RTVSPost2010PropOp42
 70
     1
102
RTVSPost2010Prop43
 90
        3
102
RTVSPost2010PropOp43
 70
     1
102
RTVSPost2010Prop44ColorIndex
 90
        5
102
RTVSPost2010Prop44ColorRGB
 90
      255
102
RTVSPost2010PropOp44
 70
     1
102
RTVSPost2010Prop45
280
     0
102
RTVSPost2010PropOp45
 70
     1
102
RTVSPost2010Prop46
 90
       50
102
RTVSPost2010PropOp46
 70
     1
102
RTVSPost2010Prop47
 90
       50
102
RTVSPost2010PropOp47
 70
     1
102
RTVSPost2010Prop48
 90
       50
102
RTVSPost2010PropOp48
 70
     1
102
RTVSPost2010Prop49
280
     0
102
RTVSPost2010PropOp49
 70
     1
102
RTVSPost2010Prop50
 90
       50
102
RTVSPost2010PropOp50
 70
     1
102
RTVSPost2010Prop51ColorIndex
 90
      256
102
RTVSPost2010Prop51ColorRGB
 90
-16777216
102
RTVSPost2010PropOp51
 70
     0
102
RTVSPost2010Prop52
140
1.0
102
RTVSPost2010PropOp52
 70
     0
102
RTVSPost2010Prop53
 90
        2
102
RTVSPost2010PropOp53
 70
     1
102
RTVSPost2010Prop54
  1
strokes_ogs.tif
102
RTVSPost2010PropOp54
 70
     1
102
RTVSPost2010Prop55
280
     0
102
RTVSPost2010PropOp55
 70
     1
102
RTVSPost2010Prop56
140
1.0
102
RTVSPost2010PropOp56
 70
     1
102
RTVSPost2010Prop57
140
1.0
102
RTVSPost2010PropOp57
 70
     1
102
RTVSPropertyOp0
 70
     1
102
RTVSPropertyOp1
 70
     1
102
RTVSPropertyOp2
 70
     1
102
RTVSPropertyOp3
 70
     1
102
RTVSPropertyOp4
 70
     1
102
RTVSPropertyOp5
 70
     1
102
RTVSPropertyOp6
 70
     1
102
RTVSPropertyOp7
 70
     1
102
RTVSPropertyOp8
 70
     1
102
RTVSPropertyOp9
 70
     1
102
RTVSPropertyOp10
 70
     1
102
RTVSPropertyOp11
 70
     1
102
RTVSPropertyOp12
 70
     1
102
RTVSPropertyOp13
 70
     1
102
RTVSPropertyOp14
 70
     1
102
RTVSPropertyOp15
 70
     1
102
RTVSPropertyOp16
 70
     1
102
RTVSPropertyOp17
 70
     1
102
RTVSPropertyOp18
 70
     1
102
RTVSPropertyOp19
 70
     1
102
RTVSPropertyOp20
 70
     1
102
RTVSPropertyOp21
 70
     1
102
RTVSPropertyOp22
 70
     1
102
RTVSPropertyOp23
 70
     1
102
RTVSPropertyOp24
 70
     1
102
RTVSPropertyOp25
 70
     1
102
RTVSPropertyOp26
 70
     1
102
RTVSPropertyOp27
 70
     1
102
RTVSPropertyOp28
 70
     1
102
RTVSPropertyOp29
 70
     1
102
RTVSPropertyOp30
 70
     1
102
RTVSPropertyOp31
 70
     1
102
RTVSPropertyOp32
 70
     1
102
RTVSPropertyOp33
 70
     1
102
RTVSPropertyOp34
 70
     1
102
RTVSPropertyOp35
 70
     1
102
RTVSPropertyOp36
 70
     1
102
RTVSPropertyOp37
 70
     1
102
RTVSPropertyOp38
 70
     1
102
RTVSPropertyOp39
 70
     1
102
RTVSPropertyOp40
 70
     1
102
RTVSPropertyOp41
 70
     1
102
RTVSPropertyOp42
 70
     1
102
RTVSPropertyOp43
 70
     1
102
RTVSPropertyOp44
 70
     1
102
RTVSPropertyOp45
 70
     1
102
RTVSPropertyOp46
 70
     1
102
RTVSPropertyOp47
 70
     1
102
RTVSPropertyOp48
 70
     1
102
RTVSPropertyOp49
 70
     1
102
RTVSPropertyOp50
 70
     1
102
RTVSPropertyOp51
 70
     0
102
RTVSPropertyOp52
 70
     0
102
RTVSPropertyOp53
 70
     1
102
RTVSPropertyOp54
 70
     1
102
RTVSPropertyOp55
 70
     1
102
RTVSPropertyOp56
 70
     1
102
RTVSPropertyOp57
 70
     1
102
RTVSPropertyOp58
 70
     1
102
RTVSPropertyOp59
 70
     1
102
RTVSPropertyOp60
 70
     1
102
RTVSPropertyOp61
 70
     1
102
RTVSPropertyOp62
 70
     1
  0
XRECORD
  5
762
102
{ACAD_REACTORS
330
761
102
}
330
761
100
AcDbXrecord
280
     1
102
RTVSPost2010Prop28
280
     0
102
RTVSPost2010PropOp28
 70
     1
102
RTVSPost2010Prop29
280
     1
102
RTVSPost2010PropOp29
 70
     1
102
RTVSPost2010Prop30
280
     1
102
RTVSPost2010PropOp30
 70
     1
102
RTVSPost2010Prop31
280
     0
102
RTVSPost2010PropOp31
 70
     1
102
RTVSPost2010Prop32
280
     0
102
RTVSPost2010PropOp32
 70
     1
102
RTVSPost2010Prop33
280
     0
102
RTVSPost2010PropOp33
 70
     1
102
RTVSPost2010Prop34
280
     0
102
RTVSPost2010PropOp34
 70
     1
102
RTVSPost2010Prop35
280
     0
102
RTVSPost2010PropOp35
 70
     1
102
RTVSPost2010Prop36
280
     0
102
RTVSPost2010PropOp36
 70
     1
102
RTVSPost2010Prop37
 90
       50
102
RTVSPost2010PropOp37
 70
     1
102
RTVSPost2010Prop38
140
0.0
102
RTVSPost2010PropOp38
 70
     1
102
RTVSPost2010Prop39
140
1.0
102
RTVSPost2010PropOp39
 70
     1
102
RTVSPost2010Prop40
 90
        0
102
RTVSPost2010PropOp40
 70
     1
102
RTVSPost2010Prop41ColorIndex
 90
       18
102
RTVSPost2010Prop41ColorRGB
 90
        0
102
RTVSPost2010PropOp41
 70
     1
102
RTVSPost2010Prop42
 90
       50
102
RTVSPost2010PropOp42
 70
     1
102
RTVSPost2010Prop43
 90
        3
102
RTVSPost2010PropOp43
 70
     1
102
RTVSPost2010Prop44ColorIndex
 90
        5
102
RTVSPost2010Prop44ColorRGB
 90
      255
102
RTVSPost2010PropOp44
 70
     1
102
RTVSPost2010Prop45
280
     0
102
RTVSPost2010PropOp45
 70
     1
102
RTVSPost2010Prop46
 90
       50
102
RTVSPost2010PropOp46
 70
     1
102
RTVSPost2010Prop47
 90
       50
102
RTVSPost2010PropOp47
 70
     1
102
RTVSPost2010Prop48
 90
       50
102
RTVSPost2010PropOp48
 70
     1
102
RTVSPost2010Prop49
280
     0
102
RTVSPost2010PropOp49
 70
     1
102
RTVSPost2010Prop50
 90
       50
102
RTVSPost2010PropOp50
 70
     1
102
RTVSPost2010Prop51ColorIndex
 90
      256
102
RTVSPost2010Prop51ColorRGB
 90
-16777216
102
RTVSPost2010PropOp51
 70
     0
102
RTVSPost2010Prop52
140
1.0
102
RTVSPost2010PropOp52
 70
     0
102
RTVSPost2010Prop53
 90
        2
102
RTVSPost2010PropOp53
 70
     1
102
RTVSPost2010Prop54
  1
strokes_ogs.tif
102
RTVSPost2010PropOp54
 70
     1
102
RTVSPost2010Prop55
280
     0
102
RTVSPost2010PropOp55
 70
     1
102
RTVSPost2010Prop56
140
1.0
102
RTVSPost2010PropOp56
 70
     1
102
RTVSPost2010Prop57
140
1.0
102
RTVSPost2010PropOp57
 70
     1
102
RTVSPropertyOp0
 70
     1
102
RTVSPropertyOp1
 70
     1
102
RTVSPropertyOp2
 70
     1
102
RTVSPropertyOp3
 70
     1
102
RTVSPropertyOp4
 70
     1
102
RTVSPropertyOp5
 70
     1
102
RTVSPropertyOp6
 70
     1
102
RTVSPropertyOp7
 70
     1
102
RTVSPropertyOp8
 70
     1
102
RTVSPropertyOp9
 70
     1
102
RTVSPropertyOp10
 70
     1
102
RTVSPropertyOp11
 70
     1
102
RTVSPropertyOp12
 70
     1
102
RTVSPropertyOp13
 70
     1
102
RTVSPropertyOp14
 70
     1
102
RTVSPropertyOp15
 70
     1
102
RTVSPropertyOp16
 70
     1
102
RTVSPropertyOp17
 70
     1
102
RTVSPropertyOp18
 70
     1
102
RTVSPropertyOp19
 70
     1
102
RTVSPropertyOp20
 70
     1
102
RTVSPropertyOp21
 70
     1
102
RTVSPropertyOp22
 70
     1
102
RTVSPropertyOp23
 70
     1
102
RTVSPropertyOp24
 70
     1
102
RTVSPropertyOp25
 70
     1
102
RTVSPropertyOp26
 70
     1
102
RTVSPropertyOp27
 70
     1
102
RTVSPropertyOp28
 70
     1
102
RTVSPropertyOp29
 70
     1
102
RTVSPropertyOp30
 70
     1
102
RTVSPropertyOp31
 70
     1
102
RTVSPropertyOp32
 70
     1
102
RTVSPropertyOp33
 70
     1
102
RTVSPropertyOp34
 70
     1
102
RTVSPropertyOp35
 70
     1
102
RTVSPropertyOp36
 70
     1
102
RTVSPropertyOp37
 70
     1
102
RTVSPropertyOp38
 70
     1
102
RTVSPropertyOp39
 70
     1
102
RTVSPropertyOp40
 70
     1
102
RTVSPropertyOp41
 70
     1
102
RTVSPropertyOp42
 70
     1
102
RTVSPropertyOp43
 70
     1
102
RTVSPropertyOp44
 70
     1
102
RTVSPropertyOp45
 70
     1
102
RTVSPropertyOp46
 70
     1
102
RTVSPropertyOp47
 70
     1
102
RTVSPropertyOp48
 70
     1
102
RTVSPropertyOp49
 70
     1
102
RTVSPropertyOp50
 70
     1
102
RTVSPropertyOp51
 70
     0
102
RTVSPropertyOp52
 70
     0
102
RTVSPropertyOp53
 70
     1
102
RTVSPropertyOp54
 70
     1
102
RTVSPropertyOp55
 70
     1
102
RTVSPropertyOp56
 70
     1
102
RTVSPropertyOp57
 70
     1
102
RTVSPropertyOp58
 70
     1
102
RTVSPropertyOp59
 70
     1
102
RTVSPropertyOp60
 70
     1
102
RTVSPropertyOp61
 70
     1
102
RTVSPropertyOp62
 70
     1
  0
XRECORD
  5
760
102
{ACAD_REACTORS
330
75F
102
}
330
75F
100
AcDbXrecord
280
     1
102
RTVSPost2010Prop28
280
     0
102
RTVSPost2010PropOp28
 70
     1
102
RTVSPost2010Prop29
280
     1
102
RTVSPost2010PropOp29
 70
     1
102
RTVSPost2010Prop30
280
     1
102
RTVSPost2010PropOp30
 70
     1
102
RTVSPost2010Prop31
280
     0
102
RTVSPost2010PropOp31
 70
     1
102
RTVSPost2010Prop32
280
     0
102
RTVSPost2010PropOp32
 70
     1
102
RTVSPost2010Prop33
280
     0
102
RTVSPost2010PropOp33
 70
     1
102
RTVSPost2010Prop34
280
     0
102
RTVSPost2010PropOp34
 70
     1
102
RTVSPost2010Prop35
280
     0
102
RTVSPost2010PropOp35
 70
     1
102
RTVSPost2010Prop36
280
     0
102
RTVSPost2010PropOp36
 70
     1
102
RTVSPost2010Prop37
 90
       50
102
RTVSPost2010PropOp37
 70
     1
102
RTVSPost2010Prop38
140
0.0
102
RTVSPost2010PropOp38
 70
     1
102
RTVSPost2010Prop39
140
1.0
102
RTVSPost2010PropOp39
 70
     1
102
RTVSPost2010Prop40
 90
        0
102
RTVSPost2010PropOp40
 70
     1
102
RTVSPost2010Prop41ColorIndex
 90
       18
102
RTVSPost2010Prop41ColorRGB
 90
        0
102
RTVSPost2010PropOp41
 70
     1
102
RTVSPost2010Prop42
 90
       50
102
RTVSPost2010PropOp42
 70
     1
102
RTVSPost2010Prop43
 90
        3
102
RTVSPost2010PropOp43
 70
     1
102
RTVSPost2010Prop44ColorIndex
 90
        5
102
RTVSPost2010Prop44ColorRGB
 90
      255
102
RTVSPost2010PropOp44
 70
     1
102
RTVSPost2010Prop45
280
     0
102
RTVSPost2010PropOp45
 70
     1
102
RTVSPost2010Prop46
 90
       50
102
RTVSPost2010PropOp46
 70
     1
102
RTVSPost2010Prop47
 90
       50
102
RTVSPost2010PropOp47
 70
     1
102
RTVSPost2010Prop48
 90
       50
102
RTVSPost2010PropOp48
 70
     1
102
RTVSPost2010Prop49
280
     0
102
RTVSPost2010PropOp49
 70
     1
102
RTVSPost2010Prop50
 90
       50
102
RTVSPost2010PropOp50
 70
     1
102
RTVSPost2010Prop51ColorIndex
 90
      256
102
RTVSPost2010Prop51ColorRGB
 90
-16777216
102
RTVSPost2010PropOp51
 70
     0
102
RTVSPost2010Prop52
140
1.0
102
RTVSPost2010PropOp52
 70
     0
102
RTVSPost2010Prop53
 90
        2
102
RTVSPost2010PropOp53
 70
     1
102
RTVSPost2010Prop54
  1
strokes_ogs.tif
102
RTVSPost2010PropOp54
 70
     1
102
RTVSPost2010Prop55
280
     0
102
RTVSPost2010PropOp55
 70
     1
102
RTVSPost2010Prop56
140
1.0
102
RTVSPost2010PropOp56
 70
     1
102
RTVSPost2010Prop57
140
1.0
102
RTVSPost2010PropOp57
 70
     1
102
RTVSPropertyOp0
 70
     1
102
RTVSPropertyOp1
 70
     1
102
RTVSPropertyOp2
 70
     1
102
RTVSPropertyOp3
 70
     1
102
RTVSPropertyOp4
 70
     1
102
RTVSPropertyOp5
 70
     1
102
RTVSPropertyOp6
 70
     1
102
RTVSPropertyOp7
 70
     1
102
RTVSPropertyOp8
 70
     1
102
RTVSPropertyOp9
 70
     1
102
RTVSPropertyOp10
 70
     1
102
RTVSPropertyOp11
 70
     1
102
RTVSPropertyOp12
 70
     1
102
RTVSPropertyOp13
 70
     1
102
RTVSPropertyOp14
 70
     1
102
RTVSPropertyOp15
 70
     1
102
RTVSPropertyOp16
 70
     1
102
RTVSPropertyOp17
 70
     1
102
RTVSPropertyOp18
 70
     1
102
RTVSPropertyOp19
 70
     1
102
RTVSPropertyOp20
 70
     1
102
RTVSPropertyOp21
 70
     1
102
RTVSPropertyOp22
 70
     1
102
RTVSPropertyOp23
 70
     1
102
RTVSPropertyOp24
 70
     1
102
RTVSPropertyOp25
 70
     1
102
RTVSPropertyOp26
 70
     1
102
RTVSPropertyOp27
 70
     1
102
RTVSPropertyOp28
 70
     1
102
RTVSPropertyOp29
 70
     1
102
RTVSPropertyOp30
 70
     1
102
RTVSPropertyOp31
 70
     1
102
RTVSPropertyOp32
 70
     1
102
RTVSPropertyOp33
 70
     1
102
RTVSPropertyOp34
 70
     1
102
RTVSPropertyOp35
 70
     1
102
RTVSPropertyOp36
 70
     1
102
RTVSPropertyOp37
 70
     1
102
RTVSPropertyOp38
 70
     1
102
RTVSPropertyOp39
 70
     1
102
RTVSPropertyOp40
 70
     1
102
RTVSPropertyOp41
 70
     1
102
RTVSPropertyOp42
 70
     1
102
RTVSPropertyOp43
 70
     1
102
RTVSPropertyOp44
 70
     1
102
RTVSPropertyOp45
 70
     1
102
RTVSPropertyOp46
 70
     1
102
RTVSPropertyOp47
 70
     1
102
RTVSPropertyOp48
 70
     1
102
RTVSPropertyOp49
 70
     1
102
RTVSPropertyOp50
 70
     1
102
RTVSPropertyOp51
 70
     0
102
RTVSPropertyOp52
 70
     0
102
RTVSPropertyOp53
 70
     1
102
RTVSPropertyOp54
 70
     1
102
RTVSPropertyOp55
 70
     1
102
RTVSPropertyOp56
 70
     1
102
RTVSPropertyOp57
 70
     1
102
RTVSPropertyOp58
 70
     1
102
RTVSPropertyOp59
 70
     1
102
RTVSPropertyOp60
 70
     1
102
RTVSPropertyOp61
 70
     1
102
RTVSPropertyOp62
 70
     1
  0
XRECORD
  5
75A
102
{ACAD_REACTORS
330
759
102
}
330
759
100
AcDbXrecord
280
     1
102
RTVSPost2010Prop28
280
     0
102
RTVSPost2010PropOp28
 70
     1
102
RTVSPost2010Prop29
280
     1
102
RTVSPost2010PropOp29
 70
     1
102
RTVSPost2010Prop30
280
     1
102
RTVSPost2010PropOp30
 70
     1
102
RTVSPost2010Prop31
280
     0
102
RTVSPost2010PropOp31
 70
     1
102
RTVSPost2010Prop32
280
     0
102
RTVSPost2010PropOp32
 70
     1
102
RTVSPost2010Prop33
280
     0
102
RTVSPost2010PropOp33
 70
     1
102
RTVSPost2010Prop34
280
     0
102
RTVSPost2010PropOp34
 70
     1
102
RTVSPost2010Prop35
280
     0
102
RTVSPost2010PropOp35
 70
     1
102
RTVSPost2010Prop36
280
     0
102
RTVSPost2010PropOp36
 70
     1
102
RTVSPost2010Prop37
 90
       50
102
RTVSPost2010PropOp37
 70
     1
102
RTVSPost2010Prop38
140
0.0
102
RTVSPost2010PropOp38
 70
     1
102
RTVSPost2010Prop39
140
1.0
102
RTVSPost2010PropOp39
 70
     1
102
RTVSPost2010Prop40
 90
        0
102
RTVSPost2010PropOp40
 70
     1
102
RTVSPost2010Prop41ColorIndex
 90
       18
102
RTVSPost2010Prop41ColorRGB
 90
        0
102
RTVSPost2010PropOp41
 70
     1
102
RTVSPost2010Prop42
 90
       50
102
RTVSPost2010PropOp42
 70
     1
102
RTVSPost2010Prop43
 90
        3
102
RTVSPost2010PropOp43
 70
     1
102
RTVSPost2010Prop44ColorIndex
 90
        5
102
RTVSPost2010Prop44ColorRGB
 90
      255
102
RTVSPost2010PropOp44
 70
     1
102
RTVSPost2010Prop45
280
     0
102
RTVSPost2010PropOp45
 70
     1
102
RTVSPost2010Prop46
 90
       50
102
RTVSPost2010PropOp46
 70
     1
102
RTVSPost2010Prop47
 90
       50
102
RTVSPost2010PropOp47
 70
     1
102
RTVSPost2010Prop48
 90
       50
102
RTVSPost2010PropOp48
 70
     1
102
RTVSPost2010Prop49
280
     0
102
RTVSPost2010PropOp49
 70
     1
102
RTVSPost2010Prop50
 90
       50
102
RTVSPost2010PropOp50
 70
     1
102
RTVSPost2010Prop51ColorIndex
 90
      256
102
RTVSPost2010Prop51ColorRGB
 90
-16777216
102
RTVSPost2010PropOp51
 70
     0
102
RTVSPost2010Prop52
140
1.0
102
RTVSPost2010PropOp52
 70
     0
102
RTVSPost2010Prop53
 90
        2
102
RTVSPost2010PropOp53
 70
     1
102
RTVSPost2010Prop54
  1
strokes_ogs.tif
102
RTVSPost2010PropOp54
 70
     1
102
RTVSPost2010Prop55
280
     0
102
RTVSPost2010PropOp55
 70
     1
102
RTVSPost2010Prop56
140
1.0
102
RTVSPost2010PropOp56
 70
     1
102
RTVSPost2010Prop57
140
1.0
102
RTVSPost2010PropOp57
 70
     1
102
RTVSPropertyOp0
 70
     1
102
RTVSPropertyOp1
 70
     1
102
RTVSPropertyOp2
 70
     1
102
RTVSPropertyOp3
 70
     1
102
RTVSPropertyOp4
 70
     1
102
RTVSPropertyOp5
 70
     1
102
RTVSPropertyOp6
 70
     1
102
RTVSPropertyOp7
 70
     1
102
RTVSPropertyOp8
 70
     1
102
RTVSPropertyOp9
 70
     1
102
RTVSPropertyOp10
 70
     1
102
RTVSPropertyOp11
 70
     1
102
RTVSPropertyOp12
 70
     1
102
RTVSPropertyOp13
 70
     1
102
RTVSPropertyOp14
 70
     1
102
RTVSPropertyOp15
 70
     1
102
RTVSPropertyOp16
 70
     1
102
RTVSPropertyOp17
 70
     1
102
RTVSPropertyOp18
 70
     1
102
RTVSPropertyOp19
 70
     1
102
RTVSPropertyOp20
 70
     1
102
RTVSPropertyOp21
 70
     1
102
RTVSPropertyOp22
 70
     1
102
RTVSPropertyOp23
 70
     1
102
RTVSPropertyOp24
 70
     1
102
RTVSPropertyOp25
 70
     1
102
RTVSPropertyOp26
 70
     1
102
RTVSPropertyOp27
 70
     1
102
RTVSPropertyOp28
 70
     1
102
RTVSPropertyOp29
 70
     1
102
RTVSPropertyOp30
 70
     1
102
RTVSPropertyOp31
 70
     1
102
RTVSPropertyOp32
 70
     1
102
RTVSPropertyOp33
 70
     1
102
RTVSPropertyOp34
 70
     1
102
RTVSPropertyOp35
 70
     1
102
RTVSPropertyOp36
 70
     1
102
RTVSPropertyOp37
 70
     1
102
RTVSPropertyOp38
 70
     1
102
RTVSPropertyOp39
 70
     1
102
RTVSPropertyOp40
 70
     1
102
RTVSPropertyOp41
 70
     1
102
RTVSPropertyOp42
 70
     1
102
RTVSPropertyOp43
 70
     1
102
RTVSPropertyOp44
 70
     1
102
RTVSPropertyOp45
 70
     1
102
RTVSPropertyOp46
 70
     1
102
RTVSPropertyOp47
 70
     1
102
RTVSPropertyOp48
 70
     1
102
RTVSPropertyOp49
 70
     1
102
RTVSPropertyOp50
 70
     1
102
RTVSPropertyOp51
 70
     0
102
RTVSPropertyOp52
 70
     0
102
RTVSPropertyOp53
 70
     1
102
RTVSPropertyOp54
 70
     1
102
RTVSPropertyOp55
 70
     1
102
RTVSPropertyOp56
 70
     1
102
RTVSPropertyOp57
 70
     1
102
RTVSPropertyOp58
 70
     1
102
RTVSPropertyOp59
 70
     1
102
RTVSPropertyOp60
 70
     1
102
RTVSPropertyOp61
 70
     1
102
RTVSPropertyOp62
 70
     1
  0
XRECORD
  5
75C
102
{ACAD_REACTORS
330
75B
102
}
330
75B
100
AcDbXrecord
280
     1
102
RTVSPost2010Prop28
280
     0
102
RTVSPost2010PropOp28
 70
     1
102
RTVSPost2010Prop29
280
     1
102
RTVSPost2010PropOp29
 70
     1
102
RTVSPost2010Prop30
280
     1
102
RTVSPost2010PropOp30
 70
     1
102
RTVSPost2010Prop31
280
     0
102
RTVSPost2010PropOp31
 70
     1
102
RTVSPost2010Prop32
280
     0
102
RTVSPost2010PropOp32
 70
     1
102
RTVSPost2010Prop33
280
     0
102
RTVSPost2010PropOp33
 70
     1
102
RTVSPost2010Prop34
280
     0
102
RTVSPost2010PropOp34
 70
     1
102
RTVSPost2010Prop35
280
     0
102
RTVSPost2010PropOp35
 70
     1
102
RTVSPost2010Prop36
280
     0
102
RTVSPost2010PropOp36
 70
     1
102
RTVSPost2010Prop37
 90
       50
102
RTVSPost2010PropOp37
 70
     1
102
RTVSPost2010Prop38
140
0.0
102
RTVSPost2010PropOp38
 70
     1
102
RTVSPost2010Prop39
140
1.0
102
RTVSPost2010PropOp39
 70
     1
102
RTVSPost2010Prop40
 90
        0
102
RTVSPost2010PropOp40
 70
     1
102
RTVSPost2010Prop41ColorIndex
 90
       18
102
RTVSPost2010Prop41ColorRGB
 90
        0
102
RTVSPost2010PropOp41
 70
     1
102
RTVSPost2010Prop42
 90
       50
102
RTVSPost2010PropOp42
 70
     1
102
RTVSPost2010Prop43
 90
        3
102
RTVSPost2010PropOp43
 70
     1
102
RTVSPost2010Prop44ColorIndex
 90
        5
102
RTVSPost2010Prop44ColorRGB
 90
      255
102
RTVSPost2010PropOp44
 70
     1
102
RTVSPost2010Prop45
280
     0
102
RTVSPost2010PropOp45
 70
     1
102
RTVSPost2010Prop46
 90
       50
102
RTVSPost2010PropOp46
 70
     1
102
RTVSPost2010Prop47
 90
       50
102
RTVSPost2010PropOp47
 70
     1
102
RTVSPost2010Prop48
 90
       50
102
RTVSPost2010PropOp48
 70
     1
102
RTVSPost2010Prop49
280
     0
102
RTVSPost2010PropOp49
 70
     1
102
RTVSPost2010Prop50
 90
       50
102
RTVSPost2010PropOp50
 70
     1
102
RTVSPost2010Prop51ColorIndex
 90
      256
102
RTVSPost2010Prop51ColorRGB
 90
-16777216
102
RTVSPost2010PropOp51
 70
     0
102
RTVSPost2010Prop52
140
1.0
102
RTVSPost2010PropOp52
 70
     0
102
RTVSPost2010Prop53
 90
        2
102
RTVSPost2010PropOp53
 70
     1
102
RTVSPost2010Prop54
  1
strokes_ogs.tif
102
RTVSPost2010PropOp54
 70
     1
102
RTVSPost2010Prop55
280
     0
102
RTVSPost2010PropOp55
 70
     1
102
RTVSPost2010Prop56
140
1.0
102
RTVSPost2010PropOp56
 70
     1
102
RTVSPost2010Prop57
140
1.0
102
RTVSPost2010PropOp57
 70
     1
102
RTVSPropertyOp0
 70
     1
102
RTVSPropertyOp1
 70
     1
102
RTVSPropertyOp2
 70
     1
102
RTVSPropertyOp3
 70
     1
102
RTVSPropertyOp4
 70
     1
102
RTVSPropertyOp5
 70
     1
102
RTVSPropertyOp6
 70
     1
102
RTVSPropertyOp7
 70
     1
102
RTVSPropertyOp8
 70
     1
102
RTVSPropertyOp9
 70
     1
102
RTVSPropertyOp10
 70
     1
102
RTVSPropertyOp11
 70
     1
102
RTVSPropertyOp12
 70
     1
102
RTVSPropertyOp13
 70
     1
102
RTVSPropertyOp14
 70
     1
102
RTVSPropertyOp15
 70
     1
102
RTVSPropertyOp16
 70
     1
102
RTVSPropertyOp17
 70
     1
102
RTVSPropertyOp18
 70
     1
102
RTVSPropertyOp19
 70
     1
102
RTVSPropertyOp20
 70
     1
102
RTVSPropertyOp21
 70
     1
102
RTVSPropertyOp22
 70
     1
102
RTVSPropertyOp23
 70
     1
102
RTVSPropertyOp24
 70
     1
102
RTVSPropertyOp25
 70
     1
102
RTVSPropertyOp26
 70
     1
102
RTVSPropertyOp27
 70
     1
102
RTVSPropertyOp28
 70
     1
102
RTVSPropertyOp29
 70
     1
102
RTVSPropertyOp30
 70
     1
102
RTVSPropertyOp31
 70
     1
102
RTVSPropertyOp32
 70
     1
102
RTVSPropertyOp33
 70
     1
102
RTVSPropertyOp34
 70
     1
102
RTVSPropertyOp35
 70
     1
102
RTVSPropertyOp36
 70
     1
102
RTVSPropertyOp37
 70
     1
102
RTVSPropertyOp38
 70
     1
102
RTVSPropertyOp39
 70
     1
102
RTVSPropertyOp40
 70
     1
102
RTVSPropertyOp41
 70
     1
102
RTVSPropertyOp42
 70
     1
102
RTVSPropertyOp43
 70
     1
102
RTVSPropertyOp44
 70
     1
102
RTVSPropertyOp45
 70
     1
102
RTVSPropertyOp46
 70
     1
102
RTVSPropertyOp47
 70
     1
102
RTVSPropertyOp48
 70
     1
102
RTVSPropertyOp49
 70
     1
102
RTVSPropertyOp50
 70
     1
102
RTVSPropertyOp51
 70
     0
102
RTVSPropertyOp52
 70
     0
102
RTVSPropertyOp53
 70
     1
102
RTVSPropertyOp54
 70
     1
102
RTVSPropertyOp55
 70
     1
102
RTVSPropertyOp56
 70
     1
102
RTVSPropertyOp57
 70
     1
102
RTVSPropertyOp58
 70
     1
102
RTVSPropertyOp59
 70
     1
102
RTVSPropertyOp60
 70
     1
102
RTVSPropertyOp61
 70
     1
102
RTVSPropertyOp62
 70
     1
  0
XRECORD
  5
74C
102
{ACAD_REACTORS
330
74B
102
}
330
74B
100
AcDbXrecord
280
     1
102
RTVSPost2010Prop28
280
     0
102
RTVSPost2010PropOp28
 70
     1
102
RTVSPost2010Prop29
280
     1
102
RTVSPost2010PropOp29
 70
     1
102
RTVSPost2010Prop30
280
     1
102
RTVSPost2010PropOp30
 70
     1
102
RTVSPost2010Prop31
280
     0
102
RTVSPost2010PropOp31
 70
     1
102
RTVSPost2010Prop32
280
     0
102
RTVSPost2010PropOp32
 70
     1
102
RTVSPost2010Prop33
280
     0
102
RTVSPost2010PropOp33
 70
     1
102
RTVSPost2010Prop34
280
     0
102
RTVSPost2010PropOp34
 70
     1
102
RTVSPost2010Prop35
280
     0
102
RTVSPost2010PropOp35
 70
     1
102
RTVSPost2010Prop36
280
     0
102
RTVSPost2010PropOp36
 70
     1
102
RTVSPost2010Prop37
 90
       50
102
RTVSPost2010PropOp37
 70
     1
102
RTVSPost2010Prop38
140
0.0
102
RTVSPost2010PropOp38
 70
     1
102
RTVSPost2010Prop39
140
1.0
102
RTVSPost2010PropOp39
 70
     1
102
RTVSPost2010Prop40
 90
        0
102
RTVSPost2010PropOp40
 70
     1
102
RTVSPost2010Prop41ColorIndex
 90
       18
102
RTVSPost2010Prop41ColorRGB
 90
        0
102
RTVSPost2010PropOp41
 70
     1
102
RTVSPost2010Prop42
 90
       50
102
RTVSPost2010PropOp42
 70
     1
102
RTVSPost2010Prop43
 90
        3
102
RTVSPost2010PropOp43
 70
     1
102
RTVSPost2010Prop44ColorIndex
 90
        5
102
RTVSPost2010Prop44ColorRGB
 90
      255
102
RTVSPost2010PropOp44
 70
     1
102
RTVSPost2010Prop45
280
     0
102
RTVSPost2010PropOp45
 70
     1
102
RTVSPost2010Prop46
 90
       50
102
RTVSPost2010PropOp46
 70
     1
102
RTVSPost2010Prop47
 90
       50
102
RTVSPost2010PropOp47
 70
     1
102
RTVSPost2010Prop48
 90
       50
102
RTVSPost2010PropOp48
 70
     1
102
RTVSPost2010Prop49
280
     0
102
RTVSPost2010PropOp49
 70
     1
102
RTVSPost2010Prop50
 90
       50
102
RTVSPost2010PropOp50
 70
     1
102
RTVSPost2010Prop51ColorIndex
 90
      256
102
RTVSPost2010Prop51ColorRGB
 90
-16777216
102
RTVSPost2010PropOp51
 70
     0
102
RTVSPost2010Prop52
140
1.0
102
RTVSPost2010PropOp52
 70
     0
102
RTVSPost2010Prop53
 90
        2
102
RTVSPost2010PropOp53
 70
     1
102
RTVSPost2010Prop54
  1
strokes_ogs.tif
102
RTVSPost2010PropOp54
 70
     1
102
RTVSPost2010Prop55
280
     0
102
RTVSPost2010PropOp55
 70
     1
102
RTVSPost2010Prop56
140
1.0
102
RTVSPost2010PropOp56
 70
     1
102
RTVSPost2010Prop57
140
1.0
102
RTVSPost2010PropOp57
 70
     1
102
RTVSPropertyOp0
 70
     1
102
RTVSPropertyOp1
 70
     1
102
RTVSPropertyOp2
 70
     1
102
RTVSPropertyOp3
 70
     1
102
RTVSPropertyOp4
 70
     1
102
RTVSPropertyOp5
 70
     1
102
RTVSPropertyOp6
 70
     1
102
RTVSPropertyOp7
 70
     1
102
RTVSPropertyOp8
 70
     1
102
RTVSPropertyOp9
 70
     1
102
RTVSPropertyOp10
 70
     1
102
RTVSPropertyOp11
 70
     1
102
RTVSPropertyOp12
 70
     1
102
RTVSPropertyOp13
 70
     1
102
RTVSPropertyOp14
 70
     1
102
RTVSPropertyOp15
 70
     1
102
RTVSPropertyOp16
 70
     1
102
RTVSPropertyOp17
 70
     1
102
RTVSPropertyOp18
 70
     1
102
RTVSPropertyOp19
 70
     1
102
RTVSPropertyOp20
 70
     1
102
RTVSPropertyOp21
 70
     1
102
RTVSPropertyOp22
 70
     1
102
RTVSPropertyOp23
 70
     1
102
RTVSPropertyOp24
 70
     1
102
RTVSPropertyOp25
 70
     1
102
RTVSPropertyOp26
 70
     1
102
RTVSPropertyOp27
 70
     1
102
RTVSPropertyOp28
 70
     1
102
RTVSPropertyOp29
 70
     1
102
RTVSPropertyOp30
 70
     1
102
RTVSPropertyOp31
 70
     1
102
RTVSPropertyOp32
 70
     1
102
RTVSPropertyOp33
 70
     1
102
RTVSPropertyOp34
 70
     1
102
RTVSPropertyOp35
 70
     1
102
RTVSPropertyOp36
 70
     1
102
RTVSPropertyOp37
 70
     1
102
RTVSPropertyOp38
 70
     1
102
RTVSPropertyOp39
 70
     1
102
RTVSPropertyOp40
 70
     1
102
RTVSPropertyOp41
 70
     1
102
RTVSPropertyOp42
 70
     1
102
RTVSPropertyOp43
 70
     1
102
RTVSPropertyOp44
 70
     1
102
RTVSPropertyOp45
 70
     1
102
RTVSPropertyOp46
 70
     1
102
RTVSPropertyOp47
 70
     1
102
RTVSPropertyOp48
 70
     1
102
RTVSPropertyOp49
 70
     1
102
RTVSPropertyOp50
 70
     1
102
RTVSPropertyOp51
 70
     0
102
RTVSPropertyOp52
 70
     0
102
RTVSPropertyOp53
 70
     1
102
RTVSPropertyOp54
 70
     1
102
RTVSPropertyOp55
 70
     1
102
RTVSPropertyOp56
 70
     1
102
RTVSPropertyOp57
 70
     1
102
RTVSPropertyOp58
 70
     1
102
RTVSPropertyOp59
 70
     1
102
RTVSPropertyOp60
 70
     1
102
RTVSPropertyOp61
 70
     1
102
RTVSPropertyOp62
 70
     1
  0
XRECORD
  5
73E
102
{ACAD_REACTORS
330
73D
102
}
330
73D
100
AcDbXrecord
280
     1
102
RTVSPost2010Prop28
280
     0
102
RTVSPost2010PropOp28
 70
     1
102
RTVSPost2010Prop29
280
     1
102
RTVSPost2010PropOp29
 70
     1
102
RTVSPost2010Prop30
280
     1
102
RTVSPost2010PropOp30
 70
     1
102
RTVSPost2010Prop31
280
     0
102
RTVSPost2010PropOp31
 70
     1
102
RTVSPost2010Prop32
280
     0
102
RTVSPost2010PropOp32
 70
     1
102
RTVSPost2010Prop33
280
     0
102
RTVSPost2010PropOp33
 70
     1
102
RTVSPost2010Prop34
280
     0
102
RTVSPost2010PropOp34
 70
     1
102
RTVSPost2010Prop35
280
     0
102
RTVSPost2010PropOp35
 70
     1
102
RTVSPost2010Prop36
280
     0
102
RTVSPost2010PropOp36
 70
     1
102
RTVSPost2010Prop37
 90
       50
102
RTVSPost2010PropOp37
 70
     1
102
RTVSPost2010Prop38
140
0.0
102
RTVSPost2010PropOp38
 70
     1
102
RTVSPost2010Prop39
140
1.0
102
RTVSPost2010PropOp39
 70
     1
102
RTVSPost2010Prop40
 90
        0
102
RTVSPost2010PropOp40
 70
     1
102
RTVSPost2010Prop41ColorIndex
 90
       18
102
RTVSPost2010Prop41ColorRGB
 90
        0
102
RTVSPost2010PropOp41
 70
     1
102
RTVSPost2010Prop42
 90
       50
102
RTVSPost2010PropOp42
 70
     1
102
RTVSPost2010Prop43
 90
        3
102
RTVSPost2010PropOp43
 70
     1
102
RTVSPost2010Prop44ColorIndex
 90
        5
102
RTVSPost2010Prop44ColorRGB
 90
      255
102
RTVSPost2010PropOp44
 70
     1
102
RTVSPost2010Prop45
280
     0
102
RTVSPost2010PropOp45
 70
     1
102
RTVSPost2010Prop46
 90
       50
102
RTVSPost2010PropOp46
 70
     1
102
RTVSPost2010Prop47
 90
       50
102
RTVSPost2010PropOp47
 70
     1
102
RTVSPost2010Prop48
 90
       50
102
RTVSPost2010PropOp48
 70
     1
102
RTVSPost2010Prop49
280
     0
102
RTVSPost2010PropOp49
 70
     1
102
RTVSPost2010Prop50
 90
       50
102
RTVSPost2010PropOp50
 70
     1
102
RTVSPost2010Prop51ColorIndex
 90
      256
102
RTVSPost2010Prop51ColorRGB
 90
-16777216
102
RTVSPost2010PropOp51
 70
     0
102
RTVSPost2010Prop52
140
1.0
102
RTVSPost2010PropOp52
 70
     0
102
RTVSPost2010Prop53
 90
        2
102
RTVSPost2010PropOp53
 70
     1
102
RTVSPost2010Prop54
  1
strokes_ogs.tif
102
RTVSPost2010PropOp54
 70
     1
102
RTVSPost2010Prop55
280
     0
102
RTVSPost2010PropOp55
 70
     1
102
RTVSPost2010Prop56
140
1.0
102
RTVSPost2010PropOp56
 70
     1
102
RTVSPost2010Prop57
140
1.0
102
RTVSPost2010PropOp57
 70
     1
102
RTVSPropertyOp0
 70
     1
102
RTVSPropertyOp1
 70
     1
102
RTVSPropertyOp2
 70
     1
102
RTVSPropertyOp3
 70
     1
102
RTVSPropertyOp4
 70
     1
102
RTVSPropertyOp5
 70
     1
102
RTVSPropertyOp6
 70
     1
102
RTVSPropertyOp7
 70
     1
102
RTVSPropertyOp8
 70
     1
102
RTVSPropertyOp9
 70
     1
102
RTVSPropertyOp10
 70
     1
102
RTVSPropertyOp11
 70
     1
102
RTVSPropertyOp12
 70
     1
102
RTVSPropertyOp13
 70
     1
102
RTVSPropertyOp14
 70
     1
102
RTVSPropertyOp15
 70
     1
102
RTVSPropertyOp16
 70
     1
102
RTVSPropertyOp17
 70
     1
102
RTVSPropertyOp18
 70
     1
102
RTVSPropertyOp19
 70
     1
102
RTVSPropertyOp20
 70
     1
102
RTVSPropertyOp21
 70
     1
102
RTVSPropertyOp22
 70
     1
102
RTVSPropertyOp23
 70
     1
102
RTVSPropertyOp24
 70
     1
102
RTVSPropertyOp25
 70
     1
102
RTVSPropertyOp26
 70
     1
102
RTVSPropertyOp27
 70
     1
102
RTVSPropertyOp28
 70
     1
102
RTVSPropertyOp29
 70
     1
102
RTVSPropertyOp30
 70
     1
102
RTVSPropertyOp31
 70
     1
102
RTVSPropertyOp32
 70
     1
102
RTVSPropertyOp33
 70
     1
102
RTVSPropertyOp34
 70
     1
102
RTVSPropertyOp35
 70
     1
102
RTVSPropertyOp36
 70
     1
102
RTVSPropertyOp37
 70
     1
102
RTVSPropertyOp38
 70
     1
102
RTVSPropertyOp39
 70
     1
102
RTVSPropertyOp40
 70
     1
102
RTVSPropertyOp41
 70
     1
102
RTVSPropertyOp42
 70
     1
102
RTVSPropertyOp43
 70
     1
102
RTVSPropertyOp44
 70
     1
102
RTVSPropertyOp45
 70
     1
102
RTVSPropertyOp46
 70
     1
102
RTVSPropertyOp47
 70
     1
102
RTVSPropertyOp48
 70
     1
102
RTVSPropertyOp49
 70
     1
102
RTVSPropertyOp50
 70
     1
102
RTVSPropertyOp51
 70
     0
102
RTVSPropertyOp52
 70
     0
102
RTVSPropertyOp53
 70
     1
102
RTVSPropertyOp54
 70
     1
102
RTVSPropertyOp55
 70
     1
102
RTVSPropertyOp56
 70
     1
102
RTVSPropertyOp57
 70
     1
102
RTVSPropertyOp58
 70
     1
102
RTVSPropertyOp59
 70
     1
102
RTVSPropertyOp60
 70
     1
102
RTVSPropertyOp61
 70
     1
102
RTVSPropertyOp62
 70
     1
  0
XRECORD
  5
75E
102
{ACAD_REACTORS
330
75D
102
}
330
75D
100
AcDbXrecord
280
     1
102
RTVSPost2010Prop28
280
     0
102
RTVSPost2010PropOp28
 70
     1
102
RTVSPost2010Prop29
280
     1
102
RTVSPost2010PropOp29
 70
     1
102
RTVSPost2010Prop30
280
     1
102
RTVSPost2010PropOp30
 70
     1
102
RTVSPost2010Prop31
280
     0
102
RTVSPost2010PropOp31
 70
     1
102
RTVSPost2010Prop32
280
     0
102
RTVSPost2010PropOp32
 70
     1
102
RTVSPost2010Prop33
280
     0
102
RTVSPost2010PropOp33
 70
     1
102
RTVSPost2010Prop34
280
     0
102
RTVSPost2010PropOp34
 70
     1
102
RTVSPost2010Prop35
280
     0
102
RTVSPost2010PropOp35
 70
     1
102
RTVSPost2010Prop36
280
     0
102
RTVSPost2010PropOp36
 70
     1
102
RTVSPost2010Prop37
 90
       50
102
RTVSPost2010PropOp37
 70
     1
102
RTVSPost2010Prop38
140
0.0
102
RTVSPost2010PropOp38
 70
     1
102
RTVSPost2010Prop39
140
1.0
102
RTVSPost2010PropOp39
 70
     1
102
RTVSPost2010Prop40
 90
        0
102
RTVSPost2010PropOp40
 70
     1
102
RTVSPost2010Prop41ColorIndex
 90
       18
102
RTVSPost2010Prop41ColorRGB
 90
        0
102
RTVSPost2010PropOp41
 70
     1
102
RTVSPost2010Prop42
 90
       50
102
RTVSPost2010PropOp42
 70
     1
102
RTVSPost2010Prop43
 90
        3
102
RTVSPost2010PropOp43
 70
     1
102
RTVSPost2010Prop44ColorIndex
 90
        5
102
RTVSPost2010Prop44ColorRGB
 90
      255
102
RTVSPost2010PropOp44
 70
     1
102
RTVSPost2010Prop45
280
     0
102
RTVSPost2010PropOp45
 70
     1
102
RTVSPost2010Prop46
 90
       50
102
RTVSPost2010PropOp46
 70
     1
102
RTVSPost2010Prop47
 90
       50
102
RTVSPost2010PropOp47
 70
     1
102
RTVSPost2010Prop48
 90
       50
102
RTVSPost2010PropOp48
 70
     1
102
RTVSPost2010Prop49
280
     0
102
RTVSPost2010PropOp49
 70
     1
102
RTVSPost2010Prop50
 90
       50
102
RTVSPost2010PropOp50
 70
     1
102
RTVSPost2010Prop51ColorIndex
 90
      256
102
RTVSPost2010Prop51ColorRGB
 90
-16777216
102
RTVSPost2010PropOp51
 70
     0
102
RTVSPost2010Prop52
140
1.0
102
RTVSPost2010PropOp52
 70
     0
102
RTVSPost2010Prop53
 90
        2
102
RTVSPost2010PropOp53
 70
     1
102
RTVSPost2010Prop54
  1
strokes_ogs.tif
102
RTVSPost2010PropOp54
 70
     1
102
RTVSPost2010Prop55
280
     0
102
RTVSPost2010PropOp55
 70
     1
102
RTVSPost2010Prop56
140
1.0
102
RTVSPost2010PropOp56
 70
     1
102
RTVSPost2010Prop57
140
1.0
102
RTVSPost2010PropOp57
 70
     1
102
RTVSPropertyOp0
 70
     1
102
RTVSPropertyOp1
 70
     1
102
RTVSPropertyOp2
 70
     1
102
RTVSPropertyOp3
 70
     1
102
RTVSPropertyOp4
 70
     1
102
RTVSPropertyOp5
 70
     1
102
RTVSPropertyOp6
 70
     1
102
RTVSPropertyOp7
 70
     1
102
RTVSPropertyOp8
 70
     1
102
RTVSPropertyOp9
 70
     1
102
RTVSPropertyOp10
 70
     1
102
RTVSPropertyOp11
 70
     1
102
RTVSPropertyOp12
 70
     1
102
RTVSPropertyOp13
 70
     1
102
RTVSPropertyOp14
 70
     1
102
RTVSPropertyOp15
 70
     1
102
RTVSPropertyOp16
 70
     1
102
RTVSPropertyOp17
 70
     1
102
RTVSPropertyOp18
 70
     1
102
RTVSPropertyOp19
 70
     1
102
RTVSPropertyOp20
 70
     1
102
RTVSPropertyOp21
 70
     1
102
RTVSPropertyOp22
 70
     1
102
RTVSPropertyOp23
 70
     1
102
RTVSPropertyOp24
 70
     1
102
RTVSPropertyOp25
 70
     1
102
RTVSPropertyOp26
 70
     1
102
RTVSPropertyOp27
 70
     1
102
RTVSPropertyOp28
 70
     1
102
RTVSPropertyOp29
 70
     1
102
RTVSPropertyOp30
 70
     1
102
RTVSPropertyOp31
 70
     1
102
RTVSPropertyOp32
 70
     1
102
RTVSPropertyOp33
 70
     1
102
RTVSPropertyOp34
 70
     1
102
RTVSPropertyOp35
 70
     1
102
RTVSPropertyOp36
 70
     1
102
RTVSPropertyOp37
 70
     1
102
RTVSPropertyOp38
 70
     1
102
RTVSPropertyOp39
 70
     1
102
RTVSPropertyOp40
 70
     1
102
RTVSPropertyOp41
 70
     1
102
RTVSPropertyOp42
 70
     1
102
RTVSPropertyOp43
 70
     1
102
RTVSPropertyOp44
 70
     1
102
RTVSPropertyOp45
 70
     1
102
RTVSPropertyOp46
 70
     1
102
RTVSPropertyOp47
 70
     1
102
RTVSPropertyOp48
 70
     1
102
RTVSPropertyOp49
 70
     1
102
RTVSPropertyOp50
 70
     1
102
RTVSPropertyOp51
 70
     0
102
RTVSPropertyOp52
 70
     0
102
RTVSPropertyOp53
 70
     1
102
RTVSPropertyOp54
 70
     1
102
RTVSPropertyOp55
 70
     1
102
RTVSPropertyOp56
 70
     1
102
RTVSPropertyOp57
 70
     1
102
RTVSPropertyOp58
 70
     1
102
RTVSPropertyOp59
 70
     1
102
RTVSPropertyOp60
 70
     1
102
RTVSPropertyOp61
 70
     1
102
RTVSPropertyOp62
 70
     1
  0
ENDSEC
  0
EOF
