  0
SECTION
  2
HEADER
  9
$ACADVER
  1
AC1015
  9
$ACADMAINTVER
 70
    20
  9
$DWGCODEPAGE
  3
ANSI_932
  9
$INSBASE
 10
0.0
 20
0.0
 30
0.0
  9
$EXTMIN
 10
14.91427084175967
 20
21.59207928848139
 30
0.0
  9
$EXTMAX
 10
1221.290918545825
 20
1041.944221976373
 30
0.0
  9
$LIMMIN
 10
-312.8004220617825
 20
-388.1447671545559
  9
$LIMMAX
 10
787.1030731201171
 20
544.5818704260403
  9
$ORTHOMODE
 70
     0
  9
$REGENMODE
 70
     1
  9
$FILLMODE
 70
     1
  9
$QTEXTMODE
 70
     0
  9
$MIRRTEXT
 70
     1
  9
$LTSCALE
 40
0.077510959895577
  9
$ATTMODE
 70
     1
  9
$TEXTSIZE
 40
2.5
  9
$TRACEWID
 40
1.0
  9
$TEXTSTYLE
  7
Standard
  9
$CLAYER
  8
0
  9
$CELTYPE
  6
ByLayer
  9
$CECOLOR
 62
   256
  9
$CELTSCALE
 40
1.0
  9
$DISPSILH
 70
     0
  9
$DIMSCALE
 40
1.0
  9
$DIMASZ
 40
2.5
  9
$DIMEXO
 40
0.625
  9
$DIMDLI
 40
3.75
  9
$DIMRND
 40
0.0
  9
$DIMDLE
 40
0.0
  9
$DIMEXE
 40
1.25
  9
$DIMTP
 40
0.0
  9
$DIMTM
 40
0.0
  9
$DIMTXT
 40
2.5
  9
$DIMCEN
 40
2.5
  9
$DIMTSZ
 40
0.0
  9
$DIMTOL
 70
     0
  9
$DIMLIM
 70
     0
  9
$DIMTIH
 70
     0
  9
$DIMTOH
 70
     0
  9
$DIMSE1
 70
     0
  9
$DIMSE2
 70
     0
  9
$DIMTAD
 70
     1
  9
$DIMZIN
 70
     0
  9
$DIMBLK
  1

  9
$DIMASO
 70
     1
  9
$DIMSHO
 70
     1
  9
$DIMPOST
  1

  9
$DIMAPOST
  1

  9
$DIMALT
 70
     0
  9
$DIMALTD
 70
     3
  9
$DIMALTF
 40
0.03937007874016
  9
$DIMLFAC
 40
1.0
  9
$DIMTOFL
 70
     1
  9
$DIMTVP
 40
0.0
  9
$DIMTIX
 70
     0
  9
$DIMSOXD
 70
     0
  9
$DIMSAH
 70
     0
  9
$DIMBLK1
  1

  9
$DIMBLK2
  1

  9
$DIMSTYLE
  2
Standard
  9
$DIMCLRD
 70
     0
  9
$DIMCLRE
 70
     0
  9
$DIMCLRT
 70
     0
  9
$DIMTFAC
 40
0.75
  9
$DIMGAP
 40
0.625
  9
$DIMJUST
 70
     0
  9
$DIMSD1
 70
     0
  9
$DIMSD2
 70
     0
  9
$DIMTOLJ
 70
     0
  9
$DIMTZIN
 70
     8
  9
$DIMALTZ
 70
     0
  9
$DIMALTTZ
 70
     0
  9
$DIMUPT
 70
     0
  9
$DIMDEC
 70
     2
  9
$DIMTDEC
 70
     2
  9
$DIMALTU
 70
     2
  9
$DIMALTTD
 70
     3
  9
$DIMTXSTY
  7
Standard
  9
$DIMAUNIT
 70
     0
  9
$DIMADEC
 70
     0
  9
$DIMALTRND
 40
0.0
  9
$DIMAZIN
 70
     0
  9
$DIMDSEP
 70
    46
  9
$DIMATFIT
 70
     3
  9
$DIMFRAC
 70
     0
  9
$DIMLDRBLK
  1

  9
$DIMLUNIT
 70
     2
  9
$DIMLWD
 70
    -2
  9
$DIMLWE
 70
    -2
  9
$DIMTMOVE
 70
     0
  9
$LUNITS
 70
     2
  9
$LUPREC
 70
     4
  9
$SKETCHINC
 40
1.0
  9
$FILLETRAD
 40
0.0
  9
$AUNITS
 70
     0
  9
$AUPREC
 70
     0
  9
$MENU
  1
.
  9
$ELEVATION
 40
0.0
  9
$PELEVATION
 40
0.0
  9
$THICKNESS
 40
0.0
  9
$LIMCHECK
 70
     0
  9
$CHAMFERA
 40
10.0
  9
$CHAMFERB
 40
10.0
  9
$CHAMFERC
 40
20.0
  9
$CHAMFERD
 40
0.0
  9
$SKPOLY
 70
     0
  9
$TDCREATE
 40
2455188.750000000
  9
$TDUCREATE
 40
2455188.375000000
  9
$TDUPDATE
 40
2459754.678461007
  9
$TDUUPDATE
 40
2459754.303461007
  9
$TDINDWG
 40
0.0055320139
  9
$TDUSRTIMER
 40
0.0055318634
  9
$USRTIMER
 70
     1
  9
$ANGBASE
 50
0.0
  9
$ANGDIR
 70
     0
  9
$PDMODE
 70
     0
  9
$PDSIZE
 40
0.0
  9
$PLINEWID
 40
0.0
  9
$SPLFRAME
 70
     0
  9
$SPLINETYPE
 70
     6
  9
$SPLINESEGS
 70
     8
  9
$HANDSEED
  5
57A
  9
$SURFTAB1
 70
     6
  9
$SURFTAB2
 70
     6
  9
$SURFTYPE
 70
     6
  9
$SURFU
 70
     6
  9
$SURFV
 70
     6
  9
$UCSBASE
  2

  9
$UCSNAME
  2

  9
$UCSORG
 10
0.0
 20
0.0
 30
0.0
  9
$UCSXDIR
 10
1.0
 20
0.0
 30
0.0
  9
$UCSYDIR
 10
0.0
 20
1.0
 30
0.0
  9
$UCSORTHOREF
  2

  9
$UCSORTHOVIEW
 70
     0
  9
$UCSORGTOP
 10
0.0
 20
0.0
 30
0.0
  9
$UCSORGBOTTOM
 10
0.0
 20
0.0
 30
0.0
  9
$UCSORGLEFT
 10
0.0
 20
0.0
 30
0.0
  9
$UCSORGRIGHT
 10
0.0
 20
0.0
 30
0.0
  9
$UCSORGFRONT
 10
0.0
 20
0.0
 30
0.0
  9
$UCSORGBACK
 10
0.0
 20
0.0
 30
0.0
  9
$PUCSBASE
  2

  9
$PUCSNAME
  2

  9
$PUCSORG
 10
0.0
 20
0.0
 30
0.0
  9
$PUCSXDIR
 10
1.0
 20
0.0
 30
0.0
  9
$PUCSYDIR
 10
0.0
 20
1.0
 30
0.0
  9
$PUCSORTHOREF
  2

  9
$PUCSORTHOVIEW
 70
     0
  9
$PUCSORGTOP
 10
0.0
 20
0.0
 30
0.0
  9
$PUCSORGBOTTOM
 10
0.0
 20
0.0
 30
0.0
  9
$PUCSORGLEFT
 10
0.0
 20
0.0
 30
0.0
  9
$PUCSORGRIGHT
 10
0.0
 20
0.0
 30
0.0
  9
$PUCSORGFRONT
 10
0.0
 20
0.0
 30
0.0
  9
$PUCSORGBACK
 10
0.0
 20
0.0
 30
0.0
  9
$USERI1
 70
     0
  9
$USERI2
 70
     0
  9
$USERI3
 70
     0
  9
$USERI4
 70
     0
  9
$USERI5
 70
     0
  9
$USERR1
 40
0.0
  9
$USERR2
 40
0.0
  9
$USERR3
 40
0.0
  9
$USERR4
 40
0.0
  9
$USERR5
 40
0.0
  9
$WORLDVIEW
 70
     1
  9
$SHADEDGE
 70
     3
  9
$SHADEDIF
 70
    70
  9
$TILEMODE
 70
     1
  9
$MAXACTVP
 70
    64
  9
$PINSBASE
 10
0.0
 20
0.0
 30
0.0
  9
$PLIMCHECK
 70
     0
  9
$PEXTMIN
 10
1.000000000000000E+20
 20
1.000000000000000E+20
 30
1.000000000000000E+20
  9
$PEXTMAX
 10
-1.000000000000000E+20
 20
-1.000000000000000E+20
 30
-1.000000000000000E+20
  9
$PLIMMIN
 10
0.0
 20
0.0
  9
$PLIMMAX
 10
420.0
 20
297.0
  9
$UNITMODE
 70
     0
  9
$VISRETAIN
 70
     1
  9
$PLINEGEN
 70
     0
  9
$PSLTSCALE
 70
     1
  9
$TREEDEPTH
 70
  3020
  9
$CMLSTYLE
  2
Standard
  9
$CMLJUST
 70
     0
  9
$CMLSCALE
 40
20.0
  9
$PROXYGRAPHICS
 70
     1
  9
$MEASUREMENT
 70
     1
  9
$CELWEIGHT
370
    -1
  9
$ENDCAPS
280
     0
  9
$JOINSTYLE
280
     0
  9
$LWDISPLAY
290
     0
  9
$INSUNITS
 70
     4
  9
$HYPERLINKBASE
  1

  9
$STYLESHEET
  1

  9
$XEDIT
290
     1
  9
$CEPSNTYPE
380
     0
  9
$PSTYLEMODE
290
     1
  9
$FINGERPRINTGUID
  2
{2F1BABED-D7A6-4DFD-9219-55FDC8BB62E9}
  9
$VERSIONGUID
  2
{0EA2B9B9-809C-41EB-A93E-FE4F9CA35859}
  9
$EXTNAMES
290
     1
  9
$PSVPSCALE
 40
0.0
  9
$OLESTARTUP
290
     0
  0
ENDSEC
  0
SECTION
  2
CLASSES
  0
CLASS
  1
ACDBDICTIONARYWDFLT
  2
AcDbDictionaryWithDefault
  3
ObjectDBX Classes
 90
        0
280
     0
281
     0
  0
CLASS
  1
VISUALSTYLE
  2
AcDbVisualStyle
  3
ObjectDBX Classes
 90
     4095
280
     0
281
     0
  0
CLASS
  1
MATERIAL
  2
AcDbMaterial
  3
ObjectDBX Classes
 90
     1153
280
     0
281
     0
  0
CLASS
  1
SCALE
  2
AcDbScale
  3
ObjectDBX Classes
 90
     1153
280
     0
281
     0
  0
CLASS
  1
TABLESTYLE
  2
AcDbTableStyle
  3
ObjectDBX Classes
 90
     4095
280
     0
281
     0
  0
CLASS
  1
MLEADERSTYLE
  2
AcDbMLeaderStyle
  3
ACDB_MLEADERSTYLE_CLASS
 90
     4095
280
     0
281
     0
  0
CLASS
  1
SUN
  2
AcDbSun
  3
SCENEOE
 90
    33921
280
     0
281
     0
  0
CLASS
  1
DICTIONARYVAR
  2
AcDbDictionaryVar
  3
ObjectDBX Classes
 90
        0
280
     0
281
     0
  0
CLASS
  1
ACDBSECTIONVIEWSTYLE
  2
AcDbSectionViewStyle
  3
ObjectDBX Classes
 90
     1025
280
     0
281
     0
  0
CLASS
  1
ACDBDETAILVIEWSTYLE
  2
AcDbDetailViewStyle
  3
ObjectDBX Classes
 90
     1025
280
     0
281
     0
  0
CLASS
  1
SORTENTSTABLE
  2
AcDbSortentsTable
  3
ObjectDBX Classes
 90
        0
280
     0
281
     0
  0
CLASS
  1
CELLSTYLEMAP
  2
AcDbCellStyleMap
  3
ObjectDBX Classes
 90
     1152
280
     0
281
     0
  0
CLASS
  1
ACDBPLACEHOLDER
  2
AcDbPlaceHolder
  3
ObjectDBX Classes
 90
        0
280
     0
281
     0
  0
CLASS
  1
LAYOUT
  2
AcDbLayout
  3
ObjectDBX Classes
 90
        0
280
     0
281
     0
  0
ENDSEC
  0
SECTION
  2
TABLES
  0
TABLE
  2
VPORT
  5
8
330
0
100
AcDbSymbolTable
 70
     1
  0
VPORT
  5
29
330
8
100
AcDbSymbolTableRecord
100
AcDbViewportTableRecord
  2
*Active
 70
     0
 10
0.0
 20
0.0
 11
1.0
 21
1.0
 12
1163.065074650875
 22
500.0017247068915
 13
0.0
 23
0.0
 14
10.0
 24
10.0
 15
10.0
 25
10.0
 16
0.0
 26
0.0
 36
1.0
 17
0.0
 27
0.0
 37
0.0
 40
1425.949455854417
 41
2.204301075268817
 42
50.0
 43
0.0
 44
0.0
 50
0.0
 51
0.0
 71
     0
 72
 20000
 73
     1
 74
     3
 75
     0
 76
     0
 77
     0
 78
     0
281
     0
 65
     1
110
0.0
120
0.0
130
0.0
111
1.0
121
0.0
131
0.0
112
0.0
122
1.0
132
0.0
 79
     0
146
0.0
1001
ACAD_NAV_VCDISPLAY
1070
     3
  0
ENDTAB
  0
TABLE
  2
LTYPE
  5
5
330
0
100
AcDbSymbolTable
 70
     2
  0
LTYPE
  5
14
330
5
100
AcDbSymbolTableRecord
100
AcDbLinetypeTableRecord
  2
ByBlock
 70
     0
  3

 72
    65
 73
     0
 40
0.0
  0
LTYPE
  5
15
330
5
100
AcDbSymbolTableRecord
100
AcDbLinetypeTableRecord
  2
ByLayer
 70
     0
  3

 72
    65
 73
     0
 40
0.0
  0
LTYPE
  5
16
330
5
100
AcDbSymbolTableRecord
100
AcDbLinetypeTableRecord
  2
Continuous
 70
     0
  3
Solid line
 72
    65
 73
     0
 40
0.0
  0
LTYPE
  5
245
330
5
100
AcDbSymbolTableRecord
100
AcDbLinetypeTableRecord
  2
CENTER2
 70
     0
  3
Center (.5x) ___ _ ___ _ ___ _ ___ _ ___ _ ___
 72
    65
 73
     4
 40
28.575
 49
19.05
 74
     0
 49
-3.174999999999998
 74
     0
 49
3.174999999999998
 74
     0
 49
-3.174999999999998
 74
     0
  0
ENDTAB
  0
TABLE
  2
LAYER
  5
2
102
{ACAD_XDICTIONARY
360
24B
102
}
330
0
100
AcDbSymbolTable
 70
     4
  0
LAYER
  5
10
102
{ACAD_XDICTIONARY
360
4A6
102
}
330
2
100
AcDbSymbolTableRecord
100
AcDbLayerTableRecord
  2
0
 70
     0
 62
     7
  6
Continuous
370
    -3
390
F
  0
LAYER
  5
66
330
2
100
AcDbSymbolTableRecord
100
AcDbLayerTableRecord
  2
Defpoints
 70
     0
 62
     7
  6
Continuous
290
     0
370
    -3
390
F
  0
LAYER
  5
246
102
{ACAD_XDICTIONARY
360
247
102
}
330
2
100
AcDbSymbolTableRecord
100
AcDbLayerTableRecord
  2
中心線
 70
     0
 62
     3
  6
CENTER2
370
    -3
390
F
  0
LAYER
  5
248
102
{ACAD_XDICTIONARY
360
249
102
}
330
2
100
AcDbSymbolTableRecord
100
AcDbLayerTableRecord
  2
実線
 70
     0
 62
     7
  6
Continuous
370
    -3
390
F
  0
ENDTAB
  0
TABLE
  2
STYLE
  5
3
330
0
100
AcDbSymbolTable
 70
     1
  0
STYLE
  5
11
330
3
100
AcDbSymbolTableRecord
100
AcDbTextStyleTableRecord
  2
Standard
 70
     0
 40
0.0
 41
1.0
 50
0.0
 71
     0
 42
2.5
  3
txt
  4
extfont2
  0
ENDTAB
  0
TABLE
  2
VIEW
  5
6
330
0
100
AcDbSymbolTable
 70
     0
  0
ENDTAB
  0
TABLE
  2
UCS
  5
7
330
0
100
AcDbSymbolTable
 70
     0
  0
ENDTAB
  0
TABLE
  2
APPID
  5
9
330
0
100
AcDbSymbolTable
 70
     4
  0
APPID
  5
12
330
9
100
AcDbSymbolTableRecord
100
AcDbRegAppTableRecord
  2
ACAD
 70
     0
  0
APPID
  5
235
330
9
100
AcDbSymbolTableRecord
100
AcDbRegAppTableRecord
  2
ACAD_MLEADERVER
 70
     0
  0
APPID
  5
24A
330
9
100
AcDbSymbolTableRecord
100
AcDbRegAppTableRecord
  2
ACAD_NAV_VCDISPLAY
 70
     0
  0
APPID
  5
493
330
9
100
AcDbSymbolTableRecord
100
AcDbRegAppTableRecord
  2
ACAD_EXEMPT_FROM_CAD_STANDARDS
 70
     0
  0
ENDTAB
  0
TABLE
  2
DIMSTYLE
  5
A
330
0
100
AcDbSymbolTable
 70
     1
100
AcDbDimStyleTable
 71
     1
340
27
  0
DIMSTYLE
105
27
330
A
100
AcDbSymbolTableRecord
100
AcDbDimStyleTableRecord
  2
Standard
 70
     0
 41
2.5
 42
0.625
 43
3.75
 44
1.25
 73
     0
 74
     0
 77
     1
140
2.5
141
2.5
143
0.03937007874016
146
0.75
147
0.625
171
     3
172
     1
271
     2
272
     2
274
     3
283
     0
284
     8
340
11
  0
ENDTAB
  0
TABLE
  2
BLOCK_RECORD
  5
1
330
0
100
AcDbSymbolTable
 70
     1
  0
BLOCK_RECORD
  5
1F
102
{ACAD_XDICTIONARY
360
358
102
}
330
1
100
AcDbSymbolTableRecord
100
AcDbBlockTableRecord
  2
*Model_Space
340
22
  0
BLOCK_RECORD
  5
1B
330
1
100
AcDbSymbolTableRecord
100
AcDbBlockTableRecord
  2
*Paper_Space
340
1E
  0
BLOCK_RECORD
  5
23
330
1
100
AcDbSymbolTableRecord
100
AcDbBlockTableRecord
  2
*Paper_Space0
340
23F
  0
ENDTAB
  0
ENDSEC
  0
SECTION
  2
BLOCKS
  0
BLOCK
  5
20
330
1F
100
AcDbEntity
  8
0
100
AcDbBlockBegin
  2
*Model_Space
 70
     0
 10
0.0
 20
0.0
 30
0.0
  3
*Model_Space
  1

  0
ENDBLK
  5
21
330
1F
100
AcDbEntity
  8
0
100
AcDbBlockEnd
  0
BLOCK
  5
1C
330
1B
100
AcDbEntity
 67
     1
  8
0
100
AcDbBlockBegin
  2
*Paper_Space
 70
     0
 10
0.0
 20
0.0
 30
0.0
  3
*Paper_Space
  1

  0
ENDBLK
  5
1D
330
1B
100
AcDbEntity
 67
     1
  8
0
100
AcDbBlockEnd
  0
BLOCK
  5
24
330
23
100
AcDbEntity
 67
     1
  8
0
100
AcDbBlockBegin
  2
*Paper_Space0
 70
     0
 10
0.0
 20
0.0
 30
0.0
  3
*Paper_Space0
  1

  0
ENDBLK
  5
25
330
23
100
AcDbEntity
 67
     1
  8
0
100
AcDbBlockEnd
  0
ENDSEC
  0
SECTION
  2
ENTITIES
  0
LINE
  5
31B
102
{ACAD_REACTORS
330
4F2
102
}
330
1F
100
AcDbEntity
  8
実線
100
AcDbLine
 10
243.2142708417603
 20
781.1920792884816
 30
0.0
 11
274.2069672900425
 21
781.1920792884816
 31
0.0
  0
LINE
  5
31C
102
{ACAD_REACTORS
330
4F2
102
}
330
1F
100
AcDbEntity
  8
実線
100
AcDbLine
 10
274.2069672900425
 20
831.9920792884818
 30
0.0
 11
243.2142708417603
 21
831.9920792884818
 31
0.0
  0
LINE
  5
31D
102
{ACAD_REACTORS
330
4F2
102
}
330
1F
100
AcDbEntity
  8
実線
100
AcDbLine
 10
237.9142708417603
 20
774.5920792884819
 30
0.0
 11
237.9142708417603
 21
838.5920792884819
 31
0.0
  0
LINE
  5
31E
102
{ACAD_REACTORS
330
4F2
102
}
330
1F
100
AcDbEntity
  8
実線
100
AcDbLine
 10
237.9142708417603
 20
774.5920792884819
 30
0.0
 11
240.8142708417603
 21
774.5920792884819
 31
0.0
  0
LINE
  5
31F
102
{ACAD_REACTORS
330
4F2
102
}
330
1F
100
AcDbEntity
  8
実線
100
AcDbLine
 10
240.8142708417603
 20
838.5920792884819
 30
0.0
 11
237.9142708417603
 21
838.5920792884819
 31
0.0
  0
LINE
  5
320
102
{ACAD_REACTORS
330
4F2
102
}
330
1F
100
AcDbEntity
  8
実線
100
AcDbLine
 10
240.8142708417603
 20
774.5920792884819
 30
0.0
 11
240.8142708417603
 21
838.5920792884819
 31
0.0
  0
LINE
  5
321
102
{ACAD_REACTORS
330
4F2
102
}
330
1F
100
AcDbEntity
  8
実線
100
AcDbLine
 10
243.2142708417603
 20
781.1920792884816
 30
0.0
 11
243.2142708417603
 21
831.9920792884818
 31
0.0
  0
LINE
  5
322
102
{ACAD_REACTORS
330
4F2
102
}
330
1F
100
AcDbEntity
  8
実線
100
AcDbLine
 10
243.2142708417603
 20
831.9920792884818
 30
0.0
 11
240.8142708417603
 21
838.5920792884819
 31
0.0
  0
LINE
  5
323
102
{ACAD_REACTORS
330
4F2
102
}
330
1F
100
AcDbEntity
  8
実線
100
AcDbLine
 10
240.8142708417603
 20
774.5920792884819
 30
0.0
 11
243.2142708417603
 21
781.1920792884816
 31
0.0
  0
LINE
  5
324
102
{ACAD_REACTORS
330
4F2
102
}
330
1F
100
AcDbEntity
  8
実線
100
AcDbLine
 10
396.6142708417604
 20
831.9920792884818
 30
0.0
 11
365.6215743934781
 21
831.9920792884818
 31
0.0
  0
LINE
  5
325
102
{ACAD_REACTORS
330
4F2
102
}
330
1F
100
AcDbEntity
  8
実線
100
AcDbLine
 10
365.621574393478
 20
781.1920792884816
 30
0.0
 11
396.6142708417604
 21
781.1920792884816
 31
0.0
  0
LINE
  5
326
102
{ACAD_REACTORS
330
4F2
102
}
330
1F
100
AcDbEntity
  8
実線
100
AcDbLine
 10
396.6142708417604
 20
831.9920792884818
 30
0.0
 11
396.6142708417604
 21
781.1920792884816
 31
0.0
  0
LINE
  5
327
102
{ACAD_REACTORS
330
4F2
102
}
330
1F
100
AcDbEntity
  8
実線
100
AcDbLine
 10
396.6142708417604
 20
781.1920792884816
 30
0.0
 11
399.0142708417603
 21
774.5920792884819
 31
0.0
  0
LINE
  5
328
102
{ACAD_REACTORS
330
4F2
102
}
330
1F
100
AcDbEntity
  8
実線
100
AcDbLine
 10
399.0142708417603
 20
838.5920792884819
 30
0.0
 11
396.6142708417604
 21
831.9920792884818
 31
0.0
  0
LINE
  5
329
102
{ACAD_REACTORS
330
4F2
102
}
330
1F
100
AcDbEntity
  8
実線
100
AcDbLine
 10
401.9142708417603
 20
838.5920792884819
 30
0.0
 11
401.9142708417603
 21
774.5920792884819
 31
0.0
  0
LINE
  5
32A
102
{ACAD_REACTORS
330
4F2
102
}
330
1F
100
AcDbEntity
  8
実線
100
AcDbLine
 10
399.0142708417603
 20
838.5920792884819
 30
0.0
 11
399.0142708417603
 21
774.5920792884819
 31
0.0
  0
LINE
  5
32B
102
{ACAD_REACTORS
330
4F2
102
}
330
1F
100
AcDbEntity
  8
実線
100
AcDbLine
 10
401.9142708417603
 20
838.5920792884819
 30
0.0
 11
399.0142708417603
 21
838.5920792884819
 31
0.0
  0
LINE
  5
32C
102
{ACAD_REACTORS
330
4F2
102
}
330
1F
100
AcDbEntity
  8
実線
100
AcDbLine
 10
399.0142708417603
 20
774.5920792884819
 30
0.0
 11
401.9142708417603
 21
774.5920792884819
 31
0.0
  0
CIRCLE
  5
32D
102
{ACAD_REACTORS
330
4F2
102
}
330
1F
100
AcDbEntity
  8
実線
100
AcDbCircle
 10
319.9142708417601
 20
806.5920792884819
 30
0.0
 40
14.0
  0
LINE
  5
32E
102
{ACAD_REACTORS
330
4F2
102
}
330
1F
100
AcDbEntity
  8
実線
100
AcDbLine
 10
334.5142708417601
 20
799.5920792884819
 30
0.0
 11
342.4142708417602
 21
799.5920792884819
 31
0.0
  0
LINE
  5
32F
102
{ACAD_REACTORS
330
4F2
102
}
330
1F
100
AcDbEntity
  8
実線
100
AcDbLine
 10
334.5142708417601
 20
799.5920792884819
 30
0.0
 11
334.5142708417601
 21
824.5920792884819
 31
0.0
  0
LINE
  5
330
102
{ACAD_REACTORS
330
4F2
102
}
330
1F
100
AcDbEntity
  8
実線
100
AcDbLine
 10
342.4142708417602
 20
824.5920792884819
 30
0.0
 11
334.5142708417601
 21
824.5920792884819
 31
0.0
  0
LINE
  5
331
102
{ACAD_REACTORS
330
4F2
102
}
330
1F
100
AcDbEntity
  8
実線
100
AcDbLine
 10
339.9642708417602
 20
831.0920792884816
 30
0.0
 11
336.9642708417601
 21
831.0920792884816
 31
0.0
  0
LINE
  5
332
102
{ACAD_REACTORS
330
4F2
102
}
330
1F
100
AcDbEntity
  8
実線
100
AcDbLine
 10
339.9642708417602
 20
824.5920792884819
 30
0.0
 11
339.9642708417602
 21
831.0920792884816
 31
0.0
  0
LINE
  5
333
102
{ACAD_REACTORS
330
4F2
102
}
330
1F
100
AcDbEntity
  8
実線
100
AcDbLine
 10
336.9642708417601
 20
831.0920792884816
 30
0.0
 11
336.9642708417601
 21
824.5920792884819
 31
0.0
  0
LINE
  5
334
102
{ACAD_REACTORS
330
4F2
102
}
330
1F
100
AcDbEntity
  8
実線
100
AcDbLine
 10
363.4142708417602
 20
799.5920792884819
 30
0.0
 11
342.4142708417602
 21
799.5920792884819
 31
0.0
  0
CIRCLE
  5
337
102
{ACAD_REACTORS
330
4F2
102
}
330
1F
100
AcDbEntity
  8
実線
100
AcDbCircle
 10
357.9142708417602
 20
804.5920792884816
 30
0.0
 40
2.0
  0
LINE
  5
338
102
{ACAD_REACTORS
330
4F2
102
}
330
1F
100
AcDbEntity
  8
実線
100
AcDbLine
 10
363.4142708417602
 20
809.5920792884816
 30
0.0
 11
363.4142708417602
 21
799.5920792884819
 31
0.0
  0
LINE
  5
339
102
{ACAD_REACTORS
330
4F2
102
}
330
1F
100
AcDbEntity
  8
実線
100
AcDbLine
 10
343.6142708417603
 20
809.5920792884816
 30
0.0
 11
363.4142708417602
 21
809.5920792884816
 31
0.0
  0
LINE
  5
33A
102
{ACAD_REACTORS
330
4F2
102
}
330
1F
100
AcDbEntity
  8
実線
100
AcDbLine
 10
343.61427084176
 20
841.5920792884818
 30
0.0
 11
343.61427084176
 21
799.5920792884819
 31
0.0
  0
CIRCLE
  5
33D
102
{ACAD_REACTORS
330
4F2
102
}
330
1F
100
AcDbEntity
  8
実線
100
AcDbCircle
 10
339.9142708417602
 20
836.5920792884816
 30
0.0
 40
2.0
  0
LINE
  5
33E
102
{ACAD_REACTORS
330
4F2
102
}
330
1F
100
AcDbEntity
  8
実線
100
AcDbLine
 10
334.5142708417601
 20
820.5920792884816
 30
0.0
 11
334.4142708417602
 21
820.5920792884816
 31
0.0
  0
LINE
  5
33F
102
{ACAD_REACTORS
330
4F2
102
}
330
1F
100
AcDbEntity
  8
実線
100
AcDbLine
 10
334.4142708417602
 20
841.5920792884818
 30
0.0
 11
343.61427084176
 21
841.5920792884818
 31
0.0
  0
LINE
  5
340
102
{ACAD_REACTORS
330
4F2
102
}
330
1F
100
AcDbEntity
  8
実線
100
AcDbLine
 10
334.4142708417602
 20
820.5920792884816
 30
0.0
 11
334.4142708417602
 21
841.5920792884818
 31
0.0
  0
LINE
  5
341
102
{ACAD_REACTORS
330
4F2
102
}
330
1F
100
AcDbEntity
  8
実線
100
AcDbLine
 10
342.4142708417602
 20
799.5920792884819
 30
0.0
 11
342.4142708417602
 21
826.5920792884816
 31
0.0
  0
LINE
  5
342
102
{ACAD_REACTORS
330
4F2
102
}
330
1F
100
AcDbEntity
  8
実線
100
AcDbLine
 10
342.4142708417602
 20
826.5920792884816
 30
0.0
 11
343.6142708417603
 21
826.5920792884816
 31
0.0
  0
CIRCLE
  5
343
102
{ACAD_REACTORS
330
4F2
102
}
330
1F
100
AcDbEntity
  8
実線
100
AcDbCircle
 10
319.9142708417601
 20
806.5920792884819
 30
0.0
 40
49.0
  0
LINE
  5
344
102
{ACAD_REACTORS
330
4F2
102
}
330
1F
100
AcDbEntity
  8
実線
100
AcDbLine
 10
342.2925141289034
 20
763.000632565742
 30
0.0
 11
358.1495832210113
 21
751.8973932535359
 31
0.0
  0
ARC
  5
345
102
{ACAD_REACTORS
330
4F2
102
}
330
1F
100
AcDbEntity
  8
実線
100
AcDbCircle
 10
363.8853475845218
 20
760.0889136964258
 30
0.0
 40
10.00000000000003
100
AcDbArc
 50
234.999999999999
 51
313.3968902048141
  0
ARC
  5
346
102
{ACAD_REACTORS
330
4F2
102
}
330
1F
100
AcDbEntity
  8
実線
100
AcDbCircle
 10
319.9142708417603
 20
806.5920792884814
 30
0.0
 40
73.99999999999984
100
AcDbArc
 50
313.3968902048141
 51
316.6031097951859
  0
ARC
  5
347
102
{ACAD_REACTORS
330
4F2
102
}
330
1F
100
AcDbEntity
  8
実線
100
AcDbCircle
 10
366.4174364338161
 20
762.6210025457202
 30
0.0
 40
9.999999999999976
100
AcDbArc
 50
316.6031097951859
 51
34.99999999999963
  0
LINE
  5
348
102
{ACAD_REACTORS
330
4F2
102
}
330
1F
100
AcDbEntity
  8
実線
100
AcDbLine
 10
374.6089568767061
 20
768.3567669092306
 30
0.0
 11
363.5057175644998
 21
784.2138360013387
 31
0.0
  0
ARC
  5
349
102
{ACAD_REACTORS
330
4F2
102
}
330
1F
100
AcDbEntity
  8
実線
100
AcDbCircle
 10
366.4174364338161
 20
850.5631560312433
 30
0.0
 40
10.00000000000002
100
AcDbArc
 50
324.999999999999
 51
43.39689020481408
  0
ARC
  5
34A
102
{ACAD_REACTORS
330
4F2
102
}
330
1F
100
AcDbEntity
  8
実線
100
AcDbCircle
 10
319.9142708417604
 20
806.5920792884814
 30
0.0
 40
74.00000000000003
100
AcDbArc
 50
43.39689020481408
 51
46.60310979518592
  0
LINE
  5
34B
102
{ACAD_REACTORS
330
4F2
102
}
330
1F
100
AcDbEntity
  8
実線
100
AcDbLine
 10
363.5057175644998
 20
828.9703225756245
 30
0.0
 11
374.6089568767059
 21
844.8273916677328
 31
0.0
  0
ARC
  5
34C
102
{ACAD_REACTORS
330
4F2
102
}
330
1F
100
AcDbEntity
  8
実線
100
AcDbCircle
 10
363.8853475845218
 20
853.0952448805376
 30
0.0
 40
10.00000000000001
100
AcDbArc
 50
46.60310979518592
 51
124.9999999999996
  0
LINE
  5
34D
102
{ACAD_REACTORS
330
4F2
102
}
330
1F
100
AcDbEntity
  8
実線
100
AcDbLine
 10
358.1495832210113
 20
861.2867653234276
 30
0.0
 11
342.2925141289034
 21
850.1835260112212
 31
0.0
  0
LINE
  5
34E
102
{ACAD_REACTORS
330
4F2
102
}
330
1F
100
AcDbEntity
  8
実線
100
AcDbLine
 10
276.3228241190208
 20
784.2138360013387
 30
0.0
 11
265.2195848068144
 21
768.3567669092306
 31
0.0
  0
ARC
  5
34F
102
{ACAD_REACTORS
330
4F2
102
}
330
1F
100
AcDbEntity
  8
実線
100
AcDbCircle
 10
273.4111052497044
 20
762.6210025457202
 30
0.0
 40
10.00000000000001
100
AcDbArc
 50
145.0000000000003
 51
223.3968902048141
  0
ARC
  5
350
102
{ACAD_REACTORS
330
4F2
102
}
330
1F
100
AcDbEntity
  8
実線
100
AcDbCircle
 10
319.9142708417604
 20
806.5920792884814
 30
0.0
 40
73.99999999999997
100
AcDbArc
 50
223.3968902048141
 51
226.6031097951813
  0
ARC
  5
351
102
{ACAD_REACTORS
330
4F2
102
}
330
1F
100
AcDbEntity
  8
実線
100
AcDbCircle
 10
275.9431940989986
 20
760.0889136964258
 30
0.0
 40
10.00000000000001
100
AcDbArc
 50
226.6031097951859
 51
304.9999999999996
  0
LINE
  5
352
102
{ACAD_REACTORS
330
4F2
102
}
330
1F
100
AcDbEntity
  8
実線
100
AcDbLine
 10
281.678958462509
 20
751.8973932535359
 30
0.0
 11
297.5360275546171
 21
763.0006325657421
 31
0.0
  0
LINE
  5
353
102
{ACAD_REACTORS
330
4F2
102
}
330
1F
100
AcDbEntity
  8
実線
100
AcDbLine
 10
297.5360275546171
 20
850.1835260112212
 30
0.0
 11
281.678958462509
 21
861.2867653234276
 31
0.0
  0
ARC
  5
354
102
{ACAD_REACTORS
330
4F2
102
}
330
1F
100
AcDbEntity
  8
実線
100
AcDbCircle
 10
275.9431940989986
 20
853.0952448805376
 30
0.0
 40
10.0
100
AcDbArc
 50
55.00000000000038
 51
133.3968902048141
  0
ARC
  5
355
102
{ACAD_REACTORS
330
4F2
102
}
330
1F
100
AcDbEntity
  8
実線
100
AcDbCircle
 10
319.9142708417604
 20
806.5920792884814
 30
0.0
 40
74.00000000000019
100
AcDbArc
 50
133.3968902048141
 51
136.6031097951859
  0
ARC
  5
356
102
{ACAD_REACTORS
330
4F2
102
}
330
1F
100
AcDbEntity
  8
実線
100
AcDbCircle
 10
273.4111052497044
 20
850.5631560312433
 30
0.0
 40
10.00000000000001
100
AcDbArc
 50
136.6031097951859
 51
214.9999999999996
  0
LINE
  5
357
102
{ACAD_REACTORS
330
4F2
102
}
330
1F
100
AcDbEntity
  8
実線
100
AcDbLine
 10
265.2195848068144
 20
844.8273916677328
 30
0.0
 11
276.3228241190208
 21
828.9703225756245
 31
0.0
  0
CIRCLE
  5
35A
102
{ACAD_REACTORS
330
4A5
102
}
330
1F
100
AcDbEntity
  8
実線
100
AcDbCircle
 10
319.9142708417604
 20
86.59207928848166
 30
0.0
 40
32.0
  0
LINE
  5
35B
102
{ACAD_REACTORS
330
4A5
102
}
330
1F
100
AcDbEntity
  8
実線
100
AcDbLine
 10
243.2142708417604
 20
61.19207928848152
 30
0.0
 11
278.0115263015753
 21
61.19207928848152
 31
0.0
  0
LINE
  5
35C
102
{ACAD_REACTORS
330
4A5
102
}
330
1F
100
AcDbEntity
  8
実線
100
AcDbLine
 10
278.0115263015753
 20
111.9920792884816
 30
0.0
 11
243.2142708417604
 21
111.9920792884816
 31
0.0
  0
LINE
  5
35D
102
{ACAD_REACTORS
330
4A5
102
}
330
1F
100
AcDbEntity
  8
実線
100
AcDbLine
 10
243.2142708417604
 20
111.9920792884816
 30
0.0
 11
240.8142708417604
 21
118.5920792884816
 31
0.0
  0
LINE
  5
35E
102
{ACAD_REACTORS
330
4A5
102
}
330
1F
100
AcDbEntity
  8
実線
100
AcDbLine
 10
240.8142708417604
 20
54.59207928848167
 30
0.0
 11
243.2142708417604
 21
61.19207928848152
 31
0.0
  0
LINE
  5
35F
102
{ACAD_REACTORS
330
4A5
102
}
330
1F
100
AcDbEntity
  8
実線
100
AcDbLine
 10
243.2142708417604
 20
111.9920792884816
 30
0.0
 11
243.2142708417604
 21
61.19207928848152
 31
0.0
  0
LINE
  5
360
102
{ACAD_REACTORS
330
4A5
102
}
330
1F
100
AcDbEntity
  8
実線
100
AcDbLine
 10
237.9142708417604
 20
54.59207928848167
 30
0.0
 11
240.8142708417604
 21
54.59207928848167
 31
0.0
  0
LINE
  5
361
102
{ACAD_REACTORS
330
4A5
102
}
330
1F
100
AcDbEntity
  8
実線
100
AcDbLine
 10
240.8142708417604
 20
118.5920792884816
 30
0.0
 11
237.9142708417604
 21
118.5920792884816
 31
0.0
  0
LINE
  5
362
102
{ACAD_REACTORS
330
4A5
102
}
330
1F
100
AcDbEntity
  8
実線
100
AcDbLine
 10
237.9142708417604
 20
118.5920792884816
 30
0.0
 11
237.9142708417604
 21
54.59207928848167
 31
0.0
  0
LINE
  5
363
102
{ACAD_REACTORS
330
4A5
102
}
330
1F
100
AcDbEntity
  8
実線
100
AcDbLine
 10
240.8142708417604
 20
118.5920792884816
 30
0.0
 11
240.8142708417604
 21
54.59207928848167
 31
0.0
  0
LINE
  5
364
102
{ACAD_REACTORS
330
4A5
102
}
330
1F
100
AcDbEntity
  8
実線
100
AcDbLine
 10
396.6142708417605
 20
111.9920792884816
 30
0.0
 11
361.8170153819452
 21
111.9920792884816
 31
0.0
  0
LINE
  5
365
102
{ACAD_REACTORS
330
4A5
102
}
330
1F
100
AcDbEntity
  8
実線
100
AcDbLine
 10
361.8170153819451
 20
61.19207928848152
 30
0.0
 11
396.6142708417605
 21
61.19207928848152
 31
0.0
  0
LINE
  5
366
102
{ACAD_REACTORS
330
4A5
102
}
330
1F
100
AcDbEntity
  8
実線
100
AcDbLine
 10
401.9142708417604
 20
118.5920792884816
 30
0.0
 11
399.0142708417605
 21
118.5920792884816
 31
0.0
  0
LINE
  5
367
102
{ACAD_REACTORS
330
4A5
102
}
330
1F
100
AcDbEntity
  8
実線
100
AcDbLine
 10
399.0142708417605
 20
54.59207928848167
 30
0.0
 11
401.9142708417604
 21
54.59207928848167
 31
0.0
  0
LINE
  5
368
102
{ACAD_REACTORS
330
4A5
102
}
330
1F
100
AcDbEntity
  8
実線
100
AcDbLine
 10
401.9142708417604
 20
54.59207928848167
 30
0.0
 11
401.9142708417604
 21
118.5920792884816
 31
0.0
  0
LINE
  5
369
102
{ACAD_REACTORS
330
4A5
102
}
330
1F
100
AcDbEntity
  8
実線
100
AcDbLine
 10
396.6142708417605
 20
61.19207928848152
 30
0.0
 11
399.0142708417605
 21
54.59207928848172
 31
0.0
  0
LINE
  5
36A
102
{ACAD_REACTORS
330
4A5
102
}
330
1F
100
AcDbEntity
  8
実線
100
AcDbLine
 10
399.0142708417605
 20
118.5920792884815
 30
0.0
 11
396.6142708417605
 21
111.9920792884816
 31
0.0
  0
LINE
  5
36B
102
{ACAD_REACTORS
330
4A5
102
}
330
1F
100
AcDbEntity
  8
実線
100
AcDbLine
 10
399.0142708417605
 20
54.59207928848172
 30
0.0
 11
399.0142708417605
 21
118.5920792884815
 31
0.0
  0
LINE
  5
36C
102
{ACAD_REACTORS
330
4A5
102
}
330
1F
100
AcDbEntity
  8
実線
100
AcDbLine
 10
396.6142708417605
 20
61.19207928848152
 30
0.0
 11
396.6142708417605
 21
111.9920792884816
 31
0.0
  0
LINE
  5
36D
102
{ACAD_REACTORS
330
4A5
102
}
330
1F
100
AcDbEntity
  8
実線
100
AcDbLine
 10
365.6215743934781
 20
61.19207928848152
 30
0.0
 11
374.6089568767062
 21
48.35676690923051
 31
0.0
  0
ARC
  5
36E
102
{ACAD_REACTORS
330
4A5
102
}
330
1F
100
AcDbEntity
  8
実線
100
AcDbCircle
 10
363.8853475845219
 20
40.08891369642583
 30
0.0
 40
10.00000000000001
100
AcDbArc
 50
235.0000000000004
 51
313.3968902048141
  0
ARC
  5
36F
102
{ACAD_REACTORS
330
4A5
102
}
330
1F
100
AcDbEntity
  8
実線
100
AcDbCircle
 10
319.9142708417605
 20
86.59207928848175
 30
0.0
 40
74.00000000000003
100
AcDbArc
 50
313.3968902048141
 51
316.6031097951859
  0
ARC
  5
370
102
{ACAD_REACTORS
330
4A5
102
}
330
1F
100
AcDbEntity
  8
実線
100
AcDbCircle
 10
366.4174364338163
 20
42.62100254572004
 30
0.0
 40
10.00000000000002
100
AcDbArc
 50
316.6031097951859
 51
34.99999999999963
  0
LINE
  5
371
102
{ACAD_REACTORS
330
4A5
102
}
330
1F
100
AcDbEntity
  8
実線
100
AcDbLine
 10
358.1495832210115
 20
31.89739325353585
 30
0.0
 11
342.2925141289035
 21
43.00063256574219
 31
0.0
  0
ARC
  5
372
102
{ACAD_REACTORS
330
4A5
102
}
330
1F
100
AcDbEntity
  8
実線
100
AcDbCircle
 10
319.9142708417605
 20
86.59207928848175
 30
0.0
 40
73.99999999999984
100
AcDbArc
 50
43.39689020481408
 51
46.60310979518592
  0
ARC
  5
373
102
{ACAD_REACTORS
330
4A5
102
}
330
1F
100
AcDbEntity
  8
実線
100
AcDbCircle
 10
366.4174364338163
 20
130.5631560312433
 30
0.0
 40
9.999999999999976
100
AcDbArc
 50
324.999999999999
 51
43.39689020481408
  0
ARC
  5
374
102
{ACAD_REACTORS
330
4A5
102
}
330
1F
100
AcDbEntity
  8
実線
100
AcDbCircle
 10
363.8853475845219
 20
133.0952448805374
 30
0.0
 40
10.00000000000003
100
AcDbArc
 50
46.60310979518592
 51
124.9999999999996
  0
LINE
  5
375
102
{ACAD_REACTORS
330
4A5
102
}
330
1F
100
AcDbEntity
  8
実線
100
AcDbLine
 10
342.2925141289035
 20
130.1835260112211
 30
0.0
 11
358.1495832210114
 21
141.2867653234274
 31
0.0
  0
LINE
  5
376
102
{ACAD_REACTORS
330
4A5
102
}
330
1F
100
AcDbEntity
  8
実線
100
AcDbLine
 10
374.6089568767062
 20
124.8273916677328
 30
0.0
 11
365.6215743934781
 21
111.9920792884816
 31
0.0
  0
ARC
  5
377
102
{ACAD_REACTORS
330
4A5
102
}
330
1F
100
AcDbEntity
  8
実線
100
AcDbCircle
 10
319.9142708417605
 20
86.59207928848175
 30
0.0
 40
73.99999999999997
100
AcDbArc
 50
133.3968902048141
 51
136.6031097951859
  0
ARC
  5
378
102
{ACAD_REACTORS
330
4A5
102
}
330
1F
100
AcDbEntity
  8
実線
100
AcDbCircle
 10
275.9431940989988
 20
133.0952448805374
 30
0.0
 40
10.00000000000001
100
AcDbArc
 50
55.00000000000038
 51
133.3968902048141
  0
LINE
  5
379
102
{ACAD_REACTORS
330
4A5
102
}
330
1F
100
AcDbEntity
  8
実線
100
AcDbLine
 10
274.2069672900427
 20
111.9920792884816
 30
0.0
 11
265.2195848068146
 21
124.8273916677328
 31
0.0
  0
LINE
  5
37A
102
{ACAD_REACTORS
330
4A5
102
}
330
1F
100
AcDbEntity
  8
実線
100
AcDbLine
 10
281.6789584625092
 20
141.2867653234274
 30
0.0
 11
297.5360275546172
 21
130.1835260112211
 31
0.0
  0
ARC
  5
37B
102
{ACAD_REACTORS
330
4A5
102
}
330
1F
100
AcDbEntity
  8
実線
100
AcDbCircle
 10
273.4111052497046
 20
130.5631560312433
 30
0.0
 40
10.00000000000001
100
AcDbArc
 50
136.6031097951859
 51
214.9999999999996
  0
LINE
  5
37C
102
{ACAD_REACTORS
330
4A5
102
}
330
1F
100
AcDbEntity
  8
実線
100
AcDbLine
 10
265.2195848068146
 20
48.35676690923046
 30
0.0
 11
274.2069672900427
 21
61.19207928848152
 31
0.0
  0
ARC
  5
37D
102
{ACAD_REACTORS
330
4A5
102
}
330
1F
100
AcDbEntity
  8
実線
100
AcDbCircle
 10
273.4111052497046
 20
42.62100254572004
 30
0.0
 40
10.00000000000001
100
AcDbArc
 50
145.0000000000003
 51
223.3968902048141
  0
ARC
  5
37E
102
{ACAD_REACTORS
330
4A5
102
}
330
1F
100
AcDbEntity
  8
実線
100
AcDbCircle
 10
319.9142708417605
 20
86.59207928848175
 30
0.0
 40
74.00000000000019
100
AcDbArc
 50
223.3968902048141
 51
226.6031097951859
  0
LINE
  5
37F
102
{ACAD_REACTORS
330
4A5
102
}
330
1F
100
AcDbEntity
  8
実線
100
AcDbLine
 10
297.5360275546174
 20
43.00063256574214
 30
0.0
 11
281.6789584625092
 21
31.89739325353585
 31
0.0
  0
ARC
  5
380
102
{ACAD_REACTORS
330
4A5
102
}
330
1F
100
AcDbEntity
  8
実線
100
AcDbCircle
 10
275.9431940989988
 20
40.08891369642578
 30
0.0
 40
10.0
100
AcDbArc
 50
226.6031097951859
 51
304.9999999999996
  0
ARC
  5
381
102
{ACAD_REACTORS
330
4A5
102
}
330
1F
100
AcDbEntity
  8
実線
100
AcDbCircle
 10
319.9142708417604
 20
86.59207928848166
 30
0.0
 40
49.0
100
AcDbArc
 50
207.5287869161025
 51
332.471213083896
  0
ARC
  5
382
102
{ACAD_REACTORS
330
4A5
102
}
330
1F
100
AcDbEntity
  8
実線
100
AcDbCircle
 10
319.9142708417604
 20
86.59207928848166
 30
0.0
 40
49.0
100
AcDbArc
 50
27.52878691610253
 51
152.4712130838975
  0
LINE
  5
383
102
{ACAD_REACTORS
330
4A0
102
}
330
1F
100
AcDbEntity
  8
実線
100
AcDbLine
 10
825.3142708417602
 20
249.8920792884816
 30
0.0
 11
825.3142708417602
 21
298.0920792884816
 31
0.0
  0
LINE
  5
384
102
{ACAD_REACTORS
330
4A0
102
}
330
1F
100
AcDbEntity
  8
実線
100
AcDbLine
 10
774.5142708417601
 20
298.0920792884816
 30
0.0
 11
774.5142708417601
 21
249.8920792884816
 31
0.0
  0
LINE
  5
385
102
{ACAD_REACTORS
330
4A0
102
}
330
1F
100
AcDbEntity
  8
実線
100
AcDbLine
 10
774.5142708417601
 20
249.8920792884816
 30
0.0
 11
767.9142708417601
 21
247.4920792884816
 31
0.0
  0
LINE
  5
386
102
{ACAD_REACTORS
330
4A0
102
}
330
1F
100
AcDbEntity
  8
実線
100
AcDbLine
 10
831.9142708417601
 20
247.4920792884816
 30
0.0
 11
825.3142708417602
 21
249.8920792884816
 31
0.0
  0
LINE
  5
387
102
{ACAD_REACTORS
330
4A0
102
}
330
1F
100
AcDbEntity
  8
実線
100
AcDbLine
 10
774.5142708417601
 20
249.8920792884816
 30
0.0
 11
825.3142708417602
 21
249.8920792884816
 31
0.0
  0
LINE
  5
388
102
{ACAD_REACTORS
330
4A0
102
}
330
1F
100
AcDbEntity
  8
実線
100
AcDbLine
 10
831.9142708417601
 20
244.5920792884816
 30
0.0
 11
831.9142708417601
 21
247.4920792884816
 31
0.0
  0
LINE
  5
389
102
{ACAD_REACTORS
330
4A0
102
}
330
1F
100
AcDbEntity
  8
実線
100
AcDbLine
 10
767.9142708417601
 20
247.4920792884816
 30
0.0
 11
767.9142708417601
 21
244.5920792884816
 31
0.0
  0
LINE
  5
38A
102
{ACAD_REACTORS
330
4A0
102
}
330
1F
100
AcDbEntity
  8
実線
100
AcDbLine
 10
831.9142708417601
 20
244.5920792884816
 30
0.0
 11
767.9142708417601
 21
244.5920792884816
 31
0.0
  0
LINE
  5
38B
102
{ACAD_REACTORS
330
4A0
102
}
330
1F
100
AcDbEntity
  8
実線
100
AcDbLine
 10
831.9142708417601
 20
247.4920792884816
 30
0.0
 11
767.9142708417601
 21
247.4920792884816
 31
0.0
  0
LINE
  5
38C
102
{ACAD_REACTORS
330
4A0
102
}
330
1F
100
AcDbEntity
  8
実線
100
AcDbLine
 10
876.6142708417602
 20
351.9920792884815
 30
0.0
 11
856.4174364338159
 21
351.9920792884815
 31
0.0
  0
LINE
  5
38D
102
{ACAD_REACTORS
330
4A0
102
}
330
1F
100
AcDbEntity
  8
実線
100
AcDbLine
 10
841.7015074282531
 20
301.1920792884816
 30
0.0
 11
876.6142708417602
 21
301.1920792884816
 31
0.0
  0
LINE
  5
38E
102
{ACAD_REACTORS
330
4A0
102
}
330
1F
100
AcDbEntity
  8
実線
100
AcDbLine
 10
876.6142708417602
 20
301.1920792884816
 30
0.0
 11
879.0142708417603
 21
294.5920792884816
 31
0.0
  0
LINE
  5
38F
102
{ACAD_REACTORS
330
4A0
102
}
330
1F
100
AcDbEntity
  8
実線
100
AcDbLine
 10
879.0142708417603
 20
358.5920792884816
 30
0.0
 11
876.6142708417602
 21
351.9920792884815
 31
0.0
  0
LINE
  5
390
102
{ACAD_REACTORS
330
4A0
102
}
330
1F
100
AcDbEntity
  8
実線
100
AcDbLine
 10
876.6142708417602
 20
301.1920792884816
 30
0.0
 11
876.6142708417602
 21
351.9920792884815
 31
0.0
  0
LINE
  5
391
102
{ACAD_REACTORS
330
4A0
102
}
330
1F
100
AcDbEntity
  8
実線
100
AcDbLine
 10
881.9142708417603
 20
358.5920792884816
 30
0.0
 11
879.0142708417603
 21
358.5920792884816
 31
0.0
  0
LINE
  5
392
102
{ACAD_REACTORS
330
4A0
102
}
330
1F
100
AcDbEntity
  8
実線
100
AcDbLine
 10
879.0142708417603
 20
294.5920792884816
 30
0.0
 11
881.9142708417603
 21
294.5920792884816
 31
0.0
  0
LINE
  5
393
102
{ACAD_REACTORS
330
4A0
102
}
330
1F
100
AcDbEntity
  8
実線
100
AcDbLine
 10
881.9142708417603
 20
358.5920792884816
 30
0.0
 11
881.9142708417603
 21
294.5920792884816
 31
0.0
  0
LINE
  5
394
102
{ACAD_REACTORS
330
4A0
102
}
330
1F
100
AcDbEntity
  8
実線
100
AcDbLine
 10
879.0142708417603
 20
358.5920792884816
 30
0.0
 11
879.0142708417603
 21
294.5920792884816
 31
0.0
  0
LINE
  5
395
102
{ACAD_REACTORS
330
4A0
102
}
330
1F
100
AcDbEntity
  8
実線
100
AcDbLine
 10
723.2142708417601
 20
301.1920792884816
 30
0.0
 11
758.1270342552662
 21
301.1920792884816
 31
0.0
  0
LINE
  5
396
102
{ACAD_REACTORS
330
4A0
102
}
330
1F
100
AcDbEntity
  8
実線
100
AcDbLine
 10
743.4111052497041
 20
351.9920792884815
 30
0.0
 11
723.2142708417601
 21
351.9920792884815
 31
0.0
  0
LINE
  5
397
102
{ACAD_REACTORS
330
4A0
102
}
330
1F
100
AcDbEntity
  8
実線
100
AcDbLine
 10
717.9142708417601
 20
358.5920792884816
 30
0.0
 11
717.9142708417601
 21
294.5920792884816
 31
0.0
  0
LINE
  5
398
102
{ACAD_REACTORS
330
4A0
102
}
330
1F
100
AcDbEntity
  8
実線
100
AcDbLine
 10
717.9142708417601
 20
294.5920792884816
 30
0.0
 11
720.8142708417603
 21
294.5920792884816
 31
0.0
  0
LINE
  5
399
102
{ACAD_REACTORS
330
4A0
102
}
330
1F
100
AcDbEntity
  8
実線
100
AcDbLine
 10
720.8142708417603
 20
358.5920792884816
 30
0.0
 11
717.9142708417601
 21
358.5920792884816
 31
0.0
  0
LINE
  5
39A
102
{ACAD_REACTORS
330
4A0
102
}
330
1F
100
AcDbEntity
  8
実線
100
AcDbLine
 10
720.8142708417603
 20
358.5920792884816
 30
0.0
 11
720.8142708417603
 21
294.5920792884816
 31
0.0
  0
LINE
  5
39B
102
{ACAD_REACTORS
330
4A0
102
}
330
1F
100
AcDbEntity
  8
実線
100
AcDbLine
 10
723.2142708417601
 20
351.9920792884815
 30
0.0
 11
723.2142708417601
 21
301.1920792884816
 31
0.0
  0
LINE
  5
39C
102
{ACAD_REACTORS
330
4A0
102
}
330
1F
100
AcDbEntity
  8
実線
100
AcDbLine
 10
723.2142708417601
 20
351.9920792884815
 30
0.0
 11
720.8142708417603
 21
358.5920792884815
 31
0.0
  0
LINE
  5
39D
102
{ACAD_REACTORS
330
4A0
102
}
330
1F
100
AcDbEntity
  8
実線
100
AcDbLine
 10
720.8142708417603
 20
294.5920792884816
 30
0.0
 11
723.2142708417601
 21
301.1920792884816
 31
0.0
  0
LINE
  5
39E
102
{ACAD_REACTORS
330
4A0
102
}
330
1F
100
AcDbEntity
  8
実線
100
AcDbLine
 10
848.9142708417602
 20
381.5920792884813
 30
0.0
 11
848.9142708417602
 21
616.8920792884814
 31
0.0
  0
LINE
  5
39F
102
{ACAD_REACTORS
330
4A0
102
}
330
1F
100
AcDbEntity
  8
実線
100
AcDbLine
 10
750.9142708417601
 20
616.8920792884814
 30
0.0
 11
750.9142708417601
 21
381.5920792884813
 31
0.0
  0
LINE
  5
3A0
102
{ACAD_REACTORS
330
4A0
102
}
330
1F
100
AcDbEntity
  8
実線
100
AcDbLine
 10
848.9142708417602
 20
381.5920792884813
 30
0.0
 11
750.9142708417601
 21
381.5920792884813
 31
0.0
  0
LINE
  5
3A1
102
{ACAD_REACTORS
330
4A0
102
}
330
1F
100
AcDbEntity
  8
実線
100
AcDbLine
 10
785.9142708417602
 20
660.8920792884815
 30
0.0
 11
813.9142708417601
 21
660.8920792884815
 31
0.0
  0
LINE
  5
3A2
102
{ACAD_REACTORS
330
4A0
102
}
330
1F
100
AcDbEntity
  8
実線
100
AcDbLine
 10
813.9142708417601
 20
650.8920792884817
 30
0.0
 11
813.9142708417601
 21
660.8920792884815
 31
0.0
  0
LINE
  5
3A3
102
{ACAD_REACTORS
330
4A0
102
}
330
1F
100
AcDbEntity
  8
実線
100
AcDbLine
 10
785.9142708417602
 20
660.8920792884815
 30
0.0
 11
785.9142708417602
 21
650.8920792884817
 31
0.0
  0
LINE
  5
3A4
102
{ACAD_REACTORS
330
4A0
102
}
330
1F
100
AcDbEntity
  8
実線
100
AcDbLine
 10
813.9142708417601
 20
650.8920792884817
 30
0.0
 11
785.9142708417602
 21
650.8920792884817
 31
0.0
  0
LINE
  5
3A5
102
{ACAD_REACTORS
330
4A0
102
}
330
1F
100
AcDbEntity
  8
実線
100
AcDbLine
 10
785.3142708417602
 20
655.8420792884817
 30
0.0
 11
785.3142708417602
 21
647.9420792884816
 31
0.0
  0
LINE
  5
3A6
102
{ACAD_REACTORS
330
4A0
102
}
330
1F
100
AcDbEntity
  8
実線
100
AcDbLine
 10
777.4142708417602
 20
655.8420792884817
 30
0.0
 11
785.3142708417602
 21
655.8420792884817
 31
0.0
  0
LINE
  5
3A7
102
{ACAD_REACTORS
330
4A0
102
}
330
1F
100
AcDbEntity
  8
実線
100
AcDbLine
 10
785.3142708417602
 20
647.9420792884816
 30
0.0
 11
777.4142708417602
 21
647.9420792884816
 31
0.0
  0
LINE
  5
3A8
102
{ACAD_REACTORS
330
4A0
102
}
330
1F
100
AcDbEntity
  8
実線
100
AcDbLine
 10
777.4142708417602
 20
635.8420792884812
 30
0.0
 11
785.3142708417602
 21
635.8420792884812
 31
0.0
  0
LINE
  5
3A9
102
{ACAD_REACTORS
330
4A0
102
}
330
1F
100
AcDbEntity
  8
実線
100
AcDbLine
 10
785.3142708417602
 20
635.8420792884812
 30
0.0
 11
785.3142708417602
 21
627.9420792884813
 31
0.0
  0
LINE
  5
3AA
102
{ACAD_REACTORS
330
4A0
102
}
330
1F
100
AcDbEntity
  8
実線
100
AcDbLine
 10
785.3142708417602
 20
627.9420792884816
 30
0.0
 11
777.4142708417602
 21
627.9420792884816
 31
0.0
  0
CIRCLE
  5
3AB
102
{ACAD_REACTORS
330
4A0
102
}
330
1F
100
AcDbEntity
  8
実線
100
AcDbCircle
 10
781.3642708417602
 20
631.8920792884815
 30
0.0
 40
1.5
  0
CIRCLE
  5
3AC
102
{ACAD_REACTORS
330
4A0
102
}
330
1F
100
AcDbEntity
  8
実線
100
AcDbCircle
 10
781.3642708417602
 20
651.8920792884814
 30
0.0
 40
1.5
  0
LINE
  5
3AD
102
{ACAD_REACTORS
330
4A0
102
}
330
1F
100
AcDbEntity
  8
実線
100
AcDbLine
 10
810.9142708417602
 20
621.8920792884817
 30
0.0
 11
810.9142708417602
 21
650.8920792884817
 31
0.0
  0
LINE
  5
3AE
102
{ACAD_REACTORS
330
4A0
102
}
330
1F
100
AcDbEntity
  8
実線
100
AcDbLine
 10
788.9142708417602
 20
650.8920792884817
 30
0.0
 11
788.9142708417602
 21
621.8920792884817
 31
0.0
  0
LINE
  5
3AF
102
{ACAD_REACTORS
330
4A0
102
}
330
1F
100
AcDbEntity
  8
実線
100
AcDbLine
 10
756.4142708417602
 20
623.0920792884813
 30
0.0
 11
785.4142708417602
 21
623.0920792884813
 31
0.0
  0
LINE
  5
3B0
102
{ACAD_REACTORS
330
4A0
102
}
330
1F
100
AcDbEntity
  8
実線
100
AcDbLine
 10
756.4142708417602
 20
621.8920792884817
 30
0.0
 11
756.4142708417602
 21
623.0920792884813
 31
0.0
  0
LINE
  5
3B1
102
{ACAD_REACTORS
330
4A0
102
}
330
1F
100
AcDbEntity
  8
実線
100
AcDbLine
 10
776.2142708417601
 20
661.8920792884814
 30
0.0
 11
776.2142708417601
 21
621.8920792884817
 31
0.0
  0
LINE
  5
3B2
102
{ACAD_REACTORS
330
4A0
102
}
330
1F
100
AcDbEntity
  8
実線
100
AcDbLine
 10
777.4142708417602
 20
661.8920792884814
 30
0.0
 11
776.2142708417601
 21
661.8920792884814
 31
0.0
  0
LINE
  5
3B3
102
{ACAD_REACTORS
330
4A0
102
}
330
1F
100
AcDbEntity
  8
実線
100
AcDbLine
 10
777.4142708417602
 20
623.0920792884813
 30
0.0
 11
777.4142708417602
 21
661.8920792884814
 31
0.0
  0
LINE
  5
3B4
102
{ACAD_REACTORS
330
4A0
102
}
330
1F
100
AcDbEntity
  8
実線
100
AcDbLine
 10
785.4142708417602
 20
621.8920792884817
 30
0.0
 11
785.4142708417602
 21
623.0920792884813
 31
0.0
  0
LINE
  5
3B5
102
{ACAD_REACTORS
330
4A0
102
}
330
1F
100
AcDbEntity
  8
実線
100
AcDbLine
 10
843.9142708417602
 20
621.8920792884817
 30
0.0
 11
755.9142708417602
 21
621.8920792884817
 31
0.0
  0
LINE
  5
3B6
102
{ACAD_REACTORS
330
4A0
102
}
330
1F
100
AcDbEntity
  8
実線
100
AcDbLine
 10
848.9142708417602
 20
616.8920792884814
 30
0.0
 11
750.9142708417601
 21
616.8920792884814
 31
0.0
  0
ARC
  5
3B7
102
{ACAD_REACTORS
330
4A0
102
}
330
1F
100
AcDbEntity
  8
実線
100
AcDbCircle
 10
843.9142708417602
 20
616.8920792884814
 30
0.0
 40
5.0
100
AcDbArc
 50
0.0
 51
90.0
  0
ARC
  5
3B8
102
{ACAD_REACTORS
330
4A0
102
}
330
1F
100
AcDbEntity
  8
実線
100
AcDbCircle
 10
755.9142708417602
 20
616.8920792884814
 30
0.0
 40
5.0
100
AcDbArc
 50
90.0
 51
180.0
  0
LINE
  5
3B9
102
{ACAD_REACTORS
330
4A0
102
}
330
1F
100
AcDbEntity
  8
実線
100
AcDbLine
 10
831.9142708417601
 20
298.0920792884816
 30
0.0
 11
767.9142708417601
 21
298.0920792884816
 31
0.0
  0
ARC
  5
3BA
102
{ACAD_REACTORS
330
4A0
102
}
330
1F
100
AcDbEntity
  8
実線
100
AcDbCircle
 10
767.9142708417601
 20
315.0920792884816
 30
0.0
 40
17.0
100
AcDbArc
 50
234.8499442294396
 51
270.0
  0
ARC
  5
3BB
102
{ACAD_REACTORS
330
4A0
102
}
330
1F
100
AcDbEntity
  8
実線
100
AcDbCircle
 10
831.9142708417601
 20
315.0920792884816
 30
0.0
 40
17.0
100
AcDbArc
 50
270.0
 51
305.1500557705604
  0
LINE
  5
3BC
102
{ACAD_REACTORS
330
4A0
102
}
330
1F
100
AcDbEntity
  8
実線
100
AcDbLine
 10
743.4111052497041
 20
361.5920792884816
 30
0.0
 11
856.4174364338159
 21
361.5920792884816
 31
0.0
  0
LINE
  5
3BD
102
{ACAD_REACTORS
330
4A0
102
}
330
1F
100
AcDbEntity
  8
実線
100
AcDbLine
 10
856.4174364338159
 20
346.5920792884815
 30
0.0
 11
822.2925141289032
 21
346.5920792884815
 31
0.0
  0
LINE
  5
3BE
102
{ACAD_REACTORS
330
4A0
102
}
330
1F
100
AcDbEntity
  8
実線
100
AcDbLine
 10
856.4174364338159
 20
346.5920792884815
 30
0.0
 11
856.4174364338159
 21
361.5920792884816
 31
0.0
  0
LINE
  5
3BF
102
{ACAD_REACTORS
330
4A0
102
}
330
1F
100
AcDbEntity
  8
実線
100
AcDbLine
 10
743.4111052497041
 20
361.5920792884816
 30
0.0
 11
743.4111052497041
 21
346.5920792884815
 31
0.0
  0
LINE
  5
3C0
102
{ACAD_REACTORS
330
4A0
102
}
330
1F
100
AcDbEntity
  8
実線
100
AcDbLine
 10
743.4111052497041
 20
346.5920792884815
 30
0.0
 11
777.5360275546162
 21
346.5920792884815
 31
0.0
  0
LINE
  5
3C1
102
{ACAD_REACTORS
330
4A0
102
}
330
1F
100
AcDbEntity
  8
実線
100
AcDbLine
 10
777.5360275546162
 20
361.5920792884816
 30
0.0
 11
777.5360275546162
 21
346.5920792884815
 31
0.0
  0
LINE
  5
3C2
102
{ACAD_REACTORS
330
4A0
102
}
330
1F
100
AcDbEntity
  8
実線
100
AcDbLine
 10
822.2925141289032
 20
361.5920792884816
 30
0.0
 11
822.2925141289032
 21
346.5920792884815
 31
0.0
  0
LINE
  5
3C3
102
{ACAD_REACTORS
330
4A0
102
}
330
1F
100
AcDbEntity
  8
実線
100
AcDbLine
 10
750.9142708417601
 20
381.5920792884815
 30
0.0
 11
750.9142708417601
 21
376.5920792884815
 31
0.0
  0
LINE
  5
3C4
102
{ACAD_REACTORS
330
4A0
102
}
330
1F
100
AcDbEntity
  8
実線
100
AcDbLine
 10
848.9142708417602
 20
376.5920792884815
 30
0.0
 11
848.9142708417602
 21
381.5920792884815
 31
0.0
  0
LINE
  5
3C5
102
{ACAD_REACTORS
330
4A0
102
}
330
1F
100
AcDbEntity
  8
実線
100
AcDbLine
 10
856.4174364338159
 20
376.5920792884815
 30
0.0
 11
822.2925141289032
 21
376.5920792884815
 31
0.0
  0
LINE
  5
3C6
102
{ACAD_REACTORS
330
4A0
102
}
330
1F
100
AcDbEntity
  8
実線
100
AcDbLine
 10
856.4174364338159
 20
361.5920792884816
 30
0.0
 11
856.4174364338159
 21
376.5920792884815
 31
0.0
  0
LINE
  5
3C7
102
{ACAD_REACTORS
330
4A0
102
}
330
1F
100
AcDbEntity
  8
実線
100
AcDbLine
 10
743.4111052497041
 20
376.5920792884815
 30
0.0
 11
743.4111052497041
 21
361.5920792884816
 31
0.0
  0
LINE
  5
3C8
102
{ACAD_REACTORS
330
4A0
102
}
330
1F
100
AcDbEntity
  8
実線
100
AcDbLine
 10
743.4111052497041
 20
376.5920792884815
 30
0.0
 11
777.5360275546162
 21
376.5920792884815
 31
0.0
  0
LINE
  5
3C9
102
{ACAD_REACTORS
330
4A0
102
}
330
1F
100
AcDbEntity
  8
実線
100
AcDbLine
 10
777.5360275546162
 20
376.5920792884815
 30
0.0
 11
777.5360275546162
 21
361.5920792884816
 31
0.0
  0
LINE
  5
3CA
102
{ACAD_REACTORS
330
4A0
102
}
330
1F
100
AcDbEntity
  8
実線
100
AcDbLine
 10
822.2925141289032
 20
376.5920792884815
 30
0.0
 11
822.2925141289032
 21
361.5920792884816
 31
0.0
  0
LINE
  5
3CB
102
{ACAD_REACTORS
330
4A1
102
}
330
1F
100
AcDbEntity
  8
実線
100
AcDbLine
 10
585.31427084176
 20
249.8920792884815
 30
0.0
 11
585.31427084176
 21
298.0920792884815
 31
0.0
  0
LINE
  5
3CC
102
{ACAD_REACTORS
330
4A1
102
}
330
1F
100
AcDbEntity
  8
実線
100
AcDbLine
 10
534.5142708417601
 20
298.0920792884815
 30
0.0
 11
534.5142708417601
 21
249.8920792884815
 31
0.0
  0
LINE
  5
3CD
102
{ACAD_REACTORS
330
4A1
102
}
330
1F
100
AcDbEntity
  8
実線
100
AcDbLine
 10
591.9142708417601
 20
244.5920792884815
 30
0.0
 11
591.9142708417601
 21
247.4920792884815
 31
0.0
  0
LINE
  5
3CE
102
{ACAD_REACTORS
330
4A1
102
}
330
1F
100
AcDbEntity
  8
実線
100
AcDbLine
 10
527.9142708417602
 20
247.4920792884815
 30
0.0
 11
527.9142708417602
 21
244.5920792884815
 31
0.0
  0
LINE
  5
3CF
102
{ACAD_REACTORS
330
4A1
102
}
330
1F
100
AcDbEntity
  8
実線
100
AcDbLine
 10
527.9142708417602
 20
244.5920792884815
 30
0.0
 11
591.9142708417601
 21
244.5920792884815
 31
0.0
  0
LINE
  5
3D0
102
{ACAD_REACTORS
330
4A1
102
}
330
1F
100
AcDbEntity
  8
実線
100
AcDbLine
 10
534.5142708417601
 20
249.8920792884815
 30
0.0
 11
527.9142708417602
 21
247.4920792884815
 31
0.0
  0
LINE
  5
3D1
102
{ACAD_REACTORS
330
4A1
102
}
330
1F
100
AcDbEntity
  8
実線
100
AcDbLine
 10
591.9142708417601
 20
247.4920792884815
 30
0.0
 11
585.31427084176
 21
249.8920792884815
 31
0.0
  0
LINE
  5
3D2
102
{ACAD_REACTORS
330
4A1
102
}
330
1F
100
AcDbEntity
  8
実線
100
AcDbLine
 10
527.9142708417602
 20
247.4920792884815
 30
0.0
 11
591.9142708417601
 21
247.4920792884815
 31
0.0
  0
LINE
  5
3D3
102
{ACAD_REACTORS
330
4A1
102
}
330
1F
100
AcDbEntity
  8
実線
100
AcDbLine
 10
534.5142708417601
 20
249.8920792884815
 30
0.0
 11
585.31427084176
 21
249.8920792884815
 31
0.0
  0
CIRCLE
  5
3D4
102
{ACAD_REACTORS
330
4A1
102
}
330
1F
100
AcDbEntity
  8
実線
100
AcDbCircle
 10
559.9142708417601
 20
326.5920792884815
 30
0.0
 40
32.0
  0
LINE
  5
3D5
102
{ACAD_REACTORS
330
4A1
102
}
330
1F
100
AcDbEntity
  8
実線
100
AcDbLine
 10
608.9142708417601
 20
616.8920792884814
 30
0.0
 11
510.9142708417602
 21
616.8920792884814
 31
0.0
  0
LINE
  5
3D6
102
{ACAD_REACTORS
330
4A1
102
}
330
1F
100
AcDbEntity
  8
実線
100
AcDbLine
 10
510.9142708417602
 20
381.5920792884813
 30
0.0
 11
608.9142708417601
 21
381.5920792884813
 31
0.0
  0
LINE
  5
3D7
102
{ACAD_REACTORS
330
4A1
102
}
330
1F
100
AcDbEntity
  8
実線
100
AcDbLine
 10
608.9142708417601
 20
381.5920792884813
 30
0.0
 11
608.9142708417601
 21
616.8920792884814
 31
0.0
  0
LINE
  5
3D8
102
{ACAD_REACTORS
330
4A1
102
}
330
1F
100
AcDbEntity
  8
実線
100
AcDbLine
 10
510.9142708417602
 20
616.8920792884814
 30
0.0
 11
510.9142708417602
 21
381.5920792884813
 31
0.0
  0
LINE
  5
3D9
102
{ACAD_REACTORS
330
4A1
102
}
330
1F
100
AcDbEntity
  8
実線
100
AcDbLine
 10
552.9142708417601
 20
660.8920792884815
 30
0.0
 11
545.9142708417604
 21
660.8920792884815
 31
0.0
  0
LINE
  5
3DA
102
{ACAD_REACTORS
330
4A1
102
}
330
1F
100
AcDbEntity
  8
実線
100
AcDbLine
 10
545.9142708417604
 20
650.8920792884815
 30
0.0
 11
552.9142708417601
 21
650.8920792884815
 31
0.0
  0
LINE
  5
3DB
102
{ACAD_REACTORS
330
4A1
102
}
330
1F
100
AcDbEntity
  8
実線
100
AcDbLine
 10
545.9142708417604
 20
660.8920792884815
 30
0.0
 11
545.9142708417604
 21
650.8920792884815
 31
0.0
  0
LINE
  5
3DC
102
{ACAD_REACTORS
330
4A1
102
}
330
1F
100
AcDbEntity
  8
実線
100
AcDbLine
 10
584.4142708417604
 20
633.3920792884814
 30
0.0
 11
584.4142708417604
 21
630.3920792884814
 31
0.0
  0
LINE
  5
3DD
102
{ACAD_REACTORS
330
4A1
102
}
330
1F
100
AcDbEntity
  8
実線
100
AcDbLine
 10
579.9142708417604
 20
630.3920792884814
 30
0.0
 11
584.4142708417604
 21
630.3920792884814
 31
0.0
  0
LINE
  5
3DE
102
{ACAD_REACTORS
330
4A1
102
}
330
1F
100
AcDbEntity
  8
実線
100
AcDbLine
 10
584.4142708417604
 20
633.3920792884814
 30
0.0
 11
579.9142708417604
 21
633.3920792884814
 31
0.0
  0
LINE
  5
3DF
102
{ACAD_REACTORS
330
4A1
102
}
330
1F
100
AcDbEntity
  8
実線
100
AcDbLine
 10
584.4142708417604
 20
653.3920792884814
 30
0.0
 11
584.4142708417604
 21
650.3920792884815
 31
0.0
  0
LINE
  5
3E0
102
{ACAD_REACTORS
330
4A1
102
}
330
1F
100
AcDbEntity
  8
実線
100
AcDbLine
 10
579.9142708417604
 20
650.3920792884815
 30
0.0
 11
584.4142708417604
 21
650.3920792884815
 31
0.0
  0
LINE
  5
3E1
102
{ACAD_REACTORS
330
4A1
102
}
330
1F
100
AcDbEntity
  8
実線
100
AcDbLine
 10
584.4142708417604
 20
653.3920792884814
 30
0.0
 11
579.9142708417604
 21
653.3920792884814
 31
0.0
  0
LINE
  5
3E2
102
{ACAD_REACTORS
330
4A1
102
}
330
1F
100
AcDbEntity
  8
実線
100
AcDbLine
 10
548.9142708417602
 20
650.8920792884815
 30
0.0
 11
548.9142708417602
 21
621.8920792884816
 31
0.0
  0
LINE
  5
3E3
102
{ACAD_REACTORS
330
4A1
102
}
330
1F
100
AcDbEntity
  8
実線
100
AcDbLine
 10
552.9142708417601
 20
661.8920792884814
 30
0.0
 11
552.9142708417601
 21
621.8920792884816
 31
0.0
  0
LINE
  5
3E4
102
{ACAD_REACTORS
330
4A1
102
}
330
1F
100
AcDbEntity
  8
実線
100
AcDbLine
 10
579.9142708417604
 20
623.0920792884811
 30
0.0
 11
579.9142708417604
 21
661.8920792884814
 31
0.0
  0
LINE
  5
3E5
102
{ACAD_REACTORS
330
4A1
102
}
330
1F
100
AcDbEntity
  8
実線
100
AcDbLine
 10
579.9142708417604
 20
661.8920792884814
 30
0.0
 11
552.9142708417601
 21
661.8920792884814
 31
0.0
  0
LINE
  5
3E6
102
{ACAD_REACTORS
330
4A1
102
}
330
1F
100
AcDbEntity
  8
実線
100
AcDbLine
 10
594.9142708417603
 20
621.8920792884816
 30
0.0
 11
594.9142708417603
 21
623.0920792884811
 31
0.0
  0
LINE
  5
3E7
102
{ACAD_REACTORS
330
4A1
102
}
330
1F
100
AcDbEntity
  8
実線
100
AcDbLine
 10
594.9142708417603
 20
623.0920792884811
 30
0.0
 11
579.9142708417604
 21
623.0920792884811
 31
0.0
  0
LINE
  5
3E8
102
{ACAD_REACTORS
330
4A1
102
}
330
1F
100
AcDbEntity
  8
実線
100
AcDbLine
 10
562.9142708417604
 20
621.8920792884816
 30
0.0
 11
562.9142708417604
 21
623.0920792884811
 31
0.0
  0
LINE
  5
3E9
102
{ACAD_REACTORS
330
4A1
102
}
330
1F
100
AcDbEntity
  8
実線
100
AcDbLine
 10
562.9142708417604
 20
623.0920792884811
 30
0.0
 11
552.9142708417601
 21
623.0920792884811
 31
0.0
  0
LINE
  5
3EA
102
{ACAD_REACTORS
330
4A1
102
}
330
1F
100
AcDbEntity
  8
実線
100
AcDbLine
 10
552.9142708417601
 20
621.8920792884816
 30
0.0
 11
553.2998925640987
 21
621.8920792884816
 31
0.0
  0
LINE
  5
3EB
102
{ACAD_REACTORS
330
4A1
102
}
330
1F
100
AcDbEntity
  8
実線
100
AcDbLine
 10
553.2998925640987
 20
621.8920792884816
 30
0.0
 11
603.9142708417604
 21
621.8920792884816
 31
0.0
  0
LINE
  5
3EC
102
{ACAD_REACTORS
330
4A1
102
}
330
1F
100
AcDbEntity
  8
実線
100
AcDbLine
 10
515.9142708421588
 20
621.8920792884816
 30
0.0
 11
552.9142708417601
 21
621.8920792884816
 31
0.0
  0
ARC
  5
3ED
102
{ACAD_REACTORS
330
4A1
102
}
330
1F
100
AcDbEntity
  8
実線
100
AcDbCircle
 10
603.9142708417604
 20
616.8920792884814
 30
0.0
 40
5.0
100
AcDbArc
 50
0.0
 51
90.0
  0
ARC
  5
3EE
102
{ACAD_REACTORS
330
4A1
102
}
330
1F
100
AcDbEntity
  8
実線
100
AcDbCircle
 10
515.9142708417602
 20
616.8920792884814
 30
0.0
 40
5.0
100
AcDbArc
 50
90.0
 51
180.0
  0
LINE
  5
3EF
102
{ACAD_REACTORS
330
4A1
102
}
330
1F
100
AcDbEntity
  8
実線
100
AcDbLine
 10
616.4174364338162
 20
361.5920792884815
 30
0.0
 11
503.4111052497044
 21
361.5920792884815
 31
0.0
  0
LINE
  5
3F0
102
{ACAD_REACTORS
330
4A1
102
}
330
1F
100
AcDbEntity
  8
実線
100
AcDbLine
 10
510.9142708417602
 20
346.5920792884814
 30
0.0
 11
510.9142708417602
 21
315.0920792884815
 31
0.0
  0
LINE
  5
3F1
102
{ACAD_REACTORS
330
4A1
102
}
330
1F
100
AcDbEntity
  8
実線
100
AcDbLine
 10
608.9142708417601
 20
315.0920792884815
 30
0.0
 11
608.9142708417601
 21
346.5920792884814
 31
0.0
  0
LINE
  5
3F2
102
{ACAD_REACTORS
330
4A1
102
}
330
1F
100
AcDbEntity
  8
実線
100
AcDbLine
 10
545.3626386309052
 20
298.0920792884815
 30
0.0
 11
527.9142708417602
 21
298.0920792884815
 31
0.0
  0
LINE
  5
3F3
102
{ACAD_REACTORS
330
4A1
102
}
330
1F
100
AcDbEntity
  8
実線
100
AcDbLine
 10
591.9142708417601
 20
298.0920792884815
 30
0.0
 11
574.4659030526157
 21
298.0920792884815
 31
0.0
  0
ARC
  5
3F4
102
{ACAD_REACTORS
330
4A1
102
}
330
1F
100
AcDbEntity
  8
実線
100
AcDbCircle
 10
527.9142708417602
 20
315.0920792884815
 30
0.0
 40
17.0
100
AcDbArc
 50
180.0
 51
270.0
  0
ARC
  5
3F5
102
{ACAD_REACTORS
330
4A1
102
}
330
1F
100
AcDbEntity
  8
実線
100
AcDbCircle
 10
591.9142708417601
 20
315.0920792884815
 30
0.0
 40
17.0
100
AcDbArc
 50
270.0
 51
0.0
  0
LINE
  5
3F6
102
{ACAD_REACTORS
330
4A1
102
}
330
1F
100
AcDbEntity
  8
実線
100
AcDbLine
 10
503.4111052497044
 20
361.5920792884815
 30
0.0
 11
503.4111052497044
 21
346.5920792884814
 31
0.0
  0
LINE
  5
3F7
102
{ACAD_REACTORS
330
4A1
102
}
330
1F
100
AcDbEntity
  8
実線
100
AcDbLine
 10
503.4111052497044
 20
346.5920792884814
 30
0.0
 11
534.9342788481667
 21
346.5920792884814
 31
0.0
  0
LINE
  5
3F8
102
{ACAD_REACTORS
330
4A1
102
}
330
1F
100
AcDbEntity
  8
実線
100
AcDbLine
 10
616.4174364338162
 20
346.5920792884814
 30
0.0
 11
584.8942628353539
 21
346.5920792884814
 31
0.0
  0
LINE
  5
3F9
102
{ACAD_REACTORS
330
4A1
102
}
330
1F
100
AcDbEntity
  8
実線
100
AcDbLine
 10
616.4174364338162
 20
346.5920792884814
 30
0.0
 11
616.4174364338162
 21
361.5920792884815
 31
0.0
  0
LINE
  5
3FA
102
{ACAD_REACTORS
330
4A1
102
}
330
1F
100
AcDbEntity
  8
実線
100
AcDbLine
 10
582.2925141289033
 20
361.5920792884815
 30
0.0
 11
582.2925141289033
 21
349.4659558156781
 31
0.0
  0
LINE
  5
3FB
102
{ACAD_REACTORS
330
4A1
102
}
330
1F
100
AcDbEntity
  8
実線
100
AcDbLine
 10
537.5360275546172
 20
361.5920792884815
 30
0.0
 11
537.5360275546172
 21
349.4659558156781
 31
0.0
  0
LINE
  5
3FC
102
{ACAD_REACTORS
330
4A1
102
}
330
1F
100
AcDbEntity
  8
実線
100
AcDbLine
 10
510.9142708417602
 20
381.5920792884815
 30
0.0
 11
510.9142708417602
 21
376.5920792884815
 31
0.0
  0
LINE
  5
3FD
102
{ACAD_REACTORS
330
4A1
102
}
330
1F
100
AcDbEntity
  8
実線
100
AcDbLine
 10
608.9142708417601
 20
376.5920792884815
 30
0.0
 11
608.9142708417601
 21
381.5920792884815
 31
0.0
  0
LINE
  5
3FE
102
{ACAD_REACTORS
330
4A1
102
}
330
1F
100
AcDbEntity
  8
実線
100
AcDbLine
 10
503.4111052497044
 20
376.5920792884815
 30
0.0
 11
503.4111052497044
 21
361.5920792884815
 31
0.0
  0
LINE
  5
3FF
102
{ACAD_REACTORS
330
4A1
102
}
330
1F
100
AcDbEntity
  8
実線
100
AcDbLine
 10
503.4111052497044
 20
376.5920792884815
 30
0.0
 11
537.5360275546172
 21
376.5920792884815
 31
0.0
  0
LINE
  5
400
102
{ACAD_REACTORS
330
4A1
102
}
330
1F
100
AcDbEntity
  8
実線
100
AcDbLine
 10
616.4174364338162
 20
376.5920792884815
 30
0.0
 11
582.2925141289033
 21
376.5920792884815
 31
0.0
  0
LINE
  5
401
102
{ACAD_REACTORS
330
4A1
102
}
330
1F
100
AcDbEntity
  8
実線
100
AcDbLine
 10
616.4174364338162
 20
361.5920792884815
 30
0.0
 11
616.4174364338162
 21
376.5920792884815
 31
0.0
  0
LINE
  5
402
102
{ACAD_REACTORS
330
4A1
102
}
330
1F
100
AcDbEntity
  8
実線
100
AcDbLine
 10
582.2925141289033
 20
376.5920792884815
 30
0.0
 11
582.2925141289033
 21
361.5920792884815
 31
0.0
  0
LINE
  5
403
102
{ACAD_REACTORS
330
4A1
102
}
330
1F
100
AcDbEntity
  8
実線
100
AcDbLine
 10
537.5360275546172
 20
376.5920792884815
 30
0.0
 11
537.5360275546172
 21
361.5920792884815
 31
0.0
  0
LINE
  5
404
102
{ACAD_REACTORS
330
4A3
102
}
330
1F
100
AcDbEntity
  8
実線
100
AcDbLine
 10
105.3142708417602
 20
249.8920792884815
 30
0.0
 11
105.3142708417602
 21
298.0920792884815
 31
0.0
  0
LINE
  5
405
102
{ACAD_REACTORS
330
4A3
102
}
330
1F
100
AcDbEntity
  8
実線
100
AcDbLine
 10
54.51427084176024
 20
298.0920792884815
 30
0.0
 11
54.51427084176024
 21
249.8920792884815
 31
0.0
  0
LINE
  5
406
102
{ACAD_REACTORS
330
4A3
102
}
330
1F
100
AcDbEntity
  8
実線
100
AcDbLine
 10
111.9142708417601
 20
244.5920792884815
 30
0.0
 11
47.91427084176024
 21
244.5920792884815
 31
0.0
  0
LINE
  5
407
102
{ACAD_REACTORS
330
4A3
102
}
330
1F
100
AcDbEntity
  8
実線
100
AcDbLine
 10
111.9142708417601
 20
244.5920792884815
 30
0.0
 11
111.9142708417601
 21
247.4920792884815
 31
0.0
  0
LINE
  5
408
102
{ACAD_REACTORS
330
4A3
102
}
330
1F
100
AcDbEntity
  8
実線
100
AcDbLine
 10
47.91427084176024
 20
247.4920792884815
 30
0.0
 11
47.91427084176024
 21
244.5920792884815
 31
0.0
  0
LINE
  5
409
102
{ACAD_REACTORS
330
4A3
102
}
330
1F
100
AcDbEntity
  8
実線
100
AcDbLine
 10
111.9142708417601
 20
247.4920792884815
 30
0.0
 11
47.91427084176024
 21
247.4920792884815
 31
0.0
  0
LINE
  5
40A
102
{ACAD_REACTORS
330
4A3
102
}
330
1F
100
AcDbEntity
  8
実線
100
AcDbLine
 10
105.3142708417602
 20
249.8920792884815
 30
0.0
 11
54.51427084176024
 21
249.8920792884815
 31
0.0
  0
LINE
  5
40B
102
{ACAD_REACTORS
330
4A3
102
}
330
1F
100
AcDbEntity
  8
実線
100
AcDbLine
 10
54.51427084176024
 20
249.8920792884815
 30
0.0
 11
47.91427084176024
 21
247.4920792884815
 31
0.0
  0
LINE
  5
40C
102
{ACAD_REACTORS
330
4A3
102
}
330
1F
100
AcDbEntity
  8
実線
100
AcDbLine
 10
111.9142708417601
 20
247.4920792884815
 30
0.0
 11
105.3142708417602
 21
249.8920792884815
 31
0.0
  0
CIRCLE
  5
40D
102
{ACAD_REACTORS
330
4A3
102
}
330
1F
100
AcDbEntity
  8
実線
100
AcDbCircle
 10
79.91427084176024
 20
326.5920792884815
 30
0.0
 40
32.0
  0
LINE
  5
40E
102
{ACAD_REACTORS
330
4A3
102
}
330
1F
100
AcDbEntity
  8
実線
100
AcDbLine
 10
128.9142708417603
 20
381.5920792884813
 30
0.0
 11
128.9142708417603
 21
616.8920792884814
 31
0.0
  0
LINE
  5
40F
102
{ACAD_REACTORS
330
4A3
102
}
330
1F
100
AcDbEntity
  8
実線
100
AcDbLine
 10
30.91427084176033
 20
616.8920792884814
 30
0.0
 11
30.91427084176033
 21
381.5920792884813
 31
0.0
  0
LINE
  5
410
102
{ACAD_REACTORS
330
4A3
102
}
330
1F
100
AcDbEntity
  8
実線
100
AcDbLine
 10
30.91427084176033
 20
381.5920792884813
 30
0.0
 11
128.9142708417603
 21
381.5920792884813
 31
0.0
  0
LINE
  5
411
102
{ACAD_REACTORS
330
4A3
102
}
330
1F
100
AcDbEntity
  8
実線
100
AcDbLine
 10
93.91427084176019
 20
650.8920792884815
 30
0.0
 11
93.91427084176019
 21
660.8920792884815
 31
0.0
  0
LINE
  5
412
102
{ACAD_REACTORS
330
4A3
102
}
330
1F
100
AcDbEntity
  8
実線
100
AcDbLine
 10
65.9142708417603
 20
660.8920792884815
 30
0.0
 11
65.9142708417603
 21
650.8920792884815
 31
0.0
  0
LINE
  5
413
102
{ACAD_REACTORS
330
4A3
102
}
330
1F
100
AcDbEntity
  8
実線
100
AcDbLine
 10
93.91427084176019
 20
660.8920792884815
 30
0.0
 11
65.9142708417603
 21
660.8920792884815
 31
0.0
  0
LINE
  5
414
102
{ACAD_REACTORS
330
4A3
102
}
330
1F
100
AcDbEntity
  8
実線
100
AcDbLine
 10
65.9142708417603
 20
650.8920792884815
 30
0.0
 11
93.91427084176019
 21
650.8920792884815
 31
0.0
  0
LINE
  5
415
102
{ACAD_REACTORS
330
4A3
102
}
330
1F
100
AcDbEntity
  8
実線
100
AcDbLine
 10
61.9142708417603
 20
655.8420792884816
 30
0.0
 11
61.9142708417603
 21
647.9420792884815
 31
0.0
  0
LINE
  5
416
102
{ACAD_REACTORS
330
4A3
102
}
330
1F
100
AcDbEntity
  8
実線
100
AcDbLine
 10
68.91427084176029
 20
647.9420792884815
 30
0.0
 11
61.9142708417603
 21
647.9420792884815
 31
0.0
  0
LINE
  5
417
102
{ACAD_REACTORS
330
4A3
102
}
330
1F
100
AcDbEntity
  8
実線
100
AcDbLine
 10
65.9142708417603
 20
655.8420792884816
 30
0.0
 11
61.9142708417603
 21
655.8420792884816
 31
0.0
  0
LINE
  5
418
102
{ACAD_REACTORS
330
4A3
102
}
330
1F
100
AcDbEntity
  8
実線
100
AcDbLine
 10
68.91427084176029
 20
635.8420792884812
 30
0.0
 11
61.9142708417603
 21
635.8420792884812
 31
0.0
  0
LINE
  5
419
102
{ACAD_REACTORS
330
4A3
102
}
330
1F
100
AcDbEntity
  8
実線
100
AcDbLine
 10
61.9142708417603
 20
635.8420792884812
 30
0.0
 11
61.9142708417603
 21
627.9420792884813
 31
0.0
  0
LINE
  5
41A
102
{ACAD_REACTORS
330
4A3
102
}
330
1F
100
AcDbEntity
  8
実線
100
AcDbLine
 10
68.91427084176029
 20
627.9420792884815
 30
0.0
 11
61.9142708417603
 21
627.9420792884815
 31
0.0
  0
LINE
  5
41B
102
{ACAD_REACTORS
330
4A3
102
}
330
1F
100
AcDbEntity
  8
実線
100
AcDbLine
 10
61.9142708417603
 20
633.3920792884814
 30
0.0
 11
55.41427084176032
 21
633.3920792884814
 31
0.0
  0
LINE
  5
41C
102
{ACAD_REACTORS
330
4A3
102
}
330
1F
100
AcDbEntity
  8
実線
100
AcDbLine
 10
55.41427084176032
 20
630.3920792884814
 30
0.0
 11
61.9142708417603
 21
630.3920792884814
 31
0.0
  0
LINE
  5
41D
102
{ACAD_REACTORS
330
4A3
102
}
330
1F
100
AcDbEntity
  8
実線
100
AcDbLine
 10
55.41427084176032
 20
633.3920792884814
 30
0.0
 11
55.41427084176032
 21
630.3920792884814
 31
0.0
  0
LINE
  5
41E
102
{ACAD_REACTORS
330
4A3
102
}
330
1F
100
AcDbEntity
  8
実線
100
AcDbLine
 10
61.9142708417603
 20
653.3920792884814
 30
0.0
 11
55.41427084176032
 21
653.3920792884814
 31
0.0
  0
LINE
  5
41F
102
{ACAD_REACTORS
330
4A3
102
}
330
1F
100
AcDbEntity
  8
実線
100
AcDbLine
 10
55.41427084176032
 20
650.3920792884815
 30
0.0
 11
61.9142708417603
 21
650.3920792884815
 31
0.0
  0
LINE
  5
420
102
{ACAD_REACTORS
330
4A3
102
}
330
1F
100
AcDbEntity
  8
実線
100
AcDbLine
 10
55.41427084176032
 20
653.3920792884814
 30
0.0
 11
55.41427084176032
 21
650.3920792884815
 31
0.0
  0
LINE
  5
421
102
{ACAD_REACTORS
330
4A3
102
}
330
1F
100
AcDbEntity
  8
実線
100
AcDbLine
 10
90.91427084176018
 20
621.8920792884816
 30
0.0
 11
90.91427084176018
 21
650.8920792884815
 31
0.0
  0
LINE
  5
422
102
{ACAD_REACTORS
330
4A3
102
}
330
1F
100
AcDbEntity
  8
実線
100
AcDbLine
 10
68.91427084176029
 20
650.8920792884815
 30
0.0
 11
68.91427084176029
 21
621.8920792884816
 31
0.0
  0
LINE
  5
423
102
{ACAD_REACTORS
330
4A3
102
}
330
1F
100
AcDbEntity
  8
実線
100
AcDbLine
 10
86.91427084176025
 20
660.8920792884815
 30
0.0
 11
86.91427084176025
 21
661.8920792884814
 31
0.0
  0
LINE
  5
424
102
{ACAD_REACTORS
330
4A3
102
}
330
1F
100
AcDbEntity
  8
実線
100
AcDbLine
 10
86.91427084176025
 20
661.8920792884814
 30
0.0
 11
59.9142708417603
 21
661.8920792884814
 31
0.0
  0
LINE
  5
425
102
{ACAD_REACTORS
330
4A3
102
}
330
1F
100
AcDbEntity
  8
実線
100
AcDbLine
 10
59.9142708417603
 20
653.3920792884814
 30
0.0
 11
59.9142708417603
 21
661.8920792884812
 31
0.0
  0
LINE
  5
426
102
{ACAD_REACTORS
330
4A3
102
}
330
1F
100
AcDbEntity
  8
実線
100
AcDbLine
 10
59.9142708417603
 20
633.3920792884814
 30
0.0
 11
59.9142708417603
 21
650.3920792884815
 31
0.0
  0
LINE
  5
427
102
{ACAD_REACTORS
330
4A3
102
}
330
1F
100
AcDbEntity
  8
実線
100
AcDbLine
 10
59.9142708417603
 20
623.0920792884811
 30
0.0
 11
59.9142708417603
 21
630.3920792884814
 31
0.0
  0
LINE
  5
428
102
{ACAD_REACTORS
330
4A3
102
}
330
1F
100
AcDbEntity
  8
実線
100
AcDbLine
 10
65.9142708417603
 20
621.8920792884816
 30
0.0
 11
65.9142708417603
 21
623.0920792884811
 31
0.0
  0
LINE
  5
429
102
{ACAD_REACTORS
330
4A3
102
}
330
1F
100
AcDbEntity
  8
実線
100
AcDbLine
 10
65.9142708417603
 20
623.0920792884811
 30
0.0
 11
44.91427084176033
 21
623.0920792884811
 31
0.0
  0
LINE
  5
42A
102
{ACAD_REACTORS
330
4A3
102
}
330
1F
100
AcDbEntity
  8
実線
100
AcDbLine
 10
44.91427084176033
 20
621.8920792884816
 30
0.0
 11
44.91427084176033
 21
623.0920792884811
 31
0.0
  0
LINE
  5
42B
102
{ACAD_REACTORS
330
4A3
102
}
330
1F
100
AcDbEntity
  8
実線
100
AcDbLine
 10
30.91427084176033
 20
616.8920792884814
 30
0.0
 11
128.9142708417603
 21
616.8920792884814
 31
0.0
  0
LINE
  5
42C
102
{ACAD_REACTORS
330
4A3
102
}
330
1F
100
AcDbEntity
  8
実線
100
AcDbLine
 10
35.91427084176024
 20
621.8920792884816
 30
0.0
 11
123.9142708417603
 21
621.8920792884816
 31
0.0
  0
ARC
  5
42D
102
{ACAD_REACTORS
330
4A3
102
}
330
1F
100
AcDbEntity
  8
実線
100
AcDbCircle
 10
123.9142708417603
 20
616.8920792884814
 30
0.0
 40
5.0
100
AcDbArc
 50
0.0
 51
90.0
  0
ARC
  5
42E
102
{ACAD_REACTORS
330
4A3
102
}
330
1F
100
AcDbEntity
  8
実線
100
AcDbCircle
 10
35.91427084176024
 20
616.8920792884814
 30
0.0
 40
5.0
100
AcDbArc
 50
90.0
 51
180.0
  0
LINE
  5
42F
102
{ACAD_REACTORS
330
4A3
102
}
330
1F
100
AcDbEntity
  8
実線
100
AcDbLine
 10
65.36263863090503
 20
298.0920792884815
 30
0.0
 11
47.91427084176024
 21
298.0920792884815
 31
0.0
  0
LINE
  5
430
102
{ACAD_REACTORS
330
4A3
102
}
330
1F
100
AcDbEntity
  8
実線
100
AcDbLine
 10
111.9142708417601
 20
298.0920792884815
 30
0.0
 11
94.46590305261555
 21
298.0920792884815
 31
0.0
  0
ARC
  5
431
102
{ACAD_REACTORS
330
4A3
102
}
330
1F
100
AcDbEntity
  8
実線
100
AcDbCircle
 10
47.91427084176024
 20
315.0920792884815
 30
0.0
 40
17.0
100
AcDbArc
 50
180.0
 51
270.0
  0
ARC
  5
432
102
{ACAD_REACTORS
330
4A3
102
}
330
1F
100
AcDbEntity
  8
実線
100
AcDbCircle
 10
111.9142708417601
 20
315.0920792884815
 30
0.0
 40
17.0
100
AcDbArc
 50
270.0
 51
0.0
  0
LINE
  5
433
102
{ACAD_REACTORS
330
4A3
102
}
330
1F
100
AcDbEntity
  8
実線
100
AcDbLine
 10
30.91427084176033
 20
346.5920792884814
 30
0.0
 11
30.91427084176033
 21
315.0920792884815
 31
0.0
  0
LINE
  5
434
102
{ACAD_REACTORS
330
4A3
102
}
330
1F
100
AcDbEntity
  8
実線
100
AcDbLine
 10
128.9142708417603
 20
315.0920792884815
 30
0.0
 11
128.9142708417603
 21
346.5920792884814
 31
0.0
  0
LINE
  5
435
102
{ACAD_REACTORS
330
4A3
102
}
330
1F
100
AcDbEntity
  8
実線
100
AcDbLine
 10
23.41110524970444
 20
361.5920792884815
 30
0.0
 11
23.41110524970444
 21
346.5920792884814
 31
0.0
  0
LINE
  5
436
102
{ACAD_REACTORS
330
4A3
102
}
330
1F
100
AcDbEntity
  8
実線
100
AcDbLine
 10
23.41110524970444
 20
346.5920792884814
 30
0.0
 11
54.93427884816663
 21
346.5920792884814
 31
0.0
  0
LINE
  5
437
102
{ACAD_REACTORS
330
4A3
102
}
330
1F
100
AcDbEntity
  8
実線
100
AcDbLine
 10
136.4174364338161
 20
346.5920792884814
 30
0.0
 11
104.8942628353538
 21
346.5920792884814
 31
0.0
  0
LINE
  5
438
102
{ACAD_REACTORS
330
4A3
102
}
330
1F
100
AcDbEntity
  8
実線
100
AcDbLine
 10
136.4174364338161
 20
346.5920792884814
 30
0.0
 11
136.4174364338161
 21
361.5920792884815
 31
0.0
  0
LINE
  5
439
102
{ACAD_REACTORS
330
4A3
102
}
330
1F
100
AcDbEntity
  8
実線
100
AcDbLine
 10
57.53602755461722
 20
361.5920792884815
 30
0.0
 11
57.53602755461722
 21
349.4659558156781
 31
0.0
  0
LINE
  5
43A
102
{ACAD_REACTORS
330
4A3
102
}
330
1F
100
AcDbEntity
  8
実線
100
AcDbLine
 10
102.2925141289033
 20
361.5920792884815
 30
0.0
 11
102.2925141289033
 21
349.4659558156781
 31
0.0
  0
LINE
  5
43B
102
{ACAD_REACTORS
330
4A3
102
}
330
1F
100
AcDbEntity
  8
実線
100
AcDbLine
 10
136.4174364338161
 20
361.5920792884815
 30
0.0
 11
23.41110524970444
 21
361.5920792884815
 31
0.0
  0
LINE
  5
43C
102
{ACAD_REACTORS
330
4A3
102
}
330
1F
100
AcDbEntity
  8
実線
100
AcDbLine
 10
30.91427084176033
 20
381.5920792884815
 30
0.0
 11
30.91427084176033
 21
376.5920792884815
 31
0.0
  0
LINE
  5
43D
102
{ACAD_REACTORS
330
4A3
102
}
330
1F
100
AcDbEntity
  8
実線
100
AcDbLine
 10
128.9142708417603
 20
376.5920792884815
 30
0.0
 11
128.9142708417603
 21
381.5920792884815
 31
0.0
  0
LINE
  5
43E
102
{ACAD_REACTORS
330
4A3
102
}
330
1F
100
AcDbEntity
  8
実線
100
AcDbLine
 10
23.41110524970444
 20
376.5920792884815
 30
0.0
 11
23.41110524970444
 21
361.5920792884815
 31
0.0
  0
LINE
  5
43F
102
{ACAD_REACTORS
330
4A3
102
}
330
1F
100
AcDbEntity
  8
実線
100
AcDbLine
 10
23.41110524970444
 20
376.5920792884815
 30
0.0
 11
57.53602755461722
 21
376.5920792884815
 31
0.0
  0
LINE
  5
440
102
{ACAD_REACTORS
330
4A3
102
}
330
1F
100
AcDbEntity
  8
実線
100
AcDbLine
 10
136.4174364338161
 20
376.5920792884815
 30
0.0
 11
102.2925141289033
 21
376.5920792884815
 31
0.0
  0
LINE
  5
441
102
{ACAD_REACTORS
330
4A3
102
}
330
1F
100
AcDbEntity
  8
実線
100
AcDbLine
 10
136.4174364338161
 20
361.5920792884815
 30
0.0
 11
136.4174364338161
 21
376.5920792884815
 31
0.0
  0
LINE
  5
442
102
{ACAD_REACTORS
330
4A3
102
}
330
1F
100
AcDbEntity
  8
実線
100
AcDbLine
 10
57.53602755461722
 20
376.5920792884815
 30
0.0
 11
57.53602755461722
 21
361.5920792884815
 31
0.0
  0
LINE
  5
443
102
{ACAD_REACTORS
330
4A3
102
}
330
1F
100
AcDbEntity
  8
実線
100
AcDbLine
 10
102.2925141289033
 20
376.5920792884815
 30
0.0
 11
102.2925141289033
 21
361.5920792884815
 31
0.0
  0
LINE
  5
444
102
{ACAD_REACTORS
330
4A2
102
}
330
1F
100
AcDbEntity
  8
実線
100
AcDbLine
 10
345.3142708417603
 20
249.8920792884815
 30
0.0
 11
345.3142708417603
 21
298.0920792884815
 31
0.0
  0
LINE
  5
445
102
{ACAD_REACTORS
330
4A2
102
}
330
1F
100
AcDbEntity
  8
実線
100
AcDbLine
 10
294.5142708417603
 20
298.0920792884815
 30
0.0
 11
294.5142708417603
 21
249.8920792884815
 31
0.0
  0
LINE
  5
446
102
{ACAD_REACTORS
330
4A2
102
}
330
1F
100
AcDbEntity
  8
実線
100
AcDbLine
 10
294.5142708417603
 20
249.8920792884815
 30
0.0
 11
345.3142708417603
 21
249.8920792884815
 31
0.0
  0
LINE
  5
447
102
{ACAD_REACTORS
330
4A2
102
}
330
1F
100
AcDbEntity
  8
実線
100
AcDbLine
 10
294.5142708417603
 20
249.8920792884815
 30
0.0
 11
287.9142708417603
 21
247.4920792884815
 31
0.0
  0
LINE
  5
448
102
{ACAD_REACTORS
330
4A2
102
}
330
1F
100
AcDbEntity
  8
実線
100
AcDbLine
 10
351.9142708417603
 20
247.4920792884815
 30
0.0
 11
345.3142708417603
 21
249.8920792884815
 31
0.0
  0
LINE
  5
449
102
{ACAD_REACTORS
330
4A2
102
}
330
1F
100
AcDbEntity
  8
実線
100
AcDbLine
 10
287.9142708417603
 20
244.5920792884815
 30
0.0
 11
351.9142708417603
 21
244.5920792884815
 31
0.0
  0
LINE
  5
44A
102
{ACAD_REACTORS
330
4A2
102
}
330
1F
100
AcDbEntity
  8
実線
100
AcDbLine
 10
287.9142708417603
 20
247.4920792884815
 30
0.0
 11
351.9142708417603
 21
247.4920792884815
 31
0.0
  0
LINE
  5
44B
102
{ACAD_REACTORS
330
4A2
102
}
330
1F
100
AcDbEntity
  8
実線
100
AcDbLine
 10
351.9142708417603
 20
244.5920792884815
 30
0.0
 11
351.9142708417603
 21
247.4920792884815
 31
0.0
  0
LINE
  5
44C
102
{ACAD_REACTORS
330
4A2
102
}
330
1F
100
AcDbEntity
  8
実線
100
AcDbLine
 10
287.9142708417603
 20
247.4920792884815
 30
0.0
 11
287.9142708417603
 21
244.5920792884815
 31
0.0
  0
LINE
  5
44D
102
{ACAD_REACTORS
330
4A2
102
}
330
1F
100
AcDbEntity
  8
実線
100
AcDbLine
 10
243.2142708417603
 20
301.1920792884815
 30
0.0
 11
278.1270342552666
 21
301.1920792884815
 31
0.0
  0
LINE
  5
44E
102
{ACAD_REACTORS
330
4A2
102
}
330
1F
100
AcDbEntity
  8
実線
100
AcDbLine
 10
263.4111052497045
 20
351.9920792884815
 30
0.0
 11
243.2142708417603
 21
351.9920792884815
 31
0.0
  0
LINE
  5
44F
102
{ACAD_REACTORS
330
4A2
102
}
330
1F
100
AcDbEntity
  8
実線
100
AcDbLine
 10
237.9142708417603
 20
358.5920792884815
 30
0.0
 11
237.9142708417603
 21
294.5920792884815
 31
0.0
  0
LINE
  5
450
102
{ACAD_REACTORS
330
4A2
102
}
330
1F
100
AcDbEntity
  8
実線
100
AcDbLine
 10
237.9142708417603
 20
294.5920792884815
 30
0.0
 11
240.8142708417603
 21
294.5920792884815
 31
0.0
  0
LINE
  5
451
102
{ACAD_REACTORS
330
4A2
102
}
330
1F
100
AcDbEntity
  8
実線
100
AcDbLine
 10
240.8142708417603
 20
358.5920792884815
 30
0.0
 11
237.9142708417603
 21
358.5920792884815
 31
0.0
  0
LINE
  5
452
102
{ACAD_REACTORS
330
4A2
102
}
330
1F
100
AcDbEntity
  8
実線
100
AcDbLine
 10
240.8142708417603
 20
358.5920792884815
 30
0.0
 11
240.8142708417603
 21
294.5920792884815
 31
0.0
  0
LINE
  5
453
102
{ACAD_REACTORS
330
4A2
102
}
330
1F
100
AcDbEntity
  8
実線
100
AcDbLine
 10
243.2142708417603
 20
351.9920792884815
 30
0.0
 11
243.2142708417603
 21
301.1920792884815
 31
0.0
  0
LINE
  5
454
102
{ACAD_REACTORS
330
4A2
102
}
330
1F
100
AcDbEntity
  8
実線
100
AcDbLine
 10
243.2142708417603
 20
351.9920792884815
 30
0.0
 11
240.8142708417603
 21
358.5920792884815
 31
0.0
  0
LINE
  5
455
102
{ACAD_REACTORS
330
4A2
102
}
330
1F
100
AcDbEntity
  8
実線
100
AcDbLine
 10
240.8142708417603
 20
294.5920792884815
 30
0.0
 11
243.2142708417603
 21
301.1920792884815
 31
0.0
  0
LINE
  5
456
102
{ACAD_REACTORS
330
4A2
102
}
330
1F
100
AcDbEntity
  8
実線
100
AcDbLine
 10
396.6142708417604
 20
351.9920792884815
 30
0.0
 11
376.4174364338162
 21
351.9920792884815
 31
0.0
  0
LINE
  5
457
102
{ACAD_REACTORS
330
4A2
102
}
330
1F
100
AcDbEntity
  8
実線
100
AcDbLine
 10
361.701507428254
 20
301.1920792884815
 30
0.0
 11
396.6142708417604
 21
301.1920792884815
 31
0.0
  0
LINE
  5
458
102
{ACAD_REACTORS
330
4A2
102
}
330
1F
100
AcDbEntity
  8
実線
100
AcDbLine
 10
396.6142708417604
 20
301.1920792884815
 30
0.0
 11
399.0142708417603
 21
294.5920792884815
 31
0.0
  0
LINE
  5
459
102
{ACAD_REACTORS
330
4A2
102
}
330
1F
100
AcDbEntity
  8
実線
100
AcDbLine
 10
399.0142708417603
 20
358.5920792884814
 30
0.0
 11
396.6142708417604
 21
351.9920792884815
 31
0.0
  0
LINE
  5
45A
102
{ACAD_REACTORS
330
4A2
102
}
330
1F
100
AcDbEntity
  8
実線
100
AcDbLine
 10
396.6142708417604
 20
301.1920792884815
 30
0.0
 11
396.6142708417604
 21
351.9920792884815
 31
0.0
  0
LINE
  5
45B
102
{ACAD_REACTORS
330
4A2
102
}
330
1F
100
AcDbEntity
  8
実線
100
AcDbLine
 10
401.9142708417603
 20
358.5920792884815
 30
0.0
 11
399.0142708417603
 21
358.5920792884815
 31
0.0
  0
LINE
  5
45C
102
{ACAD_REACTORS
330
4A2
102
}
330
1F
100
AcDbEntity
  8
実線
100
AcDbLine
 10
399.0142708417603
 20
294.5920792884815
 30
0.0
 11
401.9142708417603
 21
294.5920792884815
 31
0.0
  0
LINE
  5
45D
102
{ACAD_REACTORS
330
4A2
102
}
330
1F
100
AcDbEntity
  8
実線
100
AcDbLine
 10
401.9142708417603
 20
358.5920792884815
 30
0.0
 11
401.9142708417603
 21
294.5920792884815
 31
0.0
  0
LINE
  5
45E
102
{ACAD_REACTORS
330
4A2
102
}
330
1F
100
AcDbEntity
  8
実線
100
AcDbLine
 10
399.0142708417603
 20
358.5920792884815
 30
0.0
 11
399.0142708417603
 21
294.5920792884815
 31
0.0
  0
LINE
  5
45F
102
{ACAD_REACTORS
330
4A2
102
}
330
1F
100
AcDbEntity
  8
実線
100
AcDbLine
 10
368.9142708417602
 20
381.5920792884813
 30
0.0
 11
270.9142708417601
 21
381.5920792884813
 31
0.0
  0
LINE
  5
460
102
{ACAD_REACTORS
330
4A2
102
}
330
1F
100
AcDbEntity
  8
実線
100
AcDbLine
 10
368.9142708417602
 20
381.5920792884813
 30
0.0
 11
368.9142708417602
 21
616.8920792884814
 31
0.0
  0
LINE
  5
461
102
{ACAD_REACTORS
330
4A2
102
}
330
1F
100
AcDbEntity
  8
実線
100
AcDbLine
 10
270.9142708417601
 20
616.8920792884814
 30
0.0
 11
270.9142708417601
 21
381.5920792884813
 31
0.0
  0
LINE
  5
462
102
{ACAD_REACTORS
330
4A2
102
}
330
1F
100
AcDbEntity
  8
実線
100
AcDbLine
 10
368.9142708417602
 20
616.8920792884814
 30
0.0
 11
270.9142708417601
 21
616.8920792884814
 31
0.0
  0
LINE
  5
463
102
{ACAD_REACTORS
330
4A2
102
}
330
1F
100
AcDbEntity
  8
実線
100
AcDbLine
 10
333.9142708417599
 20
650.8920792884815
 30
0.0
 11
305.9142708417601
 21
650.8920792884815
 31
0.0
  0
LINE
  5
464
102
{ACAD_REACTORS
330
4A2
102
}
330
1F
100
AcDbEntity
  8
実線
100
AcDbLine
 10
333.9142708417599
 20
650.8920792884815
 30
0.0
 11
333.9142708417599
 21
660.8920792884815
 31
0.0
  0
LINE
  5
465
102
{ACAD_REACTORS
330
4A2
102
}
330
1F
100
AcDbEntity
  8
実線
100
AcDbLine
 10
305.9142708417601
 20
660.8920792884815
 30
0.0
 11
305.9142708417601
 21
650.8920792884815
 31
0.0
  0
LINE
  5
466
102
{ACAD_REACTORS
330
4A2
102
}
330
1F
100
AcDbEntity
  8
実線
100
AcDbLine
 10
333.9142708417599
 20
660.8920792884815
 30
0.0
 11
305.9142708417601
 21
660.8920792884815
 31
0.0
  0
LINE
  5
467
102
{ACAD_REACTORS
330
4A2
102
}
330
1F
100
AcDbEntity
  8
実線
100
AcDbLine
 10
334.5142708417601
 20
655.8420792884816
 30
0.0
 11
342.4142708417602
 21
655.8420792884816
 31
0.0
  0
LINE
  5
468
102
{ACAD_REACTORS
330
4A2
102
}
330
1F
100
AcDbEntity
  8
実線
100
AcDbLine
 10
334.5142708417601
 20
647.9420792884815
 30
0.0
 11
334.5142708417601
 21
655.8420792884816
 31
0.0
  0
LINE
  5
469
102
{ACAD_REACTORS
330
4A2
102
}
330
1F
100
AcDbEntity
  8
実線
100
AcDbLine
 10
342.4142708417602
 20
647.9420792884815
 30
0.0
 11
334.5142708417601
 21
647.9420792884815
 31
0.0
  0
LINE
  5
46A
102
{ACAD_REACTORS
330
4A2
102
}
330
1F
100
AcDbEntity
  8
実線
100
AcDbLine
 10
334.5142708417601
 20
627.9420792884815
 30
0.0
 11
334.5142708417601
 21
635.8420792884814
 31
0.0
  0
LINE
  5
46B
102
{ACAD_REACTORS
330
4A2
102
}
330
1F
100
AcDbEntity
  8
実線
100
AcDbLine
 10
334.5142708417601
 20
635.8420792884812
 30
0.0
 11
342.4142708417602
 21
635.8420792884812
 31
0.0
  0
LINE
  5
46C
102
{ACAD_REACTORS
330
4A2
102
}
330
1F
100
AcDbEntity
  8
実線
100
AcDbLine
 10
342.4142708417602
 20
627.9420792884815
 30
0.0
 11
334.5142708417601
 21
627.9420792884815
 31
0.0
  0
LINE
  5
46D
102
{ACAD_REACTORS
330
4A2
102
}
330
1F
100
AcDbEntity
  8
実線
100
AcDbLine
 10
330.9142708417602
 20
621.8920792884816
 30
0.0
 11
330.9142708417602
 21
650.8920792884815
 31
0.0
  0
LINE
  5
46E
102
{ACAD_REACTORS
330
4A2
102
}
330
1F
100
AcDbEntity
  8
実線
100
AcDbLine
 10
308.91427084176
 20
650.8920792884815
 30
0.0
 11
308.91427084176
 21
621.8920792884816
 31
0.0
  0
LINE
  5
46F
102
{ACAD_REACTORS
330
4A2
102
}
330
1F
100
AcDbEntity
  8
実線
100
AcDbLine
 10
342.4142708417602
 20
623.0920792884811
 30
0.0
 11
334.4142708417602
 21
623.0920792884811
 31
0.0
  0
LINE
  5
470
102
{ACAD_REACTORS
330
4A2
102
}
330
1F
100
AcDbEntity
  8
実線
100
AcDbLine
 10
334.4142708417602
 20
621.8920792884816
 30
0.0
 11
334.4142708417602
 21
623.0920792884811
 31
0.0
  0
LINE
  5
471
102
{ACAD_REACTORS
330
4A2
102
}
330
1F
100
AcDbEntity
  8
実線
100
AcDbLine
 10
343.6142708417603
 20
623.0920792884811
 30
0.0
 11
343.6142708417603
 21
661.8920792884814
 31
0.0
  0
LINE
  5
472
102
{ACAD_REACTORS
330
4A2
102
}
330
1F
100
AcDbEntity
  8
実線
100
AcDbLine
 10
342.4142708417602
 20
661.8920792884814
 30
0.0
 11
342.4142708417602
 21
621.8920792884812
 31
0.0
  0
LINE
  5
473
102
{ACAD_REACTORS
330
4A2
102
}
330
1F
100
AcDbEntity
  8
実線
100
AcDbLine
 10
343.6142708417603
 20
661.8920792884814
 30
0.0
 11
342.4142708417602
 21
661.8920792884814
 31
0.0
  0
LINE
  5
474
102
{ACAD_REACTORS
330
4A2
102
}
330
1F
100
AcDbEntity
  8
実線
100
AcDbLine
 10
363.353884099707
 20
621.8920792884816
 30
0.0
 11
363.4142708417602
 21
621.8920792884816
 31
0.0
  0
LINE
  5
475
102
{ACAD_REACTORS
330
4A2
102
}
330
1F
100
AcDbEntity
  8
実線
100
AcDbLine
 10
363.4142708417602
 20
621.8920792884816
 30
0.0
 11
363.4142708417602
 21
623.0920792884811
 31
0.0
  0
LINE
  5
476
102
{ACAD_REACTORS
330
4A2
102
}
330
1F
100
AcDbEntity
  8
実線
100
AcDbLine
 10
363.4142708417602
 20
623.0920792884811
 30
0.0
 11
343.6142708417603
 21
623.0920792884811
 31
0.0
  0
LINE
  5
477
102
{ACAD_REACTORS
330
4A2
102
}
330
1F
100
AcDbEntity
  8
実線
100
AcDbLine
 10
363.4142708417602
 20
621.8920792884816
 30
0.0
 11
363.9142708417602
 21
621.8920792884816
 31
0.0
  0
LINE
  5
478
102
{ACAD_REACTORS
330
4A2
102
}
330
1F
100
AcDbEntity
  8
実線
100
AcDbLine
 10
275.9142708417601
 20
621.8920792884816
 30
0.0
 11
363.353884099707
 21
621.8920792884816
 31
0.0
  0
ARC
  5
479
102
{ACAD_REACTORS
330
4A2
102
}
330
1F
100
AcDbEntity
  8
実線
100
AcDbCircle
 10
363.9142708417602
 20
616.8920792884814
 30
0.0
 40
5.0
100
AcDbArc
 50
0.0
 51
90.0
  0
ARC
  5
47A
102
{ACAD_REACTORS
330
4A2
102
}
330
1F
100
AcDbEntity
  8
実線
100
AcDbCircle
 10
275.9142708417601
 20
616.8920792884814
 30
0.0
 40
5.0
100
AcDbArc
 50
90.0
 51
180.0
  0
LINE
  5
47B
102
{ACAD_REACTORS
330
4A2
102
}
330
1F
100
AcDbEntity
  8
実線
100
AcDbLine
 10
351.9142708416678
 20
298.0920792884815
 30
0.0
 11
287.9142708417603
 21
298.0920792884815
 31
0.0
  0
ARC
  5
47C
102
{ACAD_REACTORS
330
4A2
102
}
330
1F
100
AcDbEntity
  8
実線
100
AcDbCircle
 10
287.9142708417603
 20
315.0920792884815
 30
0.0
 40
17.0
100
AcDbArc
 50
234.8499442294432
 51
270.0
  0
ARC
  5
47D
102
{ACAD_REACTORS
330
4A2
102
}
330
1F
100
AcDbEntity
  8
実線
100
AcDbCircle
 10
351.9142708417603
 20
315.0920792884815
 30
0.0
 40
17.0
100
AcDbArc
 50
270.0
 51
305.1500557705568
  0
LINE
  5
47E
102
{ACAD_REACTORS
330
4A2
102
}
330
1F
100
AcDbEntity
  8
実線
100
AcDbLine
 10
263.4111052497045
 20
361.5920792884815
 30
0.0
 11
376.4174364338162
 21
361.5920792884815
 31
0.0
  0
LINE
  5
47F
102
{ACAD_REACTORS
330
4A2
102
}
330
1F
100
AcDbEntity
  8
実線
100
AcDbLine
 10
376.4174364338162
 20
346.5920792884814
 30
0.0
 11
342.2925141289034
 21
346.5920792884814
 31
0.0
  0
LINE
  5
480
102
{ACAD_REACTORS
330
4A2
102
}
330
1F
100
AcDbEntity
  8
実線
100
AcDbLine
 10
376.4174364338162
 20
346.5920792884814
 30
0.0
 11
376.4174364338162
 21
361.5920792884815
 31
0.0
  0
LINE
  5
481
102
{ACAD_REACTORS
330
4A2
102
}
330
1F
100
AcDbEntity
  8
実線
100
AcDbLine
 10
263.4111052497045
 20
361.5920792884815
 30
0.0
 11
263.4111052497045
 21
346.5920792884814
 31
0.0
  0
LINE
  5
482
102
{ACAD_REACTORS
330
4A2
102
}
330
1F
100
AcDbEntity
  8
実線
100
AcDbLine
 10
263.4111052497045
 20
346.5920792884814
 30
0.0
 11
297.5360275546171
 21
346.5920792884814
 31
0.0
  0
LINE
  5
483
102
{ACAD_REACTORS
330
4A2
102
}
330
1F
100
AcDbEntity
  8
実線
100
AcDbLine
 10
297.5360275546171
 20
361.5920792884815
 30
0.0
 11
297.5360275546171
 21
346.5920792884814
 31
0.0
  0
LINE
  5
484
102
{ACAD_REACTORS
330
4A2
102
}
330
1F
100
AcDbEntity
  8
実線
100
AcDbLine
 10
342.2925141289034
 20
361.5920792884815
 30
0.0
 11
342.2925141289034
 21
346.5920792884814
 31
0.0
  0
LINE
  5
485
102
{ACAD_REACTORS
330
4A2
102
}
330
1F
100
AcDbEntity
  8
実線
100
AcDbLine
 10
270.9142708417601
 20
381.5920792884815
 30
0.0
 11
270.9142708417601
 21
376.5920792884815
 31
0.0
  0
LINE
  5
486
102
{ACAD_REACTORS
330
4A2
102
}
330
1F
100
AcDbEntity
  8
実線
100
AcDbLine
 10
368.9142708417602
 20
376.5920792884815
 30
0.0
 11
368.9142708417602
 21
381.5920792884815
 31
0.0
  0
LINE
  5
487
102
{ACAD_REACTORS
330
4A2
102
}
330
1F
100
AcDbEntity
  8
実線
100
AcDbLine
 10
376.4174364338161
 20
376.5920792884815
 30
0.0
 11
342.2925141289034
 21
376.5920792884815
 31
0.0
  0
LINE
  5
488
102
{ACAD_REACTORS
330
4A2
102
}
330
1F
100
AcDbEntity
  8
実線
100
AcDbLine
 10
376.4174364338161
 20
361.5920792884815
 30
0.0
 11
376.4174364338161
 21
376.5920792884815
 31
0.0
  0
LINE
  5
489
102
{ACAD_REACTORS
330
4A2
102
}
330
1F
100
AcDbEntity
  8
実線
100
AcDbLine
 10
263.4111052497045
 20
376.5920792884815
 30
0.0
 11
263.4111052497045
 21
361.5920792884815
 31
0.0
  0
LINE
  5
48A
102
{ACAD_REACTORS
330
4A2
102
}
330
1F
100
AcDbEntity
  8
実線
100
AcDbLine
 10
263.4111052497045
 20
376.5920792884815
 30
0.0
 11
297.5360275546171
 21
376.5920792884815
 31
0.0
  0
LINE
  5
48B
102
{ACAD_REACTORS
330
4A2
102
}
330
1F
100
AcDbEntity
  8
実線
100
AcDbLine
 10
297.5360275546171
 20
376.5920792884815
 30
0.0
 11
297.5360275546171
 21
361.5920792884815
 31
0.0
  0
LINE
  5
48C
102
{ACAD_REACTORS
330
4A2
102
}
330
1F
100
AcDbEntity
  8
実線
100
AcDbLine
 10
342.2925141289034
 20
376.5920792884815
 30
0.0
 11
342.2925141289034
 21
361.5920792884815
 31
0.0
  0
LINE
  5
48D
102
{ACAD_REACTORS
330
4A5
102
}
330
1F
100
AcDbEntity
  8
中心線
100
AcDbLine
 10
235.9142708417605
 20
86.59207928848147
 30
0.0
 11
403.9142708417605
 21
86.59207928848145
 31
0.0
  0
LINE
  5
48E
102
{ACAD_REACTORS
330
4A5
102
}
330
1F
100
AcDbEntity
  8
中心線
100
AcDbLine
 10
319.9142708417605
 20
21.59207928848139
 30
0.0
 11
319.9142708417605
 21
151.5920792884814
 31
0.0
  0
LINE
  5
48F
102
{ACAD_REACTORS
330
4F2
102
}
330
1F
100
AcDbEntity
  8
中心線
100
AcDbLine
 10
235.9142708417601
 20
806.5920792884814
 30
0.0
 11
403.9142708417601
 21
806.5920792884812
 31
0.0
  0
LINE
  5
490
102
{ACAD_REACTORS
330
4F2
102
}
330
1F
100
AcDbEntity
  8
中心線
100
AcDbLine
 10
319.9142708417601
 20
741.5920792884813
 30
0.0
 11
319.9142708417601
 21
871.5920792884814
 31
0.0
  0
LINE
  5
491
102
{ACAD_REACTORS
330
4A0
102
}
330
1F
100
AcDbEntity
  8
中心線
100
AcDbLine
 10
799.91427084176
 20
242.592079288482
 30
0.0
 11
799.91427084176
 21
669.9131100110856
 31
0.0
  0
LINE
  5
492
102
{ACAD_REACTORS
330
4A0
102
}
330
1F
100
AcDbEntity
  8
中心線
100
AcDbLine
 10
715.9142708417586
 20
326.5920792884815
 30
0.0
 11
883.9142708417586
 21
326.5920792884815
 31
0.0
  0
LINE
  5
49A
102
{ACAD_REACTORS
330
4A1
102
}
330
1F
100
AcDbEntity
  8
中心線
100
AcDbLine
 10
559.9142708417601
 20
242.592079288482
 30
0.0
 11
559.9142708417601
 21
669.9131100110856
 31
0.0
  0
LINE
  5
49B
102
{ACAD_REACTORS
330
4A1
102
}
330
1F
100
AcDbEntity
  8
中心線
100
AcDbLine
 10
494.9142708417593
 20
326.5920792884814
 30
0.0
 11
624.9142708417593
 21
326.5920792884814
 31
0.0
  0
LINE
  5
49C
102
{ACAD_REACTORS
330
4A2
102
}
330
1F
100
AcDbEntity
  8
中心線
100
AcDbLine
 10
319.9142708417603
 20
242.5920792884819
 30
0.0
 11
319.9142708417602
 21
669.9131100110857
 31
0.0
  0
LINE
  5
49D
102
{ACAD_REACTORS
330
4A2
102
}
330
1F
100
AcDbEntity
  8
中心線
100
AcDbLine
 10
235.9142708417605
 20
326.5920792884815
 30
0.0
 11
403.9142708417605
 21
326.5920792884814
 31
0.0
  0
LINE
  5
49E
102
{ACAD_REACTORS
330
4A3
102
}
330
1F
100
AcDbEntity
  8
中心線
100
AcDbLine
 10
79.91427084176024
 20
242.592079288482
 30
0.0
 11
79.91427084176024
 21
669.9131100110856
 31
0.0
  0
LINE
  5
49F
102
{ACAD_REACTORS
330
4A3
102
}
330
1F
100
AcDbEntity
  8
中心線
100
AcDbLine
 10
14.91427084175967
 20
326.5920792884815
 30
0.0
 11
144.9142708417596
 21
326.5920792884814
 31
0.0
  0
ENDSEC
  0
SECTION
  2
OBJECTS
  0
DICTIONARY
  5
C
330
0
100
AcDbDictionary
281
     1
  3
ACAD_CIP_PREVIOUS_PRODUCT_INFO
350
244
  3
ACAD_COLOR
350
23A
  3
ACAD_DETAILVIEWSTYLE
350
23D
  3
ACAD_GROUP
350
D
  3
ACAD_LAYOUT
350
1A
  3
ACAD_MATERIAL
350
43
  3
ACAD_MLEADERSTYLE
350
5B
  3
ACAD_MLINESTYLE
350
17
  3
ACAD_PLOTSETTINGS
350
19
  3
ACAD_PLOTSTYLENAME
350
E
  3
ACAD_SCALELIST
350
47
  3
ACAD_SECTIONVIEWSTYLE
350
23B
  3
ACAD_TABLESTYLE
350
59
  3
ACAD_VISUALSTYLE
350
2A
  3
ACDB_RECOMPOSE_DATA
350
53D
  3
AcDbVariableDictionary
350
1EF
  3
DWGPROPS
350
53E
  0
DICTIONARY
  5
24B
330
2
100
AcDbDictionary
280
     1
281
     1
  3
ACAD_LAYERSTATES
360
24C
  0
DICTIONARY
  5
4A6
330
10
100
AcDbDictionary
280
     1
281
     1
  3
ADSK_XREC_LAYER_RECONCILED
360
4A7
  0
DICTIONARY
  5
247
330
246
100
AcDbDictionary
280
     1
281
     1
  3
ADSK_XREC_LAYER_RECONCILED
360
4A8
  0
DICTIONARY
  5
249
330
248
100
AcDbDictionary
280
     1
281
     1
  3
ADSK_XREC_LAYER_RECONCILED
360
4A9
  0
DICTIONARY
  5
358
330
1F
100
AcDbDictionary
280
     1
281
     1
  3
ACAD_SORTENTS
360
359
  0
XRECORD
  5
244
102
{ACAD_REACTORS
330
C
102
}
330
C
100
AcDbXrecord
280
     1
300
ACDLT
300
2016
300
ACDLT_F_S
  0
DICTIONARY
  5
23A
102
{ACAD_REACTORS
330
C
102
}
330
C
100
AcDbDictionary
281
     1
  0
DICTIONARY
  5
23D
102
{ACAD_REACTORS
330
C
102
}
330
C
100
AcDbDictionary
281
     1
  3
Metric50
350
23E
  0
DICTIONARY
  5
D
102
{ACAD_REACTORS
330
C
102
}
330
C
100
AcDbDictionary
281
     1
  3
*A1
350
4A0
  3
*A2
350
4A1
  3
*A3
350
4A2
  3
*A4
350
4A3
  3
*A6
350
4A5
  3
*A7
350
4F2
  0
DICTIONARY
  5
1A
102
{ACAD_REACTORS
330
C
102
}
330
C
100
AcDbDictionary
281
     1
  3
Layout1
350
1E
  3
Model
350
22
  3
レイアウト1
350
23F
  0
DICTIONARY
  5
43
102
{ACAD_REACTORS
330
C
102
}
330
C
100
AcDbDictionary
281
     1
  3
ByBlock
350
45
  3
ByLayer
350
44
  3
Global
350
46
  0
DICTIONARY
  5
5B
102
{ACAD_REACTORS
330
C
102
}
330
C
100
AcDbDictionary
281
     1
  3
Standard
350
5C
  0
DICTIONARY
  5
17
102
{ACAD_REACTORS
330
C
102
}
330
C
100
AcDbDictionary
281
     1
  3
Standard
350
18
  0
DICTIONARY
  5
19
102
{ACAD_REACTORS
330
C
102
}
330
C
100
AcDbDictionary
281
     1
  0
ACDBDICTIONARYWDFLT
  5
E
102
{ACAD_REACTORS
330
C
102
}
330
C
100
AcDbDictionary
281
     1
  3
Normal
350
F
100
AcDbDictionaryWithDefault
340
F
  0
DICTIONARY
  5
47
102
{ACAD_REACTORS
330
C
102
}
330
C
100
AcDbDictionary
281
     1
  3
A0
350
48
  3
A1
350
49
  3
A2
350
4A
  3
A3
350
4B
  3
A4
350
4C
  3
A5
350
4D
  3
A6
350
4E
  3
A7
350
4F
  3
A8
350
50
  3
A9
350
51
  3
B0
350
52
  3
B1
350
53
  3
B2
350
54
  3
B3
350
55
  3
B4
350
56
  3
B5
350
57
  3
B6
350
58
  0
DICTIONARY
  5
23B
102
{ACAD_REACTORS
330
C
102
}
330
C
100
AcDbDictionary
281
     1
  3
Metric50
350
23C
  0
DICTIONARY
  5
59
102
{ACAD_REACTORS
330
C
102
}
330
C
100
AcDbDictionary
281
     1
  3
Standard
350
5A
  0
DICTIONARY
  5
2A
102
{ACAD_REACTORS
330
C
102
}
330
C
100
AcDbDictionary
281
     1
  3
2dWireframe
350
2F
  3
Basic
350
32
  3
Brighten
350
36
  3
ColorChange
350
3A
  3
Conceptual
350
34
  3
Dim
350
35
  3
EdgeColorOff
350
3D
  3
Facepattern
350
39
  3
Flat
350
2B
  3
FlatWithEdges
350
2C
  3
Gouraud
350
2D
  3
GouraudWithEdges
350
2E
  3
Hidden
350
31
  3
JitterOff
350
3B
  3
Linepattern
350
38
  3
OverhangOff
350
3C
  3
Realistic
350
33
  3
Shaded
350
42
  3
Shaded with edges
350
41
  3
Shades of Gray
350
3E
  3
Sketchy
350
3F
  3
Thicken
350
37
  3
Wireframe
350
30
  3
X-Ray
350
40
  0
XRECORD
  5
53D
102
{ACAD_REACTORS
330
C
102
}
330
C
100
AcDbXrecord
280
     1
 90
        1
330
5A
  0
DICTIONARY
  5
1EF
102
{ACAD_REACTORS
330
C
102
}
330
C
100
AcDbDictionary
281
     1
  3
CANNOSCALE
350
1FD
  3
CENTEREXE
350
1F6
  3
CENTERLTYPEFILE
350
1F7
  3
CMLEADERSTYLE
350
1F1
  3
CTABLESTYLE
350
1F0
  3
CVIEWDETAILSTYLE
350
4AA
  3
CVIEWSECTIONSTYLE
350
4AB
  3
DIMASSOC
350
1F8
  3
HIDETEXT
350
1F9
  3
INDEXCTL
350
4F7
  3
LAYEREVAL
350
4AD
  3
LAYERNOTIFY
350
4AE
  3
LIGHTINGUNITS
350
4AC
  3
LOFTANG1
350
4FA
  3
LOFTANG2
350
4FB
  3
LONGITUDE
350
4FC
  3
MSLTSCALE
350
1FE
  3
PSOLHEIGHT
350
4F9
  3
PSOLWIDTH
350
4F8
  3
SORTENTS
350
4F6
  3
XCLIPFRAME
350
4FD
  0
XRECORD
  5
53E
102
{ACAD_REACTORS
330
C
102
}
330
C
100
AcDbXrecord
280
     1
  1
DWGPROPS COOKIE
  2

  3

  4

  6
File was created by TR2_DExp
  7

  8
fujino
  9

300
=
301
=
302
=
303
=
304
=
305
=
306
=
307
=
308
=
309
=
 40
0.0055311805555556
 41
2455188.75
 42
2459754.678461007
  1

 90
        0
  0
DICTIONARY
  5
24C
102
{ACAD_REACTORS
330
24B
102
}
330
24B
100
AcDbDictionary
281
     1
  0
XRECORD
  5
4A7
102
{ACAD_REACTORS
330
4A6
102
}
330
4A6
100
AcDbXrecord
280
     1
290
     1
  0
XRECORD
  5
4A8
102
{ACAD_REACTORS
330
247
102
}
330
247
100
AcDbXrecord
280
     1
290
     1
  0
XRECORD
  5
4A9
102
{ACAD_REACTORS
330
249
102
}
330
249
100
AcDbXrecord
280
     1
290
     1
  0
SORTENTSTABLE
  5
359
102
{ACAD_REACTORS
330
358
102
}
330
358
100
AcDbSortentsTable
330
1F
331
3D5
  5
34A
331
447
  5
2BA
331
443
  5
33F
331
366
  5
3CF
331
3D1
  5
346
331
40C
  5
308
331
43F
  5
33B
331
362
  5
3CB
331
47E
  5
2F1
331
3CD
  5
342
331
3C9
  5
3C1
331
408
  5
304
331
39D
  5
395
331
43B
  5
337
331
47A
  5
2ED
331
356
  5
427
331
352
  5
423
331
399
  5
391
331
32D
  5
3FE
331
492
  5
492
331
329
  5
3FA
331
476
  5
2E9
331
3C5
  5
3BD
331
404
  5
300
331
437
  5
333
331
472
  5
2E5
331
3C1
  5
3B9
331
400
  5
377
331
34E
  5
41F
331
395
  5
38D
331
433
  5
32F
331
3FC
  5
373
331
42F
  5
32B
331
46E
  5
2E1
331
34A
  5
41B
331
391
  5
389
331
3BD
  5
3B5
331
3B9
  5
3B1
331
3F8
  5
36F
331
38D
  5
385
331
42B
  5
327
331
346
  5
417
331
46A
  5
2DD
331
389
  5
381
331
342
  5
413
331
325
  5
3F6
331
321
  5
3F2
331
31D
  5
3EE
331
3B5
  5
3AD
331
3F4
  5
36B
331
427
  5
323
331
466
  5
2D9
331
462
  5
2D5
331
3B1
  5
3A9
331
3F0
  5
367
331
33E
  5
40F
331
385
  5
37D
331
423
  5
31F
331
3EC
  5
363
331
41F
  5
31B
331
45E
  5
2D1
331
33A
  5
40B
331
381
  5
3EA
331
3AD
  5
3A5
331
3E8
  5
35F
331
41B
  5
317
331
45A
  5
2CD
331
37D
  5
3E6
331
3A9
  5
3A1
331
379
  5
3E2
331
332
  5
403
331
49D
  5
49D
331
3A5
  5
39D
331
3E4
  5
35B
331
417
  5
313
331
456
  5
2C9
331
452
  5
2C5
331
3A1
  5
399
331
3E0
  5
355
331
375
  5
3DE
331
413
  5
30F
331
44E
  5
2C1
331
371
  5
3DA
331
3DC
  5
351
331
3D8
  5
34D
331
44A
  5
2BD
331
36D
  5
3D6
331
369
  5
3D2
331
48D
  5
48D
331
35D
  5
3C6
331
489
  5
2FC
331
485
  5
2F8
331
481
  5
2F4
331
3D4
  5
349
331
446
  5
2B9
331
442
  5
33E
331
365
  5
3CE
331
3D0
  5
345
331
40F
  5
30B
331
40B
  5
307
331
43E
  5
33A
331
361
  5
3CA
331
47D
  5
2F0
331
3CC
  5
341
331
3C8
  5
3C0
331
39C
  5
394
331
43A
  5
336
331
479
  5
2EC
331
355
  5
426
331
351
  5
422
331
398
  5
390
331
32C
  5
3FD
331
491
  5
491
331
328
  5
3F9
331
407
  5
303
331
475
  5
2E8
331
3C4
  5
3BC
331
403
  5
37A
331
436
  5
332
331
432
  5
32E
331
471
  5
2E4
331
34D
  5
41E
331
394
  5
38C
331
3C0
  5
3B8
331
3FF
  5
376
331
3FB
  5
372
331
42E
  5
32A
331
46D
  5
2E0
331
349
  5
41A
331
390
  5
388
331
3BC
  5
3B4
331
3B8
  5
3B0
331
38C
  5
384
331
42A
  5
326
331
469
  5
2DC
331
345
  5
416
331
341
  5
412
331
388
  5
380
331
324
  5
3F5
331
320
  5
3F1
331
31C
  5
3ED
331
3F7
  5
36E
331
465
  5
2D8
331
3B4
  5
3AC
331
3F3
  5
36A
331
426
  5
322
331
461
  5
2D4
331
3B0
  5
3A8
331
3EF
  5
366
331
33D
  5
40E
331
384
  5
37C
331
422
  5
31E
331
3EB
  5
362
331
41E
  5
31A
331
45D
  5
2D0
331
339
  5
40A
331
380
  5
3E9
331
3AC
  5
3A4
331
3A8
  5
3A0
331
37C
  5
3E5
331
41A
  5
316
331
459
  5
2CC
331
378
  5
3E1
331
331
  5
402
331
49C
  5
49C
331
3E7
  5
35E
331
3A4
  5
39C
331
3E3
  5
35A
331
416
  5
312
331
455
  5
2C8
331
451
  5
2C4
331
3A0
  5
398
331
3DF
  5
354
331
374
  5
3DD
331
412
  5
30E
331
3DB
  5
350
331
44D
  5
2C0
331
370
  5
3D9
331
449
  5
2BC
331
36C
  5
3D5
331
368
  5
3D1
331
35C
  5
3C5
331
48C
  5
2FF
331
488
  5
2FB
331
484
  5
2F7
331
480
  5
2F3
331
3D7
  5
34C
331
3D3
  5
348
331
445
  5
2B8
331
40E
  5
30A
331
441
  5
33D
331
364
  5
3CD
331
3CF
  5
344
331
40A
  5
306
331
43D
  5
339
331
47C
  5
2EF
331
360
  5
3C9
331
39F
  5
397
331
3CB
  5
340
331
39B
  5
393
331
439
  5
335
331
354
  5
425
331
478
  5
2EB
331
350
  5
421
331
32F
  5
400
331
32B
  5
3FC
331
490
  5
490
331
3C7
  5
3BF
331
406
  5
302
331
474
  5
2E7
331
3C3
  5
3BB
331
402
  5
379
331
397
  5
38F
331
435
  5
331
331
431
  5
32D
331
470
  5
2E3
331
34C
  5
41D
331
393
  5
38B
331
3BF
  5
3B7
331
3FE
  5
375
331
3FA
  5
371
331
42D
  5
329
331
46C
  5
2DF
331
348
  5
419
331
38F
  5
387
331
3BB
  5
3B3
331
38B
  5
383
331
429
  5
325
331
468
  5
2DB
331
344
  5
415
331
340
  5
411
331
327
  5
3F8
331
323
  5
3F4
331
31F
  5
3F0
331
31B
  5
3EC
331
3B7
  5
3AF
331
3F6
  5
36D
331
464
  5
2D7
331
3B3
  5
3AB
331
3F2
  5
369
331
387
  5
37F
331
425
  5
321
331
421
  5
31D
331
460
  5
2D3
331
383
  5
37B
331
3AF
  5
3A7
331
3EE
  5
365
331
3EA
  5
361
331
41D
  5
319
331
45C
  5
2CF
331
338
  5
409
331
37F
  5
3E8
331
3AB
  5
3A3
331
37B
  5
3E4
331
419
  5
315
331
458
  5
2CB
331
334
  5
405
331
330
  5
401
331
49F
  5
49F
331
49B
  5
49B
331
3A7
  5
39F
331
3E6
  5
35D
331
454
  5
2C7
331
3A3
  5
39B
331
3E2
  5
357
331
377
  5
3E0
331
415
  5
311
331
450
  5
2C3
331
3DE
  5
353
331
373
  5
3DC
331
411
  5
30D
331
3DA
  5
34F
331
44C
  5
2BF
331
36F
  5
3D8
331
36B
  5
3D4
331
448
  5
2BB
331
48F
  5
48F
331
35F
  5
3C8
331
48B
  5
2FE
331
35B
  5
3C4
331
487
  5
2FA
331
483
  5
2F6
331
3D6
  5
34B
331
3D2
  5
347
331
367
  5
3D0
331
444
  5
2B7
331
40D
  5
309
331
440
  5
33C
331
363
  5
3CC
331
47F
  5
2F2
331
3CE
  5
343
331
3CA
  5
3C2
331
409
  5
305
331
39E
  5
396
331
43C
  5
338
331
47B
  5
2EE
331
357
  5
428
331
39A
  5
392
331
438
  5
334
331
353
  5
424
331
32E
  5
3FF
331
32A
  5
3FB
331
3C6
  5
3BE
331
405
  5
301
331
477
  5
2EA
331
473
  5
2E6
331
3C2
  5
3BA
331
401
  5
378
331
34F
  5
420
331
396
  5
38E
331
434
  5
330
331
3FD
  5
374
331
430
  5
32C
331
46F
  5
2E2
331
34B
  5
41C
331
392
  5
38A
331
3BE
  5
3B6
331
3F9
  5
370
331
42C
  5
328
331
46B
  5
2DE
331
347
  5
418
331
38E
  5
386
331
3BA
  5
3B2
331
38A
  5
382
331
428
  5
324
331
343
  5
414
331
326
  5
3F7
331
322
  5
3F3
331
31E
  5
3EF
331
3B6
  5
3AE
331
3F5
  5
36C
331
467
  5
2DA
331
463
  5
2D6
331
3B2
  5
3AA
331
3F1
  5
368
331
33F
  5
410
331
386
  5
37E
331
424
  5
320
331
420
  5
31C
331
45F
  5
2D2
331
382
  5
3EB
331
3AE
  5
3A6
331
3ED
  5
364
331
3E9
  5
360
331
41C
  5
318
331
45B
  5
2CE
331
337
  5
408
331
37E
  5
3E7
331
3AA
  5
3A2
331
37A
  5
3E3
331
418
  5
314
331
333
  5
404
331
49E
  5
49E
331
49A
  5
49A
331
3A6
  5
39E
331
3E5
  5
35C
331
457
  5
2CA
331
453
  5
2C6
331
3A2
  5
39A
331
3E1
  5
356
331
376
  5
3DF
331
414
  5
310
331
410
  5
30C
331
44F
  5
2C2
331
372
  5
3DB
331
3DD
  5
352
331
3D9
  5
34E
331
44B
  5
2BE
331
36E
  5
3D7
331
36A
  5
3D3
331
48E
  5
48E
331
35E
  5
3C7
331
48A
  5
2FD
331
35A
  5
3C3
331
486
  5
2F9
331
482
  5
2F5
  0
ACDBDETAILVIEWSTYLE
  5
23E
102
{ACAD_XDICTIONARY
360
576
102
}
102
{ACAD_REACTORS
330
23D
102
}
330
23D
100
AcDbModelDocViewStyle
 70
     0
  3
Metric50
290
     0
100
AcDbDetailViewStyle
 70
     0
 71
     0
 90
        3
 71
     1
340
11
 40
5.0
340
0
 40
5.0
300

 40
0.0
280
     1
 71
     2
340
16
 90
       25
 71
     3
340
11
 40
5.0
 90
        0
 40
15.0
 90
        1
300
%<\AcVar ViewDetailId>% (%<\AcVar ViewScale \f "%sn">%)
 71
     4
340
16
 90
       25
340
16
 90
       25
280
     0
  0
GROUP
  5
4A0
102
{ACAD_REACTORS
330
D
102
}
330
D
100
AcDbGroup
300

 70
     1
 71
     1
340
492
340
491
340
3CA
340
3C9
340
3C8
340
3C7
340
3C6
340
3C5
340
3C4
340
3C3
340
3C2
340
3C1
340
3C0
340
3BF
340
3BE
340
3BD
340
3BC
340
3BB
340
3BA
340
3B9
340
3B8
340
3B7
340
3B6
340
3B5
340
3B4
340
3B3
340
3B2
340
3B1
340
3B0
340
3AF
340
3AE
340
3AD
340
3AC
340
3AB
340
3AA
340
3A9
340
3A8
340
3A7
340
3A6
340
3A5
340
3A4
340
3A3
340
3A2
340
3A1
340
3A0
340
39F
340
39E
340
39D
340
39C
340
39B
340
39A
340
399
340
398
340
397
340
396
340
395
340
394
340
393
340
392
340
391
340
390
340
38F
340
38E
340
38D
340
38C
340
38B
340
38A
340
389
340
388
340
387
340
386
340
385
340
384
340
383
  0
GROUP
  5
4A1
102
{ACAD_REACTORS
330
D
102
}
330
D
100
AcDbGroup
300

 70
     1
 71
     1
340
49B
340
49A
340
403
340
402
340
401
340
400
340
3FF
340
3FE
340
3FD
340
3FC
340
3FB
340
3FA
340
3F9
340
3F8
340
3F7
340
3F6
340
3F5
340
3F4
340
3F3
340
3F2
340
3F1
340
3F0
340
3EF
340
3EE
340
3ED
340
3EC
340
3EB
340
3EA
340
3E9
340
3E8
340
3E7
340
3E6
340
3E5
340
3E4
340
3E3
340
3E2
340
3E1
340
3E0
340
3DF
340
3DE
340
3DD
340
3DC
340
3DB
340
3DA
340
3D9
340
3D8
340
3D7
340
3D6
340
3D5
340
3D4
340
3D3
340
3D2
340
3D1
340
3D0
340
3CF
340
3CE
340
3CD
340
3CC
340
3CB
  0
GROUP
  5
4A2
102
{ACAD_REACTORS
330
D
102
}
330
D
100
AcDbGroup
300

 70
     1
 71
     1
340
49D
340
49C
340
48C
340
48B
340
48A
340
489
340
488
340
487
340
486
340
485
340
484
340
483
340
482
340
481
340
480
340
47F
340
47E
340
47D
340
47C
340
47B
340
47A
340
479
340
478
340
477
340
476
340
475
340
474
340
473
340
472
340
471
340
470
340
46F
340
46E
340
46D
340
46C
340
46B
340
46A
340
469
340
468
340
467
340
466
340
465
340
464
340
463
340
462
340
461
340
460
340
45F
340
45E
340
45D
340
45C
340
45B
340
45A
340
459
340
458
340
457
340
456
340
455
340
454
340
453
340
452
340
451
340
450
340
44F
340
44E
340
44D
340
44C
340
44B
340
44A
340
449
340
448
340
447
340
446
340
445
340
444
  0
GROUP
  5
4A3
102
{ACAD_REACTORS
330
D
102
}
330
D
100
AcDbGroup
300

 70
     1
 71
     1
340
49F
340
49E
340
443
340
442
340
441
340
440
340
43F
340
43E
340
43D
340
43C
340
43B
340
43A
340
439
340
438
340
437
340
436
340
435
340
434
340
433
340
432
340
431
340
430
340
42F
340
42E
340
42D
340
42C
340
42B
340
42A
340
429
340
428
340
427
340
426
340
425
340
424
340
423
340
422
340
421
340
420
340
41F
340
41E
340
41D
340
41C
340
41B
340
41A
340
419
340
418
340
417
340
416
340
415
340
414
340
413
340
412
340
411
340
410
340
40F
340
40E
340
40D
340
40C
340
40B
340
40A
340
409
340
408
340
407
340
406
340
405
340
404
  0
GROUP
  5
4A5
102
{ACAD_REACTORS
330
D
102
}
330
D
100
AcDbGroup
300

 70
     1
 71
     1
340
48E
340
48D
340
382
340
381
340
380
340
37F
340
37E
340
37D
340
37C
340
37B
340
37A
340
379
340
378
340
377
340
376
340
375
340
374
340
373
340
372
340
371
340
370
340
36F
340
36E
340
36D
340
36C
340
36B
340
36A
340
369
340
368
340
367
340
366
340
365
340
364
340
363
340
362
340
361
340
360
340
35F
340
35E
340
35D
340
35C
340
35B
340
35A
  0
GROUP
  5
4F2
102
{ACAD_REACTORS
330
D
102
}
330
D
100
AcDbGroup
300

 70
     1
 71
     1
340
48F
340
357
340
356
340
355
340
354
340
353
340
352
340
351
340
350
340
34F
340
34E
340
34D
340
34C
340
34B
340
34A
340
349
340
348
340
347
340
346
340
345
340
344
340
343
340
342
340
341
340
340
340
33F
340
33E
340
33D
340
33A
340
339
340
338
340
337
340
334
340
333
340
332
340
331
340
330
340
32F
340
32E
340
32D
340
32C
340
32B
340
32A
340
329
340
328
340
327
340
326
340
325
340
324
340
323
340
322
340
321
340
320
340
31F
340
31E
340
31D
340
31C
340
31B
340
490
  0
LAYOUT
  5
1E
102
{ACAD_XDICTIONARY
360
53F
102
}
102
{ACAD_REACTORS
330
1A
102
}
330
1A
100
AcDbPlotSettings
  1

  2
none_device
  4

  6

 40
0.0
 41
0.0
 42
0.0
 43
0.0
 44
0.0
 45
0.0
 46
0.0
 47
0.0
 48
0.0
 49
0.0
140
0.0
141
0.0
142
1.0
143
1.0
 70
   688
 72
     1
 73
     0
 74
     5
  7

 75
    16
147
1.0
148
0.0
149
0.0
100
AcDbLayout
  1
Layout1
 70
     1
 71
     1
 10
0.0
 20
0.0
 11
420.0
 21
297.0
 12
0.0
 22
0.0
 32
0.0
 14
1.000000000000000E+20
 24
1.000000000000000E+20
 34
1.000000000000000E+20
 15
-1.000000000000000E+20
 25
-1.000000000000000E+20
 35
-1.000000000000000E+20
146
0.0
 13
0.0
 23
0.0
 33
0.0
 16
1.0
 26
0.0
 36
0.0
 17
0.0
 27
1.0
 37
0.0
 76
     0
330
1B
  0
LAYOUT
  5
22
102
{ACAD_XDICTIONARY
360
541
102
}
102
{ACAD_REACTORS
330
1A
102
}
330
1A
100
AcDbPlotSettings
  1

  2
none_device
  4
Letter_(8.50_x_11.00_Inches)
  6

 40
6.349999999999998
 41
6.349999999999998
 42
6.350005079999998
 43
6.350005079999998
 44
215.9
 45
279.4
 46
0.0
 47
0.0
 48
0.0
 49
0.0
140
0.0
141
0.0
142
1.0
143
1.0
 70
  1712
 72
     1
 73
     0
 74
     0
  7

 75
     0
147
1.0
148
0.0
149
0.0
100
AcDbLayout
  1
Model
 70
     1
 71
     0
 10
-312.8004220617825
 20
-388.1447671545559
 11
787.1030731201171
 21
544.5818704260403
 12
0.0
 22
0.0
 32
0.0
 14
-312.8004220617825
 24
-388.1447671545559
 34
0.0
 15
787.1030731201171
 25
544.5818704260403
 35
0.0
146
0.0
 13
0.0
 23
0.0
 33
0.0
 16
1.0
 26
0.0
 36
0.0
 17
0.0
 27
1.0
 37
0.0
 76
     0
330
1F
331
29
  0
LAYOUT
  5
23F
102
{ACAD_XDICTIONARY
360
578
102
}
102
{ACAD_REACTORS
330
1A
102
}
330
1A
100
AcDbPlotSettings
  1

  2
青梅 FX DocuCentre-V C2275 T2
  4

  6

 40
0.0
 41
0.0
 42
0.0
 43
0.0
 44
0.0
 45
0.0
 46
0.0
 47
0.0
 48
0.0
 49
0.0
140
0.0
141
0.0
142
1.0
143
1.0
 70
   688
 72
     0
 73
     0
 74
     5
  7
AutoCAD_PEN.ctb
 75
    16
147
1.0
148
0.0
149
0.0
100
AcDbLayout
  1
レイアウト1
 70
     1
 71
     2
 10
0.0
 20
0.0
 11
12.0
 21
9.0
 12
0.0
 22
0.0
 32
0.0
 14
0.0
 24
0.0
 34
0.0
 15
0.0
 25
0.0
 35
0.0
146
0.0
 13
0.0
 23
0.0
 33
0.0
 16
1.0
 26
0.0
 36
0.0
 17
0.0
 27
1.0
 37
0.0
 76
     0
330
23
  0
MATERIAL
  5
45
102
{ACAD_XDICTIONARY
360
231
102
}
102
{ACAD_REACTORS
330
43
102
}
330
43
100
AcDbMaterial
  1
ByBlock
  0
MATERIAL
  5
44
102
{ACAD_XDICTIONARY
360
22F
102
}
102
{ACAD_REACTORS
330
43
102
}
330
43
100
AcDbMaterial
  1
ByLayer
  0
MATERIAL
  5
46
102
{ACAD_XDICTIONARY
360
233
102
}
102
{ACAD_REACTORS
330
43
102
}
330
43
100
AcDbMaterial
  1
Global
  0
MLEADERSTYLE
  5
5C
102
{ACAD_REACTORS
330
5B
102
}
330
5B
100
AcDbMLeaderStyle
170
     2
171
     1
172
     0
 90
        2
 40
0.0
 41
0.0
173
     1
 91
-1056964608
340
14
 92
       -2
290
     1
 42
2.0
291
     1
 43
8.0
  3
Standard
 44
4.0
300

342
11
174
     1
178
     6
175
     1
176
     0
 93
-1056964608
 45
4.0
292
     0
297
     0
 46
4.0
 94
-1056964608
 47
1.0
 49
1.0
140
1.0
293
     1
141
0.0
294
     1
177
     0
142
1.0
295
     0
296
     0
143
3.75
1001
ACAD_MLEADERVER
1070
     2
  0
MLINESTYLE
  5
18
102
{ACAD_REACTORS
330
17
102
}
330
17
100
AcDbMlineStyle
  2
STANDARD
 70
     0
  3

 62
   256
 51
90.0
 52
90.0
 71
     2
 49
0.5
 62
   256
  6
BYLAYER
 49
-0.5
 62
   256
  6
BYLAYER
  0
ACDBPLACEHOLDER
  5
F
102
{ACAD_REACTORS
330
E
102
}
330
E
  0
SCALE
  5
48
102
{ACAD_REACTORS
330
47
102
}
330
47
100
AcDbScale
 70
     0
300
1:1
140
1.0
141
1.0
290
     1
  0
SCALE
  5
49
102
{ACAD_REACTORS
330
47
102
}
330
47
100
AcDbScale
 70
     0
300
1:2
140
1.0
141
2.0
290
     0
  0
SCALE
  5
4A
102
{ACAD_REACTORS
330
47
102
}
330
47
100
AcDbScale
 70
     0
300
1:4
140
1.0
141
4.0
290
     0
  0
SCALE
  5
4B
102
{ACAD_REACTORS
330
47
102
}
330
47
100
AcDbScale
 70
     0
300
1:5
140
1.0
141
5.0
290
     0
  0
SCALE
  5
4C
102
{ACAD_REACTORS
330
47
102
}
330
47
100
AcDbScale
 70
     0
300
1:8
140
1.0
141
8.0
290
     0
  0
SCALE
  5
4D
102
{ACAD_REACTORS
330
47
102
}
330
47
100
AcDbScale
 70
     0
300
1:10
140
1.0
141
10.0
290
     0
  0
SCALE
  5
4E
102
{ACAD_REACTORS
330
47
102
}
330
47
100
AcDbScale
 70
     0
300
1:16
140
1.0
141
16.0
290
     0
  0
SCALE
  5
4F
102
{ACAD_REACTORS
330
47
102
}
330
47
100
AcDbScale
 70
     0
300
1:20
140
1.0
141
20.0
290
     0
  0
SCALE
  5
50
102
{ACAD_REACTORS
330
47
102
}
330
47
100
AcDbScale
 70
     0
300
1:30
140
1.0
141
30.0
290
     0
  0
SCALE
  5
51
102
{ACAD_REACTORS
330
47
102
}
330
47
100
AcDbScale
 70
     0
300
1:40
140
1.0
141
40.0
290
     0
  0
SCALE
  5
52
102
{ACAD_REACTORS
330
47
102
}
330
47
100
AcDbScale
 70
     0
300
1:50
140
1.0
141
50.0
290
     0
  0
SCALE
  5
53
102
{ACAD_REACTORS
330
47
102
}
330
47
100
AcDbScale
 70
     0
300
1:100
140
1.0
141
100.0
290
     0
  0
SCALE
  5
54
102
{ACAD_REACTORS
330
47
102
}
330
47
100
AcDbScale
 70
     0
300
2:1
140
2.0
141
1.0
290
     0
  0
SCALE
  5
55
102
{ACAD_REACTORS
330
47
102
}
330
47
100
AcDbScale
 70
     0
300
4:1
140
4.0
141
1.0
290
     0
  0
SCALE
  5
56
102
{ACAD_REACTORS
330
47
102
}
330
47
100
AcDbScale
 70
     0
300
8:1
140
8.0
141
1.0
290
     0
  0
SCALE
  5
57
102
{ACAD_REACTORS
330
47
102
}
330
47
100
AcDbScale
 70
     0
300
10:1
140
10.0
141
1.0
290
     0
  0
SCALE
  5
58
102
{ACAD_REACTORS
330
47
102
}
330
47
100
AcDbScale
 70
     0
300
100:1
140
100.0
141
1.0
290
     0
  0
ACDBSECTIONVIEWSTYLE
  5
23C
102
{ACAD_XDICTIONARY
360
574
102
}
102
{ACAD_REACTORS
330
23B
102
}
330
23B
100
AcDbModelDocViewStyle
 70
     0
  3
Metric50
290
     0
100
AcDbSectionViewStyle
 70
     0
 71
     0
 90
      102
 71
     1
340
11
 40
5.0
340
0
340
0
 40
5.0
300
I, O, Q, S, X, Z
 40
10.0
 90
        0
 40
2.5
 90
        0
 71
     2
340
16
 90
       25
340
16
 90
       50
 40
5.0
 40
2.5
 40
5.0
 71
     3
340
11
 40
5.0
 90
        0
 40
15.0
 90
        1
300
%<\AcVar ViewSectionStartId>%-%<\AcVar ViewSectionEndId>% (%<\AcVar ViewScale \f "%sn">%)
 71
     4
300
ANSI31
 40
1.0
 90
        0
290
     0
290
     0
 90
        6
 40
0.0
 40
1.570796326794896
 40
0.2617993877991494
 40
1.308996938995747
 40
-0.2617993877991494
 40
1.832595714594045
  0
TABLESTYLE
  5
5A
102
{ACAD_XDICTIONARY
360
4AF
102
}
102
{ACAD_REACTORS
330
59
102
}
330
59
100
AcDbTableStyle
  3
Standard
 70
     0
 71
     0
 40
1.5
 41
1.5
280
     0
281
     0
  7
Standard
140
4.5
170
     2
 62
     0
 63
     7
283
     0
274
    -2
284
     1
 64
     0
275
    -2
285
     1
 65
     0
276
    -2
286
     1
 66
     0
277
    -2
287
     1
 67
     0
278
    -2
288
     1
 68
     0
279
    -2
289
     1
 69
     0
  7
Standard
140
6.0
170
     5
 62
     0
 63
     7
283
     0
274
    -2
284
     1
 64
     0
275
    -2
285
     1
 65
     0
276
    -2
286
     1
 66
     0
277
    -2
287
     1
 67
     0
278
    -2
288
     1
 68
     0
279
    -2
289
     1
 69
     0
  7
Standard
140
4.5
170
     5
 62
     0
 63
     7
283
     0
274
    -2
284
     1
 64
     0
275
    -2
285
     1
 65
     0
276
    -2
286
     1
 66
     0
277
    -2
287
     1
 67
     0
278
    -2
288
     1
 68
     0
279
    -2
289
     1
 69
     0
  0
VISUALSTYLE
  5
2F
102
{ACAD_XDICTIONARY
360
54B
102
}
102
{ACAD_REACTORS
330
2A
102
}
330
2A
100
AcDbVisualStyle
  2

 70
     4
 71
     0
 72
     2
 73
     0
 90
        0
 40
-0.6
 41
-30.0
 62
     5
 63
     7
 74
     1
 91
        4
 64
     7
 65
   257
 75
     1
175
     1
 42
1.0
 92
        0
 66
   257
 43
1.0
 76
     1
 77
     6
 78
     2
 67
     7
 79
     5
170
     0
171
     0
290
     0
174
     0
 93
        1
 44
0.0
173
     0
291
     0
 45
0.0
1001
ACAD
1000
AcDbSavedByObjectVersion
1070
     0
  0
VISUALSTYLE
  5
32
102
{ACAD_XDICTIONARY
360
551
102
}
102
{ACAD_REACTORS
330
2A
102
}
330
2A
100
AcDbVisualStyle
  2

 70
     7
 71
     1
 72
     0
 73
     1
 90
        0
 40
-0.6
 41
-30.0
 62
     5
 63
     7
 74
     0
 91
        4
 64
     7
 65
   257
 75
     1
175
     1
 42
1.0
 92
        8
 66
     7
 43
1.0
 76
     1
 77
     6
 78
     2
 67
     7
 79
     5
170
     0
171
     0
290
     0
174
     0
 93
        1
 44
0.0
173
     0
291
     1
 45
0.0
1001
ACAD
1000
AcDbSavedByObjectVersion
1070
     0
  0
VISUALSTYLE
  5
36
102
{ACAD_XDICTIONARY
360
559
102
}
102
{ACAD_REACTORS
330
2A
102
}
330
2A
100
AcDbVisualStyle
  2

 70
    12
 71
     2
 72
     2
 73
     0
 90
        0
 40
-0.6
 41
-30.0
 62
     5
 63
     7
 74
     1
 91
        4
 64
     7
 65
   257
 75
     1
175
     1
 42
1.0
 92
        8
 66
     7
 43
1.0
 76
     1
 77
     6
 78
     2
 67
     7
 79
     5
170
     0
171
     0
290
     0
174
     0
 93
        1
 44
50.0
173
     0
291
     1
 45
0.0
1001
ACAD
1000
AcDbSavedByObjectVersion
1070
     0
  0
VISUALSTYLE
  5
3A
102
{ACAD_XDICTIONARY
360
561
102
}
102
{ACAD_REACTORS
330
2A
102
}
330
2A
100
AcDbVisualStyle
  2

 70
    16
 71
     2
 72
     2
 73
     3
 90
        0
 40
-0.6
 41
-30.0
 62
     5
 63
     8
 74
     1
 91
        4
 64
     7
 65
   257
 75
     1
175
     1
 42
1.0
 92
        8
 66
     8
 43
1.0
 76
     1
 77
     6
 78
     2
 67
     7
 79
     5
170
     0
171
     0
290
     0
174
     0
 93
        1
 44
0.0
173
     0
291
     1
 45
0.0
1001
ACAD
1000
AcDbSavedByObjectVersion
1070
     0
  0
VISUALSTYLE
  5
34
102
{ACAD_XDICTIONARY
360
555
102
}
102
{ACAD_REACTORS
330
2A
102
}
330
2A
100
AcDbVisualStyle
  2

 70
     9
 71
     3
 72
     2
 73
     0
 90
        0
 40
-0.6
 41
-30.0
 62
     5
 63
     7
 74
     2
 91
        2
 64
     7
 65
   257
 75
     1
175
     1
 42
179.0
 92
        8
 66
     7
 43
1.0
 76
     1
 77
     6
 78
     2
 67
     7
 79
     3
170
     0
171
     0
290
     0
174
     0
 93
        1
 44
0.0
173
     0
291
     0
 45
0.0
1001
ACAD
1000
AcDbSavedByObjectVersion
1070
     0
  0
VISUALSTYLE
  5
35
102
{ACAD_XDICTIONARY
360
557
102
}
102
{ACAD_REACTORS
330
2A
102
}
330
2A
100
AcDbVisualStyle
  2

 70
    11
 71
     2
 72
     2
 73
     0
 90
        0
 40
-0.6
 41
-30.0
 62
     5
 63
     7
 74
     1
 91
        4
 64
     7
 65
   257
 75
     1
175
     1
 42
1.0
 92
        8
 66
     7
 43
1.0
 76
     1
 77
     6
 78
     2
 67
     7
 79
     5
170
     0
171
     0
290
     0
174
     0
 93
        1
 44
-50.0
173
     0
291
     1
 45
0.0
1001
ACAD
1000
AcDbSavedByObjectVersion
1070
     0
  0
VISUALSTYLE
  5
3D
102
{ACAD_XDICTIONARY
360
567
102
}
102
{ACAD_REACTORS
330
2A
102
}
330
2A
100
AcDbVisualStyle
  2

 70
    22
 71
     2
 72
     2
 73
     0
 90
        0
 40
-0.6
 41
-30.0
 62
     5
 63
     7
 74
     1
 91
        4
 64
     7
 65
   257
 75
     1
175
     1
 42
1.0
 92
        8
 66
     7
 43
1.0
 76
     1
 77
     6
 78
     2
 67
     7
 79
     5
170
     0
171
     0
290
     0
174
     0
 93
        1
 44
0.0
173
     0
291
     1
 45
0.0
1001
ACAD
1000
AcDbSavedByObjectVersion
1070
     0
  0
VISUALSTYLE
  5
39
102
{ACAD_XDICTIONARY
360
55F
102
}
102
{ACAD_REACTORS
330
2A
102
}
330
2A
100
AcDbVisualStyle
  2

 70
    15
 71
     2
 72
     2
 73
     0
 90
        0
 40
-0.6
 41
-30.0
 62
     5
 63
     7
 74
     1
 91
        4
 64
     7
 65
   257
 75
     1
175
     1
 42
1.0
 92
        8
 66
     7
 43
1.0
 76
     1
 77
     6
 78
     2
 67
     7
 79
     5
170
     0
171
     0
290
     0
174
     0
 93
        1
 44
0.0
173
     0
291
     1
 45
0.0
1001
ACAD
1000
AcDbSavedByObjectVersion
1070
     0
  0
VISUALSTYLE
  5
2B
102
{ACAD_XDICTIONARY
360
543
102
}
102
{ACAD_REACTORS
330
2A
102
}
330
2A
100
AcDbVisualStyle
  2

 70
     0
 71
     2
 72
     1
 73
     1
 90
        2
 40
-0.6
 41
30.0
 62
     5
 63
     7
 74
     0
 91
        0
 64
     7
 65
   257
 75
     1
175
     1
 42
1.0
 92
        8
 66
     7
 43
1.0
 76
     1
 77
     6
 78
     2
 67
     7
 79
     5
170
     0
171
     0
290
     0
174
     0
 93
       13
 44
0.0
173
     0
291
     1
 45
0.0
1001
ACAD
1000
AcDbSavedByObjectVersion
1070
     0
  0
VISUALSTYLE
  5
2C
102
{ACAD_XDICTIONARY
360
545
102
}
102
{ACAD_REACTORS
330
2A
102
}
330
2A
100
AcDbVisualStyle
  2

 70
     1
 71
     2
 72
     1
 73
     1
 90
        2
 40
-0.6
 41
30.0
 62
     5
 63
     7
 74
     1
 91
        0
 64
     7
 65
   257
 75
     1
175
     1
 42
1.0
 92
        0
 66
   257
 43
1.0
 76
     1
 77
     6
 78
     2
 67
     7
 79
     5
170
     0
171
     0
290
     0
174
     0
 93
       13
 44
0.0
173
     0
291
     1
 45
0.0
1001
ACAD
1000
AcDbSavedByObjectVersion
1070
     0
  0
VISUALSTYLE
  5
2D
102
{ACAD_XDICTIONARY
360
547
102
}
102
{ACAD_REACTORS
330
2A
102
}
330
2A
100
AcDbVisualStyle
  2

 70
     2
 71
     2
 72
     2
 73
     1
 90
        2
 40
-0.6
 41
30.0
 62
     5
 63
     7
 74
     0
 91
        0
 64
     7
 65
   257
 75
     1
175
     1
 42
1.0
 92
        0
 66
     7
 43
1.0
 76
     1
 77
     6
 78
     2
 67
     7
 79
     5
170
     0
171
     0
290
     0
174
     0
 93
       13
 44
0.0
173
     0
291
     1
 45
0.0
1001
ACAD
1000
AcDbSavedByObjectVersion
1070
     0
  0
VISUALSTYLE
  5
2E
102
{ACAD_XDICTIONARY
360
549
102
}
102
{ACAD_REACTORS
330
2A
102
}
330
2A
100
AcDbVisualStyle
  2

 70
     3
 71
     2
 72
     2
 73
     1
 90
        2
 40
-0.6
 41
30.0
 62
     5
 63
     7
 74
     1
 91
        0
 64
     7
 65
   257
 75
     1
175
     1
 42
1.0
 92
        0
 66
   257
 43
1.0
 76
     1
 77
     6
 78
     2
 67
     7
 79
     5
170
     0
171
     0
290
     0
174
     0
 93
       13
 44
0.0
173
     0
291
     1
 45
0.0
1001
ACAD
1000
AcDbSavedByObjectVersion
1070
     0
  0
VISUALSTYLE
  5
31
102
{ACAD_XDICTIONARY
360
54F
102
}
102
{ACAD_REACTORS
330
2A
102
}
330
2A
100
AcDbVisualStyle
  2

 70
     6
 71
     1
 72
     2
 73
     2
 90
        0
 40
-0.6
 41
-30.0
 62
     5
 63
     7
 74
     2
 91
        2
 64
     7
 65
   257
 75
     2
175
     1
 42
40.0
 92
        0
 66
   257
 43
1.0
 76
     1
 77
     6
 78
     2
 67
     7
 79
     3
170
     0
171
     0
290
     0
174
     0
 93
        1
 44
0.0
173
     0
291
     0
 45
0.0
1001
ACAD
1000
AcDbSavedByObjectVersion
1070
     0
  0
VISUALSTYLE
  5
3B
102
{ACAD_XDICTIONARY
360
563
102
}
102
{ACAD_REACTORS
330
2A
102
}
330
2A
100
AcDbVisualStyle
  2

 70
    20
 71
     2
 72
     2
 73
     0
 90
        0
 40
-0.6
 41
-30.0
 62
     5
 63
     7
 74
     1
 91
        4
 64
     7
 65
   257
 75
     1
175
     1
 42
1.0
 92
       10
 66
     7
 43
1.0
 76
     1
 77
     6
 78
     2
 67
     7
 79
     5
170
     0
171
     0
290
     0
174
     0
 93
        1
 44
0.0
173
     0
291
     1
 45
0.0
1001
ACAD
1000
AcDbSavedByObjectVersion
1070
     0
  0
VISUALSTYLE
  5
38
102
{ACAD_XDICTIONARY
360
55D
102
}
102
{ACAD_REACTORS
330
2A
102
}
330
2A
100
AcDbVisualStyle
  2

 70
    14
 71
     2
 72
     2
 73
     0
 90
        0
 40
-0.6
 41
-30.0
 62
     5
 63
     7
 74
     1
 91
        4
 64
     7
 65
   257
 75
     7
175
     7
 42
1.0
 92
        8
 66
     7
 43
1.0
 76
     1
 77
     6
 78
     2
 67
     7
 79
     5
170
     0
171
     0
290
     0
174
     0
 93
        1
 44
0.0
173
     0
291
     1
 45
0.0
1001
ACAD
1000
AcDbSavedByObjectVersion
1070
     0
  0
VISUALSTYLE
  5
3C
102
{ACAD_XDICTIONARY
360
565
102
}
102
{ACAD_REACTORS
330
2A
102
}
330
2A
100
AcDbVisualStyle
  2

 70
    21
 71
     2
 72
     2
 73
     0
 90
        0
 40
-0.6
 41
-30.0
 62
     5
 63
     7
 74
     1
 91
        4
 64
     7
 65
   257
 75
     1
175
     1
 42
1.0
 92
        9
 66
     7
 43
1.0
 76
     1
 77
     6
 78
     2
 67
     7
 79
     5
170
     0
171
     0
290
     0
174
     0
 93
        1
 44
0.0
173
     0
291
     1
 45
0.0
1001
ACAD
1000
AcDbSavedByObjectVersion
1070
     0
  0
VISUALSTYLE
  5
33
102
{ACAD_XDICTIONARY
360
553
102
}
102
{ACAD_REACTORS
330
2A
102
}
330
2A
100
AcDbVisualStyle
  2

 70
     8
 71
     2
 72
     3
 73
     0
 90
        2
 40
-0.6
 41
30.0
 62
     5
 63
     7
 74
     0
 91
        0
 64
     7
 65
   257
 75
     1
175
     1
 42
1.0
 92
        8
 66
   257
 43
1.0
 76
     1
 77
     6
 78
     2
 67
     7
 79
     3
170
     0
171
     0
290
     0
174
     0
 93
       13
 44
0.0
173
     0
291
     0
 45
0.0
1001
ACAD
1000
AcDbSavedByObjectVersion
1070
     0
  0
VISUALSTYLE
  5
42
102
{ACAD_XDICTIONARY
360
571
102
}
102
{ACAD_REACTORS
330
2A
102
}
330
2A
100
AcDbVisualStyle
  2

 70
    27
 71
     2
 72
     2
 73
     1
 90
        2
 40
-0.6
 41
30.0
 62
     5
 63
     7
 74
     0
 91
        4
 64
     7
 65
   257
 75
     1
175
     1
 42
1.0
 92
        8
 66
   257
 43
1.0
 76
     1
 77
     6
 78
     2
 67
     8
 79
     3
170
     0
171
     0
290
     0
174
     0
 93
        5
 44
0.0
173
     0
291
     0
 45
0.0
1001
ACAD
1000
AcDbSavedByObjectVersion
1070
     0
  0
VISUALSTYLE
  5
41
102
{ACAD_XDICTIONARY
360
56F
102
}
102
{ACAD_REACTORS
330
2A
102
}
330
2A
100
AcDbVisualStyle
  2

 70
    26
 71
     2
 72
     2
 73
     1
 90
        2
 40
-0.6
 41
30.0
 62
     5
 63
     7
 74
     1
 91
       10
 64
     7
 65
   257
 75
     2
175
     1
 42
1.0
 92
        8
 66
   257
 43
1.0
 76
     1
 77
     6
 78
     2
 67
     7
 79
     3
170
     0
171
     0
290
     0
174
     0
 93
        5
 44
0.0
173
     0
291
     0
 45
0.0
1001
ACAD
1000
AcDbSavedByObjectVersion
1070
     0
  0
VISUALSTYLE
  5
3E
102
{ACAD_XDICTIONARY
360
569
102
}
102
{ACAD_REACTORS
330
2A
102
}
330
2A
100
AcDbVisualStyle
  2

 70
    23
 71
     2
 72
     2
 73
     3
 90
        0
 40
-0.6
 41
-30.0
 62
     5
 63
     7
 74
     2
 91
        2
 64
     7
 65
     7
 75
     1
175
     1
 42
40.0
 92
        8
 66
     7
 43
1.0
 76
     1
 77
     6
 78
     2
 67
     7
 79
     3
170
     0
171
     0
290
     0
174
     0
 93
        1
 44
0.0
173
     0
291
     0
 45
0.0
1001
ACAD
1000
AcDbSavedByObjectVersion
1070
     0
  0
VISUALSTYLE
  5
3F
102
{ACAD_XDICTIONARY
360
56B
102
}
102
{ACAD_REACTORS
330
2A
102
}
330
2A
100
AcDbVisualStyle
  2

 70
    24
 71
     1
 72
     2
 73
     2
 90
        0
 40
-0.6
 41
-30.0
 62
     5
 63
     7
 74
     2
 91
        2
 64
     7
 65
     7
 75
     1
175
     1
 42
40.0
 92
       11
 66
     7
 43
1.0
 76
     1
 77
     6
 78
     2
 67
     7
 79
     6
170
     0
171
     0
290
     0
174
     0
 93
        1
 44
0.0
173
     0
291
     0
 45
0.0
1001
ACAD
1000
AcDbSavedByObjectVersion
1070
     0
  0
VISUALSTYLE
  5
37
102
{ACAD_XDICTIONARY
360
55B
102
}
102
{ACAD_REACTORS
330
2A
102
}
330
2A
100
AcDbVisualStyle
  2

 70
    13
 71
     2
 72
     2
 73
     0
 90
        0
 40
-0.6
 41
-30.0
 62
     5
 63
     7
 74
     1
 91
        4
 64
     7
 65
   257
 75
     1
175
     1
 42
1.0
 92
       12
 66
     7
 43
1.0
 76
     1
 77
     6
 78
     2
 67
     7
 79
     5
170
     0
171
     0
290
     0
174
     0
 93
        1
 44
0.0
173
     0
291
     1
 45
0.0
1001
ACAD
1000
AcDbSavedByObjectVersion
1070
     0
  0
VISUALSTYLE
  5
30
102
{ACAD_XDICTIONARY
360
54D
102
}
102
{ACAD_REACTORS
330
2A
102
}
330
2A
100
AcDbVisualStyle
  2

 70
     5
 71
     0
 72
     2
 73
     0
 90
        0
 40
-0.6
 41
-30.0
 62
     5
 63
     7
 74
     1
 91
        4
 64
     7
 65
   257
 75
     1
175
     1
 42
1.0
 92
        0
 66
   257
 43
1.0
 76
     1
 77
     6
 78
     2
 67
     7
 79
     3
170
     0
171
     0
290
     0
174
     0
 93
        1
 44
0.0
173
     0
291
     0
 45
0.0
1001
ACAD
1000
AcDbSavedByObjectVersion
1070
     0
  0
VISUALSTYLE
  5
40
102
{ACAD_XDICTIONARY
360
56D
102
}
102
{ACAD_REACTORS
330
2A
102
}
330
2A
100
AcDbVisualStyle
  2

 70
    25
 71
     2
 72
     2
 73
     1
 90
        1
 40
0.5
 41
-30.0
 62
     5
 63
     7
 74
     1
 91
        0
 64
     7
 65
   257
 75
     1
175
     1
 42
1.0
 92
        8
 66
     7
 43
1.0
 76
     1
 77
     6
 78
     2
 67
     7
 79
     3
170
     0
171
     0
290
     0
174
     0
 93
       13
 44
0.0
173
     0
291
     0
 45
0.0
1001
ACAD
1000
AcDbSavedByObjectVersion
1070
     0
  0
DICTIONARYVAR
  5
1FD
102
{ACAD_REACTORS
330
1EF
102
}
330
1EF
100
DictionaryVariables
280
     0
  1
1:1
  0
DICTIONARYVAR
  5
1F6
102
{ACAD_REACTORS
330
1EF
102
}
330
1EF
100
DictionaryVariables
280
     0
  1
3.500000
  0
DICTIONARYVAR
  5
1F7
102
{ACAD_REACTORS
330
1EF
102
}
330
1EF
100
DictionaryVariables
280
     0
  1
acadiso.lin
  0
DICTIONARYVAR
  5
1F1
102
{ACAD_REACTORS
330
1EF
102
}
330
1EF
100
DictionaryVariables
280
     0
  1
STANDARD
  0
DICTIONARYVAR
  5
1F0
102
{ACAD_REACTORS
330
1EF
102
}
330
1EF
100
DictionaryVariables
280
     0
  1
STANDARD
  0
DICTIONARYVAR
  5
4AA
102
{ACAD_REACTORS
330
1EF
102
}
330
1EF
100
DictionaryVariables
280
     0
  1
Metric50
  0
DICTIONARYVAR
  5
4AB
102
{ACAD_REACTORS
330
1EF
102
}
330
1EF
100
DictionaryVariables
280
     0
  1
Metric50
  0
DICTIONARYVAR
  5
1F8
102
{ACAD_REACTORS
330
1EF
102
}
330
1EF
100
DictionaryVariables
280
     0
  1
2
  0
DICTIONARYVAR
  5
1F9
102
{ACAD_REACTORS
330
1EF
102
}
330
1EF
100
DictionaryVariables
280
     0
  1
1
  0
DICTIONARYVAR
  5
4F7
102
{ACAD_REACTORS
330
1EF
102
}
330
1EF
100
DictionaryVariables
280
     0
  1
0
  0
DICTIONARYVAR
  5
4AD
102
{ACAD_REACTORS
330
1EF
102
}
330
1EF
100
DictionaryVariables
280
     0
  1
1
  0
DICTIONARYVAR
  5
4AE
102
{ACAD_REACTORS
330
1EF
102
}
330
1EF
100
DictionaryVariables
280
     0
  1
15
  0
DICTIONARYVAR
  5
4AC
102
{ACAD_REACTORS
330
1EF
102
}
330
1EF
100
DictionaryVariables
280
     0
  1
0
  0
DICTIONARYVAR
  5
4FA
102
{ACAD_REACTORS
330
1EF
102
}
330
1EF
100
DictionaryVariables
280
     0
  1
1.570796
  0
DICTIONARYVAR
  5
4FB
102
{ACAD_REACTORS
330
1EF
102
}
330
1EF
100
DictionaryVariables
280
     0
  1
1.570796
  0
DICTIONARYVAR
  5
4FC
102
{ACAD_REACTORS
330
1EF
102
}
330
1EF
100
DictionaryVariables
280
     0
  1
-122.394000
  0
DICTIONARYVAR
  5
1FE
102
{ACAD_REACTORS
330
1EF
102
}
330
1EF
100
DictionaryVariables
280
     0
  1
1
  0
DICTIONARYVAR
  5
4F9
102
{ACAD_REACTORS
330
1EF
102
}
330
1EF
100
DictionaryVariables
280
     0
  1
80.000000
  0
DICTIONARYVAR
  5
4F8
102
{ACAD_REACTORS
330
1EF
102
}
330
1EF
100
DictionaryVariables
280
     0
  1
5.000000
  0
DICTIONARYVAR
  5
4F6
102
{ACAD_REACTORS
330
1EF
102
}
330
1EF
100
DictionaryVariables
280
     0
  1
127
  0
DICTIONARYVAR
  5
4FD
102
{ACAD_REACTORS
330
1EF
102
}
330
1EF
100
DictionaryVariables
280
     0
  1
2
  0
DICTIONARY
  5
576
330
23E
100
AcDbDictionary
280
     1
281
     1
  3
ACAD_XREC_ROUNDTRIP
360
577
  0
DICTIONARY
  5
53F
330
1E
100
AcDbDictionary
280
     1
281
     1
  3
ACAD_XREC_ROUNDTRIP
360
540
  0
DICTIONARY
  5
541
330
22
100
AcDbDictionary
280
     1
281
     1
  3
ACAD_XREC_ROUNDTRIP
360
542
  0
DICTIONARY
  5
578
330
23F
100
AcDbDictionary
280
     1
281
     1
  3
ACAD_XREC_ROUNDTRIP
360
579
  0
DICTIONARY
  5
231
330
45
100
AcDbDictionary
280
     1
281
     1
  3
ACAD_XREC_ROUNDTRIP
360
232
  0
DICTIONARY
  5
22F
330
44
100
AcDbDictionary
280
     1
281
     1
  3
ACAD_XREC_ROUNDTRIP
360
230
  0
DICTIONARY
  5
233
330
46
100
AcDbDictionary
280
     1
281
     1
  3
ACAD_XREC_ROUNDTRIP
360
234
  0
DICTIONARY
  5
574
330
23C
100
AcDbDictionary
280
     1
281
     1
  3
ACAD_XREC_ROUNDTRIP
360
575
  0
DICTIONARY
  5
4AF
330
5A
100
AcDbDictionary
280
     1
281
     1
  3
ACAD_ROUNDTRIP_2008_TABLESTYLE_CELLSTYLEMAP
360
53C
  3
ACAD_XREC_ROUNDTRIP
360
573
  0
DICTIONARY
  5
54B
330
2F
100
AcDbDictionary
280
     1
281
     1
  3
ACAD_XREC_ROUNDTRIP
360
54C
  0
DICTIONARY
  5
551
330
32
100
AcDbDictionary
280
     1
281
     1
  3
ACAD_XREC_ROUNDTRIP
360
552
  0
DICTIONARY
  5
559
330
36
100
AcDbDictionary
280
     1
281
     1
  3
ACAD_XREC_ROUNDTRIP
360
55A
  0
DICTIONARY
  5
561
330
3A
100
AcDbDictionary
280
     1
281
     1
  3
ACAD_XREC_ROUNDTRIP
360
562
  0
DICTIONARY
  5
555
330
34
100
AcDbDictionary
280
     1
281
     1
  3
ACAD_XREC_ROUNDTRIP
360
556
  0
DICTIONARY
  5
557
330
35
100
AcDbDictionary
280
     1
281
     1
  3
ACAD_XREC_ROUNDTRIP
360
558
  0
DICTIONARY
  5
567
330
3D
100
AcDbDictionary
280
     1
281
     1
  3
ACAD_XREC_ROUNDTRIP
360
568
  0
DICTIONARY
  5
55F
330
39
100
AcDbDictionary
280
     1
281
     1
  3
ACAD_XREC_ROUNDTRIP
360
560
  0
DICTIONARY
  5
543
330
2B
100
AcDbDictionary
280
     1
281
     1
  3
ACAD_XREC_ROUNDTRIP
360
544
  0
DICTIONARY
  5
545
330
2C
100
AcDbDictionary
280
     1
281
     1
  3
ACAD_XREC_ROUNDTRIP
360
546
  0
DICTIONARY
  5
547
330
2D
100
AcDbDictionary
280
     1
281
     1
  3
ACAD_XREC_ROUNDTRIP
360
548
  0
DICTIONARY
  5
549
330
2E
100
AcDbDictionary
280
     1
281
     1
  3
ACAD_XREC_ROUNDTRIP
360
54A
  0
DICTIONARY
  5
54F
330
31
100
AcDbDictionary
280
     1
281
     1
  3
ACAD_XREC_ROUNDTRIP
360
550
  0
DICTIONARY
  5
563
330
3B
100
AcDbDictionary
280
     1
281
     1
  3
ACAD_XREC_ROUNDTRIP
360
564
  0
DICTIONARY
  5
55D
330
38
100
AcDbDictionary
280
     1
281
     1
  3
ACAD_XREC_ROUNDTRIP
360
55E
  0
DICTIONARY
  5
565
330
3C
100
AcDbDictionary
280
     1
281
     1
  3
ACAD_XREC_ROUNDTRIP
360
566
  0
DICTIONARY
  5
553
330
33
100
AcDbDictionary
280
     1
281
     1
  3
ACAD_XREC_ROUNDTRIP
360
554
  0
DICTIONARY
  5
571
330
42
100
AcDbDictionary
280
     1
281
     1
  3
ACAD_XREC_ROUNDTRIP
360
572
  0
DICTIONARY
  5
56F
330
41
100
AcDbDictionary
280
     1
281
     1
  3
ACAD_XREC_ROUNDTRIP
360
570
  0
DICTIONARY
  5
569
330
3E
100
AcDbDictionary
280
     1
281
     1
  3
ACAD_XREC_ROUNDTRIP
360
56A
  0
DICTIONARY
  5
56B
330
3F
100
AcDbDictionary
280
     1
281
     1
  3
ACAD_XREC_ROUNDTRIP
360
56C
  0
DICTIONARY
  5
55B
330
37
100
AcDbDictionary
280
     1
281
     1
  3
ACAD_XREC_ROUNDTRIP
360
55C
  0
DICTIONARY
  5
54D
330
30
100
AcDbDictionary
280
     1
281
     1
  3
ACAD_XREC_ROUNDTRIP
360
54E
  0
DICTIONARY
  5
56D
330
40
100
AcDbDictionary
280
     1
281
     1
  3
ACAD_XREC_ROUNDTRIP
360
56E
  0
XRECORD
  5
577
102
{ACAD_REACTORS
330
576
102
}
330
576
100
AcDbXrecord
280
     1
102
DISPLAYNAME
  1
Metric50
102
FLAGS
 90
        0
  0
XRECORD
  5
540
102
{ACAD_REACTORS
330
53F
102
}
330
53F
100
AcDbXrecord
280
     1
102
SHADEPLOT
 70
     0
102
SHADEPLOTRESLEVEL
 70
     2
102
SHADEPLOTCUSTOMDPI
 70
   300
  0
XRECORD
  5
542
102
{ACAD_REACTORS
330
541
102
}
330
541
100
AcDbXrecord
280
     1
102
SHADEPLOT
 70
     0
102
SHADEPLOTRESLEVEL
 70
     2
102
SHADEPLOTCUSTOMDPI
 70
   300
  0
XRECORD
  5
579
102
{ACAD_REACTORS
330
578
102
}
330
578
100
AcDbXrecord
280
     1
102
SHADEPLOT
 70
     0
102
SHADEPLOTRESLEVEL
 70
     2
102
SHADEPLOTCUSTOMDPI
 70
   300
  0
XRECORD
  5
232
102
{ACAD_REACTORS
330
231
102
}
330
231
100
AcDbXrecord
280
     1
102
MATERIAL
148
0.0
149
0.0
149
0.0
 93
        0
 94
      127
282
     0
 72
     1
 77
     1
171
     1
175
     1
179
     1
273
     0
  0
XRECORD
  5
230
102
{ACAD_REACTORS
330
22F
102
}
330
22F
100
AcDbXrecord
280
     1
102
MATERIAL
148
0.0
149
0.0
149
0.0
 93
        0
 94
      127
282
     0
 72
     1
 77
     1
171
     1
175
     1
179
     1
273
     0
  0
XRECORD
  5
234
102
{ACAD_REACTORS
330
233
102
}
330
233
100
AcDbXrecord
280
     1
102
MATERIAL
148
0.0
149
0.0
149
0.0
 93
        0
 94
      127
282
     0
 72
     1
 77
     1
171
     1
175
     1
179
     1
273
     0
  0
XRECORD
  5
575
102
{ACAD_REACTORS
330
574
102
}
330
574
100
AcDbXrecord
280
     1
102
DISPLAYNAME
  1
Metric50
102
FLAGS
 90
        0
  0
CELLSTYLEMAP
  5
53C
102
{ACAD_REACTORS
330
4AF
102
}
330
4AF
100
AcDbCellStyleMap
 90
        3
300
CELLSTYLE
  1
TABLEFORMAT_BEGIN
 90
        5
170
     1
 91
        0
 92
    32768
 62
   257
 93
        1
300
CONTENTFORMAT
  1
CONTENTFORMAT_BEGIN
 90
        0
 91
        0
 92
        4
 93
        0
300

 40
0.0
140
1.0
 94
        5
 62
     0
340
11
144
6.0
309
CONTENTFORMAT_END
171
     1
301
MARGIN
  1
CELLMARGIN_BEGIN
 40
1.5
 40
1.5
 40
1.5
 40
1.5
 40
0.18
 40
0.18
309
CELLMARGIN_END
 94
        6
 95
        1
302
GRIDFORMAT
  1
GRIDFORMAT_BEGIN
 90
        0
 91
        1
 62
     0
 92
       -2
340
0
 93
        0
 40
0.045
309
GRIDFORMAT_END
 95
        2
302
GRIDFORMAT
  1
GRIDFORMAT_BEGIN
 90
        0
 91
        1
 62
     0
 92
       -2
340
0
 93
        0
 40
0.045
309
GRIDFORMAT_END
 95
        4
302
GRIDFORMAT
  1
GRIDFORMAT_BEGIN
 90
        0
 91
        1
 62
     0
 92
       -2
340
0
 93
        0
 40
0.045
309
GRIDFORMAT_END
 95
        8
302
GRIDFORMAT
  1
GRIDFORMAT_BEGIN
 90
        0
 91
        1
 62
     0
 92
       -2
340
0
 93
        0
 40
0.045
309
GRIDFORMAT_END
 95
       16
302
GRIDFORMAT
  1
GRIDFORMAT_BEGIN
 90
        0
 91
        1
 62
     0
 92
       -2
340
0
 93
        0
 40
0.045
309
GRIDFORMAT_END
 95
       32
302
GRIDFORMAT
  1
GRIDFORMAT_BEGIN
 90
        0
 91
        1
 62
     0
 92
       -2
340
0
 93
        0
 40
0.045
309
GRIDFORMAT_END
309
TABLEFORMAT_END
  1
CELLSTYLE_BEGIN
 90
        1
 91
        1
300
_TITLE
309
CELLSTYLE_END
300
CELLSTYLE
  1
TABLEFORMAT_BEGIN
 90
        5
170
     1
 91
        0
 92
        0
 62
   257
 93
        1
300
CONTENTFORMAT
  1
CONTENTFORMAT_BEGIN
 90
        0
 91
        0
 92
        4
 93
        0
300

 40
0.0
140
1.0
 94
        5
 62
     0
340
11
144
4.5
309
CONTENTFORMAT_END
171
     1
301
MARGIN
  1
CELLMARGIN_BEGIN
 40
1.5
 40
1.5
 40
1.5
 40
1.5
 40
0.18
 40
0.18
309
CELLMARGIN_END
 94
        6
 95
        1
302
GRIDFORMAT
  1
GRIDFORMAT_BEGIN
 90
        0
 91
        1
 62
     0
 92
       -2
340
0
 93
        0
 40
0.045
309
GRIDFORMAT_END
 95
        2
302
GRIDFORMAT
  1
GRIDFORMAT_BEGIN
 90
        0
 91
        1
 62
     0
 92
       -2
340
0
 93
        0
 40
0.045
309
GRIDFORMAT_END
 95
        4
302
GRIDFORMAT
  1
GRIDFORMAT_BEGIN
 90
        0
 91
        1
 62
     0
 92
       -2
340
0
 93
        0
 40
0.045
309
GRIDFORMAT_END
 95
        8
302
GRIDFORMAT
  1
GRIDFORMAT_BEGIN
 90
        0
 91
        1
 62
     0
 92
       -2
340
0
 93
        0
 40
0.045
309
GRIDFORMAT_END
 95
       16
302
GRIDFORMAT
  1
GRIDFORMAT_BEGIN
 90
        0
 91
        1
 62
     0
 92
       -2
340
0
 93
        0
 40
0.045
309
GRIDFORMAT_END
 95
       32
302
GRIDFORMAT
  1
GRIDFORMAT_BEGIN
 90
        0
 91
        1
 62
     0
 92
       -2
340
0
 93
        0
 40
0.045
309
GRIDFORMAT_END
309
TABLEFORMAT_END
  1
CELLSTYLE_BEGIN
 90
        2
 91
        1
300
_HEADER
309
CELLSTYLE_END
300
CELLSTYLE
  1
TABLEFORMAT_BEGIN
 90
        5
170
     1
 91
        0
 92
        0
 62
   257
 93
        1
300
CONTENTFORMAT
  1
CONTENTFORMAT_BEGIN
 90
        0
 91
        0
 92
        4
 93
        0
300

 40
0.0
140
1.0
 94
        2
 62
     0
340
11
144
4.5
309
CONTENTFORMAT_END
171
     1
301
MARGIN
  1
CELLMARGIN_BEGIN
 40
1.5
 40
1.5
 40
1.5
 40
1.5
 40
0.18
 40
0.18
309
CELLMARGIN_END
 94
        6
 95
        1
302
GRIDFORMAT
  1
GRIDFORMAT_BEGIN
 90
        0
 91
        1
 62
     0
 92
       -2
340
0
 93
        0
 40
0.045
309
GRIDFORMAT_END
 95
        2
302
GRIDFORMAT
  1
GRIDFORMAT_BEGIN
 90
        0
 91
        1
 62
     0
 92
       -2
340
0
 93
        0
 40
0.045
309
GRIDFORMAT_END
 95
        4
302
GRIDFORMAT
  1
GRIDFORMAT_BEGIN
 90
        0
 91
        1
 62
     0
 92
       -2
340
0
 93
        0
 40
0.045
309
GRIDFORMAT_END
 95
        8
302
GRIDFORMAT
  1
GRIDFORMAT_BEGIN
 90
        0
 91
        1
 62
     0
 92
       -2
340
0
 93
        0
 40
0.045
309
GRIDFORMAT_END
 95
       16
302
GRIDFORMAT
  1
GRIDFORMAT_BEGIN
 90
        0
 91
        1
 62
     0
 92
       -2
340
0
 93
        0
 40
0.045
309
GRIDFORMAT_END
 95
       32
302
GRIDFORMAT
  1
GRIDFORMAT_BEGIN
 90
        0
 91
        1
 62
     0
 92
       -2
340
0
 93
        0
 40
0.045
309
GRIDFORMAT_END
309
TABLEFORMAT_END
  1
CELLSTYLE_BEGIN
 90
        3
 91
        2
300
_DATA
309
CELLSTYLE_END
  0
XRECORD
  5
573
102
{ACAD_REACTORS
330
4AF
102
}
330
4AF
100
AcDbXrecord
280
     1
102
ACAD_ROUNDTRIP_PRE2007_TABLESTYLE
 90
        4
 91
        0
  1

 92
        4
 93
        0
  2

 94
        4
 95
        0
  3

  0
XRECORD
  5
54C
102
{ACAD_REACTORS
330
54B
102
}
330
54B
100
AcDbXrecord
280
     1
102
RTVSPost2010Prop28
280
     1
102
RTVSPost2010PropOp28
 70
     1
102
RTVSPost2010Prop29
280
     1
102
RTVSPost2010PropOp29
 70
     1
102
RTVSPost2010Prop30
280
     0
102
RTVSPost2010PropOp30
 70
     1
102
RTVSPost2010Prop31
280
     0
102
RTVSPost2010PropOp31
 70
     1
102
RTVSPost2010Prop32
280
     0
102
RTVSPost2010PropOp32
 70
     1
102
RTVSPost2010Prop33
280
     0
102
RTVSPost2010PropOp33
 70
     1
102
RTVSPost2010Prop34
280
     0
102
RTVSPost2010PropOp34
 70
     1
102
RTVSPost2010Prop35
280
     0
102
RTVSPost2010PropOp35
 70
     1
102
RTVSPost2010Prop36
280
     0
102
RTVSPost2010PropOp36
 70
     1
102
RTVSPost2010Prop37
 90
       50
102
RTVSPost2010PropOp37
 70
     1
102
RTVSPost2010Prop38
140
0.0
102
RTVSPost2010PropOp38
 70
     1
102
RTVSPost2010Prop39
140
1.0
102
RTVSPost2010PropOp39
 70
     1
102
RTVSPost2010Prop40
 90
        0
102
RTVSPost2010PropOp40
 70
     1
102
RTVSPost2010Prop41ColorIndex
 90
       18
102
RTVSPost2010Prop41ColorRGB
 90
        0
102
RTVSPost2010PropOp41
 70
     1
102
RTVSPost2010Prop42
 90
       50
102
RTVSPost2010PropOp42
 70
     1
102
RTVSPost2010Prop43
 90
        3
102
RTVSPost2010PropOp43
 70
     1
102
RTVSPost2010Prop44ColorIndex
 90
        5
102
RTVSPost2010Prop44ColorRGB
 90
      255
102
RTVSPost2010PropOp44
 70
     1
102
RTVSPost2010Prop45
280
     0
102
RTVSPost2010PropOp45
 70
     1
102
RTVSPost2010Prop46
 90
       50
102
RTVSPost2010PropOp46
 70
     1
102
RTVSPost2010Prop47
 90
       50
102
RTVSPost2010PropOp47
 70
     1
102
RTVSPost2010Prop48
 90
       50
102
RTVSPost2010PropOp48
 70
     1
102
RTVSPost2010Prop49
280
     0
102
RTVSPost2010PropOp49
 70
     1
102
RTVSPost2010Prop50
 90
       50
102
RTVSPost2010PropOp50
 70
     1
102
RTVSPost2010Prop51ColorIndex
 90
      256
102
RTVSPost2010Prop51ColorRGB
 90
-16777216
102
RTVSPost2010PropOp51
 70
     0
102
RTVSPost2010Prop52
140
1.0
102
RTVSPost2010PropOp52
 70
     0
102
RTVSPost2010Prop53
 90
        2
102
RTVSPost2010PropOp53
 70
     1
102
RTVSPost2010Prop54
  1
strokes_ogs.tif
102
RTVSPost2010PropOp54
 70
     1
102
RTVSPost2010Prop55
280
     0
102
RTVSPost2010PropOp55
 70
     1
102
RTVSPost2010Prop56
140
1.0
102
RTVSPost2010PropOp56
 70
     1
102
RTVSPost2010Prop57
140
1.0
102
RTVSPost2010PropOp57
 70
     1
102
RTVSPropertyOp0
 70
     1
102
RTVSPropertyOp1
 70
     1
102
RTVSPropertyOp2
 70
     1
102
RTVSPropertyOp3
 70
     1
102
RTVSPropertyOp4
 70
     1
102
RTVSPropertyOp5
 70
     1
102
RTVSPropertyOp6
 70
     1
102
RTVSPropertyOp7
 70
     1
102
RTVSPropertyOp8
 70
     1
102
RTVSPropertyOp9
 70
     1
102
RTVSPropertyOp10
 70
     1
102
RTVSPropertyOp11
 70
     1
102
RTVSPropertyOp12
 70
     1
102
RTVSPropertyOp13
 70
     1
102
RTVSPropertyOp14
 70
     1
102
RTVSPropertyOp15
 70
     1
102
RTVSPropertyOp16
 70
     1
102
RTVSPropertyOp17
 70
     1
102
RTVSPropertyOp18
 70
     1
102
RTVSPropertyOp19
 70
     1
102
RTVSPropertyOp20
 70
     1
102
RTVSPropertyOp21
 70
     1
102
RTVSPropertyOp22
 70
     1
102
RTVSPropertyOp23
 70
     1
102
RTVSPropertyOp24
 70
     1
102
RTVSPropertyOp25
 70
     1
102
RTVSPropertyOp26
 70
     1
102
RTVSPropertyOp27
 70
     1
102
RTVSPropertyOp28
 70
     1
102
RTVSPropertyOp29
 70
     1
102
RTVSPropertyOp30
 70
     1
102
RTVSPropertyOp31
 70
     1
102
RTVSPropertyOp32
 70
     1
102
RTVSPropertyOp33
 70
     1
102
RTVSPropertyOp34
 70
     1
102
RTVSPropertyOp35
 70
     1
102
RTVSPropertyOp36
 70
     1
102
RTVSPropertyOp37
 70
     1
102
RTVSPropertyOp38
 70
     1
102
RTVSPropertyOp39
 70
     1
102
RTVSPropertyOp40
 70
     1
102
RTVSPropertyOp41
 70
     1
102
RTVSPropertyOp42
 70
     1
102
RTVSPropertyOp43
 70
     1
102
RTVSPropertyOp44
 70
     1
102
RTVSPropertyOp45
 70
     1
102
RTVSPropertyOp46
 70
     1
102
RTVSPropertyOp47
 70
     1
102
RTVSPropertyOp48
 70
     1
102
RTVSPropertyOp49
 70
     1
102
RTVSPropertyOp50
 70
     1
102
RTVSPropertyOp51
 70
     0
102
RTVSPropertyOp52
 70
     0
102
RTVSPropertyOp53
 70
     1
102
RTVSPropertyOp54
 70
     1
102
RTVSPropertyOp55
 70
     1
102
RTVSPropertyOp56
 70
     1
102
RTVSPropertyOp57
 70
     1
102
RTVSPropertyOp58
 70
     1
102
RTVSPropertyOp59
 70
     1
102
RTVSPropertyOp60
 70
     1
102
RTVSPropertyOp61
 70
     1
102
RTVSPropertyOp62
 70
     1
  0
XRECORD
  5
552
102
{ACAD_REACTORS
330
551
102
}
330
551
100
AcDbXrecord
280
     1
102
RTVSPost2010Prop28
280
     0
102
RTVSPost2010PropOp28
 70
     1
102
RTVSPost2010Prop29
280
     1
102
RTVSPost2010PropOp29
 70
     1
102
RTVSPost2010Prop30
280
     1
102
RTVSPost2010PropOp30
 70
     1
102
RTVSPost2010Prop31
280
     0
102
RTVSPost2010PropOp31
 70
     1
102
RTVSPost2010Prop32
280
     0
102
RTVSPost2010PropOp32
 70
     1
102
RTVSPost2010Prop33
280
     0
102
RTVSPost2010PropOp33
 70
     1
102
RTVSPost2010Prop34
280
     0
102
RTVSPost2010PropOp34
 70
     1
102
RTVSPost2010Prop35
280
     0
102
RTVSPost2010PropOp35
 70
     1
102
RTVSPost2010Prop36
280
     0
102
RTVSPost2010PropOp36
 70
     1
102
RTVSPost2010Prop37
 90
       50
102
RTVSPost2010PropOp37
 70
     1
102
RTVSPost2010Prop38
140
0.0
102
RTVSPost2010PropOp38
 70
     1
102
RTVSPost2010Prop39
140
1.0
102
RTVSPost2010PropOp39
 70
     1
102
RTVSPost2010Prop40
 90
        0
102
RTVSPost2010PropOp40
 70
     1
102
RTVSPost2010Prop41ColorIndex
 90
       18
102
RTVSPost2010Prop41ColorRGB
 90
        0
102
RTVSPost2010PropOp41
 70
     1
102
RTVSPost2010Prop42
 90
       50
102
RTVSPost2010PropOp42
 70
     1
102
RTVSPost2010Prop43
 90
        3
102
RTVSPost2010PropOp43
 70
     1
102
RTVSPost2010Prop44ColorIndex
 90
        5
102
RTVSPost2010Prop44ColorRGB
 90
      255
102
RTVSPost2010PropOp44
 70
     1
102
RTVSPost2010Prop45
280
     0
102
RTVSPost2010PropOp45
 70
     1
102
RTVSPost2010Prop46
 90
       50
102
RTVSPost2010PropOp46
 70
     1
102
RTVSPost2010Prop47
 90
       50
102
RTVSPost2010PropOp47
 70
     1
102
RTVSPost2010Prop48
 90
       50
102
RTVSPost2010PropOp48
 70
     1
102
RTVSPost2010Prop49
280
     0
102
RTVSPost2010PropOp49
 70
     1
102
RTVSPost2010Prop50
 90
       50
102
RTVSPost2010PropOp50
 70
     1
102
RTVSPost2010Prop51ColorIndex
 90
      256
102
RTVSPost2010Prop51ColorRGB
 90
-16777216
102
RTVSPost2010PropOp51
 70
     0
102
RTVSPost2010Prop52
140
1.0
102
RTVSPost2010PropOp52
 70
     0
102
RTVSPost2010Prop53
 90
        2
102
RTVSPost2010PropOp53
 70
     1
102
RTVSPost2010Prop54
  1
strokes_ogs.tif
102
RTVSPost2010PropOp54
 70
     1
102
RTVSPost2010Prop55
280
     0
102
RTVSPost2010PropOp55
 70
     1
102
RTVSPost2010Prop56
140
1.0
102
RTVSPost2010PropOp56
 70
     1
102
RTVSPost2010Prop57
140
1.0
102
RTVSPost2010PropOp57
 70
     1
102
RTVSPropertyOp0
 70
     1
102
RTVSPropertyOp1
 70
     1
102
RTVSPropertyOp2
 70
     1
102
RTVSPropertyOp3
 70
     1
102
RTVSPropertyOp4
 70
     1
102
RTVSPropertyOp5
 70
     1
102
RTVSPropertyOp6
 70
     1
102
RTVSPropertyOp7
 70
     1
102
RTVSPropertyOp8
 70
     1
102
RTVSPropertyOp9
 70
     1
102
RTVSPropertyOp10
 70
     1
102
RTVSPropertyOp11
 70
     1
102
RTVSPropertyOp12
 70
     1
102
RTVSPropertyOp13
 70
     1
102
RTVSPropertyOp14
 70
     1
102
RTVSPropertyOp15
 70
     1
102
RTVSPropertyOp16
 70
     1
102
RTVSPropertyOp17
 70
     1
102
RTVSPropertyOp18
 70
     1
102
RTVSPropertyOp19
 70
     1
102
RTVSPropertyOp20
 70
     1
102
RTVSPropertyOp21
 70
     1
102
RTVSPropertyOp22
 70
     1
102
RTVSPropertyOp23
 70
     1
102
RTVSPropertyOp24
 70
     1
102
RTVSPropertyOp25
 70
     1
102
RTVSPropertyOp26
 70
     1
102
RTVSPropertyOp27
 70
     1
102
RTVSPropertyOp28
 70
     1
102
RTVSPropertyOp29
 70
     1
102
RTVSPropertyOp30
 70
     1
102
RTVSPropertyOp31
 70
     1
102
RTVSPropertyOp32
 70
     1
102
RTVSPropertyOp33
 70
     1
102
RTVSPropertyOp34
 70
     1
102
RTVSPropertyOp35
 70
     1
102
RTVSPropertyOp36
 70
     1
102
RTVSPropertyOp37
 70
     1
102
RTVSPropertyOp38
 70
     1
102
RTVSPropertyOp39
 70
     1
102
RTVSPropertyOp40
 70
     1
102
RTVSPropertyOp41
 70
     1
102
RTVSPropertyOp42
 70
     1
102
RTVSPropertyOp43
 70
     1
102
RTVSPropertyOp44
 70
     1
102
RTVSPropertyOp45
 70
     1
102
RTVSPropertyOp46
 70
     1
102
RTVSPropertyOp47
 70
     1
102
RTVSPropertyOp48
 70
     1
102
RTVSPropertyOp49
 70
     1
102
RTVSPropertyOp50
 70
     1
102
RTVSPropertyOp51
 70
     0
102
RTVSPropertyOp52
 70
     0
102
RTVSPropertyOp53
 70
     1
102
RTVSPropertyOp54
 70
     1
102
RTVSPropertyOp55
 70
     1
102
RTVSPropertyOp56
 70
     1
102
RTVSPropertyOp57
 70
     1
102
RTVSPropertyOp58
 70
     1
102
RTVSPropertyOp59
 70
     1
102
RTVSPropertyOp60
 70
     1
102
RTVSPropertyOp61
 70
     1
102
RTVSPropertyOp62
 70
     1
  0
XRECORD
  5
55A
102
{ACAD_REACTORS
330
559
102
}
330
559
100
AcDbXrecord
280
     1
102
RTVSPost2010Prop28
280
     0
102
RTVSPost2010PropOp28
 70
     1
102
RTVSPost2010Prop29
280
     1
102
RTVSPost2010PropOp29
 70
     1
102
RTVSPost2010Prop30
280
     1
102
RTVSPost2010PropOp30
 70
     1
102
RTVSPost2010Prop31
280
     0
102
RTVSPost2010PropOp31
 70
     1
102
RTVSPost2010Prop32
280
     0
102
RTVSPost2010PropOp32
 70
     1
102
RTVSPost2010Prop33
280
     0
102
RTVSPost2010PropOp33
 70
     1
102
RTVSPost2010Prop34
280
     0
102
RTVSPost2010PropOp34
 70
     1
102
RTVSPost2010Prop35
280
     0
102
RTVSPost2010PropOp35
 70
     1
102
RTVSPost2010Prop36
280
     0
102
RTVSPost2010PropOp36
 70
     1
102
RTVSPost2010Prop37
 90
       50
102
RTVSPost2010PropOp37
 70
     1
102
RTVSPost2010Prop38
140
0.0
102
RTVSPost2010PropOp38
 70
     1
102
RTVSPost2010Prop39
140
1.0
102
RTVSPost2010PropOp39
 70
     1
102
RTVSPost2010Prop40
 90
        0
102
RTVSPost2010PropOp40
 70
     1
102
RTVSPost2010Prop41ColorIndex
 90
       18
102
RTVSPost2010Prop41ColorRGB
 90
        0
102
RTVSPost2010PropOp41
 70
     1
102
RTVSPost2010Prop42
 90
       50
102
RTVSPost2010PropOp42
 70
     1
102
RTVSPost2010Prop43
 90
        3
102
RTVSPost2010PropOp43
 70
     1
102
RTVSPost2010Prop44ColorIndex
 90
        5
102
RTVSPost2010Prop44ColorRGB
 90
      255
102
RTVSPost2010PropOp44
 70
     1
102
RTVSPost2010Prop45
280
     0
102
RTVSPost2010PropOp45
 70
     1
102
RTVSPost2010Prop46
 90
       50
102
RTVSPost2010PropOp46
 70
     1
102
RTVSPost2010Prop47
 90
       50
102
RTVSPost2010PropOp47
 70
     1
102
RTVSPost2010Prop48
 90
       50
102
RTVSPost2010PropOp48
 70
     1
102
RTVSPost2010Prop49
280
     0
102
RTVSPost2010PropOp49
 70
     1
102
RTVSPost2010Prop50
 90
       50
102
RTVSPost2010PropOp50
 70
     1
102
RTVSPost2010Prop51ColorIndex
 90
      256
102
RTVSPost2010Prop51ColorRGB
 90
-16777216
102
RTVSPost2010PropOp51
 70
     0
102
RTVSPost2010Prop52
140
1.0
102
RTVSPost2010PropOp52
 70
     0
102
RTVSPost2010Prop53
 90
        2
102
RTVSPost2010PropOp53
 70
     1
102
RTVSPost2010Prop54
  1
strokes_ogs.tif
102
RTVSPost2010PropOp54
 70
     1
102
RTVSPost2010Prop55
280
     0
102
RTVSPost2010PropOp55
 70
     1
102
RTVSPost2010Prop56
140
1.0
102
RTVSPost2010PropOp56
 70
     1
102
RTVSPost2010Prop57
140
1.0
102
RTVSPost2010PropOp57
 70
     1
102
RTVSPropertyOp0
 70
     1
102
RTVSPropertyOp1
 70
     1
102
RTVSPropertyOp2
 70
     1
102
RTVSPropertyOp3
 70
     1
102
RTVSPropertyOp4
 70
     1
102
RTVSPropertyOp5
 70
     1
102
RTVSPropertyOp6
 70
     1
102
RTVSPropertyOp7
 70
     1
102
RTVSPropertyOp8
 70
     1
102
RTVSPropertyOp9
 70
     1
102
RTVSPropertyOp10
 70
     1
102
RTVSPropertyOp11
 70
     1
102
RTVSPropertyOp12
 70
     1
102
RTVSPropertyOp13
 70
     1
102
RTVSPropertyOp14
 70
     1
102
RTVSPropertyOp15
 70
     1
102
RTVSPropertyOp16
 70
     1
102
RTVSPropertyOp17
 70
     1
102
RTVSPropertyOp18
 70
     1
102
RTVSPropertyOp19
 70
     1
102
RTVSPropertyOp20
 70
     1
102
RTVSPropertyOp21
 70
     1
102
RTVSPropertyOp22
 70
     1
102
RTVSPropertyOp23
 70
     1
102
RTVSPropertyOp24
 70
     1
102
RTVSPropertyOp25
 70
     1
102
RTVSPropertyOp26
 70
     1
102
RTVSPropertyOp27
 70
     1
102
RTVSPropertyOp28
 70
     1
102
RTVSPropertyOp29
 70
     1
102
RTVSPropertyOp30
 70
     1
102
RTVSPropertyOp31
 70
     1
102
RTVSPropertyOp32
 70
     1
102
RTVSPropertyOp33
 70
     1
102
RTVSPropertyOp34
 70
     1
102
RTVSPropertyOp35
 70
     1
102
RTVSPropertyOp36
 70
     1
102
RTVSPropertyOp37
 70
     1
102
RTVSPropertyOp38
 70
     1
102
RTVSPropertyOp39
 70
     1
102
RTVSPropertyOp40
 70
     1
102
RTVSPropertyOp41
 70
     1
102
RTVSPropertyOp42
 70
     1
102
RTVSPropertyOp43
 70
     1
102
RTVSPropertyOp44
 70
     1
102
RTVSPropertyOp45
 70
     1
102
RTVSPropertyOp46
 70
     1
102
RTVSPropertyOp47
 70
     1
102
RTVSPropertyOp48
 70
     1
102
RTVSPropertyOp49
 70
     1
102
RTVSPropertyOp50
 70
     1
102
RTVSPropertyOp51
 70
     0
102
RTVSPropertyOp52
 70
     0
102
RTVSPropertyOp53
 70
     1
102
RTVSPropertyOp54
 70
     1
102
RTVSPropertyOp55
 70
     1
102
RTVSPropertyOp56
 70
     1
102
RTVSPropertyOp57
 70
     1
102
RTVSPropertyOp58
 70
     1
102
RTVSPropertyOp59
 70
     1
102
RTVSPropertyOp60
 70
     1
102
RTVSPropertyOp61
 70
     1
102
RTVSPropertyOp62
 70
     1
  0
XRECORD
  5
562
102
{ACAD_REACTORS
330
561
102
}
330
561
100
AcDbXrecord
280
     1
102
RTVSPost2010Prop28
280
     0
102
RTVSPost2010PropOp28
 70
     1
102
RTVSPost2010Prop29
280
     1
102
RTVSPost2010PropOp29
 70
     1
102
RTVSPost2010Prop30
280
     1
102
RTVSPost2010PropOp30
 70
     1
102
RTVSPost2010Prop31
280
     0
102
RTVSPost2010PropOp31
 70
     1
102
RTVSPost2010Prop32
280
     0
102
RTVSPost2010PropOp32
 70
     1
102
RTVSPost2010Prop33
280
     0
102
RTVSPost2010PropOp33
 70
     1
102
RTVSPost2010Prop34
280
     0
102
RTVSPost2010PropOp34
 70
     1
102
RTVSPost2010Prop35
280
     0
102
RTVSPost2010PropOp35
 70
     1
102
RTVSPost2010Prop36
280
     0
102
RTVSPost2010PropOp36
 70
     1
102
RTVSPost2010Prop37
 90
       50
102
RTVSPost2010PropOp37
 70
     1
102
RTVSPost2010Prop38
140
0.0
102
RTVSPost2010PropOp38
 70
     1
102
RTVSPost2010Prop39
140
1.0
102
RTVSPost2010PropOp39
 70
     1
102
RTVSPost2010Prop40
 90
        0
102
RTVSPost2010PropOp40
 70
     1
102
RTVSPost2010Prop41ColorIndex
 90
       18
102
RTVSPost2010Prop41ColorRGB
 90
        0
102
RTVSPost2010PropOp41
 70
     1
102
RTVSPost2010Prop42
 90
       50
102
RTVSPost2010PropOp42
 70
     1
102
RTVSPost2010Prop43
 90
        3
102
RTVSPost2010PropOp43
 70
     1
102
RTVSPost2010Prop44ColorIndex
 90
        5
102
RTVSPost2010Prop44ColorRGB
 90
      255
102
RTVSPost2010PropOp44
 70
     1
102
RTVSPost2010Prop45
280
     0
102
RTVSPost2010PropOp45
 70
     1
102
RTVSPost2010Prop46
 90
       50
102
RTVSPost2010PropOp46
 70
     1
102
RTVSPost2010Prop47
 90
       50
102
RTVSPost2010PropOp47
 70
     1
102
RTVSPost2010Prop48
 90
       50
102
RTVSPost2010PropOp48
 70
     1
102
RTVSPost2010Prop49
280
     0
102
RTVSPost2010PropOp49
 70
     1
102
RTVSPost2010Prop50
 90
       50
102
RTVSPost2010PropOp50
 70
     1
102
RTVSPost2010Prop51ColorIndex
 90
      256
102
RTVSPost2010Prop51ColorRGB
 90
-16777216
102
RTVSPost2010PropOp51
 70
     0
102
RTVSPost2010Prop52
140
1.0
102
RTVSPost2010PropOp52
 70
     0
102
RTVSPost2010Prop53
 90
        2
102
RTVSPost2010PropOp53
 70
     1
102
RTVSPost2010Prop54
  1
strokes_ogs.tif
102
RTVSPost2010PropOp54
 70
     1
102
RTVSPost2010Prop55
280
     0
102
RTVSPost2010PropOp55
 70
     1
102
RTVSPost2010Prop56
140
1.0
102
RTVSPost2010PropOp56
 70
     1
102
RTVSPost2010Prop57
140
1.0
102
RTVSPost2010PropOp57
 70
     1
102
RTVSPropertyOp0
 70
     1
102
RTVSPropertyOp1
 70
     1
102
RTVSPropertyOp2
 70
     1
102
RTVSPropertyOp3
 70
     1
102
RTVSPropertyOp4
 70
     1
102
RTVSPropertyOp5
 70
     1
102
RTVSPropertyOp6
 70
     1
102
RTVSPropertyOp7
 70
     1
102
RTVSPropertyOp8
 70
     1
102
RTVSPropertyOp9
 70
     1
102
RTVSPropertyOp10
 70
     1
102
RTVSPropertyOp11
 70
     1
102
RTVSPropertyOp12
 70
     1
102
RTVSPropertyOp13
 70
     1
102
RTVSPropertyOp14
 70
     1
102
RTVSPropertyOp15
 70
     1
102
RTVSPropertyOp16
 70
     1
102
RTVSPropertyOp17
 70
     1
102
RTVSPropertyOp18
 70
     1
102
RTVSPropertyOp19
 70
     1
102
RTVSPropertyOp20
 70
     1
102
RTVSPropertyOp21
 70
     1
102
RTVSPropertyOp22
 70
     1
102
RTVSPropertyOp23
 70
     1
102
RTVSPropertyOp24
 70
     1
102
RTVSPropertyOp25
 70
     1
102
RTVSPropertyOp26
 70
     1
102
RTVSPropertyOp27
 70
     1
102
RTVSPropertyOp28
 70
     1
102
RTVSPropertyOp29
 70
     1
102
RTVSPropertyOp30
 70
     1
102
RTVSPropertyOp31
 70
     1
102
RTVSPropertyOp32
 70
     1
102
RTVSPropertyOp33
 70
     1
102
RTVSPropertyOp34
 70
     1
102
RTVSPropertyOp35
 70
     1
102
RTVSPropertyOp36
 70
     1
102
RTVSPropertyOp37
 70
     1
102
RTVSPropertyOp38
 70
     1
102
RTVSPropertyOp39
 70
     1
102
RTVSPropertyOp40
 70
     1
102
RTVSPropertyOp41
 70
     1
102
RTVSPropertyOp42
 70
     1
102
RTVSPropertyOp43
 70
     1
102
RTVSPropertyOp44
 70
     1
102
RTVSPropertyOp45
 70
     1
102
RTVSPropertyOp46
 70
     1
102
RTVSPropertyOp47
 70
     1
102
RTVSPropertyOp48
 70
     1
102
RTVSPropertyOp49
 70
     1
102
RTVSPropertyOp50
 70
     1
102
RTVSPropertyOp51
 70
     0
102
RTVSPropertyOp52
 70
     0
102
RTVSPropertyOp53
 70
     1
102
RTVSPropertyOp54
 70
     1
102
RTVSPropertyOp55
 70
     1
102
RTVSPropertyOp56
 70
     1
102
RTVSPropertyOp57
 70
     1
102
RTVSPropertyOp58
 70
     1
102
RTVSPropertyOp59
 70
     1
102
RTVSPropertyOp60
 70
     1
102
RTVSPropertyOp61
 70
     1
102
RTVSPropertyOp62
 70
     1
  0
XRECORD
  5
556
102
{ACAD_REACTORS
330
555
102
}
330
555
100
AcDbXrecord
280
     1
102
RTVSPost2010Prop28
280
     0
102
RTVSPost2010PropOp28
 70
     1
102
RTVSPost2010Prop29
280
     1
102
RTVSPost2010PropOp29
 70
     1
102
RTVSPost2010Prop30
280
     1
102
RTVSPost2010PropOp30
 70
     1
102
RTVSPost2010Prop31
280
     0
102
RTVSPost2010PropOp31
 70
     1
102
RTVSPost2010Prop32
280
     0
102
RTVSPost2010PropOp32
 70
     1
102
RTVSPost2010Prop33
280
     0
102
RTVSPost2010PropOp33
 70
     1
102
RTVSPost2010Prop34
280
     0
102
RTVSPost2010PropOp34
 70
     1
102
RTVSPost2010Prop35
280
     0
102
RTVSPost2010PropOp35
 70
     1
102
RTVSPost2010Prop36
280
     0
102
RTVSPost2010PropOp36
 70
     1
102
RTVSPost2010Prop37
 90
       50
102
RTVSPost2010PropOp37
 70
     1
102
RTVSPost2010Prop38
140
0.0
102
RTVSPost2010PropOp38
 70
     1
102
RTVSPost2010Prop39
140
1.0
102
RTVSPost2010PropOp39
 70
     1
102
RTVSPost2010Prop40
 90
        0
102
RTVSPost2010PropOp40
 70
     1
102
RTVSPost2010Prop41ColorIndex
 90
       18
102
RTVSPost2010Prop41ColorRGB
 90
        0
102
RTVSPost2010PropOp41
 70
     1
102
RTVSPost2010Prop42
 90
       50
102
RTVSPost2010PropOp42
 70
     1
102
RTVSPost2010Prop43
 90
        3
102
RTVSPost2010PropOp43
 70
     1
102
RTVSPost2010Prop44ColorIndex
 90
        5
102
RTVSPost2010Prop44ColorRGB
 90
      255
102
RTVSPost2010PropOp44
 70
     1
102
RTVSPost2010Prop45
280
     0
102
RTVSPost2010PropOp45
 70
     1
102
RTVSPost2010Prop46
 90
       50
102
RTVSPost2010PropOp46
 70
     1
102
RTVSPost2010Prop47
 90
       50
102
RTVSPost2010PropOp47
 70
     1
102
RTVSPost2010Prop48
 90
       50
102
RTVSPost2010PropOp48
 70
     1
102
RTVSPost2010Prop49
280
     0
102
RTVSPost2010PropOp49
 70
     1
102
RTVSPost2010Prop50
 90
       50
102
RTVSPost2010PropOp50
 70
     1
102
RTVSPost2010Prop51ColorIndex
 90
      256
102
RTVSPost2010Prop51ColorRGB
 90
-16777216
102
RTVSPost2010PropOp51
 70
     0
102
RTVSPost2010Prop52
140
1.0
102
RTVSPost2010PropOp52
 70
     0
102
RTVSPost2010Prop53
 90
        2
102
RTVSPost2010PropOp53
 70
     1
102
RTVSPost2010Prop54
  1
strokes_ogs.tif
102
RTVSPost2010PropOp54
 70
     1
102
RTVSPost2010Prop55
280
     0
102
RTVSPost2010PropOp55
 70
     1
102
RTVSPost2010Prop56
140
1.0
102
RTVSPost2010PropOp56
 70
     1
102
RTVSPost2010Prop57
140
1.0
102
RTVSPost2010PropOp57
 70
     1
102
RTVSPropertyOp0
 70
     1
102
RTVSPropertyOp1
 70
     1
102
RTVSPropertyOp2
 70
     1
102
RTVSPropertyOp3
 70
     1
102
RTVSPropertyOp4
 70
     1
102
RTVSPropertyOp5
 70
     1
102
RTVSPropertyOp6
 70
     1
102
RTVSPropertyOp7
 70
     1
102
RTVSPropertyOp8
 70
     1
102
RTVSPropertyOp9
 70
     1
102
RTVSPropertyOp10
 70
     1
102
RTVSPropertyOp11
 70
     1
102
RTVSPropertyOp12
 70
     1
102
RTVSPropertyOp13
 70
     1
102
RTVSPropertyOp14
 70
     1
102
RTVSPropertyOp15
 70
     1
102
RTVSPropertyOp16
 70
     1
102
RTVSPropertyOp17
 70
     1
102
RTVSPropertyOp18
 70
     1
102
RTVSPropertyOp19
 70
     1
102
RTVSPropertyOp20
 70
     1
102
RTVSPropertyOp21
 70
     1
102
RTVSPropertyOp22
 70
     1
102
RTVSPropertyOp23
 70
     1
102
RTVSPropertyOp24
 70
     1
102
RTVSPropertyOp25
 70
     1
102
RTVSPropertyOp26
 70
     1
102
RTVSPropertyOp27
 70
     1
102
RTVSPropertyOp28
 70
     1
102
RTVSPropertyOp29
 70
     1
102
RTVSPropertyOp30
 70
     1
102
RTVSPropertyOp31
 70
     1
102
RTVSPropertyOp32
 70
     1
102
RTVSPropertyOp33
 70
     1
102
RTVSPropertyOp34
 70
     1
102
RTVSPropertyOp35
 70
     1
102
RTVSPropertyOp36
 70
     1
102
RTVSPropertyOp37
 70
     1
102
RTVSPropertyOp38
 70
     1
102
RTVSPropertyOp39
 70
     1
102
RTVSPropertyOp40
 70
     1
102
RTVSPropertyOp41
 70
     1
102
RTVSPropertyOp42
 70
     1
102
RTVSPropertyOp43
 70
     1
102
RTVSPropertyOp44
 70
     1
102
RTVSPropertyOp45
 70
     1
102
RTVSPropertyOp46
 70
     1
102
RTVSPropertyOp47
 70
     1
102
RTVSPropertyOp48
 70
     1
102
RTVSPropertyOp49
 70
     1
102
RTVSPropertyOp50
 70
     1
102
RTVSPropertyOp51
 70
     0
102
RTVSPropertyOp52
 70
     0
102
RTVSPropertyOp53
 70
     1
102
RTVSPropertyOp54
 70
     1
102
RTVSPropertyOp55
 70
     1
102
RTVSPropertyOp56
 70
     1
102
RTVSPropertyOp57
 70
     1
102
RTVSPropertyOp58
 70
     1
102
RTVSPropertyOp59
 70
     1
102
RTVSPropertyOp60
 70
     1
102
RTVSPropertyOp61
 70
     1
102
RTVSPropertyOp62
 70
     1
  0
XRECORD
  5
558
102
{ACAD_REACTORS
330
557
102
}
330
557
100
AcDbXrecord
280
     1
102
RTVSPost2010Prop28
280
     0
102
RTVSPost2010PropOp28
 70
     1
102
RTVSPost2010Prop29
280
     1
102
RTVSPost2010PropOp29
 70
     1
102
RTVSPost2010Prop30
280
     1
102
RTVSPost2010PropOp30
 70
     1
102
RTVSPost2010Prop31
280
     0
102
RTVSPost2010PropOp31
 70
     1
102
RTVSPost2010Prop32
280
     0
102
RTVSPost2010PropOp32
 70
     1
102
RTVSPost2010Prop33
280
     0
102
RTVSPost2010PropOp33
 70
     1
102
RTVSPost2010Prop34
280
     0
102
RTVSPost2010PropOp34
 70
     1
102
RTVSPost2010Prop35
280
     0
102
RTVSPost2010PropOp35
 70
     1
102
RTVSPost2010Prop36
280
     0
102
RTVSPost2010PropOp36
 70
     1
102
RTVSPost2010Prop37
 90
       50
102
RTVSPost2010PropOp37
 70
     1
102
RTVSPost2010Prop38
140
0.0
102
RTVSPost2010PropOp38
 70
     1
102
RTVSPost2010Prop39
140
1.0
102
RTVSPost2010PropOp39
 70
     1
102
RTVSPost2010Prop40
 90
        0
102
RTVSPost2010PropOp40
 70
     1
102
RTVSPost2010Prop41ColorIndex
 90
       18
102
RTVSPost2010Prop41ColorRGB
 90
        0
102
RTVSPost2010PropOp41
 70
     1
102
RTVSPost2010Prop42
 90
       50
102
RTVSPost2010PropOp42
 70
     1
102
RTVSPost2010Prop43
 90
        3
102
RTVSPost2010PropOp43
 70
     1
102
RTVSPost2010Prop44ColorIndex
 90
        5
102
RTVSPost2010Prop44ColorRGB
 90
      255
102
RTVSPost2010PropOp44
 70
     1
102
RTVSPost2010Prop45
280
     0
102
RTVSPost2010PropOp45
 70
     1
102
RTVSPost2010Prop46
 90
       50
102
RTVSPost2010PropOp46
 70
     1
102
RTVSPost2010Prop47
 90
       50
102
RTVSPost2010PropOp47
 70
     1
102
RTVSPost2010Prop48
 90
       50
102
RTVSPost2010PropOp48
 70
     1
102
RTVSPost2010Prop49
280
     0
102
RTVSPost2010PropOp49
 70
     1
102
RTVSPost2010Prop50
 90
       50
102
RTVSPost2010PropOp50
 70
     1
102
RTVSPost2010Prop51ColorIndex
 90
      256
102
RTVSPost2010Prop51ColorRGB
 90
-16777216
102
RTVSPost2010PropOp51
 70
     0
102
RTVSPost2010Prop52
140
1.0
102
RTVSPost2010PropOp52
 70
     0
102
RTVSPost2010Prop53
 90
        2
102
RTVSPost2010PropOp53
 70
     1
102
RTVSPost2010Prop54
  1
strokes_ogs.tif
102
RTVSPost2010PropOp54
 70
     1
102
RTVSPost2010Prop55
280
     0
102
RTVSPost2010PropOp55
 70
     1
102
RTVSPost2010Prop56
140
1.0
102
RTVSPost2010PropOp56
 70
     1
102
RTVSPost2010Prop57
140
1.0
102
RTVSPost2010PropOp57
 70
     1
102
RTVSPropertyOp0
 70
     1
102
RTVSPropertyOp1
 70
     1
102
RTVSPropertyOp2
 70
     1
102
RTVSPropertyOp3
 70
     1
102
RTVSPropertyOp4
 70
     1
102
RTVSPropertyOp5
 70
     1
102
RTVSPropertyOp6
 70
     1
102
RTVSPropertyOp7
 70
     1
102
RTVSPropertyOp8
 70
     1
102
RTVSPropertyOp9
 70
     1
102
RTVSPropertyOp10
 70
     1
102
RTVSPropertyOp11
 70
     1
102
RTVSPropertyOp12
 70
     1
102
RTVSPropertyOp13
 70
     1
102
RTVSPropertyOp14
 70
     1
102
RTVSPropertyOp15
 70
     1
102
RTVSPropertyOp16
 70
     1
102
RTVSPropertyOp17
 70
     1
102
RTVSPropertyOp18
 70
     1
102
RTVSPropertyOp19
 70
     1
102
RTVSPropertyOp20
 70
     1
102
RTVSPropertyOp21
 70
     1
102
RTVSPropertyOp22
 70
     1
102
RTVSPropertyOp23
 70
     1
102
RTVSPropertyOp24
 70
     1
102
RTVSPropertyOp25
 70
     1
102
RTVSPropertyOp26
 70
     1
102
RTVSPropertyOp27
 70
     1
102
RTVSPropertyOp28
 70
     1
102
RTVSPropertyOp29
 70
     1
102
RTVSPropertyOp30
 70
     1
102
RTVSPropertyOp31
 70
     1
102
RTVSPropertyOp32
 70
     1
102
RTVSPropertyOp33
 70
     1
102
RTVSPropertyOp34
 70
     1
102
RTVSPropertyOp35
 70
     1
102
RTVSPropertyOp36
 70
     1
102
RTVSPropertyOp37
 70
     1
102
RTVSPropertyOp38
 70
     1
102
RTVSPropertyOp39
 70
     1
102
RTVSPropertyOp40
 70
     1
102
RTVSPropertyOp41
 70
     1
102
RTVSPropertyOp42
 70
     1
102
RTVSPropertyOp43
 70
     1
102
RTVSPropertyOp44
 70
     1
102
RTVSPropertyOp45
 70
     1
102
RTVSPropertyOp46
 70
     1
102
RTVSPropertyOp47
 70
     1
102
RTVSPropertyOp48
 70
     1
102
RTVSPropertyOp49
 70
     1
102
RTVSPropertyOp50
 70
     1
102
RTVSPropertyOp51
 70
     0
102
RTVSPropertyOp52
 70
     0
102
RTVSPropertyOp53
 70
     1
102
RTVSPropertyOp54
 70
     1
102
RTVSPropertyOp55
 70
     1
102
RTVSPropertyOp56
 70
     1
102
RTVSPropertyOp57
 70
     1
102
RTVSPropertyOp58
 70
     1
102
RTVSPropertyOp59
 70
     1
102
RTVSPropertyOp60
 70
     1
102
RTVSPropertyOp61
 70
     1
102
RTVSPropertyOp62
 70
     1
  0
XRECORD
  5
568
102
{ACAD_REACTORS
330
567
102
}
330
567
100
AcDbXrecord
280
     1
102
RTVSPost2010Prop28
280
     0
102
RTVSPost2010PropOp28
 70
     0
102
RTVSPost2010Prop29
280
     1
102
RTVSPost2010PropOp29
 70
     0
102
RTVSPost2010Prop30
280
     1
102
RTVSPost2010PropOp30
 70
     0
102
RTVSPost2010Prop31
280
     0
102
RTVSPost2010PropOp31
 70
     0
102
RTVSPost2010Prop32
280
     0
102
RTVSPost2010PropOp32
 70
     0
102
RTVSPost2010Prop33
280
     0
102
RTVSPost2010PropOp33
 70
     0
102
RTVSPost2010Prop34
280
     0
102
RTVSPost2010PropOp34
 70
     0
102
RTVSPost2010Prop35
280
     0
102
RTVSPost2010PropOp35
 70
     0
102
RTVSPost2010Prop36
280
     0
102
RTVSPost2010PropOp36
 70
     0
102
RTVSPost2010Prop37
 90
       50
102
RTVSPost2010PropOp37
 70
     0
102
RTVSPost2010Prop38
140
0.0
102
RTVSPost2010PropOp38
 70
     0
102
RTVSPost2010Prop39
140
1.0
102
RTVSPost2010PropOp39
 70
     0
102
RTVSPost2010Prop40
 90
        0
102
RTVSPost2010PropOp40
 70
     0
102
RTVSPost2010Prop41ColorIndex
 90
       18
102
RTVSPost2010Prop41ColorRGB
 90
        0
102
RTVSPost2010PropOp41
 70
     0
102
RTVSPost2010Prop42
 90
       50
102
RTVSPost2010PropOp42
 70
     0
102
RTVSPost2010Prop43
 90
        3
102
RTVSPost2010PropOp43
 70
     0
102
RTVSPost2010Prop44ColorIndex
 90
        5
102
RTVSPost2010Prop44ColorRGB
 90
      255
102
RTVSPost2010PropOp44
 70
     0
102
RTVSPost2010Prop45
280
     0
102
RTVSPost2010PropOp45
 70
     0
102
RTVSPost2010Prop46
 90
       50
102
RTVSPost2010PropOp46
 70
     0
102
RTVSPost2010Prop47
 90
       50
102
RTVSPost2010PropOp47
 70
     0
102
RTVSPost2010Prop48
 90
       50
102
RTVSPost2010PropOp48
 70
     0
102
RTVSPost2010Prop49
280
     0
102
RTVSPost2010PropOp49
 70
     0
102
RTVSPost2010Prop50
 90
       50
102
RTVSPost2010PropOp50
 70
     0
102
RTVSPost2010Prop51ColorIndex
 90
      256
102
RTVSPost2010Prop51ColorRGB
 90
-16777216
102
RTVSPost2010PropOp51
 70
     0
102
RTVSPost2010Prop52
140
1.0
102
RTVSPost2010PropOp52
 70
     0
102
RTVSPost2010Prop53
 90
        2
102
RTVSPost2010PropOp53
 70
     0
102
RTVSPost2010Prop54
  1
strokes_ogs.tif
102
RTVSPost2010PropOp54
 70
     0
102
RTVSPost2010Prop55
280
     0
102
RTVSPost2010PropOp55
 70
     0
102
RTVSPost2010Prop56
140
1.0
102
RTVSPost2010PropOp56
 70
     0
102
RTVSPost2010Prop57
140
1.0
102
RTVSPost2010PropOp57
 70
     0
102
RTVSPropertyOp0
 70
     0
102
RTVSPropertyOp1
 70
     0
102
RTVSPropertyOp2
 70
     0
102
RTVSPropertyOp3
 70
     0
102
RTVSPropertyOp4
 70
     0
102
RTVSPropertyOp5
 70
     0
102
RTVSPropertyOp6
 70
     0
102
RTVSPropertyOp7
 70
     0
102
RTVSPropertyOp8
 70
     0
102
RTVSPropertyOp9
 70
     0
102
RTVSPropertyOp10
 70
     0
102
RTVSPropertyOp11
 70
     0
102
RTVSPropertyOp12
 70
     0
102
RTVSPropertyOp13
 70
     0
102
RTVSPropertyOp14
 70
     2
102
RTVSPropertyOp15
 70
     0
102
RTVSPropertyOp16
 70
     0
102
RTVSPropertyOp17
 70
     0
102
RTVSPropertyOp18
 70
     0
102
RTVSPropertyOp19
 70
     0
102
RTVSPropertyOp20
 70
     0
102
RTVSPropertyOp21
 70
     0
102
RTVSPropertyOp22
 70
     0
102
RTVSPropertyOp23
 70
     0
102
RTVSPropertyOp24
 70
     0
102
RTVSPropertyOp25
 70
     0
102
RTVSPropertyOp26
 70
     0
102
RTVSPropertyOp27
 70
     0
102
RTVSPropertyOp28
 70
     0
102
RTVSPropertyOp29
 70
     0
102
RTVSPropertyOp30
 70
     0
102
RTVSPropertyOp31
 70
     0
102
RTVSPropertyOp32
 70
     0
102
RTVSPropertyOp33
 70
     0
102
RTVSPropertyOp34
 70
     0
102
RTVSPropertyOp35
 70
     0
102
RTVSPropertyOp36
 70
     0
102
RTVSPropertyOp37
 70
     0
102
RTVSPropertyOp38
 70
     0
102
RTVSPropertyOp39
 70
     0
102
RTVSPropertyOp40
 70
     0
102
RTVSPropertyOp41
 70
     0
102
RTVSPropertyOp42
 70
     0
102
RTVSPropertyOp43
 70
     0
102
RTVSPropertyOp44
 70
     0
102
RTVSPropertyOp45
 70
     0
102
RTVSPropertyOp46
 70
     0
102
RTVSPropertyOp47
 70
     0
102
RTVSPropertyOp48
 70
     0
102
RTVSPropertyOp49
 70
     0
102
RTVSPropertyOp50
 70
     0
102
RTVSPropertyOp51
 70
     0
102
RTVSPropertyOp52
 70
     0
102
RTVSPropertyOp53
 70
     0
102
RTVSPropertyOp54
 70
     0
102
RTVSPropertyOp55
 70
     0
102
RTVSPropertyOp56
 70
     0
102
RTVSPropertyOp57
 70
     0
102
RTVSPropertyOp58
 70
     1
102
RTVSPropertyOp59
 70
     1
102
RTVSPropertyOp60
 70
     1
102
RTVSPropertyOp61
 70
     1
102
RTVSPropertyOp62
 70
     1
  0
XRECORD
  5
560
102
{ACAD_REACTORS
330
55F
102
}
330
55F
100
AcDbXrecord
280
     1
102
RTVSPost2010Prop28
280
     0
102
RTVSPost2010PropOp28
 70
     1
102
RTVSPost2010Prop29
280
     1
102
RTVSPost2010PropOp29
 70
     1
102
RTVSPost2010Prop30
280
     1
102
RTVSPost2010PropOp30
 70
     1
102
RTVSPost2010Prop31
280
     0
102
RTVSPost2010PropOp31
 70
     1
102
RTVSPost2010Prop32
280
     0
102
RTVSPost2010PropOp32
 70
     1
102
RTVSPost2010Prop33
280
     0
102
RTVSPost2010PropOp33
 70
     1
102
RTVSPost2010Prop34
280
     0
102
RTVSPost2010PropOp34
 70
     1
102
RTVSPost2010Prop35
280
     0
102
RTVSPost2010PropOp35
 70
     1
102
RTVSPost2010Prop36
280
     0
102
RTVSPost2010PropOp36
 70
     1
102
RTVSPost2010Prop37
 90
       50
102
RTVSPost2010PropOp37
 70
     1
102
RTVSPost2010Prop38
140
0.0
102
RTVSPost2010PropOp38
 70
     1
102
RTVSPost2010Prop39
140
1.0
102
RTVSPost2010PropOp39
 70
     1
102
RTVSPost2010Prop40
 90
        0
102
RTVSPost2010PropOp40
 70
     1
102
RTVSPost2010Prop41ColorIndex
 90
       18
102
RTVSPost2010Prop41ColorRGB
 90
        0
102
RTVSPost2010PropOp41
 70
     1
102
RTVSPost2010Prop42
 90
       50
102
RTVSPost2010PropOp42
 70
     1
102
RTVSPost2010Prop43
 90
        3
102
RTVSPost2010PropOp43
 70
     1
102
RTVSPost2010Prop44ColorIndex
 90
        5
102
RTVSPost2010Prop44ColorRGB
 90
      255
102
RTVSPost2010PropOp44
 70
     1
102
RTVSPost2010Prop45
280
     0
102
RTVSPost2010PropOp45
 70
     1
102
RTVSPost2010Prop46
 90
       50
102
RTVSPost2010PropOp46
 70
     1
102
RTVSPost2010Prop47
 90
       50
102
RTVSPost2010PropOp47
 70
     1
102
RTVSPost2010Prop48
 90
       50
102
RTVSPost2010PropOp48
 70
     1
102
RTVSPost2010Prop49
280
     0
102
RTVSPost2010PropOp49
 70
     1
102
RTVSPost2010Prop50
 90
       50
102
RTVSPost2010PropOp50
 70
     1
102
RTVSPost2010Prop51ColorIndex
 90
      256
102
RTVSPost2010Prop51ColorRGB
 90
-16777216
102
RTVSPost2010PropOp51
 70
     0
102
RTVSPost2010Prop52
140
1.0
102
RTVSPost2010PropOp52
 70
     0
102
RTVSPost2010Prop53
 90
        2
102
RTVSPost2010PropOp53
 70
     1
102
RTVSPost2010Prop54
  1
strokes_ogs.tif
102
RTVSPost2010PropOp54
 70
     1
102
RTVSPost2010Prop55
280
     0
102
RTVSPost2010PropOp55
 70
     1
102
RTVSPost2010Prop56
140
1.0
102
RTVSPost2010PropOp56
 70
     1
102
RTVSPost2010Prop57
140
1.0
102
RTVSPost2010PropOp57
 70
     1
102
RTVSPropertyOp0
 70
     1
102
RTVSPropertyOp1
 70
     1
102
RTVSPropertyOp2
 70
     1
102
RTVSPropertyOp3
 70
     1
102
RTVSPropertyOp4
 70
     1
102
RTVSPropertyOp5
 70
     1
102
RTVSPropertyOp6
 70
     1
102
RTVSPropertyOp7
 70
     1
102
RTVSPropertyOp8
 70
     1
102
RTVSPropertyOp9
 70
     1
102
RTVSPropertyOp10
 70
     1
102
RTVSPropertyOp11
 70
     1
102
RTVSPropertyOp12
 70
     1
102
RTVSPropertyOp13
 70
     1
102
RTVSPropertyOp14
 70
     1
102
RTVSPropertyOp15
 70
     1
102
RTVSPropertyOp16
 70
     1
102
RTVSPropertyOp17
 70
     1
102
RTVSPropertyOp18
 70
     1
102
RTVSPropertyOp19
 70
     1
102
RTVSPropertyOp20
 70
     1
102
RTVSPropertyOp21
 70
     1
102
RTVSPropertyOp22
 70
     1
102
RTVSPropertyOp23
 70
     1
102
RTVSPropertyOp24
 70
     1
102
RTVSPropertyOp25
 70
     1
102
RTVSPropertyOp26
 70
     1
102
RTVSPropertyOp27
 70
     1
102
RTVSPropertyOp28
 70
     1
102
RTVSPropertyOp29
 70
     1
102
RTVSPropertyOp30
 70
     1
102
RTVSPropertyOp31
 70
     1
102
RTVSPropertyOp32
 70
     1
102
RTVSPropertyOp33
 70
     1
102
RTVSPropertyOp34
 70
     1
102
RTVSPropertyOp35
 70
     1
102
RTVSPropertyOp36
 70
     1
102
RTVSPropertyOp37
 70
     1
102
RTVSPropertyOp38
 70
     1
102
RTVSPropertyOp39
 70
     1
102
RTVSPropertyOp40
 70
     1
102
RTVSPropertyOp41
 70
     1
102
RTVSPropertyOp42
 70
     1
102
RTVSPropertyOp43
 70
     1
102
RTVSPropertyOp44
 70
     1
102
RTVSPropertyOp45
 70
     1
102
RTVSPropertyOp46
 70
     1
102
RTVSPropertyOp47
 70
     1
102
RTVSPropertyOp48
 70
     1
102
RTVSPropertyOp49
 70
     1
102
RTVSPropertyOp50
 70
     1
102
RTVSPropertyOp51
 70
     0
102
RTVSPropertyOp52
 70
     0
102
RTVSPropertyOp53
 70
     1
102
RTVSPropertyOp54
 70
     1
102
RTVSPropertyOp55
 70
     1
102
RTVSPropertyOp56
 70
     1
102
RTVSPropertyOp57
 70
     1
102
RTVSPropertyOp58
 70
     1
102
RTVSPropertyOp59
 70
     1
102
RTVSPropertyOp60
 70
     1
102
RTVSPropertyOp61
 70
     1
102
RTVSPropertyOp62
 70
     1
  0
XRECORD
  5
544
102
{ACAD_REACTORS
330
543
102
}
330
543
100
AcDbXrecord
280
     1
102
RTVSPost2010Prop28
280
     0
102
RTVSPost2010PropOp28
 70
     1
102
RTVSPost2010Prop29
280
     1
102
RTVSPost2010PropOp29
 70
     1
102
RTVSPost2010Prop30
280
     1
102
RTVSPost2010PropOp30
 70
     1
102
RTVSPost2010Prop31
280
     0
102
RTVSPost2010PropOp31
 70
     1
102
RTVSPost2010Prop32
280
     0
102
RTVSPost2010PropOp32
 70
     1
102
RTVSPost2010Prop33
280
     0
102
RTVSPost2010PropOp33
 70
     1
102
RTVSPost2010Prop34
280
     0
102
RTVSPost2010PropOp34
 70
     1
102
RTVSPost2010Prop35
280
     0
102
RTVSPost2010PropOp35
 70
     1
102
RTVSPost2010Prop36
280
     0
102
RTVSPost2010PropOp36
 70
     1
102
RTVSPost2010Prop37
 90
       50
102
RTVSPost2010PropOp37
 70
     1
102
RTVSPost2010Prop38
140
0.0
102
RTVSPost2010PropOp38
 70
     1
102
RTVSPost2010Prop39
140
1.0
102
RTVSPost2010PropOp39
 70
     1
102
RTVSPost2010Prop40
 90
        0
102
RTVSPost2010PropOp40
 70
     1
102
RTVSPost2010Prop41ColorIndex
 90
       18
102
RTVSPost2010Prop41ColorRGB
 90
        0
102
RTVSPost2010PropOp41
 70
     1
102
RTVSPost2010Prop42
 90
       50
102
RTVSPost2010PropOp42
 70
     1
102
RTVSPost2010Prop43
 90
        3
102
RTVSPost2010PropOp43
 70
     1
102
RTVSPost2010Prop44ColorIndex
 90
        5
102
RTVSPost2010Prop44ColorRGB
 90
      255
102
RTVSPost2010PropOp44
 70
     1
102
RTVSPost2010Prop45
280
     0
102
RTVSPost2010PropOp45
 70
     1
102
RTVSPost2010Prop46
 90
       50
102
RTVSPost2010PropOp46
 70
     1
102
RTVSPost2010Prop47
 90
       50
102
RTVSPost2010PropOp47
 70
     1
102
RTVSPost2010Prop48
 90
       50
102
RTVSPost2010PropOp48
 70
     1
102
RTVSPost2010Prop49
280
     0
102
RTVSPost2010PropOp49
 70
     1
102
RTVSPost2010Prop50
 90
       50
102
RTVSPost2010PropOp50
 70
     1
102
RTVSPost2010Prop51ColorIndex
 90
      256
102
RTVSPost2010Prop51ColorRGB
 90
-16777216
102
RTVSPost2010PropOp51
 70
     0
102
RTVSPost2010Prop52
140
1.0
102
RTVSPost2010PropOp52
 70
     0
102
RTVSPost2010Prop53
 90
        2
102
RTVSPost2010PropOp53
 70
     1
102
RTVSPost2010Prop54
  1
strokes_ogs.tif
102
RTVSPost2010PropOp54
 70
     1
102
RTVSPost2010Prop55
280
     0
102
RTVSPost2010PropOp55
 70
     1
102
RTVSPost2010Prop56
140
1.0
102
RTVSPost2010PropOp56
 70
     1
102
RTVSPost2010Prop57
140
1.0
102
RTVSPost2010PropOp57
 70
     1
102
RTVSPropertyOp0
 70
     1
102
RTVSPropertyOp1
 70
     1
102
RTVSPropertyOp2
 70
     1
102
RTVSPropertyOp3
 70
     1
102
RTVSPropertyOp4
 70
     1
102
RTVSPropertyOp5
 70
     1
102
RTVSPropertyOp6
 70
     1
102
RTVSPropertyOp7
 70
     1
102
RTVSPropertyOp8
 70
     1
102
RTVSPropertyOp9
 70
     1
102
RTVSPropertyOp10
 70
     1
102
RTVSPropertyOp11
 70
     1
102
RTVSPropertyOp12
 70
     1
102
RTVSPropertyOp13
 70
     1
102
RTVSPropertyOp14
 70
     1
102
RTVSPropertyOp15
 70
     1
102
RTVSPropertyOp16
 70
     1
102
RTVSPropertyOp17
 70
     1
102
RTVSPropertyOp18
 70
     1
102
RTVSPropertyOp19
 70
     1
102
RTVSPropertyOp20
 70
     1
102
RTVSPropertyOp21
 70
     1
102
RTVSPropertyOp22
 70
     1
102
RTVSPropertyOp23
 70
     1
102
RTVSPropertyOp24
 70
     1
102
RTVSPropertyOp25
 70
     1
102
RTVSPropertyOp26
 70
     1
102
RTVSPropertyOp27
 70
     1
102
RTVSPropertyOp28
 70
     1
102
RTVSPropertyOp29
 70
     1
102
RTVSPropertyOp30
 70
     1
102
RTVSPropertyOp31
 70
     1
102
RTVSPropertyOp32
 70
     1
102
RTVSPropertyOp33
 70
     1
102
RTVSPropertyOp34
 70
     1
102
RTVSPropertyOp35
 70
     1
102
RTVSPropertyOp36
 70
     1
102
RTVSPropertyOp37
 70
     1
102
RTVSPropertyOp38
 70
     1
102
RTVSPropertyOp39
 70
     1
102
RTVSPropertyOp40
 70
     1
102
RTVSPropertyOp41
 70
     1
102
RTVSPropertyOp42
 70
     1
102
RTVSPropertyOp43
 70
     1
102
RTVSPropertyOp44
 70
     1
102
RTVSPropertyOp45
 70
     1
102
RTVSPropertyOp46
 70
     1
102
RTVSPropertyOp47
 70
     1
102
RTVSPropertyOp48
 70
     1
102
RTVSPropertyOp49
 70
     1
102
RTVSPropertyOp50
 70
     1
102
RTVSPropertyOp51
 70
     0
102
RTVSPropertyOp52
 70
     0
102
RTVSPropertyOp53
 70
     1
102
RTVSPropertyOp54
 70
     1
102
RTVSPropertyOp55
 70
     1
102
RTVSPropertyOp56
 70
     1
102
RTVSPropertyOp57
 70
     1
102
RTVSPropertyOp58
 70
     1
102
RTVSPropertyOp59
 70
     1
102
RTVSPropertyOp60
 70
     1
102
RTVSPropertyOp61
 70
     1
102
RTVSPropertyOp62
 70
     1
  0
XRECORD
  5
546
102
{ACAD_REACTORS
330
545
102
}
330
545
100
AcDbXrecord
280
     1
102
RTVSPost2010Prop28
280
     0
102
RTVSPost2010PropOp28
 70
     1
102
RTVSPost2010Prop29
280
     1
102
RTVSPost2010PropOp29
 70
     1
102
RTVSPost2010Prop30
280
     1
102
RTVSPost2010PropOp30
 70
     1
102
RTVSPost2010Prop31
280
     0
102
RTVSPost2010PropOp31
 70
     1
102
RTVSPost2010Prop32
280
     0
102
RTVSPost2010PropOp32
 70
     1
102
RTVSPost2010Prop33
280
     0
102
RTVSPost2010PropOp33
 70
     1
102
RTVSPost2010Prop34
280
     0
102
RTVSPost2010PropOp34
 70
     1
102
RTVSPost2010Prop35
280
     0
102
RTVSPost2010PropOp35
 70
     1
102
RTVSPost2010Prop36
280
     0
102
RTVSPost2010PropOp36
 70
     1
102
RTVSPost2010Prop37
 90
       50
102
RTVSPost2010PropOp37
 70
     1
102
RTVSPost2010Prop38
140
0.0
102
RTVSPost2010PropOp38
 70
     1
102
RTVSPost2010Prop39
140
1.0
102
RTVSPost2010PropOp39
 70
     1
102
RTVSPost2010Prop40
 90
        0
102
RTVSPost2010PropOp40
 70
     1
102
RTVSPost2010Prop41ColorIndex
 90
       18
102
RTVSPost2010Prop41ColorRGB
 90
        0
102
RTVSPost2010PropOp41
 70
     1
102
RTVSPost2010Prop42
 90
       50
102
RTVSPost2010PropOp42
 70
     1
102
RTVSPost2010Prop43
 90
        3
102
RTVSPost2010PropOp43
 70
     1
102
RTVSPost2010Prop44ColorIndex
 90
        5
102
RTVSPost2010Prop44ColorRGB
 90
      255
102
RTVSPost2010PropOp44
 70
     1
102
RTVSPost2010Prop45
280
     0
102
RTVSPost2010PropOp45
 70
     1
102
RTVSPost2010Prop46
 90
       50
102
RTVSPost2010PropOp46
 70
     1
102
RTVSPost2010Prop47
 90
       50
102
RTVSPost2010PropOp47
 70
     1
102
RTVSPost2010Prop48
 90
       50
102
RTVSPost2010PropOp48
 70
     1
102
RTVSPost2010Prop49
280
     0
102
RTVSPost2010PropOp49
 70
     1
102
RTVSPost2010Prop50
 90
       50
102
RTVSPost2010PropOp50
 70
     1
102
RTVSPost2010Prop51ColorIndex
 90
      256
102
RTVSPost2010Prop51ColorRGB
 90
-16777216
102
RTVSPost2010PropOp51
 70
     0
102
RTVSPost2010Prop52
140
1.0
102
RTVSPost2010PropOp52
 70
     0
102
RTVSPost2010Prop53
 90
        2
102
RTVSPost2010PropOp53
 70
     1
102
RTVSPost2010Prop54
  1
strokes_ogs.tif
102
RTVSPost2010PropOp54
 70
     1
102
RTVSPost2010Prop55
280
     0
102
RTVSPost2010PropOp55
 70
     1
102
RTVSPost2010Prop56
140
1.0
102
RTVSPost2010PropOp56
 70
     1
102
RTVSPost2010Prop57
140
1.0
102
RTVSPost2010PropOp57
 70
     1
102
RTVSPropertyOp0
 70
     1
102
RTVSPropertyOp1
 70
     1
102
RTVSPropertyOp2
 70
     1
102
RTVSPropertyOp3
 70
     1
102
RTVSPropertyOp4
 70
     1
102
RTVSPropertyOp5
 70
     1
102
RTVSPropertyOp6
 70
     1
102
RTVSPropertyOp7
 70
     1
102
RTVSPropertyOp8
 70
     1
102
RTVSPropertyOp9
 70
     1
102
RTVSPropertyOp10
 70
     1
102
RTVSPropertyOp11
 70
     1
102
RTVSPropertyOp12
 70
     1
102
RTVSPropertyOp13
 70
     1
102
RTVSPropertyOp14
 70
     1
102
RTVSPropertyOp15
 70
     1
102
RTVSPropertyOp16
 70
     1
102
RTVSPropertyOp17
 70
     1
102
RTVSPropertyOp18
 70
     1
102
RTVSPropertyOp19
 70
     1
102
RTVSPropertyOp20
 70
     1
102
RTVSPropertyOp21
 70
     1
102
RTVSPropertyOp22
 70
     1
102
RTVSPropertyOp23
 70
     1
102
RTVSPropertyOp24
 70
     1
102
RTVSPropertyOp25
 70
     1
102
RTVSPropertyOp26
 70
     1
102
RTVSPropertyOp27
 70
     1
102
RTVSPropertyOp28
 70
     1
102
RTVSPropertyOp29
 70
     1
102
RTVSPropertyOp30
 70
     1
102
RTVSPropertyOp31
 70
     1
102
RTVSPropertyOp32
 70
     1
102
RTVSPropertyOp33
 70
     1
102
RTVSPropertyOp34
 70
     1
102
RTVSPropertyOp35
 70
     1
102
RTVSPropertyOp36
 70
     1
102
RTVSPropertyOp37
 70
     1
102
RTVSPropertyOp38
 70
     1
102
RTVSPropertyOp39
 70
     1
102
RTVSPropertyOp40
 70
     1
102
RTVSPropertyOp41
 70
     1
102
RTVSPropertyOp42
 70
     1
102
RTVSPropertyOp43
 70
     1
102
RTVSPropertyOp44
 70
     1
102
RTVSPropertyOp45
 70
     1
102
RTVSPropertyOp46
 70
     1
102
RTVSPropertyOp47
 70
     1
102
RTVSPropertyOp48
 70
     1
102
RTVSPropertyOp49
 70
     1
102
RTVSPropertyOp50
 70
     1
102
RTVSPropertyOp51
 70
     0
102
RTVSPropertyOp52
 70
     0
102
RTVSPropertyOp53
 70
     1
102
RTVSPropertyOp54
 70
     1
102
RTVSPropertyOp55
 70
     1
102
RTVSPropertyOp56
 70
     1
102
RTVSPropertyOp57
 70
     1
102
RTVSPropertyOp58
 70
     1
102
RTVSPropertyOp59
 70
     1
102
RTVSPropertyOp60
 70
     1
102
RTVSPropertyOp61
 70
     1
102
RTVSPropertyOp62
 70
     1
  0
XRECORD
  5
548
102
{ACAD_REACTORS
330
547
102
}
330
547
100
AcDbXrecord
280
     1
102
RTVSPost2010Prop28
280
     0
102
RTVSPost2010PropOp28
 70
     1
102
RTVSPost2010Prop29
280
     1
102
RTVSPost2010PropOp29
 70
     1
102
RTVSPost2010Prop30
280
     1
102
RTVSPost2010PropOp30
 70
     1
102
RTVSPost2010Prop31
280
     0
102
RTVSPost2010PropOp31
 70
     1
102
RTVSPost2010Prop32
280
     0
102
RTVSPost2010PropOp32
 70
     1
102
RTVSPost2010Prop33
280
     0
102
RTVSPost2010PropOp33
 70
     1
102
RTVSPost2010Prop34
280
     0
102
RTVSPost2010PropOp34
 70
     1
102
RTVSPost2010Prop35
280
     0
102
RTVSPost2010PropOp35
 70
     1
102
RTVSPost2010Prop36
280
     0
102
RTVSPost2010PropOp36
 70
     1
102
RTVSPost2010Prop37
 90
       50
102
RTVSPost2010PropOp37
 70
     1
102
RTVSPost2010Prop38
140
0.0
102
RTVSPost2010PropOp38
 70
     1
102
RTVSPost2010Prop39
140
1.0
102
RTVSPost2010PropOp39
 70
     1
102
RTVSPost2010Prop40
 90
        0
102
RTVSPost2010PropOp40
 70
     1
102
RTVSPost2010Prop41ColorIndex
 90
       18
102
RTVSPost2010Prop41ColorRGB
 90
        0
102
RTVSPost2010PropOp41
 70
     1
102
RTVSPost2010Prop42
 90
       50
102
RTVSPost2010PropOp42
 70
     1
102
RTVSPost2010Prop43
 90
        3
102
RTVSPost2010PropOp43
 70
     1
102
RTVSPost2010Prop44ColorIndex
 90
        5
102
RTVSPost2010Prop44ColorRGB
 90
      255
102
RTVSPost2010PropOp44
 70
     1
102
RTVSPost2010Prop45
280
     0
102
RTVSPost2010PropOp45
 70
     1
102
RTVSPost2010Prop46
 90
       50
102
RTVSPost2010PropOp46
 70
     1
102
RTVSPost2010Prop47
 90
       50
102
RTVSPost2010PropOp47
 70
     1
102
RTVSPost2010Prop48
 90
       50
102
RTVSPost2010PropOp48
 70
     1
102
RTVSPost2010Prop49
280
     0
102
RTVSPost2010PropOp49
 70
     1
102
RTVSPost2010Prop50
 90
       50
102
RTVSPost2010PropOp50
 70
     1
102
RTVSPost2010Prop51ColorIndex
 90
      256
102
RTVSPost2010Prop51ColorRGB
 90
-16777216
102
RTVSPost2010PropOp51
 70
     0
102
RTVSPost2010Prop52
140
1.0
102
RTVSPost2010PropOp52
 70
     0
102
RTVSPost2010Prop53
 90
        2
102
RTVSPost2010PropOp53
 70
     1
102
RTVSPost2010Prop54
  1
strokes_ogs.tif
102
RTVSPost2010PropOp54
 70
     1
102
RTVSPost2010Prop55
280
     0
102
RTVSPost2010PropOp55
 70
     1
102
RTVSPost2010Prop56
140
1.0
102
RTVSPost2010PropOp56
 70
     1
102
RTVSPost2010Prop57
140
1.0
102
RTVSPost2010PropOp57
 70
     1
102
RTVSPropertyOp0
 70
     1
102
RTVSPropertyOp1
 70
     1
102
RTVSPropertyOp2
 70
     1
102
RTVSPropertyOp3
 70
     1
102
RTVSPropertyOp4
 70
     1
102
RTVSPropertyOp5
 70
     1
102
RTVSPropertyOp6
 70
     1
102
RTVSPropertyOp7
 70
     1
102
RTVSPropertyOp8
 70
     1
102
RTVSPropertyOp9
 70
     1
102
RTVSPropertyOp10
 70
     1
102
RTVSPropertyOp11
 70
     1
102
RTVSPropertyOp12
 70
     1
102
RTVSPropertyOp13
 70
     1
102
RTVSPropertyOp14
 70
     1
102
RTVSPropertyOp15
 70
     1
102
RTVSPropertyOp16
 70
     1
102
RTVSPropertyOp17
 70
     1
102
RTVSPropertyOp18
 70
     1
102
RTVSPropertyOp19
 70
     1
102
RTVSPropertyOp20
 70
     1
102
RTVSPropertyOp21
 70
     1
102
RTVSPropertyOp22
 70
     1
102
RTVSPropertyOp23
 70
     1
102
RTVSPropertyOp24
 70
     1
102
RTVSPropertyOp25
 70
     1
102
RTVSPropertyOp26
 70
     1
102
RTVSPropertyOp27
 70
     1
102
RTVSPropertyOp28
 70
     1
102
RTVSPropertyOp29
 70
     1
102
RTVSPropertyOp30
 70
     1
102
RTVSPropertyOp31
 70
     1
102
RTVSPropertyOp32
 70
     1
102
RTVSPropertyOp33
 70
     1
102
RTVSPropertyOp34
 70
     1
102
RTVSPropertyOp35
 70
     1
102
RTVSPropertyOp36
 70
     1
102
RTVSPropertyOp37
 70
     1
102
RTVSPropertyOp38
 70
     1
102
RTVSPropertyOp39
 70
     1
102
RTVSPropertyOp40
 70
     1
102
RTVSPropertyOp41
 70
     1
102
RTVSPropertyOp42
 70
     1
102
RTVSPropertyOp43
 70
     1
102
RTVSPropertyOp44
 70
     1
102
RTVSPropertyOp45
 70
     1
102
RTVSPropertyOp46
 70
     1
102
RTVSPropertyOp47
 70
     1
102
RTVSPropertyOp48
 70
     1
102
RTVSPropertyOp49
 70
     1
102
RTVSPropertyOp50
 70
     1
102
RTVSPropertyOp51
 70
     0
102
RTVSPropertyOp52
 70
     0
102
RTVSPropertyOp53
 70
     1
102
RTVSPropertyOp54
 70
     1
102
RTVSPropertyOp55
 70
     1
102
RTVSPropertyOp56
 70
     1
102
RTVSPropertyOp57
 70
     1
102
RTVSPropertyOp58
 70
     1
102
RTVSPropertyOp59
 70
     1
102
RTVSPropertyOp60
 70
     1
102
RTVSPropertyOp61
 70
     1
102
RTVSPropertyOp62
 70
     1
  0
XRECORD
  5
54A
102
{ACAD_REACTORS
330
549
102
}
330
549
100
AcDbXrecord
280
     1
102
RTVSPost2010Prop28
280
     0
102
RTVSPost2010PropOp28
 70
     1
102
RTVSPost2010Prop29
280
     1
102
RTVSPost2010PropOp29
 70
     1
102
RTVSPost2010Prop30
280
     1
102
RTVSPost2010PropOp30
 70
     1
102
RTVSPost2010Prop31
280
     0
102
RTVSPost2010PropOp31
 70
     1
102
RTVSPost2010Prop32
280
     0
102
RTVSPost2010PropOp32
 70
     1
102
RTVSPost2010Prop33
280
     0
102
RTVSPost2010PropOp33
 70
     1
102
RTVSPost2010Prop34
280
     0
102
RTVSPost2010PropOp34
 70
     1
102
RTVSPost2010Prop35
280
     0
102
RTVSPost2010PropOp35
 70
     1
102
RTVSPost2010Prop36
280
     0
102
RTVSPost2010PropOp36
 70
     1
102
RTVSPost2010Prop37
 90
       50
102
RTVSPost2010PropOp37
 70
     1
102
RTVSPost2010Prop38
140
0.0
102
RTVSPost2010PropOp38
 70
     1
102
RTVSPost2010Prop39
140
1.0
102
RTVSPost2010PropOp39
 70
     1
102
RTVSPost2010Prop40
 90
        0
102
RTVSPost2010PropOp40
 70
     1
102
RTVSPost2010Prop41ColorIndex
 90
       18
102
RTVSPost2010Prop41ColorRGB
 90
        0
102
RTVSPost2010PropOp41
 70
     1
102
RTVSPost2010Prop42
 90
       50
102
RTVSPost2010PropOp42
 70
     1
102
RTVSPost2010Prop43
 90
        3
102
RTVSPost2010PropOp43
 70
     1
102
RTVSPost2010Prop44ColorIndex
 90
        5
102
RTVSPost2010Prop44ColorRGB
 90
      255
102
RTVSPost2010PropOp44
 70
     1
102
RTVSPost2010Prop45
280
     0
102
RTVSPost2010PropOp45
 70
     1
102
RTVSPost2010Prop46
 90
       50
102
RTVSPost2010PropOp46
 70
     1
102
RTVSPost2010Prop47
 90
       50
102
RTVSPost2010PropOp47
 70
     1
102
RTVSPost2010Prop48
 90
       50
102
RTVSPost2010PropOp48
 70
     1
102
RTVSPost2010Prop49
280
     0
102
RTVSPost2010PropOp49
 70
     1
102
RTVSPost2010Prop50
 90
       50
102
RTVSPost2010PropOp50
 70
     1
102
RTVSPost2010Prop51ColorIndex
 90
      256
102
RTVSPost2010Prop51ColorRGB
 90
-16777216
102
RTVSPost2010PropOp51
 70
     0
102
RTVSPost2010Prop52
140
1.0
102
RTVSPost2010PropOp52
 70
     0
102
RTVSPost2010Prop53
 90
        2
102
RTVSPost2010PropOp53
 70
     1
102
RTVSPost2010Prop54
  1
strokes_ogs.tif
102
RTVSPost2010PropOp54
 70
     1
102
RTVSPost2010Prop55
280
     0
102
RTVSPost2010PropOp55
 70
     1
102
RTVSPost2010Prop56
140
1.0
102
RTVSPost2010PropOp56
 70
     1
102
RTVSPost2010Prop57
140
1.0
102
RTVSPost2010PropOp57
 70
     1
102
RTVSPropertyOp0
 70
     1
102
RTVSPropertyOp1
 70
     1
102
RTVSPropertyOp2
 70
     1
102
RTVSPropertyOp3
 70
     1
102
RTVSPropertyOp4
 70
     1
102
RTVSPropertyOp5
 70
     1
102
RTVSPropertyOp6
 70
     1
102
RTVSPropertyOp7
 70
     1
102
RTVSPropertyOp8
 70
     1
102
RTVSPropertyOp9
 70
     1
102
RTVSPropertyOp10
 70
     1
102
RTVSPropertyOp11
 70
     1
102
RTVSPropertyOp12
 70
     1
102
RTVSPropertyOp13
 70
     1
102
RTVSPropertyOp14
 70
     1
102
RTVSPropertyOp15
 70
     1
102
RTVSPropertyOp16
 70
     1
102
RTVSPropertyOp17
 70
     1
102
RTVSPropertyOp18
 70
     1
102
RTVSPropertyOp19
 70
     1
102
RTVSPropertyOp20
 70
     1
102
RTVSPropertyOp21
 70
     1
102
RTVSPropertyOp22
 70
     1
102
RTVSPropertyOp23
 70
     1
102
RTVSPropertyOp24
 70
     1
102
RTVSPropertyOp25
 70
     1
102
RTVSPropertyOp26
 70
     1
102
RTVSPropertyOp27
 70
     1
102
RTVSPropertyOp28
 70
     1
102
RTVSPropertyOp29
 70
     1
102
RTVSPropertyOp30
 70
     1
102
RTVSPropertyOp31
 70
     1
102
RTVSPropertyOp32
 70
     1
102
RTVSPropertyOp33
 70
     1
102
RTVSPropertyOp34
 70
     1
102
RTVSPropertyOp35
 70
     1
102
RTVSPropertyOp36
 70
     1
102
RTVSPropertyOp37
 70
     1
102
RTVSPropertyOp38
 70
     1
102
RTVSPropertyOp39
 70
     1
102
RTVSPropertyOp40
 70
     1
102
RTVSPropertyOp41
 70
     1
102
RTVSPropertyOp42
 70
     1
102
RTVSPropertyOp43
 70
     1
102
RTVSPropertyOp44
 70
     1
102
RTVSPropertyOp45
 70
     1
102
RTVSPropertyOp46
 70
     1
102
RTVSPropertyOp47
 70
     1
102
RTVSPropertyOp48
 70
     1
102
RTVSPropertyOp49
 70
     1
102
RTVSPropertyOp50
 70
     1
102
RTVSPropertyOp51
 70
     0
102
RTVSPropertyOp52
 70
     0
102
RTVSPropertyOp53
 70
     1
102
RTVSPropertyOp54
 70
     1
102
RTVSPropertyOp55
 70
     1
102
RTVSPropertyOp56
 70
     1
102
RTVSPropertyOp57
 70
     1
102
RTVSPropertyOp58
 70
     1
102
RTVSPropertyOp59
 70
     1
102
RTVSPropertyOp60
 70
     1
102
RTVSPropertyOp61
 70
     1
102
RTVSPropertyOp62
 70
     1
  0
XRECORD
  5
550
102
{ACAD_REACTORS
330
54F
102
}
330
54F
100
AcDbXrecord
280
     1
102
RTVSPost2010Prop28
280
     0
102
RTVSPost2010PropOp28
 70
     1
102
RTVSPost2010Prop29
280
     1
102
RTVSPost2010PropOp29
 70
     1
102
RTVSPost2010Prop30
280
     1
102
RTVSPost2010PropOp30
 70
     1
102
RTVSPost2010Prop31
280
     0
102
RTVSPost2010PropOp31
 70
     1
102
RTVSPost2010Prop32
280
     0
102
RTVSPost2010PropOp32
 70
     1
102
RTVSPost2010Prop33
280
     0
102
RTVSPost2010PropOp33
 70
     1
102
RTVSPost2010Prop34
280
     0
102
RTVSPost2010PropOp34
 70
     1
102
RTVSPost2010Prop35
280
     0
102
RTVSPost2010PropOp35
 70
     1
102
RTVSPost2010Prop36
280
     0
102
RTVSPost2010PropOp36
 70
     1
102
RTVSPost2010Prop37
 90
       50
102
RTVSPost2010PropOp37
 70
     1
102
RTVSPost2010Prop38
140
0.0
102
RTVSPost2010PropOp38
 70
     1
102
RTVSPost2010Prop39
140
1.0
102
RTVSPost2010PropOp39
 70
     1
102
RTVSPost2010Prop40
 90
        0
102
RTVSPost2010PropOp40
 70
     1
102
RTVSPost2010Prop41ColorIndex
 90
       18
102
RTVSPost2010Prop41ColorRGB
 90
        0
102
RTVSPost2010PropOp41
 70
     1
102
RTVSPost2010Prop42
 90
       50
102
RTVSPost2010PropOp42
 70
     1
102
RTVSPost2010Prop43
 90
        3
102
RTVSPost2010PropOp43
 70
     1
102
RTVSPost2010Prop44ColorIndex
 90
        5
102
RTVSPost2010Prop44ColorRGB
 90
      255
102
RTVSPost2010PropOp44
 70
     1
102
RTVSPost2010Prop45
280
     0
102
RTVSPost2010PropOp45
 70
     1
102
RTVSPost2010Prop46
 90
       50
102
RTVSPost2010PropOp46
 70
     1
102
RTVSPost2010Prop47
 90
       50
102
RTVSPost2010PropOp47
 70
     1
102
RTVSPost2010Prop48
 90
       50
102
RTVSPost2010PropOp48
 70
     1
102
RTVSPost2010Prop49
280
     0
102
RTVSPost2010PropOp49
 70
     1
102
RTVSPost2010Prop50
 90
       50
102
RTVSPost2010PropOp50
 70
     1
102
RTVSPost2010Prop51ColorIndex
 90
      256
102
RTVSPost2010Prop51ColorRGB
 90
-16777216
102
RTVSPost2010PropOp51
 70
     0
102
RTVSPost2010Prop52
140
1.0
102
RTVSPost2010PropOp52
 70
     0
102
RTVSPost2010Prop53
 90
        2
102
RTVSPost2010PropOp53
 70
     1
102
RTVSPost2010Prop54
  1
strokes_ogs.tif
102
RTVSPost2010PropOp54
 70
     1
102
RTVSPost2010Prop55
280
     0
102
RTVSPost2010PropOp55
 70
     1
102
RTVSPost2010Prop56
140
1.0
102
RTVSPost2010PropOp56
 70
     1
102
RTVSPost2010Prop57
140
1.0
102
RTVSPost2010PropOp57
 70
     1
102
RTVSPropertyOp0
 70
     1
102
RTVSPropertyOp1
 70
     1
102
RTVSPropertyOp2
 70
     1
102
RTVSPropertyOp3
 70
     1
102
RTVSPropertyOp4
 70
     1
102
RTVSPropertyOp5
 70
     1
102
RTVSPropertyOp6
 70
     1
102
RTVSPropertyOp7
 70
     1
102
RTVSPropertyOp8
 70
     1
102
RTVSPropertyOp9
 70
     1
102
RTVSPropertyOp10
 70
     1
102
RTVSPropertyOp11
 70
     1
102
RTVSPropertyOp12
 70
     1
102
RTVSPropertyOp13
 70
     1
102
RTVSPropertyOp14
 70
     1
102
RTVSPropertyOp15
 70
     1
102
RTVSPropertyOp16
 70
     1
102
RTVSPropertyOp17
 70
     1
102
RTVSPropertyOp18
 70
     1
102
RTVSPropertyOp19
 70
     1
102
RTVSPropertyOp20
 70
     1
102
RTVSPropertyOp21
 70
     1
102
RTVSPropertyOp22
 70
     1
102
RTVSPropertyOp23
 70
     1
102
RTVSPropertyOp24
 70
     1
102
RTVSPropertyOp25
 70
     1
102
RTVSPropertyOp26
 70
     1
102
RTVSPropertyOp27
 70
     1
102
RTVSPropertyOp28
 70
     1
102
RTVSPropertyOp29
 70
     1
102
RTVSPropertyOp30
 70
     1
102
RTVSPropertyOp31
 70
     1
102
RTVSPropertyOp32
 70
     1
102
RTVSPropertyOp33
 70
     1
102
RTVSPropertyOp34
 70
     1
102
RTVSPropertyOp35
 70
     1
102
RTVSPropertyOp36
 70
     1
102
RTVSPropertyOp37
 70
     1
102
RTVSPropertyOp38
 70
     1
102
RTVSPropertyOp39
 70
     1
102
RTVSPropertyOp40
 70
     1
102
RTVSPropertyOp41
 70
     1
102
RTVSPropertyOp42
 70
     1
102
RTVSPropertyOp43
 70
     1
102
RTVSPropertyOp44
 70
     1
102
RTVSPropertyOp45
 70
     1
102
RTVSPropertyOp46
 70
     1
102
RTVSPropertyOp47
 70
     1
102
RTVSPropertyOp48
 70
     1
102
RTVSPropertyOp49
 70
     1
102
RTVSPropertyOp50
 70
     1
102
RTVSPropertyOp51
 70
     0
102
RTVSPropertyOp52
 70
     0
102
RTVSPropertyOp53
 70
     1
102
RTVSPropertyOp54
 70
     1
102
RTVSPropertyOp55
 70
     1
102
RTVSPropertyOp56
 70
     1
102
RTVSPropertyOp57
 70
     1
102
RTVSPropertyOp58
 70
     1
102
RTVSPropertyOp59
 70
     1
102
RTVSPropertyOp60
 70
     1
102
RTVSPropertyOp61
 70
     1
102
RTVSPropertyOp62
 70
     1
  0
XRECORD
  5
564
102
{ACAD_REACTORS
330
563
102
}
330
563
100
AcDbXrecord
280
     1
102
RTVSPost2010Prop28
280
     0
102
RTVSPost2010PropOp28
 70
     0
102
RTVSPost2010Prop29
280
     1
102
RTVSPost2010PropOp29
 70
     0
102
RTVSPost2010Prop30
280
     1
102
RTVSPost2010PropOp30
 70
     0
102
RTVSPost2010Prop31
280
     0
102
RTVSPost2010PropOp31
 70
     0
102
RTVSPost2010Prop32
280
     0
102
RTVSPost2010PropOp32
 70
     0
102
RTVSPost2010Prop33
280
     0
102
RTVSPost2010PropOp33
 70
     0
102
RTVSPost2010Prop34
280
     0
102
RTVSPost2010PropOp34
 70
     0
102
RTVSPost2010Prop35
280
     0
102
RTVSPost2010PropOp35
 70
     0
102
RTVSPost2010Prop36
280
     0
102
RTVSPost2010PropOp36
 70
     0
102
RTVSPost2010Prop37
 90
       50
102
RTVSPost2010PropOp37
 70
     0
102
RTVSPost2010Prop38
140
0.0
102
RTVSPost2010PropOp38
 70
     0
102
RTVSPost2010Prop39
140
1.0
102
RTVSPost2010PropOp39
 70
     0
102
RTVSPost2010Prop40
 90
        0
102
RTVSPost2010PropOp40
 70
     0
102
RTVSPost2010Prop41ColorIndex
 90
       18
102
RTVSPost2010Prop41ColorRGB
 90
        0
102
RTVSPost2010PropOp41
 70
     0
102
RTVSPost2010Prop42
 90
       50
102
RTVSPost2010PropOp42
 70
     0
102
RTVSPost2010Prop43
 90
        3
102
RTVSPost2010PropOp43
 70
     0
102
RTVSPost2010Prop44ColorIndex
 90
        5
102
RTVSPost2010Prop44ColorRGB
 90
      255
102
RTVSPost2010PropOp44
 70
     0
102
RTVSPost2010Prop45
280
     0
102
RTVSPost2010PropOp45
 70
     0
102
RTVSPost2010Prop46
 90
       50
102
RTVSPost2010PropOp46
 70
     0
102
RTVSPost2010Prop47
 90
       50
102
RTVSPost2010PropOp47
 70
     0
102
RTVSPost2010Prop48
 90
       50
102
RTVSPost2010PropOp48
 70
     0
102
RTVSPost2010Prop49
280
     0
102
RTVSPost2010PropOp49
 70
     0
102
RTVSPost2010Prop50
 90
       50
102
RTVSPost2010PropOp50
 70
     0
102
RTVSPost2010Prop51ColorIndex
 90
      256
102
RTVSPost2010Prop51ColorRGB
 90
-16777216
102
RTVSPost2010PropOp51
 70
     0
102
RTVSPost2010Prop52
140
1.0
102
RTVSPost2010PropOp52
 70
     0
102
RTVSPost2010Prop53
 90
        2
102
RTVSPost2010PropOp53
 70
     0
102
RTVSPost2010Prop54
  1
strokes_ogs.tif
102
RTVSPost2010PropOp54
 70
     0
102
RTVSPost2010Prop55
280
     0
102
RTVSPost2010PropOp55
 70
     0
102
RTVSPost2010Prop56
140
1.0
102
RTVSPost2010PropOp56
 70
     0
102
RTVSPost2010Prop57
140
1.0
102
RTVSPost2010PropOp57
 70
     0
102
RTVSPropertyOp0
 70
     0
102
RTVSPropertyOp1
 70
     0
102
RTVSPropertyOp2
 70
     0
102
RTVSPropertyOp3
 70
     0
102
RTVSPropertyOp4
 70
     0
102
RTVSPropertyOp5
 70
     0
102
RTVSPropertyOp6
 70
     0
102
RTVSPropertyOp7
 70
     0
102
RTVSPropertyOp8
 70
     0
102
RTVSPropertyOp9
 70
     0
102
RTVSPropertyOp10
 70
     0
102
RTVSPropertyOp11
 70
     0
102
RTVSPropertyOp12
 70
     0
102
RTVSPropertyOp13
 70
     0
102
RTVSPropertyOp14
 70
     2
102
RTVSPropertyOp15
 70
     0
102
RTVSPropertyOp16
 70
     0
102
RTVSPropertyOp17
 70
     0
102
RTVSPropertyOp18
 70
     0
102
RTVSPropertyOp19
 70
     0
102
RTVSPropertyOp20
 70
     0
102
RTVSPropertyOp21
 70
     0
102
RTVSPropertyOp22
 70
     0
102
RTVSPropertyOp23
 70
     0
102
RTVSPropertyOp24
 70
     0
102
RTVSPropertyOp25
 70
     0
102
RTVSPropertyOp26
 70
     0
102
RTVSPropertyOp27
 70
     0
102
RTVSPropertyOp28
 70
     0
102
RTVSPropertyOp29
 70
     0
102
RTVSPropertyOp30
 70
     0
102
RTVSPropertyOp31
 70
     0
102
RTVSPropertyOp32
 70
     0
102
RTVSPropertyOp33
 70
     0
102
RTVSPropertyOp34
 70
     0
102
RTVSPropertyOp35
 70
     0
102
RTVSPropertyOp36
 70
     0
102
RTVSPropertyOp37
 70
     0
102
RTVSPropertyOp38
 70
     0
102
RTVSPropertyOp39
 70
     0
102
RTVSPropertyOp40
 70
     0
102
RTVSPropertyOp41
 70
     0
102
RTVSPropertyOp42
 70
     0
102
RTVSPropertyOp43
 70
     0
102
RTVSPropertyOp44
 70
     0
102
RTVSPropertyOp45
 70
     0
102
RTVSPropertyOp46
 70
     0
102
RTVSPropertyOp47
 70
     0
102
RTVSPropertyOp48
 70
     0
102
RTVSPropertyOp49
 70
     0
102
RTVSPropertyOp50
 70
     0
102
RTVSPropertyOp51
 70
     0
102
RTVSPropertyOp52
 70
     0
102
RTVSPropertyOp53
 70
     0
102
RTVSPropertyOp54
 70
     0
102
RTVSPropertyOp55
 70
     0
102
RTVSPropertyOp56
 70
     0
102
RTVSPropertyOp57
 70
     0
102
RTVSPropertyOp58
 70
     1
102
RTVSPropertyOp59
 70
     1
102
RTVSPropertyOp60
 70
     1
102
RTVSPropertyOp61
 70
     1
102
RTVSPropertyOp62
 70
     1
  0
XRECORD
  5
55E
102
{ACAD_REACTORS
330
55D
102
}
330
55D
100
AcDbXrecord
280
     1
102
RTVSPost2010Prop28
280
     0
102
RTVSPost2010PropOp28
 70
     1
102
RTVSPost2010Prop29
280
     1
102
RTVSPost2010PropOp29
 70
     1
102
RTVSPost2010Prop30
280
     1
102
RTVSPost2010PropOp30
 70
     1
102
RTVSPost2010Prop31
280
     0
102
RTVSPost2010PropOp31
 70
     1
102
RTVSPost2010Prop32
280
     0
102
RTVSPost2010PropOp32
 70
     1
102
RTVSPost2010Prop33
280
     0
102
RTVSPost2010PropOp33
 70
     1
102
RTVSPost2010Prop34
280
     0
102
RTVSPost2010PropOp34
 70
     1
102
RTVSPost2010Prop35
280
     0
102
RTVSPost2010PropOp35
 70
     1
102
RTVSPost2010Prop36
280
     0
102
RTVSPost2010PropOp36
 70
     1
102
RTVSPost2010Prop37
 90
       50
102
RTVSPost2010PropOp37
 70
     1
102
RTVSPost2010Prop38
140
0.0
102
RTVSPost2010PropOp38
 70
     1
102
RTVSPost2010Prop39
140
1.0
102
RTVSPost2010PropOp39
 70
     1
102
RTVSPost2010Prop40
 90
        0
102
RTVSPost2010PropOp40
 70
     1
102
RTVSPost2010Prop41ColorIndex
 90
       18
102
RTVSPost2010Prop41ColorRGB
 90
        0
102
RTVSPost2010PropOp41
 70
     1
102
RTVSPost2010Prop42
 90
       50
102
RTVSPost2010PropOp42
 70
     1
102
RTVSPost2010Prop43
 90
        3
102
RTVSPost2010PropOp43
 70
     1
102
RTVSPost2010Prop44ColorIndex
 90
        5
102
RTVSPost2010Prop44ColorRGB
 90
      255
102
RTVSPost2010PropOp44
 70
     1
102
RTVSPost2010Prop45
280
     0
102
RTVSPost2010PropOp45
 70
     1
102
RTVSPost2010Prop46
 90
       50
102
RTVSPost2010PropOp46
 70
     1
102
RTVSPost2010Prop47
 90
       50
102
RTVSPost2010PropOp47
 70
     1
102
RTVSPost2010Prop48
 90
       50
102
RTVSPost2010PropOp48
 70
     1
102
RTVSPost2010Prop49
280
     0
102
RTVSPost2010PropOp49
 70
     1
102
RTVSPost2010Prop50
 90
       50
102
RTVSPost2010PropOp50
 70
     1
102
RTVSPost2010Prop51ColorIndex
 90
      256
102
RTVSPost2010Prop51ColorRGB
 90
-16777216
102
RTVSPost2010PropOp51
 70
     0
102
RTVSPost2010Prop52
140
1.0
102
RTVSPost2010PropOp52
 70
     0
102
RTVSPost2010Prop53
 90
        2
102
RTVSPost2010PropOp53
 70
     1
102
RTVSPost2010Prop54
  1
strokes_ogs.tif
102
RTVSPost2010PropOp54
 70
     1
102
RTVSPost2010Prop55
280
     0
102
RTVSPost2010PropOp55
 70
     1
102
RTVSPost2010Prop56
140
1.0
102
RTVSPost2010PropOp56
 70
     1
102
RTVSPost2010Prop57
140
1.0
102
RTVSPost2010PropOp57
 70
     1
102
RTVSPropertyOp0
 70
     1
102
RTVSPropertyOp1
 70
     1
102
RTVSPropertyOp2
 70
     1
102
RTVSPropertyOp3
 70
     1
102
RTVSPropertyOp4
 70
     1
102
RTVSPropertyOp5
 70
     1
102
RTVSPropertyOp6
 70
     1
102
RTVSPropertyOp7
 70
     1
102
RTVSPropertyOp8
 70
     1
102
RTVSPropertyOp9
 70
     1
102
RTVSPropertyOp10
 70
     1
102
RTVSPropertyOp11
 70
     1
102
RTVSPropertyOp12
 70
     1
102
RTVSPropertyOp13
 70
     1
102
RTVSPropertyOp14
 70
     1
102
RTVSPropertyOp15
 70
     1
102
RTVSPropertyOp16
 70
     1
102
RTVSPropertyOp17
 70
     1
102
RTVSPropertyOp18
 70
     1
102
RTVSPropertyOp19
 70
     1
102
RTVSPropertyOp20
 70
     1
102
RTVSPropertyOp21
 70
     1
102
RTVSPropertyOp22
 70
     1
102
RTVSPropertyOp23
 70
     1
102
RTVSPropertyOp24
 70
     1
102
RTVSPropertyOp25
 70
     1
102
RTVSPropertyOp26
 70
     1
102
RTVSPropertyOp27
 70
     1
102
RTVSPropertyOp28
 70
     1
102
RTVSPropertyOp29
 70
     1
102
RTVSPropertyOp30
 70
     1
102
RTVSPropertyOp31
 70
     1
102
RTVSPropertyOp32
 70
     1
102
RTVSPropertyOp33
 70
     1
102
RTVSPropertyOp34
 70
     1
102
RTVSPropertyOp35
 70
     1
102
RTVSPropertyOp36
 70
     1
102
RTVSPropertyOp37
 70
     1
102
RTVSPropertyOp38
 70
     1
102
RTVSPropertyOp39
 70
     1
102
RTVSPropertyOp40
 70
     1
102
RTVSPropertyOp41
 70
     1
102
RTVSPropertyOp42
 70
     1
102
RTVSPropertyOp43
 70
     1
102
RTVSPropertyOp44
 70
     1
102
RTVSPropertyOp45
 70
     1
102
RTVSPropertyOp46
 70
     1
102
RTVSPropertyOp47
 70
     1
102
RTVSPropertyOp48
 70
     1
102
RTVSPropertyOp49
 70
     1
102
RTVSPropertyOp50
 70
     1
102
RTVSPropertyOp51
 70
     0
102
RTVSPropertyOp52
 70
     0
102
RTVSPropertyOp53
 70
     1
102
RTVSPropertyOp54
 70
     1
102
RTVSPropertyOp55
 70
     1
102
RTVSPropertyOp56
 70
     1
102
RTVSPropertyOp57
 70
     1
102
RTVSPropertyOp58
 70
     1
102
RTVSPropertyOp59
 70
     1
102
RTVSPropertyOp60
 70
     1
102
RTVSPropertyOp61
 70
     1
102
RTVSPropertyOp62
 70
     1
  0
XRECORD
  5
566
102
{ACAD_REACTORS
330
565
102
}
330
565
100
AcDbXrecord
280
     1
102
RTVSPost2010Prop28
280
     0
102
RTVSPost2010PropOp28
 70
     0
102
RTVSPost2010Prop29
280
     1
102
RTVSPost2010PropOp29
 70
     0
102
RTVSPost2010Prop30
280
     1
102
RTVSPost2010PropOp30
 70
     0
102
RTVSPost2010Prop31
280
     0
102
RTVSPost2010PropOp31
 70
     0
102
RTVSPost2010Prop32
280
     0
102
RTVSPost2010PropOp32
 70
     0
102
RTVSPost2010Prop33
280
     0
102
RTVSPost2010PropOp33
 70
     0
102
RTVSPost2010Prop34
280
     0
102
RTVSPost2010PropOp34
 70
     0
102
RTVSPost2010Prop35
280
     0
102
RTVSPost2010PropOp35
 70
     0
102
RTVSPost2010Prop36
280
     0
102
RTVSPost2010PropOp36
 70
     0
102
RTVSPost2010Prop37
 90
       50
102
RTVSPost2010PropOp37
 70
     0
102
RTVSPost2010Prop38
140
0.0
102
RTVSPost2010PropOp38
 70
     0
102
RTVSPost2010Prop39
140
1.0
102
RTVSPost2010PropOp39
 70
     0
102
RTVSPost2010Prop40
 90
        0
102
RTVSPost2010PropOp40
 70
     0
102
RTVSPost2010Prop41ColorIndex
 90
       18
102
RTVSPost2010Prop41ColorRGB
 90
        0
102
RTVSPost2010PropOp41
 70
     0
102
RTVSPost2010Prop42
 90
       50
102
RTVSPost2010PropOp42
 70
     0
102
RTVSPost2010Prop43
 90
        3
102
RTVSPost2010PropOp43
 70
     0
102
RTVSPost2010Prop44ColorIndex
 90
        5
102
RTVSPost2010Prop44ColorRGB
 90
      255
102
RTVSPost2010PropOp44
 70
     0
102
RTVSPost2010Prop45
280
     0
102
RTVSPost2010PropOp45
 70
     0
102
RTVSPost2010Prop46
 90
       50
102
RTVSPost2010PropOp46
 70
     0
102
RTVSPost2010Prop47
 90
       50
102
RTVSPost2010PropOp47
 70
     0
102
RTVSPost2010Prop48
 90
       50
102
RTVSPost2010PropOp48
 70
     0
102
RTVSPost2010Prop49
280
     0
102
RTVSPost2010PropOp49
 70
     0
102
RTVSPost2010Prop50
 90
       50
102
RTVSPost2010PropOp50
 70
     0
102
RTVSPost2010Prop51ColorIndex
 90
      256
102
RTVSPost2010Prop51ColorRGB
 90
-16777216
102
RTVSPost2010PropOp51
 70
     0
102
RTVSPost2010Prop52
140
1.0
102
RTVSPost2010PropOp52
 70
     0
102
RTVSPost2010Prop53
 90
        2
102
RTVSPost2010PropOp53
 70
     0
102
RTVSPost2010Prop54
  1
strokes_ogs.tif
102
RTVSPost2010PropOp54
 70
     0
102
RTVSPost2010Prop55
280
     0
102
RTVSPost2010PropOp55
 70
     0
102
RTVSPost2010Prop56
140
1.0
102
RTVSPost2010PropOp56
 70
     0
102
RTVSPost2010Prop57
140
1.0
102
RTVSPost2010PropOp57
 70
     0
102
RTVSPropertyOp0
 70
     0
102
RTVSPropertyOp1
 70
     0
102
RTVSPropertyOp2
 70
     0
102
RTVSPropertyOp3
 70
     0
102
RTVSPropertyOp4
 70
     0
102
RTVSPropertyOp5
 70
     0
102
RTVSPropertyOp6
 70
     0
102
RTVSPropertyOp7
 70
     0
102
RTVSPropertyOp8
 70
     0
102
RTVSPropertyOp9
 70
     0
102
RTVSPropertyOp10
 70
     0
102
RTVSPropertyOp11
 70
     0
102
RTVSPropertyOp12
 70
     0
102
RTVSPropertyOp13
 70
     0
102
RTVSPropertyOp14
 70
     2
102
RTVSPropertyOp15
 70
     0
102
RTVSPropertyOp16
 70
     0
102
RTVSPropertyOp17
 70
     0
102
RTVSPropertyOp18
 70
     0
102
RTVSPropertyOp19
 70
     0
102
RTVSPropertyOp20
 70
     0
102
RTVSPropertyOp21
 70
     0
102
RTVSPropertyOp22
 70
     0
102
RTVSPropertyOp23
 70
     0
102
RTVSPropertyOp24
 70
     0
102
RTVSPropertyOp25
 70
     0
102
RTVSPropertyOp26
 70
     0
102
RTVSPropertyOp27
 70
     0
102
RTVSPropertyOp28
 70
     0
102
RTVSPropertyOp29
 70
     0
102
RTVSPropertyOp30
 70
     0
102
RTVSPropertyOp31
 70
     0
102
RTVSPropertyOp32
 70
     0
102
RTVSPropertyOp33
 70
     0
102
RTVSPropertyOp34
 70
     0
102
RTVSPropertyOp35
 70
     0
102
RTVSPropertyOp36
 70
     0
102
RTVSPropertyOp37
 70
     0
102
RTVSPropertyOp38
 70
     0
102
RTVSPropertyOp39
 70
     0
102
RTVSPropertyOp40
 70
     0
102
RTVSPropertyOp41
 70
     0
102
RTVSPropertyOp42
 70
     0
102
RTVSPropertyOp43
 70
     0
102
RTVSPropertyOp44
 70
     0
102
RTVSPropertyOp45
 70
     0
102
RTVSPropertyOp46
 70
     0
102
RTVSPropertyOp47
 70
     0
102
RTVSPropertyOp48
 70
     0
102
RTVSPropertyOp49
 70
     0
102
RTVSPropertyOp50
 70
     0
102
RTVSPropertyOp51
 70
     0
102
RTVSPropertyOp52
 70
     0
102
RTVSPropertyOp53
 70
     0
102
RTVSPropertyOp54
 70
     0
102
RTVSPropertyOp55
 70
     0
102
RTVSPropertyOp56
 70
     0
102
RTVSPropertyOp57
 70
     0
102
RTVSPropertyOp58
 70
     1
102
RTVSPropertyOp59
 70
     1
102
RTVSPropertyOp60
 70
     1
102
RTVSPropertyOp61
 70
     1
102
RTVSPropertyOp62
 70
     1
  0
XRECORD
  5
554
102
{ACAD_REACTORS
330
553
102
}
330
553
100
AcDbXrecord
280
     1
102
RTVSPost2010Prop28
280
     0
102
RTVSPost2010PropOp28
 70
     1
102
RTVSPost2010Prop29
280
     1
102
RTVSPost2010PropOp29
 70
     1
102
RTVSPost2010Prop30
280
     1
102
RTVSPost2010PropOp30
 70
     1
102
RTVSPost2010Prop31
280
     0
102
RTVSPost2010PropOp31
 70
     1
102
RTVSPost2010Prop32
280
     0
102
RTVSPost2010PropOp32
 70
     1
102
RTVSPost2010Prop33
280
     0
102
RTVSPost2010PropOp33
 70
     1
102
RTVSPost2010Prop34
280
     0
102
RTVSPost2010PropOp34
 70
     1
102
RTVSPost2010Prop35
280
     0
102
RTVSPost2010PropOp35
 70
     1
102
RTVSPost2010Prop36
280
     0
102
RTVSPost2010PropOp36
 70
     1
102
RTVSPost2010Prop37
 90
       50
102
RTVSPost2010PropOp37
 70
     1
102
RTVSPost2010Prop38
140
0.0
102
RTVSPost2010PropOp38
 70
     1
102
RTVSPost2010Prop39
140
1.0
102
RTVSPost2010PropOp39
 70
     1
102
RTVSPost2010Prop40
 90
        0
102
RTVSPost2010PropOp40
 70
     1
102
RTVSPost2010Prop41ColorIndex
 90
       18
102
RTVSPost2010Prop41ColorRGB
 90
        0
102
RTVSPost2010PropOp41
 70
     1
102
RTVSPost2010Prop42
 90
       50
102
RTVSPost2010PropOp42
 70
     1
102
RTVSPost2010Prop43
 90
        3
102
RTVSPost2010PropOp43
 70
     1
102
RTVSPost2010Prop44ColorIndex
 90
        5
102
RTVSPost2010Prop44ColorRGB
 90
      255
102
RTVSPost2010PropOp44
 70
     1
102
RTVSPost2010Prop45
280
     0
102
RTVSPost2010PropOp45
 70
     1
102
RTVSPost2010Prop46
 90
       50
102
RTVSPost2010PropOp46
 70
     1
102
RTVSPost2010Prop47
 90
       50
102
RTVSPost2010PropOp47
 70
     1
102
RTVSPost2010Prop48
 90
       50
102
RTVSPost2010PropOp48
 70
     1
102
RTVSPost2010Prop49
280
     0
102
RTVSPost2010PropOp49
 70
     1
102
RTVSPost2010Prop50
 90
       50
102
RTVSPost2010PropOp50
 70
     1
102
RTVSPost2010Prop51ColorIndex
 90
      256
102
RTVSPost2010Prop51ColorRGB
 90
-16777216
102
RTVSPost2010PropOp51
 70
     0
102
RTVSPost2010Prop52
140
1.0
102
RTVSPost2010PropOp52
 70
     0
102
RTVSPost2010Prop53
 90
        2
102
RTVSPost2010PropOp53
 70
     1
102
RTVSPost2010Prop54
  1
strokes_ogs.tif
102
RTVSPost2010PropOp54
 70
     1
102
RTVSPost2010Prop55
280
     0
102
RTVSPost2010PropOp55
 70
     1
102
RTVSPost2010Prop56
140
1.0
102
RTVSPost2010PropOp56
 70
     1
102
RTVSPost2010Prop57
140
1.0
102
RTVSPost2010PropOp57
 70
     1
102
RTVSPropertyOp0
 70
     1
102
RTVSPropertyOp1
 70
     1
102
RTVSPropertyOp2
 70
     1
102
RTVSPropertyOp3
 70
     1
102
RTVSPropertyOp4
 70
     1
102
RTVSPropertyOp5
 70
     1
102
RTVSPropertyOp6
 70
     1
102
RTVSPropertyOp7
 70
     1
102
RTVSPropertyOp8
 70
     1
102
RTVSPropertyOp9
 70
     1
102
RTVSPropertyOp10
 70
     1
102
RTVSPropertyOp11
 70
     1
102
RTVSPropertyOp12
 70
     1
102
RTVSPropertyOp13
 70
     1
102
RTVSPropertyOp14
 70
     1
102
RTVSPropertyOp15
 70
     1
102
RTVSPropertyOp16
 70
     1
102
RTVSPropertyOp17
 70
     1
102
RTVSPropertyOp18
 70
     1
102
RTVSPropertyOp19
 70
     1
102
RTVSPropertyOp20
 70
     1
102
RTVSPropertyOp21
 70
     1
102
RTVSPropertyOp22
 70
     1
102
RTVSPropertyOp23
 70
     1
102
RTVSPropertyOp24
 70
     1
102
RTVSPropertyOp25
 70
     1
102
RTVSPropertyOp26
 70
     1
102
RTVSPropertyOp27
 70
     1
102
RTVSPropertyOp28
 70
     1
102
RTVSPropertyOp29
 70
     1
102
RTVSPropertyOp30
 70
     1
102
RTVSPropertyOp31
 70
     1
102
RTVSPropertyOp32
 70
     1
102
RTVSPropertyOp33
 70
     1
102
RTVSPropertyOp34
 70
     1
102
RTVSPropertyOp35
 70
     1
102
RTVSPropertyOp36
 70
     1
102
RTVSPropertyOp37
 70
     1
102
RTVSPropertyOp38
 70
     1
102
RTVSPropertyOp39
 70
     1
102
RTVSPropertyOp40
 70
     1
102
RTVSPropertyOp41
 70
     1
102
RTVSPropertyOp42
 70
     1
102
RTVSPropertyOp43
 70
     1
102
RTVSPropertyOp44
 70
     1
102
RTVSPropertyOp45
 70
     1
102
RTVSPropertyOp46
 70
     1
102
RTVSPropertyOp47
 70
     1
102
RTVSPropertyOp48
 70
     1
102
RTVSPropertyOp49
 70
     1
102
RTVSPropertyOp50
 70
     1
102
RTVSPropertyOp51
 70
     0
102
RTVSPropertyOp52
 70
     0
102
RTVSPropertyOp53
 70
     1
102
RTVSPropertyOp54
 70
     1
102
RTVSPropertyOp55
 70
     1
102
RTVSPropertyOp56
 70
     1
102
RTVSPropertyOp57
 70
     1
102
RTVSPropertyOp58
 70
     1
102
RTVSPropertyOp59
 70
     1
102
RTVSPropertyOp60
 70
     1
102
RTVSPropertyOp61
 70
     1
102
RTVSPropertyOp62
 70
     1
  0
XRECORD
  5
572
102
{ACAD_REACTORS
330
571
102
}
330
571
100
AcDbXrecord
280
     1
102
RTVSPost2010Prop28
280
     0
102
RTVSPost2010PropOp28
 70
     1
102
RTVSPost2010Prop29
280
     1
102
RTVSPost2010PropOp29
 70
     1
102
RTVSPost2010Prop30
280
     1
102
RTVSPost2010PropOp30
 70
     1
102
RTVSPost2010Prop31
280
     0
102
RTVSPost2010PropOp31
 70
     1
102
RTVSPost2010Prop32
280
     0
102
RTVSPost2010PropOp32
 70
     1
102
RTVSPost2010Prop33
280
     0
102
RTVSPost2010PropOp33
 70
     1
102
RTVSPost2010Prop34
280
     0
102
RTVSPost2010PropOp34
 70
     1
102
RTVSPost2010Prop35
280
     0
102
RTVSPost2010PropOp35
 70
     1
102
RTVSPost2010Prop36
280
     0
102
RTVSPost2010PropOp36
 70
     1
102
RTVSPost2010Prop37
 90
       50
102
RTVSPost2010PropOp37
 70
     1
102
RTVSPost2010Prop38
140
0.0
102
RTVSPost2010PropOp38
 70
     1
102
RTVSPost2010Prop39
140
1.0
102
RTVSPost2010PropOp39
 70
     1
102
RTVSPost2010Prop40
 90
        0
102
RTVSPost2010PropOp40
 70
     1
102
RTVSPost2010Prop41ColorIndex
 90
       18
102
RTVSPost2010Prop41ColorRGB
 90
        0
102
RTVSPost2010PropOp41
 70
     1
102
RTVSPost2010Prop42
 90
       50
102
RTVSPost2010PropOp42
 70
     1
102
RTVSPost2010Prop43
 90
        3
102
RTVSPost2010PropOp43
 70
     1
102
RTVSPost2010Prop44ColorIndex
 90
        5
102
RTVSPost2010Prop44ColorRGB
 90
      255
102
RTVSPost2010PropOp44
 70
     1
102
RTVSPost2010Prop45
280
     0
102
RTVSPost2010PropOp45
 70
     1
102
RTVSPost2010Prop46
 90
       50
102
RTVSPost2010PropOp46
 70
     1
102
RTVSPost2010Prop47
 90
       50
102
RTVSPost2010PropOp47
 70
     1
102
RTVSPost2010Prop48
 90
       50
102
RTVSPost2010PropOp48
 70
     1
102
RTVSPost2010Prop49
280
     0
102
RTVSPost2010PropOp49
 70
     1
102
RTVSPost2010Prop50
 90
       50
102
RTVSPost2010PropOp50
 70
     1
102
RTVSPost2010Prop51ColorIndex
 90
      256
102
RTVSPost2010Prop51ColorRGB
 90
-16777216
102
RTVSPost2010PropOp51
 70
     0
102
RTVSPost2010Prop52
140
1.0
102
RTVSPost2010PropOp52
 70
     0
102
RTVSPost2010Prop53
 90
        2
102
RTVSPost2010PropOp53
 70
     1
102
RTVSPost2010Prop54
  1
strokes_ogs.tif
102
RTVSPost2010PropOp54
 70
     1
102
RTVSPost2010Prop55
280
     0
102
RTVSPost2010PropOp55
 70
     1
102
RTVSPost2010Prop56
140
1.0
102
RTVSPost2010PropOp56
 70
     1
102
RTVSPost2010Prop57
140
1.0
102
RTVSPost2010PropOp57
 70
     1
102
RTVSPropertyOp0
 70
     1
102
RTVSPropertyOp1
 70
     1
102
RTVSPropertyOp2
 70
     1
102
RTVSPropertyOp3
 70
     1
102
RTVSPropertyOp4
 70
     1
102
RTVSPropertyOp5
 70
     1
102
RTVSPropertyOp6
 70
     1
102
RTVSPropertyOp7
 70
     1
102
RTVSPropertyOp8
 70
     1
102
RTVSPropertyOp9
 70
     1
102
RTVSPropertyOp10
 70
     1
102
RTVSPropertyOp11
 70
     1
102
RTVSPropertyOp12
 70
     1
102
RTVSPropertyOp13
 70
     1
102
RTVSPropertyOp14
 70
     1
102
RTVSPropertyOp15
 70
     1
102
RTVSPropertyOp16
 70
     1
102
RTVSPropertyOp17
 70
     1
102
RTVSPropertyOp18
 70
     1
102
RTVSPropertyOp19
 70
     1
102
RTVSPropertyOp20
 70
     1
102
RTVSPropertyOp21
 70
     1
102
RTVSPropertyOp22
 70
     1
102
RTVSPropertyOp23
 70
     1
102
RTVSPropertyOp24
 70
     1
102
RTVSPropertyOp25
 70
     1
102
RTVSPropertyOp26
 70
     1
102
RTVSPropertyOp27
 70
     1
102
RTVSPropertyOp28
 70
     1
102
RTVSPropertyOp29
 70
     1
102
RTVSPropertyOp30
 70
     1
102
RTVSPropertyOp31
 70
     1
102
RTVSPropertyOp32
 70
     1
102
RTVSPropertyOp33
 70
     1
102
RTVSPropertyOp34
 70
     1
102
RTVSPropertyOp35
 70
     1
102
RTVSPropertyOp36
 70
     1
102
RTVSPropertyOp37
 70
     1
102
RTVSPropertyOp38
 70
     1
102
RTVSPropertyOp39
 70
     1
102
RTVSPropertyOp40
 70
     1
102
RTVSPropertyOp41
 70
     1
102
RTVSPropertyOp42
 70
     1
102
RTVSPropertyOp43
 70
     1
102
RTVSPropertyOp44
 70
     1
102
RTVSPropertyOp45
 70
     1
102
RTVSPropertyOp46
 70
     1
102
RTVSPropertyOp47
 70
     1
102
RTVSPropertyOp48
 70
     1
102
RTVSPropertyOp49
 70
     1
102
RTVSPropertyOp50
 70
     1
102
RTVSPropertyOp51
 70
     0
102
RTVSPropertyOp52
 70
     0
102
RTVSPropertyOp53
 70
     1
102
RTVSPropertyOp54
 70
     1
102
RTVSPropertyOp55
 70
     1
102
RTVSPropertyOp56
 70
     1
102
RTVSPropertyOp57
 70
     1
102
RTVSPropertyOp58
 70
     1
102
RTVSPropertyOp59
 70
     1
102
RTVSPropertyOp60
 70
     1
102
RTVSPropertyOp61
 70
     1
102
RTVSPropertyOp62
 70
     1
  0
XRECORD
  5
570
102
{ACAD_REACTORS
330
56F
102
}
330
56F
100
AcDbXrecord
280
     1
102
RTVSPost2010Prop28
280
     0
102
RTVSPost2010PropOp28
 70
     1
102
RTVSPost2010Prop29
280
     1
102
RTVSPost2010PropOp29
 70
     1
102
RTVSPost2010Prop30
280
     1
102
RTVSPost2010PropOp30
 70
     1
102
RTVSPost2010Prop31
280
     0
102
RTVSPost2010PropOp31
 70
     1
102
RTVSPost2010Prop32
280
     0
102
RTVSPost2010PropOp32
 70
     1
102
RTVSPost2010Prop33
280
     0
102
RTVSPost2010PropOp33
 70
     1
102
RTVSPost2010Prop34
280
     0
102
RTVSPost2010PropOp34
 70
     1
102
RTVSPost2010Prop35
280
     0
102
RTVSPost2010PropOp35
 70
     1
102
RTVSPost2010Prop36
280
     0
102
RTVSPost2010PropOp36
 70
     1
102
RTVSPost2010Prop37
 90
       50
102
RTVSPost2010PropOp37
 70
     1
102
RTVSPost2010Prop38
140
0.0
102
RTVSPost2010PropOp38
 70
     1
102
RTVSPost2010Prop39
140
1.0
102
RTVSPost2010PropOp39
 70
     1
102
RTVSPost2010Prop40
 90
        0
102
RTVSPost2010PropOp40
 70
     1
102
RTVSPost2010Prop41ColorIndex
 90
       18
102
RTVSPost2010Prop41ColorRGB
 90
        0
102
RTVSPost2010PropOp41
 70
     1
102
RTVSPost2010Prop42
 90
       50
102
RTVSPost2010PropOp42
 70
     1
102
RTVSPost2010Prop43
 90
        3
102
RTVSPost2010PropOp43
 70
     1
102
RTVSPost2010Prop44ColorIndex
 90
        5
102
RTVSPost2010Prop44ColorRGB
 90
      255
102
RTVSPost2010PropOp44
 70
     1
102
RTVSPost2010Prop45
280
     0
102
RTVSPost2010PropOp45
 70
     1
102
RTVSPost2010Prop46
 90
       50
102
RTVSPost2010PropOp46
 70
     1
102
RTVSPost2010Prop47
 90
       50
102
RTVSPost2010PropOp47
 70
     1
102
RTVSPost2010Prop48
 90
       50
102
RTVSPost2010PropOp48
 70
     1
102
RTVSPost2010Prop49
280
     0
102
RTVSPost2010PropOp49
 70
     1
102
RTVSPost2010Prop50
 90
       50
102
RTVSPost2010PropOp50
 70
     1
102
RTVSPost2010Prop51ColorIndex
 90
      256
102
RTVSPost2010Prop51ColorRGB
 90
-16777216
102
RTVSPost2010PropOp51
 70
     0
102
RTVSPost2010Prop52
140
1.0
102
RTVSPost2010PropOp52
 70
     0
102
RTVSPost2010Prop53
 90
        2
102
RTVSPost2010PropOp53
 70
     1
102
RTVSPost2010Prop54
  1
strokes_ogs.tif
102
RTVSPost2010PropOp54
 70
     1
102
RTVSPost2010Prop55
280
     0
102
RTVSPost2010PropOp55
 70
     1
102
RTVSPost2010Prop56
140
1.0
102
RTVSPost2010PropOp56
 70
     1
102
RTVSPost2010Prop57
140
1.0
102
RTVSPost2010PropOp57
 70
     1
102
RTVSPropertyOp0
 70
     1
102
RTVSPropertyOp1
 70
     1
102
RTVSPropertyOp2
 70
     1
102
RTVSPropertyOp3
 70
     1
102
RTVSPropertyOp4
 70
     1
102
RTVSPropertyOp5
 70
     1
102
RTVSPropertyOp6
 70
     1
102
RTVSPropertyOp7
 70
     1
102
RTVSPropertyOp8
 70
     1
102
RTVSPropertyOp9
 70
     1
102
RTVSPropertyOp10
 70
     1
102
RTVSPropertyOp11
 70
     1
102
RTVSPropertyOp12
 70
     1
102
RTVSPropertyOp13
 70
     1
102
RTVSPropertyOp14
 70
     1
102
RTVSPropertyOp15
 70
     1
102
RTVSPropertyOp16
 70
     1
102
RTVSPropertyOp17
 70
     1
102
RTVSPropertyOp18
 70
     1
102
RTVSPropertyOp19
 70
     1
102
RTVSPropertyOp20
 70
     1
102
RTVSPropertyOp21
 70
     1
102
RTVSPropertyOp22
 70
     1
102
RTVSPropertyOp23
 70
     1
102
RTVSPropertyOp24
 70
     1
102
RTVSPropertyOp25
 70
     1
102
RTVSPropertyOp26
 70
     1
102
RTVSPropertyOp27
 70
     1
102
RTVSPropertyOp28
 70
     1
102
RTVSPropertyOp29
 70
     1
102
RTVSPropertyOp30
 70
     1
102
RTVSPropertyOp31
 70
     1
102
RTVSPropertyOp32
 70
     1
102
RTVSPropertyOp33
 70
     1
102
RTVSPropertyOp34
 70
     1
102
RTVSPropertyOp35
 70
     1
102
RTVSPropertyOp36
 70
     1
102
RTVSPropertyOp37
 70
     1
102
RTVSPropertyOp38
 70
     1
102
RTVSPropertyOp39
 70
     1
102
RTVSPropertyOp40
 70
     1
102
RTVSPropertyOp41
 70
     1
102
RTVSPropertyOp42
 70
     1
102
RTVSPropertyOp43
 70
     1
102
RTVSPropertyOp44
 70
     1
102
RTVSPropertyOp45
 70
     1
102
RTVSPropertyOp46
 70
     1
102
RTVSPropertyOp47
 70
     1
102
RTVSPropertyOp48
 70
     1
102
RTVSPropertyOp49
 70
     1
102
RTVSPropertyOp50
 70
     1
102
RTVSPropertyOp51
 70
     0
102
RTVSPropertyOp52
 70
     0
102
RTVSPropertyOp53
 70
     1
102
RTVSPropertyOp54
 70
     1
102
RTVSPropertyOp55
 70
     1
102
RTVSPropertyOp56
 70
     1
102
RTVSPropertyOp57
 70
     1
102
RTVSPropertyOp58
 70
     1
102
RTVSPropertyOp59
 70
     1
102
RTVSPropertyOp60
 70
     1
102
RTVSPropertyOp61
 70
     1
102
RTVSPropertyOp62
 70
     1
  0
XRECORD
  5
56A
102
{ACAD_REACTORS
330
569
102
}
330
569
100
AcDbXrecord
280
     1
102
RTVSPost2010Prop28
280
     0
102
RTVSPost2010PropOp28
 70
     1
102
RTVSPost2010Prop29
280
     1
102
RTVSPost2010PropOp29
 70
     1
102
RTVSPost2010Prop30
280
     1
102
RTVSPost2010PropOp30
 70
     1
102
RTVSPost2010Prop31
280
     0
102
RTVSPost2010PropOp31
 70
     1
102
RTVSPost2010Prop32
280
     0
102
RTVSPost2010PropOp32
 70
     1
102
RTVSPost2010Prop33
280
     0
102
RTVSPost2010PropOp33
 70
     1
102
RTVSPost2010Prop34
280
     0
102
RTVSPost2010PropOp34
 70
     1
102
RTVSPost2010Prop35
280
     0
102
RTVSPost2010PropOp35
 70
     1
102
RTVSPost2010Prop36
280
     0
102
RTVSPost2010PropOp36
 70
     1
102
RTVSPost2010Prop37
 90
       50
102
RTVSPost2010PropOp37
 70
     1
102
RTVSPost2010Prop38
140
0.0
102
RTVSPost2010PropOp38
 70
     1
102
RTVSPost2010Prop39
140
1.0
102
RTVSPost2010PropOp39
 70
     1
102
RTVSPost2010Prop40
 90
        0
102
RTVSPost2010PropOp40
 70
     1
102
RTVSPost2010Prop41ColorIndex
 90
       18
102
RTVSPost2010Prop41ColorRGB
 90
        0
102
RTVSPost2010PropOp41
 70
     1
102
RTVSPost2010Prop42
 90
       50
102
RTVSPost2010PropOp42
 70
     1
102
RTVSPost2010Prop43
 90
        3
102
RTVSPost2010PropOp43
 70
     1
102
RTVSPost2010Prop44ColorIndex
 90
        5
102
RTVSPost2010Prop44ColorRGB
 90
      255
102
RTVSPost2010PropOp44
 70
     1
102
RTVSPost2010Prop45
280
     0
102
RTVSPost2010PropOp45
 70
     1
102
RTVSPost2010Prop46
 90
       50
102
RTVSPost2010PropOp46
 70
     1
102
RTVSPost2010Prop47
 90
       50
102
RTVSPost2010PropOp47
 70
     1
102
RTVSPost2010Prop48
 90
       50
102
RTVSPost2010PropOp48
 70
     1
102
RTVSPost2010Prop49
280
     0
102
RTVSPost2010PropOp49
 70
     1
102
RTVSPost2010Prop50
 90
       50
102
RTVSPost2010PropOp50
 70
     1
102
RTVSPost2010Prop51ColorIndex
 90
      256
102
RTVSPost2010Prop51ColorRGB
 90
-16777216
102
RTVSPost2010PropOp51
 70
     0
102
RTVSPost2010Prop52
140
1.0
102
RTVSPost2010PropOp52
 70
     0
102
RTVSPost2010Prop53
 90
        2
102
RTVSPost2010PropOp53
 70
     1
102
RTVSPost2010Prop54
  1
strokes_ogs.tif
102
RTVSPost2010PropOp54
 70
     1
102
RTVSPost2010Prop55
280
     0
102
RTVSPost2010PropOp55
 70
     1
102
RTVSPost2010Prop56
140
1.0
102
RTVSPost2010PropOp56
 70
     1
102
RTVSPost2010Prop57
140
1.0
102
RTVSPost2010PropOp57
 70
     1
102
RTVSPropertyOp0
 70
     1
102
RTVSPropertyOp1
 70
     1
102
RTVSPropertyOp2
 70
     1
102
RTVSPropertyOp3
 70
     1
102
RTVSPropertyOp4
 70
     1
102
RTVSPropertyOp5
 70
     1
102
RTVSPropertyOp6
 70
     1
102
RTVSPropertyOp7
 70
     1
102
RTVSPropertyOp8
 70
     1
102
RTVSPropertyOp9
 70
     1
102
RTVSPropertyOp10
 70
     1
102
RTVSPropertyOp11
 70
     1
102
RTVSPropertyOp12
 70
     1
102
RTVSPropertyOp13
 70
     1
102
RTVSPropertyOp14
 70
     1
102
RTVSPropertyOp15
 70
     1
102
RTVSPropertyOp16
 70
     1
102
RTVSPropertyOp17
 70
     1
102
RTVSPropertyOp18
 70
     1
102
RTVSPropertyOp19
 70
     1
102
RTVSPropertyOp20
 70
     1
102
RTVSPropertyOp21
 70
     1
102
RTVSPropertyOp22
 70
     1
102
RTVSPropertyOp23
 70
     1
102
RTVSPropertyOp24
 70
     1
102
RTVSPropertyOp25
 70
     1
102
RTVSPropertyOp26
 70
     1
102
RTVSPropertyOp27
 70
     1
102
RTVSPropertyOp28
 70
     1
102
RTVSPropertyOp29
 70
     1
102
RTVSPropertyOp30
 70
     1
102
RTVSPropertyOp31
 70
     1
102
RTVSPropertyOp32
 70
     1
102
RTVSPropertyOp33
 70
     1
102
RTVSPropertyOp34
 70
     1
102
RTVSPropertyOp35
 70
     1
102
RTVSPropertyOp36
 70
     1
102
RTVSPropertyOp37
 70
     1
102
RTVSPropertyOp38
 70
     1
102
RTVSPropertyOp39
 70
     1
102
RTVSPropertyOp40
 70
     1
102
RTVSPropertyOp41
 70
     1
102
RTVSPropertyOp42
 70
     1
102
RTVSPropertyOp43
 70
     1
102
RTVSPropertyOp44
 70
     1
102
RTVSPropertyOp45
 70
     1
102
RTVSPropertyOp46
 70
     1
102
RTVSPropertyOp47
 70
     1
102
RTVSPropertyOp48
 70
     1
102
RTVSPropertyOp49
 70
     1
102
RTVSPropertyOp50
 70
     1
102
RTVSPropertyOp51
 70
     0
102
RTVSPropertyOp52
 70
     0
102
RTVSPropertyOp53
 70
     1
102
RTVSPropertyOp54
 70
     1
102
RTVSPropertyOp55
 70
     1
102
RTVSPropertyOp56
 70
     1
102
RTVSPropertyOp57
 70
     1
102
RTVSPropertyOp58
 70
     1
102
RTVSPropertyOp59
 70
     1
102
RTVSPropertyOp60
 70
     1
102
RTVSPropertyOp61
 70
     1
102
RTVSPropertyOp62
 70
     1
  0
XRECORD
  5
56C
102
{ACAD_REACTORS
330
56B
102
}
330
56B
100
AcDbXrecord
280
     1
102
RTVSPost2010Prop28
280
     0
102
RTVSPost2010PropOp28
 70
     1
102
RTVSPost2010Prop29
280
     1
102
RTVSPost2010PropOp29
 70
     1
102
RTVSPost2010Prop30
280
     1
102
RTVSPost2010PropOp30
 70
     1
102
RTVSPost2010Prop31
280
     0
102
RTVSPost2010PropOp31
 70
     1
102
RTVSPost2010Prop32
280
     0
102
RTVSPost2010PropOp32
 70
     1
102
RTVSPost2010Prop33
280
     0
102
RTVSPost2010PropOp33
 70
     1
102
RTVSPost2010Prop34
280
     0
102
RTVSPost2010PropOp34
 70
     1
102
RTVSPost2010Prop35
280
     0
102
RTVSPost2010PropOp35
 70
     1
102
RTVSPost2010Prop36
280
     0
102
RTVSPost2010PropOp36
 70
     1
102
RTVSPost2010Prop37
 90
       50
102
RTVSPost2010PropOp37
 70
     1
102
RTVSPost2010Prop38
140
0.0
102
RTVSPost2010PropOp38
 70
     1
102
RTVSPost2010Prop39
140
1.0
102
RTVSPost2010PropOp39
 70
     1
102
RTVSPost2010Prop40
 90
        0
102
RTVSPost2010PropOp40
 70
     1
102
RTVSPost2010Prop41ColorIndex
 90
       18
102
RTVSPost2010Prop41ColorRGB
 90
        0
102
RTVSPost2010PropOp41
 70
     1
102
RTVSPost2010Prop42
 90
       50
102
RTVSPost2010PropOp42
 70
     1
102
RTVSPost2010Prop43
 90
        3
102
RTVSPost2010PropOp43
 70
     1
102
RTVSPost2010Prop44ColorIndex
 90
        5
102
RTVSPost2010Prop44ColorRGB
 90
      255
102
RTVSPost2010PropOp44
 70
     1
102
RTVSPost2010Prop45
280
     0
102
RTVSPost2010PropOp45
 70
     1
102
RTVSPost2010Prop46
 90
       50
102
RTVSPost2010PropOp46
 70
     1
102
RTVSPost2010Prop47
 90
       50
102
RTVSPost2010PropOp47
 70
     1
102
RTVSPost2010Prop48
 90
       50
102
RTVSPost2010PropOp48
 70
     1
102
RTVSPost2010Prop49
280
     0
102
RTVSPost2010PropOp49
 70
     1
102
RTVSPost2010Prop50
 90
       50
102
RTVSPost2010PropOp50
 70
     1
102
RTVSPost2010Prop51ColorIndex
 90
      256
102
RTVSPost2010Prop51ColorRGB
 90
-16777216
102
RTVSPost2010PropOp51
 70
     0
102
RTVSPost2010Prop52
140
1.0
102
RTVSPost2010PropOp52
 70
     0
102
RTVSPost2010Prop53
 90
        2
102
RTVSPost2010PropOp53
 70
     1
102
RTVSPost2010Prop54
  1
strokes_ogs.tif
102
RTVSPost2010PropOp54
 70
     1
102
RTVSPost2010Prop55
280
     0
102
RTVSPost2010PropOp55
 70
     1
102
RTVSPost2010Prop56
140
1.0
102
RTVSPost2010PropOp56
 70
     1
102
RTVSPost2010Prop57
140
1.0
102
RTVSPost2010PropOp57
 70
     1
102
RTVSPropertyOp0
 70
     1
102
RTVSPropertyOp1
 70
     1
102
RTVSPropertyOp2
 70
     1
102
RTVSPropertyOp3
 70
     1
102
RTVSPropertyOp4
 70
     1
102
RTVSPropertyOp5
 70
     1
102
RTVSPropertyOp6
 70
     1
102
RTVSPropertyOp7
 70
     1
102
RTVSPropertyOp8
 70
     1
102
RTVSPropertyOp9
 70
     1
102
RTVSPropertyOp10
 70
     1
102
RTVSPropertyOp11
 70
     1
102
RTVSPropertyOp12
 70
     1
102
RTVSPropertyOp13
 70
     1
102
RTVSPropertyOp14
 70
     1
102
RTVSPropertyOp15
 70
     1
102
RTVSPropertyOp16
 70
     1
102
RTVSPropertyOp17
 70
     1
102
RTVSPropertyOp18
 70
     1
102
RTVSPropertyOp19
 70
     1
102
RTVSPropertyOp20
 70
     1
102
RTVSPropertyOp21
 70
     1
102
RTVSPropertyOp22
 70
     1
102
RTVSPropertyOp23
 70
     1
102
RTVSPropertyOp24
 70
     1
102
RTVSPropertyOp25
 70
     1
102
RTVSPropertyOp26
 70
     1
102
RTVSPropertyOp27
 70
     1
102
RTVSPropertyOp28
 70
     1
102
RTVSPropertyOp29
 70
     1
102
RTVSPropertyOp30
 70
     1
102
RTVSPropertyOp31
 70
     1
102
RTVSPropertyOp32
 70
     1
102
RTVSPropertyOp33
 70
     1
102
RTVSPropertyOp34
 70
     1
102
RTVSPropertyOp35
 70
     1
102
RTVSPropertyOp36
 70
     1
102
RTVSPropertyOp37
 70
     1
102
RTVSPropertyOp38
 70
     1
102
RTVSPropertyOp39
 70
     1
102
RTVSPropertyOp40
 70
     1
102
RTVSPropertyOp41
 70
     1
102
RTVSPropertyOp42
 70
     1
102
RTVSPropertyOp43
 70
     1
102
RTVSPropertyOp44
 70
     1
102
RTVSPropertyOp45
 70
     1
102
RTVSPropertyOp46
 70
     1
102
RTVSPropertyOp47
 70
     1
102
RTVSPropertyOp48
 70
     1
102
RTVSPropertyOp49
 70
     1
102
RTVSPropertyOp50
 70
     1
102
RTVSPropertyOp51
 70
     0
102
RTVSPropertyOp52
 70
     0
102
RTVSPropertyOp53
 70
     1
102
RTVSPropertyOp54
 70
     1
102
RTVSPropertyOp55
 70
     1
102
RTVSPropertyOp56
 70
     1
102
RTVSPropertyOp57
 70
     1
102
RTVSPropertyOp58
 70
     1
102
RTVSPropertyOp59
 70
     1
102
RTVSPropertyOp60
 70
     1
102
RTVSPropertyOp61
 70
     1
102
RTVSPropertyOp62
 70
     1
  0
XRECORD
  5
55C
102
{ACAD_REACTORS
330
55B
102
}
330
55B
100
AcDbXrecord
280
     1
102
RTVSPost2010Prop28
280
     0
102
RTVSPost2010PropOp28
 70
     1
102
RTVSPost2010Prop29
280
     1
102
RTVSPost2010PropOp29
 70
     1
102
RTVSPost2010Prop30
280
     1
102
RTVSPost2010PropOp30
 70
     1
102
RTVSPost2010Prop31
280
     0
102
RTVSPost2010PropOp31
 70
     1
102
RTVSPost2010Prop32
280
     0
102
RTVSPost2010PropOp32
 70
     1
102
RTVSPost2010Prop33
280
     0
102
RTVSPost2010PropOp33
 70
     1
102
RTVSPost2010Prop34
280
     0
102
RTVSPost2010PropOp34
 70
     1
102
RTVSPost2010Prop35
280
     0
102
RTVSPost2010PropOp35
 70
     1
102
RTVSPost2010Prop36
280
     0
102
RTVSPost2010PropOp36
 70
     1
102
RTVSPost2010Prop37
 90
       50
102
RTVSPost2010PropOp37
 70
     1
102
RTVSPost2010Prop38
140
0.0
102
RTVSPost2010PropOp38
 70
     1
102
RTVSPost2010Prop39
140
1.0
102
RTVSPost2010PropOp39
 70
     1
102
RTVSPost2010Prop40
 90
        0
102
RTVSPost2010PropOp40
 70
     1
102
RTVSPost2010Prop41ColorIndex
 90
       18
102
RTVSPost2010Prop41ColorRGB
 90
        0
102
RTVSPost2010PropOp41
 70
     1
102
RTVSPost2010Prop42
 90
       50
102
RTVSPost2010PropOp42
 70
     1
102
RTVSPost2010Prop43
 90
        3
102
RTVSPost2010PropOp43
 70
     1
102
RTVSPost2010Prop44ColorIndex
 90
        5
102
RTVSPost2010Prop44ColorRGB
 90
      255
102
RTVSPost2010PropOp44
 70
     1
102
RTVSPost2010Prop45
280
     0
102
RTVSPost2010PropOp45
 70
     1
102
RTVSPost2010Prop46
 90
       50
102
RTVSPost2010PropOp46
 70
     1
102
RTVSPost2010Prop47
 90
       50
102
RTVSPost2010PropOp47
 70
     1
102
RTVSPost2010Prop48
 90
       50
102
RTVSPost2010PropOp48
 70
     1
102
RTVSPost2010Prop49
280
     0
102
RTVSPost2010PropOp49
 70
     1
102
RTVSPost2010Prop50
 90
       50
102
RTVSPost2010PropOp50
 70
     1
102
RTVSPost2010Prop51ColorIndex
 90
      256
102
RTVSPost2010Prop51ColorRGB
 90
-16777216
102
RTVSPost2010PropOp51
 70
     0
102
RTVSPost2010Prop52
140
1.0
102
RTVSPost2010PropOp52
 70
     0
102
RTVSPost2010Prop53
 90
        2
102
RTVSPost2010PropOp53
 70
     1
102
RTVSPost2010Prop54
  1
strokes_ogs.tif
102
RTVSPost2010PropOp54
 70
     1
102
RTVSPost2010Prop55
280
     0
102
RTVSPost2010PropOp55
 70
     1
102
RTVSPost2010Prop56
140
1.0
102
RTVSPost2010PropOp56
 70
     1
102
RTVSPost2010Prop57
140
1.0
102
RTVSPost2010PropOp57
 70
     1
102
RTVSPropertyOp0
 70
     1
102
RTVSPropertyOp1
 70
     1
102
RTVSPropertyOp2
 70
     1
102
RTVSPropertyOp3
 70
     1
102
RTVSPropertyOp4
 70
     1
102
RTVSPropertyOp5
 70
     1
102
RTVSPropertyOp6
 70
     1
102
RTVSPropertyOp7
 70
     1
102
RTVSPropertyOp8
 70
     1
102
RTVSPropertyOp9
 70
     1
102
RTVSPropertyOp10
 70
     1
102
RTVSPropertyOp11
 70
     1
102
RTVSPropertyOp12
 70
     1
102
RTVSPropertyOp13
 70
     1
102
RTVSPropertyOp14
 70
     1
102
RTVSPropertyOp15
 70
     1
102
RTVSPropertyOp16
 70
     1
102
RTVSPropertyOp17
 70
     1
102
RTVSPropertyOp18
 70
     1
102
RTVSPropertyOp19
 70
     1
102
RTVSPropertyOp20
 70
     1
102
RTVSPropertyOp21
 70
     1
102
RTVSPropertyOp22
 70
     1
102
RTVSPropertyOp23
 70
     1
102
RTVSPropertyOp24
 70
     1
102
RTVSPropertyOp25
 70
     1
102
RTVSPropertyOp26
 70
     1
102
RTVSPropertyOp27
 70
     1
102
RTVSPropertyOp28
 70
     1
102
RTVSPropertyOp29
 70
     1
102
RTVSPropertyOp30
 70
     1
102
RTVSPropertyOp31
 70
     1
102
RTVSPropertyOp32
 70
     1
102
RTVSPropertyOp33
 70
     1
102
RTVSPropertyOp34
 70
     1
102
RTVSPropertyOp35
 70
     1
102
RTVSPropertyOp36
 70
     1
102
RTVSPropertyOp37
 70
     1
102
RTVSPropertyOp38
 70
     1
102
RTVSPropertyOp39
 70
     1
102
RTVSPropertyOp40
 70
     1
102
RTVSPropertyOp41
 70
     1
102
RTVSPropertyOp42
 70
     1
102
RTVSPropertyOp43
 70
     1
102
RTVSPropertyOp44
 70
     1
102
RTVSPropertyOp45
 70
     1
102
RTVSPropertyOp46
 70
     1
102
RTVSPropertyOp47
 70
     1
102
RTVSPropertyOp48
 70
     1
102
RTVSPropertyOp49
 70
     1
102
RTVSPropertyOp50
 70
     1
102
RTVSPropertyOp51
 70
     0
102
RTVSPropertyOp52
 70
     0
102
RTVSPropertyOp53
 70
     1
102
RTVSPropertyOp54
 70
     1
102
RTVSPropertyOp55
 70
     1
102
RTVSPropertyOp56
 70
     1
102
RTVSPropertyOp57
 70
     1
102
RTVSPropertyOp58
 70
     1
102
RTVSPropertyOp59
 70
     1
102
RTVSPropertyOp60
 70
     1
102
RTVSPropertyOp61
 70
     1
102
RTVSPropertyOp62
 70
     1
  0
XRECORD
  5
54E
102
{ACAD_REACTORS
330
54D
102
}
330
54D
100
AcDbXrecord
280
     1
102
RTVSPost2010Prop28
280
     0
102
RTVSPost2010PropOp28
 70
     1
102
RTVSPost2010Prop29
280
     1
102
RTVSPost2010PropOp29
 70
     1
102
RTVSPost2010Prop30
280
     1
102
RTVSPost2010PropOp30
 70
     1
102
RTVSPost2010Prop31
280
     0
102
RTVSPost2010PropOp31
 70
     1
102
RTVSPost2010Prop32
280
     0
102
RTVSPost2010PropOp32
 70
     1
102
RTVSPost2010Prop33
280
     0
102
RTVSPost2010PropOp33
 70
     1
102
RTVSPost2010Prop34
280
     0
102
RTVSPost2010PropOp34
 70
     1
102
RTVSPost2010Prop35
280
     0
102
RTVSPost2010PropOp35
 70
     1
102
RTVSPost2010Prop36
280
     0
102
RTVSPost2010PropOp36
 70
     1
102
RTVSPost2010Prop37
 90
       50
102
RTVSPost2010PropOp37
 70
     1
102
RTVSPost2010Prop38
140
0.0
102
RTVSPost2010PropOp38
 70
     1
102
RTVSPost2010Prop39
140
1.0
102
RTVSPost2010PropOp39
 70
     1
102
RTVSPost2010Prop40
 90
        0
102
RTVSPost2010PropOp40
 70
     1
102
RTVSPost2010Prop41ColorIndex
 90
       18
102
RTVSPost2010Prop41ColorRGB
 90
        0
102
RTVSPost2010PropOp41
 70
     1
102
RTVSPost2010Prop42
 90
       50
102
RTVSPost2010PropOp42
 70
     1
102
RTVSPost2010Prop43
 90
        3
102
RTVSPost2010PropOp43
 70
     1
102
RTVSPost2010Prop44ColorIndex
 90
        5
102
RTVSPost2010Prop44ColorRGB
 90
      255
102
RTVSPost2010PropOp44
 70
     1
102
RTVSPost2010Prop45
280
     0
102
RTVSPost2010PropOp45
 70
     1
102
RTVSPost2010Prop46
 90
       50
102
RTVSPost2010PropOp46
 70
     1
102
RTVSPost2010Prop47
 90
       50
102
RTVSPost2010PropOp47
 70
     1
102
RTVSPost2010Prop48
 90
       50
102
RTVSPost2010PropOp48
 70
     1
102
RTVSPost2010Prop49
280
     0
102
RTVSPost2010PropOp49
 70
     1
102
RTVSPost2010Prop50
 90
       50
102
RTVSPost2010PropOp50
 70
     1
102
RTVSPost2010Prop51ColorIndex
 90
      256
102
RTVSPost2010Prop51ColorRGB
 90
-16777216
102
RTVSPost2010PropOp51
 70
     0
102
RTVSPost2010Prop52
140
1.0
102
RTVSPost2010PropOp52
 70
     0
102
RTVSPost2010Prop53
 90
        2
102
RTVSPost2010PropOp53
 70
     1
102
RTVSPost2010Prop54
  1
strokes_ogs.tif
102
RTVSPost2010PropOp54
 70
     1
102
RTVSPost2010Prop55
280
     0
102
RTVSPost2010PropOp55
 70
     1
102
RTVSPost2010Prop56
140
1.0
102
RTVSPost2010PropOp56
 70
     1
102
RTVSPost2010Prop57
140
1.0
102
RTVSPost2010PropOp57
 70
     1
102
RTVSPropertyOp0
 70
     1
102
RTVSPropertyOp1
 70
     1
102
RTVSPropertyOp2
 70
     1
102
RTVSPropertyOp3
 70
     1
102
RTVSPropertyOp4
 70
     1
102
RTVSPropertyOp5
 70
     1
102
RTVSPropertyOp6
 70
     1
102
RTVSPropertyOp7
 70
     1
102
RTVSPropertyOp8
 70
     1
102
RTVSPropertyOp9
 70
     1
102
RTVSPropertyOp10
 70
     1
102
RTVSPropertyOp11
 70
     1
102
RTVSPropertyOp12
 70
     1
102
RTVSPropertyOp13
 70
     1
102
RTVSPropertyOp14
 70
     1
102
RTVSPropertyOp15
 70
     1
102
RTVSPropertyOp16
 70
     1
102
RTVSPropertyOp17
 70
     1
102
RTVSPropertyOp18
 70
     1
102
RTVSPropertyOp19
 70
     1
102
RTVSPropertyOp20
 70
     1
102
RTVSPropertyOp21
 70
     1
102
RTVSPropertyOp22
 70
     1
102
RTVSPropertyOp23
 70
     1
102
RTVSPropertyOp24
 70
     1
102
RTVSPropertyOp25
 70
     1
102
RTVSPropertyOp26
 70
     1
102
RTVSPropertyOp27
 70
     1
102
RTVSPropertyOp28
 70
     1
102
RTVSPropertyOp29
 70
     1
102
RTVSPropertyOp30
 70
     1
102
RTVSPropertyOp31
 70
     1
102
RTVSPropertyOp32
 70
     1
102
RTVSPropertyOp33
 70
     1
102
RTVSPropertyOp34
 70
     1
102
RTVSPropertyOp35
 70
     1
102
RTVSPropertyOp36
 70
     1
102
RTVSPropertyOp37
 70
     1
102
RTVSPropertyOp38
 70
     1
102
RTVSPropertyOp39
 70
     1
102
RTVSPropertyOp40
 70
     1
102
RTVSPropertyOp41
 70
     1
102
RTVSPropertyOp42
 70
     1
102
RTVSPropertyOp43
 70
     1
102
RTVSPropertyOp44
 70
     1
102
RTVSPropertyOp45
 70
     1
102
RTVSPropertyOp46
 70
     1
102
RTVSPropertyOp47
 70
     1
102
RTVSPropertyOp48
 70
     1
102
RTVSPropertyOp49
 70
     1
102
RTVSPropertyOp50
 70
     1
102
RTVSPropertyOp51
 70
     0
102
RTVSPropertyOp52
 70
     0
102
RTVSPropertyOp53
 70
     1
102
RTVSPropertyOp54
 70
     1
102
RTVSPropertyOp55
 70
     1
102
RTVSPropertyOp56
 70
     1
102
RTVSPropertyOp57
 70
     1
102
RTVSPropertyOp58
 70
     1
102
RTVSPropertyOp59
 70
     1
102
RTVSPropertyOp60
 70
     1
102
RTVSPropertyOp61
 70
     1
102
RTVSPropertyOp62
 70
     1
  0
XRECORD
  5
56E
102
{ACAD_REACTORS
330
56D
102
}
330
56D
100
AcDbXrecord
280
     1
102
RTVSPost2010Prop28
280
     0
102
RTVSPost2010PropOp28
 70
     1
102
RTVSPost2010Prop29
280
     1
102
RTVSPost2010PropOp29
 70
     1
102
RTVSPost2010Prop30
280
     1
102
RTVSPost2010PropOp30
 70
     1
102
RTVSPost2010Prop31
280
     0
102
RTVSPost2010PropOp31
 70
     1
102
RTVSPost2010Prop32
280
     0
102
RTVSPost2010PropOp32
 70
     1
102
RTVSPost2010Prop33
280
     0
102
RTVSPost2010PropOp33
 70
     1
102
RTVSPost2010Prop34
280
     0
102
RTVSPost2010PropOp34
 70
     1
102
RTVSPost2010Prop35
280
     0
102
RTVSPost2010PropOp35
 70
     1
102
RTVSPost2010Prop36
280
     0
102
RTVSPost2010PropOp36
 70
     1
102
RTVSPost2010Prop37
 90
       50
102
RTVSPost2010PropOp37
 70
     1
102
RTVSPost2010Prop38
140
0.0
102
RTVSPost2010PropOp38
 70
     1
102
RTVSPost2010Prop39
140
1.0
102
RTVSPost2010PropOp39
 70
     1
102
RTVSPost2010Prop40
 90
        0
102
RTVSPost2010PropOp40
 70
     1
102
RTVSPost2010Prop41ColorIndex
 90
       18
102
RTVSPost2010Prop41ColorRGB
 90
        0
102
RTVSPost2010PropOp41
 70
     1
102
RTVSPost2010Prop42
 90
       50
102
RTVSPost2010PropOp42
 70
     1
102
RTVSPost2010Prop43
 90
        3
102
RTVSPost2010PropOp43
 70
     1
102
RTVSPost2010Prop44ColorIndex
 90
        5
102
RTVSPost2010Prop44ColorRGB
 90
      255
102
RTVSPost2010PropOp44
 70
     1
102
RTVSPost2010Prop45
280
     0
102
RTVSPost2010PropOp45
 70
     1
102
RTVSPost2010Prop46
 90
       50
102
RTVSPost2010PropOp46
 70
     1
102
RTVSPost2010Prop47
 90
       50
102
RTVSPost2010PropOp47
 70
     1
102
RTVSPost2010Prop48
 90
       50
102
RTVSPost2010PropOp48
 70
     1
102
RTVSPost2010Prop49
280
     0
102
RTVSPost2010PropOp49
 70
     1
102
RTVSPost2010Prop50
 90
       50
102
RTVSPost2010PropOp50
 70
     1
102
RTVSPost2010Prop51ColorIndex
 90
      256
102
RTVSPost2010Prop51ColorRGB
 90
-16777216
102
RTVSPost2010PropOp51
 70
     0
102
RTVSPost2010Prop52
140
1.0
102
RTVSPost2010PropOp52
 70
     0
102
RTVSPost2010Prop53
 90
        2
102
RTVSPost2010PropOp53
 70
     1
102
RTVSPost2010Prop54
  1
strokes_ogs.tif
102
RTVSPost2010PropOp54
 70
     1
102
RTVSPost2010Prop55
280
     0
102
RTVSPost2010PropOp55
 70
     1
102
RTVSPost2010Prop56
140
1.0
102
RTVSPost2010PropOp56
 70
     1
102
RTVSPost2010Prop57
140
1.0
102
RTVSPost2010PropOp57
 70
     1
102
RTVSPropertyOp0
 70
     1
102
RTVSPropertyOp1
 70
     1
102
RTVSPropertyOp2
 70
     1
102
RTVSPropertyOp3
 70
     1
102
RTVSPropertyOp4
 70
     1
102
RTVSPropertyOp5
 70
     1
102
RTVSPropertyOp6
 70
     1
102
RTVSPropertyOp7
 70
     1
102
RTVSPropertyOp8
 70
     1
102
RTVSPropertyOp9
 70
     1
102
RTVSPropertyOp10
 70
     1
102
RTVSPropertyOp11
 70
     1
102
RTVSPropertyOp12
 70
     1
102
RTVSPropertyOp13
 70
     1
102
RTVSPropertyOp14
 70
     1
102
RTVSPropertyOp15
 70
     1
102
RTVSPropertyOp16
 70
     1
102
RTVSPropertyOp17
 70
     1
102
RTVSPropertyOp18
 70
     1
102
RTVSPropertyOp19
 70
     1
102
RTVSPropertyOp20
 70
     1
102
RTVSPropertyOp21
 70
     1
102
RTVSPropertyOp22
 70
     1
102
RTVSPropertyOp23
 70
     1
102
RTVSPropertyOp24
 70
     1
102
RTVSPropertyOp25
 70
     1
102
RTVSPropertyOp26
 70
     1
102
RTVSPropertyOp27
 70
     1
102
RTVSPropertyOp28
 70
     1
102
RTVSPropertyOp29
 70
     1
102
RTVSPropertyOp30
 70
     1
102
RTVSPropertyOp31
 70
     1
102
RTVSPropertyOp32
 70
     1
102
RTVSPropertyOp33
 70
     1
102
RTVSPropertyOp34
 70
     1
102
RTVSPropertyOp35
 70
     1
102
RTVSPropertyOp36
 70
     1
102
RTVSPropertyOp37
 70
     1
102
RTVSPropertyOp38
 70
     1
102
RTVSPropertyOp39
 70
     1
102
RTVSPropertyOp40
 70
     1
102
RTVSPropertyOp41
 70
     1
102
RTVSPropertyOp42
 70
     1
102
RTVSPropertyOp43
 70
     1
102
RTVSPropertyOp44
 70
     1
102
RTVSPropertyOp45
 70
     1
102
RTVSPropertyOp46
 70
     1
102
RTVSPropertyOp47
 70
     1
102
RTVSPropertyOp48
 70
     1
102
RTVSPropertyOp49
 70
     1
102
RTVSPropertyOp50
 70
     1
102
RTVSPropertyOp51
 70
     0
102
RTVSPropertyOp52
 70
     0
102
RTVSPropertyOp53
 70
     1
102
RTVSPropertyOp54
 70
     1
102
RTVSPropertyOp55
 70
     1
102
RTVSPropertyOp56
 70
     1
102
RTVSPropertyOp57
 70
     1
102
RTVSPropertyOp58
 70
     1
102
RTVSPropertyOp59
 70
     1
102
RTVSPropertyOp60
 70
     1
102
RTVSPropertyOp61
 70
     1
102
RTVSPropertyOp62
 70
     1
  0
ENDSEC
  0
EOF
