  0
SECTION
  2
HEADER
  9
$ACADVER
  1
AC1015
  9
$ACADMAINTVER
 70
    20
  9
$DWGCODEPAGE
  3
ANSI_932
  9
$INSBASE
 10
0.0
 20
0.0
 30
0.0
  9
$EXTMIN
 10
45.99147379789508
 20
9.889657075705599
 30
0.0
  9
$EXTMAX
 10
1751.154872281321
 20
1310.619178565619
 30
0.0
  9
$LIMMIN
 10
-461.7595138549805
 20
-380.0153884887695
  9
$LIMMAX
 10
1167.127601623535
 20
785.8464050292967
  9
$ORTHOMODE
 70
     0
  9
$REGENMODE
 70
     1
  9
$FILLMODE
 70
     1
  9
$QTEXTMODE
 70
     0
  9
$MIRRTEXT
 70
     1
  9
$LTSCALE
 40
0.7054235539473888
  9
$ATTMODE
 70
     1
  9
$TEXTSIZE
 40
2.5
  9
$TRACEWID
 40
1.0
  9
$TEXTSTYLE
  7
Standard
  9
$CLAYER
  8
0
  9
$CELTYPE
  6
ByLayer
  9
$CECOLOR
 62
   256
  9
$CELTSCALE
 40
1.0
  9
$DISPSILH
 70
     0
  9
$DIMSCALE
 40
1.0
  9
$DIMASZ
 40
2.5
  9
$DIMEXO
 40
0.625
  9
$DIMDLI
 40
3.75
  9
$DIMRND
 40
0.0
  9
$DIMDLE
 40
0.0
  9
$DIMEXE
 40
1.25
  9
$DIMTP
 40
0.0
  9
$DIMTM
 40
0.0
  9
$DIMTXT
 40
2.5
  9
$DIMCEN
 40
2.5
  9
$DIMTSZ
 40
0.0
  9
$DIMTOL
 70
     0
  9
$DIMLIM
 70
     0
  9
$DIMTIH
 70
     0
  9
$DIMTOH
 70
     0
  9
$DIMSE1
 70
     0
  9
$DIMSE2
 70
     0
  9
$DIMTAD
 70
     1
  9
$DIMZIN
 70
     0
  9
$DIMBLK
  1

  9
$DIMASO
 70
     1
  9
$DIMSHO
 70
     1
  9
$DIMPOST
  1

  9
$DIMAPOST
  1

  9
$DIMALT
 70
     0
  9
$DIMALTD
 70
     3
  9
$DIMALTF
 40
0.03937007874016
  9
$DIMLFAC
 40
1.0
  9
$DIMTOFL
 70
     1
  9
$DIMTVP
 40
0.0
  9
$DIMTIX
 70
     0
  9
$DIMSOXD
 70
     0
  9
$DIMSAH
 70
     0
  9
$DIMBLK1
  1

  9
$DIMBLK2
  1

  9
$DIMSTYLE
  2
Standard
  9
$DIMCLRD
 70
     0
  9
$DIMCLRE
 70
     0
  9
$DIMCLRT
 70
     0
  9
$DIMTFAC
 40
0.75
  9
$DIMGAP
 40
0.625
  9
$DIMJUST
 70
     0
  9
$DIMSD1
 70
     0
  9
$DIMSD2
 70
     0
  9
$DIMTOLJ
 70
     0
  9
$DIMTZIN
 70
     8
  9
$DIMALTZ
 70
     0
  9
$DIMALTTZ
 70
     0
  9
$DIMUPT
 70
     0
  9
$DIMDEC
 70
     2
  9
$DIMTDEC
 70
     2
  9
$DIMALTU
 70
     2
  9
$DIMALTTD
 70
     3
  9
$DIMTXSTY
  7
Standard
  9
$DIMAUNIT
 70
     0
  9
$DIMADEC
 70
     0
  9
$DIMALTRND
 40
0.0
  9
$DIMAZIN
 70
     0
  9
$DIMDSEP
 70
    46
  9
$DIMATFIT
 70
     3
  9
$DIMFRAC
 70
     0
  9
$DIMLDRBLK
  1

  9
$DIMLUNIT
 70
     2
  9
$DIMLWD
 70
    -2
  9
$DIMLWE
 70
    -2
  9
$DIMTMOVE
 70
     0
  9
$LUNITS
 70
     2
  9
$LUPREC
 70
     4
  9
$SKETCHINC
 40
1.0
  9
$FILLETRAD
 40
0.0
  9
$AUNITS
 70
     0
  9
$AUPREC
 70
     0
  9
$MENU
  1
.
  9
$ELEVATION
 40
0.0
  9
$PELEVATION
 40
0.0
  9
$THICKNESS
 40
0.0
  9
$LIMCHECK
 70
     0
  9
$CHAMFERA
 40
10.0
  9
$CHAMFERB
 40
10.0
  9
$CHAMFERC
 40
20.0
  9
$CHAMFERD
 40
0.0
  9
$SKPOLY
 70
     0
  9
$TDCREATE
 40
2455188.750000000
  9
$TDUCREATE
 40
2455188.375000000
  9
$TDUPDATE
 40
2459759.492235070
  9
$TDUUPDATE
 40
2459759.117235070
  9
$TDINDWG
 40
0.0063193634
  9
$TDUSRTIMER
 40
0.0063192014
  9
$USRTIMER
 70
     1
  9
$ANGBASE
 50
0.0
  9
$ANGDIR
 70
     0
  9
$PDMODE
 70
     0
  9
$PDSIZE
 40
0.0
  9
$PLINEWID
 40
0.0
  9
$SPLFRAME
 70
     0
  9
$SPLINETYPE
 70
     6
  9
$SPLINESEGS
 70
     8
  9
$HANDSEED
  5
5D8
  9
$SURFTAB1
 70
     6
  9
$SURFTAB2
 70
     6
  9
$SURFTYPE
 70
     6
  9
$SURFU
 70
     6
  9
$SURFV
 70
     6
  9
$UCSBASE
  2

  9
$UCSNAME
  2

  9
$UCSORG
 10
0.0
 20
0.0
 30
0.0
  9
$UCSXDIR
 10
1.0
 20
0.0
 30
0.0
  9
$UCSYDIR
 10
0.0
 20
1.0
 30
0.0
  9
$UCSORTHOREF
  2

  9
$UCSORTHOVIEW
 70
     0
  9
$UCSORGTOP
 10
0.0
 20
0.0
 30
0.0
  9
$UCSORGBOTTOM
 10
0.0
 20
0.0
 30
0.0
  9
$UCSORGLEFT
 10
0.0
 20
0.0
 30
0.0
  9
$UCSORGRIGHT
 10
0.0
 20
0.0
 30
0.0
  9
$UCSORGFRONT
 10
0.0
 20
0.0
 30
0.0
  9
$UCSORGBACK
 10
0.0
 20
0.0
 30
0.0
  9
$PUCSBASE
  2

  9
$PUCSNAME
  2

  9
$PUCSORG
 10
0.0
 20
0.0
 30
0.0
  9
$PUCSXDIR
 10
1.0
 20
0.0
 30
0.0
  9
$PUCSYDIR
 10
0.0
 20
1.0
 30
0.0
  9
$PUCSORTHOREF
  2

  9
$PUCSORTHOVIEW
 70
     0
  9
$PUCSORGTOP
 10
0.0
 20
0.0
 30
0.0
  9
$PUCSORGBOTTOM
 10
0.0
 20
0.0
 30
0.0
  9
$PUCSORGLEFT
 10
0.0
 20
0.0
 30
0.0
  9
$PUCSORGRIGHT
 10
0.0
 20
0.0
 30
0.0
  9
$PUCSORGFRONT
 10
0.0
 20
0.0
 30
0.0
  9
$PUCSORGBACK
 10
0.0
 20
0.0
 30
0.0
  9
$USERI1
 70
     0
  9
$USERI2
 70
     0
  9
$USERI3
 70
     0
  9
$USERI4
 70
     0
  9
$USERI5
 70
     0
  9
$USERR1
 40
0.0
  9
$USERR2
 40
0.0
  9
$USERR3
 40
0.0
  9
$USERR4
 40
0.0
  9
$USERR5
 40
0.0
  9
$WORLDVIEW
 70
     1
  9
$SHADEDGE
 70
     3
  9
$SHADEDIF
 70
    70
  9
$TILEMODE
 70
     1
  9
$MAXACTVP
 70
    64
  9
$PINSBASE
 10
0.0
 20
0.0
 30
0.0
  9
$PLIMCHECK
 70
     0
  9
$PEXTMIN
 10
1.000000000000000E+20
 20
1.000000000000000E+20
 30
1.000000000000000E+20
  9
$PEXTMAX
 10
-1.000000000000000E+20
 20
-1.000000000000000E+20
 30
-1.000000000000000E+20
  9
$PLIMMIN
 10
0.0
 20
0.0
  9
$PLIMMAX
 10
420.0
 20
297.0
  9
$UNITMODE
 70
     0
  9
$VISRETAIN
 70
     1
  9
$PLINEGEN
 70
     0
  9
$PSLTSCALE
 70
     1
  9
$TREEDEPTH
 70
  3020
  9
$CMLSTYLE
  2
Standard
  9
$CMLJUST
 70
     0
  9
$CMLSCALE
 40
20.0
  9
$PROXYGRAPHICS
 70
     1
  9
$MEASUREMENT
 70
     1
  9
$CELWEIGHT
370
    -1
  9
$ENDCAPS
280
     0
  9
$JOINSTYLE
280
     0
  9
$LWDISPLAY
290
     0
  9
$INSUNITS
 70
     4
  9
$HYPERLINKBASE
  1

  9
$STYLESHEET
  1

  9
$XEDIT
290
     1
  9
$CEPSNTYPE
380
     0
  9
$PSTYLEMODE
290
     1
  9
$FINGERPRINTGUID
  2
{C7461918-5893-47F7-A13B-AF0228E6FE08}
  9
$VERSIONGUID
  2
{FC348EA2-037E-437D-B3DE-7C81F8A04ECC}
  9
$EXTNAMES
290
     1
  9
$PSVPSCALE
 40
0.0
  9
$OLESTARTUP
290
     0
  0
ENDSEC
  0
SECTION
  2
CLASSES
  0
CLASS
  1
ACDBDICTIONARYWDFLT
  2
AcDbDictionaryWithDefault
  3
ObjectDBX Classes
 90
        0
280
     0
281
     0
  0
CLASS
  1
VISUALSTYLE
  2
AcDbVisualStyle
  3
ObjectDBX Classes
 90
     4095
280
     0
281
     0
  0
CLASS
  1
MATERIAL
  2
AcDbMaterial
  3
ObjectDBX Classes
 90
     1153
280
     0
281
     0
  0
CLASS
  1
SCALE
  2
AcDbScale
  3
ObjectDBX Classes
 90
     1153
280
     0
281
     0
  0
CLASS
  1
TABLESTYLE
  2
AcDbTableStyle
  3
ObjectDBX Classes
 90
     4095
280
     0
281
     0
  0
CLASS
  1
MLEADERSTYLE
  2
AcDbMLeaderStyle
  3
ACDB_MLEADERSTYLE_CLASS
 90
     4095
280
     0
281
     0
  0
CLASS
  1
SUN
  2
AcDbSun
  3
SCENEOE
 90
    33921
280
     0
281
     0
  0
CLASS
  1
DICTIONARYVAR
  2
AcDbDictionaryVar
  3
ObjectDBX Classes
 90
        0
280
     0
281
     0
  0
CLASS
  1
ACDBSECTIONVIEWSTYLE
  2
AcDbSectionViewStyle
  3
ObjectDBX Classes
 90
     1025
280
     0
281
     0
  0
CLASS
  1
ACDBDETAILVIEWSTYLE
  2
AcDbDetailViewStyle
  3
ObjectDBX Classes
 90
     1025
280
     0
281
     0
  0
CLASS
  1
SORTENTSTABLE
  2
AcDbSortentsTable
  3
ObjectDBX Classes
 90
        0
280
     0
281
     0
  0
CLASS
  1
CELLSTYLEMAP
  2
AcDbCellStyleMap
  3
ObjectDBX Classes
 90
     1152
280
     0
281
     0
  0
CLASS
  1
ACDBPLACEHOLDER
  2
AcDbPlaceHolder
  3
ObjectDBX Classes
 90
        0
280
     0
281
     0
  0
CLASS
  1
LAYOUT
  2
AcDbLayout
  3
ObjectDBX Classes
 90
        0
280
     0
281
     0
  0
ENDSEC
  0
SECTION
  2
TABLES
  0
TABLE
  2
VPORT
  5
8
330
0
100
AcDbSymbolTable
 70
     1
  0
VPORT
  5
29
330
8
100
AcDbSymbolTableRecord
100
AcDbViewportTableRecord
  2
*Active
 70
     0
 10
0.0
 20
0.0
 11
1.0
 21
1.0
 12
1146.32457569841
 22
487.0323149998458
 13
0.0
 23
0.0
 14
10.0
 24
10.0
 15
10.0
 25
10.0
 16
0.0
 26
0.0
 36
1.0
 17
0.0
 27
0.0
 37
0.0
 40
1941.231706984958
 41
2.204301075268817
 42
50.0
 43
0.0
 44
0.0
 50
0.0
 51
0.0
 71
     0
 72
 20000
 73
     1
 74
     3
 75
     0
 76
     0
 77
     0
 78
     0
281
     0
 65
     1
110
0.0
120
0.0
130
0.0
111
1.0
121
0.0
131
0.0
112
0.0
122
1.0
132
0.0
 79
     0
146
0.0
1001
ACAD_NAV_VCDISPLAY
1070
     3
  0
ENDTAB
  0
TABLE
  2
LTYPE
  5
5
330
0
100
AcDbSymbolTable
 70
     2
  0
LTYPE
  5
14
330
5
100
AcDbSymbolTableRecord
100
AcDbLinetypeTableRecord
  2
ByBlock
 70
     0
  3

 72
    65
 73
     0
 40
0.0
  0
LTYPE
  5
15
330
5
100
AcDbSymbolTableRecord
100
AcDbLinetypeTableRecord
  2
ByLayer
 70
     0
  3

 72
    65
 73
     0
 40
0.0
  0
LTYPE
  5
16
330
5
100
AcDbSymbolTableRecord
100
AcDbLinetypeTableRecord
  2
Continuous
 70
     0
  3
Solid line
 72
    65
 73
     0
 40
0.0
  0
LTYPE
  5
28B
330
5
100
AcDbSymbolTableRecord
100
AcDbLinetypeTableRecord
  2
CENTER2
 70
     0
  3
Center (.5x) ___ _ ___ _ ___ _ ___ _ ___ _ ___
 72
    65
 73
     4
 40
28.575
 49
19.05
 74
     0
 49
-3.174999999999998
 74
     0
 49
3.174999999999998
 74
     0
 49
-3.174999999999998
 74
     0
  0
ENDTAB
  0
TABLE
  2
LAYER
  5
2
102
{ACAD_XDICTIONARY
360
291
102
}
330
0
100
AcDbSymbolTable
 70
     4
  0
LAYER
  5
10
102
{ACAD_XDICTIONARY
360
542
102
}
330
2
100
AcDbSymbolTableRecord
100
AcDbLayerTableRecord
  2
0
 70
     0
 62
     7
  6
Continuous
370
    -3
390
F
  0
LAYER
  5
66
330
2
100
AcDbSymbolTableRecord
100
AcDbLayerTableRecord
  2
Defpoints
 70
     0
 62
     7
  6
Continuous
290
     0
370
    -3
390
F
  0
LAYER
  5
28C
102
{ACAD_XDICTIONARY
360
28D
102
}
330
2
100
AcDbSymbolTableRecord
100
AcDbLayerTableRecord
  2
中心線
 70
     0
 62
     3
  6
CENTER2
370
    -3
390
F
  0
LAYER
  5
28E
102
{ACAD_XDICTIONARY
360
28F
102
}
330
2
100
AcDbSymbolTableRecord
100
AcDbLayerTableRecord
  2
実線
 70
     0
 62
     7
  6
Continuous
370
    -3
390
F
  0
ENDTAB
  0
TABLE
  2
STYLE
  5
3
330
0
100
AcDbSymbolTable
 70
     1
  0
STYLE
  5
11
330
3
100
AcDbSymbolTableRecord
100
AcDbTextStyleTableRecord
  2
Standard
 70
     0
 40
0.0
 41
1.0
 50
0.0
 71
     0
 42
2.5
  3
txt
  4
extfont2
  0
ENDTAB
  0
TABLE
  2
VIEW
  5
6
330
0
100
AcDbSymbolTable
 70
     0
  0
ENDTAB
  0
TABLE
  2
UCS
  5
7
330
0
100
AcDbSymbolTable
 70
     0
  0
ENDTAB
  0
TABLE
  2
APPID
  5
9
330
0
100
AcDbSymbolTable
 70
     4
  0
APPID
  5
12
330
9
100
AcDbSymbolTableRecord
100
AcDbRegAppTableRecord
  2
ACAD
 70
     0
  0
APPID
  5
27B
330
9
100
AcDbSymbolTableRecord
100
AcDbRegAppTableRecord
  2
ACAD_MLEADERVER
 70
     0
  0
APPID
  5
290
330
9
100
AcDbSymbolTableRecord
100
AcDbRegAppTableRecord
  2
ACAD_NAV_VCDISPLAY
 70
     0
  0
APPID
  5
52F
330
9
100
AcDbSymbolTableRecord
100
AcDbRegAppTableRecord
  2
ACAD_EXEMPT_FROM_CAD_STANDARDS
 70
     0
  0
ENDTAB
  0
TABLE
  2
DIMSTYLE
  5
A
330
0
100
AcDbSymbolTable
 70
     1
100
AcDbDimStyleTable
 71
     1
340
27
  0
DIMSTYLE
105
27
330
A
100
AcDbSymbolTableRecord
100
AcDbDimStyleTableRecord
  2
Standard
 70
     0
 41
2.5
 42
0.625
 43
3.75
 44
1.25
 73
     0
 74
     0
 77
     1
140
2.5
141
2.5
143
0.03937007874016
146
0.75
147
0.625
171
     3
172
     1
271
     2
272
     2
274
     3
283
     0
284
     8
340
11
  0
ENDTAB
  0
TABLE
  2
BLOCK_RECORD
  5
1
330
0
100
AcDbSymbolTable
 70
     1
  0
BLOCK_RECORD
  5
1F
102
{ACAD_XDICTIONARY
360
3A0
102
}
330
1
100
AcDbSymbolTableRecord
100
AcDbBlockTableRecord
  2
*Model_Space
340
22
  0
BLOCK_RECORD
  5
1B
330
1
100
AcDbSymbolTableRecord
100
AcDbBlockTableRecord
  2
*Paper_Space
340
1E
  0
BLOCK_RECORD
  5
23
330
1
100
AcDbSymbolTableRecord
100
AcDbBlockTableRecord
  2
*Paper_Space0
340
285
  0
ENDTAB
  0
ENDSEC
  0
SECTION
  2
BLOCKS
  0
BLOCK
  5
20
330
1F
100
AcDbEntity
  8
0
100
AcDbBlockBegin
  2
*Model_Space
 70
     0
 10
0.0
 20
0.0
 30
0.0
  3
*Model_Space
  1

  0
ENDBLK
  5
21
330
1F
100
AcDbEntity
  8
0
100
AcDbBlockEnd
  0
BLOCK
  5
1C
330
1B
100
AcDbEntity
 67
     1
  8
0
100
AcDbBlockBegin
  2
*Paper_Space
 70
     0
 10
0.0
 20
0.0
 30
0.0
  3
*Paper_Space
  1

  0
ENDBLK
  5
1D
330
1B
100
AcDbEntity
 67
     1
  8
0
100
AcDbBlockEnd
  0
BLOCK
  5
24
330
23
100
AcDbEntity
 67
     1
  8
0
100
AcDbBlockBegin
  2
*Paper_Space0
 70
     0
 10
0.0
 20
0.0
 30
0.0
  3
*Paper_Space0
  1

  0
ENDBLK
  5
25
330
23
100
AcDbEntity
 67
     1
  8
0
100
AcDbBlockEnd
  0
ENDSEC
  0
SECTION
  2
ENTITIES
  0
ARC
  5
371
102
{ACAD_REACTORS
330
53D
102
}
330
1F
100
AcDbEntity
  8
実線
100
AcDbCircle
 10
357.9914737978953
 20
93.88965707570646
 30
0.0
 40
72.0
100
AcDbArc
 50
51.66903905256911
 51
128.3309609474309
  0
ARC
  5
372
102
{ACAD_REACTORS
330
53D
102
}
330
1F
100
AcDbEntity
  8
実線
100
AcDbCircle
 10
357.9914737978953
 20
93.88965707570646
 30
0.0
 40
72.0
100
AcDbArc
 50
141.6690390525668
 51
159.3426891625273
  0
ARC
  5
373
102
{ACAD_REACTORS
330
53D
102
}
330
1F
100
AcDbEntity
  8
実線
100
AcDbCircle
 10
357.9914737978953
 20
93.88965707570646
 30
0.0
 40
72.0
100
AcDbArc
 50
200.6573108374727
 51
218.3309609474332
  0
ARC
  5
374
102
{ACAD_REACTORS
330
53D
102
}
330
1F
100
AcDbEntity
  8
実線
100
AcDbCircle
 10
357.9914737978953
 20
93.88965707570646
 30
0.0
 40
72.0
100
AcDbArc
 50
231.6690390525691
 51
308.3309609474299
  0
ARC
  5
375
102
{ACAD_REACTORS
330
53D
102
}
330
1F
100
AcDbEntity
  8
実線
100
AcDbCircle
 10
357.9914737978953
 20
93.88965707570646
 30
0.0
 40
72.0
100
AcDbArc
 50
321.6690390525668
 51
339.3426891625257
  0
ARC
  5
376
102
{ACAD_REACTORS
330
53D
102
}
330
1F
100
AcDbEntity
  8
実線
100
AcDbCircle
 10
357.9914737978953
 20
93.88965707570646
 30
0.0
 40
72.0
100
AcDbArc
 50
20.65731083747269
 51
38.33096094743318
  0
LINE
  5
377
102
{ACAD_REACTORS
330
53D
102
}
330
1F
100
AcDbEntity
  8
実線
100
AcDbLine
 10
434.6914737978955
 20
119.2896570757065
 30
0.0
 11
399.8942183380803
 21
119.2896570757065
 31
0.0
  0
LINE
  5
378
102
{ACAD_REACTORS
330
53D
102
}
330
1F
100
AcDbEntity
  8
実線
100
AcDbLine
 10
399.8942183380803
 20
68.48965707570639
 30
0.0
 11
434.6914737978951
 21
68.48965707570639
 31
0.0
  0
LINE
  5
379
102
{ACAD_REACTORS
330
53D
102
}
330
1F
100
AcDbEntity
  8
実線
100
AcDbLine
 10
439.9914737978953
 20
125.8896570757064
 30
0.0
 11
437.0914737978953
 21
125.8896570757064
 31
0.0
  0
LINE
  5
37A
102
{ACAD_REACTORS
330
53D
102
}
330
1F
100
AcDbEntity
  8
実線
100
AcDbLine
 10
437.0914737978953
 20
61.88965707570648
 30
0.0
 11
439.9914737978953
 21
61.88965707570648
 31
0.0
  0
LINE
  5
37B
102
{ACAD_REACTORS
330
53D
102
}
330
1F
100
AcDbEntity
  8
実線
100
AcDbLine
 10
439.9914737978953
 20
61.88965707570648
 30
0.0
 11
439.9914737978953
 21
125.8896570757064
 31
0.0
  0
LINE
  5
37C
102
{ACAD_REACTORS
330
53D
102
}
330
1F
100
AcDbEntity
  8
実線
100
AcDbLine
 10
434.6914737978955
 20
68.48965707570639
 30
0.0
 11
437.0914737978953
 21
61.88965707570648
 31
0.0
  0
LINE
  5
37D
102
{ACAD_REACTORS
330
53D
102
}
330
1F
100
AcDbEntity
  8
実線
100
AcDbLine
 10
437.0914737978953
 20
125.8896570757064
 30
0.0
 11
434.6914737978955
 21
119.2896570757065
 31
0.0
  0
LINE
  5
37E
102
{ACAD_REACTORS
330
53D
102
}
330
1F
100
AcDbEntity
  8
実線
100
AcDbLine
 10
437.0914737978953
 20
61.88965707570648
 30
0.0
 11
437.0914737978953
 21
125.8896570757064
 31
0.0
  0
LINE
  5
37F
102
{ACAD_REACTORS
330
53D
102
}
330
1F
100
AcDbEntity
  8
実線
100
AcDbLine
 10
434.6914737978955
 20
68.48965707570639
 30
0.0
 11
434.6914737978955
 21
119.2896570757065
 31
0.0
  0
LINE
  5
380
102
{ACAD_REACTORS
330
53D
102
}
330
1F
100
AcDbEntity
  8
実線
100
AcDbLine
 10
281.2914737978951
 20
68.48965707570639
 30
0.0
 11
316.0887292577105
 21
68.48965707570639
 31
0.0
  0
LINE
  5
381
102
{ACAD_REACTORS
330
53D
102
}
330
1F
100
AcDbEntity
  8
実線
100
AcDbLine
 10
316.0887292577105
 20
119.2896570757065
 30
0.0
 11
281.2914737978953
 21
119.2896570757065
 31
0.0
  0
LINE
  5
382
102
{ACAD_REACTORS
330
53D
102
}
330
1F
100
AcDbEntity
  8
実線
100
AcDbLine
 10
281.2914737978951
 20
119.2896570757065
 30
0.0
 11
278.891473797895
 21
125.8896570757064
 31
0.0
  0
LINE
  5
383
102
{ACAD_REACTORS
330
53D
102
}
330
1F
100
AcDbEntity
  8
実線
100
AcDbLine
 10
278.891473797895
 20
61.88965707570648
 30
0.0
 11
281.2914737978951
 21
68.48965707570639
 31
0.0
  0
LINE
  5
384
102
{ACAD_REACTORS
330
53D
102
}
330
1F
100
AcDbEntity
  8
実線
100
AcDbLine
 10
281.2914737978951
 20
119.2896570757065
 30
0.0
 11
281.2914737978951
 21
68.48965707570639
 31
0.0
  0
LINE
  5
385
102
{ACAD_REACTORS
330
53D
102
}
330
1F
100
AcDbEntity
  8
実線
100
AcDbLine
 10
275.9914737978953
 20
61.88965707570648
 30
0.0
 11
278.891473797895
 21
61.88965707570648
 31
0.0
  0
LINE
  5
386
102
{ACAD_REACTORS
330
53D
102
}
330
1F
100
AcDbEntity
  8
実線
100
AcDbLine
 10
278.891473797895
 20
125.8896570757064
 30
0.0
 11
275.9914737978953
 21
125.8896570757064
 31
0.0
  0
LINE
  5
387
102
{ACAD_REACTORS
330
53D
102
}
330
1F
100
AcDbEntity
  8
実線
100
AcDbLine
 10
275.9914737978953
 20
125.8896570757064
 30
0.0
 11
275.9914737978953
 21
61.88965707570648
 31
0.0
  0
LINE
  5
388
102
{ACAD_REACTORS
330
53D
102
}
330
1F
100
AcDbEntity
  8
実線
100
AcDbLine
 10
278.891473797895
 20
125.8896570757064
 30
0.0
 11
278.891473797895
 21
61.88965707570648
 31
0.0
  0
CIRCLE
  5
389
102
{ACAD_REACTORS
330
53D
102
}
330
1F
100
AcDbEntity
  8
実線
100
AcDbCircle
 10
357.9914737978954
 20
93.88965707570646
 30
0.0
 40
32.0
  0
ARC
  5
38A
102
{ACAD_REACTORS
330
53D
102
}
330
1F
100
AcDbEntity
  8
実線
100
AcDbCircle
 10
401.962550540657
 20
140.3928226677624
 30
0.0
 40
10.00000000000003
100
AcDbArc
 50
46.60310979518592
 51
124.9999999999974
  0
LINE
  5
38B
102
{ACAD_REACTORS
330
53D
102
}
330
1F
100
AcDbEntity
  8
実線
100
AcDbLine
 10
380.3697170850384
 20
137.481103798446
 30
0.0
 11
396.2267861771465
 21
148.5843431106522
 31
0.0
  0
LINE
  5
38C
102
{ACAD_REACTORS
330
53D
102
}
330
1F
100
AcDbEntity
  8
実線
100
AcDbLine
 10
412.6861598328412
 20
132.1249694549576
 30
0.0
 11
403.6987773496131
 21
119.2896570757065
 31
0.0
  0
ARC
  5
38D
102
{ACAD_REACTORS
330
53D
102
}
330
1F
100
AcDbEntity
  8
実線
100
AcDbCircle
 10
404.4946393899513
 20
137.8607338184681
 30
0.0
 40
9.999999999999976
100
AcDbArc
 50
325.0
 51
43.39689020481751
  0
ARC
  5
38E
102
{ACAD_REACTORS
330
53D
102
}
330
1F
100
AcDbEntity
  8
実線
100
AcDbCircle
 10
357.9914737978954
 20
93.88965707570656
 30
0.0
 40
73.99999999999984
100
AcDbArc
 50
43.39689020481751
 51
46.60310979518592
  0
ARC
  5
38F
102
{ACAD_REACTORS
330
53D
102
}
330
1F
100
AcDbEntity
  8
実線
100
AcDbCircle
 10
314.0203970551337
 20
140.3928226677624
 30
0.0
 40
10.00000000000001
100
AcDbArc
 50
55.00000000000264
 51
133.3968902048141
  0
LINE
  5
390
102
{ACAD_REACTORS
330
53D
102
}
330
1F
100
AcDbEntity
  8
実線
100
AcDbLine
 10
312.2841702461776
 20
119.2896570757065
 30
0.0
 11
303.2967877629495
 21
132.1249694549576
 31
0.0
  0
LINE
  5
391
102
{ACAD_REACTORS
330
53D
102
}
330
1F
100
AcDbEntity
  8
実線
100
AcDbLine
 10
319.7561614186442
 20
148.5843431106522
 30
0.0
 11
335.6132305107522
 21
137.481103798446
 31
0.0
  0
ARC
  5
392
102
{ACAD_REACTORS
330
53D
102
}
330
1F
100
AcDbEntity
  8
実線
100
AcDbCircle
 10
357.9914737978955
 20
93.88965707570656
 30
0.0
 40
73.99999999999997
100
AcDbArc
 50
133.3968902048141
 51
136.6031097951825
  0
ARC
  5
393
102
{ACAD_REACTORS
330
53D
102
}
330
1F
100
AcDbEntity
  8
実線
100
AcDbCircle
 10
311.4883082058395
 20
137.8607338184681
 30
0.0
 40
10.00000000000001
100
AcDbArc
 50
136.6031097951825
 51
214.9999999999987
  0
LINE
  5
394
102
{ACAD_REACTORS
330
53D
102
}
330
1F
100
AcDbEntity
  8
実線
100
AcDbLine
 10
335.6132305107524
 20
50.29821035296686
 30
0.0
 11
319.7561614186442
 21
39.19497104076067
 31
0.0
  0
LINE
  5
395
102
{ACAD_REACTORS
330
53D
102
}
330
1F
100
AcDbEntity
  8
実線
100
AcDbLine
 10
303.2967877629496
 20
55.65434469645527
 30
0.0
 11
312.2841702461776
 21
68.48965707570639
 31
0.0
  0
ARC
  5
396
102
{ACAD_REACTORS
330
53D
102
}
330
1F
100
AcDbEntity
  8
実線
100
AcDbCircle
 10
311.4883082058395
 20
49.91858033294474
 30
0.0
 40
10.00000000000001
100
AcDbArc
 50
145.0000000000013
 51
223.3968902048175
  0
ARC
  5
397
102
{ACAD_REACTORS
330
53D
102
}
330
1F
100
AcDbEntity
  8
実線
100
AcDbCircle
 10
357.9914737978955
 20
93.88965707570656
 30
0.0
 40
74.00000000000019
100
AcDbArc
 50
223.3968902048175
 51
226.6031097951859
  0
ARC
  5
398
102
{ACAD_REACTORS
330
53D
102
}
330
1F
100
AcDbEntity
  8
実線
100
AcDbCircle
 10
314.0203970551337
 20
47.38649148365055
 30
0.0
 40
10.0
100
AcDbArc
 50
226.6031097951859
 51
304.9999999999974
  0
LINE
  5
399
102
{ACAD_REACTORS
330
53D
102
}
330
1F
100
AcDbEntity
  8
実線
100
AcDbLine
 10
403.6987773496131
 20
68.48965707570639
 30
0.0
 11
412.6861598328412
 21
55.65434469645527
 31
0.0
  0
LINE
  5
39A
102
{ACAD_REACTORS
330
53D
102
}
330
1F
100
AcDbEntity
  8
実線
100
AcDbLine
 10
396.2267861771465
 20
39.19497104076067
 30
0.0
 11
380.3697170850385
 21
50.29821035296698
 31
0.0
  0
ARC
  5
39B
102
{ACAD_REACTORS
330
53D
102
}
330
1F
100
AcDbEntity
  8
実線
100
AcDbCircle
 10
401.962550540657
 20
47.38649148365055
 30
0.0
 40
10.00000000000001
100
AcDbArc
 50
235.0000000000026
 51
313.3968902048141
  0
ARC
  5
39C
102
{ACAD_REACTORS
330
53D
102
}
330
1F
100
AcDbEntity
  8
実線
100
AcDbCircle
 10
357.9914737978955
 20
93.88965707570656
 30
0.0
 40
74.00000000000003
100
AcDbArc
 50
313.3968902048141
 51
316.6031097951825
  0
ARC
  5
39D
102
{ACAD_REACTORS
330
53D
102
}
330
1F
100
AcDbEntity
  8
実線
100
AcDbCircle
 10
404.4946393899512
 20
49.91858033294474
 30
0.0
 40
10.00000000000002
100
AcDbArc
 50
316.6031097951825
 51
34.9999999999987
  0
ARC
  5
39E
102
{ACAD_REACTORS
330
53D
102
}
330
1F
100
AcDbEntity
  8
実線
100
AcDbCircle
 10
357.9914737978954
 20
93.88965707570646
 30
0.0
 40
49.0
100
AcDbArc
 50
207.5287869161018
 51
332.4712130838982
  0
ARC
  5
39F
102
{ACAD_REACTORS
330
53D
102
}
330
1F
100
AcDbEntity
  8
実線
100
AcDbCircle
 10
357.9914737978954
 20
93.88965707570646
 30
0.0
 40
49.0
100
AcDbArc
 50
27.52878691610178
 51
152.4712130838982
  0
LINE
  5
3A2
102
{ACAD_REACTORS
330
58E
102
}
330
1F
100
AcDbEntity
  8
実線
100
AcDbLine
 10
384.0414737978952
 20
960.8896570757075
 30
0.0
 11
381.0414737978953
 21
960.8896570757075
 31
0.0
  0
LINE
  5
3A3
102
{ACAD_REACTORS
330
58E
102
}
330
1F
100
AcDbEntity
  8
実線
100
AcDbLine
 10
384.0414737978952
 20
954.3896570757073
 30
0.0
 11
384.0414737978952
 21
960.8896570757075
 31
0.0
  0
LINE
  5
3A4
102
{ACAD_REACTORS
330
58E
102
}
330
1F
100
AcDbEntity
  8
実線
100
AcDbLine
 10
381.0414737978953
 20
960.8896570757075
 30
0.0
 11
381.0414737978953
 21
954.3896570757073
 31
0.0
  0
LINE
  5
3A5
102
{ACAD_REACTORS
330
58E
102
}
330
1F
100
AcDbEntity
  8
実線
100
AcDbLine
 10
378.5914737978952
 20
929.3896570757073
 30
0.0
 11
386.4914737978953
 21
929.3896570757073
 31
0.0
  0
LINE
  5
3A6
102
{ACAD_REACTORS
330
58E
102
}
330
1F
100
AcDbEntity
  8
実線
100
AcDbLine
 10
378.5914737978952
 20
929.3896570757073
 30
0.0
 11
378.5914737978952
 21
954.3896570757073
 31
0.0
  0
LINE
  5
3A7
102
{ACAD_REACTORS
330
58E
102
}
330
1F
100
AcDbEntity
  8
実線
100
AcDbLine
 10
386.4914737978953
 20
954.3896570757073
 30
0.0
 11
378.5914737978952
 21
954.3896570757073
 31
0.0
  0
LINE
  5
3A8
102
{ACAD_REACTORS
330
58E
102
}
330
1F
100
AcDbEntity
  8
実線
100
AcDbLine
 10
388.4914737978953
 20
929.3896570757073
 30
0.0
 11
386.4914737978953
 21
929.3896570757073
 31
0.0
  0
LINE
  5
3A9
102
{ACAD_REACTORS
330
58E
102
}
330
1F
100
AcDbEntity
  8
実線
100
AcDbLine
 10
388.4914737978953
 20
960.8896570757075
 30
0.0
 11
388.4914737978953
 21
929.3896570757073
 31
0.0
  0
LINE
  5
3AA
102
{ACAD_REACTORS
330
58E
102
}
330
1F
100
AcDbEntity
  8
実線
100
AcDbLine
 10
386.4914737978953
 20
929.3896570757073
 30
0.0
 11
386.4914737978953
 21
960.8896570757075
 31
0.0
  0
LINE
  5
3AB
102
{ACAD_REACTORS
330
58E
102
}
330
1F
100
AcDbEntity
  8
実線
100
AcDbLine
 10
386.4914737978951
 20
960.8896570757075
 30
0.0
 11
412.4914737978952
 21
960.8896570757075
 31
0.0
  0
LINE
  5
3AC
102
{ACAD_REACTORS
330
58E
102
}
330
1F
100
AcDbEntity
  8
実線
100
AcDbLine
 10
412.4914737978952
 20
962.8896570757074
 30
0.0
 11
412.4914737978952
 21
960.8896570757075
 31
0.0
  0
LINE
  5
3AD
102
{ACAD_REACTORS
330
58E
102
}
330
1F
100
AcDbEntity
  8
実線
100
AcDbLine
 10
386.4914737978951
 20
962.8896570757074
 30
0.0
 11
412.4914737978952
 21
962.8896570757074
 31
0.0
  0
LINE
  5
3AE
102
{ACAD_REACTORS
330
58E
102
}
330
1F
100
AcDbEntity
  8
実線
100
AcDbLine
 10
386.4914737978951
 20
960.8896570757075
 30
0.0
 11
386.4914737978951
 21
962.8896570757074
 31
0.0
  0
CIRCLE
  5
3AF
102
{ACAD_REACTORS
330
58E
102
}
330
1F
100
AcDbEntity
  8
実線
100
AcDbCircle
 10
357.9914737978953
 20
933.8896570757073
 30
0.0
 40
20.0
  0
LINE
  5
3B0
102
{ACAD_REACTORS
330
58E
102
}
330
1F
100
AcDbEntity
  8
実線
100
AcDbLine
 10
434.6914737978955
 20
959.2896570757073
 30
0.0
 11
425.3623874031002
 21
959.2896570757073
 31
0.0
  0
LINE
  5
3B1
102
{ACAD_REACTORS
330
58E
102
}
330
1F
100
AcDbEntity
  8
実線
100
AcDbLine
 10
425.3623874031002
 20
908.4896570757061
 30
0.0
 11
434.6914737978955
 21
908.4896570757061
 31
0.0
  0
LINE
  5
3B2
102
{ACAD_REACTORS
330
58E
102
}
330
1F
100
AcDbEntity
  8
実線
100
AcDbLine
 10
439.9914737978953
 20
965.8896570757073
 30
0.0
 11
439.9914737978953
 21
901.8896570757075
 31
0.0
  0
LINE
  5
3B3
102
{ACAD_REACTORS
330
58E
102
}
330
1F
100
AcDbEntity
  8
実線
100
AcDbLine
 10
439.9914737978953
 20
965.8896570757073
 30
0.0
 11
437.0914737978953
 21
965.8896570757073
 31
0.0
  0
LINE
  5
3B4
102
{ACAD_REACTORS
330
58E
102
}
330
1F
100
AcDbEntity
  8
実線
100
AcDbLine
 10
437.0914737978953
 20
901.8896570757075
 30
0.0
 11
439.9914737978953
 21
901.8896570757075
 31
0.0
  0
LINE
  5
3B5
102
{ACAD_REACTORS
330
58E
102
}
330
1F
100
AcDbEntity
  8
実線
100
AcDbLine
 10
437.0914737978953
 20
965.8896570757073
 30
0.0
 11
437.0914737978953
 21
901.8896570757075
 31
0.0
  0
LINE
  5
3B6
102
{ACAD_REACTORS
330
58E
102
}
330
1F
100
AcDbEntity
  8
実線
100
AcDbLine
 10
434.6914737978955
 20
959.2896570757073
 30
0.0
 11
434.6914737978955
 21
908.4896570757061
 31
0.0
  0
LINE
  5
3B7
102
{ACAD_REACTORS
330
58E
102
}
330
1F
100
AcDbEntity
  8
実線
100
AcDbLine
 10
434.6914737978955
 20
908.4896570757061
 30
0.0
 11
437.0914737978953
 21
901.8896570757075
 31
0.0
  0
LINE
  5
3B8
102
{ACAD_REACTORS
330
58E
102
}
330
1F
100
AcDbEntity
  8
実線
100
AcDbLine
 10
437.0914737978953
 20
965.8896570757073
 30
0.0
 11
434.6914737978955
 21
959.2896570757073
 31
0.0
  0
LINE
  5
3B9
102
{ACAD_REACTORS
330
58E
102
}
330
1F
100
AcDbEntity
  8
実線
100
AcDbLine
 10
281.2914737978951
 20
908.4896570757061
 30
0.0
 11
290.6205601926903
 21
908.4896570757061
 31
0.0
  0
LINE
  5
3BA
102
{ACAD_REACTORS
330
58E
102
}
330
1F
100
AcDbEntity
  8
実線
100
AcDbLine
 10
290.6205601926903
 20
959.2896570757073
 30
0.0
 11
281.2914737978951
 21
959.2896570757073
 31
0.0
  0
LINE
  5
3BB
102
{ACAD_REACTORS
330
58E
102
}
330
1F
100
AcDbEntity
  8
実線
100
AcDbLine
 10
281.2914737978951
 20
908.4896570757061
 30
0.0
 11
281.2914737978951
 21
959.2896570757073
 31
0.0
  0
LINE
  5
3BC
102
{ACAD_REACTORS
330
58E
102
}
330
1F
100
AcDbEntity
  8
実線
100
AcDbLine
 10
281.2914737978951
 20
959.2896570757073
 30
0.0
 11
278.891473797895
 21
965.8896570757073
 31
0.0
  0
LINE
  5
3BD
102
{ACAD_REACTORS
330
58E
102
}
330
1F
100
AcDbEntity
  8
実線
100
AcDbLine
 10
278.891473797895
 20
901.8896570757075
 30
0.0
 11
281.2914737978951
 21
908.4896570757061
 31
0.0
  0
LINE
  5
3BE
102
{ACAD_REACTORS
330
58E
102
}
330
1F
100
AcDbEntity
  8
実線
100
AcDbLine
 10
275.9914737978953
 20
901.8896570757075
 30
0.0
 11
275.9914737978953
 21
965.8896570757073
 31
0.0
  0
LINE
  5
3BF
102
{ACAD_REACTORS
330
58E
102
}
330
1F
100
AcDbEntity
  8
実線
100
AcDbLine
 10
278.891473797895
 20
901.8896570757075
 30
0.0
 11
278.891473797895
 21
965.8896570757073
 31
0.0
  0
LINE
  5
3C0
102
{ACAD_REACTORS
330
58E
102
}
330
1F
100
AcDbEntity
  8
実線
100
AcDbLine
 10
275.9914737978953
 20
901.8896570757075
 30
0.0
 11
278.891473797895
 21
901.8896570757075
 31
0.0
  0
LINE
  5
3C1
102
{ACAD_REACTORS
330
58E
102
}
330
1F
100
AcDbEntity
  8
実線
100
AcDbLine
 10
278.891473797895
 20
965.8896570757073
 30
0.0
 11
275.9914737978953
 21
965.8896570757073
 31
0.0
  0
CIRCLE
  5
3C2
102
{ACAD_REACTORS
330
58E
102
}
330
1F
100
AcDbEntity
  8
実線
100
AcDbCircle
 10
357.9914737978953
 20
933.8896570757073
 30
0.0
 40
72.0
  0
ARC
  5
3C3
102
{ACAD_REACTORS
330
58E
102
}
330
1F
100
AcDbEntity
  8
実線
100
AcDbCircle
 10
314.0203970551337
 20
887.3864914836513
 30
0.0
 40
10.00000000000001
100
AcDbArc
 50
226.6031097951848
 51
266.0805477223383
  0
ARC
  5
3C4
102
{ACAD_REACTORS
330
58E
102
}
330
1F
100
AcDbEntity
  8
実線
100
AcDbCircle
 10
357.9914737978954
 20
933.8896570757063
 30
0.0
 40
73.99999999999997
100
AcDbArc
 50
223.3968902048175
 51
226.6031097951848
  0
ARC
  5
3C5
102
{ACAD_REACTORS
330
58E
102
}
330
1F
100
AcDbEntity
  8
実線
100
AcDbCircle
 10
311.4883082058394
 20
889.9185803329451
 30
0.0
 40
10.00000000000001
100
AcDbArc
 50
183.9194522776616
 51
223.3968902048175
  0
ARC
  5
3C6
102
{ACAD_REACTORS
330
58E
102
}
330
1F
100
AcDbEntity
  8
実線
100
AcDbCircle
 10
357.9914737978954
 20
933.8896570757063
 30
0.0
 40
74.00000000000019
100
AcDbArc
 50
133.3968902048152
 51
136.6031097951825
  0
ARC
  5
3C7
102
{ACAD_REACTORS
330
58E
102
}
330
1F
100
AcDbEntity
  8
実線
100
AcDbCircle
 10
314.0203970551337
 20
980.392822667763
 30
0.0
 40
10.0
100
AcDbArc
 50
93.91945227766168
 51
133.3968902048152
  0
ARC
  5
3C8
102
{ACAD_REACTORS
330
58E
102
}
330
1F
100
AcDbEntity
  8
実線
100
AcDbCircle
 10
311.4883082058394
 20
977.8607338184681
 30
0.0
 40
10.00000000000001
100
AcDbArc
 50
136.6031097951825
 51
176.0805477223383
  0
ARC
  5
3C9
102
{ACAD_REACTORS
330
58E
102
}
330
1F
100
AcDbEntity
  8
実線
100
AcDbCircle
 10
401.9625505406568
 20
980.392822667763
 30
0.0
 40
10.00000000000001
100
AcDbArc
 50
46.6031097951848
 51
86.08054772233833
  0
ARC
  5
3CA
102
{ACAD_REACTORS
330
58E
102
}
330
1F
100
AcDbEntity
  8
実線
100
AcDbCircle
 10
404.4946393899512
 20
977.8607338184681
 30
0.0
 40
10.00000000000002
100
AcDbArc
 50
3.919452277661664
 51
43.39689020481751
  0
ARC
  5
3CB
102
{ACAD_REACTORS
330
58E
102
}
330
1F
100
AcDbEntity
  8
実線
100
AcDbCircle
 10
357.9914737978954
 20
933.8896570757063
 30
0.0
 40
74.00000000000003
100
AcDbArc
 50
43.39689020481751
 51
46.6031097951848
  0
ARC
  5
3CC
102
{ACAD_REACTORS
330
58E
102
}
330
1F
100
AcDbEntity
  8
実線
100
AcDbCircle
 10
401.9625505406568
 20
887.3864914836513
 30
0.0
 40
10.00000000000003
100
AcDbArc
 50
273.9194522776617
 51
313.3968902048152
  0
ARC
  5
3CD
102
{ACAD_REACTORS
330
58E
102
}
330
1F
100
AcDbEntity
  8
実線
100
AcDbCircle
 10
357.9914737978954
 20
933.8896570757063
 30
0.0
 40
73.99999999999984
100
AcDbArc
 50
313.3968902048152
 51
316.6031097951825
  0
ARC
  5
3CE
102
{ACAD_REACTORS
330
58E
102
}
330
1F
100
AcDbEntity
  8
実線
100
AcDbCircle
 10
404.4946393899512
 20
889.9185803329451
 30
0.0
 40
9.999999999999976
100
AcDbArc
 50
316.6031097951825
 51
356.0805477223383
  0
CIRCLE
  5
3D1
102
{ACAD_REACTORS
330
58E
102
}
330
1F
100
AcDbEntity
  8
実線
100
AcDbCircle
 10
391.4914737978953
 20
951.3896570757074
 30
0.0
 40
2.75
  0
CIRCLE
  5
3D4
102
{ACAD_REACTORS
330
58E
102
}
330
1F
100
AcDbEntity
  8
実線
100
AcDbCircle
 10
411.4914737978952
 20
951.3896570757074
 30
0.0
 40
2.75
  0
LINE
  5
3D5
102
{ACAD_REACTORS
330
58E
102
}
330
1F
100
AcDbEntity
  8
実線
100
AcDbLine
 10
418.9914737978951
 20
943.8896570757075
 30
0.0
 11
388.4914737978953
 21
943.8896570757075
 31
0.0
  0
LINE
  5
3D6
102
{ACAD_REACTORS
330
58E
102
}
330
1F
100
AcDbEntity
  8
実線
100
AcDbLine
 10
418.9914737978951
 20
960.8896570757075
 30
0.0
 11
418.9914737978951
 21
943.8896570757075
 31
0.0
  0
LINE
  5
3D7
102
{ACAD_REACTORS
330
58E
102
}
330
1F
100
AcDbEntity
  8
実線
100
AcDbLine
 10
412.4914737978952
 20
960.8896570757075
 30
0.0
 11
418.9914737978951
 21
960.8896570757075
 31
0.0
  0
LINE
  5
3D8
102
{ACAD_REACTORS
330
58E
102
}
330
1F
100
AcDbEntity
  8
実線
100
AcDbLine
 10
384.0414737978952
 20
960.8896570757075
 30
0.0
 11
386.4914737978953
 21
960.8896570757075
 31
0.0
  0
CIRCLE
  5
3D9
102
{ACAD_REACTORS
330
53C
102
}
330
1F
100
AcDbEntity
  8
実線
100
AcDbCircle
 10
813.4414737978945
 20
758.1896570757066
 30
0.0
 40
1.5
  0
LINE
  5
3DA
102
{ACAD_REACTORS
330
53C
102
}
330
1F
100
AcDbEntity
  8
実線
100
AcDbLine
 10
817.3914737978945
 20
754.2396570757066
 30
0.0
 11
809.4914737978944
 21
754.2396570757066
 31
0.0
  0
LINE
  5
3DB
102
{ACAD_REACTORS
330
53C
102
}
330
1F
100
AcDbEntity
  8
実線
100
AcDbLine
 10
817.3914737978945
 20
762.1396570757069
 30
0.0
 11
817.3914737978945
 21
754.2396570757066
 31
0.0
  0
LINE
  5
3DC
102
{ACAD_REACTORS
330
53C
102
}
330
1F
100
AcDbEntity
  8
実線
100
AcDbLine
 10
809.4914737978944
 20
762.1396570757069
 30
0.0
 11
817.3914737978945
 21
762.1396570757069
 31
0.0
  0
LINE
  5
3DD
102
{ACAD_REACTORS
330
53C
102
}
330
1F
100
AcDbEntity
  8
実線
100
AcDbLine
 10
817.3914737978945
 20
739.6396570757069
 30
0.0
 11
817.3914737978945
 21
731.7396570757066
 31
0.0
  0
LINE
  5
3DE
102
{ACAD_REACTORS
330
53C
102
}
330
1F
100
AcDbEntity
  8
実線
100
AcDbLine
 10
809.4914737978944
 20
739.6396570757069
 30
0.0
 11
817.3914737978945
 21
739.6396570757069
 31
0.0
  0
LINE
  5
3DF
102
{ACAD_REACTORS
330
53C
102
}
330
1F
100
AcDbEntity
  8
実線
100
AcDbLine
 10
817.3914737978945
 20
731.7396570757066
 30
0.0
 11
809.4914737978944
 21
731.7396570757066
 31
0.0
  0
CIRCLE
  5
3E0
102
{ACAD_REACTORS
330
53C
102
}
330
1F
100
AcDbEntity
  8
実線
100
AcDbCircle
 10
813.4414737978945
 20
735.6896570757067
 30
0.0
 40
1.5
  0
LINE
  5
3E1
102
{ACAD_REACTORS
330
53C
102
}
330
1F
100
AcDbEntity
  8
実線
100
AcDbLine
 10
783.4914737978944
 20
674.6896570757065
 30
0.0
 11
783.4914737978944
 21
765.6896570757064
 31
0.0
  0
LINE
  5
3E2
102
{ACAD_REACTORS
330
53C
102
}
330
1F
100
AcDbEntity
  8
実線
100
AcDbLine
 10
809.4914737978944
 20
765.6896570757064
 30
0.0
 11
783.4914737978944
 21
765.6896570757064
 31
0.0
  0
LINE
  5
3E3
102
{ACAD_REACTORS
330
53C
102
}
330
1F
100
AcDbEntity
  8
実線
100
AcDbLine
 10
809.4914737978944
 20
674.6896570757065
 30
0.0
 11
809.4914737978944
 21
765.6896570757064
 31
0.0
  0
LINE
  5
3E4
102
{ACAD_REACTORS
330
53C
102
}
330
1F
100
AcDbEntity
  8
実線
100
AcDbLine
 10
817.9914737978945
 20
759.1896570757064
 30
0.0
 11
857.9914737978945
 21
759.1896570757064
 31
0.0
  0
LINE
  5
3E5
102
{ACAD_REACTORS
330
53C
102
}
330
1F
100
AcDbEntity
  8
実線
100
AcDbLine
 10
857.9914737978945
 20
749.1896570757064
 30
0.0
 11
857.9914737978945
 21
759.1896570757064
 31
0.0
  0
LINE
  5
3E6
102
{ACAD_REACTORS
330
53C
102
}
330
1F
100
AcDbEntity
  8
実線
100
AcDbLine
 10
817.9914737978945
 20
759.1896570757064
 30
0.0
 11
817.9914737978945
 21
749.1896570757064
 31
0.0
  0
LINE
  5
3E7
102
{ACAD_REACTORS
330
53C
102
}
330
1F
100
AcDbEntity
  8
実線
100
AcDbLine
 10
817.9914737978945
 20
749.1896570757064
 30
0.0
 11
857.9914737978945
 21
749.1896570757064
 31
0.0
  0
LINE
  5
3E8
102
{ACAD_REACTORS
330
53C
102
}
330
1F
100
AcDbEntity
  8
実線
100
AcDbLine
 10
850.9914737978945
 20
742.1896570757064
 30
0.0
 11
850.9914737978945
 21
749.1896570757064
 31
0.0
  0
LINE
  5
3E9
102
{ACAD_REACTORS
330
53C
102
}
330
1F
100
AcDbEntity
  8
実線
100
AcDbLine
 10
824.9914737978945
 20
749.1896570757064
 30
0.0
 11
824.9914737978945
 21
742.1896570757064
 31
0.0
  0
LINE
  5
3EA
102
{ACAD_REACTORS
330
53C
102
}
330
1F
100
AcDbEntity
  8
実線
100
AcDbLine
 10
824.9914737978945
 20
742.1896570757064
 30
0.0
 11
850.9914737978945
 21
742.1896570757064
 31
0.0
  0
LINE
  5
3EB
102
{ACAD_REACTORS
330
53C
102
}
330
1F
100
AcDbEntity
  8
実線
100
AcDbLine
 10
847.9914737978944
 20
719.6896570757064
 30
0.0
 11
847.9914737978944
 21
742.1896570757064
 31
0.0
  0
LINE
  5
3EC
102
{ACAD_REACTORS
330
53C
102
}
330
1F
100
AcDbEntity
  8
実線
100
AcDbLine
 10
827.9914737978959
 20
742.1896570757064
 30
0.0
 11
827.9914737978959
 21
719.6896570757067
 31
0.0
  0
LINE
  5
3ED
102
{ACAD_REACTORS
330
53C
102
}
330
1F
100
AcDbEntity
  8
実線
100
AcDbLine
 10
820.6914737978944
 20
719.6896570757064
 30
0.0
 11
855.2914737978944
 21
719.6896570757064
 31
0.0
  0
LINE
  5
3EE
102
{ACAD_REACTORS
330
53C
102
}
330
1F
100
AcDbEntity
  8
実線
100
AcDbLine
 10
855.2914737978944
 20
707.6896570757064
 30
0.0
 11
855.2914737978944
 21
719.6896570757064
 31
0.0
  0
LINE
  5
3EF
102
{ACAD_REACTORS
330
53C
102
}
330
1F
100
AcDbEntity
  8
実線
100
AcDbLine
 10
820.6914737978944
 20
719.6896570757064
 30
0.0
 11
820.6914737978944
 21
707.6896570757064
 31
0.0
  0
LINE
  5
3F0
102
{ACAD_REACTORS
330
53C
102
}
330
1F
100
AcDbEntity
  8
実線
100
AcDbLine
 10
820.6914737978944
 20
707.6896570757064
 30
0.0
 11
855.2914737978944
 21
707.6896570757064
 31
0.0
  0
LINE
  5
3F1
102
{ACAD_REACTORS
330
53C
102
}
330
1F
100
AcDbEntity
  8
実線
100
AcDbLine
 10
855.2914737978944
 20
695.6896570757065
 30
0.0
 11
855.2914737978944
 21
707.6896570757064
 31
0.0
  0
LINE
  5
3F2
102
{ACAD_REACTORS
330
53C
102
}
330
1F
100
AcDbEntity
  8
実線
100
AcDbLine
 10
820.6914737978944
 20
707.6896570757064
 30
0.0
 11
820.6914737978944
 21
695.6896570757065
 31
0.0
  0
LINE
  5
3F3
102
{ACAD_REACTORS
330
53C
102
}
330
1F
100
AcDbEntity
  8
実線
100
AcDbLine
 10
817.9914737978945
 20
695.6896570757065
 30
0.0
 11
857.9914737978945
 21
695.6896570757065
 31
0.0
  0
LINE
  5
3F4
102
{ACAD_REACTORS
330
53C
102
}
330
1F
100
AcDbEntity
  8
実線
100
AcDbLine
 10
857.9914737978945
 20
674.6896570757065
 30
0.0
 11
857.9914737978945
 21
695.6896570757065
 31
0.0
  0
LINE
  5
3F5
102
{ACAD_REACTORS
330
53C
102
}
330
1F
100
AcDbEntity
  8
実線
100
AcDbLine
 10
817.9914737978945
 20
695.6896570757065
 30
0.0
 11
817.9914737978945
 21
674.6896570757065
 31
0.0
  0
LINE
  5
3F6
102
{ACAD_REACTORS
330
53C
102
}
330
1F
100
AcDbEntity
  8
実線
100
AcDbLine
 10
909.9914737978959
 20
597.6896570757064
 30
0.0
 11
909.9914737978959
 21
669.6896570757064
 31
0.0
  0
LINE
  5
3F7
102
{ACAD_REACTORS
330
53C
102
}
330
1F
100
AcDbEntity
  8
実線
100
AcDbLine
 10
765.9914737978945
 20
669.6896570757067
 30
0.0
 11
765.9914737978945
 21
597.6896570757067
 31
0.0
  0
LINE
  5
3F8
102
{ACAD_REACTORS
330
53C
102
}
330
1F
100
AcDbEntity
  8
実線
100
AcDbLine
 10
765.9914737978945
 20
597.6896570757064
 30
0.0
 11
909.9914737978959
 21
597.6896570757064
 31
0.0
  0
LINE
  5
3F9
102
{ACAD_REACTORS
330
53C
102
}
330
1F
100
AcDbEntity
  8
実線
100
AcDbLine
 10
909.9914737978959
 20
588.6896570757066
 30
0.0
 11
909.9914737978959
 21
597.6896570757067
 31
0.0
  0
LINE
  5
3FA
102
{ACAD_REACTORS
330
53C
102
}
330
1F
100
AcDbEntity
  8
実線
100
AcDbLine
 10
765.9914737978945
 20
597.6896570757064
 30
0.0
 11
765.9914737978945
 21
588.6896570757064
 31
0.0
  0
LINE
  5
3FB
102
{ACAD_REACTORS
330
53C
102
}
330
1F
100
AcDbEntity
  8
実線
100
AcDbLine
 10
765.9914737978945
 20
588.6896570757066
 30
0.0
 11
909.9914737978959
 21
588.6896570757066
 31
0.0
  0
LINE
  5
3FC
102
{ACAD_REACTORS
330
53C
102
}
330
1F
100
AcDbEntity
  8
実線
100
AcDbLine
 10
761.2914737978944
 20
308.4896570757066
 30
0.0
 11
796.2042372114017
 21
308.4896570757066
 31
0.0
  0
LINE
  5
3FD
102
{ACAD_REACTORS
330
53C
102
}
330
1F
100
AcDbEntity
  8
実線
100
AcDbLine
 10
781.4883082058386
 20
359.2896570757066
 30
0.0
 11
761.2914737978944
 21
359.2896570757066
 31
0.0
  0
LINE
  5
3FE
102
{ACAD_REACTORS
330
53C
102
}
330
1F
100
AcDbEntity
  8
実線
100
AcDbLine
 10
761.2914737978944
 20
359.2896570757066
 30
0.0
 11
761.2914737978944
 21
308.4896570757066
 31
0.0
  0
LINE
  5
3FF
102
{ACAD_REACTORS
330
53C
102
}
330
1F
100
AcDbEntity
  8
実線
100
AcDbLine
 10
761.2914737978944
 20
359.2896570757066
 30
0.0
 11
758.8914737978946
 21
365.8896570757065
 31
0.0
  0
LINE
  5
400
102
{ACAD_REACTORS
330
53C
102
}
330
1F
100
AcDbEntity
  8
実線
100
AcDbLine
 10
758.8914737978946
 20
301.8896570757066
 30
0.0
 11
761.2914737978944
 21
308.4896570757066
 31
0.0
  0
LINE
  5
401
102
{ACAD_REACTORS
330
53C
102
}
330
1F
100
AcDbEntity
  8
実線
100
AcDbLine
 10
755.9914737978945
 20
365.8896570757067
 30
0.0
 11
755.9914737978945
 21
301.8896570757066
 31
0.0
  0
LINE
  5
402
102
{ACAD_REACTORS
330
53C
102
}
330
1F
100
AcDbEntity
  8
実線
100
AcDbLine
 10
758.8914737978946
 20
365.8896570757067
 30
0.0
 11
758.8914737978946
 21
301.8896570757066
 31
0.0
  0
LINE
  5
403
102
{ACAD_REACTORS
330
53C
102
}
330
1F
100
AcDbEntity
  8
実線
100
AcDbLine
 10
755.9914737978945
 20
301.8896570757066
 30
0.0
 11
758.8914737978946
 21
301.8896570757066
 31
0.0
  0
LINE
  5
404
102
{ACAD_REACTORS
330
53C
102
}
330
1F
100
AcDbEntity
  8
実線
100
AcDbLine
 10
758.8914737978946
 20
365.8896570757067
 30
0.0
 11
755.9914737978945
 21
365.8896570757067
 31
0.0
  0
LINE
  5
405
102
{ACAD_REACTORS
330
53C
102
}
330
1F
100
AcDbEntity
  8
実線
100
AcDbLine
 10
914.6914737978946
 20
359.2896570757066
 30
0.0
 11
894.4946393899508
 21
359.2896570757066
 31
0.0
  0
LINE
  5
406
102
{ACAD_REACTORS
330
53C
102
}
330
1F
100
AcDbEntity
  8
実線
100
AcDbLine
 10
879.7787103843885
 20
308.4896570757066
 30
0.0
 11
914.6914737978946
 21
308.4896570757066
 31
0.0
  0
LINE
  5
407
102
{ACAD_REACTORS
330
53C
102
}
330
1F
100
AcDbEntity
  8
実線
100
AcDbLine
 10
919.9914737978945
 20
365.8896570757067
 30
0.0
 11
917.0914737978947
 21
365.8896570757067
 31
0.0
  0
LINE
  5
408
102
{ACAD_REACTORS
330
53C
102
}
330
1F
100
AcDbEntity
  8
実線
100
AcDbLine
 10
917.0914737978947
 20
301.8896570757066
 30
0.0
 11
919.9914737978945
 21
301.8896570757066
 31
0.0
  0
LINE
  5
409
102
{ACAD_REACTORS
330
53C
102
}
330
1F
100
AcDbEntity
  8
実線
100
AcDbLine
 10
919.9914737978945
 20
365.8896570757067
 30
0.0
 11
919.9914737978945
 21
301.8896570757066
 31
0.0
  0
LINE
  5
40A
102
{ACAD_REACTORS
330
53C
102
}
330
1F
100
AcDbEntity
  8
実線
100
AcDbLine
 10
914.6914737978946
 20
308.4896570757066
 30
0.0
 11
917.0914737978947
 21
301.8896570757066
 31
0.0
  0
LINE
  5
40B
102
{ACAD_REACTORS
330
53C
102
}
330
1F
100
AcDbEntity
  8
実線
100
AcDbLine
 10
917.0914737978947
 20
365.8896570757067
 30
0.0
 11
914.6914737978946
 21
359.2896570757066
 31
0.0
  0
LINE
  5
40C
102
{ACAD_REACTORS
330
53C
102
}
330
1F
100
AcDbEntity
  8
実線
100
AcDbLine
 10
917.0914737978947
 20
301.8896570757066
 30
0.0
 11
917.0914737978947
 21
365.8896570757067
 31
0.0
  0
LINE
  5
40D
102
{ACAD_REACTORS
330
53C
102
}
330
1F
100
AcDbEntity
  8
実線
100
AcDbLine
 10
914.6914737978946
 20
308.4896570757066
 30
0.0
 11
914.6914737978946
 21
359.2896570757066
 31
0.0
  0
LINE
  5
40E
102
{ACAD_REACTORS
330
53C
102
}
330
1F
100
AcDbEntity
  8
実線
100
AcDbLine
 10
863.3914737978946
 20
296.1896570757066
 30
0.0
 11
863.3914737978946
 21
305.3896570757065
 31
0.0
  0
LINE
  5
40F
102
{ACAD_REACTORS
330
53C
102
}
330
1F
100
AcDbEntity
  8
実線
100
AcDbLine
 10
812.5914737978947
 20
305.3896570757065
 30
0.0
 11
812.5914737978947
 21
296.1896570757066
 31
0.0
  0
LINE
  5
410
102
{ACAD_REACTORS
330
53C
102
}
330
1F
100
AcDbEntity
  8
実線
100
AcDbLine
 10
869.9914737978945
 20
290.8896570757066
 30
0.0
 11
869.9914737978945
 21
293.7896570757067
 31
0.0
  0
LINE
  5
411
102
{ACAD_REACTORS
330
53C
102
}
330
1F
100
AcDbEntity
  8
実線
100
AcDbLine
 10
805.9914737978944
 20
293.7896570757067
 30
0.0
 11
805.9914737978944
 21
290.8896570757066
 31
0.0
  0
LINE
  5
412
102
{ACAD_REACTORS
330
53C
102
}
330
1F
100
AcDbEntity
  8
実線
100
AcDbLine
 10
869.9914737978945
 20
290.8896570757066
 30
0.0
 11
805.9914737978944
 21
290.8896570757066
 31
0.0
  0
LINE
  5
413
102
{ACAD_REACTORS
330
53C
102
}
330
1F
100
AcDbEntity
  8
実線
100
AcDbLine
 10
812.5914737978947
 20
296.1896570757066
 30
0.0
 11
805.9914737978944
 21
293.7896570757067
 31
0.0
  0
LINE
  5
414
102
{ACAD_REACTORS
330
53C
102
}
330
1F
100
AcDbEntity
  8
実線
100
AcDbLine
 10
869.9914737978945
 20
293.7896570757067
 30
0.0
 11
863.3914737978946
 21
296.1896570757066
 31
0.0
  0
LINE
  5
415
102
{ACAD_REACTORS
330
53C
102
}
330
1F
100
AcDbEntity
  8
実線
100
AcDbLine
 10
805.9914737978944
 20
293.7896570757067
 30
0.0
 11
869.9914737978945
 21
293.7896570757067
 31
0.0
  0
LINE
  5
416
102
{ACAD_REACTORS
330
53C
102
}
330
1F
100
AcDbEntity
  8
実線
100
AcDbLine
 10
812.5914737978947
 20
296.1896570757066
 30
0.0
 11
863.3914737978946
 21
296.1896570757066
 31
0.0
  0
LINE
  5
417
102
{ACAD_REACTORS
330
53C
102
}
330
1F
100
AcDbEntity
  8
実線
100
AcDbLine
 10
886.9914737978945
 20
388.8896570757065
 30
0.0
 11
886.9914737978945
 21
588.6896570757066
 31
0.0
  0
LINE
  5
418
102
{ACAD_REACTORS
330
53C
102
}
330
1F
100
AcDbEntity
  8
実線
100
AcDbLine
 10
788.9914737978945
 20
588.6896570757066
 30
0.0
 11
788.9914737978945
 21
388.8896570757065
 31
0.0
  0
LINE
  5
419
102
{ACAD_REACTORS
330
53C
102
}
330
1F
100
AcDbEntity
  8
実線
100
AcDbLine
 10
788.9914737978945
 20
388.8896570757065
 30
0.0
 11
886.9914737978945
 21
388.8896570757065
 31
0.0
  0
LINE
  5
41A
102
{ACAD_REACTORS
330
53C
102
}
330
1F
100
AcDbEntity
  8
実線
100
AcDbLine
 10
770.9914737978944
 20
674.6896570757065
 30
0.0
 11
904.9914737978935
 21
674.6896570757065
 31
0.0
  0
LINE
  5
41B
102
{ACAD_REACTORS
330
53C
102
}
330
1F
100
AcDbEntity
  8
実線
100
AcDbLine
 10
765.9914737978945
 20
669.6896570757064
 30
0.0
 11
909.9914737978959
 21
669.6896570757064
 31
0.0
  0
ARC
  5
41C
102
{ACAD_REACTORS
330
53C
102
}
330
1F
100
AcDbEntity
  8
実線
100
AcDbCircle
 10
904.9914737978944
 20
669.6896570757064
 30
0.0
 40
5.0
100
AcDbArc
 50
0.0
 51
90.0
  0
ARC
  5
41D
102
{ACAD_REACTORS
330
53C
102
}
330
1F
100
AcDbEntity
  8
実線
100
AcDbCircle
 10
770.9914737978944
 20
669.6896570757064
 30
0.0
 40
5.0
100
AcDbArc
 50
90.0
 51
180.0
  0
LINE
  5
41E
102
{ACAD_REACTORS
330
53C
102
}
330
1F
100
AcDbEntity
  8
実線
100
AcDbLine
 10
788.9914737978945
 20
388.8896570757065
 30
0.0
 11
788.9914737978945
 21
383.8896570757068
 31
0.0
  0
LINE
  5
41F
102
{ACAD_REACTORS
330
53C
102
}
330
1F
100
AcDbEntity
  8
実線
100
AcDbLine
 10
886.9914737978945
 20
383.8896570757068
 30
0.0
 11
886.9914737978945
 21
388.8896570757065
 31
0.0
  0
LINE
  5
420
102
{ACAD_REACTORS
330
53C
102
}
330
1F
100
AcDbEntity
  8
実線
100
AcDbLine
 10
894.4946393899517
 20
383.8896570757068
 30
0.0
 11
860.3697170850377
 21
383.8896570757068
 31
0.0
  0
LINE
  5
421
102
{ACAD_REACTORS
330
53C
102
}
330
1F
100
AcDbEntity
  8
実線
100
AcDbLine
 10
894.4946393899517
 20
368.8896570757068
 30
0.0
 11
894.4946393899517
 21
383.8896570757068
 31
0.0
  0
LINE
  5
422
102
{ACAD_REACTORS
330
53C
102
}
330
1F
100
AcDbEntity
  8
実線
100
AcDbLine
 10
781.4883082058386
 20
383.8896570757068
 30
0.0
 11
781.4883082058386
 21
368.8896570757068
 31
0.0
  0
LINE
  5
423
102
{ACAD_REACTORS
330
53C
102
}
330
1F
100
AcDbEntity
  8
実線
100
AcDbLine
 10
781.4883082058386
 20
383.8896570757068
 30
0.0
 11
815.6132305107517
 21
383.8896570757068
 31
0.0
  0
LINE
  5
424
102
{ACAD_REACTORS
330
53C
102
}
330
1F
100
AcDbEntity
  8
実線
100
AcDbLine
 10
815.6132305107517
 20
383.8896570757068
 30
0.0
 11
815.6132305107517
 21
368.8896570757068
 31
0.0
  0
LINE
  5
425
102
{ACAD_REACTORS
330
53C
102
}
330
1F
100
AcDbEntity
  8
実線
100
AcDbLine
 10
860.3697170850377
 20
383.8896570757068
 30
0.0
 11
860.3697170850377
 21
368.8896570757068
 31
0.0
  0
LINE
  5
426
102
{ACAD_REACTORS
330
53C
102
}
330
1F
100
AcDbEntity
  8
実線
100
AcDbLine
 10
869.9914737978945
 20
305.3896570757065
 30
0.0
 11
805.9914737978944
 21
305.3896570757065
 31
0.0
  0
ARC
  5
427
102
{ACAD_REACTORS
330
53C
102
}
330
1F
100
AcDbEntity
  8
実線
100
AcDbCircle
 10
805.9914737978944
 20
322.3896570757066
 30
0.0
 40
17.0
100
AcDbArc
 50
234.8499442294396
 51
270.0
  0
ARC
  5
428
102
{ACAD_REACTORS
330
53C
102
}
330
1F
100
AcDbEntity
  8
実線
100
AcDbCircle
 10
869.9914737978945
 20
322.3896570757066
 30
0.0
 40
17.0
100
AcDbArc
 50
270.0
 51
305.1500557705604
  0
LINE
  5
429
102
{ACAD_REACTORS
330
53C
102
}
330
1F
100
AcDbEntity
  8
実線
100
AcDbLine
 10
781.4883082058386
 20
368.8896570757068
 30
0.0
 11
894.4946393899508
 21
368.8896570757068
 31
0.0
  0
LINE
  5
42A
102
{ACAD_REACTORS
330
53C
102
}
330
1F
100
AcDbEntity
  8
実線
100
AcDbLine
 10
894.4946393899508
 20
353.8896570757068
 30
0.0
 11
860.3697170850377
 21
353.8896570757068
 31
0.0
  0
LINE
  5
42B
102
{ACAD_REACTORS
330
53C
102
}
330
1F
100
AcDbEntity
  8
実線
100
AcDbLine
 10
894.4946393899508
 20
353.8896570757068
 30
0.0
 11
894.4946393899508
 21
368.8896570757068
 31
0.0
  0
LINE
  5
42C
102
{ACAD_REACTORS
330
53C
102
}
330
1F
100
AcDbEntity
  8
実線
100
AcDbLine
 10
781.4883082058386
 20
368.8896570757068
 30
0.0
 11
781.4883082058386
 21
353.8896570757068
 31
0.0
  0
LINE
  5
42D
102
{ACAD_REACTORS
330
53C
102
}
330
1F
100
AcDbEntity
  8
実線
100
AcDbLine
 10
781.4883082058386
 20
353.8896570757068
 30
0.0
 11
815.6132305107517
 21
353.8896570757068
 31
0.0
  0
LINE
  5
42E
102
{ACAD_REACTORS
330
53C
102
}
330
1F
100
AcDbEntity
  8
実線
100
AcDbLine
 10
815.6132305107517
 20
368.8896570757068
 30
0.0
 11
815.6132305107517
 21
353.8896570757068
 31
0.0
  0
LINE
  5
42F
102
{ACAD_REACTORS
330
53C
102
}
330
1F
100
AcDbEntity
  8
実線
100
AcDbLine
 10
860.3697170850377
 20
368.8896570757068
 30
0.0
 11
860.3697170850377
 21
353.8896570757068
 31
0.0
  0
LINE
  5
430
102
{ACAD_REACTORS
330
53C
102
}
330
1F
100
AcDbEntity
  8
実線
100
AcDbLine
 10
811.9914737978945
 20
674.6896570757065
 30
0.0
 11
811.9914737978945
 21
676.6896570757064
 31
0.0
  0
LINE
  5
431
102
{ACAD_REACTORS
330
53C
102
}
330
1F
100
AcDbEntity
  8
実線
100
AcDbLine
 10
783.4914737978944
 20
676.6896570757064
 30
0.0
 11
776.9914737978945
 21
676.6896570757064
 31
0.0
  0
LINE
  5
432
102
{ACAD_REACTORS
330
53C
102
}
330
1F
100
AcDbEntity
  8
実線
100
AcDbLine
 10
811.9914737978945
 20
676.6896570757064
 30
0.0
 11
809.4914737978944
 21
676.6896570757064
 31
0.0
  0
LINE
  5
433
102
{ACAD_REACTORS
330
53C
102
}
330
1F
100
AcDbEntity
  8
実線
100
AcDbLine
 10
776.9914737978945
 20
674.6896570757065
 30
0.0
 11
776.9914737978945
 21
676.6896570757064
 31
0.0
  0
LINE
  5
434
102
{ACAD_REACTORS
330
53E
102
}
330
1F
100
AcDbEntity
  8
実線
100
AcDbLine
 10
593.4914737978949
 20
719.6896570757067
 30
0.0
 11
593.4914737978949
 21
765.6896570757069
 31
0.0
  0
LINE
  5
435
102
{ACAD_REACTORS
330
53E
102
}
330
1F
100
AcDbEntity
  8
実線
100
AcDbLine
 10
593.4914737978949
 20
719.6896570757067
 30
0.0
 11
624.9914737978949
 21
719.6896570757067
 31
0.0
  0
LINE
  5
436
102
{ACAD_REACTORS
330
53E
102
}
330
1F
100
AcDbEntity
  8
実線
100
AcDbLine
 10
624.9914737978949
 20
765.6896570757069
 30
0.0
 11
593.4914737978949
 21
765.6896570757069
 31
0.0
  0
LINE
  5
437
102
{ACAD_REACTORS
330
53E
102
}
330
1F
100
AcDbEntity
  8
実線
100
AcDbLine
 10
626.9914737978949
 20
674.6896570757065
 30
0.0
 11
626.9914737978949
 21
765.6896570757064
 31
0.0
  0
LINE
  5
438
102
{ACAD_REACTORS
330
53E
102
}
330
1F
100
AcDbEntity
  8
実線
100
AcDbLine
 10
626.9914737978949
 20
765.6896570757064
 30
0.0
 11
624.9914737978949
 21
765.6896570757064
 31
0.0
  0
LINE
  5
439
102
{ACAD_REACTORS
330
53E
102
}
330
1F
100
AcDbEntity
  8
実線
100
AcDbLine
 10
624.9914737978949
 20
676.6896570757064
 30
0.0
 11
624.9914737978949
 21
765.6896570757064
 31
0.0
  0
LINE
  5
43A
102
{ACAD_REACTORS
330
53E
102
}
330
1F
100
AcDbEntity
  8
実線
100
AcDbLine
 10
593.4914737978949
 20
759.1896570757064
 30
0.0
 11
577.9914737978949
 21
759.1896570757064
 31
0.0
  0
LINE
  5
43B
102
{ACAD_REACTORS
330
53E
102
}
330
1F
100
AcDbEntity
  8
実線
100
AcDbLine
 10
577.9914737978949
 20
749.1896570757064
 30
0.0
 11
593.4914737978949
 21
749.1896570757064
 31
0.0
  0
LINE
  5
43C
102
{ACAD_REACTORS
330
53E
102
}
330
1F
100
AcDbEntity
  8
実線
100
AcDbLine
 10
577.9914737978949
 20
759.1896570757064
 30
0.0
 11
577.9914737978949
 21
749.1896570757064
 31
0.0
  0
LINE
  5
43D
102
{ACAD_REACTORS
330
53E
102
}
330
1F
100
AcDbEntity
  8
実線
100
AcDbLine
 10
584.991473797895
 20
742.1896570757064
 30
0.0
 11
593.4914737978949
 21
742.1896570757064
 31
0.0
  0
LINE
  5
43E
102
{ACAD_REACTORS
330
53E
102
}
330
1F
100
AcDbEntity
  8
実線
100
AcDbLine
 10
584.991473797895
 20
749.1896570757064
 30
0.0
 11
584.991473797895
 21
742.1896570757064
 31
0.0
  0
LINE
  5
43F
102
{ACAD_REACTORS
330
53E
102
}
330
1F
100
AcDbEntity
  8
実線
100
AcDbLine
 10
587.9914737978949
 20
742.1896570757064
 30
0.0
 11
587.9914737978949
 21
719.6896570757067
 31
0.0
  0
LINE
  5
440
102
{ACAD_REACTORS
330
53E
102
}
330
1F
100
AcDbEntity
  8
実線
100
AcDbLine
 10
593.4914737978949
 20
719.6896570757064
 30
0.0
 11
580.6914737978949
 21
719.6896570757064
 31
0.0
  0
LINE
  5
441
102
{ACAD_REACTORS
330
53E
102
}
330
1F
100
AcDbEntity
  8
実線
100
AcDbLine
 10
580.6914737978949
 20
707.6896570757064
 30
0.0
 11
615.2914737978949
 21
707.6896570757064
 31
0.0
  0
LINE
  5
442
102
{ACAD_REACTORS
330
53E
102
}
330
1F
100
AcDbEntity
  8
実線
100
AcDbLine
 10
615.2914737978949
 20
707.6896570757064
 30
0.0
 11
615.2914737978949
 21
719.6896570757064
 31
0.0
  0
LINE
  5
443
102
{ACAD_REACTORS
330
53E
102
}
330
1F
100
AcDbEntity
  8
実線
100
AcDbLine
 10
580.6914737978949
 20
719.6896570757064
 30
0.0
 11
580.6914737978949
 21
707.6896570757064
 31
0.0
  0
LINE
  5
444
102
{ACAD_REACTORS
330
53E
102
}
330
1F
100
AcDbEntity
  8
実線
100
AcDbLine
 10
615.2914737978949
 20
695.6896570757065
 30
0.0
 11
615.2914737978949
 21
707.6896570757064
 31
0.0
  0
LINE
  5
445
102
{ACAD_REACTORS
330
53E
102
}
330
1F
100
AcDbEntity
  8
実線
100
AcDbLine
 10
580.6914737978949
 20
707.6896570757064
 30
0.0
 11
580.6914737978949
 21
695.6896570757065
 31
0.0
  0
LINE
  5
446
102
{ACAD_REACTORS
330
53E
102
}
330
1F
100
AcDbEntity
  8
実線
100
AcDbLine
 10
617.991473797895
 20
695.6896570757065
 30
0.0
 11
577.9914737978949
 21
695.6896570757065
 31
0.0
  0
LINE
  5
447
102
{ACAD_REACTORS
330
53E
102
}
330
1F
100
AcDbEntity
  8
実線
100
AcDbLine
 10
617.991473797895
 20
676.6896570757064
 30
0.0
 11
617.991473797895
 21
695.6896570757065
 31
0.0
  0
LINE
  5
448
102
{ACAD_REACTORS
330
53E
102
}
330
1F
100
AcDbEntity
  8
実線
100
AcDbLine
 10
577.9914737978949
 20
695.6896570757065
 30
0.0
 11
577.9914737978949
 21
674.6896570757065
 31
0.0
  0
LINE
  5
449
102
{ACAD_REACTORS
330
53E
102
}
330
1F
100
AcDbEntity
  8
実線
100
AcDbLine
 10
669.9914737978949
 20
597.6896570757064
 30
0.0
 11
669.9914737978949
 21
669.6896570757064
 31
0.0
  0
LINE
  5
44A
102
{ACAD_REACTORS
330
53E
102
}
330
1F
100
AcDbEntity
  8
実線
100
AcDbLine
 10
525.991473797895
 20
669.6896570757067
 30
0.0
 11
525.991473797895
 21
597.6896570757067
 31
0.0
  0
LINE
  5
44B
102
{ACAD_REACTORS
330
53E
102
}
330
1F
100
AcDbEntity
  8
実線
100
AcDbLine
 10
525.991473797895
 20
588.6896570757066
 30
0.0
 11
669.9914737978949
 21
588.6896570757066
 31
0.0
  0
LINE
  5
44C
102
{ACAD_REACTORS
330
53E
102
}
330
1F
100
AcDbEntity
  8
実線
100
AcDbLine
 10
669.9914737978949
 20
597.6896570757064
 30
0.0
 11
525.991473797895
 21
597.6896570757064
 31
0.0
  0
LINE
  5
44D
102
{ACAD_REACTORS
330
53E
102
}
330
1F
100
AcDbEntity
  8
実線
100
AcDbLine
 10
669.9914737978949
 20
588.6896570757066
 30
0.0
 11
669.9914737978949
 21
597.6896570757067
 31
0.0
  0
LINE
  5
44E
102
{ACAD_REACTORS
330
53E
102
}
330
1F
100
AcDbEntity
  8
実線
100
AcDbLine
 10
525.991473797895
 20
597.6896570757064
 30
0.0
 11
525.991473797895
 21
588.6896570757064
 31
0.0
  0
CIRCLE
  5
44F
102
{ACAD_REACTORS
330
53E
102
}
330
1F
100
AcDbEntity
  8
実線
100
AcDbCircle
 10
597.9914737978949
 20
333.8896570757065
 30
0.0
 40
32.0
  0
LINE
  5
450
102
{ACAD_REACTORS
330
53E
102
}
330
1F
100
AcDbEntity
  8
実線
100
AcDbLine
 10
623.391473797895
 20
296.1896570757065
 30
0.0
 11
623.391473797895
 21
305.3896570757065
 31
0.0
  0
LINE
  5
451
102
{ACAD_REACTORS
330
53E
102
}
330
1F
100
AcDbEntity
  8
実線
100
AcDbLine
 10
572.5914737978948
 20
305.3896570757065
 30
0.0
 11
572.5914737978948
 21
296.1896570757065
 31
0.0
  0
LINE
  5
452
102
{ACAD_REACTORS
330
53E
102
}
330
1F
100
AcDbEntity
  8
実線
100
AcDbLine
 10
572.5914737978948
 20
296.1896570757065
 30
0.0
 11
565.9914737978949
 21
293.7896570757065
 31
0.0
  0
LINE
  5
453
102
{ACAD_REACTORS
330
53E
102
}
330
1F
100
AcDbEntity
  8
実線
100
AcDbLine
 10
629.991473797895
 20
293.7896570757065
 30
0.0
 11
623.391473797895
 21
296.1896570757065
 31
0.0
  0
LINE
  5
454
102
{ACAD_REACTORS
330
53E
102
}
330
1F
100
AcDbEntity
  8
実線
100
AcDbLine
 10
572.5914737978948
 20
296.1896570757065
 30
0.0
 11
623.391473797895
 21
296.1896570757065
 31
0.0
  0
LINE
  5
455
102
{ACAD_REACTORS
330
53E
102
}
330
1F
100
AcDbEntity
  8
実線
100
AcDbLine
 10
629.991473797895
 20
290.8896570757065
 30
0.0
 11
629.991473797895
 21
293.7896570757065
 31
0.0
  0
LINE
  5
456
102
{ACAD_REACTORS
330
53E
102
}
330
1F
100
AcDbEntity
  8
実線
100
AcDbLine
 10
565.9914737978949
 20
293.7896570757065
 30
0.0
 11
565.9914737978949
 21
290.8896570757065
 31
0.0
  0
LINE
  5
457
102
{ACAD_REACTORS
330
53E
102
}
330
1F
100
AcDbEntity
  8
実線
100
AcDbLine
 10
565.9914737978949
 20
290.8896570757065
 30
0.0
 11
629.991473797895
 21
290.8896570757065
 31
0.0
  0
LINE
  5
458
102
{ACAD_REACTORS
330
53E
102
}
330
1F
100
AcDbEntity
  8
実線
100
AcDbLine
 10
565.9914737978949
 20
293.7896570757065
 30
0.0
 11
629.991473797895
 21
293.7896570757065
 31
0.0
  0
LINE
  5
459
102
{ACAD_REACTORS
330
53E
102
}
330
1F
100
AcDbEntity
  8
実線
100
AcDbLine
 10
646.991473797895
 20
388.8896570757065
 30
0.0
 11
646.991473797895
 21
588.6896570757066
 31
0.0
  0
LINE
  5
45A
102
{ACAD_REACTORS
330
53E
102
}
330
1F
100
AcDbEntity
  8
実線
100
AcDbLine
 10
548.9914737978949
 20
588.6896570757066
 30
0.0
 11
548.9914737978949
 21
388.8896570757065
 31
0.0
  0
LINE
  5
45B
102
{ACAD_REACTORS
330
53E
102
}
330
1F
100
AcDbEntity
  8
実線
100
AcDbLine
 10
664.9914737978949
 20
674.6896570757065
 30
0.0
 11
530.9914737978949
 21
674.6896570757065
 31
0.0
  0
LINE
  5
45C
102
{ACAD_REACTORS
330
53E
102
}
330
1F
100
AcDbEntity
  8
実線
100
AcDbLine
 10
669.9914737978949
 20
669.6896570757064
 30
0.0
 11
525.991473797895
 21
669.6896570757064
 31
0.0
  0
ARC
  5
45D
102
{ACAD_REACTORS
330
53E
102
}
330
1F
100
AcDbEntity
  8
実線
100
AcDbCircle
 10
664.9914737978949
 20
669.6896570757064
 30
0.0
 40
5.0
100
AcDbArc
 50
0.0
 51
90.0
  0
ARC
  5
45E
102
{ACAD_REACTORS
330
53E
102
}
330
1F
100
AcDbEntity
  8
実線
100
AcDbCircle
 10
530.9914737978949
 20
669.6896570757064
 30
0.0
 40
5.0
100
AcDbArc
 50
90.0
 51
180.0
  0
LINE
  5
45F
102
{ACAD_REACTORS
330
53E
102
}
330
1F
100
AcDbEntity
  8
実線
100
AcDbLine
 10
548.9914737978949
 20
388.8896570757065
 30
0.0
 11
548.9914737978949
 21
383.8896570757065
 31
0.0
  0
LINE
  5
460
102
{ACAD_REACTORS
330
53E
102
}
330
1F
100
AcDbEntity
  8
実線
100
AcDbLine
 10
646.991473797895
 20
383.8896570757065
 30
0.0
 11
646.991473797895
 21
388.8896570757065
 31
0.0
  0
LINE
  5
461
102
{ACAD_REACTORS
330
53E
102
}
330
1F
100
AcDbEntity
  8
実線
100
AcDbLine
 10
646.991473797895
 20
388.8896570757065
 30
0.0
 11
548.9914737978949
 21
388.8896570757065
 31
0.0
  0
LINE
  5
462
102
{ACAD_REACTORS
330
53E
102
}
330
1F
100
AcDbEntity
  8
実線
100
AcDbLine
 10
541.4883082058399
 20
383.8896570757065
 30
0.0
 11
541.4883082058399
 21
368.8896570757065
 31
0.0
  0
LINE
  5
463
102
{ACAD_REACTORS
330
53E
102
}
330
1F
100
AcDbEntity
  8
実線
100
AcDbLine
 10
541.4883082058399
 20
383.8896570757065
 30
0.0
 11
575.6132305107519
 21
383.8896570757065
 31
0.0
  0
LINE
  5
464
102
{ACAD_REACTORS
330
53E
102
}
330
1F
100
AcDbEntity
  8
実線
100
AcDbLine
 10
654.4946393899508
 20
383.8896570757065
 30
0.0
 11
620.3697170850378
 21
383.8896570757065
 31
0.0
  0
LINE
  5
465
102
{ACAD_REACTORS
330
53E
102
}
330
1F
100
AcDbEntity
  8
実線
100
AcDbLine
 10
654.4946393899508
 20
368.8896570757065
 30
0.0
 11
654.4946393899508
 21
383.8896570757065
 31
0.0
  0
LINE
  5
466
102
{ACAD_REACTORS
330
53E
102
}
330
1F
100
AcDbEntity
  8
実線
100
AcDbLine
 10
620.3697170850378
 20
383.8896570757065
 30
0.0
 11
620.3697170850378
 21
368.8896570757065
 31
0.0
  0
LINE
  5
467
102
{ACAD_REACTORS
330
53E
102
}
330
1F
100
AcDbEntity
  8
実線
100
AcDbLine
 10
575.6132305107519
 20
383.8896570757065
 30
0.0
 11
575.6132305107519
 21
368.8896570757065
 31
0.0
  0
LINE
  5
468
102
{ACAD_REACTORS
330
53E
102
}
330
1F
100
AcDbEntity
  8
実線
100
AcDbLine
 10
654.4946393899508
 20
368.8896570757065
 30
0.0
 11
541.4883082058399
 21
368.8896570757065
 31
0.0
  0
LINE
  5
469
102
{ACAD_REACTORS
330
53E
102
}
330
1F
100
AcDbEntity
  8
実線
100
AcDbLine
 10
548.9914737978949
 20
353.8896570757065
 30
0.0
 11
548.9914737978949
 21
322.3896570757065
 31
0.0
  0
LINE
  5
46A
102
{ACAD_REACTORS
330
53E
102
}
330
1F
100
AcDbEntity
  8
実線
100
AcDbLine
 10
646.991473797895
 20
322.3896570757065
 30
0.0
 11
646.991473797895
 21
353.8896570757065
 31
0.0
  0
LINE
  5
46B
102
{ACAD_REACTORS
330
53E
102
}
330
1F
100
AcDbEntity
  8
実線
100
AcDbLine
 10
583.43984158704
 20
305.3896570757065
 30
0.0
 11
565.9914737978949
 21
305.3896570757065
 31
0.0
  0
LINE
  5
46C
102
{ACAD_REACTORS
330
53E
102
}
330
1F
100
AcDbEntity
  8
実線
100
AcDbLine
 10
629.991473797895
 20
305.3896570757065
 30
0.0
 11
612.5431060087509
 21
305.3896570757065
 31
0.0
  0
ARC
  5
46D
102
{ACAD_REACTORS
330
53E
102
}
330
1F
100
AcDbEntity
  8
実線
100
AcDbCircle
 10
565.9914737978949
 20
322.3896570757065
 30
0.0
 40
17.0
100
AcDbArc
 50
180.0
 51
270.0
  0
ARC
  5
46E
102
{ACAD_REACTORS
330
53E
102
}
330
1F
100
AcDbEntity
  8
実線
100
AcDbCircle
 10
629.991473797895
 20
322.3896570757065
 30
0.0
 40
17.0
100
AcDbArc
 50
270.0
 51
0.0
  0
LINE
  5
46F
102
{ACAD_REACTORS
330
53E
102
}
330
1F
100
AcDbEntity
  8
実線
100
AcDbLine
 10
541.4883082058399
 20
368.8896570757065
 30
0.0
 11
541.4883082058399
 21
353.8896570757065
 31
0.0
  0
LINE
  5
470
102
{ACAD_REACTORS
330
53E
102
}
330
1F
100
AcDbEntity
  8
実線
100
AcDbLine
 10
541.4883082058399
 20
353.8896570757065
 30
0.0
 11
573.0114818043018
 21
353.8896570757065
 31
0.0
  0
LINE
  5
471
102
{ACAD_REACTORS
330
53E
102
}
330
1F
100
AcDbEntity
  8
実線
100
AcDbLine
 10
654.4946393899508
 20
353.8896570757065
 30
0.0
 11
622.971465791489
 21
353.8896570757065
 31
0.0
  0
LINE
  5
472
102
{ACAD_REACTORS
330
53E
102
}
330
1F
100
AcDbEntity
  8
実線
100
AcDbLine
 10
654.4946393899508
 20
353.8896570757065
 30
0.0
 11
654.4946393899508
 21
368.8896570757065
 31
0.0
  0
LINE
  5
473
102
{ACAD_REACTORS
330
53E
102
}
330
1F
100
AcDbEntity
  8
実線
100
AcDbLine
 10
620.3697170850378
 20
368.8896570757065
 30
0.0
 11
620.3697170850378
 21
356.7635336029032
 31
0.0
  0
LINE
  5
474
102
{ACAD_REACTORS
330
53E
102
}
330
1F
100
AcDbEntity
  8
実線
100
AcDbLine
 10
575.6132305107519
 20
368.8896570757065
 30
0.0
 11
575.6132305107519
 21
356.763533602903
 31
0.0
  0
LINE
  5
475
102
{ACAD_REACTORS
330
53E
102
}
330
1F
100
AcDbEntity
  8
実線
100
AcDbLine
 10
607.9914737978949
 20
674.6896570757065
 30
0.0
 11
607.9914737978949
 21
676.6896570757064
 31
0.0
  0
LINE
  5
476
102
{ACAD_REACTORS
330
53E
102
}
330
1F
100
AcDbEntity
  8
実線
100
AcDbLine
 10
624.9914737978949
 20
674.6896570757065
 30
0.0
 11
624.9914737978949
 21
676.6896570757064
 31
0.0
  0
LINE
  5
477
102
{ACAD_REACTORS
330
53E
102
}
330
1F
100
AcDbEntity
  8
実線
100
AcDbLine
 10
624.9914737978949
 20
676.6896570757064
 30
0.0
 11
607.9914737978949
 21
676.6896570757064
 31
0.0
  0
LINE
  5
478
102
{ACAD_REACTORS
330
541
102
}
330
1F
100
AcDbEntity
  8
実線
100
AcDbLine
 10
97.49147379789514
 20
759.6896570757064
 30
0.0
 11
90.99147379789513
 21
759.6896570757064
 31
0.0
  0
LINE
  5
479
102
{ACAD_REACTORS
330
541
102
}
330
1F
100
AcDbEntity
  8
実線
100
AcDbLine
 10
90.99147379789519
 20
756.6896570757067
 30
0.0
 11
97.49147379789519
 21
756.6896570757067
 31
0.0
  0
LINE
  5
47A
102
{ACAD_REACTORS
330
541
102
}
330
1F
100
AcDbEntity
  8
実線
100
AcDbLine
 10
90.99147379789519
 20
759.6896570757064
 30
0.0
 11
90.99147379789519
 21
756.6896570757067
 31
0.0
  0
LINE
  5
47B
102
{ACAD_REACTORS
330
541
102
}
330
1F
100
AcDbEntity
  8
実線
100
AcDbLine
 10
122.4914737978952
 20
762.1396570757067
 30
0.0
 11
97.49147379789519
 21
762.1396570757067
 31
0.0
  0
LINE
  5
47C
102
{ACAD_REACTORS
330
541
102
}
330
1F
100
AcDbEntity
  8
実線
100
AcDbLine
 10
97.99147379789509
 20
754.2396570757063
 30
0.0
 11
97.49147379789519
 21
754.2396570757063
 31
0.0
  0
LINE
  5
47D
102
{ACAD_REACTORS
330
541
102
}
330
1F
100
AcDbEntity
  8
実線
100
AcDbLine
 10
97.49147379789519
 20
762.1396570757067
 30
0.0
 11
97.49147379789519
 21
754.2396570757063
 31
0.0
  0
LINE
  5
47E
102
{ACAD_REACTORS
330
541
102
}
330
1F
100
AcDbEntity
  8
実線
100
AcDbLine
 10
122.4914737978952
 20
759.1896570757062
 30
0.0
 11
122.4914737978952
 21
762.1396570757067
 31
0.0
  0
LINE
  5
47F
102
{ACAD_REACTORS
330
541
102
}
330
1F
100
AcDbEntity
  8
実線
100
AcDbLine
 10
107.9914737978951
 20
731.7396570757064
 30
0.0
 11
97.49147379789519
 21
731.7396570757064
 31
0.0
  0
LINE
  5
480
102
{ACAD_REACTORS
330
541
102
}
330
1F
100
AcDbEntity
  8
実線
100
AcDbLine
 10
107.9914737978951
 20
739.6396570757067
 30
0.0
 11
97.49147379789519
 21
739.6396570757067
 31
0.0
  0
LINE
  5
481
102
{ACAD_REACTORS
330
541
102
}
330
1F
100
AcDbEntity
  8
実線
100
AcDbLine
 10
97.49147379789519
 20
739.6396570757067
 30
0.0
 11
97.49147379789519
 21
731.7396570757064
 31
0.0
  0
LINE
  5
482
102
{ACAD_REACTORS
330
541
102
}
330
1F
100
AcDbEntity
  8
実線
100
AcDbLine
 10
97.49147379789514
 20
737.1896570757066
 30
0.0
 11
90.99147379789513
 21
737.1896570757066
 31
0.0
  0
LINE
  5
483
102
{ACAD_REACTORS
330
541
102
}
330
1F
100
AcDbEntity
  8
実線
100
AcDbLine
 10
90.99147379789519
 20
734.1896570757065
 30
0.0
 11
97.49147379789519
 21
734.1896570757065
 31
0.0
  0
LINE
  5
484
102
{ACAD_REACTORS
330
541
102
}
330
1F
100
AcDbEntity
  8
実線
100
AcDbLine
 10
90.99147379789519
 20
737.1896570757066
 30
0.0
 11
90.99147379789519
 21
734.1896570757065
 31
0.0
  0
LINE
  5
485
102
{ACAD_REACTORS
330
541
102
}
330
1F
100
AcDbEntity
  8
実線
100
AcDbLine
 10
122.4914737978951
 20
762.1396570757067
 30
0.0
 11
122.4914737978951
 21
765.6896570757067
 31
0.0
  0
LINE
  5
486
102
{ACAD_REACTORS
330
541
102
}
330
1F
100
AcDbEntity
  8
実線
100
AcDbLine
 10
90.99147379789508
 20
719.6896570757064
 30
0.0
 11
100.691473797895
 21
719.6896570757064
 31
0.0
  0
LINE
  5
487
102
{ACAD_REACTORS
330
541
102
}
330
1F
100
AcDbEntity
  8
実線
100
AcDbLine
 10
122.4914737978951
 20
765.6896570757067
 30
0.0
 11
90.99147379789508
 21
765.6896570757067
 31
0.0
  0
LINE
  5
488
102
{ACAD_REACTORS
330
541
102
}
330
1F
100
AcDbEntity
  8
実線
100
AcDbLine
 10
90.99147379789513
 20
759.6896570757064
 30
0.0
 11
90.99147379789513
 21
765.6896570757067
 31
0.0
  0
LINE
  5
489
102
{ACAD_REACTORS
330
541
102
}
330
1F
100
AcDbEntity
  8
実線
100
AcDbLine
 10
88.99147379789514
 20
674.6896570757062
 30
0.0
 11
88.99147379789514
 21
765.6896570757062
 31
0.0
  0
LINE
  5
48A
102
{ACAD_REACTORS
330
541
102
}
330
1F
100
AcDbEntity
  8
実線
100
AcDbLine
 10
90.99147379789513
 20
737.1896570757066
 30
0.0
 11
90.99147379789513
 21
756.6896570757067
 31
0.0
  0
LINE
  5
48B
102
{ACAD_REACTORS
330
541
102
}
330
1F
100
AcDbEntity
  8
実線
100
AcDbLine
 10
90.99147379789513
 20
734.1896570757062
 30
0.0
 11
90.99147379789513
 21
676.6896570757062
 31
0.0
  0
LINE
  5
48C
102
{ACAD_REACTORS
330
541
102
}
330
1F
100
AcDbEntity
  8
実線
100
AcDbLine
 10
90.99147379789513
 20
765.6896570757062
 30
0.0
 11
88.99147379789514
 21
765.6896570757062
 31
0.0
  0
LINE
  5
48D
102
{ACAD_REACTORS
330
541
102
}
330
1F
100
AcDbEntity
  8
実線
100
AcDbLine
 10
137.9914737978951
 20
749.1896570757062
 30
0.0
 11
137.9914737978951
 21
759.1896570757062
 31
0.0
  0
LINE
  5
48E
102
{ACAD_REACTORS
330
541
102
}
330
1F
100
AcDbEntity
  8
実線
100
AcDbLine
 10
97.99147379789509
 20
759.1896570757062
 30
0.0
 11
97.99147379789509
 21
749.1896570757062
 31
0.0
  0
LINE
  5
48F
102
{ACAD_REACTORS
330
541
102
}
330
1F
100
AcDbEntity
  8
実線
100
AcDbLine
 10
137.9914737978951
 20
759.1896570757062
 30
0.0
 11
97.99147379789509
 21
759.1896570757062
 31
0.0
  0
LINE
  5
490
102
{ACAD_REACTORS
330
541
102
}
330
1F
100
AcDbEntity
  8
実線
100
AcDbLine
 10
97.99147379789509
 20
749.1896570757062
 30
0.0
 11
137.9914737978951
 21
749.1896570757062
 31
0.0
  0
LINE
  5
491
102
{ACAD_REACTORS
330
541
102
}
330
1F
100
AcDbEntity
  8
実線
100
AcDbLine
 10
130.9914737978951
 20
742.1896570757062
 30
0.0
 11
130.9914737978951
 21
749.1896570757062
 31
0.0
  0
LINE
  5
492
102
{ACAD_REACTORS
330
541
102
}
330
1F
100
AcDbEntity
  8
実線
100
AcDbLine
 10
104.9914737978951
 20
749.1896570757062
 30
0.0
 11
104.9914737978951
 21
742.1896570757062
 31
0.0
  0
LINE
  5
493
102
{ACAD_REACTORS
330
541
102
}
330
1F
100
AcDbEntity
  8
実線
100
AcDbLine
 10
104.9914737978951
 20
742.1896570757062
 30
0.0
 11
130.9914737978951
 21
742.1896570757062
 31
0.0
  0
LINE
  5
494
102
{ACAD_REACTORS
330
541
102
}
330
1F
100
AcDbEntity
  8
実線
100
AcDbLine
 10
127.9914737978951
 20
719.6896570757062
 30
0.0
 11
127.9914737978951
 21
742.1896570757062
 31
0.0
  0
LINE
  5
495
102
{ACAD_REACTORS
330
541
102
}
330
1F
100
AcDbEntity
  8
実線
100
AcDbLine
 10
107.9914737978951
 20
742.1896570757062
 30
0.0
 11
107.9914737978951
 21
719.6896570757064
 31
0.0
  0
LINE
  5
496
102
{ACAD_REACTORS
330
541
102
}
330
1F
100
AcDbEntity
  8
実線
100
AcDbLine
 10
135.2914737978951
 20
707.6896570757062
 30
0.0
 11
135.2914737978951
 21
719.6896570757062
 31
0.0
  0
LINE
  5
497
102
{ACAD_REACTORS
330
541
102
}
330
1F
100
AcDbEntity
  8
実線
100
AcDbLine
 10
100.691473797895
 20
719.6896570757062
 30
0.0
 11
100.691473797895
 21
707.6896570757062
 31
0.0
  0
LINE
  5
498
102
{ACAD_REACTORS
330
541
102
}
330
1F
100
AcDbEntity
  8
実線
100
AcDbLine
 10
135.2914737978951
 20
719.6896570757062
 30
0.0
 11
100.691473797895
 21
719.6896570757062
 31
0.0
  0
LINE
  5
499
102
{ACAD_REACTORS
330
541
102
}
330
1F
100
AcDbEntity
  8
実線
100
AcDbLine
 10
100.691473797895
 20
707.6896570757062
 30
0.0
 11
135.2914737978951
 21
707.6896570757062
 31
0.0
  0
LINE
  5
49A
102
{ACAD_REACTORS
330
541
102
}
330
1F
100
AcDbEntity
  8
実線
100
AcDbLine
 10
135.2914737978951
 20
695.6896570757062
 30
0.0
 11
135.2914737978951
 21
707.6896570757062
 31
0.0
  0
LINE
  5
49B
102
{ACAD_REACTORS
330
541
102
}
330
1F
100
AcDbEntity
  8
実線
100
AcDbLine
 10
100.691473797895
 20
707.6896570757062
 30
0.0
 11
100.691473797895
 21
695.6896570757062
 31
0.0
  0
LINE
  5
49C
102
{ACAD_REACTORS
330
541
102
}
330
1F
100
AcDbEntity
  8
実線
100
AcDbLine
 10
137.9914737978951
 20
674.6896570757062
 30
0.0
 11
137.9914737978951
 21
695.6896570757062
 31
0.0
  0
LINE
  5
49D
102
{ACAD_REACTORS
330
541
102
}
330
1F
100
AcDbEntity
  8
実線
100
AcDbLine
 10
97.99147379789509
 20
695.6896570757062
 30
0.0
 11
97.99147379789509
 21
674.6896570757062
 31
0.0
  0
LINE
  5
49E
102
{ACAD_REACTORS
330
541
102
}
330
1F
100
AcDbEntity
  8
実線
100
AcDbLine
 10
137.9914737978951
 20
695.6896570757062
 30
0.0
 11
97.99147379789509
 21
695.6896570757062
 31
0.0
  0
LINE
  5
49F
102
{ACAD_REACTORS
330
541
102
}
330
1F
100
AcDbEntity
  8
実線
100
AcDbLine
 10
189.9914737978952
 20
597.6896570757062
 30
0.0
 11
189.9914737978952
 21
669.6896570757062
 31
0.0
  0
LINE
  5
4A0
102
{ACAD_REACTORS
330
541
102
}
330
1F
100
AcDbEntity
  8
実線
100
AcDbLine
 10
45.99147379789508
 20
669.6896570757064
 30
0.0
 11
45.99147379789508
 21
597.6896570757064
 31
0.0
  0
LINE
  5
4A1
102
{ACAD_REACTORS
330
541
102
}
330
1F
100
AcDbEntity
  8
実線
100
AcDbLine
 10
189.9914737978952
 20
597.6896570757062
 30
0.0
 11
45.99147379789508
 21
597.6896570757062
 31
0.0
  0
LINE
  5
4A2
102
{ACAD_REACTORS
330
541
102
}
330
1F
100
AcDbEntity
  8
実線
100
AcDbLine
 10
189.9914737978952
 20
588.6896570757064
 30
0.0
 11
189.9914737978952
 21
597.6896570757064
 31
0.0
  0
LINE
  5
4A3
102
{ACAD_REACTORS
330
541
102
}
330
1F
100
AcDbEntity
  8
実線
100
AcDbLine
 10
45.99147379789508
 20
597.6896570757062
 30
0.0
 11
45.99147379789508
 21
588.6896570757062
 31
0.0
  0
LINE
  5
4A4
102
{ACAD_REACTORS
330
541
102
}
330
1F
100
AcDbEntity
  8
実線
100
AcDbLine
 10
189.9914737978952
 20
588.6896570757064
 30
0.0
 11
45.99147379789508
 21
588.6896570757064
 31
0.0
  0
CIRCLE
  5
4A5
102
{ACAD_REACTORS
330
541
102
}
330
1F
100
AcDbEntity
  8
実線
100
AcDbCircle
 10
117.991473797895
 20
333.8896570757063
 30
0.0
 40
32.0
  0
LINE
  5
4A6
102
{ACAD_REACTORS
330
541
102
}
330
1F
100
AcDbEntity
  8
実線
100
AcDbLine
 10
143.3914737978952
 20
296.1896570757064
 30
0.0
 11
143.3914737978952
 21
305.3896570757063
 31
0.0
  0
LINE
  5
4A7
102
{ACAD_REACTORS
330
541
102
}
330
1F
100
AcDbEntity
  8
実線
100
AcDbLine
 10
92.59147379789505
 20
305.3896570757063
 30
0.0
 11
92.59147379789505
 21
296.1896570757064
 31
0.0
  0
LINE
  5
4A8
102
{ACAD_REACTORS
330
541
102
}
330
1F
100
AcDbEntity
  8
実線
100
AcDbLine
 10
143.3914737978952
 20
296.1896570757064
 30
0.0
 11
92.59147379789505
 21
296.1896570757064
 31
0.0
  0
LINE
  5
4A9
102
{ACAD_REACTORS
330
541
102
}
330
1F
100
AcDbEntity
  8
実線
100
AcDbLine
 10
92.59147379789505
 20
296.1896570757064
 30
0.0
 11
85.99147379789513
 21
293.7896570757064
 31
0.0
  0
LINE
  5
4AA
102
{ACAD_REACTORS
330
541
102
}
330
1F
100
AcDbEntity
  8
実線
100
AcDbLine
 10
149.9914737978951
 20
293.7896570757064
 30
0.0
 11
143.3914737978952
 21
296.1896570757064
 31
0.0
  0
LINE
  5
4AB
102
{ACAD_REACTORS
330
541
102
}
330
1F
100
AcDbEntity
  8
実線
100
AcDbLine
 10
149.9914737978951
 20
290.8896570757063
 30
0.0
 11
85.99147379789513
 21
290.8896570757063
 31
0.0
  0
LINE
  5
4AC
102
{ACAD_REACTORS
330
541
102
}
330
1F
100
AcDbEntity
  8
実線
100
AcDbLine
 10
149.9914737978951
 20
293.7896570757064
 30
0.0
 11
85.99147379789513
 21
293.7896570757064
 31
0.0
  0
LINE
  5
4AD
102
{ACAD_REACTORS
330
541
102
}
330
1F
100
AcDbEntity
  8
実線
100
AcDbLine
 10
149.9914737978951
 20
290.8896570757063
 30
0.0
 11
149.9914737978951
 21
293.7896570757064
 31
0.0
  0
LINE
  5
4AE
102
{ACAD_REACTORS
330
541
102
}
330
1F
100
AcDbEntity
  8
実線
100
AcDbLine
 10
85.99147379789513
 20
293.7896570757064
 30
0.0
 11
85.99147379789513
 21
290.8896570757063
 31
0.0
  0
LINE
  5
4AF
102
{ACAD_REACTORS
330
541
102
}
330
1F
100
AcDbEntity
  8
実線
100
AcDbLine
 10
166.9914737978952
 20
388.8896570757063
 30
0.0
 11
166.9914737978952
 21
588.6896570757064
 31
0.0
  0
LINE
  5
4B0
102
{ACAD_REACTORS
330
541
102
}
330
1F
100
AcDbEntity
  8
実線
100
AcDbLine
 10
68.99147379789508
 20
588.6896570757064
 30
0.0
 11
68.99147379789508
 21
388.8896570757063
 31
0.0
  0
LINE
  5
4B1
102
{ACAD_REACTORS
330
541
102
}
330
1F
100
AcDbEntity
  8
実線
100
AcDbLine
 10
50.99147379789508
 20
674.6896570757062
 30
0.0
 11
184.9914737978951
 21
674.6896570757062
 31
0.0
  0
ARC
  5
4B2
102
{ACAD_REACTORS
330
541
102
}
330
1F
100
AcDbEntity
  8
実線
100
AcDbCircle
 10
184.9914737978951
 20
669.6896570757062
 30
0.0
 40
5.0
100
AcDbArc
 50
0.0
 51
90.0
  0
ARC
  5
4B3
102
{ACAD_REACTORS
330
541
102
}
330
1F
100
AcDbEntity
  8
実線
100
AcDbCircle
 10
50.99147379789508
 20
669.6896570757062
 30
0.0
 40
5.0
100
AcDbArc
 50
90.0
 51
180.0
  0
LINE
  5
4B4
102
{ACAD_REACTORS
330
541
102
}
330
1F
100
AcDbEntity
  8
実線
100
AcDbLine
 10
45.99147379789508
 20
669.6896570757062
 30
0.0
 11
189.9914737978952
 21
669.6896570757062
 31
0.0
  0
LINE
  5
4B5
102
{ACAD_REACTORS
330
541
102
}
330
1F
100
AcDbEntity
  8
実線
100
AcDbLine
 10
68.99147379789508
 20
388.8896570757063
 30
0.0
 11
166.9914737978952
 21
388.8896570757063
 31
0.0
  0
LINE
  5
4B6
102
{ACAD_REACTORS
330
541
102
}
330
1F
100
AcDbEntity
  8
実線
100
AcDbLine
 10
68.99147379789514
 20
388.8896570757063
 30
0.0
 11
68.99147379789514
 21
383.8896570757064
 31
0.0
  0
LINE
  5
4B7
102
{ACAD_REACTORS
330
541
102
}
330
1F
100
AcDbEntity
  8
実線
100
AcDbLine
 10
166.9914737978952
 20
383.8896570757064
 30
0.0
 11
166.9914737978952
 21
388.8896570757063
 31
0.0
  0
LINE
  5
4B8
102
{ACAD_REACTORS
330
541
102
}
330
1F
100
AcDbEntity
  8
実線
100
AcDbLine
 10
61.48830820583924
 20
383.8896570757064
 30
0.0
 11
61.48830820583924
 21
368.8896570757064
 31
0.0
  0
LINE
  5
4B9
102
{ACAD_REACTORS
330
541
102
}
330
1F
100
AcDbEntity
  8
実線
100
AcDbLine
 10
61.48830820583924
 20
383.8896570757064
 30
0.0
 11
95.61323051075204
 21
383.8896570757064
 31
0.0
  0
LINE
  5
4BA
102
{ACAD_REACTORS
330
541
102
}
330
1F
100
AcDbEntity
  8
実線
100
AcDbLine
 10
174.4946393899511
 20
383.8896570757064
 30
0.0
 11
140.3697170850381
 21
383.8896570757064
 31
0.0
  0
LINE
  5
4BB
102
{ACAD_REACTORS
330
541
102
}
330
1F
100
AcDbEntity
  8
実線
100
AcDbLine
 10
174.4946393899511
 20
368.8896570757064
 30
0.0
 11
174.4946393899511
 21
383.8896570757064
 31
0.0
  0
LINE
  5
4BC
102
{ACAD_REACTORS
330
541
102
}
330
1F
100
AcDbEntity
  8
実線
100
AcDbLine
 10
95.61323051075204
 20
383.8896570757064
 30
0.0
 11
95.61323051075204
 21
368.8896570757064
 31
0.0
  0
LINE
  5
4BD
102
{ACAD_REACTORS
330
541
102
}
330
1F
100
AcDbEntity
  8
実線
100
AcDbLine
 10
140.3697170850381
 20
383.8896570757064
 30
0.0
 11
140.3697170850381
 21
368.8896570757064
 31
0.0
  0
LINE
  5
4BE
102
{ACAD_REACTORS
330
541
102
}
330
1F
100
AcDbEntity
  8
実線
100
AcDbLine
 10
174.4946393899511
 20
368.8896570757064
 30
0.0
 11
61.48830820583924
 21
368.8896570757064
 31
0.0
  0
LINE
  5
4BF
102
{ACAD_REACTORS
330
541
102
}
330
1F
100
AcDbEntity
  8
実線
100
AcDbLine
 10
68.99147379789514
 20
353.8896570757064
 30
0.0
 11
68.99147379789514
 21
322.3896570757063
 31
0.0
  0
LINE
  5
4C0
102
{ACAD_REACTORS
330
541
102
}
330
1F
100
AcDbEntity
  8
実線
100
AcDbLine
 10
166.9914737978952
 20
322.3896570757063
 30
0.0
 11
166.9914737978952
 21
353.8896570757064
 31
0.0
  0
LINE
  5
4C1
102
{ACAD_REACTORS
330
541
102
}
330
1F
100
AcDbEntity
  8
実線
100
AcDbLine
 10
103.4398415870398
 20
305.3896570757063
 30
0.0
 11
85.99147379789513
 21
305.3896570757063
 31
0.0
  0
LINE
  5
4C2
102
{ACAD_REACTORS
330
541
102
}
330
1F
100
AcDbEntity
  8
実線
100
AcDbLine
 10
149.9914737978951
 20
305.3896570757063
 30
0.0
 11
132.5431060087503
 21
305.3896570757063
 31
0.0
  0
ARC
  5
4C3
102
{ACAD_REACTORS
330
541
102
}
330
1F
100
AcDbEntity
  8
実線
100
AcDbCircle
 10
85.99147379789513
 20
322.3896570757063
 30
0.0
 40
17.0
100
AcDbArc
 50
180.0
 51
270.0
  0
ARC
  5
4C4
102
{ACAD_REACTORS
330
541
102
}
330
1F
100
AcDbEntity
  8
実線
100
AcDbCircle
 10
149.9914737978951
 20
322.3896570757063
 30
0.0
 40
17.0
100
AcDbArc
 50
270.0
 51
0.0
  0
LINE
  5
4C5
102
{ACAD_REACTORS
330
541
102
}
330
1F
100
AcDbEntity
  8
実線
100
AcDbLine
 10
61.48830820583924
 20
368.8896570757064
 30
0.0
 11
61.48830820583924
 21
353.8896570757064
 31
0.0
  0
LINE
  5
4C6
102
{ACAD_REACTORS
330
541
102
}
330
1F
100
AcDbEntity
  8
実線
100
AcDbLine
 10
61.48830820583924
 20
353.8896570757064
 30
0.0
 11
93.01148180430146
 21
353.8896570757064
 31
0.0
  0
LINE
  5
4C7
102
{ACAD_REACTORS
330
541
102
}
330
1F
100
AcDbEntity
  8
実線
100
AcDbLine
 10
174.4946393899511
 20
353.8896570757064
 30
0.0
 11
142.9714657914887
 21
353.8896570757064
 31
0.0
  0
LINE
  5
4C8
102
{ACAD_REACTORS
330
541
102
}
330
1F
100
AcDbEntity
  8
実線
100
AcDbLine
 10
174.4946393899511
 20
353.8896570757064
 30
0.0
 11
174.4946393899511
 21
368.8896570757064
 31
0.0
  0
LINE
  5
4C9
102
{ACAD_REACTORS
330
541
102
}
330
1F
100
AcDbEntity
  8
実線
100
AcDbLine
 10
95.61323051075204
 20
368.8896570757064
 30
0.0
 11
95.61323051075204
 21
356.7635336029031
 31
0.0
  0
LINE
  5
4CA
102
{ACAD_REACTORS
330
541
102
}
330
1F
100
AcDbEntity
  8
実線
100
AcDbLine
 10
140.3697170850381
 20
368.8896570757064
 30
0.0
 11
140.3697170850381
 21
356.7635336029031
 31
0.0
  0
LINE
  5
4CB
102
{ACAD_REACTORS
330
541
102
}
330
1F
100
AcDbEntity
  8
実線
100
AcDbLine
 10
97.99147379789509
 20
676.6896570757062
 30
0.0
 11
90.99147379789508
 21
676.6896570757062
 31
0.0
  0
LINE
  5
4CC
102
{ACAD_REACTORS
330
541
102
}
330
1F
100
AcDbEntity
  8
実線
100
AcDbLine
 10
90.99147379789508
 20
674.6896570757062
 30
0.0
 11
90.99147379789508
 21
676.6896570757062
 31
0.0
  0
LINE
  5
4CD
102
{ACAD_REACTORS
330
540
102
}
330
1F
100
AcDbEntity
  8
実線
100
AcDbLine
 10
378.5914737978952
 20
762.1396570757069
 30
0.0
 11
386.4914737978953
 21
762.1396570757069
 31
0.0
  0
LINE
  5
4CE
102
{ACAD_REACTORS
330
540
102
}
330
1F
100
AcDbEntity
  8
実線
100
AcDbLine
 10
378.5914737978952
 20
754.2396570757065
 30
0.0
 11
378.5914737978952
 21
762.1396570757069
 31
0.0
  0
LINE
  5
4CF
102
{ACAD_REACTORS
330
540
102
}
330
1F
100
AcDbEntity
  8
実線
100
AcDbLine
 10
386.4914737978953
 20
754.2396570757065
 30
0.0
 11
378.5914737978952
 21
754.2396570757065
 31
0.0
  0
LINE
  5
4D0
102
{ACAD_REACTORS
330
540
102
}
330
1F
100
AcDbEntity
  8
実線
100
AcDbLine
 10
386.4914737978953
 20
731.7396570757065
 30
0.0
 11
378.5914737978952
 21
731.7396570757065
 31
0.0
  0
LINE
  5
4D1
102
{ACAD_REACTORS
330
540
102
}
330
1F
100
AcDbEntity
  8
実線
100
AcDbLine
 10
378.5914737978952
 20
739.6396570757068
 30
0.0
 11
386.4914737978953
 21
739.6396570757068
 31
0.0
  0
LINE
  5
4D2
102
{ACAD_REACTORS
330
540
102
}
330
1F
100
AcDbEntity
  8
実線
100
AcDbLine
 10
378.5914737978952
 20
731.7396570757065
 30
0.0
 11
378.5914737978952
 21
739.6396570757068
 31
0.0
  0
LINE
  5
4D3
102
{ACAD_REACTORS
330
540
102
}
330
1F
100
AcDbEntity
  8
実線
100
AcDbLine
 10
388.4914737978953
 20
719.6896570757066
 30
0.0
 11
388.4914737978953
 21
765.6896570757067
 31
0.0
  0
LINE
  5
4D4
102
{ACAD_REACTORS
330
540
102
}
330
1F
100
AcDbEntity
  8
実線
100
AcDbLine
 10
388.4914737978953
 20
765.6896570757067
 30
0.0
 11
386.4914737978953
 21
765.6896570757067
 31
0.0
  0
LINE
  5
4D5
102
{ACAD_REACTORS
330
540
102
}
330
1F
100
AcDbEntity
  8
実線
100
AcDbLine
 10
386.4914737978953
 20
765.6896570757067
 30
0.0
 11
386.4914737978953
 21
719.6896570757063
 31
0.0
  0
LINE
  5
4D6
102
{ACAD_REACTORS
330
540
102
}
330
1F
100
AcDbEntity
  8
実線
100
AcDbLine
 10
386.4914737978953
 20
719.6896570757066
 30
0.0
 11
388.4914737978953
 21
719.6896570757066
 31
0.0
  0
LINE
  5
4D7
102
{ACAD_REACTORS
330
540
102
}
330
1F
100
AcDbEntity
  8
実線
100
AcDbLine
 10
412.4914737978952
 20
676.6896570757063
 30
0.0
 11
412.4914737978952
 21
765.6896570757063
 31
0.0
  0
LINE
  5
4D8
102
{ACAD_REACTORS
330
540
102
}
330
1F
100
AcDbEntity
  8
実線
100
AcDbLine
 10
412.4914737978952
 20
765.6896570757063
 30
0.0
 11
388.4914737978953
 21
765.6896570757063
 31
0.0
  0
LINE
  5
4D9
102
{ACAD_REACTORS
330
540
102
}
330
1F
100
AcDbEntity
  8
実線
100
AcDbLine
 10
386.4914737978951
 20
676.6896570757063
 30
0.0
 11
386.4914737978951
 21
719.6896570757066
 31
0.0
  0
LINE
  5
4DA
102
{ACAD_REACTORS
330
540
102
}
330
1F
100
AcDbEntity
  8
実線
100
AcDbLine
 10
377.9914737978953
 20
749.1896570757063
 30
0.0
 11
337.9914737978953
 21
749.1896570757063
 31
0.0
  0
LINE
  5
4DB
102
{ACAD_REACTORS
330
540
102
}
330
1F
100
AcDbEntity
  8
実線
100
AcDbLine
 10
377.9914737978953
 20
749.1896570757063
 30
0.0
 11
377.9914737978953
 21
759.1896570757064
 31
0.0
  0
LINE
  5
4DC
102
{ACAD_REACTORS
330
540
102
}
330
1F
100
AcDbEntity
  8
実線
100
AcDbLine
 10
337.9914737978953
 20
759.1896570757064
 30
0.0
 11
337.9914737978953
 21
749.1896570757063
 31
0.0
  0
LINE
  5
4DD
102
{ACAD_REACTORS
330
540
102
}
330
1F
100
AcDbEntity
  8
実線
100
AcDbLine
 10
377.9914737978953
 20
759.1896570757064
 30
0.0
 11
337.9914737978953
 21
759.1896570757064
 31
0.0
  0
LINE
  5
4DE
102
{ACAD_REACTORS
330
540
102
}
330
1F
100
AcDbEntity
  8
実線
100
AcDbLine
 10
370.9914737978953
 20
742.1896570757063
 30
0.0
 11
344.9914737978953
 21
742.1896570757063
 31
0.0
  0
LINE
  5
4DF
102
{ACAD_REACTORS
330
540
102
}
330
1F
100
AcDbEntity
  8
実線
100
AcDbLine
 10
370.9914737978953
 20
742.1896570757063
 30
0.0
 11
370.9914737978953
 21
749.1896570757063
 31
0.0
  0
LINE
  5
4E0
102
{ACAD_REACTORS
330
540
102
}
330
1F
100
AcDbEntity
  8
実線
100
AcDbLine
 10
344.9914737978953
 20
749.1896570757063
 30
0.0
 11
344.9914737978953
 21
742.1896570757063
 31
0.0
  0
LINE
  5
4E1
102
{ACAD_REACTORS
330
540
102
}
330
1F
100
AcDbEntity
  8
実線
100
AcDbLine
 10
367.9914737978953
 20
719.6896570757063
 30
0.0
 11
367.9914737978953
 21
742.1896570757063
 31
0.0
  0
LINE
  5
4E2
102
{ACAD_REACTORS
330
540
102
}
330
1F
100
AcDbEntity
  8
実線
100
AcDbLine
 10
347.9914737978954
 20
742.1896570757063
 30
0.0
 11
347.9914737978954
 21
719.6896570757066
 31
0.0
  0
LINE
  5
4E3
102
{ACAD_REACTORS
330
540
102
}
330
1F
100
AcDbEntity
  8
実線
100
AcDbLine
 10
375.2914737978954
 20
707.6896570757063
 30
0.0
 11
340.6914737978953
 21
707.6896570757063
 31
0.0
  0
LINE
  5
4E4
102
{ACAD_REACTORS
330
540
102
}
330
1F
100
AcDbEntity
  8
実線
100
AcDbLine
 10
375.2914737978954
 20
707.6896570757063
 30
0.0
 11
375.2914737978954
 21
719.6896570757063
 31
0.0
  0
LINE
  5
4E5
102
{ACAD_REACTORS
330
540
102
}
330
1F
100
AcDbEntity
  8
実線
100
AcDbLine
 10
340.6914737978953
 20
719.6896570757063
 30
0.0
 11
340.6914737978953
 21
707.6896570757063
 31
0.0
  0
LINE
  5
4E6
102
{ACAD_REACTORS
330
540
102
}
330
1F
100
AcDbEntity
  8
実線
100
AcDbLine
 10
375.2914737978954
 20
719.6896570757063
 30
0.0
 11
340.6914737978953
 21
719.6896570757063
 31
0.0
  0
LINE
  5
4E7
102
{ACAD_REACTORS
330
540
102
}
330
1F
100
AcDbEntity
  8
実線
100
AcDbLine
 10
375.2914737978954
 20
695.6896570757063
 30
0.0
 11
375.2914737978954
 21
707.6896570757063
 31
0.0
  0
LINE
  5
4E8
102
{ACAD_REACTORS
330
540
102
}
330
1F
100
AcDbEntity
  8
実線
100
AcDbLine
 10
340.6914737978953
 20
707.6896570757063
 30
0.0
 11
340.6914737978953
 21
695.6896570757063
 31
0.0
  0
LINE
  5
4E9
102
{ACAD_REACTORS
330
540
102
}
330
1F
100
AcDbEntity
  8
実線
100
AcDbLine
 10
377.9914737978953
 20
674.6896570757063
 30
0.0
 11
377.9914737978953
 21
695.6896570757063
 31
0.0
  0
LINE
  5
4EA
102
{ACAD_REACTORS
330
540
102
}
330
1F
100
AcDbEntity
  8
実線
100
AcDbLine
 10
337.9914737978953
 20
695.6896570757063
 30
0.0
 11
337.9914737978953
 21
674.6896570757063
 31
0.0
  0
LINE
  5
4EB
102
{ACAD_REACTORS
330
540
102
}
330
1F
100
AcDbEntity
  8
実線
100
AcDbLine
 10
377.9914737978953
 20
695.6896570757063
 30
0.0
 11
337.9914737978953
 21
695.6896570757063
 31
0.0
  0
LINE
  5
4EC
102
{ACAD_REACTORS
330
540
102
}
330
1F
100
AcDbEntity
  8
実線
100
AcDbLine
 10
429.9914737978951
 20
597.6896570757063
 30
0.0
 11
429.9914737978951
 21
669.6896570757063
 31
0.0
  0
LINE
  5
4ED
102
{ACAD_REACTORS
330
540
102
}
330
1F
100
AcDbEntity
  8
実線
100
AcDbLine
 10
285.9914737978953
 20
669.6896570757066
 30
0.0
 11
285.9914737978953
 21
597.6896570757065
 31
0.0
  0
LINE
  5
4EE
102
{ACAD_REACTORS
330
540
102
}
330
1F
100
AcDbEntity
  8
実線
100
AcDbLine
 10
429.9914737978951
 20
588.6896570757065
 30
0.0
 11
285.9914737978953
 21
588.6896570757065
 31
0.0
  0
LINE
  5
4EF
102
{ACAD_REACTORS
330
540
102
}
330
1F
100
AcDbEntity
  8
実線
100
AcDbLine
 10
429.9914737978951
 20
588.6896570757065
 30
0.0
 11
429.9914737978951
 21
597.6896570757065
 31
0.0
  0
LINE
  5
4F0
102
{ACAD_REACTORS
330
540
102
}
330
1F
100
AcDbEntity
  8
実線
100
AcDbLine
 10
285.9914737978953
 20
597.6896570757063
 30
0.0
 11
285.9914737978953
 21
588.6896570757063
 31
0.0
  0
LINE
  5
4F1
102
{ACAD_REACTORS
330
540
102
}
330
1F
100
AcDbEntity
  8
実線
100
AcDbLine
 10
429.9914737978951
 20
597.6896570757063
 30
0.0
 11
285.9914737978953
 21
597.6896570757063
 31
0.0
  0
LINE
  5
4F2
102
{ACAD_REACTORS
330
540
102
}
330
1F
100
AcDbEntity
  8
実線
100
AcDbLine
 10
434.6914737978955
 20
359.2896570757064
 30
0.0
 11
414.4946393899513
 21
359.2896570757064
 31
0.0
  0
LINE
  5
4F3
102
{ACAD_REACTORS
330
540
102
}
330
1F
100
AcDbEntity
  8
実線
100
AcDbLine
 10
399.778710384389
 20
308.4896570757064
 30
0.0
 11
434.6914737978951
 21
308.4896570757064
 31
0.0
  0
LINE
  5
4F4
102
{ACAD_REACTORS
330
540
102
}
330
1F
100
AcDbEntity
  8
実線
100
AcDbLine
 10
439.9914737978953
 20
365.8896570757065
 30
0.0
 11
437.0914737978953
 21
365.8896570757065
 31
0.0
  0
LINE
  5
4F5
102
{ACAD_REACTORS
330
540
102
}
330
1F
100
AcDbEntity
  8
実線
100
AcDbLine
 10
437.0914737978953
 20
301.8896570757064
 30
0.0
 11
439.9914737978953
 21
301.8896570757064
 31
0.0
  0
LINE
  5
4F6
102
{ACAD_REACTORS
330
540
102
}
330
1F
100
AcDbEntity
  8
実線
100
AcDbLine
 10
439.9914737978953
 20
365.8896570757065
 30
0.0
 11
439.9914737978953
 21
301.8896570757064
 31
0.0
  0
LINE
  5
4F7
102
{ACAD_REACTORS
330
540
102
}
330
1F
100
AcDbEntity
  8
実線
100
AcDbLine
 10
434.6914737978955
 20
308.4896570757064
 30
0.0
 11
437.0914737978953
 21
301.8896570757064
 31
0.0
  0
LINE
  5
4F8
102
{ACAD_REACTORS
330
540
102
}
330
1F
100
AcDbEntity
  8
実線
100
AcDbLine
 10
437.0914737978953
 20
365.8896570757064
 30
0.0
 11
434.6914737978955
 21
359.2896570757064
 31
0.0
  0
LINE
  5
4F9
102
{ACAD_REACTORS
330
540
102
}
330
1F
100
AcDbEntity
  8
実線
100
AcDbLine
 10
437.0914737978953
 20
301.8896570757064
 30
0.0
 11
437.0914737978953
 21
365.8896570757065
 31
0.0
  0
LINE
  5
4FA
102
{ACAD_REACTORS
330
540
102
}
330
1F
100
AcDbEntity
  8
実線
100
AcDbLine
 10
434.6914737978955
 20
308.4896570757064
 30
0.0
 11
434.6914737978955
 21
359.2896570757064
 31
0.0
  0
LINE
  5
4FB
102
{ACAD_REACTORS
330
540
102
}
330
1F
100
AcDbEntity
  8
実線
100
AcDbLine
 10
281.2914737978951
 20
308.4896570757064
 30
0.0
 11
316.2042372114016
 21
308.4896570757064
 31
0.0
  0
LINE
  5
4FC
102
{ACAD_REACTORS
330
540
102
}
330
1F
100
AcDbEntity
  8
実線
100
AcDbLine
 10
301.4883082058397
 20
359.2896570757064
 30
0.0
 11
281.2914737978951
 21
359.2896570757064
 31
0.0
  0
LINE
  5
4FD
102
{ACAD_REACTORS
330
540
102
}
330
1F
100
AcDbEntity
  8
実線
100
AcDbLine
 10
281.2914737978951
 20
359.2896570757064
 30
0.0
 11
281.2914737978951
 21
308.4896570757064
 31
0.0
  0
LINE
  5
4FE
102
{ACAD_REACTORS
330
540
102
}
330
1F
100
AcDbEntity
  8
実線
100
AcDbLine
 10
281.2914737978951
 20
359.2896570757064
 30
0.0
 11
278.891473797895
 21
365.8896570757065
 31
0.0
  0
LINE
  5
4FF
102
{ACAD_REACTORS
330
540
102
}
330
1F
100
AcDbEntity
  8
実線
100
AcDbLine
 10
278.891473797895
 20
301.8896570757064
 30
0.0
 11
281.2914737978951
 21
308.4896570757064
 31
0.0
  0
LINE
  5
500
102
{ACAD_REACTORS
330
540
102
}
330
1F
100
AcDbEntity
  8
実線
100
AcDbLine
 10
275.9914737978953
 20
365.8896570757065
 30
0.0
 11
275.9914737978953
 21
301.8896570757064
 31
0.0
  0
LINE
  5
501
102
{ACAD_REACTORS
330
540
102
}
330
1F
100
AcDbEntity
  8
実線
100
AcDbLine
 10
278.891473797895
 20
365.8896570757065
 30
0.0
 11
278.891473797895
 21
301.8896570757064
 31
0.0
  0
LINE
  5
502
102
{ACAD_REACTORS
330
540
102
}
330
1F
100
AcDbEntity
  8
実線
100
AcDbLine
 10
275.9914737978953
 20
301.8896570757064
 30
0.0
 11
278.891473797895
 21
301.8896570757064
 31
0.0
  0
LINE
  5
503
102
{ACAD_REACTORS
330
540
102
}
330
1F
100
AcDbEntity
  8
実線
100
AcDbLine
 10
278.891473797895
 20
365.8896570757065
 30
0.0
 11
275.9914737978953
 21
365.8896570757065
 31
0.0
  0
LINE
  5
504
102
{ACAD_REACTORS
330
540
102
}
330
1F
100
AcDbEntity
  8
実線
100
AcDbLine
 10
383.3914737978954
 20
296.1896570757065
 30
0.0
 11
383.3914737978954
 21
305.3896570757064
 31
0.0
  0
LINE
  5
505
102
{ACAD_REACTORS
330
540
102
}
330
1F
100
AcDbEntity
  8
実線
100
AcDbLine
 10
332.5914737978952
 20
305.3896570757064
 30
0.0
 11
332.5914737978952
 21
296.1896570757065
 31
0.0
  0
LINE
  5
506
102
{ACAD_REACTORS
330
540
102
}
330
1F
100
AcDbEntity
  8
実線
100
AcDbLine
 10
332.5914737978952
 20
296.1896570757065
 30
0.0
 11
383.3914737978954
 21
296.1896570757065
 31
0.0
  0
LINE
  5
507
102
{ACAD_REACTORS
330
540
102
}
330
1F
100
AcDbEntity
  8
実線
100
AcDbLine
 10
332.5914737978952
 20
296.1896570757065
 30
0.0
 11
325.9914737978954
 21
293.7896570757065
 31
0.0
  0
LINE
  5
508
102
{ACAD_REACTORS
330
540
102
}
330
1F
100
AcDbEntity
  8
実線
100
AcDbLine
 10
389.9914737978954
 20
293.7896570757065
 30
0.0
 11
383.3914737978954
 21
296.1896570757065
 31
0.0
  0
LINE
  5
509
102
{ACAD_REACTORS
330
540
102
}
330
1F
100
AcDbEntity
  8
実線
100
AcDbLine
 10
325.9914737978954
 20
290.8896570757065
 30
0.0
 11
389.9914737978954
 21
290.8896570757065
 31
0.0
  0
LINE
  5
50A
102
{ACAD_REACTORS
330
540
102
}
330
1F
100
AcDbEntity
  8
実線
100
AcDbLine
 10
325.9914737978954
 20
293.7896570757065
 30
0.0
 11
389.9914737978954
 21
293.7896570757065
 31
0.0
  0
LINE
  5
50B
102
{ACAD_REACTORS
330
540
102
}
330
1F
100
AcDbEntity
  8
実線
100
AcDbLine
 10
389.9914737978954
 20
290.8896570757065
 30
0.0
 11
389.9914737978954
 21
293.7896570757065
 31
0.0
  0
LINE
  5
50C
102
{ACAD_REACTORS
330
540
102
}
330
1F
100
AcDbEntity
  8
実線
100
AcDbLine
 10
325.9914737978954
 20
293.7896570757065
 30
0.0
 11
325.9914737978954
 21
290.8896570757065
 31
0.0
  0
LINE
  5
50D
102
{ACAD_REACTORS
330
540
102
}
330
1F
100
AcDbEntity
  8
実線
100
AcDbLine
 10
406.9914737978952
 20
388.8896570757064
 30
0.0
 11
406.9914737978952
 21
588.6896570757065
 31
0.0
  0
LINE
  5
50E
102
{ACAD_REACTORS
330
540
102
}
330
1F
100
AcDbEntity
  8
実線
100
AcDbLine
 10
308.9914737978953
 20
588.6896570757065
 30
0.0
 11
308.9914737978953
 21
388.8896570757064
 31
0.0
  0
LINE
  5
50F
102
{ACAD_REACTORS
330
540
102
}
330
1F
100
AcDbEntity
  8
実線
100
AcDbLine
 10
424.9914737978952
 20
674.6896570757063
 30
0.0
 11
290.9914737978953
 21
674.6896570757063
 31
0.0
  0
ARC
  5
510
102
{ACAD_REACTORS
330
540
102
}
330
1F
100
AcDbEntity
  8
実線
100
AcDbCircle
 10
424.9914737978952
 20
669.6896570757063
 30
0.0
 40
5.0
100
AcDbArc
 50
0.0
 51
90.0
  0
ARC
  5
511
102
{ACAD_REACTORS
330
540
102
}
330
1F
100
AcDbEntity
  8
実線
100
AcDbCircle
 10
290.9914737978953
 20
669.6896570757063
 30
0.0
 40
5.0
100
AcDbArc
 50
90.0
 51
180.0
  0
LINE
  5
512
102
{ACAD_REACTORS
330
540
102
}
330
1F
100
AcDbEntity
  8
実線
100
AcDbLine
 10
429.9914737978951
 20
669.6896570757063
 30
0.0
 11
285.9914737978953
 21
669.6896570757063
 31
0.0
  0
LINE
  5
513
102
{ACAD_REACTORS
330
540
102
}
330
1F
100
AcDbEntity
  8
実線
100
AcDbLine
 10
308.9914737978953
 20
388.8896570757064
 30
0.0
 11
308.9914737978953
 21
383.8896570757065
 31
0.0
  0
LINE
  5
514
102
{ACAD_REACTORS
330
540
102
}
330
1F
100
AcDbEntity
  8
実線
100
AcDbLine
 10
406.9914737978952
 20
383.8896570757065
 30
0.0
 11
406.9914737978952
 21
388.8896570757064
 31
0.0
  0
LINE
  5
515
102
{ACAD_REACTORS
330
540
102
}
330
1F
100
AcDbEntity
  8
実線
100
AcDbLine
 10
406.9914737978952
 20
388.8896570757064
 30
0.0
 11
308.9914737978953
 21
388.8896570757064
 31
0.0
  0
LINE
  5
516
102
{ACAD_REACTORS
330
540
102
}
330
1F
100
AcDbEntity
  8
実線
100
AcDbLine
 10
414.4946393899512
 20
383.8896570757065
 30
0.0
 11
380.3697170850384
 21
383.8896570757065
 31
0.0
  0
LINE
  5
517
102
{ACAD_REACTORS
330
540
102
}
330
1F
100
AcDbEntity
  8
実線
100
AcDbLine
 10
414.4946393899512
 20
368.8896570757065
 30
0.0
 11
414.4946393899512
 21
383.8896570757065
 31
0.0
  0
LINE
  5
518
102
{ACAD_REACTORS
330
540
102
}
330
1F
100
AcDbEntity
  8
実線
100
AcDbLine
 10
301.4883082058394
 20
383.8896570757065
 30
0.0
 11
301.4883082058394
 21
368.8896570757065
 31
0.0
  0
LINE
  5
519
102
{ACAD_REACTORS
330
540
102
}
330
1F
100
AcDbEntity
  8
実線
100
AcDbLine
 10
301.4883082058394
 20
383.8896570757065
 30
0.0
 11
335.6132305107522
 21
383.8896570757065
 31
0.0
  0
LINE
  5
51A
102
{ACAD_REACTORS
330
540
102
}
330
1F
100
AcDbEntity
  8
実線
100
AcDbLine
 10
335.6132305107522
 20
383.8896570757065
 30
0.0
 11
335.6132305107522
 21
368.8896570757065
 31
0.0
  0
LINE
  5
51B
102
{ACAD_REACTORS
330
540
102
}
330
1F
100
AcDbEntity
  8
実線
100
AcDbLine
 10
380.3697170850384
 20
383.8896570757065
 30
0.0
 11
380.3697170850384
 21
368.8896570757065
 31
0.0
  0
LINE
  5
51C
102
{ACAD_REACTORS
330
540
102
}
330
1F
100
AcDbEntity
  8
実線
100
AcDbLine
 10
389.9914737978029
 20
305.3896570757064
 30
0.0
 11
325.9914737978954
 21
305.3896570757064
 31
0.0
  0
ARC
  5
51D
102
{ACAD_REACTORS
330
540
102
}
330
1F
100
AcDbEntity
  8
実線
100
AcDbCircle
 10
325.9914737978954
 20
322.3896570757064
 30
0.0
 40
17.0
100
AcDbArc
 50
234.8499442294396
 51
270.0
  0
ARC
  5
51E
102
{ACAD_REACTORS
330
540
102
}
330
1F
100
AcDbEntity
  8
実線
100
AcDbCircle
 10
389.9914737978954
 20
322.3896570757064
 30
0.0
 40
17.0
100
AcDbArc
 50
270.0
 51
305.1500557705604
  0
LINE
  5
51F
102
{ACAD_REACTORS
330
540
102
}
330
1F
100
AcDbEntity
  8
実線
100
AcDbLine
 10
301.4883082058397
 20
368.8896570757065
 30
0.0
 11
414.4946393899513
 21
368.8896570757065
 31
0.0
  0
LINE
  5
520
102
{ACAD_REACTORS
330
540
102
}
330
1F
100
AcDbEntity
  8
実線
100
AcDbLine
 10
414.4946393899512
 20
353.8896570757065
 30
0.0
 11
380.3697170850384
 21
353.8896570757065
 31
0.0
  0
LINE
  5
521
102
{ACAD_REACTORS
330
540
102
}
330
1F
100
AcDbEntity
  8
実線
100
AcDbLine
 10
414.4946393899513
 20
353.8896570757065
 30
0.0
 11
414.4946393899513
 21
368.8896570757065
 31
0.0
  0
LINE
  5
522
102
{ACAD_REACTORS
330
540
102
}
330
1F
100
AcDbEntity
  8
実線
100
AcDbLine
 10
301.4883082058397
 20
368.8896570757065
 30
0.0
 11
301.4883082058397
 21
353.8896570757065
 31
0.0
  0
LINE
  5
523
102
{ACAD_REACTORS
330
540
102
}
330
1F
100
AcDbEntity
  8
実線
100
AcDbLine
 10
301.4883082058397
 20
353.8896570757065
 30
0.0
 11
335.6132305107522
 21
353.8896570757065
 31
0.0
  0
LINE
  5
524
102
{ACAD_REACTORS
330
540
102
}
330
1F
100
AcDbEntity
  8
実線
100
AcDbLine
 10
335.6132305107522
 20
368.8896570757065
 30
0.0
 11
335.6132305107522
 21
353.8896570757065
 31
0.0
  0
LINE
  5
525
102
{ACAD_REACTORS
330
540
102
}
330
1F
100
AcDbEntity
  8
実線
100
AcDbLine
 10
380.3697170850384
 20
368.8896570757065
 30
0.0
 11
380.3697170850384
 21
353.8896570757065
 31
0.0
  0
LINE
  5
526
102
{ACAD_REACTORS
330
540
102
}
330
1F
100
AcDbEntity
  8
実線
100
AcDbLine
 10
418.9914737978951
 20
674.6896570757063
 30
0.0
 11
418.9914737978951
 21
676.6896570757063
 31
0.0
  0
LINE
  5
527
102
{ACAD_REACTORS
330
540
102
}
330
1F
100
AcDbEntity
  8
実線
100
AcDbLine
 10
418.9914737978951
 20
676.6896570757063
 30
0.0
 11
383.9914737978953
 21
676.6896570757063
 31
0.0
  0
LINE
  5
528
102
{ACAD_REACTORS
330
540
102
}
330
1F
100
AcDbEntity
  8
実線
100
AcDbLine
 10
383.9914737978951
 20
674.6896570757063
 30
0.0
 11
383.9914737978951
 21
676.6896570757063
 31
0.0
  0
LINE
  5
529
102
{ACAD_REACTORS
330
53D
102
}
330
1F
100
AcDbEntity
  8
中心線
100
AcDbLine
 10
273.9914737978953
 20
93.88965707570646
 30
0.0
 11
441.9914737978952
 21
93.88965707570646
 31
0.0
  0
LINE
  5
52A
102
{ACAD_REACTORS
330
53D
102
}
330
1F
100
AcDbEntity
  8
中心線
100
AcDbLine
 10
357.9914737978953
 20
9.889657075705599
 30
0.0
 11
357.9914737978953
 21
177.8896570757056
 31
0.0
  0
LINE
  5
52B
102
{ACAD_REACTORS
330
58E
102
}
330
1F
100
AcDbEntity
  8
中心線
100
AcDbLine
 10
273.9914737978953
 20
933.8896570757073
 30
0.0
 11
441.9914737978952
 21
933.8896570757073
 31
0.0
  0
LINE
  5
52C
102
{ACAD_REACTORS
330
58E
102
}
330
1F
100
AcDbEntity
  8
中心線
100
AcDbLine
 10
357.9914737978953
 20
849.8896570757064
 30
0.0
 11
357.9914737978953
 21
1017.889657075706
 31
0.0
  0
LINE
  5
52D
102
{ACAD_REACTORS
330
53C
102
}
330
1F
100
AcDbEntity
  8
中心線
100
AcDbLine
 10
837.9914737978944
 20
273.8896570757066
 30
0.0
 11
837.9914737978943
 21
778.1198851714651
 31
0.0
  0
LINE
  5
52E
102
{ACAD_REACTORS
330
53C
102
}
330
1F
100
AcDbEntity
  8
中心線
100
AcDbLine
 10
753.9914737978952
 20
333.8896570757066
 30
0.0
 11
921.9914737978951
 21
333.8896570757066
 31
0.0
  0
LINE
  5
536
102
{ACAD_REACTORS
330
53E
102
}
330
1F
100
AcDbEntity
  8
中心線
100
AcDbLine
 10
597.9914737978949
 20
273.8896570757065
 30
0.0
 11
597.991473797895
 21
778.1198851714653
 31
0.0
  0
LINE
  5
537
102
{ACAD_REACTORS
330
53E
102
}
330
1F
100
AcDbEntity
  8
中心線
100
AcDbLine
 10
537.9914737978959
 20
333.8896570757065
 30
0.0
 11
657.9914737978959
 21
333.8896570757065
 31
0.0
  0
LINE
  5
538
102
{ACAD_REACTORS
330
540
102
}
330
1F
100
AcDbEntity
  8
中心線
100
AcDbLine
 10
357.9914737978954
 20
273.8896570757065
 30
0.0
 11
357.9914737978954
 21
778.1198851714653
 31
0.0
  0
LINE
  5
539
102
{ACAD_REACTORS
330
540
102
}
330
1F
100
AcDbEntity
  8
中心線
100
AcDbLine
 10
273.9914737978956
 20
333.8896570757065
 30
0.0
 11
441.9914737978956
 21
333.8896570757065
 31
0.0
  0
LINE
  5
53A
102
{ACAD_REACTORS
330
541
102
}
330
1F
100
AcDbEntity
  8
中心線
100
AcDbLine
 10
117.991473797895
 20
273.8896570757063
 30
0.0
 11
117.991473797895
 21
778.1198851714653
 31
0.0
  0
LINE
  5
53B
102
{ACAD_REACTORS
330
541
102
}
330
1F
100
AcDbEntity
  8
中心線
100
AcDbLine
 10
57.99147379789554
 20
333.8896570757063
 30
0.0
 11
177.9914737978955
 21
333.8896570757063
 31
0.0
  0
ENDSEC
  0
SECTION
  2
OBJECTS
  0
DICTIONARY
  5
C
330
0
100
AcDbDictionary
281
     1
  3
ACAD_CIP_PREVIOUS_PRODUCT_INFO
350
28A
  3
ACAD_COLOR
350
280
  3
ACAD_DETAILVIEWSTYLE
350
283
  3
ACAD_GROUP
350
D
  3
ACAD_LAYOUT
350
1A
  3
ACAD_MATERIAL
350
43
  3
ACAD_MLEADERSTYLE
350
5B
  3
ACAD_MLINESTYLE
350
17
  3
ACAD_PLOTSETTINGS
350
19
  3
ACAD_PLOTSTYLENAME
350
E
  3
ACAD_SCALELIST
350
47
  3
ACAD_SECTIONVIEWSTYLE
350
281
  3
ACAD_TABLESTYLE
350
59
  3
ACAD_VISUALSTYLE
350
2A
  3
ACDB_RECOMPOSE_DATA
350
59B
  3
AcDbVariableDictionary
350
235
  3
DWGPROPS
350
59C
  0
DICTIONARY
  5
291
330
2
100
AcDbDictionary
280
     1
281
     1
  3
ACAD_LAYERSTATES
360
292
  0
DICTIONARY
  5
542
330
10
100
AcDbDictionary
280
     1
281
     1
  3
ADSK_XREC_LAYER_RECONCILED
360
543
  0
DICTIONARY
  5
28D
330
28C
100
AcDbDictionary
280
     1
281
     1
  3
ADSK_XREC_LAYER_RECONCILED
360
544
  0
DICTIONARY
  5
28F
330
28E
100
AcDbDictionary
280
     1
281
     1
  3
ADSK_XREC_LAYER_RECONCILED
360
545
  0
DICTIONARY
  5
3A0
330
1F
100
AcDbDictionary
280
     1
281
     1
  3
ACAD_SORTENTS
360
3A1
  0
XRECORD
  5
28A
102
{ACAD_REACTORS
330
C
102
}
330
C
100
AcDbXrecord
280
     1
300
ACDLT
300
2016
300
ACDLT_F_S
  0
DICTIONARY
  5
280
102
{ACAD_REACTORS
330
C
102
}
330
C
100
AcDbDictionary
281
     1
  0
DICTIONARY
  5
283
102
{ACAD_REACTORS
330
C
102
}
330
C
100
AcDbDictionary
281
     1
  3
Metric50
350
284
  0
DICTIONARY
  5
D
102
{ACAD_REACTORS
330
C
102
}
330
C
100
AcDbDictionary
281
     1
  3
*A1
350
53C
  3
*A2
350
53D
  3
*A3
350
53E
  3
*A5
350
540
  3
*A6
350
541
  3
*A7
350
58E
  0
DICTIONARY
  5
1A
102
{ACAD_REACTORS
330
C
102
}
330
C
100
AcDbDictionary
281
     1
  3
Layout1
350
1E
  3
Model
350
22
  3
レイアウト1
350
285
  0
DICTIONARY
  5
43
102
{ACAD_REACTORS
330
C
102
}
330
C
100
AcDbDictionary
281
     1
  3
ByBlock
350
45
  3
ByLayer
350
44
  3
Global
350
46
  0
DICTIONARY
  5
5B
102
{ACAD_REACTORS
330
C
102
}
330
C
100
AcDbDictionary
281
     1
  3
Standard
350
5C
  0
DICTIONARY
  5
17
102
{ACAD_REACTORS
330
C
102
}
330
C
100
AcDbDictionary
281
     1
  3
Standard
350
18
  0
DICTIONARY
  5
19
102
{ACAD_REACTORS
330
C
102
}
330
C
100
AcDbDictionary
281
     1
  0
ACDBDICTIONARYWDFLT
  5
E
102
{ACAD_REACTORS
330
C
102
}
330
C
100
AcDbDictionary
281
     1
  3
Normal
350
F
100
AcDbDictionaryWithDefault
340
F
  0
DICTIONARY
  5
47
102
{ACAD_REACTORS
330
C
102
}
330
C
100
AcDbDictionary
281
     1
  3
A0
350
48
  3
A1
350
49
  3
A2
350
4A
  3
A3
350
4B
  3
A4
350
4C
  3
A5
350
4D
  3
A6
350
4E
  3
A7
350
4F
  3
A8
350
50
  3
A9
350
51
  3
B0
350
52
  3
B1
350
53
  3
B2
350
54
  3
B3
350
55
  3
B4
350
56
  3
B5
350
57
  3
B6
350
58
  0
DICTIONARY
  5
281
102
{ACAD_REACTORS
330
C
102
}
330
C
100
AcDbDictionary
281
     1
  3
Metric50
350
282
  0
DICTIONARY
  5
59
102
{ACAD_REACTORS
330
C
102
}
330
C
100
AcDbDictionary
281
     1
  3
Standard
350
5A
  0
DICTIONARY
  5
2A
102
{ACAD_REACTORS
330
C
102
}
330
C
100
AcDbDictionary
281
     1
  3
2dWireframe
350
2F
  3
Basic
350
32
  3
Brighten
350
36
  3
ColorChange
350
3A
  3
Conceptual
350
34
  3
Dim
350
35
  3
EdgeColorOff
350
3D
  3
Facepattern
350
39
  3
Flat
350
2B
  3
FlatWithEdges
350
2C
  3
Gouraud
350
2D
  3
GouraudWithEdges
350
2E
  3
Hidden
350
31
  3
JitterOff
350
3B
  3
Linepattern
350
38
  3
OverhangOff
350
3C
  3
Realistic
350
33
  3
Shaded
350
42
  3
Shaded with edges
350
41
  3
Shades of Gray
350
3E
  3
Sketchy
350
3F
  3
Thicken
350
37
  3
Wireframe
350
30
  3
X-Ray
350
40
  0
XRECORD
  5
59B
102
{ACAD_REACTORS
330
C
102
}
330
C
100
AcDbXrecord
280
     1
 90
        1
330
5A
  0
DICTIONARY
  5
235
102
{ACAD_REACTORS
330
C
102
}
330
C
100
AcDbDictionary
281
     1
  3
CANNOSCALE
350
243
  3
CENTEREXE
350
23C
  3
CENTERLTYPEFILE
350
23D
  3
CMLEADERSTYLE
350
237
  3
CTABLESTYLE
350
236
  3
CVIEWDETAILSTYLE
350
546
  3
CVIEWSECTIONSTYLE
350
547
  3
DIMASSOC
350
23E
  3
HIDETEXT
350
23F
  3
INDEXCTL
350
593
  3
LAYEREVAL
350
549
  3
LAYERNOTIFY
350
54A
  3
LIGHTINGUNITS
350
548
  3
LOFTANG1
350
596
  3
LOFTANG2
350
597
  3
LONGITUDE
350
598
  3
MSLTSCALE
350
244
  3
PSOLHEIGHT
350
595
  3
PSOLWIDTH
350
594
  3
SORTENTS
350
592
  3
XCLIPFRAME
350
599
  0
XRECORD
  5
59C
102
{ACAD_REACTORS
330
C
102
}
330
C
100
AcDbXrecord
280
     1
  1
DWGPROPS COOKIE
  2

  3

  4

  6
File was created by TR2_DExp
  7

  8
fujino
  9

300
=
301
=
302
=
303
=
304
=
305
=
306
=
307
=
308
=
309
=
 40
0.0063182407407407
 41
2455188.75
 42
2459759.49223507
  1

 90
        0
  0
DICTIONARY
  5
292
102
{ACAD_REACTORS
330
291
102
}
330
291
100
AcDbDictionary
281
     1
  0
XRECORD
  5
543
102
{ACAD_REACTORS
330
542
102
}
330
542
100
AcDbXrecord
280
     1
290
     1
  0
XRECORD
  5
544
102
{ACAD_REACTORS
330
28D
102
}
330
28D
100
AcDbXrecord
280
     1
290
     1
  0
XRECORD
  5
545
102
{ACAD_REACTORS
330
28F
102
}
330
28F
100
AcDbXrecord
280
     1
290
     1
  0
SORTENTSTABLE
  5
3A1
102
{ACAD_REACTORS
330
3A0
102
}
330
3A0
100
AcDbSortentsTable
330
1F
331
507
  5
33F
331
41B
  5
43E
331
45A
  5
3DE
331
503
  5
33B
331
494
  5
37D
331
490
  5
379
331
4CF
  5
307
331
48C
  5
375
331
4CB
  5
3B6
331
488
  5
371
331
3B6
  5
46B
331
3B2
  5
467
331
3AE
  5
463
331
3ED
  5
410
331
3AA
  5
45F
331
3E9
  5
40C
331
52E
  5
52E
331
37D
  5
49A
331
52A
  5
52A
331
379
  5
496
331
417
  5
43A
331
456
  5
3DA
331
4FF
  5
337
331
413
  5
436
331
452
  5
3D6
331
44E
  5
3D2
331
4FB
  5
333
331
40F
  5
432
331
40B
  5
42E
331
44A
  5
3CE
331
4C7
  5
3B2
331
4F7
  5
32F
331
4C3
  5
3AE
331
4F3
  5
32B
331
484
  5
36D
331
4BF
  5
3AA
331
480
  5
369
331
47C
  5
365
331
4BB
  5
3A6
331
478
  5
361
331
39E
  5
4BB
331
3E5
  5
408
331
3E1
  5
404
331
39A
  5
4B7
331
396
  5
4B3
331
3DD
  5
400
331
375
  5
492
331
392
  5
4AF
331
3D9
  5
3FC
331
371
  5
48E
331
539
  5
539
331
407
  5
42A
331
446
  5
3CA
331
536
  5
536
331
4EF
  5
327
331
403
  5
426
331
442
  5
3C6
331
43E
  5
3C2
331
4EB
  5
323
331
3FF
  5
422
331
3FB
  5
41E
331
526
  5
35E
331
43A
  5
3BE
331
4B7
  5
3A2
331
4E7
  5
31F
331
4E3
  5
31B
331
522
  5
35A
331
474
  5
3F8
331
4B3
  5
39C
331
4AF
  5
398
331
470
  5
3F4
331
46C
  5
3F0
331
4AB
  5
394
331
468
  5
3EC
331
38E
  5
4AB
331
3D5
  5
48A
331
3D1
  5
486
331
38A
  5
4A7
331
3CD
  5
482
331
386
  5
4A3
331
382
  5
49F
331
3C9
  5
47E
331
3F7
  5
41A
331
436
  5
3BA
331
3F3
  5
416
331
4DF
  5
317
331
51E
  5
356
331
432
  5
455
331
42E
  5
451
331
4DB
  5
313
331
51A
  5
352
331
516
  5
34E
331
42A
  5
44D
331
4A7
  5
390
331
4D7
  5
30F
331
4D3
  5
30B
331
512
  5
34A
331
464
  5
3E8
331
4A3
  5
38C
331
49F
  5
388
331
460
  5
3E4
331
49B
  5
384
331
3C5
  5
47A
331
3C1
  5
476
331
3BD
  5
472
331
3B9
  5
46E
331
3A5
  5
45A
331
426
  5
449
331
50E
  5
346
331
422
  5
445
331
41E
  5
441
331
45D
  5
3E1
331
50A
  5
342
331
506
  5
33E
331
41A
  5
43D
331
459
  5
3DD
331
497
  5
380
331
502
  5
33A
331
493
  5
37C
331
48F
  5
378
331
4CE
  5
306
331
48B
  5
374
331
4CA
  5
3B5
331
3B5
  5
46A
331
3B1
  5
466
331
3AD
  5
462
331
3EC
  5
40F
331
3A9
  5
45E
331
3E8
  5
40B
331
52D
  5
52D
331
37C
  5
499
331
529
  5
529
331
378
  5
495
331
416
  5
439
331
455
  5
3D9
331
451
  5
3D5
331
4FE
  5
336
331
412
  5
435
331
44D
  5
3D1
331
4FA
  5
332
331
40E
  5
431
331
4F6
  5
32E
331
40A
  5
42D
331
449
  5
3CD
331
487
  5
370
331
4C6
  5
3B1
331
4C2
  5
3AD
331
4F2
  5
32A
331
483
  5
36C
331
47F
  5
368
331
4BE
  5
3A9
331
47B
  5
364
331
4BA
  5
3A5
331
39D
  5
4BA
331
3E4
  5
407
331
3E0
  5
403
331
399
  5
4B6
331
395
  5
4B2
331
3DC
  5
3FF
331
374
  5
491
331
391
  5
4AE
331
3D8
  5
48D
331
538
  5
538
331
406
  5
429
331
445
  5
3C9
331
4EE
  5
326
331
402
  5
425
331
441
  5
3C5
331
43D
  5
3C1
331
4EA
  5
322
331
3FE
  5
421
331
3FA
  5
41D
331
525
  5
35D
331
439
  5
3BD
331
477
  5
3FB
331
4B6
  5
39F
331
4E6
  5
31E
331
4B2
  5
39B
331
4E2
  5
31A
331
521
  5
359
331
473
  5
3F7
331
4AE
  5
397
331
46F
  5
3F3
331
46B
  5
3EF
331
4AA
  5
393
331
38D
  5
4AA
331
3D4
  5
489
331
389
  5
4A6
331
385
  5
4A2
331
3CC
  5
481
331
381
  5
49E
331
3C8
  5
47D
331
3F6
  5
419
331
435
  5
3B9
331
3F2
  5
415
331
4DE
  5
316
331
51D
  5
355
331
431
  5
454
331
42D
  5
450
331
4DA
  5
312
331
519
  5
351
331
515
  5
34D
331
429
  5
44C
331
467
  5
3EB
331
4A6
  5
38F
331
4D6
  5
30E
331
4D2
  5
30A
331
511
  5
349
331
463
  5
3E7
331
4A2
  5
38B
331
49E
  5
387
331
49A
  5
383
331
3C4
  5
479
331
3C0
  5
475
331
3BC
  5
471
331
3B8
  5
46D
331
3A4
  5
459
331
425
  5
448
331
50D
  5
345
331
421
  5
444
331
41D
  5
440
331
45C
  5
3E0
331
509
  5
341
331
505
  5
33D
331
419
  5
43C
331
458
  5
3DC
331
496
  5
37F
331
501
  5
339
331
492
  5
37B
331
48E
  5
377
331
4CD
  5
305
331
48A
  5
373
331
4C9
  5
3B4
331
3B4
  5
469
331
3EF
  5
412
331
3B0
  5
465
331
3AC
  5
461
331
3EB
  5
40E
331
3A8
  5
45D
331
37F
  5
49C
331
52C
  5
52C
331
37B
  5
498
331
528
  5
360
331
415
  5
438
331
454
  5
3D8
331
450
  5
3D4
331
4FD
  5
335
331
411
  5
434
331
40D
  5
430
331
44C
  5
3D0
331
4F9
  5
331
331
4F5
  5
32D
331
409
  5
42C
331
448
  5
3CC
331
486
  5
36F
331
4C5
  5
3B0
331
4C1
  5
3AC
331
4F1
  5
329
331
482
  5
36B
331
47E
  5
367
331
4BD
  5
3A8
331
47A
  5
363
331
4B9
  5
3A4
331
3E7
  5
40A
331
39C
  5
4B9
331
3E3
  5
406
331
3DF
  5
402
331
398
  5
4B5
331
394
  5
4B1
331
3DB
  5
3FE
331
377
  5
494
331
373
  5
490
331
390
  5
4AD
331
53B
  5
53B
331
405
  5
428
331
444
  5
3C8
331
440
  5
3C4
331
4ED
  5
325
331
401
  5
424
331
43C
  5
3C0
331
4E9
  5
321
331
3FD
  5
420
331
3F9
  5
41C
331
4E5
  5
31D
331
524
  5
35C
331
438
  5
3BC
331
476
  5
3FA
331
4B5
  5
39E
331
4B1
  5
39A
331
4E1
  5
319
331
520
  5
358
331
472
  5
3F6
331
46E
  5
3F2
331
4AD
  5
396
331
46A
  5
3EE
331
4A9
  5
392
331
3D7
  5
48C
331
38C
  5
4A9
331
388
  5
4A5
331
384
  5
4A1
331
3CB
  5
480
331
380
  5
49D
331
3F5
  5
418
331
434
  5
3B8
331
3F1
  5
414
331
4DD
  5
315
331
51C
  5
354
331
430
  5
453
331
518
  5
350
331
42C
  5
44F
331
4D9
  5
311
331
514
  5
34C
331
428
  5
44B
331
466
  5
3EA
331
4A5
  5
38E
331
4D5
  5
30D
331
4A1
  5
38A
331
4D1
  5
309
331
510
  5
348
331
462
  5
3E6
331
49D
  5
386
331
499
  5
382
331
3C7
  5
47C
331
3C3
  5
478
331
3BF
  5
474
331
3BB
  5
470
331
3A7
  5
45C
331
3A3
  5
458
331
424
  5
447
331
45F
  5
3E3
331
50C
  5
344
331
420
  5
443
331
41C
  5
43F
331
45B
  5
3DF
331
508
  5
340
331
504
  5
33C
331
418
  5
43B
331
495
  5
37E
331
500
  5
338
331
491
  5
37A
331
48D
  5
376
331
4CC
  5
3B7
331
489
  5
372
331
4C8
  5
3B3
331
3B7
  5
46C
331
3B3
  5
468
331
3AF
  5
464
331
3EE
  5
411
331
3AB
  5
460
331
3EA
  5
40D
331
37E
  5
49B
331
52B
  5
52B
331
37A
  5
497
331
457
  5
3DB
331
414
  5
437
331
453
  5
3D7
331
44F
  5
3D3
331
4FC
  5
334
331
410
  5
433
331
40C
  5
42F
331
44B
  5
3CF
331
4F8
  5
330
331
4F4
  5
32C
331
408
  5
42B
331
485
  5
36E
331
4C4
  5
3AF
331
4C0
  5
3AB
331
4F0
  5
328
331
481
  5
36A
331
47D
  5
366
331
4BC
  5
3A7
331
479
  5
362
331
4B8
  5
3A3
331
39F
  5
4BC
331
3E6
  5
409
331
3E2
  5
405
331
39B
  5
4B8
331
3DE
  5
401
331
397
  5
4B4
331
393
  5
4B0
331
3DA
  5
3FD
331
376
  5
493
331
372
  5
48F
331
53A
  5
53A
331
447
  5
3CB
331
537
  5
537
331
404
  5
427
331
443
  5
3C7
331
43F
  5
3C3
331
4EC
  5
324
331
400
  5
423
331
3FC
  5
41F
331
527
  5
35F
331
43B
  5
3BF
331
4E8
  5
320
331
3F8
  5
41B
331
4E4
  5
31C
331
523
  5
35B
331
475
  5
3F9
331
4B4
  5
39D
331
4B0
  5
399
331
4E0
  5
318
331
471
  5
3F5
331
46D
  5
3F1
331
4AC
  5
395
331
469
  5
3ED
331
4A8
  5
391
331
38F
  5
4AC
331
3D6
  5
48B
331
38B
  5
4A8
331
3CE
  5
483
331
387
  5
4A4
331
383
  5
4A0
331
3CA
  5
47F
331
437
  5
3BB
331
3F4
  5
417
331
51F
  5
357
331
433
  5
456
331
42F
  5
452
331
3F0
  5
413
331
4DC
  5
314
331
51B
  5
353
331
517
  5
34F
331
42B
  5
44E
331
4D8
  5
310
331
4D4
  5
30C
331
513
  5
34B
331
465
  5
3E9
331
4A4
  5
38D
331
4A0
  5
389
331
4D0
  5
308
331
461
  5
3E5
331
49C
  5
385
331
498
  5
381
331
3C6
  5
47B
331
3C2
  5
477
331
3BE
  5
473
331
3BA
  5
46F
331
3A6
  5
45B
331
3A2
  5
457
331
427
  5
44A
331
50F
  5
347
331
423
  5
446
331
45E
  5
3E2
331
50B
  5
343
331
41F
  5
442
  0
ACDBDETAILVIEWSTYLE
  5
284
102
{ACAD_XDICTIONARY
360
5D4
102
}
102
{ACAD_REACTORS
330
283
102
}
330
283
100
AcDbModelDocViewStyle
 70
     0
  3
Metric50
290
     0
100
AcDbDetailViewStyle
 70
     0
 71
     0
 90
        3
 71
     1
340
11
 40
5.0
340
0
 40
5.0
300

 40
0.0
280
     1
 71
     2
340
16
 90
       25
 71
     3
340
11
 40
5.0
 90
        0
 40
15.0
 90
        1
300
%<\AcVar ViewDetailId>% (%<\AcVar ViewScale \f "%sn">%)
 71
     4
340
16
 90
       25
340
16
 90
       25
280
     0
  0
GROUP
  5
53C
102
{ACAD_REACTORS
330
D
102
}
330
D
100
AcDbGroup
300

 70
     1
 71
     1
340
52E
340
52D
340
433
340
432
340
431
340
430
340
42F
340
42E
340
42D
340
42C
340
42B
340
42A
340
429
340
428
340
427
340
426
340
425
340
424
340
423
340
422
340
421
340
420
340
41F
340
41E
340
41D
340
41C
340
41B
340
41A
340
419
340
418
340
417
340
416
340
415
340
414
340
413
340
412
340
411
340
410
340
40F
340
40E
340
40D
340
40C
340
40B
340
40A
340
409
340
408
340
407
340
406
340
405
340
404
340
403
340
402
340
401
340
400
340
3FF
340
3FE
340
3FD
340
3FC
340
3FB
340
3FA
340
3F9
340
3F8
340
3F7
340
3F6
340
3F5
340
3F4
340
3F3
340
3F2
340
3F1
340
3F0
340
3EF
340
3EE
340
3ED
340
3EC
340
3EB
340
3EA
340
3E9
340
3E8
340
3E7
340
3E6
340
3E5
340
3E4
340
3E3
340
3E2
340
3E1
340
3E0
340
3DF
340
3DE
340
3DD
340
3DC
340
3DB
340
3DA
340
3D9
  0
GROUP
  5
53D
102
{ACAD_REACTORS
330
D
102
}
330
D
100
AcDbGroup
300

 70
     1
 71
     1
340
52A
340
529
340
39F
340
39E
340
39D
340
39C
340
39B
340
39A
340
399
340
398
340
397
340
396
340
395
340
394
340
393
340
392
340
391
340
390
340
38F
340
38E
340
38D
340
38C
340
38B
340
38A
340
389
340
388
340
387
340
386
340
385
340
384
340
383
340
382
340
381
340
380
340
37F
340
37E
340
37D
340
37C
340
37B
340
37A
340
379
340
378
340
377
340
376
340
375
340
374
340
373
340
372
340
371
  0
GROUP
  5
53E
102
{ACAD_REACTORS
330
D
102
}
330
D
100
AcDbGroup
300

 70
     1
 71
     1
340
537
340
536
340
477
340
476
340
475
340
474
340
473
340
472
340
471
340
470
340
46F
340
46E
340
46D
340
46C
340
46B
340
46A
340
469
340
468
340
467
340
466
340
465
340
464
340
463
340
462
340
461
340
460
340
45F
340
45E
340
45D
340
45C
340
45B
340
45A
340
459
340
458
340
457
340
456
340
455
340
454
340
453
340
452
340
451
340
450
340
44F
340
44E
340
44D
340
44C
340
44B
340
44A
340
449
340
448
340
447
340
446
340
445
340
444
340
443
340
442
340
441
340
440
340
43F
340
43E
340
43D
340
43C
340
43B
340
43A
340
439
340
438
340
437
340
436
340
435
340
434
  0
GROUP
  5
540
102
{ACAD_REACTORS
330
D
102
}
330
D
100
AcDbGroup
300

 70
     1
 71
     1
340
539
340
538
340
528
340
527
340
526
340
525
340
524
340
523
340
522
340
521
340
520
340
51F
340
51E
340
51D
340
51C
340
51B
340
51A
340
519
340
518
340
517
340
516
340
515
340
514
340
513
340
512
340
511
340
510
340
50F
340
50E
340
50D
340
50C
340
50B
340
50A
340
509
340
508
340
507
340
506
340
505
340
504
340
503
340
502
340
501
340
500
340
4FF
340
4FE
340
4FD
340
4FC
340
4FB
340
4FA
340
4F9
340
4F8
340
4F7
340
4F6
340
4F5
340
4F4
340
4F3
340
4F2
340
4F1
340
4F0
340
4EF
340
4EE
340
4ED
340
4EC
340
4EB
340
4EA
340
4E9
340
4E8
340
4E7
340
4E6
340
4E5
340
4E4
340
4E3
340
4E2
340
4E1
340
4E0
340
4DF
340
4DE
340
4DD
340
4DC
340
4DB
340
4DA
340
4D9
340
4D8
340
4D7
340
4D6
340
4D5
340
4D4
340
4D3
340
4D2
340
4D1
340
4D0
340
4CF
340
4CE
340
4CD
  0
GROUP
  5
541
102
{ACAD_REACTORS
330
D
102
}
330
D
100
AcDbGroup
300

 70
     1
 71
     1
340
53B
340
53A
340
4CC
340
4CB
340
4CA
340
4C9
340
4C8
340
4C7
340
4C6
340
4C5
340
4C4
340
4C3
340
4C2
340
4C1
340
4C0
340
4BF
340
4BE
340
4BD
340
4BC
340
4BB
340
4BA
340
4B9
340
4B8
340
4B7
340
4B6
340
4B5
340
4B4
340
4B3
340
4B2
340
4B1
340
4B0
340
4AF
340
4AE
340
4AD
340
4AC
340
4AB
340
4AA
340
4A9
340
4A8
340
4A7
340
4A6
340
4A5
340
4A4
340
4A3
340
4A2
340
4A1
340
4A0
340
49F
340
49E
340
49D
340
49C
340
49B
340
49A
340
499
340
498
340
497
340
496
340
495
340
494
340
493
340
492
340
491
340
490
340
48F
340
48E
340
48D
340
48C
340
48B
340
48A
340
489
340
488
340
487
340
486
340
485
340
484
340
483
340
482
340
481
340
480
340
47F
340
47E
340
47D
340
47C
340
47B
340
47A
340
479
340
478
  0
GROUP
  5
58E
102
{ACAD_REACTORS
330
D
102
}
330
D
100
AcDbGroup
300

 70
     1
 71
     1
340
52C
340
52B
340
3D8
340
3D7
340
3D6
340
3D5
340
3D4
340
3D1
340
3CE
340
3CD
340
3CC
340
3CB
340
3CA
340
3C9
340
3C8
340
3C7
340
3C6
340
3C5
340
3C4
340
3C3
340
3C2
340
3C1
340
3C0
340
3BF
340
3BE
340
3BD
340
3BC
340
3BB
340
3BA
340
3B9
340
3B8
340
3B7
340
3B6
340
3B5
340
3B4
340
3B3
340
3B2
340
3B1
340
3B0
340
3AF
340
3AE
340
3AD
340
3AC
340
3AB
340
3AA
340
3A9
340
3A8
340
3A7
340
3A6
340
3A5
340
3A4
340
3A3
340
3A2
  0
LAYOUT
  5
1E
102
{ACAD_XDICTIONARY
360
59D
102
}
102
{ACAD_REACTORS
330
1A
102
}
330
1A
100
AcDbPlotSettings
  1

  2
none_device
  4

  6

 40
0.0
 41
0.0
 42
0.0
 43
0.0
 44
0.0
 45
0.0
 46
0.0
 47
0.0
 48
0.0
 49
0.0
140
0.0
141
0.0
142
1.0
143
1.0
 70
   688
 72
     1
 73
     0
 74
     5
  7

 75
    16
147
1.0
148
0.0
149
0.0
100
AcDbLayout
  1
Layout1
 70
     1
 71
     1
 10
0.0
 20
0.0
 11
420.0
 21
297.0
 12
0.0
 22
0.0
 32
0.0
 14
1.000000000000000E+20
 24
1.000000000000000E+20
 34
1.000000000000000E+20
 15
-1.000000000000000E+20
 25
-1.000000000000000E+20
 35
-1.000000000000000E+20
146
0.0
 13
0.0
 23
0.0
 33
0.0
 16
1.0
 26
0.0
 36
0.0
 17
0.0
 27
1.0
 37
0.0
 76
     0
330
1B
  0
LAYOUT
  5
22
102
{ACAD_XDICTIONARY
360
59F
102
}
102
{ACAD_REACTORS
330
1A
102
}
330
1A
100
AcDbPlotSettings
  1

  2
none_device
  4
Letter_(8.50_x_11.00_Inches)
  6

 40
6.349999999999998
 41
6.349999999999998
 42
6.350005079999998
 43
6.350005079999998
 44
215.9
 45
279.4
 46
0.0
 47
0.0
 48
0.0
 49
0.0
140
0.0
141
0.0
142
1.0
143
1.0
 70
  1712
 72
     1
 73
     0
 74
     0
  7

 75
     0
147
1.0
148
0.0
149
0.0
100
AcDbLayout
  1
Model
 70
     1
 71
     0
 10
-461.7595138549805
 20
-380.0153884887695
 11
1167.127601623535
 21
785.8464050292967
 12
0.0
 22
0.0
 32
0.0
 14
-461.7595138549805
 24
-380.0153884887695
 34
0.0
 15
1167.127601623535
 25
785.8464050292967
 35
0.0
146
0.0
 13
0.0
 23
0.0
 33
0.0
 16
1.0
 26
0.0
 36
0.0
 17
0.0
 27
1.0
 37
0.0
 76
     0
330
1F
331
29
  0
LAYOUT
  5
285
102
{ACAD_XDICTIONARY
360
5D6
102
}
102
{ACAD_REACTORS
330
1A
102
}
330
1A
100
AcDbPlotSettings
  1

  2
青梅 FX DocuCentre-V C2275 T2
  4

  6

 40
0.0
 41
0.0
 42
0.0
 43
0.0
 44
0.0
 45
0.0
 46
0.0
 47
0.0
 48
0.0
 49
0.0
140
0.0
141
0.0
142
1.0
143
1.0
 70
   688
 72
     0
 73
     0
 74
     5
  7
AutoCAD_PEN.ctb
 75
    16
147
1.0
148
0.0
149
0.0
100
AcDbLayout
  1
レイアウト1
 70
     1
 71
     2
 10
0.0
 20
0.0
 11
12.0
 21
9.0
 12
0.0
 22
0.0
 32
0.0
 14
0.0
 24
0.0
 34
0.0
 15
0.0
 25
0.0
 35
0.0
146
0.0
 13
0.0
 23
0.0
 33
0.0
 16
1.0
 26
0.0
 36
0.0
 17
0.0
 27
1.0
 37
0.0
 76
     0
330
23
  0
MATERIAL
  5
45
102
{ACAD_XDICTIONARY
360
277
102
}
102
{ACAD_REACTORS
330
43
102
}
330
43
100
AcDbMaterial
  1
ByBlock
  0
MATERIAL
  5
44
102
{ACAD_XDICTIONARY
360
275
102
}
102
{ACAD_REACTORS
330
43
102
}
330
43
100
AcDbMaterial
  1
ByLayer
  0
MATERIAL
  5
46
102
{ACAD_XDICTIONARY
360
279
102
}
102
{ACAD_REACTORS
330
43
102
}
330
43
100
AcDbMaterial
  1
Global
  0
MLEADERSTYLE
  5
5C
102
{ACAD_REACTORS
330
5B
102
}
330
5B
100
AcDbMLeaderStyle
170
     2
171
     1
172
     0
 90
        2
 40
0.0
 41
0.0
173
     1
 91
-1056964608
340
14
 92
       -2
290
     1
 42
2.0
291
     1
 43
8.0
  3
Standard
 44
4.0
300

342
11
174
     1
178
     6
175
     1
176
     0
 93
-1056964608
 45
4.0
292
     0
297
     0
 46
4.0
 94
-1056964608
 47
1.0
 49
1.0
140
1.0
293
     1
141
0.0
294
     1
177
     0
142
1.0
295
     0
296
     0
143
3.75
1001
ACAD_MLEADERVER
1070
     2
  0
MLINESTYLE
  5
18
102
{ACAD_REACTORS
330
17
102
}
330
17
100
AcDbMlineStyle
  2
STANDARD
 70
     0
  3

 62
   256
 51
90.0
 52
90.0
 71
     2
 49
0.5
 62
   256
  6
BYLAYER
 49
-0.5
 62
   256
  6
BYLAYER
  0
ACDBPLACEHOLDER
  5
F
102
{ACAD_REACTORS
330
E
102
}
330
E
  0
SCALE
  5
48
102
{ACAD_REACTORS
330
47
102
}
330
47
100
AcDbScale
 70
     0
300
1:1
140
1.0
141
1.0
290
     1
  0
SCALE
  5
49
102
{ACAD_REACTORS
330
47
102
}
330
47
100
AcDbScale
 70
     0
300
1:2
140
1.0
141
2.0
290
     0
  0
SCALE
  5
4A
102
{ACAD_REACTORS
330
47
102
}
330
47
100
AcDbScale
 70
     0
300
1:4
140
1.0
141
4.0
290
     0
  0
SCALE
  5
4B
102
{ACAD_REACTORS
330
47
102
}
330
47
100
AcDbScale
 70
     0
300
1:5
140
1.0
141
5.0
290
     0
  0
SCALE
  5
4C
102
{ACAD_REACTORS
330
47
102
}
330
47
100
AcDbScale
 70
     0
300
1:8
140
1.0
141
8.0
290
     0
  0
SCALE
  5
4D
102
{ACAD_REACTORS
330
47
102
}
330
47
100
AcDbScale
 70
     0
300
1:10
140
1.0
141
10.0
290
     0
  0
SCALE
  5
4E
102
{ACAD_REACTORS
330
47
102
}
330
47
100
AcDbScale
 70
     0
300
1:16
140
1.0
141
16.0
290
     0
  0
SCALE
  5
4F
102
{ACAD_REACTORS
330
47
102
}
330
47
100
AcDbScale
 70
     0
300
1:20
140
1.0
141
20.0
290
     0
  0
SCALE
  5
50
102
{ACAD_REACTORS
330
47
102
}
330
47
100
AcDbScale
 70
     0
300
1:30
140
1.0
141
30.0
290
     0
  0
SCALE
  5
51
102
{ACAD_REACTORS
330
47
102
}
330
47
100
AcDbScale
 70
     0
300
1:40
140
1.0
141
40.0
290
     0
  0
SCALE
  5
52
102
{ACAD_REACTORS
330
47
102
}
330
47
100
AcDbScale
 70
     0
300
1:50
140
1.0
141
50.0
290
     0
  0
SCALE
  5
53
102
{ACAD_REACTORS
330
47
102
}
330
47
100
AcDbScale
 70
     0
300
1:100
140
1.0
141
100.0
290
     0
  0
SCALE
  5
54
102
{ACAD_REACTORS
330
47
102
}
330
47
100
AcDbScale
 70
     0
300
2:1
140
2.0
141
1.0
290
     0
  0
SCALE
  5
55
102
{ACAD_REACTORS
330
47
102
}
330
47
100
AcDbScale
 70
     0
300
4:1
140
4.0
141
1.0
290
     0
  0
SCALE
  5
56
102
{ACAD_REACTORS
330
47
102
}
330
47
100
AcDbScale
 70
     0
300
8:1
140
8.0
141
1.0
290
     0
  0
SCALE
  5
57
102
{ACAD_REACTORS
330
47
102
}
330
47
100
AcDbScale
 70
     0
300
10:1
140
10.0
141
1.0
290
     0
  0
SCALE
  5
58
102
{ACAD_REACTORS
330
47
102
}
330
47
100
AcDbScale
 70
     0
300
100:1
140
100.0
141
1.0
290
     0
  0
ACDBSECTIONVIEWSTYLE
  5
282
102
{ACAD_XDICTIONARY
360
5D2
102
}
102
{ACAD_REACTORS
330
281
102
}
330
281
100
AcDbModelDocViewStyle
 70
     0
  3
Metric50
290
     0
100
AcDbSectionViewStyle
 70
     0
 71
     0
 90
      102
 71
     1
340
11
 40
5.0
340
0
340
0
 40
5.0
300
I, O, Q, S, X, Z
 40
10.0
 90
        0
 40
2.5
 90
        0
 71
     2
340
16
 90
       25
340
16
 90
       50
 40
5.0
 40
2.5
 40
5.0
 71
     3
340
11
 40
5.0
 90
        0
 40
15.0
 90
        1
300
%<\AcVar ViewSectionStartId>%-%<\AcVar ViewSectionEndId>% (%<\AcVar ViewScale \f "%sn">%)
 71
     4
300
ANSI31
 40
1.0
 90
        0
290
     0
290
     0
 90
        6
 40
0.0
 40
1.570796326794896
 40
0.2617993877991494
 40
1.308996938995747
 40
-0.2617993877991494
 40
1.832595714594045
  0
TABLESTYLE
  5
5A
102
{ACAD_XDICTIONARY
360
54B
102
}
102
{ACAD_REACTORS
330
59
102
}
330
59
100
AcDbTableStyle
  3
Standard
 70
     0
 71
     0
 40
1.5
 41
1.5
280
     0
281
     0
  7
Standard
140
4.5
170
     2
 62
     0
 63
     7
283
     0
274
    -2
284
     1
 64
     0
275
    -2
285
     1
 65
     0
276
    -2
286
     1
 66
     0
277
    -2
287
     1
 67
     0
278
    -2
288
     1
 68
     0
279
    -2
289
     1
 69
     0
  7
Standard
140
6.0
170
     5
 62
     0
 63
     7
283
     0
274
    -2
284
     1
 64
     0
275
    -2
285
     1
 65
     0
276
    -2
286
     1
 66
     0
277
    -2
287
     1
 67
     0
278
    -2
288
     1
 68
     0
279
    -2
289
     1
 69
     0
  7
Standard
140
4.5
170
     5
 62
     0
 63
     7
283
     0
274
    -2
284
     1
 64
     0
275
    -2
285
     1
 65
     0
276
    -2
286
     1
 66
     0
277
    -2
287
     1
 67
     0
278
    -2
288
     1
 68
     0
279
    -2
289
     1
 69
     0
  0
VISUALSTYLE
  5
2F
102
{ACAD_XDICTIONARY
360
5A9
102
}
102
{ACAD_REACTORS
330
2A
102
}
330
2A
100
AcDbVisualStyle
  2

 70
     4
 71
     0
 72
     2
 73
     0
 90
        0
 40
-0.6
 41
-30.0
 62
     5
 63
     7
 74
     1
 91
        4
 64
     7
 65
   257
 75
     1
175
     1
 42
1.0
 92
        0
 66
   257
 43
1.0
 76
     1
 77
     6
 78
     2
 67
     7
 79
     5
170
     0
171
     0
290
     0
174
     0
 93
        1
 44
0.0
173
     0
291
     0
 45
0.0
1001
ACAD
1000
AcDbSavedByObjectVersion
1070
     0
  0
VISUALSTYLE
  5
32
102
{ACAD_XDICTIONARY
360
5AF
102
}
102
{ACAD_REACTORS
330
2A
102
}
330
2A
100
AcDbVisualStyle
  2

 70
     7
 71
     1
 72
     0
 73
     1
 90
        0
 40
-0.6
 41
-30.0
 62
     5
 63
     7
 74
     0
 91
        4
 64
     7
 65
   257
 75
     1
175
     1
 42
1.0
 92
        8
 66
     7
 43
1.0
 76
     1
 77
     6
 78
     2
 67
     7
 79
     5
170
     0
171
     0
290
     0
174
     0
 93
        1
 44
0.0
173
     0
291
     1
 45
0.0
1001
ACAD
1000
AcDbSavedByObjectVersion
1070
     0
  0
VISUALSTYLE
  5
36
102
{ACAD_XDICTIONARY
360
5B7
102
}
102
{ACAD_REACTORS
330
2A
102
}
330
2A
100
AcDbVisualStyle
  2

 70
    12
 71
     2
 72
     2
 73
     0
 90
        0
 40
-0.6
 41
-30.0
 62
     5
 63
     7
 74
     1
 91
        4
 64
     7
 65
   257
 75
     1
175
     1
 42
1.0
 92
        8
 66
     7
 43
1.0
 76
     1
 77
     6
 78
     2
 67
     7
 79
     5
170
     0
171
     0
290
     0
174
     0
 93
        1
 44
50.0
173
     0
291
     1
 45
0.0
1001
ACAD
1000
AcDbSavedByObjectVersion
1070
     0
  0
VISUALSTYLE
  5
3A
102
{ACAD_XDICTIONARY
360
5BF
102
}
102
{ACAD_REACTORS
330
2A
102
}
330
2A
100
AcDbVisualStyle
  2

 70
    16
 71
     2
 72
     2
 73
     3
 90
        0
 40
-0.6
 41
-30.0
 62
     5
 63
     8
 74
     1
 91
        4
 64
     7
 65
   257
 75
     1
175
     1
 42
1.0
 92
        8
 66
     8
 43
1.0
 76
     1
 77
     6
 78
     2
 67
     7
 79
     5
170
     0
171
     0
290
     0
174
     0
 93
        1
 44
0.0
173
     0
291
     1
 45
0.0
1001
ACAD
1000
AcDbSavedByObjectVersion
1070
     0
  0
VISUALSTYLE
  5
34
102
{ACAD_XDICTIONARY
360
5B3
102
}
102
{ACAD_REACTORS
330
2A
102
}
330
2A
100
AcDbVisualStyle
  2

 70
     9
 71
     3
 72
     2
 73
     0
 90
        0
 40
-0.6
 41
-30.0
 62
     5
 63
     7
 74
     2
 91
        2
 64
     7
 65
   257
 75
     1
175
     1
 42
179.0
 92
        8
 66
     7
 43
1.0
 76
     1
 77
     6
 78
     2
 67
     7
 79
     3
170
     0
171
     0
290
     0
174
     0
 93
        1
 44
0.0
173
     0
291
     0
 45
0.0
1001
ACAD
1000
AcDbSavedByObjectVersion
1070
     0
  0
VISUALSTYLE
  5
35
102
{ACAD_XDICTIONARY
360
5B5
102
}
102
{ACAD_REACTORS
330
2A
102
}
330
2A
100
AcDbVisualStyle
  2

 70
    11
 71
     2
 72
     2
 73
     0
 90
        0
 40
-0.6
 41
-30.0
 62
     5
 63
     7
 74
     1
 91
        4
 64
     7
 65
   257
 75
     1
175
     1
 42
1.0
 92
        8
 66
     7
 43
1.0
 76
     1
 77
     6
 78
     2
 67
     7
 79
     5
170
     0
171
     0
290
     0
174
     0
 93
        1
 44
-50.0
173
     0
291
     1
 45
0.0
1001
ACAD
1000
AcDbSavedByObjectVersion
1070
     0
  0
VISUALSTYLE
  5
3D
102
{ACAD_XDICTIONARY
360
5C5
102
}
102
{ACAD_REACTORS
330
2A
102
}
330
2A
100
AcDbVisualStyle
  2

 70
    22
 71
     2
 72
     2
 73
     0
 90
        0
 40
-0.6
 41
-30.0
 62
     5
 63
     7
 74
     1
 91
        4
 64
     7
 65
   257
 75
     1
175
     1
 42
1.0
 92
        8
 66
     7
 43
1.0
 76
     1
 77
     6
 78
     2
 67
     7
 79
     5
170
     0
171
     0
290
     0
174
     0
 93
        1
 44
0.0
173
     0
291
     1
 45
0.0
1001
ACAD
1000
AcDbSavedByObjectVersion
1070
     0
  0
VISUALSTYLE
  5
39
102
{ACAD_XDICTIONARY
360
5BD
102
}
102
{ACAD_REACTORS
330
2A
102
}
330
2A
100
AcDbVisualStyle
  2

 70
    15
 71
     2
 72
     2
 73
     0
 90
        0
 40
-0.6
 41
-30.0
 62
     5
 63
     7
 74
     1
 91
        4
 64
     7
 65
   257
 75
     1
175
     1
 42
1.0
 92
        8
 66
     7
 43
1.0
 76
     1
 77
     6
 78
     2
 67
     7
 79
     5
170
     0
171
     0
290
     0
174
     0
 93
        1
 44
0.0
173
     0
291
     1
 45
0.0
1001
ACAD
1000
AcDbSavedByObjectVersion
1070
     0
  0
VISUALSTYLE
  5
2B
102
{ACAD_XDICTIONARY
360
5A1
102
}
102
{ACAD_REACTORS
330
2A
102
}
330
2A
100
AcDbVisualStyle
  2

 70
     0
 71
     2
 72
     1
 73
     1
 90
        2
 40
-0.6
 41
30.0
 62
     5
 63
     7
 74
     0
 91
        0
 64
     7
 65
   257
 75
     1
175
     1
 42
1.0
 92
        8
 66
     7
 43
1.0
 76
     1
 77
     6
 78
     2
 67
     7
 79
     5
170
     0
171
     0
290
     0
174
     0
 93
       13
 44
0.0
173
     0
291
     1
 45
0.0
1001
ACAD
1000
AcDbSavedByObjectVersion
1070
     0
  0
VISUALSTYLE
  5
2C
102
{ACAD_XDICTIONARY
360
5A3
102
}
102
{ACAD_REACTORS
330
2A
102
}
330
2A
100
AcDbVisualStyle
  2

 70
     1
 71
     2
 72
     1
 73
     1
 90
        2
 40
-0.6
 41
30.0
 62
     5
 63
     7
 74
     1
 91
        0
 64
     7
 65
   257
 75
     1
175
     1
 42
1.0
 92
        0
 66
   257
 43
1.0
 76
     1
 77
     6
 78
     2
 67
     7
 79
     5
170
     0
171
     0
290
     0
174
     0
 93
       13
 44
0.0
173
     0
291
     1
 45
0.0
1001
ACAD
1000
AcDbSavedByObjectVersion
1070
     0
  0
VISUALSTYLE
  5
2D
102
{ACAD_XDICTIONARY
360
5A5
102
}
102
{ACAD_REACTORS
330
2A
102
}
330
2A
100
AcDbVisualStyle
  2

 70
     2
 71
     2
 72
     2
 73
     1
 90
        2
 40
-0.6
 41
30.0
 62
     5
 63
     7
 74
     0
 91
        0
 64
     7
 65
   257
 75
     1
175
     1
 42
1.0
 92
        0
 66
     7
 43
1.0
 76
     1
 77
     6
 78
     2
 67
     7
 79
     5
170
     0
171
     0
290
     0
174
     0
 93
       13
 44
0.0
173
     0
291
     1
 45
0.0
1001
ACAD
1000
AcDbSavedByObjectVersion
1070
     0
  0
VISUALSTYLE
  5
2E
102
{ACAD_XDICTIONARY
360
5A7
102
}
102
{ACAD_REACTORS
330
2A
102
}
330
2A
100
AcDbVisualStyle
  2

 70
     3
 71
     2
 72
     2
 73
     1
 90
        2
 40
-0.6
 41
30.0
 62
     5
 63
     7
 74
     1
 91
        0
 64
     7
 65
   257
 75
     1
175
     1
 42
1.0
 92
        0
 66
   257
 43
1.0
 76
     1
 77
     6
 78
     2
 67
     7
 79
     5
170
     0
171
     0
290
     0
174
     0
 93
       13
 44
0.0
173
     0
291
     1
 45
0.0
1001
ACAD
1000
AcDbSavedByObjectVersion
1070
     0
  0
VISUALSTYLE
  5
31
102
{ACAD_XDICTIONARY
360
5AD
102
}
102
{ACAD_REACTORS
330
2A
102
}
330
2A
100
AcDbVisualStyle
  2

 70
     6
 71
     1
 72
     2
 73
     2
 90
        0
 40
-0.6
 41
-30.0
 62
     5
 63
     7
 74
     2
 91
        2
 64
     7
 65
   257
 75
     2
175
     1
 42
40.0
 92
        0
 66
   257
 43
1.0
 76
     1
 77
     6
 78
     2
 67
     7
 79
     3
170
     0
171
     0
290
     0
174
     0
 93
        1
 44
0.0
173
     0
291
     0
 45
0.0
1001
ACAD
1000
AcDbSavedByObjectVersion
1070
     0
  0
VISUALSTYLE
  5
3B
102
{ACAD_XDICTIONARY
360
5C1
102
}
102
{ACAD_REACTORS
330
2A
102
}
330
2A
100
AcDbVisualStyle
  2

 70
    20
 71
     2
 72
     2
 73
     0
 90
        0
 40
-0.6
 41
-30.0
 62
     5
 63
     7
 74
     1
 91
        4
 64
     7
 65
   257
 75
     1
175
     1
 42
1.0
 92
       10
 66
     7
 43
1.0
 76
     1
 77
     6
 78
     2
 67
     7
 79
     5
170
     0
171
     0
290
     0
174
     0
 93
        1
 44
0.0
173
     0
291
     1
 45
0.0
1001
ACAD
1000
AcDbSavedByObjectVersion
1070
     0
  0
VISUALSTYLE
  5
38
102
{ACAD_XDICTIONARY
360
5BB
102
}
102
{ACAD_REACTORS
330
2A
102
}
330
2A
100
AcDbVisualStyle
  2

 70
    14
 71
     2
 72
     2
 73
     0
 90
        0
 40
-0.6
 41
-30.0
 62
     5
 63
     7
 74
     1
 91
        4
 64
     7
 65
   257
 75
     7
175
     7
 42
1.0
 92
        8
 66
     7
 43
1.0
 76
     1
 77
     6
 78
     2
 67
     7
 79
     5
170
     0
171
     0
290
     0
174
     0
 93
        1
 44
0.0
173
     0
291
     1
 45
0.0
1001
ACAD
1000
AcDbSavedByObjectVersion
1070
     0
  0
VISUALSTYLE
  5
3C
102
{ACAD_XDICTIONARY
360
5C3
102
}
102
{ACAD_REACTORS
330
2A
102
}
330
2A
100
AcDbVisualStyle
  2

 70
    21
 71
     2
 72
     2
 73
     0
 90
        0
 40
-0.6
 41
-30.0
 62
     5
 63
     7
 74
     1
 91
        4
 64
     7
 65
   257
 75
     1
175
     1
 42
1.0
 92
        9
 66
     7
 43
1.0
 76
     1
 77
     6
 78
     2
 67
     7
 79
     5
170
     0
171
     0
290
     0
174
     0
 93
        1
 44
0.0
173
     0
291
     1
 45
0.0
1001
ACAD
1000
AcDbSavedByObjectVersion
1070
     0
  0
VISUALSTYLE
  5
33
102
{ACAD_XDICTIONARY
360
5B1
102
}
102
{ACAD_REACTORS
330
2A
102
}
330
2A
100
AcDbVisualStyle
  2

 70
     8
 71
     2
 72
     3
 73
     0
 90
        2
 40
-0.6
 41
30.0
 62
     5
 63
     7
 74
     0
 91
        0
 64
     7
 65
   257
 75
     1
175
     1
 42
1.0
 92
        8
 66
   257
 43
1.0
 76
     1
 77
     6
 78
     2
 67
     7
 79
     3
170
     0
171
     0
290
     0
174
     0
 93
       13
 44
0.0
173
     0
291
     0
 45
0.0
1001
ACAD
1000
AcDbSavedByObjectVersion
1070
     0
  0
VISUALSTYLE
  5
42
102
{ACAD_XDICTIONARY
360
5CF
102
}
102
{ACAD_REACTORS
330
2A
102
}
330
2A
100
AcDbVisualStyle
  2

 70
    27
 71
     2
 72
     2
 73
     1
 90
        2
 40
-0.6
 41
30.0
 62
     5
 63
     7
 74
     0
 91
        4
 64
     7
 65
   257
 75
     1
175
     1
 42
1.0
 92
        8
 66
   257
 43
1.0
 76
     1
 77
     6
 78
     2
 67
     8
 79
     3
170
     0
171
     0
290
     0
174
     0
 93
        5
 44
0.0
173
     0
291
     0
 45
0.0
1001
ACAD
1000
AcDbSavedByObjectVersion
1070
     0
  0
VISUALSTYLE
  5
41
102
{ACAD_XDICTIONARY
360
5CD
102
}
102
{ACAD_REACTORS
330
2A
102
}
330
2A
100
AcDbVisualStyle
  2

 70
    26
 71
     2
 72
     2
 73
     1
 90
        2
 40
-0.6
 41
30.0
 62
     5
 63
     7
 74
     1
 91
       10
 64
     7
 65
   257
 75
     2
175
     1
 42
1.0
 92
        8
 66
   257
 43
1.0
 76
     1
 77
     6
 78
     2
 67
     7
 79
     3
170
     0
171
     0
290
     0
174
     0
 93
        5
 44
0.0
173
     0
291
     0
 45
0.0
1001
ACAD
1000
AcDbSavedByObjectVersion
1070
     0
  0
VISUALSTYLE
  5
3E
102
{ACAD_XDICTIONARY
360
5C7
102
}
102
{ACAD_REACTORS
330
2A
102
}
330
2A
100
AcDbVisualStyle
  2

 70
    23
 71
     2
 72
     2
 73
     3
 90
        0
 40
-0.6
 41
-30.0
 62
     5
 63
     7
 74
     2
 91
        2
 64
     7
 65
     7
 75
     1
175
     1
 42
40.0
 92
        8
 66
     7
 43
1.0
 76
     1
 77
     6
 78
     2
 67
     7
 79
     3
170
     0
171
     0
290
     0
174
     0
 93
        1
 44
0.0
173
     0
291
     0
 45
0.0
1001
ACAD
1000
AcDbSavedByObjectVersion
1070
     0
  0
VISUALSTYLE
  5
3F
102
{ACAD_XDICTIONARY
360
5C9
102
}
102
{ACAD_REACTORS
330
2A
102
}
330
2A
100
AcDbVisualStyle
  2

 70
    24
 71
     1
 72
     2
 73
     2
 90
        0
 40
-0.6
 41
-30.0
 62
     5
 63
     7
 74
     2
 91
        2
 64
     7
 65
     7
 75
     1
175
     1
 42
40.0
 92
       11
 66
     7
 43
1.0
 76
     1
 77
     6
 78
     2
 67
     7
 79
     6
170
     0
171
     0
290
     0
174
     0
 93
        1
 44
0.0
173
     0
291
     0
 45
0.0
1001
ACAD
1000
AcDbSavedByObjectVersion
1070
     0
  0
VISUALSTYLE
  5
37
102
{ACAD_XDICTIONARY
360
5B9
102
}
102
{ACAD_REACTORS
330
2A
102
}
330
2A
100
AcDbVisualStyle
  2

 70
    13
 71
     2
 72
     2
 73
     0
 90
        0
 40
-0.6
 41
-30.0
 62
     5
 63
     7
 74
     1
 91
        4
 64
     7
 65
   257
 75
     1
175
     1
 42
1.0
 92
       12
 66
     7
 43
1.0
 76
     1
 77
     6
 78
     2
 67
     7
 79
     5
170
     0
171
     0
290
     0
174
     0
 93
        1
 44
0.0
173
     0
291
     1
 45
0.0
1001
ACAD
1000
AcDbSavedByObjectVersion
1070
     0
  0
VISUALSTYLE
  5
30
102
{ACAD_XDICTIONARY
360
5AB
102
}
102
{ACAD_REACTORS
330
2A
102
}
330
2A
100
AcDbVisualStyle
  2

 70
     5
 71
     0
 72
     2
 73
     0
 90
        0
 40
-0.6
 41
-30.0
 62
     5
 63
     7
 74
     1
 91
        4
 64
     7
 65
   257
 75
     1
175
     1
 42
1.0
 92
        0
 66
   257
 43
1.0
 76
     1
 77
     6
 78
     2
 67
     7
 79
     3
170
     0
171
     0
290
     0
174
     0
 93
        1
 44
0.0
173
     0
291
     0
 45
0.0
1001
ACAD
1000
AcDbSavedByObjectVersion
1070
     0
  0
VISUALSTYLE
  5
40
102
{ACAD_XDICTIONARY
360
5CB
102
}
102
{ACAD_REACTORS
330
2A
102
}
330
2A
100
AcDbVisualStyle
  2

 70
    25
 71
     2
 72
     2
 73
     1
 90
        1
 40
0.5
 41
-30.0
 62
     5
 63
     7
 74
     1
 91
        0
 64
     7
 65
   257
 75
     1
175
     1
 42
1.0
 92
        8
 66
     7
 43
1.0
 76
     1
 77
     6
 78
     2
 67
     7
 79
     3
170
     0
171
     0
290
     0
174
     0
 93
       13
 44
0.0
173
     0
291
     0
 45
0.0
1001
ACAD
1000
AcDbSavedByObjectVersion
1070
     0
  0
DICTIONARYVAR
  5
243
102
{ACAD_REACTORS
330
235
102
}
330
235
100
DictionaryVariables
280
     0
  1
1:1
  0
DICTIONARYVAR
  5
23C
102
{ACAD_REACTORS
330
235
102
}
330
235
100
DictionaryVariables
280
     0
  1
3.500000
  0
DICTIONARYVAR
  5
23D
102
{ACAD_REACTORS
330
235
102
}
330
235
100
DictionaryVariables
280
     0
  1
acadiso.lin
  0
DICTIONARYVAR
  5
237
102
{ACAD_REACTORS
330
235
102
}
330
235
100
DictionaryVariables
280
     0
  1
STANDARD
  0
DICTIONARYVAR
  5
236
102
{ACAD_REACTORS
330
235
102
}
330
235
100
DictionaryVariables
280
     0
  1
STANDARD
  0
DICTIONARYVAR
  5
546
102
{ACAD_REACTORS
330
235
102
}
330
235
100
DictionaryVariables
280
     0
  1
Metric50
  0
DICTIONARYVAR
  5
547
102
{ACAD_REACTORS
330
235
102
}
330
235
100
DictionaryVariables
280
     0
  1
Metric50
  0
DICTIONARYVAR
  5
23E
102
{ACAD_REACTORS
330
235
102
}
330
235
100
DictionaryVariables
280
     0
  1
2
  0
DICTIONARYVAR
  5
23F
102
{ACAD_REACTORS
330
235
102
}
330
235
100
DictionaryVariables
280
     0
  1
1
  0
DICTIONARYVAR
  5
593
102
{ACAD_REACTORS
330
235
102
}
330
235
100
DictionaryVariables
280
     0
  1
0
  0
DICTIONARYVAR
  5
549
102
{ACAD_REACTORS
330
235
102
}
330
235
100
DictionaryVariables
280
     0
  1
1
  0
DICTIONARYVAR
  5
54A
102
{ACAD_REACTORS
330
235
102
}
330
235
100
DictionaryVariables
280
     0
  1
15
  0
DICTIONARYVAR
  5
548
102
{ACAD_REACTORS
330
235
102
}
330
235
100
DictionaryVariables
280
     0
  1
0
  0
DICTIONARYVAR
  5
596
102
{ACAD_REACTORS
330
235
102
}
330
235
100
DictionaryVariables
280
     0
  1
1.570796
  0
DICTIONARYVAR
  5
597
102
{ACAD_REACTORS
330
235
102
}
330
235
100
DictionaryVariables
280
     0
  1
1.570796
  0
DICTIONARYVAR
  5
598
102
{ACAD_REACTORS
330
235
102
}
330
235
100
DictionaryVariables
280
     0
  1
-122.394000
  0
DICTIONARYVAR
  5
244
102
{ACAD_REACTORS
330
235
102
}
330
235
100
DictionaryVariables
280
     0
  1
1
  0
DICTIONARYVAR
  5
595
102
{ACAD_REACTORS
330
235
102
}
330
235
100
DictionaryVariables
280
     0
  1
80.000000
  0
DICTIONARYVAR
  5
594
102
{ACAD_REACTORS
330
235
102
}
330
235
100
DictionaryVariables
280
     0
  1
5.000000
  0
DICTIONARYVAR
  5
592
102
{ACAD_REACTORS
330
235
102
}
330
235
100
DictionaryVariables
280
     0
  1
127
  0
DICTIONARYVAR
  5
599
102
{ACAD_REACTORS
330
235
102
}
330
235
100
DictionaryVariables
280
     0
  1
2
  0
DICTIONARY
  5
5D4
330
284
100
AcDbDictionary
280
     1
281
     1
  3
ACAD_XREC_ROUNDTRIP
360
5D5
  0
DICTIONARY
  5
59D
330
1E
100
AcDbDictionary
280
     1
281
     1
  3
ACAD_XREC_ROUNDTRIP
360
59E
  0
DICTIONARY
  5
59F
330
22
100
AcDbDictionary
280
     1
281
     1
  3
ACAD_XREC_ROUNDTRIP
360
5A0
  0
DICTIONARY
  5
5D6
330
285
100
AcDbDictionary
280
     1
281
     1
  3
ACAD_XREC_ROUNDTRIP
360
5D7
  0
DICTIONARY
  5
277
330
45
100
AcDbDictionary
280
     1
281
     1
  3
ACAD_XREC_ROUNDTRIP
360
278
  0
DICTIONARY
  5
275
330
44
100
AcDbDictionary
280
     1
281
     1
  3
ACAD_XREC_ROUNDTRIP
360
276
  0
DICTIONARY
  5
279
330
46
100
AcDbDictionary
280
     1
281
     1
  3
ACAD_XREC_ROUNDTRIP
360
27A
  0
DICTIONARY
  5
5D2
330
282
100
AcDbDictionary
280
     1
281
     1
  3
ACAD_XREC_ROUNDTRIP
360
5D3
  0
DICTIONARY
  5
54B
330
5A
100
AcDbDictionary
280
     1
281
     1
  3
ACAD_ROUNDTRIP_2008_TABLESTYLE_CELLSTYLEMAP
360
59A
  3
ACAD_XREC_ROUNDTRIP
360
5D1
  0
DICTIONARY
  5
5A9
330
2F
100
AcDbDictionary
280
     1
281
     1
  3
ACAD_XREC_ROUNDTRIP
360
5AA
  0
DICTIONARY
  5
5AF
330
32
100
AcDbDictionary
280
     1
281
     1
  3
ACAD_XREC_ROUNDTRIP
360
5B0
  0
DICTIONARY
  5
5B7
330
36
100
AcDbDictionary
280
     1
281
     1
  3
ACAD_XREC_ROUNDTRIP
360
5B8
  0
DICTIONARY
  5
5BF
330
3A
100
AcDbDictionary
280
     1
281
     1
  3
ACAD_XREC_ROUNDTRIP
360
5C0
  0
DICTIONARY
  5
5B3
330
34
100
AcDbDictionary
280
     1
281
     1
  3
ACAD_XREC_ROUNDTRIP
360
5B4
  0
DICTIONARY
  5
5B5
330
35
100
AcDbDictionary
280
     1
281
     1
  3
ACAD_XREC_ROUNDTRIP
360
5B6
  0
DICTIONARY
  5
5C5
330
3D
100
AcDbDictionary
280
     1
281
     1
  3
ACAD_XREC_ROUNDTRIP
360
5C6
  0
DICTIONARY
  5
5BD
330
39
100
AcDbDictionary
280
     1
281
     1
  3
ACAD_XREC_ROUNDTRIP
360
5BE
  0
DICTIONARY
  5
5A1
330
2B
100
AcDbDictionary
280
     1
281
     1
  3
ACAD_XREC_ROUNDTRIP
360
5A2
  0
DICTIONARY
  5
5A3
330
2C
100
AcDbDictionary
280
     1
281
     1
  3
ACAD_XREC_ROUNDTRIP
360
5A4
  0
DICTIONARY
  5
5A5
330
2D
100
AcDbDictionary
280
     1
281
     1
  3
ACAD_XREC_ROUNDTRIP
360
5A6
  0
DICTIONARY
  5
5A7
330
2E
100
AcDbDictionary
280
     1
281
     1
  3
ACAD_XREC_ROUNDTRIP
360
5A8
  0
DICTIONARY
  5
5AD
330
31
100
AcDbDictionary
280
     1
281
     1
  3
ACAD_XREC_ROUNDTRIP
360
5AE
  0
DICTIONARY
  5
5C1
330
3B
100
AcDbDictionary
280
     1
281
     1
  3
ACAD_XREC_ROUNDTRIP
360
5C2
  0
DICTIONARY
  5
5BB
330
38
100
AcDbDictionary
280
     1
281
     1
  3
ACAD_XREC_ROUNDTRIP
360
5BC
  0
DICTIONARY
  5
5C3
330
3C
100
AcDbDictionary
280
     1
281
     1
  3
ACAD_XREC_ROUNDTRIP
360
5C4
  0
DICTIONARY
  5
5B1
330
33
100
AcDbDictionary
280
     1
281
     1
  3
ACAD_XREC_ROUNDTRIP
360
5B2
  0
DICTIONARY
  5
5CF
330
42
100
AcDbDictionary
280
     1
281
     1
  3
ACAD_XREC_ROUNDTRIP
360
5D0
  0
DICTIONARY
  5
5CD
330
41
100
AcDbDictionary
280
     1
281
     1
  3
ACAD_XREC_ROUNDTRIP
360
5CE
  0
DICTIONARY
  5
5C7
330
3E
100
AcDbDictionary
280
     1
281
     1
  3
ACAD_XREC_ROUNDTRIP
360
5C8
  0
DICTIONARY
  5
5C9
330
3F
100
AcDbDictionary
280
     1
281
     1
  3
ACAD_XREC_ROUNDTRIP
360
5CA
  0
DICTIONARY
  5
5B9
330
37
100
AcDbDictionary
280
     1
281
     1
  3
ACAD_XREC_ROUNDTRIP
360
5BA
  0
DICTIONARY
  5
5AB
330
30
100
AcDbDictionary
280
     1
281
     1
  3
ACAD_XREC_ROUNDTRIP
360
5AC
  0
DICTIONARY
  5
5CB
330
40
100
AcDbDictionary
280
     1
281
     1
  3
ACAD_XREC_ROUNDTRIP
360
5CC
  0
XRECORD
  5
5D5
102
{ACAD_REACTORS
330
5D4
102
}
330
5D4
100
AcDbXrecord
280
     1
102
DISPLAYNAME
  1
Metric50
102
FLAGS
 90
        0
  0
XRECORD
  5
59E
102
{ACAD_REACTORS
330
59D
102
}
330
59D
100
AcDbXrecord
280
     1
102
SHADEPLOT
 70
     0
102
SHADEPLOTRESLEVEL
 70
     2
102
SHADEPLOTCUSTOMDPI
 70
   300
  0
XRECORD
  5
5A0
102
{ACAD_REACTORS
330
59F
102
}
330
59F
100
AcDbXrecord
280
     1
102
SHADEPLOT
 70
     0
102
SHADEPLOTRESLEVEL
 70
     2
102
SHADEPLOTCUSTOMDPI
 70
   300
  0
XRECORD
  5
5D7
102
{ACAD_REACTORS
330
5D6
102
}
330
5D6
100
AcDbXrecord
280
     1
102
SHADEPLOT
 70
     0
102
SHADEPLOTRESLEVEL
 70
     2
102
SHADEPLOTCUSTOMDPI
 70
   300
  0
XRECORD
  5
278
102
{ACAD_REACTORS
330
277
102
}
330
277
100
AcDbXrecord
280
     1
102
MATERIAL
148
0.0
149
0.0
149
0.0
 93
        0
 94
      127
282
     0
 72
     1
 77
     1
171
     1
175
     1
179
     1
273
     0
  0
XRECORD
  5
276
102
{ACAD_REACTORS
330
275
102
}
330
275
100
AcDbXrecord
280
     1
102
MATERIAL
148
0.0
149
0.0
149
0.0
 93
        0
 94
      127
282
     0
 72
     1
 77
     1
171
     1
175
     1
179
     1
273
     0
  0
XRECORD
  5
27A
102
{ACAD_REACTORS
330
279
102
}
330
279
100
AcDbXrecord
280
     1
102
MATERIAL
148
0.0
149
0.0
149
0.0
 93
        0
 94
      127
282
     0
 72
     1
 77
     1
171
     1
175
     1
179
     1
273
     0
  0
XRECORD
  5
5D3
102
{ACAD_REACTORS
330
5D2
102
}
330
5D2
100
AcDbXrecord
280
     1
102
DISPLAYNAME
  1
Metric50
102
FLAGS
 90
        0
  0
CELLSTYLEMAP
  5
59A
102
{ACAD_REACTORS
330
54B
102
}
330
54B
100
AcDbCellStyleMap
 90
        3
300
CELLSTYLE
  1
TABLEFORMAT_BEGIN
 90
        5
170
     1
 91
        0
 92
    32768
 62
   257
 93
        1
300
CONTENTFORMAT
  1
CONTENTFORMAT_BEGIN
 90
        0
 91
        0
 92
        4
 93
        0
300

 40
0.0
140
1.0
 94
        5
 62
     0
340
11
144
6.0
309
CONTENTFORMAT_END
171
     1
301
MARGIN
  1
CELLMARGIN_BEGIN
 40
1.5
 40
1.5
 40
1.5
 40
1.5
 40
0.18
 40
0.18
309
CELLMARGIN_END
 94
        6
 95
        1
302
GRIDFORMAT
  1
GRIDFORMAT_BEGIN
 90
        0
 91
        1
 62
     0
 92
       -2
340
0
 93
        0
 40
0.045
309
GRIDFORMAT_END
 95
        2
302
GRIDFORMAT
  1
GRIDFORMAT_BEGIN
 90
        0
 91
        1
 62
     0
 92
       -2
340
0
 93
        0
 40
0.045
309
GRIDFORMAT_END
 95
        4
302
GRIDFORMAT
  1
GRIDFORMAT_BEGIN
 90
        0
 91
        1
 62
     0
 92
       -2
340
0
 93
        0
 40
0.045
309
GRIDFORMAT_END
 95
        8
302
GRIDFORMAT
  1
GRIDFORMAT_BEGIN
 90
        0
 91
        1
 62
     0
 92
       -2
340
0
 93
        0
 40
0.045
309
GRIDFORMAT_END
 95
       16
302
GRIDFORMAT
  1
GRIDFORMAT_BEGIN
 90
        0
 91
        1
 62
     0
 92
       -2
340
0
 93
        0
 40
0.045
309
GRIDFORMAT_END
 95
       32
302
GRIDFORMAT
  1
GRIDFORMAT_BEGIN
 90
        0
 91
        1
 62
     0
 92
       -2
340
0
 93
        0
 40
0.045
309
GRIDFORMAT_END
309
TABLEFORMAT_END
  1
CELLSTYLE_BEGIN
 90
        1
 91
        1
300
_TITLE
309
CELLSTYLE_END
300
CELLSTYLE
  1
TABLEFORMAT_BEGIN
 90
        5
170
     1
 91
        0
 92
        0
 62
   257
 93
        1
300
CONTENTFORMAT
  1
CONTENTFORMAT_BEGIN
 90
        0
 91
        0
 92
        4
 93
        0
300

 40
0.0
140
1.0
 94
        5
 62
     0
340
11
144
4.5
309
CONTENTFORMAT_END
171
     1
301
MARGIN
  1
CELLMARGIN_BEGIN
 40
1.5
 40
1.5
 40
1.5
 40
1.5
 40
0.18
 40
0.18
309
CELLMARGIN_END
 94
        6
 95
        1
302
GRIDFORMAT
  1
GRIDFORMAT_BEGIN
 90
        0
 91
        1
 62
     0
 92
       -2
340
0
 93
        0
 40
0.045
309
GRIDFORMAT_END
 95
        2
302
GRIDFORMAT
  1
GRIDFORMAT_BEGIN
 90
        0
 91
        1
 62
     0
 92
       -2
340
0
 93
        0
 40
0.045
309
GRIDFORMAT_END
 95
        4
302
GRIDFORMAT
  1
GRIDFORMAT_BEGIN
 90
        0
 91
        1
 62
     0
 92
       -2
340
0
 93
        0
 40
0.045
309
GRIDFORMAT_END
 95
        8
302
GRIDFORMAT
  1
GRIDFORMAT_BEGIN
 90
        0
 91
        1
 62
     0
 92
       -2
340
0
 93
        0
 40
0.045
309
GRIDFORMAT_END
 95
       16
302
GRIDFORMAT
  1
GRIDFORMAT_BEGIN
 90
        0
 91
        1
 62
     0
 92
       -2
340
0
 93
        0
 40
0.045
309
GRIDFORMAT_END
 95
       32
302
GRIDFORMAT
  1
GRIDFORMAT_BEGIN
 90
        0
 91
        1
 62
     0
 92
       -2
340
0
 93
        0
 40
0.045
309
GRIDFORMAT_END
309
TABLEFORMAT_END
  1
CELLSTYLE_BEGIN
 90
        2
 91
        1
300
_HEADER
309
CELLSTYLE_END
300
CELLSTYLE
  1
TABLEFORMAT_BEGIN
 90
        5
170
     1
 91
        0
 92
        0
 62
   257
 93
        1
300
CONTENTFORMAT
  1
CONTENTFORMAT_BEGIN
 90
        0
 91
        0
 92
        4
 93
        0
300

 40
0.0
140
1.0
 94
        2
 62
     0
340
11
144
4.5
309
CONTENTFORMAT_END
171
     1
301
MARGIN
  1
CELLMARGIN_BEGIN
 40
1.5
 40
1.5
 40
1.5
 40
1.5
 40
0.18
 40
0.18
309
CELLMARGIN_END
 94
        6
 95
        1
302
GRIDFORMAT
  1
GRIDFORMAT_BEGIN
 90
        0
 91
        1
 62
     0
 92
       -2
340
0
 93
        0
 40
0.045
309
GRIDFORMAT_END
 95
        2
302
GRIDFORMAT
  1
GRIDFORMAT_BEGIN
 90
        0
 91
        1
 62
     0
 92
       -2
340
0
 93
        0
 40
0.045
309
GRIDFORMAT_END
 95
        4
302
GRIDFORMAT
  1
GRIDFORMAT_BEGIN
 90
        0
 91
        1
 62
     0
 92
       -2
340
0
 93
        0
 40
0.045
309
GRIDFORMAT_END
 95
        8
302
GRIDFORMAT
  1
GRIDFORMAT_BEGIN
 90
        0
 91
        1
 62
     0
 92
       -2
340
0
 93
        0
 40
0.045
309
GRIDFORMAT_END
 95
       16
302
GRIDFORMAT
  1
GRIDFORMAT_BEGIN
 90
        0
 91
        1
 62
     0
 92
       -2
340
0
 93
        0
 40
0.045
309
GRIDFORMAT_END
 95
       32
302
GRIDFORMAT
  1
GRIDFORMAT_BEGIN
 90
        0
 91
        1
 62
     0
 92
       -2
340
0
 93
        0
 40
0.045
309
GRIDFORMAT_END
309
TABLEFORMAT_END
  1
CELLSTYLE_BEGIN
 90
        3
 91
        2
300
_DATA
309
CELLSTYLE_END
  0
XRECORD
  5
5D1
102
{ACAD_REACTORS
330
54B
102
}
330
54B
100
AcDbXrecord
280
     1
102
ACAD_ROUNDTRIP_PRE2007_TABLESTYLE
 90
        4
 91
        0
  1

 92
        4
 93
        0
  2

 94
        4
 95
        0
  3

  0
XRECORD
  5
5AA
102
{ACAD_REACTORS
330
5A9
102
}
330
5A9
100
AcDbXrecord
280
     1
102
RTVSPost2010Prop28
280
     1
102
RTVSPost2010PropOp28
 70
     1
102
RTVSPost2010Prop29
280
     1
102
RTVSPost2010PropOp29
 70
     1
102
RTVSPost2010Prop30
280
     0
102
RTVSPost2010PropOp30
 70
     1
102
RTVSPost2010Prop31
280
     0
102
RTVSPost2010PropOp31
 70
     1
102
RTVSPost2010Prop32
280
     0
102
RTVSPost2010PropOp32
 70
     1
102
RTVSPost2010Prop33
280
     0
102
RTVSPost2010PropOp33
 70
     1
102
RTVSPost2010Prop34
280
     0
102
RTVSPost2010PropOp34
 70
     1
102
RTVSPost2010Prop35
280
     0
102
RTVSPost2010PropOp35
 70
     1
102
RTVSPost2010Prop36
280
     0
102
RTVSPost2010PropOp36
 70
     1
102
RTVSPost2010Prop37
 90
       50
102
RTVSPost2010PropOp37
 70
     1
102
RTVSPost2010Prop38
140
0.0
102
RTVSPost2010PropOp38
 70
     1
102
RTVSPost2010Prop39
140
1.0
102
RTVSPost2010PropOp39
 70
     1
102
RTVSPost2010Prop40
 90
        0
102
RTVSPost2010PropOp40
 70
     1
102
RTVSPost2010Prop41ColorIndex
 90
       18
102
RTVSPost2010Prop41ColorRGB
 90
        0
102
RTVSPost2010PropOp41
 70
     1
102
RTVSPost2010Prop42
 90
       50
102
RTVSPost2010PropOp42
 70
     1
102
RTVSPost2010Prop43
 90
        3
102
RTVSPost2010PropOp43
 70
     1
102
RTVSPost2010Prop44ColorIndex
 90
        5
102
RTVSPost2010Prop44ColorRGB
 90
      255
102
RTVSPost2010PropOp44
 70
     1
102
RTVSPost2010Prop45
280
     0
102
RTVSPost2010PropOp45
 70
     1
102
RTVSPost2010Prop46
 90
       50
102
RTVSPost2010PropOp46
 70
     1
102
RTVSPost2010Prop47
 90
       50
102
RTVSPost2010PropOp47
 70
     1
102
RTVSPost2010Prop48
 90
       50
102
RTVSPost2010PropOp48
 70
     1
102
RTVSPost2010Prop49
280
     0
102
RTVSPost2010PropOp49
 70
     1
102
RTVSPost2010Prop50
 90
       50
102
RTVSPost2010PropOp50
 70
     1
102
RTVSPost2010Prop51ColorIndex
 90
      256
102
RTVSPost2010Prop51ColorRGB
 90
-16777216
102
RTVSPost2010PropOp51
 70
     0
102
RTVSPost2010Prop52
140
1.0
102
RTVSPost2010PropOp52
 70
     0
102
RTVSPost2010Prop53
 90
        2
102
RTVSPost2010PropOp53
 70
     1
102
RTVSPost2010Prop54
  1
strokes_ogs.tif
102
RTVSPost2010PropOp54
 70
     1
102
RTVSPost2010Prop55
280
     0
102
RTVSPost2010PropOp55
 70
     1
102
RTVSPost2010Prop56
140
1.0
102
RTVSPost2010PropOp56
 70
     1
102
RTVSPost2010Prop57
140
1.0
102
RTVSPost2010PropOp57
 70
     1
102
RTVSPropertyOp0
 70
     1
102
RTVSPropertyOp1
 70
     1
102
RTVSPropertyOp2
 70
     1
102
RTVSPropertyOp3
 70
     1
102
RTVSPropertyOp4
 70
     1
102
RTVSPropertyOp5
 70
     1
102
RTVSPropertyOp6
 70
     1
102
RTVSPropertyOp7
 70
     1
102
RTVSPropertyOp8
 70
     1
102
RTVSPropertyOp9
 70
     1
102
RTVSPropertyOp10
 70
     1
102
RTVSPropertyOp11
 70
     1
102
RTVSPropertyOp12
 70
     1
102
RTVSPropertyOp13
 70
     1
102
RTVSPropertyOp14
 70
     1
102
RTVSPropertyOp15
 70
     1
102
RTVSPropertyOp16
 70
     1
102
RTVSPropertyOp17
 70
     1
102
RTVSPropertyOp18
 70
     1
102
RTVSPropertyOp19
 70
     1
102
RTVSPropertyOp20
 70
     1
102
RTVSPropertyOp21
 70
     1
102
RTVSPropertyOp22
 70
     1
102
RTVSPropertyOp23
 70
     1
102
RTVSPropertyOp24
 70
     1
102
RTVSPropertyOp25
 70
     1
102
RTVSPropertyOp26
 70
     1
102
RTVSPropertyOp27
 70
     1
102
RTVSPropertyOp28
 70
     1
102
RTVSPropertyOp29
 70
     1
102
RTVSPropertyOp30
 70
     1
102
RTVSPropertyOp31
 70
     1
102
RTVSPropertyOp32
 70
     1
102
RTVSPropertyOp33
 70
     1
102
RTVSPropertyOp34
 70
     1
102
RTVSPropertyOp35
 70
     1
102
RTVSPropertyOp36
 70
     1
102
RTVSPropertyOp37
 70
     1
102
RTVSPropertyOp38
 70
     1
102
RTVSPropertyOp39
 70
     1
102
RTVSPropertyOp40
 70
     1
102
RTVSPropertyOp41
 70
     1
102
RTVSPropertyOp42
 70
     1
102
RTVSPropertyOp43
 70
     1
102
RTVSPropertyOp44
 70
     1
102
RTVSPropertyOp45
 70
     1
102
RTVSPropertyOp46
 70
     1
102
RTVSPropertyOp47
 70
     1
102
RTVSPropertyOp48
 70
     1
102
RTVSPropertyOp49
 70
     1
102
RTVSPropertyOp50
 70
     1
102
RTVSPropertyOp51
 70
     0
102
RTVSPropertyOp52
 70
     0
102
RTVSPropertyOp53
 70
     1
102
RTVSPropertyOp54
 70
     1
102
RTVSPropertyOp55
 70
     1
102
RTVSPropertyOp56
 70
     1
102
RTVSPropertyOp57
 70
     1
102
RTVSPropertyOp58
 70
     1
102
RTVSPropertyOp59
 70
     1
102
RTVSPropertyOp60
 70
     1
102
RTVSPropertyOp61
 70
     1
102
RTVSPropertyOp62
 70
     1
  0
XRECORD
  5
5B0
102
{ACAD_REACTORS
330
5AF
102
}
330
5AF
100
AcDbXrecord
280
     1
102
RTVSPost2010Prop28
280
     0
102
RTVSPost2010PropOp28
 70
     1
102
RTVSPost2010Prop29
280
     1
102
RTVSPost2010PropOp29
 70
     1
102
RTVSPost2010Prop30
280
     1
102
RTVSPost2010PropOp30
 70
     1
102
RTVSPost2010Prop31
280
     0
102
RTVSPost2010PropOp31
 70
     1
102
RTVSPost2010Prop32
280
     0
102
RTVSPost2010PropOp32
 70
     1
102
RTVSPost2010Prop33
280
     0
102
RTVSPost2010PropOp33
 70
     1
102
RTVSPost2010Prop34
280
     0
102
RTVSPost2010PropOp34
 70
     1
102
RTVSPost2010Prop35
280
     0
102
RTVSPost2010PropOp35
 70
     1
102
RTVSPost2010Prop36
280
     0
102
RTVSPost2010PropOp36
 70
     1
102
RTVSPost2010Prop37
 90
       50
102
RTVSPost2010PropOp37
 70
     1
102
RTVSPost2010Prop38
140
0.0
102
RTVSPost2010PropOp38
 70
     1
102
RTVSPost2010Prop39
140
1.0
102
RTVSPost2010PropOp39
 70
     1
102
RTVSPost2010Prop40
 90
        0
102
RTVSPost2010PropOp40
 70
     1
102
RTVSPost2010Prop41ColorIndex
 90
       18
102
RTVSPost2010Prop41ColorRGB
 90
        0
102
RTVSPost2010PropOp41
 70
     1
102
RTVSPost2010Prop42
 90
       50
102
RTVSPost2010PropOp42
 70
     1
102
RTVSPost2010Prop43
 90
        3
102
RTVSPost2010PropOp43
 70
     1
102
RTVSPost2010Prop44ColorIndex
 90
        5
102
RTVSPost2010Prop44ColorRGB
 90
      255
102
RTVSPost2010PropOp44
 70
     1
102
RTVSPost2010Prop45
280
     0
102
RTVSPost2010PropOp45
 70
     1
102
RTVSPost2010Prop46
 90
       50
102
RTVSPost2010PropOp46
 70
     1
102
RTVSPost2010Prop47
 90
       50
102
RTVSPost2010PropOp47
 70
     1
102
RTVSPost2010Prop48
 90
       50
102
RTVSPost2010PropOp48
 70
     1
102
RTVSPost2010Prop49
280
     0
102
RTVSPost2010PropOp49
 70
     1
102
RTVSPost2010Prop50
 90
       50
102
RTVSPost2010PropOp50
 70
     1
102
RTVSPost2010Prop51ColorIndex
 90
      256
102
RTVSPost2010Prop51ColorRGB
 90
-16777216
102
RTVSPost2010PropOp51
 70
     0
102
RTVSPost2010Prop52
140
1.0
102
RTVSPost2010PropOp52
 70
     0
102
RTVSPost2010Prop53
 90
        2
102
RTVSPost2010PropOp53
 70
     1
102
RTVSPost2010Prop54
  1
strokes_ogs.tif
102
RTVSPost2010PropOp54
 70
     1
102
RTVSPost2010Prop55
280
     0
102
RTVSPost2010PropOp55
 70
     1
102
RTVSPost2010Prop56
140
1.0
102
RTVSPost2010PropOp56
 70
     1
102
RTVSPost2010Prop57
140
1.0
102
RTVSPost2010PropOp57
 70
     1
102
RTVSPropertyOp0
 70
     1
102
RTVSPropertyOp1
 70
     1
102
RTVSPropertyOp2
 70
     1
102
RTVSPropertyOp3
 70
     1
102
RTVSPropertyOp4
 70
     1
102
RTVSPropertyOp5
 70
     1
102
RTVSPropertyOp6
 70
     1
102
RTVSPropertyOp7
 70
     1
102
RTVSPropertyOp8
 70
     1
102
RTVSPropertyOp9
 70
     1
102
RTVSPropertyOp10
 70
     1
102
RTVSPropertyOp11
 70
     1
102
RTVSPropertyOp12
 70
     1
102
RTVSPropertyOp13
 70
     1
102
RTVSPropertyOp14
 70
     1
102
RTVSPropertyOp15
 70
     1
102
RTVSPropertyOp16
 70
     1
102
RTVSPropertyOp17
 70
     1
102
RTVSPropertyOp18
 70
     1
102
RTVSPropertyOp19
 70
     1
102
RTVSPropertyOp20
 70
     1
102
RTVSPropertyOp21
 70
     1
102
RTVSPropertyOp22
 70
     1
102
RTVSPropertyOp23
 70
     1
102
RTVSPropertyOp24
 70
     1
102
RTVSPropertyOp25
 70
     1
102
RTVSPropertyOp26
 70
     1
102
RTVSPropertyOp27
 70
     1
102
RTVSPropertyOp28
 70
     1
102
RTVSPropertyOp29
 70
     1
102
RTVSPropertyOp30
 70
     1
102
RTVSPropertyOp31
 70
     1
102
RTVSPropertyOp32
 70
     1
102
RTVSPropertyOp33
 70
     1
102
RTVSPropertyOp34
 70
     1
102
RTVSPropertyOp35
 70
     1
102
RTVSPropertyOp36
 70
     1
102
RTVSPropertyOp37
 70
     1
102
RTVSPropertyOp38
 70
     1
102
RTVSPropertyOp39
 70
     1
102
RTVSPropertyOp40
 70
     1
102
RTVSPropertyOp41
 70
     1
102
RTVSPropertyOp42
 70
     1
102
RTVSPropertyOp43
 70
     1
102
RTVSPropertyOp44
 70
     1
102
RTVSPropertyOp45
 70
     1
102
RTVSPropertyOp46
 70
     1
102
RTVSPropertyOp47
 70
     1
102
RTVSPropertyOp48
 70
     1
102
RTVSPropertyOp49
 70
     1
102
RTVSPropertyOp50
 70
     1
102
RTVSPropertyOp51
 70
     0
102
RTVSPropertyOp52
 70
     0
102
RTVSPropertyOp53
 70
     1
102
RTVSPropertyOp54
 70
     1
102
RTVSPropertyOp55
 70
     1
102
RTVSPropertyOp56
 70
     1
102
RTVSPropertyOp57
 70
     1
102
RTVSPropertyOp58
 70
     1
102
RTVSPropertyOp59
 70
     1
102
RTVSPropertyOp60
 70
     1
102
RTVSPropertyOp61
 70
     1
102
RTVSPropertyOp62
 70
     1
  0
XRECORD
  5
5B8
102
{ACAD_REACTORS
330
5B7
102
}
330
5B7
100
AcDbXrecord
280
     1
102
RTVSPost2010Prop28
280
     0
102
RTVSPost2010PropOp28
 70
     1
102
RTVSPost2010Prop29
280
     1
102
RTVSPost2010PropOp29
 70
     1
102
RTVSPost2010Prop30
280
     1
102
RTVSPost2010PropOp30
 70
     1
102
RTVSPost2010Prop31
280
     0
102
RTVSPost2010PropOp31
 70
     1
102
RTVSPost2010Prop32
280
     0
102
RTVSPost2010PropOp32
 70
     1
102
RTVSPost2010Prop33
280
     0
102
RTVSPost2010PropOp33
 70
     1
102
RTVSPost2010Prop34
280
     0
102
RTVSPost2010PropOp34
 70
     1
102
RTVSPost2010Prop35
280
     0
102
RTVSPost2010PropOp35
 70
     1
102
RTVSPost2010Prop36
280
     0
102
RTVSPost2010PropOp36
 70
     1
102
RTVSPost2010Prop37
 90
       50
102
RTVSPost2010PropOp37
 70
     1
102
RTVSPost2010Prop38
140
0.0
102
RTVSPost2010PropOp38
 70
     1
102
RTVSPost2010Prop39
140
1.0
102
RTVSPost2010PropOp39
 70
     1
102
RTVSPost2010Prop40
 90
        0
102
RTVSPost2010PropOp40
 70
     1
102
RTVSPost2010Prop41ColorIndex
 90
       18
102
RTVSPost2010Prop41ColorRGB
 90
        0
102
RTVSPost2010PropOp41
 70
     1
102
RTVSPost2010Prop42
 90
       50
102
RTVSPost2010PropOp42
 70
     1
102
RTVSPost2010Prop43
 90
        3
102
RTVSPost2010PropOp43
 70
     1
102
RTVSPost2010Prop44ColorIndex
 90
        5
102
RTVSPost2010Prop44ColorRGB
 90
      255
102
RTVSPost2010PropOp44
 70
     1
102
RTVSPost2010Prop45
280
     0
102
RTVSPost2010PropOp45
 70
     1
102
RTVSPost2010Prop46
 90
       50
102
RTVSPost2010PropOp46
 70
     1
102
RTVSPost2010Prop47
 90
       50
102
RTVSPost2010PropOp47
 70
     1
102
RTVSPost2010Prop48
 90
       50
102
RTVSPost2010PropOp48
 70
     1
102
RTVSPost2010Prop49
280
     0
102
RTVSPost2010PropOp49
 70
     1
102
RTVSPost2010Prop50
 90
       50
102
RTVSPost2010PropOp50
 70
     1
102
RTVSPost2010Prop51ColorIndex
 90
      256
102
RTVSPost2010Prop51ColorRGB
 90
-16777216
102
RTVSPost2010PropOp51
 70
     0
102
RTVSPost2010Prop52
140
1.0
102
RTVSPost2010PropOp52
 70
     0
102
RTVSPost2010Prop53
 90
        2
102
RTVSPost2010PropOp53
 70
     1
102
RTVSPost2010Prop54
  1
strokes_ogs.tif
102
RTVSPost2010PropOp54
 70
     1
102
RTVSPost2010Prop55
280
     0
102
RTVSPost2010PropOp55
 70
     1
102
RTVSPost2010Prop56
140
1.0
102
RTVSPost2010PropOp56
 70
     1
102
RTVSPost2010Prop57
140
1.0
102
RTVSPost2010PropOp57
 70
     1
102
RTVSPropertyOp0
 70
     1
102
RTVSPropertyOp1
 70
     1
102
RTVSPropertyOp2
 70
     1
102
RTVSPropertyOp3
 70
     1
102
RTVSPropertyOp4
 70
     1
102
RTVSPropertyOp5
 70
     1
102
RTVSPropertyOp6
 70
     1
102
RTVSPropertyOp7
 70
     1
102
RTVSPropertyOp8
 70
     1
102
RTVSPropertyOp9
 70
     1
102
RTVSPropertyOp10
 70
     1
102
RTVSPropertyOp11
 70
     1
102
RTVSPropertyOp12
 70
     1
102
RTVSPropertyOp13
 70
     1
102
RTVSPropertyOp14
 70
     1
102
RTVSPropertyOp15
 70
     1
102
RTVSPropertyOp16
 70
     1
102
RTVSPropertyOp17
 70
     1
102
RTVSPropertyOp18
 70
     1
102
RTVSPropertyOp19
 70
     1
102
RTVSPropertyOp20
 70
     1
102
RTVSPropertyOp21
 70
     1
102
RTVSPropertyOp22
 70
     1
102
RTVSPropertyOp23
 70
     1
102
RTVSPropertyOp24
 70
     1
102
RTVSPropertyOp25
 70
     1
102
RTVSPropertyOp26
 70
     1
102
RTVSPropertyOp27
 70
     1
102
RTVSPropertyOp28
 70
     1
102
RTVSPropertyOp29
 70
     1
102
RTVSPropertyOp30
 70
     1
102
RTVSPropertyOp31
 70
     1
102
RTVSPropertyOp32
 70
     1
102
RTVSPropertyOp33
 70
     1
102
RTVSPropertyOp34
 70
     1
102
RTVSPropertyOp35
 70
     1
102
RTVSPropertyOp36
 70
     1
102
RTVSPropertyOp37
 70
     1
102
RTVSPropertyOp38
 70
     1
102
RTVSPropertyOp39
 70
     1
102
RTVSPropertyOp40
 70
     1
102
RTVSPropertyOp41
 70
     1
102
RTVSPropertyOp42
 70
     1
102
RTVSPropertyOp43
 70
     1
102
RTVSPropertyOp44
 70
     1
102
RTVSPropertyOp45
 70
     1
102
RTVSPropertyOp46
 70
     1
102
RTVSPropertyOp47
 70
     1
102
RTVSPropertyOp48
 70
     1
102
RTVSPropertyOp49
 70
     1
102
RTVSPropertyOp50
 70
     1
102
RTVSPropertyOp51
 70
     0
102
RTVSPropertyOp52
 70
     0
102
RTVSPropertyOp53
 70
     1
102
RTVSPropertyOp54
 70
     1
102
RTVSPropertyOp55
 70
     1
102
RTVSPropertyOp56
 70
     1
102
RTVSPropertyOp57
 70
     1
102
RTVSPropertyOp58
 70
     1
102
RTVSPropertyOp59
 70
     1
102
RTVSPropertyOp60
 70
     1
102
RTVSPropertyOp61
 70
     1
102
RTVSPropertyOp62
 70
     1
  0
XRECORD
  5
5C0
102
{ACAD_REACTORS
330
5BF
102
}
330
5BF
100
AcDbXrecord
280
     1
102
RTVSPost2010Prop28
280
     0
102
RTVSPost2010PropOp28
 70
     1
102
RTVSPost2010Prop29
280
     1
102
RTVSPost2010PropOp29
 70
     1
102
RTVSPost2010Prop30
280
     1
102
RTVSPost2010PropOp30
 70
     1
102
RTVSPost2010Prop31
280
     0
102
RTVSPost2010PropOp31
 70
     1
102
RTVSPost2010Prop32
280
     0
102
RTVSPost2010PropOp32
 70
     1
102
RTVSPost2010Prop33
280
     0
102
RTVSPost2010PropOp33
 70
     1
102
RTVSPost2010Prop34
280
     0
102
RTVSPost2010PropOp34
 70
     1
102
RTVSPost2010Prop35
280
     0
102
RTVSPost2010PropOp35
 70
     1
102
RTVSPost2010Prop36
280
     0
102
RTVSPost2010PropOp36
 70
     1
102
RTVSPost2010Prop37
 90
       50
102
RTVSPost2010PropOp37
 70
     1
102
RTVSPost2010Prop38
140
0.0
102
RTVSPost2010PropOp38
 70
     1
102
RTVSPost2010Prop39
140
1.0
102
RTVSPost2010PropOp39
 70
     1
102
RTVSPost2010Prop40
 90
        0
102
RTVSPost2010PropOp40
 70
     1
102
RTVSPost2010Prop41ColorIndex
 90
       18
102
RTVSPost2010Prop41ColorRGB
 90
        0
102
RTVSPost2010PropOp41
 70
     1
102
RTVSPost2010Prop42
 90
       50
102
RTVSPost2010PropOp42
 70
     1
102
RTVSPost2010Prop43
 90
        3
102
RTVSPost2010PropOp43
 70
     1
102
RTVSPost2010Prop44ColorIndex
 90
        5
102
RTVSPost2010Prop44ColorRGB
 90
      255
102
RTVSPost2010PropOp44
 70
     1
102
RTVSPost2010Prop45
280
     0
102
RTVSPost2010PropOp45
 70
     1
102
RTVSPost2010Prop46
 90
       50
102
RTVSPost2010PropOp46
 70
     1
102
RTVSPost2010Prop47
 90
       50
102
RTVSPost2010PropOp47
 70
     1
102
RTVSPost2010Prop48
 90
       50
102
RTVSPost2010PropOp48
 70
     1
102
RTVSPost2010Prop49
280
     0
102
RTVSPost2010PropOp49
 70
     1
102
RTVSPost2010Prop50
 90
       50
102
RTVSPost2010PropOp50
 70
     1
102
RTVSPost2010Prop51ColorIndex
 90
      256
102
RTVSPost2010Prop51ColorRGB
 90
-16777216
102
RTVSPost2010PropOp51
 70
     0
102
RTVSPost2010Prop52
140
1.0
102
RTVSPost2010PropOp52
 70
     0
102
RTVSPost2010Prop53
 90
        2
102
RTVSPost2010PropOp53
 70
     1
102
RTVSPost2010Prop54
  1
strokes_ogs.tif
102
RTVSPost2010PropOp54
 70
     1
102
RTVSPost2010Prop55
280
     0
102
RTVSPost2010PropOp55
 70
     1
102
RTVSPost2010Prop56
140
1.0
102
RTVSPost2010PropOp56
 70
     1
102
RTVSPost2010Prop57
140
1.0
102
RTVSPost2010PropOp57
 70
     1
102
RTVSPropertyOp0
 70
     1
102
RTVSPropertyOp1
 70
     1
102
RTVSPropertyOp2
 70
     1
102
RTVSPropertyOp3
 70
     1
102
RTVSPropertyOp4
 70
     1
102
RTVSPropertyOp5
 70
     1
102
RTVSPropertyOp6
 70
     1
102
RTVSPropertyOp7
 70
     1
102
RTVSPropertyOp8
 70
     1
102
RTVSPropertyOp9
 70
     1
102
RTVSPropertyOp10
 70
     1
102
RTVSPropertyOp11
 70
     1
102
RTVSPropertyOp12
 70
     1
102
RTVSPropertyOp13
 70
     1
102
RTVSPropertyOp14
 70
     1
102
RTVSPropertyOp15
 70
     1
102
RTVSPropertyOp16
 70
     1
102
RTVSPropertyOp17
 70
     1
102
RTVSPropertyOp18
 70
     1
102
RTVSPropertyOp19
 70
     1
102
RTVSPropertyOp20
 70
     1
102
RTVSPropertyOp21
 70
     1
102
RTVSPropertyOp22
 70
     1
102
RTVSPropertyOp23
 70
     1
102
RTVSPropertyOp24
 70
     1
102
RTVSPropertyOp25
 70
     1
102
RTVSPropertyOp26
 70
     1
102
RTVSPropertyOp27
 70
     1
102
RTVSPropertyOp28
 70
     1
102
RTVSPropertyOp29
 70
     1
102
RTVSPropertyOp30
 70
     1
102
RTVSPropertyOp31
 70
     1
102
RTVSPropertyOp32
 70
     1
102
RTVSPropertyOp33
 70
     1
102
RTVSPropertyOp34
 70
     1
102
RTVSPropertyOp35
 70
     1
102
RTVSPropertyOp36
 70
     1
102
RTVSPropertyOp37
 70
     1
102
RTVSPropertyOp38
 70
     1
102
RTVSPropertyOp39
 70
     1
102
RTVSPropertyOp40
 70
     1
102
RTVSPropertyOp41
 70
     1
102
RTVSPropertyOp42
 70
     1
102
RTVSPropertyOp43
 70
     1
102
RTVSPropertyOp44
 70
     1
102
RTVSPropertyOp45
 70
     1
102
RTVSPropertyOp46
 70
     1
102
RTVSPropertyOp47
 70
     1
102
RTVSPropertyOp48
 70
     1
102
RTVSPropertyOp49
 70
     1
102
RTVSPropertyOp50
 70
     1
102
RTVSPropertyOp51
 70
     0
102
RTVSPropertyOp52
 70
     0
102
RTVSPropertyOp53
 70
     1
102
RTVSPropertyOp54
 70
     1
102
RTVSPropertyOp55
 70
     1
102
RTVSPropertyOp56
 70
     1
102
RTVSPropertyOp57
 70
     1
102
RTVSPropertyOp58
 70
     1
102
RTVSPropertyOp59
 70
     1
102
RTVSPropertyOp60
 70
     1
102
RTVSPropertyOp61
 70
     1
102
RTVSPropertyOp62
 70
     1
  0
XRECORD
  5
5B4
102
{ACAD_REACTORS
330
5B3
102
}
330
5B3
100
AcDbXrecord
280
     1
102
RTVSPost2010Prop28
280
     0
102
RTVSPost2010PropOp28
 70
     1
102
RTVSPost2010Prop29
280
     1
102
RTVSPost2010PropOp29
 70
     1
102
RTVSPost2010Prop30
280
     1
102
RTVSPost2010PropOp30
 70
     1
102
RTVSPost2010Prop31
280
     0
102
RTVSPost2010PropOp31
 70
     1
102
RTVSPost2010Prop32
280
     0
102
RTVSPost2010PropOp32
 70
     1
102
RTVSPost2010Prop33
280
     0
102
RTVSPost2010PropOp33
 70
     1
102
RTVSPost2010Prop34
280
     0
102
RTVSPost2010PropOp34
 70
     1
102
RTVSPost2010Prop35
280
     0
102
RTVSPost2010PropOp35
 70
     1
102
RTVSPost2010Prop36
280
     0
102
RTVSPost2010PropOp36
 70
     1
102
RTVSPost2010Prop37
 90
       50
102
RTVSPost2010PropOp37
 70
     1
102
RTVSPost2010Prop38
140
0.0
102
RTVSPost2010PropOp38
 70
     1
102
RTVSPost2010Prop39
140
1.0
102
RTVSPost2010PropOp39
 70
     1
102
RTVSPost2010Prop40
 90
        0
102
RTVSPost2010PropOp40
 70
     1
102
RTVSPost2010Prop41ColorIndex
 90
       18
102
RTVSPost2010Prop41ColorRGB
 90
        0
102
RTVSPost2010PropOp41
 70
     1
102
RTVSPost2010Prop42
 90
       50
102
RTVSPost2010PropOp42
 70
     1
102
RTVSPost2010Prop43
 90
        3
102
RTVSPost2010PropOp43
 70
     1
102
RTVSPost2010Prop44ColorIndex
 90
        5
102
RTVSPost2010Prop44ColorRGB
 90
      255
102
RTVSPost2010PropOp44
 70
     1
102
RTVSPost2010Prop45
280
     0
102
RTVSPost2010PropOp45
 70
     1
102
RTVSPost2010Prop46
 90
       50
102
RTVSPost2010PropOp46
 70
     1
102
RTVSPost2010Prop47
 90
       50
102
RTVSPost2010PropOp47
 70
     1
102
RTVSPost2010Prop48
 90
       50
102
RTVSPost2010PropOp48
 70
     1
102
RTVSPost2010Prop49
280
     0
102
RTVSPost2010PropOp49
 70
     1
102
RTVSPost2010Prop50
 90
       50
102
RTVSPost2010PropOp50
 70
     1
102
RTVSPost2010Prop51ColorIndex
 90
      256
102
RTVSPost2010Prop51ColorRGB
 90
-16777216
102
RTVSPost2010PropOp51
 70
     0
102
RTVSPost2010Prop52
140
1.0
102
RTVSPost2010PropOp52
 70
     0
102
RTVSPost2010Prop53
 90
        2
102
RTVSPost2010PropOp53
 70
     1
102
RTVSPost2010Prop54
  1
strokes_ogs.tif
102
RTVSPost2010PropOp54
 70
     1
102
RTVSPost2010Prop55
280
     0
102
RTVSPost2010PropOp55
 70
     1
102
RTVSPost2010Prop56
140
1.0
102
RTVSPost2010PropOp56
 70
     1
102
RTVSPost2010Prop57
140
1.0
102
RTVSPost2010PropOp57
 70
     1
102
RTVSPropertyOp0
 70
     1
102
RTVSPropertyOp1
 70
     1
102
RTVSPropertyOp2
 70
     1
102
RTVSPropertyOp3
 70
     1
102
RTVSPropertyOp4
 70
     1
102
RTVSPropertyOp5
 70
     1
102
RTVSPropertyOp6
 70
     1
102
RTVSPropertyOp7
 70
     1
102
RTVSPropertyOp8
 70
     1
102
RTVSPropertyOp9
 70
     1
102
RTVSPropertyOp10
 70
     1
102
RTVSPropertyOp11
 70
     1
102
RTVSPropertyOp12
 70
     1
102
RTVSPropertyOp13
 70
     1
102
RTVSPropertyOp14
 70
     1
102
RTVSPropertyOp15
 70
     1
102
RTVSPropertyOp16
 70
     1
102
RTVSPropertyOp17
 70
     1
102
RTVSPropertyOp18
 70
     1
102
RTVSPropertyOp19
 70
     1
102
RTVSPropertyOp20
 70
     1
102
RTVSPropertyOp21
 70
     1
102
RTVSPropertyOp22
 70
     1
102
RTVSPropertyOp23
 70
     1
102
RTVSPropertyOp24
 70
     1
102
RTVSPropertyOp25
 70
     1
102
RTVSPropertyOp26
 70
     1
102
RTVSPropertyOp27
 70
     1
102
RTVSPropertyOp28
 70
     1
102
RTVSPropertyOp29
 70
     1
102
RTVSPropertyOp30
 70
     1
102
RTVSPropertyOp31
 70
     1
102
RTVSPropertyOp32
 70
     1
102
RTVSPropertyOp33
 70
     1
102
RTVSPropertyOp34
 70
     1
102
RTVSPropertyOp35
 70
     1
102
RTVSPropertyOp36
 70
     1
102
RTVSPropertyOp37
 70
     1
102
RTVSPropertyOp38
 70
     1
102
RTVSPropertyOp39
 70
     1
102
RTVSPropertyOp40
 70
     1
102
RTVSPropertyOp41
 70
     1
102
RTVSPropertyOp42
 70
     1
102
RTVSPropertyOp43
 70
     1
102
RTVSPropertyOp44
 70
     1
102
RTVSPropertyOp45
 70
     1
102
RTVSPropertyOp46
 70
     1
102
RTVSPropertyOp47
 70
     1
102
RTVSPropertyOp48
 70
     1
102
RTVSPropertyOp49
 70
     1
102
RTVSPropertyOp50
 70
     1
102
RTVSPropertyOp51
 70
     0
102
RTVSPropertyOp52
 70
     0
102
RTVSPropertyOp53
 70
     1
102
RTVSPropertyOp54
 70
     1
102
RTVSPropertyOp55
 70
     1
102
RTVSPropertyOp56
 70
     1
102
RTVSPropertyOp57
 70
     1
102
RTVSPropertyOp58
 70
     1
102
RTVSPropertyOp59
 70
     1
102
RTVSPropertyOp60
 70
     1
102
RTVSPropertyOp61
 70
     1
102
RTVSPropertyOp62
 70
     1
  0
XRECORD
  5
5B6
102
{ACAD_REACTORS
330
5B5
102
}
330
5B5
100
AcDbXrecord
280
     1
102
RTVSPost2010Prop28
280
     0
102
RTVSPost2010PropOp28
 70
     1
102
RTVSPost2010Prop29
280
     1
102
RTVSPost2010PropOp29
 70
     1
102
RTVSPost2010Prop30
280
     1
102
RTVSPost2010PropOp30
 70
     1
102
RTVSPost2010Prop31
280
     0
102
RTVSPost2010PropOp31
 70
     1
102
RTVSPost2010Prop32
280
     0
102
RTVSPost2010PropOp32
 70
     1
102
RTVSPost2010Prop33
280
     0
102
RTVSPost2010PropOp33
 70
     1
102
RTVSPost2010Prop34
280
     0
102
RTVSPost2010PropOp34
 70
     1
102
RTVSPost2010Prop35
280
     0
102
RTVSPost2010PropOp35
 70
     1
102
RTVSPost2010Prop36
280
     0
102
RTVSPost2010PropOp36
 70
     1
102
RTVSPost2010Prop37
 90
       50
102
RTVSPost2010PropOp37
 70
     1
102
RTVSPost2010Prop38
140
0.0
102
RTVSPost2010PropOp38
 70
     1
102
RTVSPost2010Prop39
140
1.0
102
RTVSPost2010PropOp39
 70
     1
102
RTVSPost2010Prop40
 90
        0
102
RTVSPost2010PropOp40
 70
     1
102
RTVSPost2010Prop41ColorIndex
 90
       18
102
RTVSPost2010Prop41ColorRGB
 90
        0
102
RTVSPost2010PropOp41
 70
     1
102
RTVSPost2010Prop42
 90
       50
102
RTVSPost2010PropOp42
 70
     1
102
RTVSPost2010Prop43
 90
        3
102
RTVSPost2010PropOp43
 70
     1
102
RTVSPost2010Prop44ColorIndex
 90
        5
102
RTVSPost2010Prop44ColorRGB
 90
      255
102
RTVSPost2010PropOp44
 70
     1
102
RTVSPost2010Prop45
280
     0
102
RTVSPost2010PropOp45
 70
     1
102
RTVSPost2010Prop46
 90
       50
102
RTVSPost2010PropOp46
 70
     1
102
RTVSPost2010Prop47
 90
       50
102
RTVSPost2010PropOp47
 70
     1
102
RTVSPost2010Prop48
 90
       50
102
RTVSPost2010PropOp48
 70
     1
102
RTVSPost2010Prop49
280
     0
102
RTVSPost2010PropOp49
 70
     1
102
RTVSPost2010Prop50
 90
       50
102
RTVSPost2010PropOp50
 70
     1
102
RTVSPost2010Prop51ColorIndex
 90
      256
102
RTVSPost2010Prop51ColorRGB
 90
-16777216
102
RTVSPost2010PropOp51
 70
     0
102
RTVSPost2010Prop52
140
1.0
102
RTVSPost2010PropOp52
 70
     0
102
RTVSPost2010Prop53
 90
        2
102
RTVSPost2010PropOp53
 70
     1
102
RTVSPost2010Prop54
  1
strokes_ogs.tif
102
RTVSPost2010PropOp54
 70
     1
102
RTVSPost2010Prop55
280
     0
102
RTVSPost2010PropOp55
 70
     1
102
RTVSPost2010Prop56
140
1.0
102
RTVSPost2010PropOp56
 70
     1
102
RTVSPost2010Prop57
140
1.0
102
RTVSPost2010PropOp57
 70
     1
102
RTVSPropertyOp0
 70
     1
102
RTVSPropertyOp1
 70
     1
102
RTVSPropertyOp2
 70
     1
102
RTVSPropertyOp3
 70
     1
102
RTVSPropertyOp4
 70
     1
102
RTVSPropertyOp5
 70
     1
102
RTVSPropertyOp6
 70
     1
102
RTVSPropertyOp7
 70
     1
102
RTVSPropertyOp8
 70
     1
102
RTVSPropertyOp9
 70
     1
102
RTVSPropertyOp10
 70
     1
102
RTVSPropertyOp11
 70
     1
102
RTVSPropertyOp12
 70
     1
102
RTVSPropertyOp13
 70
     1
102
RTVSPropertyOp14
 70
     1
102
RTVSPropertyOp15
 70
     1
102
RTVSPropertyOp16
 70
     1
102
RTVSPropertyOp17
 70
     1
102
RTVSPropertyOp18
 70
     1
102
RTVSPropertyOp19
 70
     1
102
RTVSPropertyOp20
 70
     1
102
RTVSPropertyOp21
 70
     1
102
RTVSPropertyOp22
 70
     1
102
RTVSPropertyOp23
 70
     1
102
RTVSPropertyOp24
 70
     1
102
RTVSPropertyOp25
 70
     1
102
RTVSPropertyOp26
 70
     1
102
RTVSPropertyOp27
 70
     1
102
RTVSPropertyOp28
 70
     1
102
RTVSPropertyOp29
 70
     1
102
RTVSPropertyOp30
 70
     1
102
RTVSPropertyOp31
 70
     1
102
RTVSPropertyOp32
 70
     1
102
RTVSPropertyOp33
 70
     1
102
RTVSPropertyOp34
 70
     1
102
RTVSPropertyOp35
 70
     1
102
RTVSPropertyOp36
 70
     1
102
RTVSPropertyOp37
 70
     1
102
RTVSPropertyOp38
 70
     1
102
RTVSPropertyOp39
 70
     1
102
RTVSPropertyOp40
 70
     1
102
RTVSPropertyOp41
 70
     1
102
RTVSPropertyOp42
 70
     1
102
RTVSPropertyOp43
 70
     1
102
RTVSPropertyOp44
 70
     1
102
RTVSPropertyOp45
 70
     1
102
RTVSPropertyOp46
 70
     1
102
RTVSPropertyOp47
 70
     1
102
RTVSPropertyOp48
 70
     1
102
RTVSPropertyOp49
 70
     1
102
RTVSPropertyOp50
 70
     1
102
RTVSPropertyOp51
 70
     0
102
RTVSPropertyOp52
 70
     0
102
RTVSPropertyOp53
 70
     1
102
RTVSPropertyOp54
 70
     1
102
RTVSPropertyOp55
 70
     1
102
RTVSPropertyOp56
 70
     1
102
RTVSPropertyOp57
 70
     1
102
RTVSPropertyOp58
 70
     1
102
RTVSPropertyOp59
 70
     1
102
RTVSPropertyOp60
 70
     1
102
RTVSPropertyOp61
 70
     1
102
RTVSPropertyOp62
 70
     1
  0
XRECORD
  5
5C6
102
{ACAD_REACTORS
330
5C5
102
}
330
5C5
100
AcDbXrecord
280
     1
102
RTVSPost2010Prop28
280
     0
102
RTVSPost2010PropOp28
 70
     0
102
RTVSPost2010Prop29
280
     1
102
RTVSPost2010PropOp29
 70
     0
102
RTVSPost2010Prop30
280
     1
102
RTVSPost2010PropOp30
 70
     0
102
RTVSPost2010Prop31
280
     0
102
RTVSPost2010PropOp31
 70
     0
102
RTVSPost2010Prop32
280
     0
102
RTVSPost2010PropOp32
 70
     0
102
RTVSPost2010Prop33
280
     0
102
RTVSPost2010PropOp33
 70
     0
102
RTVSPost2010Prop34
280
     0
102
RTVSPost2010PropOp34
 70
     0
102
RTVSPost2010Prop35
280
     0
102
RTVSPost2010PropOp35
 70
     0
102
RTVSPost2010Prop36
280
     0
102
RTVSPost2010PropOp36
 70
     0
102
RTVSPost2010Prop37
 90
       50
102
RTVSPost2010PropOp37
 70
     0
102
RTVSPost2010Prop38
140
0.0
102
RTVSPost2010PropOp38
 70
     0
102
RTVSPost2010Prop39
140
1.0
102
RTVSPost2010PropOp39
 70
     0
102
RTVSPost2010Prop40
 90
        0
102
RTVSPost2010PropOp40
 70
     0
102
RTVSPost2010Prop41ColorIndex
 90
       18
102
RTVSPost2010Prop41ColorRGB
 90
        0
102
RTVSPost2010PropOp41
 70
     0
102
RTVSPost2010Prop42
 90
       50
102
RTVSPost2010PropOp42
 70
     0
102
RTVSPost2010Prop43
 90
        3
102
RTVSPost2010PropOp43
 70
     0
102
RTVSPost2010Prop44ColorIndex
 90
        5
102
RTVSPost2010Prop44ColorRGB
 90
      255
102
RTVSPost2010PropOp44
 70
     0
102
RTVSPost2010Prop45
280
     0
102
RTVSPost2010PropOp45
 70
     0
102
RTVSPost2010Prop46
 90
       50
102
RTVSPost2010PropOp46
 70
     0
102
RTVSPost2010Prop47
 90
       50
102
RTVSPost2010PropOp47
 70
     0
102
RTVSPost2010Prop48
 90
       50
102
RTVSPost2010PropOp48
 70
     0
102
RTVSPost2010Prop49
280
     0
102
RTVSPost2010PropOp49
 70
     0
102
RTVSPost2010Prop50
 90
       50
102
RTVSPost2010PropOp50
 70
     0
102
RTVSPost2010Prop51ColorIndex
 90
      256
102
RTVSPost2010Prop51ColorRGB
 90
-16777216
102
RTVSPost2010PropOp51
 70
     0
102
RTVSPost2010Prop52
140
1.0
102
RTVSPost2010PropOp52
 70
     0
102
RTVSPost2010Prop53
 90
        2
102
RTVSPost2010PropOp53
 70
     0
102
RTVSPost2010Prop54
  1
strokes_ogs.tif
102
RTVSPost2010PropOp54
 70
     0
102
RTVSPost2010Prop55
280
     0
102
RTVSPost2010PropOp55
 70
     0
102
RTVSPost2010Prop56
140
1.0
102
RTVSPost2010PropOp56
 70
     0
102
RTVSPost2010Prop57
140
1.0
102
RTVSPost2010PropOp57
 70
     0
102
RTVSPropertyOp0
 70
     0
102
RTVSPropertyOp1
 70
     0
102
RTVSPropertyOp2
 70
     0
102
RTVSPropertyOp3
 70
     0
102
RTVSPropertyOp4
 70
     0
102
RTVSPropertyOp5
 70
     0
102
RTVSPropertyOp6
 70
     0
102
RTVSPropertyOp7
 70
     0
102
RTVSPropertyOp8
 70
     0
102
RTVSPropertyOp9
 70
     0
102
RTVSPropertyOp10
 70
     0
102
RTVSPropertyOp11
 70
     0
102
RTVSPropertyOp12
 70
     0
102
RTVSPropertyOp13
 70
     0
102
RTVSPropertyOp14
 70
     2
102
RTVSPropertyOp15
 70
     0
102
RTVSPropertyOp16
 70
     0
102
RTVSPropertyOp17
 70
     0
102
RTVSPropertyOp18
 70
     0
102
RTVSPropertyOp19
 70
     0
102
RTVSPropertyOp20
 70
     0
102
RTVSPropertyOp21
 70
     0
102
RTVSPropertyOp22
 70
     0
102
RTVSPropertyOp23
 70
     0
102
RTVSPropertyOp24
 70
     0
102
RTVSPropertyOp25
 70
     0
102
RTVSPropertyOp26
 70
     0
102
RTVSPropertyOp27
 70
     0
102
RTVSPropertyOp28
 70
     0
102
RTVSPropertyOp29
 70
     0
102
RTVSPropertyOp30
 70
     0
102
RTVSPropertyOp31
 70
     0
102
RTVSPropertyOp32
 70
     0
102
RTVSPropertyOp33
 70
     0
102
RTVSPropertyOp34
 70
     0
102
RTVSPropertyOp35
 70
     0
102
RTVSPropertyOp36
 70
     0
102
RTVSPropertyOp37
 70
     0
102
RTVSPropertyOp38
 70
     0
102
RTVSPropertyOp39
 70
     0
102
RTVSPropertyOp40
 70
     0
102
RTVSPropertyOp41
 70
     0
102
RTVSPropertyOp42
 70
     0
102
RTVSPropertyOp43
 70
     0
102
RTVSPropertyOp44
 70
     0
102
RTVSPropertyOp45
 70
     0
102
RTVSPropertyOp46
 70
     0
102
RTVSPropertyOp47
 70
     0
102
RTVSPropertyOp48
 70
     0
102
RTVSPropertyOp49
 70
     0
102
RTVSPropertyOp50
 70
     0
102
RTVSPropertyOp51
 70
     0
102
RTVSPropertyOp52
 70
     0
102
RTVSPropertyOp53
 70
     0
102
RTVSPropertyOp54
 70
     0
102
RTVSPropertyOp55
 70
     0
102
RTVSPropertyOp56
 70
     0
102
RTVSPropertyOp57
 70
     0
102
RTVSPropertyOp58
 70
     1
102
RTVSPropertyOp59
 70
     1
102
RTVSPropertyOp60
 70
     1
102
RTVSPropertyOp61
 70
     1
102
RTVSPropertyOp62
 70
     1
  0
XRECORD
  5
5BE
102
{ACAD_REACTORS
330
5BD
102
}
330
5BD
100
AcDbXrecord
280
     1
102
RTVSPost2010Prop28
280
     0
102
RTVSPost2010PropOp28
 70
     1
102
RTVSPost2010Prop29
280
     1
102
RTVSPost2010PropOp29
 70
     1
102
RTVSPost2010Prop30
280
     1
102
RTVSPost2010PropOp30
 70
     1
102
RTVSPost2010Prop31
280
     0
102
RTVSPost2010PropOp31
 70
     1
102
RTVSPost2010Prop32
280
     0
102
RTVSPost2010PropOp32
 70
     1
102
RTVSPost2010Prop33
280
     0
102
RTVSPost2010PropOp33
 70
     1
102
RTVSPost2010Prop34
280
     0
102
RTVSPost2010PropOp34
 70
     1
102
RTVSPost2010Prop35
280
     0
102
RTVSPost2010PropOp35
 70
     1
102
RTVSPost2010Prop36
280
     0
102
RTVSPost2010PropOp36
 70
     1
102
RTVSPost2010Prop37
 90
       50
102
RTVSPost2010PropOp37
 70
     1
102
RTVSPost2010Prop38
140
0.0
102
RTVSPost2010PropOp38
 70
     1
102
RTVSPost2010Prop39
140
1.0
102
RTVSPost2010PropOp39
 70
     1
102
RTVSPost2010Prop40
 90
        0
102
RTVSPost2010PropOp40
 70
     1
102
RTVSPost2010Prop41ColorIndex
 90
       18
102
RTVSPost2010Prop41ColorRGB
 90
        0
102
RTVSPost2010PropOp41
 70
     1
102
RTVSPost2010Prop42
 90
       50
102
RTVSPost2010PropOp42
 70
     1
102
RTVSPost2010Prop43
 90
        3
102
RTVSPost2010PropOp43
 70
     1
102
RTVSPost2010Prop44ColorIndex
 90
        5
102
RTVSPost2010Prop44ColorRGB
 90
      255
102
RTVSPost2010PropOp44
 70
     1
102
RTVSPost2010Prop45
280
     0
102
RTVSPost2010PropOp45
 70
     1
102
RTVSPost2010Prop46
 90
       50
102
RTVSPost2010PropOp46
 70
     1
102
RTVSPost2010Prop47
 90
       50
102
RTVSPost2010PropOp47
 70
     1
102
RTVSPost2010Prop48
 90
       50
102
RTVSPost2010PropOp48
 70
     1
102
RTVSPost2010Prop49
280
     0
102
RTVSPost2010PropOp49
 70
     1
102
RTVSPost2010Prop50
 90
       50
102
RTVSPost2010PropOp50
 70
     1
102
RTVSPost2010Prop51ColorIndex
 90
      256
102
RTVSPost2010Prop51ColorRGB
 90
-16777216
102
RTVSPost2010PropOp51
 70
     0
102
RTVSPost2010Prop52
140
1.0
102
RTVSPost2010PropOp52
 70
     0
102
RTVSPost2010Prop53
 90
        2
102
RTVSPost2010PropOp53
 70
     1
102
RTVSPost2010Prop54
  1
strokes_ogs.tif
102
RTVSPost2010PropOp54
 70
     1
102
RTVSPost2010Prop55
280
     0
102
RTVSPost2010PropOp55
 70
     1
102
RTVSPost2010Prop56
140
1.0
102
RTVSPost2010PropOp56
 70
     1
102
RTVSPost2010Prop57
140
1.0
102
RTVSPost2010PropOp57
 70
     1
102
RTVSPropertyOp0
 70
     1
102
RTVSPropertyOp1
 70
     1
102
RTVSPropertyOp2
 70
     1
102
RTVSPropertyOp3
 70
     1
102
RTVSPropertyOp4
 70
     1
102
RTVSPropertyOp5
 70
     1
102
RTVSPropertyOp6
 70
     1
102
RTVSPropertyOp7
 70
     1
102
RTVSPropertyOp8
 70
     1
102
RTVSPropertyOp9
 70
     1
102
RTVSPropertyOp10
 70
     1
102
RTVSPropertyOp11
 70
     1
102
RTVSPropertyOp12
 70
     1
102
RTVSPropertyOp13
 70
     1
102
RTVSPropertyOp14
 70
     1
102
RTVSPropertyOp15
 70
     1
102
RTVSPropertyOp16
 70
     1
102
RTVSPropertyOp17
 70
     1
102
RTVSPropertyOp18
 70
     1
102
RTVSPropertyOp19
 70
     1
102
RTVSPropertyOp20
 70
     1
102
RTVSPropertyOp21
 70
     1
102
RTVSPropertyOp22
 70
     1
102
RTVSPropertyOp23
 70
     1
102
RTVSPropertyOp24
 70
     1
102
RTVSPropertyOp25
 70
     1
102
RTVSPropertyOp26
 70
     1
102
RTVSPropertyOp27
 70
     1
102
RTVSPropertyOp28
 70
     1
102
RTVSPropertyOp29
 70
     1
102
RTVSPropertyOp30
 70
     1
102
RTVSPropertyOp31
 70
     1
102
RTVSPropertyOp32
 70
     1
102
RTVSPropertyOp33
 70
     1
102
RTVSPropertyOp34
 70
     1
102
RTVSPropertyOp35
 70
     1
102
RTVSPropertyOp36
 70
     1
102
RTVSPropertyOp37
 70
     1
102
RTVSPropertyOp38
 70
     1
102
RTVSPropertyOp39
 70
     1
102
RTVSPropertyOp40
 70
     1
102
RTVSPropertyOp41
 70
     1
102
RTVSPropertyOp42
 70
     1
102
RTVSPropertyOp43
 70
     1
102
RTVSPropertyOp44
 70
     1
102
RTVSPropertyOp45
 70
     1
102
RTVSPropertyOp46
 70
     1
102
RTVSPropertyOp47
 70
     1
102
RTVSPropertyOp48
 70
     1
102
RTVSPropertyOp49
 70
     1
102
RTVSPropertyOp50
 70
     1
102
RTVSPropertyOp51
 70
     0
102
RTVSPropertyOp52
 70
     0
102
RTVSPropertyOp53
 70
     1
102
RTVSPropertyOp54
 70
     1
102
RTVSPropertyOp55
 70
     1
102
RTVSPropertyOp56
 70
     1
102
RTVSPropertyOp57
 70
     1
102
RTVSPropertyOp58
 70
     1
102
RTVSPropertyOp59
 70
     1
102
RTVSPropertyOp60
 70
     1
102
RTVSPropertyOp61
 70
     1
102
RTVSPropertyOp62
 70
     1
  0
XRECORD
  5
5A2
102
{ACAD_REACTORS
330
5A1
102
}
330
5A1
100
AcDbXrecord
280
     1
102
RTVSPost2010Prop28
280
     0
102
RTVSPost2010PropOp28
 70
     1
102
RTVSPost2010Prop29
280
     1
102
RTVSPost2010PropOp29
 70
     1
102
RTVSPost2010Prop30
280
     1
102
RTVSPost2010PropOp30
 70
     1
102
RTVSPost2010Prop31
280
     0
102
RTVSPost2010PropOp31
 70
     1
102
RTVSPost2010Prop32
280
     0
102
RTVSPost2010PropOp32
 70
     1
102
RTVSPost2010Prop33
280
     0
102
RTVSPost2010PropOp33
 70
     1
102
RTVSPost2010Prop34
280
     0
102
RTVSPost2010PropOp34
 70
     1
102
RTVSPost2010Prop35
280
     0
102
RTVSPost2010PropOp35
 70
     1
102
RTVSPost2010Prop36
280
     0
102
RTVSPost2010PropOp36
 70
     1
102
RTVSPost2010Prop37
 90
       50
102
RTVSPost2010PropOp37
 70
     1
102
RTVSPost2010Prop38
140
0.0
102
RTVSPost2010PropOp38
 70
     1
102
RTVSPost2010Prop39
140
1.0
102
RTVSPost2010PropOp39
 70
     1
102
RTVSPost2010Prop40
 90
        0
102
RTVSPost2010PropOp40
 70
     1
102
RTVSPost2010Prop41ColorIndex
 90
       18
102
RTVSPost2010Prop41ColorRGB
 90
        0
102
RTVSPost2010PropOp41
 70
     1
102
RTVSPost2010Prop42
 90
       50
102
RTVSPost2010PropOp42
 70
     1
102
RTVSPost2010Prop43
 90
        3
102
RTVSPost2010PropOp43
 70
     1
102
RTVSPost2010Prop44ColorIndex
 90
        5
102
RTVSPost2010Prop44ColorRGB
 90
      255
102
RTVSPost2010PropOp44
 70
     1
102
RTVSPost2010Prop45
280
     0
102
RTVSPost2010PropOp45
 70
     1
102
RTVSPost2010Prop46
 90
       50
102
RTVSPost2010PropOp46
 70
     1
102
RTVSPost2010Prop47
 90
       50
102
RTVSPost2010PropOp47
 70
     1
102
RTVSPost2010Prop48
 90
       50
102
RTVSPost2010PropOp48
 70
     1
102
RTVSPost2010Prop49
280
     0
102
RTVSPost2010PropOp49
 70
     1
102
RTVSPost2010Prop50
 90
       50
102
RTVSPost2010PropOp50
 70
     1
102
RTVSPost2010Prop51ColorIndex
 90
      256
102
RTVSPost2010Prop51ColorRGB
 90
-16777216
102
RTVSPost2010PropOp51
 70
     0
102
RTVSPost2010Prop52
140
1.0
102
RTVSPost2010PropOp52
 70
     0
102
RTVSPost2010Prop53
 90
        2
102
RTVSPost2010PropOp53
 70
     1
102
RTVSPost2010Prop54
  1
strokes_ogs.tif
102
RTVSPost2010PropOp54
 70
     1
102
RTVSPost2010Prop55
280
     0
102
RTVSPost2010PropOp55
 70
     1
102
RTVSPost2010Prop56
140
1.0
102
RTVSPost2010PropOp56
 70
     1
102
RTVSPost2010Prop57
140
1.0
102
RTVSPost2010PropOp57
 70
     1
102
RTVSPropertyOp0
 70
     1
102
RTVSPropertyOp1
 70
     1
102
RTVSPropertyOp2
 70
     1
102
RTVSPropertyOp3
 70
     1
102
RTVSPropertyOp4
 70
     1
102
RTVSPropertyOp5
 70
     1
102
RTVSPropertyOp6
 70
     1
102
RTVSPropertyOp7
 70
     1
102
RTVSPropertyOp8
 70
     1
102
RTVSPropertyOp9
 70
     1
102
RTVSPropertyOp10
 70
     1
102
RTVSPropertyOp11
 70
     1
102
RTVSPropertyOp12
 70
     1
102
RTVSPropertyOp13
 70
     1
102
RTVSPropertyOp14
 70
     1
102
RTVSPropertyOp15
 70
     1
102
RTVSPropertyOp16
 70
     1
102
RTVSPropertyOp17
 70
     1
102
RTVSPropertyOp18
 70
     1
102
RTVSPropertyOp19
 70
     1
102
RTVSPropertyOp20
 70
     1
102
RTVSPropertyOp21
 70
     1
102
RTVSPropertyOp22
 70
     1
102
RTVSPropertyOp23
 70
     1
102
RTVSPropertyOp24
 70
     1
102
RTVSPropertyOp25
 70
     1
102
RTVSPropertyOp26
 70
     1
102
RTVSPropertyOp27
 70
     1
102
RTVSPropertyOp28
 70
     1
102
RTVSPropertyOp29
 70
     1
102
RTVSPropertyOp30
 70
     1
102
RTVSPropertyOp31
 70
     1
102
RTVSPropertyOp32
 70
     1
102
RTVSPropertyOp33
 70
     1
102
RTVSPropertyOp34
 70
     1
102
RTVSPropertyOp35
 70
     1
102
RTVSPropertyOp36
 70
     1
102
RTVSPropertyOp37
 70
     1
102
RTVSPropertyOp38
 70
     1
102
RTVSPropertyOp39
 70
     1
102
RTVSPropertyOp40
 70
     1
102
RTVSPropertyOp41
 70
     1
102
RTVSPropertyOp42
 70
     1
102
RTVSPropertyOp43
 70
     1
102
RTVSPropertyOp44
 70
     1
102
RTVSPropertyOp45
 70
     1
102
RTVSPropertyOp46
 70
     1
102
RTVSPropertyOp47
 70
     1
102
RTVSPropertyOp48
 70
     1
102
RTVSPropertyOp49
 70
     1
102
RTVSPropertyOp50
 70
     1
102
RTVSPropertyOp51
 70
     0
102
RTVSPropertyOp52
 70
     0
102
RTVSPropertyOp53
 70
     1
102
RTVSPropertyOp54
 70
     1
102
RTVSPropertyOp55
 70
     1
102
RTVSPropertyOp56
 70
     1
102
RTVSPropertyOp57
 70
     1
102
RTVSPropertyOp58
 70
     1
102
RTVSPropertyOp59
 70
     1
102
RTVSPropertyOp60
 70
     1
102
RTVSPropertyOp61
 70
     1
102
RTVSPropertyOp62
 70
     1
  0
XRECORD
  5
5A4
102
{ACAD_REACTORS
330
5A3
102
}
330
5A3
100
AcDbXrecord
280
     1
102
RTVSPost2010Prop28
280
     0
102
RTVSPost2010PropOp28
 70
     1
102
RTVSPost2010Prop29
280
     1
102
RTVSPost2010PropOp29
 70
     1
102
RTVSPost2010Prop30
280
     1
102
RTVSPost2010PropOp30
 70
     1
102
RTVSPost2010Prop31
280
     0
102
RTVSPost2010PropOp31
 70
     1
102
RTVSPost2010Prop32
280
     0
102
RTVSPost2010PropOp32
 70
     1
102
RTVSPost2010Prop33
280
     0
102
RTVSPost2010PropOp33
 70
     1
102
RTVSPost2010Prop34
280
     0
102
RTVSPost2010PropOp34
 70
     1
102
RTVSPost2010Prop35
280
     0
102
RTVSPost2010PropOp35
 70
     1
102
RTVSPost2010Prop36
280
     0
102
RTVSPost2010PropOp36
 70
     1
102
RTVSPost2010Prop37
 90
       50
102
RTVSPost2010PropOp37
 70
     1
102
RTVSPost2010Prop38
140
0.0
102
RTVSPost2010PropOp38
 70
     1
102
RTVSPost2010Prop39
140
1.0
102
RTVSPost2010PropOp39
 70
     1
102
RTVSPost2010Prop40
 90
        0
102
RTVSPost2010PropOp40
 70
     1
102
RTVSPost2010Prop41ColorIndex
 90
       18
102
RTVSPost2010Prop41ColorRGB
 90
        0
102
RTVSPost2010PropOp41
 70
     1
102
RTVSPost2010Prop42
 90
       50
102
RTVSPost2010PropOp42
 70
     1
102
RTVSPost2010Prop43
 90
        3
102
RTVSPost2010PropOp43
 70
     1
102
RTVSPost2010Prop44ColorIndex
 90
        5
102
RTVSPost2010Prop44ColorRGB
 90
      255
102
RTVSPost2010PropOp44
 70
     1
102
RTVSPost2010Prop45
280
     0
102
RTVSPost2010PropOp45
 70
     1
102
RTVSPost2010Prop46
 90
       50
102
RTVSPost2010PropOp46
 70
     1
102
RTVSPost2010Prop47
 90
       50
102
RTVSPost2010PropOp47
 70
     1
102
RTVSPost2010Prop48
 90
       50
102
RTVSPost2010PropOp48
 70
     1
102
RTVSPost2010Prop49
280
     0
102
RTVSPost2010PropOp49
 70
     1
102
RTVSPost2010Prop50
 90
       50
102
RTVSPost2010PropOp50
 70
     1
102
RTVSPost2010Prop51ColorIndex
 90
      256
102
RTVSPost2010Prop51ColorRGB
 90
-16777216
102
RTVSPost2010PropOp51
 70
     0
102
RTVSPost2010Prop52
140
1.0
102
RTVSPost2010PropOp52
 70
     0
102
RTVSPost2010Prop53
 90
        2
102
RTVSPost2010PropOp53
 70
     1
102
RTVSPost2010Prop54
  1
strokes_ogs.tif
102
RTVSPost2010PropOp54
 70
     1
102
RTVSPost2010Prop55
280
     0
102
RTVSPost2010PropOp55
 70
     1
102
RTVSPost2010Prop56
140
1.0
102
RTVSPost2010PropOp56
 70
     1
102
RTVSPost2010Prop57
140
1.0
102
RTVSPost2010PropOp57
 70
     1
102
RTVSPropertyOp0
 70
     1
102
RTVSPropertyOp1
 70
     1
102
RTVSPropertyOp2
 70
     1
102
RTVSPropertyOp3
 70
     1
102
RTVSPropertyOp4
 70
     1
102
RTVSPropertyOp5
 70
     1
102
RTVSPropertyOp6
 70
     1
102
RTVSPropertyOp7
 70
     1
102
RTVSPropertyOp8
 70
     1
102
RTVSPropertyOp9
 70
     1
102
RTVSPropertyOp10
 70
     1
102
RTVSPropertyOp11
 70
     1
102
RTVSPropertyOp12
 70
     1
102
RTVSPropertyOp13
 70
     1
102
RTVSPropertyOp14
 70
     1
102
RTVSPropertyOp15
 70
     1
102
RTVSPropertyOp16
 70
     1
102
RTVSPropertyOp17
 70
     1
102
RTVSPropertyOp18
 70
     1
102
RTVSPropertyOp19
 70
     1
102
RTVSPropertyOp20
 70
     1
102
RTVSPropertyOp21
 70
     1
102
RTVSPropertyOp22
 70
     1
102
RTVSPropertyOp23
 70
     1
102
RTVSPropertyOp24
 70
     1
102
RTVSPropertyOp25
 70
     1
102
RTVSPropertyOp26
 70
     1
102
RTVSPropertyOp27
 70
     1
102
RTVSPropertyOp28
 70
     1
102
RTVSPropertyOp29
 70
     1
102
RTVSPropertyOp30
 70
     1
102
RTVSPropertyOp31
 70
     1
102
RTVSPropertyOp32
 70
     1
102
RTVSPropertyOp33
 70
     1
102
RTVSPropertyOp34
 70
     1
102
RTVSPropertyOp35
 70
     1
102
RTVSPropertyOp36
 70
     1
102
RTVSPropertyOp37
 70
     1
102
RTVSPropertyOp38
 70
     1
102
RTVSPropertyOp39
 70
     1
102
RTVSPropertyOp40
 70
     1
102
RTVSPropertyOp41
 70
     1
102
RTVSPropertyOp42
 70
     1
102
RTVSPropertyOp43
 70
     1
102
RTVSPropertyOp44
 70
     1
102
RTVSPropertyOp45
 70
     1
102
RTVSPropertyOp46
 70
     1
102
RTVSPropertyOp47
 70
     1
102
RTVSPropertyOp48
 70
     1
102
RTVSPropertyOp49
 70
     1
102
RTVSPropertyOp50
 70
     1
102
RTVSPropertyOp51
 70
     0
102
RTVSPropertyOp52
 70
     0
102
RTVSPropertyOp53
 70
     1
102
RTVSPropertyOp54
 70
     1
102
RTVSPropertyOp55
 70
     1
102
RTVSPropertyOp56
 70
     1
102
RTVSPropertyOp57
 70
     1
102
RTVSPropertyOp58
 70
     1
102
RTVSPropertyOp59
 70
     1
102
RTVSPropertyOp60
 70
     1
102
RTVSPropertyOp61
 70
     1
102
RTVSPropertyOp62
 70
     1
  0
XRECORD
  5
5A6
102
{ACAD_REACTORS
330
5A5
102
}
330
5A5
100
AcDbXrecord
280
     1
102
RTVSPost2010Prop28
280
     0
102
RTVSPost2010PropOp28
 70
     1
102
RTVSPost2010Prop29
280
     1
102
RTVSPost2010PropOp29
 70
     1
102
RTVSPost2010Prop30
280
     1
102
RTVSPost2010PropOp30
 70
     1
102
RTVSPost2010Prop31
280
     0
102
RTVSPost2010PropOp31
 70
     1
102
RTVSPost2010Prop32
280
     0
102
RTVSPost2010PropOp32
 70
     1
102
RTVSPost2010Prop33
280
     0
102
RTVSPost2010PropOp33
 70
     1
102
RTVSPost2010Prop34
280
     0
102
RTVSPost2010PropOp34
 70
     1
102
RTVSPost2010Prop35
280
     0
102
RTVSPost2010PropOp35
 70
     1
102
RTVSPost2010Prop36
280
     0
102
RTVSPost2010PropOp36
 70
     1
102
RTVSPost2010Prop37
 90
       50
102
RTVSPost2010PropOp37
 70
     1
102
RTVSPost2010Prop38
140
0.0
102
RTVSPost2010PropOp38
 70
     1
102
RTVSPost2010Prop39
140
1.0
102
RTVSPost2010PropOp39
 70
     1
102
RTVSPost2010Prop40
 90
        0
102
RTVSPost2010PropOp40
 70
     1
102
RTVSPost2010Prop41ColorIndex
 90
       18
102
RTVSPost2010Prop41ColorRGB
 90
        0
102
RTVSPost2010PropOp41
 70
     1
102
RTVSPost2010Prop42
 90
       50
102
RTVSPost2010PropOp42
 70
     1
102
RTVSPost2010Prop43
 90
        3
102
RTVSPost2010PropOp43
 70
     1
102
RTVSPost2010Prop44ColorIndex
 90
        5
102
RTVSPost2010Prop44ColorRGB
 90
      255
102
RTVSPost2010PropOp44
 70
     1
102
RTVSPost2010Prop45
280
     0
102
RTVSPost2010PropOp45
 70
     1
102
RTVSPost2010Prop46
 90
       50
102
RTVSPost2010PropOp46
 70
     1
102
RTVSPost2010Prop47
 90
       50
102
RTVSPost2010PropOp47
 70
     1
102
RTVSPost2010Prop48
 90
       50
102
RTVSPost2010PropOp48
 70
     1
102
RTVSPost2010Prop49
280
     0
102
RTVSPost2010PropOp49
 70
     1
102
RTVSPost2010Prop50
 90
       50
102
RTVSPost2010PropOp50
 70
     1
102
RTVSPost2010Prop51ColorIndex
 90
      256
102
RTVSPost2010Prop51ColorRGB
 90
-16777216
102
RTVSPost2010PropOp51
 70
     0
102
RTVSPost2010Prop52
140
1.0
102
RTVSPost2010PropOp52
 70
     0
102
RTVSPost2010Prop53
 90
        2
102
RTVSPost2010PropOp53
 70
     1
102
RTVSPost2010Prop54
  1
strokes_ogs.tif
102
RTVSPost2010PropOp54
 70
     1
102
RTVSPost2010Prop55
280
     0
102
RTVSPost2010PropOp55
 70
     1
102
RTVSPost2010Prop56
140
1.0
102
RTVSPost2010PropOp56
 70
     1
102
RTVSPost2010Prop57
140
1.0
102
RTVSPost2010PropOp57
 70
     1
102
RTVSPropertyOp0
 70
     1
102
RTVSPropertyOp1
 70
     1
102
RTVSPropertyOp2
 70
     1
102
RTVSPropertyOp3
 70
     1
102
RTVSPropertyOp4
 70
     1
102
RTVSPropertyOp5
 70
     1
102
RTVSPropertyOp6
 70
     1
102
RTVSPropertyOp7
 70
     1
102
RTVSPropertyOp8
 70
     1
102
RTVSPropertyOp9
 70
     1
102
RTVSPropertyOp10
 70
     1
102
RTVSPropertyOp11
 70
     1
102
RTVSPropertyOp12
 70
     1
102
RTVSPropertyOp13
 70
     1
102
RTVSPropertyOp14
 70
     1
102
RTVSPropertyOp15
 70
     1
102
RTVSPropertyOp16
 70
     1
102
RTVSPropertyOp17
 70
     1
102
RTVSPropertyOp18
 70
     1
102
RTVSPropertyOp19
 70
     1
102
RTVSPropertyOp20
 70
     1
102
RTVSPropertyOp21
 70
     1
102
RTVSPropertyOp22
 70
     1
102
RTVSPropertyOp23
 70
     1
102
RTVSPropertyOp24
 70
     1
102
RTVSPropertyOp25
 70
     1
102
RTVSPropertyOp26
 70
     1
102
RTVSPropertyOp27
 70
     1
102
RTVSPropertyOp28
 70
     1
102
RTVSPropertyOp29
 70
     1
102
RTVSPropertyOp30
 70
     1
102
RTVSPropertyOp31
 70
     1
102
RTVSPropertyOp32
 70
     1
102
RTVSPropertyOp33
 70
     1
102
RTVSPropertyOp34
 70
     1
102
RTVSPropertyOp35
 70
     1
102
RTVSPropertyOp36
 70
     1
102
RTVSPropertyOp37
 70
     1
102
RTVSPropertyOp38
 70
     1
102
RTVSPropertyOp39
 70
     1
102
RTVSPropertyOp40
 70
     1
102
RTVSPropertyOp41
 70
     1
102
RTVSPropertyOp42
 70
     1
102
RTVSPropertyOp43
 70
     1
102
RTVSPropertyOp44
 70
     1
102
RTVSPropertyOp45
 70
     1
102
RTVSPropertyOp46
 70
     1
102
RTVSPropertyOp47
 70
     1
102
RTVSPropertyOp48
 70
     1
102
RTVSPropertyOp49
 70
     1
102
RTVSPropertyOp50
 70
     1
102
RTVSPropertyOp51
 70
     0
102
RTVSPropertyOp52
 70
     0
102
RTVSPropertyOp53
 70
     1
102
RTVSPropertyOp54
 70
     1
102
RTVSPropertyOp55
 70
     1
102
RTVSPropertyOp56
 70
     1
102
RTVSPropertyOp57
 70
     1
102
RTVSPropertyOp58
 70
     1
102
RTVSPropertyOp59
 70
     1
102
RTVSPropertyOp60
 70
     1
102
RTVSPropertyOp61
 70
     1
102
RTVSPropertyOp62
 70
     1
  0
XRECORD
  5
5A8
102
{ACAD_REACTORS
330
5A7
102
}
330
5A7
100
AcDbXrecord
280
     1
102
RTVSPost2010Prop28
280
     0
102
RTVSPost2010PropOp28
 70
     1
102
RTVSPost2010Prop29
280
     1
102
RTVSPost2010PropOp29
 70
     1
102
RTVSPost2010Prop30
280
     1
102
RTVSPost2010PropOp30
 70
     1
102
RTVSPost2010Prop31
280
     0
102
RTVSPost2010PropOp31
 70
     1
102
RTVSPost2010Prop32
280
     0
102
RTVSPost2010PropOp32
 70
     1
102
RTVSPost2010Prop33
280
     0
102
RTVSPost2010PropOp33
 70
     1
102
RTVSPost2010Prop34
280
     0
102
RTVSPost2010PropOp34
 70
     1
102
RTVSPost2010Prop35
280
     0
102
RTVSPost2010PropOp35
 70
     1
102
RTVSPost2010Prop36
280
     0
102
RTVSPost2010PropOp36
 70
     1
102
RTVSPost2010Prop37
 90
       50
102
RTVSPost2010PropOp37
 70
     1
102
RTVSPost2010Prop38
140
0.0
102
RTVSPost2010PropOp38
 70
     1
102
RTVSPost2010Prop39
140
1.0
102
RTVSPost2010PropOp39
 70
     1
102
RTVSPost2010Prop40
 90
        0
102
RTVSPost2010PropOp40
 70
     1
102
RTVSPost2010Prop41ColorIndex
 90
       18
102
RTVSPost2010Prop41ColorRGB
 90
        0
102
RTVSPost2010PropOp41
 70
     1
102
RTVSPost2010Prop42
 90
       50
102
RTVSPost2010PropOp42
 70
     1
102
RTVSPost2010Prop43
 90
        3
102
RTVSPost2010PropOp43
 70
     1
102
RTVSPost2010Prop44ColorIndex
 90
        5
102
RTVSPost2010Prop44ColorRGB
 90
      255
102
RTVSPost2010PropOp44
 70
     1
102
RTVSPost2010Prop45
280
     0
102
RTVSPost2010PropOp45
 70
     1
102
RTVSPost2010Prop46
 90
       50
102
RTVSPost2010PropOp46
 70
     1
102
RTVSPost2010Prop47
 90
       50
102
RTVSPost2010PropOp47
 70
     1
102
RTVSPost2010Prop48
 90
       50
102
RTVSPost2010PropOp48
 70
     1
102
RTVSPost2010Prop49
280
     0
102
RTVSPost2010PropOp49
 70
     1
102
RTVSPost2010Prop50
 90
       50
102
RTVSPost2010PropOp50
 70
     1
102
RTVSPost2010Prop51ColorIndex
 90
      256
102
RTVSPost2010Prop51ColorRGB
 90
-16777216
102
RTVSPost2010PropOp51
 70
     0
102
RTVSPost2010Prop52
140
1.0
102
RTVSPost2010PropOp52
 70
     0
102
RTVSPost2010Prop53
 90
        2
102
RTVSPost2010PropOp53
 70
     1
102
RTVSPost2010Prop54
  1
strokes_ogs.tif
102
RTVSPost2010PropOp54
 70
     1
102
RTVSPost2010Prop55
280
     0
102
RTVSPost2010PropOp55
 70
     1
102
RTVSPost2010Prop56
140
1.0
102
RTVSPost2010PropOp56
 70
     1
102
RTVSPost2010Prop57
140
1.0
102
RTVSPost2010PropOp57
 70
     1
102
RTVSPropertyOp0
 70
     1
102
RTVSPropertyOp1
 70
     1
102
RTVSPropertyOp2
 70
     1
102
RTVSPropertyOp3
 70
     1
102
RTVSPropertyOp4
 70
     1
102
RTVSPropertyOp5
 70
     1
102
RTVSPropertyOp6
 70
     1
102
RTVSPropertyOp7
 70
     1
102
RTVSPropertyOp8
 70
     1
102
RTVSPropertyOp9
 70
     1
102
RTVSPropertyOp10
 70
     1
102
RTVSPropertyOp11
 70
     1
102
RTVSPropertyOp12
 70
     1
102
RTVSPropertyOp13
 70
     1
102
RTVSPropertyOp14
 70
     1
102
RTVSPropertyOp15
 70
     1
102
RTVSPropertyOp16
 70
     1
102
RTVSPropertyOp17
 70
     1
102
RTVSPropertyOp18
 70
     1
102
RTVSPropertyOp19
 70
     1
102
RTVSPropertyOp20
 70
     1
102
RTVSPropertyOp21
 70
     1
102
RTVSPropertyOp22
 70
     1
102
RTVSPropertyOp23
 70
     1
102
RTVSPropertyOp24
 70
     1
102
RTVSPropertyOp25
 70
     1
102
RTVSPropertyOp26
 70
     1
102
RTVSPropertyOp27
 70
     1
102
RTVSPropertyOp28
 70
     1
102
RTVSPropertyOp29
 70
     1
102
RTVSPropertyOp30
 70
     1
102
RTVSPropertyOp31
 70
     1
102
RTVSPropertyOp32
 70
     1
102
RTVSPropertyOp33
 70
     1
102
RTVSPropertyOp34
 70
     1
102
RTVSPropertyOp35
 70
     1
102
RTVSPropertyOp36
 70
     1
102
RTVSPropertyOp37
 70
     1
102
RTVSPropertyOp38
 70
     1
102
RTVSPropertyOp39
 70
     1
102
RTVSPropertyOp40
 70
     1
102
RTVSPropertyOp41
 70
     1
102
RTVSPropertyOp42
 70
     1
102
RTVSPropertyOp43
 70
     1
102
RTVSPropertyOp44
 70
     1
102
RTVSPropertyOp45
 70
     1
102
RTVSPropertyOp46
 70
     1
102
RTVSPropertyOp47
 70
     1
102
RTVSPropertyOp48
 70
     1
102
RTVSPropertyOp49
 70
     1
102
RTVSPropertyOp50
 70
     1
102
RTVSPropertyOp51
 70
     0
102
RTVSPropertyOp52
 70
     0
102
RTVSPropertyOp53
 70
     1
102
RTVSPropertyOp54
 70
     1
102
RTVSPropertyOp55
 70
     1
102
RTVSPropertyOp56
 70
     1
102
RTVSPropertyOp57
 70
     1
102
RTVSPropertyOp58
 70
     1
102
RTVSPropertyOp59
 70
     1
102
RTVSPropertyOp60
 70
     1
102
RTVSPropertyOp61
 70
     1
102
RTVSPropertyOp62
 70
     1
  0
XRECORD
  5
5AE
102
{ACAD_REACTORS
330
5AD
102
}
330
5AD
100
AcDbXrecord
280
     1
102
RTVSPost2010Prop28
280
     0
102
RTVSPost2010PropOp28
 70
     1
102
RTVSPost2010Prop29
280
     1
102
RTVSPost2010PropOp29
 70
     1
102
RTVSPost2010Prop30
280
     1
102
RTVSPost2010PropOp30
 70
     1
102
RTVSPost2010Prop31
280
     0
102
RTVSPost2010PropOp31
 70
     1
102
RTVSPost2010Prop32
280
     0
102
RTVSPost2010PropOp32
 70
     1
102
RTVSPost2010Prop33
280
     0
102
RTVSPost2010PropOp33
 70
     1
102
RTVSPost2010Prop34
280
     0
102
RTVSPost2010PropOp34
 70
     1
102
RTVSPost2010Prop35
280
     0
102
RTVSPost2010PropOp35
 70
     1
102
RTVSPost2010Prop36
280
     0
102
RTVSPost2010PropOp36
 70
     1
102
RTVSPost2010Prop37
 90
       50
102
RTVSPost2010PropOp37
 70
     1
102
RTVSPost2010Prop38
140
0.0
102
RTVSPost2010PropOp38
 70
     1
102
RTVSPost2010Prop39
140
1.0
102
RTVSPost2010PropOp39
 70
     1
102
RTVSPost2010Prop40
 90
        0
102
RTVSPost2010PropOp40
 70
     1
102
RTVSPost2010Prop41ColorIndex
 90
       18
102
RTVSPost2010Prop41ColorRGB
 90
        0
102
RTVSPost2010PropOp41
 70
     1
102
RTVSPost2010Prop42
 90
       50
102
RTVSPost2010PropOp42
 70
     1
102
RTVSPost2010Prop43
 90
        3
102
RTVSPost2010PropOp43
 70
     1
102
RTVSPost2010Prop44ColorIndex
 90
        5
102
RTVSPost2010Prop44ColorRGB
 90
      255
102
RTVSPost2010PropOp44
 70
     1
102
RTVSPost2010Prop45
280
     0
102
RTVSPost2010PropOp45
 70
     1
102
RTVSPost2010Prop46
 90
       50
102
RTVSPost2010PropOp46
 70
     1
102
RTVSPost2010Prop47
 90
       50
102
RTVSPost2010PropOp47
 70
     1
102
RTVSPost2010Prop48
 90
       50
102
RTVSPost2010PropOp48
 70
     1
102
RTVSPost2010Prop49
280
     0
102
RTVSPost2010PropOp49
 70
     1
102
RTVSPost2010Prop50
 90
       50
102
RTVSPost2010PropOp50
 70
     1
102
RTVSPost2010Prop51ColorIndex
 90
      256
102
RTVSPost2010Prop51ColorRGB
 90
-16777216
102
RTVSPost2010PropOp51
 70
     0
102
RTVSPost2010Prop52
140
1.0
102
RTVSPost2010PropOp52
 70
     0
102
RTVSPost2010Prop53
 90
        2
102
RTVSPost2010PropOp53
 70
     1
102
RTVSPost2010Prop54
  1
strokes_ogs.tif
102
RTVSPost2010PropOp54
 70
     1
102
RTVSPost2010Prop55
280
     0
102
RTVSPost2010PropOp55
 70
     1
102
RTVSPost2010Prop56
140
1.0
102
RTVSPost2010PropOp56
 70
     1
102
RTVSPost2010Prop57
140
1.0
102
RTVSPost2010PropOp57
 70
     1
102
RTVSPropertyOp0
 70
     1
102
RTVSPropertyOp1
 70
     1
102
RTVSPropertyOp2
 70
     1
102
RTVSPropertyOp3
 70
     1
102
RTVSPropertyOp4
 70
     1
102
RTVSPropertyOp5
 70
     1
102
RTVSPropertyOp6
 70
     1
102
RTVSPropertyOp7
 70
     1
102
RTVSPropertyOp8
 70
     1
102
RTVSPropertyOp9
 70
     1
102
RTVSPropertyOp10
 70
     1
102
RTVSPropertyOp11
 70
     1
102
RTVSPropertyOp12
 70
     1
102
RTVSPropertyOp13
 70
     1
102
RTVSPropertyOp14
 70
     1
102
RTVSPropertyOp15
 70
     1
102
RTVSPropertyOp16
 70
     1
102
RTVSPropertyOp17
 70
     1
102
RTVSPropertyOp18
 70
     1
102
RTVSPropertyOp19
 70
     1
102
RTVSPropertyOp20
 70
     1
102
RTVSPropertyOp21
 70
     1
102
RTVSPropertyOp22
 70
     1
102
RTVSPropertyOp23
 70
     1
102
RTVSPropertyOp24
 70
     1
102
RTVSPropertyOp25
 70
     1
102
RTVSPropertyOp26
 70
     1
102
RTVSPropertyOp27
 70
     1
102
RTVSPropertyOp28
 70
     1
102
RTVSPropertyOp29
 70
     1
102
RTVSPropertyOp30
 70
     1
102
RTVSPropertyOp31
 70
     1
102
RTVSPropertyOp32
 70
     1
102
RTVSPropertyOp33
 70
     1
102
RTVSPropertyOp34
 70
     1
102
RTVSPropertyOp35
 70
     1
102
RTVSPropertyOp36
 70
     1
102
RTVSPropertyOp37
 70
     1
102
RTVSPropertyOp38
 70
     1
102
RTVSPropertyOp39
 70
     1
102
RTVSPropertyOp40
 70
     1
102
RTVSPropertyOp41
 70
     1
102
RTVSPropertyOp42
 70
     1
102
RTVSPropertyOp43
 70
     1
102
RTVSPropertyOp44
 70
     1
102
RTVSPropertyOp45
 70
     1
102
RTVSPropertyOp46
 70
     1
102
RTVSPropertyOp47
 70
     1
102
RTVSPropertyOp48
 70
     1
102
RTVSPropertyOp49
 70
     1
102
RTVSPropertyOp50
 70
     1
102
RTVSPropertyOp51
 70
     0
102
RTVSPropertyOp52
 70
     0
102
RTVSPropertyOp53
 70
     1
102
RTVSPropertyOp54
 70
     1
102
RTVSPropertyOp55
 70
     1
102
RTVSPropertyOp56
 70
     1
102
RTVSPropertyOp57
 70
     1
102
RTVSPropertyOp58
 70
     1
102
RTVSPropertyOp59
 70
     1
102
RTVSPropertyOp60
 70
     1
102
RTVSPropertyOp61
 70
     1
102
RTVSPropertyOp62
 70
     1
  0
XRECORD
  5
5C2
102
{ACAD_REACTORS
330
5C1
102
}
330
5C1
100
AcDbXrecord
280
     1
102
RTVSPost2010Prop28
280
     0
102
RTVSPost2010PropOp28
 70
     0
102
RTVSPost2010Prop29
280
     1
102
RTVSPost2010PropOp29
 70
     0
102
RTVSPost2010Prop30
280
     1
102
RTVSPost2010PropOp30
 70
     0
102
RTVSPost2010Prop31
280
     0
102
RTVSPost2010PropOp31
 70
     0
102
RTVSPost2010Prop32
280
     0
102
RTVSPost2010PropOp32
 70
     0
102
RTVSPost2010Prop33
280
     0
102
RTVSPost2010PropOp33
 70
     0
102
RTVSPost2010Prop34
280
     0
102
RTVSPost2010PropOp34
 70
     0
102
RTVSPost2010Prop35
280
     0
102
RTVSPost2010PropOp35
 70
     0
102
RTVSPost2010Prop36
280
     0
102
RTVSPost2010PropOp36
 70
     0
102
RTVSPost2010Prop37
 90
       50
102
RTVSPost2010PropOp37
 70
     0
102
RTVSPost2010Prop38
140
0.0
102
RTVSPost2010PropOp38
 70
     0
102
RTVSPost2010Prop39
140
1.0
102
RTVSPost2010PropOp39
 70
     0
102
RTVSPost2010Prop40
 90
        0
102
RTVSPost2010PropOp40
 70
     0
102
RTVSPost2010Prop41ColorIndex
 90
       18
102
RTVSPost2010Prop41ColorRGB
 90
        0
102
RTVSPost2010PropOp41
 70
     0
102
RTVSPost2010Prop42
 90
       50
102
RTVSPost2010PropOp42
 70
     0
102
RTVSPost2010Prop43
 90
        3
102
RTVSPost2010PropOp43
 70
     0
102
RTVSPost2010Prop44ColorIndex
 90
        5
102
RTVSPost2010Prop44ColorRGB
 90
      255
102
RTVSPost2010PropOp44
 70
     0
102
RTVSPost2010Prop45
280
     0
102
RTVSPost2010PropOp45
 70
     0
102
RTVSPost2010Prop46
 90
       50
102
RTVSPost2010PropOp46
 70
     0
102
RTVSPost2010Prop47
 90
       50
102
RTVSPost2010PropOp47
 70
     0
102
RTVSPost2010Prop48
 90
       50
102
RTVSPost2010PropOp48
 70
     0
102
RTVSPost2010Prop49
280
     0
102
RTVSPost2010PropOp49
 70
     0
102
RTVSPost2010Prop50
 90
       50
102
RTVSPost2010PropOp50
 70
     0
102
RTVSPost2010Prop51ColorIndex
 90
      256
102
RTVSPost2010Prop51ColorRGB
 90
-16777216
102
RTVSPost2010PropOp51
 70
     0
102
RTVSPost2010Prop52
140
1.0
102
RTVSPost2010PropOp52
 70
     0
102
RTVSPost2010Prop53
 90
        2
102
RTVSPost2010PropOp53
 70
     0
102
RTVSPost2010Prop54
  1
strokes_ogs.tif
102
RTVSPost2010PropOp54
 70
     0
102
RTVSPost2010Prop55
280
     0
102
RTVSPost2010PropOp55
 70
     0
102
RTVSPost2010Prop56
140
1.0
102
RTVSPost2010PropOp56
 70
     0
102
RTVSPost2010Prop57
140
1.0
102
RTVSPost2010PropOp57
 70
     0
102
RTVSPropertyOp0
 70
     0
102
RTVSPropertyOp1
 70
     0
102
RTVSPropertyOp2
 70
     0
102
RTVSPropertyOp3
 70
     0
102
RTVSPropertyOp4
 70
     0
102
RTVSPropertyOp5
 70
     0
102
RTVSPropertyOp6
 70
     0
102
RTVSPropertyOp7
 70
     0
102
RTVSPropertyOp8
 70
     0
102
RTVSPropertyOp9
 70
     0
102
RTVSPropertyOp10
 70
     0
102
RTVSPropertyOp11
 70
     0
102
RTVSPropertyOp12
 70
     0
102
RTVSPropertyOp13
 70
     0
102
RTVSPropertyOp14
 70
     2
102
RTVSPropertyOp15
 70
     0
102
RTVSPropertyOp16
 70
     0
102
RTVSPropertyOp17
 70
     0
102
RTVSPropertyOp18
 70
     0
102
RTVSPropertyOp19
 70
     0
102
RTVSPropertyOp20
 70
     0
102
RTVSPropertyOp21
 70
     0
102
RTVSPropertyOp22
 70
     0
102
RTVSPropertyOp23
 70
     0
102
RTVSPropertyOp24
 70
     0
102
RTVSPropertyOp25
 70
     0
102
RTVSPropertyOp26
 70
     0
102
RTVSPropertyOp27
 70
     0
102
RTVSPropertyOp28
 70
     0
102
RTVSPropertyOp29
 70
     0
102
RTVSPropertyOp30
 70
     0
102
RTVSPropertyOp31
 70
     0
102
RTVSPropertyOp32
 70
     0
102
RTVSPropertyOp33
 70
     0
102
RTVSPropertyOp34
 70
     0
102
RTVSPropertyOp35
 70
     0
102
RTVSPropertyOp36
 70
     0
102
RTVSPropertyOp37
 70
     0
102
RTVSPropertyOp38
 70
     0
102
RTVSPropertyOp39
 70
     0
102
RTVSPropertyOp40
 70
     0
102
RTVSPropertyOp41
 70
     0
102
RTVSPropertyOp42
 70
     0
102
RTVSPropertyOp43
 70
     0
102
RTVSPropertyOp44
 70
     0
102
RTVSPropertyOp45
 70
     0
102
RTVSPropertyOp46
 70
     0
102
RTVSPropertyOp47
 70
     0
102
RTVSPropertyOp48
 70
     0
102
RTVSPropertyOp49
 70
     0
102
RTVSPropertyOp50
 70
     0
102
RTVSPropertyOp51
 70
     0
102
RTVSPropertyOp52
 70
     0
102
RTVSPropertyOp53
 70
     0
102
RTVSPropertyOp54
 70
     0
102
RTVSPropertyOp55
 70
     0
102
RTVSPropertyOp56
 70
     0
102
RTVSPropertyOp57
 70
     0
102
RTVSPropertyOp58
 70
     1
102
RTVSPropertyOp59
 70
     1
102
RTVSPropertyOp60
 70
     1
102
RTVSPropertyOp61
 70
     1
102
RTVSPropertyOp62
 70
     1
  0
XRECORD
  5
5BC
102
{ACAD_REACTORS
330
5BB
102
}
330
5BB
100
AcDbXrecord
280
     1
102
RTVSPost2010Prop28
280
     0
102
RTVSPost2010PropOp28
 70
     1
102
RTVSPost2010Prop29
280
     1
102
RTVSPost2010PropOp29
 70
     1
102
RTVSPost2010Prop30
280
     1
102
RTVSPost2010PropOp30
 70
     1
102
RTVSPost2010Prop31
280
     0
102
RTVSPost2010PropOp31
 70
     1
102
RTVSPost2010Prop32
280
     0
102
RTVSPost2010PropOp32
 70
     1
102
RTVSPost2010Prop33
280
     0
102
RTVSPost2010PropOp33
 70
     1
102
RTVSPost2010Prop34
280
     0
102
RTVSPost2010PropOp34
 70
     1
102
RTVSPost2010Prop35
280
     0
102
RTVSPost2010PropOp35
 70
     1
102
RTVSPost2010Prop36
280
     0
102
RTVSPost2010PropOp36
 70
     1
102
RTVSPost2010Prop37
 90
       50
102
RTVSPost2010PropOp37
 70
     1
102
RTVSPost2010Prop38
140
0.0
102
RTVSPost2010PropOp38
 70
     1
102
RTVSPost2010Prop39
140
1.0
102
RTVSPost2010PropOp39
 70
     1
102
RTVSPost2010Prop40
 90
        0
102
RTVSPost2010PropOp40
 70
     1
102
RTVSPost2010Prop41ColorIndex
 90
       18
102
RTVSPost2010Prop41ColorRGB
 90
        0
102
RTVSPost2010PropOp41
 70
     1
102
RTVSPost2010Prop42
 90
       50
102
RTVSPost2010PropOp42
 70
     1
102
RTVSPost2010Prop43
 90
        3
102
RTVSPost2010PropOp43
 70
     1
102
RTVSPost2010Prop44ColorIndex
 90
        5
102
RTVSPost2010Prop44ColorRGB
 90
      255
102
RTVSPost2010PropOp44
 70
     1
102
RTVSPost2010Prop45
280
     0
102
RTVSPost2010PropOp45
 70
     1
102
RTVSPost2010Prop46
 90
       50
102
RTVSPost2010PropOp46
 70
     1
102
RTVSPost2010Prop47
 90
       50
102
RTVSPost2010PropOp47
 70
     1
102
RTVSPost2010Prop48
 90
       50
102
RTVSPost2010PropOp48
 70
     1
102
RTVSPost2010Prop49
280
     0
102
RTVSPost2010PropOp49
 70
     1
102
RTVSPost2010Prop50
 90
       50
102
RTVSPost2010PropOp50
 70
     1
102
RTVSPost2010Prop51ColorIndex
 90
      256
102
RTVSPost2010Prop51ColorRGB
 90
-16777216
102
RTVSPost2010PropOp51
 70
     0
102
RTVSPost2010Prop52
140
1.0
102
RTVSPost2010PropOp52
 70
     0
102
RTVSPost2010Prop53
 90
        2
102
RTVSPost2010PropOp53
 70
     1
102
RTVSPost2010Prop54
  1
strokes_ogs.tif
102
RTVSPost2010PropOp54
 70
     1
102
RTVSPost2010Prop55
280
     0
102
RTVSPost2010PropOp55
 70
     1
102
RTVSPost2010Prop56
140
1.0
102
RTVSPost2010PropOp56
 70
     1
102
RTVSPost2010Prop57
140
1.0
102
RTVSPost2010PropOp57
 70
     1
102
RTVSPropertyOp0
 70
     1
102
RTVSPropertyOp1
 70
     1
102
RTVSPropertyOp2
 70
     1
102
RTVSPropertyOp3
 70
     1
102
RTVSPropertyOp4
 70
     1
102
RTVSPropertyOp5
 70
     1
102
RTVSPropertyOp6
 70
     1
102
RTVSPropertyOp7
 70
     1
102
RTVSPropertyOp8
 70
     1
102
RTVSPropertyOp9
 70
     1
102
RTVSPropertyOp10
 70
     1
102
RTVSPropertyOp11
 70
     1
102
RTVSPropertyOp12
 70
     1
102
RTVSPropertyOp13
 70
     1
102
RTVSPropertyOp14
 70
     1
102
RTVSPropertyOp15
 70
     1
102
RTVSPropertyOp16
 70
     1
102
RTVSPropertyOp17
 70
     1
102
RTVSPropertyOp18
 70
     1
102
RTVSPropertyOp19
 70
     1
102
RTVSPropertyOp20
 70
     1
102
RTVSPropertyOp21
 70
     1
102
RTVSPropertyOp22
 70
     1
102
RTVSPropertyOp23
 70
     1
102
RTVSPropertyOp24
 70
     1
102
RTVSPropertyOp25
 70
     1
102
RTVSPropertyOp26
 70
     1
102
RTVSPropertyOp27
 70
     1
102
RTVSPropertyOp28
 70
     1
102
RTVSPropertyOp29
 70
     1
102
RTVSPropertyOp30
 70
     1
102
RTVSPropertyOp31
 70
     1
102
RTVSPropertyOp32
 70
     1
102
RTVSPropertyOp33
 70
     1
102
RTVSPropertyOp34
 70
     1
102
RTVSPropertyOp35
 70
     1
102
RTVSPropertyOp36
 70
     1
102
RTVSPropertyOp37
 70
     1
102
RTVSPropertyOp38
 70
     1
102
RTVSPropertyOp39
 70
     1
102
RTVSPropertyOp40
 70
     1
102
RTVSPropertyOp41
 70
     1
102
RTVSPropertyOp42
 70
     1
102
RTVSPropertyOp43
 70
     1
102
RTVSPropertyOp44
 70
     1
102
RTVSPropertyOp45
 70
     1
102
RTVSPropertyOp46
 70
     1
102
RTVSPropertyOp47
 70
     1
102
RTVSPropertyOp48
 70
     1
102
RTVSPropertyOp49
 70
     1
102
RTVSPropertyOp50
 70
     1
102
RTVSPropertyOp51
 70
     0
102
RTVSPropertyOp52
 70
     0
102
RTVSPropertyOp53
 70
     1
102
RTVSPropertyOp54
 70
     1
102
RTVSPropertyOp55
 70
     1
102
RTVSPropertyOp56
 70
     1
102
RTVSPropertyOp57
 70
     1
102
RTVSPropertyOp58
 70
     1
102
RTVSPropertyOp59
 70
     1
102
RTVSPropertyOp60
 70
     1
102
RTVSPropertyOp61
 70
     1
102
RTVSPropertyOp62
 70
     1
  0
XRECORD
  5
5C4
102
{ACAD_REACTORS
330
5C3
102
}
330
5C3
100
AcDbXrecord
280
     1
102
RTVSPost2010Prop28
280
     0
102
RTVSPost2010PropOp28
 70
     0
102
RTVSPost2010Prop29
280
     1
102
RTVSPost2010PropOp29
 70
     0
102
RTVSPost2010Prop30
280
     1
102
RTVSPost2010PropOp30
 70
     0
102
RTVSPost2010Prop31
280
     0
102
RTVSPost2010PropOp31
 70
     0
102
RTVSPost2010Prop32
280
     0
102
RTVSPost2010PropOp32
 70
     0
102
RTVSPost2010Prop33
280
     0
102
RTVSPost2010PropOp33
 70
     0
102
RTVSPost2010Prop34
280
     0
102
RTVSPost2010PropOp34
 70
     0
102
RTVSPost2010Prop35
280
     0
102
RTVSPost2010PropOp35
 70
     0
102
RTVSPost2010Prop36
280
     0
102
RTVSPost2010PropOp36
 70
     0
102
RTVSPost2010Prop37
 90
       50
102
RTVSPost2010PropOp37
 70
     0
102
RTVSPost2010Prop38
140
0.0
102
RTVSPost2010PropOp38
 70
     0
102
RTVSPost2010Prop39
140
1.0
102
RTVSPost2010PropOp39
 70
     0
102
RTVSPost2010Prop40
 90
        0
102
RTVSPost2010PropOp40
 70
     0
102
RTVSPost2010Prop41ColorIndex
 90
       18
102
RTVSPost2010Prop41ColorRGB
 90
        0
102
RTVSPost2010PropOp41
 70
     0
102
RTVSPost2010Prop42
 90
       50
102
RTVSPost2010PropOp42
 70
     0
102
RTVSPost2010Prop43
 90
        3
102
RTVSPost2010PropOp43
 70
     0
102
RTVSPost2010Prop44ColorIndex
 90
        5
102
RTVSPost2010Prop44ColorRGB
 90
      255
102
RTVSPost2010PropOp44
 70
     0
102
RTVSPost2010Prop45
280
     0
102
RTVSPost2010PropOp45
 70
     0
102
RTVSPost2010Prop46
 90
       50
102
RTVSPost2010PropOp46
 70
     0
102
RTVSPost2010Prop47
 90
       50
102
RTVSPost2010PropOp47
 70
     0
102
RTVSPost2010Prop48
 90
       50
102
RTVSPost2010PropOp48
 70
     0
102
RTVSPost2010Prop49
280
     0
102
RTVSPost2010PropOp49
 70
     0
102
RTVSPost2010Prop50
 90
       50
102
RTVSPost2010PropOp50
 70
     0
102
RTVSPost2010Prop51ColorIndex
 90
      256
102
RTVSPost2010Prop51ColorRGB
 90
-16777216
102
RTVSPost2010PropOp51
 70
     0
102
RTVSPost2010Prop52
140
1.0
102
RTVSPost2010PropOp52
 70
     0
102
RTVSPost2010Prop53
 90
        2
102
RTVSPost2010PropOp53
 70
     0
102
RTVSPost2010Prop54
  1
strokes_ogs.tif
102
RTVSPost2010PropOp54
 70
     0
102
RTVSPost2010Prop55
280
     0
102
RTVSPost2010PropOp55
 70
     0
102
RTVSPost2010Prop56
140
1.0
102
RTVSPost2010PropOp56
 70
     0
102
RTVSPost2010Prop57
140
1.0
102
RTVSPost2010PropOp57
 70
     0
102
RTVSPropertyOp0
 70
     0
102
RTVSPropertyOp1
 70
     0
102
RTVSPropertyOp2
 70
     0
102
RTVSPropertyOp3
 70
     0
102
RTVSPropertyOp4
 70
     0
102
RTVSPropertyOp5
 70
     0
102
RTVSPropertyOp6
 70
     0
102
RTVSPropertyOp7
 70
     0
102
RTVSPropertyOp8
 70
     0
102
RTVSPropertyOp9
 70
     0
102
RTVSPropertyOp10
 70
     0
102
RTVSPropertyOp11
 70
     0
102
RTVSPropertyOp12
 70
     0
102
RTVSPropertyOp13
 70
     0
102
RTVSPropertyOp14
 70
     2
102
RTVSPropertyOp15
 70
     0
102
RTVSPropertyOp16
 70
     0
102
RTVSPropertyOp17
 70
     0
102
RTVSPropertyOp18
 70
     0
102
RTVSPropertyOp19
 70
     0
102
RTVSPropertyOp20
 70
     0
102
RTVSPropertyOp21
 70
     0
102
RTVSPropertyOp22
 70
     0
102
RTVSPropertyOp23
 70
     0
102
RTVSPropertyOp24
 70
     0
102
RTVSPropertyOp25
 70
     0
102
RTVSPropertyOp26
 70
     0
102
RTVSPropertyOp27
 70
     0
102
RTVSPropertyOp28
 70
     0
102
RTVSPropertyOp29
 70
     0
102
RTVSPropertyOp30
 70
     0
102
RTVSPropertyOp31
 70
     0
102
RTVSPropertyOp32
 70
     0
102
RTVSPropertyOp33
 70
     0
102
RTVSPropertyOp34
 70
     0
102
RTVSPropertyOp35
 70
     0
102
RTVSPropertyOp36
 70
     0
102
RTVSPropertyOp37
 70
     0
102
RTVSPropertyOp38
 70
     0
102
RTVSPropertyOp39
 70
     0
102
RTVSPropertyOp40
 70
     0
102
RTVSPropertyOp41
 70
     0
102
RTVSPropertyOp42
 70
     0
102
RTVSPropertyOp43
 70
     0
102
RTVSPropertyOp44
 70
     0
102
RTVSPropertyOp45
 70
     0
102
RTVSPropertyOp46
 70
     0
102
RTVSPropertyOp47
 70
     0
102
RTVSPropertyOp48
 70
     0
102
RTVSPropertyOp49
 70
     0
102
RTVSPropertyOp50
 70
     0
102
RTVSPropertyOp51
 70
     0
102
RTVSPropertyOp52
 70
     0
102
RTVSPropertyOp53
 70
     0
102
RTVSPropertyOp54
 70
     0
102
RTVSPropertyOp55
 70
     0
102
RTVSPropertyOp56
 70
     0
102
RTVSPropertyOp57
 70
     0
102
RTVSPropertyOp58
 70
     1
102
RTVSPropertyOp59
 70
     1
102
RTVSPropertyOp60
 70
     1
102
RTVSPropertyOp61
 70
     1
102
RTVSPropertyOp62
 70
     1
  0
XRECORD
  5
5B2
102
{ACAD_REACTORS
330
5B1
102
}
330
5B1
100
AcDbXrecord
280
     1
102
RTVSPost2010Prop28
280
     0
102
RTVSPost2010PropOp28
 70
     1
102
RTVSPost2010Prop29
280
     1
102
RTVSPost2010PropOp29
 70
     1
102
RTVSPost2010Prop30
280
     1
102
RTVSPost2010PropOp30
 70
     1
102
RTVSPost2010Prop31
280
     0
102
RTVSPost2010PropOp31
 70
     1
102
RTVSPost2010Prop32
280
     0
102
RTVSPost2010PropOp32
 70
     1
102
RTVSPost2010Prop33
280
     0
102
RTVSPost2010PropOp33
 70
     1
102
RTVSPost2010Prop34
280
     0
102
RTVSPost2010PropOp34
 70
     1
102
RTVSPost2010Prop35
280
     0
102
RTVSPost2010PropOp35
 70
     1
102
RTVSPost2010Prop36
280
     0
102
RTVSPost2010PropOp36
 70
     1
102
RTVSPost2010Prop37
 90
       50
102
RTVSPost2010PropOp37
 70
     1
102
RTVSPost2010Prop38
140
0.0
102
RTVSPost2010PropOp38
 70
     1
102
RTVSPost2010Prop39
140
1.0
102
RTVSPost2010PropOp39
 70
     1
102
RTVSPost2010Prop40
 90
        0
102
RTVSPost2010PropOp40
 70
     1
102
RTVSPost2010Prop41ColorIndex
 90
       18
102
RTVSPost2010Prop41ColorRGB
 90
        0
102
RTVSPost2010PropOp41
 70
     1
102
RTVSPost2010Prop42
 90
       50
102
RTVSPost2010PropOp42
 70
     1
102
RTVSPost2010Prop43
 90
        3
102
RTVSPost2010PropOp43
 70
     1
102
RTVSPost2010Prop44ColorIndex
 90
        5
102
RTVSPost2010Prop44ColorRGB
 90
      255
102
RTVSPost2010PropOp44
 70
     1
102
RTVSPost2010Prop45
280
     0
102
RTVSPost2010PropOp45
 70
     1
102
RTVSPost2010Prop46
 90
       50
102
RTVSPost2010PropOp46
 70
     1
102
RTVSPost2010Prop47
 90
       50
102
RTVSPost2010PropOp47
 70
     1
102
RTVSPost2010Prop48
 90
       50
102
RTVSPost2010PropOp48
 70
     1
102
RTVSPost2010Prop49
280
     0
102
RTVSPost2010PropOp49
 70
     1
102
RTVSPost2010Prop50
 90
       50
102
RTVSPost2010PropOp50
 70
     1
102
RTVSPost2010Prop51ColorIndex
 90
      256
102
RTVSPost2010Prop51ColorRGB
 90
-16777216
102
RTVSPost2010PropOp51
 70
     0
102
RTVSPost2010Prop52
140
1.0
102
RTVSPost2010PropOp52
 70
     0
102
RTVSPost2010Prop53
 90
        2
102
RTVSPost2010PropOp53
 70
     1
102
RTVSPost2010Prop54
  1
strokes_ogs.tif
102
RTVSPost2010PropOp54
 70
     1
102
RTVSPost2010Prop55
280
     0
102
RTVSPost2010PropOp55
 70
     1
102
RTVSPost2010Prop56
140
1.0
102
RTVSPost2010PropOp56
 70
     1
102
RTVSPost2010Prop57
140
1.0
102
RTVSPost2010PropOp57
 70
     1
102
RTVSPropertyOp0
 70
     1
102
RTVSPropertyOp1
 70
     1
102
RTVSPropertyOp2
 70
     1
102
RTVSPropertyOp3
 70
     1
102
RTVSPropertyOp4
 70
     1
102
RTVSPropertyOp5
 70
     1
102
RTVSPropertyOp6
 70
     1
102
RTVSPropertyOp7
 70
     1
102
RTVSPropertyOp8
 70
     1
102
RTVSPropertyOp9
 70
     1
102
RTVSPropertyOp10
 70
     1
102
RTVSPropertyOp11
 70
     1
102
RTVSPropertyOp12
 70
     1
102
RTVSPropertyOp13
 70
     1
102
RTVSPropertyOp14
 70
     1
102
RTVSPropertyOp15
 70
     1
102
RTVSPropertyOp16
 70
     1
102
RTVSPropertyOp17
 70
     1
102
RTVSPropertyOp18
 70
     1
102
RTVSPropertyOp19
 70
     1
102
RTVSPropertyOp20
 70
     1
102
RTVSPropertyOp21
 70
     1
102
RTVSPropertyOp22
 70
     1
102
RTVSPropertyOp23
 70
     1
102
RTVSPropertyOp24
 70
     1
102
RTVSPropertyOp25
 70
     1
102
RTVSPropertyOp26
 70
     1
102
RTVSPropertyOp27
 70
     1
102
RTVSPropertyOp28
 70
     1
102
RTVSPropertyOp29
 70
     1
102
RTVSPropertyOp30
 70
     1
102
RTVSPropertyOp31
 70
     1
102
RTVSPropertyOp32
 70
     1
102
RTVSPropertyOp33
 70
     1
102
RTVSPropertyOp34
 70
     1
102
RTVSPropertyOp35
 70
     1
102
RTVSPropertyOp36
 70
     1
102
RTVSPropertyOp37
 70
     1
102
RTVSPropertyOp38
 70
     1
102
RTVSPropertyOp39
 70
     1
102
RTVSPropertyOp40
 70
     1
102
RTVSPropertyOp41
 70
     1
102
RTVSPropertyOp42
 70
     1
102
RTVSPropertyOp43
 70
     1
102
RTVSPropertyOp44
 70
     1
102
RTVSPropertyOp45
 70
     1
102
RTVSPropertyOp46
 70
     1
102
RTVSPropertyOp47
 70
     1
102
RTVSPropertyOp48
 70
     1
102
RTVSPropertyOp49
 70
     1
102
RTVSPropertyOp50
 70
     1
102
RTVSPropertyOp51
 70
     0
102
RTVSPropertyOp52
 70
     0
102
RTVSPropertyOp53
 70
     1
102
RTVSPropertyOp54
 70
     1
102
RTVSPropertyOp55
 70
     1
102
RTVSPropertyOp56
 70
     1
102
RTVSPropertyOp57
 70
     1
102
RTVSPropertyOp58
 70
     1
102
RTVSPropertyOp59
 70
     1
102
RTVSPropertyOp60
 70
     1
102
RTVSPropertyOp61
 70
     1
102
RTVSPropertyOp62
 70
     1
  0
XRECORD
  5
5D0
102
{ACAD_REACTORS
330
5CF
102
}
330
5CF
100
AcDbXrecord
280
     1
102
RTVSPost2010Prop28
280
     0
102
RTVSPost2010PropOp28
 70
     1
102
RTVSPost2010Prop29
280
     1
102
RTVSPost2010PropOp29
 70
     1
102
RTVSPost2010Prop30
280
     1
102
RTVSPost2010PropOp30
 70
     1
102
RTVSPost2010Prop31
280
     0
102
RTVSPost2010PropOp31
 70
     1
102
RTVSPost2010Prop32
280
     0
102
RTVSPost2010PropOp32
 70
     1
102
RTVSPost2010Prop33
280
     0
102
RTVSPost2010PropOp33
 70
     1
102
RTVSPost2010Prop34
280
     0
102
RTVSPost2010PropOp34
 70
     1
102
RTVSPost2010Prop35
280
     0
102
RTVSPost2010PropOp35
 70
     1
102
RTVSPost2010Prop36
280
     0
102
RTVSPost2010PropOp36
 70
     1
102
RTVSPost2010Prop37
 90
       50
102
RTVSPost2010PropOp37
 70
     1
102
RTVSPost2010Prop38
140
0.0
102
RTVSPost2010PropOp38
 70
     1
102
RTVSPost2010Prop39
140
1.0
102
RTVSPost2010PropOp39
 70
     1
102
RTVSPost2010Prop40
 90
        0
102
RTVSPost2010PropOp40
 70
     1
102
RTVSPost2010Prop41ColorIndex
 90
       18
102
RTVSPost2010Prop41ColorRGB
 90
        0
102
RTVSPost2010PropOp41
 70
     1
102
RTVSPost2010Prop42
 90
       50
102
RTVSPost2010PropOp42
 70
     1
102
RTVSPost2010Prop43
 90
        3
102
RTVSPost2010PropOp43
 70
     1
102
RTVSPost2010Prop44ColorIndex
 90
        5
102
RTVSPost2010Prop44ColorRGB
 90
      255
102
RTVSPost2010PropOp44
 70
     1
102
RTVSPost2010Prop45
280
     0
102
RTVSPost2010PropOp45
 70
     1
102
RTVSPost2010Prop46
 90
       50
102
RTVSPost2010PropOp46
 70
     1
102
RTVSPost2010Prop47
 90
       50
102
RTVSPost2010PropOp47
 70
     1
102
RTVSPost2010Prop48
 90
       50
102
RTVSPost2010PropOp48
 70
     1
102
RTVSPost2010Prop49
280
     0
102
RTVSPost2010PropOp49
 70
     1
102
RTVSPost2010Prop50
 90
       50
102
RTVSPost2010PropOp50
 70
     1
102
RTVSPost2010Prop51ColorIndex
 90
      256
102
RTVSPost2010Prop51ColorRGB
 90
-16777216
102
RTVSPost2010PropOp51
 70
     0
102
RTVSPost2010Prop52
140
1.0
102
RTVSPost2010PropOp52
 70
     0
102
RTVSPost2010Prop53
 90
        2
102
RTVSPost2010PropOp53
 70
     1
102
RTVSPost2010Prop54
  1
strokes_ogs.tif
102
RTVSPost2010PropOp54
 70
     1
102
RTVSPost2010Prop55
280
     0
102
RTVSPost2010PropOp55
 70
     1
102
RTVSPost2010Prop56
140
1.0
102
RTVSPost2010PropOp56
 70
     1
102
RTVSPost2010Prop57
140
1.0
102
RTVSPost2010PropOp57
 70
     1
102
RTVSPropertyOp0
 70
     1
102
RTVSPropertyOp1
 70
     1
102
RTVSPropertyOp2
 70
     1
102
RTVSPropertyOp3
 70
     1
102
RTVSPropertyOp4
 70
     1
102
RTVSPropertyOp5
 70
     1
102
RTVSPropertyOp6
 70
     1
102
RTVSPropertyOp7
 70
     1
102
RTVSPropertyOp8
 70
     1
102
RTVSPropertyOp9
 70
     1
102
RTVSPropertyOp10
 70
     1
102
RTVSPropertyOp11
 70
     1
102
RTVSPropertyOp12
 70
     1
102
RTVSPropertyOp13
 70
     1
102
RTVSPropertyOp14
 70
     1
102
RTVSPropertyOp15
 70
     1
102
RTVSPropertyOp16
 70
     1
102
RTVSPropertyOp17
 70
     1
102
RTVSPropertyOp18
 70
     1
102
RTVSPropertyOp19
 70
     1
102
RTVSPropertyOp20
 70
     1
102
RTVSPropertyOp21
 70
     1
102
RTVSPropertyOp22
 70
     1
102
RTVSPropertyOp23
 70
     1
102
RTVSPropertyOp24
 70
     1
102
RTVSPropertyOp25
 70
     1
102
RTVSPropertyOp26
 70
     1
102
RTVSPropertyOp27
 70
     1
102
RTVSPropertyOp28
 70
     1
102
RTVSPropertyOp29
 70
     1
102
RTVSPropertyOp30
 70
     1
102
RTVSPropertyOp31
 70
     1
102
RTVSPropertyOp32
 70
     1
102
RTVSPropertyOp33
 70
     1
102
RTVSPropertyOp34
 70
     1
102
RTVSPropertyOp35
 70
     1
102
RTVSPropertyOp36
 70
     1
102
RTVSPropertyOp37
 70
     1
102
RTVSPropertyOp38
 70
     1
102
RTVSPropertyOp39
 70
     1
102
RTVSPropertyOp40
 70
     1
102
RTVSPropertyOp41
 70
     1
102
RTVSPropertyOp42
 70
     1
102
RTVSPropertyOp43
 70
     1
102
RTVSPropertyOp44
 70
     1
102
RTVSPropertyOp45
 70
     1
102
RTVSPropertyOp46
 70
     1
102
RTVSPropertyOp47
 70
     1
102
RTVSPropertyOp48
 70
     1
102
RTVSPropertyOp49
 70
     1
102
RTVSPropertyOp50
 70
     1
102
RTVSPropertyOp51
 70
     0
102
RTVSPropertyOp52
 70
     0
102
RTVSPropertyOp53
 70
     1
102
RTVSPropertyOp54
 70
     1
102
RTVSPropertyOp55
 70
     1
102
RTVSPropertyOp56
 70
     1
102
RTVSPropertyOp57
 70
     1
102
RTVSPropertyOp58
 70
     1
102
RTVSPropertyOp59
 70
     1
102
RTVSPropertyOp60
 70
     1
102
RTVSPropertyOp61
 70
     1
102
RTVSPropertyOp62
 70
     1
  0
XRECORD
  5
5CE
102
{ACAD_REACTORS
330
5CD
102
}
330
5CD
100
AcDbXrecord
280
     1
102
RTVSPost2010Prop28
280
     0
102
RTVSPost2010PropOp28
 70
     1
102
RTVSPost2010Prop29
280
     1
102
RTVSPost2010PropOp29
 70
     1
102
RTVSPost2010Prop30
280
     1
102
RTVSPost2010PropOp30
 70
     1
102
RTVSPost2010Prop31
280
     0
102
RTVSPost2010PropOp31
 70
     1
102
RTVSPost2010Prop32
280
     0
102
RTVSPost2010PropOp32
 70
     1
102
RTVSPost2010Prop33
280
     0
102
RTVSPost2010PropOp33
 70
     1
102
RTVSPost2010Prop34
280
     0
102
RTVSPost2010PropOp34
 70
     1
102
RTVSPost2010Prop35
280
     0
102
RTVSPost2010PropOp35
 70
     1
102
RTVSPost2010Prop36
280
     0
102
RTVSPost2010PropOp36
 70
     1
102
RTVSPost2010Prop37
 90
       50
102
RTVSPost2010PropOp37
 70
     1
102
RTVSPost2010Prop38
140
0.0
102
RTVSPost2010PropOp38
 70
     1
102
RTVSPost2010Prop39
140
1.0
102
RTVSPost2010PropOp39
 70
     1
102
RTVSPost2010Prop40
 90
        0
102
RTVSPost2010PropOp40
 70
     1
102
RTVSPost2010Prop41ColorIndex
 90
       18
102
RTVSPost2010Prop41ColorRGB
 90
        0
102
RTVSPost2010PropOp41
 70
     1
102
RTVSPost2010Prop42
 90
       50
102
RTVSPost2010PropOp42
 70
     1
102
RTVSPost2010Prop43
 90
        3
102
RTVSPost2010PropOp43
 70
     1
102
RTVSPost2010Prop44ColorIndex
 90
        5
102
RTVSPost2010Prop44ColorRGB
 90
      255
102
RTVSPost2010PropOp44
 70
     1
102
RTVSPost2010Prop45
280
     0
102
RTVSPost2010PropOp45
 70
     1
102
RTVSPost2010Prop46
 90
       50
102
RTVSPost2010PropOp46
 70
     1
102
RTVSPost2010Prop47
 90
       50
102
RTVSPost2010PropOp47
 70
     1
102
RTVSPost2010Prop48
 90
       50
102
RTVSPost2010PropOp48
 70
     1
102
RTVSPost2010Prop49
280
     0
102
RTVSPost2010PropOp49
 70
     1
102
RTVSPost2010Prop50
 90
       50
102
RTVSPost2010PropOp50
 70
     1
102
RTVSPost2010Prop51ColorIndex
 90
      256
102
RTVSPost2010Prop51ColorRGB
 90
-16777216
102
RTVSPost2010PropOp51
 70
     0
102
RTVSPost2010Prop52
140
1.0
102
RTVSPost2010PropOp52
 70
     0
102
RTVSPost2010Prop53
 90
        2
102
RTVSPost2010PropOp53
 70
     1
102
RTVSPost2010Prop54
  1
strokes_ogs.tif
102
RTVSPost2010PropOp54
 70
     1
102
RTVSPost2010Prop55
280
     0
102
RTVSPost2010PropOp55
 70
     1
102
RTVSPost2010Prop56
140
1.0
102
RTVSPost2010PropOp56
 70
     1
102
RTVSPost2010Prop57
140
1.0
102
RTVSPost2010PropOp57
 70
     1
102
RTVSPropertyOp0
 70
     1
102
RTVSPropertyOp1
 70
     1
102
RTVSPropertyOp2
 70
     1
102
RTVSPropertyOp3
 70
     1
102
RTVSPropertyOp4
 70
     1
102
RTVSPropertyOp5
 70
     1
102
RTVSPropertyOp6
 70
     1
102
RTVSPropertyOp7
 70
     1
102
RTVSPropertyOp8
 70
     1
102
RTVSPropertyOp9
 70
     1
102
RTVSPropertyOp10
 70
     1
102
RTVSPropertyOp11
 70
     1
102
RTVSPropertyOp12
 70
     1
102
RTVSPropertyOp13
 70
     1
102
RTVSPropertyOp14
 70
     1
102
RTVSPropertyOp15
 70
     1
102
RTVSPropertyOp16
 70
     1
102
RTVSPropertyOp17
 70
     1
102
RTVSPropertyOp18
 70
     1
102
RTVSPropertyOp19
 70
     1
102
RTVSPropertyOp20
 70
     1
102
RTVSPropertyOp21
 70
     1
102
RTVSPropertyOp22
 70
     1
102
RTVSPropertyOp23
 70
     1
102
RTVSPropertyOp24
 70
     1
102
RTVSPropertyOp25
 70
     1
102
RTVSPropertyOp26
 70
     1
102
RTVSPropertyOp27
 70
     1
102
RTVSPropertyOp28
 70
     1
102
RTVSPropertyOp29
 70
     1
102
RTVSPropertyOp30
 70
     1
102
RTVSPropertyOp31
 70
     1
102
RTVSPropertyOp32
 70
     1
102
RTVSPropertyOp33
 70
     1
102
RTVSPropertyOp34
 70
     1
102
RTVSPropertyOp35
 70
     1
102
RTVSPropertyOp36
 70
     1
102
RTVSPropertyOp37
 70
     1
102
RTVSPropertyOp38
 70
     1
102
RTVSPropertyOp39
 70
     1
102
RTVSPropertyOp40
 70
     1
102
RTVSPropertyOp41
 70
     1
102
RTVSPropertyOp42
 70
     1
102
RTVSPropertyOp43
 70
     1
102
RTVSPropertyOp44
 70
     1
102
RTVSPropertyOp45
 70
     1
102
RTVSPropertyOp46
 70
     1
102
RTVSPropertyOp47
 70
     1
102
RTVSPropertyOp48
 70
     1
102
RTVSPropertyOp49
 70
     1
102
RTVSPropertyOp50
 70
     1
102
RTVSPropertyOp51
 70
     0
102
RTVSPropertyOp52
 70
     0
102
RTVSPropertyOp53
 70
     1
102
RTVSPropertyOp54
 70
     1
102
RTVSPropertyOp55
 70
     1
102
RTVSPropertyOp56
 70
     1
102
RTVSPropertyOp57
 70
     1
102
RTVSPropertyOp58
 70
     1
102
RTVSPropertyOp59
 70
     1
102
RTVSPropertyOp60
 70
     1
102
RTVSPropertyOp61
 70
     1
102
RTVSPropertyOp62
 70
     1
  0
XRECORD
  5
5C8
102
{ACAD_REACTORS
330
5C7
102
}
330
5C7
100
AcDbXrecord
280
     1
102
RTVSPost2010Prop28
280
     0
102
RTVSPost2010PropOp28
 70
     1
102
RTVSPost2010Prop29
280
     1
102
RTVSPost2010PropOp29
 70
     1
102
RTVSPost2010Prop30
280
     1
102
RTVSPost2010PropOp30
 70
     1
102
RTVSPost2010Prop31
280
     0
102
RTVSPost2010PropOp31
 70
     1
102
RTVSPost2010Prop32
280
     0
102
RTVSPost2010PropOp32
 70
     1
102
RTVSPost2010Prop33
280
     0
102
RTVSPost2010PropOp33
 70
     1
102
RTVSPost2010Prop34
280
     0
102
RTVSPost2010PropOp34
 70
     1
102
RTVSPost2010Prop35
280
     0
102
RTVSPost2010PropOp35
 70
     1
102
RTVSPost2010Prop36
280
     0
102
RTVSPost2010PropOp36
 70
     1
102
RTVSPost2010Prop37
 90
       50
102
RTVSPost2010PropOp37
 70
     1
102
RTVSPost2010Prop38
140
0.0
102
RTVSPost2010PropOp38
 70
     1
102
RTVSPost2010Prop39
140
1.0
102
RTVSPost2010PropOp39
 70
     1
102
RTVSPost2010Prop40
 90
        0
102
RTVSPost2010PropOp40
 70
     1
102
RTVSPost2010Prop41ColorIndex
 90
       18
102
RTVSPost2010Prop41ColorRGB
 90
        0
102
RTVSPost2010PropOp41
 70
     1
102
RTVSPost2010Prop42
 90
       50
102
RTVSPost2010PropOp42
 70
     1
102
RTVSPost2010Prop43
 90
        3
102
RTVSPost2010PropOp43
 70
     1
102
RTVSPost2010Prop44ColorIndex
 90
        5
102
RTVSPost2010Prop44ColorRGB
 90
      255
102
RTVSPost2010PropOp44
 70
     1
102
RTVSPost2010Prop45
280
     0
102
RTVSPost2010PropOp45
 70
     1
102
RTVSPost2010Prop46
 90
       50
102
RTVSPost2010PropOp46
 70
     1
102
RTVSPost2010Prop47
 90
       50
102
RTVSPost2010PropOp47
 70
     1
102
RTVSPost2010Prop48
 90
       50
102
RTVSPost2010PropOp48
 70
     1
102
RTVSPost2010Prop49
280
     0
102
RTVSPost2010PropOp49
 70
     1
102
RTVSPost2010Prop50
 90
       50
102
RTVSPost2010PropOp50
 70
     1
102
RTVSPost2010Prop51ColorIndex
 90
      256
102
RTVSPost2010Prop51ColorRGB
 90
-16777216
102
RTVSPost2010PropOp51
 70
     0
102
RTVSPost2010Prop52
140
1.0
102
RTVSPost2010PropOp52
 70
     0
102
RTVSPost2010Prop53
 90
        2
102
RTVSPost2010PropOp53
 70
     1
102
RTVSPost2010Prop54
  1
strokes_ogs.tif
102
RTVSPost2010PropOp54
 70
     1
102
RTVSPost2010Prop55
280
     0
102
RTVSPost2010PropOp55
 70
     1
102
RTVSPost2010Prop56
140
1.0
102
RTVSPost2010PropOp56
 70
     1
102
RTVSPost2010Prop57
140
1.0
102
RTVSPost2010PropOp57
 70
     1
102
RTVSPropertyOp0
 70
     1
102
RTVSPropertyOp1
 70
     1
102
RTVSPropertyOp2
 70
     1
102
RTVSPropertyOp3
 70
     1
102
RTVSPropertyOp4
 70
     1
102
RTVSPropertyOp5
 70
     1
102
RTVSPropertyOp6
 70
     1
102
RTVSPropertyOp7
 70
     1
102
RTVSPropertyOp8
 70
     1
102
RTVSPropertyOp9
 70
     1
102
RTVSPropertyOp10
 70
     1
102
RTVSPropertyOp11
 70
     1
102
RTVSPropertyOp12
 70
     1
102
RTVSPropertyOp13
 70
     1
102
RTVSPropertyOp14
 70
     1
102
RTVSPropertyOp15
 70
     1
102
RTVSPropertyOp16
 70
     1
102
RTVSPropertyOp17
 70
     1
102
RTVSPropertyOp18
 70
     1
102
RTVSPropertyOp19
 70
     1
102
RTVSPropertyOp20
 70
     1
102
RTVSPropertyOp21
 70
     1
102
RTVSPropertyOp22
 70
     1
102
RTVSPropertyOp23
 70
     1
102
RTVSPropertyOp24
 70
     1
102
RTVSPropertyOp25
 70
     1
102
RTVSPropertyOp26
 70
     1
102
RTVSPropertyOp27
 70
     1
102
RTVSPropertyOp28
 70
     1
102
RTVSPropertyOp29
 70
     1
102
RTVSPropertyOp30
 70
     1
102
RTVSPropertyOp31
 70
     1
102
RTVSPropertyOp32
 70
     1
102
RTVSPropertyOp33
 70
     1
102
RTVSPropertyOp34
 70
     1
102
RTVSPropertyOp35
 70
     1
102
RTVSPropertyOp36
 70
     1
102
RTVSPropertyOp37
 70
     1
102
RTVSPropertyOp38
 70
     1
102
RTVSPropertyOp39
 70
     1
102
RTVSPropertyOp40
 70
     1
102
RTVSPropertyOp41
 70
     1
102
RTVSPropertyOp42
 70
     1
102
RTVSPropertyOp43
 70
     1
102
RTVSPropertyOp44
 70
     1
102
RTVSPropertyOp45
 70
     1
102
RTVSPropertyOp46
 70
     1
102
RTVSPropertyOp47
 70
     1
102
RTVSPropertyOp48
 70
     1
102
RTVSPropertyOp49
 70
     1
102
RTVSPropertyOp50
 70
     1
102
RTVSPropertyOp51
 70
     0
102
RTVSPropertyOp52
 70
     0
102
RTVSPropertyOp53
 70
     1
102
RTVSPropertyOp54
 70
     1
102
RTVSPropertyOp55
 70
     1
102
RTVSPropertyOp56
 70
     1
102
RTVSPropertyOp57
 70
     1
102
RTVSPropertyOp58
 70
     1
102
RTVSPropertyOp59
 70
     1
102
RTVSPropertyOp60
 70
     1
102
RTVSPropertyOp61
 70
     1
102
RTVSPropertyOp62
 70
     1
  0
XRECORD
  5
5CA
102
{ACAD_REACTORS
330
5C9
102
}
330
5C9
100
AcDbXrecord
280
     1
102
RTVSPost2010Prop28
280
     0
102
RTVSPost2010PropOp28
 70
     1
102
RTVSPost2010Prop29
280
     1
102
RTVSPost2010PropOp29
 70
     1
102
RTVSPost2010Prop30
280
     1
102
RTVSPost2010PropOp30
 70
     1
102
RTVSPost2010Prop31
280
     0
102
RTVSPost2010PropOp31
 70
     1
102
RTVSPost2010Prop32
280
     0
102
RTVSPost2010PropOp32
 70
     1
102
RTVSPost2010Prop33
280
     0
102
RTVSPost2010PropOp33
 70
     1
102
RTVSPost2010Prop34
280
     0
102
RTVSPost2010PropOp34
 70
     1
102
RTVSPost2010Prop35
280
     0
102
RTVSPost2010PropOp35
 70
     1
102
RTVSPost2010Prop36
280
     0
102
RTVSPost2010PropOp36
 70
     1
102
RTVSPost2010Prop37
 90
       50
102
RTVSPost2010PropOp37
 70
     1
102
RTVSPost2010Prop38
140
0.0
102
RTVSPost2010PropOp38
 70
     1
102
RTVSPost2010Prop39
140
1.0
102
RTVSPost2010PropOp39
 70
     1
102
RTVSPost2010Prop40
 90
        0
102
RTVSPost2010PropOp40
 70
     1
102
RTVSPost2010Prop41ColorIndex
 90
       18
102
RTVSPost2010Prop41ColorRGB
 90
        0
102
RTVSPost2010PropOp41
 70
     1
102
RTVSPost2010Prop42
 90
       50
102
RTVSPost2010PropOp42
 70
     1
102
RTVSPost2010Prop43
 90
        3
102
RTVSPost2010PropOp43
 70
     1
102
RTVSPost2010Prop44ColorIndex
 90
        5
102
RTVSPost2010Prop44ColorRGB
 90
      255
102
RTVSPost2010PropOp44
 70
     1
102
RTVSPost2010Prop45
280
     0
102
RTVSPost2010PropOp45
 70
     1
102
RTVSPost2010Prop46
 90
       50
102
RTVSPost2010PropOp46
 70
     1
102
RTVSPost2010Prop47
 90
       50
102
RTVSPost2010PropOp47
 70
     1
102
RTVSPost2010Prop48
 90
       50
102
RTVSPost2010PropOp48
 70
     1
102
RTVSPost2010Prop49
280
     0
102
RTVSPost2010PropOp49
 70
     1
102
RTVSPost2010Prop50
 90
       50
102
RTVSPost2010PropOp50
 70
     1
102
RTVSPost2010Prop51ColorIndex
 90
      256
102
RTVSPost2010Prop51ColorRGB
 90
-16777216
102
RTVSPost2010PropOp51
 70
     0
102
RTVSPost2010Prop52
140
1.0
102
RTVSPost2010PropOp52
 70
     0
102
RTVSPost2010Prop53
 90
        2
102
RTVSPost2010PropOp53
 70
     1
102
RTVSPost2010Prop54
  1
strokes_ogs.tif
102
RTVSPost2010PropOp54
 70
     1
102
RTVSPost2010Prop55
280
     0
102
RTVSPost2010PropOp55
 70
     1
102
RTVSPost2010Prop56
140
1.0
102
RTVSPost2010PropOp56
 70
     1
102
RTVSPost2010Prop57
140
1.0
102
RTVSPost2010PropOp57
 70
     1
102
RTVSPropertyOp0
 70
     1
102
RTVSPropertyOp1
 70
     1
102
RTVSPropertyOp2
 70
     1
102
RTVSPropertyOp3
 70
     1
102
RTVSPropertyOp4
 70
     1
102
RTVSPropertyOp5
 70
     1
102
RTVSPropertyOp6
 70
     1
102
RTVSPropertyOp7
 70
     1
102
RTVSPropertyOp8
 70
     1
102
RTVSPropertyOp9
 70
     1
102
RTVSPropertyOp10
 70
     1
102
RTVSPropertyOp11
 70
     1
102
RTVSPropertyOp12
 70
     1
102
RTVSPropertyOp13
 70
     1
102
RTVSPropertyOp14
 70
     1
102
RTVSPropertyOp15
 70
     1
102
RTVSPropertyOp16
 70
     1
102
RTVSPropertyOp17
 70
     1
102
RTVSPropertyOp18
 70
     1
102
RTVSPropertyOp19
 70
     1
102
RTVSPropertyOp20
 70
     1
102
RTVSPropertyOp21
 70
     1
102
RTVSPropertyOp22
 70
     1
102
RTVSPropertyOp23
 70
     1
102
RTVSPropertyOp24
 70
     1
102
RTVSPropertyOp25
 70
     1
102
RTVSPropertyOp26
 70
     1
102
RTVSPropertyOp27
 70
     1
102
RTVSPropertyOp28
 70
     1
102
RTVSPropertyOp29
 70
     1
102
RTVSPropertyOp30
 70
     1
102
RTVSPropertyOp31
 70
     1
102
RTVSPropertyOp32
 70
     1
102
RTVSPropertyOp33
 70
     1
102
RTVSPropertyOp34
 70
     1
102
RTVSPropertyOp35
 70
     1
102
RTVSPropertyOp36
 70
     1
102
RTVSPropertyOp37
 70
     1
102
RTVSPropertyOp38
 70
     1
102
RTVSPropertyOp39
 70
     1
102
RTVSPropertyOp40
 70
     1
102
RTVSPropertyOp41
 70
     1
102
RTVSPropertyOp42
 70
     1
102
RTVSPropertyOp43
 70
     1
102
RTVSPropertyOp44
 70
     1
102
RTVSPropertyOp45
 70
     1
102
RTVSPropertyOp46
 70
     1
102
RTVSPropertyOp47
 70
     1
102
RTVSPropertyOp48
 70
     1
102
RTVSPropertyOp49
 70
     1
102
RTVSPropertyOp50
 70
     1
102
RTVSPropertyOp51
 70
     0
102
RTVSPropertyOp52
 70
     0
102
RTVSPropertyOp53
 70
     1
102
RTVSPropertyOp54
 70
     1
102
RTVSPropertyOp55
 70
     1
102
RTVSPropertyOp56
 70
     1
102
RTVSPropertyOp57
 70
     1
102
RTVSPropertyOp58
 70
     1
102
RTVSPropertyOp59
 70
     1
102
RTVSPropertyOp60
 70
     1
102
RTVSPropertyOp61
 70
     1
102
RTVSPropertyOp62
 70
     1
  0
XRECORD
  5
5BA
102
{ACAD_REACTORS
330
5B9
102
}
330
5B9
100
AcDbXrecord
280
     1
102
RTVSPost2010Prop28
280
     0
102
RTVSPost2010PropOp28
 70
     1
102
RTVSPost2010Prop29
280
     1
102
RTVSPost2010PropOp29
 70
     1
102
RTVSPost2010Prop30
280
     1
102
RTVSPost2010PropOp30
 70
     1
102
RTVSPost2010Prop31
280
     0
102
RTVSPost2010PropOp31
 70
     1
102
RTVSPost2010Prop32
280
     0
102
RTVSPost2010PropOp32
 70
     1
102
RTVSPost2010Prop33
280
     0
102
RTVSPost2010PropOp33
 70
     1
102
RTVSPost2010Prop34
280
     0
102
RTVSPost2010PropOp34
 70
     1
102
RTVSPost2010Prop35
280
     0
102
RTVSPost2010PropOp35
 70
     1
102
RTVSPost2010Prop36
280
     0
102
RTVSPost2010PropOp36
 70
     1
102
RTVSPost2010Prop37
 90
       50
102
RTVSPost2010PropOp37
 70
     1
102
RTVSPost2010Prop38
140
0.0
102
RTVSPost2010PropOp38
 70
     1
102
RTVSPost2010Prop39
140
1.0
102
RTVSPost2010PropOp39
 70
     1
102
RTVSPost2010Prop40
 90
        0
102
RTVSPost2010PropOp40
 70
     1
102
RTVSPost2010Prop41ColorIndex
 90
       18
102
RTVSPost2010Prop41ColorRGB
 90
        0
102
RTVSPost2010PropOp41
 70
     1
102
RTVSPost2010Prop42
 90
       50
102
RTVSPost2010PropOp42
 70
     1
102
RTVSPost2010Prop43
 90
        3
102
RTVSPost2010PropOp43
 70
     1
102
RTVSPost2010Prop44ColorIndex
 90
        5
102
RTVSPost2010Prop44ColorRGB
 90
      255
102
RTVSPost2010PropOp44
 70
     1
102
RTVSPost2010Prop45
280
     0
102
RTVSPost2010PropOp45
 70
     1
102
RTVSPost2010Prop46
 90
       50
102
RTVSPost2010PropOp46
 70
     1
102
RTVSPost2010Prop47
 90
       50
102
RTVSPost2010PropOp47
 70
     1
102
RTVSPost2010Prop48
 90
       50
102
RTVSPost2010PropOp48
 70
     1
102
RTVSPost2010Prop49
280
     0
102
RTVSPost2010PropOp49
 70
     1
102
RTVSPost2010Prop50
 90
       50
102
RTVSPost2010PropOp50
 70
     1
102
RTVSPost2010Prop51ColorIndex
 90
      256
102
RTVSPost2010Prop51ColorRGB
 90
-16777216
102
RTVSPost2010PropOp51
 70
     0
102
RTVSPost2010Prop52
140
1.0
102
RTVSPost2010PropOp52
 70
     0
102
RTVSPost2010Prop53
 90
        2
102
RTVSPost2010PropOp53
 70
     1
102
RTVSPost2010Prop54
  1
strokes_ogs.tif
102
RTVSPost2010PropOp54
 70
     1
102
RTVSPost2010Prop55
280
     0
102
RTVSPost2010PropOp55
 70
     1
102
RTVSPost2010Prop56
140
1.0
102
RTVSPost2010PropOp56
 70
     1
102
RTVSPost2010Prop57
140
1.0
102
RTVSPost2010PropOp57
 70
     1
102
RTVSPropertyOp0
 70
     1
102
RTVSPropertyOp1
 70
     1
102
RTVSPropertyOp2
 70
     1
102
RTVSPropertyOp3
 70
     1
102
RTVSPropertyOp4
 70
     1
102
RTVSPropertyOp5
 70
     1
102
RTVSPropertyOp6
 70
     1
102
RTVSPropertyOp7
 70
     1
102
RTVSPropertyOp8
 70
     1
102
RTVSPropertyOp9
 70
     1
102
RTVSPropertyOp10
 70
     1
102
RTVSPropertyOp11
 70
     1
102
RTVSPropertyOp12
 70
     1
102
RTVSPropertyOp13
 70
     1
102
RTVSPropertyOp14
 70
     1
102
RTVSPropertyOp15
 70
     1
102
RTVSPropertyOp16
 70
     1
102
RTVSPropertyOp17
 70
     1
102
RTVSPropertyOp18
 70
     1
102
RTVSPropertyOp19
 70
     1
102
RTVSPropertyOp20
 70
     1
102
RTVSPropertyOp21
 70
     1
102
RTVSPropertyOp22
 70
     1
102
RTVSPropertyOp23
 70
     1
102
RTVSPropertyOp24
 70
     1
102
RTVSPropertyOp25
 70
     1
102
RTVSPropertyOp26
 70
     1
102
RTVSPropertyOp27
 70
     1
102
RTVSPropertyOp28
 70
     1
102
RTVSPropertyOp29
 70
     1
102
RTVSPropertyOp30
 70
     1
102
RTVSPropertyOp31
 70
     1
102
RTVSPropertyOp32
 70
     1
102
RTVSPropertyOp33
 70
     1
102
RTVSPropertyOp34
 70
     1
102
RTVSPropertyOp35
 70
     1
102
RTVSPropertyOp36
 70
     1
102
RTVSPropertyOp37
 70
     1
102
RTVSPropertyOp38
 70
     1
102
RTVSPropertyOp39
 70
     1
102
RTVSPropertyOp40
 70
     1
102
RTVSPropertyOp41
 70
     1
102
RTVSPropertyOp42
 70
     1
102
RTVSPropertyOp43
 70
     1
102
RTVSPropertyOp44
 70
     1
102
RTVSPropertyOp45
 70
     1
102
RTVSPropertyOp46
 70
     1
102
RTVSPropertyOp47
 70
     1
102
RTVSPropertyOp48
 70
     1
102
RTVSPropertyOp49
 70
     1
102
RTVSPropertyOp50
 70
     1
102
RTVSPropertyOp51
 70
     0
102
RTVSPropertyOp52
 70
     0
102
RTVSPropertyOp53
 70
     1
102
RTVSPropertyOp54
 70
     1
102
RTVSPropertyOp55
 70
     1
102
RTVSPropertyOp56
 70
     1
102
RTVSPropertyOp57
 70
     1
102
RTVSPropertyOp58
 70
     1
102
RTVSPropertyOp59
 70
     1
102
RTVSPropertyOp60
 70
     1
102
RTVSPropertyOp61
 70
     1
102
RTVSPropertyOp62
 70
     1
  0
XRECORD
  5
5AC
102
{ACAD_REACTORS
330
5AB
102
}
330
5AB
100
AcDbXrecord
280
     1
102
RTVSPost2010Prop28
280
     0
102
RTVSPost2010PropOp28
 70
     1
102
RTVSPost2010Prop29
280
     1
102
RTVSPost2010PropOp29
 70
     1
102
RTVSPost2010Prop30
280
     1
102
RTVSPost2010PropOp30
 70
     1
102
RTVSPost2010Prop31
280
     0
102
RTVSPost2010PropOp31
 70
     1
102
RTVSPost2010Prop32
280
     0
102
RTVSPost2010PropOp32
 70
     1
102
RTVSPost2010Prop33
280
     0
102
RTVSPost2010PropOp33
 70
     1
102
RTVSPost2010Prop34
280
     0
102
RTVSPost2010PropOp34
 70
     1
102
RTVSPost2010Prop35
280
     0
102
RTVSPost2010PropOp35
 70
     1
102
RTVSPost2010Prop36
280
     0
102
RTVSPost2010PropOp36
 70
     1
102
RTVSPost2010Prop37
 90
       50
102
RTVSPost2010PropOp37
 70
     1
102
RTVSPost2010Prop38
140
0.0
102
RTVSPost2010PropOp38
 70
     1
102
RTVSPost2010Prop39
140
1.0
102
RTVSPost2010PropOp39
 70
     1
102
RTVSPost2010Prop40
 90
        0
102
RTVSPost2010PropOp40
 70
     1
102
RTVSPost2010Prop41ColorIndex
 90
       18
102
RTVSPost2010Prop41ColorRGB
 90
        0
102
RTVSPost2010PropOp41
 70
     1
102
RTVSPost2010Prop42
 90
       50
102
RTVSPost2010PropOp42
 70
     1
102
RTVSPost2010Prop43
 90
        3
102
RTVSPost2010PropOp43
 70
     1
102
RTVSPost2010Prop44ColorIndex
 90
        5
102
RTVSPost2010Prop44ColorRGB
 90
      255
102
RTVSPost2010PropOp44
 70
     1
102
RTVSPost2010Prop45
280
     0
102
RTVSPost2010PropOp45
 70
     1
102
RTVSPost2010Prop46
 90
       50
102
RTVSPost2010PropOp46
 70
     1
102
RTVSPost2010Prop47
 90
       50
102
RTVSPost2010PropOp47
 70
     1
102
RTVSPost2010Prop48
 90
       50
102
RTVSPost2010PropOp48
 70
     1
102
RTVSPost2010Prop49
280
     0
102
RTVSPost2010PropOp49
 70
     1
102
RTVSPost2010Prop50
 90
       50
102
RTVSPost2010PropOp50
 70
     1
102
RTVSPost2010Prop51ColorIndex
 90
      256
102
RTVSPost2010Prop51ColorRGB
 90
-16777216
102
RTVSPost2010PropOp51
 70
     0
102
RTVSPost2010Prop52
140
1.0
102
RTVSPost2010PropOp52
 70
     0
102
RTVSPost2010Prop53
 90
        2
102
RTVSPost2010PropOp53
 70
     1
102
RTVSPost2010Prop54
  1
strokes_ogs.tif
102
RTVSPost2010PropOp54
 70
     1
102
RTVSPost2010Prop55
280
     0
102
RTVSPost2010PropOp55
 70
     1
102
RTVSPost2010Prop56
140
1.0
102
RTVSPost2010PropOp56
 70
     1
102
RTVSPost2010Prop57
140
1.0
102
RTVSPost2010PropOp57
 70
     1
102
RTVSPropertyOp0
 70
     1
102
RTVSPropertyOp1
 70
     1
102
RTVSPropertyOp2
 70
     1
102
RTVSPropertyOp3
 70
     1
102
RTVSPropertyOp4
 70
     1
102
RTVSPropertyOp5
 70
     1
102
RTVSPropertyOp6
 70
     1
102
RTVSPropertyOp7
 70
     1
102
RTVSPropertyOp8
 70
     1
102
RTVSPropertyOp9
 70
     1
102
RTVSPropertyOp10
 70
     1
102
RTVSPropertyOp11
 70
     1
102
RTVSPropertyOp12
 70
     1
102
RTVSPropertyOp13
 70
     1
102
RTVSPropertyOp14
 70
     1
102
RTVSPropertyOp15
 70
     1
102
RTVSPropertyOp16
 70
     1
102
RTVSPropertyOp17
 70
     1
102
RTVSPropertyOp18
 70
     1
102
RTVSPropertyOp19
 70
     1
102
RTVSPropertyOp20
 70
     1
102
RTVSPropertyOp21
 70
     1
102
RTVSPropertyOp22
 70
     1
102
RTVSPropertyOp23
 70
     1
102
RTVSPropertyOp24
 70
     1
102
RTVSPropertyOp25
 70
     1
102
RTVSPropertyOp26
 70
     1
102
RTVSPropertyOp27
 70
     1
102
RTVSPropertyOp28
 70
     1
102
RTVSPropertyOp29
 70
     1
102
RTVSPropertyOp30
 70
     1
102
RTVSPropertyOp31
 70
     1
102
RTVSPropertyOp32
 70
     1
102
RTVSPropertyOp33
 70
     1
102
RTVSPropertyOp34
 70
     1
102
RTVSPropertyOp35
 70
     1
102
RTVSPropertyOp36
 70
     1
102
RTVSPropertyOp37
 70
     1
102
RTVSPropertyOp38
 70
     1
102
RTVSPropertyOp39
 70
     1
102
RTVSPropertyOp40
 70
     1
102
RTVSPropertyOp41
 70
     1
102
RTVSPropertyOp42
 70
     1
102
RTVSPropertyOp43
 70
     1
102
RTVSPropertyOp44
 70
     1
102
RTVSPropertyOp45
 70
     1
102
RTVSPropertyOp46
 70
     1
102
RTVSPropertyOp47
 70
     1
102
RTVSPropertyOp48
 70
     1
102
RTVSPropertyOp49
 70
     1
102
RTVSPropertyOp50
 70
     1
102
RTVSPropertyOp51
 70
     0
102
RTVSPropertyOp52
 70
     0
102
RTVSPropertyOp53
 70
     1
102
RTVSPropertyOp54
 70
     1
102
RTVSPropertyOp55
 70
     1
102
RTVSPropertyOp56
 70
     1
102
RTVSPropertyOp57
 70
     1
102
RTVSPropertyOp58
 70
     1
102
RTVSPropertyOp59
 70
     1
102
RTVSPropertyOp60
 70
     1
102
RTVSPropertyOp61
 70
     1
102
RTVSPropertyOp62
 70
     1
  0
XRECORD
  5
5CC
102
{ACAD_REACTORS
330
5CB
102
}
330
5CB
100
AcDbXrecord
280
     1
102
RTVSPost2010Prop28
280
     0
102
RTVSPost2010PropOp28
 70
     1
102
RTVSPost2010Prop29
280
     1
102
RTVSPost2010PropOp29
 70
     1
102
RTVSPost2010Prop30
280
     1
102
RTVSPost2010PropOp30
 70
     1
102
RTVSPost2010Prop31
280
     0
102
RTVSPost2010PropOp31
 70
     1
102
RTVSPost2010Prop32
280
     0
102
RTVSPost2010PropOp32
 70
     1
102
RTVSPost2010Prop33
280
     0
102
RTVSPost2010PropOp33
 70
     1
102
RTVSPost2010Prop34
280
     0
102
RTVSPost2010PropOp34
 70
     1
102
RTVSPost2010Prop35
280
     0
102
RTVSPost2010PropOp35
 70
     1
102
RTVSPost2010Prop36
280
     0
102
RTVSPost2010PropOp36
 70
     1
102
RTVSPost2010Prop37
 90
       50
102
RTVSPost2010PropOp37
 70
     1
102
RTVSPost2010Prop38
140
0.0
102
RTVSPost2010PropOp38
 70
     1
102
RTVSPost2010Prop39
140
1.0
102
RTVSPost2010PropOp39
 70
     1
102
RTVSPost2010Prop40
 90
        0
102
RTVSPost2010PropOp40
 70
     1
102
RTVSPost2010Prop41ColorIndex
 90
       18
102
RTVSPost2010Prop41ColorRGB
 90
        0
102
RTVSPost2010PropOp41
 70
     1
102
RTVSPost2010Prop42
 90
       50
102
RTVSPost2010PropOp42
 70
     1
102
RTVSPost2010Prop43
 90
        3
102
RTVSPost2010PropOp43
 70
     1
102
RTVSPost2010Prop44ColorIndex
 90
        5
102
RTVSPost2010Prop44ColorRGB
 90
      255
102
RTVSPost2010PropOp44
 70
     1
102
RTVSPost2010Prop45
280
     0
102
RTVSPost2010PropOp45
 70
     1
102
RTVSPost2010Prop46
 90
       50
102
RTVSPost2010PropOp46
 70
     1
102
RTVSPost2010Prop47
 90
       50
102
RTVSPost2010PropOp47
 70
     1
102
RTVSPost2010Prop48
 90
       50
102
RTVSPost2010PropOp48
 70
     1
102
RTVSPost2010Prop49
280
     0
102
RTVSPost2010PropOp49
 70
     1
102
RTVSPost2010Prop50
 90
       50
102
RTVSPost2010PropOp50
 70
     1
102
RTVSPost2010Prop51ColorIndex
 90
      256
102
RTVSPost2010Prop51ColorRGB
 90
-16777216
102
RTVSPost2010PropOp51
 70
     0
102
RTVSPost2010Prop52
140
1.0
102
RTVSPost2010PropOp52
 70
     0
102
RTVSPost2010Prop53
 90
        2
102
RTVSPost2010PropOp53
 70
     1
102
RTVSPost2010Prop54
  1
strokes_ogs.tif
102
RTVSPost2010PropOp54
 70
     1
102
RTVSPost2010Prop55
280
     0
102
RTVSPost2010PropOp55
 70
     1
102
RTVSPost2010Prop56
140
1.0
102
RTVSPost2010PropOp56
 70
     1
102
RTVSPost2010Prop57
140
1.0
102
RTVSPost2010PropOp57
 70
     1
102
RTVSPropertyOp0
 70
     1
102
RTVSPropertyOp1
 70
     1
102
RTVSPropertyOp2
 70
     1
102
RTVSPropertyOp3
 70
     1
102
RTVSPropertyOp4
 70
     1
102
RTVSPropertyOp5
 70
     1
102
RTVSPropertyOp6
 70
     1
102
RTVSPropertyOp7
 70
     1
102
RTVSPropertyOp8
 70
     1
102
RTVSPropertyOp9
 70
     1
102
RTVSPropertyOp10
 70
     1
102
RTVSPropertyOp11
 70
     1
102
RTVSPropertyOp12
 70
     1
102
RTVSPropertyOp13
 70
     1
102
RTVSPropertyOp14
 70
     1
102
RTVSPropertyOp15
 70
     1
102
RTVSPropertyOp16
 70
     1
102
RTVSPropertyOp17
 70
     1
102
RTVSPropertyOp18
 70
     1
102
RTVSPropertyOp19
 70
     1
102
RTVSPropertyOp20
 70
     1
102
RTVSPropertyOp21
 70
     1
102
RTVSPropertyOp22
 70
     1
102
RTVSPropertyOp23
 70
     1
102
RTVSPropertyOp24
 70
     1
102
RTVSPropertyOp25
 70
     1
102
RTVSPropertyOp26
 70
     1
102
RTVSPropertyOp27
 70
     1
102
RTVSPropertyOp28
 70
     1
102
RTVSPropertyOp29
 70
     1
102
RTVSPropertyOp30
 70
     1
102
RTVSPropertyOp31
 70
     1
102
RTVSPropertyOp32
 70
     1
102
RTVSPropertyOp33
 70
     1
102
RTVSPropertyOp34
 70
     1
102
RTVSPropertyOp35
 70
     1
102
RTVSPropertyOp36
 70
     1
102
RTVSPropertyOp37
 70
     1
102
RTVSPropertyOp38
 70
     1
102
RTVSPropertyOp39
 70
     1
102
RTVSPropertyOp40
 70
     1
102
RTVSPropertyOp41
 70
     1
102
RTVSPropertyOp42
 70
     1
102
RTVSPropertyOp43
 70
     1
102
RTVSPropertyOp44
 70
     1
102
RTVSPropertyOp45
 70
     1
102
RTVSPropertyOp46
 70
     1
102
RTVSPropertyOp47
 70
     1
102
RTVSPropertyOp48
 70
     1
102
RTVSPropertyOp49
 70
     1
102
RTVSPropertyOp50
 70
     1
102
RTVSPropertyOp51
 70
     0
102
RTVSPropertyOp52
 70
     0
102
RTVSPropertyOp53
 70
     1
102
RTVSPropertyOp54
 70
     1
102
RTVSPropertyOp55
 70
     1
102
RTVSPropertyOp56
 70
     1
102
RTVSPropertyOp57
 70
     1
102
RTVSPropertyOp58
 70
     1
102
RTVSPropertyOp59
 70
     1
102
RTVSPropertyOp60
 70
     1
102
RTVSPropertyOp61
 70
     1
102
RTVSPropertyOp62
 70
     1
  0
ENDSEC
  0
EOF
