  0
SECTION
  2
HEADER
  9
$ACADVER
  1
AC1027
  9
$ACADMAINTVER
 70
   105
  9
$DWGCODEPAGE
  3
ANSI_932
  9
$COMMENTS
  1
File was created by TR2_DExp
  9
$LASTSAVEDBY
  1
y.minamitani
  9
$REQUIREDVERSIONS
160
                 0
  9
$INSBASE
 10
0.0
 20
0.0
 30
0.0
  9
$EXTMIN
 10
27.30081638374008
 20
-226.4974434480064
 30
0.0
  9
$EXTMAX
 10
3904.54042262461
 20
1424.42844079882
 30
0.0
  9
$LIMMIN
 10
-499.2581486701965
 20
-805.9803853034972
  9
$LIMMAX
 10
951.7525100708008
 20
682.2555737495422
  9
$ORTHOMODE
 70
     0
  9
$REGENMODE
 70
     1
  9
$FILLMODE
 70
     1
  9
$QTEXTMODE
 70
     0
  9
$MIRRTEXT
 70
     1
  9
$LTSCALE
 40
0.3084458478792446
  9
$ATTMODE
 70
     1
  9
$TEXTSIZE
 40
2.5
  9
$TRACEWID
 40
1.0
  9
$TEXTSTYLE
  7
Standard
  9
$CLAYER
  8
実線
  9
$CELTYPE
  6
ByLayer
  9
$CECOLOR
 62
   256
  9
$CELTSCALE
 40
1.0
  9
$DISPSILH
 70
     0
  9
$DIMSCALE
 40
1.0
  9
$DIMASZ
 40
2.5
  9
$DIMEXO
 40
0.625
  9
$DIMDLI
 40
3.75
  9
$DIMRND
 40
0.0
  9
$DIMDLE
 40
0.0
  9
$DIMEXE
 40
1.25
  9
$DIMTP
 40
0.0
  9
$DIMTM
 40
0.0
  9
$DIMTXT
 40
2.5
  9
$DIMCEN
 40
2.5
  9
$DIMTSZ
 40
0.0
  9
$DIMTOL
 70
     0
  9
$DIMLIM
 70
     0
  9
$DIMTIH
 70
     0
  9
$DIMTOH
 70
     0
  9
$DIMSE1
 70
     0
  9
$DIMSE2
 70
     0
  9
$DIMTAD
 70
     1
  9
$DIMZIN
 70
     0
  9
$DIMBLK
  1

  9
$DIMASO
 70
     1
  9
$DIMSHO
 70
     1
  9
$DIMPOST
  1

  9
$DIMAPOST
  1

  9
$DIMALT
 70
     0
  9
$DIMALTD
 70
     3
  9
$DIMALTF
 40
0.03937007874016
  9
$DIMLFAC
 40
1.0
  9
$DIMTOFL
 70
     1
  9
$DIMTVP
 40
0.0
  9
$DIMTIX
 70
     0
  9
$DIMSOXD
 70
     0
  9
$DIMSAH
 70
     0
  9
$DIMBLK1
  1

  9
$DIMBLK2
  1

  9
$DIMSTYLE
  2
Standard
  9
$DIMCLRD
 70
     0
  9
$DIMCLRE
 70
     0
  9
$DIMCLRT
 70
     0
  9
$DIMTFAC
 40
0.75
  9
$DIMGAP
 40
0.625
  9
$DIMJUST
 70
     0
  9
$DIMSD1
 70
     0
  9
$DIMSD2
 70
     0
  9
$DIMTOLJ
 70
     0
  9
$DIMTZIN
 70
     8
  9
$DIMALTZ
 70
     0
  9
$DIMALTTZ
 70
     0
  9
$DIMUPT
 70
     0
  9
$DIMDEC
 70
     2
  9
$DIMTDEC
 70
     2
  9
$DIMALTU
 70
     2
  9
$DIMALTTD
 70
     3
  9
$DIMTXSTY
  7
Standard
  9
$DIMAUNIT
 70
     0
  9
$DIMADEC
 70
     0
  9
$DIMALTRND
 40
0.0
  9
$DIMAZIN
 70
     0
  9
$DIMDSEP
 70
    46
  9
$DIMATFIT
 70
     3
  9
$DIMFRAC
 70
     0
  9
$DIMLDRBLK
  1

  9
$DIMLUNIT
 70
     2
  9
$DIMLWD
 70
    -2
  9
$DIMLWE
 70
    -2
  9
$DIMTMOVE
 70
     0
  9
$DIMFXL
 40
1.0
  9
$DIMFXLON
 70
     0
  9
$DIMJOGANG
 40
0.7853981633974483
  9
$DIMTFILL
 70
     0
  9
$DIMTFILLCLR
 70
     0
  9
$DIMARCSYM
 70
     0
  9
$DIMLTYPE
  6

  9
$DIMLTEX1
  6

  9
$DIMLTEX2
  6

  9
$DIMTXTDIRECTION
 70
     0
  9
$LUNITS
 70
     2
  9
$LUPREC
 70
     4
  9
$SKETCHINC
 40
1.0
  9
$FILLETRAD
 40
0.0
  9
$AUNITS
 70
     0
  9
$AUPREC
 70
     0
  9
$MENU
  1
.
  9
$ELEVATION
 40
0.0
  9
$PELEVATION
 40
0.0
  9
$THICKNESS
 40
0.0
  9
$LIMCHECK
 70
     0
  9
$CHAMFERA
 40
10.0
  9
$CHAMFERB
 40
10.0
  9
$CHAMFERC
 40
20.0
  9
$CHAMFERD
 40
0.0
  9
$SKPOLY
 70
     0
  9
$TDCREATE
 40
2455188.750000000
  9
$TDUCREATE
 40
2455188.375000000
  9
$TDUPDATE
 40
2459755.411545810
  9
$TDUUPDATE
 40
2459755.036545811
  9
$TDINDWG
 40
0.0163000926
  9
$TDUSRTIMER
 40
0.0162998380
  9
$USRTIMER
 70
     1
  9
$ANGBASE
 50
0.0
  9
$ANGDIR
 70
     0
  9
$PDMODE
 70
     0
  9
$PDSIZE
 40
0.0
  9
$PLINEWID
 40
0.0
  9
$SPLFRAME
 70
     0
  9
$SPLINETYPE
 70
     6
  9
$SPLINESEGS
 70
     8
  9
$HANDSEED
  5
11A6
  9
$SURFTAB1
 70
     6
  9
$SURFTAB2
 70
     6
  9
$SURFTYPE
 70
     6
  9
$SURFU
 70
     6
  9
$SURFV
 70
     6
  9
$UCSBASE
  2

  9
$UCSNAME
  2

  9
$UCSORG
 10
0.0
 20
0.0
 30
0.0
  9
$UCSXDIR
 10
1.0
 20
0.0
 30
0.0
  9
$UCSYDIR
 10
0.0
 20
1.0
 30
0.0
  9
$UCSORTHOREF
  2

  9
$UCSORTHOVIEW
 70
     0
  9
$UCSORGTOP
 10
0.0
 20
0.0
 30
0.0
  9
$UCSORGBOTTOM
 10
0.0
 20
0.0
 30
0.0
  9
$UCSORGLEFT
 10
0.0
 20
0.0
 30
0.0
  9
$UCSORGRIGHT
 10
0.0
 20
0.0
 30
0.0
  9
$UCSORGFRONT
 10
0.0
 20
0.0
 30
0.0
  9
$UCSORGBACK
 10
0.0
 20
0.0
 30
0.0
  9
$PUCSBASE
  2

  9
$PUCSNAME
  2

  9
$PUCSORG
 10
0.0
 20
0.0
 30
0.0
  9
$PUCSXDIR
 10
1.0
 20
0.0
 30
0.0
  9
$PUCSYDIR
 10
0.0
 20
1.0
 30
0.0
  9
$PUCSORTHOREF
  2

  9
$PUCSORTHOVIEW
 70
     0
  9
$PUCSORGTOP
 10
0.0
 20
0.0
 30
0.0
  9
$PUCSORGBOTTOM
 10
0.0
 20
0.0
 30
0.0
  9
$PUCSORGLEFT
 10
0.0
 20
0.0
 30
0.0
  9
$PUCSORGRIGHT
 10
0.0
 20
0.0
 30
0.0
  9
$PUCSORGFRONT
 10
0.0
 20
0.0
 30
0.0
  9
$PUCSORGBACK
 10
0.0
 20
0.0
 30
0.0
  9
$USERI1
 70
     0
  9
$USERI2
 70
     0
  9
$USERI3
 70
     0
  9
$USERI4
 70
     0
  9
$USERI5
 70
     0
  9
$USERR1
 40
0.0
  9
$USERR2
 40
0.0
  9
$USERR3
 40
0.0
  9
$USERR4
 40
0.0
  9
$USERR5
 40
0.0
  9
$WORLDVIEW
 70
     1
  9
$SHADEDGE
 70
     3
  9
$SHADEDIF
 70
    70
  9
$TILEMODE
 70
     1
  9
$MAXACTVP
 70
    64
  9
$PINSBASE
 10
0.0
 20
0.0
 30
0.0
  9
$PLIMCHECK
 70
     0
  9
$PEXTMIN
 10
1.000000000000000E+20
 20
1.000000000000000E+20
 30
1.000000000000000E+20
  9
$PEXTMAX
 10
-1.000000000000000E+20
 20
-1.000000000000000E+20
 30
-1.000000000000000E+20
  9
$PLIMMIN
 10
0.0
 20
0.0
  9
$PLIMMAX
 10
420.0
 20
297.0
  9
$UNITMODE
 70
     0
  9
$VISRETAIN
 70
     1
  9
$PLINEGEN
 70
     0
  9
$PSLTSCALE
 70
     1
  9
$TREEDEPTH
 70
  3020
  9
$CMLSTYLE
  2
Standard
  9
$CMLJUST
 70
     0
  9
$CMLSCALE
 40
20.0
  9
$PROXYGRAPHICS
 70
     1
  9
$MEASUREMENT
 70
     1
  9
$CELWEIGHT
370
    -1
  9
$ENDCAPS
280
     0
  9
$JOINSTYLE
280
     0
  9
$LWDISPLAY
290
     0
  9
$INSUNITS
 70
     4
  9
$HYPERLINKBASE
  1

  9
$STYLESHEET
  1

  9
$XEDIT
290
     1
  9
$CEPSNTYPE
380
     0
  9
$PSTYLEMODE
290
     1
  9
$FINGERPRINTGUID
  2
{6AD7CF49-2D71-48B0-BFED-DA9E57E8FDBB}
  9
$VERSIONGUID
  2
{59D1BC1C-A023-43E1-8418-FCECCF000520}
  9
$EXTNAMES
290
     1
  9
$PSVPSCALE
 40
0.0
  9
$OLESTARTUP
290
     0
  9
$SORTENTS
280
   127
  9
$INDEXCTL
280
     0
  9
$HIDETEXT
280
     1
  9
$XCLIPFRAME
280
     2
  9
$HALOGAP
280
     0
  9
$OBSCOLOR
 70
   257
  9
$OBSLTYPE
280
     0
  9
$INTERSECTIONDISPLAY
280
     0
  9
$INTERSECTIONCOLOR
 70
   257
  9
$DIMASSOC
280
     2
  9
$PROJECTNAME
  1

  9
$CAMERADISPLAY
290
     0
  9
$LENSLENGTH
 40
50.0
  9
$CAMERAHEIGHT
 40
0.0
  9
$STEPSPERSEC
 40
2.0
  9
$STEPSIZE
 40
6.0
  9
$3DDWFPREC
 40
2.0
  9
$PSOLWIDTH
 40
5.0
  9
$PSOLHEIGHT
 40
80.0
  9
$LOFTANG1
 40
1.570795999999999
  9
$LOFTANG2
 40
1.570795999999999
  9
$LOFTMAG1
 40
0.0
  9
$LOFTMAG2
 40
0.0
  9
$LOFTPARAM
 70
     7
  9
$LOFTNORMALS
280
     1
  9
$LATITUDE
 40
37.795
  9
$LONGITUDE
 40
-122.394
  9
$NORTHDIRECTION
 40
0.0
  9
$TIMEZONE
 70
 -8000
  9
$LIGHTGLYPHDISPLAY
280
     1
  9
$TILEMODELIGHTSYNCH
280
     1
  9
$CMATERIAL
347
44
  9
$SOLIDHIST
280
     0
  9
$SHOWHIST
280
     1
  9
$DWFFRAME
280
     2
  9
$DGNFRAME
280
     0
  9
$REALWORLDSCALE
290
     1
  9
$INTERFERECOLOR
 62
     1
  9
$INTERFEREOBJVS
345
33
  9
$INTERFEREVPVS
346
30
  9
$CSHADOW
280
     0
  9
$SHADOWPLANELOCATION
 40
0.0
  0
ENDSEC
  0
SECTION
  2
CLASSES
  0
CLASS
  1
ACDBDICTIONARYWDFLT
  2
AcDbDictionaryWithDefault
  3
ObjectDBX Classes
 90
        0
 91
        1
280
     0
281
     0
  0
CLASS
  1
VISUALSTYLE
  2
AcDbVisualStyle
  3
ObjectDBX Classes
 90
     4095
 91
       24
280
     0
281
     0
  0
CLASS
  1
MATERIAL
  2
AcDbMaterial
  3
ObjectDBX Classes
 90
     1153
 91
        3
280
     0
281
     0
  0
CLASS
  1
SCALE
  2
AcDbScale
  3
ObjectDBX Classes
 90
     1153
 91
       17
280
     0
281
     0
  0
CLASS
  1
TABLESTYLE
  2
AcDbTableStyle
  3
ObjectDBX Classes
 90
     4095
 91
        1
280
     0
281
     0
  0
CLASS
  1
MLEADERSTYLE
  2
AcDbMLeaderStyle
  3
ACDB_MLEADERSTYLE_CLASS
 90
     4095
 91
        1
280
     0
281
     0
  0
CLASS
  1
SUN
  2
AcDbSun
  3
SCENEOE
 90
     1153
 91
        0
280
     0
281
     0
  0
CLASS
  1
DICTIONARYVAR
  2
AcDbDictionaryVar
  3
ObjectDBX Classes
 90
        0
 91
       21
280
     0
281
     0
  0
CLASS
  1
ACDBSECTIONVIEWSTYLE
  2
AcDbSectionViewStyle
  3
ObjectDBX Classes
 90
     1025
 91
        1
280
     0
281
     0
  0
CLASS
  1
ACDBDETAILVIEWSTYLE
  2
AcDbDetailViewStyle
  3
ObjectDBX Classes
 90
     1025
 91
        1
280
     0
281
     0
  0
CLASS
  1
SORTENTSTABLE
  2
AcDbSortentsTable
  3
ObjectDBX Classes
 90
        0
 91
        2
280
     0
281
     0
  0
CLASS
  1
CELLSTYLEMAP
  2
AcDbCellStyleMap
  3
ObjectDBX Classes
 90
     1152
 91
        2
280
     0
281
     0
  0
ENDSEC
  0
SECTION
  2
TABLES
  0
TABLE
  2
VPORT
  5
8
330
0
100
AcDbSymbolTable
 70
     1
  0
VPORT
  5
29
330
8
100
AcDbSymbolTableRecord
100
AcDbViewportTableRecord
  2
*Active
 70
     0
 10
0.0
 20
0.0
 11
1.0
 21
1.0
 12
732.2245944851756
 22
565.6361709388705
 13
0.0
 23
0.0
 14
10.0
 24
10.0
 15
10.0
 25
10.0
 16
0.0
 26
0.0
 36
1.0
 17
0.0
 27
0.0
 37
0.0
 40
1833.792374932222
 41
1.941176470588235
 42
50.0
 43
0.0
 44
0.0
 50
0.0
 51
0.0
 71
     0
 72
 20000
 73
     1
 74
     3
 75
     0
 76
     0
 77
     0
 78
     0
281
     0
 65
     1
110
0.0
120
0.0
130
0.0
111
1.0
121
0.0
131
0.0
112
0.0
122
1.0
132
0.0
 79
     0
146
0.0
348
2F
 60
     3
 61
     5
292
     1
282
     1
141
0.0
142
0.0
 63
   250
421
  3355443
1001
ACAD_NAV_VCDISPLAY
1070
     3
  0
ENDTAB
  0
TABLE
  2
LTYPE
  5
5
330
0
100
AcDbSymbolTable
 70
     4
  0
LTYPE
  5
14
330
5
100
AcDbSymbolTableRecord
100
AcDbLinetypeTableRecord
  2
ByBlock
 70
     0
  3

 72
    65
 73
     0
 40
0.0
  0
LTYPE
  5
15
330
5
100
AcDbSymbolTableRecord
100
AcDbLinetypeTableRecord
  2
ByLayer
 70
     0
  3

 72
    65
 73
     0
 40
0.0
  0
LTYPE
  5
16
330
5
100
AcDbSymbolTableRecord
100
AcDbLinetypeTableRecord
  2
Continuous
 70
     0
  3
Solid line
 72
    65
 73
     0
 40
0.0
  0
LTYPE
  5
470
330
5
100
AcDbSymbolTableRecord
100
AcDbLinetypeTableRecord
  2
CENTER2
 70
     0
  3
Center (.5x) ___ _ ___ _ ___ _ ___ _ ___ _ ___
 72
    65
 73
     4
 40
28.575
 49
19.05
 74
     0
 49
-3.174999999999998
 74
     0
 49
3.174999999999998
 74
     0
 49
-3.174999999999998
 74
     0
  0
ENDTAB
  0
TABLE
  2
LAYER
  5
2
102
{ACAD_XDICTIONARY
360
476
102
}
330
0
100
AcDbSymbolTable
 70
     5
  0
LAYER
  5
10
102
{ACAD_XDICTIONARY
360
9CF
102
}
330
2
100
AcDbSymbolTableRecord
100
AcDbLayerTableRecord
  2
0
 70
     0
 62
     7
  6
Continuous
370
    -3
390
F
347
46
348
0
  0
LAYER
  5
66
330
2
100
AcDbSymbolTableRecord
100
AcDbLayerTableRecord
  2
Defpoints
 70
     0
 62
     7
  6
Continuous
290
     0
370
    -3
390
F
347
46
348
0
  0
LAYER
  5
471
102
{ACAD_XDICTIONARY
360
472
102
}
330
2
100
AcDbSymbolTableRecord
100
AcDbLayerTableRecord
  2
中心線
 70
     0
 62
     3
  6
CENTER2
370
    -3
390
F
347
46
348
0
  0
LAYER
  5
473
102
{ACAD_XDICTIONARY
360
474
102
}
330
2
100
AcDbSymbolTableRecord
100
AcDbLayerTableRecord
  2
実線
 70
     0
 62
     7
  6
Continuous
370
    -3
390
F
347
46
348
0
  0
ENDTAB
  0
TABLE
  2
STYLE
  5
3
330
0
100
AcDbSymbolTable
 70
     1
  0
STYLE
  5
11
330
3
100
AcDbSymbolTableRecord
100
AcDbTextStyleTableRecord
  2
Standard
 70
     0
 40
0.0
 41
1.0
 50
0.0
 71
     0
 42
2.5
  3
txt
  4
extfont2
  0
ENDTAB
  0
TABLE
  2
VIEW
  5
6
330
0
100
AcDbSymbolTable
 70
     0
  0
ENDTAB
  0
TABLE
  2
UCS
  5
7
330
0
100
AcDbSymbolTable
 70
     0
  0
ENDTAB
  0
TABLE
  2
APPID
  5
9
330
0
100
AcDbSymbolTable
 70
     3
  0
APPID
  5
12
330
9
100
AcDbSymbolTableRecord
100
AcDbRegAppTableRecord
  2
ACAD
 70
     0
  0
APPID
  5
460
330
9
100
AcDbSymbolTableRecord
100
AcDbRegAppTableRecord
  2
ACAD_MLEADERVER
 70
     0
  0
APPID
  5
475
330
9
100
AcDbSymbolTableRecord
100
AcDbRegAppTableRecord
  2
ACAD_NAV_VCDISPLAY
 70
     0
  0
ENDTAB
  0
TABLE
  2
DIMSTYLE
  5
A
330
0
100
AcDbSymbolTable
 70
     1
100
AcDbDimStyleTable
 71
     0
  0
DIMSTYLE
105
27
330
A
100
AcDbSymbolTableRecord
100
AcDbDimStyleTableRecord
  2
Standard
 70
     0
 41
2.5
 42
0.625
 43
3.75
 44
1.25
 73
     0
 74
     0
 77
     1
140
2.5
141
2.5
143
0.03937007874016
146
0.75
147
0.625
171
     3
172
     1
271
     2
272
     2
274
     3
283
     0
284
     8
340
11
  0
ENDTAB
  0
TABLE
  2
BLOCK_RECORD
  5
1
330
0
100
AcDbSymbolTable
 70
     2
  0
BLOCK_RECORD
  5
1F
102
{ACAD_XDICTIONARY
360
68D
102
}
330
1
100
AcDbSymbolTableRecord
100
AcDbBlockTableRecord
  2
*Model_Space
340
22
 70
     0
280
     1
281
     0
  0
BLOCK_RECORD
  5
1B
330
1
100
AcDbSymbolTableRecord
100
AcDbBlockTableRecord
  2
*Paper_Space
340
1E
 70
     0
280
     1
281
     0
  0
BLOCK_RECORD
  5
23
330
1
100
AcDbSymbolTableRecord
100
AcDbBlockTableRecord
  2
*Paper_Space0
340
46A
 70
     0
280
     1
281
     0
  0
ENDTAB
  0
ENDSEC
  0
SECTION
  2
BLOCKS
  0
BLOCK
  5
20
330
1F
100
AcDbEntity
  8
0
100
AcDbBlockBegin
  2
*Model_Space
 70
     0
 10
0.0
 20
0.0
 30
0.0
  3
*Model_Space
  1

  0
ENDBLK
  5
21
330
1F
100
AcDbEntity
  8
0
100
AcDbBlockEnd
  0
BLOCK
  5
1C
330
1B
100
AcDbEntity
 67
     1
  8
0
100
AcDbBlockBegin
  2
*Paper_Space
 70
     0
 10
0.0
 20
0.0
 30
0.0
  3
*Paper_Space
  1

  0
ENDBLK
  5
1D
330
1B
100
AcDbEntity
 67
     1
  8
0
100
AcDbBlockEnd
  0
BLOCK
  5
24
330
23
100
AcDbEntity
 67
     1
  8
0
100
AcDbBlockBegin
  2
*Paper_Space0
 70
     0
 10
0.0
 20
0.0
 30
0.0
  3
*Paper_Space0
  1

  0
ENDBLK
  5
25
330
23
100
AcDbEntity
 67
     1
  8
0
100
AcDbBlockEnd
  0
ENDSEC
  0
SECTION
  2
ENTITIES
  0
LINE
  5
9B5
102
{ACAD_REACTORS
330
119F
102
}
330
1F
100
AcDbEntity
  8
中心線
100
AcDbLine
 10
441.3008163837441
 20
119.9883708733169
 30
0.0
 11
273.3008163837443
 21
119.9883708733169
 31
0.0
  0
LINE
  5
9B6
102
{ACAD_REACTORS
330
119F
102
}
330
1F
100
AcDbEntity
  8
中心線
100
AcDbLine
 10
357.3008163837406
 20
203.988370873317
 30
0.0
 11
357.3008163837406
 21
35.98837087331697
 31
0.0
  0
LINE
  5
9B7
102
{ACAD_REACTORS
330
119E
102
}
330
1F
100
AcDbEntity
  8
中心線
100
AcDbLine
 10
441.3008163837401
 20
1319.988370873313
 30
0.0
 11
273.3008163837403
 21
1319.988370873313
 31
0.0
  0
LINE
  5
9B8
102
{ACAD_REACTORS
330
119E
102
}
330
1F
100
AcDbEntity
  8
中心線
100
AcDbLine
 10
357.3008163837403
 20
1403.988370873313
 30
0.0
 11
357.3008163837403
 21
1235.988370873313
 31
0.0
  0
LINE
  5
9B9
102
{ACAD_REACTORS
330
119A
102
}
330
1F
100
AcDbEntity
  8
中心線
100
AcDbLine
 10
837.3008163837406
 20
334.9883708733131
 30
0.0
 11
837.3008163837406
 21
1104.988370873313
 31
0.0
  0
LINE
  5
9BA
102
{ACAD_REACTORS
330
119A
102
}
330
1F
100
AcDbEntity
  8
中心線
100
AcDbLine
 10
777.3008163837405
 20
754.4883708733133
 30
0.0
 11
897.3008163837405
 21
754.4883708733133
 31
0.0
  0
LINE
  5
9BB
102
{ACAD_REACTORS
330
119A
102
}
330
1F
100
AcDbEntity
  8
中心線
100
AcDbLine
 10
747.3008163837405
 20
719.9883708733133
 30
0.0
 11
927.3008163837404
 21
719.9883708733133
 31
0.0
  0
LINE
  5
9BC
102
{ACAD_REACTORS
330
119A
102
}
330
1F
100
AcDbEntity
  8
中心線
100
AcDbLine
 10
753.3008163837406
 20
685.4883708733132
 30
0.0
 11
921.3008163837406
 21
685.4883708733132
 31
0.0
  0
LINE
  5
9BD
102
{ACAD_REACTORS
330
119B
102
}
330
1F
100
AcDbEntity
  8
中心線
100
AcDbLine
 10
597.3008163837407
 20
334.9883708733131
 30
0.0
 11
597.3008163837407
 21
1104.988370873313
 31
0.0
  0
LINE
  5
9BE
102
{ACAD_REACTORS
330
119B
102
}
330
1F
100
AcDbEntity
  8
中心線
100
AcDbLine
 10
513.3008163837397
 20
754.4883708733133
 30
0.0
 11
681.3008163837397
 21
754.4883708733133
 31
0.0
  0
LINE
  5
9BF
102
{ACAD_REACTORS
330
119B
102
}
330
1F
100
AcDbEntity
  8
中心線
100
AcDbLine
 10
507.3008163837401
 20
719.9883708733133
 30
0.0
 11
687.3008163837401
 21
719.9883708733133
 31
0.0
  0
LINE
  5
9C0
102
{ACAD_REACTORS
330
119B
102
}
330
1F
100
AcDbEntity
  8
中心線
100
AcDbLine
 10
537.3008163837403
 20
685.4883708733132
 30
0.0
 11
657.3008163837402
 21
685.4883708733132
 31
0.0
  0
LINE
  5
9C1
102
{ACAD_REACTORS
330
119C
102
}
330
1F
100
AcDbEntity
  8
中心線
100
AcDbLine
 10
357.3008163837408
 20
334.9883708733131
 30
0.0
 11
357.3008163837406
 21
1104.988370873313
 31
0.0
  0
LINE
  5
9C2
102
{ACAD_REACTORS
330
119C
102
}
330
1F
100
AcDbEntity
  8
中心線
100
AcDbLine
 10
297.3008163837405
 20
754.4883708733133
 30
0.0
 11
417.3008163837405
 21
754.4883708733133
 31
0.0
  0
LINE
  5
9C3
102
{ACAD_REACTORS
330
119C
102
}
330
1F
100
AcDbEntity
  8
中心線
100
AcDbLine
 10
267.3008163837405
 20
719.9883708733133
 30
0.0
 11
447.3008163837405
 21
719.9883708733133
 31
0.0
  0
LINE
  5
9C4
102
{ACAD_REACTORS
330
119C
102
}
330
1F
100
AcDbEntity
  8
中心線
100
AcDbLine
 10
273.3008163837407
 20
685.4883708733132
 30
0.0
 11
441.3008163837408
 21
685.4883708733132
 31
0.0
  0
LINE
  5
9C5
102
{ACAD_REACTORS
330
119D
102
}
330
1F
100
AcDbEntity
  8
中心線
100
AcDbLine
 10
117.3008163837406
 20
334.9883708733131
 30
0.0
 11
117.3008163837406
 21
1104.988370873313
 31
0.0
  0
LINE
  5
9C6
102
{ACAD_REACTORS
330
119D
102
}
330
1F
100
AcDbEntity
  8
中心線
100
AcDbLine
 10
33.30081638373986
 20
754.4883708733133
 30
0.0
 11
201.3008163837398
 21
754.4883708733133
 31
0.0
  0
LINE
  5
9C7
102
{ACAD_REACTORS
330
119D
102
}
330
1F
100
AcDbEntity
  8
中心線
100
AcDbLine
 10
27.30081638374008
 20
719.9883708733133
 30
0.0
 11
207.3008163837401
 21
719.9883708733133
 31
0.0
  0
LINE
  5
9C8
102
{ACAD_REACTORS
330
119D
102
}
330
1F
100
AcDbEntity
  8
中心線
100
AcDbLine
 10
57.30081638374008
 20
685.4883708733132
 30
0.0
 11
177.3008163837401
 21
685.488370873313
 31
0.0
  0
LINE
  5
A19
102
{ACAD_REACTORS
330
119E
102
}
330
1F
100
AcDbEntity
  8
中心線
100
AcDbLine
 10
357.3008163837433
 20
1319.98837087331
 30
0.0
 11
297.9038467640732
 21
1260.59140125364
 31
0.0
  0
LINE
  5
A1A
102
{ACAD_REACTORS
330
119F
102
}
330
1F
100
AcDbEntity
  8
中心線
100
AcDbLine
 10
357.3008163837339
 20
119.9883708733198
 30
0.0
 11
297.9038467640639
 21
179.3853404929898
 31
0.0
  0
LINE
  5
E0C
102
{ACAD_REACTORS
330
119C
102
}
330
1F
100
AcDbEntity
  8
実線
100
AcDbLine
 10
439.6434010529142
 20
712.9883708733131
 30
0.0
 11
444.0628184353299
 21
712.9883708733131
 31
0.0
  0
LINE
  5
E0D
102
{ACAD_REACTORS
330
119C
102
}
330
1F
100
AcDbEntity
  8
実線
100
AcDbLine
 10
439.6434010529142
 20
734.9883708733131
 30
0.0
 11
444.0628184353299
 21
734.9883708733131
 31
0.0
  0
LINE
  5
E0E
102
{ACAD_REACTORS
330
119C
102
}
330
1F
100
AcDbEntity
  8
実線
100
AcDbLine
 10
443.2142902979062
 20
712.9883708733131
 30
0.0
 11
443.2142902979062
 21
734.9883708733131
 31
0.0
  0
LINE
  5
E0F
102
{ACAD_REACTORS
330
119C
102
}
330
1F
100
AcDbEntity
  8
実線
100
AcDbLine
 10
444.0628184353299
 20
734.9883708733131
 30
0.0
 11
444.0628184353299
 21
712.9883708733131
 31
0.0
  0
LINE
  5
E10
102
{ACAD_REACTORS
330
119C
102
}
330
1F
100
AcDbEntity
  8
実線
100
AcDbLine
 10
280.600816383741
 20
660.0883708733134
 30
0.0
 11
300.7976507916851
 21
660.0883708733134
 31
0.0
  0
LINE
  5
E11
102
{ACAD_REACTORS
330
119C
102
}
330
1F
100
AcDbEntity
  8
実線
100
AcDbLine
 10
301.8924115873392
 20
710.8883708733133
 30
0.0
 11
280.600816383741
 21
710.8883708733133
 31
0.0
  0
LINE
  5
E12
102
{ACAD_REACTORS
330
119C
102
}
330
1F
100
AcDbEntity
  8
実線
100
AcDbLine
 10
280.600816383741
 20
710.8883708733133
 30
0.0
 11
280.600816383741
 21
660.0883708733134
 31
0.0
  0
LINE
  5
E13
102
{ACAD_REACTORS
330
119C
102
}
330
1F
100
AcDbEntity
  8
実線
100
AcDbLine
 10
280.600816383741
 20
710.8883708733133
 30
0.0
 11
278.2008163837409
 21
717.4883708733131
 31
0.0
  0
LINE
  5
E14
102
{ACAD_REACTORS
330
119C
102
}
330
1F
100
AcDbEntity
  8
実線
100
AcDbLine
 10
278.2008163837409
 20
653.4883708733133
 30
0.0
 11
280.600816383741
 21
660.0883708733134
 31
0.0
  0
LINE
  5
E15
102
{ACAD_REACTORS
330
119C
102
}
330
1F
100
AcDbEntity
  8
実線
100
AcDbLine
 10
275.3008163837407
 20
717.4883708733133
 30
0.0
 11
275.3008163837407
 21
653.4883708733133
 31
0.0
  0
LINE
  5
E16
102
{ACAD_REACTORS
330
119C
102
}
330
1F
100
AcDbEntity
  8
実線
100
AcDbLine
 10
278.2008163837409
 20
717.4883708733133
 30
0.0
 11
278.2008163837409
 21
653.4883708733133
 31
0.0
  0
LINE
  5
E17
102
{ACAD_REACTORS
330
119C
102
}
330
1F
100
AcDbEntity
  8
実線
100
AcDbLine
 10
275.3008163837407
 20
653.4883708733133
 30
0.0
 11
278.2008163837409
 21
653.4883708733133
 31
0.0
  0
LINE
  5
E18
102
{ACAD_REACTORS
330
119C
102
}
330
1F
100
AcDbEntity
  8
実線
100
AcDbLine
 10
278.2008163837409
 20
717.4883708733133
 30
0.0
 11
275.3008163837407
 21
717.4883708733133
 31
0.0
  0
LINE
  5
E19
102
{ACAD_REACTORS
330
119C
102
}
330
1F
100
AcDbEntity
  8
実線
100
AcDbLine
 10
413.8039819757964
 20
660.0883708733134
 30
0.0
 11
434.0008163837405
 21
660.0883708733134
 31
0.0
  0
LINE
  5
E1A
102
{ACAD_REACTORS
330
119C
102
}
330
1F
100
AcDbEntity
  8
実線
100
AcDbLine
 10
434.0008163837405
 20
660.0883708733134
 30
0.0
 11
436.4008163837406
 21
653.4883708733134
 31
0.0
  0
LINE
  5
E1B
102
{ACAD_REACTORS
330
119C
102
}
330
1F
100
AcDbEntity
  8
実線
100
AcDbLine
 10
434.0008163837405
 20
660.0883708733134
 30
0.0
 11
434.0008163837405
 21
709.2600662974947
 31
0.0
  0
LINE
  5
E1C
102
{ACAD_REACTORS
330
119C
102
}
330
1F
100
AcDbEntity
  8
実線
100
AcDbLine
 10
436.4008163837406
 20
653.4883708733133
 30
0.0
 11
439.3008163837407
 21
653.4883708733133
 31
0.0
  0
LINE
  5
E1D
102
{ACAD_REACTORS
330
119C
102
}
330
1F
100
AcDbEntity
  8
実線
100
AcDbLine
 10
439.3008163837407
 20
653.4883708733133
 30
0.0
 11
439.3008163837407
 21
712.9883708733131
 31
0.0
  0
LINE
  5
E1E
102
{ACAD_REACTORS
330
119C
102
}
330
1F
100
AcDbEntity
  8
実線
100
AcDbLine
 10
436.4008163837406
 20
653.4883708733133
 30
0.0
 11
436.4008163837406
 21
712.6541788471901
 31
0.0
  0
LINE
  5
E1F
102
{ACAD_REACTORS
330
119C
102
}
330
1F
100
AcDbEntity
  8
実線
100
AcDbLine
 10
300.7976507916851
 20
665.4883708733133
 30
0.0
 11
413.8039819757964
 21
665.4883708733133
 31
0.0
  0
LINE
  5
E20
102
{ACAD_REACTORS
330
119C
102
}
330
1F
100
AcDbEntity
  8
実線
100
AcDbLine
 10
413.8039819757964
 20
650.4883708733133
 30
0.0
 11
413.8039819757964
 21
665.4883708733133
 31
0.0
  0
LINE
  5
E21
102
{ACAD_REACTORS
330
119C
102
}
330
1F
100
AcDbEntity
  8
実線
100
AcDbLine
 10
300.7976507916851
 20
665.4883708733133
 30
0.0
 11
300.7976507916851
 21
650.4883708733133
 31
0.0
  0
LINE
  5
E22
102
{ACAD_REACTORS
330
119C
102
}
330
1F
100
AcDbEntity
  8
実線
100
AcDbLine
 10
379.6790596708838
 20
650.4883708733133
 30
0.0
 11
379.6790596708838
 21
665.4883708733133
 31
0.0
  0
LINE
  5
E23
102
{ACAD_REACTORS
330
119C
102
}
330
1F
100
AcDbEntity
  8
実線
100
AcDbLine
 10
334.9225730965977
 20
650.4883708733133
 30
0.0
 11
334.9225730965977
 21
665.4883708733133
 31
0.0
  0
CIRCLE
  5
E24
102
{ACAD_REACTORS
330
119C
102
}
330
1F
100
AcDbEntity
  8
実線
100
AcDbCircle
 10
357.3008163837408
 20
754.4883708733133
 30
0.0
 40
32.0
  0
LINE
  5
E25
102
{ACAD_REACTORS
330
119C
102
}
330
1F
100
AcDbEntity
  8
実線
100
AcDbLine
 10
391.9490486618816
 20
690.2898860634783
 30
0.0
 11
389.4743207680908
 21
690.2898860634783
 31
0.0
  0
LINE
  5
E26
102
{ACAD_REACTORS
330
119C
102
}
330
1F
100
AcDbEntity
  8
実線
100
AcDbLine
 10
387.1027755806363
 20
742.8331905646872
 30
0.0
 11
391.9490486618816
 21
749.6868556831483
 31
0.0
  0
LINE
  5
E27
102
{ACAD_REACTORS
330
119C
102
}
330
1F
100
AcDbEntity
  8
実線
100
AcDbLine
 10
370.9490486618815
 20
719.9883708733133
 30
0.0
 11
378.2234121589477
 21
730.2758743884959
 31
0.0
  0
LINE
  5
E28
102
{ACAD_REACTORS
330
119C
102
}
330
1F
100
AcDbEntity
  8
実線
100
AcDbLine
 10
391.9490486618816
 20
749.6868556831483
 30
0.0
 11
389.4743207680908
 21
749.6868556831483
 31
0.0
  0
LINE
  5
E29
102
{ACAD_REACTORS
330
119C
102
}
330
1F
100
AcDbEntity
  8
実線
100
AcDbLine
 10
312.2591858233982
 20
736.9883708733133
 30
0.0
 11
315.4909483159863
 21
741.5587732207
 31
0.0
  0
LINE
  5
E2A
102
{ACAD_REACTORS
330
119C
102
}
330
1F
100
AcDbEntity
  8
実線
100
AcDbLine
 10
358.3008163837408
 20
719.9883708733133
 30
0.0
 11
370.9490486618815
 21
719.9883708733133
 31
0.0
  0
LINE
  5
E2B
102
{ACAD_REACTORS
330
119C
102
}
330
1F
100
AcDbEntity
  8
実線
100
AcDbLine
 10
331.4299223505732
 20
732.4883708733133
 30
0.0
 11
322.6525841056
 21
732.4883708733133
 31
0.0
  0
LINE
  5
E2C
102
{ACAD_REACTORS
330
119C
102
}
330
1F
100
AcDbEntity
  8
実線
100
AcDbLine
 10
322.6525841056
 20
707.4883708733133
 30
0.0
 11
331.4299223505732
 21
707.4883708733133
 31
0.0
  0
ELLIPSE
  5
E2D
102
{ACAD_REACTORS
330
119C
102
}
330
1F
100
AcDbEntity
  8
実線
100
AcDbEllipse
 10
322.6525841056
 20
719.9883708733133
 30
0.0
 11
0.0
 21
12.5
 31
0.0
210
0.0
220
0.0
230
1.0
 40
0.7071067811865476
 41
3.141592653589792
 42
6.283185307179585
  0
ELLIPSE
  5
E2E
102
{ACAD_REACTORS
330
119C
102
}
330
1F
100
AcDbEntity
  8
実線
100
AcDbEllipse
 10
322.6525841056
 20
719.9883708733133
 30
0.0
 11
0.0
 21
12.5
 31
0.0
210
0.0
220
0.0
230
1.0
 40
0.7071067811865476
 41
3.040650892930133
 42
3.141592653589792
  0
ELLIPSE
  5
E2F
102
{ACAD_REACTORS
330
119C
102
}
330
1F
100
AcDbEntity
  8
実線
100
AcDbEllipse
 10
322.6525841056
 20
719.9883708733133
 30
0.0
 11
0.0
 21
12.5
 31
0.0
210
0.0
220
0.0
230
1.0
 40
0.7071067811865476
 41
0.0
 42
0.1009417606596381
  0
ELLIPSE
  5
E30
102
{ACAD_REACTORS
330
119C
102
}
330
1F
100
AcDbEntity
  8
実線
100
AcDbEllipse
 10
322.6525841056
 20
719.9883708733133
 30
0.0
 11
0.0
 21
10.85000000000002
 31
0.0
210
0.0
220
0.0
230
1.0
 40
0.7071067811865476
 41
3.163667641207379
 42
6.261110319562027
  0
ELLIPSE
  5
E31
102
{ACAD_REACTORS
330
119C
102
}
330
1F
100
AcDbEntity
  8
実線
100
AcDbEllipse
 10
312.0459823878018
 20
719.9883708733133
 30
0.0
 11
0.0
 21
17.0
 31
0.0
210
0.0
220
0.0
230
1.0
 40
0.7071067811865476
 41
0.0
 42
3.141592653589792
  0
LINE
  5
E32
102
{ACAD_REACTORS
330
119C
102
}
330
1F
100
AcDbEntity
  8
実線
100
AcDbLine
 10
312.0459823878018
 20
702.9883708733133
 30
0.0
 11
313.5662619673526
 21
702.9883708733133
 31
0.0
  0
LINE
  5
E33
102
{ACAD_REACTORS
330
119C
102
}
330
1F
100
AcDbEntity
  8
実線
100
AcDbLine
 10
313.5662619673526
 20
736.9883708733133
 30
0.0
 11
312.0459823878018
 21
736.9883708733133
 31
0.0
  0
ELLIPSE
  5
E34
102
{ACAD_REACTORS
330
119C
102
}
330
1F
100
AcDbEntity
  8
実線
100
AcDbEllipse
 10
312.0459823878018
 20
719.9883708733133
 30
0.0
 11
0.0
 21
17.0
 31
0.0
210
0.0
220
0.0
230
1.0
 40
0.7071067811865476
 41
3.141592653589792
 42
6.283185307179585
  0
ELLIPSE
  5
E35
102
{ACAD_REACTORS
330
119C
102
}
330
1F
100
AcDbEntity
  8
実線
100
AcDbEllipse
 10
313.5662619673526
 20
719.9883708733133
 30
0.0
 11
0.0
 21
17.0
 31
0.0
210
0.0
220
0.0
230
1.0
 40
0.7071067811865476
 41
3.141592653589792
 42
6.283185307179585
  0
LINE
  5
E36
102
{ACAD_REACTORS
330
119C
102
}
330
1F
100
AcDbEntity
  8
実線
100
AcDbLine
 10
413.8039819757964
 20
789.4883708733133
 30
0.0
 11
300.7976507916851
 21
789.4883708733133
 31
0.0
  0
LINE
  5
E37
102
{ACAD_REACTORS
330
119C
102
}
330
1F
100
AcDbEntity
  8
実線
100
AcDbLine
 10
300.7976507916851
 20
789.4883708733133
 30
0.0
 11
300.7976507916851
 21
774.4883708733133
 31
0.0
  0
LINE
  5
E38
102
{ACAD_REACTORS
330
119C
102
}
330
1F
100
AcDbEntity
  8
実線
100
AcDbLine
 10
300.7976507916851
 20
774.4883708733133
 30
0.0
 11
332.3208243901472
 21
774.4883708733133
 31
0.0
  0
LINE
  5
E39
102
{ACAD_REACTORS
330
119C
102
}
330
1F
100
AcDbEntity
  8
実線
100
AcDbLine
 10
413.8039819757964
 20
774.4883708733133
 30
0.0
 11
382.2808083773343
 21
774.4883708733133
 31
0.0
  0
LINE
  5
E3A
102
{ACAD_REACTORS
330
119C
102
}
330
1F
100
AcDbEntity
  8
実線
100
AcDbLine
 10
413.8039819757964
 20
774.4883708733133
 30
0.0
 11
413.8039819757964
 21
789.4883708733133
 31
0.0
  0
LINE
  5
E3B
102
{ACAD_REACTORS
330
119C
102
}
330
1F
100
AcDbEntity
  8
実線
100
AcDbLine
 10
334.9225730965977
 20
789.4883708733133
 30
0.0
 11
334.9225730965977
 21
777.36224740051
 31
0.0
  0
LINE
  5
E3C
102
{ACAD_REACTORS
330
119C
102
}
330
1F
100
AcDbEntity
  8
実線
100
AcDbLine
 10
379.6790596708838
 20
789.4883708733133
 30
0.0
 11
379.6790596708838
 21
777.36224740051
 31
0.0
  0
LINE
  5
E3D
102
{ACAD_REACTORS
330
119C
102
}
330
1F
100
AcDbEntity
  8
実線
100
AcDbLine
 10
333.6972441956141
 20
708.9883708733133
 30
0.0
 11
341.4267549444016
 21
708.9883708733133
 31
0.0
  0
LINE
  5
E3E
102
{ACAD_REACTORS
330
119C
102
}
330
1F
100
AcDbEntity
  8
実線
100
AcDbLine
 10
335.5810097547674
 20
730.9883708733133
 30
0.0
 11
333.6972441956141
 21
730.9883708733133
 31
0.0
  0
LINE
  5
E3F
102
{ACAD_REACTORS
330
119C
102
}
330
1F
100
AcDbEntity
  8
実線
100
AcDbLine
 10
406.3008163837407
 20
809.4883708733133
 30
0.0
 11
406.3008163837407
 21
993.4261930468222
 31
0.0
  0
LINE
  5
E40
102
{ACAD_REACTORS
330
119C
102
}
330
1F
100
AcDbEntity
  8
実線
100
AcDbLine
 10
308.3008163837408
 20
993.4261930468222
 30
0.0
 11
308.3008163837408
 21
809.4883708733133
 31
0.0
  0
LINE
  5
E41
102
{ACAD_REACTORS
330
119C
102
}
330
1F
100
AcDbEntity
  8
実線
100
AcDbLine
 10
409.8008163837407
 20
999.4883708733134
 30
0.0
 11
409.8008163837407
 21
1056.988370873313
 31
0.0
  0
LINE
  5
E42
102
{ACAD_REACTORS
330
119C
102
}
330
1F
100
AcDbEntity
  8
実線
100
AcDbLine
 10
304.8008163837408
 20
1056.988370873313
 30
0.0
 11
304.8008163837408
 21
999.4883708733134
 31
0.0
  0
LINE
  5
E43
102
{ACAD_REACTORS
330
119C
102
}
330
1F
100
AcDbEntity
  8
実線
100
AcDbLine
 10
304.8008163837408
 20
1056.988370873313
 30
0.0
 11
409.8008163837407
 21
1056.988370873313
 31
0.0
  0
LINE
  5
E44
102
{ACAD_REACTORS
330
119C
102
}
330
1F
100
AcDbEntity
  8
実線
100
AcDbLine
 10
406.3008163837407
 20
993.4261930468222
 30
0.0
 11
409.8008163837407
 21
999.4883708733134
 31
0.0
  0
LINE
  5
E45
102
{ACAD_REACTORS
330
119C
102
}
330
1F
100
AcDbEntity
  8
実線
100
AcDbLine
 10
304.8008163837408
 20
999.4883708733134
 30
0.0
 11
308.3008163837408
 21
993.4261930468222
 31
0.0
  0
LINE
  5
E46
102
{ACAD_REACTORS
330
119C
102
}
330
1F
100
AcDbEntity
  8
実線
100
AcDbLine
 10
308.3008163837408
 20
993.4261930468222
 30
0.0
 11
406.3008163837407
 21
993.4261930468222
 31
0.0
  0
LINE
  5
E47
102
{ACAD_REACTORS
330
119C
102
}
330
1F
100
AcDbEntity
  8
実線
100
AcDbLine
 10
304.8008163837408
 20
999.4883708733134
 30
0.0
 11
409.8008163837407
 21
999.4883708733134
 31
0.0
  0
LINE
  5
E48
102
{ACAD_REACTORS
330
119C
102
}
330
1F
100
AcDbEntity
  8
実線
100
AcDbLine
 10
308.3008163837408
 20
630.4883708733133
 30
0.0
 11
308.3008163837408
 21
446.5505486998043
 31
0.0
  0
LINE
  5
E49
102
{ACAD_REACTORS
330
119C
102
}
330
1F
100
AcDbEntity
  8
実線
100
AcDbLine
 10
406.3008163837407
 20
446.5505486998043
 30
0.0
 11
406.3008163837407
 21
630.4883708733133
 31
0.0
  0
LINE
  5
E4A
102
{ACAD_REACTORS
330
119C
102
}
330
1F
100
AcDbEntity
  8
実線
100
AcDbLine
 10
308.3008163837408
 20
446.5505486998043
 30
0.0
 11
406.3008163837407
 21
446.5505486998043
 31
0.0
  0
LINE
  5
E4B
102
{ACAD_REACTORS
330
119C
102
}
330
1F
100
AcDbEntity
  8
実線
100
AcDbLine
 10
308.3008163837408
 20
446.5505486998043
 30
0.0
 11
304.8008163837408
 21
440.4883708733133
 31
0.0
  0
LINE
  5
E4C
102
{ACAD_REACTORS
330
119C
102
}
330
1F
100
AcDbEntity
  8
実線
100
AcDbLine
 10
409.8008163837407
 20
440.4883708733133
 30
0.0
 11
406.3008163837407
 21
446.5505486998043
 31
0.0
  0
LINE
  5
E4D
102
{ACAD_REACTORS
330
119C
102
}
330
1F
100
AcDbEntity
  8
実線
100
AcDbLine
 10
304.8008163837408
 20
440.4883708733133
 30
0.0
 11
409.8008163837407
 21
440.4883708733133
 31
0.0
  0
LINE
  5
E4E
102
{ACAD_REACTORS
330
119C
102
}
330
1F
100
AcDbEntity
  8
実線
100
AcDbLine
 10
304.8008163837408
 20
382.9883708733133
 30
0.0
 11
409.8008163837407
 21
382.9883708733133
 31
0.0
  0
LINE
  5
E4F
102
{ACAD_REACTORS
330
119C
102
}
330
1F
100
AcDbEntity
  8
実線
100
AcDbLine
 10
304.8008163837408
 20
440.4883708733133
 30
0.0
 11
304.8008163837408
 21
382.9883708733133
 31
0.0
  0
LINE
  5
E50
102
{ACAD_REACTORS
330
119C
102
}
330
1F
100
AcDbEntity
  8
実線
100
AcDbLine
 10
409.8008163837407
 20
382.9883708733133
 30
0.0
 11
409.8008163837407
 21
440.4883708733133
 31
0.0
  0
LINE
  5
E51
102
{ACAD_REACTORS
330
119C
102
}
330
1F
100
AcDbEntity
  8
実線
100
AcDbLine
 10
346.3008163837408
 20
1085.188370873313
 30
0.0
 11
346.3008163837408
 21
1061.988370873313
 31
0.0
  0
LINE
  5
E52
102
{ACAD_REACTORS
330
119C
102
}
330
1F
100
AcDbEntity
  8
実線
100
AcDbLine
 10
343.3008163837408
 20
1095.188370873313
 30
0.0
 11
343.3008163837408
 21
1085.188370873313
 31
0.0
  0
LINE
  5
E53
102
{ACAD_REACTORS
330
119C
102
}
330
1F
100
AcDbEntity
  8
実線
100
AcDbLine
 10
350.3008163837407
 20
1095.188370873313
 30
0.0
 11
343.3008163837408
 21
1095.188370873313
 31
0.0
  0
LINE
  5
E54
102
{ACAD_REACTORS
330
119C
102
}
330
1F
100
AcDbEntity
  8
実線
100
AcDbLine
 10
343.3008163837408
 20
1085.188370873313
 30
0.0
 11
350.3008163837407
 21
1085.188370873313
 31
0.0
  0
LINE
  5
E55
102
{ACAD_REACTORS
330
119C
102
}
330
1F
100
AcDbEntity
  8
実線
100
AcDbLine
 10
381.8008163837408
 20
1093.488370873313
 30
0.0
 11
381.8008163837408
 21
1090.488370873313
 31
0.0
  0
LINE
  5
E56
102
{ACAD_REACTORS
330
119C
102
}
330
1F
100
AcDbEntity
  8
実線
100
AcDbLine
 10
377.3008163837408
 20
1090.488370873313
 30
0.0
 11
381.8008163837408
 21
1090.488370873313
 31
0.0
  0
LINE
  5
E57
102
{ACAD_REACTORS
330
119C
102
}
330
1F
100
AcDbEntity
  8
実線
100
AcDbLine
 10
381.8008163837408
 20
1093.488370873313
 30
0.0
 11
377.3008163837408
 21
1093.488370873313
 31
0.0
  0
LINE
  5
E58
102
{ACAD_REACTORS
330
119C
102
}
330
1F
100
AcDbEntity
  8
実線
100
AcDbLine
 10
381.8008163837408
 20
1073.488370873313
 30
0.0
 11
381.8008163837408
 21
1070.488370873313
 31
0.0
  0
LINE
  5
E59
102
{ACAD_REACTORS
330
119C
102
}
330
1F
100
AcDbEntity
  8
実線
100
AcDbLine
 10
377.3008163837408
 20
1070.488370873313
 30
0.0
 11
381.8008163837408
 21
1070.488370873313
 31
0.0
  0
LINE
  5
E5A
102
{ACAD_REACTORS
330
119C
102
}
330
1F
100
AcDbEntity
  8
実線
100
AcDbLine
 10
381.8008163837408
 20
1073.488370873313
 30
0.0
 11
377.3008163837408
 21
1073.488370873313
 31
0.0
  0
LINE
  5
E5B
102
{ACAD_REACTORS
330
119C
102
}
330
1F
100
AcDbEntity
  8
実線
100
AcDbLine
 10
371.9008163837407
 20
344.0383708733133
 30
0.0
 11
371.9008163837407
 21
351.9383708733134
 31
0.0
  0
LINE
  5
E5C
102
{ACAD_REACTORS
330
119C
102
}
330
1F
100
AcDbEntity
  8
実線
100
AcDbLine
 10
379.8008163837408
 20
344.0383708733133
 30
0.0
 11
371.9008163837407
 21
344.0383708733133
 31
0.0
  0
LINE
  5
E5D
102
{ACAD_REACTORS
330
119C
102
}
330
1F
100
AcDbEntity
  8
実線
100
AcDbLine
 10
371.9008163837407
 20
351.9383708733134
 30
0.0
 11
379.8008163837408
 21
351.9383708733134
 31
0.0
  0
LINE
  5
E5E
102
{ACAD_REACTORS
330
119C
102
}
330
1F
100
AcDbEntity
  8
実線
100
AcDbLine
 10
371.9008163837407
 20
364.0383708733133
 30
0.0
 11
371.9008163837407
 21
371.9383708733133
 31
0.0
  0
LINE
  5
E5F
102
{ACAD_REACTORS
330
119C
102
}
330
1F
100
AcDbEntity
  8
実線
100
AcDbLine
 10
379.8008163837408
 20
364.0383708733133
 30
0.0
 11
371.9008163837407
 21
364.0383708733133
 31
0.0
  0
LINE
  5
E60
102
{ACAD_REACTORS
330
119C
102
}
330
1F
100
AcDbEntity
  8
実線
100
AcDbLine
 10
371.9008163837407
 20
371.9383708733133
 30
0.0
 11
379.8008163837408
 21
371.9383708733133
 31
0.0
  0
CIRCLE
  5
E61
102
{ACAD_REACTORS
330
119C
102
}
330
1F
100
AcDbEntity
  8
実線
100
AcDbCircle
 10
375.8508163837409
 20
367.9883708733133
 30
0.0
 40
1.5
  0
CIRCLE
  5
E62
102
{ACAD_REACTORS
330
119C
102
}
330
1F
100
AcDbEntity
  8
実線
100
AcDbCircle
 10
375.8508163837409
 20
347.9883708733134
 30
0.0
 40
1.5
  0
LINE
  5
E63
102
{ACAD_REACTORS
330
119C
102
}
330
1F
100
AcDbEntity
  8
実線
100
AcDbLine
 10
371.3008163837408
 20
344.7883708733133
 30
0.0
 11
343.3008163837408
 21
344.7883708733133
 31
0.0
  0
LINE
  5
E64
102
{ACAD_REACTORS
330
119C
102
}
330
1F
100
AcDbEntity
  8
実線
100
AcDbLine
 10
343.3008163837408
 20
354.7883708733134
 30
0.0
 11
343.3008163837408
 21
344.7883708733133
 31
0.0
  0
LINE
  5
E65
102
{ACAD_REACTORS
330
119C
102
}
330
1F
100
AcDbEntity
  8
実線
100
AcDbLine
 10
371.3008163837408
 20
344.7883708733133
 30
0.0
 11
371.3008163837408
 21
354.7883708733134
 31
0.0
  0
LINE
  5
E66
102
{ACAD_REACTORS
330
119C
102
}
330
1F
100
AcDbEntity
  8
実線
100
AcDbLine
 10
371.3008163837408
 20
354.7883708733134
 30
0.0
 11
343.3008163837408
 21
354.7883708733134
 31
0.0
  0
LINE
  5
E67
102
{ACAD_REACTORS
330
119C
102
}
330
1F
100
AcDbEntity
  8
実線
100
AcDbLine
 10
346.3008163837408
 20
377.9883708733133
 30
0.0
 11
346.3008163837408
 21
354.7883708733134
 31
0.0
  0
LINE
  5
E68
102
{ACAD_REACTORS
330
119C
102
}
330
1F
100
AcDbEntity
  8
実線
100
AcDbLine
 10
368.3008163837408
 20
354.7883708733134
 30
0.0
 11
368.3008163837408
 21
377.9883708733133
 31
0.0
  0
LINE
  5
E69
102
{ACAD_REACTORS
330
119C
102
}
330
1F
100
AcDbEntity
  8
実線
100
AcDbLine
 10
391.9490486618816
 20
749.6868556831483
 30
0.0
 11
420.5868732999365
 21
749.6868556831483
 31
0.0
  0
LINE
  5
E6A
102
{ACAD_REACTORS
330
119C
102
}
330
1F
100
AcDbEntity
  8
実線
100
AcDbLine
 10
370.9490486618815
 20
719.9883708733133
 30
0.0
 11
391.9490486618816
 21
690.2898860634783
 31
0.0
  0
LINE
  5
E6B
102
{ACAD_REACTORS
330
119C
102
}
330
1F
100
AcDbEntity
  8
実線
100
AcDbLine
 10
391.9490486618816
 20
690.2898860634783
 30
0.0
 11
420.5868732999365
 21
690.2898860634783
 31
0.0
  0
LINE
  5
E6C
102
{ACAD_REACTORS
330
119C
102
}
330
1F
100
AcDbEntity
  8
実線
100
AcDbLine
 10
370.9490486618815
 20
719.9883708733133
 30
0.0
 11
399.5868732999365
 21
719.9883708733133
 31
0.0
  0
LINE
  5
E6D
102
{ACAD_REACTORS
330
119C
102
}
330
1F
100
AcDbEntity
  8
実線
100
AcDbLine
 10
410.1934750177347
 20
734.9883708733131
 30
0.0
 11
420.5868732999365
 21
749.6868556831483
 31
0.0
  0
LINE
  5
E6E
102
{ACAD_REACTORS
330
119C
102
}
330
1F
100
AcDbEntity
  8
実線
100
AcDbLine
 10
399.5868732999365
 20
719.9883708733133
 30
0.0
 11
409.8388502259654
 21
734.4868556832395
 31
0.0
  0
LINE
  5
E6F
102
{ACAD_REACTORS
330
119C
102
}
330
1F
100
AcDbEntity
  8
実線
100
AcDbLine
 10
420.5868732999365
 20
690.2898860634783
 30
0.0
 11
399.5868732999365
 21
719.9883708733133
 31
0.0
  0
LINE
  5
E70
102
{ACAD_REACTORS
330
119C
102
}
330
1F
100
AcDbEntity
  8
実線
100
AcDbLine
 10
436.6371258316307
 20
712.9883708733131
 30
0.0
 11
420.5868732999365
 21
690.2898860634783
 31
0.0
  0
LINE
  5
E71
102
{ACAD_REACTORS
330
119C
102
}
330
1F
100
AcDbEntity
  8
実線
100
AcDbLine
 10
426.2941586480614
 20
741.6155353394976
 30
0.0
 11
428.8589512385788
 21
737.9883708733131
 31
0.0
  0
LINE
  5
E72
102
{ACAD_REACTORS
330
119C
102
}
330
1F
100
AcDbEntity
  8
実線
100
AcDbLine
 10
420.5868732999365
 20
749.6868556831483
 30
0.0
 11
424.2627571608664
 21
744.488370873313
 31
0.0
  0
LINE
  5
E73
102
{ACAD_REACTORS
330
119C
102
}
330
1F
100
AcDbEntity
  8
実線
100
AcDbLine
 10
426.2941586480614
 20
737.9883708733131
 30
0.0
 11
426.2941586480614
 21
744.488370873313
 31
0.0
  0
LINE
  5
E74
102
{ACAD_REACTORS
330
119C
102
}
330
1F
100
AcDbEntity
  8
実線
100
AcDbLine
 10
423.2941586480615
 20
744.488370873313
 30
0.0
 11
423.2941586480615
 21
737.9883708733131
 31
0.0
  0
LINE
  5
E75
102
{ACAD_REACTORS
330
119C
102
}
330
1F
100
AcDbEntity
  8
実線
100
AcDbLine
 10
426.2941586480614
 20
744.488370873313
 30
0.0
 11
423.2941586480615
 21
744.488370873313
 31
0.0
  0
LINE
  5
E76
102
{ACAD_REACTORS
330
119C
102
}
330
1F
100
AcDbEntity
  8
実線
100
AcDbLine
 10
419.2080150766874
 20
737.9883708733131
 30
0.0
 11
430.3803022194347
 21
737.9883708733131
 31
0.0
  0
LINE
  5
E77
102
{ACAD_REACTORS
330
119C
102
}
330
1F
100
AcDbEntity
  8
実線
100
AcDbLine
 10
419.2080150766874
 20
734.9883708733131
 30
0.0
 11
419.2080150766874
 21
737.9883708733131
 31
0.0
  0
LINE
  5
E78
102
{ACAD_REACTORS
330
119C
102
}
330
1F
100
AcDbEntity
  8
実線
100
AcDbLine
 10
430.3803022194347
 20
712.9883708733131
 30
0.0
 11
430.3803022194347
 21
737.9883708733131
 31
0.0
  0
LINE
  5
E79
102
{ACAD_REACTORS
330
119C
102
}
330
1F
100
AcDbEntity
  8
実線
100
AcDbLine
 10
424.7941586480615
 20
734.9883708733131
 30
0.0
 11
424.7941586480615
 21
737.9883708733131
 31
0.0
  0
LINE
  5
E7A
102
{ACAD_REACTORS
330
119C
102
}
330
1F
100
AcDbEntity
  8
実線
100
AcDbLine
 10
428.0114945025197
 20
712.9883708733131
 30
0.0
 11
430.3803022194347
 21
712.9883708733131
 31
0.0
  0
LINE
  5
E7B
102
{ACAD_REACTORS
330
119C
102
}
330
1F
100
AcDbEntity
  8
実線
100
AcDbLine
 10
435.5572574815401
 20
737.9883708733131
 30
0.0
 11
435.5572574815401
 21
744.488370873313
 31
0.0
  0
LINE
  5
E7C
102
{ACAD_REACTORS
330
119C
102
}
330
1F
100
AcDbEntity
  8
実線
100
AcDbLine
 10
432.55725748154
 20
744.488370873313
 30
0.0
 11
432.55725748154
 21
737.9883708733131
 31
0.0
  0
LINE
  5
E7D
102
{ACAD_REACTORS
330
119C
102
}
330
1F
100
AcDbEntity
  8
実線
100
AcDbLine
 10
432.55725748154
 20
744.488370873313
 30
0.0
 11
435.5572574815401
 21
744.488370873313
 31
0.0
  0
LINE
  5
E7E
102
{ACAD_REACTORS
330
119C
102
}
330
1F
100
AcDbEntity
  8
実線
100
AcDbLine
 10
439.6434010529142
 20
712.9883708733131
 30
0.0
 11
430.3803022194347
 21
712.9883708733131
 31
0.0
  0
LINE
  5
E7F
102
{ACAD_REACTORS
330
119C
102
}
330
1F
100
AcDbEntity
  8
実線
100
AcDbLine
 10
439.6434010529142
 20
737.9883708733131
 30
0.0
 11
439.6434010529142
 21
712.9883708733131
 31
0.0
  0
LINE
  5
E80
102
{ACAD_REACTORS
330
119C
102
}
330
1F
100
AcDbEntity
  8
実線
100
AcDbLine
 10
439.6434010529142
 20
737.9883708733131
 30
0.0
 11
430.3803022194347
 21
737.9883708733131
 31
0.0
  0
LINE
  5
E81
102
{ACAD_REACTORS
330
119C
102
}
330
1F
100
AcDbEntity
  8
実線
100
AcDbLine
 10
434.0572574815401
 20
724.5487984848317
 30
0.0
 11
434.0572574815401
 21
737.9883708733131
 31
0.0
  0
LINE
  5
E82
102
{ACAD_REACTORS
330
119C
102
}
330
1F
100
AcDbEntity
  8
実線
100
AcDbLine
 10
434.0572574815401
 20
712.9883708733131
 30
0.0
 11
434.0572574815401
 21
715.4279432617949
 31
0.0
  0
LINE
  5
E83
102
{ACAD_REACTORS
330
119C
102
}
330
1F
100
AcDbEntity
  8
実線
100
AcDbLine
 10
409.8388502259654
 20
712.9883708733131
 30
0.0
 11
428.0114945025197
 21
712.9883708733131
 31
0.0
  0
LINE
  5
E84
102
{ACAD_REACTORS
330
119C
102
}
330
1F
100
AcDbEntity
  8
実線
100
AcDbLine
 10
409.8388502259654
 20
734.9883708733131
 30
0.0
 11
428.0114945025197
 21
734.9883708733131
 31
0.0
  0
LINE
  5
E85
102
{ACAD_REACTORS
330
119C
102
}
330
1F
100
AcDbEntity
  8
実線
100
AcDbLine
 10
409.8388502259654
 20
712.9883708733131
 30
0.0
 11
409.8388502259654
 21
734.9883708733131
 31
0.0
  0
LINE
  5
E86
102
{ACAD_REACTORS
330
119C
102
}
330
1F
100
AcDbEntity
  8
実線
100
AcDbLine
 10
427.162966365096
 20
712.9883708733131
 30
0.0
 11
427.162966365096
 21
734.9883708733131
 31
0.0
  0
LINE
  5
E87
102
{ACAD_REACTORS
330
119C
102
}
330
1F
100
AcDbEntity
  8
実線
100
AcDbLine
 10
428.0114945025197
 20
734.9883708733131
 30
0.0
 11
428.0114945025197
 21
712.9883708733131
 31
0.0
  0
ELLIPSE
  5
E88
102
{ACAD_REACTORS
330
119C
102
}
330
1F
100
AcDbEntity
  8
実線
100
AcDbEllipse
 10
432.6076885800907
 20
719.9883708733133
 30
0.0
 11
0.0
 21
5.0
 31
0.0
210
0.0
220
0.0
230
1.0
 40
0.7071067811865475
 41
0.0
 42
0.6815532115332993
  0
LINE
  5
E89
102
{ACAD_REACTORS
330
119C
102
}
330
1F
100
AcDbEntity
  8
実線
100
AcDbLine
 10
430.4863682365312
 20
714.9883708733133
 30
0.0
 11
432.6076885800907
 21
714.9883708733133
 31
0.0
  0
LINE
  5
E8A
102
{ACAD_REACTORS
330
119C
102
}
330
1F
100
AcDbEntity
  8
実線
100
AcDbLine
 10
432.6076885800907
 20
724.9883708733133
 30
0.0
 11
430.4863682365312
 21
724.9883708733133
 31
0.0
  0
ELLIPSE
  5
E8B
102
{ACAD_REACTORS
330
119C
102
}
330
1F
100
AcDbEntity
  8
実線
100
AcDbEllipse
 10
432.6076885800907
 20
719.9883708733133
 30
0.0
 11
0.0
 21
5.0
 31
0.0
210
0.0
220
0.0
230
1.0
 40
0.7071067811865475
 41
3.141592653589792
 42
6.283185307179585
  0
ELLIPSE
  5
E8C
102
{ACAD_REACTORS
330
119C
102
}
330
1F
100
AcDbEntity
  8
実線
100
AcDbEllipse
 10
432.6076885800907
 20
719.9883708733133
 30
0.0
 11
0.0
 21
5.0
 31
0.0
210
0.0
220
0.0
230
1.0
 40
0.7071067811865475
 41
2.460039442056495
 42
3.141592653589792
  0
ELLIPSE
  5
E8D
102
{ACAD_REACTORS
330
119C
102
}
330
1F
100
AcDbEntity
  8
実線
100
AcDbEllipse
 10
430.4863682365312
 20
719.9883708733133
 30
0.0
 11
0.0
 21
5.0
 31
0.0
210
0.0
220
0.0
230
1.0
 40
0.7071067811865475
 41
3.111588151789471
 42
3.141592653589792
  0
ELLIPSE
  5
E8E
102
{ACAD_REACTORS
330
119C
102
}
330
1F
100
AcDbEntity
  8
実線
100
AcDbEllipse
 10
430.4863682365312
 20
719.9883708733133
 30
0.0
 11
0.0
 21
5.0
 31
0.0
210
0.0
220
0.0
230
1.0
 40
0.7071067811865475
 41
0.0
 42
0.0300045018003011
  0
LINE
  5
E8F
102
{ACAD_REACTORS
330
119C
102
}
330
1F
100
AcDbEntity
  8
実線
100
AcDbLine
 10
308.3008163837408
 20
809.4883708733133
 30
0.0
 11
406.3008163837407
 21
809.4883708733133
 31
0.0
  0
LINE
  5
E90
102
{ACAD_REACTORS
330
119C
102
}
330
1F
100
AcDbEntity
  8
実線
100
AcDbLine
 10
308.3008163837408
 20
809.4883708733133
 30
0.0
 11
308.3008163837408
 21
804.4883708733133
 31
0.0
  0
LINE
  5
E91
102
{ACAD_REACTORS
330
119C
102
}
330
1F
100
AcDbEntity
  8
実線
100
AcDbLine
 10
406.3008163837407
 20
804.4883708733133
 30
0.0
 11
406.3008163837407
 21
809.4883708733133
 31
0.0
  0
LINE
  5
E92
102
{ACAD_REACTORS
330
119C
102
}
330
1F
100
AcDbEntity
  8
実線
100
AcDbLine
 10
300.7976507916847
 20
804.4883708733133
 30
0.0
 11
300.7976507916847
 21
789.4883708733133
 31
0.0
  0
LINE
  5
E93
102
{ACAD_REACTORS
330
119C
102
}
330
1F
100
AcDbEntity
  8
実線
100
AcDbLine
 10
300.7976507916847
 20
804.4883708733133
 30
0.0
 11
334.9225730965977
 21
804.4883708733133
 31
0.0
  0
LINE
  5
E94
102
{ACAD_REACTORS
330
119C
102
}
330
1F
100
AcDbEntity
  8
実線
100
AcDbLine
 10
413.8039819757964
 20
804.4883708733133
 30
0.0
 11
379.6790596708838
 21
804.4883708733133
 31
0.0
  0
LINE
  5
E95
102
{ACAD_REACTORS
330
119C
102
}
330
1F
100
AcDbEntity
  8
実線
100
AcDbLine
 10
413.8039819757964
 20
789.4883708733133
 30
0.0
 11
413.8039819757964
 21
804.4883708733133
 31
0.0
  0
LINE
  5
E96
102
{ACAD_REACTORS
330
119C
102
}
330
1F
100
AcDbEntity
  8
実線
100
AcDbLine
 10
334.9225730965977
 20
804.4883708733133
 30
0.0
 11
334.9225730965977
 21
789.4883708733133
 31
0.0
  0
LINE
  5
E97
102
{ACAD_REACTORS
330
119C
102
}
330
1F
100
AcDbEntity
  8
実線
100
AcDbLine
 10
379.6790596708838
 20
804.4883708733133
 30
0.0
 11
379.6790596708838
 21
789.4883708733133
 31
0.0
  0
LINE
  5
E98
102
{ACAD_REACTORS
330
119C
102
}
330
1F
100
AcDbEntity
  8
実線
100
AcDbLine
 10
300.7976507916851
 20
650.4883708733133
 30
0.0
 11
413.8039819757964
 21
650.4883708733133
 31
0.0
  0
LINE
  5
E99
102
{ACAD_REACTORS
330
119C
102
}
330
1F
100
AcDbEntity
  8
実線
100
AcDbLine
 10
406.3008163837407
 20
630.4883708733133
 30
0.0
 11
406.3008163837407
 21
635.4883708733133
 31
0.0
  0
LINE
  5
E9A
102
{ACAD_REACTORS
330
119C
102
}
330
1F
100
AcDbEntity
  8
実線
100
AcDbLine
 10
308.3008163837408
 20
635.4883708733133
 30
0.0
 11
308.3008163837408
 21
630.4883708733133
 31
0.0
  0
LINE
  5
E9B
102
{ACAD_REACTORS
330
119C
102
}
330
1F
100
AcDbEntity
  8
実線
100
AcDbLine
 10
308.3008163837408
 20
630.4883708733133
 30
0.0
 11
406.3008163837407
 21
630.4883708733133
 31
0.0
  0
LINE
  5
E9C
102
{ACAD_REACTORS
330
119C
102
}
330
1F
100
AcDbEntity
  8
実線
100
AcDbLine
 10
413.8039819757964
 20
635.4883708733133
 30
0.0
 11
413.8039819757964
 21
650.4883708733133
 31
0.0
  0
LINE
  5
E9D
102
{ACAD_REACTORS
330
119C
102
}
330
1F
100
AcDbEntity
  8
実線
100
AcDbLine
 10
413.8039819757964
 20
635.4883708733133
 30
0.0
 11
379.6790596708838
 21
635.4883708733133
 31
0.0
  0
LINE
  5
E9E
102
{ACAD_REACTORS
330
119C
102
}
330
1F
100
AcDbEntity
  8
実線
100
AcDbLine
 10
300.7976507916851
 20
635.4883708733133
 30
0.0
 11
334.9225730965977
 21
635.4883708733133
 31
0.0
  0
LINE
  5
E9F
102
{ACAD_REACTORS
330
119C
102
}
330
1F
100
AcDbEntity
  8
実線
100
AcDbLine
 10
300.7976507916851
 20
650.4883708733133
 30
0.0
 11
300.7976507916851
 21
635.4883708733133
 31
0.0
  0
LINE
  5
EA0
102
{ACAD_REACTORS
330
119C
102
}
330
1F
100
AcDbEntity
  8
実線
100
AcDbLine
 10
334.9225730965977
 20
635.4883708733133
 30
0.0
 11
334.9225730965977
 21
650.4883708733133
 31
0.0
  0
LINE
  5
EA1
102
{ACAD_REACTORS
330
119C
102
}
330
1F
100
AcDbEntity
  8
実線
100
AcDbLine
 10
379.6790596708838
 20
635.4883708733133
 30
0.0
 11
379.6790596708838
 21
650.4883708733133
 31
0.0
  0
LINE
  5
EA2
102
{ACAD_REACTORS
330
119C
102
}
330
1F
100
AcDbEntity
  8
実線
100
AcDbLine
 10
309.8008163837408
 20
1061.988370873313
 30
0.0
 11
404.8008163836447
 21
1061.988370873313
 31
0.0
  0
ARC
  5
EA3
102
{ACAD_REACTORS
330
119C
102
}
330
1F
100
AcDbEntity
  8
実線
100
AcDbCircle
 10
404.8008163837407
 20
1056.988370873313
 30
0.0
 40
5.0
100
AcDbArc
 50
0.0
 51
90.0
  0
ARC
  5
EA4
102
{ACAD_REACTORS
330
119C
102
}
330
1F
100
AcDbEntity
  8
実線
100
AcDbCircle
 10
309.8008163837408
 20
1056.988370873313
 30
0.0
 40
5.0
100
AcDbArc
 50
90.0
 51
180.0
  0
LINE
  5
EA5
102
{ACAD_REACTORS
330
119C
102
}
330
1F
100
AcDbEntity
  8
実線
100
AcDbLine
 10
400.8008163837407
 20
377.9883708733134
 30
0.0
 11
400.8008163837407
 21
376.7883708733134
 31
0.0
  0
LINE
  5
EA6
102
{ACAD_REACTORS
330
119C
102
}
330
1F
100
AcDbEntity
  8
実線
100
AcDbLine
 10
400.8008163837407
 20
376.7883708733134
 30
0.0
 11
371.8008163837408
 21
376.7883708733134
 31
0.0
  0
LINE
  5
EA7
102
{ACAD_REACTORS
330
119C
102
}
330
1F
100
AcDbEntity
  8
実線
100
AcDbLine
 10
381.0008163837406
 20
337.9883708733134
 30
0.0
 11
381.0008163837406
 21
377.9883708733134
 31
0.0
  0
LINE
  5
EA8
102
{ACAD_REACTORS
330
119C
102
}
330
1F
100
AcDbEntity
  8
実線
100
AcDbLine
 10
379.8008163837408
 20
337.9883708733134
 30
0.0
 11
381.0008163837406
 21
337.9883708733134
 31
0.0
  0
LINE
  5
EA9
102
{ACAD_REACTORS
330
119C
102
}
330
1F
100
AcDbEntity
  8
実線
100
AcDbLine
 10
379.8008163837408
 20
376.7883708733134
 30
0.0
 11
379.8008163837408
 21
337.9883708733134
 31
0.0
  0
LINE
  5
EAA
102
{ACAD_REACTORS
330
119C
102
}
330
1F
100
AcDbEntity
  8
実線
100
AcDbLine
 10
371.8008163837408
 20
377.9883708733134
 30
0.0
 11
371.8008163837408
 21
376.7883708733134
 31
0.0
  0
LINE
  5
EAB
102
{ACAD_REACTORS
330
119C
102
}
330
1F
100
AcDbEntity
  8
実線
100
AcDbLine
 10
316.0713429642433
 20
740.5294240343184
 30
0.0
 11
319.3076280416189
 21
734.9240138525269
 31
0.0
  0
ARC
  5
EAC
102
{ACAD_REACTORS
330
119C
102
}
330
1F
100
AcDbEntity
  8
実線
100
AcDbCircle
 10
366.3008163837408
 20
769.5294240343184
 30
0.0
 40
58.0
100
AcDbArc
 50
180.0
 51
209.9999999999952
  0
ARC
  5
EAD
102
{ACAD_REACTORS
330
119C
102
}
330
1F
100
AcDbEntity
  8
実線
100
AcDbCircle
 10
348.3008163837407
 20
769.5294240343184
 30
0.0
 40
58.0
100
AcDbArc
 50
339.9943230706032
 51
0.0
  0
LINE
  5
EAE
102
{ACAD_REACTORS
330
119C
102
}
330
1F
100
AcDbEntity
  8
実線
100
AcDbLine
 10
406.3008163837407
 20
769.5294240343184
 30
0.0
 11
406.3008163837407
 21
774.4883708733133
 31
0.0
  0
LINE
  5
EAF
102
{ACAD_REACTORS
330
119C
102
}
330
1F
100
AcDbEntity
  8
実線
100
AcDbLine
 10
308.3008163837408
 20
774.4883708733133
 30
0.0
 11
308.3008163837408
 21
769.5294240343184
 31
0.0
  0
LINE
  5
EB0
102
{ACAD_REACTORS
330
119C
102
}
330
1F
100
AcDbEntity
  8
実線
100
AcDbLine
 10
404.8008163837407
 20
377.9883708733133
 30
0.0
 11
309.8008163837408
 21
377.9883708733133
 31
0.0
  0
ARC
  5
EB1
102
{ACAD_REACTORS
330
119C
102
}
330
1F
100
AcDbEntity
  8
実線
100
AcDbCircle
 10
309.8008163837408
 20
382.9883708733133
 30
0.0
 40
5.0
100
AcDbArc
 50
180.0
 51
270.0
  0
ARC
  5
EB2
102
{ACAD_REACTORS
330
119C
102
}
330
1F
100
AcDbEntity
  8
実線
100
AcDbCircle
 10
404.8008163837407
 20
382.9883708733133
 30
0.0
 40
5.0
100
AcDbArc
 50
270.0
 51
0.0
  0
LINE
  5
EB3
102
{ACAD_REACTORS
330
119C
102
}
330
1F
100
AcDbEntity
  8
実線
100
AcDbLine
 10
350.3008163837407
 20
1101.988370873313
 30
0.0
 11
350.3008163837407
 21
1061.988370873313
 31
0.0
  0
LINE
  5
EB4
102
{ACAD_REACTORS
330
119C
102
}
330
1F
100
AcDbEntity
  8
実線
100
AcDbLine
 10
392.3008163837408
 20
1061.988370873313
 30
0.0
 11
392.3008163837408
 21
1063.188370873313
 31
0.0
  0
LINE
  5
EB5
102
{ACAD_REACTORS
330
119C
102
}
330
1F
100
AcDbEntity
  8
実線
100
AcDbLine
 10
392.3008163837408
 20
1063.188370873313
 30
0.0
 11
377.3008163837408
 21
1063.188370873313
 31
0.0
  0
LINE
  5
EB6
102
{ACAD_REACTORS
330
119C
102
}
330
1F
100
AcDbEntity
  8
実線
100
AcDbLine
 10
377.3008163837408
 20
1063.188370873313
 30
0.0
 11
377.3008163837408
 21
1101.988370873313
 31
0.0
  0
LINE
  5
EB7
102
{ACAD_REACTORS
330
119C
102
}
330
1F
100
AcDbEntity
  8
実線
100
AcDbLine
 10
377.3008163837408
 20
1101.988370873313
 30
0.0
 11
350.3008163837407
 21
1101.988370873313
 31
0.0
  0
LINE
  5
EB8
102
{ACAD_REACTORS
330
119C
102
}
330
1F
100
AcDbEntity
  8
実線
100
AcDbLine
 10
360.3008163837408
 20
1061.988370873313
 30
0.0
 11
360.3008163837408
 21
1063.188370873313
 31
0.0
  0
LINE
  5
EB9
102
{ACAD_REACTORS
330
119C
102
}
330
1F
100
AcDbEntity
  8
実線
100
AcDbLine
 10
360.3008163837408
 20
1063.188370873313
 30
0.0
 11
350.3008163837407
 21
1063.188370873313
 31
0.0
  0
LINE
  5
EBA
102
{ACAD_REACTORS
330
119B
102
}
330
1F
100
AcDbEntity
  8
実線
100
AcDbLine
 10
529.1710780164171
 20
722.9883708729103
 30
0.0
 11
526.9436916559102
 21
722.9883708729103
 31
0.0
  0
LINE
  5
EBB
102
{ACAD_REACTORS
330
119B
102
}
330
1F
100
AcDbEntity
  8
実線
100
AcDbLine
 10
526.9436916559102
 20
716.988370873716
 30
0.0
 11
529.1710780164171
 21
716.988370873716
 31
0.0
  0
LINE
  5
EBC
102
{ACAD_REACTORS
330
119B
102
}
330
1F
100
AcDbEntity
  8
実線
100
AcDbLine
 10
531.1863323427983
 20
712.988370873313
 30
0.0
 11
531.1863323427983
 21
734.988370873313
 31
0.0
  0
LINE
  5
EBD
102
{ACAD_REACTORS
330
119B
102
}
330
1F
100
AcDbEntity
  8
実線
100
AcDbLine
 10
531.1863323427983
 20
712.988370873313
 30
0.0
 11
544.7627825415802
 21
712.988370873313
 31
0.0
  0
LINE
  5
EBE
102
{ACAD_REACTORS
330
119B
102
}
330
1F
100
AcDbEntity
  8
実線
100
AcDbLine
 10
531.1863323427983
 20
734.988370873313
 30
0.0
 11
544.7627825415802
 21
734.988370873313
 31
0.0
  0
LINE
  5
EBF
102
{ACAD_REACTORS
330
119B
102
}
330
1F
100
AcDbEntity
  8
実線
100
AcDbLine
 10
532.0348604802225
 20
734.988370873313
 30
0.0
 11
532.0348604802225
 21
712.988370873313
 31
0.0
  0
LINE
  5
EC0
102
{ACAD_REACTORS
330
119B
102
}
330
1F
100
AcDbEntity
  8
実線
100
AcDbLine
 10
544.7627825415802
 20
734.988370873313
 30
0.0
 11
544.7627825415802
 21
712.988370873313
 31
0.0
  0
CIRCLE
  5
EC1
102
{ACAD_REACTORS
330
119B
102
}
330
1F
100
AcDbEntity
  8
実線
100
AcDbCircle
 10
597.3008163837407
 20
685.4883708733132
 30
0.0
 40
32.0
  0
LINE
  5
EC2
102
{ACAD_REACTORS
330
119B
102
}
330
1F
100
AcDbEntity
  8
実線
100
AcDbLine
 10
614.1754998657624
 20
728.4883708733193
 30
0.0
 11
593.2434152924184
 21
728.4883708733193
 31
0.0
  0
LINE
  5
EC3
102
{ACAD_REACTORS
330
119B
102
}
330
1F
100
AcDbEntity
  8
実線
100
AcDbLine
 10
540.7976507916851
 20
665.4883708733132
 30
0.0
 11
572.3208243901471
 21
665.4883708733132
 31
0.0
  0
LINE
  5
EC4
102
{ACAD_REACTORS
330
119B
102
}
330
1F
100
AcDbEntity
  8
実線
100
AcDbLine
 10
540.7976507916851
 20
665.4883708733132
 30
0.0
 11
540.7976507916851
 21
650.4883708733132
 31
0.0
  0
LINE
  5
EC5
102
{ACAD_REACTORS
330
119B
102
}
330
1F
100
AcDbEntity
  8
実線
100
AcDbLine
 10
653.8039819757964
 20
650.4883708733132
 30
0.0
 11
653.8039819757964
 21
665.4883708733132
 31
0.0
  0
LINE
  5
EC6
102
{ACAD_REACTORS
330
119B
102
}
330
1F
100
AcDbEntity
  8
実線
100
AcDbLine
 10
653.8039819757964
 20
665.4883708733132
 30
0.0
 11
622.2808083773343
 21
665.4883708733132
 31
0.0
  0
LINE
  5
EC7
102
{ACAD_REACTORS
330
119B
102
}
330
1F
100
AcDbEntity
  8
実線
100
AcDbLine
 10
619.6790596708837
 20
650.4883708733132
 30
0.0
 11
619.6790596708837
 21
662.6144943461165
 31
0.0
  0
LINE
  5
EC8
102
{ACAD_REACTORS
330
119B
102
}
330
1F
100
AcDbEntity
  8
実線
100
AcDbLine
 10
574.9225730965977
 20
650.4883708733132
 30
0.0
 11
574.9225730965977
 21
662.6144943461165
 31
0.0
  0
LINE
  5
EC9
102
{ACAD_REACTORS
330
119B
102
}
330
1F
100
AcDbEntity
  8
実線
100
AcDbLine
 10
540.7976507916851
 20
779.8883708733131
 30
0.0
 11
520.6008163837409
 21
779.8883708733131
 31
0.0
  0
LINE
  5
ECA
102
{ACAD_REACTORS
330
119B
102
}
330
1F
100
AcDbEntity
  8
実線
100
AcDbLine
 10
520.6008163837409
 20
779.8883708733131
 30
0.0
 11
520.6008163837409
 21
737.988370873313
 31
0.0
  0
LINE
  5
ECB
102
{ACAD_REACTORS
330
119B
102
}
330
1F
100
AcDbEntity
  8
実線
100
AcDbLine
 10
520.6008163837409
 20
779.8883708733131
 30
0.0
 11
518.2008163837408
 21
786.4883708733132
 31
0.0
  0
LINE
  5
ECC
102
{ACAD_REACTORS
330
119B
102
}
330
1F
100
AcDbEntity
  8
実線
100
AcDbLine
 10
515.3008163837407
 20
786.4883708733132
 30
0.0
 11
515.3008163837407
 21
744.4883708733129
 31
0.0
  0
LINE
  5
ECD
102
{ACAD_REACTORS
330
119B
102
}
330
1F
100
AcDbEntity
  8
実線
100
AcDbLine
 10
518.2008163837408
 20
786.4883708733132
 30
0.0
 11
518.2008163837408
 21
737.988370873313
 31
0.0
  0
LINE
  5
ECE
102
{ACAD_REACTORS
330
119B
102
}
330
1F
100
AcDbEntity
  8
実線
100
AcDbLine
 10
518.2008163837408
 20
786.4883708733132
 30
0.0
 11
515.3008163837407
 21
786.4883708733132
 31
0.0
  0
LINE
  5
ECF
102
{ACAD_REACTORS
330
119B
102
}
330
1F
100
AcDbEntity
  8
実線
100
AcDbLine
 10
674.0008163837406
 20
779.8883708733131
 30
0.0
 11
653.8039819757964
 21
779.8883708733131
 31
0.0
  0
LINE
  5
ED0
102
{ACAD_REACTORS
330
119B
102
}
330
1F
100
AcDbEntity
  8
実線
100
AcDbLine
 10
638.7158584060853
 20
729.0883708733132
 30
0.0
 11
674.0008163837406
 21
729.0883708733132
 31
0.0
  0
LINE
  5
ED1
102
{ACAD_REACTORS
330
119B
102
}
330
1F
100
AcDbEntity
  8
実線
100
AcDbLine
 10
679.3008163837408
 20
786.4883708733132
 30
0.0
 11
676.4008163837407
 21
786.4883708733132
 31
0.0
  0
LINE
  5
ED2
102
{ACAD_REACTORS
330
119B
102
}
330
1F
100
AcDbEntity
  8
実線
100
AcDbLine
 10
676.4008163837407
 20
722.4883708733131
 30
0.0
 11
679.3008163837408
 21
722.4883708733131
 31
0.0
  0
LINE
  5
ED3
102
{ACAD_REACTORS
330
119B
102
}
330
1F
100
AcDbEntity
  8
実線
100
AcDbLine
 10
679.3008163837408
 20
786.4883708733132
 30
0.0
 11
679.3008163837408
 21
722.4883708733131
 31
0.0
  0
LINE
  5
ED4
102
{ACAD_REACTORS
330
119B
102
}
330
1F
100
AcDbEntity
  8
実線
100
AcDbLine
 10
674.0008163837406
 20
729.0883708733132
 30
0.0
 11
676.4008163837407
 21
722.4883708733131
 31
0.0
  0
LINE
  5
ED5
102
{ACAD_REACTORS
330
119B
102
}
330
1F
100
AcDbEntity
  8
実線
100
AcDbLine
 10
676.4008163837407
 20
786.4883708733132
 30
0.0
 11
674.0008163837406
 21
779.8883708733131
 31
0.0
  0
LINE
  5
ED6
102
{ACAD_REACTORS
330
119B
102
}
330
1F
100
AcDbEntity
  8
実線
100
AcDbLine
 10
676.4008163837407
 20
722.4883708733131
 30
0.0
 11
676.4008163837407
 21
786.4883708733132
 31
0.0
  0
LINE
  5
ED7
102
{ACAD_REACTORS
330
119B
102
}
330
1F
100
AcDbEntity
  8
実線
100
AcDbLine
 10
674.0008163837406
 20
729.0883708733132
 30
0.0
 11
674.0008163837406
 21
779.8883708733131
 31
0.0
  0
LINE
  5
ED8
102
{ACAD_REACTORS
330
119B
102
}
330
1F
100
AcDbEntity
  8
実線
100
AcDbLine
 10
647.9285905154569
 20
729.0883708733132
 30
0.0
 11
654.3632622242548
 21
719.9883708733129
 31
0.0
  0
LINE
  5
ED9
102
{ACAD_REACTORS
330
119B
102
}
330
1F
100
AcDbEntity
  8
実線
100
AcDbLine
 10
562.6525841055999
 20
749.6868556831482
 30
0.0
 11
565.1273119993907
 21
749.6868556831482
 31
0.0
  0
LINE
  5
EDA
102
{ACAD_REACTORS
330
119B
102
}
330
1F
100
AcDbEntity
  8
実線
100
AcDbLine
 10
562.6525841055999
 20
690.2898860634782
 30
0.0
 11
565.1273119993907
 21
690.2898860634782
 31
0.0
  0
LINE
  5
EDB
102
{ACAD_REACTORS
330
119B
102
}
330
1F
100
AcDbEntity
  8
実線
100
AcDbLine
 10
639.1106844514951
 20
698.4179685259265
 30
0.0
 11
654.3632622242548
 21
719.9883708733129
 31
0.0
  0
LINE
  5
EDC
102
{ACAD_REACTORS
330
119B
102
}
330
1F
100
AcDbEntity
  8
実線
100
AcDbLine
 10
606.1980960842561
 20
719.9883708733132
 30
0.0
 11
583.6525841055999
 21
719.9883708733132
 31
0.0
  0
LINE
  5
EDD
102
{ACAD_REACTORS
330
119B
102
}
330
1F
100
AcDbEntity
  8
実線
100
AcDbLine
 10
654.3632622242544
 20
719.9883708733132
 30
0.0
 11
641.4949902079001
 21
719.9883708733132
 31
0.0
  0
LINE
  5
EDE
102
{ACAD_REACTORS
330
119B
102
}
330
1F
100
AcDbEntity
  8
実線
100
AcDbLine
 10
576.3782206085338
 20
709.7008673581305
 30
0.0
 11
583.6525841055999
 21
719.9883708733132
 31
0.0
  0
LINE
  5
EDF
102
{ACAD_REACTORS
330
119B
102
}
330
1F
100
AcDbEntity
  8
実線
100
AcDbLine
 10
562.6525841055999
 20
690.2898860634782
 30
0.0
 11
567.4988571868452
 21
697.1435511819393
 31
0.0
  0
LINE
  5
EE0
102
{ACAD_REACTORS
330
119B
102
}
330
1F
100
AcDbEntity
  8
実線
100
AcDbLine
 10
632.6561554430682
 20
732.4883708733132
 30
0.0
 11
623.1717104169088
 21
732.4883708733132
 31
0.0
  0
LINE
  5
EE1
102
{ACAD_REACTORS
330
119B
102
}
330
1F
100
AcDbEntity
  8
実線
100
AcDbLine
 10
623.1717104169088
 20
707.4883708733132
 30
0.0
 11
632.6561554430682
 21
707.4883708733132
 31
0.0
  0
ELLIPSE
  5
EE2
102
{ACAD_REACTORS
330
119B
102
}
330
1F
100
AcDbEntity
  8
実線
100
AcDbEllipse
 10
632.6561554430682
 20
719.9883708733132
 30
0.0
 11
0.0
 21
12.5
 31
0.0
210
0.0
220
0.0
230
1.0
 40
0.7071067811865476
 41
3.141592653589792
 42
6.283185307179585
  0
ELLIPSE
  5
EE3
102
{ACAD_REACTORS
330
119B
102
}
330
1F
100
AcDbEntity
  8
実線
100
AcDbEllipse
 10
632.6561554430682
 20
719.9883708733132
 30
0.0
 11
0.0
 21
12.5
 31
0.0
210
0.0
220
0.0
230
1.0
 40
0.7071067811865476
 41
1.570796326794897
 42
3.141592653589792
  0
ELLIPSE
  5
EE4
102
{ACAD_REACTORS
330
119B
102
}
330
1F
100
AcDbEntity
  8
実線
100
AcDbEllipse
 10
632.6561554430682
 20
719.9883708733132
 30
0.0
 11
0.0
 21
12.5
 31
0.0
210
0.0
220
0.0
230
1.0
 40
0.7071067811865476
 41
0.0
 42
1.570796326794897
  0
LINE
  5
EE5
102
{ACAD_REACTORS
330
119B
102
}
330
1F
100
AcDbEntity
  8
実線
100
AcDbLine
 10
540.7976507916851
 20
774.4883708733132
 30
0.0
 11
653.8039819757964
 21
774.4883708733132
 31
0.0
  0
LINE
  5
EE6
102
{ACAD_REACTORS
330
119B
102
}
330
1F
100
AcDbEntity
  8
実線
100
AcDbLine
 10
653.8039819757964
 20
774.4883708733132
 30
0.0
 11
653.8039819757964
 21
789.4883708733132
 31
0.0
  0
LINE
  5
EE7
102
{ACAD_REACTORS
330
119B
102
}
330
1F
100
AcDbEntity
  8
実線
100
AcDbLine
 10
540.7976507916851
 20
789.4883708733132
 30
0.0
 11
540.7976507916851
 21
774.4883708733132
 31
0.0
  0
LINE
  5
EE8
102
{ACAD_REACTORS
330
119B
102
}
330
1F
100
AcDbEntity
  8
実線
100
AcDbLine
 10
574.9225730965977
 20
789.4883708733132
 30
0.0
 11
574.9225730965977
 21
774.4883708733132
 31
0.0
  0
LINE
  5
EE9
102
{ACAD_REACTORS
330
119B
102
}
330
1F
100
AcDbEntity
  8
実線
100
AcDbLine
 10
619.6790596708837
 20
789.4883708733132
 30
0.0
 11
619.6790596708837
 21
774.4883708733132
 31
0.0
  0
LINE
  5
EEA
102
{ACAD_REACTORS
330
119B
102
}
330
1F
100
AcDbEntity
  8
実線
100
AcDbLine
 10
646.3008163837407
 20
809.4883708733132
 30
0.0
 11
646.3008163837407
 21
993.4261930468222
 31
0.0
  0
LINE
  5
EEB
102
{ACAD_REACTORS
330
119B
102
}
330
1F
100
AcDbEntity
  8
実線
100
AcDbLine
 10
548.3008163837407
 20
993.4261930468222
 30
0.0
 11
548.3008163837407
 21
809.4883708733132
 31
0.0
  0
LINE
  5
EEC
102
{ACAD_REACTORS
330
119B
102
}
330
1F
100
AcDbEntity
  8
実線
100
AcDbLine
 10
649.8008163837408
 20
999.4883708733132
 30
0.0
 11
649.8008163837408
 21
1056.988370873313
 31
0.0
  0
LINE
  5
EED
102
{ACAD_REACTORS
330
119B
102
}
330
1F
100
AcDbEntity
  8
実線
100
AcDbLine
 10
544.8008163837407
 20
1056.988370873313
 30
0.0
 11
544.8008163837407
 21
999.4883708733132
 31
0.0
  0
LINE
  5
EEE
102
{ACAD_REACTORS
330
119B
102
}
330
1F
100
AcDbEntity
  8
実線
100
AcDbLine
 10
646.3008163837407
 20
993.4261930468222
 30
0.0
 11
649.8008163837408
 21
999.4883708733132
 31
0.0
  0
LINE
  5
EEF
102
{ACAD_REACTORS
330
119B
102
}
330
1F
100
AcDbEntity
  8
実線
100
AcDbLine
 10
544.8008163837407
 20
999.4883708733132
 30
0.0
 11
548.3008163837407
 21
993.4261930468222
 31
0.0
  0
LINE
  5
EF0
102
{ACAD_REACTORS
330
119B
102
}
330
1F
100
AcDbEntity
  8
実線
100
AcDbLine
 10
548.3008163837407
 20
993.4261930468222
 30
0.0
 11
646.3008163837407
 21
993.4261930468222
 31
0.0
  0
LINE
  5
EF1
102
{ACAD_REACTORS
330
119B
102
}
330
1F
100
AcDbEntity
  8
実線
100
AcDbLine
 10
544.8008163837407
 20
999.4883708733132
 30
0.0
 11
649.8008163837408
 21
999.4883708733132
 31
0.0
  0
LINE
  5
EF2
102
{ACAD_REACTORS
330
119B
102
}
330
1F
100
AcDbEntity
  8
実線
100
AcDbLine
 10
548.3008163837407
 20
630.4883708733131
 30
0.0
 11
548.3008163837407
 21
446.5505486998043
 31
0.0
  0
LINE
  5
EF3
102
{ACAD_REACTORS
330
119B
102
}
330
1F
100
AcDbEntity
  8
実線
100
AcDbLine
 10
646.3008163837407
 20
446.5505486998043
 30
0.0
 11
646.3008163837407
 21
630.4883708733131
 31
0.0
  0
LINE
  5
EF4
102
{ACAD_REACTORS
330
119B
102
}
330
1F
100
AcDbEntity
  8
実線
100
AcDbLine
 10
544.8008163837407
 20
440.4883708733132
 30
0.0
 11
544.8008163837407
 21
382.9883708733132
 31
0.0
  0
LINE
  5
EF5
102
{ACAD_REACTORS
330
119B
102
}
330
1F
100
AcDbEntity
  8
実線
100
AcDbLine
 10
649.8008163837408
 20
382.9883708733132
 30
0.0
 11
649.8008163837408
 21
440.4883708733132
 31
0.0
  0
LINE
  5
EF6
102
{ACAD_REACTORS
330
119B
102
}
330
1F
100
AcDbEntity
  8
実線
100
AcDbLine
 10
544.8008163837407
 20
382.9883708733132
 30
0.0
 11
649.8008163837408
 21
382.9883708733132
 31
0.0
  0
LINE
  5
EF7
102
{ACAD_REACTORS
330
119B
102
}
330
1F
100
AcDbEntity
  8
実線
100
AcDbLine
 10
548.3008163837407
 20
446.5505486998043
 30
0.0
 11
544.8008163837407
 21
440.4883708733132
 31
0.0
  0
LINE
  5
EF8
102
{ACAD_REACTORS
330
119B
102
}
330
1F
100
AcDbEntity
  8
実線
100
AcDbLine
 10
649.8008163837408
 20
440.4883708733132
 30
0.0
 11
646.3008163837407
 21
446.5505486998043
 31
0.0
  0
LINE
  5
EF9
102
{ACAD_REACTORS
330
119B
102
}
330
1F
100
AcDbEntity
  8
実線
100
AcDbLine
 10
646.3008163837407
 20
446.5505486998043
 30
0.0
 11
548.3008163837407
 21
446.5505486998043
 31
0.0
  0
LINE
  5
EFA
102
{ACAD_REACTORS
330
119B
102
}
330
1F
100
AcDbEntity
  8
実線
100
AcDbLine
 10
649.8008163837408
 20
440.4883708733132
 30
0.0
 11
544.8008163837407
 21
440.4883708733132
 31
0.0
  0
LINE
  5
EFB
102
{ACAD_REACTORS
330
119B
102
}
330
1F
100
AcDbEntity
  8
実線
100
AcDbLine
 10
608.3008163837408
 20
1061.988370873313
 30
0.0
 11
608.3008163837408
 21
1085.188370873313
 31
0.0
  0
LINE
  5
EFC
102
{ACAD_REACTORS
330
119B
102
}
330
1F
100
AcDbEntity
  8
実線
100
AcDbLine
 10
586.3008163837407
 20
1085.188370873313
 30
0.0
 11
586.3008163837407
 21
1061.988370873313
 31
0.0
  0
LINE
  5
EFD
102
{ACAD_REACTORS
330
119B
102
}
330
1F
100
AcDbEntity
  8
実線
100
AcDbLine
 10
611.3008163837407
 20
1095.188370873313
 30
0.0
 11
583.3008163837408
 21
1095.188370873313
 31
0.0
  0
LINE
  5
EFE
102
{ACAD_REACTORS
330
119B
102
}
330
1F
100
AcDbEntity
  8
実線
100
AcDbLine
 10
583.3008163837408
 20
1085.188370873313
 30
0.0
 11
611.3008163837407
 21
1085.188370873313
 31
0.0
  0
LINE
  5
EFF
102
{ACAD_REACTORS
330
119B
102
}
330
1F
100
AcDbEntity
  8
実線
100
AcDbLine
 10
611.3008163837407
 20
1085.188370873313
 30
0.0
 11
611.3008163837407
 21
1095.188370873313
 31
0.0
  0
LINE
  5
F00
102
{ACAD_REACTORS
330
119B
102
}
330
1F
100
AcDbEntity
  8
実線
100
AcDbLine
 10
583.3008163837408
 20
1095.188370873313
 30
0.0
 11
583.3008163837408
 21
1085.188370873313
 31
0.0
  0
CIRCLE
  5
F01
102
{ACAD_REACTORS
330
119B
102
}
330
1F
100
AcDbEntity
  8
実線
100
AcDbCircle
 10
578.7508163837405
 20
1091.988370873313
 30
0.0
 40
1.5
  0
CIRCLE
  5
F02
102
{ACAD_REACTORS
330
119B
102
}
330
1F
100
AcDbEntity
  8
実線
100
AcDbCircle
 10
578.7508163837405
 20
1071.988370873313
 30
0.0
 40
1.5
  0
LINE
  5
F03
102
{ACAD_REACTORS
330
119B
102
}
330
1F
100
AcDbEntity
  8
実線
100
AcDbLine
 10
582.7008163837404
 20
1075.938370873313
 30
0.0
 11
582.7008163837404
 21
1068.038370873313
 31
0.0
  0
LINE
  5
F04
102
{ACAD_REACTORS
330
119B
102
}
330
1F
100
AcDbEntity
  8
実線
100
AcDbLine
 10
574.8008163837408
 20
1075.938370873313
 30
0.0
 11
582.7008163837404
 21
1075.938370873313
 31
0.0
  0
LINE
  5
F05
102
{ACAD_REACTORS
330
119B
102
}
330
1F
100
AcDbEntity
  8
実線
100
AcDbLine
 10
582.7008163837404
 20
1068.038370873313
 30
0.0
 11
574.8008163837408
 21
1068.038370873313
 31
0.0
  0
LINE
  5
F06
102
{ACAD_REACTORS
330
119B
102
}
330
1F
100
AcDbEntity
  8
実線
100
AcDbLine
 10
582.7008163837404
 20
1088.038370873313
 30
0.0
 11
574.8008163837408
 21
1088.038370873313
 31
0.0
  0
LINE
  5
F07
102
{ACAD_REACTORS
330
119B
102
}
330
1F
100
AcDbEntity
  8
実線
100
AcDbLine
 10
574.8008163837408
 20
1095.938370873313
 30
0.0
 11
582.7008163837404
 21
1095.938370873313
 31
0.0
  0
LINE
  5
F08
102
{ACAD_REACTORS
330
119B
102
}
330
1F
100
AcDbEntity
  8
実線
100
AcDbLine
 10
582.7008163837404
 20
1095.938370873313
 30
0.0
 11
582.7008163837404
 21
1088.038370873313
 31
0.0
  0
LINE
  5
F09
102
{ACAD_REACTORS
330
119B
102
}
330
1F
100
AcDbEntity
  8
実線
100
AcDbLine
 10
577.3008163837407
 20
369.4883708733132
 30
0.0
 11
572.8008163837407
 21
369.4883708733132
 31
0.0
  0
LINE
  5
F0A
102
{ACAD_REACTORS
330
119B
102
}
330
1F
100
AcDbEntity
  8
実線
100
AcDbLine
 10
572.8008163837407
 20
366.4883708733132
 30
0.0
 11
577.3008163837407
 21
366.4883708733132
 31
0.0
  0
LINE
  5
F0B
102
{ACAD_REACTORS
330
119B
102
}
330
1F
100
AcDbEntity
  8
実線
100
AcDbLine
 10
572.8008163837407
 20
369.4883708733132
 30
0.0
 11
572.8008163837407
 21
366.4883708733132
 31
0.0
  0
LINE
  5
F0C
102
{ACAD_REACTORS
330
119B
102
}
330
1F
100
AcDbEntity
  8
実線
100
AcDbLine
 10
577.3008163837407
 20
349.4883708733133
 30
0.0
 11
572.8008163837407
 21
349.4883708733133
 31
0.0
  0
LINE
  5
F0D
102
{ACAD_REACTORS
330
119B
102
}
330
1F
100
AcDbEntity
  8
実線
100
AcDbLine
 10
572.8008163837407
 20
346.4883708733132
 30
0.0
 11
577.3008163837407
 21
346.4883708733132
 31
0.0
  0
LINE
  5
F0E
102
{ACAD_REACTORS
330
119B
102
}
330
1F
100
AcDbEntity
  8
実線
100
AcDbLine
 10
572.8008163837407
 20
349.4883708733132
 30
0.0
 11
572.8008163837407
 21
346.4883708733132
 31
0.0
  0
LINE
  5
F0F
102
{ACAD_REACTORS
330
119B
102
}
330
1F
100
AcDbEntity
  8
実線
100
AcDbLine
 10
611.3008163837407
 20
354.7883708733132
 30
0.0
 11
604.3008163837408
 21
354.7883708733132
 31
0.0
  0
LINE
  5
F10
102
{ACAD_REACTORS
330
119B
102
}
330
1F
100
AcDbEntity
  8
実線
100
AcDbLine
 10
604.3008163837408
 20
344.7883708733132
 30
0.0
 11
611.3008163837407
 21
344.7883708733132
 31
0.0
  0
LINE
  5
F11
102
{ACAD_REACTORS
330
119B
102
}
330
1F
100
AcDbEntity
  8
実線
100
AcDbLine
 10
611.3008163837407
 20
344.7883708733132
 30
0.0
 11
611.3008163837407
 21
354.7883708733132
 31
0.0
  0
LINE
  5
F12
102
{ACAD_REACTORS
330
119B
102
}
330
1F
100
AcDbEntity
  8
実線
100
AcDbLine
 10
608.3008163837408
 20
354.7883708733132
 30
0.0
 11
608.3008163837408
 21
377.9883708733132
 31
0.0
  0
LINE
  5
F13
102
{ACAD_REACTORS
330
119B
102
}
330
1F
100
AcDbEntity
  8
実線
100
AcDbLine
 10
523.6213611853432
 20
734.988370873313
 30
0.0
 11
534.014759467545
 21
749.6868556831482
 31
0.0
  0
LINE
  5
F14
102
{ACAD_REACTORS
330
119B
102
}
330
1F
100
AcDbEntity
  8
実線
100
AcDbLine
 10
534.014759467545
 20
690.2898860634782
 30
0.0
 11
517.9645069358507
 21
712.988370873313
 31
0.0
  0
LINE
  5
F15
102
{ACAD_REACTORS
330
119B
102
}
330
1F
100
AcDbEntity
  8
実線
100
AcDbLine
 10
555.014759467545
 20
719.9883708733132
 30
0.0
 11
534.014759467545
 21
690.2898860634782
 31
0.0
  0
LINE
  5
F16
102
{ACAD_REACTORS
330
119B
102
}
330
1F
100
AcDbEntity
  8
実線
100
AcDbLine
 10
562.6525841055999
 20
690.2898860634782
 30
0.0
 11
534.014759467545
 21
690.2898860634782
 31
0.0
  0
LINE
  5
F17
102
{ACAD_REACTORS
330
119B
102
}
330
1F
100
AcDbEntity
  8
実線
100
AcDbLine
 10
562.6525841055999
 20
749.6868556831482
 30
0.0
 11
534.014759467545
 21
749.6868556831482
 31
0.0
  0
LINE
  5
F18
102
{ACAD_REACTORS
330
119B
102
}
330
1F
100
AcDbEntity
  8
実線
100
AcDbLine
 10
544.7627825415802
 20
734.4868556831482
 30
0.0
 11
555.014759467545
 21
719.9883708733132
 31
0.0
  0
LINE
  5
F19
102
{ACAD_REACTORS
330
119B
102
}
330
1F
100
AcDbEntity
  8
実線
100
AcDbLine
 10
534.014759467545
 20
749.6868556831482
 30
0.0
 11
544.4081577497468
 21
734.988370873313
 31
0.0
  0
LINE
  5
F1A
102
{ACAD_REACTORS
330
119B
102
}
330
1F
100
AcDbEntity
  8
実線
100
AcDbLine
 10
583.6525841055999
 20
719.9883708733132
 30
0.0
 11
555.014759467545
 21
719.9883708733132
 31
0.0
  0
LINE
  5
F1B
102
{ACAD_REACTORS
330
119B
102
}
330
1F
100
AcDbEntity
  8
実線
100
AcDbLine
 10
583.6525841055999
 20
719.9883708733132
 30
0.0
 11
562.6525841055999
 21
749.6868556831482
 31
0.0
  0
LINE
  5
F1C
102
{ACAD_REACTORS
330
119B
102
}
330
1F
100
AcDbEntity
  8
実線
100
AcDbLine
 10
517.0946278176997
 20
744.4883708733129
 30
0.0
 11
514.0946278176998
 21
744.4883708733129
 31
0.0
  0
LINE
  5
F1D
102
{ACAD_REACTORS
330
119B
102
}
330
1F
100
AcDbEntity
  8
実線
100
AcDbLine
 10
517.0946278176997
 20
737.988370873313
 30
0.0
 11
517.0946278176997
 21
744.4883708733129
 31
0.0
  0
LINE
  5
F1E
102
{ACAD_REACTORS
330
119B
102
}
330
1F
100
AcDbEntity
  8
実線
100
AcDbLine
 10
514.0946278176998
 20
744.4883708733129
 30
0.0
 11
514.0946278176998
 21
737.988370873313
 31
0.0
  0
LINE
  5
F1F
102
{ACAD_REACTORS
330
119B
102
}
330
1F
100
AcDbEntity
  8
実線
100
AcDbLine
 10
510.0084842463261
 20
712.988370873313
 30
0.0
 11
521.1807713890734
 21
712.988370873313
 31
0.0
  0
LINE
  5
F20
102
{ACAD_REACTORS
330
119B
102
}
330
1F
100
AcDbEntity
  8
実線
100
AcDbLine
 10
510.0084842463261
 20
737.988370873313
 30
0.0
 11
521.1807713890734
 21
737.988370873313
 31
0.0
  0
LINE
  5
F21
102
{ACAD_REACTORS
330
119B
102
}
330
1F
100
AcDbEntity
  8
実線
100
AcDbLine
 10
510.0084842463261
 20
737.988370873313
 30
0.0
 11
510.0084842463261
 21
712.988370873313
 31
0.0
  0
LINE
  5
F22
102
{ACAD_REACTORS
330
119B
102
}
330
1F
100
AcDbEntity
  8
実線
100
AcDbLine
 10
521.1807713890734
 20
724.8543240173699
 30
0.0
 11
521.1807713890734
 21
737.988370873313
 31
0.0
  0
LINE
  5
F23
102
{ACAD_REACTORS
330
119B
102
}
330
1F
100
AcDbEntity
  8
実線
100
AcDbLine
 10
521.1807713890734
 20
712.988370873313
 30
0.0
 11
521.1807713890734
 21
715.1224177292565
 31
0.0
  0
LINE
  5
F24
102
{ACAD_REACTORS
330
119B
102
}
330
1F
100
AcDbEntity
  8
実線
100
AcDbLine
 10
515.5946278176998
 20
712.988370873313
 30
0.0
 11
515.5946278176998
 21
737.988370873313
 31
0.0
  0
LINE
  5
F25
102
{ACAD_REACTORS
330
119B
102
}
330
1F
100
AcDbEntity
  8
実線
100
AcDbLine
 10
536.2572215877908
 20
744.4883708733129
 30
0.0
 11
533.2572215877908
 21
744.4883708733129
 31
0.0
  0
LINE
  5
F26
102
{ACAD_REACTORS
330
119B
102
}
330
1F
100
AcDbEntity
  8
実線
100
AcDbLine
 10
536.2572215877908
 20
737.988370873313
 30
0.0
 11
536.2572215877908
 21
744.4883708733129
 31
0.0
  0
LINE
  5
F27
102
{ACAD_REACTORS
330
119B
102
}
330
1F
100
AcDbEntity
  8
実線
100
AcDbLine
 10
533.2572215877908
 20
744.4883708733129
 30
0.0
 11
533.2572215877908
 21
737.988370873313
 31
0.0
  0
LINE
  5
F28
102
{ACAD_REACTORS
330
119B
102
}
330
1F
100
AcDbEntity
  8
実線
100
AcDbLine
 10
540.3433651591645
 20
734.988370873313
 30
0.0
 11
540.3433651591645
 21
737.988370873313
 31
0.0
  0
LINE
  5
F29
102
{ACAD_REACTORS
330
119B
102
}
330
1F
100
AcDbEntity
  8
実線
100
AcDbLine
 10
540.3433651591645
 20
737.988370873313
 30
0.0
 11
529.1710780164171
 21
737.988370873313
 31
0.0
  0
LINE
  5
F2A
102
{ACAD_REACTORS
330
119B
102
}
330
1F
100
AcDbEntity
  8
実線
100
AcDbLine
 10
534.7572215877907
 20
734.988370873313
 30
0.0
 11
534.7572215877907
 21
737.988370873313
 31
0.0
  0
LINE
  5
F2B
102
{ACAD_REACTORS
330
119B
102
}
330
1F
100
AcDbEntity
  8
実線
100
AcDbLine
 10
529.1710780164171
 20
712.988370873313
 30
0.0
 11
529.1710780164171
 21
737.988370873313
 31
0.0
  0
LINE
  5
F2C
102
{ACAD_REACTORS
330
119B
102
}
330
1F
100
AcDbEntity
  8
実線
100
AcDbLine
 10
529.1710780164171
 20
712.988370873313
 30
0.0
 11
531.1863323427983
 21
712.988370873313
 31
0.0
  0
LINE
  5
F2D
102
{ACAD_REACTORS
330
119B
102
}
330
1F
100
AcDbEntity
  8
実線
100
AcDbLine
 10
510.0084842463261
 20
734.988370873313
 30
0.0
 11
505.9426202544436
 21
734.988370873313
 31
0.0
  0
LINE
  5
F2E
102
{ACAD_REACTORS
330
119B
102
}
330
1F
100
AcDbEntity
  8
実線
100
AcDbLine
 10
523.2667363935738
 20
734.988370873313
 30
0.0
 11
521.1807713890734
 21
734.988370873313
 31
0.0
  0
LINE
  5
F2F
102
{ACAD_REACTORS
330
119B
102
}
330
1F
100
AcDbEntity
  8
実線
100
AcDbLine
 10
510.0084842463261
 20
712.988370873313
 30
0.0
 11
505.9426202544436
 21
712.988370873313
 31
0.0
  0
LINE
  5
F30
102
{ACAD_REACTORS
330
119B
102
}
330
1F
100
AcDbEntity
  8
実線
100
AcDbLine
 10
523.2667363935738
 20
712.988370873313
 30
0.0
 11
521.1807713890734
 21
712.988370873313
 31
0.0
  0
LINE
  5
F31
102
{ACAD_REACTORS
330
119B
102
}
330
1F
100
AcDbEntity
  8
実線
100
AcDbLine
 10
505.9426202544436
 20
712.988370873313
 30
0.0
 11
505.9426202544436
 21
734.988370873313
 31
0.0
  0
LINE
  5
F32
102
{ACAD_REACTORS
330
119B
102
}
330
1F
100
AcDbEntity
  8
実線
100
AcDbLine
 10
506.7911483918674
 20
734.988370873313
 30
0.0
 11
506.7911483918674
 21
712.988370873313
 31
0.0
  0
ELLIPSE
  5
F33
102
{ACAD_REACTORS
330
119B
102
}
330
1F
100
AcDbEntity
  8
実線
100
AcDbEllipse
 10
524.1152645309507
 20
719.9883708733132
 30
0.0
 11
0.0
 21
5.0
 31
0.0
210
0.0
220
0.0
230
1.0
 40
0.7071067811865478
 41
4.71238898038469
 42
6.283185307179585
  0
LINE
  5
F34
102
{ACAD_REACTORS
330
119B
102
}
330
1F
100
AcDbEntity
  8
実線
100
AcDbLine
 10
524.1152645309507
 20
724.9883708733132
 30
0.0
 11
521.9939441873907
 21
724.9883708733132
 31
0.0
  0
LINE
  5
F35
102
{ACAD_REACTORS
330
119B
102
}
330
1F
100
AcDbEntity
  8
実線
100
AcDbLine
 10
521.9939441873907
 20
714.9883708733132
 30
0.0
 11
524.1152645309507
 21
714.9883708733132
 31
0.0
  0
ELLIPSE
  5
F36
102
{ACAD_REACTORS
330
119B
102
}
330
1F
100
AcDbEntity
  8
実線
100
AcDbEllipse
 10
521.9939441873907
 20
719.9883708733132
 30
0.0
 11
-0.0000000000000036
 21
5.0
 31
0.0
210
0.0
220
0.0
230
1.0
 40
0.7071067811865478
 41
3.141592653589792
 42
6.283185307179585
  0
ELLIPSE
  5
F37
102
{ACAD_REACTORS
330
119B
102
}
330
1F
100
AcDbEntity
  8
実線
100
AcDbEllipse
 10
521.9939441873907
 20
719.9883708733132
 30
0.0
 11
-0.0000000000000036
 21
5.0
 31
0.0
210
0.0
220
0.0
230
1.0
 40
0.7071067811865478
 41
1.570796326794896
 42
3.141592653589792
  0
ELLIPSE
  5
F38
102
{ACAD_REACTORS
330
119B
102
}
330
1F
100
AcDbEntity
  8
実線
100
AcDbEllipse
 10
524.1152645309507
 20
719.9883708733132
 30
0.0
 11
0.0
 21
5.0
 31
0.0
210
0.0
220
0.0
230
1.0
 40
0.7071067811865478
 41
3.141592653589792
 42
4.71238898038469
  0
ELLIPSE
  5
F39
102
{ACAD_REACTORS
330
119B
102
}
330
1F
100
AcDbEntity
  8
実線
100
AcDbEllipse
 10
521.9939441873907
 20
719.9883708733132
 30
0.0
 11
-0.0000000000000036
 21
5.0
 31
0.0
210
0.0
220
0.0
230
1.0
 40
0.7071067811865478
 41
0.0
 42
1.570796326794896
  0
LINE
  5
F3A
102
{ACAD_REACTORS
330
119B
102
}
330
1F
100
AcDbEntity
  8
実線
100
AcDbLine
 10
653.8039819757964
 20
789.4883708733132
 30
0.0
 11
540.7976507916851
 21
789.4883708733132
 31
0.0
  0
LINE
  5
F3B
102
{ACAD_REACTORS
330
119B
102
}
330
1F
100
AcDbEntity
  8
実線
100
AcDbLine
 10
548.3008163837407
 20
809.4883708733132
 30
0.0
 11
548.3008163837407
 21
804.4883708733133
 31
0.0
  0
LINE
  5
F3C
102
{ACAD_REACTORS
330
119B
102
}
330
1F
100
AcDbEntity
  8
実線
100
AcDbLine
 10
646.3008163837407
 20
804.4883708733133
 30
0.0
 11
646.3008163837407
 21
809.4883708733132
 31
0.0
  0
LINE
  5
F3D
102
{ACAD_REACTORS
330
119B
102
}
330
1F
100
AcDbEntity
  8
実線
100
AcDbLine
 10
646.3008163837407
 20
809.4883708733132
 30
0.0
 11
548.3008163837407
 21
809.4883708733132
 31
0.0
  0
LINE
  5
F3E
102
{ACAD_REACTORS
330
119B
102
}
330
1F
100
AcDbEntity
  8
実線
100
AcDbLine
 10
540.7976507916851
 20
804.4883708733133
 30
0.0
 11
540.7976507916851
 21
789.4883708733132
 31
0.0
  0
LINE
  5
F3F
102
{ACAD_REACTORS
330
119B
102
}
330
1F
100
AcDbEntity
  8
実線
100
AcDbLine
 10
540.7976507916851
 20
804.4883708733133
 30
0.0
 11
574.9225730965977
 21
804.4883708733133
 31
0.0
  0
LINE
  5
F40
102
{ACAD_REACTORS
330
119B
102
}
330
1F
100
AcDbEntity
  8
実線
100
AcDbLine
 10
653.8039819757964
 20
804.4883708733133
 30
0.0
 11
619.6790596708837
 21
804.4883708733133
 31
0.0
  0
LINE
  5
F41
102
{ACAD_REACTORS
330
119B
102
}
330
1F
100
AcDbEntity
  8
実線
100
AcDbLine
 10
653.8039819757964
 20
789.4883708733132
 30
0.0
 11
653.8039819757964
 21
804.4883708733133
 31
0.0
  0
LINE
  5
F42
102
{ACAD_REACTORS
330
119B
102
}
330
1F
100
AcDbEntity
  8
実線
100
AcDbLine
 10
574.9225730965977
 20
804.4883708733133
 30
0.0
 11
574.9225730965977
 21
789.4883708733132
 31
0.0
  0
LINE
  5
F43
102
{ACAD_REACTORS
330
119B
102
}
330
1F
100
AcDbEntity
  8
実線
100
AcDbLine
 10
619.6790596708837
 20
804.4883708733133
 30
0.0
 11
619.6790596708837
 21
789.4883708733132
 31
0.0
  0
LINE
  5
F44
102
{ACAD_REACTORS
330
119B
102
}
330
1F
100
AcDbEntity
  8
実線
100
AcDbLine
 10
523.2667363935738
 20
724.9883708733132
 30
0.0
 11
523.2667363935738
 21
734.988370873313
 31
0.0
  0
LINE
  5
F45
102
{ACAD_REACTORS
330
119B
102
}
330
1F
100
AcDbEntity
  8
実線
100
AcDbLine
 10
523.2667363935738
 20
712.9883708733132
 30
0.0
 11
523.2667363935738
 21
714.9883708733132
 31
0.0
  0
LINE
  5
F46
102
{ACAD_REACTORS
330
119B
102
}
330
1F
100
AcDbEntity
  8
実線
100
AcDbLine
 10
529.1710780164171
 20
712.9883708733132
 30
0.0
 11
523.2667363935738
 21
712.9883708733132
 31
0.0
  0
LINE
  5
F47
102
{ACAD_REACTORS
330
119B
102
}
330
1F
100
AcDbEntity
  8
実線
100
AcDbLine
 10
523.2667363935738
 20
734.988370873313
 30
0.0
 11
529.1710780164171
 21
734.988370873313
 31
0.0
  0
LINE
  5
F48
102
{ACAD_REACTORS
330
119B
102
}
330
1F
100
AcDbEntity
  8
実線
100
AcDbLine
 10
653.8039819757964
 20
650.4883708733132
 30
0.0
 11
540.7976507916851
 21
650.4883708733132
 31
0.0
  0
LINE
  5
F49
102
{ACAD_REACTORS
330
119B
102
}
330
1F
100
AcDbEntity
  8
実線
100
AcDbLine
 10
646.3008163837407
 20
630.4883708733131
 30
0.0
 11
646.3008163837407
 21
635.4883708733132
 31
0.0
  0
LINE
  5
F4A
102
{ACAD_REACTORS
330
119B
102
}
330
1F
100
AcDbEntity
  8
実線
100
AcDbLine
 10
548.3008163837407
 20
635.4883708733132
 30
0.0
 11
548.3008163837407
 21
630.4883708733131
 31
0.0
  0
LINE
  5
F4B
102
{ACAD_REACTORS
330
119B
102
}
330
1F
100
AcDbEntity
  8
実線
100
AcDbLine
 10
548.3008163837407
 20
630.4883708733131
 30
0.0
 11
646.3008163837407
 21
630.4883708733131
 31
0.0
  0
LINE
  5
F4C
102
{ACAD_REACTORS
330
119B
102
}
330
1F
100
AcDbEntity
  8
実線
100
AcDbLine
 10
540.7976507916851
 20
635.4883708733132
 30
0.0
 11
574.9225730965977
 21
635.4883708733132
 31
0.0
  0
LINE
  5
F4D
102
{ACAD_REACTORS
330
119B
102
}
330
1F
100
AcDbEntity
  8
実線
100
AcDbLine
 10
540.7976507916851
 20
650.4883708733132
 30
0.0
 11
540.7976507916851
 21
635.4883708733132
 31
0.0
  0
LINE
  5
F4E
102
{ACAD_REACTORS
330
119B
102
}
330
1F
100
AcDbEntity
  8
実線
100
AcDbLine
 10
653.8039819757964
 20
635.4883708733132
 30
0.0
 11
653.8039819757964
 21
650.4883708733132
 31
0.0
  0
LINE
  5
F4F
102
{ACAD_REACTORS
330
119B
102
}
330
1F
100
AcDbEntity
  8
実線
100
AcDbLine
 10
653.8039819757964
 20
635.4883708733132
 30
0.0
 11
619.6790596708837
 21
635.4883708733132
 31
0.0
  0
LINE
  5
F50
102
{ACAD_REACTORS
330
119B
102
}
330
1F
100
AcDbEntity
  8
実線
100
AcDbLine
 10
619.6790596708837
 20
635.4883708733132
 30
0.0
 11
619.6790596708837
 21
650.4883708733132
 31
0.0
  0
LINE
  5
F51
102
{ACAD_REACTORS
330
119B
102
}
330
1F
100
AcDbEntity
  8
実線
100
AcDbLine
 10
574.9225730965977
 20
635.4883708733132
 30
0.0
 11
574.9225730965977
 21
650.4883708733132
 31
0.0
  0
LINE
  5
F52
102
{ACAD_REACTORS
330
119B
102
}
330
1F
100
AcDbEntity
  8
実線
100
AcDbLine
 10
549.8008163837408
 20
1061.988370873313
 30
0.0
 11
644.8008163837407
 21
1061.988370873313
 31
0.0
  0
ARC
  5
F53
102
{ACAD_REACTORS
330
119B
102
}
330
1F
100
AcDbEntity
  8
実線
100
AcDbCircle
 10
644.8008163837407
 20
1056.988370873313
 30
0.0
 40
5.0
100
AcDbArc
 50
0.0
 51
90.0
  0
ARC
  5
F54
102
{ACAD_REACTORS
330
119B
102
}
330
1F
100
AcDbEntity
  8
実線
100
AcDbCircle
 10
549.8008163837408
 20
1056.988370873313
 30
0.0
 40
5.0
100
AcDbArc
 50
90.0
 51
180.0
  0
LINE
  5
F55
102
{ACAD_REACTORS
330
119B
102
}
330
1F
100
AcDbEntity
  8
実線
100
AcDbLine
 10
544.8008163837407
 20
1056.988370873313
 30
0.0
 11
649.8008163837408
 21
1056.988370873313
 31
0.0
  0
LINE
  5
F56
102
{ACAD_REACTORS
330
119B
102
}
330
1F
100
AcDbEntity
  8
実線
100
AcDbLine
 10
638.5302898032382
 20
699.447317712308
 30
0.0
 11
633.8244637248062
 21
707.5980475717345
 31
0.0
  0
LINE
  5
F57
102
{ACAD_REACTORS
330
119B
102
}
330
1F
100
AcDbEntity
  8
実線
100
AcDbLine
 10
548.3008163837407
 20
670.447317712308
 30
0.0
 11
548.3008163837407
 21
665.4883708733132
 31
0.0
  0
LINE
  5
F58
102
{ACAD_REACTORS
330
119B
102
}
330
1F
100
AcDbEntity
  8
実線
100
AcDbLine
 10
646.3008163837407
 20
665.4883708733132
 30
0.0
 11
646.3008163837407
 21
670.447317712308
 31
0.0
  0
ARC
  5
F59
102
{ACAD_REACTORS
330
119B
102
}
330
1F
100
AcDbEntity
  8
実線
100
AcDbCircle
 10
588.3008163837407
 20
670.447317712308
 30
0.0
 40
58.0
100
AcDbArc
 50
0.0
 51
29.99999999999517
  0
ARC
  5
F5A
102
{ACAD_REACTORS
330
119B
102
}
330
1F
100
AcDbEntity
  8
実線
100
AcDbCircle
 10
606.3008163837407
 20
670.447317712308
 30
0.0
 40
58.0
100
AcDbArc
 50
159.9943230706032
 51
180.0
  0
LINE
  5
F5B
102
{ACAD_REACTORS
330
119B
102
}
330
1F
100
AcDbEntity
  8
実線
100
AcDbLine
 10
604.3008163837408
 20
337.9883708733133
 30
0.0
 11
604.3008163837408
 21
377.9883708733133
 31
0.0
  0
LINE
  5
F5C
102
{ACAD_REACTORS
330
119B
102
}
330
1F
100
AcDbEntity
  8
実線
100
AcDbLine
 10
562.3008163837408
 20
377.9883708733133
 30
0.0
 11
562.3008163837408
 21
376.7883708733133
 31
0.0
  0
LINE
  5
F5D
102
{ACAD_REACTORS
330
119B
102
}
330
1F
100
AcDbEntity
  8
実線
100
AcDbLine
 10
562.3008163837408
 20
376.7883708733133
 30
0.0
 11
577.3008163837407
 21
376.7883708733133
 31
0.0
  0
LINE
  5
F5E
102
{ACAD_REACTORS
330
119B
102
}
330
1F
100
AcDbEntity
  8
実線
100
AcDbLine
 10
577.3008163837407
 20
376.7883708733133
 30
0.0
 11
577.3008163837407
 21
337.9883708733133
 31
0.0
  0
LINE
  5
F5F
102
{ACAD_REACTORS
330
119B
102
}
330
1F
100
AcDbEntity
  8
実線
100
AcDbLine
 10
577.3008163837407
 20
337.9883708733133
 30
0.0
 11
604.3008163837408
 21
337.9883708733133
 31
0.0
  0
LINE
  5
F60
102
{ACAD_REACTORS
330
119B
102
}
330
1F
100
AcDbEntity
  8
実線
100
AcDbLine
 10
594.3008163837407
 20
377.9883708733133
 30
0.0
 11
594.3008163837407
 21
376.7883708733133
 31
0.0
  0
LINE
  5
F61
102
{ACAD_REACTORS
330
119B
102
}
330
1F
100
AcDbEntity
  8
実線
100
AcDbLine
 10
594.3008163837407
 20
376.7883708733133
 30
0.0
 11
604.3008163837408
 21
376.7883708733133
 31
0.0
  0
LINE
  5
F62
102
{ACAD_REACTORS
330
119B
102
}
330
1F
100
AcDbEntity
  8
実線
100
AcDbLine
 10
644.8008163837407
 20
377.9883708733132
 30
0.0
 11
549.8008163845074
 21
377.9883708733132
 31
0.0
  0
ARC
  5
F63
102
{ACAD_REACTORS
330
119B
102
}
330
1F
100
AcDbEntity
  8
実線
100
AcDbCircle
 10
549.8008163837408
 20
382.9883708733132
 30
0.0
 40
5.0
100
AcDbArc
 50
180.0
 51
270.0
  0
ARC
  5
F64
102
{ACAD_REACTORS
330
119B
102
}
330
1F
100
AcDbEntity
  8
実線
100
AcDbCircle
 10
644.8008163837407
 20
382.9883708733132
 30
0.0
 40
5.0
100
AcDbArc
 50
270.0
 51
0.0
  0
LINE
  5
F65
102
{ACAD_REACTORS
330
119B
102
}
330
1F
100
AcDbEntity
  8
実線
100
AcDbLine
 10
553.8008163837408
 20
1061.988370873313
 30
0.0
 11
553.8008163837408
 21
1063.188370873313
 31
0.0
  0
LINE
  5
F66
102
{ACAD_REACTORS
330
119B
102
}
330
1F
100
AcDbEntity
  8
実線
100
AcDbLine
 10
553.8008163837408
 20
1063.188370873313
 30
0.0
 11
582.8008163837408
 21
1063.188370873313
 31
0.0
  0
LINE
  5
F67
102
{ACAD_REACTORS
330
119B
102
}
330
1F
100
AcDbEntity
  8
実線
100
AcDbLine
 10
573.6008163837409
 20
1101.988370873313
 30
0.0
 11
573.6008163837409
 21
1061.988370873313
 31
0.0
  0
LINE
  5
F68
102
{ACAD_REACTORS
330
119B
102
}
330
1F
100
AcDbEntity
  8
実線
100
AcDbLine
 10
574.8008163837408
 20
1063.188370873313
 30
0.0
 11
574.8008163837408
 21
1101.988370873313
 31
0.0
  0
LINE
  5
F69
102
{ACAD_REACTORS
330
119B
102
}
330
1F
100
AcDbEntity
  8
実線
100
AcDbLine
 10
574.8008163837408
 20
1101.988370873313
 30
0.0
 11
573.6008163837409
 21
1101.988370873313
 31
0.0
  0
LINE
  5
F6A
102
{ACAD_REACTORS
330
119B
102
}
330
1F
100
AcDbEntity
  8
実線
100
AcDbLine
 10
582.8008163837408
 20
1061.988370873313
 30
0.0
 11
582.8008163837408
 21
1063.188370873313
 31
0.0
  0
LINE
  5
F6B
102
{ACAD_REACTORS
330
119A
102
}
330
1F
100
AcDbEntity
  8
実線
100
AcDbLine
 10
750.5388143321511
 20
734.9883708733131
 30
0.0
 11
763.6213611853427
 21
734.9883708733131
 31
0.0
  0
LINE
  5
F6C
102
{ACAD_REACTORS
330
119A
102
}
330
1F
100
AcDbEntity
  8
実線
100
AcDbLine
 10
750.5388143321511
 20
734.9883708733131
 30
0.0
 11
750.5388143321511
 21
712.9883708733131
 31
0.0
  0
LINE
  5
F6D
102
{ACAD_REACTORS
330
119A
102
}
330
1F
100
AcDbEntity
  8
実線
100
AcDbLine
 10
755.3008163837403
 20
712.9883708733131
 30
0.0
 11
750.5388143321511
 21
712.9883708733131
 31
0.0
  0
LINE
  5
F6E
102
{ACAD_REACTORS
330
119A
102
}
330
1F
100
AcDbEntity
  8
実線
100
AcDbLine
 10
763.2667363935088
 20
734.4868556831485
 30
0.0
 11
763.2667363935088
 21
734.9883708733131
 31
0.0
  0
LINE
  5
F6F
102
{ACAD_REACTORS
330
119A
102
}
330
1F
100
AcDbEntity
  8
実線
100
AcDbLine
 10
914.0008163837405
 20
710.8883708733133
 30
0.0
 11
887.9285905154565
 21
710.8883708733133
 31
0.0
  0
LINE
  5
F70
102
{ACAD_REACTORS
330
119A
102
}
330
1F
100
AcDbEntity
  8
実線
100
AcDbLine
 10
893.8039819757964
 20
660.0883708733134
 30
0.0
 11
914.0008163837405
 21
660.0883708733134
 31
0.0
  0
LINE
  5
F71
102
{ACAD_REACTORS
330
119A
102
}
330
1F
100
AcDbEntity
  8
実線
100
AcDbLine
 10
919.3008163837403
 20
717.4883708733133
 30
0.0
 11
916.4008163837406
 21
717.4883708733133
 31
0.0
  0
LINE
  5
F72
102
{ACAD_REACTORS
330
119A
102
}
330
1F
100
AcDbEntity
  8
実線
100
AcDbLine
 10
916.4008163837406
 20
653.4883708733133
 30
0.0
 11
919.3008163837403
 21
653.4883708733133
 31
0.0
  0
LINE
  5
F73
102
{ACAD_REACTORS
330
119A
102
}
330
1F
100
AcDbEntity
  8
実線
100
AcDbLine
 10
919.3008163837403
 20
653.4883708733133
 30
0.0
 11
919.3008163837403
 21
717.4883708733133
 31
0.0
  0
LINE
  5
F74
102
{ACAD_REACTORS
330
119A
102
}
330
1F
100
AcDbEntity
  8
実線
100
AcDbLine
 10
914.0008163837405
 20
660.0883708733134
 30
0.0
 11
916.4008163837406
 21
653.4883708733134
 31
0.0
  0
LINE
  5
F75
102
{ACAD_REACTORS
330
119A
102
}
330
1F
100
AcDbEntity
  8
実線
100
AcDbLine
 10
916.4008163837406
 20
717.4883708733133
 30
0.0
 11
914.0008163837405
 21
710.8883708733133
 31
0.0
  0
LINE
  5
F76
102
{ACAD_REACTORS
330
119A
102
}
330
1F
100
AcDbEntity
  8
実線
100
AcDbLine
 10
916.4008163837406
 20
653.4883708733133
 30
0.0
 11
916.4008163837406
 21
717.4883708733133
 31
0.0
  0
LINE
  5
F77
102
{ACAD_REACTORS
330
119A
102
}
330
1F
100
AcDbEntity
  8
実線
100
AcDbLine
 10
914.0008163837405
 20
660.0883708733134
 30
0.0
 11
914.0008163837405
 21
710.8883708733133
 31
0.0
  0
LINE
  5
F78
102
{ACAD_REACTORS
330
119A
102
}
330
1F
100
AcDbEntity
  8
実線
100
AcDbLine
 10
760.6008163837405
 20
660.0883708733134
 30
0.0
 11
780.7976507916846
 21
660.0883708733134
 31
0.0
  0
LINE
  5
F79
102
{ACAD_REACTORS
330
119A
102
}
330
1F
100
AcDbEntity
  8
実線
100
AcDbLine
 10
795.8857743613962
 20
710.8883708733133
 30
0.0
 11
760.6008163837405
 21
710.8883708733133
 31
0.0
  0
LINE
  5
F7A
102
{ACAD_REACTORS
330
119A
102
}
330
1F
100
AcDbEntity
  8
実線
100
AcDbLine
 10
755.3008163837403
 20
717.4883708733133
 30
0.0
 11
755.3008163837403
 21
653.4883708733133
 31
0.0
  0
LINE
  5
F7B
102
{ACAD_REACTORS
330
119A
102
}
330
1F
100
AcDbEntity
  8
実線
100
AcDbLine
 10
755.3008163837403
 20
653.4883708733133
 30
0.0
 11
758.2008163837408
 21
653.4883708733133
 31
0.0
  0
LINE
  5
F7C
102
{ACAD_REACTORS
330
119A
102
}
330
1F
100
AcDbEntity
  8
実線
100
AcDbLine
 10
758.2008163837408
 20
717.4883708733133
 30
0.0
 11
755.3008163837403
 21
717.4883708733133
 31
0.0
  0
LINE
  5
F7D
102
{ACAD_REACTORS
330
119A
102
}
330
1F
100
AcDbEntity
  8
実線
100
AcDbLine
 10
758.2008163837408
 20
717.4883708733133
 30
0.0
 11
758.2008163837408
 21
653.4883708733133
 31
0.0
  0
LINE
  5
F7E
102
{ACAD_REACTORS
330
119A
102
}
330
1F
100
AcDbEntity
  8
実線
100
AcDbLine
 10
760.6008163837405
 20
710.8883708733133
 30
0.0
 11
760.6008163837405
 21
660.0883708733134
 31
0.0
  0
LINE
  5
F7F
102
{ACAD_REACTORS
330
119A
102
}
330
1F
100
AcDbEntity
  8
実線
100
AcDbLine
 10
760.6008163837405
 20
710.8883708733133
 30
0.0
 11
758.2008163837408
 21
717.4883708733131
 31
0.0
  0
LINE
  5
F80
102
{ACAD_REACTORS
330
119A
102
}
330
1F
100
AcDbEntity
  8
実線
100
AcDbLine
 10
758.2008163837408
 20
653.4883708733133
 30
0.0
 11
760.6008163837405
 21
660.0883708733134
 31
0.0
  0
LINE
  5
F81
102
{ACAD_REACTORS
330
119A
102
}
330
1F
100
AcDbEntity
  8
実線
100
AcDbLine
 10
780.7976507916846
 20
665.4883708733133
 30
0.0
 11
893.8039819757964
 21
665.4883708733133
 31
0.0
  0
LINE
  5
F82
102
{ACAD_REACTORS
330
119A
102
}
330
1F
100
AcDbEntity
  8
実線
100
AcDbLine
 10
780.7976507916846
 20
650.4883708733133
 30
0.0
 11
893.8039819757964
 21
650.4883708733133
 31
0.0
  0
LINE
  5
F83
102
{ACAD_REACTORS
330
119A
102
}
330
1F
100
AcDbEntity
  8
実線
100
AcDbLine
 10
893.8039819757964
 20
650.4883708733133
 30
0.0
 11
893.8039819757964
 21
665.4883708733133
 31
0.0
  0
LINE
  5
F84
102
{ACAD_REACTORS
330
119A
102
}
330
1F
100
AcDbEntity
  8
実線
100
AcDbLine
 10
780.7976507916846
 20
665.4883708733133
 30
0.0
 11
780.7976507916846
 21
650.4883708733133
 31
0.0
  0
LINE
  5
F85
102
{ACAD_REACTORS
330
119A
102
}
330
1F
100
AcDbEntity
  8
実線
100
AcDbLine
 10
814.9225730965973
 20
650.4883708733133
 30
0.0
 11
814.9225730965973
 21
665.4883708733133
 31
0.0
  0
LINE
  5
F86
102
{ACAD_REACTORS
330
119A
102
}
330
1F
100
AcDbEntity
  8
実線
100
AcDbLine
 10
859.6790596708833
 20
650.4883708733133
 30
0.0
 11
859.6790596708833
 21
665.4883708733133
 31
0.0
  0
CIRCLE
  5
F87
102
{ACAD_REACTORS
330
119A
102
}
330
1F
100
AcDbEntity
  8
実線
100
AcDbCircle
 10
837.3008163837402
 20
754.4883708733133
 30
0.0
 40
32.0
  0
LINE
  5
F88
102
{ACAD_REACTORS
330
119A
102
}
330
1F
100
AcDbEntity
  8
実線
100
AcDbLine
 10
894.3632622242544
 20
719.9883708733133
 30
0.0
 11
873.3632622242543
 21
749.6868556831483
 31
0.0
  0
LINE
  5
F89
102
{ACAD_REACTORS
330
119A
102
}
330
1F
100
AcDbEntity
  8
実線
100
AcDbLine
 10
873.3632622242543
 20
690.2898860634783
 30
0.0
 11
894.3632622242544
 21
719.9883708733133
 31
0.0
  0
LINE
  5
F8A
102
{ACAD_REACTORS
330
119A
102
}
330
1F
100
AcDbEntity
  8
実線
100
AcDbLine
 10
869.4743207680907
 20
690.2898860634783
 30
0.0
 11
873.3632622242543
 21
690.2898860634783
 31
0.0
  0
LINE
  5
F8B
102
{ACAD_REACTORS
330
119A
102
}
330
1F
100
AcDbEntity
  8
実線
100
AcDbLine
 10
873.3632622242543
 20
690.2898860634783
 30
0.0
 11
852.3632622242544
 21
719.9883708733133
 31
0.0
  0
LINE
  5
F8C
102
{ACAD_REACTORS
330
119A
102
}
330
1F
100
AcDbEntity
  8
実線
100
AcDbLine
 10
788.0872558143973
 20
710.8883708733133
 30
0.0
 11
781.6525841056
 21
719.9883708733133
 31
0.0
  0
LINE
  5
F8D
102
{ACAD_REACTORS
330
119A
102
}
330
1F
100
AcDbEntity
  8
実線
100
AcDbLine
 10
781.6525841056
 20
719.9883708733133
 30
0.0
 11
796.1189705037327
 21
740.4469307160828
 31
0.0
  0
LINE
  5
F8E
102
{ACAD_REACTORS
330
119A
102
}
330
1F
100
AcDbEntity
  8
実線
100
AcDbLine
 10
793.1066425595814
 20
719.9883708733133
 30
0.0
 11
781.6525841056
 21
719.9883708733133
 31
0.0
  0
LINE
  5
F8F
102
{ACAD_REACTORS
330
119A
102
}
330
1F
100
AcDbEntity
  8
実線
100
AcDbLine
 10
852.3632622242544
 20
719.9883708733133
 30
0.0
 11
838.3008163837402
 21
719.9883708733133
 31
0.0
  0
LINE
  5
F90
102
{ACAD_REACTORS
330
119A
102
}
330
1F
100
AcDbEntity
  8
実線
100
AcDbLine
 10
873.3632622242543
 20
749.6868556831483
 30
0.0
 11
852.3632622242544
 21
719.9883708733133
 31
0.0
  0
LINE
  5
F91
102
{ACAD_REACTORS
330
119A
102
}
330
1F
100
AcDbEntity
  8
実線
100
AcDbLine
 10
869.4743207680907
 20
749.6868556831483
 30
0.0
 11
873.3632622242543
 21
749.6868556831483
 31
0.0
  0
LINE
  5
F92
102
{ACAD_REACTORS
330
119A
102
}
330
1F
100
AcDbEntity
  8
実線
100
AcDbLine
 10
801.9454773244133
 20
707.4883708733133
 30
0.0
 11
811.4299223505726
 21
707.4883708733133
 31
0.0
  0
LINE
  5
F93
102
{ACAD_REACTORS
330
119A
102
}
330
1F
100
AcDbEntity
  8
実線
100
AcDbLine
 10
811.4299223505726
 20
732.4883708733133
 30
0.0
 11
801.9454773244133
 21
732.4883708733133
 31
0.0
  0
ELLIPSE
  5
F94
102
{ACAD_REACTORS
330
119A
102
}
330
1F
100
AcDbEntity
  8
実線
100
AcDbEllipse
 10
801.9454773244133
 20
719.9883708733133
 30
0.0
 11
0.0
 21
12.5
 31
0.0
210
0.0
220
0.0
230
1.0
 40
0.7071067811865476
 41
3.141592653589792
 42
6.283185307179585
  0
ELLIPSE
  5
F95
102
{ACAD_REACTORS
330
119A
102
}
330
1F
100
AcDbEntity
  8
実線
100
AcDbEllipse
 10
801.9454773244133
 20
719.9883708733133
 30
0.0
 11
0.0
 21
12.5
 31
0.0
210
0.0
220
0.0
230
1.0
 40
0.7071067811865476
 41
1.570796326794897
 42
3.141592653589792
  0
ELLIPSE
  5
F96
102
{ACAD_REACTORS
330
119A
102
}
330
1F
100
AcDbEntity
  8
実線
100
AcDbEllipse
 10
801.9454773244133
 20
719.9883708733133
 30
0.0
 11
0.0
 21
12.5
 31
0.0
210
0.0
220
0.0
230
1.0
 40
0.7071067811865476
 41
0.0
 42
1.570796326794897
  0
LINE
  5
F97
102
{ACAD_REACTORS
330
119A
102
}
330
1F
100
AcDbEntity
  8
実線
100
AcDbLine
 10
813.6972441956141
 20
708.9883708733133
 30
0.0
 11
821.4267549444011
 21
708.9883708733133
 31
0.0
  0
LINE
  5
F98
102
{ACAD_REACTORS
330
119A
102
}
330
1F
100
AcDbEntity
  8
実線
100
AcDbLine
 10
815.5810097547673
 20
730.9883708733133
 30
0.0
 11
813.6972441956141
 21
730.9883708733133
 31
0.0
  0
ELLIPSE
  5
F99
102
{ACAD_REACTORS
330
119A
102
}
330
1F
100
AcDbEntity
  8
実線
100
AcDbEllipse
 10
882.5556503796796
 20
719.9883708733133
 30
0.0
 11
0.0
 21
17.0
 31
0.0
210
0.0
220
0.0
230
1.0
 40
0.7071067811865476
 41
4.147533065690498
 42
6.283185307179585
  0
LINE
  5
F9A
102
{ACAD_REACTORS
330
119A
102
}
330
1F
100
AcDbEntity
  8
実線
100
AcDbLine
 10
882.5556503796796
 20
736.9883708733133
 30
0.0
 11
882.3424469440833
 21
736.9883708733133
 31
0.0
  0
ELLIPSE
  5
F9B
102
{ACAD_REACTORS
330
119A
102
}
330
1F
100
AcDbEntity
  8
実線
100
AcDbEllipse
 10
881.0353708001285
 20
719.9883708733133
 30
0.0
 11
0.0
 21
17.0
 31
0.0
210
0.0
220
0.0
230
1.0
 40
0.7071067811865476
 41
4.828064086204744
 42
6.167510201359531
  0
ELLIPSE
  5
F9C
102
{ACAD_REACTORS
330
119A
102
}
330
1F
100
AcDbEntity
  8
実線
100
AcDbEllipse
 10
881.0353708001285
 20
719.9883708733133
 30
0.0
 11
0.0
 21
17.0
 31
0.0
210
0.0
220
0.0
230
1.0
 40
0.7071067811865476
 41
4.147533065690498
 42
4.596713874564632
  0
LINE
  5
F9D
102
{ACAD_REACTORS
330
119A
102
}
330
1F
100
AcDbEntity
  8
実線
100
AcDbLine
 10
893.8039819757964
 20
789.4883708733133
 30
0.0
 11
780.7976507916846
 21
789.4883708733133
 31
0.0
  0
LINE
  5
F9E
102
{ACAD_REACTORS
330
119A
102
}
330
1F
100
AcDbEntity
  8
実線
100
AcDbLine
 10
780.7976507916846
 20
789.4883708733133
 30
0.0
 11
780.7976507916846
 21
774.4883708733133
 31
0.0
  0
LINE
  5
F9F
102
{ACAD_REACTORS
330
119A
102
}
330
1F
100
AcDbEntity
  8
実線
100
AcDbLine
 10
780.7976507916846
 20
774.4883708733133
 30
0.0
 11
812.3208243901471
 21
774.4883708733133
 31
0.0
  0
LINE
  5
FA0
102
{ACAD_REACTORS
330
119A
102
}
330
1F
100
AcDbEntity
  8
実線
100
AcDbLine
 10
893.8039819757964
 20
774.4883708733133
 30
0.0
 11
862.2808083773342
 21
774.4883708733133
 31
0.0
  0
LINE
  5
FA1
102
{ACAD_REACTORS
330
119A
102
}
330
1F
100
AcDbEntity
  8
実線
100
AcDbLine
 10
893.8039819757964
 20
774.4883708733133
 30
0.0
 11
893.8039819757964
 21
789.4883708733133
 31
0.0
  0
LINE
  5
FA2
102
{ACAD_REACTORS
330
119A
102
}
330
1F
100
AcDbEntity
  8
実線
100
AcDbLine
 10
859.6790596708833
 20
789.4883708733133
 30
0.0
 11
859.6790596708833
 21
777.36224740051
 31
0.0
  0
LINE
  5
FA3
102
{ACAD_REACTORS
330
119A
102
}
330
1F
100
AcDbEntity
  8
実線
100
AcDbLine
 10
814.9225730965973
 20
789.4883708733133
 30
0.0
 11
814.9225730965973
 21
777.36224740051
 31
0.0
  0
LINE
  5
FA4
102
{ACAD_REACTORS
330
119A
102
}
330
1F
100
AcDbEntity
  8
実線
100
AcDbLine
 10
886.3008163837408
 20
809.4883708733133
 30
0.0
 11
886.3008163837408
 21
993.4261930468222
 31
0.0
  0
LINE
  5
FA5
102
{ACAD_REACTORS
330
119A
102
}
330
1F
100
AcDbEntity
  8
実線
100
AcDbLine
 10
788.3008163837407
 20
993.4261930468222
 30
0.0
 11
788.3008163837407
 21
809.4883708733133
 31
0.0
  0
LINE
  5
FA6
102
{ACAD_REACTORS
330
119A
102
}
330
1F
100
AcDbEntity
  8
実線
100
AcDbLine
 10
886.3008163837408
 20
993.4261930468222
 30
0.0
 11
788.3008163837407
 21
993.4261930468222
 31
0.0
  0
LINE
  5
FA7
102
{ACAD_REACTORS
330
119A
102
}
330
1F
100
AcDbEntity
  8
実線
100
AcDbLine
 10
886.3008163837408
 20
993.4261930468222
 30
0.0
 11
889.8008163837408
 21
999.4883708733134
 31
0.0
  0
LINE
  5
FA8
102
{ACAD_REACTORS
330
119A
102
}
330
1F
100
AcDbEntity
  8
実線
100
AcDbLine
 10
784.8008163837407
 20
999.4883708733134
 30
0.0
 11
788.3008163837407
 21
993.4261930468222
 31
0.0
  0
LINE
  5
FA9
102
{ACAD_REACTORS
330
119A
102
}
330
1F
100
AcDbEntity
  8
実線
100
AcDbLine
 10
889.8008163837408
 20
999.4883708733134
 30
0.0
 11
784.8008163837407
 21
999.4883708733134
 31
0.0
  0
LINE
  5
FAA
102
{ACAD_REACTORS
330
119A
102
}
330
1F
100
AcDbEntity
  8
実線
100
AcDbLine
 10
889.8008163837408
 20
1056.988370873313
 30
0.0
 11
784.8008163837407
 21
1056.988370873313
 31
0.0
  0
LINE
  5
FAB
102
{ACAD_REACTORS
330
119A
102
}
330
1F
100
AcDbEntity
  8
実線
100
AcDbLine
 10
889.8008163837408
 20
999.4883708733134
 30
0.0
 11
889.8008163837408
 21
1056.988370873313
 31
0.0
  0
LINE
  5
FAC
102
{ACAD_REACTORS
330
119A
102
}
330
1F
100
AcDbEntity
  8
実線
100
AcDbLine
 10
784.8008163837407
 20
1056.988370873313
 30
0.0
 11
784.8008163837407
 21
999.4883708733134
 31
0.0
  0
LINE
  5
FAD
102
{ACAD_REACTORS
330
119A
102
}
330
1F
100
AcDbEntity
  8
実線
100
AcDbLine
 10
788.3008163837403
 20
630.4883708733133
 30
0.0
 11
788.3008163837403
 21
446.5505486998043
 31
0.0
  0
LINE
  5
FAE
102
{ACAD_REACTORS
330
119A
102
}
330
1F
100
AcDbEntity
  8
実線
100
AcDbLine
 10
886.3008163837402
 20
446.5505486998043
 30
0.0
 11
886.3008163837402
 21
630.4883708733133
 31
0.0
  0
LINE
  5
FAF
102
{ACAD_REACTORS
330
119A
102
}
330
1F
100
AcDbEntity
  8
実線
100
AcDbLine
 10
788.3008163837403
 20
446.5505486998043
 30
0.0
 11
784.8008163837403
 21
440.4883708733133
 31
0.0
  0
LINE
  5
FB0
102
{ACAD_REACTORS
330
119A
102
}
330
1F
100
AcDbEntity
  8
実線
100
AcDbLine
 10
889.8008163837403
 20
440.4883708733133
 30
0.0
 11
886.3008163837402
 21
446.5505486998043
 31
0.0
  0
LINE
  5
FB1
102
{ACAD_REACTORS
330
119A
102
}
330
1F
100
AcDbEntity
  8
実線
100
AcDbLine
 10
886.3008163837402
 20
446.5505486998043
 30
0.0
 11
788.3008163837403
 21
446.5505486998043
 31
0.0
  0
LINE
  5
FB2
102
{ACAD_REACTORS
330
119A
102
}
330
1F
100
AcDbEntity
  8
実線
100
AcDbLine
 10
784.8008163837403
 20
440.4883708733133
 30
0.0
 11
784.8008163837403
 21
382.9883708733133
 31
0.0
  0
LINE
  5
FB3
102
{ACAD_REACTORS
330
119A
102
}
330
1F
100
AcDbEntity
  8
実線
100
AcDbLine
 10
889.8008163837403
 20
382.9883708733133
 30
0.0
 11
889.8008163837403
 21
440.4883708733133
 31
0.0
  0
LINE
  5
FB4
102
{ACAD_REACTORS
330
119A
102
}
330
1F
100
AcDbEntity
  8
実線
100
AcDbLine
 10
889.8008163837403
 20
440.4883708733133
 30
0.0
 11
784.8008163837403
 21
440.4883708733133
 31
0.0
  0
LINE
  5
FB5
102
{ACAD_REACTORS
330
119A
102
}
330
1F
100
AcDbEntity
  8
実線
100
AcDbLine
 10
889.8008163837403
 20
382.9883708733133
 30
0.0
 11
784.8008163837403
 21
382.9883708733133
 31
0.0
  0
LINE
  5
FB6
102
{ACAD_REACTORS
330
119A
102
}
330
1F
100
AcDbEntity
  8
実線
100
AcDbLine
 10
848.3008163837407
 20
1061.988370873313
 30
0.0
 11
848.3008163837407
 21
1085.188370873313
 31
0.0
  0
LINE
  5
FB7
102
{ACAD_REACTORS
330
119A
102
}
330
1F
100
AcDbEntity
  8
実線
100
AcDbLine
 10
826.3008163837408
 20
1085.188370873313
 30
0.0
 11
826.3008163837408
 21
1061.988370873313
 31
0.0
  0
LINE
  5
FB8
102
{ACAD_REACTORS
330
119A
102
}
330
1F
100
AcDbEntity
  8
実線
100
AcDbLine
 10
823.3008163837407
 20
1095.188370873313
 30
0.0
 11
851.3008163837408
 21
1095.188370873313
 31
0.0
  0
LINE
  5
FB9
102
{ACAD_REACTORS
330
119A
102
}
330
1F
100
AcDbEntity
  8
実線
100
AcDbLine
 10
851.3008163837408
 20
1085.188370873313
 30
0.0
 11
851.3008163837408
 21
1095.188370873313
 31
0.0
  0
LINE
  5
FBA
102
{ACAD_REACTORS
330
119A
102
}
330
1F
100
AcDbEntity
  8
実線
100
AcDbLine
 10
823.3008163837407
 20
1095.188370873313
 30
0.0
 11
823.3008163837407
 21
1085.188370873313
 31
0.0
  0
LINE
  5
FBB
102
{ACAD_REACTORS
330
119A
102
}
330
1F
100
AcDbEntity
  8
実線
100
AcDbLine
 10
823.3008163837407
 20
1085.188370873313
 30
0.0
 11
851.3008163837408
 21
1085.188370873313
 31
0.0
  0
LINE
  5
FBC
102
{ACAD_REACTORS
330
119A
102
}
330
1F
100
AcDbEntity
  8
実線
100
AcDbLine
 10
819.3008163837408
 20
1093.488370873313
 30
0.0
 11
812.8008163837407
 21
1093.488370873313
 31
0.0
  0
LINE
  5
FBD
102
{ACAD_REACTORS
330
119A
102
}
330
1F
100
AcDbEntity
  8
実線
100
AcDbLine
 10
812.8008163837407
 20
1090.488370873313
 30
0.0
 11
819.3008163837408
 21
1090.488370873313
 31
0.0
  0
LINE
  5
FBE
102
{ACAD_REACTORS
330
119A
102
}
330
1F
100
AcDbEntity
  8
実線
100
AcDbLine
 10
812.8008163837407
 20
1093.488370873313
 30
0.0
 11
812.8008163837407
 21
1090.488370873313
 31
0.0
  0
LINE
  5
FBF
102
{ACAD_REACTORS
330
119A
102
}
330
1F
100
AcDbEntity
  8
実線
100
AcDbLine
 10
819.3008163837408
 20
1073.488370873313
 30
0.0
 11
812.8008163837407
 21
1073.488370873313
 31
0.0
  0
LINE
  5
FC0
102
{ACAD_REACTORS
330
119A
102
}
330
1F
100
AcDbEntity
  8
実線
100
AcDbLine
 10
812.8008163837407
 20
1070.488370873313
 30
0.0
 11
819.3008163837408
 21
1070.488370873313
 31
0.0
  0
LINE
  5
FC1
102
{ACAD_REACTORS
330
119A
102
}
330
1F
100
AcDbEntity
  8
実線
100
AcDbLine
 10
812.8008163837407
 20
1073.488370873313
 30
0.0
 11
812.8008163837407
 21
1070.488370873313
 31
0.0
  0
LINE
  5
FC2
102
{ACAD_REACTORS
330
119A
102
}
330
1F
100
AcDbEntity
  8
実線
100
AcDbLine
 10
826.3008163837408
 20
1075.938370873313
 30
0.0
 11
819.3008163837408
 21
1075.938370873313
 31
0.0
  0
LINE
  5
FC3
102
{ACAD_REACTORS
330
119A
102
}
330
1F
100
AcDbEntity
  8
実線
100
AcDbLine
 10
819.3008163837408
 20
1075.938370873313
 30
0.0
 11
819.3008163837408
 21
1068.038370873313
 31
0.0
  0
LINE
  5
FC4
102
{ACAD_REACTORS
330
119A
102
}
330
1F
100
AcDbEntity
  8
実線
100
AcDbLine
 10
826.3008163837408
 20
1068.038370873313
 30
0.0
 11
819.3008163837408
 21
1068.038370873313
 31
0.0
  0
LINE
  5
FC5
102
{ACAD_REACTORS
330
119A
102
}
330
1F
100
AcDbEntity
  8
実線
100
AcDbLine
 10
844.3008163837408
 20
1095.188370873313
 30
0.0
 11
844.3008163837408
 21
1095.938370873313
 31
0.0
  0
LINE
  5
FC6
102
{ACAD_REACTORS
330
119A
102
}
330
1F
100
AcDbEntity
  8
実線
100
AcDbLine
 10
844.3008163837408
 20
1095.938370873313
 30
0.0
 11
819.3008163837408
 21
1095.938370873313
 31
0.0
  0
LINE
  5
FC7
102
{ACAD_REACTORS
330
119A
102
}
330
1F
100
AcDbEntity
  8
実線
100
AcDbLine
 10
819.3008163837408
 20
1095.938370873313
 30
0.0
 11
819.3008163837408
 21
1088.038370873313
 31
0.0
  0
LINE
  5
FC8
102
{ACAD_REACTORS
330
119A
102
}
330
1F
100
AcDbEntity
  8
実線
100
AcDbLine
 10
823.3008163837407
 20
1088.038370873313
 30
0.0
 11
819.3008163837408
 21
1088.038370873313
 31
0.0
  0
LINE
  5
FC9
102
{ACAD_REACTORS
330
119A
102
}
330
1F
100
AcDbEntity
  8
実線
100
AcDbLine
 10
822.7008163837403
 20
351.9383708733134
 30
0.0
 11
822.7008163837403
 21
344.0383708733133
 31
0.0
  0
LINE
  5
FCA
102
{ACAD_REACTORS
330
119A
102
}
330
1F
100
AcDbEntity
  8
実線
100
AcDbLine
 10
822.7008163837403
 20
344.0383708733133
 30
0.0
 11
814.8008163837403
 21
344.0383708733133
 31
0.0
  0
LINE
  5
FCB
102
{ACAD_REACTORS
330
119A
102
}
330
1F
100
AcDbEntity
  8
実線
100
AcDbLine
 10
814.8008163837403
 20
351.9383708733134
 30
0.0
 11
822.7008163837403
 21
351.9383708733134
 31
0.0
  0
LINE
  5
FCC
102
{ACAD_REACTORS
330
119A
102
}
330
1F
100
AcDbEntity
  8
実線
100
AcDbLine
 10
814.8008163837403
 20
371.9383708733133
 30
0.0
 11
822.7008163837403
 21
371.9383708733133
 31
0.0
  0
LINE
  5
FCD
102
{ACAD_REACTORS
330
119A
102
}
330
1F
100
AcDbEntity
  8
実線
100
AcDbLine
 10
822.7008163837403
 20
364.0383708733133
 30
0.0
 11
814.8008163837403
 21
364.0383708733133
 31
0.0
  0
LINE
  5
FCE
102
{ACAD_REACTORS
330
119A
102
}
330
1F
100
AcDbEntity
  8
実線
100
AcDbLine
 10
822.7008163837403
 20
371.9383708733133
 30
0.0
 11
822.7008163837403
 21
364.0383708733133
 31
0.0
  0
LINE
  5
FCF
102
{ACAD_REACTORS
330
119A
102
}
330
1F
100
AcDbEntity
  8
実線
100
AcDbLine
 10
823.3008163837403
 20
354.7883708733134
 30
0.0
 11
851.3008163837403
 21
354.7883708733134
 31
0.0
  0
LINE
  5
FD0
102
{ACAD_REACTORS
330
119A
102
}
330
1F
100
AcDbEntity
  8
実線
100
AcDbLine
 10
823.3008163837403
 20
354.7883708733134
 30
0.0
 11
823.3008163837403
 21
344.7883708733133
 31
0.0
  0
LINE
  5
FD1
102
{ACAD_REACTORS
330
119A
102
}
330
1F
100
AcDbEntity
  8
実線
100
AcDbLine
 10
851.3008163837403
 20
344.7883708733133
 30
0.0
 11
851.3008163837403
 21
354.7883708733134
 31
0.0
  0
LINE
  5
FD2
102
{ACAD_REACTORS
330
119A
102
}
330
1F
100
AcDbEntity
  8
実線
100
AcDbLine
 10
823.3008163837403
 20
344.7883708733133
 30
0.0
 11
851.3008163837403
 21
344.7883708733133
 31
0.0
  0
LINE
  5
FD3
102
{ACAD_REACTORS
330
119A
102
}
330
1F
100
AcDbEntity
  8
実線
100
AcDbLine
 10
826.3008163837403
 20
377.9883708733133
 30
0.0
 11
826.3008163837403
 21
354.7883708733134
 31
0.0
  0
LINE
  5
FD4
102
{ACAD_REACTORS
330
119A
102
}
330
1F
100
AcDbEntity
  8
実線
100
AcDbLine
 10
848.3008163837403
 20
354.7883708733134
 30
0.0
 11
848.3008163837403
 21
377.9883708733133
 31
0.0
  0
LINE
  5
FD5
102
{ACAD_REACTORS
330
119A
102
}
330
1F
100
AcDbEntity
  8
実線
100
AcDbLine
 10
753.0147594675445
 20
719.9883708733133
 30
0.0
 11
755.3008163837403
 21
716.7553981780721
 31
0.0
  0
LINE
  5
FD6
102
{ACAD_REACTORS
330
119A
102
}
330
1F
100
AcDbEntity
  8
実線
100
AcDbLine
 10
791.8006101343221
 20
749.6868556831483
 30
0.0
 11
774.0147594675445
 21
749.6868556831483
 31
0.0
  0
LINE
  5
FD7
102
{ACAD_REACTORS
330
119A
102
}
330
1F
100
AcDbEntity
  8
実線
100
AcDbLine
 10
753.0147594675445
 20
719.9883708733133
 30
0.0
 11
774.0147594675445
 21
749.6868556831483
 31
0.0
  0
LINE
  5
FD8
102
{ACAD_REACTORS
330
119A
102
}
330
1F
100
AcDbEntity
  8
実線
100
AcDbLine
 10
781.6525841056
 20
719.9883708733133
 30
0.0
 11
753.0147594675445
 21
719.9883708733133
 31
0.0
  0
LINE
  5
FD9
102
{ACAD_REACTORS
330
119A
102
}
330
1F
100
AcDbEntity
  8
実線
100
AcDbLine
 10
768.30747411942
 20
744.488370873313
 30
0.0
 11
770.3388756066151
 21
744.488370873313
 31
0.0
  0
LINE
  5
FDA
102
{ACAD_REACTORS
330
119A
102
}
330
1F
100
AcDbEntity
  8
実線
100
AcDbLine
 10
768.30747411942
 20
744.488370873313
 30
0.0
 11
768.30747411942
 21
741.6155353394976
 31
0.0
  0
LINE
  5
FDB
102
{ACAD_REACTORS
330
119A
102
}
330
1F
100
AcDbEntity
  8
実線
100
AcDbLine
 10
759.0443752859409
 20
744.488370873313
 30
0.0
 11
762.044375285941
 21
744.488370873313
 31
0.0
  0
LINE
  5
FDC
102
{ACAD_REACTORS
330
119A
102
}
330
1F
100
AcDbEntity
  8
実線
100
AcDbLine
 10
762.044375285941
 20
737.9883708733131
 30
0.0
 11
762.044375285941
 21
744.488370873313
 31
0.0
  0
LINE
  5
FDD
102
{ACAD_REACTORS
330
119A
102
}
330
1F
100
AcDbEntity
  8
実線
100
AcDbLine
 10
759.0443752859409
 20
744.488370873313
 30
0.0
 11
759.0443752859409
 21
737.9883708733131
 31
0.0
  0
LINE
  5
FDE
102
{ACAD_REACTORS
330
119A
102
}
330
1F
100
AcDbEntity
  8
実線
100
AcDbLine
 10
754.9582317145673
 20
737.9883708733131
 30
0.0
 11
765.7426815289023
 21
737.9883708733131
 31
0.0
  0
LINE
  5
FDF
102
{ACAD_REACTORS
330
119A
102
}
330
1F
100
AcDbEntity
  8
実線
100
AcDbLine
 10
754.9582317145673
 20
734.9883708733131
 30
0.0
 11
754.9582317145673
 21
737.9883708733131
 31
0.0
  0
LINE
  5
FE0
102
{ACAD_REACTORS
330
119A
102
}
330
1F
100
AcDbEntity
  8
実線
100
AcDbLine
 10
760.5443752859409
 20
734.9883708733131
 30
0.0
 11
760.5443752859409
 21
737.9883708733131
 31
0.0
  0
LINE
  5
FE1
102
{ACAD_REACTORS
330
119A
102
}
330
1F
100
AcDbEntity
  8
実線
100
AcDbLine
 10
788.3008163837407
 20
809.4883708733133
 30
0.0
 11
788.3008163837407
 21
804.4883708733133
 31
0.0
  0
LINE
  5
FE2
102
{ACAD_REACTORS
330
119A
102
}
330
1F
100
AcDbEntity
  8
実線
100
AcDbLine
 10
886.3008163837408
 20
804.4883708733133
 30
0.0
 11
886.3008163837408
 21
809.4883708733133
 31
0.0
  0
LINE
  5
FE3
102
{ACAD_REACTORS
330
119A
102
}
330
1F
100
AcDbEntity
  8
実線
100
AcDbLine
 10
886.3008163837408
 20
809.4883708733133
 30
0.0
 11
788.3008163837407
 21
809.4883708733133
 31
0.0
  0
LINE
  5
FE4
102
{ACAD_REACTORS
330
119A
102
}
330
1F
100
AcDbEntity
  8
実線
100
AcDbLine
 10
780.7976507916846
 20
804.4883708733133
 30
0.0
 11
780.7976507916846
 21
789.4883708733133
 31
0.0
  0
LINE
  5
FE5
102
{ACAD_REACTORS
330
119A
102
}
330
1F
100
AcDbEntity
  8
実線
100
AcDbLine
 10
780.7976507916846
 20
804.4883708733133
 30
0.0
 11
814.9225730965977
 21
804.4883708733133
 31
0.0
  0
LINE
  5
FE6
102
{ACAD_REACTORS
330
119A
102
}
330
1F
100
AcDbEntity
  8
実線
100
AcDbLine
 10
893.8039819757969
 20
804.4883708733133
 30
0.0
 11
859.6790596708839
 21
804.4883708733133
 31
0.0
  0
LINE
  5
FE7
102
{ACAD_REACTORS
330
119A
102
}
330
1F
100
AcDbEntity
  8
実線
100
AcDbLine
 10
893.8039819757969
 20
789.4883708733133
 30
0.0
 11
893.8039819757969
 21
804.4883708733133
 31
0.0
  0
LINE
  5
FE8
102
{ACAD_REACTORS
330
119A
102
}
330
1F
100
AcDbEntity
  8
実線
100
AcDbLine
 10
859.6790596708839
 20
804.4883708733133
 30
0.0
 11
859.6790596708839
 21
789.4883708733133
 31
0.0
  0
LINE
  5
FE9
102
{ACAD_REACTORS
330
119A
102
}
330
1F
100
AcDbEntity
  8
実線
100
AcDbLine
 10
814.9225730965977
 20
804.4883708733133
 30
0.0
 11
814.9225730965977
 21
789.4883708733133
 31
0.0
  0
LINE
  5
FEA
102
{ACAD_REACTORS
330
119A
102
}
330
1F
100
AcDbEntity
  8
実線
100
AcDbLine
 10
886.3008163837402
 20
630.4883708733133
 30
0.0
 11
788.3008163837403
 21
630.4883708733133
 31
0.0
  0
LINE
  5
FEB
102
{ACAD_REACTORS
330
119A
102
}
330
1F
100
AcDbEntity
  8
実線
100
AcDbLine
 10
886.3008163837402
 20
630.4883708733133
 30
0.0
 11
886.3008163837402
 21
635.4883708733133
 31
0.0
  0
LINE
  5
FEC
102
{ACAD_REACTORS
330
119A
102
}
330
1F
100
AcDbEntity
  8
実線
100
AcDbLine
 10
788.3008163837403
 20
635.4883708733133
 30
0.0
 11
788.3008163837403
 21
630.4883708733133
 31
0.0
  0
LINE
  5
FED
102
{ACAD_REACTORS
330
119A
102
}
330
1F
100
AcDbEntity
  8
実線
100
AcDbLine
 10
780.7976507916846
 20
635.4883708733133
 30
0.0
 11
814.9225730965973
 21
635.4883708733133
 31
0.0
  0
LINE
  5
FEE
102
{ACAD_REACTORS
330
119A
102
}
330
1F
100
AcDbEntity
  8
実線
100
AcDbLine
 10
780.7976507916846
 20
650.4883708733133
 30
0.0
 11
780.7976507916846
 21
635.4883708733133
 31
0.0
  0
LINE
  5
FEF
102
{ACAD_REACTORS
330
119A
102
}
330
1F
100
AcDbEntity
  8
実線
100
AcDbLine
 10
893.8039819757964
 20
635.4883708733133
 30
0.0
 11
893.8039819757964
 21
650.4883708733133
 31
0.0
  0
LINE
  5
FF0
102
{ACAD_REACTORS
330
119A
102
}
330
1F
100
AcDbEntity
  8
実線
100
AcDbLine
 10
893.8039819757964
 20
635.4883708733133
 30
0.0
 11
859.6790596708833
 21
635.4883708733133
 31
0.0
  0
LINE
  5
FF1
102
{ACAD_REACTORS
330
119A
102
}
330
1F
100
AcDbEntity
  8
実線
100
AcDbLine
 10
859.6790596708833
 20
635.4883708733133
 30
0.0
 11
859.6790596708833
 21
650.4883708733133
 31
0.0
  0
LINE
  5
FF2
102
{ACAD_REACTORS
330
119A
102
}
330
1F
100
AcDbEntity
  8
実線
100
AcDbLine
 10
814.9225730965973
 20
635.4883708733133
 30
0.0
 11
814.9225730965973
 21
650.4883708733133
 31
0.0
  0
LINE
  5
FF3
102
{ACAD_REACTORS
330
119A
102
}
330
1F
100
AcDbEntity
  8
実線
100
AcDbLine
 10
884.8008163837407
 20
1061.988370873313
 30
0.0
 11
789.8008163837407
 21
1061.988370873313
 31
0.0
  0
ARC
  5
FF4
102
{ACAD_REACTORS
330
119A
102
}
330
1F
100
AcDbEntity
  8
実線
100
AcDbCircle
 10
884.8008163837407
 20
1056.988370873313
 30
0.0
 40
5.0
100
AcDbArc
 50
0.0
 51
90.0
  0
ARC
  5
FF5
102
{ACAD_REACTORS
330
119A
102
}
330
1F
100
AcDbEntity
  8
実線
100
AcDbCircle
 10
789.8008163837407
 20
1056.988370873313
 30
0.0
 40
5.0
100
AcDbArc
 50
90.0
 51
180.0
  0
LINE
  5
FF6
102
{ACAD_REACTORS
330
119A
102
}
330
1F
100
AcDbEntity
  8
実線
100
AcDbLine
 10
814.8008163837403
 20
376.7883708733134
 30
0.0
 11
822.8008163837403
 21
376.7883708733134
 31
0.0
  0
LINE
  5
FF7
102
{ACAD_REACTORS
330
119A
102
}
330
1F
100
AcDbEntity
  8
実線
100
AcDbLine
 10
822.8008163837403
 20
377.9883708733134
 30
0.0
 11
822.8008163837403
 21
376.7883708733134
 31
0.0
  0
LINE
  5
FF8
102
{ACAD_REACTORS
330
119A
102
}
330
1F
100
AcDbEntity
  8
実線
100
AcDbLine
 10
813.6008163837404
 20
376.7883708733134
 30
0.0
 11
813.6008163837404
 21
337.9883708733134
 31
0.0
  0
LINE
  5
FF9
102
{ACAD_REACTORS
330
119A
102
}
330
1F
100
AcDbEntity
  8
実線
100
AcDbLine
 10
813.6008163837404
 20
337.9883708733134
 30
0.0
 11
814.8008163837403
 21
337.9883708733134
 31
0.0
  0
LINE
  5
FFA
102
{ACAD_REACTORS
330
119A
102
}
330
1F
100
AcDbEntity
  8
実線
100
AcDbLine
 10
814.8008163837403
 20
337.9883708733134
 30
0.0
 11
814.8008163837403
 21
377.9883708733134
 31
0.0
  0
LINE
  5
FFB
102
{ACAD_REACTORS
330
119A
102
}
330
1F
100
AcDbEntity
  8
実線
100
AcDbLine
 10
793.8008163837403
 20
377.9883708733134
 30
0.0
 11
793.8008163837403
 21
376.7883708733134
 31
0.0
  0
LINE
  5
FFC
102
{ACAD_REACTORS
330
119A
102
}
330
1F
100
AcDbEntity
  8
実線
100
AcDbLine
 10
793.8008163837403
 20
376.7883708733134
 30
0.0
 11
813.6008163837404
 21
376.7883708733134
 31
0.0
  0
LINE
  5
FFD
102
{ACAD_REACTORS
330
119A
102
}
330
1F
100
AcDbEntity
  8
実線
100
AcDbLine
 10
796.0713429642428
 20
740.5294240343184
 30
0.0
 11
800.7771690426748
 21
732.378694174892
 31
0.0
  0
LINE
  5
FFE
102
{ACAD_REACTORS
330
119A
102
}
330
1F
100
AcDbEntity
  8
実線
100
AcDbLine
 10
886.3008163837402
 20
769.5294240343184
 30
0.0
 11
886.3008163837402
 21
774.4883708733133
 31
0.0
  0
LINE
  5
FFF
102
{ACAD_REACTORS
330
119A
102
}
330
1F
100
AcDbEntity
  8
実線
100
AcDbLine
 10
788.3008163837403
 20
774.4883708733133
 30
0.0
 11
788.3008163837403
 21
769.5294240343184
 31
0.0
  0
ARC
  5
1000
102
{ACAD_REACTORS
330
119A
102
}
330
1F
100
AcDbEntity
  8
実線
100
AcDbCircle
 10
846.3008163837402
 20
769.5294240343184
 30
0.0
 40
58.0
100
AcDbArc
 50
180.0
 51
209.9999999999952
  0
ARC
  5
1001
102
{ACAD_REACTORS
330
119A
102
}
330
1F
100
AcDbEntity
  8
実線
100
AcDbCircle
 10
828.3008163837402
 20
769.5294240343184
 30
0.0
 40
58.0
100
AcDbArc
 50
331.1673734788021
 51
0.0
  0
LINE
  5
1002
102
{ACAD_REACTORS
330
119A
102
}
330
1F
100
AcDbEntity
  8
実線
100
AcDbLine
 10
789.8008163837403
 20
377.9883708733133
 30
0.0
 11
884.8008163837404
 21
377.9883708733133
 31
0.0
  0
ARC
  5
1003
102
{ACAD_REACTORS
330
119A
102
}
330
1F
100
AcDbEntity
  8
実線
100
AcDbCircle
 10
789.8008163837403
 20
382.9883708733133
 30
0.0
 40
5.0
100
AcDbArc
 50
180.0
 51
270.0
  0
ARC
  5
1004
102
{ACAD_REACTORS
330
119A
102
}
330
1F
100
AcDbEntity
  8
実線
100
AcDbCircle
 10
884.8008163837404
 20
382.9883708733133
 30
0.0
 40
5.0
100
AcDbArc
 50
270.0
 51
0.0
  0
LINE
  5
1005
102
{ACAD_REACTORS
330
119A
102
}
330
1F
100
AcDbEntity
  8
実線
100
AcDbLine
 10
844.3008163837408
 20
1101.988370873313
 30
0.0
 11
817.3008163837407
 21
1101.988370873313
 31
0.0
  0
LINE
  5
1006
102
{ACAD_REACTORS
330
119A
102
}
330
1F
100
AcDbEntity
  8
実線
100
AcDbLine
 10
844.3008163837408
 20
1095.938370873313
 30
0.0
 11
844.3008163837408
 21
1101.988370873313
 31
0.0
  0
LINE
  5
1007
102
{ACAD_REACTORS
330
119A
102
}
330
1F
100
AcDbEntity
  8
実線
100
AcDbLine
 10
817.3008163837407
 20
1093.488370873313
 30
0.0
 11
817.3008163837407
 21
1101.988370873313
 31
0.0
  0
LINE
  5
1008
102
{ACAD_REACTORS
330
119A
102
}
330
1F
100
AcDbEntity
  8
実線
100
AcDbLine
 10
817.3008163837407
 20
1073.488370873313
 30
0.0
 11
817.3008163837407
 21
1090.488370873313
 31
0.0
  0
LINE
  5
1009
102
{ACAD_REACTORS
330
119A
102
}
330
1F
100
AcDbEntity
  8
実線
100
AcDbLine
 10
817.3008163837407
 20
1063.188370873313
 30
0.0
 11
817.3008163837407
 21
1070.488370873313
 31
0.0
  0
LINE
  5
100A
102
{ACAD_REACTORS
330
119A
102
}
330
1F
100
AcDbEntity
  8
実線
100
AcDbLine
 10
823.3008163837407
 20
1063.188370873313
 30
0.0
 11
802.3008163837408
 21
1063.188370873313
 31
0.0
  0
LINE
  5
100B
102
{ACAD_REACTORS
330
119A
102
}
330
1F
100
AcDbEntity
  8
実線
100
AcDbLine
 10
823.3008163837407
 20
1061.988370873313
 30
0.0
 11
823.3008163837407
 21
1063.188370873313
 31
0.0
  0
LINE
  5
100C
102
{ACAD_REACTORS
330
119A
102
}
330
1F
100
AcDbEntity
  8
実線
100
AcDbLine
 10
802.3008163837408
 20
1061.988370873313
 30
0.0
 11
802.3008163837408
 21
1063.188370873313
 31
0.0
  0
CIRCLE
  5
100D
102
{ACAD_REACTORS
330
119D
102
}
330
1F
100
AcDbEntity
  8
実線
100
AcDbCircle
 10
117.3008163837405
 20
685.488370873313
 30
0.0
 40
32.0
  0
LINE
  5
100E
102
{ACAD_REACTORS
330
119D
102
}
330
1F
100
AcDbEntity
  8
実線
100
AcDbLine
 10
134.1754998657625
 20
728.4883708733192
 30
0.0
 11
113.2434152924181
 21
728.4883708733192
 31
0.0
  0
LINE
  5
100F
102
{ACAD_REACTORS
330
119D
102
}
330
1F
100
AcDbEntity
  8
実線
100
AcDbLine
 10
173.8039819757962
 20
650.4883708733131
 30
0.0
 11
60.79765079168464
 21
650.4883708733131
 31
0.0
  0
LINE
  5
1010
102
{ACAD_REACTORS
330
119D
102
}
330
1F
100
AcDbEntity
  8
実線
100
AcDbLine
 10
60.79765079168464
 20
665.488370873313
 30
0.0
 11
92.32082439014698
 21
665.488370873313
 31
0.0
  0
LINE
  5
1011
102
{ACAD_REACTORS
330
119D
102
}
330
1F
100
AcDbEntity
  8
実線
100
AcDbLine
 10
60.79765079168464
 20
665.488370873313
 30
0.0
 11
60.79765079168464
 21
650.4883708733131
 31
0.0
  0
LINE
  5
1012
102
{ACAD_REACTORS
330
119D
102
}
330
1F
100
AcDbEntity
  8
実線
100
AcDbLine
 10
173.8039819757964
 20
650.4883708733131
 30
0.0
 11
173.8039819757964
 21
665.488370873313
 31
0.0
  0
LINE
  5
1013
102
{ACAD_REACTORS
330
119D
102
}
330
1F
100
AcDbEntity
  8
実線
100
AcDbLine
 10
173.8039819757964
 20
665.488370873313
 30
0.0
 11
142.2808083773341
 21
665.488370873313
 31
0.0
  0
LINE
  5
1014
102
{ACAD_REACTORS
330
119D
102
}
330
1F
100
AcDbEntity
  8
実線
100
AcDbLine
 10
139.6790596708836
 20
650.4883708733131
 30
0.0
 11
139.6790596708836
 21
662.6144943461164
 31
0.0
  0
LINE
  5
1015
102
{ACAD_REACTORS
330
119D
102
}
330
1F
100
AcDbEntity
  8
実線
100
AcDbLine
 10
94.92257309659748
 20
650.4883708733131
 30
0.0
 11
94.92257309659748
 21
662.6144943461164
 31
0.0
  0
LINE
  5
1016
102
{ACAD_REACTORS
330
119D
102
}
330
1F
100
AcDbEntity
  8
実線
100
AcDbLine
 10
194.0008163837406
 20
779.888370873313
 30
0.0
 11
173.8039819757964
 21
779.888370873313
 31
0.0
  0
LINE
  5
1017
102
{ACAD_REACTORS
330
119D
102
}
330
1F
100
AcDbEntity
  8
実線
100
AcDbLine
 10
172.7092211801418
 20
729.0883708733131
 30
0.0
 11
194.0008163837406
 21
729.0883708733131
 31
0.0
  0
LINE
  5
1018
102
{ACAD_REACTORS
330
119D
102
}
330
1F
100
AcDbEntity
  8
実線
100
AcDbLine
 10
199.3008163837405
 20
786.4883708733131
 30
0.0
 11
196.4008163837404
 21
786.4883708733131
 31
0.0
  0
LINE
  5
1019
102
{ACAD_REACTORS
330
119D
102
}
330
1F
100
AcDbEntity
  8
実線
100
AcDbLine
 10
196.4008163837404
 20
722.4883708733131
 30
0.0
 11
199.3008163837405
 21
722.4883708733131
 31
0.0
  0
LINE
  5
101A
102
{ACAD_REACTORS
330
119D
102
}
330
1F
100
AcDbEntity
  8
実線
100
AcDbLine
 10
199.3008163837405
 20
786.4883708733131
 30
0.0
 11
199.3008163837405
 21
722.4883708733131
 31
0.0
  0
LINE
  5
101B
102
{ACAD_REACTORS
330
119D
102
}
330
1F
100
AcDbEntity
  8
実線
100
AcDbLine
 10
194.0008163837406
 20
729.0883708733131
 30
0.0
 11
196.4008163837404
 21
722.4883708733131
 31
0.0
  0
LINE
  5
101C
102
{ACAD_REACTORS
330
119D
102
}
330
1F
100
AcDbEntity
  8
実線
100
AcDbLine
 10
196.4008163837404
 20
786.4883708733131
 30
0.0
 11
194.0008163837406
 21
779.888370873313
 31
0.0
  0
LINE
  5
101D
102
{ACAD_REACTORS
330
119D
102
}
330
1F
100
AcDbEntity
  8
実線
100
AcDbLine
 10
196.4008163837404
 20
722.4883708733131
 30
0.0
 11
196.4008163837404
 21
786.4883708733131
 31
0.0
  0
LINE
  5
101E
102
{ACAD_REACTORS
330
119D
102
}
330
1F
100
AcDbEntity
  8
実線
100
AcDbLine
 10
194.0008163837406
 20
729.0883708733131
 30
0.0
 11
194.0008163837406
 21
779.888370873313
 31
0.0
  0
LINE
  5
101F
102
{ACAD_REACTORS
330
119D
102
}
330
1F
100
AcDbEntity
  8
実線
100
AcDbLine
 10
40.60081638374072
 20
729.0883708733131
 30
0.0
 11
66.67304225202428
 21
729.0883708733131
 31
0.0
  0
LINE
  5
1020
102
{ACAD_REACTORS
330
119D
102
}
330
1F
100
AcDbEntity
  8
実線
100
AcDbLine
 10
60.79765079168464
 20
779.888370873313
 30
0.0
 11
40.60081638374072
 21
779.888370873313
 31
0.0
  0
LINE
  5
1021
102
{ACAD_REACTORS
330
119D
102
}
330
1F
100
AcDbEntity
  8
実線
100
AcDbLine
 10
40.60081638374072
 20
779.888370873313
 30
0.0
 11
40.60081638374072
 21
729.0883708733131
 31
0.0
  0
LINE
  5
1022
102
{ACAD_REACTORS
330
119D
102
}
330
1F
100
AcDbEntity
  8
実線
100
AcDbLine
 10
40.60081638374072
 20
779.888370873313
 30
0.0
 11
38.20081638374063
 21
786.4883708733131
 31
0.0
  0
LINE
  5
1023
102
{ACAD_REACTORS
330
119D
102
}
330
1F
100
AcDbEntity
  8
実線
100
AcDbLine
 10
38.20081638374063
 20
722.4883708733131
 30
0.0
 11
40.60081638374072
 21
729.0883708733131
 31
0.0
  0
LINE
  5
1024
102
{ACAD_REACTORS
330
119D
102
}
330
1F
100
AcDbEntity
  8
実線
100
AcDbLine
 10
35.30081638374054
 20
786.4883708733131
 30
0.0
 11
35.30081638374054
 21
722.4883708733131
 31
0.0
  0
LINE
  5
1025
102
{ACAD_REACTORS
330
119D
102
}
330
1F
100
AcDbEntity
  8
実線
100
AcDbLine
 10
38.20081638374063
 20
786.4883708733131
 30
0.0
 11
38.20081638374063
 21
722.4883708733131
 31
0.0
  0
LINE
  5
1026
102
{ACAD_REACTORS
330
119D
102
}
330
1F
100
AcDbEntity
  8
実線
100
AcDbLine
 10
35.30081638374054
 20
722.4883708733131
 30
0.0
 11
38.20081638374063
 21
722.4883708733131
 31
0.0
  0
LINE
  5
1027
102
{ACAD_REACTORS
330
119D
102
}
330
1F
100
AcDbEntity
  8
実線
100
AcDbLine
 10
38.20081638374063
 20
786.4883708733131
 30
0.0
 11
35.30081638374054
 21
786.4883708733131
 31
0.0
  0
LINE
  5
1028
102
{ACAD_REACTORS
330
119D
102
}
330
1F
100
AcDbEntity
  8
実線
100
AcDbLine
 10
85.12731199939025
 20
690.289886063478
 30
0.0
 11
81.23837054322667
 21
690.289886063478
 31
0.0
  0
LINE
  5
1029
102
{ACAD_REACTORS
330
119D
102
}
330
1F
100
AcDbEntity
  8
実線
100
AcDbLine
 10
160.9287066221086
 20
702.989040136303
 30
0.0
 11
158.4826622637481
 21
699.5298110305435
 31
0.0
  0
LINE
  5
102A
102
{ACAD_REACTORS
330
119D
102
}
330
1F
100
AcDbEntity
  8
実線
100
AcDbLine
 10
85.12731199939025
 20
749.6868556831481
 30
0.0
 11
81.23837054322667
 21
749.6868556831481
 31
0.0
  0
LINE
  5
102B
102
{ACAD_REACTORS
330
119D
102
}
330
1F
100
AcDbEntity
  8
実線
100
AcDbLine
 10
102.2383705432266
 20
719.9883708733131
 30
0.0
 11
126.1980960842556
 21
719.9883708733131
 31
0.0
  0
LINE
  5
102C
102
{ACAD_REACTORS
330
119D
102
}
330
1F
100
AcDbEntity
  8
実線
100
AcDbLine
 10
102.2383705432266
 20
719.9883708733131
 30
0.0
 11
81.23837054322667
 21
749.6868556831481
 31
0.0
  0
LINE
  5
102D
102
{ACAD_REACTORS
330
119D
102
}
330
1F
100
AcDbEntity
  8
実線
100
AcDbLine
 10
81.23837054322667
 20
749.6868556831481
 30
0.0
 11
60.23837054322666
 21
719.9883708733131
 31
0.0
  0
LINE
  5
102E
102
{ACAD_REACTORS
330
119D
102
}
330
1F
100
AcDbEntity
  8
実線
100
AcDbLine
 10
81.23837054322667
 20
690.289886063478
 30
0.0
 11
60.23837054322666
 21
719.9883708733131
 31
0.0
  0
LINE
  5
102F
102
{ACAD_REACTORS
330
119D
102
}
330
1F
100
AcDbEntity
  8
実線
100
AcDbLine
 10
81.23837054322667
 20
690.289886063478
 30
0.0
 11
102.2383705432266
 21
719.9883708733131
 31
0.0
  0
LINE
  5
1030
102
{ACAD_REACTORS
330
119D
102
}
330
1F
100
AcDbEntity
  8
実線
100
AcDbLine
 10
143.1717104169083
 20
707.4883708733131
 30
0.0
 11
151.9490486618813
 21
707.4883708733131
 31
0.0
  0
LINE
  5
1031
102
{ACAD_REACTORS
330
119D
102
}
330
1F
100
AcDbEntity
  8
実線
100
AcDbLine
 10
151.9490486618813
 20
732.4883708733131
 30
0.0
 11
143.1717104169083
 21
732.4883708733131
 31
0.0
  0
ELLIPSE
  5
1032
102
{ACAD_REACTORS
330
119D
102
}
330
1F
100
AcDbEntity
  8
実線
100
AcDbEllipse
 10
151.9490486618813
 20
719.9883708733131
 30
0.0
 11
0.0
 21
12.5
 31
0.0
210
0.0
220
0.0
230
1.0
 40
0.7071067811865476
 41
3.141592653589792
 42
3.242534414249458
  0
ELLIPSE
  5
1033
102
{ACAD_REACTORS
330
119D
102
}
330
1F
100
AcDbEntity
  8
実線
100
AcDbEllipse
 10
151.9490486618813
 20
719.9883708733131
 30
0.0
 11
0.0
 21
12.5
 31
0.0
210
0.0
220
0.0
230
1.0
 40
0.7071067811865476
 41
6.182243546519951
 42
6.283185307179585
  0
ELLIPSE
  5
1034
102
{ACAD_REACTORS
330
119D
102
}
330
1F
100
AcDbEntity
  8
実線
100
AcDbEllipse
 10
151.9490486618813
 20
719.9883708733131
 30
0.0
 11
0.0
 21
12.5
 31
0.0
210
0.0
220
0.0
230
1.0
 40
0.7071067811865476
 41
1.570796326794897
 42
3.141592653589792
  0
ELLIPSE
  5
1035
102
{ACAD_REACTORS
330
119D
102
}
330
1F
100
AcDbEntity
  8
実線
100
AcDbEllipse
 10
151.9490486618813
 20
719.9883708733131
 30
0.0
 11
0.0
 21
12.5
 31
0.0
210
0.0
220
0.0
230
1.0
 40
0.7071067811865476
 41
0.0
 42
1.570796326794897
  0
ELLIPSE
  5
1036
102
{ACAD_REACTORS
330
119D
102
}
330
1F
100
AcDbEntity
  8
実線
100
AcDbEllipse
 10
151.9490486618813
 20
719.9883708733131
 30
0.0
 11
0.0
 21
10.85000000000002
 31
0.0
210
0.0
220
0.0
230
1.0
 40
0.7071067811865475
 41
0.0220749876175274
 42
3.119517665972234
  0
ELLIPSE
  5
1037
102
{ACAD_REACTORS
330
119D
102
}
330
1F
100
AcDbEntity
  8
実線
100
AcDbEllipse
 10
162.5556503796795
 20
719.9883708733131
 30
0.0
 11
0.0
 21
17.0
 31
0.0
210
0.0
220
0.0
230
1.0
 40
0.7071067811865475
 41
0.0
 42
3.141592653589792
  0
ELLIPSE
  5
1038
102
{ACAD_REACTORS
330
119D
102
}
330
1F
100
AcDbEntity
  8
実線
100
AcDbEllipse
 10
161.0353708001285
 20
719.9883708733131
 30
0.0
 11
0.0
 21
17.0
 31
0.0
210
0.0
220
0.0
230
1.0
 40
0.7071067811865475
 41
0.0
 42
3.141592653589792
  0
LINE
  5
1039
102
{ACAD_REACTORS
330
119D
102
}
330
1F
100
AcDbEntity
  8
実線
100
AcDbLine
 10
162.5556503796795
 20
736.9883708733131
 30
0.0
 11
161.0353708001285
 21
736.9883708733131
 31
0.0
  0
LINE
  5
103A
102
{ACAD_REACTORS
330
119D
102
}
330
1F
100
AcDbEntity
  8
実線
100
AcDbLine
 10
161.0353708001285
 20
702.988370873313
 30
0.0
 11
162.5556503796795
 21
702.988370873313
 31
0.0
  0
ELLIPSE
  5
103B
102
{ACAD_REACTORS
330
119D
102
}
330
1F
100
AcDbEntity
  8
実線
100
AcDbEllipse
 10
162.5556503796795
 20
719.9883708733131
 30
0.0
 11
0.0
 21
17.0
 31
0.0
210
0.0
220
0.0
230
1.0
 40
0.7071067811865475
 41
3.141592653589792
 42
6.283185307179585
  0
LINE
  5
103C
102
{ACAD_REACTORS
330
119D
102
}
330
1F
100
AcDbEntity
  8
実線
100
AcDbLine
 10
60.79765079168464
 20
789.488370873313
 30
0.0
 11
173.8039819757964
 21
789.488370873313
 31
0.0
  0
LINE
  5
103D
102
{ACAD_REACTORS
330
119D
102
}
330
1F
100
AcDbEntity
  8
実線
100
AcDbLine
 10
60.79765079168464
 20
774.4883708733131
 30
0.0
 11
173.8039819757964
 21
774.4883708733131
 31
0.0
  0
LINE
  5
103E
102
{ACAD_REACTORS
330
119D
102
}
330
1F
100
AcDbEntity
  8
実線
100
AcDbLine
 10
173.8039819757964
 20
774.4883708733131
 30
0.0
 11
173.8039819757964
 21
789.488370873313
 31
0.0
  0
LINE
  5
103F
102
{ACAD_REACTORS
330
119D
102
}
330
1F
100
AcDbEntity
  8
実線
100
AcDbLine
 10
60.79765079168464
 20
789.488370873313
 30
0.0
 11
60.79765079168464
 21
774.4883708733131
 31
0.0
  0
LINE
  5
1040
102
{ACAD_REACTORS
330
119D
102
}
330
1F
100
AcDbEntity
  8
実線
100
AcDbLine
 10
94.92257309659748
 20
789.488370873313
 30
0.0
 11
94.92257309659748
 21
774.4883708733131
 31
0.0
  0
LINE
  5
1041
102
{ACAD_REACTORS
330
119D
102
}
330
1F
100
AcDbEntity
  8
実線
100
AcDbLine
 10
139.6790596708836
 20
789.488370873313
 30
0.0
 11
139.6790596708836
 21
774.4883708733131
 31
0.0
  0
LINE
  5
1042
102
{ACAD_REACTORS
330
119D
102
}
330
1F
100
AcDbEntity
  8
実線
100
AcDbLine
 10
166.3008163837405
 20
809.4883708733132
 30
0.0
 11
166.3008163837405
 21
993.426193046822
 31
0.0
  0
LINE
  5
1043
102
{ACAD_REACTORS
330
119D
102
}
330
1F
100
AcDbEntity
  8
実線
100
AcDbLine
 10
68.30081638374053
 20
993.426193046822
 30
0.0
 11
68.30081638374053
 21
809.4883708733132
 31
0.0
  0
LINE
  5
1044
102
{ACAD_REACTORS
330
119D
102
}
330
1F
100
AcDbEntity
  8
実線
100
AcDbLine
 10
64.80081638374054
 20
1056.988370873313
 30
0.0
 11
169.8008163837405
 21
1056.988370873313
 31
0.0
  0
LINE
  5
1045
102
{ACAD_REACTORS
330
119D
102
}
330
1F
100
AcDbEntity
  8
実線
100
AcDbLine
 10
169.8008163837405
 20
999.488370873313
 30
0.0
 11
169.8008163837405
 21
1056.988370873313
 31
0.0
  0
LINE
  5
1046
102
{ACAD_REACTORS
330
119D
102
}
330
1F
100
AcDbEntity
  8
実線
100
AcDbLine
 10
64.80081638374054
 20
1056.988370873313
 30
0.0
 11
64.80081638374054
 21
999.488370873313
 31
0.0
  0
LINE
  5
1047
102
{ACAD_REACTORS
330
119D
102
}
330
1F
100
AcDbEntity
  8
実線
100
AcDbLine
 10
68.30081638374053
 20
993.426193046822
 30
0.0
 11
166.3008163837405
 21
993.426193046822
 31
0.0
  0
LINE
  5
1048
102
{ACAD_REACTORS
330
119D
102
}
330
1F
100
AcDbEntity
  8
実線
100
AcDbLine
 10
64.80081638374054
 20
999.488370873313
 30
0.0
 11
169.8008163837405
 21
999.488370873313
 31
0.0
  0
LINE
  5
1049
102
{ACAD_REACTORS
330
119D
102
}
330
1F
100
AcDbEntity
  8
実線
100
AcDbLine
 10
166.3008163837405
 20
993.426193046822
 30
0.0
 11
169.8008163837405
 21
999.488370873313
 31
0.0
  0
LINE
  5
104A
102
{ACAD_REACTORS
330
119D
102
}
330
1F
100
AcDbEntity
  8
実線
100
AcDbLine
 10
64.80081638374054
 20
999.488370873313
 30
0.0
 11
68.30081638374053
 21
993.426193046822
 31
0.0
  0
LINE
  5
104B
102
{ACAD_REACTORS
330
119D
102
}
330
1F
100
AcDbEntity
  8
実線
100
AcDbLine
 10
68.30081638374053
 20
630.4883708733131
 30
0.0
 11
68.30081638374053
 21
446.5505486998041
 31
0.0
  0
LINE
  5
104C
102
{ACAD_REACTORS
330
119D
102
}
330
1F
100
AcDbEntity
  8
実線
100
AcDbLine
 10
166.3008163837405
 20
446.5505486998041
 30
0.0
 11
166.3008163837405
 21
630.4883708733131
 31
0.0
  0
LINE
  5
104D
102
{ACAD_REACTORS
330
119D
102
}
330
1F
100
AcDbEntity
  8
実線
100
AcDbLine
 10
166.3008163837405
 20
446.5505486998041
 30
0.0
 11
68.30081638374053
 21
446.5505486998041
 31
0.0
  0
LINE
  5
104E
102
{ACAD_REACTORS
330
119D
102
}
330
1F
100
AcDbEntity
  8
実線
100
AcDbLine
 10
68.30081638374053
 20
446.5505486998041
 30
0.0
 11
64.80081638374054
 21
440.488370873313
 31
0.0
  0
LINE
  5
104F
102
{ACAD_REACTORS
330
119D
102
}
330
1F
100
AcDbEntity
  8
実線
100
AcDbLine
 10
169.8008163837405
 20
440.488370873313
 30
0.0
 11
166.3008163837405
 21
446.5505486998041
 31
0.0
  0
LINE
  5
1050
102
{ACAD_REACTORS
330
119D
102
}
330
1F
100
AcDbEntity
  8
実線
100
AcDbLine
 10
169.8008163837405
 20
440.488370873313
 30
0.0
 11
64.80081638374054
 21
440.488370873313
 31
0.0
  0
LINE
  5
1051
102
{ACAD_REACTORS
330
119D
102
}
330
1F
100
AcDbEntity
  8
実線
100
AcDbLine
 10
64.80081638374054
 20
440.488370873313
 30
0.0
 11
64.80081638374054
 21
382.9883708733131
 31
0.0
  0
LINE
  5
1052
102
{ACAD_REACTORS
330
119D
102
}
330
1F
100
AcDbEntity
  8
実線
100
AcDbLine
 10
169.8008163837405
 20
382.9883708733131
 30
0.0
 11
169.8008163837405
 21
440.488370873313
 31
0.0
  0
LINE
  5
1053
102
{ACAD_REACTORS
330
119D
102
}
330
1F
100
AcDbEntity
  8
実線
100
AcDbLine
 10
128.3008163837405
 20
1061.988370873313
 30
0.0
 11
128.3008163837405
 21
1085.188370873313
 31
0.0
  0
LINE
  5
1054
102
{ACAD_REACTORS
330
119D
102
}
330
1F
100
AcDbEntity
  8
実線
100
AcDbLine
 10
106.3008163837405
 20
1085.188370873313
 30
0.0
 11
106.3008163837405
 21
1061.988370873313
 31
0.0
  0
LINE
  5
1055
102
{ACAD_REACTORS
330
119D
102
}
330
1F
100
AcDbEntity
  8
実線
100
AcDbLine
 10
131.3008163837405
 20
1085.188370873313
 30
0.0
 11
131.3008163837405
 21
1095.188370873313
 31
0.0
  0
LINE
  5
1056
102
{ACAD_REACTORS
330
119D
102
}
330
1F
100
AcDbEntity
  8
実線
100
AcDbLine
 10
103.3008163837405
 20
1095.188370873313
 30
0.0
 11
103.3008163837405
 21
1085.188370873313
 31
0.0
  0
LINE
  5
1057
102
{ACAD_REACTORS
330
119D
102
}
330
1F
100
AcDbEntity
  8
実線
100
AcDbLine
 10
131.3008163837405
 20
1095.188370873313
 30
0.0
 11
103.3008163837405
 21
1095.188370873313
 31
0.0
  0
LINE
  5
1058
102
{ACAD_REACTORS
330
119D
102
}
330
1F
100
AcDbEntity
  8
実線
100
AcDbLine
 10
131.3008163837405
 20
1085.188370873313
 30
0.0
 11
103.3008163837405
 21
1085.188370873313
 31
0.0
  0
LINE
  5
1059
102
{ACAD_REACTORS
330
119D
102
}
330
1F
100
AcDbEntity
  8
実線
100
AcDbLine
 10
131.9008163837406
 20
1075.938370873313
 30
0.0
 11
139.8008163837405
 21
1075.938370873313
 31
0.0
  0
LINE
  5
105A
102
{ACAD_REACTORS
330
119D
102
}
330
1F
100
AcDbEntity
  8
実線
100
AcDbLine
 10
131.9008163837406
 20
1068.038370873313
 30
0.0
 11
131.9008163837406
 21
1075.938370873313
 31
0.0
  0
LINE
  5
105B
102
{ACAD_REACTORS
330
119D
102
}
330
1F
100
AcDbEntity
  8
実線
100
AcDbLine
 10
139.8008163837405
 20
1068.038370873313
 30
0.0
 11
131.9008163837406
 21
1068.038370873313
 31
0.0
  0
LINE
  5
105C
102
{ACAD_REACTORS
330
119D
102
}
330
1F
100
AcDbEntity
  8
実線
100
AcDbLine
 10
139.8008163837405
 20
1088.038370873313
 30
0.0
 11
131.9008163837406
 21
1088.038370873313
 31
0.0
  0
LINE
  5
105D
102
{ACAD_REACTORS
330
119D
102
}
330
1F
100
AcDbEntity
  8
実線
100
AcDbLine
 10
131.9008163837406
 20
1095.938370873313
 30
0.0
 11
139.8008163837405
 21
1095.938370873313
 31
0.0
  0
LINE
  5
105E
102
{ACAD_REACTORS
330
119D
102
}
330
1F
100
AcDbEntity
  8
実線
100
AcDbLine
 10
131.9008163837406
 20
1088.038370873313
 30
0.0
 11
131.9008163837406
 21
1095.938370873313
 31
0.0
  0
LINE
  5
105F
102
{ACAD_REACTORS
330
119D
102
}
330
1F
100
AcDbEntity
  8
実線
100
AcDbLine
 10
110.3008163837405
 20
344.7883708733131
 30
0.0
 11
110.3008163837405
 21
344.0383708733131
 31
0.0
  0
LINE
  5
1060
102
{ACAD_REACTORS
330
119D
102
}
330
1F
100
AcDbEntity
  8
実線
100
AcDbLine
 10
131.3008163837405
 20
351.9383708733132
 30
0.0
 11
135.3008163837405
 21
351.9383708733132
 31
0.0
  0
LINE
  5
1061
102
{ACAD_REACTORS
330
119D
102
}
330
1F
100
AcDbEntity
  8
実線
100
AcDbLine
 10
110.3008163837405
 20
344.0383708733131
 30
0.0
 11
135.3008163837405
 21
344.0383708733131
 31
0.0
  0
LINE
  5
1062
102
{ACAD_REACTORS
330
119D
102
}
330
1F
100
AcDbEntity
  8
実線
100
AcDbLine
 10
135.3008163837405
 20
344.0383708733131
 30
0.0
 11
135.3008163837405
 21
351.9383708733132
 31
0.0
  0
LINE
  5
1063
102
{ACAD_REACTORS
330
119D
102
}
330
1F
100
AcDbEntity
  8
実線
100
AcDbLine
 10
128.3008163837405
 20
371.9383708733131
 30
0.0
 11
135.3008163837405
 21
371.9383708733131
 31
0.0
  0
LINE
  5
1064
102
{ACAD_REACTORS
330
119D
102
}
330
1F
100
AcDbEntity
  8
実線
100
AcDbLine
 10
128.3008163837405
 20
364.0383708733131
 30
0.0
 11
135.3008163837405
 21
364.0383708733131
 31
0.0
  0
LINE
  5
1065
102
{ACAD_REACTORS
330
119D
102
}
330
1F
100
AcDbEntity
  8
実線
100
AcDbLine
 10
135.3008163837405
 20
364.0383708733131
 30
0.0
 11
135.3008163837405
 21
371.9383708733131
 31
0.0
  0
LINE
  5
1066
102
{ACAD_REACTORS
330
119D
102
}
330
1F
100
AcDbEntity
  8
実線
100
AcDbLine
 10
141.8008163837405
 20
369.4883708733131
 30
0.0
 11
141.8008163837405
 21
366.4883708733131
 31
0.0
  0
LINE
  5
1067
102
{ACAD_REACTORS
330
119D
102
}
330
1F
100
AcDbEntity
  8
実線
100
AcDbLine
 10
135.3008163837405
 20
366.4883708733131
 30
0.0
 11
141.8008163837405
 21
366.4883708733131
 31
0.0
  0
LINE
  5
1068
102
{ACAD_REACTORS
330
119D
102
}
330
1F
100
AcDbEntity
  8
実線
100
AcDbLine
 10
141.8008163837405
 20
369.4883708733131
 30
0.0
 11
135.3008163837405
 21
369.4883708733131
 31
0.0
  0
LINE
  5
1069
102
{ACAD_REACTORS
330
119D
102
}
330
1F
100
AcDbEntity
  8
実線
100
AcDbLine
 10
141.8008163837405
 20
349.4883708733131
 30
0.0
 11
141.8008163837405
 21
346.4883708733131
 31
0.0
  0
LINE
  5
106A
102
{ACAD_REACTORS
330
119D
102
}
330
1F
100
AcDbEntity
  8
実線
100
AcDbLine
 10
135.3008163837405
 20
346.4883708733131
 30
0.0
 11
141.8008163837405
 21
346.4883708733131
 31
0.0
  0
LINE
  5
106B
102
{ACAD_REACTORS
330
119D
102
}
330
1F
100
AcDbEntity
  8
実線
100
AcDbLine
 10
141.8008163837405
 20
349.4883708733131
 30
0.0
 11
135.3008163837405
 21
349.4883708733131
 31
0.0
  0
LINE
  5
106C
102
{ACAD_REACTORS
330
119D
102
}
330
1F
100
AcDbEntity
  8
実線
100
AcDbLine
 10
103.3008163837405
 20
354.7883708733131
 30
0.0
 11
103.3008163837405
 21
344.7883708733131
 31
0.0
  0
LINE
  5
106D
102
{ACAD_REACTORS
330
119D
102
}
330
1F
100
AcDbEntity
  8
実線
100
AcDbLine
 10
131.3008163837405
 20
344.7883708733131
 30
0.0
 11
131.3008163837405
 21
354.7883708733131
 31
0.0
  0
LINE
  5
106E
102
{ACAD_REACTORS
330
119D
102
}
330
1F
100
AcDbEntity
  8
実線
100
AcDbLine
 10
103.3008163837405
 20
344.7883708733131
 30
0.0
 11
131.3008163837405
 21
344.7883708733131
 31
0.0
  0
LINE
  5
106F
102
{ACAD_REACTORS
330
119D
102
}
330
1F
100
AcDbEntity
  8
実線
100
AcDbLine
 10
103.3008163837405
 20
354.7883708733131
 30
0.0
 11
131.3008163837405
 21
354.7883708733131
 31
0.0
  0
LINE
  5
1070
102
{ACAD_REACTORS
330
119D
102
}
330
1F
100
AcDbEntity
  8
実線
100
AcDbLine
 10
106.3008163837405
 20
377.9883708733131
 30
0.0
 11
106.3008163837405
 21
354.7883708733131
 31
0.0
  0
LINE
  5
1071
102
{ACAD_REACTORS
330
119D
102
}
330
1F
100
AcDbEntity
  8
実線
100
AcDbLine
 10
128.3008163837405
 20
354.7883708733131
 30
0.0
 11
128.3008163837405
 21
377.9883708733131
 31
0.0
  0
LINE
  5
1072
102
{ACAD_REACTORS
330
119D
102
}
330
1F
100
AcDbEntity
  8
実線
100
AcDbLine
 10
201.5868732999365
 20
719.9883708733131
 30
0.0
 11
199.3008163837405
 21
723.2213435685543
 31
0.0
  0
LINE
  5
1073
102
{ACAD_REACTORS
330
119D
102
}
330
1F
100
AcDbEntity
  8
実線
100
AcDbLine
 10
162.8010226331589
 20
690.289886063478
 30
0.0
 11
180.5868732999365
 21
690.289886063478
 31
0.0
  0
LINE
  5
1074
102
{ACAD_REACTORS
330
119D
102
}
330
1F
100
AcDbEntity
  8
実線
100
AcDbLine
 10
180.5868732999365
 20
690.289886063478
 30
0.0
 11
201.5868732999365
 21
719.9883708733131
 31
0.0
  0
LINE
  5
1075
102
{ACAD_REACTORS
330
119D
102
}
330
1F
100
AcDbEntity
  8
実線
100
AcDbLine
 10
174.576465659851
 20
719.9883708733131
 30
0.0
 11
201.5868732999365
 21
719.9883708733131
 31
0.0
  0
LINE
  5
1076
102
{ACAD_REACTORS
330
119D
102
}
330
1F
100
AcDbEntity
  8
実線
100
AcDbLine
 10
200.5070049497815
 20
737.9883708733128
 30
0.0
 11
200.5070049497815
 21
744.4883708733128
 31
0.0
  0
LINE
  5
1077
102
{ACAD_REACTORS
330
119D
102
}
330
1F
100
AcDbEntity
  8
実線
100
AcDbLine
 10
200.5070049497815
 20
744.4883708733128
 30
0.0
 11
199.3008163837405
 21
744.4883708733128
 31
0.0
  0
LINE
  5
1078
102
{ACAD_REACTORS
330
119D
102
}
330
1F
100
AcDbEntity
  8
実線
100
AcDbLine
 10
204.5931485211552
 20
737.9883708733128
 30
0.0
 11
199.3008163837405
 21
737.9883708733128
 31
0.0
  0
LINE
  5
1079
102
{ACAD_REACTORS
330
119D
102
}
330
1F
100
AcDbEntity
  8
実線
100
AcDbLine
 10
204.5931485211552
 20
734.9883708733129
 30
0.0
 11
204.5931485211552
 21
737.9883708733128
 31
0.0
  0
LINE
  5
107A
102
{ACAD_REACTORS
330
119D
102
}
330
1F
100
AcDbEntity
  8
実線
100
AcDbLine
 10
199.3008163837405
 20
734.9883708733129
 30
0.0
 11
208.6590125130376
 21
734.9883708733129
 31
0.0
  0
LINE
  5
107B
102
{ACAD_REACTORS
330
119D
102
}
330
1F
100
AcDbEntity
  8
実線
100
AcDbLine
 10
196.6371258316305
 20
712.9883708733128
 30
0.0
 11
208.6590125130376
 21
712.9883708733128
 31
0.0
  0
LINE
  5
107C
102
{ACAD_REACTORS
330
119D
102
}
330
1F
100
AcDbEntity
  8
実線
100
AcDbLine
 10
208.6590125130376
 20
712.9883708733128
 30
0.0
 11
208.6590125130376
 21
734.9883708733129
 31
0.0
  0
LINE
  5
107D
102
{ACAD_REACTORS
330
119D
102
}
330
1F
100
AcDbEntity
  8
実線
100
AcDbLine
 10
166.3008163837405
 20
809.4883708733132
 30
0.0
 11
68.30081638374053
 21
809.4883708733132
 31
0.0
  0
LINE
  5
107E
102
{ACAD_REACTORS
330
119D
102
}
330
1F
100
AcDbEntity
  8
実線
100
AcDbLine
 10
68.30081638374053
 20
809.4883708733132
 30
0.0
 11
68.30081638374053
 21
804.4883708733131
 31
0.0
  0
LINE
  5
107F
102
{ACAD_REACTORS
330
119D
102
}
330
1F
100
AcDbEntity
  8
実線
100
AcDbLine
 10
166.3008163837405
 20
804.4883708733131
 30
0.0
 11
166.3008163837405
 21
809.4883708733132
 31
0.0
  0
LINE
  5
1080
102
{ACAD_REACTORS
330
119D
102
}
330
1F
100
AcDbEntity
  8
実線
100
AcDbLine
 10
173.8039819757964
 20
804.4883708733131
 30
0.0
 11
139.6790596708836
 21
804.4883708733131
 31
0.0
  0
LINE
  5
1081
102
{ACAD_REACTORS
330
119D
102
}
330
1F
100
AcDbEntity
  8
実線
100
AcDbLine
 10
173.8039819757964
 20
789.488370873313
 30
0.0
 11
173.8039819757964
 21
804.4883708733131
 31
0.0
  0
LINE
  5
1082
102
{ACAD_REACTORS
330
119D
102
}
330
1F
100
AcDbEntity
  8
実線
100
AcDbLine
 10
60.79765079168487
 20
804.4883708733131
 30
0.0
 11
60.79765079168487
 21
789.488370873313
 31
0.0
  0
LINE
  5
1083
102
{ACAD_REACTORS
330
119D
102
}
330
1F
100
AcDbEntity
  8
実線
100
AcDbLine
 10
60.79765079168487
 20
804.4883708733131
 30
0.0
 11
94.92257309659748
 21
804.4883708733131
 31
0.0
  0
LINE
  5
1084
102
{ACAD_REACTORS
330
119D
102
}
330
1F
100
AcDbEntity
  8
実線
100
AcDbLine
 10
94.92257309659748
 20
804.4883708733131
 30
0.0
 11
94.92257309659748
 21
789.488370873313
 31
0.0
  0
LINE
  5
1085
102
{ACAD_REACTORS
330
119D
102
}
330
1F
100
AcDbEntity
  8
実線
100
AcDbLine
 10
139.6790596708836
 20
804.4883708733131
 30
0.0
 11
139.6790596708836
 21
789.488370873313
 31
0.0
  0
LINE
  5
1086
102
{ACAD_REACTORS
330
119D
102
}
330
1F
100
AcDbEntity
  8
実線
100
AcDbLine
 10
68.30081638374053
 20
630.4883708733131
 30
0.0
 11
166.3008163837405
 21
630.4883708733131
 31
0.0
  0
LINE
  5
1087
102
{ACAD_REACTORS
330
119D
102
}
330
1F
100
AcDbEntity
  8
実線
100
AcDbLine
 10
166.3008163837405
 20
630.4883708733131
 30
0.0
 11
166.3008163837405
 21
635.488370873313
 31
0.0
  0
LINE
  5
1088
102
{ACAD_REACTORS
330
119D
102
}
330
1F
100
AcDbEntity
  8
実線
100
AcDbLine
 10
68.30081638374053
 20
635.488370873313
 30
0.0
 11
68.30081638374053
 21
630.4883708733131
 31
0.0
  0
LINE
  5
1089
102
{ACAD_REACTORS
330
119D
102
}
330
1F
100
AcDbEntity
  8
実線
100
AcDbLine
 10
60.79765079168464
 20
635.488370873313
 30
0.0
 11
94.92257309659748
 21
635.488370873313
 31
0.0
  0
LINE
  5
108A
102
{ACAD_REACTORS
330
119D
102
}
330
1F
100
AcDbEntity
  8
実線
100
AcDbLine
 10
60.79765079168464
 20
650.4883708733131
 30
0.0
 11
60.79765079168464
 21
635.488370873313
 31
0.0
  0
LINE
  5
108B
102
{ACAD_REACTORS
330
119D
102
}
330
1F
100
AcDbEntity
  8
実線
100
AcDbLine
 10
173.8039819757962
 20
635.488370873313
 30
0.0
 11
173.8039819757962
 21
650.4883708733131
 31
0.0
  0
LINE
  5
108C
102
{ACAD_REACTORS
330
119D
102
}
330
1F
100
AcDbEntity
  8
実線
100
AcDbLine
 10
173.8039819757962
 20
635.488370873313
 30
0.0
 11
139.6790596708836
 21
635.488370873313
 31
0.0
  0
LINE
  5
108D
102
{ACAD_REACTORS
330
119D
102
}
330
1F
100
AcDbEntity
  8
実線
100
AcDbLine
 10
139.6790596708836
 20
635.488370873313
 30
0.0
 11
139.6790596708836
 21
650.4883708733131
 31
0.0
  0
LINE
  5
108E
102
{ACAD_REACTORS
330
119D
102
}
330
1F
100
AcDbEntity
  8
実線
100
AcDbLine
 10
94.92257309659748
 20
635.488370873313
 30
0.0
 11
94.92257309659748
 21
650.4883708733131
 31
0.0
  0
LINE
  5
108F
102
{ACAD_REACTORS
330
119D
102
}
330
1F
100
AcDbEntity
  8
実線
100
AcDbLine
 10
164.8008163837405
 20
1061.988370873313
 30
0.0
 11
69.80081638374054
 21
1061.988370873313
 31
0.0
  0
ARC
  5
1090
102
{ACAD_REACTORS
330
119D
102
}
330
1F
100
AcDbEntity
  8
実線
100
AcDbCircle
 10
164.8008163837405
 20
1056.988370873313
 30
0.0
 40
5.0
100
AcDbArc
 50
0.0
 51
90.0
  0
ARC
  5
1091
102
{ACAD_REACTORS
330
119D
102
}
330
1F
100
AcDbEntity
  8
実線
100
AcDbCircle
 10
69.80081638374054
 20
1056.988370873313
 30
0.0
 40
5.0
100
AcDbArc
 50
90.0
 51
180.0
  0
LINE
  5
1092
102
{ACAD_REACTORS
330
119D
102
}
330
1F
100
AcDbEntity
  8
実線
100
AcDbLine
 10
158.530289803238
 20
699.4473177123079
 30
0.0
 11
155.2940047258623
 21
705.0527278940994
 31
0.0
  0
ARC
  5
1093
102
{ACAD_REACTORS
330
119D
102
}
330
1F
100
AcDbEntity
  8
実線
100
AcDbCircle
 10
108.3008163837405
 20
670.4473177123079
 30
0.0
 40
58.0
100
AcDbArc
 50
0.0
 51
29.99999999999517
  0
ARC
  5
1094
102
{ACAD_REACTORS
330
119D
102
}
330
1F
100
AcDbEntity
  8
実線
100
AcDbCircle
 10
126.3008163837405
 20
670.4473177123079
 30
0.0
 40
58.0
100
AcDbArc
 50
151.1673734788021
 51
180.0
  0
LINE
  5
1095
102
{ACAD_REACTORS
330
119D
102
}
330
1F
100
AcDbEntity
  8
実線
100
AcDbLine
 10
68.30081638374053
 20
670.4473177123079
 30
0.0
 11
68.30081638374053
 21
665.488370873313
 31
0.0
  0
LINE
  5
1096
102
{ACAD_REACTORS
330
119D
102
}
330
1F
100
AcDbEntity
  8
実線
100
AcDbLine
 10
166.3008163837405
 20
665.488370873313
 30
0.0
 11
166.3008163837405
 21
670.4473177123079
 31
0.0
  0
LINE
  5
1097
102
{ACAD_REACTORS
330
119D
102
}
330
1F
100
AcDbEntity
  8
実線
100
AcDbLine
 10
110.3008163837405
 20
344.0383708733131
 30
0.0
 11
110.3008163837405
 21
337.9883708733132
 31
0.0
  0
LINE
  5
1098
102
{ACAD_REACTORS
330
119D
102
}
330
1F
100
AcDbEntity
  8
実線
100
AcDbLine
 10
110.3008163837405
 20
337.9883708733132
 30
0.0
 11
137.3008163837405
 21
337.9883708733132
 31
0.0
  0
LINE
  5
1099
102
{ACAD_REACTORS
330
119D
102
}
330
1F
100
AcDbEntity
  8
実線
100
AcDbLine
 10
137.3008163837405
 20
346.4883708733131
 30
0.0
 11
137.3008163837405
 21
337.9883708733132
 31
0.0
  0
LINE
  5
109A
102
{ACAD_REACTORS
330
119D
102
}
330
1F
100
AcDbEntity
  8
実線
100
AcDbLine
 10
137.3008163837405
 20
366.4883708733131
 30
0.0
 11
137.3008163837405
 21
349.4883708733131
 31
0.0
  0
LINE
  5
109B
102
{ACAD_REACTORS
330
119D
102
}
330
1F
100
AcDbEntity
  8
実線
100
AcDbLine
 10
137.3008163837405
 20
376.7883708733132
 30
0.0
 11
137.3008163837405
 21
369.4883708733132
 31
0.0
  0
LINE
  5
109C
102
{ACAD_REACTORS
330
119D
102
}
330
1F
100
AcDbEntity
  8
実線
100
AcDbLine
 10
131.3008163837405
 20
376.7883708733132
 30
0.0
 11
152.3008163837405
 21
376.7883708733132
 31
0.0
  0
LINE
  5
109D
102
{ACAD_REACTORS
330
119D
102
}
330
1F
100
AcDbEntity
  8
実線
100
AcDbLine
 10
131.3008163837405
 20
377.9883708733132
 30
0.0
 11
131.3008163837405
 21
376.7883708733132
 31
0.0
  0
LINE
  5
109E
102
{ACAD_REACTORS
330
119D
102
}
330
1F
100
AcDbEntity
  8
実線
100
AcDbLine
 10
152.3008163837405
 20
377.9883708733132
 30
0.0
 11
152.3008163837405
 21
376.7883708733132
 31
0.0
  0
LINE
  5
109F
102
{ACAD_REACTORS
330
119D
102
}
330
1F
100
AcDbEntity
  8
実線
100
AcDbLine
 10
69.80081638374054
 20
377.9883708733131
 30
0.0
 11
164.8008163837405
 21
377.9883708733131
 31
0.0
  0
ARC
  5
10A0
102
{ACAD_REACTORS
330
119D
102
}
330
1F
100
AcDbEntity
  8
実線
100
AcDbCircle
 10
69.80081638374054
 20
382.9883708733131
 30
0.0
 40
5.0
100
AcDbArc
 50
180.0
 51
270.0
  0
ARC
  5
10A1
102
{ACAD_REACTORS
330
119D
102
}
330
1F
100
AcDbEntity
  8
実線
100
AcDbCircle
 10
164.8008163837405
 20
382.9883708733131
 30
0.0
 40
5.0
100
AcDbArc
 50
270.0
 51
0.0
  0
LINE
  5
10A2
102
{ACAD_REACTORS
330
119D
102
}
330
1F
100
AcDbEntity
  8
実線
100
AcDbLine
 10
64.80081638374054
 20
382.9883708733131
 30
0.0
 11
169.8008163837405
 21
382.9883708733131
 31
0.0
  0
LINE
  5
10A3
102
{ACAD_REACTORS
330
119D
102
}
330
1F
100
AcDbEntity
  8
実線
100
AcDbLine
 10
131.8008163837405
 20
1061.988370873313
 30
0.0
 11
131.8008163837405
 21
1063.188370873313
 31
0.0
  0
LINE
  5
10A4
102
{ACAD_REACTORS
330
119D
102
}
330
1F
100
AcDbEntity
  8
実線
100
AcDbLine
 10
139.8008163837405
 20
1063.188370873313
 30
0.0
 11
131.8008163837405
 21
1063.188370873313
 31
0.0
  0
LINE
  5
10A5
102
{ACAD_REACTORS
330
119D
102
}
330
1F
100
AcDbEntity
  8
実線
100
AcDbLine
 10
139.8008163837405
 20
1101.988370873313
 30
0.0
 11
139.8008163837405
 21
1061.988370873313
 31
0.0
  0
LINE
  5
10A6
102
{ACAD_REACTORS
330
119D
102
}
330
1F
100
AcDbEntity
  8
実線
100
AcDbLine
 10
141.0008163837406
 20
1063.188370873313
 30
0.0
 11
141.0008163837406
 21
1101.988370873313
 31
0.0
  0
LINE
  5
10A7
102
{ACAD_REACTORS
330
119D
102
}
330
1F
100
AcDbEntity
  8
実線
100
AcDbLine
 10
141.0008163837406
 20
1101.988370873313
 30
0.0
 11
139.8008163837405
 21
1101.988370873313
 31
0.0
  0
LINE
  5
10A8
102
{ACAD_REACTORS
330
119D
102
}
330
1F
100
AcDbEntity
  8
実線
100
AcDbLine
 10
160.8008163837405
 20
1063.188370873313
 30
0.0
 11
141.0008163837406
 21
1063.188370873313
 31
0.0
  0
LINE
  5
10A9
102
{ACAD_REACTORS
330
119D
102
}
330
1F
100
AcDbEntity
  8
実線
100
AcDbLine
 10
160.8008163837405
 20
1061.988370873313
 30
0.0
 11
160.8008163837405
 21
1063.188370873313
 31
0.0
  0
LINE
  5
10AA
102
{ACAD_REACTORS
330
119F
102
}
330
1F
100
AcDbEntity
  8
実線
100
AcDbLine
 10
423.5567217806351
 20
182.0016355836583
 30
0.0
 11
432.6076885798056
 21
191.0526023828288
 31
0.0
  0
LINE
  5
10AB
102
{ACAD_REACTORS
330
119F
102
}
330
1F
100
AcDbEntity
  8
実線
100
AcDbLine
 10
428.3650478932563
 20
195.2952430693782
 30
0.0
 11
419.3140810940858
 21
186.2442762702076
 31
0.0
  0
LINE
  5
10AC
102
{ACAD_REACTORS
330
119F
102
}
330
1F
100
AcDbEntity
  8
実線
100
AcDbLine
 10
443.2142902979062
 20
186.1028549142554
 30
0.0
 11
430.486368236548
 21
173.3749328528974
 31
0.0
  0
LINE
  5
10AD
102
{ACAD_REACTORS
330
119F
102
}
330
1F
100
AcDbEntity
  8
実線
100
AcDbLine
 10
444.0628184353299
 20
185.2543267768315
 30
0.0
 11
443.2142902979062
 21
186.1028549142554
 31
0.0
  0
LINE
  5
10AE
102
{ACAD_REACTORS
330
119F
102
}
330
1F
100
AcDbEntity
  8
実線
100
AcDbLine
 10
431.3348963739722
 20
172.5264047154736
 30
0.0
 11
444.0628184353299
 21
185.2543267768315
 31
0.0
  0
LINE
  5
10AF
102
{ACAD_REACTORS
330
119F
102
}
330
1F
100
AcDbEntity
  8
実線
100
AcDbLine
 10
280.600816383741
 20
94.58837087331323
 30
0.0
 11
311.3542169448269
 21
94.58837087331323
 31
0.0
  0
LINE
  5
10B0
102
{ACAD_REACTORS
330
119F
102
}
330
1F
100
AcDbEntity
  8
実線
100
AcDbLine
 10
311.3542169448269
 20
145.3883708733132
 30
0.0
 11
280.600816383741
 21
145.3883708733132
 31
0.0
  0
LINE
  5
10B1
102
{ACAD_REACTORS
330
119F
102
}
330
1F
100
AcDbEntity
  8
実線
100
AcDbLine
 10
280.600816383741
 20
145.3883708733132
 30
0.0
 11
278.2008163837409
 21
151.9883708733132
 31
0.0
  0
LINE
  5
10B2
102
{ACAD_REACTORS
330
119F
102
}
330
1F
100
AcDbEntity
  8
実線
100
AcDbLine
 10
278.2008163837409
 20
87.98837087331321
 30
0.0
 11
280.600816383741
 21
94.58837087331323
 31
0.0
  0
LINE
  5
10B3
102
{ACAD_REACTORS
330
119F
102
}
330
1F
100
AcDbEntity
  8
実線
100
AcDbLine
 10
280.600816383741
 20
145.3883708733132
 30
0.0
 11
280.600816383741
 21
94.58837087331323
 31
0.0
  0
LINE
  5
10B4
102
{ACAD_REACTORS
330
119F
102
}
330
1F
100
AcDbEntity
  8
実線
100
AcDbLine
 10
275.3008163837407
 20
87.98837087331321
 30
0.0
 11
278.2008163837409
 21
87.98837087331321
 31
0.0
  0
LINE
  5
10B5
102
{ACAD_REACTORS
330
119F
102
}
330
1F
100
AcDbEntity
  8
実線
100
AcDbLine
 10
278.2008163837409
 20
151.9883708733132
 30
0.0
 11
275.3008163837407
 21
151.9883708733132
 31
0.0
  0
LINE
  5
10B6
102
{ACAD_REACTORS
330
119F
102
}
330
1F
100
AcDbEntity
  8
実線
100
AcDbLine
 10
275.3008163837407
 20
151.9883708733132
 30
0.0
 11
275.3008163837407
 21
87.98837087331321
 31
0.0
  0
LINE
  5
10B7
102
{ACAD_REACTORS
330
119F
102
}
330
1F
100
AcDbEntity
  8
実線
100
AcDbLine
 10
278.2008163837409
 20
151.9883708733132
 30
0.0
 11
278.2008163837409
 21
87.98837087331321
 31
0.0
  0
LINE
  5
10B8
102
{ACAD_REACTORS
330
119F
102
}
330
1F
100
AcDbEntity
  8
実線
100
AcDbLine
 10
434.0008163837405
 20
145.3883708733132
 30
0.0
 11
403.2474158226546
 21
145.3883708733132
 31
0.0
  0
LINE
  5
10B9
102
{ACAD_REACTORS
330
119F
102
}
330
1F
100
AcDbEntity
  8
実線
100
AcDbLine
 10
403.2474158226546
 20
94.58837087331323
 30
0.0
 11
434.0008163837405
 21
94.58837087331323
 31
0.0
  0
LINE
  5
10BA
102
{ACAD_REACTORS
330
119F
102
}
330
1F
100
AcDbEntity
  8
実線
100
AcDbLine
 10
439.3008163837407
 20
151.9883708733132
 30
0.0
 11
436.4008163837406
 21
151.9883708733132
 31
0.0
  0
LINE
  5
10BB
102
{ACAD_REACTORS
330
119F
102
}
330
1F
100
AcDbEntity
  8
実線
100
AcDbLine
 10
436.4008163837406
 20
87.98837087331321
 30
0.0
 11
439.3008163837407
 21
87.98837087331321
 31
0.0
  0
LINE
  5
10BC
102
{ACAD_REACTORS
330
119F
102
}
330
1F
100
AcDbEntity
  8
実線
100
AcDbLine
 10
439.3008163837407
 20
87.98837087331321
 30
0.0
 11
439.3008163837407
 21
151.9883708733132
 31
0.0
  0
LINE
  5
10BD
102
{ACAD_REACTORS
330
119F
102
}
330
1F
100
AcDbEntity
  8
実線
100
AcDbLine
 10
434.0008163837405
 20
94.58837087331323
 30
0.0
 11
436.4008163837406
 21
87.98837087331321
 31
0.0
  0
LINE
  5
10BE
102
{ACAD_REACTORS
330
119F
102
}
330
1F
100
AcDbEntity
  8
実線
100
AcDbLine
 10
436.4008163837406
 20
151.9883708733132
 30
0.0
 11
434.0008163837405
 21
145.3883708733132
 31
0.0
  0
LINE
  5
10BF
102
{ACAD_REACTORS
330
119F
102
}
330
1F
100
AcDbEntity
  8
実線
100
AcDbLine
 10
436.4008163837406
 20
87.98837087331321
 30
0.0
 11
436.4008163837406
 21
151.9883708733132
 31
0.0
  0
LINE
  5
10C0
102
{ACAD_REACTORS
330
119F
102
}
330
1F
100
AcDbEntity
  8
実線
100
AcDbLine
 10
434.0008163837405
 20
94.58837087331323
 30
0.0
 11
434.0008163837405
 21
145.3883708733132
 31
0.0
  0
LINE
  5
10C1
102
{ACAD_REACTORS
330
119F
102
}
330
1F
100
AcDbEntity
  8
実線
100
AcDbLine
 10
331.9008163837407
 20
196.6883708733132
 30
0.0
 11
331.9008163837407
 21
165.934970312227
 31
0.0
  0
LINE
  5
10C2
102
{ACAD_REACTORS
330
119F
102
}
330
1F
100
AcDbEntity
  8
実線
100
AcDbLine
 10
382.7008163837409
 20
187.3883708733132
 30
0.0
 11
382.7008163837409
 21
196.6883708733132
 31
0.0
  0
LINE
  5
10C3
102
{ACAD_REACTORS
330
119F
102
}
330
1F
100
AcDbEntity
  8
実線
100
AcDbLine
 10
325.3008163837407
 20
201.9883708733132
 30
0.0
 11
325.3008163837407
 21
199.0883708733132
 31
0.0
  0
LINE
  5
10C4
102
{ACAD_REACTORS
330
119F
102
}
330
1F
100
AcDbEntity
  8
実線
100
AcDbLine
 10
389.3008163837408
 20
199.0883708733132
 30
0.0
 11
389.3008163837408
 21
201.9883708733132
 31
0.0
  0
LINE
  5
10C5
102
{ACAD_REACTORS
330
119F
102
}
330
1F
100
AcDbEntity
  8
実線
100
AcDbLine
 10
389.3008163837408
 20
201.9883708733132
 30
0.0
 11
325.3008163837407
 21
201.9883708733132
 31
0.0
  0
LINE
  5
10C6
102
{ACAD_REACTORS
330
119F
102
}
330
1F
100
AcDbEntity
  8
実線
100
AcDbLine
 10
382.7008163837409
 20
196.6883708733132
 30
0.0
 11
389.3008163837408
 21
199.0883708733132
 31
0.0
  0
LINE
  5
10C7
102
{ACAD_REACTORS
330
119F
102
}
330
1F
100
AcDbEntity
  8
実線
100
AcDbLine
 10
325.3008163837407
 20
199.0883708733132
 30
0.0
 11
331.9008163837407
 21
196.6883708733132
 31
0.0
  0
LINE
  5
10C8
102
{ACAD_REACTORS
330
119F
102
}
330
1F
100
AcDbEntity
  8
実線
100
AcDbLine
 10
389.3008163837408
 20
199.0883708733132
 30
0.0
 11
325.3008163837407
 21
199.0883708733132
 31
0.0
  0
LINE
  5
10C9
102
{ACAD_REACTORS
330
119F
102
}
330
1F
100
AcDbEntity
  8
実線
100
AcDbLine
 10
382.7008163837409
 20
196.6883708733132
 30
0.0
 11
331.9008163837407
 21
196.6883708733132
 31
0.0
  0
LINE
  5
10CA
102
{ACAD_REACTORS
330
119F
102
}
330
1F
100
AcDbEntity
  8
実線
100
AcDbLine
 10
382.7008163837409
 20
43.28837087331328
 30
0.0
 11
382.7008163837409
 21
74.04177143439927
 31
0.0
  0
LINE
  5
10CB
102
{ACAD_REACTORS
330
119F
102
}
330
1F
100
AcDbEntity
  8
実線
100
AcDbLine
 10
331.9008163837407
 20
73.26347919228533
 30
0.0
 11
331.9008163837407
 21
43.28837087331328
 31
0.0
  0
LINE
  5
10CC
102
{ACAD_REACTORS
330
119F
102
}
330
1F
100
AcDbEntity
  8
実線
100
AcDbLine
 10
389.3008163837408
 20
37.98837087331321
 30
0.0
 11
389.3008163837408
 21
40.88837087331319
 31
0.0
  0
LINE
  5
10CD
102
{ACAD_REACTORS
330
119F
102
}
330
1F
100
AcDbEntity
  8
実線
100
AcDbLine
 10
325.3008163837407
 20
40.88837087331319
 30
0.0
 11
325.3008163837407
 21
37.98837087331321
 31
0.0
  0
LINE
  5
10CE
102
{ACAD_REACTORS
330
119F
102
}
330
1F
100
AcDbEntity
  8
実線
100
AcDbLine
 10
325.3008163837407
 20
37.98837087331321
 30
0.0
 11
389.3008163837408
 21
37.98837087331321
 31
0.0
  0
LINE
  5
10CF
102
{ACAD_REACTORS
330
119F
102
}
330
1F
100
AcDbEntity
  8
実線
100
AcDbLine
 10
331.9008163837407
 20
43.28837087331328
 30
0.0
 11
325.3008163837407
 21
40.88837087331319
 31
0.0
  0
LINE
  5
10D0
102
{ACAD_REACTORS
330
119F
102
}
330
1F
100
AcDbEntity
  8
実線
100
AcDbLine
 10
389.3008163837408
 20
40.88837087331319
 30
0.0
 11
382.7008163837409
 21
43.28837087331328
 31
0.0
  0
LINE
  5
10D1
102
{ACAD_REACTORS
330
119F
102
}
330
1F
100
AcDbEntity
  8
実線
100
AcDbLine
 10
325.3008163837407
 20
40.88837087331319
 30
0.0
 11
389.3008163837408
 21
40.88837087331319
 31
0.0
  0
LINE
  5
10D2
102
{ACAD_REACTORS
330
119F
102
}
330
1F
100
AcDbEntity
  8
実線
100
AcDbLine
 10
331.9008163837407
 20
43.28837087331328
 30
0.0
 11
382.7008163837409
 21
43.28837087331328
 31
0.0
  0
LINE
  5
10D3
102
{ACAD_REACTORS
330
119F
102
}
330
1F
100
AcDbEntity
  8
実線
100
AcDbLine
 10
331.3023081978627
 20
73.86198737816346
 30
0.0
 11
342.2383705432271
 21
62.92592503279934
 31
0.0
  0
LINE
  5
10D4
102
{ACAD_REACTORS
330
119F
102
}
330
1F
100
AcDbEntity
  8
実線
100
AcDbLine
 10
342.2383705432271
 20
62.92592503279934
 30
0.0
 11
347.6883189358027
 21
68.3758734253754
 31
0.0
  0
LINE
  5
10D5
102
{ACAD_REACTORS
330
119F
102
}
330
1F
100
AcDbEntity
  8
実線
100
AcDbLine
 10
311.1744328885911
 20
93.98986268743522
 30
0.0
 11
310.5759247027131
 21
94.58837087331323
 31
0.0
  0
LINE
  5
10D6
102
{ACAD_REACTORS
330
119F
102
}
330
1F
100
AcDbEntity
  8
実線
100
AcDbLine
 10
370.9490486618815
 20
175.636603151454
 30
0.0
 11
378.6214457266201
 21
167.9642060867156
 31
0.0
  0
LINE
  5
10D7
102
{ACAD_REACTORS
330
119F
102
}
330
1F
100
AcDbEntity
  8
実線
100
AcDbLine
 10
366.9133138316788
 20
171.600868321251
 30
0.0
 11
370.9490486618815
 21
175.636603151454
 31
0.0
  0
LINE
  5
10D8
102
{ACAD_REACTORS
330
119F
102
}
330
1F
100
AcDbEntity
  8
実線
100
AcDbLine
 10
323.6711619275775
 20
171.4581405120975
 30
0.0
 11
325.5870772475241
 21
175.7437405698724
 31
0.0
  0
LINE
  5
10D9
102
{ACAD_REACTORS
330
119F
102
}
330
1F
100
AcDbEntity
  8
実線
100
AcDbLine
 10
301.5454466871815
 20
151.7021100095298
 30
0.0
 11
305.8310467449564
 21
153.6180253294762
 31
0.0
  0
LINE
  5
10DA
102
{ACAD_REACTORS
330
119F
102
}
330
1F
100
AcDbEntity
  8
実線
100
AcDbLine
 10
303.6029107821123
 20
156.8001332635627
 30
0.0
 11
300.0251671076303
 21
153.222389589081
 31
0.0
  0
LINE
  5
10DB
102
{ACAD_REACTORS
330
119F
102
}
330
1F
100
AcDbEntity
  8
実線
100
AcDbLine
 10
304.8551240535685
 20
155.0117873759167
 30
0.0
 11
301.5454466871815
 21
151.7021100095298
 31
0.0
  0
LINE
  5
10DC
102
{ACAD_REACTORS
330
119F
102
}
330
1F
100
AcDbEntity
  8
実線
100
AcDbLine
 10
300.0251671076303
 20
153.2223895890808
 30
0.0
 11
301.5454466871815
 21
151.7021100095298
 31
0.0
  0
LINE
  5
10DD
102
{ACAD_REACTORS
330
119F
102
}
330
1F
100
AcDbEntity
  8
実線
100
AcDbLine
 10
325.5870772475241
 20
175.7437405698724
 30
0.0
 11
324.0667976679729
 21
177.2640201494237
 31
0.0
  0
LINE
  5
10DE
102
{ACAD_REACTORS
330
119F
102
}
330
1F
100
AcDbEntity
  8
実線
100
AcDbLine
 10
324.0667976679729
 20
177.2640201494237
 30
0.0
 11
320.4890539934913
 21
173.6862764749417
 31
0.0
  0
LINE
  5
10DF
102
{ACAD_REACTORS
330
119F
102
}
330
1F
100
AcDbEntity
  8
実線
100
AcDbLine
 10
325.5870772475241
 20
175.7437405698724
 30
0.0
 11
322.2773998811372
 21
172.4340632034856
 31
0.0
  0
CIRCLE
  5
10E0
102
{ACAD_REACTORS
330
119F
102
}
330
1F
100
AcDbEntity
  8
実線
100
AcDbCircle
 10
357.3008163837408
 20
119.9883708733131
 30
0.0
 40
52.5
  0
LINE
  5
10E1
102
{ACAD_REACTORS
330
119F
102
}
330
1F
100
AcDbEntity
  8
実線
100
AcDbLine
 10
371.9008163837407
 20
112.9883708733131
 30
0.0
 11
379.8008163837408
 21
112.9883708733131
 31
0.0
  0
LINE
  5
10E2
102
{ACAD_REACTORS
330
119F
102
}
330
1F
100
AcDbEntity
  8
実線
100
AcDbLine
 10
379.8008163837408
 20
137.9883708733131
 30
0.0
 11
371.9008163837407
 21
137.9883708733131
 31
0.0
  0
LINE
  5
10E3
102
{ACAD_REACTORS
330
119F
102
}
330
1F
100
AcDbEntity
  8
実線
100
AcDbLine
 10
371.9008163837407
 20
112.9883708733131
 30
0.0
 11
371.9008163837407
 21
137.9883708733131
 31
0.0
  0
LINE
  5
10E4
102
{ACAD_REACTORS
330
119F
102
}
330
1F
100
AcDbEntity
  8
実線
100
AcDbLine
 10
377.3508163837409
 20
137.9883708733131
 30
0.0
 11
377.3508163837409
 21
144.4883708733131
 31
0.0
  0
LINE
  5
10E5
102
{ACAD_REACTORS
330
119F
102
}
330
1F
100
AcDbEntity
  8
実線
100
AcDbLine
 10
374.350816383741
 20
144.4883708733131
 30
0.0
 11
374.350816383741
 21
137.9883708733131
 31
0.0
  0
LINE
  5
10E6
102
{ACAD_REACTORS
330
119F
102
}
330
1F
100
AcDbEntity
  8
実線
100
AcDbLine
 10
377.3508163837409
 20
144.4883708733131
 30
0.0
 11
374.350816383741
 21
144.4883708733131
 31
0.0
  0
CIRCLE
  5
10E7
102
{ACAD_REACTORS
330
119F
102
}
330
1F
100
AcDbEntity
  8
実線
100
AcDbCircle
 10
357.3008163837408
 20
119.9883708733131
 30
0.0
 40
14.0
  0
LINE
  5
10E8
102
{ACAD_REACTORS
330
119F
102
}
330
1F
100
AcDbEntity
  8
実線
100
AcDbLine
 10
441.5868732999365
 20
162.2744277895092
 30
0.0
 11
399.5868732999365
 21
204.2744277895092
 31
0.0
  0
LINE
  5
10E9
102
{ACAD_REACTORS
330
119F
102
}
330
1F
100
AcDbEntity
  8
実線
100
AcDbLine
 10
424.7008163837408
 20
145.3883708733132
 30
0.0
 11
441.5868732999365
 21
162.2744277895092
 31
0.0
  0
LINE
  5
10EA
102
{ACAD_REACTORS
330
119F
102
}
330
1F
100
AcDbEntity
  8
実線
100
AcDbLine
 10
409.6267181915449
 20
172.3142726811177
 30
0.0
 11
420.5868732999365
 21
183.2744277895092
 31
0.0
  0
LINE
  5
10EB
102
{ACAD_REACTORS
330
119F
102
}
330
1F
100
AcDbEntity
  8
実線
100
AcDbLine
 10
370.9490486618815
 20
175.636603151454
 30
0.0
 11
399.5868732999365
 21
204.2744277895092
 31
0.0
  0
LINE
  5
10EC
102
{ACAD_REACTORS
330
119F
102
}
330
1F
100
AcDbEntity
  8
実線
100
AcDbLine
 10
430.3803022194347
 20
201.6945594393542
 30
0.0
 11
424.7941586480615
 21
196.1084158679804
 31
0.0
  0
LINE
  5
10ED
102
{ACAD_REACTORS
330
119F
102
}
330
1F
100
AcDbEntity
  8
実線
100
AcDbLine
 10
424.7941586480615
 20
196.1084158679804
 30
0.0
 11
419.2080150766874
 21
201.6945594393542
 31
0.0
  0
LINE
  5
10EE
102
{ACAD_REACTORS
330
119F
102
}
330
1F
100
AcDbEntity
  8
実線
100
AcDbLine
 10
424.7941586480615
 20
207.2807030107278
 30
0.0
 11
430.3803022194347
 21
201.6945594393542
 31
0.0
  0
LINE
  5
10EF
102
{ACAD_REACTORS
330
119F
102
}
330
1F
100
AcDbEntity
  8
実線
100
AcDbLine
 10
434.0572574815401
 20
188.1181092406371
 30
0.0
 11
439.6434010529142
 21
182.5319656692633
 31
0.0
  0
LINE
  5
10F0
102
{ACAD_REACTORS
330
119F
102
}
330
1F
100
AcDbEntity
  8
実線
100
AcDbLine
 10
428.4711139101668
 20
182.5319656692633
 30
0.0
 11
434.0572574815401
 21
188.1181092406371
 31
0.0
  0
LINE
  5
10F1
102
{ACAD_REACTORS
330
119F
102
}
330
1F
100
AcDbEntity
  8
実線
100
AcDbLine
 10
434.0572574815401
 20
176.9458220978896
 30
0.0
 11
428.4711139101668
 21
182.5319656692633
 31
0.0
  0
LINE
  5
10F2
102
{ACAD_REACTORS
330
119F
102
}
330
1F
100
AcDbEntity
  8
実線
100
AcDbLine
 10
409.8388502259654
 20
194.0224508634801
 30
0.0
 11
427.162966365096
 21
211.3465670026103
 31
0.0
  0
LINE
  5
10F3
102
{ACAD_REACTORS
330
119F
102
}
330
1F
100
AcDbEntity
  8
実線
100
AcDbLine
 10
428.0114945025197
 20
210.4980388651863
 30
0.0
 11
410.6873783633895
 21
193.1739227260561
 31
0.0
  0
LINE
  5
10F4
102
{ACAD_REACTORS
330
119F
102
}
330
1F
100
AcDbEntity
  8
実線
100
AcDbLine
 10
428.0114945025197
 20
210.4980388651863
 30
0.0
 11
427.162966365096
 21
211.3465670026103
 31
0.0
  0
LINE
  5
10F5
102
{ACAD_REACTORS
330
119F
102
}
330
1F
100
AcDbEntity
  8
実線
100
AcDbLine
 10
434.0219021424636
 20
189.6383888201708
 30
0.0
 11
436.1432224860232
 21
191.7597091637303
 31
0.0
  0
LINE
  5
10F6
102
{ACAD_REACTORS
330
119F
102
}
330
1F
100
AcDbEntity
  8
実線
100
AcDbLine
 10
429.0721546741578
 20
198.8307769755959
 30
0.0
 11
426.9508343305983
 21
196.7094566320362
 31
0.0
  0
LINE
  5
10F7
102
{ACAD_REACTORS
330
119F
102
}
330
1F
100
AcDbEntity
  8
実線
100
AcDbLine
 10
429.0721546741578
 20
198.8307769755959
 30
0.0
 11
436.1432224860232
 21
191.7597091637303
 31
0.0
  0
LINE
  5
10F8
102
{ACAD_REACTORS
330
119F
102
}
330
1F
100
AcDbEntity
  8
実線
100
AcDbLine
 10
426.9508343305983
 20
196.7094566320362
 30
0.0
 11
434.0219021424636
 21
189.6383888201708
 31
0.0
  0
LINE
  5
10F9
102
{ACAD_REACTORS
330
119F
102
}
330
1F
100
AcDbEntity
  8
実線
100
AcDbLine
 10
431.3348963739722
 20
174.2234609903214
 30
0.0
 11
411.5359065008133
 21
194.02245086348
 31
0.0
  0
ARC
  5
10FA
102
{ACAD_REACTORS
330
119F
102
}
330
1F
100
AcDbEntity
  8
実線
100
AcDbCircle
 10
310.7976507916851
 20
76.01729413055159
 30
0.0
 40
10.0
100
AcDbArc
 50
145.0000000000101
 51
223.3968902048118
  0
ARC
  5
10FB
102
{ACAD_REACTORS
330
119F
102
}
330
1F
100
AcDbEntity
  8
実線
100
AcDbCircle
 10
357.3008163837408
 20
119.9883708733133
 30
0.0
 40
74.00000000000019
100
AcDbArc
 50
223.3968902048118
 51
226.6031097951764
  0
ARC
  5
10FC
102
{ACAD_REACTORS
330
119F
102
}
330
1F
100
AcDbEntity
  8
実線
100
AcDbCircle
 10
313.3297396409794
 20
73.48520528125732
 30
0.0
 40
10.00000000000001
100
AcDbArc
 50
226.6031097951764
 51
305.000000000008
  0
LINE
  5
10FD
102
{ACAD_REACTORS
330
119F
102
}
330
1F
100
AcDbEntity
  8
実線
100
AcDbLine
 10
311.4600798005572
 20
94.3978087553919
 30
0.0
 11
302.606130348795
 21
81.75305849406198
 31
0.0
  0
LINE
  5
10FE
102
{ACAD_REACTORS
330
119F
102
}
330
1F
100
AcDbEntity
  8
実線
100
AcDbLine
 10
319.0655040044898
 20
65.29368483836731
 30
0.0
 11
331.7102542658195
 21
74.14763429012976
 31
0.0
  0
ARC
  5
10FF
102
{ACAD_REACTORS
330
119F
102
}
330
1F
100
AcDbEntity
  8
実線
100
AcDbCircle
 10
403.8039819757964
 20
163.9594476160748
 30
0.0
 40
10.00000000000003
100
AcDbArc
 50
325.0000000000101
 51
43.39689020481184
  0
ARC
  5
1100
102
{ACAD_REACTORS
330
119F
102
}
330
1F
100
AcDbEntity
  8
実線
100
AcDbCircle
 10
357.3008163837408
 20
119.9883708733132
 30
0.0
 40
73.99999999999984
100
AcDbArc
 50
43.39689020481184
 51
46.60310979517645
  0
ARC
  5
1101
102
{ACAD_REACTORS
330
119F
102
}
330
1F
100
AcDbEntity
  8
実線
100
AcDbCircle
 10
401.2718931265021
 20
166.491536465369
 30
0.0
 40
9.999999999999976
100
AcDbArc
 50
46.60310979517645
 51
125.000000000008
  0
LINE
  5
1102
102
{ACAD_REACTORS
330
119F
102
}
330
1F
100
AcDbEntity
  8
実線
100
AcDbLine
 10
403.1415529669243
 20
145.5789329912345
 30
0.0
 11
411.9955024186865
 21
158.2236832525643
 31
0.0
  0
LINE
  5
1103
102
{ACAD_REACTORS
330
119F
102
}
330
1F
100
AcDbEntity
  8
実線
100
AcDbLine
 10
395.5361287629921
 20
174.683056908259
 30
0.0
 11
382.891378501662
 21
165.8291074564965
 31
0.0
  0
LINE
  5
1104
102
{ACAD_REACTORS
330
119F
102
}
330
1F
100
AcDbEntity
  8
実線
100
AcDbLine
 10
382.891378501662
 20
74.14763429012976
 30
0.0
 11
395.5361287629921
 21
65.29368483836731
 31
0.0
  0
ARC
  5
1105
102
{ACAD_REACTORS
330
119F
102
}
330
1F
100
AcDbEntity
  8
実線
100
AcDbCircle
 10
401.2718931265021
 20
73.48520528125732
 30
0.0
 40
10.00000000000001
100
AcDbArc
 50
234.999999999992
 51
313.3968902048235
  0
ARC
  5
1106
102
{ACAD_REACTORS
330
119F
102
}
330
1F
100
AcDbEntity
  8
実線
100
AcDbCircle
 10
357.3008163837408
 20
119.9883708733133
 30
0.0
 40
73.99999999999997
100
AcDbArc
 50
313.3968902048235
 51
316.6031097951881
  0
ARC
  5
1107
102
{ACAD_REACTORS
330
119F
102
}
330
1F
100
AcDbEntity
  8
実線
100
AcDbCircle
 10
403.8039819757964
 20
76.01729413055159
 30
0.0
 40
10.00000000000001
100
AcDbArc
 50
316.6031097951881
 51
34.99999999998989
  0
LINE
  5
1108
102
{ACAD_REACTORS
330
119F
102
}
330
1F
100
AcDbEntity
  8
実線
100
AcDbLine
 10
411.9955024186865
 20
81.75305849406198
 30
0.0
 11
403.1415529669243
 21
94.39780875539179
 31
0.0
  0
LINE
  5
1109
102
{ACAD_REACTORS
330
119F
102
}
330
1F
100
AcDbEntity
  8
実線
100
AcDbLine
 10
331.7102542658195
 20
165.8291074564965
 30
0.0
 11
319.0655040044898
 21
174.6830569082589
 31
0.0
  0
ARC
  5
110A
102
{ACAD_REACTORS
330
119F
102
}
330
1F
100
AcDbEntity
  8
実線
100
AcDbCircle
 10
313.3297396409794
 20
166.491536465369
 30
0.0
 40
10.00000000000002
100
AcDbArc
 50
54.99999999999197
 51
133.3968902048235
  0
ARC
  5
110B
102
{ACAD_REACTORS
330
119F
102
}
330
1F
100
AcDbEntity
  8
実線
100
AcDbCircle
 10
357.3008163837408
 20
119.9883708733133
 30
0.0
 40
74.00000000000003
100
AcDbArc
 50
133.3968902048235
 51
136.6031097951881
  0
ARC
  5
110C
102
{ACAD_REACTORS
330
119F
102
}
330
1F
100
AcDbEntity
  8
実線
100
AcDbCircle
 10
310.7976507916851
 20
163.9594476160748
 30
0.0
 40
10.00000000000001
100
AcDbArc
 50
136.6031097951881
 51
214.9999999999899
  0
LINE
  5
110D
102
{ACAD_REACTORS
330
119F
102
}
330
1F
100
AcDbEntity
  8
実線
100
AcDbLine
 10
302.606130348795
 20
158.2236832525643
 30
0.0
 11
311.4600798005572
 21
145.5789329912345
 31
0.0
  0
LINE
  5
110E
102
{ACAD_REACTORS
330
119F
102
}
330
1F
100
AcDbEntity
  8
実線
100
AcDbLine
 10
381.0008163837406
 20
154.9883708733131
 30
0.0
 11
381.0008163837406
 21
112.9883708733131
 31
0.0
  0
LINE
  5
110F
102
{ACAD_REACTORS
330
119F
102
}
330
1F
100
AcDbEntity
  8
実線
100
AcDbLine
 10
377.3008163837408
 20
154.9883708733131
 30
0.0
 11
377.3008163837408
 21
144.9883708733131
 31
0.0
  0
LINE
  5
1110
102
{ACAD_REACTORS
330
119F
102
}
330
1F
100
AcDbEntity
  8
実線
100
AcDbLine
 10
372.3008163837408
 20
149.9883708733131
 30
0.0
 11
382.3008163837408
 21
149.9883708733131
 31
0.0
  0
CIRCLE
  5
1111
102
{ACAD_REACTORS
330
119F
102
}
330
1F
100
AcDbEntity
  8
実線
100
AcDbCircle
 10
377.3008163837408
 20
149.9883708733131
 30
0.0
 40
2.0
  0
LINE
  5
1112
102
{ACAD_REACTORS
330
119F
102
}
330
1F
100
AcDbEntity
  8
実線
100
AcDbLine
 10
371.9008163837407
 20
133.9883708733131
 30
0.0
 11
371.8008163837408
 21
133.9883708733131
 31
0.0
  0
LINE
  5
1113
102
{ACAD_REACTORS
330
119F
102
}
330
1F
100
AcDbEntity
  8
実線
100
AcDbLine
 10
371.8008163837408
 20
133.9883708733131
 30
0.0
 11
371.8008163837408
 21
154.9883708733131
 31
0.0
  0
LINE
  5
1114
102
{ACAD_REACTORS
330
119F
102
}
330
1F
100
AcDbEntity
  8
実線
100
AcDbLine
 10
371.8008163837408
 20
154.9883708733131
 30
0.0
 11
381.0008163837406
 21
154.9883708733131
 31
0.0
  0
LINE
  5
1115
102
{ACAD_REACTORS
330
119F
102
}
330
1F
100
AcDbEntity
  8
実線
100
AcDbLine
 10
400.8008163837407
 20
112.9883708733131
 30
0.0
 11
379.8008163837408
 21
112.9883708733131
 31
0.0
  0
LINE
  5
1116
102
{ACAD_REACTORS
330
119F
102
}
330
1F
100
AcDbEntity
  8
実線
100
AcDbLine
 10
395.3008163837408
 20
122.9883708733131
 30
0.0
 11
395.3008163837408
 21
112.9883708733131
 31
0.0
  0
LINE
  5
1117
102
{ACAD_REACTORS
330
119F
102
}
330
1F
100
AcDbEntity
  8
実線
100
AcDbLine
 10
390.3008163837408
 20
117.9883708733131
 30
0.0
 11
400.3008163837407
 21
117.9883708733131
 31
0.0
  0
CIRCLE
  5
1118
102
{ACAD_REACTORS
330
119F
102
}
330
1F
100
AcDbEntity
  8
実線
100
AcDbCircle
 10
395.3008163837408
 20
117.9883708733131
 30
0.0
 40
2.0
  0
LINE
  5
1119
102
{ACAD_REACTORS
330
119F
102
}
330
1F
100
AcDbEntity
  8
実線
100
AcDbLine
 10
381.0008163837406
 20
122.9883708733131
 30
0.0
 11
400.8008163837407
 21
122.9883708733131
 31
0.0
  0
LINE
  5
111A
102
{ACAD_REACTORS
330
119F
102
}
330
1F
100
AcDbEntity
  8
実線
100
AcDbLine
 10
400.8008163837407
 20
122.9883708733131
 30
0.0
 11
400.8008163837407
 21
112.9883708733131
 31
0.0
  0
LINE
  5
111B
102
{ACAD_REACTORS
330
119F
102
}
330
1F
100
AcDbEntity
  8
実線
100
AcDbLine
 10
379.8008163837408
 20
112.9883708733131
 30
0.0
 11
379.8008163837408
 21
139.9883708733131
 31
0.0
  0
LINE
  5
111C
102
{ACAD_REACTORS
330
119F
102
}
330
1F
100
AcDbEntity
  8
実線
100
AcDbLine
 10
379.8008163837408
 20
139.9883708733131
 30
0.0
 11
381.0008163837406
 21
139.9883708733131
 31
0.0
  0
LINE
  5
111D
102
{ACAD_REACTORS
330
119E
102
}
330
1F
100
AcDbEntity
  8
実線
100
AcDbLine
 10
419.3140810940913
 20
1253.732465476418
 30
0.0
 11
428.3650478932618
 21
1244.681498677248
 31
0.0
  0
LINE
  5
111E
102
{ACAD_REACTORS
330
119E
102
}
330
1F
100
AcDbEntity
  8
実線
100
AcDbLine
 10
432.607688579811
 20
1248.924139363797
 30
0.0
 11
423.5567217806406
 21
1257.975106162968
 31
0.0
  0
LINE
  5
111F
102
{ACAD_REACTORS
330
119E
102
}
330
1F
100
AcDbEntity
  8
実線
100
AcDbLine
 10
439.6434010529197
 20
1257.444776077363
 30
0.0
 11
443.2142902979117
 21
1253.873886832371
 31
0.0
  0
LINE
  5
1120
102
{ACAD_REACTORS
330
119E
102
}
330
1F
100
AcDbEntity
  8
実線
100
AcDbLine
 10
434.0572574815455
 20
1263.030919648736
 30
0.0
 11
430.4863682365534
 21
1266.601808893728
 31
0.0
  0
LINE
  5
1121
102
{ACAD_REACTORS
330
119E
102
}
330
1F
100
AcDbEntity
  8
実線
100
AcDbLine
 10
443.2142902979117
 20
1253.87388683237
 30
0.0
 11
444.0628184353354
 21
1254.722414969795
 31
0.0
  0
LINE
  5
1122
102
{ACAD_REACTORS
330
119E
102
}
330
1F
100
AcDbEntity
  8
実線
100
AcDbLine
 10
431.3348963739777
 20
1267.450337031152
 30
0.0
 11
444.0628184353354
 21
1254.722414969795
 31
0.0
  0
LINE
  5
1123
102
{ACAD_REACTORS
330
119E
102
}
330
1F
100
AcDbEntity
  8
実線
100
AcDbLine
 10
431.3348963739777
 20
1267.450337031152
 30
0.0
 11
430.9802715821438
 21
1267.095712239319
 31
0.0
  0
LINE
  5
1124
102
{ACAD_REACTORS
330
119E
102
}
330
1F
100
AcDbEntity
  8
実線
100
AcDbLine
 10
280.6008163837464
 20
1294.588370873313
 30
0.0
 11
311.3542169448324
 21
1294.588370873313
 31
0.0
  0
LINE
  5
1125
102
{ACAD_REACTORS
330
119E
102
}
330
1F
100
AcDbEntity
  8
実線
100
AcDbLine
 10
310.5759247027186
 20
1345.388370873313
 30
0.0
 11
280.6008163837464
 21
1345.388370873313
 31
0.0
  0
LINE
  5
1126
102
{ACAD_REACTORS
330
119E
102
}
330
1F
100
AcDbEntity
  8
実線
100
AcDbLine
 10
280.6008163837464
 20
1294.588370873313
 30
0.0
 11
280.6008163837464
 21
1345.388370873313
 31
0.0
  0
LINE
  5
1127
102
{ACAD_REACTORS
330
119E
102
}
330
1F
100
AcDbEntity
  8
実線
100
AcDbLine
 10
280.6008163837464
 20
1345.388370873313
 30
0.0
 11
278.2008163837463
 21
1351.988370873313
 31
0.0
  0
LINE
  5
1128
102
{ACAD_REACTORS
330
119E
102
}
330
1F
100
AcDbEntity
  8
実線
100
AcDbLine
 10
278.2008163837463
 20
1287.988370873313
 30
0.0
 11
280.6008163837464
 21
1294.588370873313
 31
0.0
  0
LINE
  5
1129
102
{ACAD_REACTORS
330
119E
102
}
330
1F
100
AcDbEntity
  8
実線
100
AcDbLine
 10
275.3008163837462
 20
1287.988370873313
 30
0.0
 11
275.3008163837462
 21
1351.988370873313
 31
0.0
  0
LINE
  5
112A
102
{ACAD_REACTORS
330
119E
102
}
330
1F
100
AcDbEntity
  8
実線
100
AcDbLine
 10
278.2008163837463
 20
1287.988370873313
 30
0.0
 11
278.2008163837463
 21
1351.988370873313
 31
0.0
  0
LINE
  5
112B
102
{ACAD_REACTORS
330
119E
102
}
330
1F
100
AcDbEntity
  8
実線
100
AcDbLine
 10
275.3008163837462
 20
1287.988370873313
 30
0.0
 11
278.2008163837463
 21
1287.988370873313
 31
0.0
  0
LINE
  5
112C
102
{ACAD_REACTORS
330
119E
102
}
330
1F
100
AcDbEntity
  8
実線
100
AcDbLine
 10
278.2008163837463
 20
1351.988370873313
 30
0.0
 11
275.3008163837462
 21
1351.988370873313
 31
0.0
  0
LINE
  5
112D
102
{ACAD_REACTORS
330
119E
102
}
330
1F
100
AcDbEntity
  8
実線
100
AcDbLine
 10
434.000816383746
 20
1345.388370873313
 30
0.0
 11
403.24741582266
 21
1345.388370873313
 31
0.0
  0
LINE
  5
112E
102
{ACAD_REACTORS
330
119E
102
}
330
1F
100
AcDbEntity
  8
実線
100
AcDbLine
 10
424.7008163837462
 20
1294.588370873313
 30
0.0
 11
434.000816383746
 21
1294.588370873313
 31
0.0
  0
LINE
  5
112F
102
{ACAD_REACTORS
330
119E
102
}
330
1F
100
AcDbEntity
  8
実線
100
AcDbLine
 10
434.000816383746
 20
1345.388370873313
 30
0.0
 11
434.000816383746
 21
1294.588370873313
 31
0.0
  0
LINE
  5
1130
102
{ACAD_REACTORS
330
119E
102
}
330
1F
100
AcDbEntity
  8
実線
100
AcDbLine
 10
434.000816383746
 20
1294.588370873313
 30
0.0
 11
436.4008163837461
 21
1287.988370873313
 31
0.0
  0
LINE
  5
1131
102
{ACAD_REACTORS
330
119E
102
}
330
1F
100
AcDbEntity
  8
実線
100
AcDbLine
 10
436.4008163837461
 20
1351.988370873313
 30
0.0
 11
434.000816383746
 21
1345.388370873313
 31
0.0
  0
LINE
  5
1132
102
{ACAD_REACTORS
330
119E
102
}
330
1F
100
AcDbEntity
  8
実線
100
AcDbLine
 10
439.3008163837462
 20
1351.988370873313
 30
0.0
 11
439.3008163837462
 21
1287.988370873313
 31
0.0
  0
LINE
  5
1133
102
{ACAD_REACTORS
330
119E
102
}
330
1F
100
AcDbEntity
  8
実線
100
AcDbLine
 10
436.4008163837461
 20
1351.988370873313
 30
0.0
 11
436.4008163837461
 21
1287.988370873313
 31
0.0
  0
LINE
  5
1134
102
{ACAD_REACTORS
330
119E
102
}
330
1F
100
AcDbEntity
  8
実線
100
AcDbLine
 10
439.3008163837462
 20
1351.988370873313
 30
0.0
 11
436.4008163837461
 21
1351.988370873313
 31
0.0
  0
LINE
  5
1135
102
{ACAD_REACTORS
330
119E
102
}
330
1F
100
AcDbEntity
  8
実線
100
AcDbLine
 10
436.4008163837461
 20
1287.988370873313
 30
0.0
 11
439.3008163837462
 21
1287.988370873313
 31
0.0
  0
LINE
  5
1136
102
{ACAD_REACTORS
330
119E
102
}
330
1F
100
AcDbEntity
  8
実線
100
AcDbLine
 10
382.7008163837463
 20
1243.288370873313
 30
0.0
 11
382.7008163837463
 21
1274.041771434399
 31
0.0
  0
LINE
  5
1137
102
{ACAD_REACTORS
330
119E
102
}
330
1F
100
AcDbEntity
  8
実線
100
AcDbLine
 10
331.9008163837461
 20
1274.041771434399
 30
0.0
 11
331.9008163837461
 21
1243.288370873313
 31
0.0
  0
LINE
  5
1138
102
{ACAD_REACTORS
330
119E
102
}
330
1F
100
AcDbEntity
  8
実線
100
AcDbLine
 10
389.3008163837462
 20
1237.988370873313
 30
0.0
 11
325.3008163837462
 21
1237.988370873313
 31
0.0
  0
LINE
  5
1139
102
{ACAD_REACTORS
330
119E
102
}
330
1F
100
AcDbEntity
  8
実線
100
AcDbLine
 10
389.3008163837462
 20
1237.988370873313
 30
0.0
 11
389.3008163837462
 21
1240.888370873313
 31
0.0
  0
LINE
  5
113A
102
{ACAD_REACTORS
330
119E
102
}
330
1F
100
AcDbEntity
  8
実線
100
AcDbLine
 10
325.3008163837462
 20
1240.888370873313
 30
0.0
 11
325.3008163837462
 21
1237.988370873313
 31
0.0
  0
LINE
  5
113B
102
{ACAD_REACTORS
330
119E
102
}
330
1F
100
AcDbEntity
  8
実線
100
AcDbLine
 10
389.3008163837462
 20
1240.888370873313
 30
0.0
 11
325.3008163837462
 21
1240.888370873313
 31
0.0
  0
LINE
  5
113C
102
{ACAD_REACTORS
330
119E
102
}
330
1F
100
AcDbEntity
  8
実線
100
AcDbLine
 10
382.7008163837463
 20
1243.288370873313
 30
0.0
 11
331.9008163837461
 21
1243.288370873313
 31
0.0
  0
LINE
  5
113D
102
{ACAD_REACTORS
330
119E
102
}
330
1F
100
AcDbEntity
  8
実線
100
AcDbLine
 10
331.9008163837461
 20
1243.288370873313
 30
0.0
 11
325.3008163837462
 21
1240.888370873313
 31
0.0
  0
LINE
  5
113E
102
{ACAD_REACTORS
330
119E
102
}
330
1F
100
AcDbEntity
  8
実線
100
AcDbLine
 10
389.3008163837462
 20
1240.888370873313
 30
0.0
 11
382.7008163837463
 21
1243.288370873313
 31
0.0
  0
LINE
  5
113F
102
{ACAD_REACTORS
330
119E
102
}
330
1F
100
AcDbEntity
  8
実線
100
AcDbLine
 10
331.9008163837461
 20
1396.688370873313
 30
0.0
 11
331.9008163837461
 21
1365.934970312227
 31
0.0
  0
LINE
  5
1140
102
{ACAD_REACTORS
330
119E
102
}
330
1F
100
AcDbEntity
  8
実線
100
AcDbLine
 10
382.7008163837463
 20
1365.934970312226
 30
0.0
 11
382.7008163837463
 21
1396.688370873313
 31
0.0
  0
LINE
  5
1141
102
{ACAD_REACTORS
330
119E
102
}
330
1F
100
AcDbEntity
  8
実線
100
AcDbLine
 10
325.3008163837462
 20
1401.988370873313
 30
0.0
 11
389.3008163837462
 21
1401.988370873313
 31
0.0
  0
LINE
  5
1142
102
{ACAD_REACTORS
330
119E
102
}
330
1F
100
AcDbEntity
  8
実線
100
AcDbLine
 10
325.3008163837462
 20
1401.988370873313
 30
0.0
 11
325.3008163837462
 21
1399.088370873313
 31
0.0
  0
LINE
  5
1143
102
{ACAD_REACTORS
330
119E
102
}
330
1F
100
AcDbEntity
  8
実線
100
AcDbLine
 10
389.3008163837462
 20
1399.088370873313
 30
0.0
 11
389.3008163837462
 21
1401.988370873313
 31
0.0
  0
LINE
  5
1144
102
{ACAD_REACTORS
330
119E
102
}
330
1F
100
AcDbEntity
  8
実線
100
AcDbLine
 10
325.3008163837462
 20
1399.088370873313
 30
0.0
 11
389.3008163837462
 21
1399.088370873313
 31
0.0
  0
LINE
  5
1145
102
{ACAD_REACTORS
330
119E
102
}
330
1F
100
AcDbEntity
  8
実線
100
AcDbLine
 10
331.9008163837461
 20
1396.688370873313
 30
0.0
 11
382.7008163837463
 21
1396.688370873313
 31
0.0
  0
LINE
  5
1146
102
{ACAD_REACTORS
330
119E
102
}
330
1F
100
AcDbEntity
  8
実線
100
AcDbLine
 10
382.7008163837463
 20
1396.688370873313
 30
0.0
 11
389.3008163837462
 21
1399.088370873313
 31
0.0
  0
LINE
  5
1147
102
{ACAD_REACTORS
330
119E
102
}
330
1F
100
AcDbEntity
  8
実線
100
AcDbLine
 10
325.3008163837462
 20
1399.088370873313
 30
0.0
 11
331.9008163837461
 21
1396.688370873313
 31
0.0
  0
LINE
  5
1148
102
{ACAD_REACTORS
330
119E
102
}
330
1F
100
AcDbEntity
  8
実線
100
AcDbLine
 10
300.2383705432326
 20
1335.050816713827
 30
0.0
 11
311.1744328885966
 21
1345.986879059191
 31
0.0
  0
LINE
  5
1149
102
{ACAD_REACTORS
330
119E
102
}
330
1F
100
AcDbEntity
  8
実線
100
AcDbLine
 10
300.2383705432326
 20
1335.050816713827
 30
0.0
 11
305.6883189358082
 21
1329.600868321251
 31
0.0
  0
LINE
  5
114A
102
{ACAD_REACTORS
330
119E
102
}
330
1F
100
AcDbEntity
  8
実線
100
AcDbLine
 10
412.949048661887
 20
1306.340138595172
 30
0.0
 11
405.2766515971484
 21
1298.667741530433
 31
0.0
  0
LINE
  5
114B
102
{ACAD_REACTORS
330
119E
102
}
330
1F
100
AcDbEntity
  8
実線
100
AcDbLine
 10
408.9133138316838
 20
1310.375873425375
 30
0.0
 11
412.949048661887
 21
1306.340138595172
 31
0.0
  0
LINE
  5
114C
102
{ACAD_REACTORS
330
119E
102
}
330
1F
100
AcDbEntity
  8
実線
100
AcDbLine
 10
331.3023081978681
 20
1366.114754368462
 30
0.0
 11
331.9008163837461
 21
1366.713262554341
 31
0.0
  0
LINE
  5
114D
102
{ACAD_REACTORS
330
119E
102
}
330
1F
100
AcDbEntity
  8
実線
100
AcDbLine
 10
305.8310467449619
 20
1286.358716417149
 30
0.0
 11
301.545446687187
 21
1288.274631737096
 31
0.0
  0
LINE
  5
114E
102
{ACAD_REACTORS
330
119E
102
}
330
1F
100
AcDbEntity
  8
実線
100
AcDbLine
 10
325.5870772475296
 20
1264.233001176753
 30
0.0
 11
323.6711619275829
 21
1268.518601234529
 31
0.0
  0
LINE
  5
114F
102
{ACAD_REACTORS
330
119E
102
}
330
1F
100
AcDbEntity
  8
実線
100
AcDbLine
 10
324.0667976679783
 20
1262.712721597202
 30
0.0
 11
325.5870772475296
 21
1264.233001176753
 31
0.0
  0
LINE
  5
1150
102
{ACAD_REACTORS
330
119E
102
}
330
1F
100
AcDbEntity
  8
実線
100
AcDbLine
 10
301.545446687187
 20
1288.274631737096
 30
0.0
 11
300.0251671076358
 21
1286.754352157545
 31
0.0
  0
LINE
  5
1151
102
{ACAD_REACTORS
330
119E
102
}
330
1F
100
AcDbEntity
  8
実線
100
AcDbLine
 10
320.4890539934968
 20
1266.290465271684
 30
0.0
 11
324.0667976679783
 21
1262.712721597202
 31
0.0
  0
LINE
  5
1152
102
{ACAD_REACTORS
330
119E
102
}
330
1F
100
AcDbEntity
  8
実線
100
AcDbLine
 10
300.0251671076358
 20
1286.754352157545
 30
0.0
 11
303.6029107821178
 21
1283.176608483063
 31
0.0
  0
LINE
  5
1153
102
{ACAD_REACTORS
330
119E
102
}
330
1F
100
AcDbEntity
  8
実線
100
AcDbLine
 10
322.2773998811427
 20
1267.54267854314
 30
0.0
 11
325.5870772475296
 21
1264.233001176753
 31
0.0
  0
LINE
  5
1154
102
{ACAD_REACTORS
330
119E
102
}
330
1F
100
AcDbEntity
  8
実線
100
AcDbLine
 10
301.545446687187
 20
1288.274631737096
 30
0.0
 11
304.855124053574
 21
1284.964954370709
 31
0.0
  0
CIRCLE
  5
1155
102
{ACAD_REACTORS
330
119E
102
}
330
1F
100
AcDbEntity
  8
実線
100
AcDbCircle
 10
357.3008163837462
 20
1319.988370873313
 30
0.0
 40
52.5
  0
CIRCLE
  5
1156
102
{ACAD_REACTORS
330
119E
102
}
330
1F
100
AcDbEntity
  8
実線
100
AcDbCircle
 10
357.3008163837462
 20
1319.988370873313
 30
0.0
 40
14.0
  0
LINE
  5
1157
102
{ACAD_REACTORS
330
119E
102
}
330
1F
100
AcDbEntity
  8
実線
100
AcDbLine
 10
381.8008163837462
 20
1299.938370873313
 30
0.0
 11
381.8008163837462
 21
1302.938370873313
 31
0.0
  0
LINE
  5
1158
102
{ACAD_REACTORS
330
119E
102
}
330
1F
100
AcDbEntity
  8
実線
100
AcDbLine
 10
375.3008163837462
 20
1299.938370873313
 30
0.0
 11
381.8008163837462
 21
1299.938370873313
 31
0.0
  0
LINE
  5
1159
102
{ACAD_REACTORS
330
119E
102
}
330
1F
100
AcDbEntity
  8
実線
100
AcDbLine
 10
381.8008163837462
 20
1302.938370873313
 30
0.0
 11
375.3008163837462
 21
1302.938370873313
 31
0.0
  0
LINE
  5
115A
102
{ACAD_REACTORS
330
119E
102
}
330
1F
100
AcDbEntity
  8
実線
100
AcDbLine
 10
350.3008163837462
 20
1305.388370873312
 30
0.0
 11
375.3008163837462
 21
1305.388370873312
 31
0.0
  0
LINE
  5
115B
102
{ACAD_REACTORS
330
119E
102
}
330
1F
100
AcDbEntity
  8
実線
100
AcDbLine
 10
350.3008163837462
 20
1305.388370873312
 30
0.0
 11
350.3008163837462
 21
1297.488370873313
 31
0.0
  0
LINE
  5
115C
102
{ACAD_REACTORS
330
119E
102
}
330
1F
100
AcDbEntity
  8
実線
100
AcDbLine
 10
375.3008163837462
 20
1297.488370873313
 30
0.0
 11
375.3008163837462
 21
1305.388370873313
 31
0.0
  0
LINE
  5
115D
102
{ACAD_REACTORS
330
119E
102
}
330
1F
100
AcDbEntity
  8
実線
100
AcDbLine
 10
431.3348963739777
 20
1267.450337031152
 30
0.0
 11
441.5868732999419
 21
1277.702313957117
 31
0.0
  0
LINE
  5
115E
102
{ACAD_REACTORS
330
119E
102
}
330
1F
100
AcDbEntity
  8
実線
100
AcDbLine
 10
430.9802715821438
 20
1267.095712239319
 30
0.0
 11
410.1934750177401
 21
1246.308915674915
 31
0.0
  0
LINE
  5
115F
102
{ACAD_REACTORS
330
119E
102
}
330
1F
100
AcDbEntity
  8
実線
100
AcDbLine
 10
412.949048661887
 20
1306.340138595172
 30
0.0
 11
441.5868732999419
 21
1277.702313957117
 31
0.0
  0
LINE
  5
1160
102
{ACAD_REACTORS
330
119E
102
}
330
1F
100
AcDbEntity
  8
実線
100
AcDbLine
 10
382.7008163837463
 20
1252.588370873313
 30
0.0
 11
399.586873299942
 21
1235.702313957117
 31
0.0
  0
LINE
  5
1161
102
{ACAD_REACTORS
330
119E
102
}
330
1F
100
AcDbEntity
  8
実線
100
AcDbLine
 10
399.586873299942
 20
1235.702313957117
 30
0.0
 11
409.8388502259713
 21
1245.954290883146
 31
0.0
  0
LINE
  5
1162
102
{ACAD_REACTORS
330
119E
102
}
330
1F
100
AcDbEntity
  8
実線
100
AcDbLine
 10
409.6267181915504
 20
1267.662469065508
 30
0.0
 11
420.5868732999419
 21
1256.702313957117
 31
0.0
  0
CIRCLE
  5
1163
102
{ACAD_REACTORS
330
119E
102
}
330
1F
100
AcDbEntity
  8
実線
100
AcDbCircle
 10
424.7941586480669
 20
1238.282182307272
 30
0.0
 40
1.5
  0
LINE
  5
1164
102
{ACAD_REACTORS
330
119E
102
}
330
1F
100
AcDbEntity
  8
実線
100
AcDbLine
 10
424.7941586480669
 20
1232.696038735898
 30
0.0
 11
419.2080150766928
 21
1238.282182307272
 31
0.0
  0
LINE
  5
1165
102
{ACAD_REACTORS
330
119E
102
}
330
1F
100
AcDbEntity
  8
実線
100
AcDbLine
 10
430.3803022194402
 20
1238.282182307272
 30
0.0
 11
424.7941586480669
 21
1232.696038735898
 31
0.0
  0
LINE
  5
1166
102
{ACAD_REACTORS
330
119E
102
}
330
1F
100
AcDbEntity
  8
実線
100
AcDbLine
 10
424.7941586480669
 20
1243.868325878646
 30
0.0
 11
430.3803022194402
 21
1238.282182307272
 31
0.0
  0
LINE
  5
1167
102
{ACAD_REACTORS
330
119E
102
}
330
1F
100
AcDbEntity
  8
実線
100
AcDbLine
 10
419.2080150766928
 20
1238.282182307272
 30
0.0
 11
424.7941586480669
 21
1243.868325878646
 31
0.0
  0
CIRCLE
  5
1168
102
{ACAD_REACTORS
330
119E
102
}
330
1F
100
AcDbEntity
  8
実線
100
AcDbCircle
 10
434.0572574815455
 20
1257.444776077363
 30
0.0
 40
1.5
  0
LINE
  5
1169
102
{ACAD_REACTORS
330
119E
102
}
330
1F
100
AcDbEntity
  8
実線
100
AcDbLine
 10
428.4711139101723
 20
1257.444776077363
 30
0.0
 11
434.0572574815455
 21
1263.030919648736
 31
0.0
  0
LINE
  5
116A
102
{ACAD_REACTORS
330
119E
102
}
330
1F
100
AcDbEntity
  8
実線
100
AcDbLine
 10
434.0572574815455
 20
1251.858632505989
 30
0.0
 11
428.4711139101723
 21
1257.444776077363
 31
0.0
  0
LINE
  5
116B
102
{ACAD_REACTORS
330
119E
102
}
330
1F
100
AcDbEntity
  8
実線
100
AcDbLine
 10
439.6434010529197
 20
1257.444776077363
 30
0.0
 11
434.0572574815455
 21
1251.858632505989
 31
0.0
  0
LINE
  5
116C
102
{ACAD_REACTORS
330
119E
102
}
330
1F
100
AcDbEntity
  8
実線
100
AcDbLine
 10
434.0572574815455
 20
1263.030919648736
 30
0.0
 11
439.6434010529197
 21
1257.444776077363
 31
0.0
  0
LINE
  5
116D
102
{ACAD_REACTORS
330
119E
102
}
330
1F
100
AcDbEntity
  8
実線
100
AcDbLine
 10
409.8388502259708
 20
1245.954290883146
 30
0.0
 11
427.1629663651014
 21
1228.630174744016
 31
0.0
  0
LINE
  5
116E
102
{ACAD_REACTORS
330
119E
102
}
330
1F
100
AcDbEntity
  8
実線
100
AcDbLine
 10
427.1629663651014
 20
1228.630174744016
 30
0.0
 11
428.0114945025252
 21
1229.47870288144
 31
0.0
  0
LINE
  5
116F
102
{ACAD_REACTORS
330
119E
102
}
330
1F
100
AcDbEntity
  8
実線
100
AcDbLine
 10
424.7941586480664
 20
1232.696038735898
 30
0.0
 11
428.0114945025252
 21
1229.47870288144
 31
0.0
  0
LINE
  5
1170
102
{ACAD_REACTORS
330
119E
102
}
330
1F
100
AcDbEntity
  8
実線
100
AcDbLine
 10
419.2080150766928
 20
1238.282182307272
 30
0.0
 11
410.687378363395
 21
1246.80281902057
 31
0.0
  0
LINE
  5
1171
102
{ACAD_REACTORS
330
119E
102
}
330
1F
100
AcDbEntity
  8
実線
100
AcDbLine
 10
410.1934750177401
 20
1246.308915674915
 30
0.0
 11
409.8388502259708
 21
1245.954290883146
 31
0.0
  0
LINE
  5
1172
102
{ACAD_REACTORS
330
119E
102
}
330
1F
100
AcDbEntity
  8
実線
100
AcDbLine
 10
436.1432224860286
 20
1248.217032582896
 30
0.0
 11
429.0721546741633
 21
1241.14596477103
 31
0.0
  0
LINE
  5
1173
102
{ACAD_REACTORS
330
119E
102
}
330
1F
100
AcDbEntity
  8
実線
100
AcDbLine
 10
434.0219021424691
 20
1250.338352926455
 30
0.0
 11
426.9508343306037
 21
1243.26728511459
 31
0.0
  0
LINE
  5
1174
102
{ACAD_REACTORS
330
119E
102
}
330
1F
100
AcDbEntity
  8
実線
100
AcDbLine
 10
426.9508343306037
 20
1243.26728511459
 30
0.0
 11
429.0721546741633
 21
1241.14596477103
 31
0.0
  0
LINE
  5
1175
102
{ACAD_REACTORS
330
119E
102
}
330
1F
100
AcDbEntity
  8
実線
100
AcDbLine
 10
436.1432224860286
 20
1248.217032582896
 30
0.0
 11
434.0219021424691
 21
1250.338352926455
 31
0.0
  0
LINE
  5
1176
102
{ACAD_REACTORS
330
119E
102
}
330
1F
100
AcDbEntity
  8
実線
100
AcDbLine
 10
395.5361287629971
 20
1374.683056908259
 30
0.0
 11
382.8913785016671
 21
1365.829107456496
 31
0.0
  0
LINE
  5
1177
102
{ACAD_REACTORS
330
119E
102
}
330
1F
100
AcDbEntity
  8
実線
100
AcDbLine
 10
403.1415529669297
 20
1345.578932991234
 30
0.0
 11
411.9955024186915
 21
1358.223683252564
 31
0.0
  0
ARC
  5
1178
102
{ACAD_REACTORS
330
119E
102
}
330
1F
100
AcDbEntity
  8
実線
100
AcDbCircle
 10
403.8039819758019
 20
1363.959447616074
 30
0.0
 40
10.00000000000003
100
AcDbArc
 50
325.0000000000099
 51
43.3968902048111
  0
ARC
  5
1179
102
{ACAD_REACTORS
330
119E
102
}
330
1F
100
AcDbEntity
  8
実線
100
AcDbCircle
 10
401.2718931265076
 20
1366.491536465369
 30
0.0
 40
9.999999999999976
100
AcDbArc
 50
46.60310979517574
 51
125.0000000000078
  0
ARC
  5
117A
102
{ACAD_REACTORS
330
119E
102
}
330
1F
100
AcDbEntity
  8
実線
100
AcDbCircle
 10
357.3008163837462
 20
1319.988370873313
 30
0.0
 40
73.99999999999984
100
AcDbArc
 50
43.3968902048111
 51
46.60310979517574
  0
LINE
  5
117B
102
{ACAD_REACTORS
330
119E
102
}
330
1F
100
AcDbEntity
  8
実線
100
AcDbLine
 10
302.6061303488004
 20
1358.223683252564
 30
0.0
 11
311.4600798005627
 21
1345.578932991234
 31
0.0
  0
ARC
  5
117C
102
{ACAD_REACTORS
330
119E
102
}
330
1F
100
AcDbEntity
  8
実線
100
AcDbCircle
 10
357.3008163837462
 20
1319.988370873313
 30
0.0
 40
74.00000000000003
100
AcDbArc
 50
133.3968902048242
 51
136.6031097951889
  0
ARC
  5
117D
102
{ACAD_REACTORS
330
119E
102
}
330
1F
100
AcDbEntity
  8
実線
100
AcDbCircle
 10
310.7976507916901
 20
1363.959447616074
 30
0.0
 40
10.00000000000001
100
AcDbArc
 50
136.6031097951889
 51
214.99999999999
  0
ARC
  5
117E
102
{ACAD_REACTORS
330
119E
102
}
330
1F
100
AcDbEntity
  8
実線
100
AcDbCircle
 10
313.3297396409844
 20
1366.491536465369
 30
0.0
 40
10.00000000000002
100
AcDbArc
 50
54.99999999999221
 51
133.3968902048242
  0
LINE
  5
117F
102
{ACAD_REACTORS
330
119E
102
}
330
1F
100
AcDbEntity
  8
実線
100
AcDbLine
 10
331.7102542658249
 20
1365.829107456496
 30
0.0
 11
319.0655040044949
 21
1374.683056908259
 31
0.0
  0
ARC
  5
1180
102
{ACAD_REACTORS
330
119E
102
}
330
1F
100
AcDbEntity
  8
実線
100
AcDbCircle
 10
357.3008163837462
 20
1319.988370873313
 30
0.0
 40
74.00000000000019
100
AcDbArc
 50
223.3968902048111
 51
226.6031097951758
  0
LINE
  5
1181
102
{ACAD_REACTORS
330
119E
102
}
330
1F
100
AcDbEntity
  8
実線
100
AcDbLine
 10
319.0655040044949
 20
1265.293684838367
 30
0.0
 11
331.7102542658245
 21
1274.147634290129
 31
0.0
  0
LINE
  5
1182
102
{ACAD_REACTORS
330
119E
102
}
330
1F
100
AcDbEntity
  8
実線
100
AcDbLine
 10
311.4600798005627
 20
1294.397808755392
 30
0.0
 11
302.6061303488
 21
1281.753058494061
 31
0.0
  0
ARC
  5
1183
102
{ACAD_REACTORS
330
119E
102
}
330
1F
100
AcDbEntity
  8
実線
100
AcDbCircle
 10
310.7976507916901
 20
1276.017294130551
 30
0.0
 40
10.0
100
AcDbArc
 50
145.0000000000099
 51
223.3968902048111
  0
ARC
  5
1184
102
{ACAD_REACTORS
330
119E
102
}
330
1F
100
AcDbEntity
  8
実線
100
AcDbCircle
 10
313.3297396409844
 20
1273.485205281257
 30
0.0
 40
10.00000000000001
100
AcDbArc
 50
226.6031097951758
 51
305.0000000000078
  0
ARC
  5
1185
102
{ACAD_REACTORS
330
119E
102
}
330
1F
100
AcDbEntity
  8
実線
100
AcDbCircle
 10
403.8039819758019
 20
1276.017294130551
 30
0.0
 40
10.00000000000001
100
AcDbArc
 50
316.6031097951889
 51
34.99999999999006
  0
LINE
  5
1186
102
{ACAD_REACTORS
330
119E
102
}
330
1F
100
AcDbEntity
  8
実線
100
AcDbLine
 10
411.9955024186915
 20
1281.753058494061
 30
0.0
 11
403.1415529669297
 21
1294.397808755391
 31
0.0
  0
LINE
  5
1187
102
{ACAD_REACTORS
330
119E
102
}
330
1F
100
AcDbEntity
  8
実線
100
AcDbLine
 10
382.8913785016675
 20
1274.147634290129
 30
0.0
 11
395.5361287629971
 21
1265.293684838367
 31
0.0
  0
ARC
  5
1188
102
{ACAD_REACTORS
330
119E
102
}
330
1F
100
AcDbEntity
  8
実線
100
AcDbCircle
 10
401.2718931265076
 20
1273.485205281257
 30
0.0
 40
10.00000000000001
100
AcDbArc
 50
234.9999999999922
 51
313.3968902048243
  0
ARC
  5
1189
102
{ACAD_REACTORS
330
119E
102
}
330
1F
100
AcDbEntity
  8
実線
100
AcDbCircle
 10
357.3008163837462
 20
1319.988370873313
 30
0.0
 40
73.99999999999997
100
AcDbArc
 50
313.3968902048243
 51
316.6031097951889
  0
LINE
  5
118A
102
{ACAD_REACTORS
330
119E
102
}
330
1F
100
AcDbEntity
  8
実線
100
AcDbLine
 10
411.5359065008187
 20
1245.954290883146
 30
0.0
 11
431.3348963739777
 21
1265.753280756304
 31
0.0
  0
LINE
  5
118B
102
{ACAD_REACTORS
330
119E
102
}
330
1F
100
AcDbEntity
  8
実線
100
AcDbLine
 10
350.3008163837462
 20
1276.488370873313
 30
0.0
 11
350.3008163837462
 21
1297.488370873313
 31
0.0
  0
LINE
  5
118C
102
{ACAD_REACTORS
330
119E
102
}
330
1F
100
AcDbEntity
  8
実線
100
AcDbLine
 10
355.3008163837462
 20
1286.988370873313
 30
0.0
 11
355.3008163837462
 21
1276.988370873313
 31
0.0
  0
LINE
  5
118D
102
{ACAD_REACTORS
330
119E
102
}
330
1F
100
AcDbEntity
  8
実線
100
AcDbLine
 10
350.3008163837462
 20
1281.988370873313
 30
0.0
 11
360.3008163837462
 21
1281.988370873313
 31
0.0
  0
CIRCLE
  5
118E
102
{ACAD_REACTORS
330
119E
102
}
330
1F
100
AcDbEntity
  8
実線
100
AcDbCircle
 10
355.3008163837462
 20
1281.988370873313
 30
0.0
 40
2.0
  0
LINE
  5
118F
102
{ACAD_REACTORS
330
119E
102
}
330
1F
100
AcDbEntity
  8
実線
100
AcDbLine
 10
360.3008163837462
 20
1296.288370873313
 30
0.0
 11
360.3008163837462
 21
1276.488370873313
 31
0.0
  0
LINE
  5
1190
102
{ACAD_REACTORS
330
119E
102
}
330
1F
100
AcDbEntity
  8
実線
100
AcDbLine
 10
360.3008163837462
 20
1276.488370873313
 30
0.0
 11
350.3008163837462
 21
1276.488370873313
 31
0.0
  0
LINE
  5
1191
102
{ACAD_REACTORS
330
119E
102
}
330
1F
100
AcDbEntity
  8
実線
100
AcDbLine
 10
392.3008163837462
 20
1296.288370873313
 30
0.0
 11
350.3008163837462
 21
1296.288370873313
 31
0.0
  0
LINE
  5
1192
102
{ACAD_REACTORS
330
119E
102
}
330
1F
100
AcDbEntity
  8
実線
100
AcDbLine
 10
387.3008163837462
 20
1304.988370873313
 30
0.0
 11
387.3008163837462
 21
1294.988370873313
 31
0.0
  0
LINE
  5
1193
102
{ACAD_REACTORS
330
119E
102
}
330
1F
100
AcDbEntity
  8
実線
100
AcDbLine
 10
382.3008163837462
 20
1299.988370873313
 30
0.0
 11
392.3008163837462
 21
1299.988370873313
 31
0.0
  0
CIRCLE
  5
1194
102
{ACAD_REACTORS
330
119E
102
}
330
1F
100
AcDbEntity
  8
実線
100
AcDbCircle
 10
387.3008163837462
 20
1299.988370873313
 30
0.0
 40
2.0
  0
LINE
  5
1195
102
{ACAD_REACTORS
330
119E
102
}
330
1F
100
AcDbEntity
  8
実線
100
AcDbLine
 10
371.3008163837462
 20
1305.388370873312
 30
0.0
 11
371.3008163837462
 21
1305.488370873313
 31
0.0
  0
LINE
  5
1196
102
{ACAD_REACTORS
330
119E
102
}
330
1F
100
AcDbEntity
  8
実線
100
AcDbLine
 10
392.3008163837462
 20
1305.488370873313
 30
0.0
 11
392.3008163837462
 21
1296.288370873313
 31
0.0
  0
LINE
  5
1197
102
{ACAD_REACTORS
330
119E
102
}
330
1F
100
AcDbEntity
  8
実線
100
AcDbLine
 10
371.3008163837462
 20
1305.488370873313
 30
0.0
 11
392.3008163837462
 21
1305.488370873313
 31
0.0
  0
LINE
  5
1198
102
{ACAD_REACTORS
330
119E
102
}
330
1F
100
AcDbEntity
  8
実線
100
AcDbLine
 10
377.3008163837462
 20
1297.488370873313
 30
0.0
 11
377.3008163837462
 21
1296.288370873313
 31
0.0
  0
LINE
  5
1199
102
{ACAD_REACTORS
330
119E
102
}
330
1F
100
AcDbEntity
  8
実線
100
AcDbLine
 10
350.3008163837462
 20
1297.488370873313
 30
0.0
 11
377.3008163837462
 21
1297.488370873313
 31
0.0
  0
ENDSEC
  0
SECTION
  2
OBJECTS
  0
DICTIONARY
  5
C
330
0
100
AcDbDictionary
281
     1
  3
ACAD_CIP_PREVIOUS_PRODUCT_INFO
350
46F
  3
ACAD_COLOR
350
465
  3
ACAD_DETAILVIEWSTYLE
350
468
  3
ACAD_GROUP
350
D
  3
ACAD_LAYOUT
350
1A
  3
ACAD_MATERIAL
350
43
  3
ACAD_MLEADERSTYLE
350
5B
  3
ACAD_MLINESTYLE
350
17
  3
ACAD_PLOTSETTINGS
350
19
  3
ACAD_PLOTSTYLENAME
350
E
  3
ACAD_SCALELIST
350
47
  3
ACAD_SECTIONVIEWSTYLE
350
466
  3
ACAD_TABLESTYLE
350
59
  3
ACAD_VISUALSTYLE
350
2A
  3
ACDB_RECOMPOSE_DATA
350
11A5
  3
AcDbVariableDictionary
350
41A
  0
DICTIONARY
  5
476
330
2
100
AcDbDictionary
280
     1
281
     1
  3
ACAD_LAYERSTATES
360
477
  0
DICTIONARY
  5
9CF
330
10
100
AcDbDictionary
280
     1
281
     1
  3
ADSK_XREC_LAYER_RECONCILED
360
9D0
  0
DICTIONARY
  5
472
330
471
100
AcDbDictionary
280
     1
281
     1
  3
ADSK_XREC_LAYER_RECONCILED
360
9D1
  0
DICTIONARY
  5
474
330
473
100
AcDbDictionary
280
     1
281
     1
  3
ADSK_XREC_LAYER_RECONCILED
360
9D2
  0
DICTIONARY
  5
68D
330
1F
100
AcDbDictionary
280
     1
281
     1
  3
ACAD_SORTENTS
360
68E
  0
XRECORD
  5
46F
102
{ACAD_REACTORS
330
C
102
}
330
C
100
AcDbXrecord
280
     1
300
ACDLT
300
2016
300
ACDLT_F_S
  0
DICTIONARY
  5
465
102
{ACAD_REACTORS
330
C
102
}
330
C
100
AcDbDictionary
281
     1
  0
DICTIONARY
  5
468
102
{ACAD_REACTORS
330
C
102
}
330
C
100
AcDbDictionary
281
     1
  3
Metric50
350
469
  0
DICTIONARY
  5
D
102
{ACAD_REACTORS
330
C
102
}
330
C
100
AcDbDictionary
281
     1
  3
*A10
350
119D
  3
*A11
350
119E
  3
*A12
350
119F
  3
*A7
350
119A
  3
*A8
350
119B
  3
*A9
350
119C
  0
DICTIONARY
  5
1A
102
{ACAD_REACTORS
330
C
102
}
330
C
100
AcDbDictionary
281
     1
  3
Layout1
350
1E
  3
Model
350
22
  3
レイアウト1
350
46A
  0
DICTIONARY
  5
43
102
{ACAD_REACTORS
330
C
102
}
330
C
100
AcDbDictionary
281
     1
  3
ByBlock
350
45
  3
ByLayer
350
44
  3
Global
350
46
  0
DICTIONARY
  5
5B
102
{ACAD_REACTORS
330
C
102
}
330
C
100
AcDbDictionary
281
     1
  3
Standard
350
5C
  0
DICTIONARY
  5
17
102
{ACAD_REACTORS
330
C
102
}
330
C
100
AcDbDictionary
281
     1
  3
Standard
350
18
  0
DICTIONARY
  5
19
102
{ACAD_REACTORS
330
C
102
}
330
C
100
AcDbDictionary
281
     1
  0
ACDBDICTIONARYWDFLT
  5
E
102
{ACAD_REACTORS
330
C
102
}
330
C
100
AcDbDictionary
281
     1
  3
Normal
350
F
100
AcDbDictionaryWithDefault
340
F
  0
DICTIONARY
  5
47
102
{ACAD_REACTORS
330
C
102
}
330
C
100
AcDbDictionary
281
     1
  3
A0
350
48
  3
A1
350
49
  3
A2
350
4A
  3
A3
350
4B
  3
A4
350
4C
  3
A5
350
4D
  3
A6
350
4E
  3
A7
350
4F
  3
A8
350
50
  3
A9
350
51
  3
B0
350
52
  3
B1
350
53
  3
B2
350
54
  3
B3
350
55
  3
B4
350
56
  3
B5
350
57
  3
B6
350
58
  0
DICTIONARY
  5
466
102
{ACAD_REACTORS
330
C
102
}
330
C
100
AcDbDictionary
281
     1
  3
Metric50
350
467
  0
DICTIONARY
  5
59
102
{ACAD_REACTORS
330
C
102
}
330
C
100
AcDbDictionary
281
     1
  3
Standard
350
5A
  0
DICTIONARY
  5
2A
102
{ACAD_REACTORS
330
C
102
}
330
C
100
AcDbDictionary
281
     1
  3
2dWireframe
350
2F
  3
Basic
350
32
  3
Brighten
350
36
  3
ColorChange
350
3A
  3
Conceptual
350
34
  3
Dim
350
35
  3
EdgeColorOff
350
3D
  3
Facepattern
350
39
  3
Flat
350
2B
  3
FlatWithEdges
350
2C
  3
Gouraud
350
2D
  3
GouraudWithEdges
350
2E
  3
Hidden
350
31
  3
JitterOff
350
3B
  3
Linepattern
350
38
  3
OverhangOff
350
3C
  3
Realistic
350
33
  3
Shaded
350
42
  3
Shaded with edges
350
41
  3
Shades of Gray
350
3E
  3
Sketchy
350
3F
  3
Thicken
350
37
  3
Wireframe
350
30
  3
X-Ray
350
40
  0
XRECORD
  5
11A5
102
{ACAD_REACTORS
330
C
102
}
330
C
100
AcDbXrecord
280
     1
 90
        1
330
5A
330
467
330
469
  0
DICTIONARY
  5
41A
102
{ACAD_REACTORS
330
C
102
}
330
C
100
AcDbDictionary
281
     1
  3
CANNOSCALE
350
428
  3
CENTEREXE
350
421
  3
CENTERLTYPEFILE
350
422
  3
CMLEADERSTYLE
350
41C
  3
CTABLESTYLE
350
41B
  3
CVIEWDETAILSTYLE
350
9D3
  3
CVIEWSECTIONSTYLE
350
9D4
  3
DIMASSOC
350
423
  3
HIDETEXT
350
424
  3
INDEXCTL
350
A2B
  3
LAYEREVAL
350
9D6
  3
LAYERNOTIFY
350
9D7
  3
LIGHTINGUNITS
350
9D5
  3
MSLTSCALE
350
429
  3
SORTENTS
350
A2A
  0
DICTIONARY
  5
477
102
{ACAD_REACTORS
330
476
102
}
330
476
100
AcDbDictionary
281
     1
  0
XRECORD
  5
9D0
102
{ACAD_REACTORS
330
9CF
102
}
330
9CF
100
AcDbXrecord
280
     1
290
     1
  0
XRECORD
  5
9D1
102
{ACAD_REACTORS
330
472
102
}
330
472
100
AcDbXrecord
280
     1
290
     1
  0
XRECORD
  5
9D2
102
{ACAD_REACTORS
330
474
102
}
330
474
100
AcDbXrecord
280
     1
290
     1
  0
SORTENTSTABLE
  5
68E
102
{ACAD_REACTORS
330
68D
102
}
330
68D
100
AcDbSortentsTable
330
1F
331
9C7
  5
9C7
331
9C3
  5
9C3
331
9BF
  5
9BF
331
9BB
  5
9BB
331
9B7
  5
9B7
331
A19
  5
A19
331
9C6
  5
9C6
331
9C2
  5
9C2
331
9BE
  5
9BE
331
9BA
  5
9BA
331
9B6
  5
9B6
331
9C5
  5
9C5
331
9C1
  5
9C1
331
9BD
  5
9BD
331
9B9
  5
9B9
331
9B5
  5
9B5
331
9C8
  5
9C8
331
9C4
  5
9C4
331
9C0
  5
9C0
331
9BC
  5
9BC
331
9B8
  5
9B8
331
A1A
  5
A1A
  0
ACDBDETAILVIEWSTYLE
  5
469
102
{ACAD_XDICTIONARY
360
11A3
102
}
102
{ACAD_REACTORS
330
468
102
}
330
468
100
AcDbModelDocViewStyle
 70
     0
  3
Metric50
290
     0
100
AcDbDetailViewStyle
 70
     0
 71
     0
 90
        3
 71
     1
340
11
 62
   256
 40
5.0
340
0
 62
   256
 40
5.0
300

 40
0.0
280
     1
 71
     2
340
16
 90
       25
 62
   256
 71
     3
340
11
 62
   256
 40
5.0
 90
        0
 40
15.0
 90
        1
300
%<\AcVar ViewDetailId>% (%<\AcVar ViewScale \f "%sn">%)
 71
     4
340
16
 90
       25
 62
   256
340
16
 90
       25
 62
   256
280
     0
  0
GROUP
  5
119D
102
{ACAD_REACTORS
330
D
102
}
330
D
100
AcDbGroup
300

 70
     1
 71
     1
340
10A9
340
10A8
340
10A7
340
10A6
340
10A5
340
10A4
340
10A3
340
10A2
340
10A1
340
10A0
340
109F
340
109E
340
109D
340
109C
340
109B
340
109A
340
1099
340
1098
340
1097
340
1096
340
1095
340
1094
340
1093
340
1092
340
1091
340
1090
340
108F
340
108E
340
108D
340
108C
340
108B
340
108A
340
1089
340
1088
340
1087
340
1086
340
1085
340
1084
340
1083
340
1082
340
1081
340
1080
340
107F
340
107E
340
107D
340
107C
340
107B
340
107A
340
1079
340
1078
340
1077
340
1076
340
1075
340
1074
340
1073
340
1072
340
1071
340
1070
340
106F
340
106E
340
106D
340
106C
340
106B
340
106A
340
1069
340
1068
340
1067
340
1066
340
1065
340
1064
340
1063
340
1062
340
1061
340
1060
340
105F
340
105E
340
105D
340
105C
340
105B
340
105A
340
1059
340
1058
340
1057
340
1056
340
1055
340
1054
340
1053
340
1052
340
1051
340
1050
340
104F
340
104E
340
104D
340
104C
340
104B
340
104A
340
1049
340
1048
340
1047
340
1046
340
1045
340
1044
340
1043
340
1042
340
1041
340
1040
340
103F
340
103E
340
103D
340
103C
340
103B
340
103A
340
1039
340
1038
340
1037
340
1036
340
1035
340
1034
340
1033
340
1032
340
1031
340
1030
340
102F
340
102E
340
102D
340
102C
340
102B
340
102A
340
1029
340
1028
340
1027
340
1026
340
1025
340
1024
340
1023
340
1022
340
1021
340
1020
340
101F
340
101E
340
101D
340
101C
340
101B
340
101A
340
1019
340
1018
340
1017
340
1016
340
1015
340
1014
340
1013
340
1012
340
1011
340
1010
340
100F
340
100E
340
100D
340
9C8
340
9C7
340
9C6
340
9C5
  0
GROUP
  5
119E
102
{ACAD_REACTORS
330
D
102
}
330
D
100
AcDbGroup
300

 70
     1
 71
     1
340
1199
340
1198
340
1197
340
1196
340
1195
340
1194
340
1193
340
1192
340
1191
340
1190
340
118F
340
118E
340
118D
340
118C
340
118B
340
118A
340
1189
340
1188
340
1187
340
1186
340
1185
340
1184
340
1183
340
1182
340
1181
340
1180
340
117F
340
117E
340
117D
340
117C
340
117B
340
117A
340
1179
340
1178
340
1177
340
1176
340
1175
340
1174
340
1173
340
1172
340
1171
340
1170
340
116F
340
116E
340
116D
340
116C
340
116B
340
116A
340
1169
340
1168
340
1167
340
1166
340
1165
340
1164
340
1163
340
1162
340
1161
340
1160
340
115F
340
115E
340
115D
340
115C
340
115B
340
115A
340
1159
340
1158
340
1157
340
1156
340
1155
340
1154
340
1153
340
1152
340
1151
340
1150
340
114F
340
114E
340
114D
340
114C
340
114B
340
114A
340
1149
340
1148
340
1147
340
1146
340
1145
340
1144
340
1143
340
1142
340
1141
340
1140
340
113F
340
113E
340
113D
340
113C
340
113B
340
113A
340
1139
340
1138
340
1137
340
1136
340
1135
340
1134
340
1133
340
1132
340
1131
340
1130
340
112F
340
112E
340
112D
340
112C
340
112B
340
112A
340
1129
340
1128
340
1127
340
1126
340
1125
340
1124
340
1123
340
1122
340
1121
340
1120
340
111F
340
111E
340
111D
340
A19
340
9B8
340
9B7
  0
GROUP
  5
119F
102
{ACAD_REACTORS
330
D
102
}
330
D
100
AcDbGroup
300

 70
     1
 71
     1
340
111C
340
111B
340
111A
340
1119
340
1118
340
1117
340
1116
340
1115
340
1114
340
1113
340
1112
340
1111
340
1110
340
110F
340
110E
340
110D
340
110C
340
110B
340
110A
340
1109
340
1108
340
1107
340
1106
340
1105
340
1104
340
1103
340
1102
340
1101
340
1100
340
10FF
340
10FE
340
10FD
340
10FC
340
10FB
340
10FA
340
10F9
340
10F8
340
10F7
340
10F6
340
10F5
340
10F4
340
10F3
340
10F2
340
10F1
340
10F0
340
10EF
340
10EE
340
10ED
340
10EC
340
10EB
340
10EA
340
10E9
340
10E8
340
10E7
340
10E6
340
10E5
340
10E4
340
10E3
340
10E2
340
10E1
340
10E0
340
10DF
340
10DE
340
10DD
340
10DC
340
10DB
340
10DA
340
10D9
340
10D8
340
10D7
340
10D6
340
10D5
340
10D4
340
10D3
340
10D2
340
10D1
340
10D0
340
10CF
340
10CE
340
10CD
340
10CC
340
10CB
340
10CA
340
10C9
340
10C8
340
10C7
340
10C6
340
10C5
340
10C4
340
10C3
340
10C2
340
10C1
340
10C0
340
10BF
340
10BE
340
10BD
340
10BC
340
10BB
340
10BA
340
10B9
340
10B8
340
10B7
340
10B6
340
10B5
340
10B4
340
10B3
340
10B2
340
10B1
340
10B0
340
10AF
340
10AE
340
10AD
340
10AC
340
10AB
340
10AA
340
A1A
340
9B6
340
9B5
  0
GROUP
  5
119A
102
{ACAD_REACTORS
330
D
102
}
330
D
100
AcDbGroup
300

 70
     1
 71
     1
340
100C
340
100B
340
100A
340
1009
340
1008
340
1007
340
1006
340
1005
340
1004
340
1003
340
1002
340
1001
340
1000
340
FFF
340
FFE
340
FFD
340
FFC
340
FFB
340
FFA
340
FF9
340
FF8
340
FF7
340
FF6
340
FF5
340
FF4
340
FF3
340
FF2
340
FF1
340
FF0
340
FEF
340
FEE
340
FED
340
FEC
340
FEB
340
FEA
340
FE9
340
FE8
340
FE7
340
FE6
340
FE5
340
FE4
340
FE3
340
FE2
340
FE1
340
FE0
340
FDF
340
FDE
340
FDD
340
FDC
340
FDB
340
FDA
340
FD9
340
FD8
340
FD7
340
FD6
340
FD5
340
FD4
340
FD3
340
FD2
340
FD1
340
FD0
340
FCF
340
FCE
340
FCD
340
FCC
340
FCB
340
FCA
340
FC9
340
FC8
340
FC7
340
FC6
340
FC5
340
FC4
340
FC3
340
FC2
340
FC1
340
FC0
340
FBF
340
FBE
340
FBD
340
FBC
340
FBB
340
FBA
340
FB9
340
FB8
340
FB7
340
FB6
340
FB5
340
FB4
340
FB3
340
FB2
340
FB1
340
FB0
340
FAF
340
FAE
340
FAD
340
FAC
340
FAB
340
FAA
340
FA9
340
FA8
340
FA7
340
FA6
340
FA5
340
FA4
340
FA3
340
FA2
340
FA1
340
FA0
340
F9F
340
F9E
340
F9D
340
F9C
340
F9B
340
F9A
340
F99
340
F98
340
F97
340
F96
340
F95
340
F94
340
F93
340
F92
340
F91
340
F90
340
F8F
340
F8E
340
F8D
340
F8C
340
F8B
340
F8A
340
F89
340
F88
340
F87
340
F86
340
F85
340
F84
340
F83
340
F82
340
F81
340
F80
340
F7F
340
F7E
340
F7D
340
F7C
340
F7B
340
F7A
340
F79
340
F78
340
F77
340
F76
340
F75
340
F74
340
F73
340
F72
340
F71
340
F70
340
F6F
340
F6E
340
F6D
340
F6C
340
F6B
340
9BC
340
9BB
340
9BA
340
9B9
  0
GROUP
  5
119B
102
{ACAD_REACTORS
330
D
102
}
330
D
100
AcDbGroup
300

 70
     1
 71
     1
340
F6A
340
F69
340
F68
340
F67
340
F66
340
F65
340
F64
340
F63
340
F62
340
F61
340
F60
340
F5F
340
F5E
340
F5D
340
F5C
340
F5B
340
F5A
340
F59
340
F58
340
F57
340
F56
340
F55
340
F54
340
F53
340
F52
340
F51
340
F50
340
F4F
340
F4E
340
F4D
340
F4C
340
F4B
340
F4A
340
F49
340
F48
340
F47
340
F46
340
F45
340
F44
340
F43
340
F42
340
F41
340
F40
340
F3F
340
F3E
340
F3D
340
F3C
340
F3B
340
F3A
340
F39
340
F38
340
F37
340
F36
340
F35
340
F34
340
F33
340
F32
340
F31
340
F30
340
F2F
340
F2E
340
F2D
340
F2C
340
F2B
340
F2A
340
F29
340
F28
340
F27
340
F26
340
F25
340
F24
340
F23
340
F22
340
F21
340
F20
340
F1F
340
F1E
340
F1D
340
F1C
340
F1B
340
F1A
340
F19
340
F18
340
F17
340
F16
340
F15
340
F14
340
F13
340
F12
340
F11
340
F10
340
F0F
340
F0E
340
F0D
340
F0C
340
F0B
340
F0A
340
F09
340
F08
340
F07
340
F06
340
F05
340
F04
340
F03
340
F02
340
F01
340
F00
340
EFF
340
EFE
340
EFD
340
EFC
340
EFB
340
EFA
340
EF9
340
EF8
340
EF7
340
EF6
340
EF5
340
EF4
340
EF3
340
EF2
340
EF1
340
EF0
340
EEF
340
EEE
340
EED
340
EEC
340
EEB
340
EEA
340
EE9
340
EE8
340
EE7
340
EE6
340
EE5
340
EE4
340
EE3
340
EE2
340
EE1
340
EE0
340
EDF
340
EDE
340
EDD
340
EDC
340
EDB
340
EDA
340
ED9
340
ED8
340
ED7
340
ED6
340
ED5
340
ED4
340
ED3
340
ED2
340
ED1
340
ED0
340
ECF
340
ECE
340
ECD
340
ECC
340
ECB
340
ECA
340
EC9
340
EC8
340
EC7
340
EC6
340
EC5
340
EC4
340
EC3
340
EC2
340
EC1
340
EC0
340
EBF
340
EBE
340
EBD
340
EBC
340
EBB
340
EBA
340
9C0
340
9BF
340
9BE
340
9BD
  0
GROUP
  5
119C
102
{ACAD_REACTORS
330
D
102
}
330
D
100
AcDbGroup
300

 70
     1
 71
     1
340
EB9
340
EB8
340
EB7
340
EB6
340
EB5
340
EB4
340
EB3
340
EB2
340
EB1
340
EB0
340
EAF
340
EAE
340
EAD
340
EAC
340
EAB
340
EAA
340
EA9
340
EA8
340
EA7
340
EA6
340
EA5
340
EA4
340
EA3
340
EA2
340
EA1
340
EA0
340
E9F
340
E9E
340
E9D
340
E9C
340
E9B
340
E9A
340
E99
340
E98
340
E97
340
E96
340
E95
340
E94
340
E93
340
E92
340
E91
340
E90
340
E8F
340
E8E
340
E8D
340
E8C
340
E8B
340
E8A
340
E89
340
E88
340
E87
340
E86
340
E85
340
E84
340
E83
340
E82
340
E81
340
E80
340
E7F
340
E7E
340
E7D
340
E7C
340
E7B
340
E7A
340
E79
340
E78
340
E77
340
E76
340
E75
340
E74
340
E73
340
E72
340
E71
340
E70
340
E6F
340
E6E
340
E6D
340
E6C
340
E6B
340
E6A
340
E69
340
E68
340
E67
340
E66
340
E65
340
E64
340
E63
340
E62
340
E61
340
E60
340
E5F
340
E5E
340
E5D
340
E5C
340
E5B
340
E5A
340
E59
340
E58
340
E57
340
E56
340
E55
340
E54
340
E53
340
E52
340
E51
340
E50
340
E4F
340
E4E
340
E4D
340
E4C
340
E4B
340
E4A
340
E49
340
E48
340
E47
340
E46
340
E45
340
E44
340
E43
340
E42
340
E41
340
E40
340
E3F
340
E3E
340
E3D
340
E3C
340
E3B
340
E3A
340
E39
340
E38
340
E37
340
E36
340
E35
340
E34
340
E33
340
E32
340
E31
340
E30
340
E2F
340
E2E
340
E2D
340
E2C
340
E2B
340
E2A
340
E29
340
E28
340
E27
340
E26
340
E25
340
E24
340
E23
340
E22
340
E21
340
E20
340
E1F
340
E1E
340
E1D
340
E1C
340
E1B
340
E1A
340
E19
340
E18
340
E17
340
E16
340
E15
340
E14
340
E13
340
E12
340
E11
340
E10
340
E0F
340
E0E
340
E0D
340
E0C
340
9C4
340
9C3
340
9C2
340
9C1
  0
LAYOUT
  5
1E
102
{ACAD_REACTORS
330
1A
102
}
330
1A
100
AcDbPlotSettings
  1

  2
none_device
  4

  6

 40
0.0
 41
0.0
 42
0.0
 43
0.0
 44
0.0
 45
0.0
 46
0.0
 47
0.0
 48
0.0
 49
0.0
140
0.0
141
0.0
142
1.0
143
1.0
 70
   688
 72
     1
 73
     0
 74
     5
  7

 75
    16
147
1.0
 76
     0
 77
     2
 78
   300
148
0.0
149
0.0
100
AcDbLayout
  1
Layout1
 70
     1
 71
     1
 10
0.0
 20
0.0
 11
420.0
 21
297.0
 12
0.0
 22
0.0
 32
0.0
 14
1.000000000000000E+20
 24
1.000000000000000E+20
 34
1.000000000000000E+20
 15
-1.000000000000000E+20
 25
-1.000000000000000E+20
 35
-1.000000000000000E+20
146
0.0
 13
0.0
 23
0.0
 33
0.0
 16
1.0
 26
0.0
 36
0.0
 17
0.0
 27
1.0
 37
0.0
 76
     0
330
1B
  0
LAYOUT
  5
22
102
{ACAD_REACTORS
330
1A
102
}
330
1A
100
AcDbPlotSettings
  1

  2
none_device
  4
Letter_(8.50_x_11.00_Inches)
  6

 40
6.349999999999997
 41
6.349999999999997
 42
6.350005079999997
 43
6.350005079999997
 44
215.9
 45
279.4
 46
0.0
 47
0.0
 48
0.0
 49
0.0
140
0.0
141
0.0
142
1.0
143
1.0
 70
  1712
 72
     1
 73
     0
 74
     0
  7

 75
     0
147
1.0
 76
     0
 77
     2
 78
   300
148
0.0
149
0.0
100
AcDbLayout
  1
Model
 70
     1
 71
     0
 10
-499.2581486701965
 20
-805.9803853034972
 11
951.7525100708008
 21
682.2555737495422
 12
0.0
 22
0.0
 32
0.0
 14
-499.2581486701965
 24
-805.9803853034972
 34
0.0
 15
951.7525100708008
 25
682.2555737495422
 35
0.0
146
0.0
 13
0.0
 23
0.0
 33
0.0
 16
1.0
 26
0.0
 36
0.0
 17
0.0
 27
1.0
 37
0.0
 76
     0
330
1F
331
29
  0
LAYOUT
  5
46A
102
{ACAD_REACTORS
330
1A
102
}
330
1A
100
AcDbPlotSettings
  1

  2
青梅 FX DocuCentre-V C2275 T2
  4

  6

 40
0.0
 41
0.0
 42
0.0
 43
0.0
 44
0.0
 45
0.0
 46
0.0
 47
0.0
 48
0.0
 49
0.0
140
0.0
141
0.0
142
1.0
143
1.0
 70
   688
 72
     0
 73
     0
 74
     5
  7
AutoCAD_PEN.ctb
 75
    16
147
1.0
 76
     0
 77
     2
 78
   300
148
0.0
149
0.0
100
AcDbLayout
  1
レイアウト1
 70
     1
 71
     2
 10
0.0
 20
0.0
 11
12.0
 21
9.0
 12
0.0
 22
0.0
 32
0.0
 14
0.0
 24
0.0
 34
0.0
 15
0.0
 25
0.0
 35
0.0
146
0.0
 13
0.0
 23
0.0
 33
0.0
 16
1.0
 26
0.0
 36
0.0
 17
0.0
 27
1.0
 37
0.0
 76
     0
330
23
  0
MATERIAL
  5
45
102
{ACAD_XDICTIONARY
360
45C
102
}
102
{ACAD_REACTORS
330
43
102
}
330
43
100
AcDbMaterial
  1
ByBlock
  0
MATERIAL
  5
44
102
{ACAD_XDICTIONARY
360
45A
102
}
102
{ACAD_REACTORS
330
43
102
}
330
43
100
AcDbMaterial
  1
ByLayer
  0
MATERIAL
  5
46
102
{ACAD_XDICTIONARY
360
45E
102
}
102
{ACAD_REACTORS
330
43
102
}
330
43
100
AcDbMaterial
  1
Global
  0
MLEADERSTYLE
  5
5C
102
{ACAD_REACTORS
330
5B
102
}
330
5B
100
AcDbMLeaderStyle
179
     2
170
     2
171
     1
172
     0
 90
        2
 40
0.0
 41
0.0
173
     1
 91
-1056964608
340
14
 92
       -2
290
     1
 42
2.0
291
     1
 43
8.0
  3
Standard
 44
4.0
300

342
11
174
     1
178
     6
175
     1
176
     0
 93
-1056964608
 45
4.0
292
     0
297
     0
 46
4.0
 94
-1056964608
 47
1.0
 49
1.0
140
1.0
293
     1
141
0.0
294
     1
177
     0
142
1.0
295
     0
296
     0
143
3.75
271
     0
272
     9
273
     9
298
     0
1001
ACAD_MLEADERVER
1070
     2
  0
MLINESTYLE
  5
18
102
{ACAD_REACTORS
330
17
102
}
330
17
100
AcDbMlineStyle
  2
STANDARD
 70
     0
  3

 62
   256
 51
90.0
 52
90.0
 71
     2
 49
0.5
 62
   256
  6
BYLAYER
 49
-0.5
 62
   256
  6
BYLAYER
  0
ACDBPLACEHOLDER
  5
F
102
{ACAD_REACTORS
330
E
102
}
330
E
  0
SCALE
  5
48
102
{ACAD_REACTORS
330
47
102
}
330
47
100
AcDbScale
 70
     0
300
1:1
140
1.0
141
1.0
290
     1
  0
SCALE
  5
49
102
{ACAD_REACTORS
330
47
102
}
330
47
100
AcDbScale
 70
     0
300
1:2
140
1.0
141
2.0
290
     0
  0
SCALE
  5
4A
102
{ACAD_REACTORS
330
47
102
}
330
47
100
AcDbScale
 70
     0
300
1:4
140
1.0
141
4.0
290
     0
  0
SCALE
  5
4B
102
{ACAD_REACTORS
330
47
102
}
330
47
100
AcDbScale
 70
     0
300
1:5
140
1.0
141
5.0
290
     0
  0
SCALE
  5
4C
102
{ACAD_REACTORS
330
47
102
}
330
47
100
AcDbScale
 70
     0
300
1:8
140
1.0
141
8.0
290
     0
  0
SCALE
  5
4D
102
{ACAD_REACTORS
330
47
102
}
330
47
100
AcDbScale
 70
     0
300
1:10
140
1.0
141
10.0
290
     0
  0
SCALE
  5
4E
102
{ACAD_REACTORS
330
47
102
}
330
47
100
AcDbScale
 70
     0
300
1:16
140
1.0
141
16.0
290
     0
  0
SCALE
  5
4F
102
{ACAD_REACTORS
330
47
102
}
330
47
100
AcDbScale
 70
     0
300
1:20
140
1.0
141
20.0
290
     0
  0
SCALE
  5
50
102
{ACAD_REACTORS
330
47
102
}
330
47
100
AcDbScale
 70
     0
300
1:30
140
1.0
141
30.0
290
     0
  0
SCALE
  5
51
102
{ACAD_REACTORS
330
47
102
}
330
47
100
AcDbScale
 70
     0
300
1:40
140
1.0
141
40.0
290
     0
  0
SCALE
  5
52
102
{ACAD_REACTORS
330
47
102
}
330
47
100
AcDbScale
 70
     0
300
1:50
140
1.0
141
50.0
290
     0
  0
SCALE
  5
53
102
{ACAD_REACTORS
330
47
102
}
330
47
100
AcDbScale
 70
     0
300
1:100
140
1.0
141
100.0
290
     0
  0
SCALE
  5
54
102
{ACAD_REACTORS
330
47
102
}
330
47
100
AcDbScale
 70
     0
300
2:1
140
2.0
141
1.0
290
     0
  0
SCALE
  5
55
102
{ACAD_REACTORS
330
47
102
}
330
47
100
AcDbScale
 70
     0
300
4:1
140
4.0
141
1.0
290
     0
  0
SCALE
  5
56
102
{ACAD_REACTORS
330
47
102
}
330
47
100
AcDbScale
 70
     0
300
8:1
140
8.0
141
1.0
290
     0
  0
SCALE
  5
57
102
{ACAD_REACTORS
330
47
102
}
330
47
100
AcDbScale
 70
     0
300
10:1
140
10.0
141
1.0
290
     0
  0
SCALE
  5
58
102
{ACAD_REACTORS
330
47
102
}
330
47
100
AcDbScale
 70
     0
300
100:1
140
100.0
141
1.0
290
     0
  0
ACDBSECTIONVIEWSTYLE
  5
467
102
{ACAD_XDICTIONARY
360
11A1
102
}
102
{ACAD_REACTORS
330
466
102
}
330
466
100
AcDbModelDocViewStyle
 70
     0
  3
Metric50
290
     0
100
AcDbSectionViewStyle
 70
     0
 71
     0
 90
      102
 71
     1
340
11
 62
   256
 40
5.0
340
0
340
0
 62
   256
 40
5.0
300
I, O, Q, S, X, Z
 40
10.0
 90
        0
 40
2.5
 90
        0
 71
     2
340
16
 90
       25
 62
   256
340
16
 90
       50
 62
   256
 40
5.0
 40
2.5
 40
5.0
 71
     3
340
11
 62
   256
 40
5.0
 90
        0
 40
15.0
 90
        1
300
%<\AcVar ViewSectionStartId>%-%<\AcVar ViewSectionEndId>% (%<\AcVar ViewScale \f "%sn">%)
 71
     4
 62
   256
 62
   257
300
ANSI31
 40
1.0
 90
        0
290
     0
290
     0
 90
        6
 40
0.0
 40
1.570796326794896
 40
0.2617993877991494
 40
1.308996938995747
 40
-0.2617993877991494
 40
1.832595714594044
  0
TABLESTYLE
  5
5A
102
{ACAD_XDICTIONARY
360
9D8
102
}
102
{ACAD_REACTORS
330
59
102
}
330
59
100
AcDbTableStyle
280
     0
  3
Standard
 70
     0
 71
     0
 40
1.5
 41
1.5
280
     0
281
     0
  7
Standard
140
4.5
170
     2
 62
     0
 63
     7
283
     0
 90
        4
 91
        0
  1

274
    -2
284
     1
 64
     0
275
    -2
285
     1
 65
     0
276
    -2
286
     1
 66
     0
277
    -2
287
     1
 67
     0
278
    -2
288
     1
 68
     0
279
    -2
289
     1
 69
     0
  7
Standard
140
6.0
170
     5
 62
     0
 63
     7
283
     0
 90
        4
 91
        0
  1

274
    -2
284
     1
 64
     0
275
    -2
285
     1
 65
     0
276
    -2
286
     1
 66
     0
277
    -2
287
     1
 67
     0
278
    -2
288
     1
 68
     0
279
    -2
289
     1
 69
     0
  7
Standard
140
4.5
170
     5
 62
     0
 63
     7
283
     0
 90
        4
 91
        0
  1

274
    -2
284
     1
 64
     0
275
    -2
285
     1
 65
     0
276
    -2
286
     1
 66
     0
277
    -2
287
     1
 67
     0
278
    -2
288
     1
 68
     0
279
    -2
289
     1
 69
     0
  0
VISUALSTYLE
  5
2F
102
{ACAD_REACTORS
330
2A
102
}
330
2A
100
AcDbVisualStyle
  2

 70
     4
177
     3
291
     0
 70
    58
 90
        0
176
     1
 90
        2
176
     1
 90
        0
176
     1
 90
        0
176
     1
 40
0.6
176
     1
 40
30.0
176
     1
 62
     7
176
     1
 90
        1
176
     1
 90
        4
176
     1
 62
     7
176
     1
 62
   257
176
     1
 90
        1
176
     1
 90
        1
176
     1
 40
1.0
176
     1
 90
        0
176
     1
 62
   257
176
     1
 40
1.0
176
     1
 90
        1
176
     1
 90
        6
176
     1
 90
        2
176
     1
 62
     7
176
     1
 90
        5
176
     1
 90
        0
176
     1
 90
        0
176
     1
290
     0
176
     1
 90
        1
176
     1
 40
0.0
176
     1
 90
        0
176
     1
290
     1
176
     1
290
     1
176
     1
290
     0
176
     1
290
     0
176
     1
290
     0
176
     1
290
     0
176
     1
290
     0
176
     1
290
     0
176
     1
290
     0
176
     1
 90
       50
176
     1
 40
0.0
176
     1
 40
1.0
176
     1
 90
        0
176
     1
 62
    18
420
        0
176
     1
 90
       50
176
     1
 90
        3
176
     1
 62
     5
420
      255
176
     1
290
     0
176
     1
 90
       50
176
     1
 90
       50
176
     1
 90
       50
176
     1
290
     0
176
     1
 90
       50
176
     1
 62
   256
176
     0
 40
1.0
176
     0
 90
        2
176
     1
  1
strokes_ogs.tif
176
     1
290
     0
176
     1
 40
1.0
176
     1
 40
1.0
176
     1
1001
ACAD
1000
AcDbSavedByObjectVersion
1070
     0
  0
VISUALSTYLE
  5
32
102
{ACAD_REACTORS
330
2A
102
}
330
2A
100
AcDbVisualStyle
  2

 70
     7
177
     3
291
     1
 70
    58
 90
        1
176
     1
 90
        0
176
     1
 90
        1
176
     1
 90
        0
176
     1
 40
0.6
176
     1
 40
30.0
176
     1
 62
     7
176
     1
 90
        0
176
     1
 90
        4
176
     1
 62
     7
176
     1
 62
   257
176
     1
 90
        1
176
     1
 90
        1
176
     1
 40
1.0
176
     1
 90
        8
176
     1
 62
     7
176
     1
 40
1.0
176
     1
 90
        1
176
     1
 90
        6
176
     1
 90
        2
176
     1
 62
     7
176
     1
 90
        5
176
     1
 90
        0
176
     1
 90
        0
176
     1
290
     0
176
     1
 90
        1
176
     1
 40
0.0
176
     1
 90
        0
176
     1
290
     0
176
     1
290
     1
176
     1
290
     1
176
     1
290
     0
176
     1
290
     0
176
     1
290
     0
176
     1
290
     0
176
     1
290
     0
176
     1
290
     0
176
     1
 90
       50
176
     1
 40
0.0
176
     1
 40
1.0
176
     1
 90
        0
176
     1
 62
    18
420
        0
176
     1
 90
       50
176
     1
 90
        3
176
     1
 62
     5
420
      255
176
     1
290
     0
176
     1
 90
       50
176
     1
 90
       50
176
     1
 90
       50
176
     1
290
     0
176
     1
 90
       50
176
     1
 62
   256
176
     0
 40
1.0
176
     0
 90
        2
176
     1
  1
strokes_ogs.tif
176
     1
290
     0
176
     1
 40
1.0
176
     1
 40
1.0
176
     1
1001
ACAD
1000
AcDbSavedByObjectVersion
1070
     0
  0
VISUALSTYLE
  5
36
102
{ACAD_REACTORS
330
2A
102
}
330
2A
100
AcDbVisualStyle
  2

 70
    12
177
     3
291
     1
 70
    58
 90
        2
176
     1
 90
        2
176
     1
 90
        0
176
     1
 90
        0
176
     1
 40
0.6
176
     1
 40
30.0
176
     1
 62
     7
176
     1
 90
        1
176
     1
 90
        4
176
     1
 62
     7
176
     1
 62
   257
176
     1
 90
        1
176
     1
 90
        1
176
     1
 40
1.0
176
     1
 90
        8
176
     1
 62
     7
176
     1
 40
1.0
176
     1
 90
        1
176
     1
 90
        6
176
     1
 90
        2
176
     1
 62
     7
176
     1
 90
        5
176
     1
 90
        0
176
     1
 90
        0
176
     1
290
     0
176
     1
 90
        1
176
     1
 40
50.0
176
     1
 90
        0
176
     1
290
     0
176
     1
290
     1
176
     1
290
     1
176
     1
290
     0
176
     1
290
     0
176
     1
290
     0
176
     1
290
     0
176
     1
290
     0
176
     1
290
     0
176
     1
 90
       50
176
     1
 40
0.0
176
     1
 40
1.0
176
     1
 90
        0
176
     1
 62
    18
420
        0
176
     1
 90
       50
176
     1
 90
        3
176
     1
 62
     5
420
      255
176
     1
290
     0
176
     1
 90
       50
176
     1
 90
       50
176
     1
 90
       50
176
     1
290
     0
176
     1
 90
       50
176
     1
 62
   256
176
     0
 40
1.0
176
     0
 90
        2
176
     1
  1
strokes_ogs.tif
176
     1
290
     0
176
     1
 40
1.0
176
     1
 40
1.0
176
     1
1001
ACAD
1000
AcDbSavedByObjectVersion
1070
     0
  0
VISUALSTYLE
  5
3A
102
{ACAD_REACTORS
330
2A
102
}
330
2A
100
AcDbVisualStyle
  2

 70
    16
177
     3
291
     1
 70
    58
 90
        2
176
     1
 90
        2
176
     1
 90
        3
176
     1
 90
        0
176
     1
 40
0.6
176
     1
 40
30.0
176
     1
 62
     8
176
     1
 90
        1
176
     1
 90
        4
176
     1
 62
     7
176
     1
 62
   257
176
     1
 90
        1
176
     1
 90
        1
176
     1
 40
1.0
176
     1
 90
        8
176
     1
 62
     8
176
     1
 40
1.0
176
     1
 90
        1
176
     1
 90
        6
176
     1
 90
        2
176
     1
 62
     7
176
     1
 90
        5
176
     1
 90
        0
176
     1
 90
        0
176
     1
290
     0
176
     1
 90
        1
176
     1
 40
0.0
176
     1
 90
        0
176
     1
290
     0
176
     1
290
     1
176
     1
290
     1
176
     1
290
     0
176
     1
290
     0
176
     1
290
     0
176
     1
290
     0
176
     1
290
     0
176
     1
290
     0
176
     1
 90
       50
176
     1
 40
0.0
176
     1
 40
1.0
176
     1
 90
        0
176
     1
 62
    18
420
        0
176
     1
 90
       50
176
     1
 90
        3
176
     1
 62
     5
420
      255
176
     1
290
     0
176
     1
 90
       50
176
     1
 90
       50
176
     1
 90
       50
176
     1
290
     0
176
     1
 90
       50
176
     1
 62
   256
176
     0
 40
1.0
176
     0
 90
        2
176
     1
  1
strokes_ogs.tif
176
     1
290
     0
176
     1
 40
1.0
176
     1
 40
1.0
176
     1
1001
ACAD
1000
AcDbSavedByObjectVersion
1070
     0
  0
VISUALSTYLE
  5
34
102
{ACAD_REACTORS
330
2A
102
}
330
2A
100
AcDbVisualStyle
  2

 70
     9
177
     3
291
     0
 70
    58
 90
        3
176
     1
 90
        2
176
     1
 90
        0
176
     1
 90
        0
176
     1
 40
0.6
176
     1
 40
30.0
176
     1
 62
     7
176
     1
 90
        2
176
     1
 90
        2
176
     1
 62
     7
176
     1
 62
   257
176
     1
 90
        1
176
     1
 90
        1
176
     1
 40
179.0
176
     1
 90
        8
176
     1
 62
     7
176
     1
 40
1.0
176
     1
 90
        1
176
     1
 90
        6
176
     1
 90
        2
176
     1
 62
     7
176
     1
 90
        3
176
     1
 90
        0
176
     1
 90
        0
176
     1
290
     0
176
     1
 90
        1
176
     1
 40
0.0
176
     1
 90
        0
176
     1
290
     0
176
     1
290
     1
176
     1
290
     1
176
     1
290
     0
176
     1
290
     0
176
     1
290
     0
176
     1
290
     0
176
     1
290
     0
176
     1
290
     0
176
     1
 90
       50
176
     1
 40
0.0
176
     1
 40
1.0
176
     1
 90
        0
176
     1
 62
    18
420
        0
176
     1
 90
       50
176
     1
 90
        3
176
     1
 62
     5
420
      255
176
     1
290
     0
176
     1
 90
       50
176
     1
 90
       50
176
     1
 90
       50
176
     1
290
     0
176
     1
 90
       50
176
     1
 62
   256
176
     0
 40
1.0
176
     0
 90
        2
176
     1
  1
strokes_ogs.tif
176
     1
290
     0
176
     1
 40
1.0
176
     1
 40
1.0
176
     1
1001
ACAD
1000
AcDbSavedByObjectVersion
1070
     0
  0
VISUALSTYLE
  5
35
102
{ACAD_REACTORS
330
2A
102
}
330
2A
100
AcDbVisualStyle
  2

 70
    11
177
     3
291
     1
 70
    58
 90
        2
176
     1
 90
        2
176
     1
 90
        0
176
     1
 90
        0
176
     1
 40
0.6
176
     1
 40
30.0
176
     1
 62
     7
176
     1
 90
        1
176
     1
 90
        4
176
     1
 62
     7
176
     1
 62
   257
176
     1
 90
        1
176
     1
 90
        1
176
     1
 40
1.0
176
     1
 90
        8
176
     1
 62
     7
176
     1
 40
1.0
176
     1
 90
        1
176
     1
 90
        6
176
     1
 90
        2
176
     1
 62
     7
176
     1
 90
        5
176
     1
 90
        0
176
     1
 90
        0
176
     1
290
     0
176
     1
 90
        1
176
     1
 40
-50.0
176
     1
 90
        0
176
     1
290
     0
176
     1
290
     1
176
     1
290
     1
176
     1
290
     0
176
     1
290
     0
176
     1
290
     0
176
     1
290
     0
176
     1
290
     0
176
     1
290
     0
176
     1
 90
       50
176
     1
 40
0.0
176
     1
 40
1.0
176
     1
 90
        0
176
     1
 62
    18
420
        0
176
     1
 90
       50
176
     1
 90
        3
176
     1
 62
     5
420
      255
176
     1
290
     0
176
     1
 90
       50
176
     1
 90
       50
176
     1
 90
       50
176
     1
290
     0
176
     1
 90
       50
176
     1
 62
   256
176
     0
 40
1.0
176
     0
 90
        2
176
     1
  1
strokes_ogs.tif
176
     1
290
     0
176
     1
 40
1.0
176
     1
 40
1.0
176
     1
1001
ACAD
1000
AcDbSavedByObjectVersion
1070
     0
  0
VISUALSTYLE
  5
3D
102
{ACAD_REACTORS
330
2A
102
}
330
2A
100
AcDbVisualStyle
  2

 70
    22
177
     3
291
     1
 70
    58
 90
        2
176
     0
 90
        2
176
     0
 90
        0
176
     0
 90
        0
176
     0
 40
0.6
176
     0
 40
30.0
176
     0
 62
     7
176
     0
 90
        1
176
     0
 90
        4
176
     0
 62
     7
176
     0
 62
   257
176
     0
 90
        1
176
     0
 90
        1
176
     0
 40
1.0
176
     0
 90
        8
176
     2
 62
     7
176
     0
 40
1.0
176
     0
 90
        1
176
     0
 90
        6
176
     0
 90
        2
176
     0
 62
     7
176
     0
 90
        5
176
     0
 90
        0
176
     0
 90
        0
176
     0
290
     0
176
     0
 90
        1
176
     0
 40
0.0
176
     0
 90
        0
176
     0
290
     0
176
     0
290
     1
176
     0
290
     1
176
     0
290
     0
176
     0
290
     0
176
     0
290
     0
176
     0
290
     0
176
     0
290
     0
176
     0
290
     0
176
     0
 90
       50
176
     0
 40
0.0
176
     0
 40
1.0
176
     0
 90
        0
176
     0
 62
    18
420
        0
176
     0
 90
       50
176
     0
 90
        3
176
     0
 62
     5
420
      255
176
     0
290
     0
176
     0
 90
       50
176
     0
 90
       50
176
     0
 90
       50
176
     0
290
     0
176
     0
 90
       50
176
     0
 62
   256
176
     0
 40
1.0
176
     0
 90
        2
176
     0
  1
strokes_ogs.tif
176
     0
290
     0
176
     0
 40
1.0
176
     0
 40
1.0
176
     0
1001
ACAD
1000
AcDbSavedByObjectVersion
1070
     0
  0
VISUALSTYLE
  5
39
102
{ACAD_REACTORS
330
2A
102
}
330
2A
100
AcDbVisualStyle
  2

 70
    15
177
     3
291
     1
 70
    58
 90
        2
176
     1
 90
        2
176
     1
 90
        0
176
     1
 90
        0
176
     1
 40
0.6
176
     1
 40
30.0
176
     1
 62
     7
176
     1
 90
        1
176
     1
 90
        4
176
     1
 62
     7
176
     1
 62
   257
176
     1
 90
        1
176
     1
 90
        1
176
     1
 40
1.0
176
     1
 90
        8
176
     1
 62
     7
176
     1
 40
1.0
176
     1
 90
        1
176
     1
 90
        6
176
     1
 90
        2
176
     1
 62
     7
176
     1
 90
        5
176
     1
 90
        0
176
     1
 90
        0
176
     1
290
     0
176
     1
 90
        1
176
     1
 40
0.0
176
     1
 90
        0
176
     1
290
     0
176
     1
290
     1
176
     1
290
     1
176
     1
290
     0
176
     1
290
     0
176
     1
290
     0
176
     1
290
     0
176
     1
290
     0
176
     1
290
     0
176
     1
 90
       50
176
     1
 40
0.0
176
     1
 40
1.0
176
     1
 90
        0
176
     1
 62
    18
420
        0
176
     1
 90
       50
176
     1
 90
        3
176
     1
 62
     5
420
      255
176
     1
290
     0
176
     1
 90
       50
176
     1
 90
       50
176
     1
 90
       50
176
     1
290
     0
176
     1
 90
       50
176
     1
 62
   256
176
     0
 40
1.0
176
     0
 90
        2
176
     1
  1
strokes_ogs.tif
176
     1
290
     0
176
     1
 40
1.0
176
     1
 40
1.0
176
     1
1001
ACAD
1000
AcDbSavedByObjectVersion
1070
     0
  0
VISUALSTYLE
  5
2B
102
{ACAD_REACTORS
330
2A
102
}
330
2A
100
AcDbVisualStyle
  2

 70
     0
177
     3
291
     1
 70
    58
 90
        2
176
     1
 90
        1
176
     1
 90
        1
176
     1
 90
        2
176
     1
 40
0.6
176
     1
 40
30.0
176
     1
 62
     7
176
     1
 90
        0
176
     1
 90
        0
176
     1
 62
     7
176
     1
 62
   257
176
     1
 90
        1
176
     1
 90
        1
176
     1
 40
1.0
176
     1
 90
        8
176
     1
 62
     7
176
     1
 40
1.0
176
     1
 90
        1
176
     1
 90
        6
176
     1
 90
        2
176
     1
 62
     7
176
     1
 90
        5
176
     1
 90
        0
176
     1
 90
        0
176
     1
290
     0
176
     1
 90
       13
176
     1
 40
0.0
176
     1
 90
        0
176
     1
290
     0
176
     1
290
     1
176
     1
290
     1
176
     1
290
     0
176
     1
290
     0
176
     1
290
     0
176
     1
290
     0
176
     1
290
     0
176
     1
290
     0
176
     1
 90
       50
176
     1
 40
0.0
176
     1
 40
1.0
176
     1
 90
        0
176
     1
 62
    18
420
        0
176
     1
 90
       50
176
     1
 90
        3
176
     1
 62
     5
420
      255
176
     1
290
     0
176
     1
 90
       50
176
     1
 90
       50
176
     1
 90
       50
176
     1
290
     0
176
     1
 90
       50
176
     1
 62
   256
176
     0
 40
1.0
176
     0
 90
        2
176
     1
  1
strokes_ogs.tif
176
     1
290
     0
176
     1
 40
1.0
176
     1
 40
1.0
176
     1
1001
ACAD
1000
AcDbSavedByObjectVersion
1070
     0
  0
VISUALSTYLE
  5
2C
102
{ACAD_REACTORS
330
2A
102
}
330
2A
100
AcDbVisualStyle
  2

 70
     1
177
     3
291
     1
 70
    58
 90
        2
176
     1
 90
        1
176
     1
 90
        1
176
     1
 90
        2
176
     1
 40
0.6
176
     1
 40
30.0
176
     1
 62
     7
176
     1
 90
        1
176
     1
 90
        0
176
     1
 62
     7
176
     1
 62
   257
176
     1
 90
        1
176
     1
 90
        1
176
     1
 40
1.0
176
     1
 90
        0
176
     1
 62
   257
176
     1
 40
1.0
176
     1
 90
        1
176
     1
 90
        6
176
     1
 90
        2
176
     1
 62
     7
176
     1
 90
        5
176
     1
 90
        0
176
     1
 90
        0
176
     1
290
     0
176
     1
 90
       13
176
     1
 40
0.0
176
     1
 90
        0
176
     1
290
     0
176
     1
290
     1
176
     1
290
     1
176
     1
290
     0
176
     1
290
     0
176
     1
290
     0
176
     1
290
     0
176
     1
290
     0
176
     1
290
     0
176
     1
 90
       50
176
     1
 40
0.0
176
     1
 40
1.0
176
     1
 90
        0
176
     1
 62
    18
420
        0
176
     1
 90
       50
176
     1
 90
        3
176
     1
 62
     5
420
      255
176
     1
290
     0
176
     1
 90
       50
176
     1
 90
       50
176
     1
 90
       50
176
     1
290
     0
176
     1
 90
       50
176
     1
 62
   256
176
     0
 40
1.0
176
     0
 90
        2
176
     1
  1
strokes_ogs.tif
176
     1
290
     0
176
     1
 40
1.0
176
     1
 40
1.0
176
     1
1001
ACAD
1000
AcDbSavedByObjectVersion
1070
     0
  0
VISUALSTYLE
  5
2D
102
{ACAD_REACTORS
330
2A
102
}
330
2A
100
AcDbVisualStyle
  2

 70
     2
177
     3
291
     1
 70
    58
 90
        2
176
     1
 90
        2
176
     1
 90
        1
176
     1
 90
        2
176
     1
 40
0.6
176
     1
 40
30.0
176
     1
 62
     7
176
     1
 90
        0
176
     1
 90
        0
176
     1
 62
     7
176
     1
 62
   257
176
     1
 90
        1
176
     1
 90
        1
176
     1
 40
1.0
176
     1
 90
        0
176
     1
 62
     7
176
     1
 40
1.0
176
     1
 90
        1
176
     1
 90
        6
176
     1
 90
        2
176
     1
 62
     7
176
     1
 90
        5
176
     1
 90
        0
176
     1
 90
        0
176
     1
290
     0
176
     1
 90
       13
176
     1
 40
0.0
176
     1
 90
        0
176
     1
290
     0
176
     1
290
     1
176
     1
290
     1
176
     1
290
     0
176
     1
290
     0
176
     1
290
     0
176
     1
290
     0
176
     1
290
     0
176
     1
290
     0
176
     1
 90
       50
176
     1
 40
0.0
176
     1
 40
1.0
176
     1
 90
        0
176
     1
 62
    18
420
        0
176
     1
 90
       50
176
     1
 90
        3
176
     1
 62
     5
420
      255
176
     1
290
     0
176
     1
 90
       50
176
     1
 90
       50
176
     1
 90
       50
176
     1
290
     0
176
     1
 90
       50
176
     1
 62
   256
176
     0
 40
1.0
176
     0
 90
        2
176
     1
  1
strokes_ogs.tif
176
     1
290
     0
176
     1
 40
1.0
176
     1
 40
1.0
176
     1
1001
ACAD
1000
AcDbSavedByObjectVersion
1070
     0
  0
VISUALSTYLE
  5
2E
102
{ACAD_REACTORS
330
2A
102
}
330
2A
100
AcDbVisualStyle
  2

 70
     3
177
     3
291
     1
 70
    58
 90
        2
176
     1
 90
        2
176
     1
 90
        1
176
     1
 90
        2
176
     1
 40
0.6
176
     1
 40
30.0
176
     1
 62
     7
176
     1
 90
        1
176
     1
 90
        0
176
     1
 62
     7
176
     1
 62
   257
176
     1
 90
        1
176
     1
 90
        1
176
     1
 40
1.0
176
     1
 90
        0
176
     1
 62
   257
176
     1
 40
1.0
176
     1
 90
        1
176
     1
 90
        6
176
     1
 90
        2
176
     1
 62
     7
176
     1
 90
        5
176
     1
 90
        0
176
     1
 90
        0
176
     1
290
     0
176
     1
 90
       13
176
     1
 40
0.0
176
     1
 90
        0
176
     1
290
     0
176
     1
290
     1
176
     1
290
     1
176
     1
290
     0
176
     1
290
     0
176
     1
290
     0
176
     1
290
     0
176
     1
290
     0
176
     1
290
     0
176
     1
 90
       50
176
     1
 40
0.0
176
     1
 40
1.0
176
     1
 90
        0
176
     1
 62
    18
420
        0
176
     1
 90
       50
176
     1
 90
        3
176
     1
 62
     5
420
      255
176
     1
290
     0
176
     1
 90
       50
176
     1
 90
       50
176
     1
 90
       50
176
     1
290
     0
176
     1
 90
       50
176
     1
 62
   256
176
     0
 40
1.0
176
     0
 90
        2
176
     1
  1
strokes_ogs.tif
176
     1
290
     0
176
     1
 40
1.0
176
     1
 40
1.0
176
     1
1001
ACAD
1000
AcDbSavedByObjectVersion
1070
     0
  0
VISUALSTYLE
  5
31
102
{ACAD_REACTORS
330
2A
102
}
330
2A
100
AcDbVisualStyle
  2

 70
     6
177
     3
291
     0
 70
    58
 90
        1
176
     1
 90
        2
176
     1
 90
        2
176
     1
 90
        0
176
     1
 40
0.6
176
     1
 40
30.0
176
     1
 62
     7
176
     1
 90
        2
176
     1
 90
        2
176
     1
 62
     7
176
     1
 62
   257
176
     1
 90
        2
176
     1
 90
        1
176
     1
 40
40.0
176
     1
 90
        0
176
     1
 62
   257
176
     1
 40
1.0
176
     1
 90
        1
176
     1
 90
        6
176
     1
 90
        2
176
     1
 62
     7
176
     1
 90
        3
176
     1
 90
        0
176
     1
 90
        0
176
     1
290
     0
176
     1
 90
        1
176
     1
 40
0.0
176
     1
 90
        0
176
     1
290
     0
176
     1
290
     1
176
     1
290
     1
176
     1
290
     0
176
     1
290
     0
176
     1
290
     0
176
     1
290
     0
176
     1
290
     0
176
     1
290
     0
176
     1
 90
       50
176
     1
 40
0.0
176
     1
 40
1.0
176
     1
 90
        0
176
     1
 62
    18
420
        0
176
     1
 90
       50
176
     1
 90
        3
176
     1
 62
     5
420
      255
176
     1
290
     0
176
     1
 90
       50
176
     1
 90
       50
176
     1
 90
       50
176
     1
290
     0
176
     1
 90
       50
176
     1
 62
   256
176
     0
 40
1.0
176
     0
 90
        2
176
     1
  1
strokes_ogs.tif
176
     1
290
     0
176
     1
 40
1.0
176
     1
 40
1.0
176
     1
1001
ACAD
1000
AcDbSavedByObjectVersion
1070
     0
  0
VISUALSTYLE
  5
3B
102
{ACAD_REACTORS
330
2A
102
}
330
2A
100
AcDbVisualStyle
  2

 70
    20
177
     3
291
     1
 70
    58
 90
        2
176
     0
 90
        2
176
     0
 90
        0
176
     0
 90
        0
176
     0
 40
0.6
176
     0
 40
30.0
176
     0
 62
     7
176
     0
 90
        1
176
     0
 90
        4
176
     0
 62
     7
176
     0
 62
   257
176
     0
 90
        1
176
     0
 90
        1
176
     0
 40
1.0
176
     0
 90
       10
176
     2
 62
     7
176
     0
 40
1.0
176
     0
 90
        1
176
     0
 90
        6
176
     0
 90
        2
176
     0
 62
     7
176
     0
 90
        5
176
     0
 90
        0
176
     0
 90
        0
176
     0
290
     0
176
     0
 90
        1
176
     0
 40
0.0
176
     0
 90
        0
176
     0
290
     0
176
     0
290
     1
176
     0
290
     1
176
     0
290
     0
176
     0
290
     0
176
     0
290
     0
176
     0
290
     0
176
     0
290
     0
176
     0
290
     0
176
     0
 90
       50
176
     0
 40
0.0
176
     0
 40
1.0
176
     0
 90
        0
176
     0
 62
    18
420
        0
176
     0
 90
       50
176
     0
 90
        3
176
     0
 62
     5
420
      255
176
     0
290
     0
176
     0
 90
       50
176
     0
 90
       50
176
     0
 90
       50
176
     0
290
     0
176
     0
 90
       50
176
     0
 62
   256
176
     0
 40
1.0
176
     0
 90
        2
176
     0
  1
strokes_ogs.tif
176
     0
290
     0
176
     0
 40
1.0
176
     0
 40
1.0
176
     0
1001
ACAD
1000
AcDbSavedByObjectVersion
1070
     0
  0
VISUALSTYLE
  5
38
102
{ACAD_REACTORS
330
2A
102
}
330
2A
100
AcDbVisualStyle
  2

 70
    14
177
     3
291
     1
 70
    58
 90
        2
176
     1
 90
        2
176
     1
 90
        0
176
     1
 90
        0
176
     1
 40
0.6
176
     1
 40
30.0
176
     1
 62
     7
176
     1
 90
        1
176
     1
 90
        4
176
     1
 62
     7
176
     1
 62
   257
176
     1
 90
        7
176
     1
 90
        7
176
     1
 40
1.0
176
     1
 90
        8
176
     1
 62
     7
176
     1
 40
1.0
176
     1
 90
        1
176
     1
 90
        6
176
     1
 90
        2
176
     1
 62
     7
176
     1
 90
        5
176
     1
 90
        0
176
     1
 90
        0
176
     1
290
     0
176
     1
 90
        1
176
     1
 40
0.0
176
     1
 90
        0
176
     1
290
     0
176
     1
290
     1
176
     1
290
     1
176
     1
290
     0
176
     1
290
     0
176
     1
290
     0
176
     1
290
     0
176
     1
290
     0
176
     1
290
     0
176
     1
 90
       50
176
     1
 40
0.0
176
     1
 40
1.0
176
     1
 90
        0
176
     1
 62
    18
420
        0
176
     1
 90
       50
176
     1
 90
        3
176
     1
 62
     5
420
      255
176
     1
290
     0
176
     1
 90
       50
176
     1
 90
       50
176
     1
 90
       50
176
     1
290
     0
176
     1
 90
       50
176
     1
 62
   256
176
     0
 40
1.0
176
     0
 90
        2
176
     1
  1
strokes_ogs.tif
176
     1
290
     0
176
     1
 40
1.0
176
     1
 40
1.0
176
     1
1001
ACAD
1000
AcDbSavedByObjectVersion
1070
     0
  0
VISUALSTYLE
  5
3C
102
{ACAD_REACTORS
330
2A
102
}
330
2A
100
AcDbVisualStyle
  2

 70
    21
177
     3
291
     1
 70
    58
 90
        2
176
     0
 90
        2
176
     0
 90
        0
176
     0
 90
        0
176
     0
 40
0.6
176
     0
 40
30.0
176
     0
 62
     7
176
     0
 90
        1
176
     0
 90
        4
176
     0
 62
     7
176
     0
 62
   257
176
     0
 90
        1
176
     0
 90
        1
176
     0
 40
1.0
176
     0
 90
        9
176
     2
 62
     7
176
     0
 40
1.0
176
     0
 90
        1
176
     0
 90
        6
176
     0
 90
        2
176
     0
 62
     7
176
     0
 90
        5
176
     0
 90
        0
176
     0
 90
        0
176
     0
290
     0
176
     0
 90
        1
176
     0
 40
0.0
176
     0
 90
        0
176
     0
290
     0
176
     0
290
     1
176
     0
290
     1
176
     0
290
     0
176
     0
290
     0
176
     0
290
     0
176
     0
290
     0
176
     0
290
     0
176
     0
290
     0
176
     0
 90
       50
176
     0
 40
0.0
176
     0
 40
1.0
176
     0
 90
        0
176
     0
 62
    18
420
        0
176
     0
 90
       50
176
     0
 90
        3
176
     0
 62
     5
420
      255
176
     0
290
     0
176
     0
 90
       50
176
     0
 90
       50
176
     0
 90
       50
176
     0
290
     0
176
     0
 90
       50
176
     0
 62
   256
176
     0
 40
1.0
176
     0
 90
        2
176
     0
  1
strokes_ogs.tif
176
     0
290
     0
176
     0
 40
1.0
176
     0
 40
1.0
176
     0
1001
ACAD
1000
AcDbSavedByObjectVersion
1070
     0
  0
VISUALSTYLE
  5
33
102
{ACAD_REACTORS
330
2A
102
}
330
2A
100
AcDbVisualStyle
  2

 70
     8
177
     3
291
     0
 70
    58
 90
        2
176
     1
 90
        3
176
     1
 90
        0
176
     1
 90
        2
176
     1
 40
0.6
176
     1
 40
30.0
176
     1
 62
     7
176
     1
 90
        0
176
     1
 90
        0
176
     1
 62
     7
176
     1
 62
   257
176
     1
 90
        1
176
     1
 90
        1
176
     1
 40
1.0
176
     1
 90
        8
176
     1
 62
   257
176
     1
 40
1.0
176
     1
 90
        1
176
     1
 90
        6
176
     1
 90
        2
176
     1
 62
     7
176
     1
 90
        3
176
     1
 90
        0
176
     1
 90
        0
176
     1
290
     0
176
     1
 90
       13
176
     1
 40
0.0
176
     1
 90
        0
176
     1
290
     0
176
     1
290
     1
176
     1
290
     1
176
     1
290
     0
176
     1
290
     0
176
     1
290
     0
176
     1
290
     0
176
     1
290
     0
176
     1
290
     0
176
     1
 90
       50
176
     1
 40
0.0
176
     1
 40
1.0
176
     1
 90
        0
176
     1
 62
    18
420
        0
176
     1
 90
       50
176
     1
 90
        3
176
     1
 62
     5
420
      255
176
     1
290
     0
176
     1
 90
       50
176
     1
 90
       50
176
     1
 90
       50
176
     1
290
     0
176
     1
 90
       50
176
     1
 62
   256
176
     0
 40
1.0
176
     0
 90
        2
176
     1
  1
strokes_ogs.tif
176
     1
290
     0
176
     1
 40
1.0
176
     1
 40
1.0
176
     1
1001
ACAD
1000
AcDbSavedByObjectVersion
1070
     0
  0
VISUALSTYLE
  5
42
102
{ACAD_REACTORS
330
2A
102
}
330
2A
100
AcDbVisualStyle
  2

 70
    27
177
     3
291
     0
 70
    58
 90
        2
176
     1
 90
        2
176
     1
 90
        1
176
     1
 90
        2
176
     1
 40
0.6
176
     1
 40
30.0
176
     1
 62
     7
176
     1
 90
        0
176
     1
 90
        4
176
     1
 62
     7
176
     1
 62
   257
176
     1
 90
        1
176
     1
 90
        1
176
     1
 40
1.0
176
     1
 90
        8
176
     1
 62
   257
176
     1
 40
1.0
176
     1
 90
        1
176
     1
 90
        6
176
     1
 90
        2
176
     1
 62
     8
176
     1
 90
        3
176
     1
 90
        0
176
     1
 90
        0
176
     1
290
     0
176
     1
 90
        5
176
     1
 40
0.0
176
     1
 90
        0
176
     1
290
     0
176
     1
290
     1
176
     1
290
     1
176
     1
290
     0
176
     1
290
     0
176
     1
290
     0
176
     1
290
     0
176
     1
290
     0
176
     1
290
     0
176
     1
 90
       50
176
     1
 40
0.0
176
     1
 40
1.0
176
     1
 90
        0
176
     1
 62
    18
420
        0
176
     1
 90
       50
176
     1
 90
        3
176
     1
 62
     5
420
      255
176
     1
290
     0
176
     1
 90
       50
176
     1
 90
       50
176
     1
 90
       50
176
     1
290
     0
176
     1
 90
       50
176
     1
 62
   256
176
     0
 40
1.0
176
     0
 90
        2
176
     1
  1
strokes_ogs.tif
176
     1
290
     0
176
     1
 40
1.0
176
     1
 40
1.0
176
     1
1001
ACAD
1000
AcDbSavedByObjectVersion
1070
     0
  0
VISUALSTYLE
  5
41
102
{ACAD_REACTORS
330
2A
102
}
330
2A
100
AcDbVisualStyle
  2

 70
    26
177
     3
291
     0
 70
    58
 90
        2
176
     1
 90
        2
176
     1
 90
        1
176
     1
 90
        2
176
     1
 40
0.6
176
     1
 40
30.0
176
     1
 62
     7
176
     1
 90
        1
176
     1
 90
       10
176
     1
 62
     7
176
     1
 62
   257
176
     1
 90
        2
176
     1
 90
        1
176
     1
 40
1.0
176
     1
 90
        8
176
     1
 62
   257
176
     1
 40
1.0
176
     1
 90
        1
176
     1
 90
        6
176
     1
 90
        2
176
     1
 62
     7
176
     1
 90
        3
176
     1
 90
        0
176
     1
 90
        0
176
     1
290
     0
176
     1
 90
        5
176
     1
 40
0.0
176
     1
 90
        0
176
     1
290
     0
176
     1
290
     1
176
     1
290
     1
176
     1
290
     0
176
     1
290
     0
176
     1
290
     0
176
     1
290
     0
176
     1
290
     0
176
     1
290
     0
176
     1
 90
       50
176
     1
 40
0.0
176
     1
 40
1.0
176
     1
 90
        0
176
     1
 62
    18
420
        0
176
     1
 90
       50
176
     1
 90
        3
176
     1
 62
     5
420
      255
176
     1
290
     0
176
     1
 90
       50
176
     1
 90
       50
176
     1
 90
       50
176
     1
290
     0
176
     1
 90
       50
176
     1
 62
   256
176
     0
 40
1.0
176
     0
 90
        2
176
     1
  1
strokes_ogs.tif
176
     1
290
     0
176
     1
 40
1.0
176
     1
 40
1.0
176
     1
1001
ACAD
1000
AcDbSavedByObjectVersion
1070
     0
  0
VISUALSTYLE
  5
3E
102
{ACAD_REACTORS
330
2A
102
}
330
2A
100
AcDbVisualStyle
  2

 70
    23
177
     3
291
     0
 70
    58
 90
        2
176
     1
 90
        2
176
     1
 90
        3
176
     1
 90
        0
176
     1
 40
0.6
176
     1
 40
30.0
176
     1
 62
     7
176
     1
 90
        2
176
     1
 90
        2
176
     1
 62
     7
176
     1
 62
     7
176
     1
 90
        1
176
     1
 90
        1
176
     1
 40
40.0
176
     1
 90
        8
176
     1
 62
     7
176
     1
 40
1.0
176
     1
 90
        1
176
     1
 90
        6
176
     1
 90
        2
176
     1
 62
     7
176
     1
 90
        3
176
     1
 90
        0
176
     1
 90
        0
176
     1
290
     0
176
     1
 90
        1
176
     1
 40
0.0
176
     1
 90
        0
176
     1
290
     0
176
     1
290
     1
176
     1
290
     1
176
     1
290
     0
176
     1
290
     0
176
     1
290
     0
176
     1
290
     0
176
     1
290
     0
176
     1
290
     0
176
     1
 90
       50
176
     1
 40
0.0
176
     1
 40
1.0
176
     1
 90
        0
176
     1
 62
    18
420
        0
176
     1
 90
       50
176
     1
 90
        3
176
     1
 62
     5
420
      255
176
     1
290
     0
176
     1
 90
       50
176
     1
 90
       50
176
     1
 90
       50
176
     1
290
     0
176
     1
 90
       50
176
     1
 62
   256
176
     0
 40
1.0
176
     0
 90
        2
176
     1
  1
strokes_ogs.tif
176
     1
290
     0
176
     1
 40
1.0
176
     1
 40
1.0
176
     1
1001
ACAD
1000
AcDbSavedByObjectVersion
1070
     0
  0
VISUALSTYLE
  5
3F
102
{ACAD_REACTORS
330
2A
102
}
330
2A
100
AcDbVisualStyle
  2

 70
    24
177
     3
291
     0
 70
    58
 90
        1
176
     1
 90
        2
176
     1
 90
        2
176
     1
 90
        0
176
     1
 40
0.6
176
     1
 40
30.0
176
     1
 62
     7
176
     1
 90
        2
176
     1
 90
        2
176
     1
 62
     7
176
     1
 62
     7
176
     1
 90
        1
176
     1
 90
        1
176
     1
 40
40.0
176
     1
 90
       11
176
     1
 62
     7
176
     1
 40
1.0
176
     1
 90
        1
176
     1
 90
        6
176
     1
 90
        2
176
     1
 62
     7
176
     1
 90
        6
176
     1
 90
        0
176
     1
 90
        0
176
     1
290
     0
176
     1
 90
        1
176
     1
 40
0.0
176
     1
 90
        0
176
     1
290
     0
176
     1
290
     1
176
     1
290
     1
176
     1
290
     0
176
     1
290
     0
176
     1
290
     0
176
     1
290
     0
176
     1
290
     0
176
     1
290
     0
176
     1
 90
       50
176
     1
 40
0.0
176
     1
 40
1.0
176
     1
 90
        0
176
     1
 62
    18
420
        0
176
     1
 90
       50
176
     1
 90
        3
176
     1
 62
     5
420
      255
176
     1
290
     0
176
     1
 90
       50
176
     1
 90
       50
176
     1
 90
       50
176
     1
290
     0
176
     1
 90
       50
176
     1
 62
   256
176
     0
 40
1.0
176
     0
 90
        2
176
     1
  1
strokes_ogs.tif
176
     1
290
     0
176
     1
 40
1.0
176
     1
 40
1.0
176
     1
1001
ACAD
1000
AcDbSavedByObjectVersion
1070
     0
  0
VISUALSTYLE
  5
37
102
{ACAD_REACTORS
330
2A
102
}
330
2A
100
AcDbVisualStyle
  2

 70
    13
177
     3
291
     1
 70
    58
 90
        2
176
     1
 90
        2
176
     1
 90
        0
176
     1
 90
        0
176
     1
 40
0.6
176
     1
 40
30.0
176
     1
 62
     7
176
     1
 90
        1
176
     1
 90
        4
176
     1
 62
     7
176
     1
 62
   257
176
     1
 90
        1
176
     1
 90
        1
176
     1
 40
1.0
176
     1
 90
       12
176
     1
 62
     7
176
     1
 40
1.0
176
     1
 90
        1
176
     1
 90
        6
176
     1
 90
        2
176
     1
 62
     7
176
     1
 90
        5
176
     1
 90
        0
176
     1
 90
        0
176
     1
290
     0
176
     1
 90
        1
176
     1
 40
0.0
176
     1
 90
        0
176
     1
290
     0
176
     1
290
     1
176
     1
290
     1
176
     1
290
     0
176
     1
290
     0
176
     1
290
     0
176
     1
290
     0
176
     1
290
     0
176
     1
290
     0
176
     1
 90
       50
176
     1
 40
0.0
176
     1
 40
1.0
176
     1
 90
        0
176
     1
 62
    18
420
        0
176
     1
 90
       50
176
     1
 90
        3
176
     1
 62
     5
420
      255
176
     1
290
     0
176
     1
 90
       50
176
     1
 90
       50
176
     1
 90
       50
176
     1
290
     0
176
     1
 90
       50
176
     1
 62
   256
176
     0
 40
1.0
176
     0
 90
        2
176
     1
  1
strokes_ogs.tif
176
     1
290
     0
176
     1
 40
1.0
176
     1
 40
1.0
176
     1
1001
ACAD
1000
AcDbSavedByObjectVersion
1070
     0
  0
VISUALSTYLE
  5
30
102
{ACAD_REACTORS
330
2A
102
}
330
2A
100
AcDbVisualStyle
  2

 70
     5
177
     3
291
     0
 70
    58
 90
        0
176
     1
 90
        2
176
     1
 90
        0
176
     1
 90
        0
176
     1
 40
0.6
176
     1
 40
30.0
176
     1
 62
     7
176
     1
 90
        1
176
     1
 90
        4
176
     1
 62
     7
176
     1
 62
   257
176
     1
 90
        1
176
     1
 90
        1
176
     1
 40
1.0
176
     1
 90
        0
176
     1
 62
   257
176
     1
 40
1.0
176
     1
 90
        1
176
     1
 90
        6
176
     1
 90
        2
176
     1
 62
     7
176
     1
 90
        3
176
     1
 90
        0
176
     1
 90
        0
176
     1
290
     0
176
     1
 90
        1
176
     1
 40
0.0
176
     1
 90
        0
176
     1
290
     0
176
     1
290
     1
176
     1
290
     1
176
     1
290
     0
176
     1
290
     0
176
     1
290
     0
176
     1
290
     0
176
     1
290
     0
176
     1
290
     0
176
     1
 90
       50
176
     1
 40
0.0
176
     1
 40
1.0
176
     1
 90
        0
176
     1
 62
    18
420
        0
176
     1
 90
       50
176
     1
 90
        3
176
     1
 62
     5
420
      255
176
     1
290
     0
176
     1
 90
       50
176
     1
 90
       50
176
     1
 90
       50
176
     1
290
     0
176
     1
 90
       50
176
     1
 62
   256
176
     0
 40
1.0
176
     0
 90
        2
176
     1
  1
strokes_ogs.tif
176
     1
290
     0
176
     1
 40
1.0
176
     1
 40
1.0
176
     1
1001
ACAD
1000
AcDbSavedByObjectVersion
1070
     0
  0
VISUALSTYLE
  5
40
102
{ACAD_REACTORS
330
2A
102
}
330
2A
100
AcDbVisualStyle
  2

 70
    25
177
     3
291
     0
 70
    58
 90
        2
176
     1
 90
        2
176
     1
 90
        1
176
     1
 90
        1
176
     1
 40
0.5
176
     1
 40
30.0
176
     1
 62
     7
176
     1
 90
        1
176
     1
 90
        0
176
     1
 62
     7
176
     1
 62
   257
176
     1
 90
        1
176
     1
 90
        1
176
     1
 40
1.0
176
     1
 90
        8
176
     1
 62
     7
176
     1
 40
1.0
176
     1
 90
        1
176
     1
 90
        6
176
     1
 90
        2
176
     1
 62
     7
176
     1
 90
        3
176
     1
 90
        0
176
     1
 90
        0
176
     1
290
     0
176
     1
 90
       13
176
     1
 40
0.0
176
     1
 90
        0
176
     1
290
     0
176
     1
290
     1
176
     1
290
     1
176
     1
290
     0
176
     1
290
     0
176
     1
290
     0
176
     1
290
     0
176
     1
290
     0
176
     1
290
     0
176
     1
 90
       50
176
     1
 40
0.0
176
     1
 40
1.0
176
     1
 90
        0
176
     1
 62
    18
420
        0
176
     1
 90
       50
176
     1
 90
        3
176
     1
 62
     5
420
      255
176
     1
290
     0
176
     1
 90
       50
176
     1
 90
       50
176
     1
 90
       50
176
     1
290
     0
176
     1
 90
       50
176
     1
 62
   256
176
     0
 40
1.0
176
     0
 90
        2
176
     1
  1
strokes_ogs.tif
176
     1
290
     0
176
     1
 40
1.0
176
     1
 40
1.0
176
     1
1001
ACAD
1000
AcDbSavedByObjectVersion
1070
     0
  0
DICTIONARYVAR
  5
428
102
{ACAD_REACTORS
330
41A
102
}
330
41A
100
DictionaryVariables
280
     0
  1
1:1
  0
DICTIONARYVAR
  5
421
102
{ACAD_REACTORS
330
41A
102
}
330
41A
100
DictionaryVariables
280
     0
  1
3.500000
  0
DICTIONARYVAR
  5
422
102
{ACAD_REACTORS
330
41A
102
}
330
41A
100
DictionaryVariables
280
     0
  1
acadiso.lin
  0
DICTIONARYVAR
  5
41C
102
{ACAD_REACTORS
330
41A
102
}
330
41A
100
DictionaryVariables
280
     0
  1
STANDARD
  0
DICTIONARYVAR
  5
41B
102
{ACAD_REACTORS
330
41A
102
}
330
41A
100
DictionaryVariables
280
     0
  1
STANDARD
  0
DICTIONARYVAR
  5
9D3
102
{ACAD_REACTORS
330
41A
102
}
330
41A
100
DictionaryVariables
280
     0
  1
Metric50
  0
DICTIONARYVAR
  5
9D4
102
{ACAD_REACTORS
330
41A
102
}
330
41A
100
DictionaryVariables
280
     0
  1
Metric50
  0
DICTIONARYVAR
  5
423
102
{ACAD_REACTORS
330
41A
102
}
330
41A
100
DictionaryVariables
280
     0
  1
2
  0
DICTIONARYVAR
  5
424
102
{ACAD_REACTORS
330
41A
102
}
330
41A
100
DictionaryVariables
280
     0
  1
1
  0
DICTIONARYVAR
  5
A2B
102
{ACAD_REACTORS
330
41A
102
}
330
41A
100
DictionaryVariables
280
     0
  1
0
  0
DICTIONARYVAR
  5
9D6
102
{ACAD_REACTORS
330
41A
102
}
330
41A
100
DictionaryVariables
280
     0
  1
1
  0
DICTIONARYVAR
  5
9D7
102
{ACAD_REACTORS
330
41A
102
}
330
41A
100
DictionaryVariables
280
     0
  1
15
  0
DICTIONARYVAR
  5
9D5
102
{ACAD_REACTORS
330
41A
102
}
330
41A
100
DictionaryVariables
280
     0
  1
0
  0
DICTIONARYVAR
  5
429
102
{ACAD_REACTORS
330
41A
102
}
330
41A
100
DictionaryVariables
280
     0
  1
1
  0
DICTIONARYVAR
  5
A2A
102
{ACAD_REACTORS
330
41A
102
}
330
41A
100
DictionaryVariables
280
     0
  1
127
  0
DICTIONARY
  5
11A3
330
469
100
AcDbDictionary
280
     1
281
     1
  3
ACAD_XREC_ROUNDTRIP
360
11A4
  0
DICTIONARY
  5
45C
330
45
100
AcDbDictionary
280
     1
281
     1
  3
ACAD_XREC_ROUNDTRIP
360
45D
  0
DICTIONARY
  5
45A
330
44
100
AcDbDictionary
280
     1
281
     1
  3
ACAD_XREC_ROUNDTRIP
360
45B
  0
DICTIONARY
  5
45E
330
46
100
AcDbDictionary
280
     1
281
     1
  3
ACAD_XREC_ROUNDTRIP
360
45F
  0
DICTIONARY
  5
11A1
330
467
100
AcDbDictionary
280
     1
281
     1
  3
ACAD_XREC_ROUNDTRIP
360
11A2
  0
DICTIONARY
  5
9D8
330
5A
100
AcDbDictionary
280
     1
281
     1
  3
ACAD_ROUNDTRIP_2008_TABLESTYLE_CELLSTYLEMAP
360
11A0
  0
XRECORD
  5
11A4
102
{ACAD_REACTORS
330
11A3
102
}
330
11A3
100
AcDbXrecord
280
     1
102
DISPLAYNAME
  1
Metric50
102
FLAGS
 90
        0
  0
XRECORD
  5
45D
102
{ACAD_REACTORS
330
45C
102
}
330
45C
100
AcDbXrecord
280
     1
102
MATERIAL
148
0.0
149
0.0
149
0.0
 93
        0
 94
      127
282
     0
 72
     1
 77
     1
171
     1
175
     1
179
     1
273
     0
  0
XRECORD
  5
45B
102
{ACAD_REACTORS
330
45A
102
}
330
45A
100
AcDbXrecord
280
     1
102
MATERIAL
148
0.0
149
0.0
149
0.0
 93
        0
 94
      127
282
     0
 72
     1
 77
     1
171
     1
175
     1
179
     1
273
     0
  0
XRECORD
  5
45F
102
{ACAD_REACTORS
330
45E
102
}
330
45E
100
AcDbXrecord
280
     1
102
MATERIAL
148
0.0
149
0.0
149
0.0
 93
        0
 94
      127
282
     0
 72
     1
 77
     1
171
     1
175
     1
179
     1
273
     0
  0
XRECORD
  5
11A2
102
{ACAD_REACTORS
330
11A1
102
}
330
11A1
100
AcDbXrecord
280
     1
102
DISPLAYNAME
  1
Metric50
102
FLAGS
 90
        0
  0
CELLSTYLEMAP
  5
11A0
102
{ACAD_REACTORS
330
9D8
102
}
330
9D8
100
AcDbCellStyleMap
 90
        3
300
CELLSTYLE
  1
TABLEFORMAT_BEGIN
 90
        5
170
     1
 91
        0
 92
    32768
 62
   257
 93
        1
300
CONTENTFORMAT
  1
CONTENTFORMAT_BEGIN
 90
        0
 91
        0
 92
        4
 93
        0
300

 40
0.0
140
1.0
 94
        5
 62
     0
340
11
144
6.0
309
CONTENTFORMAT_END
171
     1
301
MARGIN
  1
CELLMARGIN_BEGIN
 40
1.5
 40
1.5
 40
1.5
 40
1.5
 40
0.18
 40
0.18
309
CELLMARGIN_END
 94
        6
 95
        1
302
GRIDFORMAT
  1
GRIDFORMAT_BEGIN
 90
        0
 91
        1
 62
     0
 92
       -2
340
0
 93
        0
 40
0.045
309
GRIDFORMAT_END
 95
        2
302
GRIDFORMAT
  1
GRIDFORMAT_BEGIN
 90
        0
 91
        1
 62
     0
 92
       -2
340
0
 93
        0
 40
0.045
309
GRIDFORMAT_END
 95
        4
302
GRIDFORMAT
  1
GRIDFORMAT_BEGIN
 90
        0
 91
        1
 62
     0
 92
       -2
340
0
 93
        0
 40
0.045
309
GRIDFORMAT_END
 95
        8
302
GRIDFORMAT
  1
GRIDFORMAT_BEGIN
 90
        0
 91
        1
 62
     0
 92
       -2
340
0
 93
        0
 40
0.045
309
GRIDFORMAT_END
 95
       16
302
GRIDFORMAT
  1
GRIDFORMAT_BEGIN
 90
        0
 91
        1
 62
     0
 92
       -2
340
0
 93
        0
 40
0.045
309
GRIDFORMAT_END
 95
       32
302
GRIDFORMAT
  1
GRIDFORMAT_BEGIN
 90
        0
 91
        1
 62
     0
 92
       -2
340
0
 93
        0
 40
0.045
309
GRIDFORMAT_END
309
TABLEFORMAT_END
  1
CELLSTYLE_BEGIN
 90
        1
 91
        1
300
_TITLE
309
CELLSTYLE_END
300
CELLSTYLE
  1
TABLEFORMAT_BEGIN
 90
        5
170
     1
 91
        0
 92
        0
 62
   257
 93
        1
300
CONTENTFORMAT
  1
CONTENTFORMAT_BEGIN
 90
        0
 91
        0
 92
        4
 93
        0
300

 40
0.0
140
1.0
 94
        5
 62
     0
340
11
144
4.5
309
CONTENTFORMAT_END
171
     1
301
MARGIN
  1
CELLMARGIN_BEGIN
 40
1.5
 40
1.5
 40
1.5
 40
1.5
 40
0.18
 40
0.18
309
CELLMARGIN_END
 94
        6
 95
        1
302
GRIDFORMAT
  1
GRIDFORMAT_BEGIN
 90
        0
 91
        1
 62
     0
 92
       -2
340
0
 93
        0
 40
0.045
309
GRIDFORMAT_END
 95
        2
302
GRIDFORMAT
  1
GRIDFORMAT_BEGIN
 90
        0
 91
        1
 62
     0
 92
       -2
340
0
 93
        0
 40
0.045
309
GRIDFORMAT_END
 95
        4
302
GRIDFORMAT
  1
GRIDFORMAT_BEGIN
 90
        0
 91
        1
 62
     0
 92
       -2
340
0
 93
        0
 40
0.045
309
GRIDFORMAT_END
 95
        8
302
GRIDFORMAT
  1
GRIDFORMAT_BEGIN
 90
        0
 91
        1
 62
     0
 92
       -2
340
0
 93
        0
 40
0.045
309
GRIDFORMAT_END
 95
       16
302
GRIDFORMAT
  1
GRIDFORMAT_BEGIN
 90
        0
 91
        1
 62
     0
 92
       -2
340
0
 93
        0
 40
0.045
309
GRIDFORMAT_END
 95
       32
302
GRIDFORMAT
  1
GRIDFORMAT_BEGIN
 90
        0
 91
        1
 62
     0
 92
       -2
340
0
 93
        0
 40
0.045
309
GRIDFORMAT_END
309
TABLEFORMAT_END
  1
CELLSTYLE_BEGIN
 90
        2
 91
        1
300
_HEADER
309
CELLSTYLE_END
300
CELLSTYLE
  1
TABLEFORMAT_BEGIN
 90
        5
170
     1
 91
        0
 92
        0
 62
   257
 93
        1
300
CONTENTFORMAT
  1
CONTENTFORMAT_BEGIN
 90
        0
 91
        0
 92
        4
 93
        0
300

 40
0.0
140
1.0
 94
        2
 62
     0
340
11
144
4.5
309
CONTENTFORMAT_END
171
     1
301
MARGIN
  1
CELLMARGIN_BEGIN
 40
1.5
 40
1.5
 40
1.5
 40
1.5
 40
0.18
 40
0.18
309
CELLMARGIN_END
 94
        6
 95
        1
302
GRIDFORMAT
  1
GRIDFORMAT_BEGIN
 90
        0
 91
        1
 62
     0
 92
       -2
340
0
 93
        0
 40
0.045
309
GRIDFORMAT_END
 95
        2
302
GRIDFORMAT
  1
GRIDFORMAT_BEGIN
 90
        0
 91
        1
 62
     0
 92
       -2
340
0
 93
        0
 40
0.045
309
GRIDFORMAT_END
 95
        4
302
GRIDFORMAT
  1
GRIDFORMAT_BEGIN
 90
        0
 91
        1
 62
     0
 92
       -2
340
0
 93
        0
 40
0.045
309
GRIDFORMAT_END
 95
        8
302
GRIDFORMAT
  1
GRIDFORMAT_BEGIN
 90
        0
 91
        1
 62
     0
 92
       -2
340
0
 93
        0
 40
0.045
309
GRIDFORMAT_END
 95
       16
302
GRIDFORMAT
  1
GRIDFORMAT_BEGIN
 90
        0
 91
        1
 62
     0
 92
       -2
340
0
 93
        0
 40
0.045
309
GRIDFORMAT_END
 95
       32
302
GRIDFORMAT
  1
GRIDFORMAT_BEGIN
 90
        0
 91
        1
 62
     0
 92
       -2
340
0
 93
        0
 40
0.045
309
GRIDFORMAT_END
309
TABLEFORMAT_END
  1
CELLSTYLE_BEGIN
 90
        3
 91
        2
300
_DATA
309
CELLSTYLE_END
  0
ENDSEC
  0
EOF
