  0
SECTION
  2
HEADER
  9
$ACADVER
  1
AC1015
  9
$ACADMAINTVER
 70
    20
  9
$DWGCODEPAGE
  3
ANSI_932
  9
$INSBASE
 10
0.0
 20
0.0
 30
0.0
  9
$EXTMIN
 10
-434.2860016039322
 20
29.16653218574857
 30
0.0
  9
$EXTMAX
 10
2218.339176365102
 20
1779.166532185749
 30
0.0
  9
$LIMMIN
 10
-409.8433344364166
 20
-642.571396112442
  9
$LIMMAX
 10
758.9231910705566
 20
651.2683336734773
  9
$ORTHOMODE
 70
     0
  9
$REGENMODE
 70
     1
  9
$FILLMODE
 70
     1
  9
$QTEXTMODE
 70
     0
  9
$MIRRTEXT
 70
     1
  9
$LTSCALE
 40
0.2440563532311147
  9
$ATTMODE
 70
     1
  9
$TEXTSIZE
 40
2.5
  9
$TRACEWID
 40
1.0
  9
$TEXTSTYLE
  7
Standard
  9
$CLAYER
  8
0
  9
$CELTYPE
  6
ByLayer
  9
$CECOLOR
 62
   256
  9
$CELTSCALE
 40
1.0
  9
$DISPSILH
 70
     0
  9
$DIMSCALE
 40
1.0
  9
$DIMASZ
 40
2.5
  9
$DIMEXO
 40
0.625
  9
$DIMDLI
 40
3.75
  9
$DIMRND
 40
0.0
  9
$DIMDLE
 40
0.0
  9
$DIMEXE
 40
1.25
  9
$DIMTP
 40
0.0
  9
$DIMTM
 40
0.0
  9
$DIMTXT
 40
2.5
  9
$DIMCEN
 40
2.5
  9
$DIMTSZ
 40
0.0
  9
$DIMTOL
 70
     0
  9
$DIMLIM
 70
     0
  9
$DIMTIH
 70
     0
  9
$DIMTOH
 70
     0
  9
$DIMSE1
 70
     0
  9
$DIMSE2
 70
     0
  9
$DIMTAD
 70
     1
  9
$DIMZIN
 70
     0
  9
$DIMBLK
  1

  9
$DIMASO
 70
     1
  9
$DIMSHO
 70
     1
  9
$DIMPOST
  1

  9
$DIMAPOST
  1

  9
$DIMALT
 70
     0
  9
$DIMALTD
 70
     3
  9
$DIMALTF
 40
0.03937007874016
  9
$DIMLFAC
 40
1.0
  9
$DIMTOFL
 70
     1
  9
$DIMTVP
 40
0.0
  9
$DIMTIX
 70
     0
  9
$DIMSOXD
 70
     0
  9
$DIMSAH
 70
     0
  9
$DIMBLK1
  1

  9
$DIMBLK2
  1

  9
$DIMSTYLE
  2
Standard
  9
$DIMCLRD
 70
     0
  9
$DIMCLRE
 70
     0
  9
$DIMCLRT
 70
     0
  9
$DIMTFAC
 40
0.75
  9
$DIMGAP
 40
0.625
  9
$DIMJUST
 70
     0
  9
$DIMSD1
 70
     0
  9
$DIMSD2
 70
     0
  9
$DIMTOLJ
 70
     0
  9
$DIMTZIN
 70
     8
  9
$DIMALTZ
 70
     0
  9
$DIMALTTZ
 70
     0
  9
$DIMUPT
 70
     0
  9
$DIMDEC
 70
     2
  9
$DIMTDEC
 70
     2
  9
$DIMALTU
 70
     2
  9
$DIMALTTD
 70
     3
  9
$DIMTXSTY
  7
Standard
  9
$DIMAUNIT
 70
     0
  9
$DIMADEC
 70
     0
  9
$DIMALTRND
 40
0.0
  9
$DIMAZIN
 70
     0
  9
$DIMDSEP
 70
    46
  9
$DIMATFIT
 70
     3
  9
$DIMFRAC
 70
     0
  9
$DIMLDRBLK
  1

  9
$DIMLUNIT
 70
     2
  9
$DIMLWD
 70
    -2
  9
$DIMLWE
 70
    -2
  9
$DIMTMOVE
 70
     0
  9
$LUNITS
 70
     2
  9
$LUPREC
 70
     4
  9
$SKETCHINC
 40
1.0
  9
$FILLETRAD
 40
0.0
  9
$AUNITS
 70
     0
  9
$AUPREC
 70
     0
  9
$MENU
  1
.
  9
$ELEVATION
 40
0.0
  9
$PELEVATION
 40
0.0
  9
$THICKNESS
 40
0.0
  9
$LIMCHECK
 70
     0
  9
$CHAMFERA
 40
10.0
  9
$CHAMFERB
 40
10.0
  9
$CHAMFERC
 40
20.0
  9
$CHAMFERD
 40
0.0
  9
$SKPOLY
 70
     0
  9
$TDCREATE
 40
2455188.750000000
  9
$TDUCREATE
 40
2455188.375000000
  9
$TDUPDATE
 40
2459753.459188912
  9
$TDUUPDATE
 40
2459753.084188912
  9
$TDINDWG
 40
0.0124759491
  9
$TDUSRTIMER
 40
0.0124757639
  9
$USRTIMER
 70
     1
  9
$ANGBASE
 50
0.0
  9
$ANGDIR
 70
     0
  9
$PDMODE
 70
     0
  9
$PDSIZE
 40
0.0
  9
$PLINEWID
 40
0.0
  9
$SPLFRAME
 70
     0
  9
$SPLINETYPE
 70
     6
  9
$SPLINESEGS
 70
     8
  9
$HANDSEED
  5
86E
  9
$SURFTAB1
 70
     6
  9
$SURFTAB2
 70
     6
  9
$SURFTYPE
 70
     6
  9
$SURFU
 70
     6
  9
$SURFV
 70
     6
  9
$UCSBASE
  2

  9
$UCSNAME
  2

  9
$UCSORG
 10
0.0
 20
0.0
 30
0.0
  9
$UCSXDIR
 10
1.0
 20
0.0
 30
0.0
  9
$UCSYDIR
 10
0.0
 20
1.0
 30
0.0
  9
$UCSORTHOREF
  2

  9
$UCSORTHOVIEW
 70
     0
  9
$UCSORGTOP
 10
0.0
 20
0.0
 30
0.0
  9
$UCSORGBOTTOM
 10
0.0
 20
0.0
 30
0.0
  9
$UCSORGLEFT
 10
0.0
 20
0.0
 30
0.0
  9
$UCSORGRIGHT
 10
0.0
 20
0.0
 30
0.0
  9
$UCSORGFRONT
 10
0.0
 20
0.0
 30
0.0
  9
$UCSORGBACK
 10
0.0
 20
0.0
 30
0.0
  9
$PUCSBASE
  2

  9
$PUCSNAME
  2

  9
$PUCSORG
 10
0.0
 20
0.0
 30
0.0
  9
$PUCSXDIR
 10
1.0
 20
0.0
 30
0.0
  9
$PUCSYDIR
 10
0.0
 20
1.0
 30
0.0
  9
$PUCSORTHOREF
  2

  9
$PUCSORTHOVIEW
 70
     0
  9
$PUCSORGTOP
 10
0.0
 20
0.0
 30
0.0
  9
$PUCSORGBOTTOM
 10
0.0
 20
0.0
 30
0.0
  9
$PUCSORGLEFT
 10
0.0
 20
0.0
 30
0.0
  9
$PUCSORGRIGHT
 10
0.0
 20
0.0
 30
0.0
  9
$PUCSORGFRONT
 10
0.0
 20
0.0
 30
0.0
  9
$PUCSORGBACK
 10
0.0
 20
0.0
 30
0.0
  9
$USERI1
 70
     0
  9
$USERI2
 70
     0
  9
$USERI3
 70
     0
  9
$USERI4
 70
     0
  9
$USERI5
 70
     0
  9
$USERR1
 40
0.0
  9
$USERR2
 40
0.0
  9
$USERR3
 40
0.0
  9
$USERR4
 40
0.0
  9
$USERR5
 40
0.0
  9
$WORLDVIEW
 70
     1
  9
$SHADEDGE
 70
     3
  9
$SHADEDIF
 70
    70
  9
$TILEMODE
 70
     1
  9
$MAXACTVP
 70
    64
  9
$PINSBASE
 10
0.0
 20
0.0
 30
0.0
  9
$PLIMCHECK
 70
     0
  9
$PEXTMIN
 10
1.000000000000000E+20
 20
1.000000000000000E+20
 30
1.000000000000000E+20
  9
$PEXTMAX
 10
-1.000000000000000E+20
 20
-1.000000000000000E+20
 30
-1.000000000000000E+20
  9
$PLIMMIN
 10
0.0
 20
0.0
  9
$PLIMMAX
 10
420.0
 20
297.0
  9
$UNITMODE
 70
     0
  9
$VISRETAIN
 70
     1
  9
$PLINEGEN
 70
     0
  9
$PSLTSCALE
 70
     1
  9
$TREEDEPTH
 70
  3020
  9
$CMLSTYLE
  2
Standard
  9
$CMLJUST
 70
     0
  9
$CMLSCALE
 40
20.0
  9
$PROXYGRAPHICS
 70
     1
  9
$MEASUREMENT
 70
     1
  9
$CELWEIGHT
370
    -1
  9
$ENDCAPS
280
     0
  9
$JOINSTYLE
280
     0
  9
$LWDISPLAY
290
     0
  9
$INSUNITS
 70
     4
  9
$HYPERLINKBASE
  1

  9
$STYLESHEET
  1

  9
$XEDIT
290
     1
  9
$CEPSNTYPE
380
     0
  9
$PSTYLEMODE
290
     1
  9
$FINGERPRINTGUID
  2
{F68A55B3-9C1A-45C5-BD63-15B05F3BBE3A}
  9
$VERSIONGUID
  2
{B8259192-38BD-4C95-9299-1AFA6AC70D09}
  9
$EXTNAMES
290
     1
  9
$PSVPSCALE
 40
0.0
  9
$OLESTARTUP
290
     0
  0
ENDSEC
  0
SECTION
  2
CLASSES
  0
CLASS
  1
ACDBDICTIONARYWDFLT
  2
AcDbDictionaryWithDefault
  3
ObjectDBX Classes
 90
        0
280
     0
281
     0
  0
CLASS
  1
VISUALSTYLE
  2
AcDbVisualStyle
  3
ObjectDBX Classes
 90
     4095
280
     0
281
     0
  0
CLASS
  1
MATERIAL
  2
AcDbMaterial
  3
ObjectDBX Classes
 90
     1153
280
     0
281
     0
  0
CLASS
  1
SCALE
  2
AcDbScale
  3
ObjectDBX Classes
 90
     1153
280
     0
281
     0
  0
CLASS
  1
TABLESTYLE
  2
AcDbTableStyle
  3
ObjectDBX Classes
 90
     4095
280
     0
281
     0
  0
CLASS
  1
MLEADERSTYLE
  2
AcDbMLeaderStyle
  3
ACDB_MLEADERSTYLE_CLASS
 90
     4095
280
     0
281
     0
  0
CLASS
  1
SUN
  2
AcDbSun
  3
SCENEOE
 90
    33921
280
     0
281
     0
  0
CLASS
  1
DICTIONARYVAR
  2
AcDbDictionaryVar
  3
ObjectDBX Classes
 90
        0
280
     0
281
     0
  0
CLASS
  1
ACDBSECTIONVIEWSTYLE
  2
AcDbSectionViewStyle
  3
ObjectDBX Classes
 90
     1025
280
     0
281
     0
  0
CLASS
  1
ACDBDETAILVIEWSTYLE
  2
AcDbDetailViewStyle
  3
ObjectDBX Classes
 90
     1025
280
     0
281
     0
  0
CLASS
  1
SORTENTSTABLE
  2
AcDbSortentsTable
  3
ObjectDBX Classes
 90
        0
280
     0
281
     0
  0
CLASS
  1
CELLSTYLEMAP
  2
AcDbCellStyleMap
  3
ObjectDBX Classes
 90
     1152
280
     0
281
     0
  0
CLASS
  1
ACDBPLACEHOLDER
  2
AcDbPlaceHolder
  3
ObjectDBX Classes
 90
        0
280
     0
281
     0
  0
CLASS
  1
LAYOUT
  2
AcDbLayout
  3
ObjectDBX Classes
 90
        0
280
     0
281
     0
  0
ENDSEC
  0
SECTION
  2
TABLES
  0
TABLE
  2
VPORT
  5
8
330
0
100
AcDbSymbolTable
 70
     1
  0
VPORT
  5
29
330
8
100
AcDbSymbolTableRecord
100
AcDbViewportTableRecord
  2
*Active
 70
     0
 10
0.0
 20
0.0
 11
1.0
 21
1.0
 12
1691.60395202154
 22
469.1203241651018
 13
0.0
 23
0.0
 14
10.0
 24
10.0
 15
10.0
 25
10.0
 16
0.0
 26
0.0
 36
1.0
 17
0.0
 27
0.0
 37
0.0
 40
2028.079391719184
 41
2.204301075268817
 42
50.0
 43
0.0
 44
0.0
 50
0.0
 51
0.0
 71
     0
 72
 20000
 73
     1
 74
     3
 75
     0
 76
     0
 77
     0
 78
     0
281
     0
 65
     1
110
0.0
120
0.0
130
0.0
111
1.0
121
0.0
131
0.0
112
0.0
122
1.0
132
0.0
 79
     0
146
0.0
1001
ACAD_NAV_VCDISPLAY
1070
     3
  0
ENDTAB
  0
TABLE
  2
LTYPE
  5
5
330
0
100
AcDbSymbolTable
 70
     2
  0
LTYPE
  5
14
330
5
100
AcDbSymbolTableRecord
100
AcDbLinetypeTableRecord
  2
ByBlock
 70
     0
  3

 72
    65
 73
     0
 40
0.0
  0
LTYPE
  5
15
330
5
100
AcDbSymbolTableRecord
100
AcDbLinetypeTableRecord
  2
ByLayer
 70
     0
  3

 72
    65
 73
     0
 40
0.0
  0
LTYPE
  5
16
330
5
100
AcDbSymbolTableRecord
100
AcDbLinetypeTableRecord
  2
Continuous
 70
     0
  3
Solid line
 72
    65
 73
     0
 40
0.0
  0
LTYPE
  5
33C
330
5
100
AcDbSymbolTableRecord
100
AcDbLinetypeTableRecord
  2
CENTER2
 70
     0
  3
Center (.5x) ___ _ ___ _ ___ _ ___ _ ___ _ ___
 72
    65
 73
     4
 40
28.575
 49
19.05
 74
     0
 49
-3.174999999999998
 74
     0
 49
3.174999999999998
 74
     0
 49
-3.174999999999998
 74
     0
  0
ENDTAB
  0
TABLE
  2
LAYER
  5
2
102
{ACAD_XDICTIONARY
360
342
102
}
330
0
100
AcDbSymbolTable
 70
     4
  0
LAYER
  5
10
102
{ACAD_XDICTIONARY
360
78B
102
}
330
2
100
AcDbSymbolTableRecord
100
AcDbLayerTableRecord
  2
0
 70
     0
 62
     7
  6
Continuous
370
    -3
390
F
  0
LAYER
  5
66
330
2
100
AcDbSymbolTableRecord
100
AcDbLayerTableRecord
  2
Defpoints
 70
     0
 62
     7
  6
Continuous
290
     0
370
    -3
390
F
  0
LAYER
  5
33D
102
{ACAD_XDICTIONARY
360
33E
102
}
330
2
100
AcDbSymbolTableRecord
100
AcDbLayerTableRecord
  2
中心線
 70
     0
 62
     3
  6
CENTER2
370
    -3
390
F
  0
LAYER
  5
33F
102
{ACAD_XDICTIONARY
360
340
102
}
330
2
100
AcDbSymbolTableRecord
100
AcDbLayerTableRecord
  2
実線
 70
     0
 62
     7
  6
Continuous
370
    -3
390
F
  0
ENDTAB
  0
TABLE
  2
STYLE
  5
3
330
0
100
AcDbSymbolTable
 70
     1
  0
STYLE
  5
11
330
3
100
AcDbSymbolTableRecord
100
AcDbTextStyleTableRecord
  2
Standard
 70
     0
 40
0.0
 41
1.0
 50
0.0
 71
     0
 42
2.5
  3
txt
  4
extfont2
  0
ENDTAB
  0
TABLE
  2
VIEW
  5
6
330
0
100
AcDbSymbolTable
 70
     0
  0
ENDTAB
  0
TABLE
  2
UCS
  5
7
330
0
100
AcDbSymbolTable
 70
     0
  0
ENDTAB
  0
TABLE
  2
APPID
  5
9
330
0
100
AcDbSymbolTable
 70
     5
  0
APPID
  5
12
330
9
100
AcDbSymbolTableRecord
100
AcDbRegAppTableRecord
  2
ACAD
 70
     0
  0
APPID
  5
32C
330
9
100
AcDbSymbolTableRecord
100
AcDbRegAppTableRecord
  2
ACAD_MLEADERVER
 70
     0
  0
APPID
  5
341
330
9
100
AcDbSymbolTableRecord
100
AcDbRegAppTableRecord
  2
ACAD_NAV_VCDISPLAY
 70
     0
  0
APPID
  5
76B
330
9
100
AcDbSymbolTableRecord
100
AcDbRegAppTableRecord
  2
ACAD_EXEMPT_FROM_CAD_STANDARDS
 70
     0
  0
APPID
  5
7E5
330
9
100
AcDbSymbolTableRecord
100
AcDbRegAppTableRecord
  2
ACAD_DSTYLE_DIMRADIAL_EXTENSION
 70
     0
  0
ENDTAB
  0
TABLE
  2
DIMSTYLE
  5
A
330
0
100
AcDbSymbolTable
 70
     1
100
AcDbDimStyleTable
 71
     1
340
27
  0
DIMSTYLE
105
27
330
A
100
AcDbSymbolTableRecord
100
AcDbDimStyleTableRecord
  2
Standard
 70
     0
 41
2.5
 42
0.625
 43
3.75
 44
1.25
 73
     0
 74
     0
 77
     1
140
2.5
141
2.5
143
0.03937007874016
146
0.75
147
0.625
171
     3
172
     1
271
     2
272
     2
274
     3
283
     0
284
     8
340
11
  0
ENDTAB
  0
TABLE
  2
BLOCK_RECORD
  5
1
330
0
100
AcDbSymbolTable
 70
     1
  0
BLOCK_RECORD
  5
1F
102
{ACAD_XDICTIONARY
360
551
102
}
330
1
100
AcDbSymbolTableRecord
100
AcDbBlockTableRecord
  2
*Model_Space
340
22
  0
BLOCK_RECORD
  5
1B
330
1
100
AcDbSymbolTableRecord
100
AcDbBlockTableRecord
  2
*Paper_Space
340
1E
  0
BLOCK_RECORD
  5
23
330
1
100
AcDbSymbolTableRecord
100
AcDbBlockTableRecord
  2
*Paper_Space0
340
336
  0
ENDTAB
  0
ENDSEC
  0
SECTION
  2
BLOCKS
  0
BLOCK
  5
20
330
1F
100
AcDbEntity
  8
0
100
AcDbBlockBegin
  2
*Model_Space
 70
     0
 10
0.0
 20
0.0
 30
0.0
  3
*Model_Space
  1

  0
ENDBLK
  5
21
330
1F
100
AcDbEntity
  8
0
100
AcDbBlockEnd
  0
BLOCK
  5
1C
330
1B
100
AcDbEntity
 67
     1
  8
0
100
AcDbBlockBegin
  2
*Paper_Space
 70
     0
 10
0.0
 20
0.0
 30
0.0
  3
*Paper_Space
  1

  0
ENDBLK
  5
1D
330
1B
100
AcDbEntity
 67
     1
  8
0
100
AcDbBlockEnd
  0
BLOCK
  5
24
330
23
100
AcDbEntity
 67
     1
  8
0
100
AcDbBlockBegin
  2
*Paper_Space0
 70
     0
 10
0.0
 20
0.0
 30
0.0
  3
*Paper_Space0
  1

  0
ENDBLK
  5
25
330
23
100
AcDbEntity
 67
     1
  8
0
100
AcDbBlockEnd
  0
ENDSEC
  0
SECTION
  2
ENTITIES
  0
CIRCLE
  5
500
102
{ACAD_REACTORS
330
7D4
102
}
330
1F
100
AcDbEntity
  8
実線
100
AcDbCircle
 10
373.1079951658557
 20
1318.784631989675
 30
0.0
 40
11.0
  0
LINE
  5
501
102
{ACAD_REACTORS
330
7D4
102
}
330
1F
100
AcDbEntity
  8
実線
100
AcDbLine
 10
415.3940520820517
 20
1234.49857507348
 30
0.0
 11
457.3940520820517
 21
1276.498575073479
 31
0.0
  0
LINE
  5
502
102
{ACAD_REACTORS
330
7D4
102
}
330
1F
100
AcDbEntity
  8
実線
100
AcDbLine
 10
398.5079951658557
 20
1251.384631989675
 30
0.0
 11
415.3940520820517
 21
1234.49857507348
 31
0.0
  0
LINE
  5
503
102
{ACAD_REACTORS
330
7D4
102
}
330
1F
100
AcDbEntity
  8
実線
100
AcDbLine
 10
425.43389697366
 20
1266.458730181871
 30
0.0
 11
436.3940520820517
 21
1255.49857507348
 31
0.0
  0
LINE
  5
504
102
{ACAD_REACTORS
330
7D4
102
}
330
1F
100
AcDbEntity
  8
実線
100
AcDbLine
 10
428.7562274439966
 20
1305.136399711535
 30
0.0
 11
457.3940520820517
 21
1276.498575073479
 31
0.0
  0
LINE
  5
505
102
{ACAD_REACTORS
330
7D4
102
}
330
1F
100
AcDbEntity
  8
実線
100
AcDbLine
 10
434.2727317387772
 20
1253.377254730205
 30
0.0
 11
444.1722266753714
 21
1243.47775979361
 31
0.0
  0
LINE
  5
506
102
{ACAD_REACTORS
330
7D4
102
}
330
1F
100
AcDbEntity
  8
実線
100
AcDbLine
 10
448.4148673619207
 20
1247.72040048016
 30
0.0
 11
438.5153724253264
 21
1257.619895416754
 31
0.0
  0
LINE
  5
507
102
{ACAD_REACTORS
330
7D4
102
}
330
1F
100
AcDbEntity
  8
実線
100
AcDbLine
 10
442.7580131127132
 20
1242.063546230952
 30
0.0
 11
449.8290809245787
 21
1249.134614042818
 31
0.0
  0
LINE
  5
508
102
{ACAD_REACTORS
330
7D4
102
}
330
1F
100
AcDbEntity
  8
実線
100
AcDbLine
 10
444.8793334562727
 20
1239.942225887393
 30
0.0
 11
451.9504012681384
 21
1247.013293699258
 31
0.0
  0
LINE
  5
509
102
{ACAD_REACTORS
330
7D4
102
}
330
1F
100
AcDbEntity
  8
実線
100
AcDbLine
 10
442.7580131127132
 20
1242.063546230952
 30
0.0
 11
444.8793334562727
 21
1239.942225887393
 31
0.0
  0
LINE
  5
50A
102
{ACAD_REACTORS
330
7D4
102
}
330
1F
100
AcDbEntity
  8
実線
100
AcDbLine
 10
451.9504012681384
 20
1247.013293699258
 30
0.0
 11
449.8290809245787
 21
1249.134614042818
 31
0.0
  0
LINE
  5
50B
102
{ACAD_REACTORS
330
7D4
102
}
330
1F
100
AcDbEntity
  8
実線
100
AcDbLine
 10
321.6382255270714
 20
1285.154977533512
 30
0.0
 11
317.3526254692965
 21
1287.070892853459
 31
0.0
  0
LINE
  5
50C
102
{ACAD_REACTORS
330
7D4
102
}
330
1F
100
AcDbEntity
  8
実線
100
AcDbLine
 10
341.3942560296391
 20
1263.029262293116
 30
0.0
 11
339.4783407096927
 21
1267.314862350891
 31
0.0
  0
LINE
  5
50D
102
{ACAD_REACTORS
330
7D4
102
}
330
1F
100
AcDbEntity
  8
実線
100
AcDbLine
 10
339.8739764500881
 20
1261.508982713565
 30
0.0
 11
341.3942560296391
 21
1263.029262293116
 31
0.0
  0
LINE
  5
50E
102
{ACAD_REACTORS
330
7D4
102
}
330
1F
100
AcDbEntity
  8
実線
100
AcDbLine
 10
317.3526254692965
 20
1287.070892853459
 30
0.0
 11
315.8323458897453
 21
1285.550613273908
 31
0.0
  0
LINE
  5
50F
102
{ACAD_REACTORS
330
7D4
102
}
330
1F
100
AcDbEntity
  8
実線
100
AcDbLine
 10
336.2962327756062
 20
1265.086726388047
 30
0.0
 11
339.8739764500881
 21
1261.508982713565
 31
0.0
  0
LINE
  5
510
102
{ACAD_REACTORS
330
7D4
102
}
330
1F
100
AcDbEntity
  8
実線
100
AcDbLine
 10
315.8323458897453
 20
1285.550613273908
 30
0.0
 11
319.4100895642272
 21
1281.972869599426
 31
0.0
  0
LINE
  5
511
102
{ACAD_REACTORS
330
7D4
102
}
330
1F
100
AcDbEntity
  8
実線
100
AcDbLine
 10
338.0845786632522
 20
1266.338939659503
 30
0.0
 11
341.3942560296391
 21
1263.029262293116
 31
0.0
  0
LINE
  5
512
102
{ACAD_REACTORS
330
7D4
102
}
330
1F
100
AcDbEntity
  8
実線
100
AcDbLine
 10
317.3526254692965
 20
1287.070892853459
 30
0.0
 11
320.6623028356832
 21
1283.761215487072
 31
0.0
  0
LINE
  5
513
102
{ACAD_REACTORS
330
7D4
102
}
330
1F
100
AcDbEntity
  8
実線
100
AcDbLine
 10
316.0455493253418
 20
1333.847077830189
 30
0.0
 11
326.9816116707059
 21
1344.783140175554
 31
0.0
  0
LINE
  5
514
102
{ACAD_REACTORS
330
7D4
102
}
330
1F
100
AcDbEntity
  8
実線
100
AcDbLine
 10
316.0455493253418
 20
1333.847077830189
 30
0.0
 11
321.4954977179178
 21
1328.397129437614
 31
0.0
  0
LINE
  5
515
102
{ACAD_REACTORS
330
7D4
102
}
330
1F
100
AcDbEntity
  8
実線
100
AcDbLine
 10
428.7562274439966
 20
1305.136399711535
 30
0.0
 11
421.0838303792582
 21
1297.464002646796
 31
0.0
  0
LINE
  5
516
102
{ACAD_REACTORS
330
7D4
102
}
330
1F
100
AcDbEntity
  8
実線
100
AcDbLine
 10
424.7204926137933
 20
1309.172134541738
 30
0.0
 11
428.7562274439966
 21
1305.136399711535
 31
0.0
  0
LINE
  5
517
102
{ACAD_REACTORS
330
7D4
102
}
330
1F
100
AcDbEntity
  8
実線
100
AcDbLine
 10
347.1094869799776
 20
1364.911015484825
 30
0.0
 11
347.7079951658557
 21
1365.509523670703
 31
0.0
  0
LINE
  5
518
102
{ACAD_REACTORS
330
7D4
102
}
330
1F
100
AcDbEntity
  8
実線
100
AcDbLine
 10
347.7079951658557
 20
1395.484631989675
 30
0.0
 11
347.7079951658557
 21
1364.731231428589
 31
0.0
  0
LINE
  5
519
102
{ACAD_REACTORS
330
7D4
102
}
330
1F
100
AcDbEntity
  8
実線
100
AcDbLine
 10
398.5079951658557
 20
1364.731231428589
 30
0.0
 11
398.5079951658557
 21
1395.484631989675
 31
0.0
  0
LINE
  5
51A
102
{ACAD_REACTORS
330
7D4
102
}
330
1F
100
AcDbEntity
  8
実線
100
AcDbLine
 10
341.1079951658556
 20
1400.784631989676
 30
0.0
 11
405.1079951658557
 21
1400.784631989676
 31
0.0
  0
LINE
  5
51B
102
{ACAD_REACTORS
330
7D4
102
}
330
1F
100
AcDbEntity
  8
実線
100
AcDbLine
 10
341.1079951658556
 20
1400.784631989676
 30
0.0
 11
341.1079951658556
 21
1397.884631989675
 31
0.0
  0
LINE
  5
51C
102
{ACAD_REACTORS
330
7D4
102
}
330
1F
100
AcDbEntity
  8
実線
100
AcDbLine
 10
405.1079951658557
 20
1397.884631989675
 30
0.0
 11
405.1079951658557
 21
1400.784631989676
 31
0.0
  0
LINE
  5
51D
102
{ACAD_REACTORS
330
7D4
102
}
330
1F
100
AcDbEntity
  8
実線
100
AcDbLine
 10
341.1079951658556
 20
1397.884631989675
 30
0.0
 11
405.1079951658557
 21
1397.884631989675
 31
0.0
  0
LINE
  5
51E
102
{ACAD_REACTORS
330
7D4
102
}
330
1F
100
AcDbEntity
  8
実線
100
AcDbLine
 10
347.7079951658557
 20
1395.484631989675
 30
0.0
 11
398.5079951658557
 21
1395.484631989675
 31
0.0
  0
LINE
  5
51F
102
{ACAD_REACTORS
330
7D4
102
}
330
1F
100
AcDbEntity
  8
実線
100
AcDbLine
 10
398.5079951658557
 20
1395.484631989675
 30
0.0
 11
405.1079951658557
 21
1397.884631989675
 31
0.0
  0
LINE
  5
520
102
{ACAD_REACTORS
330
7D4
102
}
330
1F
100
AcDbEntity
  8
実線
100
AcDbLine
 10
341.1079951658556
 20
1397.884631989675
 30
0.0
 11
347.7079951658557
 21
1395.484631989675
 31
0.0
  0
LINE
  5
521
102
{ACAD_REACTORS
330
7D4
102
}
330
1F
100
AcDbEntity
  8
実線
100
AcDbLine
 10
398.5079951658557
 20
1242.084631989675
 30
0.0
 11
398.5079951658557
 21
1272.838032550762
 31
0.0
  0
LINE
  5
522
102
{ACAD_REACTORS
330
7D4
102
}
330
1F
100
AcDbEntity
  8
実線
100
AcDbLine
 10
347.7079951658557
 20
1272.838032550762
 30
0.0
 11
347.7079951658557
 21
1242.084631989675
 31
0.0
  0
LINE
  5
523
102
{ACAD_REACTORS
330
7D4
102
}
330
1F
100
AcDbEntity
  8
実線
100
AcDbLine
 10
405.1079951658557
 20
1236.784631989676
 30
0.0
 11
341.1079951658556
 21
1236.784631989676
 31
0.0
  0
LINE
  5
524
102
{ACAD_REACTORS
330
7D4
102
}
330
1F
100
AcDbEntity
  8
実線
100
AcDbLine
 10
405.1079951658557
 20
1236.784631989676
 30
0.0
 11
405.1079951658557
 21
1239.684631989676
 31
0.0
  0
LINE
  5
525
102
{ACAD_REACTORS
330
7D4
102
}
330
1F
100
AcDbEntity
  8
実線
100
AcDbLine
 10
341.1079951658556
 20
1239.684631989676
 30
0.0
 11
341.1079951658556
 21
1236.784631989676
 31
0.0
  0
LINE
  5
526
102
{ACAD_REACTORS
330
7D4
102
}
330
1F
100
AcDbEntity
  8
実線
100
AcDbLine
 10
405.1079951658557
 20
1239.684631989676
 30
0.0
 11
341.1079951658556
 21
1239.684631989676
 31
0.0
  0
LINE
  5
527
102
{ACAD_REACTORS
330
7D4
102
}
330
1F
100
AcDbEntity
  8
実線
100
AcDbLine
 10
398.5079951658557
 20
1242.084631989675
 30
0.0
 11
347.7079951658557
 21
1242.084631989675
 31
0.0
  0
LINE
  5
528
102
{ACAD_REACTORS
330
7D4
102
}
330
1F
100
AcDbEntity
  8
実線
100
AcDbLine
 10
347.7079951658557
 20
1242.084631989675
 30
0.0
 11
341.1079951658556
 21
1239.684631989676
 31
0.0
  0
LINE
  5
529
102
{ACAD_REACTORS
330
7D4
102
}
330
1F
100
AcDbEntity
  8
実線
100
AcDbLine
 10
405.1079951658557
 20
1239.684631989676
 30
0.0
 11
398.5079951658557
 21
1242.084631989675
 31
0.0
  0
LINE
  5
52A
102
{ACAD_REACTORS
330
7D4
102
}
330
1F
100
AcDbEntity
  8
実線
100
AcDbLine
 10
449.8079951658557
 20
1344.184631989676
 30
0.0
 11
419.0545946047694
 21
1344.184631989676
 31
0.0
  0
LINE
  5
52B
102
{ACAD_REACTORS
330
7D4
102
}
330
1F
100
AcDbEntity
  8
実線
100
AcDbLine
 10
440.5079951658557
 20
1293.384631989675
 30
0.0
 11
449.8079951658557
 21
1293.384631989675
 31
0.0
  0
LINE
  5
52C
102
{ACAD_REACTORS
330
7D4
102
}
330
1F
100
AcDbEntity
  8
実線
100
AcDbLine
 10
449.8079951658557
 20
1344.184631989676
 30
0.0
 11
449.8079951658557
 21
1293.384631989675
 31
0.0
  0
LINE
  5
52D
102
{ACAD_REACTORS
330
7D4
102
}
330
1F
100
AcDbEntity
  8
実線
100
AcDbLine
 10
449.8079951658557
 20
1293.384631989675
 30
0.0
 11
452.2079951658557
 21
1286.784631989675
 31
0.0
  0
LINE
  5
52E
102
{ACAD_REACTORS
330
7D4
102
}
330
1F
100
AcDbEntity
  8
実線
100
AcDbLine
 10
452.2079951658557
 20
1350.784631989675
 30
0.0
 11
449.8079951658557
 21
1344.184631989676
 31
0.0
  0
LINE
  5
52F
102
{ACAD_REACTORS
330
7D4
102
}
330
1F
100
AcDbEntity
  8
実線
100
AcDbLine
 10
455.1079951658557
 20
1350.784631989675
 30
0.0
 11
455.1079951658557
 21
1286.784631989675
 31
0.0
  0
LINE
  5
530
102
{ACAD_REACTORS
330
7D4
102
}
330
1F
100
AcDbEntity
  8
実線
100
AcDbLine
 10
452.2079951658557
 20
1350.784631989675
 30
0.0
 11
452.2079951658557
 21
1286.784631989675
 31
0.0
  0
LINE
  5
531
102
{ACAD_REACTORS
330
7D4
102
}
330
1F
100
AcDbEntity
  8
実線
100
AcDbLine
 10
455.1079951658557
 20
1350.784631989675
 30
0.0
 11
452.2079951658557
 21
1350.784631989675
 31
0.0
  0
LINE
  5
532
102
{ACAD_REACTORS
330
7D4
102
}
330
1F
100
AcDbEntity
  8
実線
100
AcDbLine
 10
452.2079951658557
 20
1286.784631989675
 30
0.0
 11
455.1079951658557
 21
1286.784631989675
 31
0.0
  0
LINE
  5
533
102
{ACAD_REACTORS
330
7D4
102
}
330
1F
100
AcDbEntity
  8
実線
100
AcDbLine
 10
296.4079951658556
 20
1293.384631989675
 30
0.0
 11
327.1613957269417
 21
1293.384631989675
 31
0.0
  0
LINE
  5
534
102
{ACAD_REACTORS
330
7D4
102
}
330
1F
100
AcDbEntity
  8
実線
100
AcDbLine
 10
326.383103484828
 20
1344.184631989676
 30
0.0
 11
296.4079951658556
 21
1344.184631989676
 31
0.0
  0
LINE
  5
535
102
{ACAD_REACTORS
330
7D4
102
}
330
1F
100
AcDbEntity
  8
実線
100
AcDbLine
 10
291.1079951658556
 20
1286.784631989675
 30
0.0
 11
291.1079951658556
 21
1350.784631989675
 31
0.0
  0
LINE
  5
536
102
{ACAD_REACTORS
330
7D4
102
}
330
1F
100
AcDbEntity
  8
実線
100
AcDbLine
 10
291.1079951658556
 20
1286.784631989675
 30
0.0
 11
294.0079951658556
 21
1286.784631989675
 31
0.0
  0
LINE
  5
537
102
{ACAD_REACTORS
330
7D4
102
}
330
1F
100
AcDbEntity
  8
実線
100
AcDbLine
 10
294.0079951658556
 20
1350.784631989675
 30
0.0
 11
291.1079951658556
 21
1350.784631989675
 31
0.0
  0
LINE
  5
538
102
{ACAD_REACTORS
330
7D4
102
}
330
1F
100
AcDbEntity
  8
実線
100
AcDbLine
 10
294.0079951658556
 20
1286.784631989675
 30
0.0
 11
294.0079951658556
 21
1350.784631989675
 31
0.0
  0
LINE
  5
539
102
{ACAD_REACTORS
330
7D4
102
}
330
1F
100
AcDbEntity
  8
実線
100
AcDbLine
 10
296.4079951658556
 20
1293.384631989675
 30
0.0
 11
296.4079951658556
 21
1344.184631989676
 31
0.0
  0
LINE
  5
53A
102
{ACAD_REACTORS
330
7D4
102
}
330
1F
100
AcDbEntity
  8
実線
100
AcDbLine
 10
296.4079951658556
 20
1344.184631989676
 30
0.0
 11
294.0079951658556
 21
1350.784631989675
 31
0.0
  0
LINE
  5
53B
102
{ACAD_REACTORS
330
7D4
102
}
330
1F
100
AcDbEntity
  8
実線
100
AcDbLine
 10
294.0079951658556
 20
1286.784631989675
 30
0.0
 11
296.4079951658556
 21
1293.384631989675
 31
0.0
  0
LINE
  5
53C
102
{ACAD_REACTORS
330
7D4
102
}
330
1F
100
AcDbEntity
  8
実線
100
AcDbLine
 10
418.9487317490391
 20
1344.375194107597
 30
0.0
 11
427.8026812008012
 21
1357.019944368926
 31
0.0
  0
ARC
  5
53D
102
{ACAD_REACTORS
330
7D4
102
}
330
1F
100
AcDbEntity
  8
実線
100
AcDbCircle
 10
373.1079951658557
 20
1318.784631989675
 30
0.0
 40
73.99999999999984
100
AcDbArc
 50
43.39689020481751
 51
46.6031097951848
  0
ARC
  5
53E
102
{ACAD_REACTORS
330
7D4
102
}
330
1F
100
AcDbEntity
  8
実線
100
AcDbCircle
 10
417.0790719086173
 20
1365.287797581731
 30
0.0
 40
9.999999999999976
100
AcDbArc
 50
46.6031097951848
 51
124.9999999999974
  0
LINE
  5
53F
102
{ACAD_REACTORS
330
7D4
102
}
330
1F
100
AcDbEntity
  8
実線
100
AcDbLine
 10
411.3433075451066
 20
1373.479318024621
 30
0.0
 11
398.6985572837767
 21
1364.625368572859
 31
0.0
  0
ARC
  5
540
102
{ACAD_REACTORS
330
7D4
102
}
330
1F
100
AcDbEntity
  8
実線
100
AcDbCircle
 10
419.6111607579114
 20
1362.755708732437
 30
0.0
 40
10.00000000000003
100
AcDbArc
 50
325.0000000000026
 51
43.39689020481751
  0
ARC
  5
541
102
{ACAD_REACTORS
330
7D4
102
}
330
1F
100
AcDbEntity
  8
実線
100
AcDbCircle
 10
329.136918423094
 20
1365.287797581731
 30
0.0
 40
10.00000000000002
100
AcDbArc
 50
55.00000000000264
 51
133.3968902048152
  0
ARC
  5
542
102
{ACAD_REACTORS
330
7D4
102
}
330
1F
100
AcDbEntity
  8
実線
100
AcDbCircle
 10
373.1079951658557
 20
1318.784631989675
 30
0.0
 40
74.00000000000003
100
AcDbArc
 50
133.3968902048152
 51
136.6031097951825
  0
ARC
  5
543
102
{ACAD_REACTORS
330
7D4
102
}
330
1F
100
AcDbEntity
  8
実線
100
AcDbCircle
 10
326.6048295737996
 20
1362.755708732437
 30
0.0
 40
10.00000000000001
100
AcDbArc
 50
136.6031097951825
 51
214.9999999999974
  0
LINE
  5
544
102
{ACAD_REACTORS
330
7D4
102
}
330
1F
100
AcDbEntity
  8
実線
100
AcDbLine
 10
347.5174330479343
 20
1364.625368572859
 30
0.0
 11
334.8726827866044
 21
1373.479318024621
 31
0.0
  0
LINE
  5
545
102
{ACAD_REACTORS
330
7D4
102
}
330
1F
100
AcDbEntity
  8
実線
100
AcDbLine
 10
318.4133091309099
 20
1357.019944368927
 30
0.0
 11
327.2672585826722
 21
1344.375194107597
 31
0.0
  0
LINE
  5
546
102
{ACAD_REACTORS
330
7D4
102
}
330
1F
100
AcDbEntity
  8
実線
100
AcDbLine
 10
327.2672585826722
 20
1293.194069871754
 30
0.0
 11
318.4133091309096
 21
1280.549319610424
 31
0.0
  0
ARC
  5
547
102
{ACAD_REACTORS
330
7D4
102
}
330
1F
100
AcDbEntity
  8
実線
100
AcDbCircle
 10
326.6048295737996
 20
1274.813555246914
 30
0.0
 40
10.0
100
AcDbArc
 50
145.0000000000026
 51
223.3968902048175
  0
ARC
  5
548
102
{ACAD_REACTORS
330
7D4
102
}
330
1F
100
AcDbEntity
  8
実線
100
AcDbCircle
 10
373.1079951658557
 20
1318.784631989675
 30
0.0
 40
74.00000000000019
100
AcDbArc
 50
223.3968902048175
 51
226.6031097951848
  0
ARC
  5
549
102
{ACAD_REACTORS
330
7D4
102
}
330
1F
100
AcDbEntity
  8
実線
100
AcDbCircle
 10
329.136918423094
 20
1272.28146639762
 30
0.0
 40
10.00000000000001
100
AcDbArc
 50
226.6031097951848
 51
304.9999999999974
  0
LINE
  5
54A
102
{ACAD_REACTORS
330
7D4
102
}
330
1F
100
AcDbEntity
  8
実線
100
AcDbLine
 10
334.8726827866044
 20
1264.08994595473
 30
0.0
 11
347.5174330479342
 21
1272.943895406492
 31
0.0
  0
LINE
  5
54B
102
{ACAD_REACTORS
330
7D4
102
}
330
1F
100
AcDbEntity
  8
実線
100
AcDbLine
 10
398.6985572837768
 20
1272.943895406492
 30
0.0
 11
411.3433075451066
 21
1264.08994595473
 31
0.0
  0
ARC
  5
54C
102
{ACAD_REACTORS
330
7D4
102
}
330
1F
100
AcDbEntity
  8
実線
100
AcDbCircle
 10
417.0790719086171
 20
1272.28146639762
 30
0.0
 40
10.00000000000001
100
AcDbArc
 50
235.0000000000026
 51
313.3968902048152
  0
ARC
  5
54D
102
{ACAD_REACTORS
330
7D4
102
}
330
1F
100
AcDbEntity
  8
実線
100
AcDbCircle
 10
373.1079951658557
 20
1318.784631989675
 30
0.0
 40
73.99999999999997
100
AcDbArc
 50
313.3968902048152
 51
316.6031097951825
  0
ARC
  5
54E
102
{ACAD_REACTORS
330
7D4
102
}
330
1F
100
AcDbEntity
  8
実線
100
AcDbCircle
 10
419.6111607579114
 20
1274.813555246914
 30
0.0
 40
10.00000000000001
100
AcDbArc
 50
316.6031097951825
 51
34.99999999999737
  0
LINE
  5
54F
102
{ACAD_REACTORS
330
7D4
102
}
330
1F
100
AcDbEntity
  8
実線
100
AcDbLine
 10
427.8026812008012
 20
1280.549319610424
 30
0.0
 11
418.9487317490391
 21
1293.194069871754
 31
0.0
  0
CIRCLE
  5
550
102
{ACAD_REACTORS
330
7D4
102
}
330
1F
100
AcDbEntity
  8
実線
100
AcDbCircle
 10
373.1079951658557
 20
1318.784631989675
 30
0.0
 40
52.5
  0
CIRCLE
  5
553
102
{ACAD_REACTORS
330
7D3
102
}
330
1F
100
AcDbEntity
  8
実線
100
AcDbCircle
 10
373.1079951658531
 20
118.7846319896826
 30
0.0
 40
11.0
  0
LINE
  5
554
102
{ACAD_REACTORS
330
7D3
102
}
330
1F
100
AcDbEntity
  8
実線
100
AcDbLine
 10
440.5079951658532
 20
144.1846319896828
 30
0.0
 11
457.3940520820492
 21
161.0706889058788
 31
0.0
  0
LINE
  5
555
102
{ACAD_REACTORS
330
7D3
102
}
330
1F
100
AcDbEntity
  8
実線
100
AcDbLine
 10
457.3940520820492
 20
161.0706889058788
 30
0.0
 11
415.3940520820492
 21
203.0706889058788
 31
0.0
  0
LINE
  5
556
102
{ACAD_REACTORS
330
7D3
102
}
330
1F
100
AcDbEntity
  8
実線
100
AcDbLine
 10
425.4338969736576
 20
171.1105337974873
 30
0.0
 11
436.3940520820492
 21
182.0706889058789
 31
0.0
  0
LINE
  5
557
102
{ACAD_REACTORS
330
7D3
102
}
330
1F
100
AcDbEntity
  8
実線
100
AcDbLine
 10
386.7562274439941
 20
174.4328642678236
 30
0.0
 11
415.3940520820492
 21
203.0706889058788
 31
0.0
  0
LINE
  5
558
102
{ACAD_REACTORS
330
7D3
102
}
330
1F
100
AcDbEntity
  8
実線
100
AcDbLine
 10
386.7562274439941
 20
174.4328642678236
 30
0.0
 11
394.4286245087324
 21
166.7604672030853
 31
0.0
  0
LINE
  5
559
102
{ACAD_REACTORS
330
7D3
102
}
330
1F
100
AcDbEntity
  8
実線
100
AcDbLine
 10
438.5153724253239
 20
179.9493685626041
 30
0.0
 11
448.4148673619182
 21
189.8488634991985
 31
0.0
  0
LINE
  5
55A
102
{ACAD_REACTORS
330
7D3
102
}
330
1F
100
AcDbEntity
  8
実線
100
AcDbLine
 10
444.1722266753689
 20
194.0915041857479
 30
0.0
 11
434.2727317387747
 21
184.1920092491535
 31
0.0
  0
LINE
  5
55B
102
{ACAD_REACTORS
330
7D3
102
}
330
1F
100
AcDbEntity
  8
実線
100
AcDbLine
 10
449.8290809245762
 20
188.4346499365404
 30
0.0
 11
451.9504012681359
 21
190.5559702801
 31
0.0
  0
LINE
  5
55C
102
{ACAD_REACTORS
330
7D3
102
}
330
1F
100
AcDbEntity
  8
実線
100
AcDbLine
 10
444.8793334562703
 20
197.6270380919655
 30
0.0
 11
442.7580131127107
 21
195.5057177484059
 31
0.0
  0
LINE
  5
55D
102
{ACAD_REACTORS
330
7D3
102
}
330
1F
100
AcDbEntity
  8
実線
100
AcDbLine
 10
451.9504012681359
 20
190.5559702801
 30
0.0
 11
444.8793334562703
 21
197.6270380919655
 31
0.0
  0
LINE
  5
55E
102
{ACAD_REACTORS
330
7D3
102
}
330
1F
100
AcDbEntity
  8
実線
100
AcDbLine
 10
449.8290809245762
 20
188.4346499365404
 30
0.0
 11
442.7580131127107
 21
195.5057177484059
 31
0.0
  0
LINE
  5
55F
102
{ACAD_REACTORS
330
7D3
102
}
330
1F
100
AcDbEntity
  8
実線
100
AcDbLine
 10
339.4783407096902
 20
170.2544016284671
 30
0.0
 11
341.3942560296366
 21
174.5400016862421
 31
0.0
  0
LINE
  5
560
102
{ACAD_REACTORS
330
7D3
102
}
330
1F
100
AcDbEntity
  8
実線
100
AcDbLine
 10
317.352625469294
 20
150.4983711258994
 30
0.0
 11
321.6382255270689
 21
152.4142864458458
 31
0.0
  0
LINE
  5
561
102
{ACAD_REACTORS
330
7D3
102
}
330
1F
100
AcDbEntity
  8
実線
100
AcDbLine
 10
319.4100895642247
 20
155.5963943799324
 30
0.0
 11
315.8323458897428
 21
152.0186507054504
 31
0.0
  0
LINE
  5
562
102
{ACAD_REACTORS
330
7D3
102
}
330
1F
100
AcDbEntity
  8
実線
100
AcDbLine
 10
320.6623028356808
 20
153.8080484922863
 30
0.0
 11
317.352625469294
 21
150.4983711258994
 31
0.0
  0
LINE
  5
563
102
{ACAD_REACTORS
330
7D3
102
}
330
1F
100
AcDbEntity
  8
実線
100
AcDbLine
 10
315.8323458897428
 20
152.0186507054504
 30
0.0
 11
317.352625469294
 21
150.4983711258994
 31
0.0
  0
LINE
  5
564
102
{ACAD_REACTORS
330
7D3
102
}
330
1F
100
AcDbEntity
  8
実線
100
AcDbLine
 10
341.3942560296366
 20
174.5400016862421
 30
0.0
 11
339.8739764500854
 21
176.0602812657932
 31
0.0
  0
LINE
  5
565
102
{ACAD_REACTORS
330
7D3
102
}
330
1F
100
AcDbEntity
  8
実線
100
AcDbLine
 10
339.8739764500856
 20
176.0602812657932
 30
0.0
 11
336.2962327756037
 21
172.4825375913113
 31
0.0
  0
LINE
  5
566
102
{ACAD_REACTORS
330
7D3
102
}
330
1F
100
AcDbEntity
  8
実線
100
AcDbLine
 10
341.3942560296366
 20
174.5400016862421
 30
0.0
 11
338.0845786632497
 21
171.2303243198551
 31
0.0
  0
LINE
  5
567
102
{ACAD_REACTORS
330
7D3
102
}
330
1F
100
AcDbEntity
  8
実線
100
AcDbLine
 10
326.9816116707034
 20
92.78612380380479
 30
0.0
 11
326.3831034848255
 21
93.38463198968293
 31
0.0
  0
LINE
  5
568
102
{ACAD_REACTORS
330
7D3
102
}
330
1F
100
AcDbEntity
  8
実線
100
AcDbLine
 10
382.7204926137909
 20
170.3971294376206
 30
0.0
 11
386.7562274439941
 21
174.4328642678236
 31
0.0
  0
LINE
  5
569
102
{ACAD_REACTORS
330
7D3
102
}
330
1F
100
AcDbEntity
  8
実線
100
AcDbLine
 10
347.1094869799752
 20
72.65824849453309
 30
0.0
 11
358.0455493253394
 21
61.72218614916897
 31
0.0
  0
LINE
  5
56A
102
{ACAD_REACTORS
330
7D3
102
}
330
1F
100
AcDbEntity
  8
実線
100
AcDbLine
 10
358.0455493253394
 20
61.72218614916897
 30
0.0
 11
363.4954977179153
 21
67.17213454174498
 31
0.0
  0
LINE
  5
56B
102
{ACAD_REACTORS
330
7D3
102
}
330
1F
100
AcDbEntity
  8
実線
100
AcDbLine
 10
398.5079951658532
 20
42.08463198968291
 30
0.0
 11
398.5079951658532
 21
72.8380325507689
 31
0.0
  0
LINE
  5
56C
102
{ACAD_REACTORS
330
7D3
102
}
330
1F
100
AcDbEntity
  8
実線
100
AcDbLine
 10
347.7079951658532
 20
72.05974030865497
 30
0.0
 11
347.7079951658532
 21
42.08463198968291
 31
0.0
  0
LINE
  5
56D
102
{ACAD_REACTORS
330
7D3
102
}
330
1F
100
AcDbEntity
  8
実線
100
AcDbLine
 10
405.1079951658532
 20
36.78463198968291
 30
0.0
 11
405.1079951658532
 21
39.68463198968283
 31
0.0
  0
LINE
  5
56E
102
{ACAD_REACTORS
330
7D3
102
}
330
1F
100
AcDbEntity
  8
実線
100
AcDbLine
 10
341.1079951658531
 20
39.68463198968283
 30
0.0
 11
341.1079951658531
 21
36.78463198968291
 31
0.0
  0
LINE
  5
56F
102
{ACAD_REACTORS
330
7D3
102
}
330
1F
100
AcDbEntity
  8
実線
100
AcDbLine
 10
341.1079951658531
 20
36.78463198968291
 30
0.0
 11
405.1079951658532
 21
36.78463198968291
 31
0.0
  0
LINE
  5
570
102
{ACAD_REACTORS
330
7D3
102
}
330
1F
100
AcDbEntity
  8
実線
100
AcDbLine
 10
347.7079951658532
 20
42.08463198968291
 30
0.0
 11
341.1079951658531
 21
39.68463198968283
 31
0.0
  0
LINE
  5
571
102
{ACAD_REACTORS
330
7D3
102
}
330
1F
100
AcDbEntity
  8
実線
100
AcDbLine
 10
405.1079951658532
 20
39.68463198968283
 30
0.0
 11
398.5079951658532
 21
42.08463198968291
 31
0.0
  0
LINE
  5
572
102
{ACAD_REACTORS
330
7D3
102
}
330
1F
100
AcDbEntity
  8
実線
100
AcDbLine
 10
341.1079951658531
 20
39.68463198968283
 30
0.0
 11
405.1079951658532
 21
39.68463198968283
 31
0.0
  0
LINE
  5
573
102
{ACAD_REACTORS
330
7D3
102
}
330
1F
100
AcDbEntity
  8
実線
100
AcDbLine
 10
347.7079951658532
 20
42.08463198968291
 30
0.0
 11
398.5079951658532
 21
42.08463198968291
 31
0.0
  0
LINE
  5
574
102
{ACAD_REACTORS
330
7D3
102
}
330
1F
100
AcDbEntity
  8
実線
100
AcDbLine
 10
347.7079951658532
 20
195.4846319896827
 30
0.0
 11
347.7079951658532
 21
164.7312314285966
 31
0.0
  0
LINE
  5
575
102
{ACAD_REACTORS
330
7D3
102
}
330
1F
100
AcDbEntity
  8
実線
100
AcDbLine
 10
398.5079951658532
 20
186.1846319896829
 30
0.0
 11
398.5079951658532
 21
195.4846319896827
 31
0.0
  0
LINE
  5
576
102
{ACAD_REACTORS
330
7D3
102
}
330
1F
100
AcDbEntity
  8
実線
100
AcDbLine
 10
398.5079951658532
 20
195.4846319896827
 30
0.0
 11
405.1079951658532
 21
197.8846319896828
 31
0.0
  0
LINE
  5
577
102
{ACAD_REACTORS
330
7D3
102
}
330
1F
100
AcDbEntity
  8
実線
100
AcDbLine
 10
341.1079951658531
 20
197.8846319896828
 30
0.0
 11
347.7079951658532
 21
195.4846319896827
 31
0.0
  0
LINE
  5
578
102
{ACAD_REACTORS
330
7D3
102
}
330
1F
100
AcDbEntity
  8
実線
100
AcDbLine
 10
398.5079951658532
 20
195.4846319896827
 30
0.0
 11
347.7079951658532
 21
195.4846319896827
 31
0.0
  0
LINE
  5
579
102
{ACAD_REACTORS
330
7D3
102
}
330
1F
100
AcDbEntity
  8
実線
100
AcDbLine
 10
341.1079951658531
 20
200.7846319896828
 30
0.0
 11
341.1079951658531
 21
197.8846319896828
 31
0.0
  0
LINE
  5
57A
102
{ACAD_REACTORS
330
7D3
102
}
330
1F
100
AcDbEntity
  8
実線
100
AcDbLine
 10
405.1079951658532
 20
197.8846319896828
 30
0.0
 11
405.1079951658532
 21
200.7846319896828
 31
0.0
  0
LINE
  5
57B
102
{ACAD_REACTORS
330
7D3
102
}
330
1F
100
AcDbEntity
  8
実線
100
AcDbLine
 10
405.1079951658532
 20
200.7846319896828
 30
0.0
 11
341.1079951658531
 21
200.7846319896828
 31
0.0
  0
LINE
  5
57C
102
{ACAD_REACTORS
330
7D3
102
}
330
1F
100
AcDbEntity
  8
実線
100
AcDbLine
 10
405.1079951658532
 20
197.8846319896828
 30
0.0
 11
341.1079951658531
 21
197.8846319896828
 31
0.0
  0
LINE
  5
57D
102
{ACAD_REACTORS
330
7D3
102
}
330
1F
100
AcDbEntity
  8
実線
100
AcDbLine
 10
449.8079951658532
 20
144.1846319896828
 30
0.0
 11
419.054594604767
 21
144.1846319896828
 31
0.0
  0
LINE
  5
57E
102
{ACAD_REACTORS
330
7D3
102
}
330
1F
100
AcDbEntity
  8
実線
100
AcDbLine
 10
419.054594604767
 20
93.38463198968293
 30
0.0
 11
449.8079951658532
 21
93.38463198968293
 31
0.0
  0
LINE
  5
57F
102
{ACAD_REACTORS
330
7D3
102
}
330
1F
100
AcDbEntity
  8
実線
100
AcDbLine
 10
455.1079951658532
 20
150.7846319896828
 30
0.0
 11
452.2079951658533
 21
150.7846319896828
 31
0.0
  0
LINE
  5
580
102
{ACAD_REACTORS
330
7D3
102
}
330
1F
100
AcDbEntity
  8
実線
100
AcDbLine
 10
452.2079951658533
 20
86.78463198968296
 30
0.0
 11
455.1079951658532
 21
86.78463198968296
 31
0.0
  0
LINE
  5
581
102
{ACAD_REACTORS
330
7D3
102
}
330
1F
100
AcDbEntity
  8
実線
100
AcDbLine
 10
455.1079951658532
 20
86.78463198968296
 30
0.0
 11
455.1079951658532
 21
150.7846319896828
 31
0.0
  0
LINE
  5
582
102
{ACAD_REACTORS
330
7D3
102
}
330
1F
100
AcDbEntity
  8
実線
100
AcDbLine
 10
449.8079951658532
 20
93.38463198968293
 30
0.0
 11
452.2079951658533
 21
86.78463198968296
 31
0.0
  0
LINE
  5
583
102
{ACAD_REACTORS
330
7D3
102
}
330
1F
100
AcDbEntity
  8
実線
100
AcDbLine
 10
452.2079951658533
 20
150.7846319896828
 30
0.0
 11
449.8079951658532
 21
144.1846319896828
 31
0.0
  0
LINE
  5
584
102
{ACAD_REACTORS
330
7D3
102
}
330
1F
100
AcDbEntity
  8
実線
100
AcDbLine
 10
452.2079951658533
 20
86.78463198968296
 30
0.0
 11
452.2079951658533
 21
150.7846319896828
 31
0.0
  0
LINE
  5
585
102
{ACAD_REACTORS
330
7D3
102
}
330
1F
100
AcDbEntity
  8
実線
100
AcDbLine
 10
449.8079951658532
 20
93.38463198968293
 30
0.0
 11
449.8079951658532
 21
144.1846319896828
 31
0.0
  0
LINE
  5
586
102
{ACAD_REACTORS
330
7D3
102
}
330
1F
100
AcDbEntity
  8
実線
100
AcDbLine
 10
296.4079951658531
 20
93.38463198968293
 30
0.0
 11
327.1613957269393
 21
93.38463198968293
 31
0.0
  0
LINE
  5
587
102
{ACAD_REACTORS
330
7D3
102
}
330
1F
100
AcDbEntity
  8
実線
100
AcDbLine
 10
327.1613957269393
 20
144.1846319896828
 30
0.0
 11
296.4079951658531
 21
144.1846319896828
 31
0.0
  0
LINE
  5
588
102
{ACAD_REACTORS
330
7D3
102
}
330
1F
100
AcDbEntity
  8
実線
100
AcDbLine
 10
291.1079951658532
 20
86.78463198968296
 30
0.0
 11
294.0079951658531
 21
86.78463198968296
 31
0.0
  0
LINE
  5
589
102
{ACAD_REACTORS
330
7D3
102
}
330
1F
100
AcDbEntity
  8
実線
100
AcDbLine
 10
294.0079951658531
 20
150.7846319896828
 30
0.0
 11
291.1079951658532
 21
150.7846319896828
 31
0.0
  0
LINE
  5
58A
102
{ACAD_REACTORS
330
7D3
102
}
330
1F
100
AcDbEntity
  8
実線
100
AcDbLine
 10
291.1079951658532
 20
150.7846319896828
 30
0.0
 11
291.1079951658532
 21
86.78463198968296
 31
0.0
  0
LINE
  5
58B
102
{ACAD_REACTORS
330
7D3
102
}
330
1F
100
AcDbEntity
  8
実線
100
AcDbLine
 10
296.4079951658531
 20
144.1846319896828
 30
0.0
 11
294.0079951658531
 21
150.7846319896828
 31
0.0
  0
LINE
  5
58C
102
{ACAD_REACTORS
330
7D3
102
}
330
1F
100
AcDbEntity
  8
実線
100
AcDbLine
 10
294.0079951658531
 20
86.78463198968296
 30
0.0
 11
296.4079951658531
 21
93.38463198968293
 31
0.0
  0
LINE
  5
58D
102
{ACAD_REACTORS
330
7D3
102
}
330
1F
100
AcDbEntity
  8
実線
100
AcDbLine
 10
294.0079951658531
 20
150.7846319896828
 30
0.0
 11
294.0079951658531
 21
86.78463198968296
 31
0.0
  0
LINE
  5
58E
102
{ACAD_REACTORS
330
7D3
102
}
330
1F
100
AcDbEntity
  8
実線
100
AcDbLine
 10
296.4079951658531
 20
144.1846319896828
 30
0.0
 11
296.4079951658531
 21
93.38463198968293
 31
0.0
  0
CIRCLE
  5
58F
102
{ACAD_REACTORS
330
7D3
102
}
330
1F
100
AcDbEntity
  8
実線
100
AcDbCircle
 10
373.1079951658531
 20
118.7846319896826
 30
0.0
 40
52.5
  0
LINE
  5
590
102
{ACAD_REACTORS
330
7D3
102
}
330
1F
100
AcDbEntity
  8
実線
100
AcDbLine
 10
347.5174330479319
 20
164.6253685728662
 30
0.0
 11
334.8726827866022
 21
173.4793180246285
 31
0.0
  0
ARC
  5
591
102
{ACAD_REACTORS
330
7D3
102
}
330
1F
100
AcDbEntity
  8
実線
100
AcDbCircle
 10
329.1369184230918
 20
165.2877975817386
 30
0.0
 40
10.00000000000002
100
AcDbArc
 50
55.00000000000264
 51
133.3968902048152
  0
ARC
  5
592
102
{ACAD_REACTORS
330
7D3
102
}
330
1F
100
AcDbEntity
  8
実線
100
AcDbCircle
 10
373.1079951658535
 20
118.7846319896829
 30
0.0
 40
74.00000000000003
100
AcDbArc
 50
133.3968902048152
 51
136.6031097951825
  0
ARC
  5
593
102
{ACAD_REACTORS
330
7D3
102
}
330
1F
100
AcDbEntity
  8
実線
100
AcDbCircle
 10
326.6048295737972
 20
162.7557087324444
 30
0.0
 40
10.00000000000001
100
AcDbArc
 50
136.6031097951825
 51
214.9999999999974
  0
LINE
  5
594
102
{ACAD_REACTORS
330
7D3
102
}
330
1F
100
AcDbEntity
  8
実線
100
AcDbLine
 10
318.4133091309074
 20
157.019944368934
 30
0.0
 11
327.2672585826699
 21
144.3751941076041
 31
0.0
  0
LINE
  5
595
102
{ACAD_REACTORS
330
7D3
102
}
330
1F
100
AcDbEntity
  8
実線
100
AcDbLine
 10
418.9487317490367
 20
144.3751941076041
 30
0.0
 11
427.802681200799
 21
157.019944368934
 31
0.0
  0
ARC
  5
596
102
{ACAD_REACTORS
330
7D3
102
}
330
1F
100
AcDbEntity
  8
実線
100
AcDbCircle
 10
419.6111607579091
 20
162.7557087324444
 30
0.0
 40
10.00000000000003
100
AcDbArc
 50
325.0000000000026
 51
43.39689020481751
  0
ARC
  5
597
102
{ACAD_REACTORS
330
7D3
102
}
330
1F
100
AcDbEntity
  8
実線
100
AcDbCircle
 10
373.1079951658535
 20
118.7846319896829
 30
0.0
 40
73.99999999999984
100
AcDbArc
 50
43.39689020481751
 51
46.6031097951848
  0
ARC
  5
598
102
{ACAD_REACTORS
330
7D3
102
}
330
1F
100
AcDbEntity
  8
実線
100
AcDbCircle
 10
417.0790719086147
 20
165.2877975817386
 30
0.0
 40
9.999999999999976
100
AcDbArc
 50
46.6031097951848
 51
124.9999999999974
  0
LINE
  5
599
102
{ACAD_REACTORS
330
7D3
102
}
330
1F
100
AcDbEntity
  8
実線
100
AcDbLine
 10
411.3433075451045
 20
173.4793180246286
 30
0.0
 11
398.6985572837746
 21
164.6253685728662
 31
0.0
  0
LINE
  5
59A
102
{ACAD_REACTORS
330
7D3
102
}
330
1F
100
AcDbEntity
  8
実線
100
AcDbLine
 10
398.6985572837746
 20
72.94389540649945
 30
0.0
 11
411.3433075451045
 21
64.08994595473695
 31
0.0
  0
ARC
  5
59B
102
{ACAD_REACTORS
330
7D3
102
}
330
1F
100
AcDbEntity
  8
実線
100
AcDbCircle
 10
417.0790719086147
 20
72.28146639762702
 30
0.0
 40
10.00000000000001
100
AcDbArc
 50
235.0000000000026
 51
313.3968902048152
  0
ARC
  5
59C
102
{ACAD_REACTORS
330
7D3
102
}
330
1F
100
AcDbEntity
  8
実線
100
AcDbCircle
 10
373.1079951658535
 20
118.7846319896829
 30
0.0
 40
73.99999999999997
100
AcDbArc
 50
313.3968902048152
 51
316.6031097951825
  0
ARC
  5
59D
102
{ACAD_REACTORS
330
7D3
102
}
330
1F
100
AcDbEntity
  8
実線
100
AcDbCircle
 10
419.611160757909
 20
74.81355524692117
 30
0.0
 40
10.00000000000001
100
AcDbArc
 50
316.6031097951825
 51
34.99999999999737
  0
LINE
  5
59E
102
{ACAD_REACTORS
330
7D3
102
}
330
1F
100
AcDbEntity
  8
実線
100
AcDbLine
 10
427.802681200799
 20
80.54931961043161
 30
0.0
 11
418.9487317490367
 21
93.19406987176142
 31
0.0
  0
LINE
  5
59F
102
{ACAD_REACTORS
330
7D3
102
}
330
1F
100
AcDbEntity
  8
実線
100
AcDbLine
 10
327.2672585826698
 20
93.19406987176149
 30
0.0
 11
318.4133091309074
 21
80.54931961043161
 31
0.0
  0
ARC
  5
5A0
102
{ACAD_REACTORS
330
7D3
102
}
330
1F
100
AcDbEntity
  8
実線
100
AcDbCircle
 10
326.6048295737972
 20
74.81355524692117
 30
0.0
 40
10.0
100
AcDbArc
 50
145.0000000000026
 51
223.3968902048175
  0
ARC
  5
5A1
102
{ACAD_REACTORS
330
7D3
102
}
330
1F
100
AcDbEntity
  8
実線
100
AcDbCircle
 10
373.1079951658535
 20
118.7846319896829
 30
0.0
 40
74.00000000000019
100
AcDbArc
 50
223.3968902048175
 51
226.6031097951848
  0
ARC
  5
5A2
102
{ACAD_REACTORS
330
7D3
102
}
330
1F
100
AcDbEntity
  8
実線
100
AcDbCircle
 10
329.1369184230918
 20
72.28146639762702
 30
0.0
 40
10.00000000000001
100
AcDbArc
 50
226.6031097951848
 51
304.9999999999974
  0
LINE
  5
5A3
102
{ACAD_REACTORS
330
7D3
102
}
330
1F
100
AcDbEntity
  8
実線
100
AcDbLine
 10
334.8726827866022
 20
64.08994595473695
 30
0.0
 11
347.5174330479319
 21
72.94389540649945
 31
0.0
  0
LINE
  5
5A4
102
{ACAD_REACTORS
330
7DC
102
}
330
1F
100
AcDbEntity
  8
実線
100
AcDbLine
 10
842.107995165856
 20
376.7846319896794
 30
0.0
 11
842.107995165856
 21
346.5846319896794
 31
0.0
  0
LINE
  5
5A5
102
{ACAD_REACTORS
330
7DC
102
}
330
1F
100
AcDbEntity
  8
実線
100
AcDbLine
 10
864.1079951658559
 20
346.5846319896794
 30
0.0
 11
864.1079951658559
 21
376.7846319896794
 31
0.0
  0
LINE
  5
5A6
102
{ACAD_REACTORS
330
7DC
102
}
330
1F
100
AcDbEntity
  8
実線
100
AcDbLine
 10
842.107995165856
 20
346.5846319896794
 30
0.0
 11
864.1079951658559
 21
346.5846319896794
 31
0.0
  0
LINE
  5
5A7
102
{ACAD_REACTORS
330
7DC
102
}
330
1F
100
AcDbEntity
  8
実線
100
AcDbLine
 10
842.1079951658571
 20
1090.984631989678
 30
0.0
 11
864.1079951658571
 21
1090.984631989678
 31
0.0
  0
LINE
  5
5A8
102
{ACAD_REACTORS
330
7DC
102
}
330
1F
100
AcDbEntity
  8
実線
100
AcDbLine
 10
864.1079951658571
 20
1060.784631989678
 30
0.0
 11
864.1079951658571
 21
1090.984631989678
 31
0.0
  0
LINE
  5
5A9
102
{ACAD_REACTORS
330
7DC
102
}
330
1F
100
AcDbEntity
  8
実線
100
AcDbLine
 10
842.1079951658571
 20
1090.984631989678
 30
0.0
 11
842.1079951658571
 21
1060.784631989678
 31
0.0
  0
LINE
  5
5AA
102
{ACAD_REACTORS
330
7DC
102
}
330
1F
100
AcDbEntity
  8
実線
100
AcDbLine
 10
804.1079951658559
 20
629.2846319896792
 30
0.0
 11
804.1079951658559
 21
445.3468098161704
 31
0.0
  0
LINE
  5
5AB
102
{ACAD_REACTORS
330
7DC
102
}
330
1F
100
AcDbEntity
  8
実線
100
AcDbLine
 10
902.1079951658562
 20
445.3468098161704
 30
0.0
 11
902.1079951658562
 21
629.2846319896792
 31
0.0
  0
LINE
  5
5AC
102
{ACAD_REACTORS
330
7DC
102
}
330
1F
100
AcDbEntity
  8
実線
100
AcDbLine
 10
800.6079951658559
 20
439.2846319896793
 30
0.0
 11
800.6079951658559
 21
381.7846319896794
 31
0.0
  0
LINE
  5
5AD
102
{ACAD_REACTORS
330
7DC
102
}
330
1F
100
AcDbEntity
  8
実線
100
AcDbLine
 10
905.6079951658562
 20
381.7846319896794
 30
0.0
 11
905.6079951658562
 21
439.2846319896793
 31
0.0
  0
LINE
  5
5AE
102
{ACAD_REACTORS
330
7DC
102
}
330
1F
100
AcDbEntity
  8
実線
100
AcDbLine
 10
804.1079951658559
 20
445.3468098161704
 30
0.0
 11
800.6079951658559
 21
439.2846319896793
 31
0.0
  0
LINE
  5
5AF
102
{ACAD_REACTORS
330
7DC
102
}
330
1F
100
AcDbEntity
  8
実線
100
AcDbLine
 10
905.6079951658562
 20
439.2846319896793
 30
0.0
 11
902.1079951658562
 21
445.3468098161704
 31
0.0
  0
LINE
  5
5B0
102
{ACAD_REACTORS
330
7DC
102
}
330
1F
100
AcDbEntity
  8
実線
100
AcDbLine
 10
902.1079951658562
 20
445.3468098161704
 30
0.0
 11
804.1079951658559
 21
445.3468098161704
 31
0.0
  0
LINE
  5
5B1
102
{ACAD_REACTORS
330
7DC
102
}
330
1F
100
AcDbEntity
  8
実線
100
AcDbLine
 10
905.6079951658562
 20
439.2846319896793
 30
0.0
 11
800.6079951658559
 21
439.2846319896793
 31
0.0
  0
LINE
  5
5B2
102
{ACAD_REACTORS
330
7DC
102
}
330
1F
100
AcDbEntity
  8
実線
100
AcDbLine
 10
902.1079951658562
 20
808.2846319896793
 30
0.0
 11
902.1079951658562
 21
992.2224541631878
 31
0.0
  0
LINE
  5
5B3
102
{ACAD_REACTORS
330
7DC
102
}
330
1F
100
AcDbEntity
  8
実線
100
AcDbLine
 10
804.1079951658559
 20
992.2224541631878
 30
0.0
 11
804.1079951658559
 21
808.2846319896793
 31
0.0
  0
LINE
  5
5B4
102
{ACAD_REACTORS
330
7DC
102
}
330
1F
100
AcDbEntity
  8
実線
100
AcDbLine
 10
905.6079951658571
 20
998.2846319896786
 30
0.0
 11
905.6079951658571
 21
1055.784631989679
 31
0.0
  0
LINE
  5
5B5
102
{ACAD_REACTORS
330
7DC
102
}
330
1F
100
AcDbEntity
  8
実線
100
AcDbLine
 10
800.6079951658572
 20
1055.784631989679
 30
0.0
 11
800.6079951658572
 21
998.2846319896786
 31
0.0
  0
LINE
  5
5B6
102
{ACAD_REACTORS
330
7DC
102
}
330
1F
100
AcDbEntity
  8
実線
100
AcDbLine
 10
902.1079951658562
 20
992.2224541631878
 30
0.0
 11
804.1079951658559
 21
992.2224541631878
 31
0.0
  0
LINE
  5
5B7
102
{ACAD_REACTORS
330
7DC
102
}
330
1F
100
AcDbEntity
  8
実線
100
AcDbLine
 10
905.6079951658571
 20
998.2846319896786
 30
0.0
 11
800.6079951658572
 21
998.2846319896786
 31
0.0
  0
LINE
  5
5B8
102
{ACAD_REACTORS
330
7DC
102
}
330
1F
100
AcDbEntity
  8
実線
100
AcDbLine
 10
902.1079951658562
 20
992.2224541631878
 30
0.0
 11
905.6079951658571
 21
998.2846319896786
 31
0.0
  0
LINE
  5
5B9
102
{ACAD_REACTORS
330
7DC
102
}
330
1F
100
AcDbEntity
  8
実線
100
AcDbLine
 10
800.6079951658572
 20
998.2846319896786
 30
0.0
 11
804.1079951658559
 21
992.2224541631878
 31
0.0
  0
LINE
  5
5BA
102
{ACAD_REACTORS
330
7DC
102
}
330
1F
100
AcDbEntity
  8
実線
100
AcDbLine
 10
768.8219382496599
 20
718.7846319896793
 30
0.0
 11
771.1079951658559
 21
715.5516592944384
 31
0.0
  0
LINE
  5
5BB
102
{ACAD_REACTORS
330
7DC
102
}
330
1F
100
AcDbEntity
  8
実線
100
AcDbLine
 10
807.6077889164377
 20
748.4831167995145
 30
0.0
 11
789.8219382496608
 21
748.4831167995145
 31
0.0
  0
LINE
  5
5BC
102
{ACAD_REACTORS
330
7DC
102
}
330
1F
100
AcDbEntity
  8
実線
100
AcDbLine
 10
789.8219382496608
 20
748.4831167995145
 30
0.0
 11
768.8219382496599
 21
718.7846319896793
 31
0.0
  0
LINE
  5
5BD
102
{ACAD_REACTORS
330
7DC
102
}
330
1F
100
AcDbEntity
  8
実線
100
AcDbLine
 10
797.4597628877149
 20
718.7846319896793
 30
0.0
 11
768.8219382496599
 21
718.7846319896793
 31
0.0
  0
LINE
  5
5BE
102
{ACAD_REACTORS
330
7DC
102
}
330
1F
100
AcDbEntity
  8
実線
100
AcDbLine
 10
797.4597628877149
 20
718.7846319896793
 30
0.0
 11
811.9261492858488
 21
739.2431918324489
 31
0.0
  0
LINE
  5
5BF
102
{ACAD_REACTORS
330
7DC
102
}
330
1F
100
AcDbEntity
  8
実線
100
AcDbLine
 10
909.6111607579121
 20
788.2846319896793
 30
0.0
 11
796.6048295738009
 21
788.2846319896793
 31
0.0
  0
LINE
  5
5C0
102
{ACAD_REACTORS
330
7DC
102
}
330
1F
100
AcDbEntity
  8
実線
100
AcDbLine
 10
796.6048295738009
 20
788.2846319896793
 30
0.0
 11
796.6048295738009
 21
773.2846319896793
 31
0.0
  0
LINE
  5
5C1
102
{ACAD_REACTORS
330
7DC
102
}
330
1F
100
AcDbEntity
  8
実線
100
AcDbLine
 10
796.6048295738009
 20
773.2846319896793
 30
0.0
 11
828.1280031722628
 21
773.2846319896793
 31
0.0
  0
LINE
  5
5C2
102
{ACAD_REACTORS
330
7DC
102
}
330
1F
100
AcDbEntity
  8
実線
100
AcDbLine
 10
909.611160757913
 20
773.2846319896793
 30
0.0
 11
878.0879871594498
 21
773.2846319896793
 31
0.0
  0
LINE
  5
5C3
102
{ACAD_REACTORS
330
7DC
102
}
330
1F
100
AcDbEntity
  8
実線
100
AcDbLine
 10
909.611160757913
 20
773.2846319896793
 30
0.0
 11
909.611160757913
 21
788.2846319896793
 31
0.0
  0
LINE
  5
5C4
102
{ACAD_REACTORS
330
7DC
102
}
330
1F
100
AcDbEntity
  8
実線
100
AcDbLine
 10
875.4862384529991
 20
788.2846319896793
 30
0.0
 11
875.4862384529991
 21
776.1585085168761
 31
0.0
  0
LINE
  5
5C5
102
{ACAD_REACTORS
330
7DC
102
}
330
1F
100
AcDbEntity
  8
実線
100
AcDbLine
 10
830.7297518787128
 20
788.2846319896793
 30
0.0
 11
830.7297518787128
 21
776.1585085168761
 31
0.0
  0
ELLIPSE
  5
5C6
102
{ACAD_REACTORS
330
7DC
102
}
330
1F
100
AcDbEntity
  8
実線
100
AcDbEllipse
 10
898.3628291617961
 20
718.7846319896793
 30
0.0
 11
0.0
 21
17.0
 31
0.0
210
0.0
220
0.0
230
1.0
 40
0.7071067811865476
 41
4.147533065690497
 42
6.283185307179584
  0
LINE
  5
5C7
102
{ACAD_REACTORS
330
7DC
102
}
330
1F
100
AcDbEntity
  8
実線
100
AcDbLine
 10
898.3628291617961
 20
735.7846319896793
 30
0.0
 11
898.1496257261987
 21
735.7846319896793
 31
0.0
  0
ELLIPSE
  5
5C8
102
{ACAD_REACTORS
330
7DC
102
}
330
1F
100
AcDbEntity
  8
実線
100
AcDbEllipse
 10
896.8425495822451
 20
718.7846319896793
 30
0.0
 11
0.0
 21
17.0
 31
0.0
210
0.0
220
0.0
230
1.0
 40
0.7071067811865476
 41
4.828064086204744
 42
6.16751020135953
  0
ELLIPSE
  5
5C9
102
{ACAD_REACTORS
330
7DC
102
}
330
1F
100
AcDbEntity
  8
実線
100
AcDbEllipse
 10
896.8425495822451
 20
718.7846319896793
 30
0.0
 11
0.0
 21
17.0
 31
0.0
210
0.0
220
0.0
230
1.0
 40
0.7071067811865476
 41
4.147533065690497
 42
4.596713874564631
  0
LINE
  5
5CA
102
{ACAD_REACTORS
330
7DC
102
}
330
1F
100
AcDbEntity
  8
実線
100
AcDbLine
 10
829.50442297773
 20
707.7846319896792
 30
0.0
 11
837.2339337265168
 21
707.7846319896792
 31
0.0
  0
LINE
  5
5CB
102
{ACAD_REACTORS
330
7DC
102
}
330
1F
100
AcDbEntity
  8
実線
100
AcDbLine
 10
831.388188536883
 20
729.7846319896792
 30
0.0
 11
829.50442297773
 21
729.7846319896792
 31
0.0
  0
LINE
  5
5CC
102
{ACAD_REACTORS
330
7DC
102
}
330
1F
100
AcDbEntity
  8
実線
100
AcDbLine
 10
817.752656106529
 20
706.2846319896793
 30
0.0
 11
827.2371011326891
 21
706.2846319896793
 31
0.0
  0
LINE
  5
5CD
102
{ACAD_REACTORS
330
7DC
102
}
330
1F
100
AcDbEntity
  8
実線
100
AcDbLine
 10
827.2371011326891
 20
731.2846319896793
 30
0.0
 11
817.752656106529
 21
731.2846319896793
 31
0.0
  0
ELLIPSE
  5
5CE
102
{ACAD_REACTORS
330
7DC
102
}
330
1F
100
AcDbEntity
  8
実線
100
AcDbEllipse
 10
817.752656106529
 20
718.7846319896793
 30
0.0
 11
0.0
 21
12.5
 31
0.0
210
0.0
220
0.0
230
1.0
 40
0.7071067811865476
 41
3.141592653589792
 42
6.283185307179584
  0
ELLIPSE
  5
5CF
102
{ACAD_REACTORS
330
7DC
102
}
330
1F
100
AcDbEntity
  8
実線
100
AcDbEllipse
 10
817.752656106529
 20
718.7846319896793
 30
0.0
 11
0.0
 21
12.5
 31
0.0
210
0.0
220
0.0
230
1.0
 40
0.7071067811865476
 41
1.570796326794897
 42
3.141592653589792
  0
ELLIPSE
  5
5D0
102
{ACAD_REACTORS
330
7DC
102
}
330
1F
100
AcDbEntity
  8
実線
100
AcDbEllipse
 10
817.752656106529
 20
718.7846319896793
 30
0.0
 11
0.0
 21
12.5
 31
0.0
210
0.0
220
0.0
230
1.0
 40
0.7071067811865476
 41
0.0
 42
1.570796326794897
  0
LINE
  5
5D1
102
{ACAD_REACTORS
330
7DC
102
}
330
1F
100
AcDbEntity
  8
実線
100
AcDbLine
 10
910.170441006371
 20
718.7846319896793
 30
0.0
 11
889.1704410063701
 21
748.4831167995145
 31
0.0
  0
LINE
  5
5D2
102
{ACAD_REACTORS
330
7DC
102
}
330
1F
100
AcDbEntity
  8
実線
100
AcDbLine
 10
889.1704410063701
 20
689.0861471798443
 30
0.0
 11
910.170441006371
 21
718.7846319896793
 31
0.0
  0
LINE
  5
5D3
102
{ACAD_REACTORS
330
7DC
102
}
330
1F
100
AcDbEntity
  8
実線
100
AcDbLine
 10
889.1704410063701
 20
748.4831167995145
 30
0.0
 11
868.17044100637
 21
718.7846319896793
 31
0.0
  0
LINE
  5
5D4
102
{ACAD_REACTORS
330
7DC
102
}
330
1F
100
AcDbEntity
  8
実線
100
AcDbLine
 10
885.281499550207
 20
748.4831167995145
 30
0.0
 11
889.1704410063701
 21
748.4831167995145
 31
0.0
  0
LINE
  5
5D5
102
{ACAD_REACTORS
330
7DC
102
}
330
1F
100
AcDbEntity
  8
実線
100
AcDbLine
 10
885.281499550207
 20
689.0861471798443
 30
0.0
 11
889.1704410063701
 21
689.0861471798443
 31
0.0
  0
LINE
  5
5D6
102
{ACAD_REACTORS
330
7DC
102
}
330
1F
100
AcDbEntity
  8
実線
100
AcDbLine
 10
889.1704410063701
 20
689.0861471798443
 30
0.0
 11
868.17044100637
 21
718.7846319896793
 31
0.0
  0
LINE
  5
5D7
102
{ACAD_REACTORS
330
7DC
102
}
330
1F
100
AcDbEntity
  8
実線
100
AcDbLine
 10
808.9138213416969
 20
718.7846319896793
 30
0.0
 11
797.4597628877149
 21
718.7846319896793
 31
0.0
  0
LINE
  5
5D8
102
{ACAD_REACTORS
330
7DC
102
}
330
1F
100
AcDbEntity
  8
実線
100
AcDbLine
 10
868.17044100637
 20
718.7846319896793
 30
0.0
 11
854.1079951658559
 21
718.7846319896793
 31
0.0
  0
LINE
  5
5D9
102
{ACAD_REACTORS
330
7DC
102
}
330
1F
100
AcDbEntity
  8
実線
100
AcDbLine
 10
803.8944345965131
 20
709.6846319896792
 30
0.0
 11
797.4597628877149
 21
718.7846319896793
 31
0.0
  0
CIRCLE
  5
5DA
102
{ACAD_REACTORS
330
7DC
102
}
330
1F
100
AcDbEntity
  8
実線
100
AcDbCircle
 10
853.107995165856
 20
753.2846319896792
 30
0.0
 40
32.0
  0
LINE
  5
5DB
102
{ACAD_REACTORS
330
7DC
102
}
330
1F
100
AcDbEntity
  8
実線
100
AcDbLine
 10
796.6048295738009
 20
664.2846319896793
 30
0.0
 11
909.611160757913
 21
664.2846319896793
 31
0.0
  0
LINE
  5
5DC
102
{ACAD_REACTORS
330
7DC
102
}
330
1F
100
AcDbEntity
  8
実線
100
AcDbLine
 10
796.6048295738009
 20
649.2846319896793
 30
0.0
 11
909.611160757913
 21
649.2846319896793
 31
0.0
  0
LINE
  5
5DD
102
{ACAD_REACTORS
330
7DC
102
}
330
1F
100
AcDbEntity
  8
実線
100
AcDbLine
 10
909.611160757913
 20
649.2846319896793
 30
0.0
 11
909.611160757913
 21
664.2846319896793
 31
0.0
  0
LINE
  5
5DE
102
{ACAD_REACTORS
330
7DC
102
}
330
1F
100
AcDbEntity
  8
実線
100
AcDbLine
 10
796.6048295738009
 20
664.2846319896793
 30
0.0
 11
796.6048295738009
 21
649.2846319896793
 31
0.0
  0
LINE
  5
5DF
102
{ACAD_REACTORS
330
7DC
102
}
330
1F
100
AcDbEntity
  8
実線
100
AcDbLine
 10
830.7297518787128
 20
649.2846319896793
 30
0.0
 11
830.7297518787128
 21
664.2846319896793
 31
0.0
  0
LINE
  5
5E0
102
{ACAD_REACTORS
330
7DC
102
}
330
1F
100
AcDbEntity
  8
実線
100
AcDbLine
 10
875.4862384529999
 20
649.2846319896793
 30
0.0
 11
875.4862384529999
 21
664.2846319896793
 31
0.0
  0
LINE
  5
5E1
102
{ACAD_REACTORS
330
7DC
102
}
330
1F
100
AcDbEntity
  8
実線
100
AcDbLine
 10
776.4079951658571
 20
658.8846319896794
 30
0.0
 11
796.6048295738009
 21
658.8846319896794
 31
0.0
  0
LINE
  5
5E2
102
{ACAD_REACTORS
330
7DC
102
}
330
1F
100
AcDbEntity
  8
実線
100
AcDbLine
 10
811.692953143512
 20
709.6846319896792
 30
0.0
 11
776.4079951658571
 21
709.6846319896792
 31
0.0
  0
LINE
  5
5E3
102
{ACAD_REACTORS
330
7DC
102
}
330
1F
100
AcDbEntity
  8
実線
100
AcDbLine
 10
776.4079951658571
 20
709.6846319896792
 30
0.0
 11
776.4079951658571
 21
658.8846319896792
 31
0.0
  0
LINE
  5
5E4
102
{ACAD_REACTORS
330
7DC
102
}
330
1F
100
AcDbEntity
  8
実線
100
AcDbLine
 10
776.4079951658571
 20
709.6846319896792
 30
0.0
 11
774.0079951658558
 21
716.2846319896793
 31
0.0
  0
LINE
  5
5E5
102
{ACAD_REACTORS
330
7DC
102
}
330
1F
100
AcDbEntity
  8
実線
100
AcDbLine
 10
774.0079951658558
 20
652.2846319896792
 30
0.0
 11
776.4079951658571
 21
658.8846319896792
 31
0.0
  0
LINE
  5
5E6
102
{ACAD_REACTORS
330
7DC
102
}
330
1F
100
AcDbEntity
  8
実線
100
AcDbLine
 10
771.1079951658559
 20
716.2846319896793
 30
0.0
 11
771.1079951658559
 21
652.2846319896792
 31
0.0
  0
LINE
  5
5E7
102
{ACAD_REACTORS
330
7DC
102
}
330
1F
100
AcDbEntity
  8
実線
100
AcDbLine
 10
774.0079951658558
 20
716.2846319896793
 30
0.0
 11
774.0079951658558
 21
652.2846319896792
 31
0.0
  0
LINE
  5
5E8
102
{ACAD_REACTORS
330
7DC
102
}
330
1F
100
AcDbEntity
  8
実線
100
AcDbLine
 10
771.1079951658559
 20
652.2846319896792
 30
0.0
 11
774.0079951658558
 21
652.2846319896792
 31
0.0
  0
LINE
  5
5E9
102
{ACAD_REACTORS
330
7DC
102
}
330
1F
100
AcDbEntity
  8
実線
100
AcDbLine
 10
774.0079951658558
 20
716.2846319896793
 30
0.0
 11
771.1079951658559
 21
716.2846319896793
 31
0.0
  0
LINE
  5
5EA
102
{ACAD_REACTORS
330
7DC
102
}
330
1F
100
AcDbEntity
  8
実線
100
AcDbLine
 10
929.8079951658561
 20
709.6846319896792
 30
0.0
 11
903.735769297573
 21
709.6846319896792
 31
0.0
  0
LINE
  5
5EB
102
{ACAD_REACTORS
330
7DC
102
}
330
1F
100
AcDbEntity
  8
実線
100
AcDbLine
 10
909.611160757913
 20
658.8846319896794
 30
0.0
 11
929.8079951658561
 21
658.8846319896794
 31
0.0
  0
LINE
  5
5EC
102
{ACAD_REACTORS
330
7DC
102
}
330
1F
100
AcDbEntity
  8
実線
100
AcDbLine
 10
929.8079951658561
 20
658.8846319896794
 30
0.0
 11
932.2079951658562
 21
652.2846319896796
 31
0.0
  0
LINE
  5
5ED
102
{ACAD_REACTORS
330
7DC
102
}
330
1F
100
AcDbEntity
  8
実線
100
AcDbLine
 10
932.2079951658562
 20
716.2846319896793
 30
0.0
 11
929.8079951658561
 21
709.6846319896796
 31
0.0
  0
LINE
  5
5EE
102
{ACAD_REACTORS
330
7DC
102
}
330
1F
100
AcDbEntity
  8
実線
100
AcDbLine
 10
929.8079951658561
 20
658.8846319896794
 30
0.0
 11
929.8079951658561
 21
709.6846319896796
 31
0.0
  0
LINE
  5
5EF
102
{ACAD_REACTORS
330
7DC
102
}
330
1F
100
AcDbEntity
  8
実線
100
AcDbLine
 10
935.1079951658562
 20
716.2846319896793
 30
0.0
 11
932.2079951658562
 21
716.2846319896793
 31
0.0
  0
LINE
  5
5F0
102
{ACAD_REACTORS
330
7DC
102
}
330
1F
100
AcDbEntity
  8
実線
100
AcDbLine
 10
932.2079951658562
 20
652.2846319896792
 30
0.0
 11
935.1079951658562
 21
652.2846319896792
 31
0.0
  0
LINE
  5
5F1
102
{ACAD_REACTORS
330
7DC
102
}
330
1F
100
AcDbEntity
  8
実線
100
AcDbLine
 10
935.1079951658562
 20
652.2846319896792
 30
0.0
 11
935.1079951658562
 21
716.2846319896793
 31
0.0
  0
LINE
  5
5F2
102
{ACAD_REACTORS
330
7DC
102
}
330
1F
100
AcDbEntity
  8
実線
100
AcDbLine
 10
932.2079951658562
 20
652.2846319896792
 30
0.0
 11
932.2079951658562
 21
716.2846319896793
 31
0.0
  0
LINE
  5
5F3
102
{ACAD_REACTORS
330
7DC
102
}
330
1F
100
AcDbEntity
  8
実線
100
AcDbLine
 10
900.6079951658561
 20
376.7846319896794
 30
0.0
 11
805.607995165856
 21
376.7846319896794
 31
0.0
  0
ARC
  5
5F4
102
{ACAD_REACTORS
330
7DC
102
}
330
1F
100
AcDbEntity
  8
実線
100
AcDbCircle
 10
805.607995165856
 20
381.7846319896794
 30
0.0
 40
5.0
100
AcDbArc
 50
180.0
 51
270.0
  0
ARC
  5
5F5
102
{ACAD_REACTORS
330
7DC
102
}
330
1F
100
AcDbEntity
  8
実線
100
AcDbCircle
 10
900.6079951658561
 20
381.7846319896794
 30
0.0
 40
5.0
100
AcDbArc
 50
270.0
 51
0.0
  0
LINE
  5
5F6
102
{ACAD_REACTORS
330
7DC
102
}
330
1F
100
AcDbEntity
  8
実線
100
AcDbLine
 10
905.6079951658562
 20
381.7846319896794
 30
0.0
 11
800.6079951658559
 21
381.7846319896794
 31
0.0
  0
LINE
  5
5F7
102
{ACAD_REACTORS
330
7DC
102
}
330
1F
100
AcDbEntity
  8
実線
100
AcDbLine
 10
811.8785217463589
 20
739.3256851506845
 30
0.0
 11
816.5843478247909
 21
731.1749552912581
 31
0.0
  0
ARC
  5
5F8
102
{ACAD_REACTORS
330
7DC
102
}
330
1F
100
AcDbEntity
  8
実線
100
AcDbCircle
 10
862.1079951658559
 20
768.3256851506845
 30
0.0
 40
58.0
100
AcDbArc
 50
180.0
 51
210.0000000000005
  0
ARC
  5
5F9
102
{ACAD_REACTORS
330
7DC
102
}
330
1F
100
AcDbEntity
  8
実線
100
AcDbCircle
 10
844.107995165856
 20
768.3256851506845
 30
0.0
 40
58.0
100
AcDbArc
 50
331.1673734788014
 51
0.0
  0
LINE
  5
5FA
102
{ACAD_REACTORS
330
7DC
102
}
330
1F
100
AcDbEntity
  8
実線
100
AcDbLine
 10
902.1079951658562
 20
768.3256851506845
 30
0.0
 11
902.1079951658562
 21
773.2846319896793
 31
0.0
  0
LINE
  5
5FB
102
{ACAD_REACTORS
330
7DC
102
}
330
1F
100
AcDbEntity
  8
実線
100
AcDbLine
 10
804.1079951658559
 20
773.2846319896793
 30
0.0
 11
804.1079951658559
 21
768.3256851506845
 31
0.0
  0
LINE
  5
5FC
102
{ACAD_REACTORS
330
7DC
102
}
330
1F
100
AcDbEntity
  8
実線
100
AcDbLine
 10
902.1079951658562
 20
629.2846319896792
 30
0.0
 11
804.1079951658559
 21
629.2846319896792
 31
0.0
  0
LINE
  5
5FD
102
{ACAD_REACTORS
330
7DC
102
}
330
1F
100
AcDbEntity
  8
実線
100
AcDbLine
 10
902.1079951658562
 20
629.2846319896792
 30
0.0
 11
902.1079951658562
 21
634.2846319896793
 31
0.0
  0
LINE
  5
5FE
102
{ACAD_REACTORS
330
7DC
102
}
330
1F
100
AcDbEntity
  8
実線
100
AcDbLine
 10
804.1079951658559
 20
634.2846319896793
 30
0.0
 11
804.1079951658559
 21
629.2846319896792
 31
0.0
  0
LINE
  5
5FF
102
{ACAD_REACTORS
330
7DC
102
}
330
1F
100
AcDbEntity
  8
実線
100
AcDbLine
 10
796.6048295738009
 20
634.2846319896793
 30
0.0
 11
830.7297518787128
 21
634.2846319896793
 31
0.0
  0
LINE
  5
600
102
{ACAD_REACTORS
330
7DC
102
}
330
1F
100
AcDbEntity
  8
実線
100
AcDbLine
 10
796.6048295738009
 20
649.2846319896793
 30
0.0
 11
796.6048295738009
 21
634.2846319896793
 31
0.0
  0
LINE
  5
601
102
{ACAD_REACTORS
330
7DC
102
}
330
1F
100
AcDbEntity
  8
実線
100
AcDbLine
 10
909.611160757913
 20
634.2846319896793
 30
0.0
 11
909.611160757913
 21
649.2846319896793
 31
0.0
  0
LINE
  5
602
102
{ACAD_REACTORS
330
7DC
102
}
330
1F
100
AcDbEntity
  8
実線
100
AcDbLine
 10
909.611160757913
 20
634.2846319896793
 30
0.0
 11
875.4862384529999
 21
634.2846319896793
 31
0.0
  0
LINE
  5
603
102
{ACAD_REACTORS
330
7DC
102
}
330
1F
100
AcDbEntity
  8
実線
100
AcDbLine
 10
875.4862384529999
 20
634.2846319896793
 30
0.0
 11
875.4862384529999
 21
649.2846319896793
 31
0.0
  0
LINE
  5
604
102
{ACAD_REACTORS
330
7DC
102
}
330
1F
100
AcDbEntity
  8
実線
100
AcDbLine
 10
830.7297518787128
 20
634.2846319896793
 30
0.0
 11
830.7297518787128
 21
649.2846319896793
 31
0.0
  0
LINE
  5
605
102
{ACAD_REACTORS
330
7DC
102
}
330
1F
100
AcDbEntity
  8
実線
100
AcDbLine
 10
804.1079951658559
 20
808.2846319896793
 30
0.0
 11
804.1079951658559
 21
803.2846319896792
 31
0.0
  0
LINE
  5
606
102
{ACAD_REACTORS
330
7DC
102
}
330
1F
100
AcDbEntity
  8
実線
100
AcDbLine
 10
902.1079951658562
 20
803.2846319896792
 30
0.0
 11
902.1079951658562
 21
808.2846319896793
 31
0.0
  0
LINE
  5
607
102
{ACAD_REACTORS
330
7DC
102
}
330
1F
100
AcDbEntity
  8
実線
100
AcDbLine
 10
902.107995165857
 20
808.2846319896793
 30
0.0
 11
804.1079951658559
 21
808.2846319896793
 31
0.0
  0
LINE
  5
608
102
{ACAD_REACTORS
330
7DC
102
}
330
1F
100
AcDbEntity
  8
実線
100
AcDbLine
 10
796.6048295738009
 20
803.2846319896792
 30
0.0
 11
796.6048295738009
 21
788.2846319896793
 31
0.0
  0
LINE
  5
609
102
{ACAD_REACTORS
330
7DC
102
}
330
1F
100
AcDbEntity
  8
実線
100
AcDbLine
 10
796.6048295738009
 20
803.2846319896792
 30
0.0
 11
830.7297518787137
 21
803.2846319896792
 31
0.0
  0
LINE
  5
60A
102
{ACAD_REACTORS
330
7DC
102
}
330
1F
100
AcDbEntity
  8
実線
100
AcDbLine
 10
909.611160757913
 20
803.2846319896792
 30
0.0
 11
875.4862384529999
 21
803.2846319896792
 31
0.0
  0
LINE
  5
60B
102
{ACAD_REACTORS
330
7DC
102
}
330
1F
100
AcDbEntity
  8
実線
100
AcDbLine
 10
909.611160757913
 20
788.2846319896793
 30
0.0
 11
909.611160757913
 21
803.2846319896792
 31
0.0
  0
LINE
  5
60C
102
{ACAD_REACTORS
330
7DC
102
}
330
1F
100
AcDbEntity
  8
実線
100
AcDbLine
 10
875.4862384529999
 20
803.2846319896792
 30
0.0
 11
875.4862384529999
 21
788.2846319896793
 31
0.0
  0
LINE
  5
60D
102
{ACAD_REACTORS
330
7DC
102
}
330
1F
100
AcDbEntity
  8
実線
100
AcDbLine
 10
830.7297518787137
 20
803.2846319896792
 30
0.0
 11
830.7297518787137
 21
788.2846319896793
 31
0.0
  0
LINE
  5
60E
102
{ACAD_REACTORS
330
7DC
102
}
330
1F
100
AcDbEntity
  8
実線
100
AcDbLine
 10
900.6079951658572
 20
1060.784631989678
 30
0.0
 11
805.607995165856
 21
1060.784631989678
 31
0.0
  0
LINE
  5
60F
102
{ACAD_REACTORS
330
7DC
102
}
330
1F
100
AcDbEntity
  8
実線
100
AcDbLine
 10
905.6079951658571
 20
1055.784631989679
 30
0.0
 11
800.6079951658572
 21
1055.784631989679
 31
0.0
  0
ARC
  5
610
102
{ACAD_REACTORS
330
7DC
102
}
330
1F
100
AcDbEntity
  8
実線
100
AcDbCircle
 10
900.6079951658572
 20
1055.784631989679
 30
0.0
 40
5.0
100
AcDbArc
 50
0.0
 51
90.0
  0
ARC
  5
611
102
{ACAD_REACTORS
330
7DC
102
}
330
1F
100
AcDbEntity
  8
実線
100
AcDbCircle
 10
805.607995165856
 20
1055.784631989679
 30
0.0
 40
5.0
100
AcDbArc
 50
90.0
 51
180.0
  0
LINE
  5
612
102
{ACAD_REACTORS
330
7DB
102
}
330
1F
100
AcDbEntity
  8
実線
100
AcDbLine
 10
602.1079951658556
 20
346.5846319896794
 30
0.0
 11
624.1079951658556
 21
346.5846319896794
 31
0.0
  0
LINE
  5
613
102
{ACAD_REACTORS
330
7DB
102
}
330
1F
100
AcDbEntity
  8
実線
100
AcDbLine
 10
602.1079951658556
 20
376.7846319896794
 30
0.0
 11
602.1079951658556
 21
346.5846319896794
 31
0.0
  0
LINE
  5
614
102
{ACAD_REACTORS
330
7DB
102
}
330
1F
100
AcDbEntity
  8
実線
100
AcDbLine
 10
624.1079951658556
 20
346.5846319896794
 30
0.0
 11
624.1079951658556
 21
376.7846319896794
 31
0.0
  0
LINE
  5
615
102
{ACAD_REACTORS
330
7DB
102
}
330
1F
100
AcDbEntity
  8
実線
100
AcDbLine
 10
624.1079951658556
 20
1090.984631989678
 30
0.0
 11
602.1079951658556
 21
1090.984631989678
 31
0.0
  0
LINE
  5
616
102
{ACAD_REACTORS
330
7DB
102
}
330
1F
100
AcDbEntity
  8
実線
100
AcDbLine
 10
624.1079951658556
 20
1060.784631989678
 30
0.0
 11
624.1079951658556
 21
1090.984631989678
 31
0.0
  0
LINE
  5
617
102
{ACAD_REACTORS
330
7DB
102
}
330
1F
100
AcDbEntity
  8
実線
100
AcDbLine
 10
602.1079951658556
 20
1090.984631989678
 30
0.0
 11
602.1079951658556
 21
1060.784631989678
 31
0.0
  0
LINE
  5
618
102
{ACAD_REACTORS
330
7DB
102
}
330
1F
100
AcDbEntity
  8
実線
100
AcDbLine
 10
564.1079951658558
 20
629.2846319896792
 30
0.0
 11
564.1079951658558
 21
445.3468098161704
 31
0.0
  0
LINE
  5
619
102
{ACAD_REACTORS
330
7DB
102
}
330
1F
100
AcDbEntity
  8
実線
100
AcDbLine
 10
662.1079951658556
 20
445.3468098161704
 30
0.0
 11
662.1079951658556
 21
629.2846319896792
 31
0.0
  0
LINE
  5
61A
102
{ACAD_REACTORS
330
7DB
102
}
330
1F
100
AcDbEntity
  8
実線
100
AcDbLine
 10
560.607995165856
 20
439.2846319896793
 30
0.0
 11
560.607995165856
 21
381.7846319896794
 31
0.0
  0
LINE
  5
61B
102
{ACAD_REACTORS
330
7DB
102
}
330
1F
100
AcDbEntity
  8
実線
100
AcDbLine
 10
665.6079951658556
 20
381.7846319896794
 30
0.0
 11
665.6079951658556
 21
439.2846319896793
 31
0.0
  0
LINE
  5
61C
102
{ACAD_REACTORS
330
7DB
102
}
330
1F
100
AcDbEntity
  8
実線
100
AcDbLine
 10
560.607995165856
 20
381.7846319896794
 30
0.0
 11
665.6079951658556
 21
381.7846319896794
 31
0.0
  0
LINE
  5
61D
102
{ACAD_REACTORS
330
7DB
102
}
330
1F
100
AcDbEntity
  8
実線
100
AcDbLine
 10
564.1079951658558
 20
445.3468098161704
 30
0.0
 11
560.607995165856
 21
439.2846319896793
 31
0.0
  0
LINE
  5
61E
102
{ACAD_REACTORS
330
7DB
102
}
330
1F
100
AcDbEntity
  8
実線
100
AcDbLine
 10
665.6079951658556
 20
439.2846319896793
 30
0.0
 11
662.1079951658556
 21
445.3468098161704
 31
0.0
  0
LINE
  5
61F
102
{ACAD_REACTORS
330
7DB
102
}
330
1F
100
AcDbEntity
  8
実線
100
AcDbLine
 10
662.1079951658556
 20
445.3468098161704
 30
0.0
 11
564.1079951658558
 21
445.3468098161704
 31
0.0
  0
LINE
  5
620
102
{ACAD_REACTORS
330
7DB
102
}
330
1F
100
AcDbEntity
  8
実線
100
AcDbLine
 10
665.6079951658556
 20
439.2846319896793
 30
0.0
 11
560.607995165856
 21
439.2846319896793
 31
0.0
  0
LINE
  5
621
102
{ACAD_REACTORS
330
7DB
102
}
330
1F
100
AcDbEntity
  8
実線
100
AcDbLine
 10
662.1079951658556
 20
808.2846319896793
 30
0.0
 11
662.1079951658556
 21
992.2224541631878
 31
0.0
  0
LINE
  5
622
102
{ACAD_REACTORS
330
7DB
102
}
330
1F
100
AcDbEntity
  8
実線
100
AcDbLine
 10
564.1079951658558
 20
992.2224541631878
 30
0.0
 11
564.1079951658558
 21
808.2846319896793
 31
0.0
  0
LINE
  5
623
102
{ACAD_REACTORS
330
7DB
102
}
330
1F
100
AcDbEntity
  8
実線
100
AcDbLine
 10
662.1079951658556
 20
992.2224541631878
 30
0.0
 11
665.6079951658556
 21
998.2846319896786
 31
0.0
  0
LINE
  5
624
102
{ACAD_REACTORS
330
7DB
102
}
330
1F
100
AcDbEntity
  8
実線
100
AcDbLine
 10
560.6079951658558
 20
998.2846319896786
 30
0.0
 11
564.1079951658558
 21
992.2224541631878
 31
0.0
  0
LINE
  5
625
102
{ACAD_REACTORS
330
7DB
102
}
330
1F
100
AcDbEntity
  8
実線
100
AcDbLine
 10
564.1079951658558
 20
992.2224541631878
 30
0.0
 11
662.1079951658556
 21
992.2224541631878
 31
0.0
  0
LINE
  5
626
102
{ACAD_REACTORS
330
7DB
102
}
330
1F
100
AcDbEntity
  8
実線
100
AcDbLine
 10
665.6079951658556
 20
998.2846319896786
 30
0.0
 11
665.6079951658556
 21
1055.784631989679
 31
0.0
  0
LINE
  5
627
102
{ACAD_REACTORS
330
7DB
102
}
330
1F
100
AcDbEntity
  8
実線
100
AcDbLine
 10
560.6079951658558
 20
1055.784631989679
 30
0.0
 11
560.6079951658558
 21
998.2846319896786
 31
0.0
  0
LINE
  5
628
102
{ACAD_REACTORS
330
7DB
102
}
330
1F
100
AcDbEntity
  8
実線
100
AcDbLine
 10
665.6079951658556
 20
998.2846319896786
 30
0.0
 11
560.6079951658558
 21
998.2846319896786
 31
0.0
  0
LINE
  5
629
102
{ACAD_REACTORS
330
7DB
102
}
330
1F
100
AcDbEntity
  8
実線
100
AcDbLine
 10
578.4597628877145
 20
689.0861471798443
 30
0.0
 11
549.8219382496598
 21
689.0861471798443
 31
0.0
  0
LINE
  5
62A
102
{ACAD_REACTORS
330
7DB
102
}
330
1F
100
AcDbEntity
  8
実線
100
AcDbLine
 10
592.1853993906486
 20
708.4971284744967
 30
0.0
 11
599.4597628877145
 21
718.7846319896793
 31
0.0
  0
LINE
  5
62B
102
{ACAD_REACTORS
330
7DB
102
}
330
1F
100
AcDbEntity
  8
実線
100
AcDbLine
 10
578.4597628877145
 20
689.0861471798443
 30
0.0
 11
583.3060359689605
 21
695.9398122983053
 31
0.0
  0
LINE
  5
62C
102
{ACAD_REACTORS
330
7DB
102
}
330
1F
100
AcDbEntity
  8
実線
100
AcDbLine
 10
528.8219382496598
 20
718.7846319896793
 30
0.0
 11
549.8219382496598
 21
748.4831167995145
 31
0.0
  0
LINE
  5
62D
102
{ACAD_REACTORS
330
7DB
102
}
330
1F
100
AcDbEntity
  8
実線
100
AcDbLine
 10
549.8219382496598
 20
689.0861471798443
 30
0.0
 11
528.8219382496598
 21
718.7846319896793
 31
0.0
  0
LINE
  5
62E
102
{ACAD_REACTORS
330
7DB
102
}
330
1F
100
AcDbEntity
  8
実線
100
AcDbLine
 10
570.8219382496598
 20
718.7846319896793
 30
0.0
 11
549.8219382496598
 21
689.0861471798443
 31
0.0
  0
LINE
  5
62F
102
{ACAD_REACTORS
330
7DB
102
}
330
1F
100
AcDbEntity
  8
実線
100
AcDbLine
 10
578.4597628877145
 20
748.4831167995145
 30
0.0
 11
549.8219382496598
 21
748.4831167995145
 31
0.0
  0
LINE
  5
630
102
{ACAD_REACTORS
330
7DB
102
}
330
1F
100
AcDbEntity
  8
実線
100
AcDbLine
 10
549.8219382496598
 20
748.4831167995145
 30
0.0
 11
570.8219382496598
 21
718.7846319896793
 31
0.0
  0
LINE
  5
631
102
{ACAD_REACTORS
330
7DB
102
}
330
1F
100
AcDbEntity
  8
実線
100
AcDbLine
 10
599.4597628877145
 20
718.7846319896793
 30
0.0
 11
570.8219382496598
 21
718.7846319896793
 31
0.0
  0
ELLIPSE
  5
632
102
{ACAD_REACTORS
330
7DB
102
}
330
1F
100
AcDbEntity
  8
実線
100
AcDbEllipse
 10
549.8219382496598
 20
718.7846319896793
 30
0.0
 11
0.0
 21
2.999999999597037
 31
0.0
210
0.0
220
0.0
230
1.0
 40
0.7071067811865474
 41
4.71238898038469
 42
6.283185307179584
  0
LINE
  5
633
102
{ACAD_REACTORS
330
7DB
102
}
330
1F
100
AcDbEntity
  8
実線
100
AcDbLine
 10
549.8219382496598
 20
721.7846319892764
 30
0.0
 11
542.7508704380253
 21
721.7846319892764
 31
0.0
  0
LINE
  5
634
102
{ACAD_REACTORS
330
7DB
102
}
330
1F
100
AcDbEntity
  8
実線
100
AcDbLine
 10
542.7508704380253
 20
715.7846319900823
 30
0.0
 11
549.8219382496598
 21
715.7846319900823
 31
0.0
  0
ELLIPSE
  5
635
102
{ACAD_REACTORS
330
7DB
102
}
330
1F
100
AcDbEntity
  8
実線
100
AcDbEllipse
 10
549.8219382496598
 20
718.7846319896793
 30
0.0
 11
0.0
 21
2.999999999597037
 31
0.0
210
0.0
220
0.0
230
1.0
 40
0.7071067811865474
 41
3.14159269301456
 42
4.71238898038469
  0
LINE
  5
636
102
{ACAD_REACTORS
330
7DB
102
}
330
1F
100
AcDbEntity
  8
実線
100
AcDbLine
 10
669.6111607579115
 20
773.2846319896793
 30
0.0
 11
556.6048295737998
 21
773.2846319896793
 31
0.0
  0
LINE
  5
637
102
{ACAD_REACTORS
330
7DB
102
}
330
1F
100
AcDbEntity
  8
実線
100
AcDbLine
 10
556.6048295737998
 20
788.2846319896793
 30
0.0
 11
556.6048295737998
 21
773.2846319896793
 31
0.0
  0
LINE
  5
638
102
{ACAD_REACTORS
330
7DB
102
}
330
1F
100
AcDbEntity
  8
実線
100
AcDbLine
 10
669.6111607579115
 20
773.2846319896793
 30
0.0
 11
669.6111607579115
 21
788.2846319896793
 31
0.0
  0
LINE
  5
639
102
{ACAD_REACTORS
330
7DB
102
}
330
1F
100
AcDbEntity
  8
実線
100
AcDbLine
 10
590.7297518787125
 20
788.2846319896793
 30
0.0
 11
590.7297518787125
 21
773.2846319896793
 31
0.0
  0
LINE
  5
63A
102
{ACAD_REACTORS
330
7DB
102
}
330
1F
100
AcDbEntity
  8
実線
100
AcDbLine
 10
635.4862384529987
 20
788.2846319896793
 30
0.0
 11
635.4862384529987
 21
773.2846319896793
 31
0.0
  0
ELLIPSE
  5
63B
102
{ACAD_REACTORS
330
7DB
102
}
330
1F
100
AcDbEntity
  8
実線
100
AcDbEllipse
 10
537.8011229695057
 20
718.7846319896793
 30
0.0
 11
0.0000000000000018
 21
5.0
 31
0.0
210
0.0
220
0.0
230
1.0
 40
0.7071067811865475
 41
0.0
 42
1.570796326794897
  0
ELLIPSE
  5
63C
102
{ACAD_REACTORS
330
7DB
102
}
330
1F
100
AcDbEntity
  8
実線
100
AcDbEllipse
 10
539.9224433130653
 20
718.7846319896793
 30
0.0
 11
0.0
 21
5.0
 31
0.0
210
0.0
220
0.0
230
1.0
 40
0.7071067811865475
 41
4.71238898038469
 42
6.283185307179584
  0
LINE
  5
63D
102
{ACAD_REACTORS
330
7DB
102
}
330
1F
100
AcDbEntity
  8
実線
100
AcDbLine
 10
539.9224433130653
 20
723.7846319896792
 30
0.0
 11
537.8011229695057
 21
723.7846319896792
 31
0.0
  0
LINE
  5
63E
102
{ACAD_REACTORS
330
7DB
102
}
330
1F
100
AcDbEntity
  8
実線
100
AcDbLine
 10
537.8011229695057
 20
713.7846319896793
 30
0.0
 11
539.9224433130653
 21
713.7846319896793
 31
0.0
  0
ELLIPSE
  5
63F
102
{ACAD_REACTORS
330
7DB
102
}
330
1F
100
AcDbEntity
  8
実線
100
AcDbEllipse
 10
537.8011229695057
 20
718.7846319896793
 30
0.0
 11
0.0000000000000018
 21
5.0
 31
0.0
210
0.0
220
0.0
230
1.0
 40
0.7071067811865475
 41
3.141592653589792
 42
6.283185307179584
  0
ELLIPSE
  5
640
102
{ACAD_REACTORS
330
7DB
102
}
330
1F
100
AcDbEntity
  8
実線
100
AcDbEllipse
 10
537.8011229695057
 20
718.7846319896793
 30
0.0
 11
0.0000000000000018
 21
5.0
 31
0.0
210
0.0
220
0.0
230
1.0
 40
0.7071067811865475
 41
1.570796326794897
 42
3.141592653589792
  0
ELLIPSE
  5
641
102
{ACAD_REACTORS
330
7DB
102
}
330
1F
100
AcDbEntity
  8
実線
100
AcDbEllipse
 10
539.9224433130653
 20
718.7846319896793
 30
0.0
 11
0.0
 21
5.0
 31
0.0
210
0.0
220
0.0
230
1.0
 40
0.7071067811865475
 41
3.141592653589792
 42
4.71238898038469
  0
LINE
  5
642
102
{ACAD_REACTORS
330
7DB
102
}
330
1F
100
AcDbEntity
  8
実線
100
AcDbLine
 10
648.4633342251835
 20
731.2846319896793
 30
0.0
 11
638.9788891990234
 21
731.2846319896793
 31
0.0
  0
LINE
  5
643
102
{ACAD_REACTORS
330
7DB
102
}
330
1F
100
AcDbEntity
  8
実線
100
AcDbLine
 10
638.9788891990234
 20
706.2846319896793
 30
0.0
 11
648.4633342251835
 21
706.2846319896793
 31
0.0
  0
ELLIPSE
  5
644
102
{ACAD_REACTORS
330
7DB
102
}
330
1F
100
AcDbEntity
  8
実線
100
AcDbEllipse
 10
648.4633342251835
 20
718.7846319896793
 30
0.0
 11
0.0
 21
12.5
 31
0.0
210
0.0
220
0.0
230
1.0
 40
0.7071067811865476
 41
3.141592653589792
 42
6.283185307179584
  0
ELLIPSE
  5
645
102
{ACAD_REACTORS
330
7DB
102
}
330
1F
100
AcDbEntity
  8
実線
100
AcDbEllipse
 10
648.4633342251835
 20
718.7846319896793
 30
0.0
 11
0.0
 21
12.5
 31
0.0
210
0.0
220
0.0
230
1.0
 40
0.7071067811865476
 41
1.570796326794897
 42
3.141592653589792
  0
ELLIPSE
  5
646
102
{ACAD_REACTORS
330
7DB
102
}
330
1F
100
AcDbEntity
  8
実線
100
AcDbEllipse
 10
648.4633342251835
 20
718.7846319896793
 30
0.0
 11
0.0
 21
12.5
 31
0.0
210
0.0
220
0.0
230
1.0
 40
0.7071067811865476
 41
0.0
 42
1.570796326794897
  0
LINE
  5
647
102
{ACAD_REACTORS
330
7DB
102
}
330
1F
100
AcDbEntity
  8
実線
100
AcDbLine
 10
663.7357692975714
 20
727.8846319896793
 30
0.0
 11
670.1704410063695
 21
718.7846319896793
 31
0.0
  0
LINE
  5
648
102
{ACAD_REACTORS
330
7DB
102
}
330
1F
100
AcDbEntity
  8
実線
100
AcDbLine
 10
578.4597628877145
 20
748.4831167995145
 30
0.0
 11
580.9344907815056
 21
748.4831167995145
 31
0.0
  0
LINE
  5
649
102
{ACAD_REACTORS
330
7DB
102
}
330
1F
100
AcDbEntity
  8
実線
100
AcDbLine
 10
578.4597628877145
 20
689.0861471798443
 30
0.0
 11
580.9344907815056
 21
689.0861471798443
 31
0.0
  0
LINE
  5
64A
102
{ACAD_REACTORS
330
7DB
102
}
330
1F
100
AcDbEntity
  8
実線
100
AcDbLine
 10
654.9178632336105
 20
697.2142296422926
 30
0.0
 11
670.1704410063695
 21
718.7846319896793
 31
0.0
  0
LINE
  5
64B
102
{ACAD_REACTORS
330
7DB
102
}
330
1F
100
AcDbEntity
  8
実線
100
AcDbLine
 10
622.0052748663705
 20
718.7846319896793
 30
0.0
 11
599.4597628877145
 21
718.7846319896793
 31
0.0
  0
LINE
  5
64C
102
{ACAD_REACTORS
330
7DB
102
}
330
1F
100
AcDbEntity
  8
実線
100
AcDbLine
 10
670.1704410063695
 20
718.7846319896793
 30
0.0
 11
657.3021689900145
 21
718.7846319896793
 31
0.0
  0
LINE
  5
64D
102
{ACAD_REACTORS
330
7DB
102
}
330
1F
100
AcDbEntity
  8
実線
100
AcDbLine
 10
599.4597628877145
 20
718.7846319896793
 30
0.0
 11
578.4597628877145
 21
748.4831167995145
 31
0.0
  0
LINE
  5
64E
102
{ACAD_REACTORS
330
7DB
102
}
330
1F
100
AcDbEntity
  8
実線
100
AcDbLine
 10
689.8079951658554
 20
778.6846319896794
 30
0.0
 11
669.6111607579115
 21
778.6846319896794
 31
0.0
  0
LINE
  5
64F
102
{ACAD_REACTORS
330
7DB
102
}
330
1F
100
AcDbEntity
  8
実線
100
AcDbLine
 10
654.5230371882004
 20
727.8846319896793
 30
0.0
 11
689.8079951658554
 21
727.8846319896793
 31
0.0
  0
LINE
  5
650
102
{ACAD_REACTORS
330
7DB
102
}
330
1F
100
AcDbEntity
  8
実線
100
AcDbLine
 10
695.1079951658556
 20
785.2846319896793
 30
0.0
 11
692.2079951658555
 21
785.2846319896793
 31
0.0
  0
LINE
  5
651
102
{ACAD_REACTORS
330
7DB
102
}
330
1F
100
AcDbEntity
  8
実線
100
AcDbLine
 10
692.2079951658555
 20
721.2846319896792
 30
0.0
 11
695.1079951658556
 21
721.2846319896792
 31
0.0
  0
LINE
  5
652
102
{ACAD_REACTORS
330
7DB
102
}
330
1F
100
AcDbEntity
  8
実線
100
AcDbLine
 10
695.1079951658556
 20
785.2846319896793
 30
0.0
 11
695.1079951658556
 21
721.2846319896792
 31
0.0
  0
LINE
  5
653
102
{ACAD_REACTORS
330
7DB
102
}
330
1F
100
AcDbEntity
  8
実線
100
AcDbLine
 10
689.8079951658554
 20
727.8846319896794
 30
0.0
 11
692.2079951658555
 21
721.2846319896792
 31
0.0
  0
LINE
  5
654
102
{ACAD_REACTORS
330
7DB
102
}
330
1F
100
AcDbEntity
  8
実線
100
AcDbLine
 10
692.2079951658555
 20
785.2846319896793
 30
0.0
 11
689.8079951658554
 21
778.6846319896792
 31
0.0
  0
LINE
  5
655
102
{ACAD_REACTORS
330
7DB
102
}
330
1F
100
AcDbEntity
  8
実線
100
AcDbLine
 10
692.2079951658555
 20
721.2846319896792
 30
0.0
 11
692.2079951658555
 21
785.2846319896793
 31
0.0
  0
LINE
  5
656
102
{ACAD_REACTORS
330
7DB
102
}
330
1F
100
AcDbEntity
  8
実線
100
AcDbLine
 10
689.8079951658554
 20
727.8846319896794
 30
0.0
 11
689.8079951658554
 21
778.6846319896794
 31
0.0
  0
LINE
  5
657
102
{ACAD_REACTORS
330
7DB
102
}
330
1F
100
AcDbEntity
  8
実線
100
AcDbLine
 10
556.6048295737998
 20
778.6846319896792
 30
0.0
 11
536.4079951658558
 21
778.6846319896792
 31
0.0
  0
LINE
  5
658
102
{ACAD_REACTORS
330
7DB
102
}
330
1F
100
AcDbEntity
  8
実線
100
AcDbLine
 10
531.107995165856
 20
785.2846319896793
 30
0.0
 11
531.107995165856
 21
722.0176046849204
 31
0.0
  0
LINE
  5
659
102
{ACAD_REACTORS
330
7DB
102
}
330
1F
100
AcDbEntity
  8
実線
100
AcDbLine
 10
534.0079951658558
 20
785.2846319896793
 30
0.0
 11
531.107995165856
 21
785.2846319896793
 31
0.0
  0
LINE
  5
65A
102
{ACAD_REACTORS
330
7DB
102
}
330
1F
100
AcDbEntity
  8
実線
100
AcDbLine
 10
534.0079951658558
 20
785.2846319896793
 30
0.0
 11
534.0079951658558
 21
726.1188240158027
 31
0.0
  0
LINE
  5
65B
102
{ACAD_REACTORS
330
7DB
102
}
330
1F
100
AcDbEntity
  8
実線
100
AcDbLine
 10
536.4079951658558
 20
778.6846319896792
 30
0.0
 11
536.4079951658558
 21
729.5129365654981
 31
0.0
  0
LINE
  5
65C
102
{ACAD_REACTORS
330
7DB
102
}
330
1F
100
AcDbEntity
  8
実線
100
AcDbLine
 10
536.4079951658558
 20
778.6846319896792
 30
0.0
 11
534.0079951658558
 21
785.2846319896793
 31
0.0
  0
LINE
  5
65D
102
{ACAD_REACTORS
330
7DB
102
}
330
1F
100
AcDbEntity
  8
実線
100
AcDbLine
 10
556.6048295737998
 20
664.2846319896793
 30
0.0
 11
588.1280031722616
 21
664.2846319896793
 31
0.0
  0
LINE
  5
65E
102
{ACAD_REACTORS
330
7DB
102
}
330
1F
100
AcDbEntity
  8
実線
100
AcDbLine
 10
556.6048295737998
 20
664.2846319896793
 30
0.0
 11
556.6048295737998
 21
649.2846319896793
 31
0.0
  0
LINE
  5
65F
102
{ACAD_REACTORS
330
7DB
102
}
330
1F
100
AcDbEntity
  8
実線
100
AcDbLine
 10
669.6111607579115
 20
649.2846319896793
 30
0.0
 11
669.6111607579115
 21
664.2846319896793
 31
0.0
  0
LINE
  5
660
102
{ACAD_REACTORS
330
7DB
102
}
330
1F
100
AcDbEntity
  8
実線
100
AcDbLine
 10
669.6111607579115
 20
664.2846319896793
 30
0.0
 11
638.0879871594496
 21
664.2846319896793
 31
0.0
  0
LINE
  5
661
102
{ACAD_REACTORS
330
7DB
102
}
330
1F
100
AcDbEntity
  8
実線
100
AcDbLine
 10
635.4862384529987
 20
649.2846319896793
 30
0.0
 11
635.4862384529987
 21
661.4107554624829
 31
0.0
  0
LINE
  5
662
102
{ACAD_REACTORS
330
7DB
102
}
330
1F
100
AcDbEntity
  8
実線
100
AcDbLine
 10
590.7297518787125
 20
649.2846319896793
 30
0.0
 11
590.7297518787125
 21
661.4107554624829
 31
0.0
  0
LINE
  5
663
102
{ACAD_REACTORS
330
7DB
102
}
330
1F
100
AcDbEntity
  8
実線
100
AcDbLine
 10
629.9826786478775
 20
727.2846319896855
 30
0.0
 11
609.0505940745335
 21
727.2846319896855
 31
0.0
  0
CIRCLE
  5
664
102
{ACAD_REACTORS
330
7DB
102
}
330
1F
100
AcDbEntity
  8
実線
100
AcDbCircle
 10
613.1079951658556
 20
684.2846319896793
 30
0.0
 40
32.0
  0
LINE
  5
665
102
{ACAD_REACTORS
330
7DB
102
}
330
1F
100
AcDbEntity
  8
実線
100
AcDbLine
 10
660.6079951644466
 20
376.7846319896794
 30
0.0
 11
565.6079951658559
 21
376.7846319896794
 31
0.0
  0
ARC
  5
666
102
{ACAD_REACTORS
330
7DB
102
}
330
1F
100
AcDbEntity
  8
実線
100
AcDbCircle
 10
565.6079951658559
 20
381.7846319896794
 30
0.0
 40
5.0
100
AcDbArc
 50
180.0
 51
270.0
  0
ARC
  5
667
102
{ACAD_REACTORS
330
7DB
102
}
330
1F
100
AcDbEntity
  8
実線
100
AcDbCircle
 10
660.6079951658556
 20
381.7846319896794
 30
0.0
 40
5.0
100
AcDbArc
 50
270.0
 51
0.0
  0
LINE
  5
668
102
{ACAD_REACTORS
330
7DB
102
}
330
1F
100
AcDbEntity
  8
実線
100
AcDbLine
 10
654.3374685853535
 20
698.2435788286743
 30
0.0
 11
649.6316425069216
 21
706.3943086881007
 31
0.0
  0
ARC
  5
669
102
{ACAD_REACTORS
330
7DB
102
}
330
1F
100
AcDbEntity
  8
実線
100
AcDbCircle
 10
604.1079951658556
 20
669.2435788286741
 30
0.0
 40
58.0
100
AcDbArc
 50
0.0
 51
30.00000000000055
  0
ARC
  5
66A
102
{ACAD_REACTORS
330
7DB
102
}
330
1F
100
AcDbEntity
  8
実線
100
AcDbCircle
 10
622.1079951658556
 20
669.2435788286741
 30
0.0
 40
58.0
100
AcDbArc
 50
159.9943230706051
 51
180.0
  0
LINE
  5
66B
102
{ACAD_REACTORS
330
7DB
102
}
330
1F
100
AcDbEntity
  8
実線
100
AcDbLine
 10
564.1079951658558
 20
669.2435788286741
 30
0.0
 11
564.1079951658558
 21
664.2846319896793
 31
0.0
  0
LINE
  5
66C
102
{ACAD_REACTORS
330
7DB
102
}
330
1F
100
AcDbEntity
  8
実線
100
AcDbLine
 10
662.1079951658556
 20
664.2846319896793
 30
0.0
 11
662.1079951658556
 21
669.2435788286741
 31
0.0
  0
LINE
  5
66D
102
{ACAD_REACTORS
330
7DB
102
}
330
1F
100
AcDbEntity
  8
実線
100
AcDbLine
 10
556.6048295737998
 20
649.2846319896793
 30
0.0
 11
669.6111607579115
 21
649.2846319896793
 31
0.0
  0
LINE
  5
66E
102
{ACAD_REACTORS
330
7DB
102
}
330
1F
100
AcDbEntity
  8
実線
100
AcDbLine
 10
662.1079951658556
 20
629.2846319896792
 30
0.0
 11
662.1079951658556
 21
634.2846319896793
 31
0.0
  0
LINE
  5
66F
102
{ACAD_REACTORS
330
7DB
102
}
330
1F
100
AcDbEntity
  8
実線
100
AcDbLine
 10
564.1079951658558
 20
634.2846319896793
 30
0.0
 11
564.1079951658558
 21
629.2846319896792
 31
0.0
  0
LINE
  5
670
102
{ACAD_REACTORS
330
7DB
102
}
330
1F
100
AcDbEntity
  8
実線
100
AcDbLine
 10
564.1079951658558
 20
629.2846319896792
 30
0.0
 11
662.1079951658556
 21
629.2846319896792
 31
0.0
  0
LINE
  5
671
102
{ACAD_REACTORS
330
7DB
102
}
330
1F
100
AcDbEntity
  8
実線
100
AcDbLine
 10
669.6111607579115
 20
634.2846319896793
 30
0.0
 11
669.6111607579115
 21
649.2846319896793
 31
0.0
  0
LINE
  5
672
102
{ACAD_REACTORS
330
7DB
102
}
330
1F
100
AcDbEntity
  8
実線
100
AcDbLine
 10
669.6111607579115
 20
634.2846319896793
 30
0.0
 11
635.4862384529987
 21
634.2846319896793
 31
0.0
  0
LINE
  5
673
102
{ACAD_REACTORS
330
7DB
102
}
330
1F
100
AcDbEntity
  8
実線
100
AcDbLine
 10
556.6048295737998
 20
634.2846319896793
 30
0.0
 11
590.7297518787125
 21
634.2846319896793
 31
0.0
  0
LINE
  5
674
102
{ACAD_REACTORS
330
7DB
102
}
330
1F
100
AcDbEntity
  8
実線
100
AcDbLine
 10
556.6048295737998
 20
649.2846319896793
 30
0.0
 11
556.6048295737998
 21
634.2846319896793
 31
0.0
  0
LINE
  5
675
102
{ACAD_REACTORS
330
7DB
102
}
330
1F
100
AcDbEntity
  8
実線
100
AcDbLine
 10
635.4862384529987
 20
634.2846319896793
 30
0.0
 11
635.4862384529987
 21
649.2846319896793
 31
0.0
  0
LINE
  5
676
102
{ACAD_REACTORS
330
7DB
102
}
330
1F
100
AcDbEntity
  8
実線
100
AcDbLine
 10
590.7297518787125
 20
634.2846319896793
 30
0.0
 11
590.7297518787125
 21
649.2846319896793
 31
0.0
  0
LINE
  5
677
102
{ACAD_REACTORS
330
7DB
102
}
330
1F
100
AcDbEntity
  8
実線
100
AcDbLine
 10
556.6048295737998
 20
788.2846319896793
 30
0.0
 11
669.6111607579115
 21
788.2846319896793
 31
0.0
  0
LINE
  5
678
102
{ACAD_REACTORS
330
7DB
102
}
330
1F
100
AcDbEntity
  8
実線
100
AcDbLine
 10
564.1079951658558
 20
808.2846319896793
 30
0.0
 11
564.1079951658558
 21
803.2846319896792
 31
0.0
  0
LINE
  5
679
102
{ACAD_REACTORS
330
7DB
102
}
330
1F
100
AcDbEntity
  8
実線
100
AcDbLine
 10
662.1079951658556
 20
803.2846319896792
 30
0.0
 11
662.1079951658556
 21
808.2846319896793
 31
0.0
  0
LINE
  5
67A
102
{ACAD_REACTORS
330
7DB
102
}
330
1F
100
AcDbEntity
  8
実線
100
AcDbLine
 10
662.1079951658556
 20
808.2846319896793
 30
0.0
 11
564.1079951658558
 21
808.2846319896793
 31
0.0
  0
LINE
  5
67B
102
{ACAD_REACTORS
330
7DB
102
}
330
1F
100
AcDbEntity
  8
実線
100
AcDbLine
 10
669.6111607579115
 20
803.2846319896792
 30
0.0
 11
635.4862384529987
 21
803.2846319896792
 31
0.0
  0
LINE
  5
67C
102
{ACAD_REACTORS
330
7DB
102
}
330
1F
100
AcDbEntity
  8
実線
100
AcDbLine
 10
669.6111607579115
 20
788.2846319896793
 30
0.0
 11
669.6111607579115
 21
803.2846319896792
 31
0.0
  0
LINE
  5
67D
102
{ACAD_REACTORS
330
7DB
102
}
330
1F
100
AcDbEntity
  8
実線
100
AcDbLine
 10
556.6048295737998
 20
803.2846319896792
 30
0.0
 11
556.6048295737998
 21
788.2846319896793
 31
0.0
  0
LINE
  5
67E
102
{ACAD_REACTORS
330
7DB
102
}
330
1F
100
AcDbEntity
  8
実線
100
AcDbLine
 10
556.6048295737998
 20
803.2846319896792
 30
0.0
 11
590.7297518787125
 21
803.2846319896792
 31
0.0
  0
LINE
  5
67F
102
{ACAD_REACTORS
330
7DB
102
}
330
1F
100
AcDbEntity
  8
実線
100
AcDbLine
 10
590.7297518787125
 20
803.2846319896792
 30
0.0
 11
590.7297518787125
 21
788.2846319896793
 31
0.0
  0
LINE
  5
680
102
{ACAD_REACTORS
330
7DB
102
}
330
1F
100
AcDbEntity
  8
実線
100
AcDbLine
 10
635.4862384529987
 20
803.2846319896792
 30
0.0
 11
635.4862384529987
 21
788.2846319896793
 31
0.0
  0
LINE
  5
681
102
{ACAD_REACTORS
330
7DB
102
}
330
1F
100
AcDbEntity
  8
実線
100
AcDbLine
 10
565.6079951672645
 20
1060.784631989678
 30
0.0
 11
660.6079951658556
 21
1060.784631989678
 31
0.0
  0
ARC
  5
682
102
{ACAD_REACTORS
330
7DB
102
}
330
1F
100
AcDbEntity
  8
実線
100
AcDbCircle
 10
660.6079951658556
 20
1055.784631989679
 30
0.0
 40
5.0
100
AcDbArc
 50
0.0
 51
90.0
  0
ARC
  5
683
102
{ACAD_REACTORS
330
7DB
102
}
330
1F
100
AcDbEntity
  8
実線
100
AcDbCircle
 10
565.6079951658559
 20
1055.784631989679
 30
0.0
 40
5.0
100
AcDbArc
 50
90.0
 51
180.0
  0
LINE
  5
684
102
{ACAD_REACTORS
330
7DB
102
}
330
1F
100
AcDbEntity
  8
実線
100
AcDbLine
 10
665.6079951658556
 20
1055.784631989679
 30
0.0
 11
560.6079951658558
 21
1055.784631989679
 31
0.0
  0
LINE
  5
685
102
{ACAD_REACTORS
330
7D9
102
}
330
1F
100
AcDbEntity
  8
実線
100
AcDbLine
 10
122.1079951658553
 20
376.7846319896794
 30
0.0
 11
122.1079951658553
 21
346.5846319896794
 31
0.0
  0
LINE
  5
686
102
{ACAD_REACTORS
330
7D9
102
}
330
1F
100
AcDbEntity
  8
実線
100
AcDbLine
 10
144.1079951658554
 20
346.5846319896794
 30
0.0
 11
144.1079951658554
 21
376.7846319896794
 31
0.0
  0
LINE
  5
687
102
{ACAD_REACTORS
330
7D9
102
}
330
1F
100
AcDbEntity
  8
実線
100
AcDbLine
 10
122.1079951658553
 20
346.5846319896794
 30
0.0
 11
144.1079951658554
 21
346.5846319896794
 31
0.0
  0
LINE
  5
688
102
{ACAD_REACTORS
330
7D9
102
}
330
1F
100
AcDbEntity
  8
実線
100
AcDbLine
 10
144.1079951658555
 20
1060.784631989678
 30
0.0
 11
144.1079951658555
 21
1090.984631989678
 31
0.0
  0
LINE
  5
689
102
{ACAD_REACTORS
330
7D9
102
}
330
1F
100
AcDbEntity
  8
実線
100
AcDbLine
 10
122.1079951658555
 20
1090.984631989678
 30
0.0
 11
122.1079951658555
 21
1060.784631989678
 31
0.0
  0
LINE
  5
68A
102
{ACAD_REACTORS
330
7D9
102
}
330
1F
100
AcDbEntity
  8
実線
100
AcDbLine
 10
144.1079951658555
 20
1090.984631989678
 30
0.0
 11
122.1079951658555
 21
1090.984631989678
 31
0.0
  0
LINE
  5
68B
102
{ACAD_REACTORS
330
7D9
102
}
330
1F
100
AcDbEntity
  8
実線
100
AcDbLine
 10
84.10799516585541
 20
629.2846319896792
 30
0.0
 11
84.10799516585541
 21
445.3468098161704
 31
0.0
  0
LINE
  5
68C
102
{ACAD_REACTORS
330
7D9
102
}
330
1F
100
AcDbEntity
  8
実線
100
AcDbLine
 10
182.1079951658552
 20
445.3468098161704
 30
0.0
 11
182.1079951658552
 21
629.2846319896792
 31
0.0
  0
LINE
  5
68D
102
{ACAD_REACTORS
330
7D9
102
}
330
1F
100
AcDbEntity
  8
実線
100
AcDbLine
 10
182.1079951658552
 20
445.3468098161704
 30
0.0
 11
84.10799516585541
 21
445.3468098161704
 31
0.0
  0
LINE
  5
68E
102
{ACAD_REACTORS
330
7D9
102
}
330
1F
100
AcDbEntity
  8
実線
100
AcDbLine
 10
84.10799516585541
 20
445.3468098161704
 30
0.0
 11
80.60799516585531
 21
439.2846319896793
 31
0.0
  0
LINE
  5
68F
102
{ACAD_REACTORS
330
7D9
102
}
330
1F
100
AcDbEntity
  8
実線
100
AcDbLine
 10
185.6079951658552
 20
439.2846319896793
 30
0.0
 11
182.1079951658552
 21
445.3468098161704
 31
0.0
  0
LINE
  5
690
102
{ACAD_REACTORS
330
7D9
102
}
330
1F
100
AcDbEntity
  8
実線
100
AcDbLine
 10
185.6079951658552
 20
381.7846319896794
 30
0.0
 11
80.60799516585531
 21
381.7846319896794
 31
0.0
  0
LINE
  5
691
102
{ACAD_REACTORS
330
7D9
102
}
330
1F
100
AcDbEntity
  8
実線
100
AcDbLine
 10
185.6079951658552
 20
439.2846319896793
 30
0.0
 11
80.60799516585531
 21
439.2846319896793
 31
0.0
  0
LINE
  5
692
102
{ACAD_REACTORS
330
7D9
102
}
330
1F
100
AcDbEntity
  8
実線
100
AcDbLine
 10
80.60799516585531
 20
439.2846319896793
 30
0.0
 11
80.60799516585531
 21
381.7846319896794
 31
0.0
  0
LINE
  5
693
102
{ACAD_REACTORS
330
7D9
102
}
330
1F
100
AcDbEntity
  8
実線
100
AcDbLine
 10
185.6079951658552
 20
381.7846319896794
 30
0.0
 11
185.6079951658552
 21
439.2846319896793
 31
0.0
  0
LINE
  5
694
102
{ACAD_REACTORS
330
7D9
102
}
330
1F
100
AcDbEntity
  8
実線
100
AcDbLine
 10
182.1079951658555
 20
808.2846319896793
 30
0.0
 11
182.1079951658555
 21
992.2224541631878
 31
0.0
  0
LINE
  5
695
102
{ACAD_REACTORS
330
7D9
102
}
330
1F
100
AcDbEntity
  8
実線
100
AcDbLine
 10
84.10799516585553
 20
992.2224541631878
 30
0.0
 11
84.10799516585553
 21
808.2846319896793
 31
0.0
  0
LINE
  5
696
102
{ACAD_REACTORS
330
7D9
102
}
330
1F
100
AcDbEntity
  8
実線
100
AcDbLine
 10
84.10799516585553
 20
992.2224541631878
 30
0.0
 11
182.1079951658555
 21
992.2224541631878
 31
0.0
  0
LINE
  5
697
102
{ACAD_REACTORS
330
7D9
102
}
330
1F
100
AcDbEntity
  8
実線
100
AcDbLine
 10
182.1079951658555
 20
992.2224541631878
 30
0.0
 11
185.6079951658555
 21
998.2846319896786
 31
0.0
  0
LINE
  5
698
102
{ACAD_REACTORS
330
7D9
102
}
330
1F
100
AcDbEntity
  8
実線
100
AcDbLine
 10
80.60799516585552
 20
998.2846319896786
 30
0.0
 11
84.10799516585553
 21
992.2224541631878
 31
0.0
  0
LINE
  5
699
102
{ACAD_REACTORS
330
7D9
102
}
330
1F
100
AcDbEntity
  8
実線
100
AcDbLine
 10
80.60799516585552
 20
998.2846319896786
 30
0.0
 11
185.6079951658555
 21
998.2846319896786
 31
0.0
  0
LINE
  5
69A
102
{ACAD_REACTORS
330
7D9
102
}
330
1F
100
AcDbEntity
  8
実線
100
AcDbLine
 10
185.6079951658555
 20
998.2846319896786
 30
0.0
 11
185.6079951658555
 21
1055.784631989679
 31
0.0
  0
LINE
  5
69B
102
{ACAD_REACTORS
330
7D9
102
}
330
1F
100
AcDbEntity
  8
実線
100
AcDbLine
 10
80.60799516585552
 20
1055.784631989679
 30
0.0
 11
80.60799516585552
 21
998.2846319896786
 31
0.0
  0
LINE
  5
69C
102
{ACAD_REACTORS
330
7D9
102
}
330
1F
100
AcDbEntity
  8
実線
100
AcDbLine
 10
217.3940520820513
 20
718.7846319896793
 30
0.0
 11
215.1079951658554
 21
722.0176046849204
 31
0.0
  0
LINE
  5
69D
102
{ACAD_REACTORS
330
7D9
102
}
330
1F
100
AcDbEntity
  8
実線
100
AcDbLine
 10
178.6082014152738
 20
689.0861471798443
 30
0.0
 11
196.3940520820515
 21
689.0861471798443
 31
0.0
  0
LINE
  5
69E
102
{ACAD_REACTORS
330
7D9
102
}
330
1F
100
AcDbEntity
  8
実線
100
AcDbLine
 10
196.3940520820513
 20
689.0861471798443
 30
0.0
 11
217.3940520820513
 21
718.7846319896793
 31
0.0
  0
LINE
  5
69F
102
{ACAD_REACTORS
330
7D9
102
}
330
1F
100
AcDbEntity
  8
実線
100
AcDbLine
 10
190.3836444419658
 20
718.7846319896793
 30
0.0
 11
217.3940520820513
 21
718.7846319896793
 31
0.0
  0
LINE
  5
6A0
102
{ACAD_REACTORS
330
7D9
102
}
330
1F
100
AcDbEntity
  8
実線
100
AcDbLine
 10
176.7358854042236
 20
701.7853012526693
 30
0.0
 11
174.2898410458633
 21
698.32607214691
 31
0.0
  0
LINE
  5
6A1
102
{ACAD_REACTORS
330
7D9
102
}
330
1F
100
AcDbEntity
  8
実線
100
AcDbLine
 10
76.60482957379958
 20
773.2846319896793
 30
0.0
 11
189.6111607579113
 21
773.2846319896793
 31
0.0
  0
LINE
  5
6A2
102
{ACAD_REACTORS
330
7D9
102
}
330
1F
100
AcDbEntity
  8
実線
100
AcDbLine
 10
76.60482957379958
 20
788.2846319896793
 30
0.0
 11
189.6111607579113
 21
788.2846319896793
 31
0.0
  0
LINE
  5
6A3
102
{ACAD_REACTORS
330
7D9
102
}
330
1F
100
AcDbEntity
  8
実線
100
AcDbLine
 10
189.6111607579113
 20
773.2846319896793
 30
0.0
 11
189.6111607579113
 21
788.2846319896793
 31
0.0
  0
LINE
  5
6A4
102
{ACAD_REACTORS
330
7D9
102
}
330
1F
100
AcDbEntity
  8
実線
100
AcDbLine
 10
76.60482957379952
 20
788.2846319896793
 30
0.0
 11
76.60482957379952
 21
773.2846319896793
 31
0.0
  0
LINE
  5
6A5
102
{ACAD_REACTORS
330
7D9
102
}
330
1F
100
AcDbEntity
  8
実線
100
AcDbLine
 10
110.7297518787123
 20
788.2846319896793
 30
0.0
 11
110.7297518787123
 21
773.2846319896793
 31
0.0
  0
LINE
  5
6A6
102
{ACAD_REACTORS
330
7D9
102
}
330
1F
100
AcDbEntity
  8
実線
100
AcDbLine
 10
155.4862384529984
 20
788.2846319896793
 30
0.0
 11
155.4862384529984
 21
773.2846319896793
 31
0.0
  0
ELLIPSE
  5
6A7
102
{ACAD_REACTORS
330
7D9
102
}
330
1F
100
AcDbEntity
  8
実線
100
AcDbEllipse
 10
167.7562274439962
 20
718.7846319896793
 30
0.0
 11
0.0
 21
10.85000000000002
 31
0.0
210
0.0
220
0.0
230
1.0
 40
0.7071067811865475
 41
0.0220749876175274
 42
3.119517665972233
  0
ELLIPSE
  5
6A8
102
{ACAD_REACTORS
330
7D9
102
}
330
1F
100
AcDbEntity
  8
実線
100
AcDbEllipse
 10
178.3628291617945
 20
718.7846319896793
 30
0.0
 11
0.0
 21
17.0
 31
0.0
210
0.0
220
0.0
230
1.0
 40
0.7071067811865475
 41
0.0
 42
3.141592653589792
  0
ELLIPSE
  5
6A9
102
{ACAD_REACTORS
330
7D9
102
}
330
1F
100
AcDbEntity
  8
実線
100
AcDbEllipse
 10
176.8425495822434
 20
718.7846319896793
 30
0.0
 11
0.0
 21
17.0
 31
0.0
210
0.0
220
0.0
230
1.0
 40
0.7071067811865475
 41
0.0
 42
3.141592653589792
  0
LINE
  5
6AA
102
{ACAD_REACTORS
330
7D9
102
}
330
1F
100
AcDbEntity
  8
実線
100
AcDbLine
 10
178.3628291617945
 20
735.7846319896793
 30
0.0
 11
176.8425495822434
 21
735.7846319896793
 31
0.0
  0
LINE
  5
6AB
102
{ACAD_REACTORS
330
7D9
102
}
330
1F
100
AcDbEntity
  8
実線
100
AcDbLine
 10
176.8425495822434
 20
701.7846319896793
 30
0.0
 11
178.3628291617944
 21
701.7846319896793
 31
0.0
  0
ELLIPSE
  5
6AC
102
{ACAD_REACTORS
330
7D9
102
}
330
1F
100
AcDbEntity
  8
実線
100
AcDbEllipse
 10
178.3628291617945
 20
718.7846319896793
 30
0.0
 11
0.0
 21
17.0
 31
0.0
210
0.0
220
0.0
230
1.0
 40
0.7071067811865475
 41
3.141592653589792
 42
6.283185307179584
  0
LINE
  5
6AD
102
{ACAD_REACTORS
330
7D9
102
}
330
1F
100
AcDbEntity
  8
実線
100
AcDbLine
 10
158.9788891990231
 20
706.2846319896793
 30
0.0
 11
167.7562274439962
 21
706.2846319896793
 31
0.0
  0
LINE
  5
6AE
102
{ACAD_REACTORS
330
7D9
102
}
330
1F
100
AcDbEntity
  8
実線
100
AcDbLine
 10
167.7562274439962
 20
731.2846319896793
 30
0.0
 11
158.9788891990231
 21
731.2846319896793
 31
0.0
  0
ELLIPSE
  5
6AF
102
{ACAD_REACTORS
330
7D9
102
}
330
1F
100
AcDbEntity
  8
実線
100
AcDbEllipse
 10
167.7562274439962
 20
718.7846319896793
 30
0.0
 11
0.0
 21
12.5
 31
0.0
210
0.0
220
0.0
230
1.0
 40
0.7071067811865476
 41
3.141592653589792
 42
3.242534414249457
  0
ELLIPSE
  5
6B0
102
{ACAD_REACTORS
330
7D9
102
}
330
1F
100
AcDbEntity
  8
実線
100
AcDbEllipse
 10
167.7562274439962
 20
718.7846319896793
 30
0.0
 11
0.0
 21
12.5
 31
0.0
210
0.0
220
0.0
230
1.0
 40
0.7071067811865476
 41
6.18224354651995
 42
6.283185307179584
  0
ELLIPSE
  5
6B1
102
{ACAD_REACTORS
330
7D9
102
}
330
1F
100
AcDbEntity
  8
実線
100
AcDbEllipse
 10
167.7562274439962
 20
718.7846319896793
 30
0.0
 11
0.0
 21
12.5
 31
0.0
210
0.0
220
0.0
230
1.0
 40
0.7071067811865476
 41
1.570796326794897
 42
3.141592653589792
  0
ELLIPSE
  5
6B2
102
{ACAD_REACTORS
330
7D9
102
}
330
1F
100
AcDbEntity
  8
実線
100
AcDbEllipse
 10
167.7562274439962
 20
718.7846319896793
 30
0.0
 11
0.0
 21
12.5
 31
0.0
210
0.0
220
0.0
230
1.0
 40
0.7071067811865476
 41
0.0
 42
1.570796326794897
  0
LINE
  5
6B3
102
{ACAD_REACTORS
330
7D9
102
}
330
1F
100
AcDbEntity
  8
実線
100
AcDbLine
 10
97.04554932534149
 20
748.4831167995145
 30
0.0
 11
76.04554932534148
 21
718.7846319896793
 31
0.0
  0
LINE
  5
6B4
102
{ACAD_REACTORS
330
7D9
102
}
330
1F
100
AcDbEntity
  8
実線
100
AcDbLine
 10
97.04554932534149
 20
689.0861471798443
 30
0.0
 11
76.04554932534148
 21
718.7846319896793
 31
0.0
  0
LINE
  5
6B5
102
{ACAD_REACTORS
330
7D9
102
}
330
1F
100
AcDbEntity
  8
実線
100
AcDbLine
 10
100.934490781505
 20
748.4831167995145
 30
0.0
 11
97.04554932534149
 21
748.4831167995145
 31
0.0
  0
LINE
  5
6B6
102
{ACAD_REACTORS
330
7D9
102
}
330
1F
100
AcDbEntity
  8
実線
100
AcDbLine
 10
118.0455493253415
 20
718.7846319896793
 30
0.0
 11
97.04554932534149
 21
748.4831167995145
 31
0.0
  0
LINE
  5
6B7
102
{ACAD_REACTORS
330
7D9
102
}
330
1F
100
AcDbEntity
  8
実線
100
AcDbLine
 10
100.934490781505
 20
689.0861471798443
 30
0.0
 11
97.04554932534149
 21
689.0861471798443
 31
0.0
  0
LINE
  5
6B8
102
{ACAD_REACTORS
330
7D9
102
}
330
1F
100
AcDbEntity
  8
実線
100
AcDbLine
 10
118.0455493253415
 20
718.7846319896793
 30
0.0
 11
142.0052748663706
 21
718.7846319896793
 31
0.0
  0
LINE
  5
6B9
102
{ACAD_REACTORS
330
7D9
102
}
330
1F
100
AcDbEntity
  8
実線
100
AcDbLine
 10
97.04554932534149
 20
689.0861471798443
 30
0.0
 11
118.0455493253415
 21
718.7846319896793
 31
0.0
  0
LINE
  5
6BA
102
{ACAD_REACTORS
330
7D9
102
}
330
1F
100
AcDbEntity
  8
実線
100
AcDbLine
 10
56.40799516585537
 20
727.8846319896793
 30
0.0
 11
82.480221034139
 21
727.8846319896793
 31
0.0
  0
LINE
  5
6BB
102
{ACAD_REACTORS
330
7D9
102
}
330
1F
100
AcDbEntity
  8
実線
100
AcDbLine
 10
76.60482957379952
 20
778.6846319896794
 30
0.0
 11
56.40799516585537
 21
778.6846319896794
 31
0.0
  0
LINE
  5
6BC
102
{ACAD_REACTORS
330
7D9
102
}
330
1F
100
AcDbEntity
  8
実線
100
AcDbLine
 10
56.40799516585537
 20
778.6846319896792
 30
0.0
 11
56.40799516585537
 21
727.8846319896793
 31
0.0
  0
LINE
  5
6BD
102
{ACAD_REACTORS
330
7D9
102
}
330
1F
100
AcDbEntity
  8
実線
100
AcDbLine
 10
56.40799516585537
 20
778.6846319896792
 30
0.0
 11
54.00799516585539
 21
785.2846319896793
 31
0.0
  0
LINE
  5
6BE
102
{ACAD_REACTORS
330
7D9
102
}
330
1F
100
AcDbEntity
  8
実線
100
AcDbLine
 10
54.00799516585539
 20
721.2846319896792
 30
0.0
 11
56.40799516585537
 21
727.8846319896794
 31
0.0
  0
LINE
  5
6BF
102
{ACAD_REACTORS
330
7D9
102
}
330
1F
100
AcDbEntity
  8
実線
100
AcDbLine
 10
51.10799516585541
 20
785.2846319896793
 30
0.0
 11
51.10799516585541
 21
721.2846319896792
 31
0.0
  0
LINE
  5
6C0
102
{ACAD_REACTORS
330
7D9
102
}
330
1F
100
AcDbEntity
  8
実線
100
AcDbLine
 10
54.00799516585539
 20
785.2846319896793
 30
0.0
 11
54.00799516585539
 21
721.2846319896792
 31
0.0
  0
LINE
  5
6C1
102
{ACAD_REACTORS
330
7D9
102
}
330
1F
100
AcDbEntity
  8
実線
100
AcDbLine
 10
51.10799516585541
 20
721.2846319896792
 30
0.0
 11
54.00799516585539
 21
721.2846319896792
 31
0.0
  0
LINE
  5
6C2
102
{ACAD_REACTORS
330
7D9
102
}
330
1F
100
AcDbEntity
  8
実線
100
AcDbLine
 10
54.00799516585539
 20
785.2846319896793
 30
0.0
 11
51.10799516585541
 21
785.2846319896793
 31
0.0
  0
LINE
  5
6C3
102
{ACAD_REACTORS
330
7D9
102
}
330
1F
100
AcDbEntity
  8
実線
100
AcDbLine
 10
209.8079951658553
 20
778.6846319896794
 30
0.0
 11
189.6111607579113
 21
778.6846319896794
 31
0.0
  0
LINE
  5
6C4
102
{ACAD_REACTORS
330
7D9
102
}
330
1F
100
AcDbEntity
  8
実線
100
AcDbLine
 10
188.5163999622567
 20
727.8846319896793
 30
0.0
 11
209.8079951658553
 21
727.8846319896793
 31
0.0
  0
LINE
  5
6C5
102
{ACAD_REACTORS
330
7D9
102
}
330
1F
100
AcDbEntity
  8
実線
100
AcDbLine
 10
215.1079951658554
 20
785.2846319896793
 30
0.0
 11
212.2079951658554
 21
785.2846319896793
 31
0.0
  0
LINE
  5
6C6
102
{ACAD_REACTORS
330
7D9
102
}
330
1F
100
AcDbEntity
  8
実線
100
AcDbLine
 10
212.2079951658554
 20
721.2846319896792
 30
0.0
 11
215.1079951658554
 21
721.2846319896792
 31
0.0
  0
LINE
  5
6C7
102
{ACAD_REACTORS
330
7D9
102
}
330
1F
100
AcDbEntity
  8
実線
100
AcDbLine
 10
215.1079951658554
 20
785.2846319896793
 30
0.0
 11
215.1079951658554
 21
721.2846319896792
 31
0.0
  0
LINE
  5
6C8
102
{ACAD_REACTORS
330
7D9
102
}
330
1F
100
AcDbEntity
  8
実線
100
AcDbLine
 10
209.8079951658553
 20
727.8846319896794
 30
0.0
 11
212.2079951658554
 21
721.2846319896792
 31
0.0
  0
LINE
  5
6C9
102
{ACAD_REACTORS
330
7D9
102
}
330
1F
100
AcDbEntity
  8
実線
100
AcDbLine
 10
212.2079951658554
 20
785.2846319896793
 30
0.0
 11
209.8079951658553
 21
778.6846319896792
 31
0.0
  0
LINE
  5
6CA
102
{ACAD_REACTORS
330
7D9
102
}
330
1F
100
AcDbEntity
  8
実線
100
AcDbLine
 10
212.2079951658554
 20
721.2846319896792
 30
0.0
 11
212.2079951658554
 21
785.2846319896793
 31
0.0
  0
LINE
  5
6CB
102
{ACAD_REACTORS
330
7D9
102
}
330
1F
100
AcDbEntity
  8
実線
100
AcDbLine
 10
209.8079951658553
 20
727.8846319896794
 30
0.0
 11
209.8079951658553
 21
778.6846319896794
 31
0.0
  0
LINE
  5
6CC
102
{ACAD_REACTORS
330
7D9
102
}
330
1F
100
AcDbEntity
  8
実線
100
AcDbLine
 10
189.6111607579113
 20
649.2846319896793
 30
0.0
 11
189.6111607579113
 21
664.2846319896793
 31
0.0
  0
LINE
  5
6CD
102
{ACAD_REACTORS
330
7D9
102
}
330
1F
100
AcDbEntity
  8
実線
100
AcDbLine
 10
189.6111607579113
 20
664.2846319896793
 30
0.0
 11
158.087987159449
 21
664.2846319896793
 31
0.0
  0
LINE
  5
6CE
102
{ACAD_REACTORS
330
7D9
102
}
330
1F
100
AcDbEntity
  8
実線
100
AcDbLine
 10
76.60482957379958
 20
664.2846319896793
 30
0.0
 11
108.1280031722618
 21
664.2846319896793
 31
0.0
  0
LINE
  5
6CF
102
{ACAD_REACTORS
330
7D9
102
}
330
1F
100
AcDbEntity
  8
実線
100
AcDbLine
 10
76.60482957379958
 20
664.2846319896793
 30
0.0
 11
76.60482957379958
 21
649.2846319896793
 31
0.0
  0
LINE
  5
6D0
102
{ACAD_REACTORS
330
7D9
102
}
330
1F
100
AcDbEntity
  8
実線
100
AcDbLine
 10
155.4862384529984
 20
649.2846319896793
 30
0.0
 11
155.4862384529984
 21
661.4107554624829
 31
0.0
  0
LINE
  5
6D1
102
{ACAD_REACTORS
330
7D9
102
}
330
1F
100
AcDbEntity
  8
実線
100
AcDbLine
 10
110.7297518787124
 20
649.2846319896793
 30
0.0
 11
110.7297518787124
 21
661.4107554624829
 31
0.0
  0
LINE
  5
6D2
102
{ACAD_REACTORS
330
7D9
102
}
330
1F
100
AcDbEntity
  8
実線
100
AcDbLine
 10
149.9826786478773
 20
727.2846319896855
 30
0.0
 11
129.0505940745329
 21
727.2846319896855
 31
0.0
  0
CIRCLE
  5
6D3
102
{ACAD_REACTORS
330
7D9
102
}
330
1F
100
AcDbEntity
  8
実線
100
AcDbCircle
 10
133.1079951658554
 20
684.2846319896793
 30
0.0
 40
32.0
  0
LINE
  5
6D4
102
{ACAD_REACTORS
330
7D9
102
}
330
1F
100
AcDbEntity
  8
実線
100
AcDbLine
 10
180.6079951658553
 20
376.7846319896794
 30
0.0
 11
85.60799516585541
 21
376.7846319896794
 31
0.0
  0
ARC
  5
6D5
102
{ACAD_REACTORS
330
7D9
102
}
330
1F
100
AcDbEntity
  8
実線
100
AcDbCircle
 10
85.60799516585541
 20
381.7846319896794
 30
0.0
 40
5.0
100
AcDbArc
 50
180.0
 51
270.0
  0
ARC
  5
6D6
102
{ACAD_REACTORS
330
7D9
102
}
330
1F
100
AcDbEntity
  8
実線
100
AcDbCircle
 10
180.6079951658553
 20
381.7846319896794
 30
0.0
 40
5.0
100
AcDbArc
 50
270.0
 51
0.0
  0
LINE
  5
6D7
102
{ACAD_REACTORS
330
7D9
102
}
330
1F
100
AcDbEntity
  8
実線
100
AcDbLine
 10
174.3374685853529
 20
698.2435788286743
 30
0.0
 11
171.1011835079772
 21
703.8489890104659
 31
0.0
  0
ARC
  5
6D8
102
{ACAD_REACTORS
330
7D9
102
}
330
1F
100
AcDbEntity
  8
実線
100
AcDbCircle
 10
124.1079951658554
 20
669.2435788286741
 30
0.0
 40
58.0
100
AcDbArc
 50
0.0
 51
30.00000000000055
  0
ARC
  5
6D9
102
{ACAD_REACTORS
330
7D9
102
}
330
1F
100
AcDbEntity
  8
実線
100
AcDbCircle
 10
142.1079951658554
 20
669.2435788286741
 30
0.0
 40
58.0
100
AcDbArc
 50
151.1673734787998
 51
180.0
  0
LINE
  5
6DA
102
{ACAD_REACTORS
330
7D9
102
}
330
1F
100
AcDbEntity
  8
実線
100
AcDbLine
 10
84.10799516585541
 20
669.2435788286741
 30
0.0
 11
84.10799516585541
 21
664.2846319896793
 31
0.0
  0
LINE
  5
6DB
102
{ACAD_REACTORS
330
7D9
102
}
330
1F
100
AcDbEntity
  8
実線
100
AcDbLine
 10
182.1079951658554
 20
664.2846319896793
 30
0.0
 11
182.1079951658554
 21
669.2435788286741
 31
0.0
  0
LINE
  5
6DC
102
{ACAD_REACTORS
330
7D9
102
}
330
1F
100
AcDbEntity
  8
実線
100
AcDbLine
 10
189.6111607579111
 20
649.2846319896793
 30
0.0
 11
76.60482957379952
 21
649.2846319896793
 31
0.0
  0
LINE
  5
6DD
102
{ACAD_REACTORS
330
7D9
102
}
330
1F
100
AcDbEntity
  8
実線
100
AcDbLine
 10
84.10799516585541
 20
629.2846319896792
 30
0.0
 11
182.1079951658552
 21
629.2846319896792
 31
0.0
  0
LINE
  5
6DE
102
{ACAD_REACTORS
330
7D9
102
}
330
1F
100
AcDbEntity
  8
実線
100
AcDbLine
 10
182.1079951658552
 20
629.2846319896792
 30
0.0
 11
182.1079951658552
 21
634.2846319896793
 31
0.0
  0
LINE
  5
6DF
102
{ACAD_REACTORS
330
7D9
102
}
330
1F
100
AcDbEntity
  8
実線
100
AcDbLine
 10
84.10799516585541
 20
634.2846319896793
 30
0.0
 11
84.10799516585541
 21
629.2846319896792
 31
0.0
  0
LINE
  5
6E0
102
{ACAD_REACTORS
330
7D9
102
}
330
1F
100
AcDbEntity
  8
実線
100
AcDbLine
 10
76.60482957379952
 20
634.2846319896793
 30
0.0
 11
110.7297518787123
 21
634.2846319896793
 31
0.0
  0
LINE
  5
6E1
102
{ACAD_REACTORS
330
7D9
102
}
330
1F
100
AcDbEntity
  8
実線
100
AcDbLine
 10
76.60482957379952
 20
649.2846319896793
 30
0.0
 11
76.60482957379952
 21
634.2846319896793
 31
0.0
  0
LINE
  5
6E2
102
{ACAD_REACTORS
330
7D9
102
}
330
1F
100
AcDbEntity
  8
実線
100
AcDbLine
 10
189.6111607579111
 20
634.2846319896793
 30
0.0
 11
189.6111607579111
 21
649.2846319896793
 31
0.0
  0
LINE
  5
6E3
102
{ACAD_REACTORS
330
7D9
102
}
330
1F
100
AcDbEntity
  8
実線
100
AcDbLine
 10
189.6111607579111
 20
634.2846319896793
 30
0.0
 11
155.4862384529984
 21
634.2846319896793
 31
0.0
  0
LINE
  5
6E4
102
{ACAD_REACTORS
330
7D9
102
}
330
1F
100
AcDbEntity
  8
実線
100
AcDbLine
 10
155.4862384529984
 20
634.2846319896793
 30
0.0
 11
155.4862384529984
 21
649.2846319896793
 31
0.0
  0
LINE
  5
6E5
102
{ACAD_REACTORS
330
7D9
102
}
330
1F
100
AcDbEntity
  8
実線
100
AcDbLine
 10
110.7297518787123
 20
634.2846319896793
 30
0.0
 11
110.7297518787123
 21
649.2846319896793
 31
0.0
  0
LINE
  5
6E6
102
{ACAD_REACTORS
330
7D9
102
}
330
1F
100
AcDbEntity
  8
実線
100
AcDbLine
 10
182.1079951658555
 20
808.2846319896793
 30
0.0
 11
84.10799516585553
 21
808.2846319896793
 31
0.0
  0
LINE
  5
6E7
102
{ACAD_REACTORS
330
7D9
102
}
330
1F
100
AcDbEntity
  8
実線
100
AcDbLine
 10
84.10799516585553
 20
808.2846319896793
 30
0.0
 11
84.10799516585553
 21
803.2846319896792
 31
0.0
  0
LINE
  5
6E8
102
{ACAD_REACTORS
330
7D9
102
}
330
1F
100
AcDbEntity
  8
実線
100
AcDbLine
 10
182.1079951658555
 20
803.2846319896792
 30
0.0
 11
182.1079951658555
 21
808.2846319896793
 31
0.0
  0
LINE
  5
6E9
102
{ACAD_REACTORS
330
7D9
102
}
330
1F
100
AcDbEntity
  8
実線
100
AcDbLine
 10
189.6111607579113
 20
803.2846319896792
 30
0.0
 11
155.4862384529984
 21
803.2846319896792
 31
0.0
  0
LINE
  5
6EA
102
{ACAD_REACTORS
330
7D9
102
}
330
1F
100
AcDbEntity
  8
実線
100
AcDbLine
 10
189.6111607579113
 20
788.2846319896793
 30
0.0
 11
189.6111607579113
 21
803.2846319896792
 31
0.0
  0
LINE
  5
6EB
102
{ACAD_REACTORS
330
7D9
102
}
330
1F
100
AcDbEntity
  8
実線
100
AcDbLine
 10
76.60482957379958
 20
803.2846319896792
 30
0.0
 11
76.60482957379958
 21
788.2846319896793
 31
0.0
  0
LINE
  5
6EC
102
{ACAD_REACTORS
330
7D9
102
}
330
1F
100
AcDbEntity
  8
実線
100
AcDbLine
 10
76.60482957379958
 20
803.2846319896792
 30
0.0
 11
110.7297518787124
 21
803.2846319896792
 31
0.0
  0
LINE
  5
6ED
102
{ACAD_REACTORS
330
7D9
102
}
330
1F
100
AcDbEntity
  8
実線
100
AcDbLine
 10
110.7297518787124
 20
803.2846319896792
 30
0.0
 11
110.7297518787124
 21
788.2846319896793
 31
0.0
  0
LINE
  5
6EE
102
{ACAD_REACTORS
330
7D9
102
}
330
1F
100
AcDbEntity
  8
実線
100
AcDbLine
 10
155.4862384529984
 20
803.2846319896792
 30
0.0
 11
155.4862384529984
 21
788.2846319896793
 31
0.0
  0
LINE
  5
6EF
102
{ACAD_REACTORS
330
7D9
102
}
330
1F
100
AcDbEntity
  8
実線
100
AcDbLine
 10
85.60799516585552
 20
1060.784631989678
 30
0.0
 11
180.6079951658555
 21
1060.784631989678
 31
0.0
  0
LINE
  5
6F0
102
{ACAD_REACTORS
330
7D9
102
}
330
1F
100
AcDbEntity
  8
実線
100
AcDbLine
 10
80.60799516585552
 20
1055.784631989679
 30
0.0
 11
185.6079951658555
 21
1055.784631989679
 31
0.0
  0
ARC
  5
6F1
102
{ACAD_REACTORS
330
7D9
102
}
330
1F
100
AcDbEntity
  8
実線
100
AcDbCircle
 10
180.6079951658555
 20
1055.784631989679
 30
0.0
 40
5.0
100
AcDbArc
 50
0.0
 51
90.0
  0
ARC
  5
6F2
102
{ACAD_REACTORS
330
7D9
102
}
330
1F
100
AcDbEntity
  8
実線
100
AcDbCircle
 10
85.60799516585552
 20
1055.784631989679
 30
0.0
 40
5.0
100
AcDbArc
 50
90.0
 51
180.0
  0
LINE
  5
6F3
102
{ACAD_REACTORS
330
7DA
102
}
330
1F
100
AcDbEntity
  8
実線
100
AcDbLine
 10
384.1079951658557
 20
346.5846319896794
 30
0.0
 11
362.1079951658556
 21
346.5846319896794
 31
0.0
  0
LINE
  5
6F4
102
{ACAD_REACTORS
330
7DA
102
}
330
1F
100
AcDbEntity
  8
実線
100
AcDbLine
 10
362.1079951658556
 20
376.7846319896794
 30
0.0
 11
362.1079951658556
 21
346.5846319896794
 31
0.0
  0
LINE
  5
6F5
102
{ACAD_REACTORS
330
7DA
102
}
330
1F
100
AcDbEntity
  8
実線
100
AcDbLine
 10
384.1079951658557
 20
346.5846319896794
 30
0.0
 11
384.1079951658557
 21
376.7846319896794
 31
0.0
  0
LINE
  5
6F6
102
{ACAD_REACTORS
330
7DA
102
}
330
1F
100
AcDbEntity
  8
実線
100
AcDbLine
 10
384.1079951658557
 20
1060.784631989678
 30
0.0
 11
384.1079951658557
 21
1090.984631989678
 31
0.0
  0
LINE
  5
6F7
102
{ACAD_REACTORS
330
7DA
102
}
330
1F
100
AcDbEntity
  8
実線
100
AcDbLine
 10
362.1079951658556
 20
1090.984631989678
 30
0.0
 11
362.1079951658556
 21
1060.784631989678
 31
0.0
  0
LINE
  5
6F8
102
{ACAD_REACTORS
330
7DA
102
}
330
1F
100
AcDbEntity
  8
実線
100
AcDbLine
 10
384.1079951658557
 20
1090.984631989678
 30
0.0
 11
362.1079951658556
 21
1090.984631989678
 31
0.0
  0
LINE
  5
6F9
102
{ACAD_REACTORS
330
7DA
102
}
330
1F
100
AcDbEntity
  8
実線
100
AcDbLine
 10
324.1079951658556
 20
629.2846319896792
 30
0.0
 11
324.1079951658556
 21
445.3468098161704
 31
0.0
  0
LINE
  5
6FA
102
{ACAD_REACTORS
330
7DA
102
}
330
1F
100
AcDbEntity
  8
実線
100
AcDbLine
 10
422.1079951658557
 20
445.3468098161704
 30
0.0
 11
422.1079951658557
 21
629.2846319896792
 31
0.0
  0
LINE
  5
6FB
102
{ACAD_REACTORS
330
7DA
102
}
330
1F
100
AcDbEntity
  8
実線
100
AcDbLine
 10
320.6079951658556
 20
381.7846319896794
 30
0.0
 11
425.6079951658557
 21
381.7846319896794
 31
0.0
  0
LINE
  5
6FC
102
{ACAD_REACTORS
330
7DA
102
}
330
1F
100
AcDbEntity
  8
実線
100
AcDbLine
 10
320.6079951658556
 20
439.2846319896793
 30
0.0
 11
320.6079951658556
 21
381.7846319896794
 31
0.0
  0
LINE
  5
6FD
102
{ACAD_REACTORS
330
7DA
102
}
330
1F
100
AcDbEntity
  8
実線
100
AcDbLine
 10
425.6079951658557
 20
381.7846319896794
 30
0.0
 11
425.6079951658557
 21
439.2846319896793
 31
0.0
  0
LINE
  5
6FE
102
{ACAD_REACTORS
330
7DA
102
}
330
1F
100
AcDbEntity
  8
実線
100
AcDbLine
 10
324.1079951658556
 20
445.3468098161704
 30
0.0
 11
422.1079951658557
 21
445.3468098161704
 31
0.0
  0
LINE
  5
6FF
102
{ACAD_REACTORS
330
7DA
102
}
330
1F
100
AcDbEntity
  8
実線
100
AcDbLine
 10
320.6079951658556
 20
439.2846319896793
 30
0.0
 11
425.6079951658557
 21
439.2846319896793
 31
0.0
  0
LINE
  5
700
102
{ACAD_REACTORS
330
7DA
102
}
330
1F
100
AcDbEntity
  8
実線
100
AcDbLine
 10
324.1079951658556
 20
445.3468098161704
 30
0.0
 11
320.6079951658556
 21
439.2846319896793
 31
0.0
  0
LINE
  5
701
102
{ACAD_REACTORS
330
7DA
102
}
330
1F
100
AcDbEntity
  8
実線
100
AcDbLine
 10
425.6079951658557
 20
439.2846319896793
 30
0.0
 11
422.1079951658557
 21
445.3468098161704
 31
0.0
  0
LINE
  5
702
102
{ACAD_REACTORS
330
7DA
102
}
330
1F
100
AcDbEntity
  8
実線
100
AcDbLine
 10
422.1079951658555
 20
808.2846319896793
 30
0.0
 11
422.1079951658555
 21
992.2224541631878
 31
0.0
  0
LINE
  5
703
102
{ACAD_REACTORS
330
7DA
102
}
330
1F
100
AcDbEntity
  8
実線
100
AcDbLine
 10
324.1079951658556
 20
992.2224541631878
 30
0.0
 11
324.1079951658556
 21
808.2846319896793
 31
0.0
  0
LINE
  5
704
102
{ACAD_REACTORS
330
7DA
102
}
330
1F
100
AcDbEntity
  8
実線
100
AcDbLine
 10
425.6079951658555
 20
998.2846319896786
 30
0.0
 11
425.6079951658555
 21
1055.784631989679
 31
0.0
  0
LINE
  5
705
102
{ACAD_REACTORS
330
7DA
102
}
330
1F
100
AcDbEntity
  8
実線
100
AcDbLine
 10
320.6079951658556
 20
1055.784631989679
 30
0.0
 11
320.6079951658556
 21
998.2846319896786
 31
0.0
  0
LINE
  5
706
102
{ACAD_REACTORS
330
7DA
102
}
330
1F
100
AcDbEntity
  8
実線
100
AcDbLine
 10
422.1079951658555
 20
992.2224541631878
 30
0.0
 11
425.6079951658555
 21
998.2846319896786
 31
0.0
  0
LINE
  5
707
102
{ACAD_REACTORS
330
7DA
102
}
330
1F
100
AcDbEntity
  8
実線
100
AcDbLine
 10
320.6079951658556
 20
998.2846319896786
 30
0.0
 11
324.1079951658556
 21
992.2224541631878
 31
0.0
  0
LINE
  5
708
102
{ACAD_REACTORS
330
7DA
102
}
330
1F
100
AcDbEntity
  8
実線
100
AcDbLine
 10
324.1079951658556
 20
992.2224541631878
 30
0.0
 11
422.1079951658555
 21
992.2224541631878
 31
0.0
  0
LINE
  5
709
102
{ACAD_REACTORS
330
7DA
102
}
330
1F
100
AcDbEntity
  8
実線
100
AcDbLine
 10
320.6079951658556
 20
998.2846319896786
 30
0.0
 11
425.6079951658555
 21
998.2846319896786
 31
0.0
  0
LINE
  5
70A
102
{ACAD_REACTORS
330
7DA
102
}
330
1F
100
AcDbEntity
  8
実線
100
AcDbLine
 10
349.5044229777292
 20
707.7846319896792
 30
0.0
 11
357.2339337265165
 21
707.7846319896792
 31
0.0
  0
LINE
  5
70B
102
{ACAD_REACTORS
330
7DA
102
}
330
1F
100
AcDbEntity
  8
実線
100
AcDbLine
 10
351.3881885368822
 20
729.7846319896792
 30
0.0
 11
349.5044229777292
 21
729.7846319896792
 31
0.0
  0
LINE
  5
70C
102
{ACAD_REACTORS
330
7DA
102
}
330
1F
100
AcDbEntity
  8
実線
100
AcDbLine
 10
407.7562274439966
 20
748.4831167995145
 30
0.0
 11
436.3940520820517
 21
748.4831167995145
 31
0.0
  0
LINE
  5
70D
102
{ACAD_REACTORS
330
7DA
102
}
330
1F
100
AcDbEntity
  8
実線
100
AcDbLine
 10
407.7562274439966
 20
689.0861471798443
 30
0.0
 11
436.3940520820517
 21
689.0861471798443
 31
0.0
  0
LINE
  5
70E
102
{ACAD_REACTORS
330
7DA
102
}
330
1F
100
AcDbEntity
  8
実線
100
AcDbLine
 10
386.7562274439966
 20
718.7846319896793
 30
0.0
 11
415.3940520820517
 21
718.7846319896793
 31
0.0
  0
LINE
  5
70F
102
{ACAD_REACTORS
330
7DA
102
}
330
1F
100
AcDbEntity
  8
実線
100
AcDbLine
 10
386.7562274439966
 20
718.7846319896793
 30
0.0
 11
407.7562274439966
 21
689.0861471798443
 31
0.0
  0
LINE
  5
710
102
{ACAD_REACTORS
330
7DA
102
}
330
1F
100
AcDbEntity
  8
実線
100
AcDbLine
 10
436.3940520820517
 20
748.4831167995145
 30
0.0
 11
457.3940520820517
 21
718.7846319896793
 31
0.0
  0
LINE
  5
711
102
{ACAD_REACTORS
330
7DA
102
}
330
1F
100
AcDbEntity
  8
実線
100
AcDbLine
 10
415.3940520820517
 20
718.7846319896793
 30
0.0
 11
436.3940520820517
 21
748.4831167995145
 31
0.0
  0
LINE
  5
712
102
{ACAD_REACTORS
330
7DA
102
}
330
1F
100
AcDbEntity
  8
実線
100
AcDbLine
 10
436.3940520820517
 20
689.0861471798443
 30
0.0
 11
415.3940520820517
 21
718.7846319896793
 31
0.0
  0
LINE
  5
713
102
{ACAD_REACTORS
330
7DA
102
}
330
1F
100
AcDbEntity
  8
実線
100
AcDbLine
 10
457.3940520820517
 20
718.7846319896793
 30
0.0
 11
436.3940520820517
 21
689.0861471798443
 31
0.0
  0
LINE
  5
714
102
{ACAD_REACTORS
330
7DA
102
}
330
1F
100
AcDbEntity
  8
実線
100
AcDbLine
 10
436.3940520820517
 20
715.7846319900823
 30
0.0
 11
443.4651198936863
 21
715.7846319900823
 31
0.0
  0
LINE
  5
715
102
{ACAD_REACTORS
330
7DA
102
}
330
1F
100
AcDbEntity
  8
実線
100
AcDbLine
 10
443.4651198936863
 20
721.7846319892764
 30
0.0
 11
436.3940520820517
 21
721.7846319892764
 31
0.0
  0
ELLIPSE
  5
716
102
{ACAD_REACTORS
330
7DA
102
}
330
1F
100
AcDbEntity
  8
実線
100
AcDbEllipse
 10
436.3940520820517
 20
718.7846319896793
 30
0.0
 11
0.0
 21
2.999999999597037
 31
0.0
210
0.0
220
0.0
230
1.0
 40
0.7071067811865476
 41
0.0
 42
3.141592614165028
  0
LINE
  5
717
102
{ACAD_REACTORS
330
7DA
102
}
330
1F
100
AcDbEntity
  8
実線
100
AcDbLine
 10
316.6048295737998
 20
788.2846319896793
 30
0.0
 11
316.6048295737998
 21
773.2846319896793
 31
0.0
  0
LINE
  5
718
102
{ACAD_REACTORS
330
7DA
102
}
330
1F
100
AcDbEntity
  8
実線
100
AcDbLine
 10
316.6048295737998
 20
773.2846319896793
 30
0.0
 11
348.1280031722621
 21
773.2846319896793
 31
0.0
  0
LINE
  5
719
102
{ACAD_REACTORS
330
7DA
102
}
330
1F
100
AcDbEntity
  8
実線
100
AcDbLine
 10
429.6111607579116
 20
773.2846319896793
 30
0.0
 11
398.0879871594493
 21
773.2846319896793
 31
0.0
  0
LINE
  5
71A
102
{ACAD_REACTORS
330
7DA
102
}
330
1F
100
AcDbEntity
  8
実線
100
AcDbLine
 10
429.6111607579116
 20
773.2846319896793
 30
0.0
 11
429.6111607579116
 21
788.2846319896793
 31
0.0
  0
LINE
  5
71B
102
{ACAD_REACTORS
330
7DA
102
}
330
1F
100
AcDbEntity
  8
実線
100
AcDbLine
 10
350.7297518787126
 20
788.2846319896793
 30
0.0
 11
350.7297518787126
 21
776.1585085168761
 31
0.0
  0
LINE
  5
71C
102
{ACAD_REACTORS
330
7DA
102
}
330
1F
100
AcDbEntity
  8
実線
100
AcDbLine
 10
395.4862384529987
 20
788.2846319896793
 30
0.0
 11
395.4862384529987
 21
776.1585085168761
 31
0.0
  0
LINE
  5
71D
102
{ACAD_REACTORS
330
7DA
102
}
330
1F
100
AcDbEntity
  8
実線
100
AcDbLine
 10
446.2935470186461
 20
713.7846319896793
 30
0.0
 11
448.4148673622057
 21
713.7846319896793
 31
0.0
  0
LINE
  5
71E
102
{ACAD_REACTORS
330
7DA
102
}
330
1F
100
AcDbEntity
  8
実線
100
AcDbLine
 10
448.4148673622057
 20
723.7846319896792
 30
0.0
 11
446.2935470186461
 21
723.7846319896792
 31
0.0
  0
ELLIPSE
  5
71F
102
{ACAD_REACTORS
330
7DA
102
}
330
1F
100
AcDbEntity
  8
実線
100
AcDbEllipse
 10
448.4148673622057
 20
718.7846319896793
 30
0.0
 11
0.0
 21
5.0
 31
0.0
210
0.0
220
0.0
230
1.0
 40
0.7071067811865479
 41
3.141592653589792
 42
6.283185307179584
  0
ELLIPSE
  5
720
102
{ACAD_REACTORS
330
7DA
102
}
330
1F
100
AcDbEntity
  8
実線
100
AcDbEllipse
 10
448.4148673622057
 20
718.7846319896793
 30
0.0
 11
0.0
 21
5.0
 31
0.0
210
0.0
220
0.0
230
1.0
 40
0.7071067811865479
 41
1.570796326794897
 42
3.141592653589792
  0
ELLIPSE
  5
721
102
{ACAD_REACTORS
330
7DA
102
}
330
1F
100
AcDbEntity
  8
実線
100
AcDbEllipse
 10
446.2935470186461
 20
718.7846319896793
 30
0.0
 11
0.0
 21
5.0
 31
0.0
210
0.0
220
0.0
230
1.0
 40
0.7071067811865479
 41
0.0
 42
3.141592653589792
  0
ELLIPSE
  5
722
102
{ACAD_REACTORS
330
7DA
102
}
330
1F
100
AcDbEntity
  8
実線
100
AcDbEllipse
 10
448.4148673622057
 20
718.7846319896793
 30
0.0
 11
0.0
 21
5.0
 31
0.0
210
0.0
220
0.0
230
1.0
 40
0.7071067811865479
 41
0.0
 42
1.570796326794897
  0
ELLIPSE
  5
723
102
{ACAD_REACTORS
330
7DA
102
}
330
1F
100
AcDbEntity
  8
実線
100
AcDbEllipse
 10
338.459762887715
 20
718.7846319896793
 30
0.0
 11
0.0
 21
10.85000000000002
 31
0.0
210
0.0
220
0.0
230
1.0
 40
0.7071067811865476
 41
3.163667641207378
 42
6.261110319562027
  0
LINE
  5
724
102
{ACAD_REACTORS
330
7DA
102
}
330
1F
100
AcDbEntity
  8
実線
100
AcDbLine
 10
327.8531611699167
 20
701.7846319896793
 30
0.0
 11
329.3734407494676
 21
701.7846319896793
 31
0.0
  0
LINE
  5
725
102
{ACAD_REACTORS
330
7DA
102
}
330
1F
100
AcDbEntity
  8
実線
100
AcDbLine
 10
329.3734407494676
 20
735.7846319896793
 30
0.0
 11
327.8531611699167
 21
735.7846319896793
 31
0.0
  0
ELLIPSE
  5
726
102
{ACAD_REACTORS
330
7DA
102
}
330
1F
100
AcDbEntity
  8
実線
100
AcDbEllipse
 10
327.8531611699167
 20
718.7846319896793
 30
0.0
 11
0.0
 21
17.0
 31
0.0
210
0.0
220
0.0
230
1.0
 40
0.7071067811865476
 41
3.141592653589792
 42
6.283185307179584
  0
ELLIPSE
  5
727
102
{ACAD_REACTORS
330
7DA
102
}
330
1F
100
AcDbEntity
  8
実線
100
AcDbEllipse
 10
329.3734407494676
 20
718.7846319896793
 30
0.0
 11
0.0
 21
17.0
 31
0.0
210
0.0
220
0.0
230
1.0
 40
0.7071067811865476
 41
3.141592653589792
 42
6.283185307179584
  0
ELLIPSE
  5
728
102
{ACAD_REACTORS
330
7DA
102
}
330
1F
100
AcDbEntity
  8
実線
100
AcDbEllipse
 10
327.8531611699167
 20
718.7846319896793
 30
0.0
 11
0.0
 21
17.0
 31
0.0
210
0.0
220
0.0
230
1.0
 40
0.7071067811865476
 41
0.0
 42
3.141592653589792
  0
LINE
  5
729
102
{ACAD_REACTORS
330
7DA
102
}
330
1F
100
AcDbEntity
  8
実線
100
AcDbLine
 10
347.2371011326881
 20
731.2846319896793
 30
0.0
 11
338.459762887715
 21
731.2846319896793
 31
0.0
  0
LINE
  5
72A
102
{ACAD_REACTORS
330
7DA
102
}
330
1F
100
AcDbEntity
  8
実線
100
AcDbLine
 10
338.459762887715
 20
706.2846319896793
 30
0.0
 11
347.2371011326881
 21
706.2846319896793
 31
0.0
  0
ELLIPSE
  5
72B
102
{ACAD_REACTORS
330
7DA
102
}
330
1F
100
AcDbEntity
  8
実線
100
AcDbEllipse
 10
338.4597628877147
 20
718.7846319896793
 30
0.0
 11
0.0
 21
12.5
 31
0.0
210
0.0
220
0.0
230
1.0
 40
0.7071067811865476
 41
3.141592653589792
 42
6.283185307179584
  0
ELLIPSE
  5
72C
102
{ACAD_REACTORS
330
7DA
102
}
330
1F
100
AcDbEntity
  8
実線
100
AcDbEllipse
 10
338.4597628877147
 20
718.7846319896793
 30
0.0
 11
0.0
 21
12.5
 31
0.0
210
0.0
220
0.0
230
1.0
 40
0.7071067811865476
 41
3.040650892930133
 42
3.141592653589792
  0
ELLIPSE
  5
72D
102
{ACAD_REACTORS
330
7DA
102
}
330
1F
100
AcDbEntity
  8
実線
100
AcDbEllipse
 10
338.4597628877147
 20
718.7846319896793
 30
0.0
 11
0.0
 21
12.5
 31
0.0
210
0.0
220
0.0
230
1.0
 40
0.7071067811865476
 41
0.0
 42
0.1009417606596381
  0
LINE
  5
72E
102
{ACAD_REACTORS
330
7DA
102
}
330
1F
100
AcDbEntity
  8
実線
100
AcDbLine
 10
402.9099543627511
 20
741.6294516810536
 30
0.0
 11
407.7562274439966
 21
748.4831167995145
 31
0.0
  0
LINE
  5
72F
102
{ACAD_REACTORS
330
7DA
102
}
330
1F
100
AcDbEntity
  8
実線
100
AcDbLine
 10
386.7562274439966
 20
718.7846319896793
 30
0.0
 11
394.0305909410627
 21
729.0721355048621
 31
0.0
  0
LINE
  5
730
102
{ACAD_REACTORS
330
7DA
102
}
330
1F
100
AcDbEntity
  8
実線
100
AcDbLine
 10
407.7562274439966
 20
748.4831167995145
 30
0.0
 11
405.281499550206
 21
748.4831167995145
 31
0.0
  0
LINE
  5
731
102
{ACAD_REACTORS
330
7DA
102
}
330
1F
100
AcDbEntity
  8
実線
100
AcDbLine
 10
328.0663646055132
 20
735.7846319896793
 30
0.0
 11
331.2981270981012
 21
740.355034337066
 31
0.0
  0
LINE
  5
732
102
{ACAD_REACTORS
330
7DA
102
}
330
1F
100
AcDbEntity
  8
実線
100
AcDbLine
 10
407.7562274439966
 20
689.0861471798443
 30
0.0
 11
405.281499550206
 21
689.0861471798443
 31
0.0
  0
LINE
  5
733
102
{ACAD_REACTORS
330
7DA
102
}
330
1F
100
AcDbEntity
  8
実線
100
AcDbLine
 10
374.1079951658556
 20
718.7846319896793
 30
0.0
 11
386.7562274439966
 21
718.7846319896793
 31
0.0
  0
CIRCLE
  5
734
102
{ACAD_REACTORS
330
7DA
102
}
330
1F
100
AcDbEntity
  8
実線
100
AcDbCircle
 10
373.1079951658557
 20
753.2846319896792
 30
0.0
 40
32.0
  0
LINE
  5
735
102
{ACAD_REACTORS
330
7DA
102
}
330
1F
100
AcDbEntity
  8
実線
100
AcDbLine
 10
316.6048295737998
 20
664.2846319896793
 30
0.0
 11
429.6111607579116
 21
664.2846319896793
 31
0.0
  0
LINE
  5
736
102
{ACAD_REACTORS
330
7DA
102
}
330
1F
100
AcDbEntity
  8
実線
100
AcDbLine
 10
429.6111607579116
 20
649.2846319896793
 30
0.0
 11
429.6111607579116
 21
664.2846319896793
 31
0.0
  0
LINE
  5
737
102
{ACAD_REACTORS
330
7DA
102
}
330
1F
100
AcDbEntity
  8
実線
100
AcDbLine
 10
316.6048295737998
 20
664.2846319896793
 30
0.0
 11
316.6048295737998
 21
649.2846319896793
 31
0.0
  0
LINE
  5
738
102
{ACAD_REACTORS
330
7DA
102
}
330
1F
100
AcDbEntity
  8
実線
100
AcDbLine
 10
395.4862384529987
 20
649.2846319896793
 30
0.0
 11
395.4862384529987
 21
664.2846319896793
 31
0.0
  0
LINE
  5
739
102
{ACAD_REACTORS
330
7DA
102
}
330
1F
100
AcDbEntity
  8
実線
100
AcDbLine
 10
350.7297518787126
 20
649.2846319896793
 30
0.0
 11
350.7297518787126
 21
664.2846319896793
 31
0.0
  0
LINE
  5
73A
102
{ACAD_REACTORS
330
7DA
102
}
330
1F
100
AcDbEntity
  8
実線
100
AcDbLine
 10
429.6111607579116
 20
658.8846319896794
 30
0.0
 11
449.8079951658557
 21
658.8846319896794
 31
0.0
  0
LINE
  5
73B
102
{ACAD_REACTORS
330
7DA
102
}
330
1F
100
AcDbEntity
  8
実線
100
AcDbLine
 10
452.2079951658557
 20
652.2846319896792
 30
0.0
 11
455.1079951658557
 21
652.2846319896792
 31
0.0
  0
LINE
  5
73C
102
{ACAD_REACTORS
330
7DA
102
}
330
1F
100
AcDbEntity
  8
実線
100
AcDbLine
 10
455.1079951658557
 20
652.2846319896792
 30
0.0
 11
455.1079951658557
 21
715.5516592944384
 31
0.0
  0
LINE
  5
73D
102
{ACAD_REACTORS
330
7DA
102
}
330
1F
100
AcDbEntity
  8
実線
100
AcDbLine
 10
449.8079951658557
 20
658.8846319896794
 30
0.0
 11
452.2079951658557
 21
652.2846319896796
 31
0.0
  0
LINE
  5
73E
102
{ACAD_REACTORS
330
7DA
102
}
330
1F
100
AcDbEntity
  8
実線
100
AcDbLine
 10
452.2079951658557
 20
652.2846319896792
 30
0.0
 11
452.2079951658557
 21
711.450439963556
 31
0.0
  0
LINE
  5
73F
102
{ACAD_REACTORS
330
7DA
102
}
330
1F
100
AcDbEntity
  8
実線
100
AcDbLine
 10
449.8079951658557
 20
658.8846319896794
 30
0.0
 11
449.8079951658557
 21
708.0563274138605
 31
0.0
  0
LINE
  5
740
102
{ACAD_REACTORS
330
7DA
102
}
330
1F
100
AcDbEntity
  8
実線
100
AcDbLine
 10
296.4079951658556
 20
658.8846319896794
 30
0.0
 11
316.6048295737998
 21
658.8846319896794
 31
0.0
  0
LINE
  5
741
102
{ACAD_REACTORS
330
7DA
102
}
330
1F
100
AcDbEntity
  8
実線
100
AcDbLine
 10
317.6995903694543
 20
709.6846319896792
 30
0.0
 11
296.4079951658556
 21
709.6846319896792
 31
0.0
  0
LINE
  5
742
102
{ACAD_REACTORS
330
7DA
102
}
330
1F
100
AcDbEntity
  8
実線
100
AcDbLine
 10
291.1079951658556
 20
716.2846319896793
 30
0.0
 11
291.1079951658556
 21
652.2846319896792
 31
0.0
  0
LINE
  5
743
102
{ACAD_REACTORS
330
7DA
102
}
330
1F
100
AcDbEntity
  8
実線
100
AcDbLine
 10
291.1079951658556
 20
652.2846319896792
 30
0.0
 11
294.0079951658556
 21
652.2846319896792
 31
0.0
  0
LINE
  5
744
102
{ACAD_REACTORS
330
7DA
102
}
330
1F
100
AcDbEntity
  8
実線
100
AcDbLine
 10
294.0079951658556
 20
716.2846319896793
 30
0.0
 11
291.1079951658556
 21
716.2846319896793
 31
0.0
  0
LINE
  5
745
102
{ACAD_REACTORS
330
7DA
102
}
330
1F
100
AcDbEntity
  8
実線
100
AcDbLine
 10
294.0079951658556
 20
716.2846319896793
 30
0.0
 11
294.0079951658556
 21
652.2846319896792
 31
0.0
  0
LINE
  5
746
102
{ACAD_REACTORS
330
7DA
102
}
330
1F
100
AcDbEntity
  8
実線
100
AcDbLine
 10
296.4079951658556
 20
709.6846319896792
 30
0.0
 11
296.4079951658556
 21
658.8846319896792
 31
0.0
  0
LINE
  5
747
102
{ACAD_REACTORS
330
7DA
102
}
330
1F
100
AcDbEntity
  8
実線
100
AcDbLine
 10
296.4079951658556
 20
709.6846319896792
 30
0.0
 11
294.0079951658556
 21
716.2846319896793
 31
0.0
  0
LINE
  5
748
102
{ACAD_REACTORS
330
7DA
102
}
330
1F
100
AcDbEntity
  8
実線
100
AcDbLine
 10
294.0079951658556
 20
652.2846319896792
 30
0.0
 11
296.4079951658556
 21
658.8846319896792
 31
0.0
  0
LINE
  5
749
102
{ACAD_REACTORS
330
7DA
102
}
330
1F
100
AcDbEntity
  8
実線
100
AcDbLine
 10
325.6079951658557
 20
376.7846319896794
 30
0.0
 11
420.6079951658557
 21
376.7846319896794
 31
0.0
  0
ARC
  5
74A
102
{ACAD_REACTORS
330
7DA
102
}
330
1F
100
AcDbEntity
  8
実線
100
AcDbCircle
 10
325.6079951658557
 20
381.7846319896794
 30
0.0
 40
5.0
100
AcDbArc
 50
180.0
 51
270.0
  0
ARC
  5
74B
102
{ACAD_REACTORS
330
7DA
102
}
330
1F
100
AcDbEntity
  8
実線
100
AcDbCircle
 10
420.6079951658557
 20
381.7846319896794
 30
0.0
 40
5.0
100
AcDbArc
 50
270.0
 51
0.0
  0
LINE
  5
74C
102
{ACAD_REACTORS
330
7DA
102
}
330
1F
100
AcDbEntity
  8
実線
100
AcDbLine
 10
331.8785217463581
 20
739.3256851506845
 30
0.0
 11
335.114806823734
 21
733.7202749688928
 31
0.0
  0
LINE
  5
74D
102
{ACAD_REACTORS
330
7DA
102
}
330
1F
100
AcDbEntity
  8
実線
100
AcDbLine
 10
422.1079951658557
 20
768.3256851506845
 30
0.0
 11
422.1079951658557
 21
773.2846319896793
 31
0.0
  0
LINE
  5
74E
102
{ACAD_REACTORS
330
7DA
102
}
330
1F
100
AcDbEntity
  8
実線
100
AcDbLine
 10
324.1079951658556
 20
773.2846319896793
 30
0.0
 11
324.1079951658556
 21
768.3256851506845
 31
0.0
  0
ARC
  5
74F
102
{ACAD_REACTORS
330
7DA
102
}
330
1F
100
AcDbEntity
  8
実線
100
AcDbCircle
 10
382.1079951658557
 20
768.3256851506845
 30
0.0
 40
58.0
100
AcDbArc
 50
180.0
 51
210.0000000000005
  0
ARC
  5
750
102
{ACAD_REACTORS
330
7DA
102
}
330
1F
100
AcDbEntity
  8
実線
100
AcDbCircle
 10
364.1079951658556
 20
768.3256851506845
 30
0.0
 40
58.0
100
AcDbArc
 50
339.9943230706051
 51
0.0
  0
LINE
  5
751
102
{ACAD_REACTORS
330
7DA
102
}
330
1F
100
AcDbEntity
  8
実線
100
AcDbLine
 10
316.6048295737998
 20
649.2846319896793
 30
0.0
 11
429.6111607579116
 21
649.2846319896793
 31
0.0
  0
LINE
  5
752
102
{ACAD_REACTORS
330
7DA
102
}
330
1F
100
AcDbEntity
  8
実線
100
AcDbLine
 10
422.1079951658557
 20
629.2846319896792
 30
0.0
 11
422.1079951658557
 21
634.2846319896793
 31
0.0
  0
LINE
  5
753
102
{ACAD_REACTORS
330
7DA
102
}
330
1F
100
AcDbEntity
  8
実線
100
AcDbLine
 10
324.1079951658556
 20
634.2846319896793
 30
0.0
 11
324.1079951658556
 21
629.2846319896792
 31
0.0
  0
LINE
  5
754
102
{ACAD_REACTORS
330
7DA
102
}
330
1F
100
AcDbEntity
  8
実線
100
AcDbLine
 10
324.1079951658556
 20
629.2846319896792
 30
0.0
 11
422.1079951658557
 21
629.2846319896792
 31
0.0
  0
LINE
  5
755
102
{ACAD_REACTORS
330
7DA
102
}
330
1F
100
AcDbEntity
  8
実線
100
AcDbLine
 10
429.6111607579116
 20
634.2846319896793
 30
0.0
 11
429.6111607579116
 21
649.2846319896793
 31
0.0
  0
LINE
  5
756
102
{ACAD_REACTORS
330
7DA
102
}
330
1F
100
AcDbEntity
  8
実線
100
AcDbLine
 10
429.6111607579116
 20
634.2846319896793
 30
0.0
 11
395.4862384529987
 21
634.2846319896793
 31
0.0
  0
LINE
  5
757
102
{ACAD_REACTORS
330
7DA
102
}
330
1F
100
AcDbEntity
  8
実線
100
AcDbLine
 10
316.6048295737998
 20
634.2846319896793
 30
0.0
 11
350.7297518787126
 21
634.2846319896793
 31
0.0
  0
LINE
  5
758
102
{ACAD_REACTORS
330
7DA
102
}
330
1F
100
AcDbEntity
  8
実線
100
AcDbLine
 10
316.6048295737998
 20
649.2846319896793
 30
0.0
 11
316.6048295737998
 21
634.2846319896793
 31
0.0
  0
LINE
  5
759
102
{ACAD_REACTORS
330
7DA
102
}
330
1F
100
AcDbEntity
  8
実線
100
AcDbLine
 10
350.7297518787126
 20
634.2846319896793
 30
0.0
 11
350.7297518787126
 21
649.2846319896793
 31
0.0
  0
LINE
  5
75A
102
{ACAD_REACTORS
330
7DA
102
}
330
1F
100
AcDbEntity
  8
実線
100
AcDbLine
 10
395.4862384529987
 20
634.2846319896793
 30
0.0
 11
395.4862384529987
 21
649.2846319896793
 31
0.0
  0
LINE
  5
75B
102
{ACAD_REACTORS
330
7DA
102
}
330
1F
100
AcDbEntity
  8
実線
100
AcDbLine
 10
429.6111607579112
 20
788.2846319896793
 30
0.0
 11
316.6048295737996
 21
788.2846319896793
 31
0.0
  0
LINE
  5
75C
102
{ACAD_REACTORS
330
7DA
102
}
330
1F
100
AcDbEntity
  8
実線
100
AcDbLine
 10
324.1079951658556
 20
808.2846319896793
 30
0.0
 11
422.1079951658555
 21
808.2846319896793
 31
0.0
  0
LINE
  5
75D
102
{ACAD_REACTORS
330
7DA
102
}
330
1F
100
AcDbEntity
  8
実線
100
AcDbLine
 10
324.1079951658556
 20
808.2846319896793
 30
0.0
 11
324.1079951658556
 21
803.2846319896792
 31
0.0
  0
LINE
  5
75E
102
{ACAD_REACTORS
330
7DA
102
}
330
1F
100
AcDbEntity
  8
実線
100
AcDbLine
 10
422.1079951658555
 20
803.2846319896792
 30
0.0
 11
422.1079951658555
 21
808.2846319896793
 31
0.0
  0
LINE
  5
75F
102
{ACAD_REACTORS
330
7DA
102
}
330
1F
100
AcDbEntity
  8
実線
100
AcDbLine
 10
316.6048295737996
 20
803.2846319896792
 30
0.0
 11
316.6048295737996
 21
788.2846319896793
 31
0.0
  0
LINE
  5
760
102
{ACAD_REACTORS
330
7DA
102
}
330
1F
100
AcDbEntity
  8
実線
100
AcDbLine
 10
316.6048295737996
 20
803.2846319896792
 30
0.0
 11
350.7297518787124
 21
803.2846319896792
 31
0.0
  0
LINE
  5
761
102
{ACAD_REACTORS
330
7DA
102
}
330
1F
100
AcDbEntity
  8
実線
100
AcDbLine
 10
429.6111607579112
 20
803.2846319896792
 30
0.0
 11
395.4862384529987
 21
803.2846319896792
 31
0.0
  0
LINE
  5
762
102
{ACAD_REACTORS
330
7DA
102
}
330
1F
100
AcDbEntity
  8
実線
100
AcDbLine
 10
429.6111607579112
 20
788.2846319896793
 30
0.0
 11
429.6111607579112
 21
803.2846319896792
 31
0.0
  0
LINE
  5
763
102
{ACAD_REACTORS
330
7DA
102
}
330
1F
100
AcDbEntity
  8
実線
100
AcDbLine
 10
350.7297518787124
 20
803.2846319896792
 30
0.0
 11
350.7297518787124
 21
788.2846319896793
 31
0.0
  0
LINE
  5
764
102
{ACAD_REACTORS
330
7DA
102
}
330
1F
100
AcDbEntity
  8
実線
100
AcDbLine
 10
395.4862384529987
 20
803.2846319896792
 30
0.0
 11
395.4862384529987
 21
788.2846319896793
 31
0.0
  0
LINE
  5
765
102
{ACAD_REACTORS
330
7DA
102
}
330
1F
100
AcDbEntity
  8
実線
100
AcDbLine
 10
325.6079951658557
 20
1060.784631989678
 30
0.0
 11
420.6079951658555
 21
1060.784631989678
 31
0.0
  0
ARC
  5
766
102
{ACAD_REACTORS
330
7DA
102
}
330
1F
100
AcDbEntity
  8
実線
100
AcDbCircle
 10
420.6079951658555
 20
1055.784631989679
 30
0.0
 40
5.0
100
AcDbArc
 50
0.0
 51
90.0
  0
ARC
  5
767
102
{ACAD_REACTORS
330
7DA
102
}
330
1F
100
AcDbEntity
  8
実線
100
AcDbCircle
 10
325.6079951658557
 20
1055.784631989679
 30
0.0
 40
5.0
100
AcDbArc
 50
90.0
 51
180.0
  0
LINE
  5
768
102
{ACAD_REACTORS
330
7DA
102
}
330
1F
100
AcDbEntity
  8
実線
100
AcDbLine
 10
320.6079951658556
 20
1055.784631989679
 30
0.0
 11
425.6079951658555
 21
1055.784631989679
 31
0.0
  0
LINE
  5
76A
102
{ACAD_REACTORS
330
7D3
102
}
330
1F
100
AcDbEntity
  8
中心線
100
AcDbLine
 10
457.1079951658531
 20
118.7846319896864
 30
0.0
 11
289.1079951658531
 21
118.7846319896864
 31
0.0
  0
LINE
  5
772
102
{ACAD_REACTORS
330
7D3
102
}
330
1F
100
AcDbEntity
  8
中心線
100
AcDbLine
 10
373.1079951658495
 20
202.7846319896819
 30
0.0
 11
373.1079951658496
 21
34.78463198968194
 31
0.0
  0
LINE
  5
773
102
{ACAD_REACTORS
330
7D4
102
}
330
1F
100
AcDbEntity
  8
中心線
100
AcDbLine
 10
457.1079951658556
 20
1318.784631989679
 30
0.0
 11
289.1079951658556
 21
1318.784631989679
 31
0.0
  0
LINE
  5
774
102
{ACAD_REACTORS
330
7D4
102
}
330
1F
100
AcDbEntity
  8
中心線
100
AcDbLine
 10
373.1079951658518
 20
1402.784631989675
 30
0.0
 11
373.1079951658517
 21
1234.784631989675
 31
0.0
  0
LINE
  5
775
102
{ACAD_REACTORS
330
7DC
102
}
330
1F
100
AcDbEntity
  8
中心線
100
AcDbLine
 10
853.107995165856
 20
343.7846319896796
 30
0.0
 11
853.107995165856
 21
1093.784631989679
 31
0.0
  0
LINE
  5
776
102
{ACAD_REACTORS
330
7DC
102
}
330
1F
100
AcDbEntity
  8
中心線
100
AcDbLine
 10
793.107995165856
 20
753.2846319896792
 30
0.0
 11
913.1079951658559
 21
753.2846319896792
 31
0.0
  0
LINE
  5
777
102
{ACAD_REACTORS
330
7DC
102
}
330
1F
100
AcDbEntity
  8
中心線
100
AcDbLine
 10
763.1079951658557
 20
718.7846319896793
 30
0.0
 11
943.1079951658558
 21
718.7846319896793
 31
0.0
  0
LINE
  5
778
102
{ACAD_REACTORS
330
7DC
102
}
330
1F
100
AcDbEntity
  8
中心線
100
AcDbLine
 10
769.1079951658569
 20
684.2846319896791
 30
0.0
 11
937.1079951658568
 21
684.2846319896791
 31
0.0
  0
LINE
  5
779
102
{ACAD_REACTORS
330
7DB
102
}
330
1F
100
AcDbEntity
  8
中心線
100
AcDbLine
 10
613.1079951658556
 20
343.7846319896796
 30
0.0
 11
613.1079951658554
 21
1093.784631989679
 31
0.0
  0
LINE
  5
77A
102
{ACAD_REACTORS
330
7DB
102
}
330
1F
100
AcDbEntity
  8
中心線
100
AcDbLine
 10
529.107995165854
 20
753.2846319896792
 30
0.0
 11
697.107995165854
 21
753.2846319896791
 31
0.0
  0
LINE
  5
77B
102
{ACAD_REACTORS
330
7DB
102
}
330
1F
100
AcDbEntity
  8
中心線
100
AcDbLine
 10
523.1079951658552
 20
718.7846319896793
 30
0.0
 11
703.1079951658552
 21
718.7846319896793
 31
0.0
  0
LINE
  5
77C
102
{ACAD_REACTORS
330
7DB
102
}
330
1F
100
AcDbEntity
  8
中心線
100
AcDbLine
 10
553.1079951658547
 20
684.2846319896793
 30
0.0
 11
673.1079951658547
 21
684.2846319896791
 31
0.0
  0
LINE
  5
77D
102
{ACAD_REACTORS
330
7DA
102
}
330
1F
100
AcDbEntity
  8
中心線
100
AcDbLine
 10
373.1079951658557
 20
343.7846319896796
 30
0.0
 11
373.1079951658557
 21
1093.784631989679
 31
0.0
  0
LINE
  5
77E
102
{ACAD_REACTORS
330
7DA
102
}
330
1F
100
AcDbEntity
  8
中心線
100
AcDbLine
 10
313.1079951658557
 20
753.2846319896792
 30
0.0
 11
433.1079951658556
 21
753.2846319896792
 31
0.0
  0
LINE
  5
77F
102
{ACAD_REACTORS
330
7DA
102
}
330
1F
100
AcDbEntity
  8
中心線
100
AcDbLine
 10
283.1079951658555
 20
718.7846319896793
 30
0.0
 11
463.1079951658555
 21
718.7846319896793
 31
0.0
  0
LINE
  5
780
102
{ACAD_REACTORS
330
7DA
102
}
330
1F
100
AcDbEntity
  8
中心線
100
AcDbLine
 10
289.1079951658568
 20
684.2846319896794
 30
0.0
 11
457.1079951658568
 21
684.2846319896794
 31
0.0
  0
LINE
  5
781
102
{ACAD_REACTORS
330
7D9
102
}
330
1F
100
AcDbEntity
  8
中心線
100
AcDbLine
 10
133.1079951658556
 20
343.7846319896795
 30
0.0
 11
133.1079951658556
 21
1093.784631989679
 31
0.0
  0
LINE
  5
782
102
{ACAD_REACTORS
330
7D9
102
}
330
1F
100
AcDbEntity
  8
中心線
100
AcDbLine
 10
49.1079951658545
 20
753.2846319896793
 30
0.0
 11
217.1079951658545
 21
753.2846319896791
 31
0.0
  0
LINE
  5
783
102
{ACAD_REACTORS
330
7D9
102
}
330
1F
100
AcDbEntity
  8
中心線
100
AcDbLine
 10
43.10799516585563
 20
718.7846319896794
 30
0.0
 11
223.1079951658557
 21
718.7846319896793
 31
0.0
  0
LINE
  5
784
102
{ACAD_REACTORS
330
7D9
102
}
330
1F
100
AcDbEntity
  8
中心線
100
AcDbLine
 10
73.10799516585518
 20
684.2846319896793
 30
0.0
 11
193.1079951658552
 21
684.2846319896791
 31
0.0
  0
LINE
  5
7D1
102
{ACAD_REACTORS
330
7D4
102
}
330
1F
100
AcDbEntity
  8
中心線
100
AcDbLine
 10
373.1079951658546
 20
1318.784631989678
 30
0.0
 11
313.7110255461836
 21
1259.387662370007
 31
0.0
  0
LINE
  5
7D2
102
{ACAD_REACTORS
330
7D3
102
}
330
1F
100
AcDbEntity
  8
中心線
100
AcDbLine
 10
373.1079951658521
 20
118.7846319896794
 30
0.0
 11
313.7110255461813
 21
178.18160160935
 31
0.0
  0
ENDSEC
  0
SECTION
  2
OBJECTS
  0
DICTIONARY
  5
C
330
0
100
AcDbDictionary
281
     1
  3
ACAD_CIP_PREVIOUS_PRODUCT_INFO
350
33B
  3
ACAD_COLOR
350
331
  3
ACAD_DETAILVIEWSTYLE
350
334
  3
ACAD_GROUP
350
D
  3
ACAD_LAYOUT
350
1A
  3
ACAD_MATERIAL
350
43
  3
ACAD_MLEADERSTYLE
350
5B
  3
ACAD_MLINESTYLE
350
17
  3
ACAD_PLOTSETTINGS
350
19
  3
ACAD_PLOTSTYLENAME
350
E
  3
ACAD_SCALELIST
350
47
  3
ACAD_SECTIONVIEWSTYLE
350
332
  3
ACAD_TABLESTYLE
350
59
  3
ACAD_VISUALSTYLE
350
2A
  3
ACDB_RECOMPOSE_DATA
350
831
  3
AcDbVariableDictionary
350
2E6
  3
DWGPROPS
350
832
  0
DICTIONARY
  5
342
330
2
100
AcDbDictionary
280
     1
281
     1
  3
ACAD_LAYERSTATES
360
343
  0
DICTIONARY
  5
78B
330
10
100
AcDbDictionary
280
     1
281
     1
  3
ADSK_XREC_LAYER_RECONCILED
360
78C
  0
DICTIONARY
  5
33E
330
33D
100
AcDbDictionary
280
     1
281
     1
  3
ADSK_XREC_LAYER_RECONCILED
360
78D
  0
DICTIONARY
  5
340
330
33F
100
AcDbDictionary
280
     1
281
     1
  3
ADSK_XREC_LAYER_RECONCILED
360
78E
  0
DICTIONARY
  5
551
330
1F
100
AcDbDictionary
280
     1
281
     1
  3
ACAD_SORTENTS
360
552
  0
XRECORD
  5
33B
102
{ACAD_REACTORS
330
C
102
}
330
C
100
AcDbXrecord
280
     1
300
ACDLT
300
2016
300
ACDLT_F_S
  0
DICTIONARY
  5
331
102
{ACAD_REACTORS
330
C
102
}
330
C
100
AcDbDictionary
281
     1
  0
DICTIONARY
  5
334
102
{ACAD_REACTORS
330
C
102
}
330
C
100
AcDbDictionary
281
     1
  3
Metric50
350
335
  0
DICTIONARY
  5
D
102
{ACAD_REACTORS
330
C
102
}
330
C
100
AcDbDictionary
281
     1
  3
*A10
350
7DA
  3
*A11
350
7DB
  3
*A12
350
7DC
  3
*A7
350
7D3
  3
*A8
350
7D4
  3
*A9
350
7D9
  0
DICTIONARY
  5
1A
102
{ACAD_REACTORS
330
C
102
}
330
C
100
AcDbDictionary
281
     1
  3
Layout1
350
1E
  3
Model
350
22
  3
レイアウト1
350
336
  0
DICTIONARY
  5
43
102
{ACAD_REACTORS
330
C
102
}
330
C
100
AcDbDictionary
281
     1
  3
ByBlock
350
45
  3
ByLayer
350
44
  3
Global
350
46
  0
DICTIONARY
  5
5B
102
{ACAD_REACTORS
330
C
102
}
330
C
100
AcDbDictionary
281
     1
  3
Standard
350
5C
  0
DICTIONARY
  5
17
102
{ACAD_REACTORS
330
C
102
}
330
C
100
AcDbDictionary
281
     1
  3
Standard
350
18
  0
DICTIONARY
  5
19
102
{ACAD_REACTORS
330
C
102
}
330
C
100
AcDbDictionary
281
     1
  0
ACDBDICTIONARYWDFLT
  5
E
102
{ACAD_REACTORS
330
C
102
}
330
C
100
AcDbDictionary
281
     1
  3
Normal
350
F
100
AcDbDictionaryWithDefault
340
F
  0
DICTIONARY
  5
47
102
{ACAD_REACTORS
330
C
102
}
330
C
100
AcDbDictionary
281
     1
  3
A0
350
48
  3
A1
350
49
  3
A2
350
4A
  3
A3
350
4B
  3
A4
350
4C
  3
A5
350
4D
  3
A6
350
4E
  3
A7
350
4F
  3
A8
350
50
  3
A9
350
51
  3
B0
350
52
  3
B1
350
53
  3
B2
350
54
  3
B3
350
55
  3
B4
350
56
  3
B5
350
57
  3
B6
350
58
  0
DICTIONARY
  5
332
102
{ACAD_REACTORS
330
C
102
}
330
C
100
AcDbDictionary
281
     1
  3
Metric50
350
333
  0
DICTIONARY
  5
59
102
{ACAD_REACTORS
330
C
102
}
330
C
100
AcDbDictionary
281
     1
  3
Standard
350
5A
  0
DICTIONARY
  5
2A
102
{ACAD_REACTORS
330
C
102
}
330
C
100
AcDbDictionary
281
     1
  3
2dWireframe
350
2F
  3
Basic
350
32
  3
Brighten
350
36
  3
ColorChange
350
3A
  3
Conceptual
350
34
  3
Dim
350
35
  3
EdgeColorOff
350
3D
  3
Facepattern
350
39
  3
Flat
350
2B
  3
FlatWithEdges
350
2C
  3
Gouraud
350
2D
  3
GouraudWithEdges
350
2E
  3
Hidden
350
31
  3
JitterOff
350
3B
  3
Linepattern
350
38
  3
OverhangOff
350
3C
  3
Realistic
350
33
  3
Shaded
350
42
  3
Shaded with edges
350
41
  3
Shades of Gray
350
3E
  3
Sketchy
350
3F
  3
Thicken
350
37
  3
Wireframe
350
30
  3
X-Ray
350
40
  0
XRECORD
  5
831
102
{ACAD_REACTORS
330
C
102
}
330
C
100
AcDbXrecord
280
     1
 90
        1
330
5A
  0
DICTIONARY
  5
2E6
102
{ACAD_REACTORS
330
C
102
}
330
C
100
AcDbDictionary
281
     1
  3
CANNOSCALE
350
2F4
  3
CENTEREXE
350
2ED
  3
CENTERLTYPEFILE
350
2EE
  3
CMLEADERSTYLE
350
2E8
  3
CTABLESTYLE
350
2E7
  3
CVIEWDETAILSTYLE
350
78F
  3
CVIEWSECTIONSTYLE
350
790
  3
DIMASSOC
350
2EF
  3
HIDETEXT
350
2F0
  3
INDEXCTL
350
7EB
  3
LAYEREVAL
350
792
  3
LAYERNOTIFY
350
793
  3
LIGHTINGUNITS
350
791
  3
LOFTANG1
350
7EE
  3
LOFTANG2
350
7EF
  3
LONGITUDE
350
7F0
  3
MSLTSCALE
350
2F5
  3
PSOLHEIGHT
350
7ED
  3
PSOLWIDTH
350
7EC
  3
SORTENTS
350
7EA
  3
XCLIPFRAME
350
7F1
  0
XRECORD
  5
832
102
{ACAD_REACTORS
330
C
102
}
330
C
100
AcDbXrecord
280
     1
  1
DWGPROPS COOKIE
  2

  3

  4

  6
File was created by TR2_DExp
  7

  8
fujino
  9

300
=
301
=
302
=
303
=
304
=
305
=
306
=
307
=
308
=
309
=
 40
0.0124749421296296
 41
2455188.75
 42
2459753.459188912
  1

 90
        0
  0
DICTIONARY
  5
343
102
{ACAD_REACTORS
330
342
102
}
330
342
100
AcDbDictionary
281
     1
  0
XRECORD
  5
78C
102
{ACAD_REACTORS
330
78B
102
}
330
78B
100
AcDbXrecord
280
     1
290
     1
  0
XRECORD
  5
78D
102
{ACAD_REACTORS
330
33E
102
}
330
33E
100
AcDbXrecord
280
     1
290
     1
  0
XRECORD
  5
78E
102
{ACAD_REACTORS
330
340
102
}
330
340
100
AcDbXrecord
280
     1
290
     1
  0
SORTENTSTABLE
  5
552
102
{ACAD_REACTORS
330
551
102
}
330
551
100
AcDbSortentsTable
330
1F
331
6F5
  5
427
331
734
  5
466
331
6F1
  5
507
331
730
  5
462
331
775
  5
775
331
6ED
  5
503
331
72C
  5
45E
331
728
  5
45A
331
7D2
  5
7D2
331
6E9
  5
4FF
331
765
  5
497
331
761
  5
493
331
644
  5
53B
331
597
  5
630
331
5D6
  5
5B0
331
605
  5
5DF
331
601
  5
5DB
331
640
  5
537
331
593
  5
62C
331
5D2
  5
5AC
331
5CE
  5
5A8
331
5FD
  5
5D7
331
63C
  5
533
331
58F
  5
628
331
58B
  5
624
331
5CA
  5
5A4
331
525
  5
662
331
564
  5
5FD
331
5F9
  5
5D3
331
67F
  5
578
331
6BE
  5
4D4
331
638
  5
52F
331
6BA
  5
4D0
331
521
  5
65E
331
560
  5
5F9
331
67B
  5
574
331
6B6
  5
4CC
331
51D
  5
65A
331
55C
  5
5F5
331
677
  5
570
331
558
  5
5F1
331
673
  5
56C
331
6B2
  5
4C8
331
519
  5
656
331
6E5
  5
4FB
331
724
  5
456
331
6E1
  5
4F7
331
720
  5
452
331
75D
  5
48F
331
6DD
  5
4F3
331
71C
  5
44E
331
556
  5
5EF
331
718
  5
44A
331
759
  5
48B
331
6D9
  5
4EF
331
755
  5
487
331
751
  5
483
331
634
  5
52B
331
587
  5
620
331
5C6
  5
5A0
331
5F5
  5
5CF
331
5F1
  5
5CB
331
630
  5
527
331
583
  5
61C
331
5C2
  5
59C
331
5BE
  5
598
331
62C
  5
523
331
784
  5
784
331
5BA
  5
594
331
66F
  5
568
331
6AE
  5
4C4
331
628
  5
51F
331
780
  5
780
331
66B
  5
564
331
6AA
  5
4C0
331
6A6
  5
4BC
331
54C
  5
689
331
667
  5
560
331
548
  5
685
331
663
  5
55C
331
6A2
  5
4B8
331
714
  5
446
331
710
  5
442
331
74F
  5
481
331
74B
  5
47D
331
70C
  5
43E
331
708
  5
43A
331
515
  5
652
331
76A
  5
76A
331
511
  5
64E
331
624
  5
51B
331
5B6
  5
590
331
620
  5
517
331
65F
  5
558
331
5B2
  5
58C
331
5ED
  5
5C7
331
61C
  5
513
331
65B
  5
554
331
5AE
  5
588
331
5AA
  5
584
331
544
  5
681
331
5E9
  5
5C3
331
69E
  5
4B4
331
618
  5
50F
331
540
  5
67D
331
57F
  5
618
331
69A
  5
4B0
331
57B
  5
614
331
696
  5
4AC
331
6D5
  5
4EB
331
53C
  5
679
331
692
  5
4A8
331
6D1
  5
4E7
331
538
  5
675
331
747
  5
479
331
704
  5
436
331
743
  5
475
331
700
  5
432
331
73F
  5
471
331
73B
  5
46D
331
50D
  5
64A
331
6FC
  5
42E
331
6F8
  5
42A
331
509
  5
646
331
77C
  5
77C
331
505
  5
642
331
778
  5
778
331
501
  5
63E
331
657
  5
54E
331
614
  5
50B
331
653
  5
54A
331
5A6
  5
580
331
5E5
  5
5BF
331
610
  5
5EA
331
64F
  5
546
331
5A2
  5
63B
331
5E1
  5
5BB
331
5DD
  5
5B7
331
60C
  5
5E6
331
64B
  5
542
331
577
  5
610
331
59E
  5
637
331
59A
  5
633
331
5D9
  5
5B3
331
534
  5
671
331
573
  5
60C
331
608
  5
5E2
331
68E
  5
4A4
331
6CD
  5
4E3
331
6C9
  5
4DF
331
530
  5
66D
331
56F
  5
608
331
68A
  5
4A0
331
686
  5
49C
331
6C5
  5
4DB
331
52C
  5
669
331
56B
  5
604
331
682
  5
57B
331
6C1
  5
4D7
331
528
  5
665
331
737
  5
469
331
6F4
  5
426
331
733
  5
465
331
6F0
  5
506
331
72F
  5
461
331
72B
  5
45D
331
774
  5
774
331
6EC
  5
502
331
7D1
  5
7D1
331
6E8
  5
4FE
331
764
  5
496
331
760
  5
492
331
647
  5
53E
331
643
  5
53A
331
596
  5
62F
331
5D5
  5
5AF
331
604
  5
5DE
331
600
  5
5DA
331
63F
  5
536
331
592
  5
62B
331
5D1
  5
5AB
331
5CD
  5
5A7
331
5FC
  5
5D6
331
63B
  5
532
331
567
  5
600
331
58E
  5
627
331
58A
  5
623
331
5C9
  5
5A3
331
524
  5
661
331
563
  5
5FC
331
5F8
  5
5D2
331
67E
  5
577
331
6BD
  5
4D3
331
6B9
  5
4CF
331
520
  5
65D
331
55F
  5
5F8
331
67A
  5
573
331
676
  5
56F
331
6B5
  5
4CB
331
51C
  5
659
331
55B
  5
5F4
331
672
  5
56B
331
6B1
  5
4C7
331
518
  5
655
331
727
  5
459
331
6E4
  5
4FA
331
723
  5
455
331
6E0
  5
4F6
331
71F
  5
451
331
555
  5
5EE
331
75C
  5
48E
331
6DC
  5
4F2
331
71B
  5
44D
331
758
  5
48A
331
6D8
  5
4EE
331
754
  5
486
331
750
  5
482
331
637
  5
52E
331
633
  5
52A
331
586
  5
61F
331
5C5
  5
59F
331
5F4
  5
5CE
331
5F0
  5
5CA
331
62F
  5
526
331
582
  5
61B
331
5C1
  5
59B
331
5BD
  5
597
331
62B
  5
522
331
783
  5
783
331
5B9
  5
593
331
66E
  5
567
331
6AD
  5
4C3
331
6A9
  5
4BF
331
54F
  5
68C
331
66A
  5
563
331
6A5
  5
4BB
331
54B
  5
688
331
666
  5
55F
331
662
  5
55B
331
6A1
  5
4B7
331
717
  5
449
331
713
  5
445
331
70F
  5
441
331
74E
  5
480
331
74A
  5
47C
331
70B
  5
43D
331
514
  5
651
331
510
  5
64D
331
627
  5
51E
331
623
  5
51A
331
5B5
  5
58F
331
61F
  5
516
331
65E
  5
557
331
5B1
  5
58B
331
5AD
  5
587
331
547
  5
684
331
5EC
  5
5C6
331
61B
  5
512
331
65A
  5
553
331
5A9
  5
583
331
543
  5
680
331
5E8
  5
5C2
331
69D
  5
4B3
331
53F
  5
67C
331
57E
  5
617
331
699
  5
4AF
331
57A
  5
613
331
695
  5
4AB
331
6D4
  5
4EA
331
53B
  5
678
331
691
  5
4A7
331
6D0
  5
4E6
331
707
  5
439
331
746
  5
478
331
703
  5
435
331
742
  5
474
331
6FF
  5
431
331
73E
  5
470
331
73A
  5
46C
331
50C
  5
649
331
6FB
  5
42D
331
77F
  5
77F
331
508
  5
645
331
77B
  5
77B
331
504
  5
641
331
500
  5
63D
331
656
  5
54D
331
617
  5
50E
331
613
  5
50A
331
652
  5
549
331
5A5
  5
57F
331
5E4
  5
5BE
331
5E0
  5
5BA
331
60F
  5
5E9
331
64E
  5
545
331
5A1
  5
63A
331
5DC
  5
5B6
331
60B
  5
5E5
331
64A
  5
541
331
537
  5
674
331
576
  5
60F
331
59D
  5
636
331
599
  5
632
331
5D8
  5
5B2
331
533
  5
670
331
572
  5
60B
331
68D
  5
4A3
331
6CC
  5
4E2
331
6C8
  5
4DE
331
52F
  5
66C
331
56E
  5
607
331
689
  5
49F
331
56A
  5
603
331
685
  5
49B
331
6C4
  5
4DA
331
52B
  5
668
331
681
  5
57A
331
6C0
  5
4D6
331
6F7
  5
429
331
736
  5
468
331
6F3
  5
425
331
732
  5
464
331
777
  5
777
331
6EF
  5
505
331
72E
  5
460
331
72A
  5
45C
331
773
  5
773
331
6EB
  5
501
331
767
  5
499
331
763
  5
495
331
646
  5
53D
331
607
  5
5E1
331
603
  5
5DD
331
642
  5
539
331
595
  5
62E
331
5D4
  5
5AE
331
5FF
  5
5D9
331
63E
  5
535
331
591
  5
62A
331
5D0
  5
5AA
331
5CC
  5
5A6
331
5FB
  5
5D5
331
63A
  5
531
331
566
  5
5FF
331
58D
  5
626
331
527
  5
664
331
589
  5
622
331
5C8
  5
5A2
331
523
  5
660
331
562
  5
5FB
331
67D
  5
576
331
6BC
  5
4D2
331
6B8
  5
4CE
331
51F
  5
65C
331
55E
  5
5F7
331
679
  5
572
331
675
  5
56E
331
6B4
  5
4CA
331
51B
  5
658
331
55A
  5
5F3
331
671
  5
56A
331
6B0
  5
4C6
331
6E7
  5
4FD
331
726
  5
458
331
6E3
  5
4F9
331
722
  5
454
331
75F
  5
491
331
6DF
  5
4F5
331
71E
  5
450
331
71A
  5
44C
331
554
  5
5ED
331
75B
  5
48D
331
6DB
  5
4F1
331
550
  5
68D
331
757
  5
489
331
753
  5
485
331
636
  5
52D
331
5F7
  5
5D1
331
632
  5
529
331
585
  5
61E
331
5C4
  5
59E
331
5F3
  5
5CD
331
62E
  5
525
331
581
  5
61A
331
5C0
  5
59A
331
5BC
  5
596
331
62A
  5
521
331
782
  5
782
331
5B8
  5
592
331
66D
  5
566
331
6AC
  5
4C2
331
6A8
  5
4BE
331
54E
  5
68B
331
669
  5
562
331
665
  5
55E
331
6A4
  5
4BA
331
54A
  5
687
331
661
  5
55A
331
6A0
  5
4B6
331
716
  5
448
331
712
  5
444
331
74D
  5
47F
331
70E
  5
440
331
749
  5
47B
331
70A
  5
43C
331
517
  5
654
331
513
  5
650
331
768
  5
49A
331
626
  5
51D
331
622
  5
519
331
5B4
  5
58E
331
5EF
  5
5C9
331
61E
  5
515
331
65D
  5
556
331
5B0
  5
58A
331
5AC
  5
586
331
546
  5
683
331
5EB
  5
5C5
331
61A
  5
511
331
659
  5
550
331
5A8
  5
582
331
542
  5
67F
331
69C
  5
4B2
331
698
  5
4AE
331
6D7
  5
4ED
331
53E
  5
67B
331
57D
  5
616
331
579
  5
612
331
694
  5
4AA
331
6D3
  5
4E9
331
53A
  5
677
331
690
  5
4A6
331
706
  5
438
331
745
  5
477
331
702
  5
434
331
741
  5
473
331
50F
  5
64C
331
6FE
  5
430
331
73D
  5
46F
331
739
  5
46B
331
50B
  5
648
331
6FA
  5
42C
331
77E
  5
77E
331
507
  5
644
331
77A
  5
77A
331
503
  5
640
331
655
  5
54C
331
5E7
  5
5C1
331
616
  5
50D
331
612
  5
509
331
651
  5
548
331
5A4
  5
57E
331
5E3
  5
5BD
331
5DF
  5
5B9
331
60E
  5
5E8
331
64D
  5
544
331
5A0
  5
639
331
59C
  5
635
331
5DB
  5
5B5
331
536
  5
673
331
575
  5
60E
331
60A
  5
5E4
331
6CF
  5
4E5
331
649
  5
540
331
598
  5
631
331
6CB
  5
4E1
331
532
  5
66F
331
571
  5
60A
331
68C
  5
4A2
331
6C7
  5
4DD
331
52E
  5
66B
331
56D
  5
606
331
688
  5
49E
331
569
  5
602
331
684
  5
57D
331
6C3
  5
4D9
331
52A
  5
667
331
680
  5
579
331
6F6
  5
428
331
735
  5
467
331
6F2
  5
508
331
731
  5
463
331
776
  5
776
331
6EE
  5
504
331
72D
  5
45F
331
729
  5
45B
331
772
  5
772
331
6EA
  5
500
331
766
  5
498
331
762
  5
494
331
645
  5
53C
331
5D7
  5
5B1
331
606
  5
5E0
331
602
  5
5DC
331
641
  5
538
331
594
  5
62D
331
5D3
  5
5AD
331
5CF
  5
5A9
331
5FE
  5
5D8
331
63D
  5
534
331
590
  5
629
331
5CB
  5
5A5
331
5FA
  5
5D4
331
639
  5
530
331
526
  5
663
331
565
  5
5FE
331
6BF
  5
4D5
331
58C
  5
625
331
588
  5
621
331
522
  5
65F
331
561
  5
5FA
331
67C
  5
575
331
6BB
  5
4D1
331
6B7
  5
4CD
331
51E
  5
65B
331
55D
  5
5F6
331
678
  5
571
331
559
  5
5F2
331
674
  5
56D
331
6B3
  5
4C9
331
51A
  5
657
331
670
  5
569
331
6E6
  5
4FC
331
725
  5
457
331
6E2
  5
4F8
331
721
  5
453
331
75E
  5
490
331
6DE
  5
4F4
331
71D
  5
44F
331
557
  5
5F0
331
719
  5
44B
331
553
  5
5EC
331
75A
  5
48C
331
6DA
  5
4F0
331
756
  5
488
331
752
  5
484
331
635
  5
52C
331
5C7
  5
5A1
331
5F6
  5
5D0
331
5F2
  5
5CC
331
631
  5
528
331
584
  5
61D
331
5C3
  5
59D
331
62D
  5
524
331
580
  5
619
331
5BF
  5
599
331
5BB
  5
595
331
6AF
  5
4C5
331
629
  5
520
331
781
  5
781
331
66C
  5
565
331
6AB
  5
4C1
331
6A7
  5
4BD
331
54D
  5
68A
331
668
  5
561
331
664
  5
55D
331
6A3
  5
4B9
331
549
  5
686
331
660
  5
559
331
715
  5
447
331
711
  5
443
331
74C
  5
47E
331
70D
  5
43F
331
709
  5
43B
331
748
  5
47A
331
516
  5
653
331
512
  5
64F
331
625
  5
51C
331
5B7
  5
591
331
621
  5
518
331
5B3
  5
58D
331
5EE
  5
5C8
331
61D
  5
514
331
65C
  5
555
331
5AF
  5
589
331
658
  5
54F
331
5AB
  5
585
331
545
  5
682
331
5EA
  5
5C4
331
69F
  5
4B5
331
619
  5
510
331
541
  5
67E
331
69B
  5
4B1
331
697
  5
4AD
331
6D6
  5
4EC
331
53D
  5
67A
331
57C
  5
615
331
578
  5
611
331
693
  5
4A9
331
6D2
  5
4E8
331
539
  5
676
331
705
  5
437
331
744
  5
476
331
701
  5
433
331
740
  5
472
331
73C
  5
46E
331
50E
  5
64B
331
6FD
  5
42F
331
738
  5
46A
331
50A
  5
647
331
6F9
  5
42B
331
77D
  5
77D
331
506
  5
643
331
779
  5
779
331
502
  5
63F
331
654
  5
54B
331
5A7
  5
581
331
5E6
  5
5C0
331
615
  5
50C
331
611
  5
5EB
331
650
  5
547
331
5A3
  5
63C
331
5E2
  5
5BC
331
5DE
  5
5B8
331
60D
  5
5E7
331
64C
  5
543
331
59F
  5
638
331
59B
  5
634
331
5DA
  5
5B4
331
535
  5
672
331
574
  5
60D
331
609
  5
5E3
331
68F
  5
4A5
331
6CE
  5
4E4
331
648
  5
53F
331
6CA
  5
4E0
331
531
  5
66E
331
570
  5
609
331
68B
  5
4A1
331
687
  5
49D
331
6C6
  5
4DC
331
52D
  5
66A
331
56C
  5
605
331
568
  5
601
331
683
  5
57C
331
6C2
  5
4D8
331
529
  5
666
  0
ACDBDETAILVIEWSTYLE
  5
335
102
{ACAD_XDICTIONARY
360
86A
102
}
102
{ACAD_REACTORS
330
334
102
}
330
334
100
AcDbModelDocViewStyle
 70
     0
  3
Metric50
290
     0
100
AcDbDetailViewStyle
 70
     0
 71
     0
 90
        3
 71
     1
340
11
 40
5.0
340
0
 40
5.0
300

 40
0.0
280
     1
 71
     2
340
16
 90
       25
 71
     3
340
11
 40
5.0
 90
        0
 40
15.0
 90
        1
300
%<\AcVar ViewDetailId>% (%<\AcVar ViewScale \f "%sn">%)
 71
     4
340
16
 90
       25
340
16
 90
       25
280
     0
  0
GROUP
  5
7DA
102
{ACAD_REACTORS
330
D
102
}
330
D
100
AcDbGroup
300

 70
     1
 71
     1
340
780
340
77F
340
77E
340
77D
340
768
340
767
340
766
340
765
340
764
340
763
340
762
340
761
340
760
340
75F
340
75E
340
75D
340
75C
340
75B
340
75A
340
759
340
758
340
757
340
756
340
755
340
754
340
753
340
752
340
751
340
750
340
74F
340
74E
340
74D
340
74C
340
74B
340
74A
340
749
340
748
340
747
340
746
340
745
340
744
340
743
340
742
340
741
340
740
340
73F
340
73E
340
73D
340
73C
340
73B
340
73A
340
739
340
738
340
737
340
736
340
735
340
734
340
733
340
732
340
731
340
730
340
72F
340
72E
340
72D
340
72C
340
72B
340
72A
340
729
340
728
340
727
340
726
340
725
340
724
340
723
340
722
340
721
340
720
340
71F
340
71E
340
71D
340
71C
340
71B
340
71A
340
719
340
718
340
717
340
716
340
715
340
714
340
713
340
712
340
711
340
710
340
70F
340
70E
340
70D
340
70C
340
70B
340
70A
340
709
340
708
340
707
340
706
340
705
340
704
340
703
340
702
340
701
340
700
340
6FF
340
6FE
340
6FD
340
6FC
340
6FB
340
6FA
340
6F9
340
6F8
340
6F7
340
6F6
340
6F5
340
6F4
340
6F3
  0
GROUP
  5
7DB
102
{ACAD_REACTORS
330
D
102
}
330
D
100
AcDbGroup
300

 70
     1
 71
     1
340
77C
340
77B
340
77A
340
779
340
684
340
683
340
682
340
681
340
680
340
67F
340
67E
340
67D
340
67C
340
67B
340
67A
340
679
340
678
340
677
340
676
340
675
340
674
340
673
340
672
340
671
340
670
340
66F
340
66E
340
66D
340
66C
340
66B
340
66A
340
669
340
668
340
667
340
666
340
665
340
664
340
663
340
662
340
661
340
660
340
65F
340
65E
340
65D
340
65C
340
65B
340
65A
340
659
340
658
340
657
340
656
340
655
340
654
340
653
340
652
340
651
340
650
340
64F
340
64E
340
64D
340
64C
340
64B
340
64A
340
649
340
648
340
647
340
646
340
645
340
644
340
643
340
642
340
641
340
640
340
63F
340
63E
340
63D
340
63C
340
63B
340
63A
340
639
340
638
340
637
340
636
340
635
340
634
340
633
340
632
340
631
340
630
340
62F
340
62E
340
62D
340
62C
340
62B
340
62A
340
629
340
628
340
627
340
626
340
625
340
624
340
623
340
622
340
621
340
620
340
61F
340
61E
340
61D
340
61C
340
61B
340
61A
340
619
340
618
340
617
340
616
340
615
340
614
340
613
340
612
  0
GROUP
  5
7DC
102
{ACAD_REACTORS
330
D
102
}
330
D
100
AcDbGroup
300

 70
     1
 71
     1
340
778
340
777
340
776
340
775
340
611
340
610
340
60F
340
60E
340
60D
340
60C
340
60B
340
60A
340
609
340
608
340
607
340
606
340
605
340
604
340
603
340
602
340
601
340
600
340
5FF
340
5FE
340
5FD
340
5FC
340
5FB
340
5FA
340
5F9
340
5F8
340
5F7
340
5F6
340
5F5
340
5F4
340
5F3
340
5F2
340
5F1
340
5F0
340
5EF
340
5EE
340
5ED
340
5EC
340
5EB
340
5EA
340
5E9
340
5E8
340
5E7
340
5E6
340
5E5
340
5E4
340
5E3
340
5E2
340
5E1
340
5E0
340
5DF
340
5DE
340
5DD
340
5DC
340
5DB
340
5DA
340
5D9
340
5D8
340
5D7
340
5D6
340
5D5
340
5D4
340
5D3
340
5D2
340
5D1
340
5D0
340
5CF
340
5CE
340
5CD
340
5CC
340
5CB
340
5CA
340
5C9
340
5C8
340
5C7
340
5C6
340
5C5
340
5C4
340
5C3
340
5C2
340
5C1
340
5C0
340
5BF
340
5BE
340
5BD
340
5BC
340
5BB
340
5BA
340
5B9
340
5B8
340
5B7
340
5B6
340
5B5
340
5B4
340
5B3
340
5B2
340
5B1
340
5B0
340
5AF
340
5AE
340
5AD
340
5AC
340
5AB
340
5AA
340
5A9
340
5A8
340
5A7
340
5A6
340
5A5
340
5A4
  0
GROUP
  5
7D3
102
{ACAD_REACTORS
330
D
102
}
330
D
100
AcDbGroup
300

 70
     1
 71
     1
340
7D2
340
772
340
76A
340
5A3
340
5A2
340
5A1
340
5A0
340
59F
340
59E
340
59D
340
59C
340
59B
340
59A
340
599
340
598
340
597
340
596
340
595
340
594
340
593
340
592
340
591
340
590
340
58F
340
58E
340
58D
340
58C
340
58B
340
58A
340
589
340
588
340
587
340
586
340
585
340
584
340
583
340
582
340
581
340
580
340
57F
340
57E
340
57D
340
57C
340
57B
340
57A
340
579
340
578
340
577
340
576
340
575
340
574
340
573
340
572
340
571
340
570
340
56F
340
56E
340
56D
340
56C
340
56B
340
56A
340
569
340
568
340
567
340
566
340
565
340
564
340
563
340
562
340
561
340
560
340
55F
340
55E
340
55D
340
55C
340
55B
340
55A
340
559
340
558
340
557
340
556
340
555
340
554
340
553
  0
GROUP
  5
7D4
102
{ACAD_REACTORS
330
D
102
}
330
D
100
AcDbGroup
300

 70
     1
 71
     1
340
7D1
340
774
340
773
340
550
340
54F
340
54E
340
54D
340
54C
340
54B
340
54A
340
549
340
548
340
547
340
546
340
545
340
544
340
543
340
542
340
541
340
540
340
53F
340
53E
340
53D
340
53C
340
53B
340
53A
340
539
340
538
340
537
340
536
340
535
340
534
340
533
340
532
340
531
340
530
340
52F
340
52E
340
52D
340
52C
340
52B
340
52A
340
529
340
528
340
527
340
526
340
525
340
524
340
523
340
522
340
521
340
520
340
51F
340
51E
340
51D
340
51C
340
51B
340
51A
340
519
340
518
340
517
340
516
340
515
340
514
340
513
340
512
340
511
340
510
340
50F
340
50E
340
50D
340
50C
340
50B
340
50A
340
509
340
508
340
507
340
506
340
505
340
504
340
503
340
502
340
501
340
500
  0
GROUP
  5
7D9
102
{ACAD_REACTORS
330
D
102
}
330
D
100
AcDbGroup
300

 70
     1
 71
     1
340
784
340
783
340
782
340
781
340
6F2
340
6F1
340
6F0
340
6EF
340
6EE
340
6ED
340
6EC
340
6EB
340
6EA
340
6E9
340
6E8
340
6E7
340
6E6
340
6E5
340
6E4
340
6E3
340
6E2
340
6E1
340
6E0
340
6DF
340
6DE
340
6DD
340
6DC
340
6DB
340
6DA
340
6D9
340
6D8
340
6D7
340
6D6
340
6D5
340
6D4
340
6D3
340
6D2
340
6D1
340
6D0
340
6CF
340
6CE
340
6CD
340
6CC
340
6CB
340
6CA
340
6C9
340
6C8
340
6C7
340
6C6
340
6C5
340
6C4
340
6C3
340
6C2
340
6C1
340
6C0
340
6BF
340
6BE
340
6BD
340
6BC
340
6BB
340
6BA
340
6B9
340
6B8
340
6B7
340
6B6
340
6B5
340
6B4
340
6B3
340
6B2
340
6B1
340
6B0
340
6AF
340
6AE
340
6AD
340
6AC
340
6AB
340
6AA
340
6A9
340
6A8
340
6A7
340
6A6
340
6A5
340
6A4
340
6A3
340
6A2
340
6A1
340
6A0
340
69F
340
69E
340
69D
340
69C
340
69B
340
69A
340
699
340
698
340
697
340
696
340
695
340
694
340
693
340
692
340
691
340
690
340
68F
340
68E
340
68D
340
68C
340
68B
340
68A
340
689
340
688
340
687
340
686
340
685
  0
LAYOUT
  5
1E
102
{ACAD_XDICTIONARY
360
833
102
}
102
{ACAD_REACTORS
330
1A
102
}
330
1A
100
AcDbPlotSettings
  1

  2
none_device
  4

  6

 40
0.0
 41
0.0
 42
0.0
 43
0.0
 44
0.0
 45
0.0
 46
0.0
 47
0.0
 48
0.0
 49
0.0
140
0.0
141
0.0
142
1.0
143
1.0
 70
   688
 72
     1
 73
     0
 74
     5
  7

 75
    16
147
1.0
148
0.0
149
0.0
100
AcDbLayout
  1
Layout1
 70
     1
 71
     1
 10
0.0
 20
0.0
 11
420.0
 21
297.0
 12
0.0
 22
0.0
 32
0.0
 14
1.000000000000000E+20
 24
1.000000000000000E+20
 34
1.000000000000000E+20
 15
-1.000000000000000E+20
 25
-1.000000000000000E+20
 35
-1.000000000000000E+20
146
0.0
 13
0.0
 23
0.0
 33
0.0
 16
1.0
 26
0.0
 36
0.0
 17
0.0
 27
1.0
 37
0.0
 76
     0
330
1B
  0
LAYOUT
  5
22
102
{ACAD_XDICTIONARY
360
835
102
}
102
{ACAD_REACTORS
330
1A
102
}
330
1A
100
AcDbPlotSettings
  1

  2
none_device
  4
Letter_(8.50_x_11.00_Inches)
  6

 40
6.349999999999998
 41
6.349999999999998
 42
6.350005079999998
 43
6.350005079999998
 44
215.9
 45
279.4
 46
0.0
 47
0.0
 48
0.0
 49
0.0
140
0.0
141
0.0
142
1.0
143
1.0
 70
  1712
 72
     1
 73
     0
 74
     0
  7

 75
     0
147
1.0
148
0.0
149
0.0
100
AcDbLayout
  1
Model
 70
     1
 71
     0
 10
-409.8433344364166
 20
-642.571396112442
 11
758.9231910705566
 21
651.2683336734773
 12
0.0
 22
0.0
 32
0.0
 14
-409.8433344364166
 24
-642.571396112442
 34
0.0
 15
758.9231910705566
 25
651.2683336734773
 35
0.0
146
0.0
 13
0.0
 23
0.0
 33
0.0
 16
1.0
 26
0.0
 36
0.0
 17
0.0
 27
1.0
 37
0.0
 76
     0
330
1F
331
29
  0
LAYOUT
  5
336
102
{ACAD_XDICTIONARY
360
86C
102
}
102
{ACAD_REACTORS
330
1A
102
}
330
1A
100
AcDbPlotSettings
  1

  2
青梅 FX DocuCentre-V C2275 T2
  4

  6

 40
0.0
 41
0.0
 42
0.0
 43
0.0
 44
0.0
 45
0.0
 46
0.0
 47
0.0
 48
0.0
 49
0.0
140
0.0
141
0.0
142
1.0
143
1.0
 70
   688
 72
     0
 73
     0
 74
     5
  7
AutoCAD_PEN.ctb
 75
    16
147
1.0
148
0.0
149
0.0
100
AcDbLayout
  1
レイアウト1
 70
     1
 71
     2
 10
0.0
 20
0.0
 11
12.0
 21
9.0
 12
0.0
 22
0.0
 32
0.0
 14
0.0
 24
0.0
 34
0.0
 15
0.0
 25
0.0
 35
0.0
146
0.0
 13
0.0
 23
0.0
 33
0.0
 16
1.0
 26
0.0
 36
0.0
 17
0.0
 27
1.0
 37
0.0
 76
     0
330
23
  0
MATERIAL
  5
45
102
{ACAD_XDICTIONARY
360
328
102
}
102
{ACAD_REACTORS
330
43
102
}
330
43
100
AcDbMaterial
  1
ByBlock
  0
MATERIAL
  5
44
102
{ACAD_XDICTIONARY
360
326
102
}
102
{ACAD_REACTORS
330
43
102
}
330
43
100
AcDbMaterial
  1
ByLayer
  0
MATERIAL
  5
46
102
{ACAD_XDICTIONARY
360
32A
102
}
102
{ACAD_REACTORS
330
43
102
}
330
43
100
AcDbMaterial
  1
Global
  0
MLEADERSTYLE
  5
5C
102
{ACAD_REACTORS
330
5B
102
}
330
5B
100
AcDbMLeaderStyle
170
     2
171
     1
172
     0
 90
        2
 40
0.0
 41
0.0
173
     1
 91
-1056964608
340
14
 92
       -2
290
     1
 42
2.0
291
     1
 43
8.0
  3
Standard
 44
4.0
300

342
11
174
     1
178
     6
175
     1
176
     0
 93
-1056964608
 45
4.0
292
     0
297
     0
 46
4.0
 94
-1056964608
 47
1.0
 49
1.0
140
1.0
293
     1
141
0.0
294
     1
177
     0
142
1.0
295
     0
296
     0
143
3.75
1001
ACAD_MLEADERVER
1070
     2
  0
MLINESTYLE
  5
18
102
{ACAD_REACTORS
330
17
102
}
330
17
100
AcDbMlineStyle
  2
STANDARD
 70
     0
  3

 62
   256
 51
90.0
 52
90.0
 71
     2
 49
0.5
 62
   256
  6
BYLAYER
 49
-0.5
 62
   256
  6
BYLAYER
  0
ACDBPLACEHOLDER
  5
F
102
{ACAD_REACTORS
330
E
102
}
330
E
  0
SCALE
  5
48
102
{ACAD_REACTORS
330
47
102
}
330
47
100
AcDbScale
 70
     0
300
1:1
140
1.0
141
1.0
290
     1
  0
SCALE
  5
49
102
{ACAD_REACTORS
330
47
102
}
330
47
100
AcDbScale
 70
     0
300
1:2
140
1.0
141
2.0
290
     0
  0
SCALE
  5
4A
102
{ACAD_REACTORS
330
47
102
}
330
47
100
AcDbScale
 70
     0
300
1:4
140
1.0
141
4.0
290
     0
  0
SCALE
  5
4B
102
{ACAD_REACTORS
330
47
102
}
330
47
100
AcDbScale
 70
     0
300
1:5
140
1.0
141
5.0
290
     0
  0
SCALE
  5
4C
102
{ACAD_REACTORS
330
47
102
}
330
47
100
AcDbScale
 70
     0
300
1:8
140
1.0
141
8.0
290
     0
  0
SCALE
  5
4D
102
{ACAD_REACTORS
330
47
102
}
330
47
100
AcDbScale
 70
     0
300
1:10
140
1.0
141
10.0
290
     0
  0
SCALE
  5
4E
102
{ACAD_REACTORS
330
47
102
}
330
47
100
AcDbScale
 70
     0
300
1:16
140
1.0
141
16.0
290
     0
  0
SCALE
  5
4F
102
{ACAD_REACTORS
330
47
102
}
330
47
100
AcDbScale
 70
     0
300
1:20
140
1.0
141
20.0
290
     0
  0
SCALE
  5
50
102
{ACAD_REACTORS
330
47
102
}
330
47
100
AcDbScale
 70
     0
300
1:30
140
1.0
141
30.0
290
     0
  0
SCALE
  5
51
102
{ACAD_REACTORS
330
47
102
}
330
47
100
AcDbScale
 70
     0
300
1:40
140
1.0
141
40.0
290
     0
  0
SCALE
  5
52
102
{ACAD_REACTORS
330
47
102
}
330
47
100
AcDbScale
 70
     0
300
1:50
140
1.0
141
50.0
290
     0
  0
SCALE
  5
53
102
{ACAD_REACTORS
330
47
102
}
330
47
100
AcDbScale
 70
     0
300
1:100
140
1.0
141
100.0
290
     0
  0
SCALE
  5
54
102
{ACAD_REACTORS
330
47
102
}
330
47
100
AcDbScale
 70
     0
300
2:1
140
2.0
141
1.0
290
     0
  0
SCALE
  5
55
102
{ACAD_REACTORS
330
47
102
}
330
47
100
AcDbScale
 70
     0
300
4:1
140
4.0
141
1.0
290
     0
  0
SCALE
  5
56
102
{ACAD_REACTORS
330
47
102
}
330
47
100
AcDbScale
 70
     0
300
8:1
140
8.0
141
1.0
290
     0
  0
SCALE
  5
57
102
{ACAD_REACTORS
330
47
102
}
330
47
100
AcDbScale
 70
     0
300
10:1
140
10.0
141
1.0
290
     0
  0
SCALE
  5
58
102
{ACAD_REACTORS
330
47
102
}
330
47
100
AcDbScale
 70
     0
300
100:1
140
100.0
141
1.0
290
     0
  0
ACDBSECTIONVIEWSTYLE
  5
333
102
{ACAD_XDICTIONARY
360
868
102
}
102
{ACAD_REACTORS
330
332
102
}
330
332
100
AcDbModelDocViewStyle
 70
     0
  3
Metric50
290
     0
100
AcDbSectionViewStyle
 70
     0
 71
     0
 90
      102
 71
     1
340
11
 40
5.0
340
0
340
0
 40
5.0
300
I, O, Q, S, X, Z
 40
10.0
 90
        0
 40
2.5
 90
        0
 71
     2
340
16
 90
       25
340
16
 90
       50
 40
5.0
 40
2.5
 40
5.0
 71
     3
340
11
 40
5.0
 90
        0
 40
15.0
 90
        1
300
%<\AcVar ViewSectionStartId>%-%<\AcVar ViewSectionEndId>% (%<\AcVar ViewScale \f "%sn">%)
 71
     4
300
ANSI31
 40
1.0
 90
        0
290
     0
290
     0
 90
        6
 40
0.0
 40
1.570796326794896
 40
0.2617993877991494
 40
1.308996938995747
 40
-0.2617993877991494
 40
1.832595714594045
  0
TABLESTYLE
  5
5A
102
{ACAD_XDICTIONARY
360
794
102
}
102
{ACAD_REACTORS
330
59
102
}
330
59
100
AcDbTableStyle
  3
Standard
 70
     0
 71
     0
 40
1.5
 41
1.5
280
     0
281
     0
  7
Standard
140
4.5
170
     2
 62
     0
 63
     7
283
     0
274
    -2
284
     1
 64
     0
275
    -2
285
     1
 65
     0
276
    -2
286
     1
 66
     0
277
    -2
287
     1
 67
     0
278
    -2
288
     1
 68
     0
279
    -2
289
     1
 69
     0
  7
Standard
140
6.0
170
     5
 62
     0
 63
     7
283
     0
274
    -2
284
     1
 64
     0
275
    -2
285
     1
 65
     0
276
    -2
286
     1
 66
     0
277
    -2
287
     1
 67
     0
278
    -2
288
     1
 68
     0
279
    -2
289
     1
 69
     0
  7
Standard
140
4.5
170
     5
 62
     0
 63
     7
283
     0
274
    -2
284
     1
 64
     0
275
    -2
285
     1
 65
     0
276
    -2
286
     1
 66
     0
277
    -2
287
     1
 67
     0
278
    -2
288
     1
 68
     0
279
    -2
289
     1
 69
     0
  0
VISUALSTYLE
  5
2F
102
{ACAD_XDICTIONARY
360
83F
102
}
102
{ACAD_REACTORS
330
2A
102
}
330
2A
100
AcDbVisualStyle
  2

 70
     4
 71
     0
 72
     2
 73
     0
 90
        0
 40
-0.6
 41
-30.0
 62
     5
 63
     7
 74
     1
 91
        4
 64
     7
 65
   257
 75
     1
175
     1
 42
1.0
 92
        0
 66
   257
 43
1.0
 76
     1
 77
     6
 78
     2
 67
     7
 79
     5
170
     0
171
     0
290
     0
174
     0
 93
        1
 44
0.0
173
     0
291
     0
 45
0.0
1001
ACAD
1000
AcDbSavedByObjectVersion
1070
     0
  0
VISUALSTYLE
  5
32
102
{ACAD_XDICTIONARY
360
845
102
}
102
{ACAD_REACTORS
330
2A
102
}
330
2A
100
AcDbVisualStyle
  2

 70
     7
 71
     1
 72
     0
 73
     1
 90
        0
 40
-0.6
 41
-30.0
 62
     5
 63
     7
 74
     0
 91
        4
 64
     7
 65
   257
 75
     1
175
     1
 42
1.0
 92
        8
 66
     7
 43
1.0
 76
     1
 77
     6
 78
     2
 67
     7
 79
     5
170
     0
171
     0
290
     0
174
     0
 93
        1
 44
0.0
173
     0
291
     1
 45
0.0
1001
ACAD
1000
AcDbSavedByObjectVersion
1070
     0
  0
VISUALSTYLE
  5
36
102
{ACAD_XDICTIONARY
360
84D
102
}
102
{ACAD_REACTORS
330
2A
102
}
330
2A
100
AcDbVisualStyle
  2

 70
    12
 71
     2
 72
     2
 73
     0
 90
        0
 40
-0.6
 41
-30.0
 62
     5
 63
     7
 74
     1
 91
        4
 64
     7
 65
   257
 75
     1
175
     1
 42
1.0
 92
        8
 66
     7
 43
1.0
 76
     1
 77
     6
 78
     2
 67
     7
 79
     5
170
     0
171
     0
290
     0
174
     0
 93
        1
 44
50.0
173
     0
291
     1
 45
0.0
1001
ACAD
1000
AcDbSavedByObjectVersion
1070
     0
  0
VISUALSTYLE
  5
3A
102
{ACAD_XDICTIONARY
360
855
102
}
102
{ACAD_REACTORS
330
2A
102
}
330
2A
100
AcDbVisualStyle
  2

 70
    16
 71
     2
 72
     2
 73
     3
 90
        0
 40
-0.6
 41
-30.0
 62
     5
 63
     8
 74
     1
 91
        4
 64
     7
 65
   257
 75
     1
175
     1
 42
1.0
 92
        8
 66
     8
 43
1.0
 76
     1
 77
     6
 78
     2
 67
     7
 79
     5
170
     0
171
     0
290
     0
174
     0
 93
        1
 44
0.0
173
     0
291
     1
 45
0.0
1001
ACAD
1000
AcDbSavedByObjectVersion
1070
     0
  0
VISUALSTYLE
  5
34
102
{ACAD_XDICTIONARY
360
849
102
}
102
{ACAD_REACTORS
330
2A
102
}
330
2A
100
AcDbVisualStyle
  2

 70
     9
 71
     3
 72
     2
 73
     0
 90
        0
 40
-0.6
 41
-30.0
 62
     5
 63
     7
 74
     2
 91
        2
 64
     7
 65
   257
 75
     1
175
     1
 42
179.0
 92
        8
 66
     7
 43
1.0
 76
     1
 77
     6
 78
     2
 67
     7
 79
     3
170
     0
171
     0
290
     0
174
     0
 93
        1
 44
0.0
173
     0
291
     0
 45
0.0
1001
ACAD
1000
AcDbSavedByObjectVersion
1070
     0
  0
VISUALSTYLE
  5
35
102
{ACAD_XDICTIONARY
360
84B
102
}
102
{ACAD_REACTORS
330
2A
102
}
330
2A
100
AcDbVisualStyle
  2

 70
    11
 71
     2
 72
     2
 73
     0
 90
        0
 40
-0.6
 41
-30.0
 62
     5
 63
     7
 74
     1
 91
        4
 64
     7
 65
   257
 75
     1
175
     1
 42
1.0
 92
        8
 66
     7
 43
1.0
 76
     1
 77
     6
 78
     2
 67
     7
 79
     5
170
     0
171
     0
290
     0
174
     0
 93
        1
 44
-50.0
173
     0
291
     1
 45
0.0
1001
ACAD
1000
AcDbSavedByObjectVersion
1070
     0
  0
VISUALSTYLE
  5
3D
102
{ACAD_XDICTIONARY
360
85B
102
}
102
{ACAD_REACTORS
330
2A
102
}
330
2A
100
AcDbVisualStyle
  2

 70
    22
 71
     2
 72
     2
 73
     0
 90
        0
 40
-0.6
 41
-30.0
 62
     5
 63
     7
 74
     1
 91
        4
 64
     7
 65
   257
 75
     1
175
     1
 42
1.0
 92
        8
 66
     7
 43
1.0
 76
     1
 77
     6
 78
     2
 67
     7
 79
     5
170
     0
171
     0
290
     0
174
     0
 93
        1
 44
0.0
173
     0
291
     1
 45
0.0
1001
ACAD
1000
AcDbSavedByObjectVersion
1070
     0
  0
VISUALSTYLE
  5
39
102
{ACAD_XDICTIONARY
360
853
102
}
102
{ACAD_REACTORS
330
2A
102
}
330
2A
100
AcDbVisualStyle
  2

 70
    15
 71
     2
 72
     2
 73
     0
 90
        0
 40
-0.6
 41
-30.0
 62
     5
 63
     7
 74
     1
 91
        4
 64
     7
 65
   257
 75
     1
175
     1
 42
1.0
 92
        8
 66
     7
 43
1.0
 76
     1
 77
     6
 78
     2
 67
     7
 79
     5
170
     0
171
     0
290
     0
174
     0
 93
        1
 44
0.0
173
     0
291
     1
 45
0.0
1001
ACAD
1000
AcDbSavedByObjectVersion
1070
     0
  0
VISUALSTYLE
  5
2B
102
{ACAD_XDICTIONARY
360
837
102
}
102
{ACAD_REACTORS
330
2A
102
}
330
2A
100
AcDbVisualStyle
  2

 70
     0
 71
     2
 72
     1
 73
     1
 90
        2
 40
-0.6
 41
30.0
 62
     5
 63
     7
 74
     0
 91
        0
 64
     7
 65
   257
 75
     1
175
     1
 42
1.0
 92
        8
 66
     7
 43
1.0
 76
     1
 77
     6
 78
     2
 67
     7
 79
     5
170
     0
171
     0
290
     0
174
     0
 93
       13
 44
0.0
173
     0
291
     1
 45
0.0
1001
ACAD
1000
AcDbSavedByObjectVersion
1070
     0
  0
VISUALSTYLE
  5
2C
102
{ACAD_XDICTIONARY
360
839
102
}
102
{ACAD_REACTORS
330
2A
102
}
330
2A
100
AcDbVisualStyle
  2

 70
     1
 71
     2
 72
     1
 73
     1
 90
        2
 40
-0.6
 41
30.0
 62
     5
 63
     7
 74
     1
 91
        0
 64
     7
 65
   257
 75
     1
175
     1
 42
1.0
 92
        0
 66
   257
 43
1.0
 76
     1
 77
     6
 78
     2
 67
     7
 79
     5
170
     0
171
     0
290
     0
174
     0
 93
       13
 44
0.0
173
     0
291
     1
 45
0.0
1001
ACAD
1000
AcDbSavedByObjectVersion
1070
     0
  0
VISUALSTYLE
  5
2D
102
{ACAD_XDICTIONARY
360
83B
102
}
102
{ACAD_REACTORS
330
2A
102
}
330
2A
100
AcDbVisualStyle
  2

 70
     2
 71
     2
 72
     2
 73
     1
 90
        2
 40
-0.6
 41
30.0
 62
     5
 63
     7
 74
     0
 91
        0
 64
     7
 65
   257
 75
     1
175
     1
 42
1.0
 92
        0
 66
     7
 43
1.0
 76
     1
 77
     6
 78
     2
 67
     7
 79
     5
170
     0
171
     0
290
     0
174
     0
 93
       13
 44
0.0
173
     0
291
     1
 45
0.0
1001
ACAD
1000
AcDbSavedByObjectVersion
1070
     0
  0
VISUALSTYLE
  5
2E
102
{ACAD_XDICTIONARY
360
83D
102
}
102
{ACAD_REACTORS
330
2A
102
}
330
2A
100
AcDbVisualStyle
  2

 70
     3
 71
     2
 72
     2
 73
     1
 90
        2
 40
-0.6
 41
30.0
 62
     5
 63
     7
 74
     1
 91
        0
 64
     7
 65
   257
 75
     1
175
     1
 42
1.0
 92
        0
 66
   257
 43
1.0
 76
     1
 77
     6
 78
     2
 67
     7
 79
     5
170
     0
171
     0
290
     0
174
     0
 93
       13
 44
0.0
173
     0
291
     1
 45
0.0
1001
ACAD
1000
AcDbSavedByObjectVersion
1070
     0
  0
VISUALSTYLE
  5
31
102
{ACAD_XDICTIONARY
360
843
102
}
102
{ACAD_REACTORS
330
2A
102
}
330
2A
100
AcDbVisualStyle
  2

 70
     6
 71
     1
 72
     2
 73
     2
 90
        0
 40
-0.6
 41
-30.0
 62
     5
 63
     7
 74
     2
 91
        2
 64
     7
 65
   257
 75
     2
175
     1
 42
40.0
 92
        0
 66
   257
 43
1.0
 76
     1
 77
     6
 78
     2
 67
     7
 79
     3
170
     0
171
     0
290
     0
174
     0
 93
        1
 44
0.0
173
     0
291
     0
 45
0.0
1001
ACAD
1000
AcDbSavedByObjectVersion
1070
     0
  0
VISUALSTYLE
  5
3B
102
{ACAD_XDICTIONARY
360
857
102
}
102
{ACAD_REACTORS
330
2A
102
}
330
2A
100
AcDbVisualStyle
  2

 70
    20
 71
     2
 72
     2
 73
     0
 90
        0
 40
-0.6
 41
-30.0
 62
     5
 63
     7
 74
     1
 91
        4
 64
     7
 65
   257
 75
     1
175
     1
 42
1.0
 92
       10
 66
     7
 43
1.0
 76
     1
 77
     6
 78
     2
 67
     7
 79
     5
170
     0
171
     0
290
     0
174
     0
 93
        1
 44
0.0
173
     0
291
     1
 45
0.0
1001
ACAD
1000
AcDbSavedByObjectVersion
1070
     0
  0
VISUALSTYLE
  5
38
102
{ACAD_XDICTIONARY
360
851
102
}
102
{ACAD_REACTORS
330
2A
102
}
330
2A
100
AcDbVisualStyle
  2

 70
    14
 71
     2
 72
     2
 73
     0
 90
        0
 40
-0.6
 41
-30.0
 62
     5
 63
     7
 74
     1
 91
        4
 64
     7
 65
   257
 75
     7
175
     7
 42
1.0
 92
        8
 66
     7
 43
1.0
 76
     1
 77
     6
 78
     2
 67
     7
 79
     5
170
     0
171
     0
290
     0
174
     0
 93
        1
 44
0.0
173
     0
291
     1
 45
0.0
1001
ACAD
1000
AcDbSavedByObjectVersion
1070
     0
  0
VISUALSTYLE
  5
3C
102
{ACAD_XDICTIONARY
360
859
102
}
102
{ACAD_REACTORS
330
2A
102
}
330
2A
100
AcDbVisualStyle
  2

 70
    21
 71
     2
 72
     2
 73
     0
 90
        0
 40
-0.6
 41
-30.0
 62
     5
 63
     7
 74
     1
 91
        4
 64
     7
 65
   257
 75
     1
175
     1
 42
1.0
 92
        9
 66
     7
 43
1.0
 76
     1
 77
     6
 78
     2
 67
     7
 79
     5
170
     0
171
     0
290
     0
174
     0
 93
        1
 44
0.0
173
     0
291
     1
 45
0.0
1001
ACAD
1000
AcDbSavedByObjectVersion
1070
     0
  0
VISUALSTYLE
  5
33
102
{ACAD_XDICTIONARY
360
847
102
}
102
{ACAD_REACTORS
330
2A
102
}
330
2A
100
AcDbVisualStyle
  2

 70
     8
 71
     2
 72
     3
 73
     0
 90
        2
 40
-0.6
 41
30.0
 62
     5
 63
     7
 74
     0
 91
        0
 64
     7
 65
   257
 75
     1
175
     1
 42
1.0
 92
        8
 66
   257
 43
1.0
 76
     1
 77
     6
 78
     2
 67
     7
 79
     3
170
     0
171
     0
290
     0
174
     0
 93
       13
 44
0.0
173
     0
291
     0
 45
0.0
1001
ACAD
1000
AcDbSavedByObjectVersion
1070
     0
  0
VISUALSTYLE
  5
42
102
{ACAD_XDICTIONARY
360
865
102
}
102
{ACAD_REACTORS
330
2A
102
}
330
2A
100
AcDbVisualStyle
  2

 70
    27
 71
     2
 72
     2
 73
     1
 90
        2
 40
-0.6
 41
30.0
 62
     5
 63
     7
 74
     0
 91
        4
 64
     7
 65
   257
 75
     1
175
     1
 42
1.0
 92
        8
 66
   257
 43
1.0
 76
     1
 77
     6
 78
     2
 67
     8
 79
     3
170
     0
171
     0
290
     0
174
     0
 93
        5
 44
0.0
173
     0
291
     0
 45
0.0
1001
ACAD
1000
AcDbSavedByObjectVersion
1070
     0
  0
VISUALSTYLE
  5
41
102
{ACAD_XDICTIONARY
360
863
102
}
102
{ACAD_REACTORS
330
2A
102
}
330
2A
100
AcDbVisualStyle
  2

 70
    26
 71
     2
 72
     2
 73
     1
 90
        2
 40
-0.6
 41
30.0
 62
     5
 63
     7
 74
     1
 91
       10
 64
     7
 65
   257
 75
     2
175
     1
 42
1.0
 92
        8
 66
   257
 43
1.0
 76
     1
 77
     6
 78
     2
 67
     7
 79
     3
170
     0
171
     0
290
     0
174
     0
 93
        5
 44
0.0
173
     0
291
     0
 45
0.0
1001
ACAD
1000
AcDbSavedByObjectVersion
1070
     0
  0
VISUALSTYLE
  5
3E
102
{ACAD_XDICTIONARY
360
85D
102
}
102
{ACAD_REACTORS
330
2A
102
}
330
2A
100
AcDbVisualStyle
  2

 70
    23
 71
     2
 72
     2
 73
     3
 90
        0
 40
-0.6
 41
-30.0
 62
     5
 63
     7
 74
     2
 91
        2
 64
     7
 65
     7
 75
     1
175
     1
 42
40.0
 92
        8
 66
     7
 43
1.0
 76
     1
 77
     6
 78
     2
 67
     7
 79
     3
170
     0
171
     0
290
     0
174
     0
 93
        1
 44
0.0
173
     0
291
     0
 45
0.0
1001
ACAD
1000
AcDbSavedByObjectVersion
1070
     0
  0
VISUALSTYLE
  5
3F
102
{ACAD_XDICTIONARY
360
85F
102
}
102
{ACAD_REACTORS
330
2A
102
}
330
2A
100
AcDbVisualStyle
  2

 70
    24
 71
     1
 72
     2
 73
     2
 90
        0
 40
-0.6
 41
-30.0
 62
     5
 63
     7
 74
     2
 91
        2
 64
     7
 65
     7
 75
     1
175
     1
 42
40.0
 92
       11
 66
     7
 43
1.0
 76
     1
 77
     6
 78
     2
 67
     7
 79
     6
170
     0
171
     0
290
     0
174
     0
 93
        1
 44
0.0
173
     0
291
     0
 45
0.0
1001
ACAD
1000
AcDbSavedByObjectVersion
1070
     0
  0
VISUALSTYLE
  5
37
102
{ACAD_XDICTIONARY
360
84F
102
}
102
{ACAD_REACTORS
330
2A
102
}
330
2A
100
AcDbVisualStyle
  2

 70
    13
 71
     2
 72
     2
 73
     0
 90
        0
 40
-0.6
 41
-30.0
 62
     5
 63
     7
 74
     1
 91
        4
 64
     7
 65
   257
 75
     1
175
     1
 42
1.0
 92
       12
 66
     7
 43
1.0
 76
     1
 77
     6
 78
     2
 67
     7
 79
     5
170
     0
171
     0
290
     0
174
     0
 93
        1
 44
0.0
173
     0
291
     1
 45
0.0
1001
ACAD
1000
AcDbSavedByObjectVersion
1070
     0
  0
VISUALSTYLE
  5
30
102
{ACAD_XDICTIONARY
360
841
102
}
102
{ACAD_REACTORS
330
2A
102
}
330
2A
100
AcDbVisualStyle
  2

 70
     5
 71
     0
 72
     2
 73
     0
 90
        0
 40
-0.6
 41
-30.0
 62
     5
 63
     7
 74
     1
 91
        4
 64
     7
 65
   257
 75
     1
175
     1
 42
1.0
 92
        0
 66
   257
 43
1.0
 76
     1
 77
     6
 78
     2
 67
     7
 79
     3
170
     0
171
     0
290
     0
174
     0
 93
        1
 44
0.0
173
     0
291
     0
 45
0.0
1001
ACAD
1000
AcDbSavedByObjectVersion
1070
     0
  0
VISUALSTYLE
  5
40
102
{ACAD_XDICTIONARY
360
861
102
}
102
{ACAD_REACTORS
330
2A
102
}
330
2A
100
AcDbVisualStyle
  2

 70
    25
 71
     2
 72
     2
 73
     1
 90
        1
 40
0.5
 41
-30.0
 62
     5
 63
     7
 74
     1
 91
        0
 64
     7
 65
   257
 75
     1
175
     1
 42
1.0
 92
        8
 66
     7
 43
1.0
 76
     1
 77
     6
 78
     2
 67
     7
 79
     3
170
     0
171
     0
290
     0
174
     0
 93
       13
 44
0.0
173
     0
291
     0
 45
0.0
1001
ACAD
1000
AcDbSavedByObjectVersion
1070
     0
  0
DICTIONARYVAR
  5
2F4
102
{ACAD_REACTORS
330
2E6
102
}
330
2E6
100
DictionaryVariables
280
     0
  1
1:1
  0
DICTIONARYVAR
  5
2ED
102
{ACAD_REACTORS
330
2E6
102
}
330
2E6
100
DictionaryVariables
280
     0
  1
3.500000
  0
DICTIONARYVAR
  5
2EE
102
{ACAD_REACTORS
330
2E6
102
}
330
2E6
100
DictionaryVariables
280
     0
  1
acadiso.lin
  0
DICTIONARYVAR
  5
2E8
102
{ACAD_REACTORS
330
2E6
102
}
330
2E6
100
DictionaryVariables
280
     0
  1
STANDARD
  0
DICTIONARYVAR
  5
2E7
102
{ACAD_REACTORS
330
2E6
102
}
330
2E6
100
DictionaryVariables
280
     0
  1
STANDARD
  0
DICTIONARYVAR
  5
78F
102
{ACAD_REACTORS
330
2E6
102
}
330
2E6
100
DictionaryVariables
280
     0
  1
Metric50
  0
DICTIONARYVAR
  5
790
102
{ACAD_REACTORS
330
2E6
102
}
330
2E6
100
DictionaryVariables
280
     0
  1
Metric50
  0
DICTIONARYVAR
  5
2EF
102
{ACAD_REACTORS
330
2E6
102
}
330
2E6
100
DictionaryVariables
280
     0
  1
2
  0
DICTIONARYVAR
  5
2F0
102
{ACAD_REACTORS
330
2E6
102
}
330
2E6
100
DictionaryVariables
280
     0
  1
1
  0
DICTIONARYVAR
  5
7EB
102
{ACAD_REACTORS
330
2E6
102
}
330
2E6
100
DictionaryVariables
280
     0
  1
0
  0
DICTIONARYVAR
  5
792
102
{ACAD_REACTORS
330
2E6
102
}
330
2E6
100
DictionaryVariables
280
     0
  1
1
  0
DICTIONARYVAR
  5
793
102
{ACAD_REACTORS
330
2E6
102
}
330
2E6
100
DictionaryVariables
280
     0
  1
15
  0
DICTIONARYVAR
  5
791
102
{ACAD_REACTORS
330
2E6
102
}
330
2E6
100
DictionaryVariables
280
     0
  1
0
  0
DICTIONARYVAR
  5
7EE
102
{ACAD_REACTORS
330
2E6
102
}
330
2E6
100
DictionaryVariables
280
     0
  1
1.570796
  0
DICTIONARYVAR
  5
7EF
102
{ACAD_REACTORS
330
2E6
102
}
330
2E6
100
DictionaryVariables
280
     0
  1
1.570796
  0
DICTIONARYVAR
  5
7F0
102
{ACAD_REACTORS
330
2E6
102
}
330
2E6
100
DictionaryVariables
280
     0
  1
-122.394000
  0
DICTIONARYVAR
  5
2F5
102
{ACAD_REACTORS
330
2E6
102
}
330
2E6
100
DictionaryVariables
280
     0
  1
1
  0
DICTIONARYVAR
  5
7ED
102
{ACAD_REACTORS
330
2E6
102
}
330
2E6
100
DictionaryVariables
280
     0
  1
80.000000
  0
DICTIONARYVAR
  5
7EC
102
{ACAD_REACTORS
330
2E6
102
}
330
2E6
100
DictionaryVariables
280
     0
  1
5.000000
  0
DICTIONARYVAR
  5
7EA
102
{ACAD_REACTORS
330
2E6
102
}
330
2E6
100
DictionaryVariables
280
     0
  1
127
  0
DICTIONARYVAR
  5
7F1
102
{ACAD_REACTORS
330
2E6
102
}
330
2E6
100
DictionaryVariables
280
     0
  1
2
  0
DICTIONARY
  5
86A
330
335
100
AcDbDictionary
280
     1
281
     1
  3
ACAD_XREC_ROUNDTRIP
360
86B
  0
DICTIONARY
  5
833
330
1E
100
AcDbDictionary
280
     1
281
     1
  3
ACAD_XREC_ROUNDTRIP
360
834
  0
DICTIONARY
  5
835
330
22
100
AcDbDictionary
280
     1
281
     1
  3
ACAD_XREC_ROUNDTRIP
360
836
  0
DICTIONARY
  5
86C
330
336
100
AcDbDictionary
280
     1
281
     1
  3
ACAD_XREC_ROUNDTRIP
360
86D
  0
DICTIONARY
  5
328
330
45
100
AcDbDictionary
280
     1
281
     1
  3
ACAD_XREC_ROUNDTRIP
360
329
  0
DICTIONARY
  5
326
330
44
100
AcDbDictionary
280
     1
281
     1
  3
ACAD_XREC_ROUNDTRIP
360
327
  0
DICTIONARY
  5
32A
330
46
100
AcDbDictionary
280
     1
281
     1
  3
ACAD_XREC_ROUNDTRIP
360
32B
  0
DICTIONARY
  5
868
330
333
100
AcDbDictionary
280
     1
281
     1
  3
ACAD_XREC_ROUNDTRIP
360
869
  0
DICTIONARY
  5
794
330
5A
100
AcDbDictionary
280
     1
281
     1
  3
ACAD_ROUNDTRIP_2008_TABLESTYLE_CELLSTYLEMAP
360
830
  3
ACAD_XREC_ROUNDTRIP
360
867
  0
DICTIONARY
  5
83F
330
2F
100
AcDbDictionary
280
     1
281
     1
  3
ACAD_XREC_ROUNDTRIP
360
840
  0
DICTIONARY
  5
845
330
32
100
AcDbDictionary
280
     1
281
     1
  3
ACAD_XREC_ROUNDTRIP
360
846
  0
DICTIONARY
  5
84D
330
36
100
AcDbDictionary
280
     1
281
     1
  3
ACAD_XREC_ROUNDTRIP
360
84E
  0
DICTIONARY
  5
855
330
3A
100
AcDbDictionary
280
     1
281
     1
  3
ACAD_XREC_ROUNDTRIP
360
856
  0
DICTIONARY
  5
849
330
34
100
AcDbDictionary
280
     1
281
     1
  3
ACAD_XREC_ROUNDTRIP
360
84A
  0
DICTIONARY
  5
84B
330
35
100
AcDbDictionary
280
     1
281
     1
  3
ACAD_XREC_ROUNDTRIP
360
84C
  0
DICTIONARY
  5
85B
330
3D
100
AcDbDictionary
280
     1
281
     1
  3
ACAD_XREC_ROUNDTRIP
360
85C
  0
DICTIONARY
  5
853
330
39
100
AcDbDictionary
280
     1
281
     1
  3
ACAD_XREC_ROUNDTRIP
360
854
  0
DICTIONARY
  5
837
330
2B
100
AcDbDictionary
280
     1
281
     1
  3
ACAD_XREC_ROUNDTRIP
360
838
  0
DICTIONARY
  5
839
330
2C
100
AcDbDictionary
280
     1
281
     1
  3
ACAD_XREC_ROUNDTRIP
360
83A
  0
DICTIONARY
  5
83B
330
2D
100
AcDbDictionary
280
     1
281
     1
  3
ACAD_XREC_ROUNDTRIP
360
83C
  0
DICTIONARY
  5
83D
330
2E
100
AcDbDictionary
280
     1
281
     1
  3
ACAD_XREC_ROUNDTRIP
360
83E
  0
DICTIONARY
  5
843
330
31
100
AcDbDictionary
280
     1
281
     1
  3
ACAD_XREC_ROUNDTRIP
360
844
  0
DICTIONARY
  5
857
330
3B
100
AcDbDictionary
280
     1
281
     1
  3
ACAD_XREC_ROUNDTRIP
360
858
  0
DICTIONARY
  5
851
330
38
100
AcDbDictionary
280
     1
281
     1
  3
ACAD_XREC_ROUNDTRIP
360
852
  0
DICTIONARY
  5
859
330
3C
100
AcDbDictionary
280
     1
281
     1
  3
ACAD_XREC_ROUNDTRIP
360
85A
  0
DICTIONARY
  5
847
330
33
100
AcDbDictionary
280
     1
281
     1
  3
ACAD_XREC_ROUNDTRIP
360
848
  0
DICTIONARY
  5
865
330
42
100
AcDbDictionary
280
     1
281
     1
  3
ACAD_XREC_ROUNDTRIP
360
866
  0
DICTIONARY
  5
863
330
41
100
AcDbDictionary
280
     1
281
     1
  3
ACAD_XREC_ROUNDTRIP
360
864
  0
DICTIONARY
  5
85D
330
3E
100
AcDbDictionary
280
     1
281
     1
  3
ACAD_XREC_ROUNDTRIP
360
85E
  0
DICTIONARY
  5
85F
330
3F
100
AcDbDictionary
280
     1
281
     1
  3
ACAD_XREC_ROUNDTRIP
360
860
  0
DICTIONARY
  5
84F
330
37
100
AcDbDictionary
280
     1
281
     1
  3
ACAD_XREC_ROUNDTRIP
360
850
  0
DICTIONARY
  5
841
330
30
100
AcDbDictionary
280
     1
281
     1
  3
ACAD_XREC_ROUNDTRIP
360
842
  0
DICTIONARY
  5
861
330
40
100
AcDbDictionary
280
     1
281
     1
  3
ACAD_XREC_ROUNDTRIP
360
862
  0
XRECORD
  5
86B
102
{ACAD_REACTORS
330
86A
102
}
330
86A
100
AcDbXrecord
280
     1
102
DISPLAYNAME
  1
Metric50
102
FLAGS
 90
        0
  0
XRECORD
  5
834
102
{ACAD_REACTORS
330
833
102
}
330
833
100
AcDbXrecord
280
     1
102
SHADEPLOT
 70
     0
102
SHADEPLOTRESLEVEL
 70
     2
102
SHADEPLOTCUSTOMDPI
 70
   300
  0
XRECORD
  5
836
102
{ACAD_REACTORS
330
835
102
}
330
835
100
AcDbXrecord
280
     1
102
SHADEPLOT
 70
     0
102
SHADEPLOTRESLEVEL
 70
     2
102
SHADEPLOTCUSTOMDPI
 70
   300
  0
XRECORD
  5
86D
102
{ACAD_REACTORS
330
86C
102
}
330
86C
100
AcDbXrecord
280
     1
102
SHADEPLOT
 70
     0
102
SHADEPLOTRESLEVEL
 70
     2
102
SHADEPLOTCUSTOMDPI
 70
   300
  0
XRECORD
  5
329
102
{ACAD_REACTORS
330
328
102
}
330
328
100
AcDbXrecord
280
     1
102
MATERIAL
148
0.0
149
0.0
149
0.0
 93
        0
 94
      127
282
     0
 72
     1
 77
     1
171
     1
175
     1
179
     1
273
     0
  0
XRECORD
  5
327
102
{ACAD_REACTORS
330
326
102
}
330
326
100
AcDbXrecord
280
     1
102
MATERIAL
148
0.0
149
0.0
149
0.0
 93
        0
 94
      127
282
     0
 72
     1
 77
     1
171
     1
175
     1
179
     1
273
     0
  0
XRECORD
  5
32B
102
{ACAD_REACTORS
330
32A
102
}
330
32A
100
AcDbXrecord
280
     1
102
MATERIAL
148
0.0
149
0.0
149
0.0
 93
        0
 94
      127
282
     0
 72
     1
 77
     1
171
     1
175
     1
179
     1
273
     0
  0
XRECORD
  5
869
102
{ACAD_REACTORS
330
868
102
}
330
868
100
AcDbXrecord
280
     1
102
DISPLAYNAME
  1
Metric50
102
FLAGS
 90
        0
  0
CELLSTYLEMAP
  5
830
102
{ACAD_REACTORS
330
794
102
}
330
794
100
AcDbCellStyleMap
 90
        3
300
CELLSTYLE
  1
TABLEFORMAT_BEGIN
 90
        5
170
     1
 91
        0
 92
    32768
 62
   257
 93
        1
300
CONTENTFORMAT
  1
CONTENTFORMAT_BEGIN
 90
        0
 91
        0
 92
        4
 93
        0
300

 40
0.0
140
1.0
 94
        5
 62
     0
340
11
144
6.0
309
CONTENTFORMAT_END
171
     1
301
MARGIN
  1
CELLMARGIN_BEGIN
 40
1.5
 40
1.5
 40
1.5
 40
1.5
 40
0.18
 40
0.18
309
CELLMARGIN_END
 94
        6
 95
        1
302
GRIDFORMAT
  1
GRIDFORMAT_BEGIN
 90
        0
 91
        1
 62
     0
 92
       -2
340
0
 93
        0
 40
0.045
309
GRIDFORMAT_END
 95
        2
302
GRIDFORMAT
  1
GRIDFORMAT_BEGIN
 90
        0
 91
        1
 62
     0
 92
       -2
340
0
 93
        0
 40
0.045
309
GRIDFORMAT_END
 95
        4
302
GRIDFORMAT
  1
GRIDFORMAT_BEGIN
 90
        0
 91
        1
 62
     0
 92
       -2
340
0
 93
        0
 40
0.045
309
GRIDFORMAT_END
 95
        8
302
GRIDFORMAT
  1
GRIDFORMAT_BEGIN
 90
        0
 91
        1
 62
     0
 92
       -2
340
0
 93
        0
 40
0.045
309
GRIDFORMAT_END
 95
       16
302
GRIDFORMAT
  1
GRIDFORMAT_BEGIN
 90
        0
 91
        1
 62
     0
 92
       -2
340
0
 93
        0
 40
0.045
309
GRIDFORMAT_END
 95
       32
302
GRIDFORMAT
  1
GRIDFORMAT_BEGIN
 90
        0
 91
        1
 62
     0
 92
       -2
340
0
 93
        0
 40
0.045
309
GRIDFORMAT_END
309
TABLEFORMAT_END
  1
CELLSTYLE_BEGIN
 90
        1
 91
        1
300
_TITLE
309
CELLSTYLE_END
300
CELLSTYLE
  1
TABLEFORMAT_BEGIN
 90
        5
170
     1
 91
        0
 92
        0
 62
   257
 93
        1
300
CONTENTFORMAT
  1
CONTENTFORMAT_BEGIN
 90
        0
 91
        0
 92
        4
 93
        0
300

 40
0.0
140
1.0
 94
        5
 62
     0
340
11
144
4.5
309
CONTENTFORMAT_END
171
     1
301
MARGIN
  1
CELLMARGIN_BEGIN
 40
1.5
 40
1.5
 40
1.5
 40
1.5
 40
0.18
 40
0.18
309
CELLMARGIN_END
 94
        6
 95
        1
302
GRIDFORMAT
  1
GRIDFORMAT_BEGIN
 90
        0
 91
        1
 62
     0
 92
       -2
340
0
 93
        0
 40
0.045
309
GRIDFORMAT_END
 95
        2
302
GRIDFORMAT
  1
GRIDFORMAT_BEGIN
 90
        0
 91
        1
 62
     0
 92
       -2
340
0
 93
        0
 40
0.045
309
GRIDFORMAT_END
 95
        4
302
GRIDFORMAT
  1
GRIDFORMAT_BEGIN
 90
        0
 91
        1
 62
     0
 92
       -2
340
0
 93
        0
 40
0.045
309
GRIDFORMAT_END
 95
        8
302
GRIDFORMAT
  1
GRIDFORMAT_BEGIN
 90
        0
 91
        1
 62
     0
 92
       -2
340
0
 93
        0
 40
0.045
309
GRIDFORMAT_END
 95
       16
302
GRIDFORMAT
  1
GRIDFORMAT_BEGIN
 90
        0
 91
        1
 62
     0
 92
       -2
340
0
 93
        0
 40
0.045
309
GRIDFORMAT_END
 95
       32
302
GRIDFORMAT
  1
GRIDFORMAT_BEGIN
 90
        0
 91
        1
 62
     0
 92
       -2
340
0
 93
        0
 40
0.045
309
GRIDFORMAT_END
309
TABLEFORMAT_END
  1
CELLSTYLE_BEGIN
 90
        2
 91
        1
300
_HEADER
309
CELLSTYLE_END
300
CELLSTYLE
  1
TABLEFORMAT_BEGIN
 90
        5
170
     1
 91
        0
 92
        0
 62
   257
 93
        1
300
CONTENTFORMAT
  1
CONTENTFORMAT_BEGIN
 90
        0
 91
        0
 92
        4
 93
        0
300

 40
0.0
140
1.0
 94
        2
 62
     0
340
11
144
4.5
309
CONTENTFORMAT_END
171
     1
301
MARGIN
  1
CELLMARGIN_BEGIN
 40
1.5
 40
1.5
 40
1.5
 40
1.5
 40
0.18
 40
0.18
309
CELLMARGIN_END
 94
        6
 95
        1
302
GRIDFORMAT
  1
GRIDFORMAT_BEGIN
 90
        0
 91
        1
 62
     0
 92
       -2
340
0
 93
        0
 40
0.045
309
GRIDFORMAT_END
 95
        2
302
GRIDFORMAT
  1
GRIDFORMAT_BEGIN
 90
        0
 91
        1
 62
     0
 92
       -2
340
0
 93
        0
 40
0.045
309
GRIDFORMAT_END
 95
        4
302
GRIDFORMAT
  1
GRIDFORMAT_BEGIN
 90
        0
 91
        1
 62
     0
 92
       -2
340
0
 93
        0
 40
0.045
309
GRIDFORMAT_END
 95
        8
302
GRIDFORMAT
  1
GRIDFORMAT_BEGIN
 90
        0
 91
        1
 62
     0
 92
       -2
340
0
 93
        0
 40
0.045
309
GRIDFORMAT_END
 95
       16
302
GRIDFORMAT
  1
GRIDFORMAT_BEGIN
 90
        0
 91
        1
 62
     0
 92
       -2
340
0
 93
        0
 40
0.045
309
GRIDFORMAT_END
 95
       32
302
GRIDFORMAT
  1
GRIDFORMAT_BEGIN
 90
        0
 91
        1
 62
     0
 92
       -2
340
0
 93
        0
 40
0.045
309
GRIDFORMAT_END
309
TABLEFORMAT_END
  1
CELLSTYLE_BEGIN
 90
        3
 91
        2
300
_DATA
309
CELLSTYLE_END
  0
XRECORD
  5
867
102
{ACAD_REACTORS
330
794
102
}
330
794
100
AcDbXrecord
280
     1
102
ACAD_ROUNDTRIP_PRE2007_TABLESTYLE
 90
        4
 91
        0
  1

 92
        4
 93
        0
  2

 94
        4
 95
        0
  3

  0
XRECORD
  5
840
102
{ACAD_REACTORS
330
83F
102
}
330
83F
100
AcDbXrecord
280
     1
102
RTVSPost2010Prop28
280
     1
102
RTVSPost2010PropOp28
 70
     1
102
RTVSPost2010Prop29
280
     1
102
RTVSPost2010PropOp29
 70
     1
102
RTVSPost2010Prop30
280
     0
102
RTVSPost2010PropOp30
 70
     1
102
RTVSPost2010Prop31
280
     0
102
RTVSPost2010PropOp31
 70
     1
102
RTVSPost2010Prop32
280
     0
102
RTVSPost2010PropOp32
 70
     1
102
RTVSPost2010Prop33
280
     0
102
RTVSPost2010PropOp33
 70
     1
102
RTVSPost2010Prop34
280
     0
102
RTVSPost2010PropOp34
 70
     1
102
RTVSPost2010Prop35
280
     0
102
RTVSPost2010PropOp35
 70
     1
102
RTVSPost2010Prop36
280
     0
102
RTVSPost2010PropOp36
 70
     1
102
RTVSPost2010Prop37
 90
       50
102
RTVSPost2010PropOp37
 70
     1
102
RTVSPost2010Prop38
140
0.0
102
RTVSPost2010PropOp38
 70
     1
102
RTVSPost2010Prop39
140
1.0
102
RTVSPost2010PropOp39
 70
     1
102
RTVSPost2010Prop40
 90
        0
102
RTVSPost2010PropOp40
 70
     1
102
RTVSPost2010Prop41ColorIndex
 90
       18
102
RTVSPost2010Prop41ColorRGB
 90
        0
102
RTVSPost2010PropOp41
 70
     1
102
RTVSPost2010Prop42
 90
       50
102
RTVSPost2010PropOp42
 70
     1
102
RTVSPost2010Prop43
 90
        3
102
RTVSPost2010PropOp43
 70
     1
102
RTVSPost2010Prop44ColorIndex
 90
        5
102
RTVSPost2010Prop44ColorRGB
 90
      255
102
RTVSPost2010PropOp44
 70
     1
102
RTVSPost2010Prop45
280
     0
102
RTVSPost2010PropOp45
 70
     1
102
RTVSPost2010Prop46
 90
       50
102
RTVSPost2010PropOp46
 70
     1
102
RTVSPost2010Prop47
 90
       50
102
RTVSPost2010PropOp47
 70
     1
102
RTVSPost2010Prop48
 90
       50
102
RTVSPost2010PropOp48
 70
     1
102
RTVSPost2010Prop49
280
     0
102
RTVSPost2010PropOp49
 70
     1
102
RTVSPost2010Prop50
 90
       50
102
RTVSPost2010PropOp50
 70
     1
102
RTVSPost2010Prop51ColorIndex
 90
      256
102
RTVSPost2010Prop51ColorRGB
 90
-16777216
102
RTVSPost2010PropOp51
 70
     0
102
RTVSPost2010Prop52
140
1.0
102
RTVSPost2010PropOp52
 70
     0
102
RTVSPost2010Prop53
 90
        2
102
RTVSPost2010PropOp53
 70
     1
102
RTVSPost2010Prop54
  1
strokes_ogs.tif
102
RTVSPost2010PropOp54
 70
     1
102
RTVSPost2010Prop55
280
     0
102
RTVSPost2010PropOp55
 70
     1
102
RTVSPost2010Prop56
140
1.0
102
RTVSPost2010PropOp56
 70
     1
102
RTVSPost2010Prop57
140
1.0
102
RTVSPost2010PropOp57
 70
     1
102
RTVSPropertyOp0
 70
     1
102
RTVSPropertyOp1
 70
     1
102
RTVSPropertyOp2
 70
     1
102
RTVSPropertyOp3
 70
     1
102
RTVSPropertyOp4
 70
     1
102
RTVSPropertyOp5
 70
     1
102
RTVSPropertyOp6
 70
     1
102
RTVSPropertyOp7
 70
     1
102
RTVSPropertyOp8
 70
     1
102
RTVSPropertyOp9
 70
     1
102
RTVSPropertyOp10
 70
     1
102
RTVSPropertyOp11
 70
     1
102
RTVSPropertyOp12
 70
     1
102
RTVSPropertyOp13
 70
     1
102
RTVSPropertyOp14
 70
     1
102
RTVSPropertyOp15
 70
     1
102
RTVSPropertyOp16
 70
     1
102
RTVSPropertyOp17
 70
     1
102
RTVSPropertyOp18
 70
     1
102
RTVSPropertyOp19
 70
     1
102
RTVSPropertyOp20
 70
     1
102
RTVSPropertyOp21
 70
     1
102
RTVSPropertyOp22
 70
     1
102
RTVSPropertyOp23
 70
     1
102
RTVSPropertyOp24
 70
     1
102
RTVSPropertyOp25
 70
     1
102
RTVSPropertyOp26
 70
     1
102
RTVSPropertyOp27
 70
     1
102
RTVSPropertyOp28
 70
     1
102
RTVSPropertyOp29
 70
     1
102
RTVSPropertyOp30
 70
     1
102
RTVSPropertyOp31
 70
     1
102
RTVSPropertyOp32
 70
     1
102
RTVSPropertyOp33
 70
     1
102
RTVSPropertyOp34
 70
     1
102
RTVSPropertyOp35
 70
     1
102
RTVSPropertyOp36
 70
     1
102
RTVSPropertyOp37
 70
     1
102
RTVSPropertyOp38
 70
     1
102
RTVSPropertyOp39
 70
     1
102
RTVSPropertyOp40
 70
     1
102
RTVSPropertyOp41
 70
     1
102
RTVSPropertyOp42
 70
     1
102
RTVSPropertyOp43
 70
     1
102
RTVSPropertyOp44
 70
     1
102
RTVSPropertyOp45
 70
     1
102
RTVSPropertyOp46
 70
     1
102
RTVSPropertyOp47
 70
     1
102
RTVSPropertyOp48
 70
     1
102
RTVSPropertyOp49
 70
     1
102
RTVSPropertyOp50
 70
     1
102
RTVSPropertyOp51
 70
     0
102
RTVSPropertyOp52
 70
     0
102
RTVSPropertyOp53
 70
     1
102
RTVSPropertyOp54
 70
     1
102
RTVSPropertyOp55
 70
     1
102
RTVSPropertyOp56
 70
     1
102
RTVSPropertyOp57
 70
     1
102
RTVSPropertyOp58
 70
     1
102
RTVSPropertyOp59
 70
     1
102
RTVSPropertyOp60
 70
     1
102
RTVSPropertyOp61
 70
     1
102
RTVSPropertyOp62
 70
     1
  0
XRECORD
  5
846
102
{ACAD_REACTORS
330
845
102
}
330
845
100
AcDbXrecord
280
     1
102
RTVSPost2010Prop28
280
     0
102
RTVSPost2010PropOp28
 70
     1
102
RTVSPost2010Prop29
280
     1
102
RTVSPost2010PropOp29
 70
     1
102
RTVSPost2010Prop30
280
     1
102
RTVSPost2010PropOp30
 70
     1
102
RTVSPost2010Prop31
280
     0
102
RTVSPost2010PropOp31
 70
     1
102
RTVSPost2010Prop32
280
     0
102
RTVSPost2010PropOp32
 70
     1
102
RTVSPost2010Prop33
280
     0
102
RTVSPost2010PropOp33
 70
     1
102
RTVSPost2010Prop34
280
     0
102
RTVSPost2010PropOp34
 70
     1
102
RTVSPost2010Prop35
280
     0
102
RTVSPost2010PropOp35
 70
     1
102
RTVSPost2010Prop36
280
     0
102
RTVSPost2010PropOp36
 70
     1
102
RTVSPost2010Prop37
 90
       50
102
RTVSPost2010PropOp37
 70
     1
102
RTVSPost2010Prop38
140
0.0
102
RTVSPost2010PropOp38
 70
     1
102
RTVSPost2010Prop39
140
1.0
102
RTVSPost2010PropOp39
 70
     1
102
RTVSPost2010Prop40
 90
        0
102
RTVSPost2010PropOp40
 70
     1
102
RTVSPost2010Prop41ColorIndex
 90
       18
102
RTVSPost2010Prop41ColorRGB
 90
        0
102
RTVSPost2010PropOp41
 70
     1
102
RTVSPost2010Prop42
 90
       50
102
RTVSPost2010PropOp42
 70
     1
102
RTVSPost2010Prop43
 90
        3
102
RTVSPost2010PropOp43
 70
     1
102
RTVSPost2010Prop44ColorIndex
 90
        5
102
RTVSPost2010Prop44ColorRGB
 90
      255
102
RTVSPost2010PropOp44
 70
     1
102
RTVSPost2010Prop45
280
     0
102
RTVSPost2010PropOp45
 70
     1
102
RTVSPost2010Prop46
 90
       50
102
RTVSPost2010PropOp46
 70
     1
102
RTVSPost2010Prop47
 90
       50
102
RTVSPost2010PropOp47
 70
     1
102
RTVSPost2010Prop48
 90
       50
102
RTVSPost2010PropOp48
 70
     1
102
RTVSPost2010Prop49
280
     0
102
RTVSPost2010PropOp49
 70
     1
102
RTVSPost2010Prop50
 90
       50
102
RTVSPost2010PropOp50
 70
     1
102
RTVSPost2010Prop51ColorIndex
 90
      256
102
RTVSPost2010Prop51ColorRGB
 90
-16777216
102
RTVSPost2010PropOp51
 70
     0
102
RTVSPost2010Prop52
140
1.0
102
RTVSPost2010PropOp52
 70
     0
102
RTVSPost2010Prop53
 90
        2
102
RTVSPost2010PropOp53
 70
     1
102
RTVSPost2010Prop54
  1
strokes_ogs.tif
102
RTVSPost2010PropOp54
 70
     1
102
RTVSPost2010Prop55
280
     0
102
RTVSPost2010PropOp55
 70
     1
102
RTVSPost2010Prop56
140
1.0
102
RTVSPost2010PropOp56
 70
     1
102
RTVSPost2010Prop57
140
1.0
102
RTVSPost2010PropOp57
 70
     1
102
RTVSPropertyOp0
 70
     1
102
RTVSPropertyOp1
 70
     1
102
RTVSPropertyOp2
 70
     1
102
RTVSPropertyOp3
 70
     1
102
RTVSPropertyOp4
 70
     1
102
RTVSPropertyOp5
 70
     1
102
RTVSPropertyOp6
 70
     1
102
RTVSPropertyOp7
 70
     1
102
RTVSPropertyOp8
 70
     1
102
RTVSPropertyOp9
 70
     1
102
RTVSPropertyOp10
 70
     1
102
RTVSPropertyOp11
 70
     1
102
RTVSPropertyOp12
 70
     1
102
RTVSPropertyOp13
 70
     1
102
RTVSPropertyOp14
 70
     1
102
RTVSPropertyOp15
 70
     1
102
RTVSPropertyOp16
 70
     1
102
RTVSPropertyOp17
 70
     1
102
RTVSPropertyOp18
 70
     1
102
RTVSPropertyOp19
 70
     1
102
RTVSPropertyOp20
 70
     1
102
RTVSPropertyOp21
 70
     1
102
RTVSPropertyOp22
 70
     1
102
RTVSPropertyOp23
 70
     1
102
RTVSPropertyOp24
 70
     1
102
RTVSPropertyOp25
 70
     1
102
RTVSPropertyOp26
 70
     1
102
RTVSPropertyOp27
 70
     1
102
RTVSPropertyOp28
 70
     1
102
RTVSPropertyOp29
 70
     1
102
RTVSPropertyOp30
 70
     1
102
RTVSPropertyOp31
 70
     1
102
RTVSPropertyOp32
 70
     1
102
RTVSPropertyOp33
 70
     1
102
RTVSPropertyOp34
 70
     1
102
RTVSPropertyOp35
 70
     1
102
RTVSPropertyOp36
 70
     1
102
RTVSPropertyOp37
 70
     1
102
RTVSPropertyOp38
 70
     1
102
RTVSPropertyOp39
 70
     1
102
RTVSPropertyOp40
 70
     1
102
RTVSPropertyOp41
 70
     1
102
RTVSPropertyOp42
 70
     1
102
RTVSPropertyOp43
 70
     1
102
RTVSPropertyOp44
 70
     1
102
RTVSPropertyOp45
 70
     1
102
RTVSPropertyOp46
 70
     1
102
RTVSPropertyOp47
 70
     1
102
RTVSPropertyOp48
 70
     1
102
RTVSPropertyOp49
 70
     1
102
RTVSPropertyOp50
 70
     1
102
RTVSPropertyOp51
 70
     0
102
RTVSPropertyOp52
 70
     0
102
RTVSPropertyOp53
 70
     1
102
RTVSPropertyOp54
 70
     1
102
RTVSPropertyOp55
 70
     1
102
RTVSPropertyOp56
 70
     1
102
RTVSPropertyOp57
 70
     1
102
RTVSPropertyOp58
 70
     1
102
RTVSPropertyOp59
 70
     1
102
RTVSPropertyOp60
 70
     1
102
RTVSPropertyOp61
 70
     1
102
RTVSPropertyOp62
 70
     1
  0
XRECORD
  5
84E
102
{ACAD_REACTORS
330
84D
102
}
330
84D
100
AcDbXrecord
280
     1
102
RTVSPost2010Prop28
280
     0
102
RTVSPost2010PropOp28
 70
     1
102
RTVSPost2010Prop29
280
     1
102
RTVSPost2010PropOp29
 70
     1
102
RTVSPost2010Prop30
280
     1
102
RTVSPost2010PropOp30
 70
     1
102
RTVSPost2010Prop31
280
     0
102
RTVSPost2010PropOp31
 70
     1
102
RTVSPost2010Prop32
280
     0
102
RTVSPost2010PropOp32
 70
     1
102
RTVSPost2010Prop33
280
     0
102
RTVSPost2010PropOp33
 70
     1
102
RTVSPost2010Prop34
280
     0
102
RTVSPost2010PropOp34
 70
     1
102
RTVSPost2010Prop35
280
     0
102
RTVSPost2010PropOp35
 70
     1
102
RTVSPost2010Prop36
280
     0
102
RTVSPost2010PropOp36
 70
     1
102
RTVSPost2010Prop37
 90
       50
102
RTVSPost2010PropOp37
 70
     1
102
RTVSPost2010Prop38
140
0.0
102
RTVSPost2010PropOp38
 70
     1
102
RTVSPost2010Prop39
140
1.0
102
RTVSPost2010PropOp39
 70
     1
102
RTVSPost2010Prop40
 90
        0
102
RTVSPost2010PropOp40
 70
     1
102
RTVSPost2010Prop41ColorIndex
 90
       18
102
RTVSPost2010Prop41ColorRGB
 90
        0
102
RTVSPost2010PropOp41
 70
     1
102
RTVSPost2010Prop42
 90
       50
102
RTVSPost2010PropOp42
 70
     1
102
RTVSPost2010Prop43
 90
        3
102
RTVSPost2010PropOp43
 70
     1
102
RTVSPost2010Prop44ColorIndex
 90
        5
102
RTVSPost2010Prop44ColorRGB
 90
      255
102
RTVSPost2010PropOp44
 70
     1
102
RTVSPost2010Prop45
280
     0
102
RTVSPost2010PropOp45
 70
     1
102
RTVSPost2010Prop46
 90
       50
102
RTVSPost2010PropOp46
 70
     1
102
RTVSPost2010Prop47
 90
       50
102
RTVSPost2010PropOp47
 70
     1
102
RTVSPost2010Prop48
 90
       50
102
RTVSPost2010PropOp48
 70
     1
102
RTVSPost2010Prop49
280
     0
102
RTVSPost2010PropOp49
 70
     1
102
RTVSPost2010Prop50
 90
       50
102
RTVSPost2010PropOp50
 70
     1
102
RTVSPost2010Prop51ColorIndex
 90
      256
102
RTVSPost2010Prop51ColorRGB
 90
-16777216
102
RTVSPost2010PropOp51
 70
     0
102
RTVSPost2010Prop52
140
1.0
102
RTVSPost2010PropOp52
 70
     0
102
RTVSPost2010Prop53
 90
        2
102
RTVSPost2010PropOp53
 70
     1
102
RTVSPost2010Prop54
  1
strokes_ogs.tif
102
RTVSPost2010PropOp54
 70
     1
102
RTVSPost2010Prop55
280
     0
102
RTVSPost2010PropOp55
 70
     1
102
RTVSPost2010Prop56
140
1.0
102
RTVSPost2010PropOp56
 70
     1
102
RTVSPost2010Prop57
140
1.0
102
RTVSPost2010PropOp57
 70
     1
102
RTVSPropertyOp0
 70
     1
102
RTVSPropertyOp1
 70
     1
102
RTVSPropertyOp2
 70
     1
102
RTVSPropertyOp3
 70
     1
102
RTVSPropertyOp4
 70
     1
102
RTVSPropertyOp5
 70
     1
102
RTVSPropertyOp6
 70
     1
102
RTVSPropertyOp7
 70
     1
102
RTVSPropertyOp8
 70
     1
102
RTVSPropertyOp9
 70
     1
102
RTVSPropertyOp10
 70
     1
102
RTVSPropertyOp11
 70
     1
102
RTVSPropertyOp12
 70
     1
102
RTVSPropertyOp13
 70
     1
102
RTVSPropertyOp14
 70
     1
102
RTVSPropertyOp15
 70
     1
102
RTVSPropertyOp16
 70
     1
102
RTVSPropertyOp17
 70
     1
102
RTVSPropertyOp18
 70
     1
102
RTVSPropertyOp19
 70
     1
102
RTVSPropertyOp20
 70
     1
102
RTVSPropertyOp21
 70
     1
102
RTVSPropertyOp22
 70
     1
102
RTVSPropertyOp23
 70
     1
102
RTVSPropertyOp24
 70
     1
102
RTVSPropertyOp25
 70
     1
102
RTVSPropertyOp26
 70
     1
102
RTVSPropertyOp27
 70
     1
102
RTVSPropertyOp28
 70
     1
102
RTVSPropertyOp29
 70
     1
102
RTVSPropertyOp30
 70
     1
102
RTVSPropertyOp31
 70
     1
102
RTVSPropertyOp32
 70
     1
102
RTVSPropertyOp33
 70
     1
102
RTVSPropertyOp34
 70
     1
102
RTVSPropertyOp35
 70
     1
102
RTVSPropertyOp36
 70
     1
102
RTVSPropertyOp37
 70
     1
102
RTVSPropertyOp38
 70
     1
102
RTVSPropertyOp39
 70
     1
102
RTVSPropertyOp40
 70
     1
102
RTVSPropertyOp41
 70
     1
102
RTVSPropertyOp42
 70
     1
102
RTVSPropertyOp43
 70
     1
102
RTVSPropertyOp44
 70
     1
102
RTVSPropertyOp45
 70
     1
102
RTVSPropertyOp46
 70
     1
102
RTVSPropertyOp47
 70
     1
102
RTVSPropertyOp48
 70
     1
102
RTVSPropertyOp49
 70
     1
102
RTVSPropertyOp50
 70
     1
102
RTVSPropertyOp51
 70
     0
102
RTVSPropertyOp52
 70
     0
102
RTVSPropertyOp53
 70
     1
102
RTVSPropertyOp54
 70
     1
102
RTVSPropertyOp55
 70
     1
102
RTVSPropertyOp56
 70
     1
102
RTVSPropertyOp57
 70
     1
102
RTVSPropertyOp58
 70
     1
102
RTVSPropertyOp59
 70
     1
102
RTVSPropertyOp60
 70
     1
102
RTVSPropertyOp61
 70
     1
102
RTVSPropertyOp62
 70
     1
  0
XRECORD
  5
856
102
{ACAD_REACTORS
330
855
102
}
330
855
100
AcDbXrecord
280
     1
102
RTVSPost2010Prop28
280
     0
102
RTVSPost2010PropOp28
 70
     1
102
RTVSPost2010Prop29
280
     1
102
RTVSPost2010PropOp29
 70
     1
102
RTVSPost2010Prop30
280
     1
102
RTVSPost2010PropOp30
 70
     1
102
RTVSPost2010Prop31
280
     0
102
RTVSPost2010PropOp31
 70
     1
102
RTVSPost2010Prop32
280
     0
102
RTVSPost2010PropOp32
 70
     1
102
RTVSPost2010Prop33
280
     0
102
RTVSPost2010PropOp33
 70
     1
102
RTVSPost2010Prop34
280
     0
102
RTVSPost2010PropOp34
 70
     1
102
RTVSPost2010Prop35
280
     0
102
RTVSPost2010PropOp35
 70
     1
102
RTVSPost2010Prop36
280
     0
102
RTVSPost2010PropOp36
 70
     1
102
RTVSPost2010Prop37
 90
       50
102
RTVSPost2010PropOp37
 70
     1
102
RTVSPost2010Prop38
140
0.0
102
RTVSPost2010PropOp38
 70
     1
102
RTVSPost2010Prop39
140
1.0
102
RTVSPost2010PropOp39
 70
     1
102
RTVSPost2010Prop40
 90
        0
102
RTVSPost2010PropOp40
 70
     1
102
RTVSPost2010Prop41ColorIndex
 90
       18
102
RTVSPost2010Prop41ColorRGB
 90
        0
102
RTVSPost2010PropOp41
 70
     1
102
RTVSPost2010Prop42
 90
       50
102
RTVSPost2010PropOp42
 70
     1
102
RTVSPost2010Prop43
 90
        3
102
RTVSPost2010PropOp43
 70
     1
102
RTVSPost2010Prop44ColorIndex
 90
        5
102
RTVSPost2010Prop44ColorRGB
 90
      255
102
RTVSPost2010PropOp44
 70
     1
102
RTVSPost2010Prop45
280
     0
102
RTVSPost2010PropOp45
 70
     1
102
RTVSPost2010Prop46
 90
       50
102
RTVSPost2010PropOp46
 70
     1
102
RTVSPost2010Prop47
 90
       50
102
RTVSPost2010PropOp47
 70
     1
102
RTVSPost2010Prop48
 90
       50
102
RTVSPost2010PropOp48
 70
     1
102
RTVSPost2010Prop49
280
     0
102
RTVSPost2010PropOp49
 70
     1
102
RTVSPost2010Prop50
 90
       50
102
RTVSPost2010PropOp50
 70
     1
102
RTVSPost2010Prop51ColorIndex
 90
      256
102
RTVSPost2010Prop51ColorRGB
 90
-16777216
102
RTVSPost2010PropOp51
 70
     0
102
RTVSPost2010Prop52
140
1.0
102
RTVSPost2010PropOp52
 70
     0
102
RTVSPost2010Prop53
 90
        2
102
RTVSPost2010PropOp53
 70
     1
102
RTVSPost2010Prop54
  1
strokes_ogs.tif
102
RTVSPost2010PropOp54
 70
     1
102
RTVSPost2010Prop55
280
     0
102
RTVSPost2010PropOp55
 70
     1
102
RTVSPost2010Prop56
140
1.0
102
RTVSPost2010PropOp56
 70
     1
102
RTVSPost2010Prop57
140
1.0
102
RTVSPost2010PropOp57
 70
     1
102
RTVSPropertyOp0
 70
     1
102
RTVSPropertyOp1
 70
     1
102
RTVSPropertyOp2
 70
     1
102
RTVSPropertyOp3
 70
     1
102
RTVSPropertyOp4
 70
     1
102
RTVSPropertyOp5
 70
     1
102
RTVSPropertyOp6
 70
     1
102
RTVSPropertyOp7
 70
     1
102
RTVSPropertyOp8
 70
     1
102
RTVSPropertyOp9
 70
     1
102
RTVSPropertyOp10
 70
     1
102
RTVSPropertyOp11
 70
     1
102
RTVSPropertyOp12
 70
     1
102
RTVSPropertyOp13
 70
     1
102
RTVSPropertyOp14
 70
     1
102
RTVSPropertyOp15
 70
     1
102
RTVSPropertyOp16
 70
     1
102
RTVSPropertyOp17
 70
     1
102
RTVSPropertyOp18
 70
     1
102
RTVSPropertyOp19
 70
     1
102
RTVSPropertyOp20
 70
     1
102
RTVSPropertyOp21
 70
     1
102
RTVSPropertyOp22
 70
     1
102
RTVSPropertyOp23
 70
     1
102
RTVSPropertyOp24
 70
     1
102
RTVSPropertyOp25
 70
     1
102
RTVSPropertyOp26
 70
     1
102
RTVSPropertyOp27
 70
     1
102
RTVSPropertyOp28
 70
     1
102
RTVSPropertyOp29
 70
     1
102
RTVSPropertyOp30
 70
     1
102
RTVSPropertyOp31
 70
     1
102
RTVSPropertyOp32
 70
     1
102
RTVSPropertyOp33
 70
     1
102
RTVSPropertyOp34
 70
     1
102
RTVSPropertyOp35
 70
     1
102
RTVSPropertyOp36
 70
     1
102
RTVSPropertyOp37
 70
     1
102
RTVSPropertyOp38
 70
     1
102
RTVSPropertyOp39
 70
     1
102
RTVSPropertyOp40
 70
     1
102
RTVSPropertyOp41
 70
     1
102
RTVSPropertyOp42
 70
     1
102
RTVSPropertyOp43
 70
     1
102
RTVSPropertyOp44
 70
     1
102
RTVSPropertyOp45
 70
     1
102
RTVSPropertyOp46
 70
     1
102
RTVSPropertyOp47
 70
     1
102
RTVSPropertyOp48
 70
     1
102
RTVSPropertyOp49
 70
     1
102
RTVSPropertyOp50
 70
     1
102
RTVSPropertyOp51
 70
     0
102
RTVSPropertyOp52
 70
     0
102
RTVSPropertyOp53
 70
     1
102
RTVSPropertyOp54
 70
     1
102
RTVSPropertyOp55
 70
     1
102
RTVSPropertyOp56
 70
     1
102
RTVSPropertyOp57
 70
     1
102
RTVSPropertyOp58
 70
     1
102
RTVSPropertyOp59
 70
     1
102
RTVSPropertyOp60
 70
     1
102
RTVSPropertyOp61
 70
     1
102
RTVSPropertyOp62
 70
     1
  0
XRECORD
  5
84A
102
{ACAD_REACTORS
330
849
102
}
330
849
100
AcDbXrecord
280
     1
102
RTVSPost2010Prop28
280
     0
102
RTVSPost2010PropOp28
 70
     1
102
RTVSPost2010Prop29
280
     1
102
RTVSPost2010PropOp29
 70
     1
102
RTVSPost2010Prop30
280
     1
102
RTVSPost2010PropOp30
 70
     1
102
RTVSPost2010Prop31
280
     0
102
RTVSPost2010PropOp31
 70
     1
102
RTVSPost2010Prop32
280
     0
102
RTVSPost2010PropOp32
 70
     1
102
RTVSPost2010Prop33
280
     0
102
RTVSPost2010PropOp33
 70
     1
102
RTVSPost2010Prop34
280
     0
102
RTVSPost2010PropOp34
 70
     1
102
RTVSPost2010Prop35
280
     0
102
RTVSPost2010PropOp35
 70
     1
102
RTVSPost2010Prop36
280
     0
102
RTVSPost2010PropOp36
 70
     1
102
RTVSPost2010Prop37
 90
       50
102
RTVSPost2010PropOp37
 70
     1
102
RTVSPost2010Prop38
140
0.0
102
RTVSPost2010PropOp38
 70
     1
102
RTVSPost2010Prop39
140
1.0
102
RTVSPost2010PropOp39
 70
     1
102
RTVSPost2010Prop40
 90
        0
102
RTVSPost2010PropOp40
 70
     1
102
RTVSPost2010Prop41ColorIndex
 90
       18
102
RTVSPost2010Prop41ColorRGB
 90
        0
102
RTVSPost2010PropOp41
 70
     1
102
RTVSPost2010Prop42
 90
       50
102
RTVSPost2010PropOp42
 70
     1
102
RTVSPost2010Prop43
 90
        3
102
RTVSPost2010PropOp43
 70
     1
102
RTVSPost2010Prop44ColorIndex
 90
        5
102
RTVSPost2010Prop44ColorRGB
 90
      255
102
RTVSPost2010PropOp44
 70
     1
102
RTVSPost2010Prop45
280
     0
102
RTVSPost2010PropOp45
 70
     1
102
RTVSPost2010Prop46
 90
       50
102
RTVSPost2010PropOp46
 70
     1
102
RTVSPost2010Prop47
 90
       50
102
RTVSPost2010PropOp47
 70
     1
102
RTVSPost2010Prop48
 90
       50
102
RTVSPost2010PropOp48
 70
     1
102
RTVSPost2010Prop49
280
     0
102
RTVSPost2010PropOp49
 70
     1
102
RTVSPost2010Prop50
 90
       50
102
RTVSPost2010PropOp50
 70
     1
102
RTVSPost2010Prop51ColorIndex
 90
      256
102
RTVSPost2010Prop51ColorRGB
 90
-16777216
102
RTVSPost2010PropOp51
 70
     0
102
RTVSPost2010Prop52
140
1.0
102
RTVSPost2010PropOp52
 70
     0
102
RTVSPost2010Prop53
 90
        2
102
RTVSPost2010PropOp53
 70
     1
102
RTVSPost2010Prop54
  1
strokes_ogs.tif
102
RTVSPost2010PropOp54
 70
     1
102
RTVSPost2010Prop55
280
     0
102
RTVSPost2010PropOp55
 70
     1
102
RTVSPost2010Prop56
140
1.0
102
RTVSPost2010PropOp56
 70
     1
102
RTVSPost2010Prop57
140
1.0
102
RTVSPost2010PropOp57
 70
     1
102
RTVSPropertyOp0
 70
     1
102
RTVSPropertyOp1
 70
     1
102
RTVSPropertyOp2
 70
     1
102
RTVSPropertyOp3
 70
     1
102
RTVSPropertyOp4
 70
     1
102
RTVSPropertyOp5
 70
     1
102
RTVSPropertyOp6
 70
     1
102
RTVSPropertyOp7
 70
     1
102
RTVSPropertyOp8
 70
     1
102
RTVSPropertyOp9
 70
     1
102
RTVSPropertyOp10
 70
     1
102
RTVSPropertyOp11
 70
     1
102
RTVSPropertyOp12
 70
     1
102
RTVSPropertyOp13
 70
     1
102
RTVSPropertyOp14
 70
     1
102
RTVSPropertyOp15
 70
     1
102
RTVSPropertyOp16
 70
     1
102
RTVSPropertyOp17
 70
     1
102
RTVSPropertyOp18
 70
     1
102
RTVSPropertyOp19
 70
     1
102
RTVSPropertyOp20
 70
     1
102
RTVSPropertyOp21
 70
     1
102
RTVSPropertyOp22
 70
     1
102
RTVSPropertyOp23
 70
     1
102
RTVSPropertyOp24
 70
     1
102
RTVSPropertyOp25
 70
     1
102
RTVSPropertyOp26
 70
     1
102
RTVSPropertyOp27
 70
     1
102
RTVSPropertyOp28
 70
     1
102
RTVSPropertyOp29
 70
     1
102
RTVSPropertyOp30
 70
     1
102
RTVSPropertyOp31
 70
     1
102
RTVSPropertyOp32
 70
     1
102
RTVSPropertyOp33
 70
     1
102
RTVSPropertyOp34
 70
     1
102
RTVSPropertyOp35
 70
     1
102
RTVSPropertyOp36
 70
     1
102
RTVSPropertyOp37
 70
     1
102
RTVSPropertyOp38
 70
     1
102
RTVSPropertyOp39
 70
     1
102
RTVSPropertyOp40
 70
     1
102
RTVSPropertyOp41
 70
     1
102
RTVSPropertyOp42
 70
     1
102
RTVSPropertyOp43
 70
     1
102
RTVSPropertyOp44
 70
     1
102
RTVSPropertyOp45
 70
     1
102
RTVSPropertyOp46
 70
     1
102
RTVSPropertyOp47
 70
     1
102
RTVSPropertyOp48
 70
     1
102
RTVSPropertyOp49
 70
     1
102
RTVSPropertyOp50
 70
     1
102
RTVSPropertyOp51
 70
     0
102
RTVSPropertyOp52
 70
     0
102
RTVSPropertyOp53
 70
     1
102
RTVSPropertyOp54
 70
     1
102
RTVSPropertyOp55
 70
     1
102
RTVSPropertyOp56
 70
     1
102
RTVSPropertyOp57
 70
     1
102
RTVSPropertyOp58
 70
     1
102
RTVSPropertyOp59
 70
     1
102
RTVSPropertyOp60
 70
     1
102
RTVSPropertyOp61
 70
     1
102
RTVSPropertyOp62
 70
     1
  0
XRECORD
  5
84C
102
{ACAD_REACTORS
330
84B
102
}
330
84B
100
AcDbXrecord
280
     1
102
RTVSPost2010Prop28
280
     0
102
RTVSPost2010PropOp28
 70
     1
102
RTVSPost2010Prop29
280
     1
102
RTVSPost2010PropOp29
 70
     1
102
RTVSPost2010Prop30
280
     1
102
RTVSPost2010PropOp30
 70
     1
102
RTVSPost2010Prop31
280
     0
102
RTVSPost2010PropOp31
 70
     1
102
RTVSPost2010Prop32
280
     0
102
RTVSPost2010PropOp32
 70
     1
102
RTVSPost2010Prop33
280
     0
102
RTVSPost2010PropOp33
 70
     1
102
RTVSPost2010Prop34
280
     0
102
RTVSPost2010PropOp34
 70
     1
102
RTVSPost2010Prop35
280
     0
102
RTVSPost2010PropOp35
 70
     1
102
RTVSPost2010Prop36
280
     0
102
RTVSPost2010PropOp36
 70
     1
102
RTVSPost2010Prop37
 90
       50
102
RTVSPost2010PropOp37
 70
     1
102
RTVSPost2010Prop38
140
0.0
102
RTVSPost2010PropOp38
 70
     1
102
RTVSPost2010Prop39
140
1.0
102
RTVSPost2010PropOp39
 70
     1
102
RTVSPost2010Prop40
 90
        0
102
RTVSPost2010PropOp40
 70
     1
102
RTVSPost2010Prop41ColorIndex
 90
       18
102
RTVSPost2010Prop41ColorRGB
 90
        0
102
RTVSPost2010PropOp41
 70
     1
102
RTVSPost2010Prop42
 90
       50
102
RTVSPost2010PropOp42
 70
     1
102
RTVSPost2010Prop43
 90
        3
102
RTVSPost2010PropOp43
 70
     1
102
RTVSPost2010Prop44ColorIndex
 90
        5
102
RTVSPost2010Prop44ColorRGB
 90
      255
102
RTVSPost2010PropOp44
 70
     1
102
RTVSPost2010Prop45
280
     0
102
RTVSPost2010PropOp45
 70
     1
102
RTVSPost2010Prop46
 90
       50
102
RTVSPost2010PropOp46
 70
     1
102
RTVSPost2010Prop47
 90
       50
102
RTVSPost2010PropOp47
 70
     1
102
RTVSPost2010Prop48
 90
       50
102
RTVSPost2010PropOp48
 70
     1
102
RTVSPost2010Prop49
280
     0
102
RTVSPost2010PropOp49
 70
     1
102
RTVSPost2010Prop50
 90
       50
102
RTVSPost2010PropOp50
 70
     1
102
RTVSPost2010Prop51ColorIndex
 90
      256
102
RTVSPost2010Prop51ColorRGB
 90
-16777216
102
RTVSPost2010PropOp51
 70
     0
102
RTVSPost2010Prop52
140
1.0
102
RTVSPost2010PropOp52
 70
     0
102
RTVSPost2010Prop53
 90
        2
102
RTVSPost2010PropOp53
 70
     1
102
RTVSPost2010Prop54
  1
strokes_ogs.tif
102
RTVSPost2010PropOp54
 70
     1
102
RTVSPost2010Prop55
280
     0
102
RTVSPost2010PropOp55
 70
     1
102
RTVSPost2010Prop56
140
1.0
102
RTVSPost2010PropOp56
 70
     1
102
RTVSPost2010Prop57
140
1.0
102
RTVSPost2010PropOp57
 70
     1
102
RTVSPropertyOp0
 70
     1
102
RTVSPropertyOp1
 70
     1
102
RTVSPropertyOp2
 70
     1
102
RTVSPropertyOp3
 70
     1
102
RTVSPropertyOp4
 70
     1
102
RTVSPropertyOp5
 70
     1
102
RTVSPropertyOp6
 70
     1
102
RTVSPropertyOp7
 70
     1
102
RTVSPropertyOp8
 70
     1
102
RTVSPropertyOp9
 70
     1
102
RTVSPropertyOp10
 70
     1
102
RTVSPropertyOp11
 70
     1
102
RTVSPropertyOp12
 70
     1
102
RTVSPropertyOp13
 70
     1
102
RTVSPropertyOp14
 70
     1
102
RTVSPropertyOp15
 70
     1
102
RTVSPropertyOp16
 70
     1
102
RTVSPropertyOp17
 70
     1
102
RTVSPropertyOp18
 70
     1
102
RTVSPropertyOp19
 70
     1
102
RTVSPropertyOp20
 70
     1
102
RTVSPropertyOp21
 70
     1
102
RTVSPropertyOp22
 70
     1
102
RTVSPropertyOp23
 70
     1
102
RTVSPropertyOp24
 70
     1
102
RTVSPropertyOp25
 70
     1
102
RTVSPropertyOp26
 70
     1
102
RTVSPropertyOp27
 70
     1
102
RTVSPropertyOp28
 70
     1
102
RTVSPropertyOp29
 70
     1
102
RTVSPropertyOp30
 70
     1
102
RTVSPropertyOp31
 70
     1
102
RTVSPropertyOp32
 70
     1
102
RTVSPropertyOp33
 70
     1
102
RTVSPropertyOp34
 70
     1
102
RTVSPropertyOp35
 70
     1
102
RTVSPropertyOp36
 70
     1
102
RTVSPropertyOp37
 70
     1
102
RTVSPropertyOp38
 70
     1
102
RTVSPropertyOp39
 70
     1
102
RTVSPropertyOp40
 70
     1
102
RTVSPropertyOp41
 70
     1
102
RTVSPropertyOp42
 70
     1
102
RTVSPropertyOp43
 70
     1
102
RTVSPropertyOp44
 70
     1
102
RTVSPropertyOp45
 70
     1
102
RTVSPropertyOp46
 70
     1
102
RTVSPropertyOp47
 70
     1
102
RTVSPropertyOp48
 70
     1
102
RTVSPropertyOp49
 70
     1
102
RTVSPropertyOp50
 70
     1
102
RTVSPropertyOp51
 70
     0
102
RTVSPropertyOp52
 70
     0
102
RTVSPropertyOp53
 70
     1
102
RTVSPropertyOp54
 70
     1
102
RTVSPropertyOp55
 70
     1
102
RTVSPropertyOp56
 70
     1
102
RTVSPropertyOp57
 70
     1
102
RTVSPropertyOp58
 70
     1
102
RTVSPropertyOp59
 70
     1
102
RTVSPropertyOp60
 70
     1
102
RTVSPropertyOp61
 70
     1
102
RTVSPropertyOp62
 70
     1
  0
XRECORD
  5
85C
102
{ACAD_REACTORS
330
85B
102
}
330
85B
100
AcDbXrecord
280
     1
102
RTVSPost2010Prop28
280
     0
102
RTVSPost2010PropOp28
 70
     0
102
RTVSPost2010Prop29
280
     1
102
RTVSPost2010PropOp29
 70
     0
102
RTVSPost2010Prop30
280
     1
102
RTVSPost2010PropOp30
 70
     0
102
RTVSPost2010Prop31
280
     0
102
RTVSPost2010PropOp31
 70
     0
102
RTVSPost2010Prop32
280
     0
102
RTVSPost2010PropOp32
 70
     0
102
RTVSPost2010Prop33
280
     0
102
RTVSPost2010PropOp33
 70
     0
102
RTVSPost2010Prop34
280
     0
102
RTVSPost2010PropOp34
 70
     0
102
RTVSPost2010Prop35
280
     0
102
RTVSPost2010PropOp35
 70
     0
102
RTVSPost2010Prop36
280
     0
102
RTVSPost2010PropOp36
 70
     0
102
RTVSPost2010Prop37
 90
       50
102
RTVSPost2010PropOp37
 70
     0
102
RTVSPost2010Prop38
140
0.0
102
RTVSPost2010PropOp38
 70
     0
102
RTVSPost2010Prop39
140
1.0
102
RTVSPost2010PropOp39
 70
     0
102
RTVSPost2010Prop40
 90
        0
102
RTVSPost2010PropOp40
 70
     0
102
RTVSPost2010Prop41ColorIndex
 90
       18
102
RTVSPost2010Prop41ColorRGB
 90
        0
102
RTVSPost2010PropOp41
 70
     0
102
RTVSPost2010Prop42
 90
       50
102
RTVSPost2010PropOp42
 70
     0
102
RTVSPost2010Prop43
 90
        3
102
RTVSPost2010PropOp43
 70
     0
102
RTVSPost2010Prop44ColorIndex
 90
        5
102
RTVSPost2010Prop44ColorRGB
 90
      255
102
RTVSPost2010PropOp44
 70
     0
102
RTVSPost2010Prop45
280
     0
102
RTVSPost2010PropOp45
 70
     0
102
RTVSPost2010Prop46
 90
       50
102
RTVSPost2010PropOp46
 70
     0
102
RTVSPost2010Prop47
 90
       50
102
RTVSPost2010PropOp47
 70
     0
102
RTVSPost2010Prop48
 90
       50
102
RTVSPost2010PropOp48
 70
     0
102
RTVSPost2010Prop49
280
     0
102
RTVSPost2010PropOp49
 70
     0
102
RTVSPost2010Prop50
 90
       50
102
RTVSPost2010PropOp50
 70
     0
102
RTVSPost2010Prop51ColorIndex
 90
      256
102
RTVSPost2010Prop51ColorRGB
 90
-16777216
102
RTVSPost2010PropOp51
 70
     0
102
RTVSPost2010Prop52
140
1.0
102
RTVSPost2010PropOp52
 70
     0
102
RTVSPost2010Prop53
 90
        2
102
RTVSPost2010PropOp53
 70
     0
102
RTVSPost2010Prop54
  1
strokes_ogs.tif
102
RTVSPost2010PropOp54
 70
     0
102
RTVSPost2010Prop55
280
     0
102
RTVSPost2010PropOp55
 70
     0
102
RTVSPost2010Prop56
140
1.0
102
RTVSPost2010PropOp56
 70
     0
102
RTVSPost2010Prop57
140
1.0
102
RTVSPost2010PropOp57
 70
     0
102
RTVSPropertyOp0
 70
     0
102
RTVSPropertyOp1
 70
     0
102
RTVSPropertyOp2
 70
     0
102
RTVSPropertyOp3
 70
     0
102
RTVSPropertyOp4
 70
     0
102
RTVSPropertyOp5
 70
     0
102
RTVSPropertyOp6
 70
     0
102
RTVSPropertyOp7
 70
     0
102
RTVSPropertyOp8
 70
     0
102
RTVSPropertyOp9
 70
     0
102
RTVSPropertyOp10
 70
     0
102
RTVSPropertyOp11
 70
     0
102
RTVSPropertyOp12
 70
     0
102
RTVSPropertyOp13
 70
     0
102
RTVSPropertyOp14
 70
     2
102
RTVSPropertyOp15
 70
     0
102
RTVSPropertyOp16
 70
     0
102
RTVSPropertyOp17
 70
     0
102
RTVSPropertyOp18
 70
     0
102
RTVSPropertyOp19
 70
     0
102
RTVSPropertyOp20
 70
     0
102
RTVSPropertyOp21
 70
     0
102
RTVSPropertyOp22
 70
     0
102
RTVSPropertyOp23
 70
     0
102
RTVSPropertyOp24
 70
     0
102
RTVSPropertyOp25
 70
     0
102
RTVSPropertyOp26
 70
     0
102
RTVSPropertyOp27
 70
     0
102
RTVSPropertyOp28
 70
     0
102
RTVSPropertyOp29
 70
     0
102
RTVSPropertyOp30
 70
     0
102
RTVSPropertyOp31
 70
     0
102
RTVSPropertyOp32
 70
     0
102
RTVSPropertyOp33
 70
     0
102
RTVSPropertyOp34
 70
     0
102
RTVSPropertyOp35
 70
     0
102
RTVSPropertyOp36
 70
     0
102
RTVSPropertyOp37
 70
     0
102
RTVSPropertyOp38
 70
     0
102
RTVSPropertyOp39
 70
     0
102
RTVSPropertyOp40
 70
     0
102
RTVSPropertyOp41
 70
     0
102
RTVSPropertyOp42
 70
     0
102
RTVSPropertyOp43
 70
     0
102
RTVSPropertyOp44
 70
     0
102
RTVSPropertyOp45
 70
     0
102
RTVSPropertyOp46
 70
     0
102
RTVSPropertyOp47
 70
     0
102
RTVSPropertyOp48
 70
     0
102
RTVSPropertyOp49
 70
     0
102
RTVSPropertyOp50
 70
     0
102
RTVSPropertyOp51
 70
     0
102
RTVSPropertyOp52
 70
     0
102
RTVSPropertyOp53
 70
     0
102
RTVSPropertyOp54
 70
     0
102
RTVSPropertyOp55
 70
     0
102
RTVSPropertyOp56
 70
     0
102
RTVSPropertyOp57
 70
     0
102
RTVSPropertyOp58
 70
     1
102
RTVSPropertyOp59
 70
     1
102
RTVSPropertyOp60
 70
     1
102
RTVSPropertyOp61
 70
     1
102
RTVSPropertyOp62
 70
     1
  0
XRECORD
  5
854
102
{ACAD_REACTORS
330
853
102
}
330
853
100
AcDbXrecord
280
     1
102
RTVSPost2010Prop28
280
     0
102
RTVSPost2010PropOp28
 70
     1
102
RTVSPost2010Prop29
280
     1
102
RTVSPost2010PropOp29
 70
     1
102
RTVSPost2010Prop30
280
     1
102
RTVSPost2010PropOp30
 70
     1
102
RTVSPost2010Prop31
280
     0
102
RTVSPost2010PropOp31
 70
     1
102
RTVSPost2010Prop32
280
     0
102
RTVSPost2010PropOp32
 70
     1
102
RTVSPost2010Prop33
280
     0
102
RTVSPost2010PropOp33
 70
     1
102
RTVSPost2010Prop34
280
     0
102
RTVSPost2010PropOp34
 70
     1
102
RTVSPost2010Prop35
280
     0
102
RTVSPost2010PropOp35
 70
     1
102
RTVSPost2010Prop36
280
     0
102
RTVSPost2010PropOp36
 70
     1
102
RTVSPost2010Prop37
 90
       50
102
RTVSPost2010PropOp37
 70
     1
102
RTVSPost2010Prop38
140
0.0
102
RTVSPost2010PropOp38
 70
     1
102
RTVSPost2010Prop39
140
1.0
102
RTVSPost2010PropOp39
 70
     1
102
RTVSPost2010Prop40
 90
        0
102
RTVSPost2010PropOp40
 70
     1
102
RTVSPost2010Prop41ColorIndex
 90
       18
102
RTVSPost2010Prop41ColorRGB
 90
        0
102
RTVSPost2010PropOp41
 70
     1
102
RTVSPost2010Prop42
 90
       50
102
RTVSPost2010PropOp42
 70
     1
102
RTVSPost2010Prop43
 90
        3
102
RTVSPost2010PropOp43
 70
     1
102
RTVSPost2010Prop44ColorIndex
 90
        5
102
RTVSPost2010Prop44ColorRGB
 90
      255
102
RTVSPost2010PropOp44
 70
     1
102
RTVSPost2010Prop45
280
     0
102
RTVSPost2010PropOp45
 70
     1
102
RTVSPost2010Prop46
 90
       50
102
RTVSPost2010PropOp46
 70
     1
102
RTVSPost2010Prop47
 90
       50
102
RTVSPost2010PropOp47
 70
     1
102
RTVSPost2010Prop48
 90
       50
102
RTVSPost2010PropOp48
 70
     1
102
RTVSPost2010Prop49
280
     0
102
RTVSPost2010PropOp49
 70
     1
102
RTVSPost2010Prop50
 90
       50
102
RTVSPost2010PropOp50
 70
     1
102
RTVSPost2010Prop51ColorIndex
 90
      256
102
RTVSPost2010Prop51ColorRGB
 90
-16777216
102
RTVSPost2010PropOp51
 70
     0
102
RTVSPost2010Prop52
140
1.0
102
RTVSPost2010PropOp52
 70
     0
102
RTVSPost2010Prop53
 90
        2
102
RTVSPost2010PropOp53
 70
     1
102
RTVSPost2010Prop54
  1
strokes_ogs.tif
102
RTVSPost2010PropOp54
 70
     1
102
RTVSPost2010Prop55
280
     0
102
RTVSPost2010PropOp55
 70
     1
102
RTVSPost2010Prop56
140
1.0
102
RTVSPost2010PropOp56
 70
     1
102
RTVSPost2010Prop57
140
1.0
102
RTVSPost2010PropOp57
 70
     1
102
RTVSPropertyOp0
 70
     1
102
RTVSPropertyOp1
 70
     1
102
RTVSPropertyOp2
 70
     1
102
RTVSPropertyOp3
 70
     1
102
RTVSPropertyOp4
 70
     1
102
RTVSPropertyOp5
 70
     1
102
RTVSPropertyOp6
 70
     1
102
RTVSPropertyOp7
 70
     1
102
RTVSPropertyOp8
 70
     1
102
RTVSPropertyOp9
 70
     1
102
RTVSPropertyOp10
 70
     1
102
RTVSPropertyOp11
 70
     1
102
RTVSPropertyOp12
 70
     1
102
RTVSPropertyOp13
 70
     1
102
RTVSPropertyOp14
 70
     1
102
RTVSPropertyOp15
 70
     1
102
RTVSPropertyOp16
 70
     1
102
RTVSPropertyOp17
 70
     1
102
RTVSPropertyOp18
 70
     1
102
RTVSPropertyOp19
 70
     1
102
RTVSPropertyOp20
 70
     1
102
RTVSPropertyOp21
 70
     1
102
RTVSPropertyOp22
 70
     1
102
RTVSPropertyOp23
 70
     1
102
RTVSPropertyOp24
 70
     1
102
RTVSPropertyOp25
 70
     1
102
RTVSPropertyOp26
 70
     1
102
RTVSPropertyOp27
 70
     1
102
RTVSPropertyOp28
 70
     1
102
RTVSPropertyOp29
 70
     1
102
RTVSPropertyOp30
 70
     1
102
RTVSPropertyOp31
 70
     1
102
RTVSPropertyOp32
 70
     1
102
RTVSPropertyOp33
 70
     1
102
RTVSPropertyOp34
 70
     1
102
RTVSPropertyOp35
 70
     1
102
RTVSPropertyOp36
 70
     1
102
RTVSPropertyOp37
 70
     1
102
RTVSPropertyOp38
 70
     1
102
RTVSPropertyOp39
 70
     1
102
RTVSPropertyOp40
 70
     1
102
RTVSPropertyOp41
 70
     1
102
RTVSPropertyOp42
 70
     1
102
RTVSPropertyOp43
 70
     1
102
RTVSPropertyOp44
 70
     1
102
RTVSPropertyOp45
 70
     1
102
RTVSPropertyOp46
 70
     1
102
RTVSPropertyOp47
 70
     1
102
RTVSPropertyOp48
 70
     1
102
RTVSPropertyOp49
 70
     1
102
RTVSPropertyOp50
 70
     1
102
RTVSPropertyOp51
 70
     0
102
RTVSPropertyOp52
 70
     0
102
RTVSPropertyOp53
 70
     1
102
RTVSPropertyOp54
 70
     1
102
RTVSPropertyOp55
 70
     1
102
RTVSPropertyOp56
 70
     1
102
RTVSPropertyOp57
 70
     1
102
RTVSPropertyOp58
 70
     1
102
RTVSPropertyOp59
 70
     1
102
RTVSPropertyOp60
 70
     1
102
RTVSPropertyOp61
 70
     1
102
RTVSPropertyOp62
 70
     1
  0
XRECORD
  5
838
102
{ACAD_REACTORS
330
837
102
}
330
837
100
AcDbXrecord
280
     1
102
RTVSPost2010Prop28
280
     0
102
RTVSPost2010PropOp28
 70
     1
102
RTVSPost2010Prop29
280
     1
102
RTVSPost2010PropOp29
 70
     1
102
RTVSPost2010Prop30
280
     1
102
RTVSPost2010PropOp30
 70
     1
102
RTVSPost2010Prop31
280
     0
102
RTVSPost2010PropOp31
 70
     1
102
RTVSPost2010Prop32
280
     0
102
RTVSPost2010PropOp32
 70
     1
102
RTVSPost2010Prop33
280
     0
102
RTVSPost2010PropOp33
 70
     1
102
RTVSPost2010Prop34
280
     0
102
RTVSPost2010PropOp34
 70
     1
102
RTVSPost2010Prop35
280
     0
102
RTVSPost2010PropOp35
 70
     1
102
RTVSPost2010Prop36
280
     0
102
RTVSPost2010PropOp36
 70
     1
102
RTVSPost2010Prop37
 90
       50
102
RTVSPost2010PropOp37
 70
     1
102
RTVSPost2010Prop38
140
0.0
102
RTVSPost2010PropOp38
 70
     1
102
RTVSPost2010Prop39
140
1.0
102
RTVSPost2010PropOp39
 70
     1
102
RTVSPost2010Prop40
 90
        0
102
RTVSPost2010PropOp40
 70
     1
102
RTVSPost2010Prop41ColorIndex
 90
       18
102
RTVSPost2010Prop41ColorRGB
 90
        0
102
RTVSPost2010PropOp41
 70
     1
102
RTVSPost2010Prop42
 90
       50
102
RTVSPost2010PropOp42
 70
     1
102
RTVSPost2010Prop43
 90
        3
102
RTVSPost2010PropOp43
 70
     1
102
RTVSPost2010Prop44ColorIndex
 90
        5
102
RTVSPost2010Prop44ColorRGB
 90
      255
102
RTVSPost2010PropOp44
 70
     1
102
RTVSPost2010Prop45
280
     0
102
RTVSPost2010PropOp45
 70
     1
102
RTVSPost2010Prop46
 90
       50
102
RTVSPost2010PropOp46
 70
     1
102
RTVSPost2010Prop47
 90
       50
102
RTVSPost2010PropOp47
 70
     1
102
RTVSPost2010Prop48
 90
       50
102
RTVSPost2010PropOp48
 70
     1
102
RTVSPost2010Prop49
280
     0
102
RTVSPost2010PropOp49
 70
     1
102
RTVSPost2010Prop50
 90
       50
102
RTVSPost2010PropOp50
 70
     1
102
RTVSPost2010Prop51ColorIndex
 90
      256
102
RTVSPost2010Prop51ColorRGB
 90
-16777216
102
RTVSPost2010PropOp51
 70
     0
102
RTVSPost2010Prop52
140
1.0
102
RTVSPost2010PropOp52
 70
     0
102
RTVSPost2010Prop53
 90
        2
102
RTVSPost2010PropOp53
 70
     1
102
RTVSPost2010Prop54
  1
strokes_ogs.tif
102
RTVSPost2010PropOp54
 70
     1
102
RTVSPost2010Prop55
280
     0
102
RTVSPost2010PropOp55
 70
     1
102
RTVSPost2010Prop56
140
1.0
102
RTVSPost2010PropOp56
 70
     1
102
RTVSPost2010Prop57
140
1.0
102
RTVSPost2010PropOp57
 70
     1
102
RTVSPropertyOp0
 70
     1
102
RTVSPropertyOp1
 70
     1
102
RTVSPropertyOp2
 70
     1
102
RTVSPropertyOp3
 70
     1
102
RTVSPropertyOp4
 70
     1
102
RTVSPropertyOp5
 70
     1
102
RTVSPropertyOp6
 70
     1
102
RTVSPropertyOp7
 70
     1
102
RTVSPropertyOp8
 70
     1
102
RTVSPropertyOp9
 70
     1
102
RTVSPropertyOp10
 70
     1
102
RTVSPropertyOp11
 70
     1
102
RTVSPropertyOp12
 70
     1
102
RTVSPropertyOp13
 70
     1
102
RTVSPropertyOp14
 70
     1
102
RTVSPropertyOp15
 70
     1
102
RTVSPropertyOp16
 70
     1
102
RTVSPropertyOp17
 70
     1
102
RTVSPropertyOp18
 70
     1
102
RTVSPropertyOp19
 70
     1
102
RTVSPropertyOp20
 70
     1
102
RTVSPropertyOp21
 70
     1
102
RTVSPropertyOp22
 70
     1
102
RTVSPropertyOp23
 70
     1
102
RTVSPropertyOp24
 70
     1
102
RTVSPropertyOp25
 70
     1
102
RTVSPropertyOp26
 70
     1
102
RTVSPropertyOp27
 70
     1
102
RTVSPropertyOp28
 70
     1
102
RTVSPropertyOp29
 70
     1
102
RTVSPropertyOp30
 70
     1
102
RTVSPropertyOp31
 70
     1
102
RTVSPropertyOp32
 70
     1
102
RTVSPropertyOp33
 70
     1
102
RTVSPropertyOp34
 70
     1
102
RTVSPropertyOp35
 70
     1
102
RTVSPropertyOp36
 70
     1
102
RTVSPropertyOp37
 70
     1
102
RTVSPropertyOp38
 70
     1
102
RTVSPropertyOp39
 70
     1
102
RTVSPropertyOp40
 70
     1
102
RTVSPropertyOp41
 70
     1
102
RTVSPropertyOp42
 70
     1
102
RTVSPropertyOp43
 70
     1
102
RTVSPropertyOp44
 70
     1
102
RTVSPropertyOp45
 70
     1
102
RTVSPropertyOp46
 70
     1
102
RTVSPropertyOp47
 70
     1
102
RTVSPropertyOp48
 70
     1
102
RTVSPropertyOp49
 70
     1
102
RTVSPropertyOp50
 70
     1
102
RTVSPropertyOp51
 70
     0
102
RTVSPropertyOp52
 70
     0
102
RTVSPropertyOp53
 70
     1
102
RTVSPropertyOp54
 70
     1
102
RTVSPropertyOp55
 70
     1
102
RTVSPropertyOp56
 70
     1
102
RTVSPropertyOp57
 70
     1
102
RTVSPropertyOp58
 70
     1
102
RTVSPropertyOp59
 70
     1
102
RTVSPropertyOp60
 70
     1
102
RTVSPropertyOp61
 70
     1
102
RTVSPropertyOp62
 70
     1
  0
XRECORD
  5
83A
102
{ACAD_REACTORS
330
839
102
}
330
839
100
AcDbXrecord
280
     1
102
RTVSPost2010Prop28
280
     0
102
RTVSPost2010PropOp28
 70
     1
102
RTVSPost2010Prop29
280
     1
102
RTVSPost2010PropOp29
 70
     1
102
RTVSPost2010Prop30
280
     1
102
RTVSPost2010PropOp30
 70
     1
102
RTVSPost2010Prop31
280
     0
102
RTVSPost2010PropOp31
 70
     1
102
RTVSPost2010Prop32
280
     0
102
RTVSPost2010PropOp32
 70
     1
102
RTVSPost2010Prop33
280
     0
102
RTVSPost2010PropOp33
 70
     1
102
RTVSPost2010Prop34
280
     0
102
RTVSPost2010PropOp34
 70
     1
102
RTVSPost2010Prop35
280
     0
102
RTVSPost2010PropOp35
 70
     1
102
RTVSPost2010Prop36
280
     0
102
RTVSPost2010PropOp36
 70
     1
102
RTVSPost2010Prop37
 90
       50
102
RTVSPost2010PropOp37
 70
     1
102
RTVSPost2010Prop38
140
0.0
102
RTVSPost2010PropOp38
 70
     1
102
RTVSPost2010Prop39
140
1.0
102
RTVSPost2010PropOp39
 70
     1
102
RTVSPost2010Prop40
 90
        0
102
RTVSPost2010PropOp40
 70
     1
102
RTVSPost2010Prop41ColorIndex
 90
       18
102
RTVSPost2010Prop41ColorRGB
 90
        0
102
RTVSPost2010PropOp41
 70
     1
102
RTVSPost2010Prop42
 90
       50
102
RTVSPost2010PropOp42
 70
     1
102
RTVSPost2010Prop43
 90
        3
102
RTVSPost2010PropOp43
 70
     1
102
RTVSPost2010Prop44ColorIndex
 90
        5
102
RTVSPost2010Prop44ColorRGB
 90
      255
102
RTVSPost2010PropOp44
 70
     1
102
RTVSPost2010Prop45
280
     0
102
RTVSPost2010PropOp45
 70
     1
102
RTVSPost2010Prop46
 90
       50
102
RTVSPost2010PropOp46
 70
     1
102
RTVSPost2010Prop47
 90
       50
102
RTVSPost2010PropOp47
 70
     1
102
RTVSPost2010Prop48
 90
       50
102
RTVSPost2010PropOp48
 70
     1
102
RTVSPost2010Prop49
280
     0
102
RTVSPost2010PropOp49
 70
     1
102
RTVSPost2010Prop50
 90
       50
102
RTVSPost2010PropOp50
 70
     1
102
RTVSPost2010Prop51ColorIndex
 90
      256
102
RTVSPost2010Prop51ColorRGB
 90
-16777216
102
RTVSPost2010PropOp51
 70
     0
102
RTVSPost2010Prop52
140
1.0
102
RTVSPost2010PropOp52
 70
     0
102
RTVSPost2010Prop53
 90
        2
102
RTVSPost2010PropOp53
 70
     1
102
RTVSPost2010Prop54
  1
strokes_ogs.tif
102
RTVSPost2010PropOp54
 70
     1
102
RTVSPost2010Prop55
280
     0
102
RTVSPost2010PropOp55
 70
     1
102
RTVSPost2010Prop56
140
1.0
102
RTVSPost2010PropOp56
 70
     1
102
RTVSPost2010Prop57
140
1.0
102
RTVSPost2010PropOp57
 70
     1
102
RTVSPropertyOp0
 70
     1
102
RTVSPropertyOp1
 70
     1
102
RTVSPropertyOp2
 70
     1
102
RTVSPropertyOp3
 70
     1
102
RTVSPropertyOp4
 70
     1
102
RTVSPropertyOp5
 70
     1
102
RTVSPropertyOp6
 70
     1
102
RTVSPropertyOp7
 70
     1
102
RTVSPropertyOp8
 70
     1
102
RTVSPropertyOp9
 70
     1
102
RTVSPropertyOp10
 70
     1
102
RTVSPropertyOp11
 70
     1
102
RTVSPropertyOp12
 70
     1
102
RTVSPropertyOp13
 70
     1
102
RTVSPropertyOp14
 70
     1
102
RTVSPropertyOp15
 70
     1
102
RTVSPropertyOp16
 70
     1
102
RTVSPropertyOp17
 70
     1
102
RTVSPropertyOp18
 70
     1
102
RTVSPropertyOp19
 70
     1
102
RTVSPropertyOp20
 70
     1
102
RTVSPropertyOp21
 70
     1
102
RTVSPropertyOp22
 70
     1
102
RTVSPropertyOp23
 70
     1
102
RTVSPropertyOp24
 70
     1
102
RTVSPropertyOp25
 70
     1
102
RTVSPropertyOp26
 70
     1
102
RTVSPropertyOp27
 70
     1
102
RTVSPropertyOp28
 70
     1
102
RTVSPropertyOp29
 70
     1
102
RTVSPropertyOp30
 70
     1
102
RTVSPropertyOp31
 70
     1
102
RTVSPropertyOp32
 70
     1
102
RTVSPropertyOp33
 70
     1
102
RTVSPropertyOp34
 70
     1
102
RTVSPropertyOp35
 70
     1
102
RTVSPropertyOp36
 70
     1
102
RTVSPropertyOp37
 70
     1
102
RTVSPropertyOp38
 70
     1
102
RTVSPropertyOp39
 70
     1
102
RTVSPropertyOp40
 70
     1
102
RTVSPropertyOp41
 70
     1
102
RTVSPropertyOp42
 70
     1
102
RTVSPropertyOp43
 70
     1
102
RTVSPropertyOp44
 70
     1
102
RTVSPropertyOp45
 70
     1
102
RTVSPropertyOp46
 70
     1
102
RTVSPropertyOp47
 70
     1
102
RTVSPropertyOp48
 70
     1
102
RTVSPropertyOp49
 70
     1
102
RTVSPropertyOp50
 70
     1
102
RTVSPropertyOp51
 70
     0
102
RTVSPropertyOp52
 70
     0
102
RTVSPropertyOp53
 70
     1
102
RTVSPropertyOp54
 70
     1
102
RTVSPropertyOp55
 70
     1
102
RTVSPropertyOp56
 70
     1
102
RTVSPropertyOp57
 70
     1
102
RTVSPropertyOp58
 70
     1
102
RTVSPropertyOp59
 70
     1
102
RTVSPropertyOp60
 70
     1
102
RTVSPropertyOp61
 70
     1
102
RTVSPropertyOp62
 70
     1
  0
XRECORD
  5
83C
102
{ACAD_REACTORS
330
83B
102
}
330
83B
100
AcDbXrecord
280
     1
102
RTVSPost2010Prop28
280
     0
102
RTVSPost2010PropOp28
 70
     1
102
RTVSPost2010Prop29
280
     1
102
RTVSPost2010PropOp29
 70
     1
102
RTVSPost2010Prop30
280
     1
102
RTVSPost2010PropOp30
 70
     1
102
RTVSPost2010Prop31
280
     0
102
RTVSPost2010PropOp31
 70
     1
102
RTVSPost2010Prop32
280
     0
102
RTVSPost2010PropOp32
 70
     1
102
RTVSPost2010Prop33
280
     0
102
RTVSPost2010PropOp33
 70
     1
102
RTVSPost2010Prop34
280
     0
102
RTVSPost2010PropOp34
 70
     1
102
RTVSPost2010Prop35
280
     0
102
RTVSPost2010PropOp35
 70
     1
102
RTVSPost2010Prop36
280
     0
102
RTVSPost2010PropOp36
 70
     1
102
RTVSPost2010Prop37
 90
       50
102
RTVSPost2010PropOp37
 70
     1
102
RTVSPost2010Prop38
140
0.0
102
RTVSPost2010PropOp38
 70
     1
102
RTVSPost2010Prop39
140
1.0
102
RTVSPost2010PropOp39
 70
     1
102
RTVSPost2010Prop40
 90
        0
102
RTVSPost2010PropOp40
 70
     1
102
RTVSPost2010Prop41ColorIndex
 90
       18
102
RTVSPost2010Prop41ColorRGB
 90
        0
102
RTVSPost2010PropOp41
 70
     1
102
RTVSPost2010Prop42
 90
       50
102
RTVSPost2010PropOp42
 70
     1
102
RTVSPost2010Prop43
 90
        3
102
RTVSPost2010PropOp43
 70
     1
102
RTVSPost2010Prop44ColorIndex
 90
        5
102
RTVSPost2010Prop44ColorRGB
 90
      255
102
RTVSPost2010PropOp44
 70
     1
102
RTVSPost2010Prop45
280
     0
102
RTVSPost2010PropOp45
 70
     1
102
RTVSPost2010Prop46
 90
       50
102
RTVSPost2010PropOp46
 70
     1
102
RTVSPost2010Prop47
 90
       50
102
RTVSPost2010PropOp47
 70
     1
102
RTVSPost2010Prop48
 90
       50
102
RTVSPost2010PropOp48
 70
     1
102
RTVSPost2010Prop49
280
     0
102
RTVSPost2010PropOp49
 70
     1
102
RTVSPost2010Prop50
 90
       50
102
RTVSPost2010PropOp50
 70
     1
102
RTVSPost2010Prop51ColorIndex
 90
      256
102
RTVSPost2010Prop51ColorRGB
 90
-16777216
102
RTVSPost2010PropOp51
 70
     0
102
RTVSPost2010Prop52
140
1.0
102
RTVSPost2010PropOp52
 70
     0
102
RTVSPost2010Prop53
 90
        2
102
RTVSPost2010PropOp53
 70
     1
102
RTVSPost2010Prop54
  1
strokes_ogs.tif
102
RTVSPost2010PropOp54
 70
     1
102
RTVSPost2010Prop55
280
     0
102
RTVSPost2010PropOp55
 70
     1
102
RTVSPost2010Prop56
140
1.0
102
RTVSPost2010PropOp56
 70
     1
102
RTVSPost2010Prop57
140
1.0
102
RTVSPost2010PropOp57
 70
     1
102
RTVSPropertyOp0
 70
     1
102
RTVSPropertyOp1
 70
     1
102
RTVSPropertyOp2
 70
     1
102
RTVSPropertyOp3
 70
     1
102
RTVSPropertyOp4
 70
     1
102
RTVSPropertyOp5
 70
     1
102
RTVSPropertyOp6
 70
     1
102
RTVSPropertyOp7
 70
     1
102
RTVSPropertyOp8
 70
     1
102
RTVSPropertyOp9
 70
     1
102
RTVSPropertyOp10
 70
     1
102
RTVSPropertyOp11
 70
     1
102
RTVSPropertyOp12
 70
     1
102
RTVSPropertyOp13
 70
     1
102
RTVSPropertyOp14
 70
     1
102
RTVSPropertyOp15
 70
     1
102
RTVSPropertyOp16
 70
     1
102
RTVSPropertyOp17
 70
     1
102
RTVSPropertyOp18
 70
     1
102
RTVSPropertyOp19
 70
     1
102
RTVSPropertyOp20
 70
     1
102
RTVSPropertyOp21
 70
     1
102
RTVSPropertyOp22
 70
     1
102
RTVSPropertyOp23
 70
     1
102
RTVSPropertyOp24
 70
     1
102
RTVSPropertyOp25
 70
     1
102
RTVSPropertyOp26
 70
     1
102
RTVSPropertyOp27
 70
     1
102
RTVSPropertyOp28
 70
     1
102
RTVSPropertyOp29
 70
     1
102
RTVSPropertyOp30
 70
     1
102
RTVSPropertyOp31
 70
     1
102
RTVSPropertyOp32
 70
     1
102
RTVSPropertyOp33
 70
     1
102
RTVSPropertyOp34
 70
     1
102
RTVSPropertyOp35
 70
     1
102
RTVSPropertyOp36
 70
     1
102
RTVSPropertyOp37
 70
     1
102
RTVSPropertyOp38
 70
     1
102
RTVSPropertyOp39
 70
     1
102
RTVSPropertyOp40
 70
     1
102
RTVSPropertyOp41
 70
     1
102
RTVSPropertyOp42
 70
     1
102
RTVSPropertyOp43
 70
     1
102
RTVSPropertyOp44
 70
     1
102
RTVSPropertyOp45
 70
     1
102
RTVSPropertyOp46
 70
     1
102
RTVSPropertyOp47
 70
     1
102
RTVSPropertyOp48
 70
     1
102
RTVSPropertyOp49
 70
     1
102
RTVSPropertyOp50
 70
     1
102
RTVSPropertyOp51
 70
     0
102
RTVSPropertyOp52
 70
     0
102
RTVSPropertyOp53
 70
     1
102
RTVSPropertyOp54
 70
     1
102
RTVSPropertyOp55
 70
     1
102
RTVSPropertyOp56
 70
     1
102
RTVSPropertyOp57
 70
     1
102
RTVSPropertyOp58
 70
     1
102
RTVSPropertyOp59
 70
     1
102
RTVSPropertyOp60
 70
     1
102
RTVSPropertyOp61
 70
     1
102
RTVSPropertyOp62
 70
     1
  0
XRECORD
  5
83E
102
{ACAD_REACTORS
330
83D
102
}
330
83D
100
AcDbXrecord
280
     1
102
RTVSPost2010Prop28
280
     0
102
RTVSPost2010PropOp28
 70
     1
102
RTVSPost2010Prop29
280
     1
102
RTVSPost2010PropOp29
 70
     1
102
RTVSPost2010Prop30
280
     1
102
RTVSPost2010PropOp30
 70
     1
102
RTVSPost2010Prop31
280
     0
102
RTVSPost2010PropOp31
 70
     1
102
RTVSPost2010Prop32
280
     0
102
RTVSPost2010PropOp32
 70
     1
102
RTVSPost2010Prop33
280
     0
102
RTVSPost2010PropOp33
 70
     1
102
RTVSPost2010Prop34
280
     0
102
RTVSPost2010PropOp34
 70
     1
102
RTVSPost2010Prop35
280
     0
102
RTVSPost2010PropOp35
 70
     1
102
RTVSPost2010Prop36
280
     0
102
RTVSPost2010PropOp36
 70
     1
102
RTVSPost2010Prop37
 90
       50
102
RTVSPost2010PropOp37
 70
     1
102
RTVSPost2010Prop38
140
0.0
102
RTVSPost2010PropOp38
 70
     1
102
RTVSPost2010Prop39
140
1.0
102
RTVSPost2010PropOp39
 70
     1
102
RTVSPost2010Prop40
 90
        0
102
RTVSPost2010PropOp40
 70
     1
102
RTVSPost2010Prop41ColorIndex
 90
       18
102
RTVSPost2010Prop41ColorRGB
 90
        0
102
RTVSPost2010PropOp41
 70
     1
102
RTVSPost2010Prop42
 90
       50
102
RTVSPost2010PropOp42
 70
     1
102
RTVSPost2010Prop43
 90
        3
102
RTVSPost2010PropOp43
 70
     1
102
RTVSPost2010Prop44ColorIndex
 90
        5
102
RTVSPost2010Prop44ColorRGB
 90
      255
102
RTVSPost2010PropOp44
 70
     1
102
RTVSPost2010Prop45
280
     0
102
RTVSPost2010PropOp45
 70
     1
102
RTVSPost2010Prop46
 90
       50
102
RTVSPost2010PropOp46
 70
     1
102
RTVSPost2010Prop47
 90
       50
102
RTVSPost2010PropOp47
 70
     1
102
RTVSPost2010Prop48
 90
       50
102
RTVSPost2010PropOp48
 70
     1
102
RTVSPost2010Prop49
280
     0
102
RTVSPost2010PropOp49
 70
     1
102
RTVSPost2010Prop50
 90
       50
102
RTVSPost2010PropOp50
 70
     1
102
RTVSPost2010Prop51ColorIndex
 90
      256
102
RTVSPost2010Prop51ColorRGB
 90
-16777216
102
RTVSPost2010PropOp51
 70
     0
102
RTVSPost2010Prop52
140
1.0
102
RTVSPost2010PropOp52
 70
     0
102
RTVSPost2010Prop53
 90
        2
102
RTVSPost2010PropOp53
 70
     1
102
RTVSPost2010Prop54
  1
strokes_ogs.tif
102
RTVSPost2010PropOp54
 70
     1
102
RTVSPost2010Prop55
280
     0
102
RTVSPost2010PropOp55
 70
     1
102
RTVSPost2010Prop56
140
1.0
102
RTVSPost2010PropOp56
 70
     1
102
RTVSPost2010Prop57
140
1.0
102
RTVSPost2010PropOp57
 70
     1
102
RTVSPropertyOp0
 70
     1
102
RTVSPropertyOp1
 70
     1
102
RTVSPropertyOp2
 70
     1
102
RTVSPropertyOp3
 70
     1
102
RTVSPropertyOp4
 70
     1
102
RTVSPropertyOp5
 70
     1
102
RTVSPropertyOp6
 70
     1
102
RTVSPropertyOp7
 70
     1
102
RTVSPropertyOp8
 70
     1
102
RTVSPropertyOp9
 70
     1
102
RTVSPropertyOp10
 70
     1
102
RTVSPropertyOp11
 70
     1
102
RTVSPropertyOp12
 70
     1
102
RTVSPropertyOp13
 70
     1
102
RTVSPropertyOp14
 70
     1
102
RTVSPropertyOp15
 70
     1
102
RTVSPropertyOp16
 70
     1
102
RTVSPropertyOp17
 70
     1
102
RTVSPropertyOp18
 70
     1
102
RTVSPropertyOp19
 70
     1
102
RTVSPropertyOp20
 70
     1
102
RTVSPropertyOp21
 70
     1
102
RTVSPropertyOp22
 70
     1
102
RTVSPropertyOp23
 70
     1
102
RTVSPropertyOp24
 70
     1
102
RTVSPropertyOp25
 70
     1
102
RTVSPropertyOp26
 70
     1
102
RTVSPropertyOp27
 70
     1
102
RTVSPropertyOp28
 70
     1
102
RTVSPropertyOp29
 70
     1
102
RTVSPropertyOp30
 70
     1
102
RTVSPropertyOp31
 70
     1
102
RTVSPropertyOp32
 70
     1
102
RTVSPropertyOp33
 70
     1
102
RTVSPropertyOp34
 70
     1
102
RTVSPropertyOp35
 70
     1
102
RTVSPropertyOp36
 70
     1
102
RTVSPropertyOp37
 70
     1
102
RTVSPropertyOp38
 70
     1
102
RTVSPropertyOp39
 70
     1
102
RTVSPropertyOp40
 70
     1
102
RTVSPropertyOp41
 70
     1
102
RTVSPropertyOp42
 70
     1
102
RTVSPropertyOp43
 70
     1
102
RTVSPropertyOp44
 70
     1
102
RTVSPropertyOp45
 70
     1
102
RTVSPropertyOp46
 70
     1
102
RTVSPropertyOp47
 70
     1
102
RTVSPropertyOp48
 70
     1
102
RTVSPropertyOp49
 70
     1
102
RTVSPropertyOp50
 70
     1
102
RTVSPropertyOp51
 70
     0
102
RTVSPropertyOp52
 70
     0
102
RTVSPropertyOp53
 70
     1
102
RTVSPropertyOp54
 70
     1
102
RTVSPropertyOp55
 70
     1
102
RTVSPropertyOp56
 70
     1
102
RTVSPropertyOp57
 70
     1
102
RTVSPropertyOp58
 70
     1
102
RTVSPropertyOp59
 70
     1
102
RTVSPropertyOp60
 70
     1
102
RTVSPropertyOp61
 70
     1
102
RTVSPropertyOp62
 70
     1
  0
XRECORD
  5
844
102
{ACAD_REACTORS
330
843
102
}
330
843
100
AcDbXrecord
280
     1
102
RTVSPost2010Prop28
280
     0
102
RTVSPost2010PropOp28
 70
     1
102
RTVSPost2010Prop29
280
     1
102
RTVSPost2010PropOp29
 70
     1
102
RTVSPost2010Prop30
280
     1
102
RTVSPost2010PropOp30
 70
     1
102
RTVSPost2010Prop31
280
     0
102
RTVSPost2010PropOp31
 70
     1
102
RTVSPost2010Prop32
280
     0
102
RTVSPost2010PropOp32
 70
     1
102
RTVSPost2010Prop33
280
     0
102
RTVSPost2010PropOp33
 70
     1
102
RTVSPost2010Prop34
280
     0
102
RTVSPost2010PropOp34
 70
     1
102
RTVSPost2010Prop35
280
     0
102
RTVSPost2010PropOp35
 70
     1
102
RTVSPost2010Prop36
280
     0
102
RTVSPost2010PropOp36
 70
     1
102
RTVSPost2010Prop37
 90
       50
102
RTVSPost2010PropOp37
 70
     1
102
RTVSPost2010Prop38
140
0.0
102
RTVSPost2010PropOp38
 70
     1
102
RTVSPost2010Prop39
140
1.0
102
RTVSPost2010PropOp39
 70
     1
102
RTVSPost2010Prop40
 90
        0
102
RTVSPost2010PropOp40
 70
     1
102
RTVSPost2010Prop41ColorIndex
 90
       18
102
RTVSPost2010Prop41ColorRGB
 90
        0
102
RTVSPost2010PropOp41
 70
     1
102
RTVSPost2010Prop42
 90
       50
102
RTVSPost2010PropOp42
 70
     1
102
RTVSPost2010Prop43
 90
        3
102
RTVSPost2010PropOp43
 70
     1
102
RTVSPost2010Prop44ColorIndex
 90
        5
102
RTVSPost2010Prop44ColorRGB
 90
      255
102
RTVSPost2010PropOp44
 70
     1
102
RTVSPost2010Prop45
280
     0
102
RTVSPost2010PropOp45
 70
     1
102
RTVSPost2010Prop46
 90
       50
102
RTVSPost2010PropOp46
 70
     1
102
RTVSPost2010Prop47
 90
       50
102
RTVSPost2010PropOp47
 70
     1
102
RTVSPost2010Prop48
 90
       50
102
RTVSPost2010PropOp48
 70
     1
102
RTVSPost2010Prop49
280
     0
102
RTVSPost2010PropOp49
 70
     1
102
RTVSPost2010Prop50
 90
       50
102
RTVSPost2010PropOp50
 70
     1
102
RTVSPost2010Prop51ColorIndex
 90
      256
102
RTVSPost2010Prop51ColorRGB
 90
-16777216
102
RTVSPost2010PropOp51
 70
     0
102
RTVSPost2010Prop52
140
1.0
102
RTVSPost2010PropOp52
 70
     0
102
RTVSPost2010Prop53
 90
        2
102
RTVSPost2010PropOp53
 70
     1
102
RTVSPost2010Prop54
  1
strokes_ogs.tif
102
RTVSPost2010PropOp54
 70
     1
102
RTVSPost2010Prop55
280
     0
102
RTVSPost2010PropOp55
 70
     1
102
RTVSPost2010Prop56
140
1.0
102
RTVSPost2010PropOp56
 70
     1
102
RTVSPost2010Prop57
140
1.0
102
RTVSPost2010PropOp57
 70
     1
102
RTVSPropertyOp0
 70
     1
102
RTVSPropertyOp1
 70
     1
102
RTVSPropertyOp2
 70
     1
102
RTVSPropertyOp3
 70
     1
102
RTVSPropertyOp4
 70
     1
102
RTVSPropertyOp5
 70
     1
102
RTVSPropertyOp6
 70
     1
102
RTVSPropertyOp7
 70
     1
102
RTVSPropertyOp8
 70
     1
102
RTVSPropertyOp9
 70
     1
102
RTVSPropertyOp10
 70
     1
102
RTVSPropertyOp11
 70
     1
102
RTVSPropertyOp12
 70
     1
102
RTVSPropertyOp13
 70
     1
102
RTVSPropertyOp14
 70
     1
102
RTVSPropertyOp15
 70
     1
102
RTVSPropertyOp16
 70
     1
102
RTVSPropertyOp17
 70
     1
102
RTVSPropertyOp18
 70
     1
102
RTVSPropertyOp19
 70
     1
102
RTVSPropertyOp20
 70
     1
102
RTVSPropertyOp21
 70
     1
102
RTVSPropertyOp22
 70
     1
102
RTVSPropertyOp23
 70
     1
102
RTVSPropertyOp24
 70
     1
102
RTVSPropertyOp25
 70
     1
102
RTVSPropertyOp26
 70
     1
102
RTVSPropertyOp27
 70
     1
102
RTVSPropertyOp28
 70
     1
102
RTVSPropertyOp29
 70
     1
102
RTVSPropertyOp30
 70
     1
102
RTVSPropertyOp31
 70
     1
102
RTVSPropertyOp32
 70
     1
102
RTVSPropertyOp33
 70
     1
102
RTVSPropertyOp34
 70
     1
102
RTVSPropertyOp35
 70
     1
102
RTVSPropertyOp36
 70
     1
102
RTVSPropertyOp37
 70
     1
102
RTVSPropertyOp38
 70
     1
102
RTVSPropertyOp39
 70
     1
102
RTVSPropertyOp40
 70
     1
102
RTVSPropertyOp41
 70
     1
102
RTVSPropertyOp42
 70
     1
102
RTVSPropertyOp43
 70
     1
102
RTVSPropertyOp44
 70
     1
102
RTVSPropertyOp45
 70
     1
102
RTVSPropertyOp46
 70
     1
102
RTVSPropertyOp47
 70
     1
102
RTVSPropertyOp48
 70
     1
102
RTVSPropertyOp49
 70
     1
102
RTVSPropertyOp50
 70
     1
102
RTVSPropertyOp51
 70
     0
102
RTVSPropertyOp52
 70
     0
102
RTVSPropertyOp53
 70
     1
102
RTVSPropertyOp54
 70
     1
102
RTVSPropertyOp55
 70
     1
102
RTVSPropertyOp56
 70
     1
102
RTVSPropertyOp57
 70
     1
102
RTVSPropertyOp58
 70
     1
102
RTVSPropertyOp59
 70
     1
102
RTVSPropertyOp60
 70
     1
102
RTVSPropertyOp61
 70
     1
102
RTVSPropertyOp62
 70
     1
  0
XRECORD
  5
858
102
{ACAD_REACTORS
330
857
102
}
330
857
100
AcDbXrecord
280
     1
102
RTVSPost2010Prop28
280
     0
102
RTVSPost2010PropOp28
 70
     0
102
RTVSPost2010Prop29
280
     1
102
RTVSPost2010PropOp29
 70
     0
102
RTVSPost2010Prop30
280
     1
102
RTVSPost2010PropOp30
 70
     0
102
RTVSPost2010Prop31
280
     0
102
RTVSPost2010PropOp31
 70
     0
102
RTVSPost2010Prop32
280
     0
102
RTVSPost2010PropOp32
 70
     0
102
RTVSPost2010Prop33
280
     0
102
RTVSPost2010PropOp33
 70
     0
102
RTVSPost2010Prop34
280
     0
102
RTVSPost2010PropOp34
 70
     0
102
RTVSPost2010Prop35
280
     0
102
RTVSPost2010PropOp35
 70
     0
102
RTVSPost2010Prop36
280
     0
102
RTVSPost2010PropOp36
 70
     0
102
RTVSPost2010Prop37
 90
       50
102
RTVSPost2010PropOp37
 70
     0
102
RTVSPost2010Prop38
140
0.0
102
RTVSPost2010PropOp38
 70
     0
102
RTVSPost2010Prop39
140
1.0
102
RTVSPost2010PropOp39
 70
     0
102
RTVSPost2010Prop40
 90
        0
102
RTVSPost2010PropOp40
 70
     0
102
RTVSPost2010Prop41ColorIndex
 90
       18
102
RTVSPost2010Prop41ColorRGB
 90
        0
102
RTVSPost2010PropOp41
 70
     0
102
RTVSPost2010Prop42
 90
       50
102
RTVSPost2010PropOp42
 70
     0
102
RTVSPost2010Prop43
 90
        3
102
RTVSPost2010PropOp43
 70
     0
102
RTVSPost2010Prop44ColorIndex
 90
        5
102
RTVSPost2010Prop44ColorRGB
 90
      255
102
RTVSPost2010PropOp44
 70
     0
102
RTVSPost2010Prop45
280
     0
102
RTVSPost2010PropOp45
 70
     0
102
RTVSPost2010Prop46
 90
       50
102
RTVSPost2010PropOp46
 70
     0
102
RTVSPost2010Prop47
 90
       50
102
RTVSPost2010PropOp47
 70
     0
102
RTVSPost2010Prop48
 90
       50
102
RTVSPost2010PropOp48
 70
     0
102
RTVSPost2010Prop49
280
     0
102
RTVSPost2010PropOp49
 70
     0
102
RTVSPost2010Prop50
 90
       50
102
RTVSPost2010PropOp50
 70
     0
102
RTVSPost2010Prop51ColorIndex
 90
      256
102
RTVSPost2010Prop51ColorRGB
 90
-16777216
102
RTVSPost2010PropOp51
 70
     0
102
RTVSPost2010Prop52
140
1.0
102
RTVSPost2010PropOp52
 70
     0
102
RTVSPost2010Prop53
 90
        2
102
RTVSPost2010PropOp53
 70
     0
102
RTVSPost2010Prop54
  1
strokes_ogs.tif
102
RTVSPost2010PropOp54
 70
     0
102
RTVSPost2010Prop55
280
     0
102
RTVSPost2010PropOp55
 70
     0
102
RTVSPost2010Prop56
140
1.0
102
RTVSPost2010PropOp56
 70
     0
102
RTVSPost2010Prop57
140
1.0
102
RTVSPost2010PropOp57
 70
     0
102
RTVSPropertyOp0
 70
     0
102
RTVSPropertyOp1
 70
     0
102
RTVSPropertyOp2
 70
     0
102
RTVSPropertyOp3
 70
     0
102
RTVSPropertyOp4
 70
     0
102
RTVSPropertyOp5
 70
     0
102
RTVSPropertyOp6
 70
     0
102
RTVSPropertyOp7
 70
     0
102
RTVSPropertyOp8
 70
     0
102
RTVSPropertyOp9
 70
     0
102
RTVSPropertyOp10
 70
     0
102
RTVSPropertyOp11
 70
     0
102
RTVSPropertyOp12
 70
     0
102
RTVSPropertyOp13
 70
     0
102
RTVSPropertyOp14
 70
     2
102
RTVSPropertyOp15
 70
     0
102
RTVSPropertyOp16
 70
     0
102
RTVSPropertyOp17
 70
     0
102
RTVSPropertyOp18
 70
     0
102
RTVSPropertyOp19
 70
     0
102
RTVSPropertyOp20
 70
     0
102
RTVSPropertyOp21
 70
     0
102
RTVSPropertyOp22
 70
     0
102
RTVSPropertyOp23
 70
     0
102
RTVSPropertyOp24
 70
     0
102
RTVSPropertyOp25
 70
     0
102
RTVSPropertyOp26
 70
     0
102
RTVSPropertyOp27
 70
     0
102
RTVSPropertyOp28
 70
     0
102
RTVSPropertyOp29
 70
     0
102
RTVSPropertyOp30
 70
     0
102
RTVSPropertyOp31
 70
     0
102
RTVSPropertyOp32
 70
     0
102
RTVSPropertyOp33
 70
     0
102
RTVSPropertyOp34
 70
     0
102
RTVSPropertyOp35
 70
     0
102
RTVSPropertyOp36
 70
     0
102
RTVSPropertyOp37
 70
     0
102
RTVSPropertyOp38
 70
     0
102
RTVSPropertyOp39
 70
     0
102
RTVSPropertyOp40
 70
     0
102
RTVSPropertyOp41
 70
     0
102
RTVSPropertyOp42
 70
     0
102
RTVSPropertyOp43
 70
     0
102
RTVSPropertyOp44
 70
     0
102
RTVSPropertyOp45
 70
     0
102
RTVSPropertyOp46
 70
     0
102
RTVSPropertyOp47
 70
     0
102
RTVSPropertyOp48
 70
     0
102
RTVSPropertyOp49
 70
     0
102
RTVSPropertyOp50
 70
     0
102
RTVSPropertyOp51
 70
     0
102
RTVSPropertyOp52
 70
     0
102
RTVSPropertyOp53
 70
     0
102
RTVSPropertyOp54
 70
     0
102
RTVSPropertyOp55
 70
     0
102
RTVSPropertyOp56
 70
     0
102
RTVSPropertyOp57
 70
     0
102
RTVSPropertyOp58
 70
     1
102
RTVSPropertyOp59
 70
     1
102
RTVSPropertyOp60
 70
     1
102
RTVSPropertyOp61
 70
     1
102
RTVSPropertyOp62
 70
     1
  0
XRECORD
  5
852
102
{ACAD_REACTORS
330
851
102
}
330
851
100
AcDbXrecord
280
     1
102
RTVSPost2010Prop28
280
     0
102
RTVSPost2010PropOp28
 70
     1
102
RTVSPost2010Prop29
280
     1
102
RTVSPost2010PropOp29
 70
     1
102
RTVSPost2010Prop30
280
     1
102
RTVSPost2010PropOp30
 70
     1
102
RTVSPost2010Prop31
280
     0
102
RTVSPost2010PropOp31
 70
     1
102
RTVSPost2010Prop32
280
     0
102
RTVSPost2010PropOp32
 70
     1
102
RTVSPost2010Prop33
280
     0
102
RTVSPost2010PropOp33
 70
     1
102
RTVSPost2010Prop34
280
     0
102
RTVSPost2010PropOp34
 70
     1
102
RTVSPost2010Prop35
280
     0
102
RTVSPost2010PropOp35
 70
     1
102
RTVSPost2010Prop36
280
     0
102
RTVSPost2010PropOp36
 70
     1
102
RTVSPost2010Prop37
 90
       50
102
RTVSPost2010PropOp37
 70
     1
102
RTVSPost2010Prop38
140
0.0
102
RTVSPost2010PropOp38
 70
     1
102
RTVSPost2010Prop39
140
1.0
102
RTVSPost2010PropOp39
 70
     1
102
RTVSPost2010Prop40
 90
        0
102
RTVSPost2010PropOp40
 70
     1
102
RTVSPost2010Prop41ColorIndex
 90
       18
102
RTVSPost2010Prop41ColorRGB
 90
        0
102
RTVSPost2010PropOp41
 70
     1
102
RTVSPost2010Prop42
 90
       50
102
RTVSPost2010PropOp42
 70
     1
102
RTVSPost2010Prop43
 90
        3
102
RTVSPost2010PropOp43
 70
     1
102
RTVSPost2010Prop44ColorIndex
 90
        5
102
RTVSPost2010Prop44ColorRGB
 90
      255
102
RTVSPost2010PropOp44
 70
     1
102
RTVSPost2010Prop45
280
     0
102
RTVSPost2010PropOp45
 70
     1
102
RTVSPost2010Prop46
 90
       50
102
RTVSPost2010PropOp46
 70
     1
102
RTVSPost2010Prop47
 90
       50
102
RTVSPost2010PropOp47
 70
     1
102
RTVSPost2010Prop48
 90
       50
102
RTVSPost2010PropOp48
 70
     1
102
RTVSPost2010Prop49
280
     0
102
RTVSPost2010PropOp49
 70
     1
102
RTVSPost2010Prop50
 90
       50
102
RTVSPost2010PropOp50
 70
     1
102
RTVSPost2010Prop51ColorIndex
 90
      256
102
RTVSPost2010Prop51ColorRGB
 90
-16777216
102
RTVSPost2010PropOp51
 70
     0
102
RTVSPost2010Prop52
140
1.0
102
RTVSPost2010PropOp52
 70
     0
102
RTVSPost2010Prop53
 90
        2
102
RTVSPost2010PropOp53
 70
     1
102
RTVSPost2010Prop54
  1
strokes_ogs.tif
102
RTVSPost2010PropOp54
 70
     1
102
RTVSPost2010Prop55
280
     0
102
RTVSPost2010PropOp55
 70
     1
102
RTVSPost2010Prop56
140
1.0
102
RTVSPost2010PropOp56
 70
     1
102
RTVSPost2010Prop57
140
1.0
102
RTVSPost2010PropOp57
 70
     1
102
RTVSPropertyOp0
 70
     1
102
RTVSPropertyOp1
 70
     1
102
RTVSPropertyOp2
 70
     1
102
RTVSPropertyOp3
 70
     1
102
RTVSPropertyOp4
 70
     1
102
RTVSPropertyOp5
 70
     1
102
RTVSPropertyOp6
 70
     1
102
RTVSPropertyOp7
 70
     1
102
RTVSPropertyOp8
 70
     1
102
RTVSPropertyOp9
 70
     1
102
RTVSPropertyOp10
 70
     1
102
RTVSPropertyOp11
 70
     1
102
RTVSPropertyOp12
 70
     1
102
RTVSPropertyOp13
 70
     1
102
RTVSPropertyOp14
 70
     1
102
RTVSPropertyOp15
 70
     1
102
RTVSPropertyOp16
 70
     1
102
RTVSPropertyOp17
 70
     1
102
RTVSPropertyOp18
 70
     1
102
RTVSPropertyOp19
 70
     1
102
RTVSPropertyOp20
 70
     1
102
RTVSPropertyOp21
 70
     1
102
RTVSPropertyOp22
 70
     1
102
RTVSPropertyOp23
 70
     1
102
RTVSPropertyOp24
 70
     1
102
RTVSPropertyOp25
 70
     1
102
RTVSPropertyOp26
 70
     1
102
RTVSPropertyOp27
 70
     1
102
RTVSPropertyOp28
 70
     1
102
RTVSPropertyOp29
 70
     1
102
RTVSPropertyOp30
 70
     1
102
RTVSPropertyOp31
 70
     1
102
RTVSPropertyOp32
 70
     1
102
RTVSPropertyOp33
 70
     1
102
RTVSPropertyOp34
 70
     1
102
RTVSPropertyOp35
 70
     1
102
RTVSPropertyOp36
 70
     1
102
RTVSPropertyOp37
 70
     1
102
RTVSPropertyOp38
 70
     1
102
RTVSPropertyOp39
 70
     1
102
RTVSPropertyOp40
 70
     1
102
RTVSPropertyOp41
 70
     1
102
RTVSPropertyOp42
 70
     1
102
RTVSPropertyOp43
 70
     1
102
RTVSPropertyOp44
 70
     1
102
RTVSPropertyOp45
 70
     1
102
RTVSPropertyOp46
 70
     1
102
RTVSPropertyOp47
 70
     1
102
RTVSPropertyOp48
 70
     1
102
RTVSPropertyOp49
 70
     1
102
RTVSPropertyOp50
 70
     1
102
RTVSPropertyOp51
 70
     0
102
RTVSPropertyOp52
 70
     0
102
RTVSPropertyOp53
 70
     1
102
RTVSPropertyOp54
 70
     1
102
RTVSPropertyOp55
 70
     1
102
RTVSPropertyOp56
 70
     1
102
RTVSPropertyOp57
 70
     1
102
RTVSPropertyOp58
 70
     1
102
RTVSPropertyOp59
 70
     1
102
RTVSPropertyOp60
 70
     1
102
RTVSPropertyOp61
 70
     1
102
RTVSPropertyOp62
 70
     1
  0
XRECORD
  5
85A
102
{ACAD_REACTORS
330
859
102
}
330
859
100
AcDbXrecord
280
     1
102
RTVSPost2010Prop28
280
     0
102
RTVSPost2010PropOp28
 70
     0
102
RTVSPost2010Prop29
280
     1
102
RTVSPost2010PropOp29
 70
     0
102
RTVSPost2010Prop30
280
     1
102
RTVSPost2010PropOp30
 70
     0
102
RTVSPost2010Prop31
280
     0
102
RTVSPost2010PropOp31
 70
     0
102
RTVSPost2010Prop32
280
     0
102
RTVSPost2010PropOp32
 70
     0
102
RTVSPost2010Prop33
280
     0
102
RTVSPost2010PropOp33
 70
     0
102
RTVSPost2010Prop34
280
     0
102
RTVSPost2010PropOp34
 70
     0
102
RTVSPost2010Prop35
280
     0
102
RTVSPost2010PropOp35
 70
     0
102
RTVSPost2010Prop36
280
     0
102
RTVSPost2010PropOp36
 70
     0
102
RTVSPost2010Prop37
 90
       50
102
RTVSPost2010PropOp37
 70
     0
102
RTVSPost2010Prop38
140
0.0
102
RTVSPost2010PropOp38
 70
     0
102
RTVSPost2010Prop39
140
1.0
102
RTVSPost2010PropOp39
 70
     0
102
RTVSPost2010Prop40
 90
        0
102
RTVSPost2010PropOp40
 70
     0
102
RTVSPost2010Prop41ColorIndex
 90
       18
102
RTVSPost2010Prop41ColorRGB
 90
        0
102
RTVSPost2010PropOp41
 70
     0
102
RTVSPost2010Prop42
 90
       50
102
RTVSPost2010PropOp42
 70
     0
102
RTVSPost2010Prop43
 90
        3
102
RTVSPost2010PropOp43
 70
     0
102
RTVSPost2010Prop44ColorIndex
 90
        5
102
RTVSPost2010Prop44ColorRGB
 90
      255
102
RTVSPost2010PropOp44
 70
     0
102
RTVSPost2010Prop45
280
     0
102
RTVSPost2010PropOp45
 70
     0
102
RTVSPost2010Prop46
 90
       50
102
RTVSPost2010PropOp46
 70
     0
102
RTVSPost2010Prop47
 90
       50
102
RTVSPost2010PropOp47
 70
     0
102
RTVSPost2010Prop48
 90
       50
102
RTVSPost2010PropOp48
 70
     0
102
RTVSPost2010Prop49
280
     0
102
RTVSPost2010PropOp49
 70
     0
102
RTVSPost2010Prop50
 90
       50
102
RTVSPost2010PropOp50
 70
     0
102
RTVSPost2010Prop51ColorIndex
 90
      256
102
RTVSPost2010Prop51ColorRGB
 90
-16777216
102
RTVSPost2010PropOp51
 70
     0
102
RTVSPost2010Prop52
140
1.0
102
RTVSPost2010PropOp52
 70
     0
102
RTVSPost2010Prop53
 90
        2
102
RTVSPost2010PropOp53
 70
     0
102
RTVSPost2010Prop54
  1
strokes_ogs.tif
102
RTVSPost2010PropOp54
 70
     0
102
RTVSPost2010Prop55
280
     0
102
RTVSPost2010PropOp55
 70
     0
102
RTVSPost2010Prop56
140
1.0
102
RTVSPost2010PropOp56
 70
     0
102
RTVSPost2010Prop57
140
1.0
102
RTVSPost2010PropOp57
 70
     0
102
RTVSPropertyOp0
 70
     0
102
RTVSPropertyOp1
 70
     0
102
RTVSPropertyOp2
 70
     0
102
RTVSPropertyOp3
 70
     0
102
RTVSPropertyOp4
 70
     0
102
RTVSPropertyOp5
 70
     0
102
RTVSPropertyOp6
 70
     0
102
RTVSPropertyOp7
 70
     0
102
RTVSPropertyOp8
 70
     0
102
RTVSPropertyOp9
 70
     0
102
RTVSPropertyOp10
 70
     0
102
RTVSPropertyOp11
 70
     0
102
RTVSPropertyOp12
 70
     0
102
RTVSPropertyOp13
 70
     0
102
RTVSPropertyOp14
 70
     2
102
RTVSPropertyOp15
 70
     0
102
RTVSPropertyOp16
 70
     0
102
RTVSPropertyOp17
 70
     0
102
RTVSPropertyOp18
 70
     0
102
RTVSPropertyOp19
 70
     0
102
RTVSPropertyOp20
 70
     0
102
RTVSPropertyOp21
 70
     0
102
RTVSPropertyOp22
 70
     0
102
RTVSPropertyOp23
 70
     0
102
RTVSPropertyOp24
 70
     0
102
RTVSPropertyOp25
 70
     0
102
RTVSPropertyOp26
 70
     0
102
RTVSPropertyOp27
 70
     0
102
RTVSPropertyOp28
 70
     0
102
RTVSPropertyOp29
 70
     0
102
RTVSPropertyOp30
 70
     0
102
RTVSPropertyOp31
 70
     0
102
RTVSPropertyOp32
 70
     0
102
RTVSPropertyOp33
 70
     0
102
RTVSPropertyOp34
 70
     0
102
RTVSPropertyOp35
 70
     0
102
RTVSPropertyOp36
 70
     0
102
RTVSPropertyOp37
 70
     0
102
RTVSPropertyOp38
 70
     0
102
RTVSPropertyOp39
 70
     0
102
RTVSPropertyOp40
 70
     0
102
RTVSPropertyOp41
 70
     0
102
RTVSPropertyOp42
 70
     0
102
RTVSPropertyOp43
 70
     0
102
RTVSPropertyOp44
 70
     0
102
RTVSPropertyOp45
 70
     0
102
RTVSPropertyOp46
 70
     0
102
RTVSPropertyOp47
 70
     0
102
RTVSPropertyOp48
 70
     0
102
RTVSPropertyOp49
 70
     0
102
RTVSPropertyOp50
 70
     0
102
RTVSPropertyOp51
 70
     0
102
RTVSPropertyOp52
 70
     0
102
RTVSPropertyOp53
 70
     0
102
RTVSPropertyOp54
 70
     0
102
RTVSPropertyOp55
 70
     0
102
RTVSPropertyOp56
 70
     0
102
RTVSPropertyOp57
 70
     0
102
RTVSPropertyOp58
 70
     1
102
RTVSPropertyOp59
 70
     1
102
RTVSPropertyOp60
 70
     1
102
RTVSPropertyOp61
 70
     1
102
RTVSPropertyOp62
 70
     1
  0
XRECORD
  5
848
102
{ACAD_REACTORS
330
847
102
}
330
847
100
AcDbXrecord
280
     1
102
RTVSPost2010Prop28
280
     0
102
RTVSPost2010PropOp28
 70
     1
102
RTVSPost2010Prop29
280
     1
102
RTVSPost2010PropOp29
 70
     1
102
RTVSPost2010Prop30
280
     1
102
RTVSPost2010PropOp30
 70
     1
102
RTVSPost2010Prop31
280
     0
102
RTVSPost2010PropOp31
 70
     1
102
RTVSPost2010Prop32
280
     0
102
RTVSPost2010PropOp32
 70
     1
102
RTVSPost2010Prop33
280
     0
102
RTVSPost2010PropOp33
 70
     1
102
RTVSPost2010Prop34
280
     0
102
RTVSPost2010PropOp34
 70
     1
102
RTVSPost2010Prop35
280
     0
102
RTVSPost2010PropOp35
 70
     1
102
RTVSPost2010Prop36
280
     0
102
RTVSPost2010PropOp36
 70
     1
102
RTVSPost2010Prop37
 90
       50
102
RTVSPost2010PropOp37
 70
     1
102
RTVSPost2010Prop38
140
0.0
102
RTVSPost2010PropOp38
 70
     1
102
RTVSPost2010Prop39
140
1.0
102
RTVSPost2010PropOp39
 70
     1
102
RTVSPost2010Prop40
 90
        0
102
RTVSPost2010PropOp40
 70
     1
102
RTVSPost2010Prop41ColorIndex
 90
       18
102
RTVSPost2010Prop41ColorRGB
 90
        0
102
RTVSPost2010PropOp41
 70
     1
102
RTVSPost2010Prop42
 90
       50
102
RTVSPost2010PropOp42
 70
     1
102
RTVSPost2010Prop43
 90
        3
102
RTVSPost2010PropOp43
 70
     1
102
RTVSPost2010Prop44ColorIndex
 90
        5
102
RTVSPost2010Prop44ColorRGB
 90
      255
102
RTVSPost2010PropOp44
 70
     1
102
RTVSPost2010Prop45
280
     0
102
RTVSPost2010PropOp45
 70
     1
102
RTVSPost2010Prop46
 90
       50
102
RTVSPost2010PropOp46
 70
     1
102
RTVSPost2010Prop47
 90
       50
102
RTVSPost2010PropOp47
 70
     1
102
RTVSPost2010Prop48
 90
       50
102
RTVSPost2010PropOp48
 70
     1
102
RTVSPost2010Prop49
280
     0
102
RTVSPost2010PropOp49
 70
     1
102
RTVSPost2010Prop50
 90
       50
102
RTVSPost2010PropOp50
 70
     1
102
RTVSPost2010Prop51ColorIndex
 90
      256
102
RTVSPost2010Prop51ColorRGB
 90
-16777216
102
RTVSPost2010PropOp51
 70
     0
102
RTVSPost2010Prop52
140
1.0
102
RTVSPost2010PropOp52
 70
     0
102
RTVSPost2010Prop53
 90
        2
102
RTVSPost2010PropOp53
 70
     1
102
RTVSPost2010Prop54
  1
strokes_ogs.tif
102
RTVSPost2010PropOp54
 70
     1
102
RTVSPost2010Prop55
280
     0
102
RTVSPost2010PropOp55
 70
     1
102
RTVSPost2010Prop56
140
1.0
102
RTVSPost2010PropOp56
 70
     1
102
RTVSPost2010Prop57
140
1.0
102
RTVSPost2010PropOp57
 70
     1
102
RTVSPropertyOp0
 70
     1
102
RTVSPropertyOp1
 70
     1
102
RTVSPropertyOp2
 70
     1
102
RTVSPropertyOp3
 70
     1
102
RTVSPropertyOp4
 70
     1
102
RTVSPropertyOp5
 70
     1
102
RTVSPropertyOp6
 70
     1
102
RTVSPropertyOp7
 70
     1
102
RTVSPropertyOp8
 70
     1
102
RTVSPropertyOp9
 70
     1
102
RTVSPropertyOp10
 70
     1
102
RTVSPropertyOp11
 70
     1
102
RTVSPropertyOp12
 70
     1
102
RTVSPropertyOp13
 70
     1
102
RTVSPropertyOp14
 70
     1
102
RTVSPropertyOp15
 70
     1
102
RTVSPropertyOp16
 70
     1
102
RTVSPropertyOp17
 70
     1
102
RTVSPropertyOp18
 70
     1
102
RTVSPropertyOp19
 70
     1
102
RTVSPropertyOp20
 70
     1
102
RTVSPropertyOp21
 70
     1
102
RTVSPropertyOp22
 70
     1
102
RTVSPropertyOp23
 70
     1
102
RTVSPropertyOp24
 70
     1
102
RTVSPropertyOp25
 70
     1
102
RTVSPropertyOp26
 70
     1
102
RTVSPropertyOp27
 70
     1
102
RTVSPropertyOp28
 70
     1
102
RTVSPropertyOp29
 70
     1
102
RTVSPropertyOp30
 70
     1
102
RTVSPropertyOp31
 70
     1
102
RTVSPropertyOp32
 70
     1
102
RTVSPropertyOp33
 70
     1
102
RTVSPropertyOp34
 70
     1
102
RTVSPropertyOp35
 70
     1
102
RTVSPropertyOp36
 70
     1
102
RTVSPropertyOp37
 70
     1
102
RTVSPropertyOp38
 70
     1
102
RTVSPropertyOp39
 70
     1
102
RTVSPropertyOp40
 70
     1
102
RTVSPropertyOp41
 70
     1
102
RTVSPropertyOp42
 70
     1
102
RTVSPropertyOp43
 70
     1
102
RTVSPropertyOp44
 70
     1
102
RTVSPropertyOp45
 70
     1
102
RTVSPropertyOp46
 70
     1
102
RTVSPropertyOp47
 70
     1
102
RTVSPropertyOp48
 70
     1
102
RTVSPropertyOp49
 70
     1
102
RTVSPropertyOp50
 70
     1
102
RTVSPropertyOp51
 70
     0
102
RTVSPropertyOp52
 70
     0
102
RTVSPropertyOp53
 70
     1
102
RTVSPropertyOp54
 70
     1
102
RTVSPropertyOp55
 70
     1
102
RTVSPropertyOp56
 70
     1
102
RTVSPropertyOp57
 70
     1
102
RTVSPropertyOp58
 70
     1
102
RTVSPropertyOp59
 70
     1
102
RTVSPropertyOp60
 70
     1
102
RTVSPropertyOp61
 70
     1
102
RTVSPropertyOp62
 70
     1
  0
XRECORD
  5
866
102
{ACAD_REACTORS
330
865
102
}
330
865
100
AcDbXrecord
280
     1
102
RTVSPost2010Prop28
280
     0
102
RTVSPost2010PropOp28
 70
     1
102
RTVSPost2010Prop29
280
     1
102
RTVSPost2010PropOp29
 70
     1
102
RTVSPost2010Prop30
280
     1
102
RTVSPost2010PropOp30
 70
     1
102
RTVSPost2010Prop31
280
     0
102
RTVSPost2010PropOp31
 70
     1
102
RTVSPost2010Prop32
280
     0
102
RTVSPost2010PropOp32
 70
     1
102
RTVSPost2010Prop33
280
     0
102
RTVSPost2010PropOp33
 70
     1
102
RTVSPost2010Prop34
280
     0
102
RTVSPost2010PropOp34
 70
     1
102
RTVSPost2010Prop35
280
     0
102
RTVSPost2010PropOp35
 70
     1
102
RTVSPost2010Prop36
280
     0
102
RTVSPost2010PropOp36
 70
     1
102
RTVSPost2010Prop37
 90
       50
102
RTVSPost2010PropOp37
 70
     1
102
RTVSPost2010Prop38
140
0.0
102
RTVSPost2010PropOp38
 70
     1
102
RTVSPost2010Prop39
140
1.0
102
RTVSPost2010PropOp39
 70
     1
102
RTVSPost2010Prop40
 90
        0
102
RTVSPost2010PropOp40
 70
     1
102
RTVSPost2010Prop41ColorIndex
 90
       18
102
RTVSPost2010Prop41ColorRGB
 90
        0
102
RTVSPost2010PropOp41
 70
     1
102
RTVSPost2010Prop42
 90
       50
102
RTVSPost2010PropOp42
 70
     1
102
RTVSPost2010Prop43
 90
        3
102
RTVSPost2010PropOp43
 70
     1
102
RTVSPost2010Prop44ColorIndex
 90
        5
102
RTVSPost2010Prop44ColorRGB
 90
      255
102
RTVSPost2010PropOp44
 70
     1
102
RTVSPost2010Prop45
280
     0
102
RTVSPost2010PropOp45
 70
     1
102
RTVSPost2010Prop46
 90
       50
102
RTVSPost2010PropOp46
 70
     1
102
RTVSPost2010Prop47
 90
       50
102
RTVSPost2010PropOp47
 70
     1
102
RTVSPost2010Prop48
 90
       50
102
RTVSPost2010PropOp48
 70
     1
102
RTVSPost2010Prop49
280
     0
102
RTVSPost2010PropOp49
 70
     1
102
RTVSPost2010Prop50
 90
       50
102
RTVSPost2010PropOp50
 70
     1
102
RTVSPost2010Prop51ColorIndex
 90
      256
102
RTVSPost2010Prop51ColorRGB
 90
-16777216
102
RTVSPost2010PropOp51
 70
     0
102
RTVSPost2010Prop52
140
1.0
102
RTVSPost2010PropOp52
 70
     0
102
RTVSPost2010Prop53
 90
        2
102
RTVSPost2010PropOp53
 70
     1
102
RTVSPost2010Prop54
  1
strokes_ogs.tif
102
RTVSPost2010PropOp54
 70
     1
102
RTVSPost2010Prop55
280
     0
102
RTVSPost2010PropOp55
 70
     1
102
RTVSPost2010Prop56
140
1.0
102
RTVSPost2010PropOp56
 70
     1
102
RTVSPost2010Prop57
140
1.0
102
RTVSPost2010PropOp57
 70
     1
102
RTVSPropertyOp0
 70
     1
102
RTVSPropertyOp1
 70
     1
102
RTVSPropertyOp2
 70
     1
102
RTVSPropertyOp3
 70
     1
102
RTVSPropertyOp4
 70
     1
102
RTVSPropertyOp5
 70
     1
102
RTVSPropertyOp6
 70
     1
102
RTVSPropertyOp7
 70
     1
102
RTVSPropertyOp8
 70
     1
102
RTVSPropertyOp9
 70
     1
102
RTVSPropertyOp10
 70
     1
102
RTVSPropertyOp11
 70
     1
102
RTVSPropertyOp12
 70
     1
102
RTVSPropertyOp13
 70
     1
102
RTVSPropertyOp14
 70
     1
102
RTVSPropertyOp15
 70
     1
102
RTVSPropertyOp16
 70
     1
102
RTVSPropertyOp17
 70
     1
102
RTVSPropertyOp18
 70
     1
102
RTVSPropertyOp19
 70
     1
102
RTVSPropertyOp20
 70
     1
102
RTVSPropertyOp21
 70
     1
102
RTVSPropertyOp22
 70
     1
102
RTVSPropertyOp23
 70
     1
102
RTVSPropertyOp24
 70
     1
102
RTVSPropertyOp25
 70
     1
102
RTVSPropertyOp26
 70
     1
102
RTVSPropertyOp27
 70
     1
102
RTVSPropertyOp28
 70
     1
102
RTVSPropertyOp29
 70
     1
102
RTVSPropertyOp30
 70
     1
102
RTVSPropertyOp31
 70
     1
102
RTVSPropertyOp32
 70
     1
102
RTVSPropertyOp33
 70
     1
102
RTVSPropertyOp34
 70
     1
102
RTVSPropertyOp35
 70
     1
102
RTVSPropertyOp36
 70
     1
102
RTVSPropertyOp37
 70
     1
102
RTVSPropertyOp38
 70
     1
102
RTVSPropertyOp39
 70
     1
102
RTVSPropertyOp40
 70
     1
102
RTVSPropertyOp41
 70
     1
102
RTVSPropertyOp42
 70
     1
102
RTVSPropertyOp43
 70
     1
102
RTVSPropertyOp44
 70
     1
102
RTVSPropertyOp45
 70
     1
102
RTVSPropertyOp46
 70
     1
102
RTVSPropertyOp47
 70
     1
102
RTVSPropertyOp48
 70
     1
102
RTVSPropertyOp49
 70
     1
102
RTVSPropertyOp50
 70
     1
102
RTVSPropertyOp51
 70
     0
102
RTVSPropertyOp52
 70
     0
102
RTVSPropertyOp53
 70
     1
102
RTVSPropertyOp54
 70
     1
102
RTVSPropertyOp55
 70
     1
102
RTVSPropertyOp56
 70
     1
102
RTVSPropertyOp57
 70
     1
102
RTVSPropertyOp58
 70
     1
102
RTVSPropertyOp59
 70
     1
102
RTVSPropertyOp60
 70
     1
102
RTVSPropertyOp61
 70
     1
102
RTVSPropertyOp62
 70
     1
  0
XRECORD
  5
864
102
{ACAD_REACTORS
330
863
102
}
330
863
100
AcDbXrecord
280
     1
102
RTVSPost2010Prop28
280
     0
102
RTVSPost2010PropOp28
 70
     1
102
RTVSPost2010Prop29
280
     1
102
RTVSPost2010PropOp29
 70
     1
102
RTVSPost2010Prop30
280
     1
102
RTVSPost2010PropOp30
 70
     1
102
RTVSPost2010Prop31
280
     0
102
RTVSPost2010PropOp31
 70
     1
102
RTVSPost2010Prop32
280
     0
102
RTVSPost2010PropOp32
 70
     1
102
RTVSPost2010Prop33
280
     0
102
RTVSPost2010PropOp33
 70
     1
102
RTVSPost2010Prop34
280
     0
102
RTVSPost2010PropOp34
 70
     1
102
RTVSPost2010Prop35
280
     0
102
RTVSPost2010PropOp35
 70
     1
102
RTVSPost2010Prop36
280
     0
102
RTVSPost2010PropOp36
 70
     1
102
RTVSPost2010Prop37
 90
       50
102
RTVSPost2010PropOp37
 70
     1
102
RTVSPost2010Prop38
140
0.0
102
RTVSPost2010PropOp38
 70
     1
102
RTVSPost2010Prop39
140
1.0
102
RTVSPost2010PropOp39
 70
     1
102
RTVSPost2010Prop40
 90
        0
102
RTVSPost2010PropOp40
 70
     1
102
RTVSPost2010Prop41ColorIndex
 90
       18
102
RTVSPost2010Prop41ColorRGB
 90
        0
102
RTVSPost2010PropOp41
 70
     1
102
RTVSPost2010Prop42
 90
       50
102
RTVSPost2010PropOp42
 70
     1
102
RTVSPost2010Prop43
 90
        3
102
RTVSPost2010PropOp43
 70
     1
102
RTVSPost2010Prop44ColorIndex
 90
        5
102
RTVSPost2010Prop44ColorRGB
 90
      255
102
RTVSPost2010PropOp44
 70
     1
102
RTVSPost2010Prop45
280
     0
102
RTVSPost2010PropOp45
 70
     1
102
RTVSPost2010Prop46
 90
       50
102
RTVSPost2010PropOp46
 70
     1
102
RTVSPost2010Prop47
 90
       50
102
RTVSPost2010PropOp47
 70
     1
102
RTVSPost2010Prop48
 90
       50
102
RTVSPost2010PropOp48
 70
     1
102
RTVSPost2010Prop49
280
     0
102
RTVSPost2010PropOp49
 70
     1
102
RTVSPost2010Prop50
 90
       50
102
RTVSPost2010PropOp50
 70
     1
102
RTVSPost2010Prop51ColorIndex
 90
      256
102
RTVSPost2010Prop51ColorRGB
 90
-16777216
102
RTVSPost2010PropOp51
 70
     0
102
RTVSPost2010Prop52
140
1.0
102
RTVSPost2010PropOp52
 70
     0
102
RTVSPost2010Prop53
 90
        2
102
RTVSPost2010PropOp53
 70
     1
102
RTVSPost2010Prop54
  1
strokes_ogs.tif
102
RTVSPost2010PropOp54
 70
     1
102
RTVSPost2010Prop55
280
     0
102
RTVSPost2010PropOp55
 70
     1
102
RTVSPost2010Prop56
140
1.0
102
RTVSPost2010PropOp56
 70
     1
102
RTVSPost2010Prop57
140
1.0
102
RTVSPost2010PropOp57
 70
     1
102
RTVSPropertyOp0
 70
     1
102
RTVSPropertyOp1
 70
     1
102
RTVSPropertyOp2
 70
     1
102
RTVSPropertyOp3
 70
     1
102
RTVSPropertyOp4
 70
     1
102
RTVSPropertyOp5
 70
     1
102
RTVSPropertyOp6
 70
     1
102
RTVSPropertyOp7
 70
     1
102
RTVSPropertyOp8
 70
     1
102
RTVSPropertyOp9
 70
     1
102
RTVSPropertyOp10
 70
     1
102
RTVSPropertyOp11
 70
     1
102
RTVSPropertyOp12
 70
     1
102
RTVSPropertyOp13
 70
     1
102
RTVSPropertyOp14
 70
     1
102
RTVSPropertyOp15
 70
     1
102
RTVSPropertyOp16
 70
     1
102
RTVSPropertyOp17
 70
     1
102
RTVSPropertyOp18
 70
     1
102
RTVSPropertyOp19
 70
     1
102
RTVSPropertyOp20
 70
     1
102
RTVSPropertyOp21
 70
     1
102
RTVSPropertyOp22
 70
     1
102
RTVSPropertyOp23
 70
     1
102
RTVSPropertyOp24
 70
     1
102
RTVSPropertyOp25
 70
     1
102
RTVSPropertyOp26
 70
     1
102
RTVSPropertyOp27
 70
     1
102
RTVSPropertyOp28
 70
     1
102
RTVSPropertyOp29
 70
     1
102
RTVSPropertyOp30
 70
     1
102
RTVSPropertyOp31
 70
     1
102
RTVSPropertyOp32
 70
     1
102
RTVSPropertyOp33
 70
     1
102
RTVSPropertyOp34
 70
     1
102
RTVSPropertyOp35
 70
     1
102
RTVSPropertyOp36
 70
     1
102
RTVSPropertyOp37
 70
     1
102
RTVSPropertyOp38
 70
     1
102
RTVSPropertyOp39
 70
     1
102
RTVSPropertyOp40
 70
     1
102
RTVSPropertyOp41
 70
     1
102
RTVSPropertyOp42
 70
     1
102
RTVSPropertyOp43
 70
     1
102
RTVSPropertyOp44
 70
     1
102
RTVSPropertyOp45
 70
     1
102
RTVSPropertyOp46
 70
     1
102
RTVSPropertyOp47
 70
     1
102
RTVSPropertyOp48
 70
     1
102
RTVSPropertyOp49
 70
     1
102
RTVSPropertyOp50
 70
     1
102
RTVSPropertyOp51
 70
     0
102
RTVSPropertyOp52
 70
     0
102
RTVSPropertyOp53
 70
     1
102
RTVSPropertyOp54
 70
     1
102
RTVSPropertyOp55
 70
     1
102
RTVSPropertyOp56
 70
     1
102
RTVSPropertyOp57
 70
     1
102
RTVSPropertyOp58
 70
     1
102
RTVSPropertyOp59
 70
     1
102
RTVSPropertyOp60
 70
     1
102
RTVSPropertyOp61
 70
     1
102
RTVSPropertyOp62
 70
     1
  0
XRECORD
  5
85E
102
{ACAD_REACTORS
330
85D
102
}
330
85D
100
AcDbXrecord
280
     1
102
RTVSPost2010Prop28
280
     0
102
RTVSPost2010PropOp28
 70
     1
102
RTVSPost2010Prop29
280
     1
102
RTVSPost2010PropOp29
 70
     1
102
RTVSPost2010Prop30
280
     1
102
RTVSPost2010PropOp30
 70
     1
102
RTVSPost2010Prop31
280
     0
102
RTVSPost2010PropOp31
 70
     1
102
RTVSPost2010Prop32
280
     0
102
RTVSPost2010PropOp32
 70
     1
102
RTVSPost2010Prop33
280
     0
102
RTVSPost2010PropOp33
 70
     1
102
RTVSPost2010Prop34
280
     0
102
RTVSPost2010PropOp34
 70
     1
102
RTVSPost2010Prop35
280
     0
102
RTVSPost2010PropOp35
 70
     1
102
RTVSPost2010Prop36
280
     0
102
RTVSPost2010PropOp36
 70
     1
102
RTVSPost2010Prop37
 90
       50
102
RTVSPost2010PropOp37
 70
     1
102
RTVSPost2010Prop38
140
0.0
102
RTVSPost2010PropOp38
 70
     1
102
RTVSPost2010Prop39
140
1.0
102
RTVSPost2010PropOp39
 70
     1
102
RTVSPost2010Prop40
 90
        0
102
RTVSPost2010PropOp40
 70
     1
102
RTVSPost2010Prop41ColorIndex
 90
       18
102
RTVSPost2010Prop41ColorRGB
 90
        0
102
RTVSPost2010PropOp41
 70
     1
102
RTVSPost2010Prop42
 90
       50
102
RTVSPost2010PropOp42
 70
     1
102
RTVSPost2010Prop43
 90
        3
102
RTVSPost2010PropOp43
 70
     1
102
RTVSPost2010Prop44ColorIndex
 90
        5
102
RTVSPost2010Prop44ColorRGB
 90
      255
102
RTVSPost2010PropOp44
 70
     1
102
RTVSPost2010Prop45
280
     0
102
RTVSPost2010PropOp45
 70
     1
102
RTVSPost2010Prop46
 90
       50
102
RTVSPost2010PropOp46
 70
     1
102
RTVSPost2010Prop47
 90
       50
102
RTVSPost2010PropOp47
 70
     1
102
RTVSPost2010Prop48
 90
       50
102
RTVSPost2010PropOp48
 70
     1
102
RTVSPost2010Prop49
280
     0
102
RTVSPost2010PropOp49
 70
     1
102
RTVSPost2010Prop50
 90
       50
102
RTVSPost2010PropOp50
 70
     1
102
RTVSPost2010Prop51ColorIndex
 90
      256
102
RTVSPost2010Prop51ColorRGB
 90
-16777216
102
RTVSPost2010PropOp51
 70
     0
102
RTVSPost2010Prop52
140
1.0
102
RTVSPost2010PropOp52
 70
     0
102
RTVSPost2010Prop53
 90
        2
102
RTVSPost2010PropOp53
 70
     1
102
RTVSPost2010Prop54
  1
strokes_ogs.tif
102
RTVSPost2010PropOp54
 70
     1
102
RTVSPost2010Prop55
280
     0
102
RTVSPost2010PropOp55
 70
     1
102
RTVSPost2010Prop56
140
1.0
102
RTVSPost2010PropOp56
 70
     1
102
RTVSPost2010Prop57
140
1.0
102
RTVSPost2010PropOp57
 70
     1
102
RTVSPropertyOp0
 70
     1
102
RTVSPropertyOp1
 70
     1
102
RTVSPropertyOp2
 70
     1
102
RTVSPropertyOp3
 70
     1
102
RTVSPropertyOp4
 70
     1
102
RTVSPropertyOp5
 70
     1
102
RTVSPropertyOp6
 70
     1
102
RTVSPropertyOp7
 70
     1
102
RTVSPropertyOp8
 70
     1
102
RTVSPropertyOp9
 70
     1
102
RTVSPropertyOp10
 70
     1
102
RTVSPropertyOp11
 70
     1
102
RTVSPropertyOp12
 70
     1
102
RTVSPropertyOp13
 70
     1
102
RTVSPropertyOp14
 70
     1
102
RTVSPropertyOp15
 70
     1
102
RTVSPropertyOp16
 70
     1
102
RTVSPropertyOp17
 70
     1
102
RTVSPropertyOp18
 70
     1
102
RTVSPropertyOp19
 70
     1
102
RTVSPropertyOp20
 70
     1
102
RTVSPropertyOp21
 70
     1
102
RTVSPropertyOp22
 70
     1
102
RTVSPropertyOp23
 70
     1
102
RTVSPropertyOp24
 70
     1
102
RTVSPropertyOp25
 70
     1
102
RTVSPropertyOp26
 70
     1
102
RTVSPropertyOp27
 70
     1
102
RTVSPropertyOp28
 70
     1
102
RTVSPropertyOp29
 70
     1
102
RTVSPropertyOp30
 70
     1
102
RTVSPropertyOp31
 70
     1
102
RTVSPropertyOp32
 70
     1
102
RTVSPropertyOp33
 70
     1
102
RTVSPropertyOp34
 70
     1
102
RTVSPropertyOp35
 70
     1
102
RTVSPropertyOp36
 70
     1
102
RTVSPropertyOp37
 70
     1
102
RTVSPropertyOp38
 70
     1
102
RTVSPropertyOp39
 70
     1
102
RTVSPropertyOp40
 70
     1
102
RTVSPropertyOp41
 70
     1
102
RTVSPropertyOp42
 70
     1
102
RTVSPropertyOp43
 70
     1
102
RTVSPropertyOp44
 70
     1
102
RTVSPropertyOp45
 70
     1
102
RTVSPropertyOp46
 70
     1
102
RTVSPropertyOp47
 70
     1
102
RTVSPropertyOp48
 70
     1
102
RTVSPropertyOp49
 70
     1
102
RTVSPropertyOp50
 70
     1
102
RTVSPropertyOp51
 70
     0
102
RTVSPropertyOp52
 70
     0
102
RTVSPropertyOp53
 70
     1
102
RTVSPropertyOp54
 70
     1
102
RTVSPropertyOp55
 70
     1
102
RTVSPropertyOp56
 70
     1
102
RTVSPropertyOp57
 70
     1
102
RTVSPropertyOp58
 70
     1
102
RTVSPropertyOp59
 70
     1
102
RTVSPropertyOp60
 70
     1
102
RTVSPropertyOp61
 70
     1
102
RTVSPropertyOp62
 70
     1
  0
XRECORD
  5
860
102
{ACAD_REACTORS
330
85F
102
}
330
85F
100
AcDbXrecord
280
     1
102
RTVSPost2010Prop28
280
     0
102
RTVSPost2010PropOp28
 70
     1
102
RTVSPost2010Prop29
280
     1
102
RTVSPost2010PropOp29
 70
     1
102
RTVSPost2010Prop30
280
     1
102
RTVSPost2010PropOp30
 70
     1
102
RTVSPost2010Prop31
280
     0
102
RTVSPost2010PropOp31
 70
     1
102
RTVSPost2010Prop32
280
     0
102
RTVSPost2010PropOp32
 70
     1
102
RTVSPost2010Prop33
280
     0
102
RTVSPost2010PropOp33
 70
     1
102
RTVSPost2010Prop34
280
     0
102
RTVSPost2010PropOp34
 70
     1
102
RTVSPost2010Prop35
280
     0
102
RTVSPost2010PropOp35
 70
     1
102
RTVSPost2010Prop36
280
     0
102
RTVSPost2010PropOp36
 70
     1
102
RTVSPost2010Prop37
 90
       50
102
RTVSPost2010PropOp37
 70
     1
102
RTVSPost2010Prop38
140
0.0
102
RTVSPost2010PropOp38
 70
     1
102
RTVSPost2010Prop39
140
1.0
102
RTVSPost2010PropOp39
 70
     1
102
RTVSPost2010Prop40
 90
        0
102
RTVSPost2010PropOp40
 70
     1
102
RTVSPost2010Prop41ColorIndex
 90
       18
102
RTVSPost2010Prop41ColorRGB
 90
        0
102
RTVSPost2010PropOp41
 70
     1
102
RTVSPost2010Prop42
 90
       50
102
RTVSPost2010PropOp42
 70
     1
102
RTVSPost2010Prop43
 90
        3
102
RTVSPost2010PropOp43
 70
     1
102
RTVSPost2010Prop44ColorIndex
 90
        5
102
RTVSPost2010Prop44ColorRGB
 90
      255
102
RTVSPost2010PropOp44
 70
     1
102
RTVSPost2010Prop45
280
     0
102
RTVSPost2010PropOp45
 70
     1
102
RTVSPost2010Prop46
 90
       50
102
RTVSPost2010PropOp46
 70
     1
102
RTVSPost2010Prop47
 90
       50
102
RTVSPost2010PropOp47
 70
     1
102
RTVSPost2010Prop48
 90
       50
102
RTVSPost2010PropOp48
 70
     1
102
RTVSPost2010Prop49
280
     0
102
RTVSPost2010PropOp49
 70
     1
102
RTVSPost2010Prop50
 90
       50
102
RTVSPost2010PropOp50
 70
     1
102
RTVSPost2010Prop51ColorIndex
 90
      256
102
RTVSPost2010Prop51ColorRGB
 90
-16777216
102
RTVSPost2010PropOp51
 70
     0
102
RTVSPost2010Prop52
140
1.0
102
RTVSPost2010PropOp52
 70
     0
102
RTVSPost2010Prop53
 90
        2
102
RTVSPost2010PropOp53
 70
     1
102
RTVSPost2010Prop54
  1
strokes_ogs.tif
102
RTVSPost2010PropOp54
 70
     1
102
RTVSPost2010Prop55
280
     0
102
RTVSPost2010PropOp55
 70
     1
102
RTVSPost2010Prop56
140
1.0
102
RTVSPost2010PropOp56
 70
     1
102
RTVSPost2010Prop57
140
1.0
102
RTVSPost2010PropOp57
 70
     1
102
RTVSPropertyOp0
 70
     1
102
RTVSPropertyOp1
 70
     1
102
RTVSPropertyOp2
 70
     1
102
RTVSPropertyOp3
 70
     1
102
RTVSPropertyOp4
 70
     1
102
RTVSPropertyOp5
 70
     1
102
RTVSPropertyOp6
 70
     1
102
RTVSPropertyOp7
 70
     1
102
RTVSPropertyOp8
 70
     1
102
RTVSPropertyOp9
 70
     1
102
RTVSPropertyOp10
 70
     1
102
RTVSPropertyOp11
 70
     1
102
RTVSPropertyOp12
 70
     1
102
RTVSPropertyOp13
 70
     1
102
RTVSPropertyOp14
 70
     1
102
RTVSPropertyOp15
 70
     1
102
RTVSPropertyOp16
 70
     1
102
RTVSPropertyOp17
 70
     1
102
RTVSPropertyOp18
 70
     1
102
RTVSPropertyOp19
 70
     1
102
RTVSPropertyOp20
 70
     1
102
RTVSPropertyOp21
 70
     1
102
RTVSPropertyOp22
 70
     1
102
RTVSPropertyOp23
 70
     1
102
RTVSPropertyOp24
 70
     1
102
RTVSPropertyOp25
 70
     1
102
RTVSPropertyOp26
 70
     1
102
RTVSPropertyOp27
 70
     1
102
RTVSPropertyOp28
 70
     1
102
RTVSPropertyOp29
 70
     1
102
RTVSPropertyOp30
 70
     1
102
RTVSPropertyOp31
 70
     1
102
RTVSPropertyOp32
 70
     1
102
RTVSPropertyOp33
 70
     1
102
RTVSPropertyOp34
 70
     1
102
RTVSPropertyOp35
 70
     1
102
RTVSPropertyOp36
 70
     1
102
RTVSPropertyOp37
 70
     1
102
RTVSPropertyOp38
 70
     1
102
RTVSPropertyOp39
 70
     1
102
RTVSPropertyOp40
 70
     1
102
RTVSPropertyOp41
 70
     1
102
RTVSPropertyOp42
 70
     1
102
RTVSPropertyOp43
 70
     1
102
RTVSPropertyOp44
 70
     1
102
RTVSPropertyOp45
 70
     1
102
RTVSPropertyOp46
 70
     1
102
RTVSPropertyOp47
 70
     1
102
RTVSPropertyOp48
 70
     1
102
RTVSPropertyOp49
 70
     1
102
RTVSPropertyOp50
 70
     1
102
RTVSPropertyOp51
 70
     0
102
RTVSPropertyOp52
 70
     0
102
RTVSPropertyOp53
 70
     1
102
RTVSPropertyOp54
 70
     1
102
RTVSPropertyOp55
 70
     1
102
RTVSPropertyOp56
 70
     1
102
RTVSPropertyOp57
 70
     1
102
RTVSPropertyOp58
 70
     1
102
RTVSPropertyOp59
 70
     1
102
RTVSPropertyOp60
 70
     1
102
RTVSPropertyOp61
 70
     1
102
RTVSPropertyOp62
 70
     1
  0
XRECORD
  5
850
102
{ACAD_REACTORS
330
84F
102
}
330
84F
100
AcDbXrecord
280
     1
102
RTVSPost2010Prop28
280
     0
102
RTVSPost2010PropOp28
 70
     1
102
RTVSPost2010Prop29
280
     1
102
RTVSPost2010PropOp29
 70
     1
102
RTVSPost2010Prop30
280
     1
102
RTVSPost2010PropOp30
 70
     1
102
RTVSPost2010Prop31
280
     0
102
RTVSPost2010PropOp31
 70
     1
102
RTVSPost2010Prop32
280
     0
102
RTVSPost2010PropOp32
 70
     1
102
RTVSPost2010Prop33
280
     0
102
RTVSPost2010PropOp33
 70
     1
102
RTVSPost2010Prop34
280
     0
102
RTVSPost2010PropOp34
 70
     1
102
RTVSPost2010Prop35
280
     0
102
RTVSPost2010PropOp35
 70
     1
102
RTVSPost2010Prop36
280
     0
102
RTVSPost2010PropOp36
 70
     1
102
RTVSPost2010Prop37
 90
       50
102
RTVSPost2010PropOp37
 70
     1
102
RTVSPost2010Prop38
140
0.0
102
RTVSPost2010PropOp38
 70
     1
102
RTVSPost2010Prop39
140
1.0
102
RTVSPost2010PropOp39
 70
     1
102
RTVSPost2010Prop40
 90
        0
102
RTVSPost2010PropOp40
 70
     1
102
RTVSPost2010Prop41ColorIndex
 90
       18
102
RTVSPost2010Prop41ColorRGB
 90
        0
102
RTVSPost2010PropOp41
 70
     1
102
RTVSPost2010Prop42
 90
       50
102
RTVSPost2010PropOp42
 70
     1
102
RTVSPost2010Prop43
 90
        3
102
RTVSPost2010PropOp43
 70
     1
102
RTVSPost2010Prop44ColorIndex
 90
        5
102
RTVSPost2010Prop44ColorRGB
 90
      255
102
RTVSPost2010PropOp44
 70
     1
102
RTVSPost2010Prop45
280
     0
102
RTVSPost2010PropOp45
 70
     1
102
RTVSPost2010Prop46
 90
       50
102
RTVSPost2010PropOp46
 70
     1
102
RTVSPost2010Prop47
 90
       50
102
RTVSPost2010PropOp47
 70
     1
102
RTVSPost2010Prop48
 90
       50
102
RTVSPost2010PropOp48
 70
     1
102
RTVSPost2010Prop49
280
     0
102
RTVSPost2010PropOp49
 70
     1
102
RTVSPost2010Prop50
 90
       50
102
RTVSPost2010PropOp50
 70
     1
102
RTVSPost2010Prop51ColorIndex
 90
      256
102
RTVSPost2010Prop51ColorRGB
 90
-16777216
102
RTVSPost2010PropOp51
 70
     0
102
RTVSPost2010Prop52
140
1.0
102
RTVSPost2010PropOp52
 70
     0
102
RTVSPost2010Prop53
 90
        2
102
RTVSPost2010PropOp53
 70
     1
102
RTVSPost2010Prop54
  1
strokes_ogs.tif
102
RTVSPost2010PropOp54
 70
     1
102
RTVSPost2010Prop55
280
     0
102
RTVSPost2010PropOp55
 70
     1
102
RTVSPost2010Prop56
140
1.0
102
RTVSPost2010PropOp56
 70
     1
102
RTVSPost2010Prop57
140
1.0
102
RTVSPost2010PropOp57
 70
     1
102
RTVSPropertyOp0
 70
     1
102
RTVSPropertyOp1
 70
     1
102
RTVSPropertyOp2
 70
     1
102
RTVSPropertyOp3
 70
     1
102
RTVSPropertyOp4
 70
     1
102
RTVSPropertyOp5
 70
     1
102
RTVSPropertyOp6
 70
     1
102
RTVSPropertyOp7
 70
     1
102
RTVSPropertyOp8
 70
     1
102
RTVSPropertyOp9
 70
     1
102
RTVSPropertyOp10
 70
     1
102
RTVSPropertyOp11
 70
     1
102
RTVSPropertyOp12
 70
     1
102
RTVSPropertyOp13
 70
     1
102
RTVSPropertyOp14
 70
     1
102
RTVSPropertyOp15
 70
     1
102
RTVSPropertyOp16
 70
     1
102
RTVSPropertyOp17
 70
     1
102
RTVSPropertyOp18
 70
     1
102
RTVSPropertyOp19
 70
     1
102
RTVSPropertyOp20
 70
     1
102
RTVSPropertyOp21
 70
     1
102
RTVSPropertyOp22
 70
     1
102
RTVSPropertyOp23
 70
     1
102
RTVSPropertyOp24
 70
     1
102
RTVSPropertyOp25
 70
     1
102
RTVSPropertyOp26
 70
     1
102
RTVSPropertyOp27
 70
     1
102
RTVSPropertyOp28
 70
     1
102
RTVSPropertyOp29
 70
     1
102
RTVSPropertyOp30
 70
     1
102
RTVSPropertyOp31
 70
     1
102
RTVSPropertyOp32
 70
     1
102
RTVSPropertyOp33
 70
     1
102
RTVSPropertyOp34
 70
     1
102
RTVSPropertyOp35
 70
     1
102
RTVSPropertyOp36
 70
     1
102
RTVSPropertyOp37
 70
     1
102
RTVSPropertyOp38
 70
     1
102
RTVSPropertyOp39
 70
     1
102
RTVSPropertyOp40
 70
     1
102
RTVSPropertyOp41
 70
     1
102
RTVSPropertyOp42
 70
     1
102
RTVSPropertyOp43
 70
     1
102
RTVSPropertyOp44
 70
     1
102
RTVSPropertyOp45
 70
     1
102
RTVSPropertyOp46
 70
     1
102
RTVSPropertyOp47
 70
     1
102
RTVSPropertyOp48
 70
     1
102
RTVSPropertyOp49
 70
     1
102
RTVSPropertyOp50
 70
     1
102
RTVSPropertyOp51
 70
     0
102
RTVSPropertyOp52
 70
     0
102
RTVSPropertyOp53
 70
     1
102
RTVSPropertyOp54
 70
     1
102
RTVSPropertyOp55
 70
     1
102
RTVSPropertyOp56
 70
     1
102
RTVSPropertyOp57
 70
     1
102
RTVSPropertyOp58
 70
     1
102
RTVSPropertyOp59
 70
     1
102
RTVSPropertyOp60
 70
     1
102
RTVSPropertyOp61
 70
     1
102
RTVSPropertyOp62
 70
     1
  0
XRECORD
  5
842
102
{ACAD_REACTORS
330
841
102
}
330
841
100
AcDbXrecord
280
     1
102
RTVSPost2010Prop28
280
     0
102
RTVSPost2010PropOp28
 70
     1
102
RTVSPost2010Prop29
280
     1
102
RTVSPost2010PropOp29
 70
     1
102
RTVSPost2010Prop30
280
     1
102
RTVSPost2010PropOp30
 70
     1
102
RTVSPost2010Prop31
280
     0
102
RTVSPost2010PropOp31
 70
     1
102
RTVSPost2010Prop32
280
     0
102
RTVSPost2010PropOp32
 70
     1
102
RTVSPost2010Prop33
280
     0
102
RTVSPost2010PropOp33
 70
     1
102
RTVSPost2010Prop34
280
     0
102
RTVSPost2010PropOp34
 70
     1
102
RTVSPost2010Prop35
280
     0
102
RTVSPost2010PropOp35
 70
     1
102
RTVSPost2010Prop36
280
     0
102
RTVSPost2010PropOp36
 70
     1
102
RTVSPost2010Prop37
 90
       50
102
RTVSPost2010PropOp37
 70
     1
102
RTVSPost2010Prop38
140
0.0
102
RTVSPost2010PropOp38
 70
     1
102
RTVSPost2010Prop39
140
1.0
102
RTVSPost2010PropOp39
 70
     1
102
RTVSPost2010Prop40
 90
        0
102
RTVSPost2010PropOp40
 70
     1
102
RTVSPost2010Prop41ColorIndex
 90
       18
102
RTVSPost2010Prop41ColorRGB
 90
        0
102
RTVSPost2010PropOp41
 70
     1
102
RTVSPost2010Prop42
 90
       50
102
RTVSPost2010PropOp42
 70
     1
102
RTVSPost2010Prop43
 90
        3
102
RTVSPost2010PropOp43
 70
     1
102
RTVSPost2010Prop44ColorIndex
 90
        5
102
RTVSPost2010Prop44ColorRGB
 90
      255
102
RTVSPost2010PropOp44
 70
     1
102
RTVSPost2010Prop45
280
     0
102
RTVSPost2010PropOp45
 70
     1
102
RTVSPost2010Prop46
 90
       50
102
RTVSPost2010PropOp46
 70
     1
102
RTVSPost2010Prop47
 90
       50
102
RTVSPost2010PropOp47
 70
     1
102
RTVSPost2010Prop48
 90
       50
102
RTVSPost2010PropOp48
 70
     1
102
RTVSPost2010Prop49
280
     0
102
RTVSPost2010PropOp49
 70
     1
102
RTVSPost2010Prop50
 90
       50
102
RTVSPost2010PropOp50
 70
     1
102
RTVSPost2010Prop51ColorIndex
 90
      256
102
RTVSPost2010Prop51ColorRGB
 90
-16777216
102
RTVSPost2010PropOp51
 70
     0
102
RTVSPost2010Prop52
140
1.0
102
RTVSPost2010PropOp52
 70
     0
102
RTVSPost2010Prop53
 90
        2
102
RTVSPost2010PropOp53
 70
     1
102
RTVSPost2010Prop54
  1
strokes_ogs.tif
102
RTVSPost2010PropOp54
 70
     1
102
RTVSPost2010Prop55
280
     0
102
RTVSPost2010PropOp55
 70
     1
102
RTVSPost2010Prop56
140
1.0
102
RTVSPost2010PropOp56
 70
     1
102
RTVSPost2010Prop57
140
1.0
102
RTVSPost2010PropOp57
 70
     1
102
RTVSPropertyOp0
 70
     1
102
RTVSPropertyOp1
 70
     1
102
RTVSPropertyOp2
 70
     1
102
RTVSPropertyOp3
 70
     1
102
RTVSPropertyOp4
 70
     1
102
RTVSPropertyOp5
 70
     1
102
RTVSPropertyOp6
 70
     1
102
RTVSPropertyOp7
 70
     1
102
RTVSPropertyOp8
 70
     1
102
RTVSPropertyOp9
 70
     1
102
RTVSPropertyOp10
 70
     1
102
RTVSPropertyOp11
 70
     1
102
RTVSPropertyOp12
 70
     1
102
RTVSPropertyOp13
 70
     1
102
RTVSPropertyOp14
 70
     1
102
RTVSPropertyOp15
 70
     1
102
RTVSPropertyOp16
 70
     1
102
RTVSPropertyOp17
 70
     1
102
RTVSPropertyOp18
 70
     1
102
RTVSPropertyOp19
 70
     1
102
RTVSPropertyOp20
 70
     1
102
RTVSPropertyOp21
 70
     1
102
RTVSPropertyOp22
 70
     1
102
RTVSPropertyOp23
 70
     1
102
RTVSPropertyOp24
 70
     1
102
RTVSPropertyOp25
 70
     1
102
RTVSPropertyOp26
 70
     1
102
RTVSPropertyOp27
 70
     1
102
RTVSPropertyOp28
 70
     1
102
RTVSPropertyOp29
 70
     1
102
RTVSPropertyOp30
 70
     1
102
RTVSPropertyOp31
 70
     1
102
RTVSPropertyOp32
 70
     1
102
RTVSPropertyOp33
 70
     1
102
RTVSPropertyOp34
 70
     1
102
RTVSPropertyOp35
 70
     1
102
RTVSPropertyOp36
 70
     1
102
RTVSPropertyOp37
 70
     1
102
RTVSPropertyOp38
 70
     1
102
RTVSPropertyOp39
 70
     1
102
RTVSPropertyOp40
 70
     1
102
RTVSPropertyOp41
 70
     1
102
RTVSPropertyOp42
 70
     1
102
RTVSPropertyOp43
 70
     1
102
RTVSPropertyOp44
 70
     1
102
RTVSPropertyOp45
 70
     1
102
RTVSPropertyOp46
 70
     1
102
RTVSPropertyOp47
 70
     1
102
RTVSPropertyOp48
 70
     1
102
RTVSPropertyOp49
 70
     1
102
RTVSPropertyOp50
 70
     1
102
RTVSPropertyOp51
 70
     0
102
RTVSPropertyOp52
 70
     0
102
RTVSPropertyOp53
 70
     1
102
RTVSPropertyOp54
 70
     1
102
RTVSPropertyOp55
 70
     1
102
RTVSPropertyOp56
 70
     1
102
RTVSPropertyOp57
 70
     1
102
RTVSPropertyOp58
 70
     1
102
RTVSPropertyOp59
 70
     1
102
RTVSPropertyOp60
 70
     1
102
RTVSPropertyOp61
 70
     1
102
RTVSPropertyOp62
 70
     1
  0
XRECORD
  5
862
102
{ACAD_REACTORS
330
861
102
}
330
861
100
AcDbXrecord
280
     1
102
RTVSPost2010Prop28
280
     0
102
RTVSPost2010PropOp28
 70
     1
102
RTVSPost2010Prop29
280
     1
102
RTVSPost2010PropOp29
 70
     1
102
RTVSPost2010Prop30
280
     1
102
RTVSPost2010PropOp30
 70
     1
102
RTVSPost2010Prop31
280
     0
102
RTVSPost2010PropOp31
 70
     1
102
RTVSPost2010Prop32
280
     0
102
RTVSPost2010PropOp32
 70
     1
102
RTVSPost2010Prop33
280
     0
102
RTVSPost2010PropOp33
 70
     1
102
RTVSPost2010Prop34
280
     0
102
RTVSPost2010PropOp34
 70
     1
102
RTVSPost2010Prop35
280
     0
102
RTVSPost2010PropOp35
 70
     1
102
RTVSPost2010Prop36
280
     0
102
RTVSPost2010PropOp36
 70
     1
102
RTVSPost2010Prop37
 90
       50
102
RTVSPost2010PropOp37
 70
     1
102
RTVSPost2010Prop38
140
0.0
102
RTVSPost2010PropOp38
 70
     1
102
RTVSPost2010Prop39
140
1.0
102
RTVSPost2010PropOp39
 70
     1
102
RTVSPost2010Prop40
 90
        0
102
RTVSPost2010PropOp40
 70
     1
102
RTVSPost2010Prop41ColorIndex
 90
       18
102
RTVSPost2010Prop41ColorRGB
 90
        0
102
RTVSPost2010PropOp41
 70
     1
102
RTVSPost2010Prop42
 90
       50
102
RTVSPost2010PropOp42
 70
     1
102
RTVSPost2010Prop43
 90
        3
102
RTVSPost2010PropOp43
 70
     1
102
RTVSPost2010Prop44ColorIndex
 90
        5
102
RTVSPost2010Prop44ColorRGB
 90
      255
102
RTVSPost2010PropOp44
 70
     1
102
RTVSPost2010Prop45
280
     0
102
RTVSPost2010PropOp45
 70
     1
102
RTVSPost2010Prop46
 90
       50
102
RTVSPost2010PropOp46
 70
     1
102
RTVSPost2010Prop47
 90
       50
102
RTVSPost2010PropOp47
 70
     1
102
RTVSPost2010Prop48
 90
       50
102
RTVSPost2010PropOp48
 70
     1
102
RTVSPost2010Prop49
280
     0
102
RTVSPost2010PropOp49
 70
     1
102
RTVSPost2010Prop50
 90
       50
102
RTVSPost2010PropOp50
 70
     1
102
RTVSPost2010Prop51ColorIndex
 90
      256
102
RTVSPost2010Prop51ColorRGB
 90
-16777216
102
RTVSPost2010PropOp51
 70
     0
102
RTVSPost2010Prop52
140
1.0
102
RTVSPost2010PropOp52
 70
     0
102
RTVSPost2010Prop53
 90
        2
102
RTVSPost2010PropOp53
 70
     1
102
RTVSPost2010Prop54
  1
strokes_ogs.tif
102
RTVSPost2010PropOp54
 70
     1
102
RTVSPost2010Prop55
280
     0
102
RTVSPost2010PropOp55
 70
     1
102
RTVSPost2010Prop56
140
1.0
102
RTVSPost2010PropOp56
 70
     1
102
RTVSPost2010Prop57
140
1.0
102
RTVSPost2010PropOp57
 70
     1
102
RTVSPropertyOp0
 70
     1
102
RTVSPropertyOp1
 70
     1
102
RTVSPropertyOp2
 70
     1
102
RTVSPropertyOp3
 70
     1
102
RTVSPropertyOp4
 70
     1
102
RTVSPropertyOp5
 70
     1
102
RTVSPropertyOp6
 70
     1
102
RTVSPropertyOp7
 70
     1
102
RTVSPropertyOp8
 70
     1
102
RTVSPropertyOp9
 70
     1
102
RTVSPropertyOp10
 70
     1
102
RTVSPropertyOp11
 70
     1
102
RTVSPropertyOp12
 70
     1
102
RTVSPropertyOp13
 70
     1
102
RTVSPropertyOp14
 70
     1
102
RTVSPropertyOp15
 70
     1
102
RTVSPropertyOp16
 70
     1
102
RTVSPropertyOp17
 70
     1
102
RTVSPropertyOp18
 70
     1
102
RTVSPropertyOp19
 70
     1
102
RTVSPropertyOp20
 70
     1
102
RTVSPropertyOp21
 70
     1
102
RTVSPropertyOp22
 70
     1
102
RTVSPropertyOp23
 70
     1
102
RTVSPropertyOp24
 70
     1
102
RTVSPropertyOp25
 70
     1
102
RTVSPropertyOp26
 70
     1
102
RTVSPropertyOp27
 70
     1
102
RTVSPropertyOp28
 70
     1
102
RTVSPropertyOp29
 70
     1
102
RTVSPropertyOp30
 70
     1
102
RTVSPropertyOp31
 70
     1
102
RTVSPropertyOp32
 70
     1
102
RTVSPropertyOp33
 70
     1
102
RTVSPropertyOp34
 70
     1
102
RTVSPropertyOp35
 70
     1
102
RTVSPropertyOp36
 70
     1
102
RTVSPropertyOp37
 70
     1
102
RTVSPropertyOp38
 70
     1
102
RTVSPropertyOp39
 70
     1
102
RTVSPropertyOp40
 70
     1
102
RTVSPropertyOp41
 70
     1
102
RTVSPropertyOp42
 70
     1
102
RTVSPropertyOp43
 70
     1
102
RTVSPropertyOp44
 70
     1
102
RTVSPropertyOp45
 70
     1
102
RTVSPropertyOp46
 70
     1
102
RTVSPropertyOp47
 70
     1
102
RTVSPropertyOp48
 70
     1
102
RTVSPropertyOp49
 70
     1
102
RTVSPropertyOp50
 70
     1
102
RTVSPropertyOp51
 70
     0
102
RTVSPropertyOp52
 70
     0
102
RTVSPropertyOp53
 70
     1
102
RTVSPropertyOp54
 70
     1
102
RTVSPropertyOp55
 70
     1
102
RTVSPropertyOp56
 70
     1
102
RTVSPropertyOp57
 70
     1
102
RTVSPropertyOp58
 70
     1
102
RTVSPropertyOp59
 70
     1
102
RTVSPropertyOp60
 70
     1
102
RTVSPropertyOp61
 70
     1
102
RTVSPropertyOp62
 70
     1
  0
ENDSEC
  0
EOF
