  0
SECTION
  2
HEADER
  9
$ACADVER
  1
AC1024
  9
$ACADMAINTVER
 70
   205
  9
$DWGCODEPAGE
  3
ANSI_932
  9
$COMMENTS
  1
File was created by TR2_DExp
  9
$LASTSAVEDBY
  1
y.minamitani
  9
$INSBASE
 10
0.0
 20
0.0
 30
0.0
  9
$EXTMIN
 10
8.900303848413955
 20
17.11280914019221
 30
0.0
  9
$EXTMAX
 10
3109.201502771131
 20
1349.86294418554
 30
0.0
  9
$LIMMIN
 10
-400.7850561141976
 20
-646.1311798095711
  9
$LIMMAX
 10
998.1337757110603
 20
618.8742980957039
  9
$ORTHOMODE
 70
     0
  9
$REGENMODE
 70
     1
  9
$FILLMODE
 70
     1
  9
$QTEXTMODE
 70
     0
  9
$MIRRTEXT
 70
     1
  9
$LTSCALE
 40
0.3257884949211061
  9
$ATTMODE
 70
     1
  9
$TEXTSIZE
 40
2.5
  9
$TRACEWID
 40
1.0
  9
$TEXTSTYLE
  7
Standard
  9
$CLAYER
  8
実線
  9
$CELTYPE
  6
ByLayer
  9
$CECOLOR
 62
   256
  9
$CELTSCALE
 40
1.0
  9
$DISPSILH
 70
     0
  9
$DIMSCALE
 40
1.0
  9
$DIMASZ
 40
2.5
  9
$DIMEXO
 40
0.625
  9
$DIMDLI
 40
3.75
  9
$DIMRND
 40
0.0
  9
$DIMDLE
 40
0.0
  9
$DIMEXE
 40
1.25
  9
$DIMTP
 40
0.0
  9
$DIMTM
 40
0.0
  9
$DIMTXT
 40
2.5
  9
$DIMCEN
 40
2.5
  9
$DIMTSZ
 40
0.0
  9
$DIMTOL
 70
     0
  9
$DIMLIM
 70
     0
  9
$DIMTIH
 70
     0
  9
$DIMTOH
 70
     0
  9
$DIMSE1
 70
     0
  9
$DIMSE2
 70
     0
  9
$DIMTAD
 70
     1
  9
$DIMZIN
 70
     0
  9
$DIMBLK
  1

  9
$DIMASO
 70
     1
  9
$DIMSHO
 70
     1
  9
$DIMPOST
  1

  9
$DIMAPOST
  1

  9
$DIMALT
 70
     0
  9
$DIMALTD
 70
     3
  9
$DIMALTF
 40
0.03937007874016
  9
$DIMLFAC
 40
1.0
  9
$DIMTOFL
 70
     1
  9
$DIMTVP
 40
0.0
  9
$DIMTIX
 70
     0
  9
$DIMSOXD
 70
     0
  9
$DIMSAH
 70
     0
  9
$DIMBLK1
  1

  9
$DIMBLK2
  1

  9
$DIMSTYLE
  2
Standard
  9
$DIMCLRD
 70
     0
  9
$DIMCLRE
 70
     0
  9
$DIMCLRT
 70
     0
  9
$DIMTFAC
 40
0.75
  9
$DIMGAP
 40
0.625
  9
$DIMJUST
 70
     0
  9
$DIMSD1
 70
     0
  9
$DIMSD2
 70
     0
  9
$DIMTOLJ
 70
     0
  9
$DIMTZIN
 70
     8
  9
$DIMALTZ
 70
     0
  9
$DIMALTTZ
 70
     0
  9
$DIMUPT
 70
     0
  9
$DIMDEC
 70
     2
  9
$DIMTDEC
 70
     2
  9
$DIMALTU
 70
     2
  9
$DIMALTTD
 70
     3
  9
$DIMTXSTY
  7
Standard
  9
$DIMAUNIT
 70
     0
  9
$DIMADEC
 70
     0
  9
$DIMALTRND
 40
0.0
  9
$DIMAZIN
 70
     0
  9
$DIMDSEP
 70
    46
  9
$DIMATFIT
 70
     3
  9
$DIMFRAC
 70
     0
  9
$DIMLDRBLK
  1

  9
$DIMLUNIT
 70
     2
  9
$DIMLWD
 70
    -2
  9
$DIMLWE
 70
    -2
  9
$DIMTMOVE
 70
     0
  9
$DIMFXL
 40
1.0
  9
$DIMFXLON
 70
     0
  9
$DIMJOGANG
 40
0.7853981633974483
  9
$DIMTFILL
 70
     0
  9
$DIMTFILLCLR
 70
     0
  9
$DIMARCSYM
 70
     0
  9
$DIMLTYPE
  6

  9
$DIMLTEX1
  6

  9
$DIMLTEX2
  6

  9
$DIMTXTDIRECTION
 70
     0
  9
$LUNITS
 70
     2
  9
$LUPREC
 70
     4
  9
$SKETCHINC
 40
1.0
  9
$FILLETRAD
 40
0.0
  9
$AUNITS
 70
     0
  9
$AUPREC
 70
     0
  9
$MENU
  1
.
  9
$ELEVATION
 40
0.0
  9
$PELEVATION
 40
0.0
  9
$THICKNESS
 40
0.0
  9
$LIMCHECK
 70
     0
  9
$CHAMFERA
 40
10.0
  9
$CHAMFERB
 40
10.0
  9
$CHAMFERC
 40
20.0
  9
$CHAMFERD
 40
0.0
  9
$SKPOLY
 70
     0
  9
$TDCREATE
 40
2455188.750000000
  9
$TDUCREATE
 40
2455188.375000000
  9
$TDUPDATE
 40
2459755.372263855
  9
$TDUUPDATE
 40
2459754.997263854
  9
$TDINDWG
 40
0.0137058333
  9
$TDUSRTIMER
 40
0.0137052894
  9
$USRTIMER
 70
     1
  9
$ANGBASE
 50
0.0
  9
$ANGDIR
 70
     0
  9
$PDMODE
 70
     0
  9
$PDSIZE
 40
0.0
  9
$PLINEWID
 40
0.0
  9
$SPLFRAME
 70
     0
  9
$SPLINETYPE
 70
     6
  9
$SPLINESEGS
 70
     8
  9
$HANDSEED
  5
1453
  9
$SURFTAB1
 70
     6
  9
$SURFTAB2
 70
     6
  9
$SURFTYPE
 70
     6
  9
$SURFU
 70
     6
  9
$SURFV
 70
     6
  9
$UCSBASE
  2

  9
$UCSNAME
  2

  9
$UCSORG
 10
0.0
 20
0.0
 30
0.0
  9
$UCSXDIR
 10
1.0
 20
0.0
 30
0.0
  9
$UCSYDIR
 10
0.0
 20
1.0
 30
0.0
  9
$UCSORTHOREF
  2

  9
$UCSORTHOVIEW
 70
     0
  9
$UCSORGTOP
 10
0.0
 20
0.0
 30
0.0
  9
$UCSORGBOTTOM
 10
0.0
 20
0.0
 30
0.0
  9
$UCSORGLEFT
 10
0.0
 20
0.0
 30
0.0
  9
$UCSORGRIGHT
 10
0.0
 20
0.0
 30
0.0
  9
$UCSORGFRONT
 10
0.0
 20
0.0
 30
0.0
  9
$UCSORGBACK
 10
0.0
 20
0.0
 30
0.0
  9
$PUCSBASE
  2

  9
$PUCSNAME
  2

  9
$PUCSORG
 10
0.0
 20
0.0
 30
0.0
  9
$PUCSXDIR
 10
1.0
 20
0.0
 30
0.0
  9
$PUCSYDIR
 10
0.0
 20
1.0
 30
0.0
  9
$PUCSORTHOREF
  2

  9
$PUCSORTHOVIEW
 70
     0
  9
$PUCSORGTOP
 10
0.0
 20
0.0
 30
0.0
  9
$PUCSORGBOTTOM
 10
0.0
 20
0.0
 30
0.0
  9
$PUCSORGLEFT
 10
0.0
 20
0.0
 30
0.0
  9
$PUCSORGRIGHT
 10
0.0
 20
0.0
 30
0.0
  9
$PUCSORGFRONT
 10
0.0
 20
0.0
 30
0.0
  9
$PUCSORGBACK
 10
0.0
 20
0.0
 30
0.0
  9
$USERI1
 70
     0
  9
$USERI2
 70
     0
  9
$USERI3
 70
     0
  9
$USERI4
 70
     0
  9
$USERI5
 70
     0
  9
$USERR1
 40
0.0
  9
$USERR2
 40
0.0
  9
$USERR3
 40
0.0
  9
$USERR4
 40
0.0
  9
$USERR5
 40
0.0
  9
$WORLDVIEW
 70
     1
  9
$SHADEDGE
 70
     3
  9
$SHADEDIF
 70
    70
  9
$TILEMODE
 70
     1
  9
$MAXACTVP
 70
    64
  9
$PINSBASE
 10
0.0
 20
0.0
 30
0.0
  9
$PLIMCHECK
 70
     0
  9
$PEXTMIN
 10
1.000000000000000E+20
 20
1.000000000000000E+20
 30
1.000000000000000E+20
  9
$PEXTMAX
 10
-1.000000000000000E+20
 20
-1.000000000000000E+20
 30
-1.000000000000000E+20
  9
$PLIMMIN
 10
0.0
 20
0.0
  9
$PLIMMAX
 10
420.0
 20
297.0
  9
$UNITMODE
 70
     0
  9
$VISRETAIN
 70
     1
  9
$PLINEGEN
 70
     0
  9
$PSLTSCALE
 70
     1
  9
$TREEDEPTH
 70
  3020
  9
$CMLSTYLE
  2
Standard
  9
$CMLJUST
 70
     0
  9
$CMLSCALE
 40
20.0
  9
$PROXYGRAPHICS
 70
     1
  9
$MEASUREMENT
 70
     1
  9
$CELWEIGHT
370
    -1
  9
$ENDCAPS
280
     0
  9
$JOINSTYLE
280
     0
  9
$LWDISPLAY
290
     0
  9
$INSUNITS
 70
     4
  9
$HYPERLINKBASE
  1

  9
$STYLESHEET
  1

  9
$XEDIT
290
     1
  9
$CEPSNTYPE
380
     0
  9
$PSTYLEMODE
290
     1
  9
$FINGERPRINTGUID
  2
{627A0CAF-86BB-4A41-B8B2-5DAFD81A578A}
  9
$VERSIONGUID
  2
{500EAA65-2501-4745-A296-5686C8B06DB5}
  9
$EXTNAMES
290
     1
  9
$PSVPSCALE
 40
0.0
  9
$OLESTARTUP
290
     0
  9
$SORTENTS
280
   127
  9
$INDEXCTL
280
     0
  9
$HIDETEXT
280
     1
  9
$XCLIPFRAME
280
     2
  9
$HALOGAP
280
     0
  9
$OBSCOLOR
 70
   257
  9
$OBSLTYPE
280
     0
  9
$INTERSECTIONDISPLAY
280
     0
  9
$INTERSECTIONCOLOR
 70
   257
  9
$DIMASSOC
280
     2
  9
$PROJECTNAME
  1

  9
$CAMERADISPLAY
290
     0
  9
$LENSLENGTH
 40
50.0
  9
$CAMERAHEIGHT
 40
0.0
  9
$STEPSPERSEC
 40
2.0
  9
$STEPSIZE
 40
6.0
  9
$3DDWFPREC
 40
2.0
  9
$PSOLWIDTH
 40
5.0
  9
$PSOLHEIGHT
 40
80.0
  9
$LOFTANG1
 40
1.570795999999999
  9
$LOFTANG2
 40
1.570795999999999
  9
$LOFTMAG1
 40
0.0
  9
$LOFTMAG2
 40
0.0
  9
$LOFTPARAM
 70
     7
  9
$LOFTNORMALS
280
     1
  9
$LATITUDE
 40
37.795
  9
$LONGITUDE
 40
-122.394
  9
$NORTHDIRECTION
 40
0.0
  9
$TIMEZONE
 70
 -8000
  9
$LIGHTGLYPHDISPLAY
280
     1
  9
$TILEMODELIGHTSYNCH
280
     1
  9
$CMATERIAL
347
44
  9
$SOLIDHIST
280
     0
  9
$SHOWHIST
280
     1
  9
$DWFFRAME
280
     2
  9
$DGNFRAME
280
     0
  9
$REALWORLDSCALE
290
     1
  9
$INTERFERECOLOR
 62
     1
  9
$INTERFEREOBJVS
345
33
  9
$INTERFEREVPVS
346
30
  9
$CSHADOW
280
     0
  9
$SHADOWPLANELOCATION
 40
0.0
  0
ENDSEC
  0
SECTION
  2
CLASSES
  0
CLASS
  1
ACDBDICTIONARYWDFLT
  2
AcDbDictionaryWithDefault
  3
ObjectDBX Classes
 90
        0
 91
        1
280
     0
281
     0
  0
CLASS
  1
VISUALSTYLE
  2
AcDbVisualStyle
  3
ObjectDBX Classes
 90
     4095
 91
       24
280
     0
281
     0
  0
CLASS
  1
MATERIAL
  2
AcDbMaterial
  3
ObjectDBX Classes
 90
     1153
 91
        3
280
     0
281
     0
  0
CLASS
  1
SCALE
  2
AcDbScale
  3
ObjectDBX Classes
 90
     1153
 91
       17
280
     0
281
     0
  0
CLASS
  1
TABLESTYLE
  2
AcDbTableStyle
  3
ObjectDBX Classes
 90
     4095
 91
        1
280
     0
281
     0
  0
CLASS
  1
MLEADERSTYLE
  2
AcDbMLeaderStyle
  3
ACDB_MLEADERSTYLE_CLASS
 90
     4095
 91
        1
280
     0
281
     0
  0
CLASS
  1
SUN
  2
AcDbSun
  3
SCENEOE
 90
     1153
 91
        0
280
     0
281
     0
  0
CLASS
  1
DICTIONARYVAR
  2
AcDbDictionaryVar
  3
ObjectDBX Classes
 90
        0
 91
       20
280
     0
281
     0
  0
CLASS
  1
ACDBSECTIONVIEWSTYLE
  2
AcDbSectionViewStyle
  3
ObjectDBX Classes
 90
     1025
 91
        1
280
     0
281
     0
  0
CLASS
  1
ACDBDETAILVIEWSTYLE
  2
AcDbDetailViewStyle
  3
ObjectDBX Classes
 90
     1025
 91
        1
280
     0
281
     0
  0
CLASS
  1
SORTENTSTABLE
  2
AcDbSortentsTable
  3
ObjectDBX Classes
 90
        0
 91
        2
280
     0
281
     0
  0
CLASS
  1
CELLSTYLEMAP
  2
AcDbCellStyleMap
  3
ObjectDBX Classes
 90
     1152
 91
        2
280
     0
281
     0
  0
ENDSEC
  0
SECTION
  2
TABLES
  0
TABLE
  2
VPORT
  5
8
330
0
100
AcDbSymbolTable
 70
     1
  0
VPORT
  5
29
330
8
100
AcDbSymbolTableRecord
100
AcDbViewportTableRecord
  2
*Active
 70
     0
 10
0.0
 20
0.0
 11
1.0
 21
1.0
 12
339.6737939306163
 22
667.2540143915102
 13
0.0
 23
0.0
 14
10.0
 24
10.0
 15
10.0
 25
10.0
 16
0.0
 26
0.0
 36
1.0
 17
0.0
 27
0.0
 37
0.0
 40
1983.245572435764
 41
1.941176470588235
 42
50.0
 43
0.0
 44
0.0
 50
0.0
 51
0.0
 71
     0
 72
 20000
 73
     1
 74
     3
 75
     0
 76
     0
 77
     0
 78
     0
281
     0
 65
     1
110
0.0
120
0.0
130
0.0
111
1.0
121
0.0
131
0.0
112
0.0
122
1.0
132
0.0
 79
     0
146
0.0
348
2F
 60
     3
 61
     5
292
     1
282
     1
141
0.0
142
0.0
 63
   250
421
  3355443
1001
ACAD_NAV_VCDISPLAY
1070
     3
  0
ENDTAB
  0
TABLE
  2
LTYPE
  5
5
330
0
100
AcDbSymbolTable
 70
     4
  0
LTYPE
  5
14
330
5
100
AcDbSymbolTableRecord
100
AcDbLinetypeTableRecord
  2
ByBlock
 70
     0
  3

 72
    65
 73
     0
 40
0.0
  0
LTYPE
  5
15
330
5
100
AcDbSymbolTableRecord
100
AcDbLinetypeTableRecord
  2
ByLayer
 70
     0
  3

 72
    65
 73
     0
 40
0.0
  0
LTYPE
  5
16
330
5
100
AcDbSymbolTableRecord
100
AcDbLinetypeTableRecord
  2
Continuous
 70
     0
  3
Solid line
 72
    65
 73
     0
 40
0.0
  0
LTYPE
  5
4D4
330
5
100
AcDbSymbolTableRecord
100
AcDbLinetypeTableRecord
  2
CENTER2
 70
     0
  3
Center (.5x) ___ _ ___ _ ___ _ ___ _ ___ _ ___
 72
    65
 73
     4
 40
28.575
 49
19.05
 74
     0
 49
-3.174999999999998
 74
     0
 49
3.174999999999998
 74
     0
 49
-3.174999999999998
 74
     0
  0
ENDTAB
  0
TABLE
  2
LAYER
  5
2
102
{ACAD_XDICTIONARY
360
4DA
102
}
330
0
100
AcDbSymbolTable
 70
     5
  0
LAYER
  5
10
102
{ACAD_XDICTIONARY
360
AB3
102
}
330
2
100
AcDbSymbolTableRecord
100
AcDbLayerTableRecord
  2
0
 70
     0
 62
     7
  6
Continuous
370
    -3
390
F
347
46
  0
LAYER
  5
66
330
2
100
AcDbSymbolTableRecord
100
AcDbLayerTableRecord
  2
Defpoints
 70
     0
 62
     7
  6
Continuous
290
     0
370
    -3
390
F
347
46
  0
LAYER
  5
4D5
102
{ACAD_XDICTIONARY
360
4D6
102
}
330
2
100
AcDbSymbolTableRecord
100
AcDbLayerTableRecord
  2
中心線
 70
     0
 62
     3
  6
CENTER2
370
    -3
390
F
347
46
  0
LAYER
  5
4D7
102
{ACAD_XDICTIONARY
360
4D8
102
}
330
2
100
AcDbSymbolTableRecord
100
AcDbLayerTableRecord
  2
実線
 70
     0
 62
     7
  6
Continuous
370
    -3
390
F
347
46
  0
ENDTAB
  0
TABLE
  2
STYLE
  5
3
330
0
100
AcDbSymbolTable
 70
     1
  0
STYLE
  5
11
330
3
100
AcDbSymbolTableRecord
100
AcDbTextStyleTableRecord
  2
Standard
 70
     0
 40
0.0
 41
1.0
 50
0.0
 71
     0
 42
2.5
  3
txt
  4
extfont2
  0
ENDTAB
  0
TABLE
  2
VIEW
  5
6
330
0
100
AcDbSymbolTable
 70
     0
  0
ENDTAB
  0
TABLE
  2
UCS
  5
7
330
0
100
AcDbSymbolTable
 70
     0
  0
ENDTAB
  0
TABLE
  2
APPID
  5
9
330
0
100
AcDbSymbolTable
 70
     3
  0
APPID
  5
12
330
9
100
AcDbSymbolTableRecord
100
AcDbRegAppTableRecord
  2
ACAD
 70
     0
  0
APPID
  5
4C4
330
9
100
AcDbSymbolTableRecord
100
AcDbRegAppTableRecord
  2
ACAD_MLEADERVER
 70
     0
  0
APPID
  5
4D9
330
9
100
AcDbSymbolTableRecord
100
AcDbRegAppTableRecord
  2
ACAD_NAV_VCDISPLAY
 70
     0
  0
ENDTAB
  0
TABLE
  2
DIMSTYLE
  5
A
330
0
100
AcDbSymbolTable
 70
     1
100
AcDbDimStyleTable
 71
     1
340
27
  0
DIMSTYLE
105
27
330
A
100
AcDbSymbolTableRecord
100
AcDbDimStyleTableRecord
  2
Standard
 70
     0
 41
2.5
 42
0.625
 43
3.75
 44
1.25
 73
     0
 74
     0
 77
     1
140
2.5
141
2.5
143
0.03937007874016
146
0.75
147
0.625
171
     3
172
     1
271
     2
272
     2
274
     3
283
     0
284
     8
340
11
  0
ENDTAB
  0
TABLE
  2
BLOCK_RECORD
  5
1
330
0
100
AcDbSymbolTable
 70
     2
  0
BLOCK_RECORD
  5
1F
102
{ACAD_XDICTIONARY
360
723
102
}
330
1
100
AcDbSymbolTableRecord
100
AcDbBlockTableRecord
  2
*Model_Space
340
22
 70
     0
280
     1
281
     0
  0
BLOCK_RECORD
  5
1B
330
1
100
AcDbSymbolTableRecord
100
AcDbBlockTableRecord
  2
*Paper_Space
340
1E
 70
     0
280
     1
281
     0
  0
BLOCK_RECORD
  5
23
330
1
100
AcDbSymbolTableRecord
100
AcDbBlockTableRecord
  2
*Paper_Space0
340
4CE
 70
     0
280
     1
281
     0
  0
ENDTAB
  0
ENDSEC
  0
SECTION
  2
BLOCKS
  0
BLOCK
  5
20
330
1F
100
AcDbEntity
  8
0
100
AcDbBlockBegin
  2
*Model_Space
 70
     0
 10
0.0
 20
0.0
 30
0.0
  3
*Model_Space
  1

  0
ENDBLK
  5
21
330
1F
100
AcDbEntity
  8
0
100
AcDbBlockEnd
  0
BLOCK
  5
1C
330
1B
100
AcDbEntity
 67
     1
  8
0
100
AcDbBlockBegin
  2
*Paper_Space
 70
     0
 10
0.0
 20
0.0
 30
0.0
  3
*Paper_Space
  1

  0
ENDBLK
  5
1D
330
1B
100
AcDbEntity
 67
     1
  8
0
100
AcDbBlockEnd
  0
BLOCK
  5
24
330
23
100
AcDbEntity
 67
     1
  8
0
100
AcDbBlockBegin
  2
*Paper_Space0
 70
     0
 10
0.0
 20
0.0
 30
0.0
  3
*Paper_Space0
  1

  0
ENDBLK
  5
25
330
23
100
AcDbEntity
 67
     1
  8
0
100
AcDbBlockEnd
  0
ENDSEC
  0
SECTION
  2
ENTITIES
  0
LINE
  5
A99
102
{ACAD_REACTORS
330
1412
102
}
330
1F
100
AcDbEntity
  8
中心線
100
AcDbLine
 10
338.9003038484145
 20
17.11280914019221
 30
0.0
 11
338.9003038484146
 21
161.1128091401922
 31
0.0
  0
LINE
  5
A9A
102
{ACAD_REACTORS
330
1412
102
}
330
1F
100
AcDbEntity
  8
中心線
100
AcDbLine
 10
410.9003038484138
 20
89.11280914019179
 30
0.0
 11
266.9003038484139
 21
89.11280914019179
 31
0.0
  0
LINE
  5
A9B
102
{ACAD_REACTORS
330
141C
102
}
330
1F
100
AcDbEntity
  8
中心線
100
AcDbLine
 10
338.9003038484137
 20
1097.112809140196
 30
0.0
 11
338.9003038484138
 21
1241.112809140196
 31
0.0
  0
LINE
  5
A9C
102
{ACAD_REACTORS
330
141C
102
}
330
1F
100
AcDbEntity
  8
中心線
100
AcDbLine
 10
410.9003038484129
 20
1169.112809140196
 30
0.0
 11
266.9003038484129
 21
1169.112809140196
 31
0.0
  0
LINE
  5
A9D
102
{ACAD_REACTORS
330
1418
102
}
330
1F
100
AcDbEntity
  8
中心線
100
AcDbLine
 10
818.9003038484141
 20
294.2112944153312
 30
0.0
 11
818.9003038484143
 21
964.2112934847226
 31
0.0
  0
LINE
  5
A9E
102
{ACAD_REACTORS
330
1418
102
}
330
1F
100
AcDbEntity
  8
中心線
100
AcDbLine
 10
763.9003038484142
 20
657.811293950027
 30
0.0
 11
873.9003038484142
 21
657.811293950027
 31
0.0
  0
LINE
  5
A9F
102
{ACAD_REACTORS
330
1418
102
}
330
1F
100
AcDbEntity
  8
中心線
100
AcDbLine
 10
728.9003038484143
 20
629.2112939500269
 30
0.0
 11
908.9003038484143
 21
629.2112939500269
 31
0.0
  0
LINE
  5
AA0
102
{ACAD_REACTORS
330
1418
102
}
330
1F
100
AcDbEntity
  8
中心線
100
AcDbLine
 10
746.9003038484142
 20
600.6112939500268
 30
0.0
 11
890.9003038484142
 21
600.6112939500268
 31
0.0
  0
LINE
  5
AA1
102
{ACAD_REACTORS
330
1419
102
}
330
1F
100
AcDbEntity
  8
中心線
100
AcDbLine
 10
578.9003038484142
 20
294.2112944153312
 30
0.0
 11
578.9003038484142
 21
964.2112934847226
 31
0.0
  0
LINE
  5
AA2
102
{ACAD_REACTORS
330
1419
102
}
330
1F
100
AcDbEntity
  8
中心線
100
AcDbLine
 10
506.900573272745
 20
657.811293950027
 30
0.0
 11
650.900034424083
 21
657.811293950027
 31
0.0
  0
LINE
  5
AA3
102
{ACAD_REACTORS
330
1419
102
}
330
1F
100
AcDbEntity
  8
中心線
100
AcDbLine
 10
488.900303848414
 20
629.2112939500269
 30
0.0
 11
668.9003038484141
 21
629.2112939500269
 31
0.0
  0
LINE
  5
AA4
102
{ACAD_REACTORS
330
1419
102
}
330
1F
100
AcDbEntity
  8
中心線
100
AcDbLine
 10
523.9006565498275
 20
600.611293950027
 30
0.0
 11
633.8999511470007
 21
600.6112939500268
 31
0.0
  0
LINE
  5
AA5
102
{ACAD_REACTORS
330
141A
102
}
330
1F
100
AcDbEntity
  8
中心線
100
AcDbLine
 10
338.900303848414
 20
294.2112939500269
 30
0.0
 11
338.900303848414
 21
964.2112939500266
 31
0.0
  0
LINE
  5
AA6
102
{ACAD_REACTORS
330
141A
102
}
330
1F
100
AcDbEntity
  8
中心線
100
AcDbLine
 10
283.9003038484138
 20
657.811293950027
 30
0.0
 11
393.9003038484139
 21
657.811293950027
 31
0.0
  0
LINE
  5
AA7
102
{ACAD_REACTORS
330
141A
102
}
330
1F
100
AcDbEntity
  8
中心線
100
AcDbLine
 10
248.900303848414
 20
629.2112939500269
 30
0.0
 11
428.9003038484138
 21
629.2112939500269
 31
0.0
  0
LINE
  5
AA8
102
{ACAD_REACTORS
330
141A
102
}
330
1F
100
AcDbEntity
  8
中心線
100
AcDbLine
 10
266.9003038484139
 20
600.6112939500268
 30
0.0
 11
410.9003038484138
 21
600.6112939500268
 31
0.0
  0
LINE
  5
AA9
102
{ACAD_REACTORS
330
141B
102
}
330
1F
100
AcDbEntity
  8
中心線
100
AcDbLine
 10
98.90030384841388
 20
294.2112944153311
 30
0.0
 11
98.90030384841388
 21
964.2112934847226
 31
0.0
  0
LINE
  5
AAA
102
{ACAD_REACTORS
330
141B
102
}
330
1F
100
AcDbEntity
  8
中心線
100
AcDbLine
 10
26.90057327274474
 20
657.811293950027
 30
0.0
 11
170.9000344240827
 21
657.8112939500272
 31
0.0
  0
LINE
  5
AAB
102
{ACAD_REACTORS
330
141B
102
}
330
1F
100
AcDbEntity
  8
中心線
100
AcDbLine
 10
8.900303848413955
 20
629.2112939500269
 30
0.0
 11
188.9003038484139
 21
629.2112939500269
 31
0.0
  0
LINE
  5
AAC
102
{ACAD_REACTORS
330
141B
102
}
330
1F
100
AcDbEntity
  8
中心線
100
AcDbLine
 10
43.90065654982708
 20
600.611293950027
 30
0.0
 11
153.8999511470003
 21
600.611293950027
 31
0.0
  0
LINE
  5
AFF
102
{ACAD_REACTORS
330
141C
102
}
330
1F
100
AcDbEntity
  8
中心線
100
AcDbLine
 10
338.9003038484138
 20
1169.112809140191
 30
0.0
 11
287.9886156029842
 21
1118.201120894761
 31
0.0
  0
LINE
  5
B00
102
{ACAD_REACTORS
330
1412
102
}
330
1F
100
AcDbEntity
  8
中心線
100
AcDbLine
 10
287.9886156029808
 20
140.024497385622
 30
0.0
 11
338.9003038484148
 21
89.11280914018801
 31
0.0
  0
LINE
  5
1022
102
{ACAD_REACTORS
330
141A
102
}
330
1F
100
AcDbEntity
  8
実線
100
AcDbLine
 10
406.1258791597679
 20
647.2112939500267
 30
0.0
 11
406.1258791597679
 21
653.7112939500267
 31
0.0
  0
LINE
  5
1023
102
{ACAD_REACTORS
330
141A
102
}
330
1F
100
AcDbEntity
  8
実線
100
AcDbLine
 10
403.1258791597679
 20
653.7112939500267
 30
0.0
 11
403.1258791597679
 21
647.2112939500267
 31
0.0
  0
LINE
  5
1024
102
{ACAD_REACTORS
330
141A
102
}
330
1F
100
AcDbEntity
  8
実線
100
AcDbLine
 10
403.1258791597679
 20
653.7112939500267
 30
0.0
 11
406.1258791597679
 21
653.7112939500267
 31
0.0
  0
LINE
  5
1025
102
{ACAD_REACTORS
330
141A
102
}
330
1F
100
AcDbEntity
  8
実線
100
AcDbLine
 10
410.212022731142
 20
622.2112939500267
 30
0.0
 11
410.212022731142
 21
647.2112939500267
 31
0.0
  0
LINE
  5
1026
102
{ACAD_REACTORS
330
141A
102
}
330
1F
100
AcDbEntity
  8
実線
100
AcDbLine
 10
410.212022731142
 20
647.2112939500267
 30
0.0
 11
399.0397355883942
 21
647.2112939500267
 31
0.0
  0
LINE
  5
1027
102
{ACAD_REACTORS
330
141A
102
}
330
1F
100
AcDbEntity
  8
実線
100
AcDbLine
 10
407.8432150142266
 20
622.2112939500267
 30
0.0
 11
410.212022731142
 21
622.2112939500267
 31
0.0
  0
LINE
  5
1028
102
{ACAD_REACTORS
330
141A
102
}
330
1F
100
AcDbEntity
  8
実線
100
AcDbLine
 10
404.6258791597678
 20
644.2112939500267
 30
0.0
 11
404.6258791597678
 21
647.2112939500267
 31
0.0
  0
LINE
  5
1029
102
{ACAD_REACTORS
330
141A
102
}
330
1F
100
AcDbEntity
  8
実線
100
AcDbLine
 10
399.0397355883942
 20
644.2112939500267
 30
0.0
 11
399.0397355883942
 21
647.2112939500267
 31
0.0
  0
LINE
  5
102A
102
{ACAD_REACTORS
330
141A
102
}
330
1F
100
AcDbEntity
  8
実線
100
AcDbLine
 10
415.3889779932474
 20
647.2112939500268
 30
0.0
 11
415.3889779932474
 21
653.7112939500268
 31
0.0
  0
LINE
  5
102B
102
{ACAD_REACTORS
330
141A
102
}
330
1F
100
AcDbEntity
  8
実線
100
AcDbLine
 10
412.3889779932474
 20
653.7112939500268
 30
0.0
 11
412.3889779932474
 21
647.2112939500268
 31
0.0
  0
LINE
  5
102C
102
{ACAD_REACTORS
330
141A
102
}
330
1F
100
AcDbEntity
  8
実線
100
AcDbLine
 10
412.3889779932474
 20
653.7112939500268
 30
0.0
 11
415.3889779932474
 21
653.7112939500268
 31
0.0
  0
LINE
  5
102D
102
{ACAD_REACTORS
330
141A
102
}
330
1F
100
AcDbEntity
  8
実線
100
AcDbLine
 10
419.4751215646211
 20
622.2112939500268
 30
0.0
 11
410.212022731142
 21
622.2112939500268
 31
0.0
  0
LINE
  5
102E
102
{ACAD_REACTORS
330
141A
102
}
330
1F
100
AcDbEntity
  8
実線
100
AcDbLine
 10
419.4751215646211
 20
647.2112939500268
 30
0.0
 11
410.212022731142
 21
647.2112939500268
 31
0.0
  0
LINE
  5
102F
102
{ACAD_REACTORS
330
141A
102
}
330
1F
100
AcDbEntity
  8
実線
100
AcDbLine
 10
419.4751215646211
 20
647.2112939500268
 30
0.0
 11
419.4751215646211
 21
622.2112939500268
 31
0.0
  0
LINE
  5
1030
102
{ACAD_REACTORS
330
141A
102
}
330
1F
100
AcDbEntity
  8
実線
100
AcDbLine
 10
413.8889779932473
 20
633.7717215615453
 30
0.0
 11
413.8889779932473
 21
647.2112939500268
 31
0.0
  0
LINE
  5
1031
102
{ACAD_REACTORS
330
141A
102
}
330
1F
100
AcDbEntity
  8
実線
100
AcDbLine
 10
413.8889779932473
 20
622.2112939500268
 30
0.0
 11
413.8889779932473
 21
624.6508663385085
 31
0.0
  0
LINE
  5
1032
102
{ACAD_REACTORS
330
141A
102
}
330
1F
100
AcDbEntity
  8
実線
100
AcDbLine
 10
407.8432150142266
 20
622.2112939500268
 30
0.0
 11
389.6705707376727
 21
622.2112939500268
 31
0.0
  0
LINE
  5
1033
102
{ACAD_REACTORS
330
141A
102
}
330
1F
100
AcDbEntity
  8
実線
100
AcDbLine
 10
407.8432150142266
 20
644.2112939500267
 30
0.0
 11
389.6705707376727
 21
644.2112939500267
 31
0.0
  0
LINE
  5
1034
102
{ACAD_REACTORS
330
141A
102
}
330
1F
100
AcDbEntity
  8
実線
100
AcDbLine
 10
407.8432150142266
 20
644.2112939500267
 30
0.0
 11
407.8432150142266
 21
622.2112939500267
 31
0.0
  0
LINE
  5
1035
102
{ACAD_REACTORS
330
141A
102
}
330
1F
100
AcDbEntity
  8
実線
100
AcDbLine
 10
406.9946868768028
 20
622.2112939500268
 30
0.0
 11
406.9946868768028
 21
644.2112939500268
 31
0.0
  0
LINE
  5
1036
102
{ACAD_REACTORS
330
141A
102
}
330
1F
100
AcDbEntity
  8
実線
100
AcDbLine
 10
389.6705707376727
 20
622.2112939500268
 30
0.0
 11
389.6705707376727
 21
644.2112939500268
 31
0.0
  0
LINE
  5
1037
102
{ACAD_REACTORS
330
141A
102
}
330
1F
100
AcDbEntity
  8
実線
100
AcDbLine
 10
410.318088748238
 20
624.211293950027
 30
0.0
 11
412.4394090917976
 21
624.211293950027
 31
0.0
  0
LINE
  5
1038
102
{ACAD_REACTORS
330
141A
102
}
330
1F
100
AcDbEntity
  8
実線
100
AcDbLine
 10
412.4394090917976
 20
634.2112939500269
 30
0.0
 11
410.318088748238
 21
634.2112939500269
 31
0.0
  0
ELLIPSE
  5
1039
102
{ACAD_REACTORS
330
141A
102
}
330
1F
100
AcDbEntity
  8
実線
100
AcDbEllipse
 10
412.4394090917976
 20
629.2112939500269
 30
0.0
 11
0.0
 21
5.0
 31
0.0
210
0.0
220
0.0
230
1.0
 40
0.7071067811865475
 41
3.141592653589792
 42
6.283185307179585
  0
ELLIPSE
  5
103A
102
{ACAD_REACTORS
330
141A
102
}
330
1F
100
AcDbEntity
  8
実線
100
AcDbEllipse
 10
412.4394090917976
 20
629.2112939500269
 30
0.0
 11
0.0
 21
5.0
 31
0.0
210
0.0
220
0.0
230
1.0
 40
0.7071067811865475
 41
2.460039442056495
 42
3.141592653589792
  0
ELLIPSE
  5
103B
102
{ACAD_REACTORS
330
141A
102
}
330
1F
100
AcDbEntity
  8
実線
100
AcDbEllipse
 10
410.318088748238
 20
629.2112939500269
 30
0.0
 11
0.0
 21
5.0
 31
0.0
210
0.0
220
0.0
230
1.0
 40
0.7071067811865475
 41
3.111588151789516
 42
3.141592653589792
  0
ELLIPSE
  5
103C
102
{ACAD_REACTORS
330
141A
102
}
330
1F
100
AcDbEntity
  8
実線
100
AcDbEllipse
 10
410.318088748238
 20
629.2112939500269
 30
0.0
 11
0.0
 21
5.0
 31
0.0
210
0.0
220
0.0
230
1.0
 40
0.7071067811865475
 41
0.0
 42
0.0300045018003011
  0
ELLIPSE
  5
103D
102
{ACAD_REACTORS
330
141A
102
}
330
1F
100
AcDbEntity
  8
実線
100
AcDbEllipse
 10
412.4394090917976
 20
629.2112939500269
 30
0.0
 11
0.0
 21
5.0
 31
0.0
210
0.0
220
0.0
230
1.0
 40
0.7071067811865475
 41
0.0
 42
0.6815532115332981
  0
LINE
  5
103E
102
{ACAD_REACTORS
330
141A
102
}
330
1F
100
AcDbEntity
  8
実線
100
AcDbLine
 10
423.8945389470368
 20
622.2112939500268
 30
0.0
 11
419.4751215646211
 21
622.2112939500268
 31
0.0
  0
LINE
  5
103F
102
{ACAD_REACTORS
330
141A
102
}
330
1F
100
AcDbEntity
  8
実線
100
AcDbLine
 10
423.8945389470368
 20
644.2112939500268
 30
0.0
 11
423.8945389470368
 21
622.2112939500268
 31
0.0
  0
LINE
  5
1040
102
{ACAD_REACTORS
330
141A
102
}
330
1F
100
AcDbEntity
  8
実線
100
AcDbLine
 10
423.8945389470368
 20
644.2112939500268
 30
0.0
 11
419.4751215646211
 21
644.2112939500268
 31
0.0
  0
LINE
  5
1041
102
{ACAD_REACTORS
330
141A
102
}
330
1F
100
AcDbEntity
  8
実線
100
AcDbLine
 10
423.0460108096131
 20
622.2112939500268
 30
0.0
 11
423.0460108096131
 21
644.2112939500268
 31
0.0
  0
LINE
  5
1042
102
{ACAD_REACTORS
330
141A
102
}
330
1F
100
AcDbEntity
  8
実線
100
AcDbLine
 10
416.4688463433381
 20
622.2112939500268
 30
0.0
 11
400.4185938116438
 21
599.512809140192
 31
0.0
  0
LINE
  5
1043
102
{ACAD_REACTORS
330
141A
102
}
330
1F
100
AcDbEntity
  8
実線
100
AcDbLine
 10
406.1258791597679
 20
650.8384584162111
 30
0.0
 11
408.6906717502857
 21
647.2112939500267
 31
0.0
  0
LINE
  5
1044
102
{ACAD_REACTORS
330
141A
102
}
330
1F
100
AcDbEntity
  8
実線
100
AcDbLine
 10
400.4185938116438
 20
658.9097787598619
 30
0.0
 11
404.0944776725732
 21
653.7112939500267
 31
0.0
  0
LINE
  5
1045
102
{ACAD_REACTORS
330
141A
102
}
330
1F
100
AcDbEntity
  8
実線
100
AcDbLine
 10
350.7807691735884
 20
629.2112939500269
 30
0.0
 11
371.7807691735884
 21
599.512809140192
 31
0.0
  0
LINE
  5
1046
102
{ACAD_REACTORS
330
141A
102
}
330
1F
100
AcDbEntity
  8
実線
100
AcDbLine
 10
371.7807691735884
 20
599.512809140192
 30
0.0
 11
400.4185938116438
 21
599.512809140192
 31
0.0
  0
LINE
  5
1047
102
{ACAD_REACTORS
330
141A
102
}
330
1F
100
AcDbEntity
  8
実線
100
AcDbLine
 10
400.4185938116438
 20
599.512809140192
 30
0.0
 11
379.4185938116438
 21
629.2112939500269
 31
0.0
  0
LINE
  5
1048
102
{ACAD_REACTORS
330
141A
102
}
330
1F
100
AcDbEntity
  8
実線
100
AcDbLine
 10
350.7807691735884
 20
629.2112939500269
 30
0.0
 11
379.4185938116438
 21
629.2112939500269
 31
0.0
  0
LINE
  5
1049
102
{ACAD_REACTORS
330
141A
102
}
330
1F
100
AcDbEntity
  8
実線
100
AcDbLine
 10
390.025195529442
 20
644.2112939500267
 30
0.0
 11
400.4185938116438
 21
658.9097787598619
 31
0.0
  0
LINE
  5
104A
102
{ACAD_REACTORS
330
141A
102
}
330
1F
100
AcDbEntity
  8
実線
100
AcDbLine
 10
379.4185938116438
 20
629.2112939500269
 30
0.0
 11
389.6705707376727
 21
643.709778759953
 31
0.0
  0
LINE
  5
104B
102
{ACAD_REACTORS
330
141A
102
}
330
1F
100
AcDbEntity
  8
実線
100
AcDbLine
 10
371.7807691735884
 20
658.9097787598619
 30
0.0
 11
400.4185938116438
 21
658.9097787598619
 31
0.0
  0
LINE
  5
104C
102
{ACAD_REACTORS
330
141A
102
}
330
1F
100
AcDbEntity
  8
実線
100
AcDbLine
 10
371.7807691735884
 20
658.9097787598619
 30
0.0
 11
350.7807691735884
 21
629.2112939500269
 31
0.0
  0
LINE
  5
104D
102
{ACAD_REACTORS
330
141A
102
}
330
1F
100
AcDbEntity
  8
実線
100
AcDbLine
 10
328.9003038484147
 20
337.711293950027
 30
0.0
 11
328.9003038484147
 21
321.011293950027
 31
0.0
  0
LINE
  5
104E
102
{ACAD_REACTORS
330
141A
102
}
330
1F
100
AcDbEntity
  8
実線
100
AcDbLine
 10
348.9003038484148
 20
321.011293950027
 30
0.0
 11
348.9003038484148
 21
337.711293950027
 31
0.0
  0
LINE
  5
104F
102
{ACAD_REACTORS
330
141A
102
}
330
1F
100
AcDbEntity
  8
実線
100
AcDbLine
 10
328.9003038484139
 20
937.4112939500269
 30
0.0
 11
328.9003038484139
 21
920.7112939500268
 31
0.0
  0
LINE
  5
1050
102
{ACAD_REACTORS
330
141A
102
}
330
1F
100
AcDbEntity
  8
実線
100
AcDbLine
 10
362.2443848970866
 20
952.7112939500268
 30
0.0
 11
332.2222613900212
 21
952.7112939500268
 31
0.0
  0
LINE
  5
1051
102
{ACAD_REACTORS
330
141A
102
}
330
1F
100
AcDbEntity
  8
実線
100
AcDbLine
 10
362.2443848970866
 20
952.711293950027
 30
0.0
 11
362.2443848970866
 21
920.7112939500271
 31
0.0
  0
LINE
  5
1052
102
{ACAD_REACTORS
330
141A
102
}
330
1F
100
AcDbEntity
  8
実線
100
AcDbLine
 10
362.1830550843829
 20
920.7112939500271
 30
0.0
 11
362.1830550843829
 21
952.711293950027
 31
0.0
  0
LINE
  5
1053
102
{ACAD_REACTORS
330
141A
102
}
330
1F
100
AcDbEntity
  8
実線
100
AcDbLine
 10
332.2222613900212
 20
921.9112939500268
 30
0.0
 11
332.2222613900212
 21
952.711293950027
 31
0.0
  0
LINE
  5
1054
102
{ACAD_REACTORS
330
141A
102
}
330
1F
100
AcDbEntity
  8
実線
100
AcDbLine
 10
362.2443848970866
 20
926.711293950027
 30
0.0
 11
363.9443018819525
 21
926.711293950027
 31
0.0
  0
LINE
  5
1055
102
{ACAD_REACTORS
330
141A
102
}
330
1F
100
AcDbEntity
  8
実線
100
AcDbLine
 10
363.9443018819525
 20
929.7112939500271
 30
0.0
 11
362.2443848970866
 21
929.7112939500271
 31
0.0
  0
ELLIPSE
  5
1056
102
{ACAD_REACTORS
330
141A
102
}
330
1F
100
AcDbEntity
  8
実線
100
AcDbEllipse
 10
363.9443018819525
 20
928.2112939500271
 30
0.0
 11
0.0
 21
1.5
 31
0.0
210
0.0
220
0.0
230
1.0
 40
0.0511081772527003
 41
3.14159265358979
 42
6.283185307179585
  0
ELLIPSE
  5
1057
102
{ACAD_REACTORS
330
141A
102
}
330
1F
100
AcDbEntity
  8
実線
100
AcDbEllipse
 10
363.9443018819525
 20
928.2112939500271
 30
0.0
 11
0.0
 21
1.5
 31
0.0
210
0.0
220
0.0
230
1.0
 40
0.0511081772527003
 41
1.570796326794897
 42
3.14159265358979
  0
ELLIPSE
  5
1058
102
{ACAD_REACTORS
330
141A
102
}
330
1F
100
AcDbEntity
  8
実線
100
AcDbEllipse
 10
363.9443018819525
 20
928.2112939500271
 30
0.0
 11
0.0
 21
1.5
 31
0.0
210
0.0
220
0.0
230
1.0
 40
0.0511081772527003
 41
0.0
 42
1.570796326794897
  0
ELLIPSE
  5
1059
102
{ACAD_REACTORS
330
141A
102
}
330
1F
100
AcDbEntity
  8
実線
100
AcDbEllipse
 10
363.9443018819525
 20
945.7112939500271
 30
0.0
 11
0.0
 21
1.5
 31
0.0
210
0.0
220
0.0
230
1.0
 40
0.0511081772527003
 41
0.0
 42
1.570796326794897
  0
LINE
  5
105A
102
{ACAD_REACTORS
330
141A
102
}
330
1F
100
AcDbEntity
  8
実線
100
AcDbLine
 10
362.2443848970866
 20
944.2112939500271
 30
0.0
 11
363.9443018819525
 21
944.2112939500271
 31
0.0
  0
LINE
  5
105B
102
{ACAD_REACTORS
330
141A
102
}
330
1F
100
AcDbEntity
  8
実線
100
AcDbLine
 10
363.9443018819525
 20
947.211293950027
 30
0.0
 11
362.2443848970866
 21
947.211293950027
 31
0.0
  0
ELLIPSE
  5
105C
102
{ACAD_REACTORS
330
141A
102
}
330
1F
100
AcDbEntity
  8
実線
100
AcDbEllipse
 10
363.9443018819525
 20
945.7112939500271
 30
0.0
 11
0.0
 21
1.5
 31
0.0
210
0.0
220
0.0
230
1.0
 40
0.0511081772527003
 41
3.14159265358979
 42
6.283185307179585
  0
ELLIPSE
  5
105D
102
{ACAD_REACTORS
330
141A
102
}
330
1F
100
AcDbEntity
  8
実線
100
AcDbEllipse
 10
363.9443018819525
 20
945.7112939500271
 30
0.0
 11
0.0
 21
1.5
 31
0.0
210
0.0
220
0.0
230
1.0
 40
0.0511081772527003
 41
1.570796326794897
 42
3.14159265358979
  0
LINE
  5
105E
102
{ACAD_REACTORS
330
141A
102
}
330
1F
100
AcDbEntity
  8
実線
100
AcDbLine
 10
325.9003038484138
 20
947.4112939500269
 30
0.0
 11
325.9003038484138
 21
937.4112939500269
 31
0.0
  0
LINE
  5
105F
102
{ACAD_REACTORS
330
141A
102
}
330
1F
100
AcDbEntity
  8
実線
100
AcDbLine
 10
332.2222613900212
 20
947.4112939500269
 30
0.0
 11
325.9003038484138
 21
947.4112939500269
 31
0.0
  0
LINE
  5
1060
102
{ACAD_REACTORS
330
141A
102
}
330
1F
100
AcDbEntity
  8
実線
100
AcDbLine
 10
332.2222613900212
 20
937.4112939500269
 30
0.0
 11
325.9003038484138
 21
937.4112939500269
 31
0.0
  0
LINE
  5
1061
102
{ACAD_REACTORS
330
141A
102
}
330
1F
100
AcDbEntity
  8
実線
100
AcDbLine
 10
351.9003038484147
 20
311.011293950027
 30
0.0
 11
325.9003038484148
 21
311.011293950027
 31
0.0
  0
LINE
  5
1062
102
{ACAD_REACTORS
330
141A
102
}
330
1F
100
AcDbEntity
  8
実線
100
AcDbLine
 10
325.9003038484148
 20
321.011293950027
 30
0.0
 11
325.9003038484148
 21
311.011293950027
 31
0.0
  0
LINE
  5
1063
102
{ACAD_REACTORS
330
141A
102
}
330
1F
100
AcDbEntity
  8
実線
100
AcDbLine
 10
351.9003038484147
 20
311.011293950027
 30
0.0
 11
351.9003038484147
 21
321.011293950027
 31
0.0
  0
LINE
  5
1064
102
{ACAD_REACTORS
330
141A
102
}
330
1F
100
AcDbEntity
  8
実線
100
AcDbLine
 10
325.9003038484148
 20
321.011293950027
 30
0.0
 11
351.9003038484147
 21
321.011293950027
 31
0.0
  0
ELLIPSE
  5
1065
102
{ACAD_REACTORS
330
141A
102
}
330
1F
100
AcDbEntity
  8
実線
100
AcDbEllipse
 10
357.0403789257434
 20
312.711293950027
 30
0.0
 11
0.0
 21
1.5
 31
0.0
210
0.0
220
0.0
230
1.0
 40
0.9986931231453969
 41
0.0
 42
1.570796326794897
  0
LINE
  5
1066
102
{ACAD_REACTORS
330
141A
102
}
330
1F
100
AcDbEntity
  8
実線
100
AcDbLine
 10
356.7081757736009
 20
311.211293950027
 30
0.0
 11
357.0403789257434
 21
311.211293950027
 31
0.0
  0
LINE
  5
1067
102
{ACAD_REACTORS
330
141A
102
}
330
1F
100
AcDbEntity
  8
実線
100
AcDbLine
 10
357.0403789257434
 20
314.211293950027
 30
0.0
 11
356.7081757736009
 21
314.211293950027
 31
0.0
  0
ELLIPSE
  5
1068
102
{ACAD_REACTORS
330
141A
102
}
330
1F
100
AcDbEntity
  8
実線
100
AcDbEllipse
 10
357.0403789257434
 20
312.711293950027
 30
0.0
 11
0.0
 21
1.5
 31
0.0
210
0.0
220
0.0
230
1.0
 40
0.9986931231453969
 41
3.141592653589792
 42
6.283185307179585
  0
ELLIPSE
  5
1069
102
{ACAD_REACTORS
330
141A
102
}
330
1F
100
AcDbEntity
  8
実線
100
AcDbEllipse
 10
357.0403789257434
 20
312.711293950027
 30
0.0
 11
0.0
 21
1.5
 31
0.0
210
0.0
220
0.0
230
1.0
 40
0.9986931231453969
 41
1.570796326794897
 42
3.141592653589792
  0
ELLIPSE
  5
106A
102
{ACAD_REACTORS
330
141A
102
}
330
1F
100
AcDbEntity
  8
実線
100
AcDbEllipse
 10
356.7081757736009
 20
312.711293950027
 30
0.0
 11
0.0
 21
1.5
 31
0.0
210
0.0
220
0.0
230
1.0
 40
0.9986931231453969
 41
0.0
 42
3.141592653589792
  0
LINE
  5
106B
102
{ACAD_REACTORS
330
141A
102
}
330
1F
100
AcDbEntity
  8
実線
100
AcDbLine
 10
360.653013610025
 20
308.761293950027
 30
0.0
 11
351.9849800674315
 21
308.761293950027
 31
0.0
  0
LINE
  5
106C
102
{ACAD_REACTORS
330
141A
102
}
330
1F
100
AcDbEntity
  8
実線
100
AcDbLine
 10
360.653013610025
 20
316.661293950027
 30
0.0
 11
360.653013610025
 21
308.7612939500269
 31
0.0
  0
LINE
  5
106D
102
{ACAD_REACTORS
330
141A
102
}
330
1F
100
AcDbEntity
  8
実線
100
AcDbLine
 10
360.653013610025
 20
316.661293950027
 30
0.0
 11
351.9849800674315
 21
316.661293950027
 31
0.0
  0
LINE
  5
106E
102
{ACAD_REACTORS
330
141A
102
}
330
1F
100
AcDbEntity
  8
実線
100
AcDbLine
 10
353.2626844987494
 20
308.761293950027
 30
0.0
 11
353.2626844987494
 21
316.661293950027
 31
0.0
  0
LINE
  5
106F
102
{ACAD_REACTORS
330
141A
102
}
330
1F
100
AcDbEntity
  8
実線
100
AcDbLine
 10
351.9849800674315
 20
316.661293950027
 30
0.0
 11
351.9849800674315
 21
308.7612939500269
 31
0.0
  0
LINE
  5
1070
102
{ACAD_REACTORS
330
141A
102
}
330
1F
100
AcDbEntity
  8
実線
100
AcDbLine
 10
360.653013610025
 20
334.161293950027
 30
0.0
 11
351.9849800674315
 21
334.161293950027
 31
0.0
  0
LINE
  5
1071
102
{ACAD_REACTORS
330
141A
102
}
330
1F
100
AcDbEntity
  8
実線
100
AcDbLine
 10
360.653013610025
 20
326.261293950027
 30
0.0
 11
351.9849800674315
 21
326.261293950027
 31
0.0
  0
LINE
  5
1072
102
{ACAD_REACTORS
330
141A
102
}
330
1F
100
AcDbEntity
  8
実線
100
AcDbLine
 10
360.653013610025
 20
334.161293950027
 30
0.0
 11
360.653013610025
 21
326.261293950027
 31
0.0
  0
LINE
  5
1073
102
{ACAD_REACTORS
330
141A
102
}
330
1F
100
AcDbEntity
  8
実線
100
AcDbLine
 10
353.2626844987494
 20
326.261293950027
 30
0.0
 11
353.2626844987494
 21
334.161293950027
 31
0.0
  0
LINE
  5
1074
102
{ACAD_REACTORS
330
141A
102
}
330
1F
100
AcDbEntity
  8
実線
100
AcDbLine
 10
351.9849800674315
 20
334.161293950027
 30
0.0
 11
351.9849800674315
 21
326.261293950027
 31
0.0
  0
LINE
  5
1075
102
{ACAD_REACTORS
330
141A
102
}
330
1F
100
AcDbEntity
  8
実線
100
AcDbLine
 10
356.7081757736009
 20
328.711293950027
 30
0.0
 11
357.0403789257434
 21
328.711293950027
 31
0.0
  0
LINE
  5
1076
102
{ACAD_REACTORS
330
141A
102
}
330
1F
100
AcDbEntity
  8
実線
100
AcDbLine
 10
357.0403789257434
 20
331.711293950027
 30
0.0
 11
356.7081757736009
 21
331.711293950027
 31
0.0
  0
ELLIPSE
  5
1077
102
{ACAD_REACTORS
330
141A
102
}
330
1F
100
AcDbEntity
  8
実線
100
AcDbEllipse
 10
357.0403789257434
 20
330.211293950027
 30
0.0
 11
0.0
 21
1.5
 31
0.0
210
0.0
220
0.0
230
1.0
 40
0.9986931231453969
 41
3.141592653589792
 42
6.283185307179585
  0
ELLIPSE
  5
1078
102
{ACAD_REACTORS
330
141A
102
}
330
1F
100
AcDbEntity
  8
実線
100
AcDbEllipse
 10
357.0403789257434
 20
330.211293950027
 30
0.0
 11
0.0
 21
1.5
 31
0.0
210
0.0
220
0.0
230
1.0
 40
0.9986931231453969
 41
1.570796326794897
 42
3.141592653589792
  0
ELLIPSE
  5
1079
102
{ACAD_REACTORS
330
141A
102
}
330
1F
100
AcDbEntity
  8
実線
100
AcDbEllipse
 10
356.7081757736009
 20
330.211293950027
 30
0.0
 11
0.0
 21
1.5
 31
0.0
210
0.0
220
0.0
230
1.0
 40
0.9986931231453969
 41
0.0
 42
3.141592653589792
  0
ELLIPSE
  5
107A
102
{ACAD_REACTORS
330
141A
102
}
330
1F
100
AcDbEntity
  8
実線
100
AcDbEllipse
 10
357.0403789257434
 20
330.211293950027
 30
0.0
 11
0.0
 21
1.5
 31
0.0
210
0.0
220
0.0
230
1.0
 40
0.9986931231453969
 41
0.0
 42
1.570796326794897
  0
LINE
  5
107B
102
{ACAD_REACTORS
330
141A
102
}
330
1F
100
AcDbEntity
  8
実線
100
AcDbLine
 10
362.1069862440631
 20
305.711293950027
 30
0.0
 11
359.3753091787075
 21
305.711293950027
 31
0.0
  0
LINE
  5
107C
102
{ACAD_REACTORS
330
141A
102
}
330
1F
100
AcDbEntity
  8
実線
100
AcDbLine
 10
362.1069862440631
 20
337.711293950027
 30
0.0
 11
362.1069862440631
 21
305.711293950027
 31
0.0
  0
LINE
  5
107D
102
{ACAD_REACTORS
330
141A
102
}
330
1F
100
AcDbEntity
  8
実線
100
AcDbLine
 10
359.3753091787075
 20
308.761293950027
 30
0.0
 11
359.3753091787075
 21
305.711293950027
 31
0.0
  0
LINE
  5
107E
102
{ACAD_REACTORS
330
141A
102
}
330
1F
100
AcDbEntity
  8
実線
100
AcDbLine
 10
359.3753091787075
 20
326.261293950027
 30
0.0
 11
359.3753091787075
 21
316.661293950027
 31
0.0
  0
LINE
  5
107F
102
{ACAD_REACTORS
330
141A
102
}
330
1F
100
AcDbEntity
  8
実線
100
AcDbLine
 10
359.3753091787075
 20
336.511293950027
 30
0.0
 11
359.3753091787075
 21
334.161293950027
 31
0.0
  0
LINE
  5
1080
102
{ACAD_REACTORS
330
141A
102
}
330
1F
100
AcDbEntity
  8
実線
100
AcDbLine
 10
360.9085544962886
 20
305.711293950027
 30
0.0
 11
360.9085544962886
 21
337.711293950027
 31
0.0
  0
ELLIPSE
  5
1081
102
{ACAD_REACTORS
330
141A
102
}
330
1F
100
AcDbEntity
  8
実線
100
AcDbEllipse
 10
306.0198385232393
 20
629.2112939500269
 30
0.0
 11
0.0
 21
10.85000000000002
 31
0.0
210
0.0
220
0.0
230
1.0
 40
0.7071067811865475
 41
3.141592683392116
 42
6.283185322080746
  0
LINE
  5
1082
102
{ACAD_REACTORS
330
141A
102
}
330
1F
100
AcDbEntity
  8
実線
100
AcDbLine
 10
305.834083698172
 20
618.3612939500269
 30
0.0
 11
306.0198385232393
 21
618.3612939500269
 31
0.0
  0
LINE
  5
1083
102
{ACAD_REACTORS
330
141A
102
}
330
1F
100
AcDbEntity
  8
実線
100
AcDbLine
 10
306.0198385232393
 20
640.061293950027
 30
0.0
 11
305.834083698172
 21
640.061293950027
 31
0.0
  0
ELLIPSE
  5
1084
102
{ACAD_REACTORS
330
141A
102
}
330
1F
100
AcDbEntity
  8
実線
100
AcDbEllipse
 10
295.059683414848
 20
629.2112939500269
 30
0.0
 11
0.0
 21
17.0
 31
0.0
210
0.0
220
0.0
230
1.0
 40
0.7071067811865475
 41
3.141592653589792
 42
6.283185307179585
  0
ELLIPSE
  5
1085
102
{ACAD_REACTORS
330
141A
102
}
330
1F
100
AcDbEntity
  8
実線
100
AcDbEllipse
 10
296.579962994399
 20
629.2112939500269
 30
0.0
 11
0.0
 21
17.0
 31
0.0
210
0.0
220
0.0
230
1.0
 40
0.7071067811865475
 41
3.141592653589792
 42
6.283185307179585
  0
LINE
  5
1086
102
{ACAD_REACTORS
330
141A
102
}
330
1F
100
AcDbEntity
  8
実線
100
AcDbLine
 10
295.059683414848
 20
612.211293950027
 30
0.0
 11
296.579962994399
 21
612.211293950027
 31
0.0
  0
LINE
  5
1087
102
{ACAD_REACTORS
330
141A
102
}
330
1F
100
AcDbEntity
  8
実線
100
AcDbLine
 10
296.579962994399
 20
646.2112939500269
 30
0.0
 11
295.059683414848
 21
646.2112939500269
 31
0.0
  0
ELLIPSE
  5
1088
102
{ACAD_REACTORS
330
141A
102
}
330
1F
100
AcDbEntity
  8
実線
100
AcDbEllipse
 10
295.059683414848
 20
629.2112939500269
 30
0.0
 11
0.0
 21
17.0
 31
0.0
210
0.0
220
0.0
230
1.0
 40
0.7071067811865475
 41
0.0
 42
3.141592653589792
  0
LINE
  5
1089
102
{ACAD_REACTORS
330
141A
102
}
330
1F
100
AcDbEntity
  8
実線
100
AcDbLine
 10
320.7949869497789
 20
640.211293950027
 30
0.0
 11
317.2967316602876
 21
640.211293950027
 31
0.0
  0
LINE
  5
108A
102
{ACAD_REACTORS
330
141A
102
}
330
1F
100
AcDbEntity
  8
実線
100
AcDbLine
 10
317.2967316602876
 20
618.2112939500269
 30
0.0
 11
331.116547425494
 21
618.2112939500269
 31
0.0
  0
CIRCLE
  5
108B
102
{ACAD_REACTORS
330
141A
102
}
330
1F
100
AcDbEntity
  8
実線
100
AcDbCircle
 10
338.9003038484138
 20
657.811293950027
 30
0.0
 40
25.25
  0
LINE
  5
108C
102
{ACAD_REACTORS
330
141A
102
}
330
1F
100
AcDbEntity
  8
実線
100
AcDbLine
 10
385.8774736172977
 20
581.561293950027
 30
0.0
 11
403.8003038484139
 21
581.561293950027
 31
0.0
  0
LINE
  5
108D
102
{ACAD_REACTORS
330
141A
102
}
330
1F
100
AcDbEntity
  8
実線
100
AcDbLine
 10
403.8003038484139
 20
581.561293950027
 30
0.0
 11
406.1503038484138
 21
575.3612939500269
 31
0.0
  0
LINE
  5
108E
102
{ACAD_REACTORS
330
141A
102
}
330
1F
100
AcDbEntity
  8
実線
100
AcDbLine
 10
403.8003038484139
 20
604.2952693382058
 30
0.0
 11
403.8003038484139
 21
581.561293950027
 31
0.0
  0
LINE
  5
108F
102
{ACAD_REACTORS
330
141A
102
}
330
1F
100
AcDbEntity
  8
実線
100
AcDbLine
 10
406.1503038484138
 20
575.3612939500269
 30
0.0
 11
408.9003038484138
 21
575.3612939500269
 31
0.0
  0
LINE
  5
1090
102
{ACAD_REACTORS
330
141A
102
}
330
1F
100
AcDbEntity
  8
実線
100
AcDbLine
 10
408.9003038484138
 20
611.5077585063086
 30
0.0
 11
408.9003038484138
 21
575.3612939500269
 31
0.0
  0
LINE
  5
1091
102
{ACAD_REACTORS
330
141A
102
}
330
1F
100
AcDbEntity
  8
実線
100
AcDbLine
 10
406.1503038484138
 20
607.6186712097825
 30
0.0
 11
406.1503038484138
 21
575.3612939500269
 31
0.0
  0
LINE
  5
1092
102
{ACAD_REACTORS
330
141A
102
}
330
1F
100
AcDbEntity
  8
実線
100
AcDbLine
 10
274.000303848414
 20
581.561293950027
 30
0.0
 11
291.92313407953
 21
581.561293950027
 31
0.0
  0
LINE
  5
1093
102
{ACAD_REACTORS
330
141A
102
}
330
1F
100
AcDbEntity
  8
実線
100
AcDbLine
 10
285.1148983492974
 20
619.661293950027
 30
0.0
 11
274.000303848414
 21
619.661293950027
 31
0.0
  0
LINE
  5
1094
102
{ACAD_REACTORS
330
141A
102
}
330
1F
100
AcDbEntity
  8
実線
100
AcDbLine
 10
268.9003038484139
 20
625.8612939500269
 30
0.0
 11
268.9003038484139
 21
575.3612939500269
 31
0.0
  0
LINE
  5
1095
102
{ACAD_REACTORS
330
141A
102
}
330
1F
100
AcDbEntity
  8
実線
100
AcDbLine
 10
268.9003038484139
 20
575.3612939500269
 30
0.0
 11
271.6503038484138
 21
575.3612939500269
 31
0.0
  0
LINE
  5
1096
102
{ACAD_REACTORS
330
141A
102
}
330
1F
100
AcDbEntity
  8
実線
100
AcDbLine
 10
271.6503038484138
 20
625.8612939500269
 30
0.0
 11
268.9003038484139
 21
625.8612939500269
 31
0.0
  0
LINE
  5
1097
102
{ACAD_REACTORS
330
141A
102
}
330
1F
100
AcDbEntity
  8
実線
100
AcDbLine
 10
271.6503038484138
 20
625.8612939500269
 30
0.0
 11
271.6503038484138
 21
575.3612939500269
 31
0.0
  0
LINE
  5
1098
102
{ACAD_REACTORS
330
141A
102
}
330
1F
100
AcDbEntity
  8
実線
100
AcDbLine
 10
274.000303848414
 20
619.661293950027
 30
0.0
 11
274.000303848414
 21
581.561293950027
 31
0.0
  0
LINE
  5
1099
102
{ACAD_REACTORS
330
141A
102
}
330
1F
100
AcDbEntity
  8
実線
100
AcDbLine
 10
274.000303848414
 20
619.661293950027
 30
0.0
 11
271.6503038484138
 21
625.8612939500269
 31
0.0
  0
LINE
  5
109A
102
{ACAD_REACTORS
330
141A
102
}
330
1F
100
AcDbEntity
  8
実線
100
AcDbLine
 10
271.6503038484138
 20
575.3612939500269
 30
0.0
 11
274.000303848414
 21
581.561293950027
 31
0.0
  0
LINE
  5
109B
102
{ACAD_REACTORS
330
141A
102
}
330
1F
100
AcDbEntity
  8
実線
100
AcDbLine
 10
362.7248017632619
 20
921.9112939500268
 30
0.0
 11
362.2443848970866
 21
921.9112939500268
 31
0.0
  0
LINE
  5
109C
102
{ACAD_REACTORS
330
141A
102
}
330
1F
100
AcDbEntity
  8
実線
100
AcDbLine
 10
362.7248017632619
 20
920.7112939500271
 30
0.0
 11
362.7248017632619
 21
921.9112939500268
 31
0.0
  0
LINE
  5
109D
102
{ACAD_REACTORS
330
141A
102
}
330
1F
100
AcDbEntity
  8
実線
100
AcDbLine
 10
316.3723334964925
 20
641.7112939500269
 30
0.0
 11
306.0198385232393
 21
641.7112939500269
 31
0.0
  0
LINE
  5
109E
102
{ACAD_REACTORS
330
141A
102
}
330
1F
100
AcDbEntity
  8
実線
100
AcDbLine
 10
306.0198385232393
 20
616.7112939500269
 30
0.0
 11
316.3723334964925
 21
616.7112939500269
 31
0.0
  0
ELLIPSE
  5
109F
102
{ACAD_REACTORS
330
141A
102
}
330
1F
100
AcDbEntity
  8
実線
100
AcDbEllipse
 10
306.0198385232393
 20
629.2112939500269
 30
0.0
 11
0.0
 21
12.5
 31
0.0
210
0.0
220
0.0
230
1.0
 40
0.7071067811865476
 41
0.0
 42
0.1366722845325741
  0
ELLIPSE
  5
10A0
102
{ACAD_REACTORS
330
141A
102
}
330
1F
100
AcDbEntity
  8
実線
100
AcDbEllipse
 10
306.0198385232393
 20
629.2112939500269
 30
0.0
 11
0.0
 21
12.5
 31
0.0
210
0.0
220
0.0
230
1.0
 40
0.7071067811865476
 41
3.004920369057223
 42
3.141592653589792
  0
ELLIPSE
  5
10A1
102
{ACAD_REACTORS
330
141A
102
}
330
1F
100
AcDbEntity
  8
実線
100
AcDbEllipse
 10
306.0198385232393
 20
629.2112939500269
 30
0.0
 11
0.0
 21
12.5
 31
0.0
210
0.0
220
0.0
230
1.0
 40
0.7071067811865476
 41
4.71238898038469
 42
6.283185307179585
  0
ELLIPSE
  5
10A2
102
{ACAD_REACTORS
330
141A
102
}
330
1F
100
AcDbEntity
  8
実線
100
AcDbEllipse
 10
306.0198385232393
 20
629.2112939500269
 30
0.0
 11
0.0
 21
12.5
 31
0.0
210
0.0
220
0.0
230
1.0
 40
0.7071067811865476
 41
3.141592653589792
 42
4.71238898038469
  0
LINE
  5
10A3
102
{ACAD_REACTORS
330
141A
102
}
330
1F
100
AcDbEntity
  8
実線
100
AcDbLine
 10
298.9003038484148
 20
552.7112939500269
 30
0.0
 11
298.9003038484148
 21
407.2112939500271
 31
0.0
  0
LINE
  5
10A4
102
{ACAD_REACTORS
330
141A
102
}
330
1F
100
AcDbEntity
  8
実線
100
AcDbLine
 10
378.9003038484147
 20
407.211293950027
 30
0.0
 11
378.9003038484147
 21
552.7112939500269
 31
0.0
  0
LINE
  5
10A5
102
{ACAD_REACTORS
330
141A
102
}
330
1F
100
AcDbEntity
  8
実線
100
AcDbLine
 10
298.9003038484148
 20
407.211293950027
 30
0.0
 11
291.4003038484148
 21
399.711293950027
 31
0.0
  0
LINE
  5
10A6
102
{ACAD_REACTORS
330
141A
102
}
330
1F
100
AcDbEntity
  8
実線
100
AcDbLine
 10
386.4003038484148
 20
399.711293950027
 30
0.0
 11
378.9003038484147
 21
407.211293950027
 31
0.0
  0
LINE
  5
10A7
102
{ACAD_REACTORS
330
141A
102
}
330
1F
100
AcDbEntity
  8
実線
100
AcDbLine
 10
298.9003038484148
 20
407.211293950027
 30
0.0
 11
378.9003038484147
 21
407.211293950027
 31
0.0
  0
LINE
  5
10A8
102
{ACAD_REACTORS
330
141A
102
}
330
1F
100
AcDbEntity
  8
実線
100
AcDbLine
 10
386.4003038484148
 20
399.711293950027
 30
0.0
 11
291.4003038484148
 21
399.711293950027
 31
0.0
  0
LINE
  5
10A9
102
{ACAD_REACTORS
330
141A
102
}
330
1F
100
AcDbEntity
  8
実線
100
AcDbLine
 10
291.4003038484148
 20
399.711293950027
 30
0.0
 11
291.4003038484148
 21
342.711293950027
 31
0.0
  0
LINE
  5
10AA
102
{ACAD_REACTORS
330
141A
102
}
330
1F
100
AcDbEntity
  8
実線
100
AcDbLine
 10
386.4003038484148
 20
342.711293950027
 30
0.0
 11
386.4003038484148
 21
399.711293950027
 31
0.0
  0
LINE
  5
10AB
102
{ACAD_REACTORS
330
141A
102
}
330
1F
100
AcDbEntity
  8
実線
100
AcDbLine
 10
291.4003038484148
 20
342.711293950027
 30
0.0
 11
386.4003038484148
 21
342.711293950027
 31
0.0
  0
LINE
  5
10AC
102
{ACAD_REACTORS
330
141A
102
}
330
1F
100
AcDbEntity
  8
実線
100
AcDbLine
 10
331.7418445238459
 20
921.9112939500268
 30
0.0
 11
342.2091926214753
 21
921.9112939500268
 31
0.0
  0
LINE
  5
10AD
102
{ACAD_REACTORS
330
141A
102
}
330
1F
100
AcDbEntity
  8
実線
100
AcDbLine
 10
331.7418445238459
 20
920.7112939500271
 30
0.0
 11
331.7418445238459
 21
921.9112939500268
 31
0.0
  0
LINE
  5
10AE
102
{ACAD_REACTORS
330
141A
102
}
330
1F
100
AcDbEntity
  8
実線
100
AcDbLine
 10
342.2091926214753
 20
920.7112939500271
 30
0.0
 11
342.2091926214753
 21
921.9112939500268
 31
0.0
  0
LINE
  5
10AF
102
{ACAD_REACTORS
330
141A
102
}
330
1F
100
AcDbEntity
  8
実線
100
AcDbLine
 10
341.7287757552999
 20
920.7112939500271
 30
0.0
 11
341.7287757552999
 21
921.9112939500268
 31
0.0
  0
LINE
  5
10B0
102
{ACAD_REACTORS
330
141A
102
}
330
1F
100
AcDbEntity
  8
実線
100
AcDbLine
 10
385.8774736172977
 20
685.7112939500269
 30
0.0
 11
291.9231340795302
 21
685.7112939500269
 31
0.0
  0
LINE
  5
10B1
102
{ACAD_REACTORS
330
141A
102
}
330
1F
100
AcDbEntity
  8
実線
100
AcDbLine
 10
356.709079774906
 20
675.7112939500269
 30
0.0
 11
385.8774736172977
 21
675.7112939500269
 31
0.0
  0
LINE
  5
10B2
102
{ACAD_REACTORS
330
141A
102
}
330
1F
100
AcDbEntity
  8
実線
100
AcDbLine
 10
321.0915279219221
 20
675.7112939500269
 30
0.0
 11
291.92313407953
 21
675.7112939500269
 31
0.0
  0
LINE
  5
10B3
102
{ACAD_REACTORS
330
141A
102
}
330
1F
100
AcDbEntity
  8
実線
100
AcDbLine
 10
291.92313407953
 20
685.7112939500269
 30
0.0
 11
291.92313407953
 21
675.7112939500269
 31
0.0
  0
LINE
  5
10B4
102
{ACAD_REACTORS
330
141A
102
}
330
1F
100
AcDbEntity
  8
実線
100
AcDbLine
 10
385.8774736172977
 20
675.7112939500269
 30
0.0
 11
385.8774736172977
 21
685.7112939500269
 31
0.0
  0
LINE
  5
10B5
102
{ACAD_REACTORS
330
141A
102
}
330
1F
100
AcDbEntity
  8
実線
100
AcDbLine
 10
320.8714070379901
 20
685.7112939500269
 30
0.0
 11
320.8714070379901
 21
675.7112939500269
 31
0.0
  0
LINE
  5
10B6
102
{ACAD_REACTORS
330
141A
102
}
330
1F
100
AcDbEntity
  8
実線
100
AcDbLine
 10
356.929200658838
 20
685.7112939500269
 30
0.0
 11
356.929200658838
 21
675.7112939500269
 31
0.0
  0
LINE
  5
10B7
102
{ACAD_REACTORS
330
141A
102
}
330
1F
100
AcDbEntity
  8
実線
100
AcDbLine
 10
296.4003038484138
 20
920.7112939500271
 30
0.0
 11
381.4003038484139
 21
920.7112939500271
 31
0.0
  0
ARC
  5
10B8
102
{ACAD_REACTORS
330
141A
102
}
330
1F
100
AcDbEntity
  8
実線
100
AcDbCircle
 10
381.4003038484139
 20
915.7112939500271
 30
0.0
 40
5.0
100
AcDbArc
 50
0.0
 51
90.0
  0
ARC
  5
10B9
102
{ACAD_REACTORS
330
141A
102
}
330
1F
100
AcDbEntity
  8
実線
100
AcDbCircle
 10
296.4003038484138
 20
915.7112939500271
 30
0.0
 40
5.0
100
AcDbArc
 50
90.0
 51
180.0
  0
LINE
  5
10BA
102
{ACAD_REACTORS
330
141A
102
}
330
1F
100
AcDbEntity
  8
実線
100
AcDbLine
 10
296.4003038484147
 20
337.711293950027
 30
0.0
 11
381.4003038484147
 21
337.711293950027
 31
0.0
  0
ARC
  5
10BB
102
{ACAD_REACTORS
330
141A
102
}
330
1F
100
AcDbEntity
  8
実線
100
AcDbCircle
 10
296.4003038484147
 20
342.711293950027
 30
0.0
 40
5.0
100
AcDbArc
 50
180.0
 51
270.0
  0
ARC
  5
10BC
102
{ACAD_REACTORS
330
141A
102
}
330
1F
100
AcDbEntity
  8
実線
100
AcDbCircle
 10
381.4003038484147
 20
342.711293950027
 30
0.0
 40
5.0
100
AcDbArc
 50
270.0
 51
0.0
  0
LINE
  5
10BD
102
{ACAD_REACTORS
330
141A
102
}
330
1F
100
AcDbEntity
  8
実線
100
AcDbLine
 10
366.6666817228188
 20
599.512809140192
 30
0.0
 11
371.7807691735884
 21
599.512809140192
 31
0.0
  0
LINE
  5
10BE
102
{ACAD_REACTORS
330
141A
102
}
330
1F
100
AcDbEntity
  8
実線
100
AcDbLine
 10
366.6666817228188
 20
658.9097787598619
 30
0.0
 11
371.7807691735884
 21
658.9097787598619
 31
0.0
  0
LINE
  5
10BF
102
{ACAD_REACTORS
330
141A
102
}
330
1F
100
AcDbEntity
  8
実線
100
AcDbLine
 10
295.6264402410377
 20
646.2112939500269
 30
0.0
 11
300.9838671859284
 21
653.7878397949145
 31
0.0
  0
LINE
  5
10C0
102
{ACAD_REACTORS
330
141A
102
}
330
1F
100
AcDbEntity
  8
実線
100
AcDbLine
 10
350.7807691735884
 20
629.2112939500269
 30
0.0
 11
337.9003038484138
 21
629.2112939500269
 31
0.0
  0
LINE
  5
10C1
102
{ACAD_REACTORS
330
141A
102
}
330
1F
100
AcDbEntity
  8
実線
100
AcDbLine
 10
291.92313407953
 20
572.7112939500269
 30
0.0
 11
385.8774736172977
 21
572.7112939500269
 31
0.0
  0
LINE
  5
10C2
102
{ACAD_REACTORS
330
141A
102
}
330
1F
100
AcDbEntity
  8
実線
100
AcDbLine
 10
291.92313407953
 20
582.711293950027
 30
0.0
 11
385.8774736172977
 21
582.711293950027
 31
0.0
  0
LINE
  5
10C3
102
{ACAD_REACTORS
330
141A
102
}
330
1F
100
AcDbEntity
  8
実線
100
AcDbLine
 10
385.8774736172977
 20
572.7112939500269
 30
0.0
 11
385.8774736172977
 21
582.711293950027
 31
0.0
  0
LINE
  5
10C4
102
{ACAD_REACTORS
330
141A
102
}
330
1F
100
AcDbEntity
  8
実線
100
AcDbLine
 10
291.92313407953
 20
582.711293950027
 30
0.0
 11
291.92313407953
 21
572.7112939500269
 31
0.0
  0
LINE
  5
10C5
102
{ACAD_REACTORS
330
141A
102
}
330
1F
100
AcDbEntity
  8
実線
100
AcDbLine
 10
356.929200658838
 20
572.7112939500269
 30
0.0
 11
356.929200658838
 21
582.711293950027
 31
0.0
  0
LINE
  5
10C6
102
{ACAD_REACTORS
330
141A
102
}
330
1F
100
AcDbEntity
  8
実線
100
AcDbLine
 10
320.8714070379901
 20
572.7112939500269
 30
0.0
 11
320.8714070379901
 21
582.711293950027
 31
0.0
  0
LINE
  5
10C7
102
{ACAD_REACTORS
330
141A
102
}
330
1F
100
AcDbEntity
  8
実線
100
AcDbLine
 10
378.9003038484139
 20
705.7112939500269
 30
0.0
 11
378.9003038484139
 21
851.2112939500269
 31
0.0
  0
LINE
  5
10C8
102
{ACAD_REACTORS
330
141A
102
}
330
1F
100
AcDbEntity
  8
実線
100
AcDbLine
 10
298.9003038484138
 20
851.2112939500269
 30
0.0
 11
298.9003038484138
 21
705.7112939500269
 31
0.0
  0
LINE
  5
10C9
102
{ACAD_REACTORS
330
141A
102
}
330
1F
100
AcDbEntity
  8
実線
100
AcDbLine
 10
378.9003038484139
 20
851.2112939500269
 30
0.0
 11
386.4003038484138
 21
858.711293950027
 31
0.0
  0
LINE
  5
10CA
102
{ACAD_REACTORS
330
141A
102
}
330
1F
100
AcDbEntity
  8
実線
100
AcDbLine
 10
291.4003038484139
 20
858.711293950027
 30
0.0
 11
298.9003038484138
 21
851.2112939500269
 31
0.0
  0
LINE
  5
10CB
102
{ACAD_REACTORS
330
141A
102
}
330
1F
100
AcDbEntity
  8
実線
100
AcDbLine
 10
378.9003038484139
 20
851.2112939500269
 30
0.0
 11
298.9003038484138
 21
851.2112939500269
 31
0.0
  0
LINE
  5
10CC
102
{ACAD_REACTORS
330
141A
102
}
330
1F
100
AcDbEntity
  8
実線
100
AcDbLine
 10
291.4003038484139
 20
858.711293950027
 30
0.0
 11
386.4003038484138
 21
858.711293950027
 31
0.0
  0
LINE
  5
10CD
102
{ACAD_REACTORS
330
141A
102
}
330
1F
100
AcDbEntity
  8
実線
100
AcDbLine
 10
386.4003038484138
 20
858.711293950027
 30
0.0
 11
386.4003038484138
 21
915.7112939500271
 31
0.0
  0
LINE
  5
10CE
102
{ACAD_REACTORS
330
141A
102
}
330
1F
100
AcDbEntity
  8
実線
100
AcDbLine
 10
291.4003038484139
 20
915.7112939500271
 30
0.0
 11
291.4003038484139
 21
858.711293950027
 31
0.0
  0
LINE
  5
10CF
102
{ACAD_REACTORS
330
141A
102
}
330
1F
100
AcDbEntity
  8
実線
100
AcDbLine
 10
386.4003038484138
 20
915.7112939500271
 30
0.0
 11
291.4003038484139
 21
915.7112939500271
 31
0.0
  0
LINE
  5
10D0
102
{ACAD_REACTORS
330
141A
102
}
330
1F
100
AcDbEntity
  8
実線
100
AcDbLine
 10
304.2592876970366
 20
646.5292616472718
 30
0.0
 11
307.0409426439878
 21
641.7112939500269
 31
0.0
  0
LINE
  5
10D1
102
{ACAD_REACTORS
330
141A
102
}
330
1F
100
AcDbEntity
  8
実線
100
AcDbLine
 10
378.9003038484139
 20
666.5292616472718
 30
0.0
 11
378.9003038484139
 21
675.7112939500269
 31
0.0
  0
LINE
  5
10D2
102
{ACAD_REACTORS
330
141A
102
}
330
1F
100
AcDbEntity
  8
実線
100
AcDbLine
 10
298.9003038484138
 20
675.7112939500269
 30
0.0
 11
298.9003038484138
 21
666.5292616472718
 31
0.0
  0
ARC
  5
10D3
102
{ACAD_REACTORS
330
141A
102
}
330
1F
100
AcDbEntity
  8
実線
100
AcDbCircle
 10
338.9003038484138
 20
666.5292616472718
 30
0.0
 40
40.0
100
AcDbArc
 50
180.0
 51
209.9999999999952
  0
ARC
  5
10D4
102
{ACAD_REACTORS
330
141A
102
}
330
1F
100
AcDbEntity
  8
実線
100
AcDbCircle
 10
338.9003038484138
 20
666.5292616472718
 30
0.0
 40
40.0
100
AcDbArc
 50
349.0187894681048
 51
0.0
  0
LINE
  5
10D5
102
{ACAD_REACTORS
330
141A
102
}
330
1F
100
AcDbEntity
  8
実線
100
AcDbLine
 10
385.8774736172986
 20
559.7112939500269
 30
0.0
 11
385.8774736172986
 21
572.7112939500269
 31
0.0
  0
LINE
  5
10D6
102
{ACAD_REACTORS
330
141A
102
}
330
1F
100
AcDbEntity
  8
実線
100
AcDbLine
 10
385.8774736172986
 20
559.7112939500269
 30
0.0
 11
356.9292006588389
 21
559.7112939500269
 31
0.0
  0
LINE
  5
10D7
102
{ACAD_REACTORS
330
141A
102
}
330
1F
100
AcDbEntity
  8
実線
100
AcDbLine
 10
291.9231340795309
 20
559.7112939500269
 30
0.0
 11
320.8714070379906
 21
559.7112939500269
 31
0.0
  0
LINE
  5
10D8
102
{ACAD_REACTORS
330
141A
102
}
330
1F
100
AcDbEntity
  8
実線
100
AcDbLine
 10
291.9231340795309
 20
572.7112939500269
 30
0.0
 11
291.9231340795309
 21
559.7112939500269
 31
0.0
  0
LINE
  5
10D9
102
{ACAD_REACTORS
330
141A
102
}
330
1F
100
AcDbEntity
  8
実線
100
AcDbLine
 10
356.9292006588389
 20
559.7112939500269
 30
0.0
 11
356.9292006588389
 21
572.7112939500269
 31
0.0
  0
LINE
  5
10DA
102
{ACAD_REACTORS
330
141A
102
}
330
1F
100
AcDbEntity
  8
実線
100
AcDbLine
 10
320.8714070379906
 20
559.7112939500269
 30
0.0
 11
320.8714070379906
 21
572.7112939500269
 31
0.0
  0
LINE
  5
10DB
102
{ACAD_REACTORS
330
141A
102
}
330
1F
100
AcDbEntity
  8
実線
100
AcDbLine
 10
378.9003038484147
 20
552.7112939500269
 30
0.0
 11
298.9003038484148
 21
552.7112939500269
 31
0.0
  0
LINE
  5
10DC
102
{ACAD_REACTORS
330
141A
102
}
330
1F
100
AcDbEntity
  8
実線
100
AcDbLine
 10
378.9003038484147
 20
552.7112939500269
 30
0.0
 11
378.9003038484147
 21
559.7112939500269
 31
0.0
  0
LINE
  5
10DD
102
{ACAD_REACTORS
330
141A
102
}
330
1F
100
AcDbEntity
  8
実線
100
AcDbLine
 10
298.9003038484148
 20
559.7112939500269
 30
0.0
 11
298.9003038484148
 21
552.7112939500269
 31
0.0
  0
LINE
  5
10DE
102
{ACAD_REACTORS
330
141A
102
}
330
1F
100
AcDbEntity
  8
実線
100
AcDbLine
 10
351.0097573661947
 20
336.511293950027
 30
0.0
 11
360.9085544962886
 21
336.511293950027
 31
0.0
  0
LINE
  5
10DF
102
{ACAD_REACTORS
330
141A
102
}
330
1F
100
AcDbEntity
  8
実線
100
AcDbLine
 10
351.0097573661947
 20
337.711293950027
 30
0.0
 11
351.0097573661947
 21
336.511293950027
 31
0.0
  0
LINE
  5
10E0
102
{ACAD_REACTORS
330
141A
102
}
330
1F
100
AcDbEntity
  8
実線
100
AcDbLine
 10
351.5208391387218
 20
337.711293950027
 30
0.0
 11
351.5208391387218
 21
336.511293950027
 31
0.0
  0
LINE
  5
10E1
102
{ACAD_REACTORS
330
141A
102
}
330
1F
100
AcDbEntity
  8
実線
100
AcDbLine
 10
291.92313407953
 20
698.711293950027
 30
0.0
 11
291.92313407953
 21
685.7112939500269
 31
0.0
  0
LINE
  5
10E2
102
{ACAD_REACTORS
330
141A
102
}
330
1F
100
AcDbEntity
  8
実線
100
AcDbLine
 10
291.92313407953
 20
698.711293950027
 30
0.0
 11
320.8714070379897
 21
698.711293950027
 31
0.0
  0
LINE
  5
10E3
102
{ACAD_REACTORS
330
141A
102
}
330
1F
100
AcDbEntity
  8
実線
100
AcDbLine
 10
385.8774736172977
 20
698.711293950027
 30
0.0
 11
356.929200658838
 21
698.711293950027
 31
0.0
  0
LINE
  5
10E4
102
{ACAD_REACTORS
330
141A
102
}
330
1F
100
AcDbEntity
  8
実線
100
AcDbLine
 10
385.8774736172977
 20
685.7112939500269
 30
0.0
 11
385.8774736172977
 21
698.711293950027
 31
0.0
  0
LINE
  5
10E5
102
{ACAD_REACTORS
330
141A
102
}
330
1F
100
AcDbEntity
  8
実線
100
AcDbLine
 10
298.9003038484138
 20
705.7112939500269
 30
0.0
 11
378.9003038484139
 21
705.7112939500269
 31
0.0
  0
LINE
  5
10E6
102
{ACAD_REACTORS
330
141A
102
}
330
1F
100
AcDbEntity
  8
実線
100
AcDbLine
 10
320.8714070379897
 20
698.711293950027
 30
0.0
 11
320.8714070379897
 21
685.7112939500269
 31
0.0
  0
LINE
  5
10E7
102
{ACAD_REACTORS
330
141A
102
}
330
1F
100
AcDbEntity
  8
実線
100
AcDbLine
 10
356.929200658838
 20
698.711293950027
 30
0.0
 11
356.929200658838
 21
685.7112939500269
 31
0.0
  0
LINE
  5
10E8
102
{ACAD_REACTORS
330
141A
102
}
330
1F
100
AcDbEntity
  8
実線
100
AcDbLine
 10
298.900303848414
 20
705.7112939500269
 30
0.0
 11
298.900303848414
 21
698.711293950027
 31
0.0
  0
LINE
  5
10E9
102
{ACAD_REACTORS
330
141A
102
}
330
1F
100
AcDbEntity
  8
実線
100
AcDbLine
 10
378.9003038484139
 20
698.711293950027
 30
0.0
 11
378.9003038484139
 21
705.7112939500269
 31
0.0
  0
LINE
  5
10EA
102
{ACAD_REACTORS
330
141A
102
}
330
1F
100
AcDbEntity
  8
実線
100
AcDbLine
 10
362.1069862440631
 20
336.511293950027
 30
0.0
 11
370.472538056576
 21
336.511293950027
 31
0.0
  0
LINE
  5
10EB
102
{ACAD_REACTORS
330
141A
102
}
330
1F
100
AcDbEntity
  8
実線
100
AcDbLine
 10
370.4725380565756
 20
337.711293950027
 30
0.0
 11
370.4725380565756
 21
336.511293950027
 31
0.0
  0
LINE
  5
10EC
102
{ACAD_REACTORS
330
141B
102
}
330
1F
100
AcDbEntity
  8
実線
100
AcDbLine
 10
180.3387254614886
 20
647.2112939500268
 30
0.0
 11
180.3387254614886
 21
653.7112939500268
 31
0.0
  0
LINE
  5
10ED
102
{ACAD_REACTORS
330
141B
102
}
330
1F
100
AcDbEntity
  8
実線
100
AcDbLine
 10
177.3387254614886
 20
653.7112939500268
 30
0.0
 11
177.3387254614886
 21
647.2112939500268
 31
0.0
  0
LINE
  5
10EE
102
{ACAD_REACTORS
330
141B
102
}
330
1F
100
AcDbEntity
  8
実線
100
AcDbLine
 10
180.3387254614886
 20
653.7112939500268
 30
0.0
 11
177.3387254614886
 21
653.7112939500268
 31
0.0
  0
LINE
  5
10EF
102
{ACAD_REACTORS
330
141B
102
}
330
1F
100
AcDbEntity
  8
実線
100
AcDbLine
 10
173.2525818901149
 20
647.2112939500268
 30
0.0
 11
184.4248690328622
 21
647.2112939500268
 31
0.0
  0
LINE
  5
10F0
102
{ACAD_REACTORS
330
141B
102
}
330
1F
100
AcDbEntity
  8
実線
100
AcDbLine
 10
173.2525818901149
 20
644.2112939500268
 30
0.0
 11
173.2525818901149
 21
647.2112939500268
 31
0.0
  0
LINE
  5
10F1
102
{ACAD_REACTORS
330
141B
102
}
330
1F
100
AcDbEntity
  8
実線
100
AcDbLine
 10
184.4248690328622
 20
644.2112939500268
 30
0.0
 11
184.4248690328622
 21
647.2112939500268
 31
0.0
  0
LINE
  5
10F2
102
{ACAD_REACTORS
330
141B
102
}
330
1F
100
AcDbEntity
  8
実線
100
AcDbLine
 10
178.8387254614886
 20
644.2112939500268
 30
0.0
 11
178.8387254614886
 21
647.2112939500268
 31
0.0
  0
LINE
  5
10F3
102
{ACAD_REACTORS
330
141B
102
}
330
1F
100
AcDbEntity
  8
実線
100
AcDbLine
 10
176.4688463433376
 20
622.2112939500269
 30
0.0
 11
188.4907330247447
 21
622.2112939500269
 31
0.0
  0
LINE
  5
10F4
102
{ACAD_REACTORS
330
141B
102
}
330
1F
100
AcDbEntity
  8
実線
100
AcDbLine
 10
188.4907330247447
 20
622.2112939500269
 30
0.0
 11
188.4907330247447
 21
644.2112939500269
 31
0.0
  0
LINE
  5
10F5
102
{ACAD_REACTORS
330
141B
102
}
330
1F
100
AcDbEntity
  8
実線
100
AcDbLine
 10
188.4907330247447
 20
644.2112939500268
 30
0.0
 11
170.8119920938454
 21
644.2112939500268
 31
0.0
  0
LINE
  5
10F6
102
{ACAD_REACTORS
330
141B
102
}
330
1F
100
AcDbEntity
  8
実線
100
AcDbLine
 10
171.1666168856145
 20
644.2112939500268
 30
0.0
 11
171.1666168856145
 21
643.7097787599535
 31
0.0
  0
LINE
  5
10F7
102
{ACAD_REACTORS
330
141B
102
}
330
1F
100
AcDbEntity
  8
実線
100
AcDbLine
 10
140.7684617123436
 20
612.2233258229392
 30
0.0
 11
136.3433379200278
 21
605.9652557406661
 31
0.0
  0
LINE
  5
10F8
102
{ACAD_REACTORS
330
141B
102
}
330
1F
100
AcDbEntity
  8
実線
100
AcDbLine
 10
138.1678920163733
 20
599.512809140192
 30
0.0
 11
160.4185938116436
 21
599.512809140192
 31
0.0
  0
LINE
  5
10F9
102
{ACAD_REACTORS
330
141B
102
}
330
1F
100
AcDbEntity
  8
実線
100
AcDbLine
 10
160.4185938116436
 20
599.512809140192
 30
0.0
 11
181.4185938116436
 21
629.211293950027
 31
0.0
  0
LINE
  5
10FA
102
{ACAD_REACTORS
330
141B
102
}
330
1F
100
AcDbEntity
  8
実線
100
AcDbLine
 10
154.7617395621512
 20
629.211293950027
 30
0.0
 11
181.4185938116436
 21
629.211293950027
 31
0.0
  0
LINE
  5
10FB
102
{ACAD_REACTORS
330
141B
102
}
330
1F
100
AcDbEntity
  8
実線
100
AcDbLine
 10
168.900303848414
 20
646.9148293937454
 30
0.0
 11
181.4185938116438
 21
629.211293950027
 31
0.0
  0
LINE
  5
10FC
102
{ACAD_REACTORS
330
141B
102
}
330
1F
100
AcDbEntity
  8
実線
100
AcDbLine
 10
88.90030384841475
 20
337.7112939500271
 30
0.0
 11
88.90030384841475
 21
321.0112939500271
 31
0.0
  0
LINE
  5
10FD
102
{ACAD_REACTORS
330
141B
102
}
330
1F
100
AcDbEntity
  8
実線
100
AcDbLine
 10
108.9003038484147
 20
321.0112939500271
 30
0.0
 11
108.9003038484147
 21
337.7112939500271
 31
0.0
  0
LINE
  5
10FE
102
{ACAD_REACTORS
330
141B
102
}
330
1F
100
AcDbEntity
  8
実線
100
AcDbLine
 10
108.900303848414
 20
920.7112939500271
 30
0.0
 11
108.900303848414
 21
937.4112939500269
 31
0.0
  0
LINE
  5
10FF
102
{ACAD_REACTORS
330
141B
102
}
330
1F
100
AcDbEntity
  8
実線
100
AcDbLine
 10
88.90030384841407
 20
937.4112939500269
 30
0.0
 11
88.90030384841407
 21
920.7112939500269
 31
0.0
  0
LINE
  5
1100
102
{ACAD_REACTORS
330
141B
102
}
330
1F
100
AcDbEntity
  8
実線
100
AcDbLine
 10
119.3753091787068
 20
952.711293950027
 30
0.0
 11
122.1069862440622
 21
952.711293950027
 31
0.0
  0
LINE
  5
1101
102
{ACAD_REACTORS
330
141B
102
}
330
1F
100
AcDbEntity
  8
実線
100
AcDbLine
 10
119.3753091787068
 20
952.7112939500272
 30
0.0
 11
119.3753091787068
 21
920.7112939500269
 31
0.0
  0
LINE
  5
1102
102
{ACAD_REACTORS
330
141B
102
}
330
1F
100
AcDbEntity
  8
実線
100
AcDbLine
 10
122.1069862440622
 20
921.911293950027
 30
0.0
 11
122.1069862440622
 21
952.7112939500272
 31
0.0
  0
LINE
  5
1103
102
{ACAD_REACTORS
330
141B
102
}
330
1F
100
AcDbEntity
  8
実線
100
AcDbLine
 10
120.5737409264811
 20
952.7112939500272
 30
0.0
 11
120.5737409264811
 21
920.7112939500271
 31
0.0
  0
LINE
  5
1104
102
{ACAD_REACTORS
330
141B
102
}
330
1F
100
AcDbEntity
  8
実線
100
AcDbLine
 10
119.3753091787066
 20
924.2612939500274
 30
0.0
 11
111.9849800674308
 21
924.2612939500274
 31
0.0
  0
LINE
  5
1105
102
{ACAD_REACTORS
330
141B
102
}
330
1F
100
AcDbEntity
  8
実線
100
AcDbLine
 10
111.9849800674308
 20
932.1612939500269
 30
0.0
 11
119.3753091787066
 21
932.1612939500269
 31
0.0
  0
LINE
  5
1106
102
{ACAD_REACTORS
330
141B
102
}
330
1F
100
AcDbEntity
  8
実線
100
AcDbLine
 10
111.9849800674308
 20
924.2612939500274
 30
0.0
 11
111.9849800674308
 21
932.1612939500273
 31
0.0
  0
LINE
  5
1107
102
{ACAD_REACTORS
330
141B
102
}
330
1F
100
AcDbEntity
  8
実線
100
AcDbLine
 10
119.3753091787066
 20
941.7612939500273
 30
0.0
 11
111.9849800674308
 21
941.7612939500273
 31
0.0
  0
LINE
  5
1108
102
{ACAD_REACTORS
330
141B
102
}
330
1F
100
AcDbEntity
  8
実線
100
AcDbLine
 10
111.9849800674308
 20
949.661293950027
 30
0.0
 11
119.3753091787066
 21
949.661293950027
 31
0.0
  0
LINE
  5
1109
102
{ACAD_REACTORS
330
141B
102
}
330
1F
100
AcDbEntity
  8
実線
100
AcDbLine
 10
111.9849800674308
 20
941.7612939500273
 30
0.0
 11
111.9849800674308
 21
949.6612939500272
 31
0.0
  0
LINE
  5
110A
102
{ACAD_REACTORS
330
141B
102
}
330
1F
100
AcDbEntity
  8
実線
100
AcDbLine
 10
111.900303848414
 20
937.4112939500269
 30
0.0
 11
111.900303848414
 21
947.4112939500271
 31
0.0
  0
LINE
  5
110B
102
{ACAD_REACTORS
330
141B
102
}
330
1F
100
AcDbEntity
  8
実線
100
AcDbLine
 10
85.90030384841407
 20
947.4112939500271
 30
0.0
 11
85.90030384841407
 21
937.4112939500269
 31
0.0
  0
LINE
  5
110C
102
{ACAD_REACTORS
330
141B
102
}
330
1F
100
AcDbEntity
  8
実線
100
AcDbLine
 10
111.900303848414
 20
947.4112939500271
 30
0.0
 11
85.90030384841407
 21
947.4112939500271
 31
0.0
  0
LINE
  5
110D
102
{ACAD_REACTORS
330
141B
102
}
330
1F
100
AcDbEntity
  8
実線
100
AcDbLine
 10
85.90030384841407
 20
937.4112939500269
 30
0.0
 11
111.900303848414
 21
937.4112939500269
 31
0.0
  0
LINE
  5
110E
102
{ACAD_REACTORS
330
141B
102
}
330
1F
100
AcDbEntity
  8
実線
100
AcDbLine
 10
85.90030384841474
 20
321.0112939500271
 30
0.0
 11
85.90030384841474
 21
311.0112939500271
 31
0.0
  0
LINE
  5
110F
102
{ACAD_REACTORS
330
141B
102
}
330
1F
100
AcDbEntity
  8
実線
100
AcDbLine
 10
111.9003038484147
 20
311.0112939500271
 30
0.0
 11
111.9003038484147
 21
321.0112939500271
 31
0.0
  0
LINE
  5
1110
102
{ACAD_REACTORS
330
141B
102
}
330
1F
100
AcDbEntity
  8
実線
100
AcDbLine
 10
85.90030384841474
 20
311.0112939500271
 30
0.0
 11
111.9003038484147
 21
311.0112939500271
 31
0.0
  0
LINE
  5
1111
102
{ACAD_REACTORS
330
141B
102
}
330
1F
100
AcDbEntity
  8
実線
100
AcDbLine
 10
111.9003038484147
 20
321.0112939500271
 30
0.0
 11
85.90030384841474
 21
321.0112939500271
 31
0.0
  0
ELLIPSE
  5
1112
102
{ACAD_REACTORS
330
141B
102
}
330
1F
100
AcDbEntity
  8
実線
100
AcDbEllipse
 10
123.9443018819536
 20
312.7112939500271
 30
0.0
 11
0.0
 21
1.5
 31
0.0
210
0.0
220
0.0
230
1.0
 40
0.0511081772527003
 41
4.71238898038469
 42
6.283185307179585
  0
LINE
  5
1113
102
{ACAD_REACTORS
330
141B
102
}
330
1F
100
AcDbEntity
  8
実線
100
AcDbLine
 10
117.6291197930302
 20
311.2112939500271
 30
0.0
 11
123.9443018819536
 21
311.2112939500271
 31
0.0
  0
LINE
  5
1114
102
{ACAD_REACTORS
330
141B
102
}
330
1F
100
AcDbEntity
  8
実線
100
AcDbLine
 10
123.9443018819536
 20
314.2112939500271
 30
0.0
 11
117.6291197930302
 21
314.2112939500271
 31
0.0
  0
ELLIPSE
  5
1115
102
{ACAD_REACTORS
330
141B
102
}
330
1F
100
AcDbEntity
  8
実線
100
AcDbEllipse
 10
123.9443018819536
 20
312.7112939500271
 30
0.0
 11
0.0
 21
1.5
 31
0.0
210
0.0
220
0.0
230
1.0
 40
0.0511081772527003
 41
3.14159265358979
 42
4.71238898038469
  0
LINE
  5
1116
102
{ACAD_REACTORS
330
141B
102
}
330
1F
100
AcDbEntity
  8
実線
100
AcDbLine
 10
92.28359120272534
 20
308.7612939500271
 30
0.0
 11
117.6291197930302
 21
308.7612939500271
 31
0.0
  0
LINE
  5
1117
102
{ACAD_REACTORS
330
141B
102
}
330
1F
100
AcDbEntity
  8
実線
100
AcDbLine
 10
111.9003038484147
 20
316.6612939500271
 30
0.0
 11
117.6291197930302
 21
316.6612939500271
 31
0.0
  0
LINE
  5
1118
102
{ACAD_REACTORS
330
141B
102
}
330
1F
100
AcDbEntity
  8
実線
100
AcDbLine
 10
117.6291197930302
 20
308.7612939500271
 30
0.0
 11
117.6291197930302
 21
316.6612939500272
 31
0.0
  0
LINE
  5
1119
102
{ACAD_REACTORS
330
141B
102
}
330
1F
100
AcDbEntity
  8
実線
100
AcDbLine
 10
92.66179171439535
 20
311.0112939500271
 30
0.0
 11
92.66179171439535
 21
308.761293950027
 31
0.0
  0
LINE
  5
111A
102
{ACAD_REACTORS
330
141B
102
}
330
1F
100
AcDbEntity
  8
実線
100
AcDbLine
 10
108.9003038484147
 20
334.1612939500271
 30
0.0
 11
117.6291197930302
 21
334.1612939500271
 31
0.0
  0
LINE
  5
111B
102
{ACAD_REACTORS
330
141B
102
}
330
1F
100
AcDbEntity
  8
実線
100
AcDbLine
 10
108.9003038484147
 20
326.2612939500271
 30
0.0
 11
117.6291197930302
 21
326.2612939500271
 31
0.0
  0
LINE
  5
111C
102
{ACAD_REACTORS
330
141B
102
}
330
1F
100
AcDbEntity
  8
実線
100
AcDbLine
 10
117.6291197930302
 20
326.2612939500271
 30
0.0
 11
117.6291197930302
 21
334.1612939500271
 31
0.0
  0
ELLIPSE
  5
111D
102
{ACAD_REACTORS
330
141B
102
}
330
1F
100
AcDbEntity
  8
実線
100
AcDbEllipse
 10
123.9443018819536
 20
330.2112939500271
 30
0.0
 11
0.0
 21
1.5
 31
0.0
210
0.0
220
0.0
230
1.0
 40
0.0511081772527003
 41
4.71238898038469
 42
6.283185307179585
  0
LINE
  5
111E
102
{ACAD_REACTORS
330
141B
102
}
330
1F
100
AcDbEntity
  8
実線
100
AcDbLine
 10
117.6291197930302
 20
328.7112939500271
 30
0.0
 11
123.9443018819536
 21
328.7112939500271
 31
0.0
  0
LINE
  5
111F
102
{ACAD_REACTORS
330
141B
102
}
330
1F
100
AcDbEntity
  8
実線
100
AcDbLine
 10
123.9443018819536
 20
331.7112939500271
 30
0.0
 11
117.6291197930302
 21
331.7112939500271
 31
0.0
  0
ELLIPSE
  5
1120
102
{ACAD_REACTORS
330
141B
102
}
330
1F
100
AcDbEntity
  8
実線
100
AcDbEllipse
 10
123.9443018819536
 20
330.2112939500271
 30
0.0
 11
0.0
 21
1.5
 31
0.0
210
0.0
220
0.0
230
1.0
 40
0.0511081772527003
 41
3.14159265358979
 42
4.71238898038469
  0
LINE
  5
1121
102
{ACAD_REACTORS
330
141B
102
}
330
1F
100
AcDbEntity
  8
実線
100
AcDbLine
 10
122.2443848970872
 20
305.7112939500271
 30
0.0
 11
92.22226139002215
 21
305.7112939500271
 31
0.0
  0
LINE
  5
1122
102
{ACAD_REACTORS
330
141B
102
}
330
1F
100
AcDbEntity
  8
実線
100
AcDbLine
 10
122.2443848970872
 20
311.2112939500271
 30
0.0
 11
122.2443848970872
 21
305.7112939500271
 31
0.0
  0
LINE
  5
1123
102
{ACAD_REACTORS
330
141B
102
}
330
1F
100
AcDbEntity
  8
実線
100
AcDbLine
 10
122.2443848970872
 20
328.7112939500271
 30
0.0
 11
122.2443848970872
 21
314.2112939500271
 31
0.0
  0
LINE
  5
1124
102
{ACAD_REACTORS
330
141B
102
}
330
1F
100
AcDbEntity
  8
実線
100
AcDbLine
 10
122.2443848970872
 20
336.5112939500272
 30
0.0
 11
122.2443848970872
 21
331.7112939500272
 31
0.0
  0
LINE
  5
1125
102
{ACAD_REACTORS
330
141B
102
}
330
1F
100
AcDbEntity
  8
実線
100
AcDbLine
 10
92.22226139002215
 20
311.0112939500271
 30
0.0
 11
92.22226139002215
 21
305.7112939500271
 31
0.0
  0
LINE
  5
1126
102
{ACAD_REACTORS
330
141B
102
}
330
1F
100
AcDbEntity
  8
実線
100
AcDbLine
 10
92.28359120272534
 20
305.7112939500271
 30
0.0
 11
92.28359120272534
 21
311.0112939500272
 31
0.0
  0
LINE
  5
1127
102
{ACAD_REACTORS
330
141B
102
}
330
1F
100
AcDbEntity
  8
実線
100
AcDbLine
 10
131.9665239986559
 20
640.0612939500271
 30
0.0
 11
131.7807691735884
 21
640.0612939500271
 31
0.0
  0
LINE
  5
1128
102
{ACAD_REACTORS
330
141B
102
}
330
1F
100
AcDbEntity
  8
実線
100
AcDbLine
 10
131.7807691735884
 20
618.361293950027
 30
0.0
 11
131.9665239986559
 21
618.361293950027
 31
0.0
  0
ELLIPSE
  5
1129
102
{ACAD_REACTORS
330
141B
102
}
330
1F
100
AcDbEntity
  8
実線
100
AcDbEllipse
 10
131.7807691735884
 20
629.211293950027
 30
0.0
 11
0.0
 21
10.85000000000002
 31
0.0
210
0.0
220
0.0
230
1.0
 40
0.7071067811865476
 41
0.0
 42
3.141592668490953
  0
ELLIPSE
  5
112A
102
{ACAD_REACTORS
330
141B
102
}
330
1F
100
AcDbEntity
  8
実線
100
AcDbEllipse
 10
142.7409242819799
 20
629.211293950027
 30
0.0
 11
0.0
 21
17.0
 31
0.0
210
0.0
220
0.0
230
1.0
 40
0.7071067811865476
 41
3.141592653589792
 42
6.283185307179585
  0
LINE
  5
112B
102
{ACAD_REACTORS
330
141B
102
}
330
1F
100
AcDbEntity
  8
実線
100
AcDbLine
 10
142.7409242819799
 20
646.211293950027
 30
0.0
 11
141.2206447024289
 21
646.211293950027
 31
0.0
  0
LINE
  5
112C
102
{ACAD_REACTORS
330
141B
102
}
330
1F
100
AcDbEntity
  8
実線
100
AcDbLine
 10
141.2206447024287
 20
612.211293950027
 30
0.0
 11
142.7409242819799
 21
612.211293950027
 31
0.0
  0
ELLIPSE
  5
112D
102
{ACAD_REACTORS
330
141B
102
}
330
1F
100
AcDbEntity
  8
実線
100
AcDbEllipse
 10
142.7409242819799
 20
629.211293950027
 30
0.0
 11
0.0
 21
17.0
 31
0.0
210
0.0
220
0.0
230
1.0
 40
0.7071067811865476
 41
0.0
 42
3.141592653589792
  0
ELLIPSE
  5
112E
102
{ACAD_REACTORS
330
141B
102
}
330
1F
100
AcDbEntity
  8
実線
100
AcDbEllipse
 10
141.2206447024287
 20
629.211293950027
 30
0.0
 11
0.0
 21
17.0
 31
0.0
210
0.0
220
0.0
230
1.0
 40
0.7071067811865476
 41
0.0
 42
3.141592653589792
  0
LINE
  5
112F
102
{ACAD_REACTORS
330
141B
102
}
330
1F
100
AcDbEntity
  8
実線
100
AcDbLine
 10
34.00030384841398
 20
638.7612939500272
 30
0.0
 11
50.35849472119799
 21
638.7612939500272
 31
0.0
  0
LINE
  5
1130
102
{ACAD_REACTORS
330
141B
102
}
330
1F
100
AcDbEntity
  8
実線
100
AcDbLine
 10
51.92313407952998
 20
676.861293950027
 30
0.0
 11
34.00030384841398
 21
676.861293950027
 31
0.0
  0
LINE
  5
1131
102
{ACAD_REACTORS
330
141B
102
}
330
1F
100
AcDbEntity
  8
実線
100
AcDbLine
 10
28.90030384841384
 20
683.061293950027
 30
0.0
 11
28.90030384841384
 21
632.561293950027
 31
0.0
  0
LINE
  5
1132
102
{ACAD_REACTORS
330
141B
102
}
330
1F
100
AcDbEntity
  8
実線
100
AcDbLine
 10
28.90030384841384
 20
632.561293950027
 30
0.0
 11
31.65030384841384
 21
632.561293950027
 31
0.0
  0
LINE
  5
1133
102
{ACAD_REACTORS
330
141B
102
}
330
1F
100
AcDbEntity
  8
実線
100
AcDbLine
 10
31.65030384841384
 20
683.061293950027
 30
0.0
 11
28.90030384841384
 21
683.061293950027
 31
0.0
  0
LINE
  5
1134
102
{ACAD_REACTORS
330
141B
102
}
330
1F
100
AcDbEntity
  8
実線
100
AcDbLine
 10
31.65030384841384
 20
683.061293950027
 30
0.0
 11
31.65030384841384
 21
632.561293950027
 31
0.0
  0
LINE
  5
1135
102
{ACAD_REACTORS
330
141B
102
}
330
1F
100
AcDbEntity
  8
実線
100
AcDbLine
 10
34.00030384841398
 20
676.861293950027
 30
0.0
 11
34.00030384841398
 21
638.7612939500272
 31
0.0
  0
LINE
  5
1136
102
{ACAD_REACTORS
330
141B
102
}
330
1F
100
AcDbEntity
  8
実線
100
AcDbLine
 10
34.00030384841398
 20
676.861293950027
 30
0.0
 11
31.65030384841384
 21
683.061293950027
 31
0.0
  0
LINE
  5
1137
102
{ACAD_REACTORS
330
141B
102
}
330
1F
100
AcDbEntity
  8
実線
100
AcDbLine
 10
31.65030384841384
 20
632.561293950027
 30
0.0
 11
34.00030384841398
 21
638.7612939500272
 31
0.0
  0
LINE
  5
1138
102
{ACAD_REACTORS
330
141B
102
}
330
1F
100
AcDbEntity
  8
実線
100
AcDbLine
 10
114.8501545275387
 20
639.461293950027
 30
0.0
 11
95.98377933200117
 21
639.461293950027
 31
0.0
  0
LINE
  5
1139
102
{ACAD_REACTORS
330
141B
102
}
330
1F
100
AcDbEntity
  8
実線
100
AcDbLine
 10
163.8003038484139
 20
676.861293950027
 30
0.0
 11
145.8774736172979
 21
676.861293950027
 31
0.0
  0
LINE
  5
113A
102
{ACAD_REACTORS
330
141B
102
}
330
1F
100
AcDbEntity
  8
実線
100
AcDbLine
 10
152.6857093475305
 20
638.7612939500272
 30
0.0
 11
163.8003038484139
 21
638.7612939500272
 31
0.0
  0
LINE
  5
113B
102
{ACAD_REACTORS
330
141B
102
}
330
1F
100
AcDbEntity
  8
実線
100
AcDbLine
 10
163.8003038484139
 20
638.7612939500272
 30
0.0
 11
166.150303848414
 21
632.561293950027
 31
0.0
  0
LINE
  5
113C
102
{ACAD_REACTORS
330
141B
102
}
330
1F
100
AcDbEntity
  8
実線
100
AcDbLine
 10
166.150303848414
 20
683.061293950027
 30
0.0
 11
163.8003038484139
 21
676.861293950027
 31
0.0
  0
LINE
  5
113D
102
{ACAD_REACTORS
330
141B
102
}
330
1F
100
AcDbEntity
  8
実線
100
AcDbLine
 10
163.8003038484139
 20
676.861293950027
 30
0.0
 11
163.8003038484139
 21
638.7612939500272
 31
0.0
  0
LINE
  5
113E
102
{ACAD_REACTORS
330
141B
102
}
330
1F
100
AcDbEntity
  8
実線
100
AcDbLine
 10
168.900303848414
 20
683.061293950027
 30
0.0
 11
166.150303848414
 21
683.061293950027
 31
0.0
  0
LINE
  5
113F
102
{ACAD_REACTORS
330
141B
102
}
330
1F
100
AcDbEntity
  8
実線
100
AcDbLine
 10
166.150303848414
 20
632.561293950027
 30
0.0
 11
168.900303848414
 21
632.561293950027
 31
0.0
  0
LINE
  5
1140
102
{ACAD_REACTORS
330
141B
102
}
330
1F
100
AcDbEntity
  8
実線
100
AcDbLine
 10
168.900303848414
 20
632.561293950027
 30
0.0
 11
168.900303848414
 21
683.061293950027
 31
0.0
  0
LINE
  5
1141
102
{ACAD_REACTORS
330
141B
102
}
330
1F
100
AcDbEntity
  8
実線
100
AcDbLine
 10
166.150303848414
 20
632.561293950027
 30
0.0
 11
166.150303848414
 21
683.061293950027
 31
0.0
  0
CIRCLE
  5
1142
102
{ACAD_REACTORS
330
141B
102
}
330
1F
100
AcDbEntity
  8
実線
100
AcDbCircle
 10
98.90030384841384
 20
600.611293950027
 30
0.0
 40
25.25
  0
LINE
  5
1143
102
{ACAD_REACTORS
330
141B
102
}
330
1F
100
AcDbEntity
  8
実線
100
AcDbLine
 10
119.3753091787068
 20
921.911293950027
 30
0.0
 11
111.009757366194
 21
921.911293950027
 31
0.0
  0
LINE
  5
1144
102
{ACAD_REACTORS
330
141B
102
}
330
1F
100
AcDbEntity
  8
実線
100
AcDbLine
 10
111.009757366194
 20
920.7112939500271
 30
0.0
 11
111.009757366194
 21
921.911293950027
 31
0.0
  0
LINE
  5
1145
102
{ACAD_REACTORS
330
141B
102
}
330
1F
100
AcDbEntity
  8
実線
100
AcDbLine
 10
121.4282742003354
 20
616.711293950027
 30
0.0
 11
131.7807691735884
 21
616.711293950027
 31
0.0
  0
LINE
  5
1146
102
{ACAD_REACTORS
330
141B
102
}
330
1F
100
AcDbEntity
  8
実線
100
AcDbLine
 10
131.7807691735884
 20
641.711293950027
 30
0.0
 11
121.4282742003354
 21
641.711293950027
 31
0.0
  0
ELLIPSE
  5
1147
102
{ACAD_REACTORS
330
141B
102
}
330
1F
100
AcDbEntity
  8
実線
100
AcDbEllipse
 10
131.7807691735884
 20
629.211293950027
 30
0.0
 11
0.0
 21
12.5
 31
0.0
210
0.0
220
0.0
230
1.0
 40
0.7071067811865475
 41
0.0
 42
3.141592653589792
  0
ELLIPSE
  5
1148
102
{ACAD_REACTORS
330
141B
102
}
330
1F
100
AcDbEntity
  8
実線
100
AcDbEllipse
 10
131.7807691735884
 20
629.211293950027
 30
0.0
 11
0.0
 21
12.5
 31
0.0
210
0.0
220
0.0
230
1.0
 40
0.7071067811865475
 41
6.146513022647007
 42
6.283185307179585
  0
ELLIPSE
  5
1149
102
{ACAD_REACTORS
330
141B
102
}
330
1F
100
AcDbEntity
  8
実線
100
AcDbEllipse
 10
131.7807691735884
 20
629.211293950027
 30
0.0
 11
0.0
 21
12.5
 31
0.0
210
0.0
220
0.0
230
1.0
 40
0.7071067811865475
 41
3.141592653589792
 42
3.278264938122396
  0
LINE
  5
114A
102
{ACAD_REACTORS
330
141B
102
}
330
1F
100
AcDbEntity
  8
実線
100
AcDbLine
 10
58.90030384841475
 20
552.7112939500271
 30
0.0
 11
58.90030384841475
 21
407.2112939500271
 31
0.0
  0
LINE
  5
114B
102
{ACAD_REACTORS
330
141B
102
}
330
1F
100
AcDbEntity
  8
実線
100
AcDbLine
 10
138.9003038484147
 20
407.2112939500271
 30
0.0
 11
138.9003038484147
 21
552.7112939500271
 31
0.0
  0
LINE
  5
114C
102
{ACAD_REACTORS
330
141B
102
}
330
1F
100
AcDbEntity
  8
実線
100
AcDbLine
 10
51.40030384841475
 20
399.7112939500271
 30
0.0
 11
51.40030384841475
 21
342.7112939500271
 31
0.0
  0
LINE
  5
114D
102
{ACAD_REACTORS
330
141B
102
}
330
1F
100
AcDbEntity
  8
実線
100
AcDbLine
 10
146.4003038484147
 20
342.7112939500271
 30
0.0
 11
146.4003038484147
 21
399.7112939500271
 31
0.0
  0
LINE
  5
114E
102
{ACAD_REACTORS
330
141B
102
}
330
1F
100
AcDbEntity
  8
実線
100
AcDbLine
 10
51.40030384841475
 20
342.7112939500271
 30
0.0
 11
146.4003038484147
 21
342.7112939500271
 31
0.0
  0
LINE
  5
114F
102
{ACAD_REACTORS
330
141B
102
}
330
1F
100
AcDbEntity
  8
実線
100
AcDbLine
 10
58.90030384841475
 20
407.2112939500271
 30
0.0
 11
51.40030384841475
 21
399.7112939500271
 31
0.0
  0
LINE
  5
1150
102
{ACAD_REACTORS
330
141B
102
}
330
1F
100
AcDbEntity
  8
実線
100
AcDbLine
 10
146.4003038484147
 20
399.7112939500271
 30
0.0
 11
138.9003038484147
 21
407.2112939500271
 31
0.0
  0
LINE
  5
1151
102
{ACAD_REACTORS
330
141B
102
}
330
1F
100
AcDbEntity
  8
実線
100
AcDbLine
 10
58.90030384841475
 20
407.2112939500271
 30
0.0
 11
138.9003038484147
 21
407.2112939500271
 31
0.0
  0
LINE
  5
1152
102
{ACAD_REACTORS
330
141B
102
}
330
1F
100
AcDbEntity
  8
実線
100
AcDbLine
 10
146.4003038484147
 20
399.7112939500271
 30
0.0
 11
51.40030384841475
 21
399.7112939500271
 31
0.0
  0
LINE
  5
1153
102
{ACAD_REACTORS
330
141B
102
}
330
1F
100
AcDbEntity
  8
実線
100
AcDbLine
 10
120.5737409264811
 20
921.911293950027
 30
0.0
 11
130.4725380565751
 21
921.911293950027
 31
0.0
  0
LINE
  5
1154
102
{ACAD_REACTORS
330
141B
102
}
330
1F
100
AcDbEntity
  8
実線
100
AcDbLine
 10
130.4725380565751
 20
920.7112939500271
 30
0.0
 11
130.4725380565751
 21
921.911293950027
 31
0.0
  0
LINE
  5
1155
102
{ACAD_REACTORS
330
141B
102
}
330
1F
100
AcDbEntity
  8
実線
100
AcDbLine
 10
129.9614562840479
 20
920.7112939500271
 30
0.0
 11
129.9614562840479
 21
921.911293950027
 31
0.0
  0
LINE
  5
1156
102
{ACAD_REACTORS
330
141B
102
}
330
1F
100
AcDbEntity
  8
実線
100
AcDbLine
 10
145.8774736172979
 20
675.711293950027
 30
0.0
 11
51.92313407952998
 21
675.711293950027
 31
0.0
  0
LINE
  5
1157
102
{ACAD_REACTORS
330
141B
102
}
330
1F
100
AcDbEntity
  8
実線
100
AcDbLine
 10
51.92313407952998
 20
685.7112939500271
 30
0.0
 11
51.92313407952998
 21
675.711293950027
 31
0.0
  0
LINE
  5
1158
102
{ACAD_REACTORS
330
141B
102
}
330
1F
100
AcDbEntity
  8
実線
100
AcDbLine
 10
145.8774736172979
 20
675.711293950027
 30
0.0
 11
145.8774736172979
 21
685.7112939500271
 31
0.0
  0
LINE
  5
1159
102
{ACAD_REACTORS
330
141B
102
}
330
1F
100
AcDbEntity
  8
実線
100
AcDbLine
 10
116.929200658838
 20
685.7112939500271
 30
0.0
 11
116.929200658838
 21
675.711293950027
 31
0.0
  0
LINE
  5
115A
102
{ACAD_REACTORS
330
141B
102
}
330
1F
100
AcDbEntity
  8
実線
100
AcDbLine
 10
80.87140703799013
 20
685.7112939500271
 30
0.0
 11
80.87140703799013
 21
675.711293950027
 31
0.0
  0
LINE
  5
115B
102
{ACAD_REACTORS
330
141B
102
}
330
1F
100
AcDbEntity
  8
実線
100
AcDbLine
 10
133.5413199997915
 20
611.8933262527822
 30
0.0
 11
130.7596650528403
 21
616.7112939500271
 31
0.0
  0
ARC
  5
115C
102
{ACAD_REACTORS
330
141B
102
}
330
1F
100
AcDbEntity
  8
実線
100
AcDbCircle
 10
98.90030384841384
 20
591.8933262527822
 30
0.0
 40
40.0
100
AcDbArc
 50
0.0
 51
29.99999999999517
  0
ARC
  5
115D
102
{ACAD_REACTORS
330
141B
102
}
330
1F
100
AcDbEntity
  8
実線
100
AcDbCircle
 10
98.90030384841384
 20
591.8933262527822
 30
0.0
 40
40.0
100
AcDbArc
 50
161.4256159679027
 51
180.0
  0
LINE
  5
115E
102
{ACAD_REACTORS
330
141B
102
}
330
1F
100
AcDbEntity
  8
実線
100
AcDbLine
 10
58.90030384841407
 20
591.8933262527822
 30
0.0
 11
58.90030384841407
 21
582.7112939500271
 31
0.0
  0
LINE
  5
115F
102
{ACAD_REACTORS
330
141B
102
}
330
1F
100
AcDbEntity
  8
実線
100
AcDbLine
 10
138.900303848414
 20
582.711293950027
 30
0.0
 11
138.900303848414
 21
591.8933262527822
 31
0.0
  0
LINE
  5
1160
102
{ACAD_REACTORS
330
141B
102
}
330
1F
100
AcDbEntity
  8
実線
100
AcDbLine
 10
56.40030384841407
 20
920.7112939500271
 30
0.0
 11
141.4003038453106
 21
920.7112939500271
 31
0.0
  0
ARC
  5
1161
102
{ACAD_REACTORS
330
141B
102
}
330
1F
100
AcDbEntity
  8
実線
100
AcDbCircle
 10
141.400303848414
 20
915.7112939500272
 30
0.0
 40
5.0
100
AcDbArc
 50
0.0
 51
90.0
  0
ARC
  5
1162
102
{ACAD_REACTORS
330
141B
102
}
330
1F
100
AcDbEntity
  8
実線
100
AcDbCircle
 10
56.40030384841384
 20
915.7112939500272
 30
0.0
 40
5.0
100
AcDbArc
 50
90.0
 51
180.0
  0
LINE
  5
1163
102
{ACAD_REACTORS
330
141B
102
}
330
1F
100
AcDbEntity
  8
実線
100
AcDbLine
 10
56.40030384841475
 20
337.7112939500271
 30
0.0
 11
141.4003038484147
 21
337.7112939500271
 31
0.0
  0
ARC
  5
1164
102
{ACAD_REACTORS
330
141B
102
}
330
1F
100
AcDbEntity
  8
実線
100
AcDbCircle
 10
56.40030384841475
 20
342.7112939500271
 30
0.0
 40
5.0
100
AcDbArc
 50
180.0
 51
270.0
  0
ARC
  5
1165
102
{ACAD_REACTORS
330
141B
102
}
330
1F
100
AcDbEntity
  8
実線
100
AcDbCircle
 10
141.4003038484147
 20
342.7112939500271
 30
0.0
 40
5.0
100
AcDbArc
 50
270.0
 51
0.0
  0
LINE
  5
1166
102
{ACAD_REACTORS
330
141B
102
}
330
1F
100
AcDbEntity
  8
実線
100
AcDbLine
 10
64.60562496086641
 20
658.909778759862
 30
0.0
 11
43.6056249608664
 21
629.211293950027
 31
0.0
  0
LINE
  5
1167
102
{ACAD_REACTORS
330
141B
102
}
330
1F
100
AcDbEntity
  8
実線
100
AcDbLine
 10
43.6056249608664
 20
629.211293950027
 30
0.0
 11
64.60562496086641
 21
599.512809140192
 31
0.0
  0
LINE
  5
1168
102
{ACAD_REACTORS
330
141B
102
}
330
1F
100
AcDbEntity
  8
実線
100
AcDbLine
 10
64.60562496086641
 20
658.909778759862
 30
0.0
 11
71.13392597400935
 21
658.909778759862
 31
0.0
  0
LINE
  5
1169
102
{ACAD_REACTORS
330
141B
102
}
330
1F
100
AcDbEntity
  8
実線
100
AcDbLine
 10
85.60562496086641
 20
629.211293950027
 30
0.0
 11
64.60562496086641
 21
658.909778759862
 31
0.0
  0
LINE
  5
116A
102
{ACAD_REACTORS
330
141B
102
}
330
1F
100
AcDbEntity
  8
実線
100
AcDbLine
 10
85.60562496086641
 20
629.211293950027
 30
0.0
 11
64.60562496086641
 21
599.512809140192
 31
0.0
  0
LINE
  5
116B
102
{ACAD_REACTORS
330
141B
102
}
330
1F
100
AcDbEntity
  8
実線
100
AcDbLine
 10
64.60562496086641
 20
599.512809140192
 30
0.0
 11
71.13392597400935
 21
599.512809140192
 31
0.0
  0
LINE
  5
116C
102
{ACAD_REACTORS
330
141B
102
}
330
1F
100
AcDbEntity
  8
実線
100
AcDbLine
 10
111.0614690835821
 20
629.211293950027
 30
0.0
 11
85.60562496086641
 21
629.211293950027
 31
0.0
  0
LINE
  5
116D
102
{ACAD_REACTORS
330
141B
102
}
330
1F
100
AcDbEntity
  8
実線
100
AcDbLine
 10
81.09152792192208
 20
582.711293950027
 30
0.0
 11
51.92313407952998
 21
582.711293950027
 31
0.0
  0
LINE
  5
116E
102
{ACAD_REACTORS
330
141B
102
}
330
1F
100
AcDbEntity
  8
実線
100
AcDbLine
 10
116.709079774906
 20
582.711293950027
 30
0.0
 11
145.8774736172977
 21
582.711293950027
 31
0.0
  0
LINE
  5
116F
102
{ACAD_REACTORS
330
141B
102
}
330
1F
100
AcDbEntity
  8
実線
100
AcDbLine
 10
145.8774736172977
 20
572.7112939500271
 30
0.0
 11
145.8774736172977
 21
582.711293950027
 31
0.0
  0
LINE
  5
1170
102
{ACAD_REACTORS
330
141B
102
}
330
1F
100
AcDbEntity
  8
実線
100
AcDbLine
 10
51.92313407952998
 20
582.711293950027
 30
0.0
 11
51.92313407952998
 21
572.7112939500271
 31
0.0
  0
LINE
  5
1171
102
{ACAD_REACTORS
330
141B
102
}
330
1F
100
AcDbEntity
  8
実線
100
AcDbLine
 10
80.87140703798992
 20
572.7112939500271
 30
0.0
 11
80.87140703798992
 21
582.711293950027
 31
0.0
  0
LINE
  5
1172
102
{ACAD_REACTORS
330
141B
102
}
330
1F
100
AcDbEntity
  8
実線
100
AcDbLine
 10
116.929200658838
 20
572.7112939500271
 30
0.0
 11
116.929200658838
 21
582.711293950027
 31
0.0
  0
LINE
  5
1173
102
{ACAD_REACTORS
330
141B
102
}
330
1F
100
AcDbEntity
  8
実線
100
AcDbLine
 10
138.900303848414
 20
705.7112939500271
 30
0.0
 11
138.900303848414
 21
851.2112939500271
 31
0.0
  0
LINE
  5
1174
102
{ACAD_REACTORS
330
141B
102
}
330
1F
100
AcDbEntity
  8
実線
100
AcDbLine
 10
58.90030384841407
 20
851.2112939500271
 30
0.0
 11
58.90030384841407
 21
705.7112939500271
 31
0.0
  0
LINE
  5
1175
102
{ACAD_REACTORS
330
141B
102
}
330
1F
100
AcDbEntity
  8
実線
100
AcDbLine
 10
51.40030384841407
 20
915.7112939500272
 30
0.0
 11
146.400303848414
 21
915.7112939500272
 31
0.0
  0
LINE
  5
1176
102
{ACAD_REACTORS
330
141B
102
}
330
1F
100
AcDbEntity
  8
実線
100
AcDbLine
 10
146.400303848414
 20
858.711293950027
 30
0.0
 11
146.400303848414
 21
915.7112939500272
 31
0.0
  0
LINE
  5
1177
102
{ACAD_REACTORS
330
141B
102
}
330
1F
100
AcDbEntity
  8
実線
100
AcDbLine
 10
51.40030384841407
 20
915.7112939500272
 30
0.0
 11
51.40030384841407
 21
858.711293950027
 31
0.0
  0
LINE
  5
1178
102
{ACAD_REACTORS
330
141B
102
}
330
1F
100
AcDbEntity
  8
実線
100
AcDbLine
 10
58.90030384841407
 20
851.2112939500271
 30
0.0
 11
138.900303848414
 21
851.2112939500271
 31
0.0
  0
LINE
  5
1179
102
{ACAD_REACTORS
330
141B
102
}
330
1F
100
AcDbEntity
  8
実線
100
AcDbLine
 10
146.400303848414
 20
858.711293950027
 30
0.0
 11
51.40030384841407
 21
858.711293950027
 31
0.0
  0
LINE
  5
117A
102
{ACAD_REACTORS
330
141B
102
}
330
1F
100
AcDbEntity
  8
実線
100
AcDbLine
 10
138.900303848414
 20
851.2112939500271
 30
0.0
 11
146.400303848414
 21
858.711293950027
 31
0.0
  0
LINE
  5
117B
102
{ACAD_REACTORS
330
141B
102
}
330
1F
100
AcDbEntity
  8
実線
100
AcDbLine
 10
51.40030384841407
 20
858.711293950027
 30
0.0
 11
58.90030384841407
 21
851.2112939500271
 31
0.0
  0
LINE
  5
117C
102
{ACAD_REACTORS
330
141B
102
}
330
1F
100
AcDbEntity
  8
実線
100
AcDbLine
 10
145.8774736172986
 20
559.711293950027
 30
0.0
 11
145.8774736172986
 21
572.7112939500271
 31
0.0
  0
LINE
  5
117D
102
{ACAD_REACTORS
330
141B
102
}
330
1F
100
AcDbEntity
  8
実線
100
AcDbLine
 10
145.8774736172986
 20
572.7112939500271
 30
0.0
 11
51.92313407953088
 21
572.7112939500271
 31
0.0
  0
LINE
  5
117E
102
{ACAD_REACTORS
330
141B
102
}
330
1F
100
AcDbEntity
  8
実線
100
AcDbLine
 10
145.8774736172986
 20
559.711293950027
 30
0.0
 11
116.9292006588389
 21
559.711293950027
 31
0.0
  0
LINE
  5
117F
102
{ACAD_REACTORS
330
141B
102
}
330
1F
100
AcDbEntity
  8
実線
100
AcDbLine
 10
51.92313407953088
 20
559.711293950027
 30
0.0
 11
80.87140703799082
 21
559.711293950027
 31
0.0
  0
LINE
  5
1180
102
{ACAD_REACTORS
330
141B
102
}
330
1F
100
AcDbEntity
  8
実線
100
AcDbLine
 10
51.92313407953088
 20
572.7112939500271
 30
0.0
 11
51.92313407953088
 21
559.711293950027
 31
0.0
  0
LINE
  5
1181
102
{ACAD_REACTORS
330
141B
102
}
330
1F
100
AcDbEntity
  8
実線
100
AcDbLine
 10
80.87140703799082
 20
559.711293950027
 30
0.0
 11
80.87140703799082
 21
572.7112939500271
 31
0.0
  0
LINE
  5
1182
102
{ACAD_REACTORS
330
141B
102
}
330
1F
100
AcDbEntity
  8
実線
100
AcDbLine
 10
116.9292006588389
 20
559.711293950027
 30
0.0
 11
116.9292006588389
 21
572.7112939500271
 31
0.0
  0
LINE
  5
1183
102
{ACAD_REACTORS
330
141B
102
}
330
1F
100
AcDbEntity
  8
実線
100
AcDbLine
 10
138.9003038484147
 20
552.7112939500271
 30
0.0
 11
138.9003038484147
 21
559.711293950027
 31
0.0
  0
LINE
  5
1184
102
{ACAD_REACTORS
330
141B
102
}
330
1F
100
AcDbEntity
  8
実線
100
AcDbLine
 10
58.90030384841475
 20
559.711293950027
 30
0.0
 11
58.90030384841475
 21
552.7112939500271
 31
0.0
  0
LINE
  5
1185
102
{ACAD_REACTORS
330
141B
102
}
330
1F
100
AcDbEntity
  8
実線
100
AcDbLine
 10
58.90030384841475
 20
552.7112939500271
 30
0.0
 11
138.9003038484147
 21
552.7112939500271
 31
0.0
  0
LINE
  5
1186
102
{ACAD_REACTORS
330
141B
102
}
330
1F
100
AcDbEntity
  8
実線
100
AcDbLine
 10
112.2574536656334
 20
336.5112939500272
 30
0.0
 11
122.7248017632628
 21
336.5112939500272
 31
0.0
  0
LINE
  5
1187
102
{ACAD_REACTORS
330
141B
102
}
330
1F
100
AcDbEntity
  8
実線
100
AcDbLine
 10
112.2574536656334
 20
337.7112939500271
 30
0.0
 11
112.2574536656334
 21
336.5112939500271
 31
0.0
  0
LINE
  5
1188
102
{ACAD_REACTORS
330
141B
102
}
330
1F
100
AcDbEntity
  8
実線
100
AcDbLine
 10
112.7378705318087
 20
337.7112939500271
 30
0.0
 11
112.7378705318087
 21
336.5112939500271
 31
0.0
  0
LINE
  5
1189
102
{ACAD_REACTORS
330
141B
102
}
330
1F
100
AcDbEntity
  8
実線
100
AcDbLine
 10
122.7248017632628
 20
337.7112939500271
 30
0.0
 11
122.7248017632628
 21
336.5112939500271
 31
0.0
  0
LINE
  5
118A
102
{ACAD_REACTORS
330
141B
102
}
330
1F
100
AcDbEntity
  8
実線
100
AcDbLine
 10
51.92313407952998
 20
698.7112939500271
 30
0.0
 11
51.92313407952998
 21
685.7112939500271
 31
0.0
  0
LINE
  5
118B
102
{ACAD_REACTORS
330
141B
102
}
330
1F
100
AcDbEntity
  8
実線
100
AcDbLine
 10
51.92313407952998
 20
685.7112939500271
 30
0.0
 11
145.8774736172979
 21
685.7112939500271
 31
0.0
  0
LINE
  5
118C
102
{ACAD_REACTORS
330
141B
102
}
330
1F
100
AcDbEntity
  8
実線
100
AcDbLine
 10
51.92313407952998
 20
698.7112939500271
 30
0.0
 11
80.87140703798992
 21
698.7112939500271
 31
0.0
  0
LINE
  5
118D
102
{ACAD_REACTORS
330
141B
102
}
330
1F
100
AcDbEntity
  8
実線
100
AcDbLine
 10
145.8774736172979
 20
698.7112939500271
 30
0.0
 11
116.929200658838
 21
698.7112939500271
 31
0.0
  0
LINE
  5
118E
102
{ACAD_REACTORS
330
141B
102
}
330
1F
100
AcDbEntity
  8
実線
100
AcDbLine
 10
145.8774736172979
 20
685.7112939500271
 30
0.0
 11
145.8774736172979
 21
698.7112939500271
 31
0.0
  0
LINE
  5
118F
102
{ACAD_REACTORS
330
141B
102
}
330
1F
100
AcDbEntity
  8
実線
100
AcDbLine
 10
58.90030384841407
 20
705.7112939500271
 30
0.0
 11
138.900303848414
 21
705.7112939500271
 31
0.0
  0
LINE
  5
1190
102
{ACAD_REACTORS
330
141B
102
}
330
1F
100
AcDbEntity
  8
実線
100
AcDbLine
 10
80.87140703798992
 20
698.7112939500271
 30
0.0
 11
80.87140703798992
 21
685.7112939500271
 31
0.0
  0
LINE
  5
1191
102
{ACAD_REACTORS
330
141B
102
}
330
1F
100
AcDbEntity
  8
実線
100
AcDbLine
 10
116.929200658838
 20
698.7112939500271
 30
0.0
 11
116.929200658838
 21
685.7112939500271
 31
0.0
  0
LINE
  5
1192
102
{ACAD_REACTORS
330
141B
102
}
330
1F
100
AcDbEntity
  8
実線
100
AcDbLine
 10
58.90030384841407
 20
705.7112939500271
 30
0.0
 11
58.90030384841407
 21
698.7112939500271
 31
0.0
  0
LINE
  5
1193
102
{ACAD_REACTORS
330
141B
102
}
330
1F
100
AcDbEntity
  8
実線
100
AcDbLine
 10
138.9003038484138
 20
698.7112939500271
 30
0.0
 11
138.9003038484138
 21
705.7112939500271
 31
0.0
  0
LINE
  5
1194
102
{ACAD_REACTORS
330
1419
102
}
330
1F
100
AcDbEntity
  8
実線
100
AcDbLine
 10
500.4618822353395
 20
653.7112939500267
 30
0.0
 11
497.4618822353395
 21
653.7112939500267
 31
0.0
  0
LINE
  5
1195
102
{ACAD_REACTORS
330
1419
102
}
330
1F
100
AcDbEntity
  8
実線
100
AcDbLine
 10
500.4618822353395
 20
647.2112939500267
 30
0.0
 11
500.4618822353395
 21
653.7112939500267
 31
0.0
  0
LINE
  5
1196
102
{ACAD_REACTORS
330
1419
102
}
330
1F
100
AcDbEntity
  8
実線
100
AcDbLine
 10
497.4618822353395
 20
653.7112939500267
 30
0.0
 11
497.4618822353395
 21
647.2112939500267
 31
0.0
  0
LINE
  5
1197
102
{ACAD_REACTORS
330
1419
102
}
330
1F
100
AcDbEntity
  8
実線
100
AcDbLine
 10
493.3757386639658
 20
647.2112939500267
 30
0.0
 11
504.5480258067136
 21
647.2112939500267
 31
0.0
  0
LINE
  5
1198
102
{ACAD_REACTORS
330
1419
102
}
330
1F
100
AcDbEntity
  8
実線
100
AcDbLine
 10
493.3757386639658
 20
647.2112939500267
 30
0.0
 11
493.3757386639658
 21
622.2112939500267
 31
0.0
  0
LINE
  5
1199
102
{ACAD_REACTORS
330
1419
102
}
330
1F
100
AcDbEntity
  8
実線
100
AcDbLine
 10
493.3757386639658
 20
622.2112939500267
 30
0.0
 11
504.5480258067136
 21
622.2112939500267
 31
0.0
  0
LINE
  5
119A
102
{ACAD_REACTORS
330
1419
102
}
330
1F
100
AcDbEntity
  8
実線
100
AcDbLine
 10
504.5480258067136
 20
634.0772470940835
 30
0.0
 11
504.5480258067136
 21
647.2112939500268
 31
0.0
  0
LINE
  5
119B
102
{ACAD_REACTORS
330
1419
102
}
330
1F
100
AcDbEntity
  8
実線
100
AcDbLine
 10
504.5480258067136
 20
622.2112939500267
 30
0.0
 11
504.5480258067136
 21
624.3453408059703
 31
0.0
  0
LINE
  5
119C
102
{ACAD_REACTORS
330
1419
102
}
330
1F
100
AcDbEntity
  8
実線
100
AcDbLine
 10
498.9618822353395
 20
622.2112939500267
 30
0.0
 11
498.9618822353395
 21
647.2112939500267
 31
0.0
  0
LINE
  5
119D
102
{ACAD_REACTORS
330
1419
102
}
330
1F
100
AcDbEntity
  8
実線
100
AcDbLine
 10
519.6244760054305
 20
653.7112939500268
 30
0.0
 11
516.6244760054305
 21
653.7112939500268
 31
0.0
  0
LINE
  5
119E
102
{ACAD_REACTORS
330
1419
102
}
330
1F
100
AcDbEntity
  8
実線
100
AcDbLine
 10
519.6244760054305
 20
647.2112939500268
 30
0.0
 11
519.6244760054305
 21
653.7112939500268
 31
0.0
  0
LINE
  5
119F
102
{ACAD_REACTORS
330
1419
102
}
330
1F
100
AcDbEntity
  8
実線
100
AcDbLine
 10
516.6244760054305
 20
653.7112939500268
 30
0.0
 11
516.6244760054305
 21
647.2112939500268
 31
0.0
  0
LINE
  5
11A0
102
{ACAD_REACTORS
330
1419
102
}
330
1F
100
AcDbEntity
  8
実線
100
AcDbLine
 10
523.7106195768042
 20
647.2112939500268
 30
0.0
 11
512.5383324340568
 21
647.2112939500268
 31
0.0
  0
LINE
  5
11A1
102
{ACAD_REACTORS
330
1419
102
}
330
1F
100
AcDbEntity
  8
実線
100
AcDbLine
 10
523.7106195768042
 20
644.2112939500268
 30
0.0
 11
523.7106195768042
 21
647.2112939500268
 31
0.0
  0
LINE
  5
11A2
102
{ACAD_REACTORS
330
1419
102
}
330
1F
100
AcDbEntity
  8
実線
100
AcDbLine
 10
518.1244760054305
 20
644.2112939500268
 30
0.0
 11
518.1244760054305
 21
647.2112939500268
 31
0.0
  0
LINE
  5
11A3
102
{ACAD_REACTORS
330
1419
102
}
330
1F
100
AcDbEntity
  8
実線
100
AcDbLine
 10
512.5383324340568
 20
622.2112939500268
 30
0.0
 11
512.5383324340568
 21
647.2112939500268
 31
0.0
  0
LINE
  5
11A4
102
{ACAD_REACTORS
330
1419
102
}
330
1F
100
AcDbEntity
  8
実線
100
AcDbLine
 10
512.5383324340568
 20
622.2112939500268
 30
0.0
 11
514.5535867604385
 21
622.2112939500268
 31
0.0
  0
LINE
  5
11A5
102
{ACAD_REACTORS
330
1419
102
}
330
1F
100
AcDbEntity
  8
実線
100
AcDbLine
 10
489.3098746720834
 20
644.2112939500267
 30
0.0
 11
493.3757386639658
 21
644.2112939500267
 31
0.0
  0
LINE
  5
11A6
102
{ACAD_REACTORS
330
1419
102
}
330
1F
100
AcDbEntity
  8
実線
100
AcDbLine
 10
489.3098746720834
 20
622.2112939500268
 30
0.0
 11
493.3757386639658
 21
622.2112939500268
 31
0.0
  0
LINE
  5
11A7
102
{ACAD_REACTORS
330
1419
102
}
330
1F
100
AcDbEntity
  8
実線
100
AcDbLine
 10
489.3098746720834
 20
622.2112939500268
 30
0.0
 11
489.3098746720834
 21
644.2112939500268
 31
0.0
  0
LINE
  5
11A8
102
{ACAD_REACTORS
330
1419
102
}
330
1F
100
AcDbEntity
  8
実線
100
AcDbLine
 10
506.633990811214
 20
644.2112939500267
 30
0.0
 11
504.5480258067136
 21
644.2112939500267
 31
0.0
  0
LINE
  5
11A9
102
{ACAD_REACTORS
330
1419
102
}
330
1F
100
AcDbEntity
  8
実線
100
AcDbLine
 10
506.633990811214
 20
622.2112939500268
 30
0.0
 11
504.5480258067136
 21
622.2112939500268
 31
0.0
  0
LINE
  5
11AA
102
{ACAD_REACTORS
330
1419
102
}
330
1F
100
AcDbEntity
  8
実線
100
AcDbLine
 10
490.1584028095076
 20
644.2112939500267
 30
0.0
 11
490.1584028095076
 21
622.2112939500267
 31
0.0
  0
ELLIPSE
  5
11AB
102
{ACAD_REACTORS
330
1419
102
}
330
1F
100
AcDbEntity
  8
実線
100
AcDbEllipse
 10
507.48251894859
 20
629.2112939500269
 30
0.0
 11
0.0
 21
5.0
 31
0.0
210
0.0
220
0.0
230
1.0
 40
0.7071067811865478
 41
4.71238898038469
 42
6.283185307179585
  0
LINE
  5
11AC
102
{ACAD_REACTORS
330
1419
102
}
330
1F
100
AcDbEntity
  8
実線
100
AcDbLine
 10
507.48251894859
 20
634.2112939500269
 30
0.0
 11
505.3611986050309
 21
634.2112939500269
 31
0.0
  0
LINE
  5
11AD
102
{ACAD_REACTORS
330
1419
102
}
330
1F
100
AcDbEntity
  8
実線
100
AcDbLine
 10
505.3611986050309
 20
624.211293950027
 30
0.0
 11
507.48251894859
 21
624.211293950027
 31
0.0
  0
ELLIPSE
  5
11AE
102
{ACAD_REACTORS
330
1419
102
}
330
1F
100
AcDbEntity
  8
実線
100
AcDbEllipse
 10
505.3611986050309
 20
629.2112939500269
 30
0.0
 11
-0.0000000000000036
 21
5.0
 31
0.0
210
0.0
220
0.0
230
1.0
 40
0.7071067811865478
 41
3.141592653589792
 42
6.283185307179585
  0
ELLIPSE
  5
11AF
102
{ACAD_REACTORS
330
1419
102
}
330
1F
100
AcDbEntity
  8
実線
100
AcDbEllipse
 10
505.3611986050309
 20
629.2112939500269
 30
0.0
 11
-0.0000000000000036
 21
5.0
 31
0.0
210
0.0
220
0.0
230
1.0
 40
0.7071067811865478
 41
1.570796326794896
 42
3.141592653589792
  0
ELLIPSE
  5
11B0
102
{ACAD_REACTORS
330
1419
102
}
330
1F
100
AcDbEntity
  8
実線
100
AcDbEllipse
 10
507.48251894859
 20
629.2112939500269
 30
0.0
 11
0.0
 21
5.0
 31
0.0
210
0.0
220
0.0
230
1.0
 40
0.7071067811865478
 41
3.141592653589792
 42
4.71238898038469
  0
ELLIPSE
  5
11B1
102
{ACAD_REACTORS
330
1419
102
}
330
1F
100
AcDbEntity
  8
実線
100
AcDbEllipse
 10
505.3611986050309
 20
629.2112939500269
 30
0.0
 11
-0.0000000000000036
 21
5.0
 31
0.0
210
0.0
220
0.0
230
1.0
 40
0.7071067811865478
 41
0.0
 42
1.570796326794897
  0
LINE
  5
11B2
102
{ACAD_REACTORS
330
1419
102
}
330
1F
100
AcDbEntity
  8
実線
100
AcDbLine
 10
512.5383324340568
 20
632.2112939496239
 30
0.0
 11
510.3109460735504
 21
632.2112939496239
 31
0.0
  0
LINE
  5
11B3
102
{ACAD_REACTORS
330
1419
102
}
330
1F
100
AcDbEntity
  8
実線
100
AcDbLine
 10
510.3109460735504
 20
626.21129395043
 30
0.0
 11
512.5383324340568
 21
626.21129395043
 31
0.0
  0
LINE
  5
11B4
102
{ACAD_REACTORS
330
1419
102
}
330
1F
100
AcDbEntity
  8
実線
100
AcDbLine
 10
528.13003695922
 20
622.2112939500268
 30
0.0
 11
514.5535867604385
 21
622.2112939500268
 31
0.0
  0
LINE
  5
11B5
102
{ACAD_REACTORS
330
1419
102
}
330
1F
100
AcDbEntity
  8
実線
100
AcDbLine
 10
528.13003695922
 20
644.2112939500268
 30
0.0
 11
514.5535867604385
 21
644.2112939500268
 31
0.0
  0
LINE
  5
11B6
102
{ACAD_REACTORS
330
1419
102
}
330
1F
100
AcDbEntity
  8
実線
100
AcDbLine
 10
528.13003695922
 20
644.2112939500268
 30
0.0
 11
528.13003695922
 21
622.2112939500268
 31
0.0
  0
LINE
  5
11B7
102
{ACAD_REACTORS
330
1419
102
}
330
1F
100
AcDbEntity
  8
実線
100
AcDbLine
 10
514.5535867604385
 20
622.2112939500268
 30
0.0
 11
514.5535867604385
 21
644.2112939500268
 31
0.0
  0
LINE
  5
11B8
102
{ACAD_REACTORS
330
1419
102
}
330
1F
100
AcDbEntity
  8
実線
100
AcDbLine
 10
515.4021148978622
 20
644.2112939500268
 30
0.0
 11
515.4021148978622
 21
622.2112939500268
 31
0.0
  0
LINE
  5
11B9
102
{ACAD_REACTORS
330
1419
102
}
330
1F
100
AcDbEntity
  8
実線
100
AcDbLine
 10
506.9886156029824
 20
644.2112939500267
 30
0.0
 11
517.3820138851847
 21
658.9097787598619
 31
0.0
  0
LINE
  5
11BA
102
{ACAD_REACTORS
330
1419
102
}
330
1F
100
AcDbEntity
  8
実線
100
AcDbLine
 10
517.3820138851847
 20
599.512809140192
 30
0.0
 11
501.3317613534905
 21
622.2112939500267
 31
0.0
  0
LINE
  5
11BB
102
{ACAD_REACTORS
330
1419
102
}
330
1F
100
AcDbEntity
  8
実線
100
AcDbLine
 10
538.3820138851847
 20
629.2112939500269
 30
0.0
 11
517.3820138851847
 21
599.512809140192
 31
0.0
  0
LINE
  5
11BC
102
{ACAD_REACTORS
330
1419
102
}
330
1F
100
AcDbEntity
  8
実線
100
AcDbLine
 10
546.0198385232397
 20
599.512809140192
 30
0.0
 11
517.3820138851847
 21
599.512809140192
 31
0.0
  0
LINE
  5
11BD
102
{ACAD_REACTORS
330
1419
102
}
330
1F
100
AcDbEntity
  8
実線
100
AcDbLine
 10
546.0198385232397
 20
599.512809140192
 30
0.0
 11
567.0198385232397
 21
629.2112939500269
 31
0.0
  0
LINE
  5
11BE
102
{ACAD_REACTORS
330
1419
102
}
330
1F
100
AcDbEntity
  8
実線
100
AcDbLine
 10
546.0198385232397
 20
658.9097787598619
 30
0.0
 11
517.3820138851847
 21
658.9097787598619
 31
0.0
  0
LINE
  5
11BF
102
{ACAD_REACTORS
330
1419
102
}
330
1F
100
AcDbEntity
  8
実線
100
AcDbLine
 10
528.13003695922
 20
643.7097787598617
 30
0.0
 11
538.3820138851847
 21
629.2112939500269
 31
0.0
  0
LINE
  5
11C0
102
{ACAD_REACTORS
330
1419
102
}
330
1F
100
AcDbEntity
  8
実線
100
AcDbLine
 10
517.3820138851847
 20
658.9097787598619
 30
0.0
 11
527.7754121673865
 21
644.2112939500268
 31
0.0
  0
LINE
  5
11C1
102
{ACAD_REACTORS
330
1419
102
}
330
1F
100
AcDbEntity
  8
実線
100
AcDbLine
 10
567.0198385232397
 20
629.2112939500269
 30
0.0
 11
538.3820138851847
 21
629.2112939500269
 31
0.0
  0
LINE
  5
11C2
102
{ACAD_REACTORS
330
1419
102
}
330
1F
100
AcDbEntity
  8
実線
100
AcDbLine
 10
588.9003038484133
 20
321.011293950027
 30
0.0
 11
588.9003038484133
 21
337.711293950027
 31
0.0
  0
LINE
  5
11C3
102
{ACAD_REACTORS
330
1419
102
}
330
1F
100
AcDbEntity
  8
実線
100
AcDbLine
 10
588.9003038484142
 20
920.7112939500271
 30
0.0
 11
588.9003038484142
 21
937.4112939500269
 31
0.0
  0
LINE
  5
11C4
102
{ACAD_REACTORS
330
1419
102
}
330
1F
100
AcDbEntity
  8
実線
100
AcDbLine
 10
568.9003038484143
 20
937.4112939500269
 30
0.0
 11
568.9003038484143
 21
920.7112939500268
 31
0.0
  0
LINE
  5
11C5
102
{ACAD_REACTORS
330
1419
102
}
330
1F
100
AcDbEntity
  8
実線
100
AcDbLine
 10
558.4252985181215
 20
952.7112939500268
 30
0.0
 11
555.6936214527659
 21
952.7112939500268
 31
0.0
  0
LINE
  5
11C6
102
{ACAD_REACTORS
330
1419
102
}
330
1F
100
AcDbEntity
  8
実線
100
AcDbLine
 10
558.4252985181215
 20
949.6612939500268
 30
0.0
 11
558.4252985181215
 21
952.711293950027
 31
0.0
  0
LINE
  5
11C7
102
{ACAD_REACTORS
330
1419
102
}
330
1F
100
AcDbEntity
  8
実線
100
AcDbLine
 10
558.4252985181215
 20
932.1612939500269
 30
0.0
 11
558.4252985181215
 21
941.7612939500271
 31
0.0
  0
LINE
  5
11C8
102
{ACAD_REACTORS
330
1419
102
}
330
1F
100
AcDbEntity
  8
実線
100
AcDbLine
 10
558.4252985181215
 20
921.9112939500268
 30
0.0
 11
558.4252985181215
 21
924.2612939500272
 31
0.0
  0
LINE
  5
11C9
102
{ACAD_REACTORS
330
1419
102
}
330
1F
100
AcDbEntity
  8
実線
100
AcDbLine
 10
556.8920532005404
 20
952.711293950027
 30
0.0
 11
556.8920532005404
 21
920.7112939500271
 31
0.0
  0
LINE
  5
11CA
102
{ACAD_REACTORS
330
1419
102
}
330
1F
100
AcDbEntity
  8
実線
100
AcDbLine
 10
555.6936214527659
 20
920.7112939500271
 30
0.0
 11
555.6936214527659
 21
952.711293950027
 31
0.0
  0
ELLIPSE
  5
11CB
102
{ACAD_REACTORS
330
1419
102
}
330
1F
100
AcDbEntity
  8
実線
100
AcDbEllipse
 10
560.7602287710856
 20
928.2112939500271
 30
0.0
 11
0.0
 21
1.5
 31
0.0
210
0.0
220
0.0
230
1.0
 40
0.9986931231453969
 41
0.0
 42
1.570796326794897
  0
ELLIPSE
  5
11CC
102
{ACAD_REACTORS
330
1419
102
}
330
1F
100
AcDbEntity
  8
実線
100
AcDbEllipse
 10
561.0924319232281
 20
928.2112939500271
 30
0.0
 11
0.0
 21
1.5
 31
0.0
210
0.0
220
0.0
230
1.0
 40
0.9986931231453969
 41
4.71238898038469
 42
6.283185307179585
  0
LINE
  5
11CD
102
{ACAD_REACTORS
330
1419
102
}
330
1F
100
AcDbEntity
  8
実線
100
AcDbLine
 10
561.0924319232281
 20
929.7112939500271
 30
0.0
 11
560.7602287710856
 21
929.7112939500271
 31
0.0
  0
LINE
  5
11CE
102
{ACAD_REACTORS
330
1419
102
}
330
1F
100
AcDbEntity
  8
実線
100
AcDbLine
 10
560.7602287710856
 20
926.711293950027
 30
0.0
 11
561.0924319232281
 21
926.711293950027
 31
0.0
  0
ELLIPSE
  5
11CF
102
{ACAD_REACTORS
330
1419
102
}
330
1F
100
AcDbEntity
  8
実線
100
AcDbEllipse
 10
560.7602287710856
 20
928.2112939500271
 30
0.0
 11
0.0
 21
1.5
 31
0.0
210
0.0
220
0.0
230
1.0
 40
0.9986931231453969
 41
3.141592653589792
 42
6.283185307179585
  0
ELLIPSE
  5
11D0
102
{ACAD_REACTORS
330
1419
102
}
330
1F
100
AcDbEntity
  8
実線
100
AcDbEllipse
 10
560.7602287710856
 20
928.2112939500271
 30
0.0
 11
0.0
 21
1.5
 31
0.0
210
0.0
220
0.0
230
1.0
 40
0.9986931231453969
 41
1.570796326794897
 42
3.141592653589792
  0
ELLIPSE
  5
11D1
102
{ACAD_REACTORS
330
1419
102
}
330
1F
100
AcDbEntity
  8
実線
100
AcDbEllipse
 10
561.0924319232281
 20
928.2112939500271
 30
0.0
 11
0.0
 21
1.5
 31
0.0
210
0.0
220
0.0
230
1.0
 40
0.9986931231453969
 41
3.141592653589792
 42
4.71238898038469
  0
LINE
  5
11D2
102
{ACAD_REACTORS
330
1419
102
}
330
1F
100
AcDbEntity
  8
実線
100
AcDbLine
 10
557.1475940868039
 20
932.1612939500269
 30
0.0
 11
565.8156276293976
 21
932.1612939500269
 31
0.0
  0
LINE
  5
11D3
102
{ACAD_REACTORS
330
1419
102
}
330
1F
100
AcDbEntity
  8
実線
100
AcDbLine
 10
557.1475940868039
 20
924.2612939500272
 30
0.0
 11
565.8156276293976
 21
924.2612939500272
 31
0.0
  0
LINE
  5
11D4
102
{ACAD_REACTORS
330
1419
102
}
330
1F
100
AcDbEntity
  8
実線
100
AcDbLine
 10
557.1475940868039
 20
924.2612939500272
 30
0.0
 11
557.1475940868039
 21
932.1612939500271
 31
0.0
  0
LINE
  5
11D5
102
{ACAD_REACTORS
330
1419
102
}
330
1F
100
AcDbEntity
  8
実線
100
AcDbLine
 10
564.5379231980796
 20
932.1612939500269
 30
0.0
 11
564.5379231980796
 21
924.2612939500268
 31
0.0
  0
LINE
  5
11D6
102
{ACAD_REACTORS
330
1419
102
}
330
1F
100
AcDbEntity
  8
実線
100
AcDbLine
 10
565.8156276293976
 20
924.2612939500272
 30
0.0
 11
565.8156276293976
 21
932.1612939500271
 31
0.0
  0
LINE
  5
11D7
102
{ACAD_REACTORS
330
1419
102
}
330
1F
100
AcDbEntity
  8
実線
100
AcDbLine
 10
557.1475940868039
 20
941.7612939500273
 30
0.0
 11
565.8156276293976
 21
941.7612939500273
 31
0.0
  0
LINE
  5
11D8
102
{ACAD_REACTORS
330
1419
102
}
330
1F
100
AcDbEntity
  8
実線
100
AcDbLine
 10
557.1475940868039
 20
949.6612939500268
 30
0.0
 11
565.8156276293976
 21
949.6612939500268
 31
0.0
  0
LINE
  5
11D9
102
{ACAD_REACTORS
330
1419
102
}
330
1F
100
AcDbEntity
  8
実線
100
AcDbLine
 10
557.1475940868039
 20
941.7612939500273
 30
0.0
 11
557.1475940868039
 21
949.6612939500272
 31
0.0
  0
LINE
  5
11DA
102
{ACAD_REACTORS
330
1419
102
}
330
1F
100
AcDbEntity
  8
実線
100
AcDbLine
 10
564.5379231980796
 20
949.6612939500268
 30
0.0
 11
564.5379231980796
 21
941.7612939500273
 31
0.0
  0
LINE
  5
11DB
102
{ACAD_REACTORS
330
1419
102
}
330
1F
100
AcDbEntity
  8
実線
100
AcDbLine
 10
565.8156276293976
 20
941.7612939500273
 30
0.0
 11
565.8156276293976
 21
949.6612939500272
 31
0.0
  0
ELLIPSE
  5
11DC
102
{ACAD_REACTORS
330
1419
102
}
330
1F
100
AcDbEntity
  8
実線
100
AcDbEllipse
 10
561.0924319232281
 20
945.7112939500271
 30
0.0
 11
0.0
 21
1.5
 31
0.0
210
0.0
220
0.0
230
1.0
 40
0.9986931231453969
 41
4.71238898038469
 42
6.283185307179585
  0
LINE
  5
11DD
102
{ACAD_REACTORS
330
1419
102
}
330
1F
100
AcDbEntity
  8
実線
100
AcDbLine
 10
561.0924319232281
 20
947.211293950027
 30
0.0
 11
560.7602287710856
 21
947.211293950027
 31
0.0
  0
LINE
  5
11DE
102
{ACAD_REACTORS
330
1419
102
}
330
1F
100
AcDbEntity
  8
実線
100
AcDbLine
 10
560.7602287710856
 20
944.2112939500271
 30
0.0
 11
561.0924319232281
 21
944.2112939500271
 31
0.0
  0
ELLIPSE
  5
11DF
102
{ACAD_REACTORS
330
1419
102
}
330
1F
100
AcDbEntity
  8
実線
100
AcDbEllipse
 10
560.7602287710856
 20
945.7112939500271
 30
0.0
 11
0.0
 21
1.5
 31
0.0
210
0.0
220
0.0
230
1.0
 40
0.9986931231453969
 41
3.141592653589792
 42
6.283185307179585
  0
ELLIPSE
  5
11E0
102
{ACAD_REACTORS
330
1419
102
}
330
1F
100
AcDbEntity
  8
実線
100
AcDbEllipse
 10
560.7602287710856
 20
945.7112939500271
 30
0.0
 11
0.0
 21
1.5
 31
0.0
210
0.0
220
0.0
230
1.0
 40
0.9986931231453969
 41
1.570796326794897
 42
3.141592653589792
  0
ELLIPSE
  5
11E1
102
{ACAD_REACTORS
330
1419
102
}
330
1F
100
AcDbEntity
  8
実線
100
AcDbEllipse
 10
561.0924319232281
 20
945.7112939500271
 30
0.0
 11
0.0
 21
1.5
 31
0.0
210
0.0
220
0.0
230
1.0
 40
0.9986931231453969
 41
3.141592653589792
 42
4.71238898038469
  0
ELLIPSE
  5
11E2
102
{ACAD_REACTORS
330
1419
102
}
330
1F
100
AcDbEntity
  8
実線
100
AcDbEllipse
 10
560.7602287710856
 20
945.7112939500271
 30
0.0
 11
0.0
 21
1.5
 31
0.0
210
0.0
220
0.0
230
1.0
 40
0.9986931231453969
 41
0.0
 42
1.570796326794897
  0
LINE
  5
11E3
102
{ACAD_REACTORS
330
1419
102
}
330
1F
100
AcDbEntity
  8
実線
100
AcDbLine
 10
591.9003038484142
 20
947.4112939500269
 30
0.0
 11
565.9003038484143
 21
947.4112939500269
 31
0.0
  0
LINE
  5
11E4
102
{ACAD_REACTORS
330
1419
102
}
330
1F
100
AcDbEntity
  8
実線
100
AcDbLine
 10
565.9003038484143
 20
937.4112939500269
 30
0.0
 11
591.9003038484142
 21
937.4112939500269
 31
0.0
  0
LINE
  5
11E5
102
{ACAD_REACTORS
330
1419
102
}
330
1F
100
AcDbEntity
  8
実線
100
AcDbLine
 10
591.9003038484142
 20
937.4112939500269
 30
0.0
 11
591.9003038484142
 21
947.4112939500269
 31
0.0
  0
LINE
  5
11E6
102
{ACAD_REACTORS
330
1419
102
}
330
1F
100
AcDbEntity
  8
実線
100
AcDbLine
 10
565.9003038484143
 20
947.4112939500269
 30
0.0
 11
565.9003038484143
 21
937.4112939500269
 31
0.0
  0
LINE
  5
11E7
102
{ACAD_REACTORS
330
1419
102
}
330
1F
100
AcDbEntity
  8
実線
100
AcDbLine
 10
591.9003038484134
 20
321.011293950027
 30
0.0
 11
585.578346306806
 21
321.011293950027
 31
0.0
  0
LINE
  5
11E8
102
{ACAD_REACTORS
330
1419
102
}
330
1F
100
AcDbEntity
  8
実線
100
AcDbLine
 10
585.578346306806
 20
311.011293950027
 30
0.0
 11
591.9003038484134
 21
311.011293950027
 31
0.0
  0
LINE
  5
11E9
102
{ACAD_REACTORS
330
1419
102
}
330
1F
100
AcDbEntity
  8
実線
100
AcDbLine
 10
591.9003038484134
 20
311.011293950027
 30
0.0
 11
591.9003038484134
 21
321.011293950027
 31
0.0
  0
ELLIPSE
  5
11EA
102
{ACAD_REACTORS
330
1419
102
}
330
1F
100
AcDbEntity
  8
実線
100
AcDbEllipse
 10
553.8563058148747
 20
312.711293950027
 30
0.0
 11
0.0
 21
1.5
 31
0.0
210
0.0
220
0.0
230
1.0
 40
0.0511081772527003
 41
0.0
 42
1.570796326794897
  0
LINE
  5
11EB
102
{ACAD_REACTORS
330
1419
102
}
330
1F
100
AcDbEntity
  8
実線
100
AcDbLine
 10
555.5562227997411
 20
314.211293950027
 30
0.0
 11
553.8563058148747
 21
314.211293950027
 31
0.0
  0
LINE
  5
11EC
102
{ACAD_REACTORS
330
1419
102
}
330
1F
100
AcDbEntity
  8
実線
100
AcDbLine
 10
553.8563058148747
 20
311.211293950027
 30
0.0
 11
555.5562227997411
 21
311.211293950027
 31
0.0
  0
ELLIPSE
  5
11ED
102
{ACAD_REACTORS
330
1419
102
}
330
1F
100
AcDbEntity
  8
実線
100
AcDbEllipse
 10
553.8563058148747
 20
312.711293950027
 30
0.0
 11
0.0
 21
1.5
 31
0.0
210
0.0
220
0.0
230
1.0
 40
0.0511081772527003
 41
3.14159265358979
 42
6.283185307179585
  0
ELLIPSE
  5
11EE
102
{ACAD_REACTORS
330
1419
102
}
330
1F
100
AcDbEntity
  8
実線
100
AcDbEllipse
 10
553.8563058148747
 20
312.711293950027
 30
0.0
 11
0.0
 21
1.5
 31
0.0
210
0.0
220
0.0
230
1.0
 40
0.0511081772527003
 41
1.570796326794897
 42
3.14159265358979
  0
ELLIPSE
  5
11EF
102
{ACAD_REACTORS
330
1419
102
}
330
1F
100
AcDbEntity
  8
実線
100
AcDbEllipse
 10
553.8563058148747
 20
330.211293950027
 30
0.0
 11
0.0
 21
1.5
 31
0.0
210
0.0
220
0.0
230
1.0
 40
0.0511081772527003
 41
0.0
 42
1.570796326794897
  0
LINE
  5
11F0
102
{ACAD_REACTORS
330
1419
102
}
330
1F
100
AcDbEntity
  8
実線
100
AcDbLine
 10
555.5562227997411
 20
331.711293950027
 30
0.0
 11
553.8563058148747
 21
331.711293950027
 31
0.0
  0
LINE
  5
11F1
102
{ACAD_REACTORS
330
1419
102
}
330
1F
100
AcDbEntity
  8
実線
100
AcDbLine
 10
553.8563058148747
 20
328.711293950027
 30
0.0
 11
555.5562227997411
 21
328.711293950027
 31
0.0
  0
ELLIPSE
  5
11F2
102
{ACAD_REACTORS
330
1419
102
}
330
1F
100
AcDbEntity
  8
実線
100
AcDbEllipse
 10
553.8563058148747
 20
330.211293950027
 30
0.0
 11
0.0
 21
1.5
 31
0.0
210
0.0
220
0.0
230
1.0
 40
0.0511081772527003
 41
3.14159265358979
 42
6.283185307179585
  0
ELLIPSE
  5
11F3
102
{ACAD_REACTORS
330
1419
102
}
330
1F
100
AcDbEntity
  8
実線
100
AcDbEllipse
 10
553.8563058148747
 20
330.211293950027
 30
0.0
 11
0.0
 21
1.5
 31
0.0
210
0.0
220
0.0
230
1.0
 40
0.0511081772527003
 41
1.570796326794897
 42
3.14159265358979
  0
LINE
  5
11F4
102
{ACAD_REACTORS
330
1419
102
}
330
1F
100
AcDbEntity
  8
実線
100
AcDbLine
 10
555.5562227997411
 20
305.711293950027
 30
0.0
 11
585.578346306806
 21
305.711293950027
 31
0.0
  0
LINE
  5
11F5
102
{ACAD_REACTORS
330
1419
102
}
330
1F
100
AcDbEntity
  8
実線
100
AcDbLine
 10
555.5562227997411
 20
305.711293950027
 30
0.0
 11
555.5562227997411
 21
337.711293950027
 31
0.0
  0
LINE
  5
11F6
102
{ACAD_REACTORS
330
1419
102
}
330
1F
100
AcDbEntity
  8
実線
100
AcDbLine
 10
555.6175526124443
 20
337.711293950027
 30
0.0
 11
555.6175526124443
 21
305.711293950027
 31
0.0
  0
LINE
  5
11F7
102
{ACAD_REACTORS
330
1419
102
}
330
1F
100
AcDbEntity
  8
実線
100
AcDbLine
 10
585.578346306806
 20
336.511293950027
 30
0.0
 11
585.578346306806
 21
305.711293950027
 31
0.0
  0
LINE
  5
11F8
102
{ACAD_REACTORS
330
1419
102
}
330
1F
100
AcDbEntity
  8
実線
100
AcDbLine
 10
643.8003038484139
 20
676.8612939500269
 30
0.0
 11
625.8774736172981
 21
676.8612939500269
 31
0.0
  0
LINE
  5
11F9
102
{ACAD_REACTORS
330
1419
102
}
330
1F
100
AcDbEntity
  8
実線
100
AcDbLine
 10
618.1908357126554
 20
638.761293950027
 30
0.0
 11
643.8003038484144
 21
638.761293950027
 31
0.0
  0
LINE
  5
11FA
102
{ACAD_REACTORS
330
1419
102
}
330
1F
100
AcDbEntity
  8
実線
100
AcDbLine
 10
643.8003038484139
 20
638.761293950027
 30
0.0
 11
646.1503038484143
 21
632.561293950027
 31
0.0
  0
LINE
  5
11FB
102
{ACAD_REACTORS
330
1419
102
}
330
1F
100
AcDbEntity
  8
実線
100
AcDbLine
 10
646.1503038484143
 20
683.0612939500269
 30
0.0
 11
643.8003038484144
 21
676.8612939500269
 31
0.0
  0
LINE
  5
11FC
102
{ACAD_REACTORS
330
1419
102
}
330
1F
100
AcDbEntity
  8
実線
100
AcDbLine
 10
643.8003038484139
 20
676.8612939500269
 30
0.0
 11
643.8003038484139
 21
638.761293950027
 31
0.0
  0
LINE
  5
11FD
102
{ACAD_REACTORS
330
1419
102
}
330
1F
100
AcDbEntity
  8
実線
100
AcDbLine
 10
648.9003038484143
 20
683.0612939500269
 30
0.0
 11
646.1503038484143
 21
683.0612939500269
 31
0.0
  0
LINE
  5
11FE
102
{ACAD_REACTORS
330
1419
102
}
330
1F
100
AcDbEntity
  8
実線
100
AcDbLine
 10
646.1503038484143
 20
632.561293950027
 30
0.0
 11
648.9003038484143
 21
632.561293950027
 31
0.0
  0
LINE
  5
11FF
102
{ACAD_REACTORS
330
1419
102
}
330
1F
100
AcDbEntity
  8
実線
100
AcDbLine
 10
648.9003038484143
 20
632.561293950027
 30
0.0
 11
648.9003038484143
 21
683.0612939500269
 31
0.0
  0
LINE
  5
1200
102
{ACAD_REACTORS
330
1419
102
}
330
1F
100
AcDbEntity
  8
実線
100
AcDbLine
 10
646.1503038484143
 20
632.561293950027
 30
0.0
 11
646.1503038484143
 21
683.0612939500269
 31
0.0
  0
LINE
  5
1201
102
{ACAD_REACTORS
330
1419
102
}
330
1F
100
AcDbEntity
  8
実線
100
AcDbLine
 10
594.8501545275389
 20
639.4612939500269
 30
0.0
 11
575.9837793320015
 21
639.4612939500269
 31
0.0
  0
LINE
  5
1202
102
{ACAD_REACTORS
330
1419
102
}
330
1F
100
AcDbEntity
  8
実線
100
AcDbLine
 10
531.9231340795304
 20
676.8612939500269
 30
0.0
 11
514.0003038484142
 21
676.8612939500269
 31
0.0
  0
LINE
  5
1203
102
{ACAD_REACTORS
330
1419
102
}
330
1F
100
AcDbEntity
  8
実線
100
AcDbLine
 10
514.0003038484142
 20
676.8612939500269
 30
0.0
 11
514.0003038484142
 21
654.127318561848
 31
0.0
  0
LINE
  5
1204
102
{ACAD_REACTORS
330
1419
102
}
330
1F
100
AcDbEntity
  8
実線
100
AcDbLine
 10
514.0003038484142
 20
676.8612939500269
 30
0.0
 11
511.6503038484142
 21
683.0612939500269
 31
0.0
  0
LINE
  5
1205
102
{ACAD_REACTORS
330
1419
102
}
330
1F
100
AcDbEntity
  8
実線
100
AcDbLine
 10
508.9003038484142
 20
683.0612939500269
 30
0.0
 11
508.9003038484142
 21
646.9148293937453
 31
0.0
  0
LINE
  5
1206
102
{ACAD_REACTORS
330
1419
102
}
330
1F
100
AcDbEntity
  8
実線
100
AcDbLine
 10
511.6503038484142
 20
683.0612939500269
 30
0.0
 11
511.6503038484142
 21
650.8039166902713
 31
0.0
  0
LINE
  5
1207
102
{ACAD_REACTORS
330
1419
102
}
330
1F
100
AcDbEntity
  8
実線
100
AcDbLine
 10
511.6503038484142
 20
683.0612939500269
 30
0.0
 11
508.9003038484142
 21
683.0612939500269
 31
0.0
  0
CIRCLE
  5
1208
102
{ACAD_REACTORS
330
1419
102
}
330
1F
100
AcDbEntity
  8
実線
100
AcDbCircle
 10
578.9003038484143
 20
600.6112939500269
 30
0.0
 40
25.25
  0
LINE
  5
1209
102
{ACAD_REACTORS
330
1419
102
}
330
1F
100
AcDbEntity
  8
実線
100
AcDbLine
 10
566.7908503306343
 20
921.9112939500268
 30
0.0
 11
556.8920532005404
 21
921.9112939500268
 31
0.0
  0
LINE
  5
120A
102
{ACAD_REACTORS
330
1419
102
}
330
1F
100
AcDbEntity
  8
実線
100
AcDbLine
 10
566.7908503306343
 20
920.7112939500271
 30
0.0
 11
566.7908503306343
 21
921.9112939500268
 31
0.0
  0
LINE
  5
120B
102
{ACAD_REACTORS
330
1419
102
}
330
1F
100
AcDbEntity
  8
実線
100
AcDbLine
 10
566.2797685581072
 20
920.7112939500271
 30
0.0
 11
566.2797685581072
 21
921.9112939500268
 31
0.0
  0
ELLIPSE
  5
120C
102
{ACAD_REACTORS
330
1419
102
}
330
1F
100
AcDbEntity
  8
実線
100
AcDbEllipse
 10
612.4878759547755
 20
629.2112939500269
 30
0.0
 11
0.0
 21
12.5
 31
0.0
210
0.0
220
0.0
230
1.0
 40
0.7071067811865475
 41
3.141592653589792
 42
4.71238898038469
  0
LINE
  5
120D
102
{ACAD_REACTORS
330
1419
102
}
330
1F
100
AcDbEntity
  8
実線
100
AcDbLine
 10
612.4878759547755
 20
641.7112939500269
 30
0.0
 11
601.4282742003356
 21
641.7112939500269
 31
0.0
  0
LINE
  5
120E
102
{ACAD_REACTORS
330
1419
102
}
330
1F
100
AcDbEntity
  8
実線
100
AcDbLine
 10
601.4282742003356
 20
616.7112939500269
 30
0.0
 11
612.4878759547755
 21
616.7112939500269
 31
0.0
  0
ELLIPSE
  5
120F
102
{ACAD_REACTORS
330
1419
102
}
330
1F
100
AcDbEntity
  8
実線
100
AcDbEllipse
 10
612.4878759547755
 20
629.2112939500269
 30
0.0
 11
0.0
 21
12.5
 31
0.0
210
0.0
220
0.0
230
1.0
 40
0.7071067811865475
 41
0.0
 42
3.141592653589792
  0
ELLIPSE
  5
1210
102
{ACAD_REACTORS
330
1419
102
}
330
1F
100
AcDbEntity
  8
実線
100
AcDbEllipse
 10
612.4878759547755
 20
629.2112939500269
 30
0.0
 11
0.0
 21
12.5
 31
0.0
210
0.0
220
0.0
230
1.0
 40
0.7071067811865475
 41
4.71238898038469
 42
6.283185307179585
  0
LINE
  5
1211
102
{ACAD_REACTORS
330
1419
102
}
330
1F
100
AcDbEntity
  8
実線
100
AcDbLine
 10
538.9003038484133
 20
552.7112939500269
 30
0.0
 11
538.9003038484133
 21
407.2112939500271
 31
0.0
  0
LINE
  5
1212
102
{ACAD_REACTORS
330
1419
102
}
330
1F
100
AcDbEntity
  8
実線
100
AcDbLine
 10
618.9003038484133
 20
407.211293950027
 30
0.0
 11
618.9003038484133
 21
552.7112939500269
 31
0.0
  0
LINE
  5
1213
102
{ACAD_REACTORS
330
1419
102
}
330
1F
100
AcDbEntity
  8
実線
100
AcDbLine
 10
618.9003038484133
 20
407.211293950027
 30
0.0
 11
538.9003038484133
 21
407.211293950027
 31
0.0
  0
LINE
  5
1214
102
{ACAD_REACTORS
330
1419
102
}
330
1F
100
AcDbEntity
  8
実線
100
AcDbLine
 10
538.9003038484133
 20
407.211293950027
 30
0.0
 11
531.4003038484133
 21
399.711293950027
 31
0.0
  0
LINE
  5
1215
102
{ACAD_REACTORS
330
1419
102
}
330
1F
100
AcDbEntity
  8
実線
100
AcDbLine
 10
626.4003038484133
 20
399.711293950027
 30
0.0
 11
618.9003038484133
 21
407.211293950027
 31
0.0
  0
LINE
  5
1216
102
{ACAD_REACTORS
330
1419
102
}
330
1F
100
AcDbEntity
  8
実線
100
AcDbLine
 10
531.4003038484133
 20
399.711293950027
 30
0.0
 11
626.4003038484133
 21
399.711293950027
 31
0.0
  0
LINE
  5
1217
102
{ACAD_REACTORS
330
1419
102
}
330
1F
100
AcDbEntity
  8
実線
100
AcDbLine
 10
626.4003038484133
 20
342.711293950027
 30
0.0
 11
531.4003038484133
 21
342.711293950027
 31
0.0
  0
LINE
  5
1218
102
{ACAD_REACTORS
330
1419
102
}
330
1F
100
AcDbEntity
  8
実線
100
AcDbLine
 10
531.4003038484133
 20
399.711293950027
 30
0.0
 11
531.4003038484133
 21
342.711293950027
 31
0.0
  0
LINE
  5
1219
102
{ACAD_REACTORS
330
1419
102
}
330
1F
100
AcDbEntity
  8
実線
100
AcDbLine
 10
626.4003038484133
 20
342.711293950027
 30
0.0
 11
626.4003038484133
 21
399.711293950027
 31
0.0
  0
LINE
  5
121A
102
{ACAD_REACTORS
330
1419
102
}
330
1F
100
AcDbEntity
  8
実線
100
AcDbLine
 10
555.6936214527659
 20
921.9112939500268
 30
0.0
 11
547.328069640253
 21
921.9112939500268
 31
0.0
  0
LINE
  5
121B
102
{ACAD_REACTORS
330
1419
102
}
330
1F
100
AcDbEntity
  8
実線
100
AcDbLine
 10
547.3280696402534
 20
920.7112939500271
 30
0.0
 11
547.3280696402534
 21
921.9112939500268
 31
0.0
  0
LINE
  5
121C
102
{ACAD_REACTORS
330
1419
102
}
330
1F
100
AcDbEntity
  8
実線
100
AcDbLine
 10
531.9231340795304
 20
675.7112939500269
 30
0.0
 11
625.8774736172981
 21
675.7112939500269
 31
0.0
  0
LINE
  5
121D
102
{ACAD_REACTORS
330
1419
102
}
330
1F
100
AcDbEntity
  8
実線
100
AcDbLine
 10
625.8774736172981
 20
675.7112939500269
 30
0.0
 11
625.8774736172981
 21
685.7112939500269
 31
0.0
  0
LINE
  5
121E
102
{ACAD_REACTORS
330
1419
102
}
330
1F
100
AcDbEntity
  8
実線
100
AcDbLine
 10
531.9231340795304
 20
685.7112939500269
 30
0.0
 11
531.9231340795304
 21
675.7112939500269
 31
0.0
  0
LINE
  5
121F
102
{ACAD_REACTORS
330
1419
102
}
330
1F
100
AcDbEntity
  8
実線
100
AcDbLine
 10
560.8714070379901
 20
685.7112939500269
 30
0.0
 11
560.8714070379901
 21
675.7112939500269
 31
0.0
  0
LINE
  5
1220
102
{ACAD_REACTORS
330
1419
102
}
330
1F
100
AcDbEntity
  8
実線
100
AcDbLine
 10
596.9292006588384
 20
685.7112939500269
 30
0.0
 11
596.9292006588384
 21
675.7112939500269
 31
0.0
  0
LINE
  5
1221
102
{ACAD_REACTORS
330
1419
102
}
330
1F
100
AcDbEntity
  8
実線
100
AcDbLine
 10
613.541319999792
 20
611.893326252782
 30
0.0
 11
610.7596650528403
 21
616.711293950027
 31
0.0
  0
ARC
  5
1222
102
{ACAD_REACTORS
330
1419
102
}
330
1F
100
AcDbEntity
  8
実線
100
AcDbCircle
 10
578.9003038484143
 20
591.8933262527821
 30
0.0
 40
40.0
100
AcDbArc
 50
0.0
 51
29.99999999999517
  0
ARC
  5
1223
102
{ACAD_REACTORS
330
1419
102
}
330
1F
100
AcDbEntity
  8
実線
100
AcDbCircle
 10
578.9003038484143
 20
591.8933262527821
 30
0.0
 40
40.0
100
AcDbArc
 50
169.0187894681048
 51
180.0
  0
LINE
  5
1224
102
{ACAD_REACTORS
330
1419
102
}
330
1F
100
AcDbEntity
  8
実線
100
AcDbLine
 10
538.9003038484142
 20
591.8933262527821
 30
0.0
 11
538.9003038484142
 21
582.711293950027
 31
0.0
  0
LINE
  5
1225
102
{ACAD_REACTORS
330
1419
102
}
330
1F
100
AcDbEntity
  8
実線
100
AcDbLine
 10
618.9003038484143
 20
582.711293950027
 30
0.0
 11
618.9003038484143
 21
591.8933262527821
 31
0.0
  0
LINE
  5
1226
102
{ACAD_REACTORS
330
1419
102
}
330
1F
100
AcDbEntity
  8
実線
100
AcDbLine
 10
621.4003038484142
 20
920.7112939500271
 30
0.0
 11
536.4003038484143
 21
920.7112939500271
 31
0.0
  0
ARC
  5
1227
102
{ACAD_REACTORS
330
1419
102
}
330
1F
100
AcDbEntity
  8
実線
100
AcDbCircle
 10
621.4003038484142
 20
915.7112939500271
 30
0.0
 40
5.0
100
AcDbArc
 50
0.0
 51
90.0
  0
ARC
  5
1228
102
{ACAD_REACTORS
330
1419
102
}
330
1F
100
AcDbEntity
  8
実線
100
AcDbCircle
 10
536.4003038484143
 20
915.7112939500271
 30
0.0
 40
5.0
100
AcDbArc
 50
90.0
 51
180.0
  0
LINE
  5
1229
102
{ACAD_REACTORS
330
1419
102
}
330
1F
100
AcDbEntity
  8
実線
100
AcDbLine
 10
531.4003038484143
 20
915.7112939500271
 30
0.0
 11
626.4003038484142
 21
915.7112939500271
 31
0.0
  0
LINE
  5
122A
102
{ACAD_REACTORS
330
1419
102
}
330
1F
100
AcDbEntity
  8
実線
100
AcDbLine
 10
621.4003038484134
 20
337.711293950027
 30
0.0
 11
536.4003038484134
 21
337.711293950027
 31
0.0
  0
ARC
  5
122B
102
{ACAD_REACTORS
330
1419
102
}
330
1F
100
AcDbEntity
  8
実線
100
AcDbCircle
 10
536.4003038484134
 20
342.711293950027
 30
0.0
 40
5.0
100
AcDbArc
 50
180.0
 51
270.0
  0
ARC
  5
122C
102
{ACAD_REACTORS
330
1419
102
}
330
1F
100
AcDbEntity
  8
実線
100
AcDbCircle
 10
621.4003038484134
 20
342.711293950027
 30
0.0
 40
5.0
100
AcDbArc
 50
270.0
 51
0.0
  0
LINE
  5
122D
102
{ACAD_REACTORS
330
1419
102
}
330
1F
100
AcDbEntity
  8
実線
100
AcDbLine
 10
634.1949827359617
 20
629.2112939500269
 30
0.0
 11
616.8167405108997
 21
604.6347481051393
 31
0.0
  0
LINE
  5
122E
102
{ACAD_REACTORS
330
1419
102
}
330
1F
100
AcDbEntity
  8
実線
100
AcDbLine
 10
551.1339259740098
 20
599.512809140192
 30
0.0
 11
546.0198385232397
 21
599.512809140192
 31
0.0
  0
LINE
  5
122F
102
{ACAD_REACTORS
330
1419
102
}
330
1F
100
AcDbEntity
  8
実線
100
AcDbLine
 10
551.1339259740098
 20
658.9097787598619
 30
0.0
 11
546.0198385232397
 21
658.9097787598619
 31
0.0
  0
LINE
  5
1230
102
{ACAD_REACTORS
330
1419
102
}
330
1F
100
AcDbEntity
  8
実線
100
AcDbLine
 10
546.0198385232397
 20
658.9097787598619
 30
0.0
 11
567.0198385232397
 21
629.2112939500269
 31
0.0
  0
LINE
  5
1231
102
{ACAD_REACTORS
330
1419
102
}
330
1F
100
AcDbEntity
  8
実線
100
AcDbLine
 10
621.326710719607
 20
629.2112939500269
 30
0.0
 11
634.1949827359617
 21
629.2112939500269
 31
0.0
  0
LINE
  5
1232
102
{ACAD_REACTORS
330
1419
102
}
330
1F
100
AcDbEntity
  8
実線
100
AcDbLine
 10
567.0198385232397
 20
629.2112939500269
 30
0.0
 11
591.0614690835823
 21
629.2112939500269
 31
0.0
  0
LINE
  5
1233
102
{ACAD_REACTORS
330
1419
102
}
330
1F
100
AcDbEntity
  8
実線
100
AcDbLine
 10
627.4421129756301
 20
638.761293950027
 30
0.0
 11
634.1949827359617
 21
629.2112939500269
 31
0.0
  0
LINE
  5
1234
102
{ACAD_REACTORS
330
1419
102
}
330
1F
100
AcDbEntity
  8
実線
100
AcDbLine
 10
561.0915279219225
 20
582.711293950027
 30
0.0
 11
531.9231340795304
 21
582.711293950027
 31
0.0
  0
LINE
  5
1235
102
{ACAD_REACTORS
330
1419
102
}
330
1F
100
AcDbEntity
  8
実線
100
AcDbLine
 10
596.709079774906
 20
582.711293950027
 30
0.0
 11
625.8774736172981
 21
582.711293950027
 31
0.0
  0
LINE
  5
1236
102
{ACAD_REACTORS
330
1419
102
}
330
1F
100
AcDbEntity
  8
実線
100
AcDbLine
 10
625.8774736172981
 20
572.7112939500269
 30
0.0
 11
531.9231340795304
 21
572.7112939500269
 31
0.0
  0
LINE
  5
1237
102
{ACAD_REACTORS
330
1419
102
}
330
1F
100
AcDbEntity
  8
実線
100
AcDbLine
 10
531.9231340795304
 20
582.711293950027
 30
0.0
 11
531.9231340795304
 21
572.7112939500269
 31
0.0
  0
LINE
  5
1238
102
{ACAD_REACTORS
330
1419
102
}
330
1F
100
AcDbEntity
  8
実線
100
AcDbLine
 10
625.8774736172981
 20
572.7112939500269
 30
0.0
 11
625.8774736172981
 21
582.711293950027
 31
0.0
  0
LINE
  5
1239
102
{ACAD_REACTORS
330
1419
102
}
330
1F
100
AcDbEntity
  8
実線
100
AcDbLine
 10
596.9292006588384
 20
572.7112939500269
 30
0.0
 11
596.9292006588384
 21
582.711293950027
 31
0.0
  0
LINE
  5
123A
102
{ACAD_REACTORS
330
1419
102
}
330
1F
100
AcDbEntity
  8
実線
100
AcDbLine
 10
560.8714070379901
 20
572.7112939500269
 30
0.0
 11
560.8714070379901
 21
582.711293950027
 31
0.0
  0
LINE
  5
123B
102
{ACAD_REACTORS
330
1419
102
}
330
1F
100
AcDbEntity
  8
実線
100
AcDbLine
 10
618.9003038484143
 20
705.7112939500269
 30
0.0
 11
538.9003038484142
 21
705.7112939500269
 31
0.0
  0
LINE
  5
123C
102
{ACAD_REACTORS
330
1419
102
}
330
1F
100
AcDbEntity
  8
実線
100
AcDbLine
 10
618.9003038484143
 20
705.7112939500269
 30
0.0
 11
618.9003038484143
 21
851.2112939500269
 31
0.0
  0
LINE
  5
123D
102
{ACAD_REACTORS
330
1419
102
}
330
1F
100
AcDbEntity
  8
実線
100
AcDbLine
 10
538.9003038484142
 20
851.2112939500269
 30
0.0
 11
538.9003038484142
 21
705.7112939500269
 31
0.0
  0
LINE
  5
123E
102
{ACAD_REACTORS
330
1419
102
}
330
1F
100
AcDbEntity
  8
実線
100
AcDbLine
 10
618.9003038484143
 20
851.2112939500269
 30
0.0
 11
626.4003038484142
 21
858.711293950027
 31
0.0
  0
LINE
  5
123F
102
{ACAD_REACTORS
330
1419
102
}
330
1F
100
AcDbEntity
  8
実線
100
AcDbLine
 10
531.4003038484143
 20
858.711293950027
 30
0.0
 11
538.9003038484142
 21
851.2112939500269
 31
0.0
  0
LINE
  5
1240
102
{ACAD_REACTORS
330
1419
102
}
330
1F
100
AcDbEntity
  8
実線
100
AcDbLine
 10
618.9003038484143
 20
851.2112939500269
 30
0.0
 11
538.9003038484142
 21
851.2112939500269
 31
0.0
  0
LINE
  5
1241
102
{ACAD_REACTORS
330
1419
102
}
330
1F
100
AcDbEntity
  8
実線
100
AcDbLine
 10
626.4003038484142
 20
858.711293950027
 30
0.0
 11
626.4003038484142
 21
915.7112939500271
 31
0.0
  0
LINE
  5
1242
102
{ACAD_REACTORS
330
1419
102
}
330
1F
100
AcDbEntity
  8
実線
100
AcDbLine
 10
531.4003038484143
 20
915.7112939500271
 30
0.0
 11
531.4003038484143
 21
858.711293950027
 31
0.0
  0
LINE
  5
1243
102
{ACAD_REACTORS
330
1419
102
}
330
1F
100
AcDbEntity
  8
実線
100
AcDbLine
 10
531.4003038484143
 20
858.711293950027
 30
0.0
 11
626.4003038484142
 21
858.711293950027
 31
0.0
  0
LINE
  5
1244
102
{ACAD_REACTORS
330
1419
102
}
330
1F
100
AcDbEntity
  8
実線
100
AcDbLine
 10
625.8774736172973
 20
559.7112939500269
 30
0.0
 11
625.8774736172973
 21
572.7112939500269
 31
0.0
  0
LINE
  5
1245
102
{ACAD_REACTORS
330
1419
102
}
330
1F
100
AcDbEntity
  8
実線
100
AcDbLine
 10
625.8774736172973
 20
559.7112939500269
 30
0.0
 11
596.9292006588375
 21
559.7112939500269
 31
0.0
  0
LINE
  5
1246
102
{ACAD_REACTORS
330
1419
102
}
330
1F
100
AcDbEntity
  8
実線
100
AcDbLine
 10
531.9231340795295
 20
559.7112939500269
 30
0.0
 11
560.8714070379892
 21
559.7112939500269
 31
0.0
  0
LINE
  5
1247
102
{ACAD_REACTORS
330
1419
102
}
330
1F
100
AcDbEntity
  8
実線
100
AcDbLine
 10
531.9231340795295
 20
572.7112939500269
 30
0.0
 11
531.9231340795295
 21
559.7112939500269
 31
0.0
  0
LINE
  5
1248
102
{ACAD_REACTORS
330
1419
102
}
330
1F
100
AcDbEntity
  8
実線
100
AcDbLine
 10
618.9003038484133
 20
552.7112939500269
 30
0.0
 11
538.9003038484133
 21
552.7112939500269
 31
0.0
  0
LINE
  5
1249
102
{ACAD_REACTORS
330
1419
102
}
330
1F
100
AcDbEntity
  8
実線
100
AcDbLine
 10
596.9292006588375
 20
559.7112939500269
 30
0.0
 11
596.9292006588375
 21
572.7112939500269
 31
0.0
  0
LINE
  5
124A
102
{ACAD_REACTORS
330
1419
102
}
330
1F
100
AcDbEntity
  8
実線
100
AcDbLine
 10
560.8714070379892
 20
559.7112939500269
 30
0.0
 11
560.8714070379892
 21
572.7112939500269
 31
0.0
  0
LINE
  5
124B
102
{ACAD_REACTORS
330
1419
102
}
330
1F
100
AcDbEntity
  8
実線
100
AcDbLine
 10
618.9003038484133
 20
552.7112939500269
 30
0.0
 11
618.9003038484133
 21
559.7112939500269
 31
0.0
  0
LINE
  5
124C
102
{ACAD_REACTORS
330
1419
102
}
330
1F
100
AcDbEntity
  8
実線
100
AcDbLine
 10
538.9003038484133
 20
559.7112939500269
 30
0.0
 11
538.9003038484133
 21
552.7112939500269
 31
0.0
  0
LINE
  5
124D
102
{ACAD_REACTORS
330
1419
102
}
330
1F
100
AcDbEntity
  8
実線
100
AcDbLine
 10
506.633990811214
 20
634.2112939500269
 30
0.0
 11
506.633990811214
 21
644.2112939500266
 31
0.0
  0
LINE
  5
124E
102
{ACAD_REACTORS
330
1419
102
}
330
1F
100
AcDbEntity
  8
実線
100
AcDbLine
 10
506.633990811214
 20
622.2112939500268
 30
0.0
 11
506.633990811214
 21
624.2112939500268
 31
0.0
  0
LINE
  5
124F
102
{ACAD_REACTORS
330
1419
102
}
330
1F
100
AcDbEntity
  8
実線
100
AcDbLine
 10
512.5383324340568
 20
622.2112939500268
 30
0.0
 11
506.633990811214
 21
622.2112939500268
 31
0.0
  0
LINE
  5
1250
102
{ACAD_REACTORS
330
1419
102
}
330
1F
100
AcDbEntity
  8
実線
100
AcDbLine
 10
506.633990811214
 20
644.2112939500267
 30
0.0
 11
512.5383324340564
 21
644.2112939500267
 31
0.0
  0
LINE
  5
1251
102
{ACAD_REACTORS
330
1419
102
}
330
1F
100
AcDbEntity
  8
実線
100
AcDbLine
 10
555.0758059335658
 20
337.711293950027
 30
0.0
 11
555.0758059335658
 21
336.511293950027
 31
0.0
  0
LINE
  5
1252
102
{ACAD_REACTORS
330
1419
102
}
330
1F
100
AcDbEntity
  8
実線
100
AcDbLine
 10
555.0758059335658
 20
336.511293950027
 30
0.0
 11
555.5562227997406
 21
336.511293950027
 31
0.0
  0
LINE
  5
1253
102
{ACAD_REACTORS
330
1419
102
}
330
1F
100
AcDbEntity
  8
実線
100
AcDbLine
 10
531.9231340795304
 20
698.711293950027
 30
0.0
 11
531.9231340795304
 21
685.7112939500269
 31
0.0
  0
LINE
  5
1254
102
{ACAD_REACTORS
330
1419
102
}
330
1F
100
AcDbEntity
  8
実線
100
AcDbLine
 10
531.9231340795304
 20
685.7112939500269
 30
0.0
 11
625.8774736172981
 21
685.7112939500269
 31
0.0
  0
LINE
  5
1255
102
{ACAD_REACTORS
330
1419
102
}
330
1F
100
AcDbEntity
  8
実線
100
AcDbLine
 10
531.9231340795304
 20
698.711293950027
 30
0.0
 11
560.8714070379901
 21
698.711293950027
 31
0.0
  0
LINE
  5
1256
102
{ACAD_REACTORS
330
1419
102
}
330
1F
100
AcDbEntity
  8
実線
100
AcDbLine
 10
625.8774736172981
 20
698.711293950027
 30
0.0
 11
596.9292006588384
 21
698.711293950027
 31
0.0
  0
LINE
  5
1257
102
{ACAD_REACTORS
330
1419
102
}
330
1F
100
AcDbEntity
  8
実線
100
AcDbLine
 10
625.8774736172981
 20
685.7112939500269
 30
0.0
 11
625.8774736172981
 21
698.711293950027
 31
0.0
  0
LINE
  5
1258
102
{ACAD_REACTORS
330
1419
102
}
330
1F
100
AcDbEntity
  8
実線
100
AcDbLine
 10
596.9292006588384
 20
698.711293950027
 30
0.0
 11
596.9292006588384
 21
685.7112939500269
 31
0.0
  0
LINE
  5
1259
102
{ACAD_REACTORS
330
1419
102
}
330
1F
100
AcDbEntity
  8
実線
100
AcDbLine
 10
560.8714070379901
 20
698.711293950027
 30
0.0
 11
560.8714070379901
 21
685.7112939500269
 31
0.0
  0
LINE
  5
125A
102
{ACAD_REACTORS
330
1419
102
}
330
1F
100
AcDbEntity
  8
実線
100
AcDbLine
 10
538.9003038484142
 20
705.7112939500269
 30
0.0
 11
538.9003038484142
 21
698.711293950027
 31
0.0
  0
LINE
  5
125B
102
{ACAD_REACTORS
330
1419
102
}
330
1F
100
AcDbEntity
  8
実線
100
AcDbLine
 10
618.9003038484143
 20
698.711293950027
 30
0.0
 11
618.9003038484143
 21
705.7112939500269
 31
0.0
  0
LINE
  5
125C
102
{ACAD_REACTORS
330
1419
102
}
330
1F
100
AcDbEntity
  8
実線
100
AcDbLine
 10
586.0587631729813
 20
336.511293950027
 30
0.0
 11
575.5914150753519
 21
336.511293950027
 31
0.0
  0
LINE
  5
125D
102
{ACAD_REACTORS
330
1419
102
}
330
1F
100
AcDbEntity
  8
実線
100
AcDbLine
 10
586.0587631729813
 20
337.711293950027
 30
0.0
 11
586.0587631729813
 21
336.511293950027
 31
0.0
  0
LINE
  5
125E
102
{ACAD_REACTORS
330
1419
102
}
330
1F
100
AcDbEntity
  8
実線
100
AcDbLine
 10
575.5914150753519
 20
337.711293950027
 30
0.0
 11
575.5914150753519
 21
336.511293950027
 31
0.0
  0
LINE
  5
125F
102
{ACAD_REACTORS
330
1419
102
}
330
1F
100
AcDbEntity
  8
実線
100
AcDbLine
 10
576.0718319415273
 20
337.711293950027
 30
0.0
 11
576.0718319415273
 21
336.511293950027
 31
0.0
  0
LINE
  5
1260
102
{ACAD_REACTORS
330
1418
102
}
330
1F
100
AcDbEntity
  8
実線
100
AcDbLine
 10
751.6747285370602
 20
653.7112939500267
 30
0.0
 11
753.7061300242548
 21
653.7112939500267
 31
0.0
  0
LINE
  5
1261
102
{ACAD_REACTORS
330
1418
102
}
330
1F
100
AcDbEntity
  8
実線
100
AcDbLine
 10
751.6747285370602
 20
653.7112939500267
 30
0.0
 11
751.6747285370602
 21
650.8384584162111
 31
0.0
  0
LINE
  5
1262
102
{ACAD_REACTORS
330
1418
102
}
330
1F
100
AcDbEntity
  8
実線
100
AcDbLine
 10
742.4116297035807
 20
653.7112939500268
 30
0.0
 11
745.4116297035807
 21
653.7112939500268
 31
0.0
  0
LINE
  5
1263
102
{ACAD_REACTORS
330
1418
102
}
330
1F
100
AcDbEntity
  8
実線
100
AcDbLine
 10
745.4116297035807
 20
647.2112939500268
 30
0.0
 11
745.4116297035807
 21
653.7112939500268
 31
0.0
  0
LINE
  5
1264
102
{ACAD_REACTORS
330
1418
102
}
330
1F
100
AcDbEntity
  8
実線
100
AcDbLine
 10
742.4116297035807
 20
653.7112939500268
 30
0.0
 11
742.4116297035807
 21
647.2112939500268
 31
0.0
  0
LINE
  5
1265
102
{ACAD_REACTORS
330
1418
102
}
330
1F
100
AcDbEntity
  8
実線
100
AcDbLine
 10
749.1099359465424
 20
647.2112939500268
 30
0.0
 11
738.325486132207
 21
647.2112939500268
 31
0.0
  0
LINE
  5
1266
102
{ACAD_REACTORS
330
1418
102
}
330
1F
100
AcDbEntity
  8
実線
100
AcDbLine
 10
743.9116297035807
 20
644.2112939500268
 30
0.0
 11
743.9116297035807
 21
647.2112939500268
 31
0.0
  0
LINE
  5
1267
102
{ACAD_REACTORS
330
1418
102
}
330
1F
100
AcDbEntity
  8
実線
100
AcDbLine
 10
738.325486132207
 20
644.2112939500268
 30
0.0
 11
738.325486132207
 21
647.2112939500268
 31
0.0
  0
LINE
  5
1268
102
{ACAD_REACTORS
330
1418
102
}
330
1F
100
AcDbEntity
  8
実線
100
AcDbLine
 10
733.9060687497912
 20
644.2112939500268
 30
0.0
 11
746.9886156029824
 21
644.2112939500268
 31
0.0
  0
LINE
  5
1269
102
{ACAD_REACTORS
330
1418
102
}
330
1F
100
AcDbEntity
  8
実線
100
AcDbLine
 10
733.9060687497912
 20
644.2112939500268
 30
0.0
 11
733.9060687497912
 21
622.2112939500268
 31
0.0
  0
LINE
  5
126A
102
{ACAD_REACTORS
330
1418
102
}
330
1F
100
AcDbEntity
  8
実線
100
AcDbLine
 10
741.3317613534904
 20
622.2112939500268
 30
0.0
 11
733.9060687497912
 21
622.2112939500268
 31
0.0
  0
LINE
  5
126B
102
{ACAD_REACTORS
330
1418
102
}
330
1F
100
AcDbEntity
  8
実線
100
AcDbLine
 10
746.633990811149
 20
643.709778759862
 30
0.0
 11
746.633990811149
 21
644.2112939500268
 31
0.0
  0
LINE
  5
126C
102
{ACAD_REACTORS
330
1418
102
}
330
1F
100
AcDbEntity
  8
実線
100
AcDbLine
 10
736.3820138851842
 20
629.2112939500269
 30
0.0
 11
748.9003038484143
 21
611.5077585063086
 31
0.0
  0
LINE
  5
126D
102
{ACAD_REACTORS
330
1418
102
}
330
1F
100
AcDbEntity
  8
実線
100
AcDbLine
 10
779.6327156804546
 20
658.9097787598619
 30
0.0
 11
757.3820138851843
 21
658.9097787598619
 31
0.0
  0
LINE
  5
126E
102
{ACAD_REACTORS
330
1418
102
}
330
1F
100
AcDbEntity
  8
実線
100
AcDbLine
 10
736.3820138851842
 20
629.2112939500269
 30
0.0
 11
757.3820138851843
 21
658.9097787598619
 31
0.0
  0
LINE
  5
126F
102
{ACAD_REACTORS
330
1418
102
}
330
1F
100
AcDbEntity
  8
実線
100
AcDbLine
 10
765.0198385232397
 20
629.2112939500269
 30
0.0
 11
736.3820138851842
 21
629.2112939500269
 31
0.0
  0
LINE
  5
1270
102
{ACAD_REACTORS
330
1418
102
}
330
1F
100
AcDbEntity
  8
実線
100
AcDbLine
 10
765.0198385232397
 20
629.2112939500269
 30
0.0
 11
781.4572697768003
 21
652.4573321593879
 31
0.0
  0
LINE
  5
1271
102
{ACAD_REACTORS
330
1418
102
}
330
1F
100
AcDbEntity
  8
実線
100
AcDbLine
 10
808.9003038484133
 20
337.711293950027
 30
0.0
 11
808.9003038484133
 21
321.011293950027
 31
0.0
  0
LINE
  5
1272
102
{ACAD_REACTORS
330
1418
102
}
330
1F
100
AcDbEntity
  8
実線
100
AcDbLine
 10
828.9003038484134
 20
321.011293950027
 30
0.0
 11
828.9003038484134
 21
337.711293950027
 31
0.0
  0
LINE
  5
1273
102
{ACAD_REACTORS
330
1418
102
}
330
1F
100
AcDbEntity
  8
実線
100
AcDbLine
 10
828.9003038484143
 20
920.7112939500271
 30
0.0
 11
828.9003038484143
 21
937.4112939500269
 31
0.0
  0
LINE
  5
1274
102
{ACAD_REACTORS
330
1418
102
}
330
1F
100
AcDbEntity
  8
実線
100
AcDbLine
 10
808.9003038484143
 20
937.4112939500269
 30
0.0
 11
808.9003038484143
 21
920.7112939500268
 31
0.0
  0
LINE
  5
1275
102
{ACAD_REACTORS
330
1418
102
}
330
1F
100
AcDbEntity
  8
実線
100
AcDbLine
 10
795.5562227997416
 20
952.7112939500268
 30
0.0
 11
825.5783463068068
 21
952.7112939500268
 31
0.0
  0
LINE
  5
1276
102
{ACAD_REACTORS
330
1418
102
}
330
1F
100
AcDbEntity
  8
実線
100
AcDbLine
 10
795.5562227997416
 20
947.211293950027
 30
0.0
 11
795.5562227997416
 21
952.7112939500268
 31
0.0
  0
LINE
  5
1277
102
{ACAD_REACTORS
330
1418
102
}
330
1F
100
AcDbEntity
  8
実線
100
AcDbLine
 10
795.5562227997416
 20
929.7112939500271
 30
0.0
 11
795.5562227997416
 21
944.2112939500271
 31
0.0
  0
LINE
  5
1278
102
{ACAD_REACTORS
330
1418
102
}
330
1F
100
AcDbEntity
  8
実線
100
AcDbLine
 10
795.5562227997416
 20
921.9112939500268
 30
0.0
 11
795.5562227997416
 21
926.711293950027
 31
0.0
  0
LINE
  5
1279
102
{ACAD_REACTORS
330
1418
102
}
330
1F
100
AcDbEntity
  8
実線
100
AcDbLine
 10
825.5783463068068
 20
947.4112939500269
 30
0.0
 11
825.5783463068068
 21
952.7112939500268
 31
0.0
  0
LINE
  5
127A
102
{ACAD_REACTORS
330
1418
102
}
330
1F
100
AcDbEntity
  8
実線
100
AcDbLine
 10
825.5170164941036
 20
952.711293950027
 30
0.0
 11
825.5170164941036
 21
947.4112939500269
 31
0.0
  0
LINE
  5
127B
102
{ACAD_REACTORS
330
1418
102
}
330
1F
100
AcDbEntity
  8
実線
100
AcDbLine
 10
800.1714879037987
 20
929.7112939500271
 30
0.0
 11
793.8563058148757
 21
929.7112939500271
 31
0.0
  0
LINE
  5
127C
102
{ACAD_REACTORS
330
1418
102
}
330
1F
100
AcDbEntity
  8
実線
100
AcDbLine
 10
793.8563058148757
 20
926.711293950027
 30
0.0
 11
800.1714879037987
 21
926.711293950027
 31
0.0
  0
ELLIPSE
  5
127D
102
{ACAD_REACTORS
330
1418
102
}
330
1F
100
AcDbEntity
  8
実線
100
AcDbEllipse
 10
793.8563058148757
 20
928.2112939500271
 30
0.0
 11
0.0
 21
1.5
 31
0.0
210
0.0
220
0.0
230
1.0
 40
0.0511081772527003
 41
0.0
 42
3.14159265358979
  0
LINE
  5
127E
102
{ACAD_REACTORS
330
1418
102
}
330
1F
100
AcDbEntity
  8
実線
100
AcDbLine
 10
808.9003038484143
 20
924.2612939500272
 30
0.0
 11
800.1714879037987
 21
924.2612939500272
 31
0.0
  0
LINE
  5
127F
102
{ACAD_REACTORS
330
1418
102
}
330
1F
100
AcDbEntity
  8
実線
100
AcDbLine
 10
808.9003038484143
 20
932.1612939500269
 30
0.0
 11
800.1714879037987
 21
932.1612939500269
 31
0.0
  0
LINE
  5
1280
102
{ACAD_REACTORS
330
1418
102
}
330
1F
100
AcDbEntity
  8
実線
100
AcDbLine
 10
800.1714879037987
 20
932.1612939500269
 30
0.0
 11
800.1714879037987
 21
924.2612939500268
 31
0.0
  0
LINE
  5
1281
102
{ACAD_REACTORS
330
1418
102
}
330
1F
100
AcDbEntity
  8
実線
100
AcDbLine
 10
800.1714879037987
 20
949.6612939500268
 30
0.0
 11
825.5170164941036
 21
949.6612939500268
 31
0.0
  0
LINE
  5
1282
102
{ACAD_REACTORS
330
1418
102
}
330
1F
100
AcDbEntity
  8
実線
100
AcDbLine
 10
805.9003038484142
 20
941.7612939500273
 30
0.0
 11
800.1714879037987
 21
941.7612939500273
 31
0.0
  0
LINE
  5
1283
102
{ACAD_REACTORS
330
1418
102
}
330
1F
100
AcDbEntity
  8
実線
100
AcDbLine
 10
800.1714879037987
 20
949.6612939500268
 30
0.0
 11
800.1714879037987
 21
941.7612939500273
 31
0.0
  0
LINE
  5
1284
102
{ACAD_REACTORS
330
1418
102
}
330
1F
100
AcDbEntity
  8
実線
100
AcDbLine
 10
825.1388159824337
 20
947.4112939500269
 30
0.0
 11
825.1388159824337
 21
949.6612939500268
 31
0.0
  0
LINE
  5
1285
102
{ACAD_REACTORS
330
1418
102
}
330
1F
100
AcDbEntity
  8
実線
100
AcDbLine
 10
800.1714879037987
 20
947.2112939500268
 30
0.0
 11
793.8563058148757
 21
947.2112939500268
 31
0.0
  0
LINE
  5
1286
102
{ACAD_REACTORS
330
1418
102
}
330
1F
100
AcDbEntity
  8
実線
100
AcDbLine
 10
793.8563058148757
 20
944.2112939500271
 30
0.0
 11
800.1714879037987
 21
944.2112939500271
 31
0.0
  0
ELLIPSE
  5
1287
102
{ACAD_REACTORS
330
1418
102
}
330
1F
100
AcDbEntity
  8
実線
100
AcDbEllipse
 10
793.8563058148757
 20
945.7112939500271
 30
0.0
 11
0.0
 21
1.5
 31
0.0
210
0.0
220
0.0
230
1.0
 40
0.0511081772527003
 41
0.0
 42
3.14159265358979
  0
LINE
  5
1288
102
{ACAD_REACTORS
330
1418
102
}
330
1F
100
AcDbEntity
  8
実線
100
AcDbLine
 10
805.9003038484142
 20
947.4112939500269
 30
0.0
 11
831.9003038484142
 21
947.4112939500269
 31
0.0
  0
LINE
  5
1289
102
{ACAD_REACTORS
330
1418
102
}
330
1F
100
AcDbEntity
  8
実線
100
AcDbLine
 10
831.9003038484142
 20
937.4112939500269
 30
0.0
 11
831.9003038484142
 21
947.4112939500269
 31
0.0
  0
LINE
  5
128A
102
{ACAD_REACTORS
330
1418
102
}
330
1F
100
AcDbEntity
  8
実線
100
AcDbLine
 10
805.9003038484142
 20
947.4112939500269
 30
0.0
 11
805.9003038484142
 21
937.4112939500269
 31
0.0
  0
LINE
  5
128B
102
{ACAD_REACTORS
330
1418
102
}
330
1F
100
AcDbEntity
  8
実線
100
AcDbLine
 10
831.9003038484142
 20
937.4112939500269
 30
0.0
 11
805.9003038484142
 21
937.4112939500269
 31
0.0
  0
LINE
  5
128C
102
{ACAD_REACTORS
330
1418
102
}
330
1F
100
AcDbEntity
  8
実線
100
AcDbLine
 10
805.9003038484133
 20
321.011293950027
 30
0.0
 11
831.9003038484133
 21
321.011293950027
 31
0.0
  0
LINE
  5
128D
102
{ACAD_REACTORS
330
1418
102
}
330
1F
100
AcDbEntity
  8
実線
100
AcDbLine
 10
805.9003038484133
 20
321.011293950027
 30
0.0
 11
805.9003038484133
 21
311.011293950027
 31
0.0
  0
LINE
  5
128E
102
{ACAD_REACTORS
330
1418
102
}
330
1F
100
AcDbEntity
  8
実線
100
AcDbLine
 10
831.9003038484133
 20
311.011293950027
 30
0.0
 11
831.9003038484133
 21
321.011293950027
 31
0.0
  0
LINE
  5
128F
102
{ACAD_REACTORS
330
1418
102
}
330
1F
100
AcDbEntity
  8
実線
100
AcDbLine
 10
805.9003038484133
 20
311.011293950027
 30
0.0
 11
831.9003038484133
 21
311.011293950027
 31
0.0
  0
LINE
  5
1290
102
{ACAD_REACTORS
330
1418
102
}
330
1F
100
AcDbEntity
  8
実線
100
AcDbLine
 10
805.8156276293967
 20
308.761293950027
 30
0.0
 11
798.4252985181206
 21
308.761293950027
 31
0.0
  0
LINE
  5
1291
102
{ACAD_REACTORS
330
1418
102
}
330
1F
100
AcDbEntity
  8
実線
100
AcDbLine
 10
805.8156276293967
 20
316.661293950027
 30
0.0
 11
805.8156276293967
 21
308.7612939500269
 31
0.0
  0
LINE
  5
1292
102
{ACAD_REACTORS
330
1418
102
}
330
1F
100
AcDbEntity
  8
実線
100
AcDbLine
 10
798.4252985181206
 20
316.661293950027
 30
0.0
 11
805.8156276293967
 21
316.661293950027
 31
0.0
  0
LINE
  5
1293
102
{ACAD_REACTORS
330
1418
102
}
330
1F
100
AcDbEntity
  8
実線
100
AcDbLine
 10
798.4252985181206
 20
334.161293950027
 30
0.0
 11
805.8156276293967
 21
334.161293950027
 31
0.0
  0
LINE
  5
1294
102
{ACAD_REACTORS
330
1418
102
}
330
1F
100
AcDbEntity
  8
実線
100
AcDbLine
 10
805.8156276293967
 20
326.261293950027
 30
0.0
 11
798.4252985181206
 21
326.261293950027
 31
0.0
  0
LINE
  5
1295
102
{ACAD_REACTORS
330
1418
102
}
330
1F
100
AcDbEntity
  8
実線
100
AcDbLine
 10
805.8156276293967
 20
334.161293950027
 30
0.0
 11
805.8156276293967
 21
326.261293950027
 31
0.0
  0
LINE
  5
1296
102
{ACAD_REACTORS
330
1418
102
}
330
1F
100
AcDbEntity
  8
実線
100
AcDbLine
 10
795.693621452765
 20
305.711293950027
 30
0.0
 11
798.4252985181206
 21
305.711293950027
 31
0.0
  0
LINE
  5
1297
102
{ACAD_REACTORS
330
1418
102
}
330
1F
100
AcDbEntity
  8
実線
100
AcDbLine
 10
795.693621452765
 20
336.511293950027
 30
0.0
 11
795.693621452765
 21
305.711293950027
 31
0.0
  0
LINE
  5
1298
102
{ACAD_REACTORS
330
1418
102
}
330
1F
100
AcDbEntity
  8
実線
100
AcDbLine
 10
797.2268667703461
 20
305.711293950027
 30
0.0
 11
797.2268667703461
 21
337.711293950027
 31
0.0
  0
LINE
  5
1299
102
{ACAD_REACTORS
330
1418
102
}
330
1F
100
AcDbEntity
  8
実線
100
AcDbLine
 10
798.4252985181206
 20
305.711293950027
 30
0.0
 11
798.4252985181206
 21
337.7112939500271
 31
0.0
  0
LINE
  5
129A
102
{ACAD_REACTORS
330
1418
102
}
330
1F
100
AcDbEntity
  8
実線
100
AcDbLine
 10
862.7409242819803
 20
646.2112939500269
 30
0.0
 11
862.1741674557906
 21
646.2112939500269
 31
0.0
  0
ELLIPSE
  5
129B
102
{ACAD_REACTORS
330
1418
102
}
330
1F
100
AcDbEntity
  8
実線
100
AcDbEllipse
 10
862.7409242819803
 20
629.2112939500269
 30
0.0
 11
0.0
 21
17.0
 31
0.0
210
0.0
220
0.0
230
1.0
 40
0.7071067811865475
 41
4.115871623150397
 42
6.283185307179585
  0
ELLIPSE
  5
129C
102
{ACAD_REACTORS
330
1418
102
}
330
1F
100
AcDbEntity
  8
実線
100
AcDbEllipse
 10
861.2206447024291
 20
629.2112939500269
 30
0.0
 11
0.0
 21
17.0
 31
0.0
210
0.0
220
0.0
230
1.0
 40
0.7071067811865475
 41
4.795236227057021
 42
6.200338060507255
  0
ELLIPSE
  5
129D
102
{ACAD_REACTORS
330
1418
102
}
330
1F
100
AcDbEntity
  8
実線
100
AcDbEllipse
 10
861.2206447024291
 20
629.2112939500269
 30
0.0
 11
0.0
 21
17.0
 31
0.0
210
0.0
220
0.0
230
1.0
 40
0.7071067811865475
 41
4.115871623150397
 42
4.629541733712358
  0
CIRCLE
  5
129E
102
{ACAD_REACTORS
330
1418
102
}
330
1F
100
AcDbEntity
  8
実線
100
AcDbCircle
 10
818.9003038484143
 20
657.811293950027
 30
0.0
 40
25.25
  0
LINE
  5
129F
102
{ACAD_REACTORS
330
1418
102
}
330
1F
100
AcDbEntity
  8
実線
100
AcDbLine
 10
800.7949869497789
 20
640.211293950027
 30
0.0
 11
797.2967316602876
 21
640.211293950027
 31
0.0
  0
LINE
  5
12A0
102
{ACAD_REACTORS
330
1418
102
}
330
1F
100
AcDbEntity
  8
実線
100
AcDbLine
 10
797.2967316602876
 20
618.2112939500269
 30
0.0
 11
811.116547425494
 21
618.2112939500269
 31
0.0
  0
LINE
  5
12A1
102
{ACAD_REACTORS
330
1418
102
}
330
1F
100
AcDbEntity
  8
実線
100
AcDbLine
 10
754.0003038484142
 20
581.561293950027
 30
0.0
 11
771.9231340795304
 21
581.561293950027
 31
0.0
  0
LINE
  5
12A2
102
{ACAD_REACTORS
330
1418
102
}
330
1F
100
AcDbEntity
  8
実線
100
AcDbLine
 10
779.6097719841732
 20
619.661293950027
 30
0.0
 11
754.0003038484142
 21
619.661293950027
 31
0.0
  0
LINE
  5
12A3
102
{ACAD_REACTORS
330
1418
102
}
330
1F
100
AcDbEntity
  8
実線
100
AcDbLine
 10
754.0003038484142
 20
619.661293950027
 30
0.0
 11
754.0003038484142
 21
581.561293950027
 31
0.0
  0
LINE
  5
12A4
102
{ACAD_REACTORS
330
1418
102
}
330
1F
100
AcDbEntity
  8
実線
100
AcDbLine
 10
754.0003038484142
 20
619.661293950027
 30
0.0
 11
751.6503038484143
 21
625.8612939500269
 31
0.0
  0
LINE
  5
12A5
102
{ACAD_REACTORS
330
1418
102
}
330
1F
100
AcDbEntity
  8
実線
100
AcDbLine
 10
751.6503038484143
 20
575.3612939500269
 30
0.0
 11
754.0003038484142
 21
581.561293950027
 31
0.0
  0
LINE
  5
12A6
102
{ACAD_REACTORS
330
1418
102
}
330
1F
100
AcDbEntity
  8
実線
100
AcDbLine
 10
748.9003038484143
 20
625.8612939500269
 30
0.0
 11
748.9003038484143
 21
575.3612939500269
 31
0.0
  0
LINE
  5
12A7
102
{ACAD_REACTORS
330
1418
102
}
330
1F
100
AcDbEntity
  8
実線
100
AcDbLine
 10
751.6503038484143
 20
625.8612939500269
 30
0.0
 11
751.6503038484143
 21
575.3612939500269
 31
0.0
  0
LINE
  5
12A8
102
{ACAD_REACTORS
330
1418
102
}
330
1F
100
AcDbEntity
  8
実線
100
AcDbLine
 10
748.9003038484143
 20
575.3612939500269
 30
0.0
 11
751.6503038484143
 21
575.3612939500269
 31
0.0
  0
LINE
  5
12A9
102
{ACAD_REACTORS
330
1418
102
}
330
1F
100
AcDbEntity
  8
実線
100
AcDbLine
 10
751.6503038484143
 20
625.8612939500269
 30
0.0
 11
748.9003038484143
 21
625.8612939500269
 31
0.0
  0
LINE
  5
12AA
102
{ACAD_REACTORS
330
1418
102
}
330
1F
100
AcDbEntity
  8
実線
100
AcDbLine
 10
883.8003038484139
 20
619.661293950027
 30
0.0
 11
867.4421129756302
 21
619.661293950027
 31
0.0
  0
LINE
  5
12AB
102
{ACAD_REACTORS
330
1418
102
}
330
1F
100
AcDbEntity
  8
実線
100
AcDbLine
 10
865.8774736172981
 20
581.561293950027
 30
0.0
 11
883.8003038484139
 21
581.561293950027
 31
0.0
  0
LINE
  5
12AC
102
{ACAD_REACTORS
330
1418
102
}
330
1F
100
AcDbEntity
  8
実線
100
AcDbLine
 10
883.8003038484139
 20
581.561293950027
 30
0.0
 11
886.1503038484142
 21
575.3612939500269
 31
0.0
  0
LINE
  5
12AD
102
{ACAD_REACTORS
330
1418
102
}
330
1F
100
AcDbEntity
  8
実線
100
AcDbLine
 10
886.1503038484142
 20
625.8612939500269
 30
0.0
 11
883.8003038484139
 21
619.661293950027
 31
0.0
  0
LINE
  5
12AE
102
{ACAD_REACTORS
330
1418
102
}
330
1F
100
AcDbEntity
  8
実線
100
AcDbLine
 10
883.8003038484139
 20
619.661293950027
 30
0.0
 11
883.8003038484139
 21
581.561293950027
 31
0.0
  0
LINE
  5
12AF
102
{ACAD_REACTORS
330
1418
102
}
330
1F
100
AcDbEntity
  8
実線
100
AcDbLine
 10
888.9003038484142
 20
625.8612939500269
 30
0.0
 11
886.1503038484142
 21
625.8612939500269
 31
0.0
  0
LINE
  5
12B0
102
{ACAD_REACTORS
330
1418
102
}
330
1F
100
AcDbEntity
  8
実線
100
AcDbLine
 10
886.1503038484142
 20
575.3612939500269
 30
0.0
 11
888.9003038484142
 21
575.3612939500269
 31
0.0
  0
LINE
  5
12B1
102
{ACAD_REACTORS
330
1418
102
}
330
1F
100
AcDbEntity
  8
実線
100
AcDbLine
 10
888.9003038484142
 20
625.8612939500269
 30
0.0
 11
888.9003038484142
 21
575.3612939500269
 31
0.0
  0
LINE
  5
12B2
102
{ACAD_REACTORS
330
1418
102
}
330
1F
100
AcDbEntity
  8
実線
100
AcDbLine
 10
886.1503038484142
 20
625.8612939500269
 30
0.0
 11
886.1503038484142
 21
575.3612939500269
 31
0.0
  0
LINE
  5
12B3
102
{ACAD_REACTORS
330
1418
102
}
330
1F
100
AcDbEntity
  8
実線
100
AcDbLine
 10
805.5431540311955
 20
921.9112939500268
 30
0.0
 11
795.0758059335663
 21
921.9112939500268
 31
0.0
  0
LINE
  5
12B4
102
{ACAD_REACTORS
330
1418
102
}
330
1F
100
AcDbEntity
  8
実線
100
AcDbLine
 10
805.5431540311955
 20
920.7112939500271
 30
0.0
 11
805.5431540311955
 21
921.9112939500268
 31
0.0
  0
LINE
  5
12B5
102
{ACAD_REACTORS
330
1418
102
}
330
1F
100
AcDbEntity
  8
実線
100
AcDbLine
 10
805.0627371650202
 20
920.7112939500271
 30
0.0
 11
805.0627371650202
 21
921.9112939500268
 31
0.0
  0
LINE
  5
12B6
102
{ACAD_REACTORS
330
1418
102
}
330
1F
100
AcDbEntity
  8
実線
100
AcDbLine
 10
795.0758059335663
 20
920.7112939500271
 30
0.0
 11
795.0758059335663
 21
921.9112939500268
 31
0.0
  0
LINE
  5
12B7
102
{ACAD_REACTORS
330
1418
102
}
330
1F
100
AcDbEntity
  8
実線
100
AcDbLine
 10
785.312731742053
 20
616.7112939500269
 30
0.0
 11
796.3723334964925
 21
616.7112939500269
 31
0.0
  0
LINE
  5
12B8
102
{ACAD_REACTORS
330
1418
102
}
330
1F
100
AcDbEntity
  8
実線
100
AcDbLine
 10
796.3723334964925
 20
641.7112939500269
 30
0.0
 11
785.312731742053
 21
641.7112939500269
 31
0.0
  0
ELLIPSE
  5
12B9
102
{ACAD_REACTORS
330
1418
102
}
330
1F
100
AcDbEntity
  8
実線
100
AcDbEllipse
 10
785.312731742053
 20
629.2112939500269
 30
0.0
 11
0.0
 21
12.5
 31
0.0
210
0.0
220
0.0
230
1.0
 40
0.7071067811865476
 41
0.0
 42
3.141592653589792
  0
ELLIPSE
  5
12BA
102
{ACAD_REACTORS
330
1418
102
}
330
1F
100
AcDbEntity
  8
実線
100
AcDbEllipse
 10
785.312731742053
 20
629.2112939500269
 30
0.0
 11
0.0
 21
12.5
 31
0.0
210
0.0
220
0.0
230
1.0
 40
0.7071067811865476
 41
4.71238898038469
 42
6.283185307179585
  0
ELLIPSE
  5
12BB
102
{ACAD_REACTORS
330
1418
102
}
330
1F
100
AcDbEntity
  8
実線
100
AcDbEllipse
 10
785.312731742053
 20
629.2112939500269
 30
0.0
 11
0.0
 21
12.5
 31
0.0
210
0.0
220
0.0
230
1.0
 40
0.7071067811865476
 41
3.141592653589792
 42
4.71238898038469
  0
LINE
  5
12BC
102
{ACAD_REACTORS
330
1418
102
}
330
1F
100
AcDbEntity
  8
実線
100
AcDbLine
 10
778.9003038484134
 20
552.7112939500269
 30
0.0
 11
778.9003038484134
 21
407.2112939500271
 31
0.0
  0
LINE
  5
12BD
102
{ACAD_REACTORS
330
1418
102
}
330
1F
100
AcDbEntity
  8
実線
100
AcDbLine
 10
858.9003038484134
 20
407.211293950027
 30
0.0
 11
858.9003038484134
 21
552.7112939500269
 31
0.0
  0
LINE
  5
12BE
102
{ACAD_REACTORS
330
1418
102
}
330
1F
100
AcDbEntity
  8
実線
100
AcDbLine
 10
778.9003038484134
 20
407.211293950027
 30
0.0
 11
858.9003038484134
 21
407.211293950027
 31
0.0
  0
LINE
  5
12BF
102
{ACAD_REACTORS
330
1418
102
}
330
1F
100
AcDbEntity
  8
実線
100
AcDbLine
 10
778.9003038484134
 20
407.211293950027
 30
0.0
 11
771.4003038484134
 21
399.711293950027
 31
0.0
  0
LINE
  5
12C0
102
{ACAD_REACTORS
330
1418
102
}
330
1F
100
AcDbEntity
  8
実線
100
AcDbLine
 10
866.4003038484134
 20
399.711293950027
 30
0.0
 11
858.9003038484134
 21
407.211293950027
 31
0.0
  0
LINE
  5
12C1
102
{ACAD_REACTORS
330
1418
102
}
330
1F
100
AcDbEntity
  8
実線
100
AcDbLine
 10
771.4003038484134
 20
342.711293950027
 30
0.0
 11
866.4003038484134
 21
342.711293950027
 31
0.0
  0
LINE
  5
12C2
102
{ACAD_REACTORS
330
1418
102
}
330
1F
100
AcDbEntity
  8
実線
100
AcDbLine
 10
771.4003038484134
 20
399.711293950027
 30
0.0
 11
771.4003038484134
 21
342.711293950027
 31
0.0
  0
LINE
  5
12C3
102
{ACAD_REACTORS
330
1418
102
}
330
1F
100
AcDbEntity
  8
実線
100
AcDbLine
 10
866.4003038484134
 20
342.711293950027
 30
0.0
 11
866.4003038484134
 21
399.711293950027
 31
0.0
  0
LINE
  5
12C4
102
{ACAD_REACTORS
330
1418
102
}
330
1F
100
AcDbEntity
  8
実線
100
AcDbLine
 10
866.4003038484134
 20
399.711293950027
 30
0.0
 11
771.4003038484134
 21
399.711293950027
 31
0.0
  0
LINE
  5
12C5
102
{ACAD_REACTORS
330
1418
102
}
330
1F
100
AcDbEntity
  8
実線
100
AcDbLine
 10
836.709079774906
 20
675.7112939500269
 30
0.0
 11
865.8774736172981
 21
675.7112939500269
 31
0.0
  0
LINE
  5
12C6
102
{ACAD_REACTORS
330
1418
102
}
330
1F
100
AcDbEntity
  8
実線
100
AcDbLine
 10
801.091527921922
 20
675.7112939500269
 30
0.0
 11
771.9231340795304
 21
675.7112939500269
 31
0.0
  0
LINE
  5
12C7
102
{ACAD_REACTORS
330
1418
102
}
330
1F
100
AcDbEntity
  8
実線
100
AcDbLine
 10
771.9231340795304
 20
685.7112939500269
 30
0.0
 11
771.9231340795304
 21
675.7112939500269
 31
0.0
  0
LINE
  5
12C8
102
{ACAD_REACTORS
330
1418
102
}
330
1F
100
AcDbEntity
  8
実線
100
AcDbLine
 10
865.8774736172981
 20
675.7112939500269
 30
0.0
 11
865.8774736172981
 21
685.7112939500269
 31
0.0
  0
LINE
  5
12C9
102
{ACAD_REACTORS
330
1418
102
}
330
1F
100
AcDbEntity
  8
実線
100
AcDbLine
 10
800.8714070379902
 20
685.7112939500269
 30
0.0
 11
800.8714070379902
 21
675.7112939500269
 31
0.0
  0
LINE
  5
12CA
102
{ACAD_REACTORS
330
1418
102
}
330
1F
100
AcDbEntity
  8
実線
100
AcDbLine
 10
836.9292006588379
 20
685.7112939500269
 30
0.0
 11
836.9292006588379
 21
675.7112939500269
 31
0.0
  0
LINE
  5
12CB
102
{ACAD_REACTORS
330
1418
102
}
330
1F
100
AcDbEntity
  8
実線
100
AcDbLine
 10
861.4003038484142
 20
920.7112939500271
 30
0.0
 11
776.4003038484142
 21
920.7112939500271
 31
0.0
  0
LINE
  5
12CC
102
{ACAD_REACTORS
330
1418
102
}
330
1F
100
AcDbEntity
  8
実線
100
AcDbLine
 10
866.4003038484143
 20
915.7112939500271
 30
0.0
 11
771.4003038484142
 21
915.7112939500271
 31
0.0
  0
ARC
  5
12CD
102
{ACAD_REACTORS
330
1418
102
}
330
1F
100
AcDbEntity
  8
実線
100
AcDbCircle
 10
861.4003038484142
 20
915.7112939500271
 30
0.0
 40
5.0
100
AcDbArc
 50
0.0
 51
90.0
  0
ARC
  5
12CE
102
{ACAD_REACTORS
330
1418
102
}
330
1F
100
AcDbEntity
  8
実線
100
AcDbCircle
 10
776.4003038484142
 20
915.7112939500271
 30
0.0
 40
5.0
100
AcDbArc
 50
90.0
 51
180.0
  0
LINE
  5
12CF
102
{ACAD_REACTORS
330
1418
102
}
330
1F
100
AcDbEntity
  8
実線
100
AcDbLine
 10
861.4003038484133
 20
337.711293950027
 30
0.0
 11
776.4003038486385
 21
337.711293950027
 31
0.0
  0
ARC
  5
12D0
102
{ACAD_REACTORS
330
1418
102
}
330
1F
100
AcDbEntity
  8
実線
100
AcDbCircle
 10
776.4003038484133
 20
342.711293950027
 30
0.0
 40
5.0
100
AcDbArc
 50
180.0
 51
270.0
  0
ARC
  5
12D1
102
{ACAD_REACTORS
330
1418
102
}
330
1F
100
AcDbEntity
  8
実線
100
AcDbCircle
 10
861.4003038484133
 20
342.711293950027
 30
0.0
 40
5.0
100
AcDbArc
 50
270.0
 51
0.0
  0
LINE
  5
12D2
102
{ACAD_REACTORS
330
1418
102
}
330
1F
100
AcDbEntity
  8
実線
100
AcDbLine
 10
771.7727082835713
 20
619.661293950027
 30
0.0
 11
765.0198385232397
 21
629.2112939500269
 31
0.0
  0
LINE
  5
12D3
102
{ACAD_REACTORS
330
1418
102
}
330
1F
100
AcDbEntity
  8
実線
100
AcDbLine
 10
853.1949827359618
 20
599.512809140192
 30
0.0
 11
846.6666817228187
 21
599.512809140192
 31
0.0
  0
LINE
  5
12D4
102
{ACAD_REACTORS
330
1418
102
}
330
1F
100
AcDbEntity
  8
実線
100
AcDbLine
 10
832.1949827359617
 20
629.2112939500269
 30
0.0
 11
853.1949827359618
 21
599.512809140192
 31
0.0
  0
LINE
  5
12D5
102
{ACAD_REACTORS
330
1418
102
}
330
1F
100
AcDbEntity
  8
実線
100
AcDbLine
 10
874.1949827359617
 20
629.2112939500269
 30
0.0
 11
853.1949827359618
 21
599.512809140192
 31
0.0
  0
LINE
  5
12D6
102
{ACAD_REACTORS
330
1418
102
}
330
1F
100
AcDbEntity
  8
実線
100
AcDbLine
 10
874.1949827359617
 20
629.2112939500269
 30
0.0
 11
853.1949827359618
 21
658.9097787598619
 31
0.0
  0
LINE
  5
12D7
102
{ACAD_REACTORS
330
1418
102
}
330
1F
100
AcDbEntity
  8
実線
100
AcDbLine
 10
853.1949827359618
 20
658.9097787598619
 30
0.0
 11
846.6666817228187
 21
658.9097787598619
 31
0.0
  0
LINE
  5
12D8
102
{ACAD_REACTORS
330
1418
102
}
330
1F
100
AcDbEntity
  8
実線
100
AcDbLine
 10
817.9003038484143
 20
629.2112939500269
 30
0.0
 11
832.1949827359617
 21
629.2112939500269
 31
0.0
  0
LINE
  5
12D9
102
{ACAD_REACTORS
330
1418
102
}
330
1F
100
AcDbEntity
  8
実線
100
AcDbLine
 10
765.0198385232397
 20
629.2112939500269
 30
0.0
 11
776.4738969772215
 21
629.2112939500269
 31
0.0
  0
LINE
  5
12DA
102
{ACAD_REACTORS
330
1418
102
}
330
1F
100
AcDbEntity
  8
実線
100
AcDbLine
 10
853.1949827359618
 20
658.9097787598619
 30
0.0
 11
832.1949827359617
 21
629.2112939500269
 31
0.0
  0
LINE
  5
12DB
102
{ACAD_REACTORS
330
1418
102
}
330
1F
100
AcDbEntity
  8
実線
100
AcDbLine
 10
771.9231340795304
 20
582.711293950027
 30
0.0
 11
865.8774736172981
 21
582.711293950027
 31
0.0
  0
LINE
  5
12DC
102
{ACAD_REACTORS
330
1418
102
}
330
1F
100
AcDbEntity
  8
実線
100
AcDbLine
 10
771.9231340795304
 20
572.7112939500269
 30
0.0
 11
865.8774736172981
 21
572.7112939500269
 31
0.0
  0
LINE
  5
12DD
102
{ACAD_REACTORS
330
1418
102
}
330
1F
100
AcDbEntity
  8
実線
100
AcDbLine
 10
865.8774736172981
 20
572.7112939500269
 30
0.0
 11
865.8774736172981
 21
582.711293950027
 31
0.0
  0
LINE
  5
12DE
102
{ACAD_REACTORS
330
1418
102
}
330
1F
100
AcDbEntity
  8
実線
100
AcDbLine
 10
771.9231340795304
 20
582.711293950027
 30
0.0
 11
771.9231340795304
 21
572.7112939500269
 31
0.0
  0
LINE
  5
12DF
102
{ACAD_REACTORS
330
1418
102
}
330
1F
100
AcDbEntity
  8
実線
100
AcDbLine
 10
836.9292006588384
 20
572.7112939500269
 30
0.0
 11
836.9292006588384
 21
582.711293950027
 31
0.0
  0
LINE
  5
12E0
102
{ACAD_REACTORS
330
1418
102
}
330
1F
100
AcDbEntity
  8
実線
100
AcDbLine
 10
800.8714070379902
 20
572.7112939500269
 30
0.0
 11
800.8714070379902
 21
582.711293950027
 31
0.0
  0
LINE
  5
12E1
102
{ACAD_REACTORS
330
1418
102
}
330
1F
100
AcDbEntity
  8
実線
100
AcDbLine
 10
778.9003038484143
 20
705.7112939500269
 30
0.0
 11
858.9003038484143
 21
705.7112939500269
 31
0.0
  0
LINE
  5
12E2
102
{ACAD_REACTORS
330
1418
102
}
330
1F
100
AcDbEntity
  8
実線
100
AcDbLine
 10
858.9003038484143
 20
705.7112939500269
 30
0.0
 11
858.9003038484143
 21
851.2112939500269
 31
0.0
  0
LINE
  5
12E3
102
{ACAD_REACTORS
330
1418
102
}
330
1F
100
AcDbEntity
  8
実線
100
AcDbLine
 10
778.9003038484143
 20
851.2112939500269
 30
0.0
 11
778.9003038484143
 21
705.7112939500269
 31
0.0
  0
LINE
  5
12E4
102
{ACAD_REACTORS
330
1418
102
}
330
1F
100
AcDbEntity
  8
実線
100
AcDbLine
 10
858.9003038484143
 20
851.2112939500269
 30
0.0
 11
778.9003038484143
 21
851.2112939500269
 31
0.0
  0
LINE
  5
12E5
102
{ACAD_REACTORS
330
1418
102
}
330
1F
100
AcDbEntity
  8
実線
100
AcDbLine
 10
858.9003038484143
 20
851.2112939500269
 30
0.0
 11
866.4003038484143
 21
858.711293950027
 31
0.0
  0
LINE
  5
12E6
102
{ACAD_REACTORS
330
1418
102
}
330
1F
100
AcDbEntity
  8
実線
100
AcDbLine
 10
771.4003038484142
 20
858.711293950027
 30
0.0
 11
778.9003038484143
 21
851.2112939500269
 31
0.0
  0
LINE
  5
12E7
102
{ACAD_REACTORS
330
1418
102
}
330
1F
100
AcDbEntity
  8
実線
100
AcDbLine
 10
866.4003038484143
 20
858.711293950027
 30
0.0
 11
866.4003038484143
 21
915.7112939500271
 31
0.0
  0
LINE
  5
12E8
102
{ACAD_REACTORS
330
1418
102
}
330
1F
100
AcDbEntity
  8
実線
100
AcDbLine
 10
771.4003038484142
 20
915.7112939500271
 30
0.0
 11
771.4003038484142
 21
858.711293950027
 31
0.0
  0
LINE
  5
12E9
102
{ACAD_REACTORS
330
1418
102
}
330
1F
100
AcDbEntity
  8
実線
100
AcDbLine
 10
771.4003038484142
 20
858.711293950027
 30
0.0
 11
866.4003038484143
 21
858.711293950027
 31
0.0
  0
LINE
  5
12EA
102
{ACAD_REACTORS
330
1418
102
}
330
1F
100
AcDbEntity
  8
実線
100
AcDbLine
 10
784.2592876970366
 20
646.5292616472718
 30
0.0
 11
787.0409426439878
 21
641.7112939500269
 31
0.0
  0
LINE
  5
12EB
102
{ACAD_REACTORS
330
1418
102
}
330
1F
100
AcDbEntity
  8
実線
100
AcDbLine
 10
858.9003038484143
 20
666.5292616472718
 30
0.0
 11
858.9003038484143
 21
675.7112939500269
 31
0.0
  0
LINE
  5
12EC
102
{ACAD_REACTORS
330
1418
102
}
330
1F
100
AcDbEntity
  8
実線
100
AcDbLine
 10
778.9003038484143
 20
675.7112939500269
 30
0.0
 11
778.9003038484143
 21
666.5292616472718
 31
0.0
  0
ARC
  5
12ED
102
{ACAD_REACTORS
330
1418
102
}
330
1F
100
AcDbEntity
  8
実線
100
AcDbCircle
 10
818.9003038484143
 20
666.5292616472718
 30
0.0
 40
40.0
100
AcDbArc
 50
180.0
 51
209.9999999999952
  0
ARC
  5
12EE
102
{ACAD_REACTORS
330
1418
102
}
330
1F
100
AcDbEntity
  8
実線
100
AcDbCircle
 10
818.9003038484143
 20
666.5292616472718
 30
0.0
 40
40.0
100
AcDbArc
 50
341.4256159679028
 51
0.0
  0
LINE
  5
12EF
102
{ACAD_REACTORS
330
1418
102
}
330
1F
100
AcDbEntity
  8
実線
100
AcDbLine
 10
771.9231340795295
 20
559.7112939500269
 30
0.0
 11
800.8714070379891
 21
559.7112939500269
 31
0.0
  0
LINE
  5
12F0
102
{ACAD_REACTORS
330
1418
102
}
330
1F
100
AcDbEntity
  8
実線
100
AcDbLine
 10
771.9231340795295
 20
572.7112939500269
 30
0.0
 11
771.9231340795295
 21
559.7112939500269
 31
0.0
  0
LINE
  5
12F1
102
{ACAD_REACTORS
330
1418
102
}
330
1F
100
AcDbEntity
  8
実線
100
AcDbLine
 10
865.8774736172972
 20
559.7112939500269
 30
0.0
 11
865.8774736172972
 21
572.7112939500269
 31
0.0
  0
LINE
  5
12F2
102
{ACAD_REACTORS
330
1418
102
}
330
1F
100
AcDbEntity
  8
実線
100
AcDbLine
 10
865.8774736172972
 20
559.7112939500269
 30
0.0
 11
836.9292006588375
 21
559.7112939500269
 31
0.0
  0
LINE
  5
12F3
102
{ACAD_REACTORS
330
1418
102
}
330
1F
100
AcDbEntity
  8
実線
100
AcDbLine
 10
836.9292006588375
 20
559.7112939500269
 30
0.0
 11
836.9292006588375
 21
572.7112939500269
 31
0.0
  0
LINE
  5
12F4
102
{ACAD_REACTORS
330
1418
102
}
330
1F
100
AcDbEntity
  8
実線
100
AcDbLine
 10
800.8714070379891
 20
559.7112939500269
 30
0.0
 11
800.8714070379891
 21
572.7112939500269
 31
0.0
  0
LINE
  5
12F5
102
{ACAD_REACTORS
330
1418
102
}
330
1F
100
AcDbEntity
  8
実線
100
AcDbLine
 10
858.9003038484134
 20
552.7112939500269
 30
0.0
 11
858.9003038484134
 21
559.7112939500269
 31
0.0
  0
LINE
  5
12F6
102
{ACAD_REACTORS
330
1418
102
}
330
1F
100
AcDbEntity
  8
実線
100
AcDbLine
 10
778.9003038484134
 20
559.7112939500269
 30
0.0
 11
778.9003038484134
 21
552.7112939500269
 31
0.0
  0
LINE
  5
12F7
102
{ACAD_REACTORS
330
1418
102
}
330
1F
100
AcDbEntity
  8
実線
100
AcDbLine
 10
778.9003038484134
 20
552.7112939500269
 30
0.0
 11
858.9003038484134
 21
552.7112939500269
 31
0.0
  0
LINE
  5
12F8
102
{ACAD_REACTORS
330
1418
102
}
330
1F
100
AcDbEntity
  8
実線
100
AcDbLine
 10
798.4252985181206
 20
336.511293950027
 30
0.0
 11
806.7908503306334
 21
336.511293950027
 31
0.0
  0
LINE
  5
12F9
102
{ACAD_REACTORS
330
1418
102
}
330
1F
100
AcDbEntity
  8
実線
100
AcDbLine
 10
806.7908503306334
 20
337.711293950027
 30
0.0
 11
806.7908503306334
 21
336.511293950027
 31
0.0
  0
LINE
  5
12FA
102
{ACAD_REACTORS
330
1418
102
}
330
1F
100
AcDbEntity
  8
実線
100
AcDbLine
 10
865.8774736172981
 20
685.7112939500269
 30
0.0
 11
771.9231340795304
 21
685.7112939500269
 31
0.0
  0
LINE
  5
12FB
102
{ACAD_REACTORS
330
1418
102
}
330
1F
100
AcDbEntity
  8
実線
100
AcDbLine
 10
865.8774736172981
 20
698.711293950027
 30
0.0
 11
836.9292006588384
 21
698.711293950027
 31
0.0
  0
LINE
  5
12FC
102
{ACAD_REACTORS
330
1418
102
}
330
1F
100
AcDbEntity
  8
実線
100
AcDbLine
 10
865.8774736172981
 20
685.7112939500269
 30
0.0
 11
865.8774736172981
 21
698.711293950027
 31
0.0
  0
LINE
  5
12FD
102
{ACAD_REACTORS
330
1418
102
}
330
1F
100
AcDbEntity
  8
実線
100
AcDbLine
 10
771.9231340795304
 20
698.711293950027
 30
0.0
 11
771.9231340795304
 21
685.7112939500269
 31
0.0
  0
LINE
  5
12FE
102
{ACAD_REACTORS
330
1418
102
}
330
1F
100
AcDbEntity
  8
実線
100
AcDbLine
 10
771.9231340795304
 20
698.711293950027
 30
0.0
 11
800.8714070379902
 21
698.711293950027
 31
0.0
  0
LINE
  5
12FF
102
{ACAD_REACTORS
330
1418
102
}
330
1F
100
AcDbEntity
  8
実線
100
AcDbLine
 10
800.8714070379902
 20
698.711293950027
 30
0.0
 11
800.8714070379902
 21
685.7112939500269
 31
0.0
  0
LINE
  5
1300
102
{ACAD_REACTORS
330
1418
102
}
330
1F
100
AcDbEntity
  8
実線
100
AcDbLine
 10
836.9292006588384
 20
698.711293950027
 30
0.0
 11
836.9292006588384
 21
685.7112939500269
 31
0.0
  0
LINE
  5
1301
102
{ACAD_REACTORS
330
1418
102
}
330
1F
100
AcDbEntity
  8
実線
100
AcDbLine
 10
778.9003038484143
 20
705.7112939500269
 30
0.0
 11
778.9003038484143
 21
698.711293950027
 31
0.0
  0
LINE
  5
1302
102
{ACAD_REACTORS
330
1418
102
}
330
1F
100
AcDbEntity
  8
実線
100
AcDbLine
 10
858.9003038484143
 20
698.711293950027
 30
0.0
 11
858.9003038484143
 21
705.7112939500269
 31
0.0
  0
LINE
  5
1303
102
{ACAD_REACTORS
330
1418
102
}
330
1F
100
AcDbEntity
  8
実線
100
AcDbLine
 10
797.2268667703461
 20
336.511293950027
 30
0.0
 11
787.3280696402526
 21
336.511293950027
 31
0.0
  0
LINE
  5
1304
102
{ACAD_REACTORS
330
1418
102
}
330
1F
100
AcDbEntity
  8
実線
100
AcDbLine
 10
787.3280696402526
 20
337.711293950027
 30
0.0
 11
787.3280696402526
 21
336.511293950027
 31
0.0
  0
LINE
  5
1305
102
{ACAD_REACTORS
330
1418
102
}
330
1F
100
AcDbEntity
  8
実線
100
AcDbLine
 10
787.8391514127793
 20
337.711293950027
 30
0.0
 11
787.8391514127793
 21
336.511293950027
 31
0.0
  0
CIRCLE
  5
1306
102
{ACAD_REACTORS
330
141C
102
}
330
1F
100
AcDbEntity
  8
実線
100
AcDbCircle
 10
404.6258791597729
 20
1089.174387527121
 30
0.0
 40
1.5
  0
LINE
  5
1307
102
{ACAD_REACTORS
330
141C
102
}
330
1F
100
AcDbEntity
  8
実線
100
AcDbLine
 10
404.6258791597729
 20
1083.588243955747
 30
0.0
 11
399.0397355883993
 21
1089.174387527121
 31
0.0
  0
LINE
  5
1308
102
{ACAD_REACTORS
330
141C
102
}
330
1F
100
AcDbEntity
  8
実線
100
AcDbLine
 10
410.212022731147
 20
1089.174387527121
 30
0.0
 11
404.6258791597729
 21
1083.588243955747
 31
0.0
  0
LINE
  5
1309
102
{ACAD_REACTORS
330
141C
102
}
330
1F
100
AcDbEntity
  8
実線
100
AcDbLine
 10
399.0397355883993
 20
1089.174387527121
 30
0.0
 11
404.6258791597729
 21
1094.760531098495
 31
0.0
  0
LINE
  5
130A
102
{ACAD_REACTORS
330
141C
102
}
330
1F
100
AcDbEntity
  8
実線
100
AcDbLine
 10
404.6258791597729
 20
1094.760531098495
 30
0.0
 11
410.212022731147
 21
1089.174387527121
 31
0.0
  0
CIRCLE
  5
130B
102
{ACAD_REACTORS
330
141C
102
}
330
1F
100
AcDbEntity
  8
実線
100
AcDbCircle
 10
413.8889779932524
 20
1108.336981297212
 30
0.0
 40
1.5
  0
LINE
  5
130C
102
{ACAD_REACTORS
330
141C
102
}
330
1F
100
AcDbEntity
  8
実線
100
AcDbLine
 10
413.8889779932524
 20
1113.923124868586
 30
0.0
 11
419.475121564626
 21
1108.336981297212
 31
0.0
  0
LINE
  5
130D
102
{ACAD_REACTORS
330
141C
102
}
330
1F
100
AcDbEntity
  8
実線
100
AcDbLine
 10
419.475121564626
 20
1108.336981297212
 30
0.0
 11
413.8889779932524
 21
1102.750837725838
 31
0.0
  0
LINE
  5
130E
102
{ACAD_REACTORS
330
141C
102
}
330
1F
100
AcDbEntity
  8
実線
100
AcDbLine
 10
408.3028344218782
 20
1108.336981297212
 30
0.0
 11
413.8889779932524
 21
1113.923124868586
 31
0.0
  0
LINE
  5
130F
102
{ACAD_REACTORS
330
141C
102
}
330
1F
100
AcDbEntity
  8
実線
100
AcDbLine
 10
413.8889779932524
 20
1102.750837725838
 30
0.0
 11
408.3028344218782
 21
1108.336981297212
 31
0.0
  0
LINE
  5
1310
102
{ACAD_REACTORS
330
141C
102
}
330
1F
100
AcDbEntity
  8
実線
100
AcDbLine
 10
406.9946868768079
 20
1079.522379963865
 30
0.0
 11
407.8432150142316
 21
1080.370908101289
 31
0.0
  0
LINE
  5
1311
102
{ACAD_REACTORS
330
141C
102
}
330
1F
100
AcDbEntity
  8
実線
100
AcDbLine
 10
389.6705707376777
 20
1096.846496102995
 30
0.0
 11
406.9946868768079
 21
1079.522379963865
 31
0.0
  0
LINE
  5
1312
102
{ACAD_REACTORS
330
141C
102
}
330
1F
100
AcDbEntity
  8
実線
100
AcDbLine
 10
404.6258791597729
 20
1083.588243955747
 30
0.0
 11
407.8432150142316
 21
1080.370908101289
 31
0.0
  0
LINE
  5
1313
102
{ACAD_REACTORS
330
141C
102
}
330
1F
100
AcDbEntity
  8
実線
100
AcDbLine
 10
399.0397355883993
 20
1089.174387527121
 30
0.0
 11
390.5190988751014
 21
1097.695024240419
 31
0.0
  0
LINE
  5
1314
102
{ACAD_REACTORS
330
141C
102
}
330
1F
100
AcDbEntity
  8
実線
100
AcDbLine
 10
390.0251955294466
 20
1097.201120894764
 30
0.0
 11
389.6705707376777
 21
1096.846496102995
 31
0.0
  0
LINE
  5
1315
102
{ACAD_REACTORS
330
141C
102
}
330
1F
100
AcDbEntity
  8
実線
100
AcDbLine
 10
408.9038751858697
 20
1092.038169990879
 30
0.0
 11
415.9749429977355
 21
1099.109237802745
 31
0.0
  0
LINE
  5
1316
102
{ACAD_REACTORS
330
141C
102
}
330
1F
100
AcDbEntity
  8
実線
100
AcDbLine
 10
406.7825548423102
 20
1094.159490334439
 30
0.0
 11
413.8536226541755
 21
1101.230558146305
 31
0.0
  0
LINE
  5
1317
102
{ACAD_REACTORS
330
141C
102
}
330
1F
100
AcDbEntity
  8
実線
100
AcDbLine
 10
406.7825548423102
 20
1094.159490334439
 30
0.0
 11
408.9038751858697
 21
1092.038169990879
 31
0.0
  0
LINE
  5
1318
102
{ACAD_REACTORS
330
141C
102
}
330
1F
100
AcDbEntity
  8
実線
100
AcDbLine
 10
415.9749429977355
 20
1099.109237802745
 30
0.0
 11
413.8536226541755
 21
1101.230558146305
 31
0.0
  0
LINE
  5
1319
102
{ACAD_REACTORS
330
141C
102
}
330
1F
100
AcDbEntity
  8
実線
100
AcDbLine
 10
399.1458016057977
 20
1104.624670696268
 30
0.0
 11
408.1967684049682
 21
1095.573703897097
 31
0.0
  0
LINE
  5
131A
102
{ACAD_REACTORS
330
141C
102
}
330
1F
100
AcDbEntity
  8
実線
100
AcDbLine
 10
412.4394090915175
 20
1099.816344583646
 30
0.0
 11
403.388442292347
 21
1108.867311382817
 31
0.0
  0
LINE
  5
131B
102
{ACAD_REACTORS
330
141C
102
}
330
1F
100
AcDbEntity
  8
実線
100
AcDbLine
 10
411.166616885684
 20
1118.342542251002
 30
0.0
 11
423.8945389470418
 21
1105.614620189644
 31
0.0
  0
LINE
  5
131C
102
{ACAD_REACTORS
330
141C
102
}
330
1F
100
AcDbEntity
  8
実線
100
AcDbLine
 10
419.475121564626
 20
1108.336981297212
 30
0.0
 11
423.046010809618
 21
1104.76609205222
 31
0.0
  0
LINE
  5
131D
102
{ACAD_REACTORS
330
141C
102
}
330
1F
100
AcDbEntity
  8
実線
100
AcDbLine
 10
413.8889779932524
 20
1113.923124868586
 30
0.0
 11
410.3180887482603
 21
1117.494014113578
 31
0.0
  0
LINE
  5
131E
102
{ACAD_REACTORS
330
141C
102
}
330
1F
100
AcDbEntity
  8
実線
100
AcDbLine
 10
423.046010809618
 20
1104.76609205222
 30
0.0
 11
423.8945389470418
 21
1105.614620189644
 31
0.0
  0
LINE
  5
131F
102
{ACAD_REACTORS
330
141C
102
}
330
1F
100
AcDbEntity
  8
実線
100
AcDbLine
 10
411.166616885684
 20
1118.342542251002
 30
0.0
 11
410.8119920938507
 21
1117.987917459168
 31
0.0
  0
LINE
  5
1320
102
{ACAD_REACTORS
330
141C
102
}
330
1F
100
AcDbEntity
  8
実線
100
AcDbLine
 10
411.166616885684
 20
1118.342542251002
 30
0.0
 11
421.4185938116489
 21
1128.594519176966
 31
0.0
  0
LINE
  5
1321
102
{ACAD_REACTORS
330
141C
102
}
330
1F
100
AcDbEntity
  8
実線
100
AcDbLine
 10
410.8119920938507
 20
1117.987917459168
 30
0.0
 11
390.025195529447
 21
1097.201120894764
 31
0.0
  0
LINE
  5
1322
102
{ACAD_REACTORS
330
141C
102
}
330
1F
100
AcDbEntity
  8
実線
100
AcDbLine
 10
392.7807691735934
 20
1157.232343815021
 30
0.0
 11
421.4185938116489
 21
1128.594519176966
 31
0.0
  0
LINE
  5
1323
102
{ACAD_REACTORS
330
141C
102
}
330
1F
100
AcDbEntity
  8
実線
100
AcDbLine
 10
392.7807691735934
 20
1157.232343815021
 30
0.0
 11
379.5593967504983
 21
1144.010971391926
 31
0.0
  0
LINE
  5
1324
102
{ACAD_REACTORS
330
141C
102
}
330
1F
100
AcDbEntity
  8
実線
100
AcDbLine
 10
379.4185938116489
 20
1086.594519176966
 30
0.0
 11
357.950303848419
 21
1108.062809140196
 31
0.0
  0
LINE
  5
1325
102
{ACAD_REACTORS
330
141C
102
}
330
1F
100
AcDbEntity
  8
実線
100
AcDbLine
 10
379.4185938116489
 20
1086.594519176966
 30
0.0
 11
389.6705707376777
 21
1096.846496102995
 31
0.0
  0
LINE
  5
1326
102
{ACAD_REACTORS
330
141C
102
}
330
1F
100
AcDbEntity
  8
実線
100
AcDbLine
 10
382.3873708913916
 20
1125.625742097223
 30
0.0
 11
400.4185938116489
 21
1107.594519176966
 31
0.0
  0
LINE
  5
1327
102
{ACAD_REACTORS
330
141C
102
}
330
1F
100
AcDbEntity
  8
実線
100
AcDbLine
 10
364.0021415966885
 20
1128.453716238116
 30
0.0
 11
357.950303848419
 21
1122.401878489847
 31
0.0
  0
LINE
  5
1328
102
{ACAD_REACTORS
330
141C
102
}
330
1F
100
AcDbEntity
  8
実線
100
AcDbLine
 10
362.2443848970915
 20
1147.104558492322
 30
0.0
 11
362.1830550843879
 21
1145.906126744548
 31
0.0
  0
LINE
  5
1329
102
{ACAD_REACTORS
330
141C
102
}
330
1F
100
AcDbEntity
  8
実線
100
AcDbLine
 10
362.1830550843879
 20
1145.906126744548
 30
0.0
 11
332.2222613900262
 21
1147.439372062128
 31
0.0
  0
LINE
  5
132A
102
{ACAD_REACTORS
330
141C
102
}
330
1F
100
AcDbEntity
  8
実線
100
AcDbLine
 10
332.2835912027295
 20
1148.637803809903
 30
0.0
 11
362.2443848970915
 21
1147.104558492322
 31
0.0
  0
LINE
  5
132B
102
{ACAD_REACTORS
330
141C
102
}
330
1F
100
AcDbEntity
  8
実線
100
AcDbLine
 10
332.2222613900262
 20
1147.439372062128
 30
0.0
 11
332.2835912027295
 21
1148.637803809903
 31
0.0
  0
LINE
  5
132C
102
{ACAD_REACTORS
330
141C
102
}
330
1F
100
AcDbEntity
  8
実線
100
AcDbLine
 10
332.6617917143995
 20
1156.028132921179
 30
0.0
 11
332.2835912027295
 21
1148.637803809903
 31
0.0
  0
LINE
  5
132D
102
{ACAD_REACTORS
330
141C
102
}
330
1F
100
AcDbEntity
  8
実線
100
AcDbLine
 10
332.6617917143995
 20
1156.028132921179
 30
0.0
 11
357.6291197930345
 21
1154.750428489861
 31
0.0
  0
LINE
  5
132E
102
{ACAD_REACTORS
330
141C
102
}
330
1F
100
AcDbEntity
  8
実線
100
AcDbLine
 10
357.2509192813645
 20
1147.360099378586
 30
0.0
 11
357.6291197930345
 21
1154.750428489861
 31
0.0
  0
LINE
  5
132F
102
{ACAD_REACTORS
330
141C
102
}
330
1F
100
AcDbEntity
  8
実線
100
AcDbLine
 10
363.8676396160786
 20
1149.474694378149
 30
0.0
 11
364.0209641478368
 21
1152.470773747585
 31
0.0
  0
LINE
  5
1330
102
{ACAD_REACTORS
330
141C
102
}
330
1F
100
AcDbEntity
  8
実線
100
AcDbLine
 10
357.3761343156334
 20
1149.806897530292
 30
0.0
 11
363.8676396160786
 21
1149.474694378149
 31
0.0
  0
LINE
  5
1331
102
{ACAD_REACTORS
330
141C
102
}
330
1F
100
AcDbEntity
  8
実線
100
AcDbLine
 10
364.0209641478368
 20
1152.470773747585
 30
0.0
 11
357.5294588473917
 21
1152.802976899728
 31
0.0
  0
CIRCLE
  5
1332
102
{ACAD_REACTORS
330
141C
102
}
330
1F
100
AcDbEntity
  8
実線
100
AcDbCircle
 10
338.9003038484188
 20
1169.112809140196
 30
0.0
 40
13.0
  0
LINE
  5
1333
102
{ACAD_REACTORS
330
141C
102
}
330
1F
100
AcDbEntity
  8
実線
100
AcDbLine
 10
305.9137725060664
 20
1120.782060646095
 30
0.0
 11
313.0878478251288
 21
1127.956135965158
 31
0.0
  0
LINE
  5
1334
102
{ACAD_REACTORS
330
141C
102
}
330
1F
100
AcDbEntity
  8
実線
100
AcDbLine
 10
297.7436306733809
 20
1143.300353116906
 30
0.0
 11
290.5695553543185
 21
1136.126277797844
 31
0.0
  0
LINE
  5
1335
102
{ACAD_REACTORS
330
141C
102
}
330
1F
100
AcDbEntity
  8
実線
100
AcDbLine
 10
304.2951386019904
 20
1122.400694550171
 30
0.0
 11
305.9137725060664
 21
1120.782060646095
 31
0.0
  0
LINE
  5
1336
102
{ACAD_REACTORS
330
141C
102
}
330
1F
100
AcDbEntity
  8
実線
100
AcDbLine
 10
290.5695553543185
 20
1136.126277797844
 30
0.0
 11
284.5591477142329
 21
1138.813283566352
 31
0.0
  0
LINE
  5
1337
102
{ACAD_REACTORS
330
141C
102
}
330
1F
100
AcDbEntity
  8
実線
100
AcDbLine
 10
308.6007782745755
 20
1114.77165300601
 30
0.0
 11
305.9137725060664
 21
1120.782060646095
 31
0.0
  0
LINE
  5
1338
102
{ACAD_REACTORS
330
141C
102
}
330
1F
100
AcDbEntity
  8
実線
100
AcDbLine
 10
290.5695553543185
 20
1136.126277797844
 30
0.0
 11
292.1881892583942
 21
1134.507643893767
 31
0.0
  0
LINE
  5
1339
102
{ACAD_REACTORS
330
141C
102
}
330
1F
100
AcDbEntity
  8
実線
100
AcDbLine
 10
307.0804986950243
 20
1113.251373426459
 30
0.0
 11
283.0388681346817
 21
1137.293003986801
 31
0.0
  0
LINE
  5
133A
102
{ACAD_REACTORS
330
141C
102
}
330
1F
100
AcDbEntity
  8
実線
100
AcDbLine
 10
301.1620698827041
 20
1122.210361397881
 30
0.0
 11
308.6007782745755
 21
1114.77165300601
 31
0.0
  0
LINE
  5
133B
102
{ACAD_REACTORS
330
141C
102
}
330
1F
100
AcDbEntity
  8
実線
100
AcDbLine
 10
307.0804986950243
 20
1113.251373426459
 30
0.0
 11
308.6007782745755
 21
1114.77165300601
 31
0.0
  0
LINE
  5
133C
102
{ACAD_REACTORS
330
141C
102
}
330
1F
100
AcDbEntity
  8
実線
100
AcDbLine
 10
284.5591477142329
 20
1138.813283566352
 30
0.0
 11
283.0388681346817
 21
1137.293003986801
 31
0.0
  0
LINE
  5
133D
102
{ACAD_REACTORS
330
141C
102
}
330
1F
100
AcDbEntity
  8
実線
100
AcDbLine
 10
291.9978561061041
 20
1131.374575174481
 30
0.0
 11
284.5591477142329
 21
1138.813283566352
 31
0.0
  0
LINE
  5
133E
102
{ACAD_REACTORS
330
141C
102
}
330
1F
100
AcDbEntity
  8
実線
100
AcDbLine
 10
319.8503038484191
 20
1234.012809140196
 30
0.0
 11
319.8503038484191
 21
1212.625422254096
 31
0.0
  0
LINE
  5
133F
102
{ACAD_REACTORS
330
141C
102
}
330
1F
100
AcDbEntity
  8
実線
100
AcDbLine
 10
357.950303848419
 20
1212.625422254096
 30
0.0
 11
357.950303848419
 21
1234.012809140196
 31
0.0
  0
LINE
  5
1340
102
{ACAD_REACTORS
330
141C
102
}
330
1F
100
AcDbEntity
  8
実線
100
AcDbLine
 10
319.8503038484191
 20
1234.012809140196
 30
0.0
 11
357.950303848419
 21
1234.012809140196
 31
0.0
  0
LINE
  5
1341
102
{ACAD_REACTORS
330
141C
102
}
330
1F
100
AcDbEntity
  8
実線
100
AcDbLine
 10
357.950303848419
 20
1234.012809140196
 30
0.0
 11
364.1503038484188
 21
1236.362809140196
 31
0.0
  0
LINE
  5
1342
102
{ACAD_REACTORS
330
141C
102
}
330
1F
100
AcDbEntity
  8
実線
100
AcDbLine
 10
313.6503038484188
 20
1236.362809140196
 30
0.0
 11
319.8503038484191
 21
1234.012809140196
 31
0.0
  0
LINE
  5
1343
102
{ACAD_REACTORS
330
141C
102
}
330
1F
100
AcDbEntity
  8
実線
100
AcDbLine
 10
313.6503038484188
 20
1239.112809140196
 30
0.0
 11
364.1503038484188
 21
1239.112809140196
 31
0.0
  0
LINE
  5
1344
102
{ACAD_REACTORS
330
141C
102
}
330
1F
100
AcDbEntity
  8
実線
100
AcDbLine
 10
313.6503038484188
 20
1236.362809140196
 30
0.0
 11
364.1503038484188
 21
1236.362809140196
 31
0.0
  0
LINE
  5
1345
102
{ACAD_REACTORS
330
141C
102
}
330
1F
100
AcDbEntity
  8
実線
100
AcDbLine
 10
313.6503038484188
 20
1239.112809140196
 30
0.0
 11
313.6503038484188
 21
1236.362809140196
 31
0.0
  0
LINE
  5
1346
102
{ACAD_REACTORS
330
141C
102
}
330
1F
100
AcDbEntity
  8
実線
100
AcDbLine
 10
364.1503038484188
 20
1236.362809140196
 30
0.0
 11
364.1503038484188
 21
1239.112809140196
 31
0.0
  0
LINE
  5
1347
102
{ACAD_REACTORS
330
141C
102
}
330
1F
100
AcDbEntity
  8
実線
100
AcDbLine
 10
357.950303848419
 20
1104.212809140196
 30
0.0
 11
357.950303848419
 21
1125.600196026295
 31
0.0
  0
LINE
  5
1348
102
{ACAD_REACTORS
330
141C
102
}
330
1F
100
AcDbEntity
  8
実線
100
AcDbLine
 10
319.8503038484191
 20
1125.600196026295
 30
0.0
 11
319.8503038484191
 21
1104.212809140196
 31
0.0
  0
LINE
  5
1349
102
{ACAD_REACTORS
330
141C
102
}
330
1F
100
AcDbEntity
  8
実線
100
AcDbLine
 10
357.950303848419
 20
1104.212809140196
 30
0.0
 11
319.8503038484191
 21
1104.212809140196
 31
0.0
  0
LINE
  5
134A
102
{ACAD_REACTORS
330
141C
102
}
330
1F
100
AcDbEntity
  8
実線
100
AcDbLine
 10
319.8503038484191
 20
1104.212809140196
 30
0.0
 11
313.6503038484188
 21
1101.862809140196
 31
0.0
  0
LINE
  5
134B
102
{ACAD_REACTORS
330
141C
102
}
330
1F
100
AcDbEntity
  8
実線
100
AcDbLine
 10
364.1503038484188
 20
1101.862809140196
 30
0.0
 11
357.950303848419
 21
1104.212809140196
 31
0.0
  0
LINE
  5
134C
102
{ACAD_REACTORS
330
141C
102
}
330
1F
100
AcDbEntity
  8
実線
100
AcDbLine
 10
364.1503038484188
 20
1099.112809140196
 30
0.0
 11
313.6503038484188
 21
1099.112809140196
 31
0.0
  0
LINE
  5
134D
102
{ACAD_REACTORS
330
141C
102
}
330
1F
100
AcDbEntity
  8
実線
100
AcDbLine
 10
364.1503038484188
 20
1101.862809140196
 30
0.0
 11
313.6503038484188
 21
1101.862809140196
 31
0.0
  0
LINE
  5
134E
102
{ACAD_REACTORS
330
141C
102
}
330
1F
100
AcDbEntity
  8
実線
100
AcDbLine
 10
364.1503038484188
 20
1099.112809140196
 30
0.0
 11
364.1503038484188
 21
1101.862809140196
 31
0.0
  0
LINE
  5
134F
102
{ACAD_REACTORS
330
141C
102
}
330
1F
100
AcDbEntity
  8
実線
100
AcDbLine
 10
313.6503038484188
 20
1101.862809140196
 30
0.0
 11
313.6503038484188
 21
1099.112809140196
 31
0.0
  0
LINE
  5
1350
102
{ACAD_REACTORS
330
141C
102
}
330
1F
100
AcDbEntity
  8
実線
100
AcDbLine
 10
403.8003038484189
 20
1188.162809140196
 30
0.0
 11
382.4129169623197
 21
1188.162809140196
 31
0.0
  0
LINE
  5
1351
102
{ACAD_REACTORS
330
141C
102
}
330
1F
100
AcDbEntity
  8
実線
100
AcDbLine
 10
399.950303848419
 20
1150.062809140196
 30
0.0
 11
403.8003038484189
 21
1150.062809140196
 31
0.0
  0
LINE
  5
1352
102
{ACAD_REACTORS
330
141C
102
}
330
1F
100
AcDbEntity
  8
実線
100
AcDbLine
 10
403.8003038484189
 20
1188.162809140196
 30
0.0
 11
403.8003038484189
 21
1150.062809140196
 31
0.0
  0
LINE
  5
1353
102
{ACAD_REACTORS
330
141C
102
}
330
1F
100
AcDbEntity
  8
実線
100
AcDbLine
 10
403.8003038484189
 20
1150.062809140196
 30
0.0
 11
406.1503038484188
 21
1143.862809140196
 31
0.0
  0
LINE
  5
1354
102
{ACAD_REACTORS
330
141C
102
}
330
1F
100
AcDbEntity
  8
実線
100
AcDbLine
 10
406.1503038484188
 20
1194.362809140196
 30
0.0
 11
403.8003038484189
 21
1188.162809140196
 31
0.0
  0
LINE
  5
1355
102
{ACAD_REACTORS
330
141C
102
}
330
1F
100
AcDbEntity
  8
実線
100
AcDbLine
 10
408.9003038484188
 20
1194.362809140196
 30
0.0
 11
408.9003038484188
 21
1143.862809140196
 31
0.0
  0
LINE
  5
1356
102
{ACAD_REACTORS
330
141C
102
}
330
1F
100
AcDbEntity
  8
実線
100
AcDbLine
 10
406.1503038484188
 20
1194.362809140196
 30
0.0
 11
406.1503038484188
 21
1143.862809140196
 31
0.0
  0
LINE
  5
1357
102
{ACAD_REACTORS
330
141C
102
}
330
1F
100
AcDbEntity
  8
実線
100
AcDbLine
 10
408.9003038484188
 20
1194.362809140196
 30
0.0
 11
406.1503038484188
 21
1194.362809140196
 31
0.0
  0
LINE
  5
1358
102
{ACAD_REACTORS
330
141C
102
}
330
1F
100
AcDbEntity
  8
実線
100
AcDbLine
 10
406.1503038484188
 20
1143.862809140196
 30
0.0
 11
408.9003038484188
 21
1143.862809140196
 31
0.0
  0
LINE
  5
1359
102
{ACAD_REACTORS
330
141C
102
}
330
1F
100
AcDbEntity
  8
実線
100
AcDbLine
 10
274.000303848419
 20
1150.062809140196
 30
0.0
 11
295.3876907345184
 21
1150.062809140196
 31
0.0
  0
LINE
  5
135A
102
{ACAD_REACTORS
330
141C
102
}
330
1F
100
AcDbEntity
  8
実線
100
AcDbLine
 10
289.3609460733239
 20
1188.162809140196
 30
0.0
 11
274.000303848419
 21
1188.162809140196
 31
0.0
  0
LINE
  5
135B
102
{ACAD_REACTORS
330
141C
102
}
330
1F
100
AcDbEntity
  8
実線
100
AcDbLine
 10
268.9003038484188
 20
1143.862809140196
 30
0.0
 11
268.9003038484188
 21
1194.362809140196
 31
0.0
  0
LINE
  5
135C
102
{ACAD_REACTORS
330
141C
102
}
330
1F
100
AcDbEntity
  8
実線
100
AcDbLine
 10
268.9003038484188
 20
1143.862809140196
 30
0.0
 11
271.6503038484189
 21
1143.862809140196
 31
0.0
  0
LINE
  5
135D
102
{ACAD_REACTORS
330
141C
102
}
330
1F
100
AcDbEntity
  8
実線
100
AcDbLine
 10
271.6503038484189
 20
1194.362809140196
 30
0.0
 11
268.9003038484188
 21
1194.362809140196
 31
0.0
  0
LINE
  5
135E
102
{ACAD_REACTORS
330
141C
102
}
330
1F
100
AcDbEntity
  8
実線
100
AcDbLine
 10
271.6503038484189
 20
1143.862809140196
 30
0.0
 11
271.6503038484189
 21
1194.362809140196
 31
0.0
  0
LINE
  5
135F
102
{ACAD_REACTORS
330
141C
102
}
330
1F
100
AcDbEntity
  8
実線
100
AcDbLine
 10
274.000303848419
 20
1150.062809140196
 30
0.0
 11
274.000303848419
 21
1188.162809140196
 31
0.0
  0
LINE
  5
1360
102
{ACAD_REACTORS
330
141C
102
}
330
1F
100
AcDbEntity
  8
実線
100
AcDbLine
 10
274.000303848419
 20
1188.162809140196
 30
0.0
 11
271.6503038484189
 21
1194.362809140196
 31
0.0
  0
LINE
  5
1361
102
{ACAD_REACTORS
330
141C
102
}
330
1F
100
AcDbEntity
  8
実線
100
AcDbLine
 10
271.6503038484189
 20
1143.862809140196
 30
0.0
 11
274.000303848419
 21
1150.062809140196
 31
0.0
  0
LINE
  5
1362
102
{ACAD_REACTORS
330
141C
102
}
330
1F
100
AcDbEntity
  8
実線
100
AcDbLine
 10
358.3003038484189
 20
1157.212809140196
 30
0.0
 11
358.3003038484189
 21
1147.212809140196
 31
0.0
  0
LINE
  5
1363
102
{ACAD_REACTORS
330
141C
102
}
330
1F
100
AcDbEntity
  8
実線
100
AcDbLine
 10
353.3003038484189
 20
1152.212809140196
 30
0.0
 11
363.300303848419
 21
1152.212809140196
 31
0.0
  0
ARC
  5
1364
102
{ACAD_REACTORS
330
141C
102
}
330
1F
100
AcDbEntity
  8
実線
100
AcDbCircle
 10
358.3003038484189
 20
1152.212809140196
 30
0.0
 40
2.0
100
AcDbArc
 50
13.03245500541915
 51
110.6486193207758
  0
LINE
  5
1365
102
{ACAD_REACTORS
330
141C
102
}
330
1F
100
AcDbEntity
  8
実線
100
AcDbLine
 10
352.6356541773075
 20
1155.005969376125
 30
0.0
 11
352.7378705318128
 21
1157.003355622416
 31
0.0
  0
LINE
  5
1366
102
{ACAD_REACTORS
330
141C
102
}
330
1F
100
AcDbEntity
  8
実線
100
AcDbLine
 10
352.7378705318128
 20
1157.003355622416
 30
0.0
 11
362.7248017632669
 21
1156.492273849889
 31
0.0
  0
LINE
  5
1367
102
{ACAD_REACTORS
330
141C
102
}
330
1F
100
AcDbEntity
  8
実線
100
AcDbLine
 10
362.3695999313604
 20
1149.551356644028
 30
0.0
 11
362.2443848970915
 21
1147.104558492322
 31
0.0
  0
LINE
  5
1368
102
{ACAD_REACTORS
330
141C
102
}
330
1F
100
AcDbEntity
  8
実線
100
AcDbLine
 10
362.7248017632669
 20
1156.492273849889
 30
0.0
 11
362.5229244631187
 21
1152.547436013464
 31
0.0
  0
LINE
  5
1369
102
{ACAD_REACTORS
330
141C
102
}
330
1F
100
AcDbEntity
  8
実線
100
AcDbLine
 10
297.6577655915478
 20
1145.547940412988
 30
0.0
 11
297.1810037584128
 21
1145.071178579853
 31
0.0
  0
LINE
  5
136A
102
{ACAD_REACTORS
330
141C
102
}
330
1F
100
AcDbEntity
  8
実線
100
AcDbLine
 10
363.6490411899481
 20
1211.539216011389
 30
0.0
 11
362.4651725756266
 21
1210.355347397067
 31
0.0
  0
LINE
  5
136B
102
{ACAD_REACTORS
330
141C
102
}
330
1F
100
AcDbEntity
  8
実線
100
AcDbLine
 10
380.1428421052901
 20
1192.677677867403
 30
0.0
 11
381.3267107196121
 21
1193.861546481725
 31
0.0
  0
LINE
  5
136C
102
{ACAD_REACTORS
330
141C
102
}
330
1F
100
AcDbEntity
  8
実線
100
AcDbLine
 10
314.8586732880763
 20
1127.393509050189
 30
0.0
 11
315.3354351212115
 21
1127.870270883325
 31
0.0
  0
LINE
  5
136D
102
{ACAD_REACTORS
330
141C
102
}
330
1F
100
AcDbEntity
  8
実線
100
AcDbLine
 10
313.7984661001492
 20
1128.453716238116
 30
0.0
 11
314.8586732880763
 21
1127.393509050189
 31
0.0
  0
LINE
  5
136E
102
{ACAD_REACTORS
330
141C
102
}
330
1F
100
AcDbEntity
  8
実線
100
AcDbLine
 10
297.1810037584128
 20
1145.071178579853
 30
0.0
 11
298.2412109463398
 21
1144.010971391926
 31
0.0
  0
LINE
  5
136F
102
{ACAD_REACTORS
330
141C
102
}
330
1F
100
AcDbEntity
  8
実線
100
AcDbLine
 10
364.8339303816401
 20
1210.354326819697
 30
0.0
 11
363.6490411899481
 21
1211.539216011389
 31
0.0
  0
LINE
  5
1370
102
{ACAD_REACTORS
330
141C
102
}
330
1F
100
AcDbEntity
  8
実線
100
AcDbLine
 10
381.3267107196121
 20
1193.861546481725
 30
0.0
 11
380.1418215279195
 21
1195.046435673417
 31
0.0
  0
LINE
  5
1371
102
{ACAD_REACTORS
330
141C
102
}
330
1F
100
AcDbEntity
  8
実線
100
AcDbLine
 10
336.1407883500724
 20
1146.831774852682
 30
0.0
 11
336.1407883500724
 21
1136.831774852682
 31
0.0
  0
LINE
  5
1372
102
{ACAD_REACTORS
330
141C
102
}
330
1F
100
AcDbEntity
  8
実線
100
AcDbLine
 10
331.1407883500724
 20
1141.831774852682
 30
0.0
 11
341.1407883500724
 21
1141.831774852682
 31
0.0
  0
CIRCLE
  5
1373
102
{ACAD_REACTORS
330
141C
102
}
330
1F
100
AcDbEntity
  8
実線
100
AcDbCircle
 10
336.1407883500724
 20
1141.831774852682
 30
0.0
 40
2.0
  0
LINE
  5
1374
102
{ACAD_REACTORS
330
141C
102
}
330
1F
100
AcDbEntity
  8
実線
100
AcDbLine
 10
331.7418445238509
 20
1138.051656704562
 30
0.0
 11
332.2222613900262
 21
1147.439372062128
 31
0.0
  0
LINE
  5
1375
102
{ACAD_REACTORS
330
141C
102
}
330
1F
100
AcDbEntity
  8
実線
100
AcDbLine
 10
341.7287757553049
 20
1137.540574932035
 30
0.0
 11
331.7418445238509
 21
1138.051656704562
 31
0.0
  0
LINE
  5
1376
102
{ACAD_REACTORS
330
141C
102
}
330
1F
100
AcDbEntity
  8
実線
100
AcDbLine
 10
342.2091926214803
 20
1146.928290289601
 30
0.0
 11
341.7287757553049
 21
1137.540574932035
 31
0.0
  0
LINE
  5
1377
102
{ACAD_REACTORS
330
141C
102
}
330
1F
100
AcDbEntity
  8
実線
100
AcDbLine
 10
312.1348885302459
 20
1210.936751597118
 30
0.0
 11
319.8503038484191
 21
1218.652166915291
 31
0.0
  0
LINE
  5
1378
102
{ACAD_REACTORS
330
141C
102
}
330
1F
100
AcDbEntity
  8
実線
100
AcDbLine
 10
392.7807691735934
 20
1157.232343815021
 30
0.0
 11
386.1133731078553
 21
1163.89973988076
 31
0.0
  0
LINE
  5
1379
102
{ACAD_REACTORS
330
141C
102
}
330
1F
100
AcDbEntity
  8
実線
100
AcDbLine
 10
283.6056249608714
 20
1182.407488027743
 30
0.0
 11
297.0763613914969
 21
1195.878224458369
 31
0.0
  0
LINE
  5
137A
102
{ACAD_REACTORS
330
141C
102
}
330
1F
100
AcDbEntity
  8
実線
100
AcDbLine
 10
291.6872345889828
 20
1174.325878399632
 30
0.0
 11
283.6056249608714
 21
1182.407488027743
 31
0.0
  0
CIRCLE
  5
137B
102
{ACAD_REACTORS
330
141C
102
}
330
1F
100
AcDbEntity
  8
実線
100
AcDbCircle
 10
338.9003038484188
 20
1169.112809140196
 30
0.0
 40
47.5
  0
LINE
  5
137C
102
{ACAD_REACTORS
330
141C
102
}
330
1F
100
AcDbEntity
  8
実線
100
AcDbLine
 10
391.3676270125252
 20
1096.846496102995
 30
0.0
 11
411.166616885684
 21
1116.645485976154
 31
0.0
  0
ARC
  5
137D
102
{ACAD_REACTORS
330
141C
102
}
330
1F
100
AcDbEntity
  8
実線
100
AcDbCircle
 10
377.8774736173027
 20
1205.760186083268
 30
0.0
 40
7.999999999999995
100
AcDbArc
 50
325.0000000000026
 51
43.23542625711277
  0
ARC
  5
137E
102
{ACAD_REACTORS
330
141C
102
}
330
1F
100
AcDbEntity
  8
実線
100
AcDbCircle
 10
375.5476807914911
 20
1208.08997890908
 30
0.0
 40
8.000000000000008
100
AcDbArc
 50
46.76457374288315
 51
124.9999999999974
  0
LINE
  5
137F
102
{ACAD_REACTORS
330
141C
102
}
330
1F
100
AcDbEntity
  8
実線
100
AcDbLine
 10
370.9590693006826
 20
1214.643195263392
 30
0.0
 11
363.7491205834858
 21
1209.594734821505
 31
0.0
  0
LINE
  5
1380
102
{ACAD_REACTORS
330
141C
102
}
330
1F
100
AcDbEntity
  8
実線
100
AcDbLine
 10
379.3822295297282
 20
1193.961625875263
 30
0.0
 11
384.4306899716148
 21
1201.17157459246
 31
0.0
  0
ARC
  5
1381
102
{ACAD_REACTORS
330
141C
102
}
330
1F
100
AcDbEntity
  8
実線
100
AcDbCircle
 10
338.9003038484188
 20
1169.112809140196
 30
0.0
 40
61.50000000000009
100
AcDbArc
 50
43.23542625711277
 51
46.76457374288315
  0
ARC
  5
1382
102
{ACAD_REACTORS
330
141C
102
}
330
1F
100
AcDbEntity
  8
実線
100
AcDbCircle
 10
338.9003038484198
 20
1169.112809140195
 30
0.0
 40
61.49999999999885
100
AcDbArc
 50
313.2354262571169
 51
316.7645737428872
  0
ARC
  5
1383
102
{ACAD_REACTORS
330
141C
102
}
330
1F
100
AcDbEntity
  8
実線
100
AcDbCircle
 10
375.5476807914911
 20
1130.135639371312
 30
0.0
 40
7.999999999999986
100
AcDbArc
 50
235.0000000000026
 51
313.2354262571169
  0
LINE
  5
1384
102
{ACAD_REACTORS
330
141C
102
}
330
1F
100
AcDbEntity
  8
実線
100
AcDbLine
 10
363.7491205834858
 20
1128.630883458886
 30
0.0
 11
370.9590693006826
 21
1123.582423017
 31
0.0
  0
ARC
  5
1385
102
{ACAD_REACTORS
330
141C
102
}
330
1F
100
AcDbEntity
  8
実線
100
AcDbCircle
 10
377.8774736173027
 20
1132.465432197124
 30
0.0
 40
8.000000000000023
100
AcDbArc
 50
316.7645737428854
 51
34.99999999999737
  0
LINE
  5
1386
102
{ACAD_REACTORS
330
141C
102
}
330
1F
100
AcDbEntity
  8
実線
100
AcDbLine
 10
384.4306899716148
 20
1137.054043687932
 30
0.0
 11
379.3822295297282
 21
1144.263992405129
 31
0.0
  0
ARC
  5
1387
102
{ACAD_REACTORS
330
141C
102
}
330
1F
100
AcDbEntity
  8
実線
100
AcDbCircle
 10
338.9003038484193
 20
1169.112809140196
 30
0.0
 40
61.50000000000008
100
AcDbArc
 50
223.2354262571128
 51
226.7645737428832
  0
ARC
  5
1388
102
{ACAD_REACTORS
330
141C
102
}
330
1F
100
AcDbEntity
  8
実線
100
AcDbCircle
 10
299.923134079535
 20
1132.465432197124
 30
0.0
 40
7.999999999999996
100
AcDbArc
 50
145.0000000000026
 51
223.2354262571128
  0
LINE
  5
1389
102
{ACAD_REACTORS
330
141C
102
}
330
1F
100
AcDbEntity
  8
実線
100
AcDbLine
 10
298.4183781671095
 20
1144.263992405129
 30
0.0
 11
293.3699177252231
 21
1137.054043687932
 31
0.0
  0
LINE
  5
138A
102
{ACAD_REACTORS
330
141C
102
}
330
1F
100
AcDbEntity
  8
実線
100
AcDbLine
 10
306.8415383961556
 20
1123.582423017
 30
0.0
 11
314.0514871133519
 21
1128.630883458886
 31
0.0
  0
ARC
  5
138B
102
{ACAD_REACTORS
330
141C
102
}
330
1F
100
AcDbEntity
  8
実線
100
AcDbCircle
 10
302.2529269053471
 20
1130.135639371312
 30
0.0
 40
8.000000000000021
100
AcDbArc
 50
226.7645737428832
 51
304.9999999999974
  0
LINE
  5
138C
102
{ACAD_REACTORS
330
141C
102
}
330
1F
100
AcDbEntity
  8
実線
100
AcDbLine
 10
314.0514871133519
 20
1209.594734821505
 30
0.0
 11
306.8415383961556
 21
1214.643195263392
 31
0.0
  0
ARC
  5
138D
102
{ACAD_REACTORS
330
141C
102
}
330
1F
100
AcDbEntity
  8
実線
100
AcDbCircle
 10
302.2529269053471
 20
1208.08997890908
 30
0.0
 40
8.000000000000008
100
AcDbArc
 50
55.00000000000264
 51
133.2354262571168
  0
ARC
  5
138E
102
{ACAD_REACTORS
330
141C
102
}
330
1F
100
AcDbEntity
  8
実線
100
AcDbCircle
 10
338.9003038484198
 20
1169.112809140195
 30
0.0
 40
61.50000000000114
100
AcDbArc
 50
133.2354262571168
 51
136.7645737428872
  0
ARC
  5
138F
102
{ACAD_REACTORS
330
141C
102
}
330
1F
100
AcDbEntity
  8
実線
100
AcDbCircle
 10
299.923134079535
 20
1205.760186083268
 30
0.0
 40
8.000000000000008
100
AcDbArc
 50
136.7645737428872
 51
214.9999999999974
  0
LINE
  5
1390
102
{ACAD_REACTORS
330
141C
102
}
330
1F
100
AcDbEntity
  8
実線
100
AcDbLine
 10
293.3699177252231
 20
1201.171574592459
 30
0.0
 11
298.4183781671095
 21
1193.961625875263
 31
0.0
  0
LINE
  5
1391
102
{ACAD_REACTORS
330
1412
102
}
330
1F
100
AcDbEntity
  8
実線
100
AcDbLine
 10
404.6258791597642
 20
163.4650871818917
 30
0.0
 11
399.0397355883906
 21
169.0512307532656
 31
0.0
  0
LINE
  5
1392
102
{ACAD_REACTORS
330
1412
102
}
330
1F
100
AcDbEntity
  8
実線
100
AcDbLine
 10
404.6258791597642
 20
174.6373743246393
 30
0.0
 11
410.2120227311384
 21
169.0512307532656
 31
0.0
  0
LINE
  5
1393
102
{ACAD_REACTORS
330
1412
102
}
330
1F
100
AcDbEntity
  8
実線
100
AcDbLine
 10
410.2120227311384
 20
169.0512307532656
 30
0.0
 11
404.6258791597642
 21
163.4650871818917
 31
0.0
  0
LINE
  5
1394
102
{ACAD_REACTORS
330
1412
102
}
330
1F
100
AcDbEntity
  8
実線
100
AcDbLine
 10
413.8889779932437
 20
155.4747805545485
 30
0.0
 11
419.4751215646174
 21
149.8886369831746
 31
0.0
  0
LINE
  5
1395
102
{ACAD_REACTORS
330
1412
102
}
330
1F
100
AcDbEntity
  8
実線
100
AcDbLine
 10
408.3028344218696
 20
149.8886369831746
 30
0.0
 11
413.8889779932437
 21
155.4747805545485
 31
0.0
  0
LINE
  5
1396
102
{ACAD_REACTORS
330
1412
102
}
330
1F
100
AcDbEntity
  8
実線
100
AcDbLine
 10
413.8889779932437
 20
144.302493411801
 30
0.0
 11
408.3028344218696
 21
149.8886369831746
 31
0.0
  0
LINE
  5
1397
102
{ACAD_REACTORS
330
1412
102
}
330
1F
100
AcDbEntity
  8
実線
100
AcDbLine
 10
407.843215014223
 20
177.8547101790979
 30
0.0
 11
390.5190988750928
 21
160.5305940399677
 31
0.0
  0
LINE
  5
1398
102
{ACAD_REACTORS
330
1412
102
}
330
1F
100
AcDbEntity
  8
実線
100
AcDbLine
 10
407.843215014223
 20
177.8547101790979
 30
0.0
 11
406.9946868767992
 21
178.7032383165217
 31
0.0
  0
LINE
  5
1399
102
{ACAD_REACTORS
330
1412
102
}
330
1F
100
AcDbEntity
  8
実線
100
AcDbLine
 10
389.6705707376691
 20
161.3791221773914
 30
0.0
 11
406.9946868767992
 21
178.7032383165217
 31
0.0
  0
LINE
  5
139A
102
{ACAD_REACTORS
330
1412
102
}
330
1F
100
AcDbEntity
  8
実線
100
AcDbLine
 10
413.8536226541669
 20
156.9950601340823
 30
0.0
 11
415.9749429977268
 21
159.1163804776418
 31
0.0
  0
LINE
  5
139B
102
{ACAD_REACTORS
330
1412
102
}
330
1F
100
AcDbEntity
  8
実線
100
AcDbLine
 10
408.9038751858611
 20
166.1874482895073
 30
0.0
 11
406.7825548423015
 21
164.0661279459477
 31
0.0
  0
LINE
  5
139C
102
{ACAD_REACTORS
330
1412
102
}
330
1F
100
AcDbEntity
  8
実線
100
AcDbLine
 10
415.9749429977268
 20
159.1163804776418
 30
0.0
 11
408.9038751858611
 21
166.1874482895073
 31
0.0
  0
LINE
  5
139D
102
{ACAD_REACTORS
330
1412
102
}
330
1F
100
AcDbEntity
  8
実線
100
AcDbLine
 10
413.8536226541669
 20
156.9950601340823
 30
0.0
 11
406.7825548423015
 21
164.0661279459477
 31
0.0
  0
LINE
  5
139E
102
{ACAD_REACTORS
330
1412
102
}
330
1F
100
AcDbEntity
  8
実線
100
AcDbLine
 10
403.3884422923383
 20
149.3583068975697
 30
0.0
 11
412.4394090915088
 21
158.4092736967403
 31
0.0
  0
LINE
  5
139F
102
{ACAD_REACTORS
330
1412
102
}
330
1F
100
AcDbEntity
  8
実線
100
AcDbLine
 10
408.1967684049596
 20
162.6519143832896
 30
0.0
 11
399.1458016057891
 21
153.600947584119
 31
0.0
  0
LINE
  5
13A0
102
{ACAD_REACTORS
330
1412
102
}
330
1F
100
AcDbEntity
  8
実線
100
AcDbLine
 10
411.1666168856754
 20
139.883076029385
 30
0.0
 11
423.8945389470331
 21
152.6109980907429
 31
0.0
  0
LINE
  5
13A1
102
{ACAD_REACTORS
330
1412
102
}
330
1F
100
AcDbEntity
  8
実線
100
AcDbLine
 10
423.8945389470331
 20
152.6109980907429
 30
0.0
 11
423.0460108096094
 21
153.4595262281668
 31
0.0
  0
LINE
  5
13A2
102
{ACAD_REACTORS
330
1412
102
}
330
1F
100
AcDbEntity
  8
実線
100
AcDbLine
 10
423.0460108096094
 20
153.4595262281668
 30
0.0
 11
410.3180887482517
 21
140.7316041668089
 31
0.0
  0
LINE
  5
13A3
102
{ACAD_REACTORS
330
1412
102
}
330
1F
100
AcDbEntity
  8
実線
100
AcDbLine
 10
421.4185938116401
 20
129.6310991034206
 30
0.0
 11
399.9503038484104
 21
108.162809140191
 31
0.0
  0
LINE
  5
13A4
102
{ACAD_REACTORS
330
1412
102
}
330
1F
100
AcDbEntity
  8
実線
100
AcDbLine
 10
421.4185938116401
 20
129.6310991034206
 30
0.0
 11
379.4185938116402
 21
171.6310991034207
 31
0.0
  0
LINE
  5
13A5
102
{ACAD_REACTORS
330
1412
102
}
330
1F
100
AcDbEntity
  8
実線
100
AcDbLine
 10
379.5593967504897
 20
114.2146468884606
 30
0.0
 11
385.6112344987591
 21
108.162809140191
 31
0.0
  0
LINE
  5
13A6
102
{ACAD_REACTORS
330
1412
102
}
330
1F
100
AcDbEntity
  8
実線
100
AcDbLine
 10
382.387370891383
 20
132.5998761831636
 30
0.0
 11
400.4185938116401
 21
150.6310991034206
 31
0.0
  0
LINE
  5
13A7
102
{ACAD_REACTORS
330
1412
102
}
330
1F
100
AcDbEntity
  8
実線
100
AcDbLine
 10
350.7807691735848
 20
142.9932744653654
 30
0.0
 11
379.4185938116402
 21
171.6310991034207
 31
0.0
  0
CIRCLE
  5
13A8
102
{ACAD_REACTORS
330
1412
102
}
330
1F
100
AcDbEntity
  8
実線
100
AcDbCircle
 10
338.9003038484111
 20
89.11280914019181
 30
0.0
 40
13.0
  0
LINE
  5
13A9
102
{ACAD_REACTORS
330
1412
102
}
330
1F
100
AcDbEntity
  8
実線
100
AcDbLine
 10
358.206215458315
 20
107.5886396074064
 30
0.0
 11
358.538418610458
 21
114.0801449078515
 31
0.0
  0
LINE
  5
13AA
102
{ACAD_REACTORS
330
1412
102
}
330
1F
100
AcDbEntity
  8
実線
100
AcDbLine
 10
355.5423392410216
 20
114.2334694396095
 30
0.0
 11
355.2101360888792
 21
107.7419641391645
 31
0.0
  0
LINE
  5
13AB
102
{ACAD_REACTORS
330
1412
102
}
330
1F
100
AcDbEntity
  8
実線
100
AcDbLine
 10
358.538418610458
 20
114.0801449078515
 30
0.0
 11
355.5423392410216
 21
114.2334694396095
 31
0.0
  0
LINE
  5
13AC
102
{ACAD_REACTORS
330
1412
102
}
330
1F
100
AcDbEntity
  8
実線
100
AcDbLine
 10
351.9849800674279
 20
82.87429700617241
 30
0.0
 11
359.3753091787039
 21
82.4960964945024
 31
0.0
  0
LINE
  5
13AD
102
{ACAD_REACTORS
330
1412
102
}
330
1F
100
AcDbEntity
  8
実線
100
AcDbLine
 10
360.6530136100214
 20
107.4634245731372
 30
0.0
 11
353.2626844987458
 21
107.8416250848073
 31
0.0
  0
LINE
  5
13AE
102
{ACAD_REACTORS
330
1412
102
}
330
1F
100
AcDbEntity
  8
実線
100
AcDbLine
 10
351.9849800674279
 20
82.87429700617241
 30
0.0
 11
353.2626844987458
 21
107.8416250848073
 31
0.0
  0
LINE
  5
13AF
102
{ACAD_REACTORS
330
1412
102
}
330
1F
100
AcDbEntity
  8
実線
100
AcDbLine
 10
360.5737409264784
 20
82.43476668179908
 30
0.0
 11
359.3753091787039
 21
82.4960964945024
 31
0.0
  0
LINE
  5
13B0
102
{ACAD_REACTORS
330
1412
102
}
330
1F
100
AcDbEntity
  8
実線
100
AcDbLine
 10
359.3753091787039
 20
82.4960964945024
 30
0.0
 11
360.908554496285
 21
112.4568901888643
 31
0.0
  0
LINE
  5
13B1
102
{ACAD_REACTORS
330
1412
102
}
330
1F
100
AcDbEntity
  8
実線
100
AcDbLine
 10
362.1069862440595
 20
112.3955603761611
 30
0.0
 11
360.5737409264784
 21
82.43476668179908
 31
0.0
  0
LINE
  5
13B2
102
{ACAD_REACTORS
330
1412
102
}
330
1F
100
AcDbEntity
  8
実線
100
AcDbLine
 10
360.908554496285
 20
112.4568901888643
 30
0.0
 11
362.1069862440595
 21
112.3955603761611
 31
0.0
  0
LINE
  5
13B3
102
{ACAD_REACTORS
330
1412
102
}
330
1F
100
AcDbEntity
  8
実線
100
AcDbLine
 10
290.5695553543099
 20
122.0993404825433
 30
0.0
 11
297.7436306733723
 21
114.925265163481
 31
0.0
  0
LINE
  5
13B4
102
{ACAD_REACTORS
330
1412
102
}
330
1F
100
AcDbEntity
  8
実線
100
AcDbLine
 10
313.0878478251202
 20
130.2694823152291
 30
0.0
 11
305.9137725060578
 21
137.4435576342915
 31
0.0
  0
LINE
  5
13B5
102
{ACAD_REACTORS
330
1412
102
}
330
1F
100
AcDbEntity
  8
実線
100
AcDbLine
 10
305.9137725060578
 20
137.4435576342915
 30
0.0
 11
308.6007782745669
 21
143.4539652743772
 31
0.0
  0
LINE
  5
13B6
102
{ACAD_REACTORS
330
1412
102
}
330
1F
100
AcDbEntity
  8
実線
100
AcDbLine
 10
284.5591477142243
 20
119.4123347140345
 30
0.0
 11
290.5695553543099
 21
122.0993404825433
 31
0.0
  0
LINE
  5
13B7
102
{ACAD_REACTORS
330
1412
102
}
330
1F
100
AcDbEntity
  8
実線
100
AcDbLine
 10
292.1881892583856
 20
123.7179743866193
 30
0.0
 11
290.5695553543099
 21
122.0993404825433
 31
0.0
  0
LINE
  5
13B8
102
{ACAD_REACTORS
330
1412
102
}
330
1F
100
AcDbEntity
  8
実線
100
AcDbLine
 10
305.9137725060578
 20
137.4435576342915
 30
0.0
 11
304.2951386019818
 21
135.8249237302156
 31
0.0
  0
LINE
  5
13B9
102
{ACAD_REACTORS
330
1412
102
}
330
1F
100
AcDbEntity
  8
実線
100
AcDbLine
 10
283.0388681346731
 20
120.9326142935855
 30
0.0
 11
284.5591477142243
 21
119.4123347140345
 31
0.0
  0
LINE
  5
13BA
102
{ACAD_REACTORS
330
1412
102
}
330
1F
100
AcDbEntity
  8
実線
100
AcDbLine
 10
308.6007782745669
 20
143.4539652743772
 30
0.0
 11
307.0804986950157
 21
144.9742448539282
 31
0.0
  0
LINE
  5
13BB
102
{ACAD_REACTORS
330
1412
102
}
330
1F
100
AcDbEntity
  8
実線
100
AcDbLine
 10
307.0804986950157
 20
144.9742448539282
 30
0.0
 11
283.0388681346731
 21
120.9326142935855
 31
0.0
  0
LINE
  5
13BC
102
{ACAD_REACTORS
330
1412
102
}
330
1F
100
AcDbEntity
  8
実線
100
AcDbLine
 10
291.9978561060954
 20
126.8510431059058
 30
0.0
 11
284.5591477142243
 21
119.4123347140345
 31
0.0
  0
LINE
  5
13BD
102
{ACAD_REACTORS
330
1412
102
}
330
1F
100
AcDbEntity
  8
実線
100
AcDbLine
 10
308.6007782745669
 20
143.4539652743772
 30
0.0
 11
301.1620698826955
 21
136.0152568825058
 31
0.0
  0
LINE
  5
13BE
102
{ACAD_REACTORS
330
1412
102
}
330
1F
100
AcDbEntity
  8
実線
100
AcDbLine
 10
357.9503038484104
 20
24.21280914019093
 30
0.0
 11
357.9503038484104
 21
45.6001960262908
 31
0.0
  0
LINE
  5
13BF
102
{ACAD_REACTORS
330
1412
102
}
330
1F
100
AcDbEntity
  8
実線
100
AcDbLine
 10
319.8503038484105
 20
39.57345136509588
 30
0.0
 11
319.8503038484105
 21
24.21280914019093
 31
0.0
  0
LINE
  5
13C0
102
{ACAD_REACTORS
330
1412
102
}
330
1F
100
AcDbEntity
  8
実線
100
AcDbLine
 10
319.8503038484105
 20
24.21280914019093
 30
0.0
 11
313.6503038484102
 21
21.86280914019102
 31
0.0
  0
LINE
  5
13C1
102
{ACAD_REACTORS
330
1412
102
}
330
1F
100
AcDbEntity
  8
実線
100
AcDbLine
 10
364.1503038484102
 20
21.86280914019102
 30
0.0
 11
357.9503038484104
 21
24.21280914019093
 31
0.0
  0
LINE
  5
13C2
102
{ACAD_REACTORS
330
1412
102
}
330
1F
100
AcDbEntity
  8
実線
100
AcDbLine
 10
319.8503038484105
 20
24.21280914019093
 30
0.0
 11
357.9503038484104
 21
24.21280914019093
 31
0.0
  0
LINE
  5
13C3
102
{ACAD_REACTORS
330
1412
102
}
330
1F
100
AcDbEntity
  8
実線
100
AcDbLine
 10
364.1503038484102
 20
19.11280914019102
 30
0.0
 11
364.1503038484102
 21
21.86280914019102
 31
0.0
  0
LINE
  5
13C4
102
{ACAD_REACTORS
330
1412
102
}
330
1F
100
AcDbEntity
  8
実線
100
AcDbLine
 10
313.6503038484102
 20
21.86280914019102
 30
0.0
 11
313.6503038484102
 21
19.11280914019102
 31
0.0
  0
LINE
  5
13C5
102
{ACAD_REACTORS
330
1412
102
}
330
1F
100
AcDbEntity
  8
実線
100
AcDbLine
 10
364.1503038484102
 20
19.11280914019102
 30
0.0
 11
313.6503038484102
 21
19.11280914019102
 31
0.0
  0
LINE
  5
13C6
102
{ACAD_REACTORS
330
1412
102
}
330
1F
100
AcDbEntity
  8
実線
100
AcDbLine
 10
364.1503038484102
 20
21.86280914019102
 30
0.0
 11
313.6503038484102
 21
21.86280914019102
 31
0.0
  0
LINE
  5
13C7
102
{ACAD_REACTORS
330
1412
102
}
330
1F
100
AcDbEntity
  8
実線
100
AcDbLine
 10
319.8503038484105
 20
154.012809140191
 30
0.0
 11
319.8503038484105
 21
132.6254222540921
 31
0.0
  0
LINE
  5
13C8
102
{ACAD_REACTORS
330
1412
102
}
330
1F
100
AcDbEntity
  8
実線
100
AcDbLine
 10
357.9503038484104
 20
150.162809140191
 30
0.0
 11
357.9503038484104
 21
154.012809140191
 31
0.0
  0
LINE
  5
13C9
102
{ACAD_REACTORS
330
1412
102
}
330
1F
100
AcDbEntity
  8
実線
100
AcDbLine
 10
313.6503038484102
 20
159.112809140191
 30
0.0
 11
313.6503038484102
 21
156.362809140191
 31
0.0
  0
LINE
  5
13CA
102
{ACAD_REACTORS
330
1412
102
}
330
1F
100
AcDbEntity
  8
実線
100
AcDbLine
 10
364.1503038484102
 20
156.362809140191
 30
0.0
 11
364.1503038484102
 21
159.112809140191
 31
0.0
  0
LINE
  5
13CB
102
{ACAD_REACTORS
330
1412
102
}
330
1F
100
AcDbEntity
  8
実線
100
AcDbLine
 10
313.6503038484102
 20
159.112809140191
 30
0.0
 11
364.1503038484102
 21
159.112809140191
 31
0.0
  0
LINE
  5
13CC
102
{ACAD_REACTORS
330
1412
102
}
330
1F
100
AcDbEntity
  8
実線
100
AcDbLine
 10
357.9503038484104
 20
154.012809140191
 30
0.0
 11
364.1503038484102
 21
156.362809140191
 31
0.0
  0
LINE
  5
13CD
102
{ACAD_REACTORS
330
1412
102
}
330
1F
100
AcDbEntity
  8
実線
100
AcDbLine
 10
313.6503038484102
 20
156.362809140191
 30
0.0
 11
319.8503038484105
 21
154.012809140191
 31
0.0
  0
LINE
  5
13CE
102
{ACAD_REACTORS
330
1412
102
}
330
1F
100
AcDbEntity
  8
実線
100
AcDbLine
 10
364.1503038484102
 20
156.362809140191
 30
0.0
 11
313.6503038484102
 21
156.362809140191
 31
0.0
  0
LINE
  5
13CF
102
{ACAD_REACTORS
330
1412
102
}
330
1F
100
AcDbEntity
  8
実線
100
AcDbLine
 10
357.9503038484104
 20
154.012809140191
 30
0.0
 11
319.8503038484105
 21
154.012809140191
 31
0.0
  0
LINE
  5
13D0
102
{ACAD_REACTORS
330
1412
102
}
330
1F
100
AcDbEntity
  8
実線
100
AcDbLine
 10
403.8003038484102
 20
108.162809140191
 30
0.0
 11
382.4129169623125
 21
108.162809140191
 31
0.0
  0
LINE
  5
13D1
102
{ACAD_REACTORS
330
1412
102
}
330
1F
100
AcDbEntity
  8
実線
100
AcDbLine
 10
382.4129169623116
 20
70.06280914019095
 30
0.0
 11
403.8003038484102
 21
70.06280914019095
 31
0.0
  0
LINE
  5
13D2
102
{ACAD_REACTORS
330
1412
102
}
330
1F
100
AcDbEntity
  8
実線
100
AcDbLine
 10
403.8003038484102
 20
70.06280914019095
 30
0.0
 11
406.1503038484102
 21
63.86280914019102
 31
0.0
  0
LINE
  5
13D3
102
{ACAD_REACTORS
330
1412
102
}
330
1F
100
AcDbEntity
  8
実線
100
AcDbLine
 10
406.1503038484102
 20
114.362809140191
 30
0.0
 11
403.8003038484102
 21
108.162809140191
 31
0.0
  0
LINE
  5
13D4
102
{ACAD_REACTORS
330
1412
102
}
330
1F
100
AcDbEntity
  8
実線
100
AcDbLine
 10
403.8003038484102
 20
70.06280914019095
 30
0.0
 11
403.8003038484102
 21
108.162809140191
 31
0.0
  0
LINE
  5
13D5
102
{ACAD_REACTORS
330
1412
102
}
330
1F
100
AcDbEntity
  8
実線
100
AcDbLine
 10
408.9003038484102
 20
114.362809140191
 30
0.0
 11
406.1503038484102
 21
114.362809140191
 31
0.0
  0
LINE
  5
13D6
102
{ACAD_REACTORS
330
1412
102
}
330
1F
100
AcDbEntity
  8
実線
100
AcDbLine
 10
406.1503038484102
 20
63.86280914019102
 30
0.0
 11
408.9003038484102
 21
63.86280914019102
 31
0.0
  0
LINE
  5
13D7
102
{ACAD_REACTORS
330
1412
102
}
330
1F
100
AcDbEntity
  8
実線
100
AcDbLine
 10
408.9003038484102
 20
63.86280914019102
 30
0.0
 11
408.9003038484102
 21
114.362809140191
 31
0.0
  0
LINE
  5
13D8
102
{ACAD_REACTORS
330
1412
102
}
330
1F
100
AcDbEntity
  8
実線
100
AcDbLine
 10
406.1503038484102
 20
63.86280914019102
 30
0.0
 11
406.1503038484102
 21
114.362809140191
 31
0.0
  0
LINE
  5
13D9
102
{ACAD_REACTORS
330
1412
102
}
330
1F
100
AcDbEntity
  8
実線
100
AcDbLine
 10
274.0003038484104
 20
70.06280914019095
 30
0.0
 11
295.3876907345109
 21
70.06280914019095
 31
0.0
  0
LINE
  5
13DA
102
{ACAD_REACTORS
330
1412
102
}
330
1F
100
AcDbEntity
  8
実線
100
AcDbLine
 10
295.3876907345102
 20
108.162809140191
 30
0.0
 11
274.0003038484104
 21
108.162809140191
 31
0.0
  0
LINE
  5
13DB
102
{ACAD_REACTORS
330
1412
102
}
330
1F
100
AcDbEntity
  8
実線
100
AcDbLine
 10
274.0003038484104
 20
108.162809140191
 30
0.0
 11
271.6503038484102
 21
114.362809140191
 31
0.0
  0
LINE
  5
13DC
102
{ACAD_REACTORS
330
1412
102
}
330
1F
100
AcDbEntity
  8
実線
100
AcDbLine
 10
271.6503038484102
 20
63.86280914019102
 30
0.0
 11
274.0003038484104
 21
70.06280914019095
 31
0.0
  0
LINE
  5
13DD
102
{ACAD_REACTORS
330
1412
102
}
330
1F
100
AcDbEntity
  8
実線
100
AcDbLine
 10
274.0003038484104
 20
108.162809140191
 30
0.0
 11
274.0003038484104
 21
70.06280914019095
 31
0.0
  0
LINE
  5
13DE
102
{ACAD_REACTORS
330
1412
102
}
330
1F
100
AcDbEntity
  8
実線
100
AcDbLine
 10
268.9003038484102
 20
63.86280914019102
 30
0.0
 11
271.6503038484102
 21
63.86280914019102
 31
0.0
  0
LINE
  5
13DF
102
{ACAD_REACTORS
330
1412
102
}
330
1F
100
AcDbEntity
  8
実線
100
AcDbLine
 10
271.6503038484102
 20
114.362809140191
 30
0.0
 11
268.9003038484102
 21
114.362809140191
 31
0.0
  0
LINE
  5
13E0
102
{ACAD_REACTORS
330
1412
102
}
330
1F
100
AcDbEntity
  8
実線
100
AcDbLine
 10
268.9003038484102
 20
114.362809140191
 30
0.0
 11
268.9003038484102
 21
63.86280914019102
 31
0.0
  0
LINE
  5
13E1
102
{ACAD_REACTORS
330
1412
102
}
330
1F
100
AcDbEntity
  8
実線
100
AcDbLine
 10
271.6503038484102
 20
114.362809140191
 30
0.0
 11
271.6503038484102
 21
63.86280914019102
 31
0.0
  0
LINE
  5
13E2
102
{ACAD_REACTORS
330
1412
102
}
330
1F
100
AcDbEntity
  8
実線
100
AcDbLine
 10
298.2412109463312
 20
114.2146468884606
 30
0.0
 11
297.1810037584041
 21
113.1544397005336
 31
0.0
  0
LINE
  5
13E3
102
{ACAD_REACTORS
330
1412
102
}
330
1F
100
AcDbEntity
  8
実線
100
AcDbLine
 10
314.8586732880676
 20
130.8321092301973
 30
0.0
 11
313.7984661001405
 21
129.7719020422704
 31
0.0
  0
LINE
  5
13E4
102
{ACAD_REACTORS
330
1412
102
}
330
1F
100
AcDbEntity
  8
実線
100
AcDbLine
 10
380.1418215279109
 20
63.17918260696973
 30
0.0
 11
381.3267107196034
 21
64.36407179866188
 31
0.0
  0
LINE
  5
13E5
102
{ACAD_REACTORS
330
1412
102
}
330
1F
100
AcDbEntity
  8
実線
100
AcDbLine
 10
363.6490411899395
 20
46.68640226899817
 30
0.0
 11
364.8339303816315
 21
47.87129146069031
 31
0.0
  0
LINE
  5
13E6
102
{ACAD_REACTORS
330
1412
102
}
330
1F
100
AcDbEntity
  8
実線
100
AcDbLine
 10
315.3354351212024
 20
130.3553473970623
 30
0.0
 11
314.8586732880676
 21
130.8321092301973
 31
0.0
  0
LINE
  5
13E7
102
{ACAD_REACTORS
330
1412
102
}
330
1F
100
AcDbEntity
  8
実線
100
AcDbLine
 10
381.3267107196034
 20
64.36407179866188
 30
0.0
 11
380.1428421052819
 21
65.54794041298333
 31
0.0
  0
LINE
  5
13E8
102
{ACAD_REACTORS
330
1412
102
}
330
1F
100
AcDbEntity
  8
実線
100
AcDbLine
 10
362.4651725756176
 20
47.87027088332007
 30
0.0
 11
363.6490411899395
 21
46.68640226899817
 31
0.0
  0
LINE
  5
13E9
102
{ACAD_REACTORS
330
1412
102
}
330
1F
100
AcDbEntity
  8
実線
100
AcDbLine
 10
297.1810037584041
 20
113.1544397005336
 30
0.0
 11
297.6577655915394
 21
112.6776778673982
 31
0.0
  0
CIRCLE
  5
13EA
102
{ACAD_REACTORS
330
1412
102
}
330
1F
100
AcDbEntity
  8
実線
100
AcDbCircle
 10
338.9003038484111
 20
89.11280914019181
 30
0.0
 40
47.5
  0
LINE
  5
13EB
102
{ACAD_REACTORS
330
1412
102
}
330
1F
100
AcDbEntity
  8
実線
100
AcDbLine
 10
350.7807691735848
 20
142.9932744653654
 30
0.0
 11
364.0021415966799
 21
129.7719020422704
 31
0.0
  0
LINE
  5
13EC
102
{ACAD_REACTORS
330
1412
102
}
330
1F
100
AcDbEntity
  8
実線
100
AcDbLine
 10
289.3609460733153
 20
70.06280914019095
 30
0.0
 11
297.0763613914883
 21
62.34739382201809
 31
0.0
  0
LINE
  5
13ED
102
{ACAD_REACTORS
330
1412
102
}
330
1F
100
AcDbEntity
  8
実線
100
AcDbLine
 10
350.7807691735848
 20
142.9932744653654
 30
0.0
 11
344.1133731078476
 21
136.325878399628
 31
0.0
  0
LINE
  5
13EE
102
{ACAD_REACTORS
330
1412
102
}
330
1F
100
AcDbEntity
  8
実線
100
AcDbLine
 10
325.6056249608628
 20
33.81813025264347
 30
0.0
 11
312.1348885302373
 21
47.28886668326885
 31
0.0
  0
LINE
  5
13EF
102
{ACAD_REACTORS
330
1412
102
}
330
1F
100
AcDbEntity
  8
実線
100
AcDbLine
 10
333.6872345889747
 20
41.89973988075559
 30
0.0
 11
325.6056249608628
 21
33.81813025264347
 31
0.0
  0
LINE
  5
13F0
102
{ACAD_REACTORS
330
1412
102
}
330
1F
100
AcDbEntity
  8
実線
100
AcDbLine
 10
314.0514871133441
 20
129.5947348215011
 30
0.0
 11
306.8415383961474
 21
134.6431952633875
 31
0.0
  0
ARC
  5
13F1
102
{ACAD_REACTORS
330
1412
102
}
330
1F
100
AcDbEntity
  8
実線
100
AcDbCircle
 10
302.2529269053389
 20
128.0899789090756
 30
0.0
 40
7.999999999999986
100
AcDbArc
 50
55.00000000000264
 51
133.2354262571168
  0
ARC
  5
13F2
102
{ACAD_REACTORS
330
1412
102
}
330
1F
100
AcDbEntity
  8
実線
100
AcDbCircle
 10
338.9003038484102
 20
89.11280914019261
 30
0.0
 40
61.49999999999885
100
AcDbArc
 50
133.2354262571168
 51
136.7645737428878
  0
ARC
  5
13F3
102
{ACAD_REACTORS
330
1412
102
}
330
1F
100
AcDbEntity
  8
実線
100
AcDbCircle
 10
299.9231340795272
 20
125.7601860832638
 30
0.0
 40
8.000000000000023
100
AcDbArc
 50
136.7645737428854
 51
214.9999999999974
  0
LINE
  5
13F4
102
{ACAD_REACTORS
330
1412
102
}
330
1F
100
AcDbEntity
  8
実線
100
AcDbLine
 10
293.3699177252151
 20
121.1715745924554
 30
0.0
 11
298.4183781671017
 21
113.9616258752589
 31
0.0
  0
LINE
  5
13F5
102
{ACAD_REACTORS
330
1412
102
}
330
1F
100
AcDbEntity
  8
実線
100
AcDbLine
 10
379.3822295297204
 20
113.9616258752589
 30
0.0
 11
384.4306899716071
 21
121.1715745924554
 31
0.0
  0
ARC
  5
13F6
102
{ACAD_REACTORS
330
1412
102
}
330
1F
100
AcDbEntity
  8
実線
100
AcDbCircle
 10
377.877473617295
 20
125.7601860832638
 30
0.0
 40
7.999999999999996
100
AcDbArc
 50
325.0000000000026
 51
43.23542625711217
  0
ARC
  5
13F7
102
{ACAD_REACTORS
330
1412
102
}
330
1F
100
AcDbEntity
  8
実線
100
AcDbCircle
 10
338.9003038484111
 20
89.11280914019192
 30
0.0
 40
61.50000000000008
100
AcDbArc
 50
43.23542625711217
 51
46.76457374288315
  0
ARC
  5
13F8
102
{ACAD_REACTORS
330
1412
102
}
330
1F
100
AcDbEntity
  8
実線
100
AcDbCircle
 10
375.5476807914833
 20
128.0899789090756
 30
0.0
 40
8.000000000000021
100
AcDbArc
 50
46.76457374288315
 51
124.9999999999974
  0
LINE
  5
13F9
102
{ACAD_REACTORS
330
1412
102
}
330
1F
100
AcDbEntity
  8
実線
100
AcDbLine
 10
370.9590693006749
 20
134.6431952633875
 30
0.0
 11
363.7491205834781
 21
129.5947348215011
 31
0.0
  0
LINE
  5
13FA
102
{ACAD_REACTORS
330
1412
102
}
330
1F
100
AcDbEntity
  8
実線
100
AcDbLine
 10
363.7491205834781
 20
48.63088345888247
 30
0.0
 11
370.9590693006749
 21
43.58242301699596
 31
0.0
  0
ARC
  5
13FB
102
{ACAD_REACTORS
330
1412
102
}
330
1F
100
AcDbEntity
  8
実線
100
AcDbCircle
 10
375.5476807914833
 20
50.13563937130794
 30
0.0
 40
8.000000000000008
100
AcDbArc
 50
235.0000000000026
 51
313.2354262571169
  0
ARC
  5
13FC
102
{ACAD_REACTORS
330
1412
102
}
330
1F
100
AcDbEntity
  8
実線
100
AcDbCircle
 10
338.9003038484102
 20
89.11280914019249
 30
0.0
 40
61.50000000000114
100
AcDbArc
 50
313.2354262571169
 51
316.7645737428878
  0
ARC
  5
13FD
102
{ACAD_REACTORS
330
1412
102
}
330
1F
100
AcDbEntity
  8
実線
100
AcDbCircle
 10
377.877473617295
 20
52.46543219711981
 30
0.0
 40
8.000000000000008
100
AcDbArc
 50
316.7645737428878
 51
34.99999999999737
  0
LINE
  5
13FE
102
{ACAD_REACTORS
330
1412
102
}
330
1F
100
AcDbEntity
  8
実線
100
AcDbLine
 10
384.4306899716071
 20
57.05404368792819
 30
0.0
 11
379.3822295297204
 21
64.26399240512473
 31
0.0
  0
LINE
  5
13FF
102
{ACAD_REACTORS
330
1412
102
}
330
1F
100
AcDbEntity
  8
実線
100
AcDbLine
 10
298.4183781671017
 20
64.26399240512484
 30
0.0
 11
293.3699177252151
 21
57.05404368792819
 31
0.0
  0
ARC
  5
1400
102
{ACAD_REACTORS
330
1412
102
}
330
1F
100
AcDbEntity
  8
実線
100
AcDbCircle
 10
299.9231340795272
 20
52.46543219711981
 30
0.0
 40
7.999999999999995
100
AcDbArc
 50
145.0000000000026
 51
223.2354262571122
  0
ARC
  5
1401
102
{ACAD_REACTORS
330
1412
102
}
330
1F
100
AcDbEntity
  8
実線
100
AcDbCircle
 10
338.9003038484111
 20
89.11280914019204
 30
0.0
 40
61.50000000000009
100
AcDbArc
 50
223.2354262571122
 51
226.7645737428832
  0
ARC
  5
1402
102
{ACAD_REACTORS
330
1412
102
}
330
1F
100
AcDbEntity
  8
実線
100
AcDbCircle
 10
302.2529269053389
 20
50.13563937130794
 30
0.0
 40
8.000000000000008
100
AcDbArc
 50
226.7645737428832
 51
304.9999999999974
  0
LINE
  5
1403
102
{ACAD_REACTORS
330
1412
102
}
330
1F
100
AcDbEntity
  8
実線
100
AcDbLine
 10
306.8415383961474
 20
43.58242301699607
 30
0.0
 11
314.0514871133441
 21
48.63088345888247
 31
0.0
  0
LINE
  5
1404
102
{ACAD_REACTORS
330
1412
102
}
330
1F
100
AcDbEntity
  8
実線
100
AcDbLine
 10
411.1666168856754
 20
141.5801323042328
 30
0.0
 11
391.3676270125165
 21
161.3791221773913
 31
0.0
  0
LINE
  5
1405
102
{ACAD_REACTORS
330
1412
102
}
330
1F
100
AcDbEntity
  8
実線
100
AcDbLine
 10
351.009757366191
 20
102.9503758235857
 30
0.0
 11
351.5208391387182
 21
112.9373070550397
 31
0.0
  0
LINE
  5
1406
102
{ACAD_REACTORS
330
1412
102
}
330
1F
100
AcDbEntity
  8
実線
100
AcDbLine
 10
355.8003038484112
 20
113.5128091401918
 30
0.0
 11
355.8003038484112
 21
103.5128091401918
 31
0.0
  0
LINE
  5
1407
102
{ACAD_REACTORS
330
1412
102
}
330
1F
100
AcDbEntity
  8
実線
100
AcDbLine
 10
350.8003038484112
 20
108.5128091401918
 30
0.0
 11
360.8003038484112
 21
108.5128091401918
 31
0.0
  0
ARC
  5
1408
102
{ACAD_REACTORS
330
1412
102
}
330
1F
100
AcDbEntity
  8
実線
100
AcDbCircle
 10
355.8003038484112
 20
108.5128091401918
 30
0.0
 40
2.0
100
AcDbArc
 50
103.0324550054239
 51
200.6486193207724
  0
LINE
  5
1409
102
{ACAD_REACTORS
330
1412
102
}
330
1F
100
AcDbEntity
  8
実線
100
AcDbLine
 10
353.0071436124822
 20
102.8481594690802
 30
0.0
 11
351.009757366191
 21
102.9503758235857
 31
0.0
  0
LINE
  5
140A
102
{ACAD_REACTORS
330
1412
102
}
330
1F
100
AcDbEntity
  8
実線
100
AcDbLine
 10
358.4617563445786
 20
112.5821052231334
 30
0.0
 11
360.908554496285
 21
112.4568901888643
 31
0.0
  0
LINE
  5
140B
102
{ACAD_REACTORS
330
1412
102
}
330
1F
100
AcDbEntity
  8
実線
100
AcDbLine
 10
351.5208391387182
 20
112.9373070550396
 30
0.0
 11
355.4656769751423
 21
112.7354297548915
 31
0.0
  0
LINE
  5
140C
102
{ACAD_REACTORS
330
1412
102
}
330
1F
100
AcDbEntity
  8
実線
100
AcDbLine
 10
366.1813381359248
 20
91.35329364184514
 30
0.0
 11
366.1813381359248
 21
81.35329364184514
 31
0.0
  0
LINE
  5
140D
102
{ACAD_REACTORS
330
1412
102
}
330
1F
100
AcDbEntity
  8
実線
100
AcDbLine
 10
361.1813381359248
 20
86.35329364184514
 30
0.0
 11
371.1813381359247
 21
86.35329364184514
 31
0.0
  0
CIRCLE
  5
140E
102
{ACAD_REACTORS
330
1412
102
}
330
1F
100
AcDbEntity
  8
実線
100
AcDbCircle
 10
366.1813381359248
 20
86.35329364184514
 30
0.0
 40
2.0
  0
LINE
  5
140F
102
{ACAD_REACTORS
330
1412
102
}
330
1F
100
AcDbEntity
  8
実線
100
AcDbLine
 10
369.9614562840452
 20
81.95434981562375
 30
0.0
 11
360.5737409264784
 21
82.43476668179921
 31
0.0
  0
LINE
  5
1410
102
{ACAD_REACTORS
330
1412
102
}
330
1F
100
AcDbEntity
  8
実線
100
AcDbLine
 10
370.4725380565719
 20
91.94128104707777
 30
0.0
 11
369.9614562840452
 21
81.95434981562375
 31
0.0
  0
LINE
  5
1411
102
{ACAD_REACTORS
330
1412
102
}
330
1F
100
AcDbEntity
  8
実線
100
AcDbLine
 10
361.0848226990051
 20
92.42169791325313
 30
0.0
 11
370.4725380565724
 21
91.94128104707777
 31
0.0
  0
ENDSEC
  0
SECTION
  2
OBJECTS
  0
DICTIONARY
  5
C
330
0
100
AcDbDictionary
281
     1
  3
ACAD_CIP_PREVIOUS_PRODUCT_INFO
350
4D3
  3
ACAD_COLOR
350
4C9
  3
ACAD_DETAILVIEWSTYLE
350
4CC
  3
ACAD_GROUP
350
D
  3
ACAD_LAYOUT
350
1A
  3
ACAD_MATERIAL
350
43
  3
ACAD_MLEADERSTYLE
350
5B
  3
ACAD_MLINESTYLE
350
17
  3
ACAD_PLOTSETTINGS
350
19
  3
ACAD_PLOTSTYLENAME
350
E
  3
ACAD_SCALELIST
350
47
  3
ACAD_SECTIONVIEWSTYLE
350
4CA
  3
ACAD_TABLESTYLE
350
59
  3
ACAD_VISUALSTYLE
350
2A
  3
ACDB_RECOMPOSE_DATA
350
141E
  3
AcDbVariableDictionary
350
47E
  0
DICTIONARY
  5
4DA
330
2
100
AcDbDictionary
280
     1
281
     1
  3
ACAD_LAYERSTATES
360
4DB
  0
DICTIONARY
  5
AB3
330
10
100
AcDbDictionary
280
     1
281
     1
  3
ADSK_XREC_LAYER_RECONCILED
360
AB4
  0
DICTIONARY
  5
4D6
330
4D5
100
AcDbDictionary
280
     1
281
     1
  3
ADSK_XREC_LAYER_RECONCILED
360
AB5
  0
DICTIONARY
  5
4D8
330
4D7
100
AcDbDictionary
280
     1
281
     1
  3
ADSK_XREC_LAYER_RECONCILED
360
AB6
  0
DICTIONARY
  5
723
330
1F
100
AcDbDictionary
280
     1
281
     1
  3
ACAD_SORTENTS
360
724
  0
XRECORD
  5
4D3
102
{ACAD_REACTORS
330
C
102
}
330
C
100
AcDbXrecord
280
     1
300
ACDLT
300
2016
300
ACDLT_F_S
  0
DICTIONARY
  5
4C9
102
{ACAD_REACTORS
330
C
102
}
330
C
100
AcDbDictionary
281
     1
  0
DICTIONARY
  5
4CC
102
{ACAD_REACTORS
330
C
102
}
330
C
100
AcDbDictionary
281
     1
  3
Metric50
350
4CD
  0
DICTIONARY
  5
D
102
{ACAD_REACTORS
330
C
102
}
330
C
100
AcDbDictionary
281
     1
  3
*A13
350
1418
  3
*A14
350
1419
  3
*A15
350
141A
  3
*A16
350
141B
  3
*A17
350
141C
  3
*A7
350
1412
  0
DICTIONARY
  5
1A
102
{ACAD_REACTORS
330
C
102
}
330
C
100
AcDbDictionary
281
     1
  3
Layout1
350
1E
  3
Model
350
22
  3
レイアウト1
350
4CE
  0
DICTIONARY
  5
43
102
{ACAD_REACTORS
330
C
102
}
330
C
100
AcDbDictionary
281
     1
  3
ByBlock
350
45
  3
ByLayer
350
44
  3
Global
350
46
  0
DICTIONARY
  5
5B
102
{ACAD_REACTORS
330
C
102
}
330
C
100
AcDbDictionary
281
     1
  3
Standard
350
5C
  0
DICTIONARY
  5
17
102
{ACAD_REACTORS
330
C
102
}
330
C
100
AcDbDictionary
281
     1
  3
Standard
350
18
  0
DICTIONARY
  5
19
102
{ACAD_REACTORS
330
C
102
}
330
C
100
AcDbDictionary
281
     1
  0
ACDBDICTIONARYWDFLT
  5
E
102
{ACAD_REACTORS
330
C
102
}
330
C
100
AcDbDictionary
281
     1
  3
Normal
350
F
100
AcDbDictionaryWithDefault
340
F
  0
DICTIONARY
  5
47
102
{ACAD_REACTORS
330
C
102
}
330
C
100
AcDbDictionary
281
     1
  3
A0
350
48
  3
A1
350
49
  3
A2
350
4A
  3
A3
350
4B
  3
A4
350
4C
  3
A5
350
4D
  3
A6
350
4E
  3
A7
350
4F
  3
A8
350
50
  3
A9
350
51
  3
B0
350
52
  3
B1
350
53
  3
B2
350
54
  3
B3
350
55
  3
B4
350
56
  3
B5
350
57
  3
B6
350
58
  0
DICTIONARY
  5
4CA
102
{ACAD_REACTORS
330
C
102
}
330
C
100
AcDbDictionary
281
     1
  3
Metric50
350
4CB
  0
DICTIONARY
  5
59
102
{ACAD_REACTORS
330
C
102
}
330
C
100
AcDbDictionary
281
     1
  3
Standard
350
5A
  0
DICTIONARY
  5
2A
102
{ACAD_REACTORS
330
C
102
}
330
C
100
AcDbDictionary
281
     1
  3
2dWireframe
350
2F
  3
Basic
350
32
  3
Brighten
350
36
  3
ColorChange
350
3A
  3
Conceptual
350
34
  3
Dim
350
35
  3
EdgeColorOff
350
3D
  3
Facepattern
350
39
  3
Flat
350
2B
  3
FlatWithEdges
350
2C
  3
Gouraud
350
2D
  3
GouraudWithEdges
350
2E
  3
Hidden
350
31
  3
JitterOff
350
3B
  3
Linepattern
350
38
  3
OverhangOff
350
3C
  3
Realistic
350
33
  3
Shaded
350
42
  3
Shaded with edges
350
41
  3
Shades of Gray
350
3E
  3
Sketchy
350
3F
  3
Thicken
350
37
  3
Wireframe
350
30
  3
X-Ray
350
40
  0
XRECORD
  5
141E
102
{ACAD_REACTORS
330
C
102
}
330
C
100
AcDbXrecord
280
     1
 90
        1
330
5A
  0
DICTIONARY
  5
47E
102
{ACAD_REACTORS
330
C
102
}
330
C
100
AcDbDictionary
281
     1
  3
CANNOSCALE
350
48C
  3
CENTEREXE
350
485
  3
CENTERLTYPEFILE
350
486
  3
CMLEADERSTYLE
350
480
  3
CTABLESTYLE
350
47F
  3
CVIEWDETAILSTYLE
350
AB7
  3
CVIEWSECTIONSTYLE
350
AB8
  3
DIMASSOC
350
487
  3
HIDETEXT
350
488
  3
INDEXCTL
350
B08
  3
LAYEREVAL
350
ABA
  3
LAYERNOTIFY
350
ABB
  3
LIGHTINGUNITS
350
AB9
  3
MSLTSCALE
350
48D
  3
SORTENTS
350
B07
  0
DICTIONARY
  5
4DB
102
{ACAD_REACTORS
330
4DA
102
}
330
4DA
100
AcDbDictionary
281
     1
  0
XRECORD
  5
AB4
102
{ACAD_REACTORS
330
AB3
102
}
330
AB3
100
AcDbXrecord
280
     1
290
     1
  0
XRECORD
  5
AB5
102
{ACAD_REACTORS
330
4D6
102
}
330
4D6
100
AcDbXrecord
280
     1
290
     1
  0
XRECORD
  5
AB6
102
{ACAD_REACTORS
330
4D8
102
}
330
4D8
100
AcDbXrecord
280
     1
290
     1
  0
SORTENTSTABLE
  5
724
102
{ACAD_REACTORS
330
723
102
}
330
723
100
AcDbSortentsTable
330
1F
331
A9F
  5
A9F
331
A9E
  5
A9E
331
A9D
  5
A9D
331
AAC
  5
AAC
331
A9C
  5
A9C
331
AAB
  5
AAB
331
A9B
  5
A9B
331
AAA
  5
AAA
331
A9A
  5
A9A
331
AA9
  5
AA9
331
A99
  5
A99
331
AA8
  5
AA8
331
AA7
  5
AA7
331
AA6
  5
AA6
331
AA5
  5
AA5
331
AA4
  5
AA4
331
AA3
  5
AA3
331
AA2
  5
AA2
331
AA1
  5
AA1
331
AA0
  5
AA0
  0
ACDBDETAILVIEWSTYLE
  5
4CD
102
{ACAD_XDICTIONARY
360
1451
102
}
102
{ACAD_REACTORS
330
4CC
102
}
330
4CC
100
AcDbModelDocViewStyle
 70
     0
  3
Metric50
290
     0
100
AcDbDetailViewStyle
 70
     0
 71
     0
 90
        3
 71
     1
340
11
 62
   256
 40
5.0
340
0
 62
   256
 40
5.0
300

 40
0.0
280
     1
 71
     2
340
16
 90
       25
 62
   256
 71
     3
340
11
 62
   256
 40
5.0
 90
        0
 40
15.0
 90
        1
300
%<\AcVar ViewDetailId>% (%<\AcVar ViewScale \f "%sn">%)
 71
     4
340
16
 90
       25
 62
   256
340
16
 90
       25
 62
   256
280
     0
  0
GROUP
  5
1418
102
{ACAD_REACTORS
330
D
102
}
330
D
100
AcDbGroup
300

 70
     1
 71
     1
340
1305
340
1304
340
1303
340
1302
340
1301
340
1300
340
12FF
340
12FE
340
12FD
340
12FC
340
12FB
340
12FA
340
12F9
340
12F8
340
12F7
340
12F6
340
12F5
340
12F4
340
12F3
340
12F2
340
12F1
340
12F0
340
12EF
340
12EE
340
12ED
340
12EC
340
12EB
340
12EA
340
12E9
340
12E8
340
12E7
340
12E6
340
12E5
340
12E4
340
12E3
340
12E2
340
12E1
340
12E0
340
12DF
340
12DE
340
12DD
340
12DC
340
12DB
340
12DA
340
12D9
340
12D8
340
12D7
340
12D6
340
12D5
340
12D4
340
12D3
340
12D2
340
12D1
340
12D0
340
12CF
340
12CE
340
12CD
340
12CC
340
12CB
340
12CA
340
12C9
340
12C8
340
12C7
340
12C6
340
12C5
340
12C4
340
12C3
340
12C2
340
12C1
340
12C0
340
12BF
340
12BE
340
12BD
340
12BC
340
12BB
340
12BA
340
12B9
340
12B8
340
12B7
340
12B6
340
12B5
340
12B4
340
12B3
340
12B2
340
12B1
340
12B0
340
12AF
340
12AE
340
12AD
340
12AC
340
12AB
340
12AA
340
12A9
340
12A8
340
12A7
340
12A6
340
12A5
340
12A4
340
12A3
340
12A2
340
12A1
340
12A0
340
129F
340
129E
340
129D
340
129C
340
129B
340
129A
340
1299
340
1298
340
1297
340
1296
340
1295
340
1294
340
1293
340
1292
340
1291
340
1290
340
128F
340
128E
340
128D
340
128C
340
128B
340
128A
340
1289
340
1288
340
1287
340
1286
340
1285
340
1284
340
1283
340
1282
340
1281
340
1280
340
127F
340
127E
340
127D
340
127C
340
127B
340
127A
340
1279
340
1278
340
1277
340
1276
340
1275
340
1274
340
1273
340
1272
340
1271
340
1270
340
126F
340
126E
340
126D
340
126C
340
126B
340
126A
340
1269
340
1268
340
1267
340
1266
340
1265
340
1264
340
1263
340
1262
340
1261
340
1260
340
AA0
340
A9F
340
A9E
340
A9D
  0
GROUP
  5
1419
102
{ACAD_REACTORS
330
D
102
}
330
D
100
AcDbGroup
300

 70
     1
 71
     1
340
125F
340
125E
340
125D
340
125C
340
125B
340
125A
340
1259
340
1258
340
1257
340
1256
340
1255
340
1254
340
1253
340
1252
340
1251
340
1250
340
124F
340
124E
340
124D
340
124C
340
124B
340
124A
340
1249
340
1248
340
1247
340
1246
340
1245
340
1244
340
1243
340
1242
340
1241
340
1240
340
123F
340
123E
340
123D
340
123C
340
123B
340
123A
340
1239
340
1238
340
1237
340
1236
340
1235
340
1234
340
1233
340
1232
340
1231
340
1230
340
122F
340
122E
340
122D
340
122C
340
122B
340
122A
340
1229
340
1228
340
1227
340
1226
340
1225
340
1224
340
1223
340
1222
340
1221
340
1220
340
121F
340
121E
340
121D
340
121C
340
121B
340
121A
340
1219
340
1218
340
1217
340
1216
340
1215
340
1214
340
1213
340
1212
340
1211
340
1210
340
120F
340
120E
340
120D
340
120C
340
120B
340
120A
340
1209
340
1208
340
1207
340
1206
340
1205
340
1204
340
1203
340
1202
340
1201
340
1200
340
11FF
340
11FE
340
11FD
340
11FC
340
11FB
340
11FA
340
11F9
340
11F8
340
11F7
340
11F6
340
11F5
340
11F4
340
11F3
340
11F2
340
11F1
340
11F0
340
11EF
340
11EE
340
11ED
340
11EC
340
11EB
340
11EA
340
11E9
340
11E8
340
11E7
340
11E6
340
11E5
340
11E4
340
11E3
340
11E2
340
11E1
340
11E0
340
11DF
340
11DE
340
11DD
340
11DC
340
11DB
340
11DA
340
11D9
340
11D8
340
11D7
340
11D6
340
11D5
340
11D4
340
11D3
340
11D2
340
11D1
340
11D0
340
11CF
340
11CE
340
11CD
340
11CC
340
11CB
340
11CA
340
11C9
340
11C8
340
11C7
340
11C6
340
11C5
340
11C4
340
11C3
340
11C2
340
11C1
340
11C0
340
11BF
340
11BE
340
11BD
340
11BC
340
11BB
340
11BA
340
11B9
340
11B8
340
11B7
340
11B6
340
11B5
340
11B4
340
11B3
340
11B2
340
11B1
340
11B0
340
11AF
340
11AE
340
11AD
340
11AC
340
11AB
340
11AA
340
11A9
340
11A8
340
11A7
340
11A6
340
11A5
340
11A4
340
11A3
340
11A2
340
11A1
340
11A0
340
119F
340
119E
340
119D
340
119C
340
119B
340
119A
340
1199
340
1198
340
1197
340
1196
340
1195
340
1194
340
AA4
340
AA3
340
AA2
340
AA1
  0
GROUP
  5
141A
102
{ACAD_REACTORS
330
D
102
}
330
D
100
AcDbGroup
300

 70
     1
 71
     1
340
10EB
340
10EA
340
10E9
340
10E8
340
10E7
340
10E6
340
10E5
340
10E4
340
10E3
340
10E2
340
10E1
340
10E0
340
10DF
340
10DE
340
10DD
340
10DC
340
10DB
340
10DA
340
10D9
340
10D8
340
10D7
340
10D6
340
10D5
340
10D4
340
10D3
340
10D2
340
10D1
340
10D0
340
10CF
340
10CE
340
10CD
340
10CC
340
10CB
340
10CA
340
10C9
340
10C8
340
10C7
340
10C6
340
10C5
340
10C4
340
10C3
340
10C2
340
10C1
340
10C0
340
10BF
340
10BE
340
10BD
340
10BC
340
10BB
340
10BA
340
10B9
340
10B8
340
10B7
340
10B6
340
10B5
340
10B4
340
10B3
340
10B2
340
10B1
340
10B0
340
10AF
340
10AE
340
10AD
340
10AC
340
10AB
340
10AA
340
10A9
340
10A8
340
10A7
340
10A6
340
10A5
340
10A4
340
10A3
340
10A2
340
10A1
340
10A0
340
109F
340
109E
340
109D
340
109C
340
109B
340
109A
340
1099
340
1098
340
1097
340
1096
340
1095
340
1094
340
1093
340
1092
340
1091
340
1090
340
108F
340
108E
340
108D
340
108C
340
108B
340
108A
340
1089
340
1088
340
1087
340
1086
340
1085
340
1084
340
1083
340
1082
340
1081
340
1080
340
107F
340
107E
340
107D
340
107C
340
107B
340
107A
340
1079
340
1078
340
1077
340
1076
340
1075
340
1074
340
1073
340
1072
340
1071
340
1070
340
106F
340
106E
340
106D
340
106C
340
106B
340
106A
340
1069
340
1068
340
1067
340
1066
340
1065
340
1064
340
1063
340
1062
340
1061
340
1060
340
105F
340
105E
340
105D
340
105C
340
105B
340
105A
340
1059
340
1058
340
1057
340
1056
340
1055
340
1054
340
1053
340
1052
340
1051
340
1050
340
104F
340
104E
340
104D
340
104C
340
104B
340
104A
340
1049
340
1048
340
1047
340
1046
340
1045
340
1044
340
1043
340
1042
340
1041
340
1040
340
103F
340
103E
340
103D
340
103C
340
103B
340
103A
340
1039
340
1038
340
1037
340
1036
340
1035
340
1034
340
1033
340
1032
340
1031
340
1030
340
102F
340
102E
340
102D
340
102C
340
102B
340
102A
340
1029
340
1028
340
1027
340
1026
340
1025
340
1024
340
1023
340
1022
340
AA8
340
AA7
340
AA6
340
AA5
  0
GROUP
  5
141B
102
{ACAD_REACTORS
330
D
102
}
330
D
100
AcDbGroup
300

 70
     1
 71
     1
340
1193
340
1192
340
1191
340
1190
340
118F
340
118E
340
118D
340
118C
340
118B
340
118A
340
1189
340
1188
340
1187
340
1186
340
1185
340
1184
340
1183
340
1182
340
1181
340
1180
340
117F
340
117E
340
117D
340
117C
340
117B
340
117A
340
1179
340
1178
340
1177
340
1176
340
1175
340
1174
340
1173
340
1172
340
1171
340
1170
340
116F
340
116E
340
116D
340
116C
340
116B
340
116A
340
1169
340
1168
340
1167
340
1166
340
1165
340
1164
340
1163
340
1162
340
1161
340
1160
340
115F
340
115E
340
115D
340
115C
340
115B
340
115A
340
1159
340
1158
340
1157
340
1156
340
1155
340
1154
340
1153
340
1152
340
1151
340
1150
340
114F
340
114E
340
114D
340
114C
340
114B
340
114A
340
1149
340
1148
340
1147
340
1146
340
1145
340
1144
340
1143
340
1142
340
1141
340
1140
340
113F
340
113E
340
113D
340
113C
340
113B
340
113A
340
1139
340
1138
340
1137
340
1136
340
1135
340
1134
340
1133
340
1132
340
1131
340
1130
340
112F
340
112E
340
112D
340
112C
340
112B
340
112A
340
1129
340
1128
340
1127
340
1126
340
1125
340
1124
340
1123
340
1122
340
1121
340
1120
340
111F
340
111E
340
111D
340
111C
340
111B
340
111A
340
1119
340
1118
340
1117
340
1116
340
1115
340
1114
340
1113
340
1112
340
1111
340
1110
340
110F
340
110E
340
110D
340
110C
340
110B
340
110A
340
1109
340
1108
340
1107
340
1106
340
1105
340
1104
340
1103
340
1102
340
1101
340
1100
340
10FF
340
10FE
340
10FD
340
10FC
340
10FB
340
10FA
340
10F9
340
10F8
340
10F7
340
10F6
340
10F5
340
10F4
340
10F3
340
10F2
340
10F1
340
10F0
340
10EF
340
10EE
340
10ED
340
10EC
340
AAC
340
AAB
340
AAA
340
AA9
  0
GROUP
  5
141C
102
{ACAD_REACTORS
330
D
102
}
330
D
100
AcDbGroup
300

 70
     1
 71
     1
340
1390
340
138F
340
138E
340
138D
340
138C
340
138B
340
138A
340
1389
340
1388
340
1387
340
1386
340
1385
340
1384
340
1383
340
1382
340
1381
340
1380
340
137F
340
137E
340
137D
340
137C
340
137B
340
137A
340
1379
340
1378
340
1377
340
1376
340
1375
340
1374
340
1373
340
1372
340
1371
340
1370
340
136F
340
136E
340
136D
340
136C
340
136B
340
136A
340
1369
340
1368
340
1367
340
1366
340
1365
340
1364
340
1363
340
1362
340
1361
340
1360
340
135F
340
135E
340
135D
340
135C
340
135B
340
135A
340
1359
340
1358
340
1357
340
1356
340
1355
340
1354
340
1353
340
1352
340
1351
340
1350
340
134F
340
134E
340
134D
340
134C
340
134B
340
134A
340
1349
340
1348
340
1347
340
1346
340
1345
340
1344
340
1343
340
1342
340
1341
340
1340
340
133F
340
133E
340
133D
340
133C
340
133B
340
133A
340
1339
340
1338
340
1337
340
1336
340
1335
340
1334
340
1333
340
1332
340
1331
340
1330
340
132F
340
132E
340
132D
340
132C
340
132B
340
132A
340
1329
340
1328
340
1327
340
1326
340
1325
340
1324
340
1323
340
1322
340
1321
340
1320
340
131F
340
131E
340
131D
340
131C
340
131B
340
131A
340
1319
340
1318
340
1317
340
1316
340
1315
340
1314
340
1313
340
1312
340
1311
340
1310
340
130F
340
130E
340
130D
340
130C
340
130B
340
130A
340
1309
340
1308
340
1307
340
1306
340
AFF
340
A9C
340
A9B
  0
GROUP
  5
1412
102
{ACAD_REACTORS
330
D
102
}
330
D
100
AcDbGroup
300

 70
     1
 71
     1
340
1411
340
1410
340
140F
340
140E
340
140D
340
140C
340
140B
340
140A
340
1409
340
1408
340
1407
340
1406
340
1405
340
1404
340
1403
340
1402
340
1401
340
1400
340
13FF
340
13FE
340
13FD
340
13FC
340
13FB
340
13FA
340
13F9
340
13F8
340
13F7
340
13F6
340
13F5
340
13F4
340
13F3
340
13F2
340
13F1
340
13F0
340
13EF
340
13EE
340
13ED
340
13EC
340
13EB
340
13EA
340
13E9
340
13E8
340
13E7
340
13E6
340
13E5
340
13E4
340
13E3
340
13E2
340
13E1
340
13E0
340
13DF
340
13DE
340
13DD
340
13DC
340
13DB
340
13DA
340
13D9
340
13D8
340
13D7
340
13D6
340
13D5
340
13D4
340
13D3
340
13D2
340
13D1
340
13D0
340
13CF
340
13CE
340
13CD
340
13CC
340
13CB
340
13CA
340
13C9
340
13C8
340
13C7
340
13C6
340
13C5
340
13C4
340
13C3
340
13C2
340
13C1
340
13C0
340
13BF
340
13BE
340
13BD
340
13BC
340
13BB
340
13BA
340
13B9
340
13B8
340
13B7
340
13B6
340
13B5
340
13B4
340
13B3
340
13B2
340
13B1
340
13B0
340
13AF
340
13AE
340
13AD
340
13AC
340
13AB
340
13AA
340
13A9
340
13A8
340
13A7
340
13A6
340
13A5
340
13A4
340
13A3
340
13A2
340
13A1
340
13A0
340
139F
340
139E
340
139D
340
139C
340
139B
340
139A
340
1399
340
1398
340
1397
340
1396
340
1395
340
1394
340
1393
340
1392
340
1391
340
B00
340
A9A
340
A99
  0
LAYOUT
  5
1E
102
{ACAD_REACTORS
330
1A
102
}
330
1A
100
AcDbPlotSettings
  1

  2
none_device
  4

  6

 40
0.0
 41
0.0
 42
0.0
 43
0.0
 44
0.0
 45
0.0
 46
0.0
 47
0.0
 48
0.0
 49
0.0
140
0.0
141
0.0
142
1.0
143
1.0
 70
   688
 72
     1
 73
     0
 74
     5
  7

 75
    16
147
1.0
 76
     0
 77
     2
 78
   300
148
0.0
149
0.0
100
AcDbLayout
  1
Layout1
 70
     1
 71
     1
 10
0.0
 20
0.0
 11
420.0
 21
297.0
 12
0.0
 22
0.0
 32
0.0
 14
1.000000000000000E+20
 24
1.000000000000000E+20
 34
1.000000000000000E+20
 15
-1.000000000000000E+20
 25
-1.000000000000000E+20
 35
-1.000000000000000E+20
146
0.0
 13
0.0
 23
0.0
 33
0.0
 16
1.0
 26
0.0
 36
0.0
 17
0.0
 27
1.0
 37
0.0
 76
     0
330
1B
  0
LAYOUT
  5
22
102
{ACAD_REACTORS
330
1A
102
}
330
1A
100
AcDbPlotSettings
  1

  2
none_device
  4
Letter_(8.50_x_11.00_Inches)
  6

 40
6.349999999999997
 41
6.349999999999997
 42
6.350005079999997
 43
6.350005079999997
 44
215.9
 45
279.4
 46
0.0
 47
0.0
 48
0.0
 49
0.0
140
0.0
141
0.0
142
1.0
143
1.0
 70
  1712
 72
     1
 73
     0
 74
     0
  7

 75
     0
147
1.0
 76
     0
 77
     2
 78
   300
148
0.0
149
0.0
100
AcDbLayout
  1
Model
 70
     1
 71
     0
 10
-400.7850561141976
 20
-646.1311798095711
 11
998.1337757110603
 21
618.8742980957039
 12
0.0
 22
0.0
 32
0.0
 14
-400.7850561141976
 24
-646.1311798095711
 34
0.0
 15
998.1337757110603
 25
618.8742980957039
 35
0.0
146
0.0
 13
0.0
 23
0.0
 33
0.0
 16
1.0
 26
0.0
 36
0.0
 17
0.0
 27
1.0
 37
0.0
 76
     0
330
1F
331
29
  0
LAYOUT
  5
4CE
102
{ACAD_REACTORS
330
1A
102
}
330
1A
100
AcDbPlotSettings
  1

  2
青梅 FX DocuCentre-V C2275 T2
  4

  6

 40
0.0
 41
0.0
 42
0.0
 43
0.0
 44
0.0
 45
0.0
 46
0.0
 47
0.0
 48
0.0
 49
0.0
140
0.0
141
0.0
142
1.0
143
1.0
 70
   688
 72
     0
 73
     0
 74
     5
  7
AutoCAD_PEN.ctb
 75
    16
147
1.0
 76
     0
 77
     2
 78
   300
148
0.0
149
0.0
100
AcDbLayout
  1
レイアウト1
 70
     1
 71
     2
 10
0.0
 20
0.0
 11
12.0
 21
9.0
 12
0.0
 22
0.0
 32
0.0
 14
0.0
 24
0.0
 34
0.0
 15
0.0
 25
0.0
 35
0.0
146
0.0
 13
0.0
 23
0.0
 33
0.0
 16
1.0
 26
0.0
 36
0.0
 17
0.0
 27
1.0
 37
0.0
 76
     0
330
23
  0
MATERIAL
  5
45
102
{ACAD_XDICTIONARY
360
4C0
102
}
102
{ACAD_REACTORS
330
43
102
}
330
43
100
AcDbMaterial
  1
ByBlock
  0
MATERIAL
  5
44
102
{ACAD_XDICTIONARY
360
4BE
102
}
102
{ACAD_REACTORS
330
43
102
}
330
43
100
AcDbMaterial
  1
ByLayer
  0
MATERIAL
  5
46
102
{ACAD_XDICTIONARY
360
4C2
102
}
102
{ACAD_REACTORS
330
43
102
}
330
43
100
AcDbMaterial
  1
Global
  0
MLEADERSTYLE
  5
5C
102
{ACAD_REACTORS
330
5B
102
}
330
5B
100
AcDbMLeaderStyle
179
     2
170
     2
171
     1
172
     0
 90
        2
 40
0.0
 41
0.0
173
     1
 91
-1056964608
340
14
 92
       -2
290
     1
 42
2.0
291
     1
 43
8.0
  3
Standard
 44
4.0
300

342
11
174
     1
178
     6
175
     1
176
     0
 93
-1056964608
 45
4.0
292
     0
297
     0
 46
4.0
 94
-1056964608
 47
1.0
 49
1.0
140
1.0
293
     1
141
0.0
294
     1
177
     0
142
1.0
295
     0
296
     0
143
3.75
271
     0
272
     9
273
     9
1001
ACAD_MLEADERVER
1070
     2
  0
MLINESTYLE
  5
18
102
{ACAD_REACTORS
330
17
102
}
330
17
100
AcDbMlineStyle
  2
STANDARD
 70
     0
  3

 62
   256
 51
90.0
 52
90.0
 71
     2
 49
0.5
 62
   256
  6
BYLAYER
 49
-0.5
 62
   256
  6
BYLAYER
  0
ACDBPLACEHOLDER
  5
F
102
{ACAD_REACTORS
330
E
102
}
330
E
  0
SCALE
  5
48
102
{ACAD_REACTORS
330
47
102
}
330
47
100
AcDbScale
 70
     0
300
1:1
140
1.0
141
1.0
290
     1
  0
SCALE
  5
49
102
{ACAD_REACTORS
330
47
102
}
330
47
100
AcDbScale
 70
     0
300
1:2
140
1.0
141
2.0
290
     0
  0
SCALE
  5
4A
102
{ACAD_REACTORS
330
47
102
}
330
47
100
AcDbScale
 70
     0
300
1:4
140
1.0
141
4.0
290
     0
  0
SCALE
  5
4B
102
{ACAD_REACTORS
330
47
102
}
330
47
100
AcDbScale
 70
     0
300
1:5
140
1.0
141
5.0
290
     0
  0
SCALE
  5
4C
102
{ACAD_REACTORS
330
47
102
}
330
47
100
AcDbScale
 70
     0
300
1:8
140
1.0
141
8.0
290
     0
  0
SCALE
  5
4D
102
{ACAD_REACTORS
330
47
102
}
330
47
100
AcDbScale
 70
     0
300
1:10
140
1.0
141
10.0
290
     0
  0
SCALE
  5
4E
102
{ACAD_REACTORS
330
47
102
}
330
47
100
AcDbScale
 70
     0
300
1:16
140
1.0
141
16.0
290
     0
  0
SCALE
  5
4F
102
{ACAD_REACTORS
330
47
102
}
330
47
100
AcDbScale
 70
     0
300
1:20
140
1.0
141
20.0
290
     0
  0
SCALE
  5
50
102
{ACAD_REACTORS
330
47
102
}
330
47
100
AcDbScale
 70
     0
300
1:30
140
1.0
141
30.0
290
     0
  0
SCALE
  5
51
102
{ACAD_REACTORS
330
47
102
}
330
47
100
AcDbScale
 70
     0
300
1:40
140
1.0
141
40.0
290
     0
  0
SCALE
  5
52
102
{ACAD_REACTORS
330
47
102
}
330
47
100
AcDbScale
 70
     0
300
1:50
140
1.0
141
50.0
290
     0
  0
SCALE
  5
53
102
{ACAD_REACTORS
330
47
102
}
330
47
100
AcDbScale
 70
     0
300
1:100
140
1.0
141
100.0
290
     0
  0
SCALE
  5
54
102
{ACAD_REACTORS
330
47
102
}
330
47
100
AcDbScale
 70
     0
300
2:1
140
2.0
141
1.0
290
     0
  0
SCALE
  5
55
102
{ACAD_REACTORS
330
47
102
}
330
47
100
AcDbScale
 70
     0
300
4:1
140
4.0
141
1.0
290
     0
  0
SCALE
  5
56
102
{ACAD_REACTORS
330
47
102
}
330
47
100
AcDbScale
 70
     0
300
8:1
140
8.0
141
1.0
290
     0
  0
SCALE
  5
57
102
{ACAD_REACTORS
330
47
102
}
330
47
100
AcDbScale
 70
     0
300
10:1
140
10.0
141
1.0
290
     0
  0
SCALE
  5
58
102
{ACAD_REACTORS
330
47
102
}
330
47
100
AcDbScale
 70
     0
300
100:1
140
100.0
141
1.0
290
     0
  0
ACDBSECTIONVIEWSTYLE
  5
4CB
102
{ACAD_XDICTIONARY
360
144F
102
}
102
{ACAD_REACTORS
330
4CA
102
}
330
4CA
100
AcDbModelDocViewStyle
 70
     0
  3
Metric50
290
     0
100
AcDbSectionViewStyle
 70
     0
 71
     0
 90
      102
 71
     1
340
11
 62
   256
 40
5.0
340
0
340
0
 62
   256
 40
5.0
300
I, O, Q, S, X, Z
 40
10.0
 90
        0
 40
2.5
 90
        0
 71
     2
340
16
 90
       25
 62
   256
340
16
 90
       50
 62
   256
 40
5.0
 40
2.5
 40
5.0
 71
     3
340
11
 62
   256
 40
5.0
 90
        0
 40
15.0
 90
        1
300
%<\AcVar ViewSectionStartId>%-%<\AcVar ViewSectionEndId>% (%<\AcVar ViewScale \f "%sn">%)
 71
     4
 62
   256
 62
   257
300
ANSI31
 40
1.0
 90
        0
290
     0
290
     0
 90
        6
 40
0.0
 40
1.570796326794896
 40
0.2617993877991494
 40
1.308996938995747
 40
-0.2617993877991494
 40
1.832595714594044
  0
TABLESTYLE
  5
5A
102
{ACAD_XDICTIONARY
360
ABC
102
}
102
{ACAD_REACTORS
330
59
102
}
330
59
100
AcDbTableStyle
280
     0
  3
Standard
 70
     0
 71
     0
 40
1.5
 41
1.5
280
     0
281
     0
  7
Standard
140
4.5
170
     2
 62
     0
 63
     7
283
     0
 90
        4
 91
        0
  1

274
    -2
284
     1
 64
     0
275
    -2
285
     1
 65
     0
276
    -2
286
     1
 66
     0
277
    -2
287
     1
 67
     0
278
    -2
288
     1
 68
     0
279
    -2
289
     1
 69
     0
  7
Standard
140
6.0
170
     5
 62
     0
 63
     7
283
     0
 90
        4
 91
        0
  1

274
    -2
284
     1
 64
     0
275
    -2
285
     1
 65
     0
276
    -2
286
     1
 66
     0
277
    -2
287
     1
 67
     0
278
    -2
288
     1
 68
     0
279
    -2
289
     1
 69
     0
  7
Standard
140
4.5
170
     5
 62
     0
 63
     7
283
     0
 90
        4
 91
        0
  1

274
    -2
284
     1
 64
     0
275
    -2
285
     1
 65
     0
276
    -2
286
     1
 66
     0
277
    -2
287
     1
 67
     0
278
    -2
288
     1
 68
     0
279
    -2
289
     1
 69
     0
  0
VISUALSTYLE
  5
2F
102
{ACAD_XDICTIONARY
360
1427
102
}
102
{ACAD_REACTORS
330
2A
102
}
330
2A
100
AcDbVisualStyle
  2

 70
     4
177
     2
291
     0
 71
     0
176
     1
 72
     2
176
     1
 73
     0
176
     1
 90
        0
176
     1
 40
0.6
176
     1
 41
30.0
176
     1
 63
     7
176
     1
 74
     1
176
     1
 91
        4
176
     1
 64
     7
176
     1
 65
   257
176
     1
 75
     1
176
     1
175
     1
176
     1
 42
1.0
176
     1
 92
        0
176
     1
 66
   257
176
     1
 43
1.0
176
     1
 76
     1
176
     1
 77
     6
176
     1
 78
     2
176
     1
 67
     7
176
     1
 79
     5
176
     1
170
     0
176
     1
171
     0
176
     1
290
     0
176
     1
 93
        1
176
     1
 44
0.0
176
     1
173
     0
176
     1
1001
ACAD
1000
AcDbSavedByObjectVersion
1070
     0
  0
VISUALSTYLE
  5
32
102
{ACAD_XDICTIONARY
360
142D
102
}
102
{ACAD_REACTORS
330
2A
102
}
330
2A
100
AcDbVisualStyle
  2

 70
     7
177
     2
291
     1
 71
     1
176
     1
 72
     0
176
     1
 73
     1
176
     1
 90
        0
176
     1
 40
0.6
176
     1
 41
30.0
176
     1
 63
     7
176
     1
 74
     0
176
     1
 91
        4
176
     1
 64
     7
176
     1
 65
   257
176
     1
 75
     1
176
     1
175
     1
176
     1
 42
1.0
176
     1
 92
        8
176
     1
 66
     7
176
     1
 43
1.0
176
     1
 76
     1
176
     1
 77
     6
176
     1
 78
     2
176
     1
 67
     7
176
     1
 79
     5
176
     1
170
     0
176
     1
171
     0
176
     1
290
     0
176
     1
 93
        1
176
     1
 44
0.0
176
     1
173
     0
176
     1
1001
ACAD
1000
AcDbSavedByObjectVersion
1070
     0
  0
VISUALSTYLE
  5
36
102
{ACAD_XDICTIONARY
360
1435
102
}
102
{ACAD_REACTORS
330
2A
102
}
330
2A
100
AcDbVisualStyle
  2

 70
    12
177
     2
291
     1
 71
     2
176
     1
 72
     2
176
     1
 73
     0
176
     1
 90
        0
176
     1
 40
0.6
176
     1
 41
30.0
176
     1
 63
     7
176
     1
 74
     1
176
     1
 91
        4
176
     1
 64
     7
176
     1
 65
   257
176
     1
 75
     1
176
     1
175
     1
176
     1
 42
1.0
176
     1
 92
        8
176
     1
 66
     7
176
     1
 43
1.0
176
     1
 76
     1
176
     1
 77
     6
176
     1
 78
     2
176
     1
 67
     7
176
     1
 79
     5
176
     1
170
     0
176
     1
171
     0
176
     1
290
     0
176
     1
 93
        1
176
     1
 44
50.0
176
     1
173
     0
176
     1
1001
ACAD
1000
AcDbSavedByObjectVersion
1070
     0
  0
VISUALSTYLE
  5
3A
102
{ACAD_XDICTIONARY
360
143D
102
}
102
{ACAD_REACTORS
330
2A
102
}
330
2A
100
AcDbVisualStyle
  2

 70
    16
177
     2
291
     1
 71
     2
176
     1
 72
     2
176
     1
 73
     3
176
     1
 90
        0
176
     1
 40
0.6
176
     1
 41
30.0
176
     1
 63
     8
176
     1
 74
     1
176
     1
 91
        4
176
     1
 64
     7
176
     1
 65
   257
176
     1
 75
     1
176
     1
175
     1
176
     1
 42
1.0
176
     1
 92
        8
176
     1
 66
     8
176
     1
 43
1.0
176
     1
 76
     1
176
     1
 77
     6
176
     1
 78
     2
176
     1
 67
     7
176
     1
 79
     5
176
     1
170
     0
176
     1
171
     0
176
     1
290
     0
176
     1
 93
        1
176
     1
 44
0.0
176
     1
173
     0
176
     1
1001
ACAD
1000
AcDbSavedByObjectVersion
1070
     0
  0
VISUALSTYLE
  5
34
102
{ACAD_XDICTIONARY
360
1431
102
}
102
{ACAD_REACTORS
330
2A
102
}
330
2A
100
AcDbVisualStyle
  2

 70
     9
177
     2
291
     0
 71
     3
176
     1
 72
     2
176
     1
 73
     0
176
     1
 90
        0
176
     1
 40
0.6
176
     1
 41
30.0
176
     1
 63
     7
176
     1
 74
     2
176
     1
 91
        2
176
     1
 64
     7
176
     1
 65
   257
176
     1
 75
     1
176
     1
175
     1
176
     1
 42
179.0
176
     1
 92
        8
176
     1
 66
     7
176
     1
 43
1.0
176
     1
 76
     1
176
     1
 77
     6
176
     1
 78
     2
176
     1
 67
     7
176
     1
 79
     3
176
     1
170
     0
176
     1
171
     0
176
     1
290
     0
176
     1
 93
        1
176
     1
 44
0.0
176
     1
173
     0
176
     1
1001
ACAD
1000
AcDbSavedByObjectVersion
1070
     0
  0
VISUALSTYLE
  5
35
102
{ACAD_XDICTIONARY
360
1433
102
}
102
{ACAD_REACTORS
330
2A
102
}
330
2A
100
AcDbVisualStyle
  2

 70
    11
177
     2
291
     1
 71
     2
176
     1
 72
     2
176
     1
 73
     0
176
     1
 90
        0
176
     1
 40
0.6
176
     1
 41
30.0
176
     1
 63
     7
176
     1
 74
     1
176
     1
 91
        4
176
     1
 64
     7
176
     1
 65
   257
176
     1
 75
     1
176
     1
175
     1
176
     1
 42
1.0
176
     1
 92
        8
176
     1
 66
     7
176
     1
 43
1.0
176
     1
 76
     1
176
     1
 77
     6
176
     1
 78
     2
176
     1
 67
     7
176
     1
 79
     5
176
     1
170
     0
176
     1
171
     0
176
     1
290
     0
176
     1
 93
        1
176
     1
 44
-50.0
176
     1
173
     0
176
     1
1001
ACAD
1000
AcDbSavedByObjectVersion
1070
     0
  0
VISUALSTYLE
  5
3D
102
{ACAD_XDICTIONARY
360
1443
102
}
102
{ACAD_REACTORS
330
2A
102
}
330
2A
100
AcDbVisualStyle
  2

 70
    22
177
     2
291
     1
 71
     2
176
     0
 72
     2
176
     0
 73
     0
176
     0
 90
        0
176
     0
 40
0.6
176
     0
 41
30.0
176
     0
 63
     7
176
     0
 74
     1
176
     0
 91
        4
176
     0
 64
     7
176
     0
 65
   257
176
     0
 75
     1
176
     0
175
     1
176
     0
 42
1.0
176
     0
 92
        8
176
     2
 66
     7
176
     0
 43
1.0
176
     0
 76
     1
176
     0
 77
     6
176
     0
 78
     2
176
     0
 67
     7
176
     0
 79
     5
176
     0
170
     0
176
     0
171
     0
176
     0
290
     0
176
     0
 93
        1
176
     0
 44
0.0
176
     0
173
     0
176
     0
1001
ACAD
1000
AcDbSavedByObjectVersion
1070
     0
  0
VISUALSTYLE
  5
39
102
{ACAD_XDICTIONARY
360
143B
102
}
102
{ACAD_REACTORS
330
2A
102
}
330
2A
100
AcDbVisualStyle
  2

 70
    15
177
     2
291
     1
 71
     2
176
     1
 72
     2
176
     1
 73
     0
176
     1
 90
        0
176
     1
 40
0.6
176
     1
 41
30.0
176
     1
 63
     7
176
     1
 74
     1
176
     1
 91
        4
176
     1
 64
     7
176
     1
 65
   257
176
     1
 75
     1
176
     1
175
     1
176
     1
 42
1.0
176
     1
 92
        8
176
     1
 66
     7
176
     1
 43
1.0
176
     1
 76
     1
176
     1
 77
     6
176
     1
 78
     2
176
     1
 67
     7
176
     1
 79
     5
176
     1
170
     0
176
     1
171
     0
176
     1
290
     0
176
     1
 93
        1
176
     1
 44
0.0
176
     1
173
     0
176
     1
1001
ACAD
1000
AcDbSavedByObjectVersion
1070
     0
  0
VISUALSTYLE
  5
2B
102
{ACAD_XDICTIONARY
360
141F
102
}
102
{ACAD_REACTORS
330
2A
102
}
330
2A
100
AcDbVisualStyle
  2

 70
     0
177
     2
291
     1
 71
     2
176
     1
 72
     1
176
     1
 73
     1
176
     1
 90
        2
176
     1
 40
0.6
176
     1
 41
30.0
176
     1
 63
     7
176
     1
 74
     0
176
     1
 91
        0
176
     1
 64
     7
176
     1
 65
   257
176
     1
 75
     1
176
     1
175
     1
176
     1
 42
1.0
176
     1
 92
        8
176
     1
 66
     7
176
     1
 43
1.0
176
     1
 76
     1
176
     1
 77
     6
176
     1
 78
     2
176
     1
 67
     7
176
     1
 79
     5
176
     1
170
     0
176
     1
171
     0
176
     1
290
     0
176
     1
 93
       13
176
     1
 44
0.0
176
     1
173
     0
176
     1
1001
ACAD
1000
AcDbSavedByObjectVersion
1070
     0
  0
VISUALSTYLE
  5
2C
102
{ACAD_XDICTIONARY
360
1421
102
}
102
{ACAD_REACTORS
330
2A
102
}
330
2A
100
AcDbVisualStyle
  2

 70
     1
177
     2
291
     1
 71
     2
176
     1
 72
     1
176
     1
 73
     1
176
     1
 90
        2
176
     1
 40
0.6
176
     1
 41
30.0
176
     1
 63
     7
176
     1
 74
     1
176
     1
 91
        0
176
     1
 64
     7
176
     1
 65
   257
176
     1
 75
     1
176
     1
175
     1
176
     1
 42
1.0
176
     1
 92
        0
176
     1
 66
   257
176
     1
 43
1.0
176
     1
 76
     1
176
     1
 77
     6
176
     1
 78
     2
176
     1
 67
     7
176
     1
 79
     5
176
     1
170
     0
176
     1
171
     0
176
     1
290
     0
176
     1
 93
       13
176
     1
 44
0.0
176
     1
173
     0
176
     1
1001
ACAD
1000
AcDbSavedByObjectVersion
1070
     0
  0
VISUALSTYLE
  5
2D
102
{ACAD_XDICTIONARY
360
1423
102
}
102
{ACAD_REACTORS
330
2A
102
}
330
2A
100
AcDbVisualStyle
  2

 70
     2
177
     2
291
     1
 71
     2
176
     1
 72
     2
176
     1
 73
     1
176
     1
 90
        2
176
     1
 40
0.6
176
     1
 41
30.0
176
     1
 63
     7
176
     1
 74
     0
176
     1
 91
        0
176
     1
 64
     7
176
     1
 65
   257
176
     1
 75
     1
176
     1
175
     1
176
     1
 42
1.0
176
     1
 92
        0
176
     1
 66
     7
176
     1
 43
1.0
176
     1
 76
     1
176
     1
 77
     6
176
     1
 78
     2
176
     1
 67
     7
176
     1
 79
     5
176
     1
170
     0
176
     1
171
     0
176
     1
290
     0
176
     1
 93
       13
176
     1
 44
0.0
176
     1
173
     0
176
     1
1001
ACAD
1000
AcDbSavedByObjectVersion
1070
     0
  0
VISUALSTYLE
  5
2E
102
{ACAD_XDICTIONARY
360
1425
102
}
102
{ACAD_REACTORS
330
2A
102
}
330
2A
100
AcDbVisualStyle
  2

 70
     3
177
     2
291
     1
 71
     2
176
     1
 72
     2
176
     1
 73
     1
176
     1
 90
        2
176
     1
 40
0.6
176
     1
 41
30.0
176
     1
 63
     7
176
     1
 74
     1
176
     1
 91
        0
176
     1
 64
     7
176
     1
 65
   257
176
     1
 75
     1
176
     1
175
     1
176
     1
 42
1.0
176
     1
 92
        0
176
     1
 66
   257
176
     1
 43
1.0
176
     1
 76
     1
176
     1
 77
     6
176
     1
 78
     2
176
     1
 67
     7
176
     1
 79
     5
176
     1
170
     0
176
     1
171
     0
176
     1
290
     0
176
     1
 93
       13
176
     1
 44
0.0
176
     1
173
     0
176
     1
1001
ACAD
1000
AcDbSavedByObjectVersion
1070
     0
  0
VISUALSTYLE
  5
31
102
{ACAD_XDICTIONARY
360
142B
102
}
102
{ACAD_REACTORS
330
2A
102
}
330
2A
100
AcDbVisualStyle
  2

 70
     6
177
     2
291
     0
 71
     1
176
     1
 72
     2
176
     1
 73
     2
176
     1
 90
        0
176
     1
 40
0.6
176
     1
 41
30.0
176
     1
 63
     7
176
     1
 74
     2
176
     1
 91
        2
176
     1
 64
     7
176
     1
 65
   257
176
     1
 75
     2
176
     1
175
     1
176
     1
 42
40.0
176
     1
 92
        0
176
     1
 66
   257
176
     1
 43
1.0
176
     1
 76
     1
176
     1
 77
     6
176
     1
 78
     2
176
     1
 67
     7
176
     1
 79
     3
176
     1
170
     0
176
     1
171
     0
176
     1
290
     0
176
     1
 93
        1
176
     1
 44
0.0
176
     1
173
     0
176
     1
1001
ACAD
1000
AcDbSavedByObjectVersion
1070
     0
  0
VISUALSTYLE
  5
3B
102
{ACAD_XDICTIONARY
360
143F
102
}
102
{ACAD_REACTORS
330
2A
102
}
330
2A
100
AcDbVisualStyle
  2

 70
    20
177
     2
291
     1
 71
     2
176
     0
 72
     2
176
     0
 73
     0
176
     0
 90
        0
176
     0
 40
0.6
176
     0
 41
30.0
176
     0
 63
     7
176
     0
 74
     1
176
     0
 91
        4
176
     0
 64
     7
176
     0
 65
   257
176
     0
 75
     1
176
     0
175
     1
176
     0
 42
1.0
176
     0
 92
       10
176
     2
 66
     7
176
     0
 43
1.0
176
     0
 76
     1
176
     0
 77
     6
176
     0
 78
     2
176
     0
 67
     7
176
     0
 79
     5
176
     0
170
     0
176
     0
171
     0
176
     0
290
     0
176
     0
 93
        1
176
     0
 44
0.0
176
     0
173
     0
176
     0
1001
ACAD
1000
AcDbSavedByObjectVersion
1070
     0
  0
VISUALSTYLE
  5
38
102
{ACAD_XDICTIONARY
360
1439
102
}
102
{ACAD_REACTORS
330
2A
102
}
330
2A
100
AcDbVisualStyle
  2

 70
    14
177
     2
291
     1
 71
     2
176
     1
 72
     2
176
     1
 73
     0
176
     1
 90
        0
176
     1
 40
0.6
176
     1
 41
30.0
176
     1
 63
     7
176
     1
 74
     1
176
     1
 91
        4
176
     1
 64
     7
176
     1
 65
   257
176
     1
 75
     7
176
     1
175
     7
176
     1
 42
1.0
176
     1
 92
        8
176
     1
 66
     7
176
     1
 43
1.0
176
     1
 76
     1
176
     1
 77
     6
176
     1
 78
     2
176
     1
 67
     7
176
     1
 79
     5
176
     1
170
     0
176
     1
171
     0
176
     1
290
     0
176
     1
 93
        1
176
     1
 44
0.0
176
     1
173
     0
176
     1
1001
ACAD
1000
AcDbSavedByObjectVersion
1070
     0
  0
VISUALSTYLE
  5
3C
102
{ACAD_XDICTIONARY
360
1441
102
}
102
{ACAD_REACTORS
330
2A
102
}
330
2A
100
AcDbVisualStyle
  2

 70
    21
177
     2
291
     1
 71
     2
176
     0
 72
     2
176
     0
 73
     0
176
     0
 90
        0
176
     0
 40
0.6
176
     0
 41
30.0
176
     0
 63
     7
176
     0
 74
     1
176
     0
 91
        4
176
     0
 64
     7
176
     0
 65
   257
176
     0
 75
     1
176
     0
175
     1
176
     0
 42
1.0
176
     0
 92
        9
176
     2
 66
     7
176
     0
 43
1.0
176
     0
 76
     1
176
     0
 77
     6
176
     0
 78
     2
176
     0
 67
     7
176
     0
 79
     5
176
     0
170
     0
176
     0
171
     0
176
     0
290
     0
176
     0
 93
        1
176
     0
 44
0.0
176
     0
173
     0
176
     0
1001
ACAD
1000
AcDbSavedByObjectVersion
1070
     0
  0
VISUALSTYLE
  5
33
102
{ACAD_XDICTIONARY
360
142F
102
}
102
{ACAD_REACTORS
330
2A
102
}
330
2A
100
AcDbVisualStyle
  2

 70
     8
177
     2
291
     0
 71
     2
176
     1
 72
     3
176
     1
 73
     0
176
     1
 90
        2
176
     1
 40
0.6
176
     1
 41
30.0
176
     1
 63
     7
176
     1
 74
     0
176
     1
 91
        0
176
     1
 64
     7
176
     1
 65
   257
176
     1
 75
     1
176
     1
175
     1
176
     1
 42
1.0
176
     1
 92
        8
176
     1
 66
   257
176
     1
 43
1.0
176
     1
 76
     1
176
     1
 77
     6
176
     1
 78
     2
176
     1
 67
     7
176
     1
 79
     3
176
     1
170
     0
176
     1
171
     0
176
     1
290
     0
176
     1
 93
       13
176
     1
 44
0.0
176
     1
173
     0
176
     1
1001
ACAD
1000
AcDbSavedByObjectVersion
1070
     0
  0
VISUALSTYLE
  5
42
102
{ACAD_XDICTIONARY
360
144D
102
}
102
{ACAD_REACTORS
330
2A
102
}
330
2A
100
AcDbVisualStyle
  2

 70
    27
177
     2
291
     0
 71
     2
176
     1
 72
     2
176
     1
 73
     1
176
     1
 90
        2
176
     1
 40
0.6
176
     1
 41
30.0
176
     1
 63
     7
176
     1
 74
     0
176
     1
 91
        4
176
     1
 64
     7
176
     1
 65
   257
176
     1
 75
     1
176
     1
175
     1
176
     1
 42
1.0
176
     1
 92
        8
176
     1
 66
   257
176
     1
 43
1.0
176
     1
 76
     1
176
     1
 77
     6
176
     1
 78
     2
176
     1
 67
     8
176
     1
 79
     3
176
     1
170
     0
176
     1
171
     0
176
     1
290
     0
176
     1
 93
        5
176
     1
 44
0.0
176
     1
173
     0
176
     1
1001
ACAD
1000
AcDbSavedByObjectVersion
1070
     0
  0
VISUALSTYLE
  5
41
102
{ACAD_XDICTIONARY
360
144B
102
}
102
{ACAD_REACTORS
330
2A
102
}
330
2A
100
AcDbVisualStyle
  2

 70
    26
177
     2
291
     0
 71
     2
176
     1
 72
     2
176
     1
 73
     1
176
     1
 90
        2
176
     1
 40
0.6
176
     1
 41
30.0
176
     1
 63
     7
176
     1
 74
     1
176
     1
 91
       10
176
     1
 64
     7
176
     1
 65
   257
176
     1
 75
     2
176
     1
175
     1
176
     1
 42
1.0
176
     1
 92
        8
176
     1
 66
   257
176
     1
 43
1.0
176
     1
 76
     1
176
     1
 77
     6
176
     1
 78
     2
176
     1
 67
     7
176
     1
 79
     3
176
     1
170
     0
176
     1
171
     0
176
     1
290
     0
176
     1
 93
        5
176
     1
 44
0.0
176
     1
173
     0
176
     1
1001
ACAD
1000
AcDbSavedByObjectVersion
1070
     0
  0
VISUALSTYLE
  5
3E
102
{ACAD_XDICTIONARY
360
1445
102
}
102
{ACAD_REACTORS
330
2A
102
}
330
2A
100
AcDbVisualStyle
  2

 70
    23
177
     2
291
     0
 71
     2
176
     1
 72
     2
176
     1
 73
     3
176
     1
 90
        0
176
     1
 40
0.6
176
     1
 41
30.0
176
     1
 63
     7
176
     1
 74
     2
176
     1
 91
        2
176
     1
 64
     7
176
     1
 65
     7
176
     1
 75
     1
176
     1
175
     1
176
     1
 42
40.0
176
     1
 92
        8
176
     1
 66
     7
176
     1
 43
1.0
176
     1
 76
     1
176
     1
 77
     6
176
     1
 78
     2
176
     1
 67
     7
176
     1
 79
     3
176
     1
170
     0
176
     1
171
     0
176
     1
290
     0
176
     1
 93
        1
176
     1
 44
0.0
176
     1
173
     0
176
     1
1001
ACAD
1000
AcDbSavedByObjectVersion
1070
     0
  0
VISUALSTYLE
  5
3F
102
{ACAD_XDICTIONARY
360
1447
102
}
102
{ACAD_REACTORS
330
2A
102
}
330
2A
100
AcDbVisualStyle
  2

 70
    24
177
     2
291
     0
 71
     1
176
     1
 72
     2
176
     1
 73
     2
176
     1
 90
        0
176
     1
 40
0.6
176
     1
 41
30.0
176
     1
 63
     7
176
     1
 74
     2
176
     1
 91
        2
176
     1
 64
     7
176
     1
 65
     7
176
     1
 75
     1
176
     1
175
     1
176
     1
 42
40.0
176
     1
 92
       11
176
     1
 66
     7
176
     1
 43
1.0
176
     1
 76
     1
176
     1
 77
     6
176
     1
 78
     2
176
     1
 67
     7
176
     1
 79
     6
176
     1
170
     0
176
     1
171
     0
176
     1
290
     0
176
     1
 93
        1
176
     1
 44
0.0
176
     1
173
     0
176
     1
1001
ACAD
1000
AcDbSavedByObjectVersion
1070
     0
  0
VISUALSTYLE
  5
37
102
{ACAD_XDICTIONARY
360
1437
102
}
102
{ACAD_REACTORS
330
2A
102
}
330
2A
100
AcDbVisualStyle
  2

 70
    13
177
     2
291
     1
 71
     2
176
     1
 72
     2
176
     1
 73
     0
176
     1
 90
        0
176
     1
 40
0.6
176
     1
 41
30.0
176
     1
 63
     7
176
     1
 74
     1
176
     1
 91
        4
176
     1
 64
     7
176
     1
 65
   257
176
     1
 75
     1
176
     1
175
     1
176
     1
 42
1.0
176
     1
 92
       12
176
     1
 66
     7
176
     1
 43
1.0
176
     1
 76
     1
176
     1
 77
     6
176
     1
 78
     2
176
     1
 67
     7
176
     1
 79
     5
176
     1
170
     0
176
     1
171
     0
176
     1
290
     0
176
     1
 93
        1
176
     1
 44
0.0
176
     1
173
     0
176
     1
1001
ACAD
1000
AcDbSavedByObjectVersion
1070
     0
  0
VISUALSTYLE
  5
30
102
{ACAD_XDICTIONARY
360
1429
102
}
102
{ACAD_REACTORS
330
2A
102
}
330
2A
100
AcDbVisualStyle
  2

 70
     5
177
     2
291
     0
 71
     0
176
     1
 72
     2
176
     1
 73
     0
176
     1
 90
        0
176
     1
 40
0.6
176
     1
 41
30.0
176
     1
 63
     7
176
     1
 74
     1
176
     1
 91
        4
176
     1
 64
     7
176
     1
 65
   257
176
     1
 75
     1
176
     1
175
     1
176
     1
 42
1.0
176
     1
 92
        0
176
     1
 66
   257
176
     1
 43
1.0
176
     1
 76
     1
176
     1
 77
     6
176
     1
 78
     2
176
     1
 67
     7
176
     1
 79
     3
176
     1
170
     0
176
     1
171
     0
176
     1
290
     0
176
     1
 93
        1
176
     1
 44
0.0
176
     1
173
     0
176
     1
1001
ACAD
1000
AcDbSavedByObjectVersion
1070
     0
  0
VISUALSTYLE
  5
40
102
{ACAD_XDICTIONARY
360
1449
102
}
102
{ACAD_REACTORS
330
2A
102
}
330
2A
100
AcDbVisualStyle
  2

 70
    25
177
     2
291
     0
 71
     2
176
     1
 72
     2
176
     1
 73
     1
176
     1
 90
        1
176
     1
 40
0.5
176
     1
 41
30.0
176
     1
 63
     7
176
     1
 74
     1
176
     1
 91
        0
176
     1
 64
     7
176
     1
 65
   257
176
     1
 75
     1
176
     1
175
     1
176
     1
 42
1.0
176
     1
 92
        8
176
     1
 66
     7
176
     1
 43
1.0
176
     1
 76
     1
176
     1
 77
     6
176
     1
 78
     2
176
     1
 67
     7
176
     1
 79
     3
176
     1
170
     0
176
     1
171
     0
176
     1
290
     0
176
     1
 93
       13
176
     1
 44
0.0
176
     1
173
     0
176
     1
1001
ACAD
1000
AcDbSavedByObjectVersion
1070
     0
  0
DICTIONARYVAR
  5
48C
102
{ACAD_REACTORS
330
47E
102
}
330
47E
100
DictionaryVariables
280
     0
  1
1:1
  0
DICTIONARYVAR
  5
485
102
{ACAD_REACTORS
330
47E
102
}
330
47E
100
DictionaryVariables
280
     0
  1
3.500000
  0
DICTIONARYVAR
  5
486
102
{ACAD_REACTORS
330
47E
102
}
330
47E
100
DictionaryVariables
280
     0
  1
acadiso.lin
  0
DICTIONARYVAR
  5
480
102
{ACAD_REACTORS
330
47E
102
}
330
47E
100
DictionaryVariables
280
     0
  1
STANDARD
  0
DICTIONARYVAR
  5
47F
102
{ACAD_REACTORS
330
47E
102
}
330
47E
100
DictionaryVariables
280
     0
  1
STANDARD
  0
DICTIONARYVAR
  5
AB7
102
{ACAD_REACTORS
330
47E
102
}
330
47E
100
DictionaryVariables
280
     0
  1
Metric50
  0
DICTIONARYVAR
  5
AB8
102
{ACAD_REACTORS
330
47E
102
}
330
47E
100
DictionaryVariables
280
     0
  1
Metric50
  0
DICTIONARYVAR
  5
487
102
{ACAD_REACTORS
330
47E
102
}
330
47E
100
DictionaryVariables
280
     0
  1
2
  0
DICTIONARYVAR
  5
488
102
{ACAD_REACTORS
330
47E
102
}
330
47E
100
DictionaryVariables
280
     0
  1
1
  0
DICTIONARYVAR
  5
B08
102
{ACAD_REACTORS
330
47E
102
}
330
47E
100
DictionaryVariables
280
     0
  1
0
  0
DICTIONARYVAR
  5
ABA
102
{ACAD_REACTORS
330
47E
102
}
330
47E
100
DictionaryVariables
280
     0
  1
1
  0
DICTIONARYVAR
  5
ABB
102
{ACAD_REACTORS
330
47E
102
}
330
47E
100
DictionaryVariables
280
     0
  1
15
  0
DICTIONARYVAR
  5
AB9
102
{ACAD_REACTORS
330
47E
102
}
330
47E
100
DictionaryVariables
280
     0
  1
0
  0
DICTIONARYVAR
  5
48D
102
{ACAD_REACTORS
330
47E
102
}
330
47E
100
DictionaryVariables
280
     0
  1
1
  0
DICTIONARYVAR
  5
B07
102
{ACAD_REACTORS
330
47E
102
}
330
47E
100
DictionaryVariables
280
     0
  1
127
  0
DICTIONARY
  5
1451
330
4CD
100
AcDbDictionary
280
     1
281
     1
  3
ACAD_XREC_ROUNDTRIP
360
1452
  0
DICTIONARY
  5
4C0
330
45
100
AcDbDictionary
280
     1
281
     1
  3
ACAD_XREC_ROUNDTRIP
360
4C1
  0
DICTIONARY
  5
4BE
330
44
100
AcDbDictionary
280
     1
281
     1
  3
ACAD_XREC_ROUNDTRIP
360
4BF
  0
DICTIONARY
  5
4C2
330
46
100
AcDbDictionary
280
     1
281
     1
  3
ACAD_XREC_ROUNDTRIP
360
4C3
  0
DICTIONARY
  5
144F
330
4CB
100
AcDbDictionary
280
     1
281
     1
  3
ACAD_XREC_ROUNDTRIP
360
1450
  0
DICTIONARY
  5
ABC
330
5A
100
AcDbDictionary
280
     1
281
     1
  3
ACAD_ROUNDTRIP_2008_TABLESTYLE_CELLSTYLEMAP
360
141D
  0
DICTIONARY
  5
1427
330
2F
100
AcDbDictionary
280
     1
281
     1
  3
ACAD_XREC_ROUNDTRIP
360
1428
  0
DICTIONARY
  5
142D
330
32
100
AcDbDictionary
280
     1
281
     1
  3
ACAD_XREC_ROUNDTRIP
360
142E
  0
DICTIONARY
  5
1435
330
36
100
AcDbDictionary
280
     1
281
     1
  3
ACAD_XREC_ROUNDTRIP
360
1436
  0
DICTIONARY
  5
143D
330
3A
100
AcDbDictionary
280
     1
281
     1
  3
ACAD_XREC_ROUNDTRIP
360
143E
  0
DICTIONARY
  5
1431
330
34
100
AcDbDictionary
280
     1
281
     1
  3
ACAD_XREC_ROUNDTRIP
360
1432
  0
DICTIONARY
  5
1433
330
35
100
AcDbDictionary
280
     1
281
     1
  3
ACAD_XREC_ROUNDTRIP
360
1434
  0
DICTIONARY
  5
1443
330
3D
100
AcDbDictionary
280
     1
281
     1
  3
ACAD_XREC_ROUNDTRIP
360
1444
  0
DICTIONARY
  5
143B
330
39
100
AcDbDictionary
280
     1
281
     1
  3
ACAD_XREC_ROUNDTRIP
360
143C
  0
DICTIONARY
  5
141F
330
2B
100
AcDbDictionary
280
     1
281
     1
  3
ACAD_XREC_ROUNDTRIP
360
1420
  0
DICTIONARY
  5
1421
330
2C
100
AcDbDictionary
280
     1
281
     1
  3
ACAD_XREC_ROUNDTRIP
360
1422
  0
DICTIONARY
  5
1423
330
2D
100
AcDbDictionary
280
     1
281
     1
  3
ACAD_XREC_ROUNDTRIP
360
1424
  0
DICTIONARY
  5
1425
330
2E
100
AcDbDictionary
280
     1
281
     1
  3
ACAD_XREC_ROUNDTRIP
360
1426
  0
DICTIONARY
  5
142B
330
31
100
AcDbDictionary
280
     1
281
     1
  3
ACAD_XREC_ROUNDTRIP
360
142C
  0
DICTIONARY
  5
143F
330
3B
100
AcDbDictionary
280
     1
281
     1
  3
ACAD_XREC_ROUNDTRIP
360
1440
  0
DICTIONARY
  5
1439
330
38
100
AcDbDictionary
280
     1
281
     1
  3
ACAD_XREC_ROUNDTRIP
360
143A
  0
DICTIONARY
  5
1441
330
3C
100
AcDbDictionary
280
     1
281
     1
  3
ACAD_XREC_ROUNDTRIP
360
1442
  0
DICTIONARY
  5
142F
330
33
100
AcDbDictionary
280
     1
281
     1
  3
ACAD_XREC_ROUNDTRIP
360
1430
  0
DICTIONARY
  5
144D
330
42
100
AcDbDictionary
280
     1
281
     1
  3
ACAD_XREC_ROUNDTRIP
360
144E
  0
DICTIONARY
  5
144B
330
41
100
AcDbDictionary
280
     1
281
     1
  3
ACAD_XREC_ROUNDTRIP
360
144C
  0
DICTIONARY
  5
1445
330
3E
100
AcDbDictionary
280
     1
281
     1
  3
ACAD_XREC_ROUNDTRIP
360
1446
  0
DICTIONARY
  5
1447
330
3F
100
AcDbDictionary
280
     1
281
     1
  3
ACAD_XREC_ROUNDTRIP
360
1448
  0
DICTIONARY
  5
1437
330
37
100
AcDbDictionary
280
     1
281
     1
  3
ACAD_XREC_ROUNDTRIP
360
1438
  0
DICTIONARY
  5
1429
330
30
100
AcDbDictionary
280
     1
281
     1
  3
ACAD_XREC_ROUNDTRIP
360
142A
  0
DICTIONARY
  5
1449
330
40
100
AcDbDictionary
280
     1
281
     1
  3
ACAD_XREC_ROUNDTRIP
360
144A
  0
XRECORD
  5
1452
102
{ACAD_REACTORS
330
1451
102
}
330
1451
100
AcDbXrecord
280
     1
102
DISPLAYNAME
  1
Metric50
102
FLAGS
 90
        0
  0
XRECORD
  5
4C1
102
{ACAD_REACTORS
330
4C0
102
}
330
4C0
100
AcDbXrecord
280
     1
102
MATERIAL
148
0.0
149
0.0
149
0.0
 93
        0
 94
      127
282
     0
 72
     1
 77
     1
171
     1
175
     1
179
     1
273
     0
  0
XRECORD
  5
4BF
102
{ACAD_REACTORS
330
4BE
102
}
330
4BE
100
AcDbXrecord
280
     1
102
MATERIAL
148
0.0
149
0.0
149
0.0
 93
        0
 94
      127
282
     0
 72
     1
 77
     1
171
     1
175
     1
179
     1
273
     0
  0
XRECORD
  5
4C3
102
{ACAD_REACTORS
330
4C2
102
}
330
4C2
100
AcDbXrecord
280
     1
102
MATERIAL
148
0.0
149
0.0
149
0.0
 93
        0
 94
      127
282
     0
 72
     1
 77
     1
171
     1
175
     1
179
     1
273
     0
  0
XRECORD
  5
1450
102
{ACAD_REACTORS
330
144F
102
}
330
144F
100
AcDbXrecord
280
     1
102
DISPLAYNAME
  1
Metric50
102
FLAGS
 90
        0
  0
CELLSTYLEMAP
  5
141D
102
{ACAD_REACTORS
330
ABC
102
}
330
ABC
100
AcDbCellStyleMap
 90
        3
300
CELLSTYLE
  1
TABLEFORMAT_BEGIN
 90
        5
170
     1
 91
        0
 92
    32768
 62
   257
 93
        1
300
CONTENTFORMAT
  1
CONTENTFORMAT_BEGIN
 90
        0
 91
        0
 92
        4
 93
        0
300

 40
0.0
140
1.0
 94
        5
 62
     0
340
11
144
6.0
309
CONTENTFORMAT_END
171
     1
301
MARGIN
  1
CELLMARGIN_BEGIN
 40
1.5
 40
1.5
 40
1.5
 40
1.5
 40
0.18
 40
0.18
309
CELLMARGIN_END
 94
        6
 95
        1
302
GRIDFORMAT
  1
GRIDFORMAT_BEGIN
 90
        0
 91
        1
 62
     0
 92
       -2
340
0
 93
        0
 40
0.045
309
GRIDFORMAT_END
 95
        2
302
GRIDFORMAT
  1
GRIDFORMAT_BEGIN
 90
        0
 91
        1
 62
     0
 92
       -2
340
0
 93
        0
 40
0.045
309
GRIDFORMAT_END
 95
        4
302
GRIDFORMAT
  1
GRIDFORMAT_BEGIN
 90
        0
 91
        1
 62
     0
 92
       -2
340
0
 93
        0
 40
0.045
309
GRIDFORMAT_END
 95
        8
302
GRIDFORMAT
  1
GRIDFORMAT_BEGIN
 90
        0
 91
        1
 62
     0
 92
       -2
340
0
 93
        0
 40
0.045
309
GRIDFORMAT_END
 95
       16
302
GRIDFORMAT
  1
GRIDFORMAT_BEGIN
 90
        0
 91
        1
 62
     0
 92
       -2
340
0
 93
        0
 40
0.045
309
GRIDFORMAT_END
 95
       32
302
GRIDFORMAT
  1
GRIDFORMAT_BEGIN
 90
        0
 91
        1
 62
     0
 92
       -2
340
0
 93
        0
 40
0.045
309
GRIDFORMAT_END
309
TABLEFORMAT_END
  1
CELLSTYLE_BEGIN
 90
        1
 91
        1
300
_TITLE
309
CELLSTYLE_END
300
CELLSTYLE
  1
TABLEFORMAT_BEGIN
 90
        5
170
     1
 91
        0
 92
        0
 62
   257
 93
        1
300
CONTENTFORMAT
  1
CONTENTFORMAT_BEGIN
 90
        0
 91
        0
 92
        4
 93
        0
300

 40
0.0
140
1.0
 94
        5
 62
     0
340
11
144
4.5
309
CONTENTFORMAT_END
171
     1
301
MARGIN
  1
CELLMARGIN_BEGIN
 40
1.5
 40
1.5
 40
1.5
 40
1.5
 40
0.18
 40
0.18
309
CELLMARGIN_END
 94
        6
 95
        1
302
GRIDFORMAT
  1
GRIDFORMAT_BEGIN
 90
        0
 91
        1
 62
     0
 92
       -2
340
0
 93
        0
 40
0.045
309
GRIDFORMAT_END
 95
        2
302
GRIDFORMAT
  1
GRIDFORMAT_BEGIN
 90
        0
 91
        1
 62
     0
 92
       -2
340
0
 93
        0
 40
0.045
309
GRIDFORMAT_END
 95
        4
302
GRIDFORMAT
  1
GRIDFORMAT_BEGIN
 90
        0
 91
        1
 62
     0
 92
       -2
340
0
 93
        0
 40
0.045
309
GRIDFORMAT_END
 95
        8
302
GRIDFORMAT
  1
GRIDFORMAT_BEGIN
 90
        0
 91
        1
 62
     0
 92
       -2
340
0
 93
        0
 40
0.045
309
GRIDFORMAT_END
 95
       16
302
GRIDFORMAT
  1
GRIDFORMAT_BEGIN
 90
        0
 91
        1
 62
     0
 92
       -2
340
0
 93
        0
 40
0.045
309
GRIDFORMAT_END
 95
       32
302
GRIDFORMAT
  1
GRIDFORMAT_BEGIN
 90
        0
 91
        1
 62
     0
 92
       -2
340
0
 93
        0
 40
0.045
309
GRIDFORMAT_END
309
TABLEFORMAT_END
  1
CELLSTYLE_BEGIN
 90
        2
 91
        1
300
_HEADER
309
CELLSTYLE_END
300
CELLSTYLE
  1
TABLEFORMAT_BEGIN
 90
        5
170
     1
 91
        0
 92
        0
 62
   257
 93
        1
300
CONTENTFORMAT
  1
CONTENTFORMAT_BEGIN
 90
        0
 91
        0
 92
        4
 93
        0
300

 40
0.0
140
1.0
 94
        2
 62
     0
340
11
144
4.5
309
CONTENTFORMAT_END
171
     1
301
MARGIN
  1
CELLMARGIN_BEGIN
 40
1.5
 40
1.5
 40
1.5
 40
1.5
 40
0.18
 40
0.18
309
CELLMARGIN_END
 94
        6
 95
        1
302
GRIDFORMAT
  1
GRIDFORMAT_BEGIN
 90
        0
 91
        1
 62
     0
 92
       -2
340
0
 93
        0
 40
0.045
309
GRIDFORMAT_END
 95
        2
302
GRIDFORMAT
  1
GRIDFORMAT_BEGIN
 90
        0
 91
        1
 62
     0
 92
       -2
340
0
 93
        0
 40
0.045
309
GRIDFORMAT_END
 95
        4
302
GRIDFORMAT
  1
GRIDFORMAT_BEGIN
 90
        0
 91
        1
 62
     0
 92
       -2
340
0
 93
        0
 40
0.045
309
GRIDFORMAT_END
 95
        8
302
GRIDFORMAT
  1
GRIDFORMAT_BEGIN
 90
        0
 91
        1
 62
     0
 92
       -2
340
0
 93
        0
 40
0.045
309
GRIDFORMAT_END
 95
       16
302
GRIDFORMAT
  1
GRIDFORMAT_BEGIN
 90
        0
 91
        1
 62
     0
 92
       -2
340
0
 93
        0
 40
0.045
309
GRIDFORMAT_END
 95
       32
302
GRIDFORMAT
  1
GRIDFORMAT_BEGIN
 90
        0
 91
        1
 62
     0
 92
       -2
340
0
 93
        0
 40
0.045
309
GRIDFORMAT_END
309
TABLEFORMAT_END
  1
CELLSTYLE_BEGIN
 90
        3
 91
        2
300
_DATA
309
CELLSTYLE_END
  0
XRECORD
  5
1428
102
{ACAD_REACTORS
330
1427
102
}
330
1427
100
AcDbXrecord
280
     1
102
RTVSPost2010Prop28
280
     1
102
RTVSPost2010PropOp28
 70
     1
102
RTVSPost2010Prop29
280
     1
102
RTVSPost2010PropOp29
 70
     1
102
RTVSPost2010Prop30
280
     0
102
RTVSPost2010PropOp30
 70
     1
102
RTVSPost2010Prop31
280
     0
102
RTVSPost2010PropOp31
 70
     1
102
RTVSPost2010Prop32
280
     0
102
RTVSPost2010PropOp32
 70
     1
102
RTVSPost2010Prop33
280
     0
102
RTVSPost2010PropOp33
 70
     1
102
RTVSPost2010Prop34
280
     0
102
RTVSPost2010PropOp34
 70
     1
102
RTVSPost2010Prop35
280
     0
102
RTVSPost2010PropOp35
 70
     1
102
RTVSPost2010Prop36
280
     0
102
RTVSPost2010PropOp36
 70
     1
102
RTVSPost2010Prop37
 90
       50
102
RTVSPost2010PropOp37
 70
     1
102
RTVSPost2010Prop38
140
0.0
102
RTVSPost2010PropOp38
 70
     1
102
RTVSPost2010Prop39
140
1.0
102
RTVSPost2010PropOp39
 70
     1
102
RTVSPost2010Prop40
 90
        0
102
RTVSPost2010PropOp40
 70
     1
102
RTVSPost2010Prop41ColorIndex
 90
       18
102
RTVSPost2010Prop41ColorRGB
 90
        0
102
RTVSPost2010PropOp41
 70
     1
102
RTVSPost2010Prop42
 90
       50
102
RTVSPost2010PropOp42
 70
     1
102
RTVSPost2010Prop43
 90
        3
102
RTVSPost2010PropOp43
 70
     1
102
RTVSPost2010Prop44ColorIndex
 90
        5
102
RTVSPost2010Prop44ColorRGB
 90
      255
102
RTVSPost2010PropOp44
 70
     1
102
RTVSPost2010Prop45
280
     0
102
RTVSPost2010PropOp45
 70
     1
102
RTVSPost2010Prop46
 90
       50
102
RTVSPost2010PropOp46
 70
     1
102
RTVSPost2010Prop47
 90
       50
102
RTVSPost2010PropOp47
 70
     1
102
RTVSPost2010Prop48
 90
       50
102
RTVSPost2010PropOp48
 70
     1
102
RTVSPost2010Prop49
280
     0
102
RTVSPost2010PropOp49
 70
     1
102
RTVSPost2010Prop50
 90
       50
102
RTVSPost2010PropOp50
 70
     1
102
RTVSPost2010Prop51ColorIndex
 90
      256
102
RTVSPost2010Prop51ColorRGB
 90
-16777216
102
RTVSPost2010PropOp51
 70
     0
102
RTVSPost2010Prop52
140
1.0
102
RTVSPost2010PropOp52
 70
     0
102
RTVSPost2010Prop53
 90
        2
102
RTVSPost2010PropOp53
 70
     1
102
RTVSPost2010Prop54
  1
strokes_ogs.tif
102
RTVSPost2010PropOp54
 70
     1
102
RTVSPost2010Prop55
280
     0
102
RTVSPost2010PropOp55
 70
     1
102
RTVSPost2010Prop56
140
1.0
102
RTVSPost2010PropOp56
 70
     1
102
RTVSPost2010Prop57
140
1.0
102
RTVSPost2010PropOp57
 70
     1
  0
XRECORD
  5
142E
102
{ACAD_REACTORS
330
142D
102
}
330
142D
100
AcDbXrecord
280
     1
102
RTVSPost2010Prop28
280
     0
102
RTVSPost2010PropOp28
 70
     1
102
RTVSPost2010Prop29
280
     1
102
RTVSPost2010PropOp29
 70
     1
102
RTVSPost2010Prop30
280
     1
102
RTVSPost2010PropOp30
 70
     1
102
RTVSPost2010Prop31
280
     0
102
RTVSPost2010PropOp31
 70
     1
102
RTVSPost2010Prop32
280
     0
102
RTVSPost2010PropOp32
 70
     1
102
RTVSPost2010Prop33
280
     0
102
RTVSPost2010PropOp33
 70
     1
102
RTVSPost2010Prop34
280
     0
102
RTVSPost2010PropOp34
 70
     1
102
RTVSPost2010Prop35
280
     0
102
RTVSPost2010PropOp35
 70
     1
102
RTVSPost2010Prop36
280
     0
102
RTVSPost2010PropOp36
 70
     1
102
RTVSPost2010Prop37
 90
       50
102
RTVSPost2010PropOp37
 70
     1
102
RTVSPost2010Prop38
140
0.0
102
RTVSPost2010PropOp38
 70
     1
102
RTVSPost2010Prop39
140
1.0
102
RTVSPost2010PropOp39
 70
     1
102
RTVSPost2010Prop40
 90
        0
102
RTVSPost2010PropOp40
 70
     1
102
RTVSPost2010Prop41ColorIndex
 90
       18
102
RTVSPost2010Prop41ColorRGB
 90
        0
102
RTVSPost2010PropOp41
 70
     1
102
RTVSPost2010Prop42
 90
       50
102
RTVSPost2010PropOp42
 70
     1
102
RTVSPost2010Prop43
 90
        3
102
RTVSPost2010PropOp43
 70
     1
102
RTVSPost2010Prop44ColorIndex
 90
        5
102
RTVSPost2010Prop44ColorRGB
 90
      255
102
RTVSPost2010PropOp44
 70
     1
102
RTVSPost2010Prop45
280
     0
102
RTVSPost2010PropOp45
 70
     1
102
RTVSPost2010Prop46
 90
       50
102
RTVSPost2010PropOp46
 70
     1
102
RTVSPost2010Prop47
 90
       50
102
RTVSPost2010PropOp47
 70
     1
102
RTVSPost2010Prop48
 90
       50
102
RTVSPost2010PropOp48
 70
     1
102
RTVSPost2010Prop49
280
     0
102
RTVSPost2010PropOp49
 70
     1
102
RTVSPost2010Prop50
 90
       50
102
RTVSPost2010PropOp50
 70
     1
102
RTVSPost2010Prop51ColorIndex
 90
      256
102
RTVSPost2010Prop51ColorRGB
 90
-16777216
102
RTVSPost2010PropOp51
 70
     0
102
RTVSPost2010Prop52
140
1.0
102
RTVSPost2010PropOp52
 70
     0
102
RTVSPost2010Prop53
 90
        2
102
RTVSPost2010PropOp53
 70
     1
102
RTVSPost2010Prop54
  1
strokes_ogs.tif
102
RTVSPost2010PropOp54
 70
     1
102
RTVSPost2010Prop55
280
     0
102
RTVSPost2010PropOp55
 70
     1
102
RTVSPost2010Prop56
140
1.0
102
RTVSPost2010PropOp56
 70
     1
102
RTVSPost2010Prop57
140
1.0
102
RTVSPost2010PropOp57
 70
     1
  0
XRECORD
  5
1436
102
{ACAD_REACTORS
330
1435
102
}
330
1435
100
AcDbXrecord
280
     1
102
RTVSPost2010Prop28
280
     0
102
RTVSPost2010PropOp28
 70
     1
102
RTVSPost2010Prop29
280
     1
102
RTVSPost2010PropOp29
 70
     1
102
RTVSPost2010Prop30
280
     1
102
RTVSPost2010PropOp30
 70
     1
102
RTVSPost2010Prop31
280
     0
102
RTVSPost2010PropOp31
 70
     1
102
RTVSPost2010Prop32
280
     0
102
RTVSPost2010PropOp32
 70
     1
102
RTVSPost2010Prop33
280
     0
102
RTVSPost2010PropOp33
 70
     1
102
RTVSPost2010Prop34
280
     0
102
RTVSPost2010PropOp34
 70
     1
102
RTVSPost2010Prop35
280
     0
102
RTVSPost2010PropOp35
 70
     1
102
RTVSPost2010Prop36
280
     0
102
RTVSPost2010PropOp36
 70
     1
102
RTVSPost2010Prop37
 90
       50
102
RTVSPost2010PropOp37
 70
     1
102
RTVSPost2010Prop38
140
0.0
102
RTVSPost2010PropOp38
 70
     1
102
RTVSPost2010Prop39
140
1.0
102
RTVSPost2010PropOp39
 70
     1
102
RTVSPost2010Prop40
 90
        0
102
RTVSPost2010PropOp40
 70
     1
102
RTVSPost2010Prop41ColorIndex
 90
       18
102
RTVSPost2010Prop41ColorRGB
 90
        0
102
RTVSPost2010PropOp41
 70
     1
102
RTVSPost2010Prop42
 90
       50
102
RTVSPost2010PropOp42
 70
     1
102
RTVSPost2010Prop43
 90
        3
102
RTVSPost2010PropOp43
 70
     1
102
RTVSPost2010Prop44ColorIndex
 90
        5
102
RTVSPost2010Prop44ColorRGB
 90
      255
102
RTVSPost2010PropOp44
 70
     1
102
RTVSPost2010Prop45
280
     0
102
RTVSPost2010PropOp45
 70
     1
102
RTVSPost2010Prop46
 90
       50
102
RTVSPost2010PropOp46
 70
     1
102
RTVSPost2010Prop47
 90
       50
102
RTVSPost2010PropOp47
 70
     1
102
RTVSPost2010Prop48
 90
       50
102
RTVSPost2010PropOp48
 70
     1
102
RTVSPost2010Prop49
280
     0
102
RTVSPost2010PropOp49
 70
     1
102
RTVSPost2010Prop50
 90
       50
102
RTVSPost2010PropOp50
 70
     1
102
RTVSPost2010Prop51ColorIndex
 90
      256
102
RTVSPost2010Prop51ColorRGB
 90
-16777216
102
RTVSPost2010PropOp51
 70
     0
102
RTVSPost2010Prop52
140
1.0
102
RTVSPost2010PropOp52
 70
     0
102
RTVSPost2010Prop53
 90
        2
102
RTVSPost2010PropOp53
 70
     1
102
RTVSPost2010Prop54
  1
strokes_ogs.tif
102
RTVSPost2010PropOp54
 70
     1
102
RTVSPost2010Prop55
280
     0
102
RTVSPost2010PropOp55
 70
     1
102
RTVSPost2010Prop56
140
1.0
102
RTVSPost2010PropOp56
 70
     1
102
RTVSPost2010Prop57
140
1.0
102
RTVSPost2010PropOp57
 70
     1
  0
XRECORD
  5
143E
102
{ACAD_REACTORS
330
143D
102
}
330
143D
100
AcDbXrecord
280
     1
102
RTVSPost2010Prop28
280
     0
102
RTVSPost2010PropOp28
 70
     1
102
RTVSPost2010Prop29
280
     1
102
RTVSPost2010PropOp29
 70
     1
102
RTVSPost2010Prop30
280
     1
102
RTVSPost2010PropOp30
 70
     1
102
RTVSPost2010Prop31
280
     0
102
RTVSPost2010PropOp31
 70
     1
102
RTVSPost2010Prop32
280
     0
102
RTVSPost2010PropOp32
 70
     1
102
RTVSPost2010Prop33
280
     0
102
RTVSPost2010PropOp33
 70
     1
102
RTVSPost2010Prop34
280
     0
102
RTVSPost2010PropOp34
 70
     1
102
RTVSPost2010Prop35
280
     0
102
RTVSPost2010PropOp35
 70
     1
102
RTVSPost2010Prop36
280
     0
102
RTVSPost2010PropOp36
 70
     1
102
RTVSPost2010Prop37
 90
       50
102
RTVSPost2010PropOp37
 70
     1
102
RTVSPost2010Prop38
140
0.0
102
RTVSPost2010PropOp38
 70
     1
102
RTVSPost2010Prop39
140
1.0
102
RTVSPost2010PropOp39
 70
     1
102
RTVSPost2010Prop40
 90
        0
102
RTVSPost2010PropOp40
 70
     1
102
RTVSPost2010Prop41ColorIndex
 90
       18
102
RTVSPost2010Prop41ColorRGB
 90
        0
102
RTVSPost2010PropOp41
 70
     1
102
RTVSPost2010Prop42
 90
       50
102
RTVSPost2010PropOp42
 70
     1
102
RTVSPost2010Prop43
 90
        3
102
RTVSPost2010PropOp43
 70
     1
102
RTVSPost2010Prop44ColorIndex
 90
        5
102
RTVSPost2010Prop44ColorRGB
 90
      255
102
RTVSPost2010PropOp44
 70
     1
102
RTVSPost2010Prop45
280
     0
102
RTVSPost2010PropOp45
 70
     1
102
RTVSPost2010Prop46
 90
       50
102
RTVSPost2010PropOp46
 70
     1
102
RTVSPost2010Prop47
 90
       50
102
RTVSPost2010PropOp47
 70
     1
102
RTVSPost2010Prop48
 90
       50
102
RTVSPost2010PropOp48
 70
     1
102
RTVSPost2010Prop49
280
     0
102
RTVSPost2010PropOp49
 70
     1
102
RTVSPost2010Prop50
 90
       50
102
RTVSPost2010PropOp50
 70
     1
102
RTVSPost2010Prop51ColorIndex
 90
      256
102
RTVSPost2010Prop51ColorRGB
 90
-16777216
102
RTVSPost2010PropOp51
 70
     0
102
RTVSPost2010Prop52
140
1.0
102
RTVSPost2010PropOp52
 70
     0
102
RTVSPost2010Prop53
 90
        2
102
RTVSPost2010PropOp53
 70
     1
102
RTVSPost2010Prop54
  1
strokes_ogs.tif
102
RTVSPost2010PropOp54
 70
     1
102
RTVSPost2010Prop55
280
     0
102
RTVSPost2010PropOp55
 70
     1
102
RTVSPost2010Prop56
140
1.0
102
RTVSPost2010PropOp56
 70
     1
102
RTVSPost2010Prop57
140
1.0
102
RTVSPost2010PropOp57
 70
     1
  0
XRECORD
  5
1432
102
{ACAD_REACTORS
330
1431
102
}
330
1431
100
AcDbXrecord
280
     1
102
RTVSPost2010Prop28
280
     0
102
RTVSPost2010PropOp28
 70
     1
102
RTVSPost2010Prop29
280
     1
102
RTVSPost2010PropOp29
 70
     1
102
RTVSPost2010Prop30
280
     1
102
RTVSPost2010PropOp30
 70
     1
102
RTVSPost2010Prop31
280
     0
102
RTVSPost2010PropOp31
 70
     1
102
RTVSPost2010Prop32
280
     0
102
RTVSPost2010PropOp32
 70
     1
102
RTVSPost2010Prop33
280
     0
102
RTVSPost2010PropOp33
 70
     1
102
RTVSPost2010Prop34
280
     0
102
RTVSPost2010PropOp34
 70
     1
102
RTVSPost2010Prop35
280
     0
102
RTVSPost2010PropOp35
 70
     1
102
RTVSPost2010Prop36
280
     0
102
RTVSPost2010PropOp36
 70
     1
102
RTVSPost2010Prop37
 90
       50
102
RTVSPost2010PropOp37
 70
     1
102
RTVSPost2010Prop38
140
0.0
102
RTVSPost2010PropOp38
 70
     1
102
RTVSPost2010Prop39
140
1.0
102
RTVSPost2010PropOp39
 70
     1
102
RTVSPost2010Prop40
 90
        0
102
RTVSPost2010PropOp40
 70
     1
102
RTVSPost2010Prop41ColorIndex
 90
       18
102
RTVSPost2010Prop41ColorRGB
 90
        0
102
RTVSPost2010PropOp41
 70
     1
102
RTVSPost2010Prop42
 90
       50
102
RTVSPost2010PropOp42
 70
     1
102
RTVSPost2010Prop43
 90
        3
102
RTVSPost2010PropOp43
 70
     1
102
RTVSPost2010Prop44ColorIndex
 90
        5
102
RTVSPost2010Prop44ColorRGB
 90
      255
102
RTVSPost2010PropOp44
 70
     1
102
RTVSPost2010Prop45
280
     0
102
RTVSPost2010PropOp45
 70
     1
102
RTVSPost2010Prop46
 90
       50
102
RTVSPost2010PropOp46
 70
     1
102
RTVSPost2010Prop47
 90
       50
102
RTVSPost2010PropOp47
 70
     1
102
RTVSPost2010Prop48
 90
       50
102
RTVSPost2010PropOp48
 70
     1
102
RTVSPost2010Prop49
280
     0
102
RTVSPost2010PropOp49
 70
     1
102
RTVSPost2010Prop50
 90
       50
102
RTVSPost2010PropOp50
 70
     1
102
RTVSPost2010Prop51ColorIndex
 90
      256
102
RTVSPost2010Prop51ColorRGB
 90
-16777216
102
RTVSPost2010PropOp51
 70
     0
102
RTVSPost2010Prop52
140
1.0
102
RTVSPost2010PropOp52
 70
     0
102
RTVSPost2010Prop53
 90
        2
102
RTVSPost2010PropOp53
 70
     1
102
RTVSPost2010Prop54
  1
strokes_ogs.tif
102
RTVSPost2010PropOp54
 70
     1
102
RTVSPost2010Prop55
280
     0
102
RTVSPost2010PropOp55
 70
     1
102
RTVSPost2010Prop56
140
1.0
102
RTVSPost2010PropOp56
 70
     1
102
RTVSPost2010Prop57
140
1.0
102
RTVSPost2010PropOp57
 70
     1
  0
XRECORD
  5
1434
102
{ACAD_REACTORS
330
1433
102
}
330
1433
100
AcDbXrecord
280
     1
102
RTVSPost2010Prop28
280
     0
102
RTVSPost2010PropOp28
 70
     1
102
RTVSPost2010Prop29
280
     1
102
RTVSPost2010PropOp29
 70
     1
102
RTVSPost2010Prop30
280
     1
102
RTVSPost2010PropOp30
 70
     1
102
RTVSPost2010Prop31
280
     0
102
RTVSPost2010PropOp31
 70
     1
102
RTVSPost2010Prop32
280
     0
102
RTVSPost2010PropOp32
 70
     1
102
RTVSPost2010Prop33
280
     0
102
RTVSPost2010PropOp33
 70
     1
102
RTVSPost2010Prop34
280
     0
102
RTVSPost2010PropOp34
 70
     1
102
RTVSPost2010Prop35
280
     0
102
RTVSPost2010PropOp35
 70
     1
102
RTVSPost2010Prop36
280
     0
102
RTVSPost2010PropOp36
 70
     1
102
RTVSPost2010Prop37
 90
       50
102
RTVSPost2010PropOp37
 70
     1
102
RTVSPost2010Prop38
140
0.0
102
RTVSPost2010PropOp38
 70
     1
102
RTVSPost2010Prop39
140
1.0
102
RTVSPost2010PropOp39
 70
     1
102
RTVSPost2010Prop40
 90
        0
102
RTVSPost2010PropOp40
 70
     1
102
RTVSPost2010Prop41ColorIndex
 90
       18
102
RTVSPost2010Prop41ColorRGB
 90
        0
102
RTVSPost2010PropOp41
 70
     1
102
RTVSPost2010Prop42
 90
       50
102
RTVSPost2010PropOp42
 70
     1
102
RTVSPost2010Prop43
 90
        3
102
RTVSPost2010PropOp43
 70
     1
102
RTVSPost2010Prop44ColorIndex
 90
        5
102
RTVSPost2010Prop44ColorRGB
 90
      255
102
RTVSPost2010PropOp44
 70
     1
102
RTVSPost2010Prop45
280
     0
102
RTVSPost2010PropOp45
 70
     1
102
RTVSPost2010Prop46
 90
       50
102
RTVSPost2010PropOp46
 70
     1
102
RTVSPost2010Prop47
 90
       50
102
RTVSPost2010PropOp47
 70
     1
102
RTVSPost2010Prop48
 90
       50
102
RTVSPost2010PropOp48
 70
     1
102
RTVSPost2010Prop49
280
     0
102
RTVSPost2010PropOp49
 70
     1
102
RTVSPost2010Prop50
 90
       50
102
RTVSPost2010PropOp50
 70
     1
102
RTVSPost2010Prop51ColorIndex
 90
      256
102
RTVSPost2010Prop51ColorRGB
 90
-16777216
102
RTVSPost2010PropOp51
 70
     0
102
RTVSPost2010Prop52
140
1.0
102
RTVSPost2010PropOp52
 70
     0
102
RTVSPost2010Prop53
 90
        2
102
RTVSPost2010PropOp53
 70
     1
102
RTVSPost2010Prop54
  1
strokes_ogs.tif
102
RTVSPost2010PropOp54
 70
     1
102
RTVSPost2010Prop55
280
     0
102
RTVSPost2010PropOp55
 70
     1
102
RTVSPost2010Prop56
140
1.0
102
RTVSPost2010PropOp56
 70
     1
102
RTVSPost2010Prop57
140
1.0
102
RTVSPost2010PropOp57
 70
     1
  0
XRECORD
  5
1444
102
{ACAD_REACTORS
330
1443
102
}
330
1443
100
AcDbXrecord
280
     1
102
RTVSPost2010Prop28
280
     0
102
RTVSPost2010PropOp28
 70
     0
102
RTVSPost2010Prop29
280
     1
102
RTVSPost2010PropOp29
 70
     0
102
RTVSPost2010Prop30
280
     1
102
RTVSPost2010PropOp30
 70
     0
102
RTVSPost2010Prop31
280
     0
102
RTVSPost2010PropOp31
 70
     0
102
RTVSPost2010Prop32
280
     0
102
RTVSPost2010PropOp32
 70
     0
102
RTVSPost2010Prop33
280
     0
102
RTVSPost2010PropOp33
 70
     0
102
RTVSPost2010Prop34
280
     0
102
RTVSPost2010PropOp34
 70
     0
102
RTVSPost2010Prop35
280
     0
102
RTVSPost2010PropOp35
 70
     0
102
RTVSPost2010Prop36
280
     0
102
RTVSPost2010PropOp36
 70
     0
102
RTVSPost2010Prop37
 90
       50
102
RTVSPost2010PropOp37
 70
     0
102
RTVSPost2010Prop38
140
0.0
102
RTVSPost2010PropOp38
 70
     0
102
RTVSPost2010Prop39
140
1.0
102
RTVSPost2010PropOp39
 70
     0
102
RTVSPost2010Prop40
 90
        0
102
RTVSPost2010PropOp40
 70
     0
102
RTVSPost2010Prop41ColorIndex
 90
       18
102
RTVSPost2010Prop41ColorRGB
 90
        0
102
RTVSPost2010PropOp41
 70
     0
102
RTVSPost2010Prop42
 90
       50
102
RTVSPost2010PropOp42
 70
     0
102
RTVSPost2010Prop43
 90
        3
102
RTVSPost2010PropOp43
 70
     0
102
RTVSPost2010Prop44ColorIndex
 90
        5
102
RTVSPost2010Prop44ColorRGB
 90
      255
102
RTVSPost2010PropOp44
 70
     0
102
RTVSPost2010Prop45
280
     0
102
RTVSPost2010PropOp45
 70
     0
102
RTVSPost2010Prop46
 90
       50
102
RTVSPost2010PropOp46
 70
     0
102
RTVSPost2010Prop47
 90
       50
102
RTVSPost2010PropOp47
 70
     0
102
RTVSPost2010Prop48
 90
       50
102
RTVSPost2010PropOp48
 70
     0
102
RTVSPost2010Prop49
280
     0
102
RTVSPost2010PropOp49
 70
     0
102
RTVSPost2010Prop50
 90
       50
102
RTVSPost2010PropOp50
 70
     0
102
RTVSPost2010Prop51ColorIndex
 90
      256
102
RTVSPost2010Prop51ColorRGB
 90
-16777216
102
RTVSPost2010PropOp51
 70
     0
102
RTVSPost2010Prop52
140
1.0
102
RTVSPost2010PropOp52
 70
     0
102
RTVSPost2010Prop53
 90
        2
102
RTVSPost2010PropOp53
 70
     0
102
RTVSPost2010Prop54
  1
strokes_ogs.tif
102
RTVSPost2010PropOp54
 70
     0
102
RTVSPost2010Prop55
280
     0
102
RTVSPost2010PropOp55
 70
     0
102
RTVSPost2010Prop56
140
1.0
102
RTVSPost2010PropOp56
 70
     0
102
RTVSPost2010Prop57
140
1.0
102
RTVSPost2010PropOp57
 70
     0
  0
XRECORD
  5
143C
102
{ACAD_REACTORS
330
143B
102
}
330
143B
100
AcDbXrecord
280
     1
102
RTVSPost2010Prop28
280
     0
102
RTVSPost2010PropOp28
 70
     1
102
RTVSPost2010Prop29
280
     1
102
RTVSPost2010PropOp29
 70
     1
102
RTVSPost2010Prop30
280
     1
102
RTVSPost2010PropOp30
 70
     1
102
RTVSPost2010Prop31
280
     0
102
RTVSPost2010PropOp31
 70
     1
102
RTVSPost2010Prop32
280
     0
102
RTVSPost2010PropOp32
 70
     1
102
RTVSPost2010Prop33
280
     0
102
RTVSPost2010PropOp33
 70
     1
102
RTVSPost2010Prop34
280
     0
102
RTVSPost2010PropOp34
 70
     1
102
RTVSPost2010Prop35
280
     0
102
RTVSPost2010PropOp35
 70
     1
102
RTVSPost2010Prop36
280
     0
102
RTVSPost2010PropOp36
 70
     1
102
RTVSPost2010Prop37
 90
       50
102
RTVSPost2010PropOp37
 70
     1
102
RTVSPost2010Prop38
140
0.0
102
RTVSPost2010PropOp38
 70
     1
102
RTVSPost2010Prop39
140
1.0
102
RTVSPost2010PropOp39
 70
     1
102
RTVSPost2010Prop40
 90
        0
102
RTVSPost2010PropOp40
 70
     1
102
RTVSPost2010Prop41ColorIndex
 90
       18
102
RTVSPost2010Prop41ColorRGB
 90
        0
102
RTVSPost2010PropOp41
 70
     1
102
RTVSPost2010Prop42
 90
       50
102
RTVSPost2010PropOp42
 70
     1
102
RTVSPost2010Prop43
 90
        3
102
RTVSPost2010PropOp43
 70
     1
102
RTVSPost2010Prop44ColorIndex
 90
        5
102
RTVSPost2010Prop44ColorRGB
 90
      255
102
RTVSPost2010PropOp44
 70
     1
102
RTVSPost2010Prop45
280
     0
102
RTVSPost2010PropOp45
 70
     1
102
RTVSPost2010Prop46
 90
       50
102
RTVSPost2010PropOp46
 70
     1
102
RTVSPost2010Prop47
 90
       50
102
RTVSPost2010PropOp47
 70
     1
102
RTVSPost2010Prop48
 90
       50
102
RTVSPost2010PropOp48
 70
     1
102
RTVSPost2010Prop49
280
     0
102
RTVSPost2010PropOp49
 70
     1
102
RTVSPost2010Prop50
 90
       50
102
RTVSPost2010PropOp50
 70
     1
102
RTVSPost2010Prop51ColorIndex
 90
      256
102
RTVSPost2010Prop51ColorRGB
 90
-16777216
102
RTVSPost2010PropOp51
 70
     0
102
RTVSPost2010Prop52
140
1.0
102
RTVSPost2010PropOp52
 70
     0
102
RTVSPost2010Prop53
 90
        2
102
RTVSPost2010PropOp53
 70
     1
102
RTVSPost2010Prop54
  1
strokes_ogs.tif
102
RTVSPost2010PropOp54
 70
     1
102
RTVSPost2010Prop55
280
     0
102
RTVSPost2010PropOp55
 70
     1
102
RTVSPost2010Prop56
140
1.0
102
RTVSPost2010PropOp56
 70
     1
102
RTVSPost2010Prop57
140
1.0
102
RTVSPost2010PropOp57
 70
     1
  0
XRECORD
  5
1420
102
{ACAD_REACTORS
330
141F
102
}
330
141F
100
AcDbXrecord
280
     1
102
RTVSPost2010Prop28
280
     0
102
RTVSPost2010PropOp28
 70
     1
102
RTVSPost2010Prop29
280
     1
102
RTVSPost2010PropOp29
 70
     1
102
RTVSPost2010Prop30
280
     1
102
RTVSPost2010PropOp30
 70
     1
102
RTVSPost2010Prop31
280
     0
102
RTVSPost2010PropOp31
 70
     1
102
RTVSPost2010Prop32
280
     0
102
RTVSPost2010PropOp32
 70
     1
102
RTVSPost2010Prop33
280
     0
102
RTVSPost2010PropOp33
 70
     1
102
RTVSPost2010Prop34
280
     0
102
RTVSPost2010PropOp34
 70
     1
102
RTVSPost2010Prop35
280
     0
102
RTVSPost2010PropOp35
 70
     1
102
RTVSPost2010Prop36
280
     0
102
RTVSPost2010PropOp36
 70
     1
102
RTVSPost2010Prop37
 90
       50
102
RTVSPost2010PropOp37
 70
     1
102
RTVSPost2010Prop38
140
0.0
102
RTVSPost2010PropOp38
 70
     1
102
RTVSPost2010Prop39
140
1.0
102
RTVSPost2010PropOp39
 70
     1
102
RTVSPost2010Prop40
 90
        0
102
RTVSPost2010PropOp40
 70
     1
102
RTVSPost2010Prop41ColorIndex
 90
       18
102
RTVSPost2010Prop41ColorRGB
 90
        0
102
RTVSPost2010PropOp41
 70
     1
102
RTVSPost2010Prop42
 90
       50
102
RTVSPost2010PropOp42
 70
     1
102
RTVSPost2010Prop43
 90
        3
102
RTVSPost2010PropOp43
 70
     1
102
RTVSPost2010Prop44ColorIndex
 90
        5
102
RTVSPost2010Prop44ColorRGB
 90
      255
102
RTVSPost2010PropOp44
 70
     1
102
RTVSPost2010Prop45
280
     0
102
RTVSPost2010PropOp45
 70
     1
102
RTVSPost2010Prop46
 90
       50
102
RTVSPost2010PropOp46
 70
     1
102
RTVSPost2010Prop47
 90
       50
102
RTVSPost2010PropOp47
 70
     1
102
RTVSPost2010Prop48
 90
       50
102
RTVSPost2010PropOp48
 70
     1
102
RTVSPost2010Prop49
280
     0
102
RTVSPost2010PropOp49
 70
     1
102
RTVSPost2010Prop50
 90
       50
102
RTVSPost2010PropOp50
 70
     1
102
RTVSPost2010Prop51ColorIndex
 90
      256
102
RTVSPost2010Prop51ColorRGB
 90
-16777216
102
RTVSPost2010PropOp51
 70
     0
102
RTVSPost2010Prop52
140
1.0
102
RTVSPost2010PropOp52
 70
     0
102
RTVSPost2010Prop53
 90
        2
102
RTVSPost2010PropOp53
 70
     1
102
RTVSPost2010Prop54
  1
strokes_ogs.tif
102
RTVSPost2010PropOp54
 70
     1
102
RTVSPost2010Prop55
280
     0
102
RTVSPost2010PropOp55
 70
     1
102
RTVSPost2010Prop56
140
1.0
102
RTVSPost2010PropOp56
 70
     1
102
RTVSPost2010Prop57
140
1.0
102
RTVSPost2010PropOp57
 70
     1
  0
XRECORD
  5
1422
102
{ACAD_REACTORS
330
1421
102
}
330
1421
100
AcDbXrecord
280
     1
102
RTVSPost2010Prop28
280
     0
102
RTVSPost2010PropOp28
 70
     1
102
RTVSPost2010Prop29
280
     1
102
RTVSPost2010PropOp29
 70
     1
102
RTVSPost2010Prop30
280
     1
102
RTVSPost2010PropOp30
 70
     1
102
RTVSPost2010Prop31
280
     0
102
RTVSPost2010PropOp31
 70
     1
102
RTVSPost2010Prop32
280
     0
102
RTVSPost2010PropOp32
 70
     1
102
RTVSPost2010Prop33
280
     0
102
RTVSPost2010PropOp33
 70
     1
102
RTVSPost2010Prop34
280
     0
102
RTVSPost2010PropOp34
 70
     1
102
RTVSPost2010Prop35
280
     0
102
RTVSPost2010PropOp35
 70
     1
102
RTVSPost2010Prop36
280
     0
102
RTVSPost2010PropOp36
 70
     1
102
RTVSPost2010Prop37
 90
       50
102
RTVSPost2010PropOp37
 70
     1
102
RTVSPost2010Prop38
140
0.0
102
RTVSPost2010PropOp38
 70
     1
102
RTVSPost2010Prop39
140
1.0
102
RTVSPost2010PropOp39
 70
     1
102
RTVSPost2010Prop40
 90
        0
102
RTVSPost2010PropOp40
 70
     1
102
RTVSPost2010Prop41ColorIndex
 90
       18
102
RTVSPost2010Prop41ColorRGB
 90
        0
102
RTVSPost2010PropOp41
 70
     1
102
RTVSPost2010Prop42
 90
       50
102
RTVSPost2010PropOp42
 70
     1
102
RTVSPost2010Prop43
 90
        3
102
RTVSPost2010PropOp43
 70
     1
102
RTVSPost2010Prop44ColorIndex
 90
        5
102
RTVSPost2010Prop44ColorRGB
 90
      255
102
RTVSPost2010PropOp44
 70
     1
102
RTVSPost2010Prop45
280
     0
102
RTVSPost2010PropOp45
 70
     1
102
RTVSPost2010Prop46
 90
       50
102
RTVSPost2010PropOp46
 70
     1
102
RTVSPost2010Prop47
 90
       50
102
RTVSPost2010PropOp47
 70
     1
102
RTVSPost2010Prop48
 90
       50
102
RTVSPost2010PropOp48
 70
     1
102
RTVSPost2010Prop49
280
     0
102
RTVSPost2010PropOp49
 70
     1
102
RTVSPost2010Prop50
 90
       50
102
RTVSPost2010PropOp50
 70
     1
102
RTVSPost2010Prop51ColorIndex
 90
      256
102
RTVSPost2010Prop51ColorRGB
 90
-16777216
102
RTVSPost2010PropOp51
 70
     0
102
RTVSPost2010Prop52
140
1.0
102
RTVSPost2010PropOp52
 70
     0
102
RTVSPost2010Prop53
 90
        2
102
RTVSPost2010PropOp53
 70
     1
102
RTVSPost2010Prop54
  1
strokes_ogs.tif
102
RTVSPost2010PropOp54
 70
     1
102
RTVSPost2010Prop55
280
     0
102
RTVSPost2010PropOp55
 70
     1
102
RTVSPost2010Prop56
140
1.0
102
RTVSPost2010PropOp56
 70
     1
102
RTVSPost2010Prop57
140
1.0
102
RTVSPost2010PropOp57
 70
     1
  0
XRECORD
  5
1424
102
{ACAD_REACTORS
330
1423
102
}
330
1423
100
AcDbXrecord
280
     1
102
RTVSPost2010Prop28
280
     0
102
RTVSPost2010PropOp28
 70
     1
102
RTVSPost2010Prop29
280
     1
102
RTVSPost2010PropOp29
 70
     1
102
RTVSPost2010Prop30
280
     1
102
RTVSPost2010PropOp30
 70
     1
102
RTVSPost2010Prop31
280
     0
102
RTVSPost2010PropOp31
 70
     1
102
RTVSPost2010Prop32
280
     0
102
RTVSPost2010PropOp32
 70
     1
102
RTVSPost2010Prop33
280
     0
102
RTVSPost2010PropOp33
 70
     1
102
RTVSPost2010Prop34
280
     0
102
RTVSPost2010PropOp34
 70
     1
102
RTVSPost2010Prop35
280
     0
102
RTVSPost2010PropOp35
 70
     1
102
RTVSPost2010Prop36
280
     0
102
RTVSPost2010PropOp36
 70
     1
102
RTVSPost2010Prop37
 90
       50
102
RTVSPost2010PropOp37
 70
     1
102
RTVSPost2010Prop38
140
0.0
102
RTVSPost2010PropOp38
 70
     1
102
RTVSPost2010Prop39
140
1.0
102
RTVSPost2010PropOp39
 70
     1
102
RTVSPost2010Prop40
 90
        0
102
RTVSPost2010PropOp40
 70
     1
102
RTVSPost2010Prop41ColorIndex
 90
       18
102
RTVSPost2010Prop41ColorRGB
 90
        0
102
RTVSPost2010PropOp41
 70
     1
102
RTVSPost2010Prop42
 90
       50
102
RTVSPost2010PropOp42
 70
     1
102
RTVSPost2010Prop43
 90
        3
102
RTVSPost2010PropOp43
 70
     1
102
RTVSPost2010Prop44ColorIndex
 90
        5
102
RTVSPost2010Prop44ColorRGB
 90
      255
102
RTVSPost2010PropOp44
 70
     1
102
RTVSPost2010Prop45
280
     0
102
RTVSPost2010PropOp45
 70
     1
102
RTVSPost2010Prop46
 90
       50
102
RTVSPost2010PropOp46
 70
     1
102
RTVSPost2010Prop47
 90
       50
102
RTVSPost2010PropOp47
 70
     1
102
RTVSPost2010Prop48
 90
       50
102
RTVSPost2010PropOp48
 70
     1
102
RTVSPost2010Prop49
280
     0
102
RTVSPost2010PropOp49
 70
     1
102
RTVSPost2010Prop50
 90
       50
102
RTVSPost2010PropOp50
 70
     1
102
RTVSPost2010Prop51ColorIndex
 90
      256
102
RTVSPost2010Prop51ColorRGB
 90
-16777216
102
RTVSPost2010PropOp51
 70
     0
102
RTVSPost2010Prop52
140
1.0
102
RTVSPost2010PropOp52
 70
     0
102
RTVSPost2010Prop53
 90
        2
102
RTVSPost2010PropOp53
 70
     1
102
RTVSPost2010Prop54
  1
strokes_ogs.tif
102
RTVSPost2010PropOp54
 70
     1
102
RTVSPost2010Prop55
280
     0
102
RTVSPost2010PropOp55
 70
     1
102
RTVSPost2010Prop56
140
1.0
102
RTVSPost2010PropOp56
 70
     1
102
RTVSPost2010Prop57
140
1.0
102
RTVSPost2010PropOp57
 70
     1
  0
XRECORD
  5
1426
102
{ACAD_REACTORS
330
1425
102
}
330
1425
100
AcDbXrecord
280
     1
102
RTVSPost2010Prop28
280
     0
102
RTVSPost2010PropOp28
 70
     1
102
RTVSPost2010Prop29
280
     1
102
RTVSPost2010PropOp29
 70
     1
102
RTVSPost2010Prop30
280
     1
102
RTVSPost2010PropOp30
 70
     1
102
RTVSPost2010Prop31
280
     0
102
RTVSPost2010PropOp31
 70
     1
102
RTVSPost2010Prop32
280
     0
102
RTVSPost2010PropOp32
 70
     1
102
RTVSPost2010Prop33
280
     0
102
RTVSPost2010PropOp33
 70
     1
102
RTVSPost2010Prop34
280
     0
102
RTVSPost2010PropOp34
 70
     1
102
RTVSPost2010Prop35
280
     0
102
RTVSPost2010PropOp35
 70
     1
102
RTVSPost2010Prop36
280
     0
102
RTVSPost2010PropOp36
 70
     1
102
RTVSPost2010Prop37
 90
       50
102
RTVSPost2010PropOp37
 70
     1
102
RTVSPost2010Prop38
140
0.0
102
RTVSPost2010PropOp38
 70
     1
102
RTVSPost2010Prop39
140
1.0
102
RTVSPost2010PropOp39
 70
     1
102
RTVSPost2010Prop40
 90
        0
102
RTVSPost2010PropOp40
 70
     1
102
RTVSPost2010Prop41ColorIndex
 90
       18
102
RTVSPost2010Prop41ColorRGB
 90
        0
102
RTVSPost2010PropOp41
 70
     1
102
RTVSPost2010Prop42
 90
       50
102
RTVSPost2010PropOp42
 70
     1
102
RTVSPost2010Prop43
 90
        3
102
RTVSPost2010PropOp43
 70
     1
102
RTVSPost2010Prop44ColorIndex
 90
        5
102
RTVSPost2010Prop44ColorRGB
 90
      255
102
RTVSPost2010PropOp44
 70
     1
102
RTVSPost2010Prop45
280
     0
102
RTVSPost2010PropOp45
 70
     1
102
RTVSPost2010Prop46
 90
       50
102
RTVSPost2010PropOp46
 70
     1
102
RTVSPost2010Prop47
 90
       50
102
RTVSPost2010PropOp47
 70
     1
102
RTVSPost2010Prop48
 90
       50
102
RTVSPost2010PropOp48
 70
     1
102
RTVSPost2010Prop49
280
     0
102
RTVSPost2010PropOp49
 70
     1
102
RTVSPost2010Prop50
 90
       50
102
RTVSPost2010PropOp50
 70
     1
102
RTVSPost2010Prop51ColorIndex
 90
      256
102
RTVSPost2010Prop51ColorRGB
 90
-16777216
102
RTVSPost2010PropOp51
 70
     0
102
RTVSPost2010Prop52
140
1.0
102
RTVSPost2010PropOp52
 70
     0
102
RTVSPost2010Prop53
 90
        2
102
RTVSPost2010PropOp53
 70
     1
102
RTVSPost2010Prop54
  1
strokes_ogs.tif
102
RTVSPost2010PropOp54
 70
     1
102
RTVSPost2010Prop55
280
     0
102
RTVSPost2010PropOp55
 70
     1
102
RTVSPost2010Prop56
140
1.0
102
RTVSPost2010PropOp56
 70
     1
102
RTVSPost2010Prop57
140
1.0
102
RTVSPost2010PropOp57
 70
     1
  0
XRECORD
  5
142C
102
{ACAD_REACTORS
330
142B
102
}
330
142B
100
AcDbXrecord
280
     1
102
RTVSPost2010Prop28
280
     0
102
RTVSPost2010PropOp28
 70
     1
102
RTVSPost2010Prop29
280
     1
102
RTVSPost2010PropOp29
 70
     1
102
RTVSPost2010Prop30
280
     1
102
RTVSPost2010PropOp30
 70
     1
102
RTVSPost2010Prop31
280
     0
102
RTVSPost2010PropOp31
 70
     1
102
RTVSPost2010Prop32
280
     0
102
RTVSPost2010PropOp32
 70
     1
102
RTVSPost2010Prop33
280
     0
102
RTVSPost2010PropOp33
 70
     1
102
RTVSPost2010Prop34
280
     0
102
RTVSPost2010PropOp34
 70
     1
102
RTVSPost2010Prop35
280
     0
102
RTVSPost2010PropOp35
 70
     1
102
RTVSPost2010Prop36
280
     0
102
RTVSPost2010PropOp36
 70
     1
102
RTVSPost2010Prop37
 90
       50
102
RTVSPost2010PropOp37
 70
     1
102
RTVSPost2010Prop38
140
0.0
102
RTVSPost2010PropOp38
 70
     1
102
RTVSPost2010Prop39
140
1.0
102
RTVSPost2010PropOp39
 70
     1
102
RTVSPost2010Prop40
 90
        0
102
RTVSPost2010PropOp40
 70
     1
102
RTVSPost2010Prop41ColorIndex
 90
       18
102
RTVSPost2010Prop41ColorRGB
 90
        0
102
RTVSPost2010PropOp41
 70
     1
102
RTVSPost2010Prop42
 90
       50
102
RTVSPost2010PropOp42
 70
     1
102
RTVSPost2010Prop43
 90
        3
102
RTVSPost2010PropOp43
 70
     1
102
RTVSPost2010Prop44ColorIndex
 90
        5
102
RTVSPost2010Prop44ColorRGB
 90
      255
102
RTVSPost2010PropOp44
 70
     1
102
RTVSPost2010Prop45
280
     0
102
RTVSPost2010PropOp45
 70
     1
102
RTVSPost2010Prop46
 90
       50
102
RTVSPost2010PropOp46
 70
     1
102
RTVSPost2010Prop47
 90
       50
102
RTVSPost2010PropOp47
 70
     1
102
RTVSPost2010Prop48
 90
       50
102
RTVSPost2010PropOp48
 70
     1
102
RTVSPost2010Prop49
280
     0
102
RTVSPost2010PropOp49
 70
     1
102
RTVSPost2010Prop50
 90
       50
102
RTVSPost2010PropOp50
 70
     1
102
RTVSPost2010Prop51ColorIndex
 90
      256
102
RTVSPost2010Prop51ColorRGB
 90
-16777216
102
RTVSPost2010PropOp51
 70
     0
102
RTVSPost2010Prop52
140
1.0
102
RTVSPost2010PropOp52
 70
     0
102
RTVSPost2010Prop53
 90
        2
102
RTVSPost2010PropOp53
 70
     1
102
RTVSPost2010Prop54
  1
strokes_ogs.tif
102
RTVSPost2010PropOp54
 70
     1
102
RTVSPost2010Prop55
280
     0
102
RTVSPost2010PropOp55
 70
     1
102
RTVSPost2010Prop56
140
1.0
102
RTVSPost2010PropOp56
 70
     1
102
RTVSPost2010Prop57
140
1.0
102
RTVSPost2010PropOp57
 70
     1
  0
XRECORD
  5
1440
102
{ACAD_REACTORS
330
143F
102
}
330
143F
100
AcDbXrecord
280
     1
102
RTVSPost2010Prop28
280
     0
102
RTVSPost2010PropOp28
 70
     0
102
RTVSPost2010Prop29
280
     1
102
RTVSPost2010PropOp29
 70
     0
102
RTVSPost2010Prop30
280
     1
102
RTVSPost2010PropOp30
 70
     0
102
RTVSPost2010Prop31
280
     0
102
RTVSPost2010PropOp31
 70
     0
102
RTVSPost2010Prop32
280
     0
102
RTVSPost2010PropOp32
 70
     0
102
RTVSPost2010Prop33
280
     0
102
RTVSPost2010PropOp33
 70
     0
102
RTVSPost2010Prop34
280
     0
102
RTVSPost2010PropOp34
 70
     0
102
RTVSPost2010Prop35
280
     0
102
RTVSPost2010PropOp35
 70
     0
102
RTVSPost2010Prop36
280
     0
102
RTVSPost2010PropOp36
 70
     0
102
RTVSPost2010Prop37
 90
       50
102
RTVSPost2010PropOp37
 70
     0
102
RTVSPost2010Prop38
140
0.0
102
RTVSPost2010PropOp38
 70
     0
102
RTVSPost2010Prop39
140
1.0
102
RTVSPost2010PropOp39
 70
     0
102
RTVSPost2010Prop40
 90
        0
102
RTVSPost2010PropOp40
 70
     0
102
RTVSPost2010Prop41ColorIndex
 90
       18
102
RTVSPost2010Prop41ColorRGB
 90
        0
102
RTVSPost2010PropOp41
 70
     0
102
RTVSPost2010Prop42
 90
       50
102
RTVSPost2010PropOp42
 70
     0
102
RTVSPost2010Prop43
 90
        3
102
RTVSPost2010PropOp43
 70
     0
102
RTVSPost2010Prop44ColorIndex
 90
        5
102
RTVSPost2010Prop44ColorRGB
 90
      255
102
RTVSPost2010PropOp44
 70
     0
102
RTVSPost2010Prop45
280
     0
102
RTVSPost2010PropOp45
 70
     0
102
RTVSPost2010Prop46
 90
       50
102
RTVSPost2010PropOp46
 70
     0
102
RTVSPost2010Prop47
 90
       50
102
RTVSPost2010PropOp47
 70
     0
102
RTVSPost2010Prop48
 90
       50
102
RTVSPost2010PropOp48
 70
     0
102
RTVSPost2010Prop49
280
     0
102
RTVSPost2010PropOp49
 70
     0
102
RTVSPost2010Prop50
 90
       50
102
RTVSPost2010PropOp50
 70
     0
102
RTVSPost2010Prop51ColorIndex
 90
      256
102
RTVSPost2010Prop51ColorRGB
 90
-16777216
102
RTVSPost2010PropOp51
 70
     0
102
RTVSPost2010Prop52
140
1.0
102
RTVSPost2010PropOp52
 70
     0
102
RTVSPost2010Prop53
 90
        2
102
RTVSPost2010PropOp53
 70
     0
102
RTVSPost2010Prop54
  1
strokes_ogs.tif
102
RTVSPost2010PropOp54
 70
     0
102
RTVSPost2010Prop55
280
     0
102
RTVSPost2010PropOp55
 70
     0
102
RTVSPost2010Prop56
140
1.0
102
RTVSPost2010PropOp56
 70
     0
102
RTVSPost2010Prop57
140
1.0
102
RTVSPost2010PropOp57
 70
     0
  0
XRECORD
  5
143A
102
{ACAD_REACTORS
330
1439
102
}
330
1439
100
AcDbXrecord
280
     1
102
RTVSPost2010Prop28
280
     0
102
RTVSPost2010PropOp28
 70
     1
102
RTVSPost2010Prop29
280
     1
102
RTVSPost2010PropOp29
 70
     1
102
RTVSPost2010Prop30
280
     1
102
RTVSPost2010PropOp30
 70
     1
102
RTVSPost2010Prop31
280
     0
102
RTVSPost2010PropOp31
 70
     1
102
RTVSPost2010Prop32
280
     0
102
RTVSPost2010PropOp32
 70
     1
102
RTVSPost2010Prop33
280
     0
102
RTVSPost2010PropOp33
 70
     1
102
RTVSPost2010Prop34
280
     0
102
RTVSPost2010PropOp34
 70
     1
102
RTVSPost2010Prop35
280
     0
102
RTVSPost2010PropOp35
 70
     1
102
RTVSPost2010Prop36
280
     0
102
RTVSPost2010PropOp36
 70
     1
102
RTVSPost2010Prop37
 90
       50
102
RTVSPost2010PropOp37
 70
     1
102
RTVSPost2010Prop38
140
0.0
102
RTVSPost2010PropOp38
 70
     1
102
RTVSPost2010Prop39
140
1.0
102
RTVSPost2010PropOp39
 70
     1
102
RTVSPost2010Prop40
 90
        0
102
RTVSPost2010PropOp40
 70
     1
102
RTVSPost2010Prop41ColorIndex
 90
       18
102
RTVSPost2010Prop41ColorRGB
 90
        0
102
RTVSPost2010PropOp41
 70
     1
102
RTVSPost2010Prop42
 90
       50
102
RTVSPost2010PropOp42
 70
     1
102
RTVSPost2010Prop43
 90
        3
102
RTVSPost2010PropOp43
 70
     1
102
RTVSPost2010Prop44ColorIndex
 90
        5
102
RTVSPost2010Prop44ColorRGB
 90
      255
102
RTVSPost2010PropOp44
 70
     1
102
RTVSPost2010Prop45
280
     0
102
RTVSPost2010PropOp45
 70
     1
102
RTVSPost2010Prop46
 90
       50
102
RTVSPost2010PropOp46
 70
     1
102
RTVSPost2010Prop47
 90
       50
102
RTVSPost2010PropOp47
 70
     1
102
RTVSPost2010Prop48
 90
       50
102
RTVSPost2010PropOp48
 70
     1
102
RTVSPost2010Prop49
280
     0
102
RTVSPost2010PropOp49
 70
     1
102
RTVSPost2010Prop50
 90
       50
102
RTVSPost2010PropOp50
 70
     1
102
RTVSPost2010Prop51ColorIndex
 90
      256
102
RTVSPost2010Prop51ColorRGB
 90
-16777216
102
RTVSPost2010PropOp51
 70
     0
102
RTVSPost2010Prop52
140
1.0
102
RTVSPost2010PropOp52
 70
     0
102
RTVSPost2010Prop53
 90
        2
102
RTVSPost2010PropOp53
 70
     1
102
RTVSPost2010Prop54
  1
strokes_ogs.tif
102
RTVSPost2010PropOp54
 70
     1
102
RTVSPost2010Prop55
280
     0
102
RTVSPost2010PropOp55
 70
     1
102
RTVSPost2010Prop56
140
1.0
102
RTVSPost2010PropOp56
 70
     1
102
RTVSPost2010Prop57
140
1.0
102
RTVSPost2010PropOp57
 70
     1
  0
XRECORD
  5
1442
102
{ACAD_REACTORS
330
1441
102
}
330
1441
100
AcDbXrecord
280
     1
102
RTVSPost2010Prop28
280
     0
102
RTVSPost2010PropOp28
 70
     0
102
RTVSPost2010Prop29
280
     1
102
RTVSPost2010PropOp29
 70
     0
102
RTVSPost2010Prop30
280
     1
102
RTVSPost2010PropOp30
 70
     0
102
RTVSPost2010Prop31
280
     0
102
RTVSPost2010PropOp31
 70
     0
102
RTVSPost2010Prop32
280
     0
102
RTVSPost2010PropOp32
 70
     0
102
RTVSPost2010Prop33
280
     0
102
RTVSPost2010PropOp33
 70
     0
102
RTVSPost2010Prop34
280
     0
102
RTVSPost2010PropOp34
 70
     0
102
RTVSPost2010Prop35
280
     0
102
RTVSPost2010PropOp35
 70
     0
102
RTVSPost2010Prop36
280
     0
102
RTVSPost2010PropOp36
 70
     0
102
RTVSPost2010Prop37
 90
       50
102
RTVSPost2010PropOp37
 70
     0
102
RTVSPost2010Prop38
140
0.0
102
RTVSPost2010PropOp38
 70
     0
102
RTVSPost2010Prop39
140
1.0
102
RTVSPost2010PropOp39
 70
     0
102
RTVSPost2010Prop40
 90
        0
102
RTVSPost2010PropOp40
 70
     0
102
RTVSPost2010Prop41ColorIndex
 90
       18
102
RTVSPost2010Prop41ColorRGB
 90
        0
102
RTVSPost2010PropOp41
 70
     0
102
RTVSPost2010Prop42
 90
       50
102
RTVSPost2010PropOp42
 70
     0
102
RTVSPost2010Prop43
 90
        3
102
RTVSPost2010PropOp43
 70
     0
102
RTVSPost2010Prop44ColorIndex
 90
        5
102
RTVSPost2010Prop44ColorRGB
 90
      255
102
RTVSPost2010PropOp44
 70
     0
102
RTVSPost2010Prop45
280
     0
102
RTVSPost2010PropOp45
 70
     0
102
RTVSPost2010Prop46
 90
       50
102
RTVSPost2010PropOp46
 70
     0
102
RTVSPost2010Prop47
 90
       50
102
RTVSPost2010PropOp47
 70
     0
102
RTVSPost2010Prop48
 90
       50
102
RTVSPost2010PropOp48
 70
     0
102
RTVSPost2010Prop49
280
     0
102
RTVSPost2010PropOp49
 70
     0
102
RTVSPost2010Prop50
 90
       50
102
RTVSPost2010PropOp50
 70
     0
102
RTVSPost2010Prop51ColorIndex
 90
      256
102
RTVSPost2010Prop51ColorRGB
 90
-16777216
102
RTVSPost2010PropOp51
 70
     0
102
RTVSPost2010Prop52
140
1.0
102
RTVSPost2010PropOp52
 70
     0
102
RTVSPost2010Prop53
 90
        2
102
RTVSPost2010PropOp53
 70
     0
102
RTVSPost2010Prop54
  1
strokes_ogs.tif
102
RTVSPost2010PropOp54
 70
     0
102
RTVSPost2010Prop55
280
     0
102
RTVSPost2010PropOp55
 70
     0
102
RTVSPost2010Prop56
140
1.0
102
RTVSPost2010PropOp56
 70
     0
102
RTVSPost2010Prop57
140
1.0
102
RTVSPost2010PropOp57
 70
     0
  0
XRECORD
  5
1430
102
{ACAD_REACTORS
330
142F
102
}
330
142F
100
AcDbXrecord
280
     1
102
RTVSPost2010Prop28
280
     0
102
RTVSPost2010PropOp28
 70
     1
102
RTVSPost2010Prop29
280
     1
102
RTVSPost2010PropOp29
 70
     1
102
RTVSPost2010Prop30
280
     1
102
RTVSPost2010PropOp30
 70
     1
102
RTVSPost2010Prop31
280
     0
102
RTVSPost2010PropOp31
 70
     1
102
RTVSPost2010Prop32
280
     0
102
RTVSPost2010PropOp32
 70
     1
102
RTVSPost2010Prop33
280
     0
102
RTVSPost2010PropOp33
 70
     1
102
RTVSPost2010Prop34
280
     0
102
RTVSPost2010PropOp34
 70
     1
102
RTVSPost2010Prop35
280
     0
102
RTVSPost2010PropOp35
 70
     1
102
RTVSPost2010Prop36
280
     0
102
RTVSPost2010PropOp36
 70
     1
102
RTVSPost2010Prop37
 90
       50
102
RTVSPost2010PropOp37
 70
     1
102
RTVSPost2010Prop38
140
0.0
102
RTVSPost2010PropOp38
 70
     1
102
RTVSPost2010Prop39
140
1.0
102
RTVSPost2010PropOp39
 70
     1
102
RTVSPost2010Prop40
 90
        0
102
RTVSPost2010PropOp40
 70
     1
102
RTVSPost2010Prop41ColorIndex
 90
       18
102
RTVSPost2010Prop41ColorRGB
 90
        0
102
RTVSPost2010PropOp41
 70
     1
102
RTVSPost2010Prop42
 90
       50
102
RTVSPost2010PropOp42
 70
     1
102
RTVSPost2010Prop43
 90
        3
102
RTVSPost2010PropOp43
 70
     1
102
RTVSPost2010Prop44ColorIndex
 90
        5
102
RTVSPost2010Prop44ColorRGB
 90
      255
102
RTVSPost2010PropOp44
 70
     1
102
RTVSPost2010Prop45
280
     0
102
RTVSPost2010PropOp45
 70
     1
102
RTVSPost2010Prop46
 90
       50
102
RTVSPost2010PropOp46
 70
     1
102
RTVSPost2010Prop47
 90
       50
102
RTVSPost2010PropOp47
 70
     1
102
RTVSPost2010Prop48
 90
       50
102
RTVSPost2010PropOp48
 70
     1
102
RTVSPost2010Prop49
280
     0
102
RTVSPost2010PropOp49
 70
     1
102
RTVSPost2010Prop50
 90
       50
102
RTVSPost2010PropOp50
 70
     1
102
RTVSPost2010Prop51ColorIndex
 90
      256
102
RTVSPost2010Prop51ColorRGB
 90
-16777216
102
RTVSPost2010PropOp51
 70
     0
102
RTVSPost2010Prop52
140
1.0
102
RTVSPost2010PropOp52
 70
     0
102
RTVSPost2010Prop53
 90
        2
102
RTVSPost2010PropOp53
 70
     1
102
RTVSPost2010Prop54
  1
strokes_ogs.tif
102
RTVSPost2010PropOp54
 70
     1
102
RTVSPost2010Prop55
280
     0
102
RTVSPost2010PropOp55
 70
     1
102
RTVSPost2010Prop56
140
1.0
102
RTVSPost2010PropOp56
 70
     1
102
RTVSPost2010Prop57
140
1.0
102
RTVSPost2010PropOp57
 70
     1
  0
XRECORD
  5
144E
102
{ACAD_REACTORS
330
144D
102
}
330
144D
100
AcDbXrecord
280
     1
102
RTVSPost2010Prop28
280
     0
102
RTVSPost2010PropOp28
 70
     1
102
RTVSPost2010Prop29
280
     1
102
RTVSPost2010PropOp29
 70
     1
102
RTVSPost2010Prop30
280
     1
102
RTVSPost2010PropOp30
 70
     1
102
RTVSPost2010Prop31
280
     0
102
RTVSPost2010PropOp31
 70
     1
102
RTVSPost2010Prop32
280
     0
102
RTVSPost2010PropOp32
 70
     1
102
RTVSPost2010Prop33
280
     0
102
RTVSPost2010PropOp33
 70
     1
102
RTVSPost2010Prop34
280
     0
102
RTVSPost2010PropOp34
 70
     1
102
RTVSPost2010Prop35
280
     0
102
RTVSPost2010PropOp35
 70
     1
102
RTVSPost2010Prop36
280
     0
102
RTVSPost2010PropOp36
 70
     1
102
RTVSPost2010Prop37
 90
       50
102
RTVSPost2010PropOp37
 70
     1
102
RTVSPost2010Prop38
140
0.0
102
RTVSPost2010PropOp38
 70
     1
102
RTVSPost2010Prop39
140
1.0
102
RTVSPost2010PropOp39
 70
     1
102
RTVSPost2010Prop40
 90
        0
102
RTVSPost2010PropOp40
 70
     1
102
RTVSPost2010Prop41ColorIndex
 90
       18
102
RTVSPost2010Prop41ColorRGB
 90
        0
102
RTVSPost2010PropOp41
 70
     1
102
RTVSPost2010Prop42
 90
       50
102
RTVSPost2010PropOp42
 70
     1
102
RTVSPost2010Prop43
 90
        3
102
RTVSPost2010PropOp43
 70
     1
102
RTVSPost2010Prop44ColorIndex
 90
        5
102
RTVSPost2010Prop44ColorRGB
 90
      255
102
RTVSPost2010PropOp44
 70
     1
102
RTVSPost2010Prop45
280
     0
102
RTVSPost2010PropOp45
 70
     1
102
RTVSPost2010Prop46
 90
       50
102
RTVSPost2010PropOp46
 70
     1
102
RTVSPost2010Prop47
 90
       50
102
RTVSPost2010PropOp47
 70
     1
102
RTVSPost2010Prop48
 90
       50
102
RTVSPost2010PropOp48
 70
     1
102
RTVSPost2010Prop49
280
     0
102
RTVSPost2010PropOp49
 70
     1
102
RTVSPost2010Prop50
 90
       50
102
RTVSPost2010PropOp50
 70
     1
102
RTVSPost2010Prop51ColorIndex
 90
      256
102
RTVSPost2010Prop51ColorRGB
 90
-16777216
102
RTVSPost2010PropOp51
 70
     0
102
RTVSPost2010Prop52
140
1.0
102
RTVSPost2010PropOp52
 70
     0
102
RTVSPost2010Prop53
 90
        2
102
RTVSPost2010PropOp53
 70
     1
102
RTVSPost2010Prop54
  1
strokes_ogs.tif
102
RTVSPost2010PropOp54
 70
     1
102
RTVSPost2010Prop55
280
     0
102
RTVSPost2010PropOp55
 70
     1
102
RTVSPost2010Prop56
140
1.0
102
RTVSPost2010PropOp56
 70
     1
102
RTVSPost2010Prop57
140
1.0
102
RTVSPost2010PropOp57
 70
     1
  0
XRECORD
  5
144C
102
{ACAD_REACTORS
330
144B
102
}
330
144B
100
AcDbXrecord
280
     1
102
RTVSPost2010Prop28
280
     0
102
RTVSPost2010PropOp28
 70
     1
102
RTVSPost2010Prop29
280
     1
102
RTVSPost2010PropOp29
 70
     1
102
RTVSPost2010Prop30
280
     1
102
RTVSPost2010PropOp30
 70
     1
102
RTVSPost2010Prop31
280
     0
102
RTVSPost2010PropOp31
 70
     1
102
RTVSPost2010Prop32
280
     0
102
RTVSPost2010PropOp32
 70
     1
102
RTVSPost2010Prop33
280
     0
102
RTVSPost2010PropOp33
 70
     1
102
RTVSPost2010Prop34
280
     0
102
RTVSPost2010PropOp34
 70
     1
102
RTVSPost2010Prop35
280
     0
102
RTVSPost2010PropOp35
 70
     1
102
RTVSPost2010Prop36
280
     0
102
RTVSPost2010PropOp36
 70
     1
102
RTVSPost2010Prop37
 90
       50
102
RTVSPost2010PropOp37
 70
     1
102
RTVSPost2010Prop38
140
0.0
102
RTVSPost2010PropOp38
 70
     1
102
RTVSPost2010Prop39
140
1.0
102
RTVSPost2010PropOp39
 70
     1
102
RTVSPost2010Prop40
 90
        0
102
RTVSPost2010PropOp40
 70
     1
102
RTVSPost2010Prop41ColorIndex
 90
       18
102
RTVSPost2010Prop41ColorRGB
 90
        0
102
RTVSPost2010PropOp41
 70
     1
102
RTVSPost2010Prop42
 90
       50
102
RTVSPost2010PropOp42
 70
     1
102
RTVSPost2010Prop43
 90
        3
102
RTVSPost2010PropOp43
 70
     1
102
RTVSPost2010Prop44ColorIndex
 90
        5
102
RTVSPost2010Prop44ColorRGB
 90
      255
102
RTVSPost2010PropOp44
 70
     1
102
RTVSPost2010Prop45
280
     0
102
RTVSPost2010PropOp45
 70
     1
102
RTVSPost2010Prop46
 90
       50
102
RTVSPost2010PropOp46
 70
     1
102
RTVSPost2010Prop47
 90
       50
102
RTVSPost2010PropOp47
 70
     1
102
RTVSPost2010Prop48
 90
       50
102
RTVSPost2010PropOp48
 70
     1
102
RTVSPost2010Prop49
280
     0
102
RTVSPost2010PropOp49
 70
     1
102
RTVSPost2010Prop50
 90
       50
102
RTVSPost2010PropOp50
 70
     1
102
RTVSPost2010Prop51ColorIndex
 90
      256
102
RTVSPost2010Prop51ColorRGB
 90
-16777216
102
RTVSPost2010PropOp51
 70
     0
102
RTVSPost2010Prop52
140
1.0
102
RTVSPost2010PropOp52
 70
     0
102
RTVSPost2010Prop53
 90
        2
102
RTVSPost2010PropOp53
 70
     1
102
RTVSPost2010Prop54
  1
strokes_ogs.tif
102
RTVSPost2010PropOp54
 70
     1
102
RTVSPost2010Prop55
280
     0
102
RTVSPost2010PropOp55
 70
     1
102
RTVSPost2010Prop56
140
1.0
102
RTVSPost2010PropOp56
 70
     1
102
RTVSPost2010Prop57
140
1.0
102
RTVSPost2010PropOp57
 70
     1
  0
XRECORD
  5
1446
102
{ACAD_REACTORS
330
1445
102
}
330
1445
100
AcDbXrecord
280
     1
102
RTVSPost2010Prop28
280
     0
102
RTVSPost2010PropOp28
 70
     1
102
RTVSPost2010Prop29
280
     1
102
RTVSPost2010PropOp29
 70
     1
102
RTVSPost2010Prop30
280
     1
102
RTVSPost2010PropOp30
 70
     1
102
RTVSPost2010Prop31
280
     0
102
RTVSPost2010PropOp31
 70
     1
102
RTVSPost2010Prop32
280
     0
102
RTVSPost2010PropOp32
 70
     1
102
RTVSPost2010Prop33
280
     0
102
RTVSPost2010PropOp33
 70
     1
102
RTVSPost2010Prop34
280
     0
102
RTVSPost2010PropOp34
 70
     1
102
RTVSPost2010Prop35
280
     0
102
RTVSPost2010PropOp35
 70
     1
102
RTVSPost2010Prop36
280
     0
102
RTVSPost2010PropOp36
 70
     1
102
RTVSPost2010Prop37
 90
       50
102
RTVSPost2010PropOp37
 70
     1
102
RTVSPost2010Prop38
140
0.0
102
RTVSPost2010PropOp38
 70
     1
102
RTVSPost2010Prop39
140
1.0
102
RTVSPost2010PropOp39
 70
     1
102
RTVSPost2010Prop40
 90
        0
102
RTVSPost2010PropOp40
 70
     1
102
RTVSPost2010Prop41ColorIndex
 90
       18
102
RTVSPost2010Prop41ColorRGB
 90
        0
102
RTVSPost2010PropOp41
 70
     1
102
RTVSPost2010Prop42
 90
       50
102
RTVSPost2010PropOp42
 70
     1
102
RTVSPost2010Prop43
 90
        3
102
RTVSPost2010PropOp43
 70
     1
102
RTVSPost2010Prop44ColorIndex
 90
        5
102
RTVSPost2010Prop44ColorRGB
 90
      255
102
RTVSPost2010PropOp44
 70
     1
102
RTVSPost2010Prop45
280
     0
102
RTVSPost2010PropOp45
 70
     1
102
RTVSPost2010Prop46
 90
       50
102
RTVSPost2010PropOp46
 70
     1
102
RTVSPost2010Prop47
 90
       50
102
RTVSPost2010PropOp47
 70
     1
102
RTVSPost2010Prop48
 90
       50
102
RTVSPost2010PropOp48
 70
     1
102
RTVSPost2010Prop49
280
     0
102
RTVSPost2010PropOp49
 70
     1
102
RTVSPost2010Prop50
 90
       50
102
RTVSPost2010PropOp50
 70
     1
102
RTVSPost2010Prop51ColorIndex
 90
      256
102
RTVSPost2010Prop51ColorRGB
 90
-16777216
102
RTVSPost2010PropOp51
 70
     0
102
RTVSPost2010Prop52
140
1.0
102
RTVSPost2010PropOp52
 70
     0
102
RTVSPost2010Prop53
 90
        2
102
RTVSPost2010PropOp53
 70
     1
102
RTVSPost2010Prop54
  1
strokes_ogs.tif
102
RTVSPost2010PropOp54
 70
     1
102
RTVSPost2010Prop55
280
     0
102
RTVSPost2010PropOp55
 70
     1
102
RTVSPost2010Prop56
140
1.0
102
RTVSPost2010PropOp56
 70
     1
102
RTVSPost2010Prop57
140
1.0
102
RTVSPost2010PropOp57
 70
     1
  0
XRECORD
  5
1448
102
{ACAD_REACTORS
330
1447
102
}
330
1447
100
AcDbXrecord
280
     1
102
RTVSPost2010Prop28
280
     0
102
RTVSPost2010PropOp28
 70
     1
102
RTVSPost2010Prop29
280
     1
102
RTVSPost2010PropOp29
 70
     1
102
RTVSPost2010Prop30
280
     1
102
RTVSPost2010PropOp30
 70
     1
102
RTVSPost2010Prop31
280
     0
102
RTVSPost2010PropOp31
 70
     1
102
RTVSPost2010Prop32
280
     0
102
RTVSPost2010PropOp32
 70
     1
102
RTVSPost2010Prop33
280
     0
102
RTVSPost2010PropOp33
 70
     1
102
RTVSPost2010Prop34
280
     0
102
RTVSPost2010PropOp34
 70
     1
102
RTVSPost2010Prop35
280
     0
102
RTVSPost2010PropOp35
 70
     1
102
RTVSPost2010Prop36
280
     0
102
RTVSPost2010PropOp36
 70
     1
102
RTVSPost2010Prop37
 90
       50
102
RTVSPost2010PropOp37
 70
     1
102
RTVSPost2010Prop38
140
0.0
102
RTVSPost2010PropOp38
 70
     1
102
RTVSPost2010Prop39
140
1.0
102
RTVSPost2010PropOp39
 70
     1
102
RTVSPost2010Prop40
 90
        0
102
RTVSPost2010PropOp40
 70
     1
102
RTVSPost2010Prop41ColorIndex
 90
       18
102
RTVSPost2010Prop41ColorRGB
 90
        0
102
RTVSPost2010PropOp41
 70
     1
102
RTVSPost2010Prop42
 90
       50
102
RTVSPost2010PropOp42
 70
     1
102
RTVSPost2010Prop43
 90
        3
102
RTVSPost2010PropOp43
 70
     1
102
RTVSPost2010Prop44ColorIndex
 90
        5
102
RTVSPost2010Prop44ColorRGB
 90
      255
102
RTVSPost2010PropOp44
 70
     1
102
RTVSPost2010Prop45
280
     0
102
RTVSPost2010PropOp45
 70
     1
102
RTVSPost2010Prop46
 90
       50
102
RTVSPost2010PropOp46
 70
     1
102
RTVSPost2010Prop47
 90
       50
102
RTVSPost2010PropOp47
 70
     1
102
RTVSPost2010Prop48
 90
       50
102
RTVSPost2010PropOp48
 70
     1
102
RTVSPost2010Prop49
280
     0
102
RTVSPost2010PropOp49
 70
     1
102
RTVSPost2010Prop50
 90
       50
102
RTVSPost2010PropOp50
 70
     1
102
RTVSPost2010Prop51ColorIndex
 90
      256
102
RTVSPost2010Prop51ColorRGB
 90
-16777216
102
RTVSPost2010PropOp51
 70
     0
102
RTVSPost2010Prop52
140
1.0
102
RTVSPost2010PropOp52
 70
     0
102
RTVSPost2010Prop53
 90
        2
102
RTVSPost2010PropOp53
 70
     1
102
RTVSPost2010Prop54
  1
strokes_ogs.tif
102
RTVSPost2010PropOp54
 70
     1
102
RTVSPost2010Prop55
280
     0
102
RTVSPost2010PropOp55
 70
     1
102
RTVSPost2010Prop56
140
1.0
102
RTVSPost2010PropOp56
 70
     1
102
RTVSPost2010Prop57
140
1.0
102
RTVSPost2010PropOp57
 70
     1
  0
XRECORD
  5
1438
102
{ACAD_REACTORS
330
1437
102
}
330
1437
100
AcDbXrecord
280
     1
102
RTVSPost2010Prop28
280
     0
102
RTVSPost2010PropOp28
 70
     1
102
RTVSPost2010Prop29
280
     1
102
RTVSPost2010PropOp29
 70
     1
102
RTVSPost2010Prop30
280
     1
102
RTVSPost2010PropOp30
 70
     1
102
RTVSPost2010Prop31
280
     0
102
RTVSPost2010PropOp31
 70
     1
102
RTVSPost2010Prop32
280
     0
102
RTVSPost2010PropOp32
 70
     1
102
RTVSPost2010Prop33
280
     0
102
RTVSPost2010PropOp33
 70
     1
102
RTVSPost2010Prop34
280
     0
102
RTVSPost2010PropOp34
 70
     1
102
RTVSPost2010Prop35
280
     0
102
RTVSPost2010PropOp35
 70
     1
102
RTVSPost2010Prop36
280
     0
102
RTVSPost2010PropOp36
 70
     1
102
RTVSPost2010Prop37
 90
       50
102
RTVSPost2010PropOp37
 70
     1
102
RTVSPost2010Prop38
140
0.0
102
RTVSPost2010PropOp38
 70
     1
102
RTVSPost2010Prop39
140
1.0
102
RTVSPost2010PropOp39
 70
     1
102
RTVSPost2010Prop40
 90
        0
102
RTVSPost2010PropOp40
 70
     1
102
RTVSPost2010Prop41ColorIndex
 90
       18
102
RTVSPost2010Prop41ColorRGB
 90
        0
102
RTVSPost2010PropOp41
 70
     1
102
RTVSPost2010Prop42
 90
       50
102
RTVSPost2010PropOp42
 70
     1
102
RTVSPost2010Prop43
 90
        3
102
RTVSPost2010PropOp43
 70
     1
102
RTVSPost2010Prop44ColorIndex
 90
        5
102
RTVSPost2010Prop44ColorRGB
 90
      255
102
RTVSPost2010PropOp44
 70
     1
102
RTVSPost2010Prop45
280
     0
102
RTVSPost2010PropOp45
 70
     1
102
RTVSPost2010Prop46
 90
       50
102
RTVSPost2010PropOp46
 70
     1
102
RTVSPost2010Prop47
 90
       50
102
RTVSPost2010PropOp47
 70
     1
102
RTVSPost2010Prop48
 90
       50
102
RTVSPost2010PropOp48
 70
     1
102
RTVSPost2010Prop49
280
     0
102
RTVSPost2010PropOp49
 70
     1
102
RTVSPost2010Prop50
 90
       50
102
RTVSPost2010PropOp50
 70
     1
102
RTVSPost2010Prop51ColorIndex
 90
      256
102
RTVSPost2010Prop51ColorRGB
 90
-16777216
102
RTVSPost2010PropOp51
 70
     0
102
RTVSPost2010Prop52
140
1.0
102
RTVSPost2010PropOp52
 70
     0
102
RTVSPost2010Prop53
 90
        2
102
RTVSPost2010PropOp53
 70
     1
102
RTVSPost2010Prop54
  1
strokes_ogs.tif
102
RTVSPost2010PropOp54
 70
     1
102
RTVSPost2010Prop55
280
     0
102
RTVSPost2010PropOp55
 70
     1
102
RTVSPost2010Prop56
140
1.0
102
RTVSPost2010PropOp56
 70
     1
102
RTVSPost2010Prop57
140
1.0
102
RTVSPost2010PropOp57
 70
     1
  0
XRECORD
  5
142A
102
{ACAD_REACTORS
330
1429
102
}
330
1429
100
AcDbXrecord
280
     1
102
RTVSPost2010Prop28
280
     0
102
RTVSPost2010PropOp28
 70
     1
102
RTVSPost2010Prop29
280
     1
102
RTVSPost2010PropOp29
 70
     1
102
RTVSPost2010Prop30
280
     1
102
RTVSPost2010PropOp30
 70
     1
102
RTVSPost2010Prop31
280
     0
102
RTVSPost2010PropOp31
 70
     1
102
RTVSPost2010Prop32
280
     0
102
RTVSPost2010PropOp32
 70
     1
102
RTVSPost2010Prop33
280
     0
102
RTVSPost2010PropOp33
 70
     1
102
RTVSPost2010Prop34
280
     0
102
RTVSPost2010PropOp34
 70
     1
102
RTVSPost2010Prop35
280
     0
102
RTVSPost2010PropOp35
 70
     1
102
RTVSPost2010Prop36
280
     0
102
RTVSPost2010PropOp36
 70
     1
102
RTVSPost2010Prop37
 90
       50
102
RTVSPost2010PropOp37
 70
     1
102
RTVSPost2010Prop38
140
0.0
102
RTVSPost2010PropOp38
 70
     1
102
RTVSPost2010Prop39
140
1.0
102
RTVSPost2010PropOp39
 70
     1
102
RTVSPost2010Prop40
 90
        0
102
RTVSPost2010PropOp40
 70
     1
102
RTVSPost2010Prop41ColorIndex
 90
       18
102
RTVSPost2010Prop41ColorRGB
 90
        0
102
RTVSPost2010PropOp41
 70
     1
102
RTVSPost2010Prop42
 90
       50
102
RTVSPost2010PropOp42
 70
     1
102
RTVSPost2010Prop43
 90
        3
102
RTVSPost2010PropOp43
 70
     1
102
RTVSPost2010Prop44ColorIndex
 90
        5
102
RTVSPost2010Prop44ColorRGB
 90
      255
102
RTVSPost2010PropOp44
 70
     1
102
RTVSPost2010Prop45
280
     0
102
RTVSPost2010PropOp45
 70
     1
102
RTVSPost2010Prop46
 90
       50
102
RTVSPost2010PropOp46
 70
     1
102
RTVSPost2010Prop47
 90
       50
102
RTVSPost2010PropOp47
 70
     1
102
RTVSPost2010Prop48
 90
       50
102
RTVSPost2010PropOp48
 70
     1
102
RTVSPost2010Prop49
280
     0
102
RTVSPost2010PropOp49
 70
     1
102
RTVSPost2010Prop50
 90
       50
102
RTVSPost2010PropOp50
 70
     1
102
RTVSPost2010Prop51ColorIndex
 90
      256
102
RTVSPost2010Prop51ColorRGB
 90
-16777216
102
RTVSPost2010PropOp51
 70
     0
102
RTVSPost2010Prop52
140
1.0
102
RTVSPost2010PropOp52
 70
     0
102
RTVSPost2010Prop53
 90
        2
102
RTVSPost2010PropOp53
 70
     1
102
RTVSPost2010Prop54
  1
strokes_ogs.tif
102
RTVSPost2010PropOp54
 70
     1
102
RTVSPost2010Prop55
280
     0
102
RTVSPost2010PropOp55
 70
     1
102
RTVSPost2010Prop56
140
1.0
102
RTVSPost2010PropOp56
 70
     1
102
RTVSPost2010Prop57
140
1.0
102
RTVSPost2010PropOp57
 70
     1
  0
XRECORD
  5
144A
102
{ACAD_REACTORS
330
1449
102
}
330
1449
100
AcDbXrecord
280
     1
102
RTVSPost2010Prop28
280
     0
102
RTVSPost2010PropOp28
 70
     1
102
RTVSPost2010Prop29
280
     1
102
RTVSPost2010PropOp29
 70
     1
102
RTVSPost2010Prop30
280
     1
102
RTVSPost2010PropOp30
 70
     1
102
RTVSPost2010Prop31
280
     0
102
RTVSPost2010PropOp31
 70
     1
102
RTVSPost2010Prop32
280
     0
102
RTVSPost2010PropOp32
 70
     1
102
RTVSPost2010Prop33
280
     0
102
RTVSPost2010PropOp33
 70
     1
102
RTVSPost2010Prop34
280
     0
102
RTVSPost2010PropOp34
 70
     1
102
RTVSPost2010Prop35
280
     0
102
RTVSPost2010PropOp35
 70
     1
102
RTVSPost2010Prop36
280
     0
102
RTVSPost2010PropOp36
 70
     1
102
RTVSPost2010Prop37
 90
       50
102
RTVSPost2010PropOp37
 70
     1
102
RTVSPost2010Prop38
140
0.0
102
RTVSPost2010PropOp38
 70
     1
102
RTVSPost2010Prop39
140
1.0
102
RTVSPost2010PropOp39
 70
     1
102
RTVSPost2010Prop40
 90
        0
102
RTVSPost2010PropOp40
 70
     1
102
RTVSPost2010Prop41ColorIndex
 90
       18
102
RTVSPost2010Prop41ColorRGB
 90
        0
102
RTVSPost2010PropOp41
 70
     1
102
RTVSPost2010Prop42
 90
       50
102
RTVSPost2010PropOp42
 70
     1
102
RTVSPost2010Prop43
 90
        3
102
RTVSPost2010PropOp43
 70
     1
102
RTVSPost2010Prop44ColorIndex
 90
        5
102
RTVSPost2010Prop44ColorRGB
 90
      255
102
RTVSPost2010PropOp44
 70
     1
102
RTVSPost2010Prop45
280
     0
102
RTVSPost2010PropOp45
 70
     1
102
RTVSPost2010Prop46
 90
       50
102
RTVSPost2010PropOp46
 70
     1
102
RTVSPost2010Prop47
 90
       50
102
RTVSPost2010PropOp47
 70
     1
102
RTVSPost2010Prop48
 90
       50
102
RTVSPost2010PropOp48
 70
     1
102
RTVSPost2010Prop49
280
     0
102
RTVSPost2010PropOp49
 70
     1
102
RTVSPost2010Prop50
 90
       50
102
RTVSPost2010PropOp50
 70
     1
102
RTVSPost2010Prop51ColorIndex
 90
      256
102
RTVSPost2010Prop51ColorRGB
 90
-16777216
102
RTVSPost2010PropOp51
 70
     0
102
RTVSPost2010Prop52
140
1.0
102
RTVSPost2010PropOp52
 70
     0
102
RTVSPost2010Prop53
 90
        2
102
RTVSPost2010PropOp53
 70
     1
102
RTVSPost2010Prop54
  1
strokes_ogs.tif
102
RTVSPost2010PropOp54
 70
     1
102
RTVSPost2010Prop55
280
     0
102
RTVSPost2010PropOp55
 70
     1
102
RTVSPost2010Prop56
140
1.0
102
RTVSPost2010PropOp56
 70
     1
102
RTVSPost2010Prop57
140
1.0
102
RTVSPost2010PropOp57
 70
     1
  0
ENDSEC
  0
EOF
