  0
SECTION
  2
HEADER
  9
$ACADVER
  1
AC1015
  9
$ACADMAINTVER
 70
    20
  9
$DWGCODEPAGE
  3
ANSI_932
  9
$INSBASE
 10
0.0
 20
0.0
 30
0.0
  9
$EXTMIN
 10
-201.4304700013731
 20
26.56596315658351
 30
0.0
  9
$EXTMAX
 10
1169.644571324011
 20
1250.565963156599
 30
0.0
  9
$LIMMIN
 10
-441.3259878158569
 20
-736.0708465576172
  9
$LIMMAX
 10
1055.342836380005
 20
695.2163543701171
  9
$ORTHOMODE
 70
     1
  9
$REGENMODE
 70
     1
  9
$FILLMODE
 70
     1
  9
$QTEXTMODE
 70
     0
  9
$MIRRTEXT
 70
     1
  9
$LTSCALE
 40
0.3491464990330493
  9
$ATTMODE
 70
     1
  9
$TEXTSIZE
 40
2.5
  9
$TRACEWID
 40
1.0
  9
$TEXTSTYLE
  7
Standard
  9
$CLAYER
  8
0
  9
$CELTYPE
  6
ByLayer
  9
$CECOLOR
 62
   256
  9
$CELTSCALE
 40
1.0
  9
$DISPSILH
 70
     0
  9
$DIMSCALE
 40
1.0
  9
$DIMASZ
 40
2.5
  9
$DIMEXO
 40
0.625
  9
$DIMDLI
 40
3.75
  9
$DIMRND
 40
0.0
  9
$DIMDLE
 40
0.0
  9
$DIMEXE
 40
1.25
  9
$DIMTP
 40
0.0
  9
$DIMTM
 40
0.0
  9
$DIMTXT
 40
2.5
  9
$DIMCEN
 40
2.5
  9
$DIMTSZ
 40
0.0
  9
$DIMTOL
 70
     0
  9
$DIMLIM
 70
     0
  9
$DIMTIH
 70
     0
  9
$DIMTOH
 70
     0
  9
$DIMSE1
 70
     0
  9
$DIMSE2
 70
     0
  9
$DIMTAD
 70
     1
  9
$DIMZIN
 70
     0
  9
$DIMBLK
  1

  9
$DIMASO
 70
     1
  9
$DIMSHO
 70
     1
  9
$DIMPOST
  1

  9
$DIMAPOST
  1

  9
$DIMALT
 70
     0
  9
$DIMALTD
 70
     3
  9
$DIMALTF
 40
0.03937007874016
  9
$DIMLFAC
 40
1.0
  9
$DIMTOFL
 70
     1
  9
$DIMTVP
 40
0.0
  9
$DIMTIX
 70
     0
  9
$DIMSOXD
 70
     0
  9
$DIMSAH
 70
     0
  9
$DIMBLK1
  1

  9
$DIMBLK2
  1

  9
$DIMSTYLE
  2
Standard
  9
$DIMCLRD
 70
     0
  9
$DIMCLRE
 70
     0
  9
$DIMCLRT
 70
     0
  9
$DIMTFAC
 40
0.75
  9
$DIMGAP
 40
0.625
  9
$DIMJUST
 70
     0
  9
$DIMSD1
 70
     0
  9
$DIMSD2
 70
     0
  9
$DIMTOLJ
 70
     0
  9
$DIMTZIN
 70
     8
  9
$DIMALTZ
 70
     0
  9
$DIMALTTZ
 70
     0
  9
$DIMUPT
 70
     0
  9
$DIMDEC
 70
     2
  9
$DIMTDEC
 70
     2
  9
$DIMALTU
 70
     2
  9
$DIMALTTD
 70
     3
  9
$DIMTXSTY
  7
Standard
  9
$DIMAUNIT
 70
     0
  9
$DIMADEC
 70
     0
  9
$DIMALTRND
 40
0.0
  9
$DIMAZIN
 70
     0
  9
$DIMDSEP
 70
    46
  9
$DIMATFIT
 70
     3
  9
$DIMFRAC
 70
     0
  9
$DIMLDRBLK
  1

  9
$DIMLUNIT
 70
     2
  9
$DIMLWD
 70
    -2
  9
$DIMLWE
 70
    -2
  9
$DIMTMOVE
 70
     0
  9
$LUNITS
 70
     2
  9
$LUPREC
 70
     4
  9
$SKETCHINC
 40
1.0
  9
$FILLETRAD
 40
0.0
  9
$AUNITS
 70
     0
  9
$AUPREC
 70
     0
  9
$MENU
  1
.
  9
$ELEVATION
 40
0.0
  9
$PELEVATION
 40
0.0
  9
$THICKNESS
 40
0.0
  9
$LIMCHECK
 70
     0
  9
$CHAMFERA
 40
10.0
  9
$CHAMFERB
 40
10.0
  9
$CHAMFERC
 40
20.0
  9
$CHAMFERD
 40
0.0
  9
$SKPOLY
 70
     0
  9
$TDCREATE
 40
2455188.750000000
  9
$TDUCREATE
 40
2455188.375000000
  9
$TDUPDATE
 40
2459753.462170822
  9
$TDUUPDATE
 40
2459753.087170822
  9
$TDINDWG
 40
0.0152191435
  9
$TDUSRTIMER
 40
0.0152188426
  9
$USRTIMER
 70
     1
  9
$ANGBASE
 50
0.0
  9
$ANGDIR
 70
     0
  9
$PDMODE
 70
     0
  9
$PDSIZE
 40
0.0
  9
$PLINEWID
 40
0.0
  9
$SPLFRAME
 70
     0
  9
$SPLINETYPE
 70
     6
  9
$SPLINESEGS
 70
     8
  9
$HANDSEED
  5
7F2
  9
$SURFTAB1
 70
     6
  9
$SURFTAB2
 70
     6
  9
$SURFTYPE
 70
     6
  9
$SURFU
 70
     6
  9
$SURFV
 70
     6
  9
$UCSBASE
  2

  9
$UCSNAME
  2

  9
$UCSORG
 10
0.0
 20
0.0
 30
0.0
  9
$UCSXDIR
 10
1.0
 20
0.0
 30
0.0
  9
$UCSYDIR
 10
0.0
 20
1.0
 30
0.0
  9
$UCSORTHOREF
  2

  9
$UCSORTHOVIEW
 70
     0
  9
$UCSORGTOP
 10
0.0
 20
0.0
 30
0.0
  9
$UCSORGBOTTOM
 10
0.0
 20
0.0
 30
0.0
  9
$UCSORGLEFT
 10
0.0
 20
0.0
 30
0.0
  9
$UCSORGRIGHT
 10
0.0
 20
0.0
 30
0.0
  9
$UCSORGFRONT
 10
0.0
 20
0.0
 30
0.0
  9
$UCSORGBACK
 10
0.0
 20
0.0
 30
0.0
  9
$PUCSBASE
  2

  9
$PUCSNAME
  2

  9
$PUCSORG
 10
0.0
 20
0.0
 30
0.0
  9
$PUCSXDIR
 10
1.0
 20
0.0
 30
0.0
  9
$PUCSYDIR
 10
0.0
 20
1.0
 30
0.0
  9
$PUCSORTHOREF
  2

  9
$PUCSORTHOVIEW
 70
     0
  9
$PUCSORGTOP
 10
0.0
 20
0.0
 30
0.0
  9
$PUCSORGBOTTOM
 10
0.0
 20
0.0
 30
0.0
  9
$PUCSORGLEFT
 10
0.0
 20
0.0
 30
0.0
  9
$PUCSORGRIGHT
 10
0.0
 20
0.0
 30
0.0
  9
$PUCSORGFRONT
 10
0.0
 20
0.0
 30
0.0
  9
$PUCSORGBACK
 10
0.0
 20
0.0
 30
0.0
  9
$USERI1
 70
     0
  9
$USERI2
 70
     0
  9
$USERI3
 70
     0
  9
$USERI4
 70
     0
  9
$USERI5
 70
     0
  9
$USERR1
 40
0.0
  9
$USERR2
 40
0.0
  9
$USERR3
 40
0.0
  9
$USERR4
 40
0.0
  9
$USERR5
 40
0.0
  9
$WORLDVIEW
 70
     1
  9
$SHADEDGE
 70
     3
  9
$SHADEDIF
 70
    70
  9
$TILEMODE
 70
     1
  9
$MAXACTVP
 70
    64
  9
$PINSBASE
 10
0.0
 20
0.0
 30
0.0
  9
$PLIMCHECK
 70
     0
  9
$PEXTMIN
 10
1.000000000000000E+20
 20
1.000000000000000E+20
 30
1.000000000000000E+20
  9
$PEXTMAX
 10
-1.000000000000000E+20
 20
-1.000000000000000E+20
 30
-1.000000000000000E+20
  9
$PLIMMIN
 10
0.0
 20
0.0
  9
$PLIMMAX
 10
420.0
 20
297.0
  9
$UNITMODE
 70
     0
  9
$VISRETAIN
 70
     1
  9
$PLINEGEN
 70
     0
  9
$PSLTSCALE
 70
     1
  9
$TREEDEPTH
 70
  3020
  9
$CMLSTYLE
  2
Standard
  9
$CMLJUST
 70
     0
  9
$CMLSCALE
 40
20.0
  9
$PROXYGRAPHICS
 70
     1
  9
$MEASUREMENT
 70
     1
  9
$CELWEIGHT
370
    -1
  9
$ENDCAPS
280
     0
  9
$JOINSTYLE
280
     0
  9
$LWDISPLAY
290
     0
  9
$INSUNITS
 70
     4
  9
$HYPERLINKBASE
  1

  9
$STYLESHEET
  1

  9
$XEDIT
290
     1
  9
$CEPSNTYPE
380
     0
  9
$PSTYLEMODE
290
     1
  9
$FINGERPRINTGUID
  2
{B93200A0-7819-4135-B1BD-8561711419E7}
  9
$VERSIONGUID
  2
{8047D21F-B6EB-4853-AC26-14BBAAA2EC88}
  9
$EXTNAMES
290
     1
  9
$PSVPSCALE
 40
0.0
  9
$OLESTARTUP
290
     0
  0
ENDSEC
  0
SECTION
  2
CLASSES
  0
CLASS
  1
ACDBDICTIONARYWDFLT
  2
AcDbDictionaryWithDefault
  3
ObjectDBX Classes
 90
        0
280
     0
281
     0
  0
CLASS
  1
VISUALSTYLE
  2
AcDbVisualStyle
  3
ObjectDBX Classes
 90
     4095
280
     0
281
     0
  0
CLASS
  1
MATERIAL
  2
AcDbMaterial
  3
ObjectDBX Classes
 90
     1153
280
     0
281
     0
  0
CLASS
  1
SCALE
  2
AcDbScale
  3
ObjectDBX Classes
 90
     1153
280
     0
281
     0
  0
CLASS
  1
TABLESTYLE
  2
AcDbTableStyle
  3
ObjectDBX Classes
 90
     4095
280
     0
281
     0
  0
CLASS
  1
MLEADERSTYLE
  2
AcDbMLeaderStyle
  3
ACDB_MLEADERSTYLE_CLASS
 90
     4095
280
     0
281
     0
  0
CLASS
  1
SUN
  2
AcDbSun
  3
SCENEOE
 90
    33921
280
     0
281
     0
  0
CLASS
  1
DICTIONARYVAR
  2
AcDbDictionaryVar
  3
ObjectDBX Classes
 90
        0
280
     0
281
     0
  0
CLASS
  1
ACDBSECTIONVIEWSTYLE
  2
AcDbSectionViewStyle
  3
ObjectDBX Classes
 90
     1025
280
     0
281
     0
  0
CLASS
  1
ACDBDETAILVIEWSTYLE
  2
AcDbDetailViewStyle
  3
ObjectDBX Classes
 90
     1025
280
     0
281
     0
  0
CLASS
  1
SORTENTSTABLE
  2
AcDbSortentsTable
  3
ObjectDBX Classes
 90
        0
280
     0
281
     0
  0
CLASS
  1
CELLSTYLEMAP
  2
AcDbCellStyleMap
  3
ObjectDBX Classes
 90
     1152
280
     0
281
     0
  0
CLASS
  1
ACDBPLACEHOLDER
  2
AcDbPlaceHolder
  3
ObjectDBX Classes
 90
        0
280
     0
281
     0
  0
CLASS
  1
LAYOUT
  2
AcDbLayout
  3
ObjectDBX Classes
 90
        0
280
     0
281
     0
  0
ENDSEC
  0
SECTION
  2
TABLES
  0
TABLE
  2
VPORT
  5
8
330
0
100
AcDbSymbolTable
 70
     1
  0
VPORT
  5
29
330
8
100
AcDbSymbolTableRecord
100
AcDbViewportTableRecord
  2
*Active
 70
     0
 10
0.0
 20
0.0
 11
1.0
 21
1.0
 12
1067.495319225984
 22
309.4033140140746
 13
0.0
 23
0.0
 14
10.0
 24
10.0
 15
10.0
 25
10.0
 16
0.0
 26
0.0
 36
1.0
 17
0.0
 27
0.0
 37
0.0
 40
1554.646518949012
 41
2.204301075268817
 42
50.0
 43
0.0
 44
0.0
 50
0.0
 51
0.0
 71
     0
 72
 20000
 73
     1
 74
     3
 75
     0
 76
     0
 77
     0
 78
     0
281
     0
 65
     1
110
0.0
120
0.0
130
0.0
111
1.0
121
0.0
131
0.0
112
0.0
122
1.0
132
0.0
 79
     0
146
0.0
1001
ACAD_NAV_VCDISPLAY
1070
     3
  0
ENDTAB
  0
TABLE
  2
LTYPE
  5
5
330
0
100
AcDbSymbolTable
 70
     2
  0
LTYPE
  5
14
330
5
100
AcDbSymbolTableRecord
100
AcDbLinetypeTableRecord
  2
ByBlock
 70
     0
  3

 72
    65
 73
     0
 40
0.0
  0
LTYPE
  5
15
330
5
100
AcDbSymbolTableRecord
100
AcDbLinetypeTableRecord
  2
ByLayer
 70
     0
  3

 72
    65
 73
     0
 40
0.0
  0
LTYPE
  5
16
330
5
100
AcDbSymbolTableRecord
100
AcDbLinetypeTableRecord
  2
Continuous
 70
     0
  3
Solid line
 72
    65
 73
     0
 40
0.0
  0
LTYPE
  5
356
330
5
100
AcDbSymbolTableRecord
100
AcDbLinetypeTableRecord
  2
CENTER2
 70
     0
  3
Center (.5x) ___ _ ___ _ ___ _ ___ _ ___ _ ___
 72
    65
 73
     4
 40
28.575
 49
19.05
 74
     0
 49
-3.174999999999998
 74
     0
 49
3.174999999999998
 74
     0
 49
-3.174999999999998
 74
     0
  0
ENDTAB
  0
TABLE
  2
LAYER
  5
2
102
{ACAD_XDICTIONARY
360
35C
102
}
330
0
100
AcDbSymbolTable
 70
     4
  0
LAYER
  5
10
102
{ACAD_XDICTIONARY
360
6BE
102
}
330
2
100
AcDbSymbolTableRecord
100
AcDbLayerTableRecord
  2
0
 70
     0
 62
     7
  6
Continuous
370
    -3
390
F
  0
LAYER
  5
66
330
2
100
AcDbSymbolTableRecord
100
AcDbLayerTableRecord
  2
Defpoints
 70
     0
 62
     7
  6
Continuous
290
     0
370
    -3
390
F
  0
LAYER
  5
357
102
{ACAD_XDICTIONARY
360
358
102
}
330
2
100
AcDbSymbolTableRecord
100
AcDbLayerTableRecord
  2
中心線
 70
     0
 62
     3
  6
CENTER2
370
    -3
390
F
  0
LAYER
  5
359
102
{ACAD_XDICTIONARY
360
35A
102
}
330
2
100
AcDbSymbolTableRecord
100
AcDbLayerTableRecord
  2
実線
 70
     0
 62
     7
  6
Continuous
370
    -3
390
F
  0
ENDTAB
  0
TABLE
  2
STYLE
  5
3
330
0
100
AcDbSymbolTable
 70
     1
  0
STYLE
  5
11
330
3
100
AcDbSymbolTableRecord
100
AcDbTextStyleTableRecord
  2
Standard
 70
     0
 40
0.0
 41
1.0
 50
0.0
 71
     0
 42
2.5
  3
txt
  4
extfont2
  0
ENDTAB
  0
TABLE
  2
VIEW
  5
6
330
0
100
AcDbSymbolTable
 70
     0
  0
ENDTAB
  0
TABLE
  2
UCS
  5
7
330
0
100
AcDbSymbolTable
 70
     0
  0
ENDTAB
  0
TABLE
  2
APPID
  5
9
330
0
100
AcDbSymbolTable
 70
     5
  0
APPID
  5
12
330
9
100
AcDbSymbolTableRecord
100
AcDbRegAppTableRecord
  2
ACAD
 70
     0
  0
APPID
  5
346
330
9
100
AcDbSymbolTableRecord
100
AcDbRegAppTableRecord
  2
ACAD_MLEADERVER
 70
     0
  0
APPID
  5
35B
330
9
100
AcDbSymbolTableRecord
100
AcDbRegAppTableRecord
  2
ACAD_NAV_VCDISPLAY
 70
     0
  0
APPID
  5
6A3
330
9
100
AcDbSymbolTableRecord
100
AcDbRegAppTableRecord
  2
ACAD_EXEMPT_FROM_CAD_STANDARDS
 70
     0
  0
APPID
  5
714
330
9
100
AcDbSymbolTableRecord
100
AcDbRegAppTableRecord
  2
ACAD_DSTYLE_DIMRADIAL_EXTENSION
 70
     0
  0
ENDTAB
  0
TABLE
  2
DIMSTYLE
  5
A
330
0
100
AcDbSymbolTable
 70
     1
100
AcDbDimStyleTable
 71
     1
340
27
  0
DIMSTYLE
105
27
330
A
100
AcDbSymbolTableRecord
100
AcDbDimStyleTableRecord
  2
Standard
 70
     0
 41
2.5
 42
0.625
 43
3.75
 44
1.25
 73
     0
 74
     0
 77
     1
140
2.5
141
2.5
143
0.03937007874016
146
0.75
147
0.625
171
     3
172
     1
271
     2
272
     2
274
     3
283
     0
284
     8
340
11
  0
ENDTAB
  0
TABLE
  2
BLOCK_RECORD
  5
1
330
0
100
AcDbSymbolTable
 70
     1
  0
BLOCK_RECORD
  5
1F
102
{ACAD_XDICTIONARY
360
477
102
}
330
1
100
AcDbSymbolTableRecord
100
AcDbBlockTableRecord
  2
*Model_Space
340
22
  0
BLOCK_RECORD
  5
1B
330
1
100
AcDbSymbolTableRecord
100
AcDbBlockTableRecord
  2
*Paper_Space
340
1E
  0
BLOCK_RECORD
  5
23
330
1
100
AcDbSymbolTableRecord
100
AcDbBlockTableRecord
  2
*Paper_Space0
340
350
  0
ENDTAB
  0
ENDSEC
  0
SECTION
  2
BLOCKS
  0
BLOCK
  5
20
330
1F
100
AcDbEntity
  8
0
100
AcDbBlockBegin
  2
*Model_Space
 70
     0
 10
0.0
 20
0.0
 30
0.0
  3
*Model_Space
  1

  0
ENDBLK
  5
21
330
1F
100
AcDbEntity
  8
0
100
AcDbBlockEnd
  0
BLOCK
  5
1C
330
1B
100
AcDbEntity
 67
     1
  8
0
100
AcDbBlockBegin
  2
*Paper_Space
 70
     0
 10
0.0
 20
0.0
 30
0.0
  3
*Paper_Space
  1

  0
ENDBLK
  5
1D
330
1B
100
AcDbEntity
 67
     1
  8
0
100
AcDbBlockEnd
  0
BLOCK
  5
24
330
23
100
AcDbEntity
 67
     1
  8
0
100
AcDbBlockBegin
  2
*Paper_Space0
 70
     0
 10
0.0
 20
0.0
 30
0.0
  3
*Paper_Space0
  1

  0
ENDBLK
  5
25
330
23
100
AcDbEntity
 67
     1
  8
0
100
AcDbBlockEnd
  0
ENDSEC
  0
SECTION
  2
ENTITIES
  0
LINE
  5
418
102
{ACAD_REACTORS
330
763
102
}
330
1F
100
AcDbEntity
  8
中心線
100
AcDbLine
 10
848.5695299986264
 20
308.6644479664333
 30
0.0
 11
848.5695299986264
 21
968.6644479664332
 31
0.0
  0
LINE
  5
419
102
{ACAD_REACTORS
330
763
102
}
330
1F
100
AcDbEntity
  8
中心線
100
AcDbLine
 10
793.5695299986273
 20
667.2644479664334
 30
0.0
 11
903.5695299986272
 21
667.2644479664334
 31
0.0
  0
LINE
  5
41A
102
{ACAD_REACTORS
330
70F
102
}
330
1F
100
AcDbEntity
  8
実線
100
AcDbLine
 10
443.5228488043842
 20
166.4482141504822
 30
0.0
 11
445.6441691479441
 21
168.569534494042
 31
0.0
  0
LINE
  5
41B
102
{ACAD_REACTORS
330
70F
102
}
330
1F
100
AcDbEntity
  8
実線
100
AcDbLine
 10
438.5731013360786
 20
175.6406023059073
 30
0.0
 11
436.4517809925188
 21
173.5192819623478
 31
0.0
  0
LINE
  5
41C
102
{ACAD_REACTORS
330
70F
102
}
330
1F
100
AcDbEntity
  8
実線
100
AcDbLine
 10
445.6441691479441
 20
168.569534494042
 30
0.0
 11
438.5731013360786
 21
175.6406023059073
 31
0.0
  0
LINE
  5
41D
102
{ACAD_REACTORS
330
70F
102
}
330
1F
100
AcDbEntity
  8
実線
100
AcDbLine
 10
436.4517809925188
 20
173.5192819623478
 30
0.0
 11
443.5228488043842
 21
166.4482141504822
 31
0.0
  0
LINE
  5
41E
102
{ACAD_REACTORS
330
70F
102
}
330
1F
100
AcDbEntity
  8
実線
100
AcDbLine
 10
432.2091403051319
 20
157.962932776546
 30
0.0
 11
442.1086352417261
 21
167.8624277131404
 31
0.0
  0
LINE
  5
41F
102
{ACAD_REACTORS
330
70F
102
}
330
1F
100
AcDbEntity
  8
実線
100
AcDbLine
 10
437.865994555177
 20
172.1050683996898
 30
0.0
 11
427.9664996185827
 21
162.2055734630954
 31
0.0
  0
LINE
  5
420
102
{ACAD_REACTORS
330
70F
102
}
330
1F
100
AcDbEntity
  8
実線
100
AcDbLine
 10
409.0878199618573
 20
181.0842531198206
 30
0.0
 11
451.0878199618573
 21
139.0842531198207
 31
0.0
  0
LINE
  5
421
102
{ACAD_REACTORS
330
70F
102
}
330
1F
100
AcDbEntity
  8
実線
100
AcDbLine
 10
380.4499953238022
 20
152.4464284817656
 30
0.0
 11
409.0878199618573
 21
181.0842531198206
 31
0.0
  0
LINE
  5
422
102
{ACAD_REACTORS
330
70F
102
}
330
1F
100
AcDbEntity
  8
実線
100
AcDbLine
 10
409.228622900707
 20
123.6678009048607
 30
0.0
 11
415.2804606489765
 21
117.6159631565911
 31
0.0
  0
LINE
  5
423
102
{ACAD_REACTORS
330
70F
102
}
330
1F
100
AcDbEntity
  8
実線
100
AcDbLine
 10
451.0878199618573
 20
139.0842531198207
 30
0.0
 11
429.6195299986276
 21
117.6159631565911
 31
0.0
  0
LINE
  5
424
102
{ACAD_REACTORS
330
70F
102
}
330
1F
100
AcDbEntity
  8
実線
100
AcDbLine
 10
412.0565970416003
 20
142.0530301995638
 30
0.0
 11
430.0878199618573
 21
160.0842531198205
 31
0.0
  0
LINE
  5
425
102
{ACAD_REACTORS
330
70F
102
}
330
1F
100
AcDbEntity
  8
実線
100
AcDbLine
 10
303.6695299986278
 20
79.51596315659111
 30
0.0
 11
325.0569168847269
 21
79.51596315659111
 31
0.0
  0
LINE
  5
426
102
{ACAD_REACTORS
330
70F
102
}
330
1F
100
AcDbEntity
  8
実線
100
AcDbLine
 10
325.0569168847269
 20
117.6159631565911
 30
0.0
 11
303.6695299986278
 21
117.6159631565911
 31
0.0
  0
LINE
  5
427
102
{ACAD_REACTORS
330
70F
102
}
330
1F
100
AcDbEntity
  8
実線
100
AcDbLine
 10
303.6695299986278
 20
117.6159631565911
 30
0.0
 11
301.3195299986278
 21
123.8159631565911
 31
0.0
  0
LINE
  5
428
102
{ACAD_REACTORS
330
70F
102
}
330
1F
100
AcDbEntity
  8
実線
100
AcDbLine
 10
301.3195299986278
 20
73.31596315659112
 30
0.0
 11
303.6695299986278
 21
79.51596315659111
 31
0.0
  0
LINE
  5
429
102
{ACAD_REACTORS
330
70F
102
}
330
1F
100
AcDbEntity
  8
実線
100
AcDbLine
 10
303.6695299986278
 20
117.6159631565911
 30
0.0
 11
303.6695299986278
 21
79.51596315659111
 31
0.0
  0
LINE
  5
42A
102
{ACAD_REACTORS
330
70F
102
}
330
1F
100
AcDbEntity
  8
実線
100
AcDbLine
 10
298.5695299986275
 20
73.31596315659112
 30
0.0
 11
301.3195299986278
 21
73.31596315659112
 31
0.0
  0
LINE
  5
42B
102
{ACAD_REACTORS
330
70F
102
}
330
1F
100
AcDbEntity
  8
実線
100
AcDbLine
 10
301.3195299986278
 20
123.8159631565911
 30
0.0
 11
298.5695299986275
 21
123.8159631565911
 31
0.0
  0
LINE
  5
42C
102
{ACAD_REACTORS
330
70F
102
}
330
1F
100
AcDbEntity
  8
実線
100
AcDbLine
 10
298.5695299986275
 20
123.8159631565911
 30
0.0
 11
298.5695299986275
 21
73.31596315659112
 31
0.0
  0
LINE
  5
42D
102
{ACAD_REACTORS
330
70F
102
}
330
1F
100
AcDbEntity
  8
実線
100
AcDbLine
 10
301.3195299986278
 20
123.8159631565911
 30
0.0
 11
301.3195299986278
 21
73.31596315659112
 31
0.0
  0
LINE
  5
42E
102
{ACAD_REACTORS
330
70F
102
}
330
1F
100
AcDbEntity
  8
実線
100
AcDbLine
 10
433.4695299986274
 20
117.6159631565911
 30
0.0
 11
412.0821431125281
 21
117.6159631565911
 31
0.0
  0
LINE
  5
42F
102
{ACAD_REACTORS
330
70F
102
}
330
1F
100
AcDbEntity
  8
実線
100
AcDbLine
 10
412.0821431125281
 20
79.51596315659111
 30
0.0
 11
433.4695299986274
 21
79.51596315659111
 31
0.0
  0
LINE
  5
430
102
{ACAD_REACTORS
330
70F
102
}
330
1F
100
AcDbEntity
  8
実線
100
AcDbLine
 10
433.4695299986274
 20
79.51596315659111
 30
0.0
 11
435.8195299986273
 21
73.31596315659112
 31
0.0
  0
LINE
  5
431
102
{ACAD_REACTORS
330
70F
102
}
330
1F
100
AcDbEntity
  8
実線
100
AcDbLine
 10
435.8195299986273
 20
123.8159631565911
 30
0.0
 11
433.4695299986274
 21
117.6159631565911
 31
0.0
  0
LINE
  5
432
102
{ACAD_REACTORS
330
70F
102
}
330
1F
100
AcDbEntity
  8
実線
100
AcDbLine
 10
433.4695299986274
 20
79.51596315659111
 30
0.0
 11
433.4695299986274
 21
117.6159631565911
 31
0.0
  0
LINE
  5
433
102
{ACAD_REACTORS
330
70F
102
}
330
1F
100
AcDbEntity
  8
実線
100
AcDbLine
 10
438.5695299986273
 20
123.8159631565911
 30
0.0
 11
435.8195299986273
 21
123.8159631565911
 31
0.0
  0
LINE
  5
434
102
{ACAD_REACTORS
330
70F
102
}
330
1F
100
AcDbEntity
  8
実線
100
AcDbLine
 10
435.8195299986273
 20
73.31596315659112
 30
0.0
 11
438.5695299986273
 21
73.31596315659112
 31
0.0
  0
LINE
  5
435
102
{ACAD_REACTORS
330
70F
102
}
330
1F
100
AcDbEntity
  8
実線
100
AcDbLine
 10
438.5695299986273
 20
73.31596315659112
 30
0.0
 11
438.5695299986273
 21
123.8159631565911
 31
0.0
  0
LINE
  5
436
102
{ACAD_REACTORS
330
70F
102
}
330
1F
100
AcDbEntity
  8
実線
100
AcDbLine
 10
435.8195299986273
 20
73.31596315659112
 30
0.0
 11
435.8195299986273
 21
123.8159631565911
 31
0.0
  0
LINE
  5
437
102
{ACAD_REACTORS
330
70F
102
}
330
1F
100
AcDbEntity
  8
実線
100
AcDbLine
 10
349.5195299986277
 20
163.4659631565911
 30
0.0
 11
349.5195299986277
 21
142.0785762704919
 31
0.0
  0
LINE
  5
438
102
{ACAD_REACTORS
330
70F
102
}
330
1F
100
AcDbEntity
  8
実線
100
AcDbLine
 10
387.6195299986276
 20
159.615963156591
 30
0.0
 11
387.6195299986276
 21
163.4659631565911
 31
0.0
  0
LINE
  5
439
102
{ACAD_REACTORS
330
70F
102
}
330
1F
100
AcDbEntity
  8
実線
100
AcDbLine
 10
343.3195299986278
 20
168.5659631565911
 30
0.0
 11
343.3195299986278
 21
165.8159631565911
 31
0.0
  0
LINE
  5
43A
102
{ACAD_REACTORS
330
70F
102
}
330
1F
100
AcDbEntity
  8
実線
100
AcDbLine
 10
393.8195299986277
 20
165.8159631565911
 30
0.0
 11
393.8195299986277
 21
168.5659631565911
 31
0.0
  0
LINE
  5
43B
102
{ACAD_REACTORS
330
70F
102
}
330
1F
100
AcDbEntity
  8
実線
100
AcDbLine
 10
343.3195299986278
 20
168.5659631565911
 30
0.0
 11
393.8195299986277
 21
168.5659631565911
 31
0.0
  0
LINE
  5
43C
102
{ACAD_REACTORS
330
70F
102
}
330
1F
100
AcDbEntity
  8
実線
100
AcDbLine
 10
387.6195299986276
 20
163.4659631565911
 30
0.0
 11
393.8195299986277
 21
165.8159631565911
 31
0.0
  0
LINE
  5
43D
102
{ACAD_REACTORS
330
70F
102
}
330
1F
100
AcDbEntity
  8
実線
100
AcDbLine
 10
343.3195299986278
 20
165.8159631565911
 30
0.0
 11
349.5195299986277
 21
163.4659631565911
 31
0.0
  0
LINE
  5
43E
102
{ACAD_REACTORS
330
70F
102
}
330
1F
100
AcDbEntity
  8
実線
100
AcDbLine
 10
393.8195299986277
 20
165.8159631565911
 30
0.0
 11
343.3195299986278
 21
165.8159631565911
 31
0.0
  0
LINE
  5
43F
102
{ACAD_REACTORS
330
70F
102
}
330
1F
100
AcDbEntity
  8
実線
100
AcDbLine
 10
387.6195299986276
 20
163.4659631565911
 30
0.0
 11
349.5195299986277
 21
163.4659631565911
 31
0.0
  0
LINE
  5
440
102
{ACAD_REACTORS
330
70F
102
}
330
1F
100
AcDbEntity
  8
実線
100
AcDbLine
 10
387.6195299986276
 20
33.66596315659109
 30
0.0
 11
387.6195299986276
 21
55.05335004269038
 31
0.0
  0
LINE
  5
441
102
{ACAD_REACTORS
330
70F
102
}
330
1F
100
AcDbEntity
  8
実線
100
AcDbLine
 10
349.5195299986277
 20
49.02660538149593
 30
0.0
 11
349.5195299986277
 21
33.66596315659109
 31
0.0
  0
LINE
  5
442
102
{ACAD_REACTORS
330
70F
102
}
330
1F
100
AcDbEntity
  8
実線
100
AcDbLine
 10
393.8195299986277
 20
28.56596315659113
 30
0.0
 11
393.8195299986277
 21
31.31596315659113
 31
0.0
  0
LINE
  5
443
102
{ACAD_REACTORS
330
70F
102
}
330
1F
100
AcDbEntity
  8
実線
100
AcDbLine
 10
343.3195299986278
 20
31.31596315659113
 30
0.0
 11
343.3195299986278
 21
28.56596315659113
 31
0.0
  0
LINE
  5
444
102
{ACAD_REACTORS
330
70F
102
}
330
1F
100
AcDbEntity
  8
実線
100
AcDbLine
 10
393.8195299986277
 20
28.56596315659113
 30
0.0
 11
343.3195299986278
 21
28.56596315659113
 31
0.0
  0
LINE
  5
445
102
{ACAD_REACTORS
330
70F
102
}
330
1F
100
AcDbEntity
  8
実線
100
AcDbLine
 10
349.5195299986277
 20
33.66596315659109
 30
0.0
 11
343.3195299986278
 21
31.31596315659113
 31
0.0
  0
LINE
  5
446
102
{ACAD_REACTORS
330
70F
102
}
330
1F
100
AcDbEntity
  8
実線
100
AcDbLine
 10
393.8195299986277
 20
31.31596315659113
 30
0.0
 11
387.6195299986276
 21
33.66596315659109
 31
0.0
  0
LINE
  5
447
102
{ACAD_REACTORS
330
70F
102
}
330
1F
100
AcDbEntity
  8
実線
100
AcDbLine
 10
343.3195299986278
 20
31.31596315659113
 30
0.0
 11
393.8195299986277
 21
31.31596315659113
 31
0.0
  0
LINE
  5
448
102
{ACAD_REACTORS
330
70F
102
}
330
1F
100
AcDbEntity
  8
実線
100
AcDbLine
 10
349.5195299986277
 20
33.66596315659109
 30
0.0
 11
387.6195299986276
 21
33.66596315659109
 31
0.0
  0
LINE
  5
449
102
{ACAD_REACTORS
330
70F
102
}
330
1F
100
AcDbEntity
  8
実線
100
AcDbLine
 10
320.2387815045272
 20
131.5524944989436
 30
0.0
 11
327.4128568235894
 21
124.3784191798812
 31
0.0
  0
LINE
  5
44A
102
{ACAD_REACTORS
330
70F
102
}
330
1F
100
AcDbEntity
  8
実線
100
AcDbLine
 10
342.7570739753376
 20
139.7226363316292
 30
0.0
 11
335.5829986562751
 21
146.8967116506916
 31
0.0
  0
LINE
  5
44B
102
{ACAD_REACTORS
330
70F
102
}
330
1F
100
AcDbEntity
  8
実線
100
AcDbLine
 10
312.7080942848903
 20
130.3857683099858
 30
0.0
 11
314.2283738644417
 21
128.8654887304345
 31
0.0
  0
LINE
  5
44C
102
{ACAD_REACTORS
330
70F
102
}
330
1F
100
AcDbEntity
  8
実線
100
AcDbLine
 10
338.270004424784
 20
152.9071192907774
 30
0.0
 11
336.7497248452329
 21
154.4273988703283
 31
0.0
  0
LINE
  5
44D
102
{ACAD_REACTORS
330
70F
102
}
330
1F
100
AcDbEntity
  8
実線
100
AcDbLine
 10
336.7497248452329
 20
154.4273988703283
 30
0.0
 11
312.7080942848903
 21
130.3857683099858
 31
0.0
  0
LINE
  5
44E
102
{ACAD_REACTORS
330
70F
102
}
330
1F
100
AcDbEntity
  8
実線
100
AcDbLine
 10
335.5829986562751
 20
146.8967116506916
 30
0.0
 11
338.270004424784
 21
152.9071192907774
 31
0.0
  0
LINE
  5
44F
102
{ACAD_REACTORS
330
70F
102
}
330
1F
100
AcDbEntity
  8
実線
100
AcDbLine
 10
314.2283738644417
 20
128.8654887304345
 30
0.0
 11
320.2387815045272
 21
131.5524944989436
 31
0.0
  0
LINE
  5
450
102
{ACAD_REACTORS
330
70F
102
}
330
1F
100
AcDbEntity
  8
実線
100
AcDbLine
 10
321.6670822563128
 20
136.3041971223061
 30
0.0
 11
314.2283738644417
 21
128.8654887304345
 31
0.0
  0
LINE
  5
451
102
{ACAD_REACTORS
330
70F
102
}
330
1F
100
AcDbEntity
  8
実線
100
AcDbLine
 10
338.270004424784
 20
152.9071192907774
 30
0.0
 11
330.831296032913
 21
145.4684108989061
 31
0.0
  0
LINE
  5
452
102
{ACAD_REACTORS
330
70F
102
}
330
1F
100
AcDbEntity
  8
実線
100
AcDbLine
 10
321.8574154086029
 20
133.1711284030195
 30
0.0
 11
320.2387815045272
 21
131.5524944989436
 31
0.0
  0
LINE
  5
453
102
{ACAD_REACTORS
330
70F
102
}
330
1F
100
AcDbEntity
  8
実線
100
AcDbLine
 10
335.5829986562751
 20
146.8967116506916
 30
0.0
 11
333.9643647521995
 21
145.2780777466156
 31
0.0
  0
CIRCLE
  5
454
102
{ACAD_REACTORS
330
70F
102
}
330
1F
100
AcDbEntity
  8
実線
100
AcDbCircle
 10
368.5695299986277
 20
98.56596315659112
 30
0.0
 40
10.0
  0
ARC
  5
455
102
{ACAD_REACTORS
330
70F
102
}
330
1F
100
AcDbEntity
  8
実線
100
AcDbCircle
 10
329.5923602297437
 20
61.91858621351912
 30
0.0
 40
7.999999999999995
100
AcDbArc
 50
145.0000000000026
 51
223.235426257111
  0
ARC
  5
456
102
{ACAD_REACTORS
330
70F
102
}
330
1F
100
AcDbEntity
  8
実線
100
AcDbCircle
 10
368.5695299986273
 20
98.56596315659135
 30
0.0
 40
61.50000000000009
100
AcDbArc
 50
223.235426257111
 51
226.764573742889
  0
ARC
  5
457
102
{ACAD_REACTORS
330
70F
102
}
330
1F
100
AcDbEntity
  8
実線
100
AcDbCircle
 10
331.9221530555554
 20
59.58879338770725
 30
0.0
 40
8.000000000000008
100
AcDbArc
 50
226.764573742889
 51
304.9999999999974
  0
LINE
  5
458
102
{ACAD_REACTORS
330
70F
102
}
330
1F
100
AcDbEntity
  8
実線
100
AcDbLine
 10
336.5107645463639
 20
53.0355770333954
 30
0.0
 11
343.7207132635607
 21
58.08403747528172
 31
0.0
  0
LINE
  5
459
102
{ACAD_REACTORS
330
70F
102
}
330
1F
100
AcDbEntity
  8
実線
100
AcDbLine
 10
328.0876043173184
 20
73.71714642152409
 30
0.0
 11
323.0391438754316
 21
66.50719770432754
 31
0.0
  0
LINE
  5
45A
102
{ACAD_REACTORS
330
70F
102
}
330
1F
100
AcDbEntity
  8
実線
100
AcDbLine
 10
393.4183467336946
 20
58.08403747528172
 30
0.0
 11
400.6282954508915
 21
53.0355770333954
 31
0.0
  0
ARC
  5
45B
102
{ACAD_REACTORS
330
70F
102
}
330
1F
100
AcDbEntity
  8
実線
100
AcDbCircle
 10
368.5695299986266
 20
98.56596315659194
 30
0.0
 40
61.50000000000114
100
AcDbArc
 50
313.235426257111
 51
316.764573742889
  0
ARC
  5
45C
102
{ACAD_REACTORS
330
70F
102
}
330
1F
100
AcDbEntity
  8
実線
100
AcDbCircle
 10
407.5466997675111
 20
61.91858621351912
 30
0.0
 40
8.000000000000008
100
AcDbArc
 50
316.764573742889
 51
34.99999999999737
  0
ARC
  5
45D
102
{ACAD_REACTORS
330
70F
102
}
330
1F
100
AcDbEntity
  8
実線
100
AcDbCircle
 10
405.2169069416994
 20
59.58879338770725
 30
0.0
 40
8.000000000000008
100
AcDbArc
 50
235.0000000000026
 51
313.235426257111
  0
LINE
  5
45E
102
{ACAD_REACTORS
330
70F
102
}
330
1F
100
AcDbEntity
  8
実線
100
AcDbLine
 10
414.0999161218235
 20
66.50719770432754
 30
0.0
 11
409.0514556799369
 21
73.71714642152404
 31
0.0
  0
ARC
  5
45F
102
{ACAD_REACTORS
330
70F
102
}
330
1F
100
AcDbEntity
  8
実線
100
AcDbCircle
 10
329.5923602297437
 20
135.2133400996631
 30
0.0
 40
8.000000000000023
100
AcDbArc
 50
136.7645737428866
 51
214.9999999999974
  0
LINE
  5
460
102
{ACAD_REACTORS
330
70F
102
}
330
1F
100
AcDbEntity
  8
実線
100
AcDbLine
 10
343.7207132635607
 20
139.0478888379004
 30
0.0
 11
336.5107645463639
 21
144.0963492797868
 31
0.0
  0
ARC
  5
461
102
{ACAD_REACTORS
330
70F
102
}
330
1F
100
AcDbEntity
  8
実線
100
AcDbCircle
 10
331.9221530555554
 20
137.543132925475
 30
0.0
 40
7.999999999999986
100
AcDbArc
 50
55.00000000000264
 51
133.235426257111
  0
ARC
  5
462
102
{ACAD_REACTORS
330
70F
102
}
330
1F
100
AcDbEntity
  8
実線
100
AcDbCircle
 10
368.5695299986266
 20
98.56596315659194
 30
0.0
 40
61.49999999999885
100
AcDbArc
 50
133.235426257111
 51
136.764573742889
  0
LINE
  5
463
102
{ACAD_REACTORS
330
70F
102
}
330
1F
100
AcDbEntity
  8
実線
100
AcDbLine
 10
323.0391438754316
 20
130.6247286088547
 30
0.0
 11
328.0876043173184
 21
123.4147798916582
 31
0.0
  0
LINE
  5
464
102
{ACAD_REACTORS
330
70F
102
}
330
1F
100
AcDbEntity
  8
実線
100
AcDbLine
 10
400.6282954508915
 20
144.0963492797868
 30
0.0
 11
393.4183467336946
 21
139.0478888379004
 31
0.0
  0
ARC
  5
465
102
{ACAD_REACTORS
330
70F
102
}
330
1F
100
AcDbEntity
  8
実線
100
AcDbCircle
 10
405.2169069416994
 20
137.543132925475
 30
0.0
 40
8.000000000000021
100
AcDbArc
 50
46.764573742889
 51
124.9999999999974
  0
LINE
  5
466
102
{ACAD_REACTORS
330
70F
102
}
330
1F
100
AcDbEntity
  8
実線
100
AcDbLine
 10
409.0514556799369
 20
123.4147798916582
 30
0.0
 11
414.0999161218235
 21
130.6247286088547
 31
0.0
  0
ARC
  5
467
102
{ACAD_REACTORS
330
70F
102
}
330
1F
100
AcDbEntity
  8
実線
100
AcDbCircle
 10
407.5466997675111
 20
135.2133400996631
 30
0.0
 40
7.999999999999996
100
AcDbArc
 50
325.0000000000026
 51
43.23542625711096
  0
ARC
  5
468
102
{ACAD_REACTORS
330
70F
102
}
330
1F
100
AcDbEntity
  8
実線
100
AcDbCircle
 10
368.5695299986273
 20
98.56596315659125
 30
0.0
 40
61.50000000000008
100
AcDbArc
 50
43.23542625711096
 51
46.764573742889
  0
LINE
  5
469
102
{ACAD_REACTORS
330
70F
102
}
330
1F
100
AcDbEntity
  8
実線
100
AcDbLine
 10
380.4499953238022
 20
152.4464284817656
 30
0.0
 11
393.6713677468972
 21
139.2250560586703
 31
0.0
  0
LINE
  5
46A
102
{ACAD_REACTORS
330
70F
102
}
330
1F
100
AcDbEntity
  8
実線
100
AcDbLine
 10
319.0301722235324
 20
79.51596315659111
 30
0.0
 11
326.7455875417053
 21
71.80054783841824
 31
0.0
  0
LINE
  5
46B
102
{ACAD_REACTORS
330
70F
102
}
330
1F
100
AcDbEntity
  8
実線
100
AcDbLine
 10
380.4499953238022
 20
152.4464284817656
 30
0.0
 11
373.7825992580639
 21
145.7790324160274
 31
0.0
  0
LINE
  5
46C
102
{ACAD_REACTORS
330
70F
102
}
330
1F
100
AcDbEntity
  8
実線
100
AcDbLine
 10
355.2748511110801
 20
43.27128426904363
 30
0.0
 11
341.8041146804548
 21
56.74202069966889
 31
0.0
  0
LINE
  5
46D
102
{ACAD_REACTORS
330
70F
102
}
330
1F
100
AcDbEntity
  8
実線
100
AcDbLine
 10
363.3564607391913
 20
51.35289389715489
 30
0.0
 11
355.2748511110801
 21
43.27128426904363
 31
0.0
  0
LINE
  5
46E
102
{ACAD_REACTORS
330
70F
102
}
330
1F
100
AcDbEntity
  8
実線
100
AcDbLine
 10
409.8110476781283
 20
72.63233662336983
 30
0.0
 11
410.9959368698204
 21
73.81722581506195
 31
0.0
  0
LINE
  5
46F
102
{ACAD_REACTORS
330
70F
102
}
330
1F
100
AcDbEntity
  8
実線
100
AcDbLine
 10
393.3182673401566
 20
56.13955628539827
 30
0.0
 11
394.5031565318489
 21
57.32444547709043
 31
0.0
  0
LINE
  5
470
102
{ACAD_REACTORS
330
70F
102
}
330
1F
100
AcDbEntity
  8
実線
100
AcDbLine
 10
327.9104370965483
 20
123.6678009048607
 30
0.0
 11
326.8502299086214
 21
122.6075937169337
 31
0.0
  0
LINE
  5
471
102
{ACAD_REACTORS
330
70F
102
}
330
1F
100
AcDbEntity
  8
実線
100
AcDbLine
 10
344.527899438285
 20
140.2852632465974
 30
0.0
 11
343.467692250358
 21
139.2250560586703
 31
0.0
  0
LINE
  5
472
102
{ACAD_REACTORS
330
70F
102
}
330
1F
100
AcDbEntity
  8
実線
100
AcDbLine
 10
345.0046612714202
 20
139.808501413462
 30
0.0
 11
344.527899438285
 21
140.2852632465974
 31
0.0
  0
LINE
  5
473
102
{ACAD_REACTORS
330
70F
102
}
330
1F
100
AcDbEntity
  8
実線
100
AcDbLine
 10
410.9959368698204
 20
73.81722581506195
 30
0.0
 11
409.8120682554988
 21
75.00109442938361
 31
0.0
  0
LINE
  5
474
102
{ACAD_REACTORS
330
70F
102
}
330
1F
100
AcDbEntity
  8
実線
100
AcDbLine
 10
392.134398725835
 20
57.3234248997199
 30
0.0
 11
393.3182673401566
 21
56.13955628539827
 31
0.0
  0
LINE
  5
475
102
{ACAD_REACTORS
330
70F
102
}
330
1F
100
AcDbEntity
  8
実線
100
AcDbLine
 10
326.8502299086214
 20
122.6075937169337
 30
0.0
 11
327.3269917417564
 21
122.1308318837986
 31
0.0
  0
CIRCLE
  5
476
102
{ACAD_REACTORS
330
70F
102
}
330
1F
100
AcDbEntity
  8
実線
100
AcDbCircle
 10
368.5695299986277
 20
98.56596315659112
 30
0.0
 40
47.5
  0
CIRCLE
  5
479
102
{ACAD_REACTORS
330
70D
102
}
330
1F
100
AcDbEntity
  8
実線
100
AcDbCircle
 10
368.5695299986266
 20
1178.565963156591
 30
0.0
 40
10.0
  0
LINE
  5
47A
102
{ACAD_REACTORS
330
70D
102
}
330
1F
100
AcDbEntity
  8
実線
100
AcDbLine
 10
443.5228488043842
 20
1110.6837121627
 30
0.0
 11
436.4517809925188
 21
1103.612644350835
 31
0.0
  0
LINE
  5
47B
102
{ACAD_REACTORS
330
70D
102
}
330
1F
100
AcDbEntity
  8
実線
100
AcDbLine
 10
438.5731013360786
 20
1101.491324007275
 30
0.0
 11
445.6441691479441
 21
1108.56239181914
 31
0.0
  0
LINE
  5
47C
102
{ACAD_REACTORS
330
70D
102
}
330
1F
100
AcDbEntity
  8
実線
100
AcDbLine
 10
436.4517809925188
 20
1103.612644350835
 30
0.0
 11
438.5731013360786
 21
1101.491324007275
 31
0.0
  0
LINE
  5
47D
102
{ACAD_REACTORS
330
70D
102
}
330
1F
100
AcDbEntity
  8
実線
100
AcDbLine
 10
445.6441691479441
 20
1108.56239181914
 30
0.0
 11
443.5228488043842
 21
1110.6837121627
 31
0.0
  0
LINE
  5
47E
102
{ACAD_REACTORS
330
70D
102
}
330
1F
100
AcDbEntity
  8
実線
100
AcDbLine
 10
427.9664996185827
 20
1114.926352850087
 30
0.0
 11
437.865994555177
 21
1105.026857913492
 31
0.0
  0
LINE
  5
47F
102
{ACAD_REACTORS
330
70D
102
}
330
1F
100
AcDbEntity
  8
実線
100
AcDbLine
 10
442.1086352417261
 20
1109.269498600041
 30
0.0
 11
432.2091403051319
 21
1119.168993536636
 31
0.0
  0
LINE
  5
480
102
{ACAD_REACTORS
330
70D
102
}
330
1F
100
AcDbEntity
  8
実線
100
AcDbLine
 10
451.0878199618573
 20
1138.04767319336
 30
0.0
 11
409.0878199618573
 21
1096.047673193361
 31
0.0
  0
LINE
  5
481
102
{ACAD_REACTORS
330
70D
102
}
330
1F
100
AcDbEntity
  8
実線
100
AcDbLine
 10
422.4499953238021
 20
1166.685497831417
 30
0.0
 11
451.0878199618573
 21
1138.04767319336
 31
0.0
  0
LINE
  5
482
102
{ACAD_REACTORS
330
70D
102
}
330
1F
100
AcDbEntity
  8
実線
100
AcDbLine
 10
409.0878199618573
 20
1096.047673193361
 30
0.0
 11
387.6195299986276
 21
1117.51596315659
 31
0.0
  0
LINE
  5
483
102
{ACAD_REACTORS
330
70D
102
}
330
1F
100
AcDbEntity
  8
実線
100
AcDbLine
 10
412.0565970415993
 20
1135.078896113618
 30
0.0
 11
430.0878199618573
 21
1117.047673193361
 31
0.0
  0
LINE
  5
484
102
{ACAD_REACTORS
330
70D
102
}
330
1F
100
AcDbEntity
  8
実線
100
AcDbLine
 10
303.6695299986278
 20
1159.515963156591
 30
0.0
 11
325.0569168847264
 21
1159.515963156591
 31
0.0
  0
LINE
  5
485
102
{ACAD_REACTORS
330
70D
102
}
330
1F
100
AcDbEntity
  8
実線
100
AcDbLine
 10
319.0301722235324
 20
1197.61596315659
 30
0.0
 11
303.6695299986278
 21
1197.61596315659
 31
0.0
  0
LINE
  5
486
102
{ACAD_REACTORS
330
70D
102
}
330
1F
100
AcDbEntity
  8
実線
100
AcDbLine
 10
303.6695299986278
 20
1159.515963156591
 30
0.0
 11
303.6695299986278
 21
1197.61596315659
 31
0.0
  0
LINE
  5
487
102
{ACAD_REACTORS
330
70D
102
}
330
1F
100
AcDbEntity
  8
実線
100
AcDbLine
 10
303.6695299986278
 20
1197.61596315659
 30
0.0
 11
301.3195299986278
 21
1203.815963156591
 31
0.0
  0
LINE
  5
488
102
{ACAD_REACTORS
330
70D
102
}
330
1F
100
AcDbEntity
  8
実線
100
AcDbLine
 10
301.3195299986278
 20
1153.315963156591
 30
0.0
 11
303.6695299986278
 21
1159.515963156591
 31
0.0
  0
LINE
  5
489
102
{ACAD_REACTORS
330
70D
102
}
330
1F
100
AcDbEntity
  8
実線
100
AcDbLine
 10
298.5695299986275
 20
1153.315963156591
 30
0.0
 11
298.5695299986275
 21
1203.815963156591
 31
0.0
  0
LINE
  5
48A
102
{ACAD_REACTORS
330
70D
102
}
330
1F
100
AcDbEntity
  8
実線
100
AcDbLine
 10
301.3195299986278
 20
1153.315963156591
 30
0.0
 11
301.3195299986278
 21
1203.815963156591
 31
0.0
  0
LINE
  5
48B
102
{ACAD_REACTORS
330
70D
102
}
330
1F
100
AcDbEntity
  8
実線
100
AcDbLine
 10
298.5695299986275
 20
1153.315963156591
 30
0.0
 11
301.3195299986278
 21
1153.315963156591
 31
0.0
  0
LINE
  5
48C
102
{ACAD_REACTORS
330
70D
102
}
330
1F
100
AcDbEntity
  8
実線
100
AcDbLine
 10
301.3195299986278
 20
1203.815963156591
 30
0.0
 11
298.5695299986275
 21
1203.815963156591
 31
0.0
  0
LINE
  5
48D
102
{ACAD_REACTORS
330
70D
102
}
330
1F
100
AcDbEntity
  8
実線
100
AcDbLine
 10
433.4695299986274
 20
1197.61596315659
 30
0.0
 11
412.0821431125277
 21
1197.61596315659
 31
0.0
  0
LINE
  5
48E
102
{ACAD_REACTORS
330
70D
102
}
330
1F
100
AcDbEntity
  8
実線
100
AcDbLine
 10
429.6195299986276
 20
1159.515963156591
 30
0.0
 11
433.4695299986274
 21
1159.515963156591
 31
0.0
  0
LINE
  5
48F
102
{ACAD_REACTORS
330
70D
102
}
330
1F
100
AcDbEntity
  8
実線
100
AcDbLine
 10
438.5695299986273
 20
1203.815963156591
 30
0.0
 11
438.5695299986273
 21
1153.315963156591
 31
0.0
  0
LINE
  5
490
102
{ACAD_REACTORS
330
70D
102
}
330
1F
100
AcDbEntity
  8
実線
100
AcDbLine
 10
438.5695299986273
 20
1203.815963156591
 30
0.0
 11
435.8195299986273
 21
1203.815963156591
 31
0.0
  0
LINE
  5
491
102
{ACAD_REACTORS
330
70D
102
}
330
1F
100
AcDbEntity
  8
実線
100
AcDbLine
 10
435.8195299986273
 20
1153.315963156591
 30
0.0
 11
438.5695299986273
 21
1153.315963156591
 31
0.0
  0
LINE
  5
492
102
{ACAD_REACTORS
330
70D
102
}
330
1F
100
AcDbEntity
  8
実線
100
AcDbLine
 10
435.8195299986273
 20
1203.815963156591
 30
0.0
 11
435.8195299986273
 21
1153.315963156591
 31
0.0
  0
LINE
  5
493
102
{ACAD_REACTORS
330
70D
102
}
330
1F
100
AcDbEntity
  8
実線
100
AcDbLine
 10
433.4695299986274
 20
1197.61596315659
 30
0.0
 11
433.4695299986274
 21
1159.515963156591
 31
0.0
  0
LINE
  5
494
102
{ACAD_REACTORS
330
70D
102
}
330
1F
100
AcDbEntity
  8
実線
100
AcDbLine
 10
433.4695299986274
 20
1159.515963156591
 30
0.0
 11
435.8195299986273
 21
1153.315963156591
 31
0.0
  0
LINE
  5
495
102
{ACAD_REACTORS
330
70D
102
}
330
1F
100
AcDbEntity
  8
実線
100
AcDbLine
 10
435.8195299986273
 20
1203.815963156591
 30
0.0
 11
433.4695299986274
 21
1197.61596315659
 31
0.0
  0
LINE
  5
496
102
{ACAD_REACTORS
330
70D
102
}
330
1F
100
AcDbEntity
  8
実線
100
AcDbLine
 10
387.6195299986276
 20
1113.665963156591
 30
0.0
 11
387.6195299986276
 21
1135.053350042692
 31
0.0
  0
LINE
  5
497
102
{ACAD_REACTORS
330
70D
102
}
330
1F
100
AcDbEntity
  8
実線
100
AcDbLine
 10
349.5195299986277
 20
1135.053350042691
 30
0.0
 11
349.5195299986277
 21
1113.665963156591
 31
0.0
  0
LINE
  5
498
102
{ACAD_REACTORS
330
70D
102
}
330
1F
100
AcDbEntity
  8
実線
100
AcDbLine
 10
393.8195299986277
 20
1108.56596315659
 30
0.0
 11
343.3195299986278
 21
1108.56596315659
 31
0.0
  0
LINE
  5
499
102
{ACAD_REACTORS
330
70D
102
}
330
1F
100
AcDbEntity
  8
実線
100
AcDbLine
 10
393.8195299986277
 20
1108.56596315659
 30
0.0
 11
393.8195299986277
 21
1111.31596315659
 31
0.0
  0
LINE
  5
49A
102
{ACAD_REACTORS
330
70D
102
}
330
1F
100
AcDbEntity
  8
実線
100
AcDbLine
 10
343.3195299986278
 20
1111.31596315659
 30
0.0
 11
343.3195299986278
 21
1108.56596315659
 31
0.0
  0
LINE
  5
49B
102
{ACAD_REACTORS
330
70D
102
}
330
1F
100
AcDbEntity
  8
実線
100
AcDbLine
 10
393.8195299986277
 20
1111.31596315659
 30
0.0
 11
343.3195299986278
 21
1111.31596315659
 31
0.0
  0
LINE
  5
49C
102
{ACAD_REACTORS
330
70D
102
}
330
1F
100
AcDbEntity
  8
実線
100
AcDbLine
 10
387.6195299986276
 20
1113.665963156591
 30
0.0
 11
349.5195299986277
 21
1113.665963156591
 31
0.0
  0
LINE
  5
49D
102
{ACAD_REACTORS
330
70D
102
}
330
1F
100
AcDbEntity
  8
実線
100
AcDbLine
 10
349.5195299986277
 20
1113.665963156591
 30
0.0
 11
343.3195299986278
 21
1111.31596315659
 31
0.0
  0
LINE
  5
49E
102
{ACAD_REACTORS
330
70D
102
}
330
1F
100
AcDbEntity
  8
実線
100
AcDbLine
 10
393.8195299986277
 20
1111.31596315659
 30
0.0
 11
387.6195299986276
 21
1113.665963156591
 31
0.0
  0
LINE
  5
49F
102
{ACAD_REACTORS
330
70D
102
}
330
1F
100
AcDbEntity
  8
実線
100
AcDbLine
 10
349.5195299986277
 20
1243.46596315659
 30
0.0
 11
349.5195299986277
 21
1222.078576270493
 31
0.0
  0
LINE
  5
4A0
102
{ACAD_REACTORS
330
70D
102
}
330
1F
100
AcDbEntity
  8
実線
100
AcDbLine
 10
387.6195299986276
 20
1222.078576270492
 30
0.0
 11
387.6195299986276
 21
1243.46596315659
 31
0.0
  0
LINE
  5
4A1
102
{ACAD_REACTORS
330
70D
102
}
330
1F
100
AcDbEntity
  8
実線
100
AcDbLine
 10
349.5195299986277
 20
1243.46596315659
 30
0.0
 11
387.6195299986276
 21
1243.46596315659
 31
0.0
  0
LINE
  5
4A2
102
{ACAD_REACTORS
330
70D
102
}
330
1F
100
AcDbEntity
  8
実線
100
AcDbLine
 10
387.6195299986276
 20
1243.46596315659
 30
0.0
 11
393.8195299986277
 21
1245.815963156591
 31
0.0
  0
LINE
  5
4A3
102
{ACAD_REACTORS
330
70D
102
}
330
1F
100
AcDbEntity
  8
実線
100
AcDbLine
 10
343.3195299986278
 20
1245.815963156591
 30
0.0
 11
349.5195299986277
 21
1243.46596315659
 31
0.0
  0
LINE
  5
4A4
102
{ACAD_REACTORS
330
70D
102
}
330
1F
100
AcDbEntity
  8
実線
100
AcDbLine
 10
343.3195299986278
 20
1248.565963156591
 30
0.0
 11
393.8195299986277
 21
1248.565963156591
 31
0.0
  0
LINE
  5
4A5
102
{ACAD_REACTORS
330
70D
102
}
330
1F
100
AcDbEntity
  8
実線
100
AcDbLine
 10
343.3195299986278
 20
1245.815963156591
 30
0.0
 11
393.8195299986277
 21
1245.815963156591
 31
0.0
  0
LINE
  5
4A6
102
{ACAD_REACTORS
330
70D
102
}
330
1F
100
AcDbEntity
  8
実線
100
AcDbLine
 10
343.3195299986278
 20
1248.565963156591
 30
0.0
 11
343.3195299986278
 21
1245.815963156591
 31
0.0
  0
LINE
  5
4A7
102
{ACAD_REACTORS
330
70D
102
}
330
1F
100
AcDbEntity
  8
実線
100
AcDbLine
 10
393.8195299986277
 20
1245.815963156591
 30
0.0
 11
393.8195299986277
 21
1248.565963156591
 31
0.0
  0
LINE
  5
4A8
102
{ACAD_REACTORS
330
70D
102
}
330
1F
100
AcDbEntity
  8
実線
100
AcDbLine
 10
335.5829986562751
 20
1130.235214662491
 30
0.0
 11
342.7570739753376
 21
1137.409289981553
 31
0.0
  0
LINE
  5
4A9
102
{ACAD_REACTORS
330
70D
102
}
330
1F
100
AcDbEntity
  8
実線
100
AcDbLine
 10
327.4128568235894
 20
1152.753507133301
 30
0.0
 11
320.2387815045272
 21
1145.579431814238
 31
0.0
  0
LINE
  5
4AA
102
{ACAD_REACTORS
330
70D
102
}
330
1F
100
AcDbEntity
  8
実線
100
AcDbLine
 10
333.9643647521985
 20
1131.853848566566
 30
0.0
 11
335.5829986562751
 21
1130.235214662491
 31
0.0
  0
LINE
  5
4AB
102
{ACAD_REACTORS
330
70D
102
}
330
1F
100
AcDbEntity
  8
実線
100
AcDbLine
 10
320.2387815045272
 20
1145.579431814238
 30
0.0
 11
314.2283738644417
 21
1148.266437582747
 31
0.0
  0
LINE
  5
4AC
102
{ACAD_REACTORS
330
70D
102
}
330
1F
100
AcDbEntity
  8
実線
100
AcDbLine
 10
338.270004424784
 20
1124.224807022404
 30
0.0
 11
335.5829986562751
 21
1130.235214662491
 31
0.0
  0
LINE
  5
4AD
102
{ACAD_REACTORS
330
70D
102
}
330
1F
100
AcDbEntity
  8
実線
100
AcDbLine
 10
320.2387815045272
 20
1145.579431814238
 30
0.0
 11
321.8574154086024
 21
1143.960797910164
 31
0.0
  0
LINE
  5
4AE
102
{ACAD_REACTORS
330
70D
102
}
330
1F
100
AcDbEntity
  8
実線
100
AcDbLine
 10
336.7497248452329
 20
1122.704527442853
 30
0.0
 11
312.7080942848903
 21
1146.746158003197
 31
0.0
  0
LINE
  5
4AF
102
{ACAD_REACTORS
330
70D
102
}
330
1F
100
AcDbEntity
  8
実線
100
AcDbLine
 10
330.8312960329121
 20
1131.663515414277
 30
0.0
 11
338.270004424784
 21
1124.224807022404
 31
0.0
  0
LINE
  5
4B0
102
{ACAD_REACTORS
330
70D
102
}
330
1F
100
AcDbEntity
  8
実線
100
AcDbLine
 10
336.7497248452329
 20
1122.704527442853
 30
0.0
 11
338.270004424784
 21
1124.224807022404
 31
0.0
  0
LINE
  5
4B1
102
{ACAD_REACTORS
330
70D
102
}
330
1F
100
AcDbEntity
  8
実線
100
AcDbLine
 10
314.2283738644417
 20
1148.266437582747
 30
0.0
 11
312.7080942848903
 21
1146.746158003197
 31
0.0
  0
LINE
  5
4B2
102
{ACAD_REACTORS
330
70D
102
}
330
1F
100
AcDbEntity
  8
実線
100
AcDbLine
 10
321.667082256312
 20
1140.827729190877
 30
0.0
 11
314.2283738644417
 21
1148.266437582747
 31
0.0
  0
ARC
  5
4B3
102
{ACAD_REACTORS
330
70D
102
}
330
1F
100
AcDbEntity
  8
実線
100
AcDbCircle
 10
407.5466997675106
 20
1215.213340099664
 30
0.0
 40
7.999999999999995
100
AcDbArc
 50
325.0000000000026
 51
43.23542625711096
  0
ARC
  5
4B4
102
{ACAD_REACTORS
330
70D
102
}
330
1F
100
AcDbEntity
  8
実線
100
AcDbCircle
 10
368.5695299986271
 20
1178.565963156591
 30
0.0
 40
61.50000000000009
100
AcDbArc
 50
43.23542625711096
 51
46.764573742889
  0
ARC
  5
4B5
102
{ACAD_REACTORS
330
70D
102
}
330
1F
100
AcDbEntity
  8
実線
100
AcDbCircle
 10
405.2169069416988
 20
1217.543132925476
 30
0.0
 40
8.000000000000008
100
AcDbArc
 50
46.764573742889
 51
124.9999999999974
  0
LINE
  5
4B6
102
{ACAD_REACTORS
330
70D
102
}
330
1F
100
AcDbEntity
  8
実線
100
AcDbLine
 10
400.6282954508903
 20
1224.096349279788
 30
0.0
 11
393.4183467336938
 21
1219.047888837901
 31
0.0
  0
LINE
  5
4B7
102
{ACAD_REACTORS
330
70D
102
}
330
1F
100
AcDbEntity
  8
実線
100
AcDbLine
 10
409.0514556799361
 20
1203.414779891659
 30
0.0
 11
414.0999161218227
 21
1210.624728608856
 31
0.0
  0
ARC
  5
4B8
102
{ACAD_REACTORS
330
70D
102
}
330
1F
100
AcDbEntity
  8
実線
100
AcDbCircle
 10
368.5695299986277
 20
1178.56596315659
 30
0.0
 40
61.49999999999885
100
AcDbArc
 50
313.235426257111
 51
316.764573742889
  0
LINE
  5
4B9
102
{ACAD_REACTORS
330
70D
102
}
330
1F
100
AcDbEntity
  8
実線
100
AcDbLine
 10
393.4183467336938
 20
1138.084037475282
 30
0.0
 11
400.6282954508903
 21
1133.035577033396
 31
0.0
  0
ARC
  5
4BA
102
{ACAD_REACTORS
330
70D
102
}
330
1F
100
AcDbEntity
  8
実線
100
AcDbCircle
 10
405.2169069416988
 20
1139.588793387708
 30
0.0
 40
7.999999999999986
100
AcDbArc
 50
235.0000000000026
 51
313.235426257111
  0
ARC
  5
4BB
102
{ACAD_REACTORS
330
70D
102
}
330
1F
100
AcDbEntity
  8
実線
100
AcDbCircle
 10
407.5466997675106
 20
1141.918586213519
 30
0.0
 40
8.000000000000023
100
AcDbArc
 50
316.7645737428866
 51
34.99999999999737
  0
LINE
  5
4BC
102
{ACAD_REACTORS
330
70D
102
}
330
1F
100
AcDbEntity
  8
実線
100
AcDbLine
 10
414.0999161218227
 20
1146.507197704328
 30
0.0
 11
409.0514556799361
 21
1153.717146421525
 31
0.0
  0
LINE
  5
4BD
102
{ACAD_REACTORS
330
70D
102
}
330
1F
100
AcDbEntity
  8
実線
100
AcDbLine
 10
336.5107645463632
 20
1133.035577033396
 30
0.0
 11
343.7207132635598
 21
1138.084037475282
 31
0.0
  0
LINE
  5
4BE
102
{ACAD_REACTORS
330
70D
102
}
330
1F
100
AcDbEntity
  8
実線
100
AcDbLine
 10
328.0876043173174
 20
1153.717146421525
 30
0.0
 11
323.0391438754308
 21
1146.507197704328
 31
0.0
  0
ARC
  5
4BF
102
{ACAD_REACTORS
330
70D
102
}
330
1F
100
AcDbEntity
  8
実線
100
AcDbCircle
 10
329.5923602297429
 20
1141.918586213519
 30
0.0
 40
7.999999999999996
100
AcDbArc
 50
145.0000000000026
 51
223.235426257111
  0
ARC
  5
4C0
102
{ACAD_REACTORS
330
70D
102
}
330
1F
100
AcDbEntity
  8
実線
100
AcDbCircle
 10
368.5695299986271
 20
1178.565963156591
 30
0.0
 40
61.50000000000008
100
AcDbArc
 50
223.235426257111
 51
226.764573742889
  0
ARC
  5
4C1
102
{ACAD_REACTORS
330
70D
102
}
330
1F
100
AcDbEntity
  8
実線
100
AcDbCircle
 10
331.9221530555549
 20
1139.588793387708
 30
0.0
 40
8.000000000000021
100
AcDbArc
 50
226.764573742889
 51
304.9999999999974
  0
LINE
  5
4C2
102
{ACAD_REACTORS
330
70D
102
}
330
1F
100
AcDbEntity
  8
実線
100
AcDbLine
 10
343.7207132635599
 20
1219.047888837901
 30
0.0
 11
336.5107645463632
 21
1224.096349279788
 31
0.0
  0
ARC
  5
4C3
102
{ACAD_REACTORS
330
70D
102
}
330
1F
100
AcDbEntity
  8
実線
100
AcDbCircle
 10
331.9221530555549
 20
1217.543132925476
 30
0.0
 40
8.000000000000008
100
AcDbArc
 50
55.00000000000264
 51
133.235426257111
  0
ARC
  5
4C4
102
{ACAD_REACTORS
330
70D
102
}
330
1F
100
AcDbEntity
  8
実線
100
AcDbCircle
 10
368.5695299986278
 20
1178.56596315659
 30
0.0
 40
61.50000000000114
100
AcDbArc
 50
133.235426257111
 51
136.764573742889
  0
ARC
  5
4C5
102
{ACAD_REACTORS
330
70D
102
}
330
1F
100
AcDbEntity
  8
実線
100
AcDbCircle
 10
329.5923602297429
 20
1215.213340099664
 30
0.0
 40
8.000000000000008
100
AcDbArc
 50
136.764573742889
 51
214.9999999999974
  0
LINE
  5
4C6
102
{ACAD_REACTORS
330
70D
102
}
330
1F
100
AcDbEntity
  8
実線
100
AcDbLine
 10
323.0391438754308
 20
1210.624728608855
 30
0.0
 11
328.0876043173174
 21
1203.414779891659
 31
0.0
  0
CIRCLE
  5
4C7
102
{ACAD_REACTORS
330
70D
102
}
330
1F
100
AcDbEntity
  8
実線
100
AcDbCircle
 10
368.5695299986266
 20
1178.565963156591
 30
0.0
 40
47.5
  0
LINE
  5
4C8
102
{ACAD_REACTORS
330
70D
102
}
330
1F
100
AcDbEntity
  8
実線
100
AcDbLine
 10
313.2748511110801
 20
1191.860642044138
 30
0.0
 11
326.7455875417053
 21
1205.331378474763
 31
0.0
  0
LINE
  5
4C9
102
{ACAD_REACTORS
330
70D
102
}
330
1F
100
AcDbEntity
  8
実線
100
AcDbLine
 10
321.3564607391905
 20
1183.779032416027
 30
0.0
 11
313.2748511110801
 21
1191.860642044138
 31
0.0
  0
LINE
  5
4CA
102
{ACAD_REACTORS
330
70D
102
}
330
1F
100
AcDbEntity
  8
実線
100
AcDbLine
 10
393.6713677468972
 20
1137.906870254512
 30
0.0
 11
387.6195299986276
 21
1131.855032506241
 31
0.0
  0
LINE
  5
4CB
102
{ACAD_REACTORS
330
70D
102
}
330
1F
100
AcDbEntity
  8
実線
100
AcDbLine
 10
409.2286229007067
 20
1153.464125408321
 30
0.0
 11
422.4499953238021
 21
1166.685497831417
 31
0.0
  0
LINE
  5
4CC
102
{ACAD_REACTORS
330
70D
102
}
330
1F
100
AcDbEntity
  8
実線
100
AcDbLine
 10
422.4499953238021
 20
1166.685497831417
 30
0.0
 11
415.782599258063
 21
1173.352893897154
 31
0.0
  0
LINE
  5
4CD
102
{ACAD_REACTORS
330
70D
102
}
330
1F
100
AcDbEntity
  8
実線
100
AcDbLine
 10
341.8041146804548
 20
1220.389905613513
 30
0.0
 11
349.5195299986277
 21
1228.105320931685
 31
0.0
  0
LINE
  5
4CE
102
{ACAD_REACTORS
330
70D
102
}
330
1F
100
AcDbEntity
  8
実線
100
AcDbLine
 10
327.3269917417564
 20
1155.001094429384
 30
0.0
 11
326.8502299086214
 21
1154.524332596247
 31
0.0
  0
LINE
  5
4CF
102
{ACAD_REACTORS
330
70D
102
}
330
1F
100
AcDbEntity
  8
実線
100
AcDbLine
 10
393.3182673401566
 20
1220.992370027784
 30
0.0
 11
392.1343987258355
 21
1219.808501413462
 31
0.0
  0
LINE
  5
4D0
102
{ACAD_REACTORS
330
70D
102
}
330
1F
100
AcDbEntity
  8
実線
100
AcDbLine
 10
409.8120682554986
 20
1202.130831883797
 30
0.0
 11
410.9959368698204
 21
1203.314700498119
 31
0.0
  0
LINE
  5
4D1
102
{ACAD_REACTORS
330
70D
102
}
330
1F
100
AcDbEntity
  8
実線
100
AcDbLine
 10
344.527899438285
 20
1136.846663066584
 30
0.0
 11
345.0046612714203
 21
1137.323424899719
 31
0.0
  0
LINE
  5
4D2
102
{ACAD_REACTORS
330
70D
102
}
330
1F
100
AcDbEntity
  8
実線
100
AcDbLine
 10
343.4676922503571
 20
1137.906870254512
 30
0.0
 11
344.527899438285
 21
1136.846663066584
 31
0.0
  0
LINE
  5
4D3
102
{ACAD_REACTORS
330
70D
102
}
330
1F
100
AcDbEntity
  8
実線
100
AcDbLine
 10
326.8502299086214
 20
1154.524332596247
 30
0.0
 11
327.9104370965476
 21
1153.464125408321
 31
0.0
  0
LINE
  5
4D4
102
{ACAD_REACTORS
330
70D
102
}
330
1F
100
AcDbEntity
  8
実線
100
AcDbLine
 10
394.5031565318484
 20
1219.807480836093
 30
0.0
 11
393.3182673401566
 21
1220.992370027784
 31
0.0
  0
LINE
  5
4D5
102
{ACAD_REACTORS
330
70D
102
}
330
1F
100
AcDbEntity
  8
実線
100
AcDbLine
 10
410.9959368698204
 20
1203.314700498119
 30
0.0
 11
409.8110476781273
 21
1204.499589689813
 31
0.0
  0
LINE
  5
4D6
102
{ACAD_REACTORS
330
763
102
}
330
1F
100
AcDbEntity
  8
実線
100
AcDbLine
 10
838.5695299986274
 20
953.8644479664332
 30
0.0
 11
858.5695299986266
 21
953.8644479664332
 31
0.0
  0
LINE
  5
4D7
102
{ACAD_REACTORS
330
763
102
}
330
1F
100
AcDbEntity
  8
実線
100
AcDbLine
 10
858.5695299986266
 20
930.1644479664332
 30
0.0
 11
858.5695299986266
 21
953.8644479664332
 31
0.0
  0
LINE
  5
4D8
102
{ACAD_REACTORS
330
763
102
}
330
1F
100
AcDbEntity
  8
実線
100
AcDbLine
 10
838.5695299986274
 20
953.8644479664332
 30
0.0
 11
838.5695299986274
 21
930.1644479664332
 31
0.0
  0
LINE
  5
4D9
102
{ACAD_REACTORS
330
763
102
}
330
1F
100
AcDbEntity
  8
実線
100
AcDbLine
 10
809.3019418306662
 20
668.3629327762684
 30
0.0
 11
787.0512400353963
 21
668.3629327762684
 31
0.0
  0
LINE
  5
4DA
102
{ACAD_REACTORS
330
763
102
}
330
1F
100
AcDbEntity
  8
実線
100
AcDbLine
 10
787.0512400353963
 20
668.3629327762684
 30
0.0
 11
766.0512400353963
 21
638.6644479664332
 31
0.0
  0
LINE
  5
4DB
102
{ACAD_REACTORS
330
763
102
}
330
1F
100
AcDbEntity
  8
実線
100
AcDbLine
 10
794.6890646734514
 20
638.6644479664332
 30
0.0
 11
766.0512400353963
 21
638.6644479664332
 31
0.0
  0
LINE
  5
4DC
102
{ACAD_REACTORS
330
763
102
}
330
1F
100
AcDbEntity
  8
実線
100
AcDbLine
 10
766.0512400353963
 20
638.6644479664332
 30
0.0
 11
778.5695299986265
 21
620.9609125227148
 31
0.0
  0
LINE
  5
4DD
102
{ACAD_REACTORS
330
763
102
}
330
1F
100
AcDbEntity
  8
実線
100
AcDbLine
 10
794.6890646734514
 20
638.6644479664332
 30
0.0
 11
811.1264959270123
 21
661.9104861757945
 31
0.0
  0
LINE
  5
4DE
102
{ACAD_REACTORS
330
763
102
}
330
1F
100
AcDbEntity
  8
実線
100
AcDbLine
 10
913.4695299986251
 20
629.1144479664332
 30
0.0
 11
897.1113391258423
 21
629.1144479664332
 31
0.0
  0
LINE
  5
4DF
102
{ACAD_REACTORS
330
763
102
}
330
1F
100
AcDbEntity
  8
実線
100
AcDbLine
 10
895.5466997675101
 20
591.0144479664336
 30
0.0
 11
913.4695299986251
 21
591.0144479664336
 31
0.0
  0
LINE
  5
4E0
102
{ACAD_REACTORS
330
763
102
}
330
1F
100
AcDbEntity
  8
実線
100
AcDbLine
 10
918.5695299986264
 20
635.3144479664337
 30
0.0
 11
915.8195299986266
 21
635.3144479664337
 31
0.0
  0
LINE
  5
4E1
102
{ACAD_REACTORS
330
763
102
}
330
1F
100
AcDbEntity
  8
実線
100
AcDbLine
 10
915.8195299986266
 20
584.8144479664332
 30
0.0
 11
918.5695299986264
 21
584.8144479664332
 31
0.0
  0
LINE
  5
4E2
102
{ACAD_REACTORS
330
763
102
}
330
1F
100
AcDbEntity
  8
実線
100
AcDbLine
 10
918.5695299986264
 20
635.3144479664332
 30
0.0
 11
918.5695299986264
 21
584.8144479664332
 31
0.0
  0
LINE
  5
4E3
102
{ACAD_REACTORS
330
763
102
}
330
1F
100
AcDbEntity
  8
実線
100
AcDbLine
 10
913.4695299986251
 20
591.0144479664336
 30
0.0
 11
915.8195299986266
 21
584.8144479664337
 31
0.0
  0
LINE
  5
4E4
102
{ACAD_REACTORS
330
763
102
}
330
1F
100
AcDbEntity
  8
実線
100
AcDbLine
 10
915.8195299986266
 20
635.3144479664337
 30
0.0
 11
913.4695299986251
 21
629.1144479664336
 31
0.0
  0
LINE
  5
4E5
102
{ACAD_REACTORS
330
763
102
}
330
1F
100
AcDbEntity
  8
実線
100
AcDbLine
 10
915.8195299986266
 20
635.3144479664332
 30
0.0
 11
915.8195299986266
 21
584.8144479664332
 31
0.0
  0
LINE
  5
4E6
102
{ACAD_REACTORS
330
763
102
}
330
1F
100
AcDbEntity
  8
実線
100
AcDbLine
 10
913.4695299986251
 20
629.1144479664332
 30
0.0
 11
913.4695299986251
 21
591.0144479664336
 31
0.0
  0
LINE
  5
4E7
102
{ACAD_REACTORS
330
763
102
}
330
1F
100
AcDbEntity
  8
実線
100
AcDbLine
 10
783.6695299986265
 20
591.0144479664336
 30
0.0
 11
801.5923602297423
 21
591.0144479664336
 31
0.0
  0
LINE
  5
4E8
102
{ACAD_REACTORS
330
763
102
}
330
1F
100
AcDbEntity
  8
実線
100
AcDbLine
 10
809.2789981343852
 20
629.1144479664332
 30
0.0
 11
783.6695299986265
 21
629.1144479664332
 31
0.0
  0
LINE
  5
4E9
102
{ACAD_REACTORS
330
763
102
}
330
1F
100
AcDbEntity
  8
実線
100
AcDbLine
 10
778.5695299986265
 20
635.3144479664332
 30
0.0
 11
778.5695299986265
 21
584.8144479664332
 31
0.0
  0
LINE
  5
4EA
102
{ACAD_REACTORS
330
763
102
}
330
1F
100
AcDbEntity
  8
実線
100
AcDbLine
 10
778.5695299986265
 20
584.8144479664332
 30
0.0
 11
781.3195299986265
 21
584.8144479664332
 31
0.0
  0
LINE
  5
4EB
102
{ACAD_REACTORS
330
763
102
}
330
1F
100
AcDbEntity
  8
実線
100
AcDbLine
 10
781.3195299986265
 20
635.3144479664337
 30
0.0
 11
778.5695299986265
 21
635.3144479664337
 31
0.0
  0
LINE
  5
4EC
102
{ACAD_REACTORS
330
763
102
}
330
1F
100
AcDbEntity
  8
実線
100
AcDbLine
 10
781.3195299986265
 20
635.3144479664332
 30
0.0
 11
781.3195299986265
 21
584.8144479664332
 31
0.0
  0
LINE
  5
4ED
102
{ACAD_REACTORS
330
763
102
}
330
1F
100
AcDbEntity
  8
実線
100
AcDbLine
 10
783.6695299986265
 20
629.1144479664332
 30
0.0
 11
783.6695299986265
 21
591.0144479664336
 31
0.0
  0
LINE
  5
4EE
102
{ACAD_REACTORS
330
763
102
}
330
1F
100
AcDbEntity
  8
実線
100
AcDbLine
 10
783.6695299986265
 20
629.1144479664332
 30
0.0
 11
781.3195299986265
 21
635.3144479664332
 31
0.0
  0
LINE
  5
4EF
102
{ACAD_REACTORS
330
763
102
}
330
1F
100
AcDbEntity
  8
実線
100
AcDbLine
 10
781.3195299986265
 20
584.8144479664332
 30
0.0
 11
783.6695299986265
 21
591.0144479664336
 31
0.0
  0
LINE
  5
4F0
102
{ACAD_REACTORS
330
763
102
}
330
1F
100
AcDbEntity
  8
実線
100
AcDbLine
 10
830.4642130999912
 20
649.6644479664333
 30
0.0
 11
826.9659578104995
 21
649.6644479664333
 31
0.0
  0
LINE
  5
4F1
102
{ACAD_REACTORS
330
763
102
}
330
1F
100
AcDbEntity
  8
実線
100
AcDbLine
 10
826.9659578104995
 20
627.6644479664334
 30
0.0
 11
840.7857735757067
 21
627.6644479664334
 31
0.0
  0
CIRCLE
  5
4F2
102
{ACAD_REACTORS
330
763
102
}
330
1F
100
AcDbEntity
  8
実線
100
AcDbCircle
 10
848.5695299986264
 20
667.2644479664334
 30
0.0
 40
25.25
  0
LINE
  5
4F3
102
{ACAD_REACTORS
330
763
102
}
330
1F
100
AcDbEntity
  8
実線
100
AcDbLine
 10
892.4101504321923
 20
655.6644479664334
 30
0.0
 11
891.8433936060024
 21
655.6644479664334
 31
0.0
  0
ELLIPSE
  5
4F4
102
{ACAD_REACTORS
330
763
102
}
330
1F
100
AcDbEntity
  8
実線
100
AcDbEllipse
 10
892.4101504321923
 20
638.6644479664332
 30
0.0
 11
0.0
 21
17.0
 31
0.0
210
0.0
220
0.0
230
1.0
 40
0.7071067811865475
 41
4.115871623150397
 42
6.283185307179584
  0
ELLIPSE
  5
4F5
102
{ACAD_REACTORS
330
763
102
}
330
1F
100
AcDbEntity
  8
実線
100
AcDbEllipse
 10
890.8898708526415
 20
638.6644479664332
 30
0.0
 11
0.0
 21
17.0
 31
0.0
210
0.0
220
0.0
230
1.0
 40
0.7071067811865475
 41
4.795236227057021
 42
6.200338060507253
  0
ELLIPSE
  5
4F6
102
{ACAD_REACTORS
330
763
102
}
330
1F
100
AcDbEntity
  8
実線
100
AcDbEllipse
 10
890.8898708526415
 20
638.6644479664332
 30
0.0
 11
0.0
 21
17.0
 31
0.0
210
0.0
220
0.0
230
1.0
 40
0.7071067811865475
 41
4.115871623150397
 42
4.629541733712358
  0
LINE
  5
4F7
102
{ACAD_REACTORS
330
763
102
}
330
1F
100
AcDbEntity
  8
実線
100
AcDbLine
 10
838.5695299986267
 20
347.1644479664334
 30
0.0
 11
838.5695299986267
 21
323.4644479664335
 31
0.0
  0
LINE
  5
4F8
102
{ACAD_REACTORS
330
763
102
}
330
1F
100
AcDbEntity
  8
実線
100
AcDbLine
 10
858.5695299986266
 20
323.4644479664335
 30
0.0
 11
858.5695299986266
 21
347.1644479664334
 31
0.0
  0
LINE
  5
4F9
102
{ACAD_REACTORS
330
763
102
}
330
1F
100
AcDbEntity
  8
実線
100
AcDbLine
 10
838.5695299986267
 20
323.4644479664335
 30
0.0
 11
858.5695299986266
 21
323.4644479664335
 31
0.0
  0
LINE
  5
4FA
102
{ACAD_REACTORS
330
763
102
}
330
1F
100
AcDbEntity
  8
実線
100
AcDbLine
 10
801.5923602297423
 20
582.1644479664334
 30
0.0
 11
895.5466997675101
 21
582.1644479664334
 31
0.0
  0
LINE
  5
4FB
102
{ACAD_REACTORS
330
763
102
}
330
1F
100
AcDbEntity
  8
実線
100
AcDbLine
 10
801.5923602297423
 20
569.1644479664332
 30
0.0
 11
830.5406331882025
 21
569.1644479664332
 31
0.0
  0
LINE
  5
4FC
102
{ACAD_REACTORS
330
763
102
}
330
1F
100
AcDbEntity
  8
実線
100
AcDbLine
 10
801.5923602297423
 20
582.1644479664334
 30
0.0
 11
801.5923602297423
 21
569.1644479664332
 31
0.0
  0
LINE
  5
4FD
102
{ACAD_REACTORS
330
763
102
}
330
1F
100
AcDbEntity
  8
実線
100
AcDbLine
 10
895.5466997675101
 20
569.1644479664332
 30
0.0
 11
895.5466997675101
 21
582.1644479664334
 31
0.0
  0
LINE
  5
4FE
102
{ACAD_REACTORS
330
763
102
}
330
1F
100
AcDbEntity
  8
実線
100
AcDbLine
 10
895.5466997675101
 20
569.1644479664332
 30
0.0
 11
866.5984268090506
 21
569.1644479664332
 31
0.0
  0
LINE
  5
4FF
102
{ACAD_REACTORS
330
763
102
}
330
1F
100
AcDbEntity
  8
実線
100
AcDbLine
 10
866.5984268090506
 20
569.1644479664332
 30
0.0
 11
866.5984268090506
 21
582.1644479664334
 31
0.0
  0
LINE
  5
500
102
{ACAD_REACTORS
330
763
102
}
330
1F
100
AcDbEntity
  8
実線
100
AcDbLine
 10
830.5406331882025
 20
569.1644479664332
 30
0.0
 11
830.5406331882025
 21
582.1644479664334
 31
0.0
  0
LINE
  5
501
102
{ACAD_REACTORS
330
763
102
}
330
1F
100
AcDbEntity
  8
実線
100
AcDbLine
 10
888.5695299986267
 20
562.1644479664333
 30
0.0
 11
888.5695299986267
 21
569.1644479664332
 31
0.0
  0
LINE
  5
502
102
{ACAD_REACTORS
330
763
102
}
330
1F
100
AcDbEntity
  8
実線
100
AcDbLine
 10
808.5695299986266
 20
569.1644479664332
 30
0.0
 11
808.5695299986266
 21
562.1644479664333
 31
0.0
  0
LINE
  5
503
102
{ACAD_REACTORS
330
763
102
}
330
1F
100
AcDbEntity
  8
実線
100
AcDbLine
 10
808.5695299986266
 20
562.1644479664333
 30
0.0
 11
888.5695299986267
 21
562.1644479664333
 31
0.0
  0
LINE
  5
504
102
{ACAD_REACTORS
330
763
102
}
330
1F
100
AcDbEntity
  8
実線
100
AcDbLine
 10
895.5466997675115
 20
695.1644479664333
 30
0.0
 11
801.5923602297432
 21
695.1644479664333
 31
0.0
  0
LINE
  5
505
102
{ACAD_REACTORS
330
763
102
}
330
1F
100
AcDbEntity
  8
実線
100
AcDbLine
 10
895.5466997675115
 20
708.1644479664332
 30
0.0
 11
866.5984268090515
 21
708.1644479664332
 31
0.0
  0
LINE
  5
506
102
{ACAD_REACTORS
330
763
102
}
330
1F
100
AcDbEntity
  8
実線
100
AcDbLine
 10
895.5466997675115
 20
695.1644479664333
 30
0.0
 11
895.5466997675115
 21
708.1644479664332
 31
0.0
  0
LINE
  5
507
102
{ACAD_REACTORS
330
763
102
}
330
1F
100
AcDbEntity
  8
実線
100
AcDbLine
 10
801.5923602297432
 20
708.1644479664332
 30
0.0
 11
801.5923602297432
 21
695.1644479664333
 31
0.0
  0
LINE
  5
508
102
{ACAD_REACTORS
330
763
102
}
330
1F
100
AcDbEntity
  8
実線
100
AcDbLine
 10
801.5923602297432
 20
708.1644479664332
 30
0.0
 11
830.5406331882034
 21
708.1644479664332
 31
0.0
  0
LINE
  5
509
102
{ACAD_REACTORS
330
763
102
}
330
1F
100
AcDbEntity
  8
実線
100
AcDbLine
 10
830.5406331882034
 20
708.1644479664332
 30
0.0
 11
830.5406331882034
 21
695.1644479664333
 31
0.0
  0
LINE
  5
50A
102
{ACAD_REACTORS
330
763
102
}
330
1F
100
AcDbEntity
  8
実線
100
AcDbLine
 10
866.5984268090515
 20
708.1644479664332
 30
0.0
 11
866.5984268090515
 21
695.1644479664333
 31
0.0
  0
LINE
  5
50B
102
{ACAD_REACTORS
330
763
102
}
330
1F
100
AcDbEntity
  8
実線
100
AcDbLine
 10
808.5695299986275
 20
715.1644479664333
 30
0.0
 11
808.5695299986275
 21
708.1644479664332
 31
0.0
  0
LINE
  5
50C
102
{ACAD_REACTORS
330
763
102
}
330
1F
100
AcDbEntity
  8
実線
100
AcDbLine
 10
888.5695299986267
 20
708.1644479664332
 30
0.0
 11
888.5695299986267
 21
715.1644479664333
 31
0.0
  0
LINE
  5
50D
102
{ACAD_REACTORS
330
763
102
}
330
1F
100
AcDbEntity
  8
実線
100
AcDbLine
 10
866.3783059251183
 20
685.1644479664332
 30
0.0
 11
895.5466997675101
 21
685.1644479664332
 31
0.0
  0
LINE
  5
50E
102
{ACAD_REACTORS
330
763
102
}
330
1F
100
AcDbEntity
  8
実線
100
AcDbLine
 10
830.7607540721342
 20
685.1644479664332
 30
0.0
 11
801.5923602297423
 21
685.1644479664332
 31
0.0
  0
LINE
  5
50F
102
{ACAD_REACTORS
330
763
102
}
330
1F
100
AcDbEntity
  8
実線
100
AcDbLine
 10
801.5923602297423
 20
695.1644479664333
 30
0.0
 11
801.5923602297423
 21
685.1644479664332
 31
0.0
  0
LINE
  5
510
102
{ACAD_REACTORS
330
763
102
}
330
1F
100
AcDbEntity
  8
実線
100
AcDbLine
 10
895.5466997675101
 20
685.1644479664332
 30
0.0
 11
895.5466997675101
 21
695.1644479664333
 31
0.0
  0
LINE
  5
511
102
{ACAD_REACTORS
330
763
102
}
330
1F
100
AcDbEntity
  8
実線
100
AcDbLine
 10
866.5984268090506
 20
695.1644479664333
 30
0.0
 11
866.5984268090506
 21
685.1644479664332
 31
0.0
  0
LINE
  5
512
102
{ACAD_REACTORS
330
763
102
}
330
1F
100
AcDbEntity
  8
実線
100
AcDbLine
 10
830.5406331882025
 20
695.1644479664333
 30
0.0
 11
830.5406331882025
 21
685.1644479664332
 31
0.0
  0
LINE
  5
513
102
{ACAD_REACTORS
330
763
102
}
330
1F
100
AcDbEntity
  8
実線
100
AcDbLine
 10
808.5695299986266
 20
562.1644479664333
 30
0.0
 11
808.5695299986266
 21
416.6644479664332
 31
0.0
  0
LINE
  5
514
102
{ACAD_REACTORS
330
763
102
}
330
1F
100
AcDbEntity
  8
実線
100
AcDbLine
 10
888.5695299986267
 20
416.6644479664332
 30
0.0
 11
888.5695299986267
 21
562.1644479664333
 31
0.0
  0
LINE
  5
515
102
{ACAD_REACTORS
330
763
102
}
330
1F
100
AcDbEntity
  8
実線
100
AcDbLine
 10
808.5695299986266
 20
416.6644479664332
 30
0.0
 11
888.5695299986267
 21
416.6644479664332
 31
0.0
  0
LINE
  5
516
102
{ACAD_REACTORS
330
763
102
}
330
1F
100
AcDbEntity
  8
実線
100
AcDbLine
 10
808.5695299986266
 20
416.6644479664332
 30
0.0
 11
801.0695299986267
 21
409.1644479664333
 31
0.0
  0
LINE
  5
517
102
{ACAD_REACTORS
330
763
102
}
330
1F
100
AcDbEntity
  8
実線
100
AcDbLine
 10
896.0695299986266
 20
409.1644479664333
 30
0.0
 11
888.5695299986267
 21
416.6644479664332
 31
0.0
  0
LINE
  5
518
102
{ACAD_REACTORS
330
763
102
}
330
1F
100
AcDbEntity
  8
実線
100
AcDbLine
 10
801.0695299986267
 20
352.1644479664334
 30
0.0
 11
896.0695299986266
 21
352.1644479664334
 31
0.0
  0
LINE
  5
519
102
{ACAD_REACTORS
330
763
102
}
330
1F
100
AcDbEntity
  8
実線
100
AcDbLine
 10
801.0695299986267
 20
409.1644479664333
 30
0.0
 11
801.0695299986267
 21
352.1644479664334
 31
0.0
  0
LINE
  5
51A
102
{ACAD_REACTORS
330
763
102
}
330
1F
100
AcDbEntity
  8
実線
100
AcDbLine
 10
896.0695299986266
 20
352.1644479664334
 30
0.0
 11
896.0695299986266
 21
409.1644479664333
 31
0.0
  0
LINE
  5
51B
102
{ACAD_REACTORS
330
763
102
}
330
1F
100
AcDbEntity
  8
実線
100
AcDbLine
 10
896.0695299986266
 20
409.1644479664333
 30
0.0
 11
801.0695299986267
 21
409.1644479664333
 31
0.0
  0
LINE
  5
51C
102
{ACAD_REACTORS
330
763
102
}
330
1F
100
AcDbEntity
  8
実線
100
AcDbLine
 10
808.5695299986275
 20
715.1644479664333
 30
0.0
 11
888.5695299986267
 21
715.1644479664333
 31
0.0
  0
LINE
  5
51D
102
{ACAD_REACTORS
330
763
102
}
330
1F
100
AcDbEntity
  8
実線
100
AcDbLine
 10
888.5695299986267
 20
715.1644479664333
 30
0.0
 11
888.5695299986267
 21
860.6644479664332
 31
0.0
  0
LINE
  5
51E
102
{ACAD_REACTORS
330
763
102
}
330
1F
100
AcDbEntity
  8
実線
100
AcDbLine
 10
808.5695299986275
 20
860.6644479664332
 30
0.0
 11
808.5695299986275
 21
715.1644479664333
 31
0.0
  0
LINE
  5
51F
102
{ACAD_REACTORS
330
763
102
}
330
1F
100
AcDbEntity
  8
実線
100
AcDbLine
 10
888.5695299986267
 20
860.6644479664332
 30
0.0
 11
808.5695299986275
 21
860.6644479664332
 31
0.0
  0
LINE
  5
520
102
{ACAD_REACTORS
330
763
102
}
330
1F
100
AcDbEntity
  8
実線
100
AcDbLine
 10
888.5695299986267
 20
860.6644479664332
 30
0.0
 11
896.0695299986275
 21
868.1644479664333
 31
0.0
  0
LINE
  5
521
102
{ACAD_REACTORS
330
763
102
}
330
1F
100
AcDbEntity
  8
実線
100
AcDbLine
 10
801.0695299986274
 20
868.1644479664333
 30
0.0
 11
808.5695299986275
 21
860.6644479664332
 31
0.0
  0
LINE
  5
522
102
{ACAD_REACTORS
330
763
102
}
330
1F
100
AcDbEntity
  8
実線
100
AcDbLine
 10
896.0695299986275
 20
868.1644479664333
 30
0.0
 11
896.0695299986275
 21
925.1644479664333
 31
0.0
  0
LINE
  5
523
102
{ACAD_REACTORS
330
763
102
}
330
1F
100
AcDbEntity
  8
実線
100
AcDbLine
 10
801.0695299986274
 20
925.1644479664333
 30
0.0
 11
801.0695299986274
 21
868.1644479664333
 31
0.0
  0
LINE
  5
524
102
{ACAD_REACTORS
330
763
102
}
330
1F
100
AcDbEntity
  8
実線
100
AcDbLine
 10
801.0695299986274
 20
868.1644479664333
 30
0.0
 11
896.0695299986275
 21
868.1644479664333
 31
0.0
  0
LINE
  5
525
102
{ACAD_REACTORS
330
763
102
}
330
1F
100
AcDbEntity
  8
実線
100
AcDbLine
 10
801.0695299986274
 20
925.1644479664333
 30
0.0
 11
896.0695299986275
 21
925.1644479664333
 31
0.0
  0
LINE
  5
526
102
{ACAD_REACTORS
330
763
102
}
330
1F
100
AcDbEntity
  8
実線
100
AcDbLine
 10
806.0695299986273
 20
930.1644479664332
 30
0.0
 11
891.0695299984011
 21
930.1644479664332
 31
0.0
  0
ARC
  5
527
102
{ACAD_REACTORS
330
763
102
}
330
1F
100
AcDbEntity
  8
実線
100
AcDbCircle
 10
891.0695299986267
 20
925.1644479664333
 30
0.0
 40
5.0
100
AcDbArc
 50
0.0
 51
90.0
  0
ARC
  5
528
102
{ACAD_REACTORS
330
763
102
}
330
1F
100
AcDbEntity
  8
実線
100
AcDbCircle
 10
806.0695299986273
 20
925.1644479664333
 30
0.0
 40
5.0
100
AcDbArc
 50
90.0
 51
180.0
  0
LINE
  5
529
102
{ACAD_REACTORS
330
763
102
}
330
1F
100
AcDbEntity
  8
実線
100
AcDbLine
 10
801.5923602297423
 20
592.1644479664332
 30
0.0
 11
895.5466997675101
 21
592.1644479664332
 31
0.0
  0
LINE
  5
52A
102
{ACAD_REACTORS
330
763
102
}
330
1F
100
AcDbEntity
  8
実線
100
AcDbLine
 10
895.5466997675101
 20
582.1644479664334
 30
0.0
 11
895.5466997675101
 21
592.1644479664332
 31
0.0
  0
LINE
  5
52B
102
{ACAD_REACTORS
330
763
102
}
330
1F
100
AcDbEntity
  8
実線
100
AcDbLine
 10
801.5923602297423
 20
592.1644479664332
 30
0.0
 11
801.5923602297423
 21
582.1644479664334
 31
0.0
  0
LINE
  5
52C
102
{ACAD_REACTORS
330
763
102
}
330
1F
100
AcDbEntity
  8
実線
100
AcDbLine
 10
866.5984268090506
 20
582.1644479664334
 30
0.0
 11
866.5984268090506
 21
592.1644479664332
 31
0.0
  0
LINE
  5
52D
102
{ACAD_REACTORS
330
763
102
}
330
1F
100
AcDbEntity
  8
実線
100
AcDbLine
 10
830.5406331882025
 20
582.1644479664334
 30
0.0
 11
830.5406331882025
 21
592.1644479664332
 31
0.0
  0
LINE
  5
52E
102
{ACAD_REACTORS
330
763
102
}
330
1F
100
AcDbEntity
  8
実線
100
AcDbLine
 10
903.8642088861733
 20
638.6644479664332
 30
0.0
 11
882.8642088861734
 21
608.9659631565985
 31
0.0
  0
LINE
  5
52F
102
{ACAD_REACTORS
330
763
102
}
330
1F
100
AcDbEntity
  8
実線
100
AcDbLine
 10
903.8642088861733
 20
638.6644479664332
 30
0.0
 11
882.8642088861734
 21
668.3629327762684
 31
0.0
  0
LINE
  5
530
102
{ACAD_REACTORS
330
763
102
}
330
1F
100
AcDbEntity
  8
実線
100
AcDbLine
 10
861.8642088861733
 20
638.6644479664332
 30
0.0
 11
882.8642088861734
 21
608.9659631565985
 31
0.0
  0
LINE
  5
531
102
{ACAD_REACTORS
330
763
102
}
330
1F
100
AcDbEntity
  8
実線
100
AcDbLine
 10
801.4419344337834
 20
629.1144479664332
 30
0.0
 11
794.6890646734514
 21
638.6644479664332
 31
0.0
  0
LINE
  5
532
102
{ACAD_REACTORS
330
763
102
}
330
1F
100
AcDbEntity
  8
実線
100
AcDbLine
 10
882.8642088861734
 20
608.9659631565985
 30
0.0
 11
876.3359078730301
 21
608.9659631565985
 31
0.0
  0
LINE
  5
533
102
{ACAD_REACTORS
330
763
102
}
330
1F
100
AcDbEntity
  8
実線
100
AcDbLine
 10
882.8642088861734
 20
668.3629327762684
 30
0.0
 11
876.3359078730301
 21
668.3629327762684
 31
0.0
  0
LINE
  5
534
102
{ACAD_REACTORS
330
763
102
}
330
1F
100
AcDbEntity
  8
実線
100
AcDbLine
 10
847.5695299986265
 20
638.6644479664332
 30
0.0
 11
861.8642088861733
 21
638.6644479664332
 31
0.0
  0
LINE
  5
535
102
{ACAD_REACTORS
330
763
102
}
330
1F
100
AcDbEntity
  8
実線
100
AcDbLine
 10
794.6890646734514
 20
638.6644479664332
 30
0.0
 11
806.1431231274335
 21
638.6644479664332
 31
0.0
  0
LINE
  5
536
102
{ACAD_REACTORS
330
763
102
}
330
1F
100
AcDbEntity
  8
実線
100
AcDbLine
 10
882.8642088861734
 20
668.3629327762684
 30
0.0
 11
861.8642088861733
 21
638.6644479664332
 31
0.0
  0
LINE
  5
537
102
{ACAD_REACTORS
330
763
102
}
330
1F
100
AcDbEntity
  8
実線
100
AcDbLine
 10
814.9819578922652
 20
626.1644479664332
 30
0.0
 11
826.0415596467044
 21
626.1644479664332
 31
0.0
  0
LINE
  5
538
102
{ACAD_REACTORS
330
763
102
}
330
1F
100
AcDbEntity
  8
実線
100
AcDbLine
 10
826.0415596467044
 20
651.1644479664332
 30
0.0
 11
814.9819578922652
 21
651.1644479664332
 31
0.0
  0
ELLIPSE
  5
539
102
{ACAD_REACTORS
330
763
102
}
330
1F
100
AcDbEntity
  8
実線
100
AcDbEllipse
 10
814.9819578922652
 20
638.6644479664332
 30
0.0
 11
0.0
 21
12.5
 31
0.0
210
0.0
220
0.0
230
1.0
 40
0.7071067811865476
 41
0.0
 42
3.141592653589792
  0
ELLIPSE
  5
53A
102
{ACAD_REACTORS
330
763
102
}
330
1F
100
AcDbEntity
  8
実線
100
AcDbEllipse
 10
814.9819578922652
 20
638.6644479664332
 30
0.0
 11
0.0
 21
12.5
 31
0.0
210
0.0
220
0.0
230
1.0
 40
0.7071067811865476
 41
4.71238898038469
 42
6.283185307179584
  0
ELLIPSE
  5
53B
102
{ACAD_REACTORS
330
763
102
}
330
1F
100
AcDbEntity
  8
実線
100
AcDbEllipse
 10
814.9819578922652
 20
638.6644479664332
 30
0.0
 11
0.0
 21
12.5
 31
0.0
210
0.0
220
0.0
230
1.0
 40
0.7071067811865476
 41
3.141592653589792
 42
4.71238898038469
  0
LINE
  5
53C
102
{ACAD_REACTORS
330
763
102
}
330
1F
100
AcDbEntity
  8
実線
100
AcDbLine
 10
891.0695299986267
 20
347.1644479664334
 30
0.0
 11
806.0695299988513
 21
347.1644479664334
 31
0.0
  0
ARC
  5
53D
102
{ACAD_REACTORS
330
763
102
}
330
1F
100
AcDbEntity
  8
実線
100
AcDbCircle
 10
806.0695299986265
 20
352.1644479664334
 30
0.0
 40
5.0
100
AcDbArc
 50
180.0
 51
270.0
  0
ARC
  5
53E
102
{ACAD_REACTORS
330
763
102
}
330
1F
100
AcDbEntity
  8
実線
100
AcDbCircle
 10
891.0695299986267
 20
352.1644479664334
 30
0.0
 40
5.0
100
AcDbArc
 50
270.0
 51
0.0
  0
LINE
  5
53F
102
{ACAD_REACTORS
330
763
102
}
330
1F
100
AcDbEntity
  8
実線
100
AcDbLine
 10
813.9285138472484
 20
655.9824156636785
 30
0.0
 11
816.7101687941995
 21
651.1644479664332
 31
0.0
  0
LINE
  5
540
102
{ACAD_REACTORS
330
763
102
}
330
1F
100
AcDbEntity
  8
実線
100
AcDbLine
 10
888.5695299986267
 20
675.9824156636782
 30
0.0
 11
888.5695299986267
 21
685.1644479664332
 31
0.0
  0
LINE
  5
541
102
{ACAD_REACTORS
330
763
102
}
330
1F
100
AcDbEntity
  8
実線
100
AcDbLine
 10
808.5695299986266
 20
685.1644479664332
 30
0.0
 11
808.5695299986266
 21
675.9824156636782
 31
0.0
  0
ARC
  5
542
102
{ACAD_REACTORS
330
763
102
}
330
1F
100
AcDbEntity
  8
実線
100
AcDbCircle
 10
848.5695299986264
 20
675.9824156636782
 30
0.0
 40
40.0
100
AcDbArc
 50
180.0
 51
210.0000000000005
  0
ARC
  5
543
102
{ACAD_REACTORS
330
763
102
}
330
1F
100
AcDbEntity
  8
実線
100
AcDbCircle
 10
848.5695299986264
 20
675.9824156636782
 30
0.0
 40
40.0
100
AcDbArc
 50
341.4256159678992
 51
0.0
  0
LINE
  5
544
102
{ACAD_REACTORS
330
762
102
}
330
1F
100
AcDbEntity
  8
実線
100
AcDbLine
 10
618.5695299986274
 20
953.8644479664332
 30
0.0
 11
598.5695299986266
 21
953.8644479664332
 31
0.0
  0
LINE
  5
545
102
{ACAD_REACTORS
330
762
102
}
330
1F
100
AcDbEntity
  8
実線
100
AcDbLine
 10
618.5695299986274
 20
930.1644479664332
 30
0.0
 11
618.5695299986274
 21
953.8644479664332
 31
0.0
  0
LINE
  5
546
102
{ACAD_REACTORS
330
762
102
}
330
1F
100
AcDbEntity
  8
実線
100
AcDbLine
 10
598.5695299986266
 20
953.8644479664332
 30
0.0
 11
598.5695299986266
 21
930.1644479664332
 31
0.0
  0
ELLIPSE
  5
547
102
{ACAD_REACTORS
330
762
102
}
330
1F
100
AcDbEntity
  8
実線
100
AcDbEllipse
 10
535.0304247552426
 20
638.6644479664332
 30
0.0
 11
0.0000000000000018
 21
5.0
 31
0.0
210
0.0
220
0.0
230
1.0
 40
0.7071067811865475
 41
0.0
 42
1.570796326794897
  0
ELLIPSE
  5
548
102
{ACAD_REACTORS
330
762
102
}
330
1F
100
AcDbEntity
  8
実線
100
AcDbEllipse
 10
537.1517450988023
 20
638.6644479664332
 30
0.0
 11
0.0
 21
5.0
 31
0.0
210
0.0
220
0.0
230
1.0
 40
0.7071067811865475
 41
4.71238898038469
 42
6.283185307179584
  0
LINE
  5
549
102
{ACAD_REACTORS
330
762
102
}
330
1F
100
AcDbEntity
  8
実線
100
AcDbLine
 10
537.1517450988023
 20
643.6644479664334
 30
0.0
 11
535.0304247552426
 21
643.6644479664334
 31
0.0
  0
LINE
  5
54A
102
{ACAD_REACTORS
330
762
102
}
330
1F
100
AcDbEntity
  8
実線
100
AcDbLine
 10
535.0304247552426
 20
633.6644479664332
 30
0.0
 11
537.1517450988023
 21
633.6644479664332
 31
0.0
  0
ELLIPSE
  5
54B
102
{ACAD_REACTORS
330
762
102
}
330
1F
100
AcDbEntity
  8
実線
100
AcDbEllipse
 10
535.0304247552426
 20
638.6644479664332
 30
0.0
 11
0.0000000000000018
 21
5.0
 31
0.0
210
0.0
220
0.0
230
1.0
 40
0.7071067811865475
 41
3.141592653589792
 42
6.283185307179584
  0
ELLIPSE
  5
54C
102
{ACAD_REACTORS
330
762
102
}
330
1F
100
AcDbEntity
  8
実線
100
AcDbEllipse
 10
535.0304247552426
 20
638.6644479664332
 30
0.0
 11
0.0000000000000018
 21
5.0
 31
0.0
210
0.0
220
0.0
230
1.0
 40
0.7071067811865475
 41
1.570796326794897
 42
3.141592653589792
  0
ELLIPSE
  5
54D
102
{ACAD_REACTORS
330
762
102
}
330
1F
100
AcDbEntity
  8
実線
100
AcDbEllipse
 10
537.1517450988023
 20
638.6644479664332
 30
0.0
 11
0.0
 21
5.0
 31
0.0
210
0.0
220
0.0
230
1.0
 40
0.7071067811865475
 41
3.141592653589792
 42
4.71238898038469
  0
ELLIPSE
  5
54E
102
{ACAD_REACTORS
330
762
102
}
330
1F
100
AcDbEntity
  8
実線
100
AcDbEllipse
 10
547.0512400353961
 20
638.6644479664332
 30
0.0
 11
0.0
 21
2.999999999597037
 31
0.0
210
0.0
220
0.0
230
1.0
 40
0.7071067811865474
 41
4.71238898038469
 42
6.283185307179584
  0
LINE
  5
54F
102
{ACAD_REACTORS
330
762
102
}
330
1F
100
AcDbEntity
  8
実線
100
AcDbLine
 10
547.0512400353961
 20
641.6644479660304
 30
0.0
 11
539.9801722237623
 21
641.6644479660304
 31
0.0
  0
LINE
  5
550
102
{ACAD_REACTORS
330
762
102
}
330
1F
100
AcDbEntity
  8
実線
100
AcDbLine
 10
539.9801722237612
 20
635.6644479668362
 30
0.0
 11
547.0512400353961
 21
635.6644479668362
 31
0.0
  0
ELLIPSE
  5
551
102
{ACAD_REACTORS
330
762
102
}
330
1F
100
AcDbEntity
  8
実線
100
AcDbEllipse
 10
547.0512400353961
 20
638.6644479664332
 30
0.0
 11
0.0
 21
2.999999999597037
 31
0.0
210
0.0
220
0.0
230
1.0
 40
0.7071067811865474
 41
3.141592653589792
 42
4.71238898038469
  0
LINE
  5
552
102
{ACAD_REACTORS
330
762
102
}
330
1F
100
AcDbEntity
  8
実線
100
AcDbLine
 10
575.6890646734514
 20
668.3629327762684
 30
0.0
 11
547.0512400353961
 21
668.3629327762684
 31
0.0
  0
LINE
  5
553
102
{ACAD_REACTORS
330
762
102
}
330
1F
100
AcDbEntity
  8
実線
100
AcDbLine
 10
526.0512400353961
 20
638.6644479664332
 30
0.0
 11
547.0512400353961
 21
668.3629327762684
 31
0.0
  0
LINE
  5
554
102
{ACAD_REACTORS
330
762
102
}
330
1F
100
AcDbEntity
  8
実線
100
AcDbLine
 10
547.0512400353961
 20
608.9659631565985
 30
0.0
 11
526.0512400353961
 21
638.6644479664332
 31
0.0
  0
LINE
  5
555
102
{ACAD_REACTORS
330
762
102
}
330
1F
100
AcDbEntity
  8
実線
100
AcDbLine
 10
547.0512400353961
 20
668.3629327762684
 30
0.0
 11
568.0512400353962
 21
638.6644479664332
 31
0.0
  0
LINE
  5
556
102
{ACAD_REACTORS
330
762
102
}
330
1F
100
AcDbEntity
  8
実線
100
AcDbLine
 10
596.6890646734514
 20
638.6644479664332
 30
0.0
 11
568.0512400353962
 21
638.6644479664332
 31
0.0
  0
LINE
  5
557
102
{ACAD_REACTORS
330
762
102
}
330
1F
100
AcDbEntity
  8
実線
100
AcDbLine
 10
568.0512400353962
 20
638.6644479664332
 30
0.0
 11
547.0512400353961
 21
608.9659631565985
 31
0.0
  0
LINE
  5
558
102
{ACAD_REACTORS
330
762
102
}
330
1F
100
AcDbEntity
  8
実線
100
AcDbLine
 10
575.6890646734514
 20
608.9659631565985
 30
0.0
 11
547.0512400353961
 21
608.9659631565985
 31
0.0
  0
LINE
  5
559
102
{ACAD_REACTORS
330
762
102
}
330
1F
100
AcDbEntity
  8
実線
100
AcDbLine
 10
575.6890646734514
 20
608.9659631565985
 30
0.0
 11
596.6890646734514
 21
638.6644479664332
 31
0.0
  0
CIRCLE
  5
55A
102
{ACAD_REACTORS
330
762
102
}
330
1F
100
AcDbEntity
  8
実線
100
AcDbCircle
 10
608.5695299986266
 20
610.0644479664332
 30
0.0
 40
25.25
  0
LINE
  5
55B
102
{ACAD_REACTORS
330
762
102
}
330
1F
100
AcDbEntity
  8
実線
100
AcDbLine
 10
561.5923602297425
 20
686.3144479664334
 30
0.0
 11
543.6695299986264
 21
686.3144479664334
 31
0.0
  0
LINE
  5
55C
102
{ACAD_REACTORS
330
762
102
}
330
1F
100
AcDbEntity
  8
実線
100
AcDbLine
 10
543.6695299986264
 20
686.3144479664334
 30
0.0
 11
543.6695299986264
 21
663.5804725782544
 31
0.0
  0
LINE
  5
55D
102
{ACAD_REACTORS
330
762
102
}
330
1F
100
AcDbEntity
  8
実線
100
AcDbLine
 10
543.6695299986264
 20
686.3144479664334
 30
0.0
 11
541.3195299986264
 21
692.5144479664334
 31
0.0
  0
LINE
  5
55E
102
{ACAD_REACTORS
330
762
102
}
330
1F
100
AcDbEntity
  8
実線
100
AcDbLine
 10
538.5695299986264
 20
692.5144479664334
 30
0.0
 11
538.5695299986264
 21
656.3679834101515
 31
0.0
  0
LINE
  5
55F
102
{ACAD_REACTORS
330
762
102
}
330
1F
100
AcDbEntity
  8
実線
100
AcDbLine
 10
541.3195299986264
 20
692.5144479664334
 30
0.0
 11
541.3195299986264
 21
660.2570707066774
 31
0.0
  0
LINE
  5
560
102
{ACAD_REACTORS
330
762
102
}
330
1F
100
AcDbEntity
  8
実線
100
AcDbLine
 10
541.3195299986264
 20
692.5144479664334
 30
0.0
 11
538.5695299986264
 21
692.5144479664334
 31
0.0
  0
LINE
  5
561
102
{ACAD_REACTORS
330
762
102
}
330
1F
100
AcDbEntity
  8
実線
100
AcDbLine
 10
624.5193806777511
 20
648.9144479664332
 30
0.0
 11
605.6530054822133
 21
648.9144479664332
 31
0.0
  0
LINE
  5
562
102
{ACAD_REACTORS
330
762
102
}
330
1F
100
AcDbEntity
  8
実線
100
AcDbLine
 10
673.4695299986265
 20
686.3144479664334
 30
0.0
 11
655.5466997675105
 21
686.3144479664334
 31
0.0
  0
LINE
  5
563
102
{ACAD_REACTORS
330
762
102
}
330
1F
100
AcDbEntity
  8
実線
100
AcDbLine
 10
647.8600618628672
 20
648.2144479664332
 30
0.0
 11
673.4695299986265
 21
648.2144479664332
 31
0.0
  0
LINE
  5
564
102
{ACAD_REACTORS
330
762
102
}
330
1F
100
AcDbEntity
  8
実線
100
AcDbLine
 10
678.5695299986266
 20
692.5144479664334
 30
0.0
 11
675.8195299986266
 21
692.5144479664334
 31
0.0
  0
LINE
  5
565
102
{ACAD_REACTORS
330
762
102
}
330
1F
100
AcDbEntity
  8
実線
100
AcDbLine
 10
675.8195299986266
 20
642.0144479664336
 30
0.0
 11
678.5695299986266
 21
642.0144479664336
 31
0.0
  0
LINE
  5
566
102
{ACAD_REACTORS
330
762
102
}
330
1F
100
AcDbEntity
  8
実線
100
AcDbLine
 10
678.5695299986266
 20
642.0144479664336
 30
0.0
 11
678.5695299986266
 21
692.5144479664334
 31
0.0
  0
LINE
  5
567
102
{ACAD_REACTORS
330
762
102
}
330
1F
100
AcDbEntity
  8
実線
100
AcDbLine
 10
673.4695299986265
 20
648.2144479664332
 30
0.0
 11
675.8195299986266
 21
642.0144479664336
 31
0.0
  0
LINE
  5
568
102
{ACAD_REACTORS
330
762
102
}
330
1F
100
AcDbEntity
  8
実線
100
AcDbLine
 10
675.8195299986266
 20
692.5144479664334
 30
0.0
 11
673.4695299986265
 21
686.3144479664334
 31
0.0
  0
LINE
  5
569
102
{ACAD_REACTORS
330
762
102
}
330
1F
100
AcDbEntity
  8
実線
100
AcDbLine
 10
675.8195299986266
 20
692.5144479664334
 30
0.0
 11
675.8195299986266
 21
642.0144479664336
 31
0.0
  0
LINE
  5
56A
102
{ACAD_REACTORS
330
762
102
}
330
1F
100
AcDbEntity
  8
実線
100
AcDbLine
 10
673.4695299986265
 20
686.3144479664334
 30
0.0
 11
673.4695299986265
 21
648.2144479664332
 31
0.0
  0
LINE
  5
56B
102
{ACAD_REACTORS
330
762
102
}
330
1F
100
AcDbEntity
  8
実線
100
AcDbLine
 10
598.5695299986266
 20
323.4644479664335
 30
0.0
 11
618.5695299986266
 21
323.4644479664335
 31
0.0
  0
LINE
  5
56C
102
{ACAD_REACTORS
330
762
102
}
330
1F
100
AcDbEntity
  8
実線
100
AcDbLine
 10
598.5695299986266
 20
347.1644479664334
 30
0.0
 11
598.5695299986266
 21
323.4644479664335
 31
0.0
  0
LINE
  5
56D
102
{ACAD_REACTORS
330
762
102
}
330
1F
100
AcDbEntity
  8
実線
100
AcDbLine
 10
618.5695299986266
 20
323.4644479664335
 30
0.0
 11
618.5695299986266
 21
347.1644479664334
 31
0.0
  0
LINE
  5
56E
102
{ACAD_REACTORS
330
762
102
}
330
1F
100
AcDbEntity
  8
実線
100
AcDbLine
 10
655.5466997675105
 20
569.1644479664332
 30
0.0
 11
655.5466997675105
 21
582.1644479664334
 31
0.0
  0
LINE
  5
56F
102
{ACAD_REACTORS
330
762
102
}
330
1F
100
AcDbEntity
  8
実線
100
AcDbLine
 10
655.5466997675105
 20
569.1644479664332
 30
0.0
 11
626.5984268090504
 21
569.1644479664332
 31
0.0
  0
LINE
  5
570
102
{ACAD_REACTORS
330
762
102
}
330
1F
100
AcDbEntity
  8
実線
100
AcDbLine
 10
561.5923602297425
 20
569.1644479664332
 30
0.0
 11
590.5406331882025
 21
569.1644479664332
 31
0.0
  0
LINE
  5
571
102
{ACAD_REACTORS
330
762
102
}
330
1F
100
AcDbEntity
  8
実線
100
AcDbLine
 10
561.5923602297425
 20
582.1644479664334
 30
0.0
 11
561.5923602297425
 21
569.1644479664332
 31
0.0
  0
LINE
  5
572
102
{ACAD_REACTORS
330
762
102
}
330
1F
100
AcDbEntity
  8
実線
100
AcDbLine
 10
626.5984268090504
 20
569.1644479664332
 30
0.0
 11
626.5984268090504
 21
582.1644479664334
 31
0.0
  0
LINE
  5
573
102
{ACAD_REACTORS
330
762
102
}
330
1F
100
AcDbEntity
  8
実線
100
AcDbLine
 10
590.5406331882025
 20
569.1644479664332
 30
0.0
 11
590.5406331882025
 21
582.1644479664334
 31
0.0
  0
LINE
  5
574
102
{ACAD_REACTORS
330
762
102
}
330
1F
100
AcDbEntity
  8
実線
100
AcDbLine
 10
648.5695299986266
 20
562.1644479664333
 30
0.0
 11
648.5695299986266
 21
569.1644479664332
 31
0.0
  0
LINE
  5
575
102
{ACAD_REACTORS
330
762
102
}
330
1F
100
AcDbEntity
  8
実線
100
AcDbLine
 10
568.5695299986264
 20
569.1644479664332
 30
0.0
 11
568.5695299986264
 21
562.1644479664333
 31
0.0
  0
LINE
  5
576
102
{ACAD_REACTORS
330
762
102
}
330
1F
100
AcDbEntity
  8
実線
100
AcDbLine
 10
561.5923602297433
 20
708.1644479664332
 30
0.0
 11
561.5923602297433
 21
695.1644479664333
 31
0.0
  0
LINE
  5
577
102
{ACAD_REACTORS
330
762
102
}
330
1F
100
AcDbEntity
  8
実線
100
AcDbLine
 10
561.5923602297433
 20
695.1644479664333
 30
0.0
 11
655.5466997675105
 21
695.1644479664333
 31
0.0
  0
LINE
  5
578
102
{ACAD_REACTORS
330
762
102
}
330
1F
100
AcDbEntity
  8
実線
100
AcDbLine
 10
561.5923602297433
 20
708.1644479664332
 30
0.0
 11
590.5406331882034
 21
708.1644479664332
 31
0.0
  0
LINE
  5
579
102
{ACAD_REACTORS
330
762
102
}
330
1F
100
AcDbEntity
  8
実線
100
AcDbLine
 10
655.5466997675105
 20
708.1644479664332
 30
0.0
 11
626.5984268090504
 21
708.1644479664332
 31
0.0
  0
LINE
  5
57A
102
{ACAD_REACTORS
330
762
102
}
330
1F
100
AcDbEntity
  8
実線
100
AcDbLine
 10
655.5466997675105
 20
695.1644479664333
 30
0.0
 11
655.5466997675105
 21
708.1644479664332
 31
0.0
  0
LINE
  5
57B
102
{ACAD_REACTORS
330
762
102
}
330
1F
100
AcDbEntity
  8
実線
100
AcDbLine
 10
626.5984268090504
 20
708.1644479664332
 30
0.0
 11
626.5984268090504
 21
695.1644479664333
 31
0.0
  0
LINE
  5
57C
102
{ACAD_REACTORS
330
762
102
}
330
1F
100
AcDbEntity
  8
実線
100
AcDbLine
 10
590.5406331882034
 20
708.1644479664332
 30
0.0
 11
590.5406331882034
 21
695.1644479664333
 31
0.0
  0
LINE
  5
57D
102
{ACAD_REACTORS
330
762
102
}
330
1F
100
AcDbEntity
  8
実線
100
AcDbLine
 10
568.5695299986274
 20
715.1644479664333
 30
0.0
 11
568.5695299986274
 21
708.1644479664332
 31
0.0
  0
LINE
  5
57E
102
{ACAD_REACTORS
330
762
102
}
330
1F
100
AcDbEntity
  8
実線
100
AcDbLine
 10
648.5695299986266
 20
708.1644479664332
 30
0.0
 11
648.5695299986266
 21
715.1644479664333
 31
0.0
  0
LINE
  5
57F
102
{ACAD_REACTORS
330
762
102
}
330
1F
100
AcDbEntity
  8
実線
100
AcDbLine
 10
648.5695299986266
 20
715.1644479664333
 30
0.0
 11
568.5695299986264
 21
715.1644479664333
 31
0.0
  0
LINE
  5
580
102
{ACAD_REACTORS
330
762
102
}
330
1F
100
AcDbEntity
  8
実線
100
AcDbLine
 10
561.5923602297425
 20
685.1644479664332
 30
0.0
 11
655.5466997675105
 21
685.1644479664332
 31
0.0
  0
LINE
  5
581
102
{ACAD_REACTORS
330
762
102
}
330
1F
100
AcDbEntity
  8
実線
100
AcDbLine
 10
655.5466997675105
 20
685.1644479664332
 30
0.0
 11
655.5466997675105
 21
695.1644479664333
 31
0.0
  0
LINE
  5
582
102
{ACAD_REACTORS
330
762
102
}
330
1F
100
AcDbEntity
  8
実線
100
AcDbLine
 10
561.5923602297425
 20
695.1644479664333
 30
0.0
 11
561.5923602297425
 21
685.1644479664332
 31
0.0
  0
LINE
  5
583
102
{ACAD_REACTORS
330
762
102
}
330
1F
100
AcDbEntity
  8
実線
100
AcDbLine
 10
590.5406331882025
 20
695.1644479664333
 30
0.0
 11
590.5406331882025
 21
685.1644479664332
 31
0.0
  0
LINE
  5
584
102
{ACAD_REACTORS
330
762
102
}
330
1F
100
AcDbEntity
  8
実線
100
AcDbLine
 10
626.5984268090504
 20
695.1644479664333
 30
0.0
 11
626.5984268090504
 21
685.1644479664332
 31
0.0
  0
LINE
  5
585
102
{ACAD_REACTORS
330
762
102
}
330
1F
100
AcDbEntity
  8
実線
100
AcDbLine
 10
568.5695299986264
 20
562.1644479664333
 30
0.0
 11
568.5695299986264
 21
416.6644479664332
 31
0.0
  0
LINE
  5
586
102
{ACAD_REACTORS
330
762
102
}
330
1F
100
AcDbEntity
  8
実線
100
AcDbLine
 10
648.5695299986266
 20
416.6644479664332
 30
0.0
 11
648.5695299986266
 21
562.1644479664333
 31
0.0
  0
LINE
  5
587
102
{ACAD_REACTORS
330
762
102
}
330
1F
100
AcDbEntity
  8
実線
100
AcDbLine
 10
648.5695299986266
 20
562.1644479664333
 30
0.0
 11
568.5695299986264
 21
562.1644479664333
 31
0.0
  0
LINE
  5
588
102
{ACAD_REACTORS
330
762
102
}
330
1F
100
AcDbEntity
  8
実線
100
AcDbLine
 10
656.0695299986266
 20
352.1644479664334
 30
0.0
 11
561.0695299986264
 21
352.1644479664334
 31
0.0
  0
LINE
  5
589
102
{ACAD_REACTORS
330
762
102
}
330
1F
100
AcDbEntity
  8
実線
100
AcDbLine
 10
561.0695299986264
 20
409.1644479664333
 30
0.0
 11
561.0695299986264
 21
352.1644479664334
 31
0.0
  0
LINE
  5
58A
102
{ACAD_REACTORS
330
762
102
}
330
1F
100
AcDbEntity
  8
実線
100
AcDbLine
 10
656.0695299986266
 20
352.1644479664334
 30
0.0
 11
656.0695299986266
 21
409.1644479664333
 31
0.0
  0
LINE
  5
58B
102
{ACAD_REACTORS
330
762
102
}
330
1F
100
AcDbEntity
  8
実線
100
AcDbLine
 10
648.5695299986266
 20
416.6644479664332
 30
0.0
 11
568.5695299986264
 21
416.6644479664332
 31
0.0
  0
LINE
  5
58C
102
{ACAD_REACTORS
330
762
102
}
330
1F
100
AcDbEntity
  8
実線
100
AcDbLine
 10
561.0695299986264
 20
409.1644479664333
 30
0.0
 11
656.0695299986266
 21
409.1644479664333
 31
0.0
  0
LINE
  5
58D
102
{ACAD_REACTORS
330
762
102
}
330
1F
100
AcDbEntity
  8
実線
100
AcDbLine
 10
568.5695299986264
 20
416.6644479664332
 30
0.0
 11
561.0695299986264
 21
409.1644479664333
 31
0.0
  0
LINE
  5
58E
102
{ACAD_REACTORS
330
762
102
}
330
1F
100
AcDbEntity
  8
実線
100
AcDbLine
 10
656.0695299986266
 20
409.1644479664333
 30
0.0
 11
648.5695299986266
 21
416.6644479664332
 31
0.0
  0
LINE
  5
58F
102
{ACAD_REACTORS
330
762
102
}
330
1F
100
AcDbEntity
  8
実線
100
AcDbLine
 10
648.5695299986266
 20
715.1644479664333
 30
0.0
 11
648.5695299986266
 21
860.6644479664332
 31
0.0
  0
LINE
  5
590
102
{ACAD_REACTORS
330
762
102
}
330
1F
100
AcDbEntity
  8
実線
100
AcDbLine
 10
568.5695299986264
 20
860.6644479664332
 30
0.0
 11
568.5695299986264
 21
715.1644479664333
 31
0.0
  0
LINE
  5
591
102
{ACAD_REACTORS
330
762
102
}
330
1F
100
AcDbEntity
  8
実線
100
AcDbLine
 10
656.0695299986274
 20
868.1644479664333
 30
0.0
 11
656.0695299986274
 21
925.1644479664333
 31
0.0
  0
LINE
  5
592
102
{ACAD_REACTORS
330
762
102
}
330
1F
100
AcDbEntity
  8
実線
100
AcDbLine
 10
561.0695299986264
 20
925.1644479664333
 30
0.0
 11
561.0695299986264
 21
868.1644479664333
 31
0.0
  0
LINE
  5
593
102
{ACAD_REACTORS
330
762
102
}
330
1F
100
AcDbEntity
  8
実線
100
AcDbLine
 10
656.0695299986274
 20
925.1644479664333
 30
0.0
 11
561.0695299986264
 21
925.1644479664333
 31
0.0
  0
LINE
  5
594
102
{ACAD_REACTORS
330
762
102
}
330
1F
100
AcDbEntity
  8
実線
100
AcDbLine
 10
648.5695299986266
 20
860.6644479664332
 30
0.0
 11
656.0695299986274
 21
868.1644479664333
 31
0.0
  0
LINE
  5
595
102
{ACAD_REACTORS
330
762
102
}
330
1F
100
AcDbEntity
  8
実線
100
AcDbLine
 10
561.0695299986264
 20
868.1644479664333
 30
0.0
 11
568.5695299986264
 21
860.6644479664332
 31
0.0
  0
LINE
  5
596
102
{ACAD_REACTORS
330
762
102
}
330
1F
100
AcDbEntity
  8
実線
100
AcDbLine
 10
648.5695299986266
 20
860.6644479664332
 30
0.0
 11
568.5695299986264
 21
860.6644479664332
 31
0.0
  0
LINE
  5
597
102
{ACAD_REACTORS
330
762
102
}
330
1F
100
AcDbEntity
  8
実線
100
AcDbLine
 10
561.0695299986264
 20
868.1644479664333
 30
0.0
 11
656.0695299986274
 21
868.1644479664333
 31
0.0
  0
LINE
  5
598
102
{ACAD_REACTORS
330
762
102
}
330
1F
100
AcDbEntity
  8
実線
100
AcDbLine
 10
651.0695299986267
 20
930.1644479664332
 30
0.0
 11
566.0695299986274
 21
930.1644479664332
 31
0.0
  0
ARC
  5
599
102
{ACAD_REACTORS
330
762
102
}
330
1F
100
AcDbEntity
  8
実線
100
AcDbCircle
 10
651.0695299986267
 20
925.1644479664333
 30
0.0
 40
5.0
100
AcDbArc
 50
0.0
 51
90.0
  0
ARC
  5
59A
102
{ACAD_REACTORS
330
762
102
}
330
1F
100
AcDbEntity
  8
実線
100
AcDbCircle
 10
566.0695299986274
 20
925.1644479664333
 30
0.0
 40
5.0
100
AcDbArc
 50
90.0
 51
180.0
  0
LINE
  5
59B
102
{ACAD_REACTORS
330
762
102
}
330
1F
100
AcDbEntity
  8
実線
100
AcDbLine
 10
590.7607540721346
 20
592.1644479664332
 30
0.0
 11
561.5923602297425
 21
592.1644479664332
 31
0.0
  0
LINE
  5
59C
102
{ACAD_REACTORS
330
762
102
}
330
1F
100
AcDbEntity
  8
実線
100
AcDbLine
 10
626.3783059251186
 20
592.1644479664332
 30
0.0
 11
655.5466997675105
 21
592.1644479664332
 31
0.0
  0
LINE
  5
59D
102
{ACAD_REACTORS
330
762
102
}
330
1F
100
AcDbEntity
  8
実線
100
AcDbLine
 10
655.5466997675105
 20
582.1644479664334
 30
0.0
 11
561.5923602297425
 21
582.1644479664334
 31
0.0
  0
LINE
  5
59E
102
{ACAD_REACTORS
330
762
102
}
330
1F
100
AcDbEntity
  8
実線
100
AcDbLine
 10
561.5923602297425
 20
592.1644479664332
 30
0.0
 11
561.5923602297425
 21
582.1644479664334
 31
0.0
  0
LINE
  5
59F
102
{ACAD_REACTORS
330
762
102
}
330
1F
100
AcDbEntity
  8
実線
100
AcDbLine
 10
655.5466997675105
 20
582.1644479664334
 30
0.0
 11
655.5466997675105
 21
592.1644479664332
 31
0.0
  0
LINE
  5
5A0
102
{ACAD_REACTORS
330
762
102
}
330
1F
100
AcDbEntity
  8
実線
100
AcDbLine
 10
626.5984268090504
 20
582.1644479664334
 30
0.0
 11
626.5984268090504
 21
592.1644479664332
 31
0.0
  0
LINE
  5
5A1
102
{ACAD_REACTORS
330
762
102
}
330
1F
100
AcDbEntity
  8
実線
100
AcDbLine
 10
590.5406331882025
 20
582.1644479664334
 30
0.0
 11
590.5406331882025
 21
592.1644479664332
 31
0.0
  0
LINE
  5
5A2
102
{ACAD_REACTORS
330
762
102
}
330
1F
100
AcDbEntity
  8
実線
100
AcDbLine
 10
580.8031521242212
 20
668.3629327762684
 30
0.0
 11
575.6890646734514
 21
668.3629327762684
 31
0.0
  0
LINE
  5
5A3
102
{ACAD_REACTORS
330
762
102
}
330
1F
100
AcDbEntity
  8
実線
100
AcDbLine
 10
575.6890646734514
 20
668.3629327762684
 30
0.0
 11
596.6890646734514
 21
638.6644479664332
 31
0.0
  0
LINE
  5
5A4
102
{ACAD_REACTORS
330
762
102
}
330
1F
100
AcDbEntity
  8
実線
100
AcDbLine
 10
657.1113391258416
 20
648.2144479664332
 30
0.0
 11
663.8642088861736
 21
638.6644479664332
 31
0.0
  0
LINE
  5
5A5
102
{ACAD_REACTORS
330
762
102
}
330
1F
100
AcDbEntity
  8
実線
100
AcDbLine
 10
663.8642088861736
 20
638.6644479664332
 30
0.0
 11
646.4859666611111
 21
614.0879021215456
 31
0.0
  0
LINE
  5
5A6
102
{ACAD_REACTORS
330
762
102
}
330
1F
100
AcDbEntity
  8
実線
100
AcDbLine
 10
650.9959368698182
 20
638.6644479664332
 30
0.0
 11
663.8642088861736
 21
638.6644479664332
 31
0.0
  0
LINE
  5
5A7
102
{ACAD_REACTORS
330
762
102
}
330
1F
100
AcDbEntity
  8
実線
100
AcDbLine
 10
596.6890646734514
 20
638.6644479664332
 30
0.0
 11
620.7306952337944
 21
638.6644479664332
 31
0.0
  0
LINE
  5
5A8
102
{ACAD_REACTORS
330
762
102
}
330
1F
100
AcDbEntity
  8
実線
100
AcDbLine
 10
580.8031521242212
 20
608.9659631565985
 30
0.0
 11
575.6890646734514
 21
608.9659631565985
 31
0.0
  0
ELLIPSE
  5
5A9
102
{ACAD_REACTORS
330
762
102
}
330
1F
100
AcDbEntity
  8
実線
100
AcDbEllipse
 10
642.1571021049873
 20
638.6644479664332
 30
0.0
 11
0.0
 21
12.5
 31
0.0
210
0.0
220
0.0
230
1.0
 40
0.7071067811865475
 41
3.141592653589792
 42
4.71238898038469
  0
LINE
  5
5AA
102
{ACAD_REACTORS
330
762
102
}
330
1F
100
AcDbEntity
  8
実線
100
AcDbLine
 10
642.1571021049873
 20
651.1644479664332
 30
0.0
 11
631.0975003505473
 21
651.1644479664332
 31
0.0
  0
LINE
  5
5AB
102
{ACAD_REACTORS
330
762
102
}
330
1F
100
AcDbEntity
  8
実線
100
AcDbLine
 10
631.0975003505473
 20
626.1644479664332
 30
0.0
 11
642.1571021049873
 21
626.1644479664332
 31
0.0
  0
ELLIPSE
  5
5AC
102
{ACAD_REACTORS
330
762
102
}
330
1F
100
AcDbEntity
  8
実線
100
AcDbEllipse
 10
642.1571021049873
 20
638.6644479664332
 30
0.0
 11
0.0
 21
12.5
 31
0.0
210
0.0
220
0.0
230
1.0
 40
0.7071067811865475
 41
0.0
 42
3.141592653589792
  0
ELLIPSE
  5
5AD
102
{ACAD_REACTORS
330
762
102
}
330
1F
100
AcDbEntity
  8
実線
100
AcDbEllipse
 10
642.1571021049873
 20
638.6644479664332
 30
0.0
 11
0.0
 21
12.5
 31
0.0
210
0.0
220
0.0
230
1.0
 40
0.7071067811865475
 41
4.71238898038469
 42
6.283185307179584
  0
LINE
  5
5AE
102
{ACAD_REACTORS
330
762
102
}
330
1F
100
AcDbEntity
  8
実線
100
AcDbLine
 10
651.0695299986267
 20
347.1644479664334
 30
0.0
 11
566.0695299986264
 21
347.1644479664334
 31
0.0
  0
ARC
  5
5AF
102
{ACAD_REACTORS
330
762
102
}
330
1F
100
AcDbEntity
  8
実線
100
AcDbCircle
 10
566.0695299986264
 20
352.1644479664334
 30
0.0
 40
5.0
100
AcDbArc
 50
180.0
 51
270.0
  0
ARC
  5
5B0
102
{ACAD_REACTORS
330
762
102
}
330
1F
100
AcDbEntity
  8
実線
100
AcDbCircle
 10
651.0695299986267
 20
352.1644479664334
 30
0.0
 40
5.0
100
AcDbArc
 50
270.0
 51
0.0
  0
LINE
  5
5B1
102
{ACAD_REACTORS
330
762
102
}
330
1F
100
AcDbEntity
  8
実線
100
AcDbLine
 10
643.2105461500036
 20
621.3464802691885
 30
0.0
 11
640.4288912030525
 21
626.1644479664337
 31
0.0
  0
LINE
  5
5B2
102
{ACAD_REACTORS
330
762
102
}
330
1F
100
AcDbEntity
  8
実線
100
AcDbLine
 10
568.5695299986264
 20
601.3464802691885
 30
0.0
 11
568.5695299986264
 21
592.1644479664337
 31
0.0
  0
LINE
  5
5B3
102
{ACAD_REACTORS
330
762
102
}
330
1F
100
AcDbEntity
  8
実線
100
AcDbLine
 10
648.5695299986266
 20
592.1644479664332
 30
0.0
 11
648.5695299986266
 21
601.3464802691885
 31
0.0
  0
ARC
  5
5B4
102
{ACAD_REACTORS
330
762
102
}
330
1F
100
AcDbEntity
  8
実線
100
AcDbCircle
 10
608.5695299986266
 20
601.3464802691885
 30
0.0
 40
40.0
100
AcDbArc
 50
0.0
 51
30.00000000000055
  0
ARC
  5
5B5
102
{ACAD_REACTORS
330
762
102
}
330
1F
100
AcDbEntity
  8
実線
100
AcDbCircle
 10
608.5695299986266
 20
601.3464802691885
 30
0.0
 40
40.0
100
AcDbArc
 50
169.0187894681048
 51
180.0
  0
LINE
  5
5B6
102
{ACAD_REACTORS
330
760
102
}
330
1F
100
AcDbEntity
  8
実線
100
AcDbLine
 10
138.5695299986266
 20
930.1644479664332
 30
0.0
 11
138.5695299986266
 21
953.8644479664332
 31
0.0
  0
LINE
  5
5B7
102
{ACAD_REACTORS
330
760
102
}
330
1F
100
AcDbEntity
  8
実線
100
AcDbLine
 10
118.5695299986266
 20
953.8644479664332
 30
0.0
 11
118.5695299986266
 21
930.1644479664332
 31
0.0
  0
LINE
  5
5B8
102
{ACAD_REACTORS
330
760
102
}
330
1F
100
AcDbEntity
  8
実線
100
AcDbLine
 10
138.5695299986266
 20
953.8644479664332
 30
0.0
 11
118.5695299986266
 21
953.8644479664332
 31
0.0
  0
LINE
  5
5B9
102
{ACAD_REACTORS
330
760
102
}
330
1F
100
AcDbEntity
  8
実線
100
AcDbLine
 10
211.0878199618571
 20
638.6644479664332
 30
0.0
 11
198.5695299986273
 21
656.3679834101515
 31
0.0
  0
LINE
  5
5BA
102
{ACAD_REACTORS
330
760
102
}
330
1F
100
AcDbEntity
  8
実線
100
AcDbLine
 10
167.8371181665868
 20
608.9659631565985
 30
0.0
 11
190.0878199618571
 21
608.9659631565985
 31
0.0
  0
LINE
  5
5BB
102
{ACAD_REACTORS
330
760
102
}
330
1F
100
AcDbEntity
  8
実線
100
AcDbLine
 10
190.0878199618571
 20
608.9659631565985
 30
0.0
 11
211.0878199618571
 21
638.6644479664332
 31
0.0
  0
LINE
  5
5BC
102
{ACAD_REACTORS
330
760
102
}
330
1F
100
AcDbEntity
  8
実線
100
AcDbLine
 10
184.4309657123646
 20
638.6644479664332
 30
0.0
 11
211.0878199618571
 21
638.6644479664332
 31
0.0
  0
CIRCLE
  5
5BD
102
{ACAD_REACTORS
330
760
102
}
330
1F
100
AcDbEntity
  8
実線
100
AcDbCircle
 10
128.5695299986273
 20
610.0644479664332
 30
0.0
 40
25.25
  0
LINE
  5
5BE
102
{ACAD_REACTORS
330
760
102
}
330
1F
100
AcDbEntity
  8
実線
100
AcDbLine
 10
193.4695299986273
 20
686.3144479664334
 30
0.0
 11
175.5466997675112
 21
686.3144479664334
 31
0.0
  0
LINE
  5
5BF
102
{ACAD_REACTORS
330
760
102
}
330
1F
100
AcDbEntity
  8
実線
100
AcDbLine
 10
182.3549354977441
 20
648.2144479664332
 30
0.0
 11
193.4695299986273
 21
648.2144479664332
 31
0.0
  0
LINE
  5
5C0
102
{ACAD_REACTORS
330
760
102
}
330
1F
100
AcDbEntity
  8
実線
100
AcDbLine
 10
198.5695299986273
 20
692.5144479664334
 30
0.0
 11
195.8195299986273
 21
692.5144479664334
 31
0.0
  0
LINE
  5
5C1
102
{ACAD_REACTORS
330
760
102
}
330
1F
100
AcDbEntity
  8
実線
100
AcDbLine
 10
195.8195299986273
 20
642.0144479664336
 30
0.0
 11
198.5695299986273
 21
642.0144479664336
 31
0.0
  0
LINE
  5
5C2
102
{ACAD_REACTORS
330
760
102
}
330
1F
100
AcDbEntity
  8
実線
100
AcDbLine
 10
198.5695299986273
 20
642.0144479664336
 30
0.0
 11
198.5695299986273
 21
692.5144479664334
 31
0.0
  0
LINE
  5
5C3
102
{ACAD_REACTORS
330
760
102
}
330
1F
100
AcDbEntity
  8
実線
100
AcDbLine
 10
193.4695299986273
 20
648.2144479664332
 30
0.0
 11
195.8195299986273
 21
642.0144479664336
 31
0.0
  0
LINE
  5
5C4
102
{ACAD_REACTORS
330
760
102
}
330
1F
100
AcDbEntity
  8
実線
100
AcDbLine
 10
195.8195299986273
 20
692.5144479664334
 30
0.0
 11
193.4695299986273
 21
686.3144479664334
 31
0.0
  0
LINE
  5
5C5
102
{ACAD_REACTORS
330
760
102
}
330
1F
100
AcDbEntity
  8
実線
100
AcDbLine
 10
195.8195299986273
 20
692.5144479664334
 30
0.0
 11
195.8195299986273
 21
642.0144479664336
 31
0.0
  0
LINE
  5
5C6
102
{ACAD_REACTORS
330
760
102
}
330
1F
100
AcDbEntity
  8
実線
100
AcDbLine
 10
193.4695299986273
 20
686.3144479664334
 30
0.0
 11
193.4695299986273
 21
648.2144479664332
 31
0.0
  0
LINE
  5
5C7
102
{ACAD_REACTORS
330
760
102
}
330
1F
100
AcDbEntity
  8
実線
100
AcDbLine
 10
63.66952999862736
 20
648.2144479664332
 30
0.0
 11
80.02772087141122
 21
648.2144479664332
 31
0.0
  0
LINE
  5
5C8
102
{ACAD_REACTORS
330
760
102
}
330
1F
100
AcDbEntity
  8
実線
100
AcDbLine
 10
81.59236022974345
 20
686.3144479664334
 30
0.0
 11
63.66952999862736
 21
686.3144479664334
 31
0.0
  0
LINE
  5
5C9
102
{ACAD_REACTORS
330
760
102
}
330
1F
100
AcDbEntity
  8
実線
100
AcDbLine
 10
58.56952999862733
 20
692.5144479664334
 30
0.0
 11
58.56952999862733
 21
642.0144479664336
 31
0.0
  0
LINE
  5
5CA
102
{ACAD_REACTORS
330
760
102
}
330
1F
100
AcDbEntity
  8
実線
100
AcDbLine
 10
58.56952999862733
 20
642.0144479664336
 30
0.0
 11
61.31952999862733
 21
642.0144479664336
 31
0.0
  0
LINE
  5
5CB
102
{ACAD_REACTORS
330
760
102
}
330
1F
100
AcDbEntity
  8
実線
100
AcDbLine
 10
61.31952999862733
 20
692.5144479664334
 30
0.0
 11
58.56952999862733
 21
692.5144479664334
 31
0.0
  0
LINE
  5
5CC
102
{ACAD_REACTORS
330
760
102
}
330
1F
100
AcDbEntity
  8
実線
100
AcDbLine
 10
61.31952999862733
 20
692.5144479664334
 30
0.0
 11
61.31952999862733
 21
642.0144479664336
 31
0.0
  0
LINE
  5
5CD
102
{ACAD_REACTORS
330
760
102
}
330
1F
100
AcDbEntity
  8
実線
100
AcDbLine
 10
63.66952999862736
 20
686.3144479664334
 30
0.0
 11
63.66952999862736
 21
648.2144479664332
 31
0.0
  0
LINE
  5
5CE
102
{ACAD_REACTORS
330
760
102
}
330
1F
100
AcDbEntity
  8
実線
100
AcDbLine
 10
63.66952999862736
 20
686.3144479664334
 30
0.0
 11
61.31952999862733
 21
692.5144479664334
 31
0.0
  0
LINE
  5
5CF
102
{ACAD_REACTORS
330
760
102
}
330
1F
100
AcDbEntity
  8
実線
100
AcDbLine
 10
61.31952999862733
 20
642.0144479664336
 30
0.0
 11
63.66952999862736
 21
648.2144479664332
 31
0.0
  0
LINE
  5
5D0
102
{ACAD_REACTORS
330
760
102
}
330
1F
100
AcDbEntity
  8
実線
100
AcDbLine
 10
161.6357501488692
 20
649.5144479664332
 30
0.0
 11
161.4499953238019
 21
649.5144479664332
 31
0.0
  0
LINE
  5
5D1
102
{ACAD_REACTORS
330
760
102
}
330
1F
100
AcDbEntity
  8
実線
100
AcDbLine
 10
161.4499953238019
 20
627.8144479664335
 30
0.0
 11
161.6357501488692
 21
627.8144479664335
 31
0.0
  0
ELLIPSE
  5
5D2
102
{ACAD_REACTORS
330
760
102
}
330
1F
100
AcDbEntity
  8
実線
100
AcDbEllipse
 10
161.4499953238019
 20
638.6644479664332
 30
0.0
 11
0.0
 21
10.85000000000002
 31
0.0
210
0.0
220
0.0
230
1.0
 40
0.7071067811865476
 41
0.0
 42
3.141592668490951
  0
LINE
  5
5D3
102
{ACAD_REACTORS
330
760
102
}
330
1F
100
AcDbEntity
  8
実線
100
AcDbLine
 10
172.4101504321934
 20
655.6644479664334
 30
0.0
 11
170.8898708526423
 21
655.6644479664334
 31
0.0
  0
LINE
  5
5D4
102
{ACAD_REACTORS
330
760
102
}
330
1F
100
AcDbEntity
  8
実線
100
AcDbLine
 10
170.8898708526423
 20
621.6644479664332
 30
0.0
 11
172.4101504321934
 21
621.6644479664332
 31
0.0
  0
ELLIPSE
  5
5D5
102
{ACAD_REACTORS
330
760
102
}
330
1F
100
AcDbEntity
  8
実線
100
AcDbEllipse
 10
172.4101504321934
 20
638.6644479664332
 30
0.0
 11
0.0
 21
17.0
 31
0.0
210
0.0
220
0.0
230
1.0
 40
0.7071067811865476
 41
0.0
 42
3.141592653589792
  0
ELLIPSE
  5
5D6
102
{ACAD_REACTORS
330
760
102
}
330
1F
100
AcDbEntity
  8
実線
100
AcDbEllipse
 10
170.8898708526423
 20
638.6644479664332
 30
0.0
 11
0.0
 21
17.0
 31
0.0
210
0.0
220
0.0
230
1.0
 40
0.7071067811865476
 41
0.0
 42
3.141592653589792
  0
ELLIPSE
  5
5D7
102
{ACAD_REACTORS
330
760
102
}
330
1F
100
AcDbEntity
  8
実線
100
AcDbEllipse
 10
172.4101504321934
 20
638.6644479664332
 30
0.0
 11
0.0
 21
17.0
 31
0.0
210
0.0
220
0.0
230
1.0
 40
0.7071067811865476
 41
3.141592653589792
 42
6.283185307179584
  0
LINE
  5
5D8
102
{ACAD_REACTORS
330
760
102
}
330
1F
100
AcDbEntity
  8
実線
100
AcDbLine
 10
118.5695299986273
 20
347.1644479664334
 30
0.0
 11
118.5695299986273
 21
323.4644479664335
 31
0.0
  0
LINE
  5
5D9
102
{ACAD_REACTORS
330
760
102
}
330
1F
100
AcDbEntity
  8
実線
100
AcDbLine
 10
138.5695299986273
 20
323.4644479664335
 30
0.0
 11
138.5695299986273
 21
347.1644479664334
 31
0.0
  0
LINE
  5
5DA
102
{ACAD_REACTORS
330
760
102
}
330
1F
100
AcDbEntity
  8
実線
100
AcDbLine
 10
118.5695299986273
 20
323.4644479664335
 30
0.0
 11
138.5695299986273
 21
323.4644479664335
 31
0.0
  0
LINE
  5
5DB
102
{ACAD_REACTORS
330
760
102
}
330
1F
100
AcDbEntity
  8
実線
100
AcDbLine
 10
175.5466997675112
 20
569.1644479664332
 30
0.0
 11
175.5466997675112
 21
582.1644479664334
 31
0.0
  0
LINE
  5
5DC
102
{ACAD_REACTORS
330
760
102
}
330
1F
100
AcDbEntity
  8
実線
100
AcDbLine
 10
175.5466997675112
 20
582.1644479664334
 30
0.0
 11
81.59236022974345
 21
582.1644479664334
 31
0.0
  0
LINE
  5
5DD
102
{ACAD_REACTORS
330
760
102
}
330
1F
100
AcDbEntity
  8
実線
100
AcDbLine
 10
175.5466997675112
 20
569.1644479664332
 30
0.0
 11
146.5984268090513
 21
569.1644479664332
 31
0.0
  0
LINE
  5
5DE
102
{ACAD_REACTORS
330
760
102
}
330
1F
100
AcDbEntity
  8
実線
100
AcDbLine
 10
81.59236022974345
 20
569.1644479664332
 30
0.0
 11
110.5406331882034
 21
569.1644479664332
 31
0.0
  0
LINE
  5
5DF
102
{ACAD_REACTORS
330
760
102
}
330
1F
100
AcDbEntity
  8
実線
100
AcDbLine
 10
81.59236022974345
 20
582.1644479664334
 30
0.0
 11
81.59236022974345
 21
569.1644479664332
 31
0.0
  0
LINE
  5
5E0
102
{ACAD_REACTORS
330
760
102
}
330
1F
100
AcDbEntity
  8
実線
100
AcDbLine
 10
110.5406331882034
 20
569.1644479664332
 30
0.0
 11
110.5406331882034
 21
582.1644479664334
 31
0.0
  0
LINE
  5
5E1
102
{ACAD_REACTORS
330
760
102
}
330
1F
100
AcDbEntity
  8
実線
100
AcDbLine
 10
146.5984268090513
 20
569.1644479664332
 30
0.0
 11
146.5984268090513
 21
582.1644479664334
 31
0.0
  0
LINE
  5
5E2
102
{ACAD_REACTORS
330
760
102
}
330
1F
100
AcDbEntity
  8
実線
100
AcDbLine
 10
168.5695299986273
 20
562.1644479664333
 30
0.0
 11
168.5695299986273
 21
569.1644479664332
 31
0.0
  0
LINE
  5
5E3
102
{ACAD_REACTORS
330
760
102
}
330
1F
100
AcDbEntity
  8
実線
100
AcDbLine
 10
88.56952999862732
 20
569.1644479664332
 30
0.0
 11
88.56952999862732
 21
562.1644479664333
 31
0.0
  0
LINE
  5
5E4
102
{ACAD_REACTORS
330
760
102
}
330
1F
100
AcDbEntity
  8
実線
100
AcDbLine
 10
88.56952999862732
 20
562.1644479664333
 30
0.0
 11
168.5695299986273
 21
562.1644479664333
 31
0.0
  0
LINE
  5
5E5
102
{ACAD_REACTORS
330
760
102
}
330
1F
100
AcDbEntity
  8
実線
100
AcDbLine
 10
81.59236022974253
 20
708.1644479664332
 30
0.0
 11
81.59236022974253
 21
695.1644479664333
 31
0.0
  0
LINE
  5
5E6
102
{ACAD_REACTORS
330
760
102
}
330
1F
100
AcDbEntity
  8
実線
100
AcDbLine
 10
81.59236022974253
 20
695.1644479664333
 30
0.0
 11
175.5466997675105
 21
695.1644479664333
 31
0.0
  0
LINE
  5
5E7
102
{ACAD_REACTORS
330
760
102
}
330
1F
100
AcDbEntity
  8
実線
100
AcDbLine
 10
81.59236022974253
 20
708.1644479664332
 30
0.0
 11
110.5406331882025
 21
708.1644479664332
 31
0.0
  0
LINE
  5
5E8
102
{ACAD_REACTORS
330
760
102
}
330
1F
100
AcDbEntity
  8
実線
100
AcDbLine
 10
175.5466997675105
 20
708.1644479664332
 30
0.0
 11
146.5984268090505
 21
708.1644479664332
 31
0.0
  0
LINE
  5
5E9
102
{ACAD_REACTORS
330
760
102
}
330
1F
100
AcDbEntity
  8
実線
100
AcDbLine
 10
175.5466997675105
 20
695.1644479664333
 30
0.0
 11
175.5466997675105
 21
708.1644479664332
 31
0.0
  0
LINE
  5
5EA
102
{ACAD_REACTORS
330
760
102
}
330
1F
100
AcDbEntity
  8
実線
100
AcDbLine
 10
110.5406331882025
 20
708.1644479664332
 30
0.0
 11
110.5406331882025
 21
695.1644479664333
 31
0.0
  0
LINE
  5
5EB
102
{ACAD_REACTORS
330
760
102
}
330
1F
100
AcDbEntity
  8
実線
100
AcDbLine
 10
146.5984268090505
 20
708.1644479664332
 30
0.0
 11
146.5984268090505
 21
695.1644479664333
 31
0.0
  0
LINE
  5
5EC
102
{ACAD_REACTORS
330
760
102
}
330
1F
100
AcDbEntity
  8
実線
100
AcDbLine
 10
88.56952999862665
 20
715.1644479664333
 30
0.0
 11
168.5695299986266
 21
715.1644479664333
 31
0.0
  0
LINE
  5
5ED
102
{ACAD_REACTORS
330
760
102
}
330
1F
100
AcDbEntity
  8
実線
100
AcDbLine
 10
88.56952999862665
 20
715.1644479664333
 30
0.0
 11
88.56952999862665
 21
708.1644479664332
 31
0.0
  0
LINE
  5
5EE
102
{ACAD_REACTORS
330
760
102
}
330
1F
100
AcDbEntity
  8
実線
100
AcDbLine
 10
168.5695299986264
 20
708.1644479664332
 30
0.0
 11
168.5695299986264
 21
715.1644479664333
 31
0.0
  0
LINE
  5
5EF
102
{ACAD_REACTORS
330
760
102
}
330
1F
100
AcDbEntity
  8
実線
100
AcDbLine
 10
175.5466997675112
 20
685.1644479664332
 30
0.0
 11
81.59236022974345
 21
685.1644479664332
 31
0.0
  0
LINE
  5
5F0
102
{ACAD_REACTORS
330
760
102
}
330
1F
100
AcDbEntity
  8
実線
100
AcDbLine
 10
81.59236022974345
 20
695.1644479664333
 30
0.0
 11
81.59236022974345
 21
685.1644479664332
 31
0.0
  0
LINE
  5
5F1
102
{ACAD_REACTORS
330
760
102
}
330
1F
100
AcDbEntity
  8
実線
100
AcDbLine
 10
175.5466997675112
 20
685.1644479664332
 30
0.0
 11
175.5466997675112
 21
695.1644479664333
 31
0.0
  0
LINE
  5
5F2
102
{ACAD_REACTORS
330
760
102
}
330
1F
100
AcDbEntity
  8
実線
100
AcDbLine
 10
146.5984268090513
 20
695.1644479664333
 30
0.0
 11
146.5984268090513
 21
685.1644479664332
 31
0.0
  0
LINE
  5
5F3
102
{ACAD_REACTORS
330
760
102
}
330
1F
100
AcDbEntity
  8
実線
100
AcDbLine
 10
110.5406331882034
 20
695.1644479664333
 30
0.0
 11
110.5406331882034
 21
685.1644479664332
 31
0.0
  0
LINE
  5
5F4
102
{ACAD_REACTORS
330
760
102
}
330
1F
100
AcDbEntity
  8
実線
100
AcDbLine
 10
88.56952999862732
 20
562.1644479664333
 30
0.0
 11
88.56952999862732
 21
416.6644479664332
 31
0.0
  0
LINE
  5
5F5
102
{ACAD_REACTORS
330
760
102
}
330
1F
100
AcDbEntity
  8
実線
100
AcDbLine
 10
168.5695299986273
 20
416.6644479664332
 30
0.0
 11
168.5695299986273
 21
562.1644479664333
 31
0.0
  0
LINE
  5
5F6
102
{ACAD_REACTORS
330
760
102
}
330
1F
100
AcDbEntity
  8
実線
100
AcDbLine
 10
88.56952999862732
 20
416.6644479664332
 30
0.0
 11
81.0695299986273
 21
409.1644479664333
 31
0.0
  0
LINE
  5
5F7
102
{ACAD_REACTORS
330
760
102
}
330
1F
100
AcDbEntity
  8
実線
100
AcDbLine
 10
176.0695299986274
 20
409.1644479664333
 30
0.0
 11
168.5695299986273
 21
416.6644479664332
 31
0.0
  0
LINE
  5
5F8
102
{ACAD_REACTORS
330
760
102
}
330
1F
100
AcDbEntity
  8
実線
100
AcDbLine
 10
88.56952999862732
 20
416.6644479664332
 30
0.0
 11
168.5695299986273
 21
416.6644479664332
 31
0.0
  0
LINE
  5
5F9
102
{ACAD_REACTORS
330
760
102
}
330
1F
100
AcDbEntity
  8
実線
100
AcDbLine
 10
81.0695299986273
 20
409.1644479664333
 30
0.0
 11
81.0695299986273
 21
352.1644479664334
 31
0.0
  0
LINE
  5
5FA
102
{ACAD_REACTORS
330
760
102
}
330
1F
100
AcDbEntity
  8
実線
100
AcDbLine
 10
176.0695299986274
 20
352.1644479664334
 30
0.0
 11
176.0695299986274
 21
409.1644479664333
 31
0.0
  0
LINE
  5
5FB
102
{ACAD_REACTORS
330
760
102
}
330
1F
100
AcDbEntity
  8
実線
100
AcDbLine
 10
176.0695299986274
 20
409.1644479664333
 30
0.0
 11
81.0695299986273
 21
409.1644479664333
 31
0.0
  0
LINE
  5
5FC
102
{ACAD_REACTORS
330
760
102
}
330
1F
100
AcDbEntity
  8
実線
100
AcDbLine
 10
81.0695299986273
 20
352.1644479664334
 30
0.0
 11
176.0695299986274
 21
352.1644479664334
 31
0.0
  0
LINE
  5
5FD
102
{ACAD_REACTORS
330
760
102
}
330
1F
100
AcDbEntity
  8
実線
100
AcDbLine
 10
168.5695299986266
 20
715.1644479664333
 30
0.0
 11
168.5695299986266
 21
860.6644479664332
 31
0.0
  0
LINE
  5
5FE
102
{ACAD_REACTORS
330
760
102
}
330
1F
100
AcDbEntity
  8
実線
100
AcDbLine
 10
88.56952999862665
 20
860.6644479664332
 30
0.0
 11
88.56952999862665
 21
715.1644479664333
 31
0.0
  0
LINE
  5
5FF
102
{ACAD_REACTORS
330
760
102
}
330
1F
100
AcDbEntity
  8
実線
100
AcDbLine
 10
88.56952999862665
 20
860.6644479664332
 30
0.0
 11
168.5695299986266
 21
860.6644479664332
 31
0.0
  0
LINE
  5
600
102
{ACAD_REACTORS
330
760
102
}
330
1F
100
AcDbEntity
  8
実線
100
AcDbLine
 10
168.5695299986266
 20
860.6644479664332
 30
0.0
 11
176.0695299986265
 21
868.1644479664333
 31
0.0
  0
LINE
  5
601
102
{ACAD_REACTORS
330
760
102
}
330
1F
100
AcDbEntity
  8
実線
100
AcDbLine
 10
81.06952999862665
 20
868.1644479664333
 30
0.0
 11
88.56952999862665
 21
860.6644479664332
 31
0.0
  0
LINE
  5
602
102
{ACAD_REACTORS
330
760
102
}
330
1F
100
AcDbEntity
  8
実線
100
AcDbLine
 10
176.0695299986265
 20
868.1644479664333
 30
0.0
 11
81.06952999862665
 21
868.1644479664333
 31
0.0
  0
LINE
  5
603
102
{ACAD_REACTORS
330
760
102
}
330
1F
100
AcDbEntity
  8
実線
100
AcDbLine
 10
81.06952999862665
 20
925.1644479664333
 30
0.0
 11
176.0695299986265
 21
925.1644479664333
 31
0.0
  0
LINE
  5
604
102
{ACAD_REACTORS
330
760
102
}
330
1F
100
AcDbEntity
  8
実線
100
AcDbLine
 10
176.0695299986265
 20
868.1644479664333
 30
0.0
 11
176.0695299986265
 21
925.1644479664333
 31
0.0
  0
LINE
  5
605
102
{ACAD_REACTORS
330
760
102
}
330
1F
100
AcDbEntity
  8
実線
100
AcDbLine
 10
81.06952999862665
 20
925.1644479664333
 30
0.0
 11
81.06952999862665
 21
868.1644479664333
 31
0.0
  0
LINE
  5
606
102
{ACAD_REACTORS
330
760
102
}
330
1F
100
AcDbEntity
  8
実線
100
AcDbLine
 10
86.06952999862665
 20
930.1644479664332
 30
0.0
 11
171.0695299986265
 21
930.1644479664332
 31
0.0
  0
ARC
  5
607
102
{ACAD_REACTORS
330
760
102
}
330
1F
100
AcDbEntity
  8
実線
100
AcDbCircle
 10
171.0695299986265
 20
925.1644479664333
 30
0.0
 40
5.0
100
AcDbArc
 50
0.0
 51
90.0
  0
ARC
  5
608
102
{ACAD_REACTORS
330
760
102
}
330
1F
100
AcDbEntity
  8
実線
100
AcDbCircle
 10
86.06952999862665
 20
925.1644479664333
 30
0.0
 40
5.0
100
AcDbArc
 50
90.0
 51
180.0
  0
LINE
  5
609
102
{ACAD_REACTORS
330
760
102
}
330
1F
100
AcDbEntity
  8
実線
100
AcDbLine
 10
110.7607540721353
 20
592.1644479664332
 30
0.0
 11
81.59236022974345
 21
592.1644479664332
 31
0.0
  0
LINE
  5
60A
102
{ACAD_REACTORS
330
760
102
}
330
1F
100
AcDbEntity
  8
実線
100
AcDbLine
 10
146.3783059251193
 20
592.1644479664332
 30
0.0
 11
175.5466997675112
 21
592.1644479664332
 31
0.0
  0
LINE
  5
60B
102
{ACAD_REACTORS
330
760
102
}
330
1F
100
AcDbEntity
  8
実線
100
AcDbLine
 10
175.5466997675112
 20
582.1644479664334
 30
0.0
 11
175.5466997675112
 21
592.1644479664332
 31
0.0
  0
LINE
  5
60C
102
{ACAD_REACTORS
330
760
102
}
330
1F
100
AcDbEntity
  8
実線
100
AcDbLine
 10
81.59236022974345
 20
592.1644479664332
 30
0.0
 11
81.59236022974345
 21
582.1644479664334
 31
0.0
  0
LINE
  5
60D
102
{ACAD_REACTORS
330
760
102
}
330
1F
100
AcDbEntity
  8
実線
100
AcDbLine
 10
110.5406331882034
 20
582.1644479664334
 30
0.0
 11
110.5406331882034
 21
592.1644479664332
 31
0.0
  0
LINE
  5
60E
102
{ACAD_REACTORS
330
760
102
}
330
1F
100
AcDbEntity
  8
実線
100
AcDbLine
 10
146.5984268090513
 20
582.1644479664334
 30
0.0
 11
146.5984268090513
 21
592.1644479664332
 31
0.0
  0
LINE
  5
60F
102
{ACAD_REACTORS
330
760
102
}
330
1F
100
AcDbEntity
  8
実線
100
AcDbLine
 10
94.27485111107969
 20
668.3629327762684
 30
0.0
 11
100.8031521242226
 21
668.3629327762684
 31
0.0
  0
LINE
  5
610
102
{ACAD_REACTORS
330
760
102
}
330
1F
100
AcDbEntity
  8
実線
100
AcDbLine
 10
94.27485111107969
 20
608.9659631565985
 30
0.0
 11
100.8031521242226
 21
608.9659631565985
 31
0.0
  0
LINE
  5
611
102
{ACAD_REACTORS
330
760
102
}
330
1F
100
AcDbEntity
  8
実線
100
AcDbLine
 10
170.4376878625571
 20
621.6764798393454
 30
0.0
 11
166.0125640702409
 21
615.4184097570722
 31
0.0
  0
LINE
  5
612
102
{ACAD_REACTORS
330
760
102
}
330
1F
100
AcDbEntity
  8
実線
100
AcDbLine
 10
140.7306952337956
 20
638.6644479664332
 30
0.0
 11
115.2748511110796
 21
638.6644479664332
 31
0.0
  0
LINE
  5
613
102
{ACAD_REACTORS
330
760
102
}
330
1F
100
AcDbEntity
  8
実線
100
AcDbLine
 10
94.27485111107969
 20
668.3629327762684
 30
0.0
 11
73.27485111107967
 21
638.6644479664332
 31
0.0
  0
LINE
  5
614
102
{ACAD_REACTORS
330
760
102
}
330
1F
100
AcDbEntity
  8
実線
100
AcDbLine
 10
73.27485111107967
 20
638.6644479664332
 30
0.0
 11
94.27485111107969
 21
608.9659631565985
 31
0.0
  0
LINE
  5
615
102
{ACAD_REACTORS
330
760
102
}
330
1F
100
AcDbEntity
  8
実線
100
AcDbLine
 10
115.2748511110796
 20
638.6644479664332
 30
0.0
 11
94.27485111107969
 21
608.9659631565985
 31
0.0
  0
LINE
  5
616
102
{ACAD_REACTORS
330
760
102
}
330
1F
100
AcDbEntity
  8
実線
100
AcDbLine
 10
115.2748511110796
 20
638.6644479664332
 30
0.0
 11
94.27485111107969
 21
668.3629327762684
 31
0.0
  0
LINE
  5
617
102
{ACAD_REACTORS
330
760
102
}
330
1F
100
AcDbEntity
  8
実線
100
AcDbLine
 10
151.0975003505489
 20
626.1644479664332
 30
0.0
 11
161.4499953238019
 21
626.1644479664332
 31
0.0
  0
LINE
  5
618
102
{ACAD_REACTORS
330
760
102
}
330
1F
100
AcDbEntity
  8
実線
100
AcDbLine
 10
161.4499953238019
 20
651.1644479664332
 30
0.0
 11
151.0975003505489
 21
651.1644479664332
 31
0.0
  0
ELLIPSE
  5
619
102
{ACAD_REACTORS
330
760
102
}
330
1F
100
AcDbEntity
  8
実線
100
AcDbEllipse
 10
161.4499953238019
 20
638.6644479664332
 30
0.0
 11
0.0
 21
12.5
 31
0.0
210
0.0
220
0.0
230
1.0
 40
0.7071067811865475
 41
0.0
 42
3.141592653589792
  0
ELLIPSE
  5
61A
102
{ACAD_REACTORS
330
760
102
}
330
1F
100
AcDbEntity
  8
実線
100
AcDbEllipse
 10
161.4499953238019
 20
638.6644479664332
 30
0.0
 11
0.0
 21
12.5
 31
0.0
210
0.0
220
0.0
230
1.0
 40
0.7071067811865475
 41
6.146513022647021
 42
6.283185307179584
  0
ELLIPSE
  5
61B
102
{ACAD_REACTORS
330
760
102
}
330
1F
100
AcDbEntity
  8
実線
100
AcDbEllipse
 10
161.4499953238019
 20
638.6644479664332
 30
0.0
 11
0.0
 21
12.5
 31
0.0
210
0.0
220
0.0
230
1.0
 40
0.7071067811865475
 41
3.141592653589792
 42
3.278264938122346
  0
LINE
  5
61C
102
{ACAD_REACTORS
330
760
102
}
330
1F
100
AcDbEntity
  8
実線
100
AcDbLine
 10
86.06952999862732
 20
347.1644479664334
 30
0.0
 11
171.0695299986274
 21
347.1644479664334
 31
0.0
  0
ARC
  5
61D
102
{ACAD_REACTORS
330
760
102
}
330
1F
100
AcDbEntity
  8
実線
100
AcDbCircle
 10
86.06952999862732
 20
352.1644479664334
 30
0.0
 40
5.0
100
AcDbArc
 50
180.0
 51
270.0
  0
ARC
  5
61E
102
{ACAD_REACTORS
330
760
102
}
330
1F
100
AcDbEntity
  8
実線
100
AcDbCircle
 10
171.0695299986274
 20
352.1644479664334
 30
0.0
 40
5.0
100
AcDbArc
 50
270.0
 51
0.0
  0
LINE
  5
61F
102
{ACAD_REACTORS
330
760
102
}
330
1F
100
AcDbEntity
  8
実線
100
AcDbLine
 10
163.2105461500049
 20
621.3464802691885
 30
0.0
 11
160.4288912030536
 21
626.1644479664337
 31
0.0
  0
ARC
  5
620
102
{ACAD_REACTORS
330
760
102
}
330
1F
100
AcDbEntity
  8
実線
100
AcDbCircle
 10
128.5695299986273
 20
601.3464802691885
 30
0.0
 40
40.0
100
AcDbArc
 50
0.0
 51
30.00000000000055
  0
ARC
  5
621
102
{ACAD_REACTORS
330
760
102
}
330
1F
100
AcDbEntity
  8
実線
100
AcDbCircle
 10
128.5695299986273
 20
601.3464802691885
 30
0.0
 40
40.0
100
AcDbArc
 50
161.4256159678991
 51
180.0
  0
LINE
  5
622
102
{ACAD_REACTORS
330
760
102
}
330
1F
100
AcDbEntity
  8
実線
100
AcDbLine
 10
88.56952999862732
 20
601.3464802691885
 30
0.0
 11
88.56952999862732
 21
592.1644479664337
 31
0.0
  0
LINE
  5
623
102
{ACAD_REACTORS
330
760
102
}
330
1F
100
AcDbEntity
  8
実線
100
AcDbLine
 10
168.5695299986273
 20
592.1644479664332
 30
0.0
 11
168.5695299986273
 21
601.3464802691885
 31
0.0
  0
LINE
  5
624
102
{ACAD_REACTORS
330
760
102
}
330
1F
100
AcDbEntity
  8
実線
100
AcDbLine
 10
125.6530054822146
 20
648.9144479664332
 30
0.0
 11
144.519380677752
 21
648.9144479664332
 31
0.0
  0
LINE
  5
625
102
{ACAD_REACTORS
330
761
102
}
330
1F
100
AcDbEntity
  8
実線
100
AcDbLine
 10
378.5695299986271
 20
930.1644479664332
 30
0.0
 11
378.5695299986271
 21
953.8644479664332
 31
0.0
  0
LINE
  5
626
102
{ACAD_REACTORS
330
761
102
}
330
1F
100
AcDbEntity
  8
実線
100
AcDbLine
 10
358.5695299986266
 20
953.8644479664332
 30
0.0
 11
358.5695299986266
 21
930.1644479664332
 31
0.0
  0
LINE
  5
627
102
{ACAD_REACTORS
330
761
102
}
330
1F
100
AcDbEntity
  8
実線
100
AcDbLine
 10
378.5695299986271
 20
953.8644479664332
 30
0.0
 11
358.5695299986266
 21
953.8644479664332
 31
0.0
  0
LINE
  5
628
102
{ACAD_REACTORS
330
761
102
}
330
1F
100
AcDbEntity
  8
実線
100
AcDbLine
 10
439.9873148984515
 20
633.6644479664332
 30
0.0
 11
442.108635242011
 21
633.6644479664332
 31
0.0
  0
LINE
  5
629
102
{ACAD_REACTORS
330
761
102
}
330
1F
100
AcDbEntity
  8
実線
100
AcDbLine
 10
442.1086352420115
 20
643.6644479664334
 30
0.0
 11
439.9873148984515
 21
643.6644479664334
 31
0.0
  0
ELLIPSE
  5
62A
102
{ACAD_REACTORS
330
761
102
}
330
1F
100
AcDbEntity
  8
実線
100
AcDbEllipse
 10
442.108635242011
 20
638.6644479664332
 30
0.0
 11
0.0
 21
5.0
 31
0.0
210
0.0
220
0.0
230
1.0
 40
0.7071067811865479
 41
3.141592653589792
 42
6.283185307179584
  0
ELLIPSE
  5
62B
102
{ACAD_REACTORS
330
761
102
}
330
1F
100
AcDbEntity
  8
実線
100
AcDbEllipse
 10
442.108635242011
 20
638.6644479664332
 30
0.0
 11
0.0
 21
5.0
 31
0.0
210
0.0
220
0.0
230
1.0
 40
0.7071067811865479
 41
1.570796326794897
 42
3.141592653589792
  0
ELLIPSE
  5
62C
102
{ACAD_REACTORS
330
761
102
}
330
1F
100
AcDbEntity
  8
実線
100
AcDbEllipse
 10
439.9873148984515
 20
638.6644479664332
 30
0.0
 11
0.0
 21
5.0
 31
0.0
210
0.0
220
0.0
230
1.0
 40
0.7071067811865479
 41
0.0
 42
3.141592653589792
  0
ELLIPSE
  5
62D
102
{ACAD_REACTORS
330
761
102
}
330
1F
100
AcDbEntity
  8
実線
100
AcDbEllipse
 10
442.108635242011
 20
638.6644479664332
 30
0.0
 11
0.0
 21
5.0
 31
0.0
210
0.0
220
0.0
230
1.0
 40
0.7071067811865479
 41
0.0
 42
1.570796326794897
  0
LINE
  5
62E
102
{ACAD_REACTORS
330
761
102
}
330
1F
100
AcDbEntity
  8
実線
100
AcDbLine
 10
430.0878199618573
 20
635.6644479668362
 30
0.0
 11
437.1588877734915
 21
635.6644479668362
 31
0.0
  0
LINE
  5
62F
102
{ACAD_REACTORS
330
761
102
}
330
1F
100
AcDbEntity
  8
実線
100
AcDbLine
 10
437.1588877734915
 20
641.6644479660304
 30
0.0
 11
430.0878199618573
 21
641.6644479660304
 31
0.0
  0
ELLIPSE
  5
630
102
{ACAD_REACTORS
330
761
102
}
330
1F
100
AcDbEntity
  8
実線
100
AcDbEllipse
 10
430.0878199618573
 20
638.6644479664332
 30
0.0
 11
0.0
 21
2.999999999597037
 31
0.0
210
0.0
220
0.0
230
1.0
 40
0.7071067811865476
 41
0.0
 42
3.141592653589792
  0
LINE
  5
631
102
{ACAD_REACTORS
330
761
102
}
330
1F
100
AcDbEntity
  8
実線
100
AcDbLine
 10
401.449995323802
 20
608.9659631565985
 30
0.0
 11
430.0878199618573
 21
608.9659631565985
 31
0.0
  0
LINE
  5
632
102
{ACAD_REACTORS
330
761
102
}
330
1F
100
AcDbEntity
  8
実線
100
AcDbLine
 10
380.4499953238022
 20
638.6644479664332
 30
0.0
 11
409.0878199618573
 21
638.6644479664332
 31
0.0
  0
LINE
  5
633
102
{ACAD_REACTORS
330
761
102
}
330
1F
100
AcDbEntity
  8
実線
100
AcDbLine
 10
401.449995323802
 20
668.3629327762684
 30
0.0
 11
430.0878199618573
 21
668.3629327762684
 31
0.0
  0
LINE
  5
634
102
{ACAD_REACTORS
330
761
102
}
330
1F
100
AcDbEntity
  8
実線
100
AcDbLine
 10
409.0878199618573
 20
638.6644479664332
 30
0.0
 11
430.0878199618573
 21
668.3629327762684
 31
0.0
  0
LINE
  5
635
102
{ACAD_REACTORS
330
761
102
}
330
1F
100
AcDbEntity
  8
実線
100
AcDbLine
 10
430.0878199618573
 20
608.9659631565985
 30
0.0
 11
409.0878199618573
 21
638.6644479664332
 31
0.0
  0
LINE
  5
636
102
{ACAD_REACTORS
330
761
102
}
330
1F
100
AcDbEntity
  8
実線
100
AcDbLine
 10
451.0878199618573
 20
638.6644479664332
 30
0.0
 11
430.0878199618573
 21
608.9659631565985
 31
0.0
  0
LINE
  5
637
102
{ACAD_REACTORS
330
761
102
}
330
1F
100
AcDbEntity
  8
実線
100
AcDbLine
 10
430.0878199618573
 20
668.3629327762684
 30
0.0
 11
451.0878199618573
 21
638.6644479664332
 31
0.0
  0
LINE
  5
638
102
{ACAD_REACTORS
330
761
102
}
330
1F
100
AcDbEntity
  8
実線
100
AcDbLine
 10
303.6695299986278
 20
591.0144479664336
 30
0.0
 11
321.5923602297439
 21
591.0144479664336
 31
0.0
  0
LINE
  5
639
102
{ACAD_REACTORS
330
761
102
}
330
1F
100
AcDbEntity
  8
実線
100
AcDbLine
 10
314.7841244995109
 20
629.1144479664332
 30
0.0
 11
303.6695299986278
 21
629.1144479664332
 31
0.0
  0
LINE
  5
63A
102
{ACAD_REACTORS
330
761
102
}
330
1F
100
AcDbEntity
  8
実線
100
AcDbLine
 10
298.5695299986275
 20
584.8144479664332
 30
0.0
 11
298.5695299986275
 21
635.3144479664332
 31
0.0
  0
LINE
  5
63B
102
{ACAD_REACTORS
330
761
102
}
330
1F
100
AcDbEntity
  8
実線
100
AcDbLine
 10
298.5695299986275
 20
584.8144479664332
 30
0.0
 11
301.3195299986278
 21
584.8144479664332
 31
0.0
  0
LINE
  5
63C
102
{ACAD_REACTORS
330
761
102
}
330
1F
100
AcDbEntity
  8
実線
100
AcDbLine
 10
301.3195299986278
 20
635.3144479664337
 30
0.0
 11
298.5695299986275
 21
635.3144479664337
 31
0.0
  0
LINE
  5
63D
102
{ACAD_REACTORS
330
761
102
}
330
1F
100
AcDbEntity
  8
実線
100
AcDbLine
 10
301.3195299986278
 20
635.3144479664332
 30
0.0
 11
301.3195299986278
 21
584.8144479664332
 31
0.0
  0
LINE
  5
63E
102
{ACAD_REACTORS
330
761
102
}
330
1F
100
AcDbEntity
  8
実線
100
AcDbLine
 10
303.6695299986278
 20
629.1144479664332
 30
0.0
 11
303.6695299986278
 21
591.0144479664336
 31
0.0
  0
LINE
  5
63F
102
{ACAD_REACTORS
330
761
102
}
330
1F
100
AcDbEntity
  8
実線
100
AcDbLine
 10
303.6695299986278
 20
629.1144479664332
 30
0.0
 11
301.3195299986278
 21
635.3144479664332
 31
0.0
  0
LINE
  5
640
102
{ACAD_REACTORS
330
761
102
}
330
1F
100
AcDbEntity
  8
実線
100
AcDbLine
 10
301.3195299986278
 20
584.8144479664332
 30
0.0
 11
303.6695299986278
 21
591.0144479664336
 31
0.0
  0
LINE
  5
641
102
{ACAD_REACTORS
330
761
102
}
330
1F
100
AcDbEntity
  8
実線
100
AcDbLine
 10
415.5466997675111
 20
591.0144479664336
 30
0.0
 11
433.4695299986274
 21
591.0144479664336
 31
0.0
  0
LINE
  5
642
102
{ACAD_REACTORS
330
761
102
}
330
1F
100
AcDbEntity
  8
実線
100
AcDbLine
 10
435.8195299986273
 20
584.8144479664332
 30
0.0
 11
438.5695299986273
 21
584.8144479664332
 31
0.0
  0
LINE
  5
643
102
{ACAD_REACTORS
330
761
102
}
330
1F
100
AcDbEntity
  8
実線
100
AcDbLine
 10
438.5695299986273
 20
620.9609125227148
 30
0.0
 11
438.5695299986273
 21
584.8144479664337
 31
0.0
  0
LINE
  5
644
102
{ACAD_REACTORS
330
761
102
}
330
1F
100
AcDbEntity
  8
実線
100
AcDbLine
 10
433.4695299986274
 20
591.0144479664336
 30
0.0
 11
435.8195299986273
 21
584.8144479664337
 31
0.0
  0
LINE
  5
645
102
{ACAD_REACTORS
330
761
102
}
330
1F
100
AcDbEntity
  8
実線
100
AcDbLine
 10
435.8195299986273
 20
617.0718252261889
 30
0.0
 11
435.8195299986273
 21
584.8144479664332
 31
0.0
  0
LINE
  5
646
102
{ACAD_REACTORS
330
761
102
}
330
1F
100
AcDbEntity
  8
実線
100
AcDbLine
 10
433.4695299986274
 20
613.7484233546123
 30
0.0
 11
433.4695299986274
 21
591.0144479664336
 31
0.0
  0
CIRCLE
  5
647
102
{ACAD_REACTORS
330
761
102
}
330
1F
100
AcDbEntity
  8
実線
100
AcDbCircle
 10
368.5695299986277
 20
667.2644479664334
 30
0.0
 40
25.25
  0
LINE
  5
648
102
{ACAD_REACTORS
330
761
102
}
330
1F
100
AcDbEntity
  8
実線
100
AcDbLine
 10
350.4642130999926
 20
649.6644479664333
 30
0.0
 11
346.9659578105011
 21
649.6644479664333
 31
0.0
  0
LINE
  5
649
102
{ACAD_REACTORS
330
761
102
}
330
1F
100
AcDbEntity
  8
実線
100
AcDbLine
 10
346.9659578105009
 20
627.6644479664334
 30
0.0
 11
360.7857735757079
 21
627.6644479664334
 31
0.0
  0
ELLIPSE
  5
64A
102
{ACAD_REACTORS
330
761
102
}
330
1F
100
AcDbEntity
  8
実線
100
AcDbEllipse
 10
335.6890646734532
 20
638.6644479664332
 30
0.0
 11
0.0
 21
10.85000000000002
 31
0.0
210
0.0
220
0.0
230
1.0
 40
0.7071067811865475
 41
3.141592683392116
 42
6.283185322080745
  0
LINE
  5
64B
102
{ACAD_REACTORS
330
761
102
}
330
1F
100
AcDbEntity
  8
実線
100
AcDbLine
 10
335.5033098483858
 20
627.8144479664335
 30
0.0
 11
335.6890646734532
 21
627.8144479664335
 31
0.0
  0
LINE
  5
64C
102
{ACAD_REACTORS
330
761
102
}
330
1F
100
AcDbEntity
  8
実線
100
AcDbLine
 10
335.6890646734532
 20
649.5144479664332
 30
0.0
 11
335.5033098483858
 21
649.5144479664332
 31
0.0
  0
ELLIPSE
  5
64D
102
{ACAD_REACTORS
330
761
102
}
330
1F
100
AcDbEntity
  8
実線
100
AcDbEllipse
 10
324.7289095650617
 20
638.6644479664332
 30
0.0
 11
0.0
 21
17.0
 31
0.0
210
0.0
220
0.0
230
1.0
 40
0.7071067811865475
 41
3.141592653589792
 42
6.283185307179584
  0
ELLIPSE
  5
64E
102
{ACAD_REACTORS
330
761
102
}
330
1F
100
AcDbEntity
  8
実線
100
AcDbEllipse
 10
326.249189144613
 20
638.6644479664332
 30
0.0
 11
0.0
 21
17.0
 31
0.0
210
0.0
220
0.0
230
1.0
 40
0.7071067811865475
 41
3.141592653589792
 42
6.283185307179584
  0
LINE
  5
64F
102
{ACAD_REACTORS
330
761
102
}
330
1F
100
AcDbEntity
  8
実線
100
AcDbLine
 10
324.7289095650617
 20
621.6644479664332
 30
0.0
 11
326.249189144613
 21
621.6644479664332
 31
0.0
  0
LINE
  5
650
102
{ACAD_REACTORS
330
761
102
}
330
1F
100
AcDbEntity
  8
実線
100
AcDbLine
 10
326.249189144613
 20
655.6644479664334
 30
0.0
 11
324.7289095650617
 21
655.6644479664334
 31
0.0
  0
ELLIPSE
  5
651
102
{ACAD_REACTORS
330
761
102
}
330
1F
100
AcDbEntity
  8
実線
100
AcDbEllipse
 10
324.7289095650617
 20
638.6644479664332
 30
0.0
 11
0.0
 21
17.0
 31
0.0
210
0.0
220
0.0
230
1.0
 40
0.7071067811865475
 41
0.0
 42
3.141592653589792
  0
LINE
  5
652
102
{ACAD_REACTORS
330
761
102
}
330
1F
100
AcDbEntity
  8
実線
100
AcDbLine
 10
378.5695299986277
 20
323.4644479664335
 30
0.0
 11
358.5695299986277
 21
323.4644479664335
 31
0.0
  0
LINE
  5
653
102
{ACAD_REACTORS
330
761
102
}
330
1F
100
AcDbEntity
  8
実線
100
AcDbLine
 10
358.5695299986277
 20
347.1644479664334
 30
0.0
 11
358.5695299986277
 21
323.4644479664335
 31
0.0
  0
LINE
  5
654
102
{ACAD_REACTORS
330
761
102
}
330
1F
100
AcDbEntity
  8
実線
100
AcDbLine
 10
378.5695299986277
 20
323.4644479664335
 30
0.0
 11
378.5695299986277
 21
347.1644479664334
 31
0.0
  0
LINE
  5
655
102
{ACAD_REACTORS
330
761
102
}
330
1F
100
AcDbEntity
  8
実線
100
AcDbLine
 10
415.5466997675111
 20
569.1644479664332
 30
0.0
 11
415.5466997675111
 21
582.1644479664334
 31
0.0
  0
LINE
  5
656
102
{ACAD_REACTORS
330
761
102
}
330
1F
100
AcDbEntity
  8
実線
100
AcDbLine
 10
415.5466997675111
 20
569.1644479664332
 30
0.0
 11
386.5984268090514
 21
569.1644479664332
 31
0.0
  0
LINE
  5
657
102
{ACAD_REACTORS
330
761
102
}
330
1F
100
AcDbEntity
  8
実線
100
AcDbLine
 10
321.5923602297439
 20
569.1644479664332
 30
0.0
 11
350.5406331882035
 21
569.1644479664332
 31
0.0
  0
LINE
  5
658
102
{ACAD_REACTORS
330
761
102
}
330
1F
100
AcDbEntity
  8
実線
100
AcDbLine
 10
321.5923602297439
 20
582.1644479664334
 30
0.0
 11
321.5923602297439
 21
569.1644479664332
 31
0.0
  0
LINE
  5
659
102
{ACAD_REACTORS
330
761
102
}
330
1F
100
AcDbEntity
  8
実線
100
AcDbLine
 10
386.5984268090514
 20
569.1644479664332
 30
0.0
 11
386.5984268090514
 21
582.1644479664334
 31
0.0
  0
LINE
  5
65A
102
{ACAD_REACTORS
330
761
102
}
330
1F
100
AcDbEntity
  8
実線
100
AcDbLine
 10
350.5406331882035
 20
569.1644479664332
 30
0.0
 11
350.5406331882035
 21
582.1644479664334
 31
0.0
  0
LINE
  5
65B
102
{ACAD_REACTORS
330
761
102
}
330
1F
100
AcDbEntity
  8
実線
100
AcDbLine
 10
408.5695299986273
 20
562.1644479664333
 30
0.0
 11
408.5695299986273
 21
569.1644479664332
 31
0.0
  0
LINE
  5
65C
102
{ACAD_REACTORS
330
761
102
}
330
1F
100
AcDbEntity
  8
実線
100
AcDbLine
 10
328.5695299986277
 20
569.1644479664332
 30
0.0
 11
328.5695299986277
 21
562.1644479664333
 31
0.0
  0
LINE
  5
65D
102
{ACAD_REACTORS
330
761
102
}
330
1F
100
AcDbEntity
  8
実線
100
AcDbLine
 10
321.5923602297429
 20
708.1644479664332
 30
0.0
 11
321.5923602297429
 21
695.1644479664333
 31
0.0
  0
LINE
  5
65E
102
{ACAD_REACTORS
330
761
102
}
330
1F
100
AcDbEntity
  8
実線
100
AcDbLine
 10
321.5923602297429
 20
708.1644479664332
 30
0.0
 11
350.5406331882028
 21
708.1644479664332
 31
0.0
  0
LINE
  5
65F
102
{ACAD_REACTORS
330
761
102
}
330
1F
100
AcDbEntity
  8
実線
100
AcDbLine
 10
415.5466997675106
 20
708.1644479664332
 30
0.0
 11
386.5984268090509
 21
708.1644479664332
 31
0.0
  0
LINE
  5
660
102
{ACAD_REACTORS
330
761
102
}
330
1F
100
AcDbEntity
  8
実線
100
AcDbLine
 10
415.5466997675106
 20
695.1644479664333
 30
0.0
 11
415.5466997675106
 21
708.1644479664332
 31
0.0
  0
LINE
  5
661
102
{ACAD_REACTORS
330
761
102
}
330
1F
100
AcDbEntity
  8
実線
100
AcDbLine
 10
328.5695299986269
 20
715.1644479664333
 30
0.0
 11
408.5695299986266
 21
715.1644479664333
 31
0.0
  0
LINE
  5
662
102
{ACAD_REACTORS
330
761
102
}
330
1F
100
AcDbEntity
  8
実線
100
AcDbLine
 10
350.5406331882028
 20
708.1644479664332
 30
0.0
 11
350.5406331882028
 21
695.1644479664333
 31
0.0
  0
LINE
  5
663
102
{ACAD_REACTORS
330
761
102
}
330
1F
100
AcDbEntity
  8
実線
100
AcDbLine
 10
386.5984268090509
 20
708.1644479664332
 30
0.0
 11
386.5984268090509
 21
695.1644479664333
 31
0.0
  0
LINE
  5
664
102
{ACAD_REACTORS
330
761
102
}
330
1F
100
AcDbEntity
  8
実線
100
AcDbLine
 10
328.5695299986269
 20
715.1644479664333
 30
0.0
 11
328.5695299986269
 21
708.1644479664332
 31
0.0
  0
LINE
  5
665
102
{ACAD_REACTORS
330
761
102
}
330
1F
100
AcDbEntity
  8
実線
100
AcDbLine
 10
408.5695299986266
 20
708.1644479664332
 30
0.0
 11
408.5695299986266
 21
715.1644479664333
 31
0.0
  0
LINE
  5
666
102
{ACAD_REACTORS
330
761
102
}
330
1F
100
AcDbEntity
  8
実線
100
AcDbLine
 10
386.3783059251194
 20
685.1644479664332
 30
0.0
 11
415.5466997675111
 21
685.1644479664332
 31
0.0
  0
LINE
  5
667
102
{ACAD_REACTORS
330
761
102
}
330
1F
100
AcDbEntity
  8
実線
100
AcDbLine
 10
350.7607540721356
 20
685.1644479664332
 30
0.0
 11
321.5923602297439
 21
685.1644479664332
 31
0.0
  0
LINE
  5
668
102
{ACAD_REACTORS
330
761
102
}
330
1F
100
AcDbEntity
  8
実線
100
AcDbLine
 10
415.5466997675111
 20
695.1644479664333
 30
0.0
 11
321.5923602297439
 21
695.1644479664333
 31
0.0
  0
LINE
  5
669
102
{ACAD_REACTORS
330
761
102
}
330
1F
100
AcDbEntity
  8
実線
100
AcDbLine
 10
321.5923602297439
 20
695.1644479664333
 30
0.0
 11
321.5923602297439
 21
685.1644479664332
 31
0.0
  0
LINE
  5
66A
102
{ACAD_REACTORS
330
761
102
}
330
1F
100
AcDbEntity
  8
実線
100
AcDbLine
 10
415.5466997675111
 20
685.1644479664332
 30
0.0
 11
415.5466997675111
 21
695.1644479664333
 31
0.0
  0
LINE
  5
66B
102
{ACAD_REACTORS
330
761
102
}
330
1F
100
AcDbEntity
  8
実線
100
AcDbLine
 10
350.5406331882035
 20
695.1644479664333
 30
0.0
 11
350.5406331882035
 21
685.1644479664332
 31
0.0
  0
LINE
  5
66C
102
{ACAD_REACTORS
330
761
102
}
330
1F
100
AcDbEntity
  8
実線
100
AcDbLine
 10
386.5984268090514
 20
695.1644479664333
 30
0.0
 11
386.5984268090514
 21
685.1644479664332
 31
0.0
  0
LINE
  5
66D
102
{ACAD_REACTORS
330
761
102
}
330
1F
100
AcDbEntity
  8
実線
100
AcDbLine
 10
328.5695299986277
 20
562.1644479664333
 30
0.0
 11
328.5695299986277
 21
416.6644479664332
 31
0.0
  0
LINE
  5
66E
102
{ACAD_REACTORS
330
761
102
}
330
1F
100
AcDbEntity
  8
実線
100
AcDbLine
 10
408.5695299986277
 20
416.6644479664332
 30
0.0
 11
408.5695299986277
 21
562.1644479664333
 31
0.0
  0
LINE
  5
66F
102
{ACAD_REACTORS
330
761
102
}
330
1F
100
AcDbEntity
  8
実線
100
AcDbLine
 10
328.5695299986277
 20
562.1644479664333
 30
0.0
 11
408.5695299986277
 21
562.1644479664333
 31
0.0
  0
LINE
  5
670
102
{ACAD_REACTORS
330
761
102
}
330
1F
100
AcDbEntity
  8
実線
100
AcDbLine
 10
328.5695299986277
 20
416.6644479664332
 30
0.0
 11
321.0695299986277
 21
409.1644479664333
 31
0.0
  0
LINE
  5
671
102
{ACAD_REACTORS
330
761
102
}
330
1F
100
AcDbEntity
  8
実線
100
AcDbLine
 10
416.0695299986277
 20
409.1644479664333
 30
0.0
 11
408.5695299986277
 21
416.6644479664332
 31
0.0
  0
LINE
  5
672
102
{ACAD_REACTORS
330
761
102
}
330
1F
100
AcDbEntity
  8
実線
100
AcDbLine
 10
328.5695299986277
 20
416.6644479664332
 30
0.0
 11
408.5695299986277
 21
416.6644479664332
 31
0.0
  0
LINE
  5
673
102
{ACAD_REACTORS
330
761
102
}
330
1F
100
AcDbEntity
  8
実線
100
AcDbLine
 10
416.0695299986277
 20
409.1644479664333
 30
0.0
 11
321.0695299986277
 21
409.1644479664333
 31
0.0
  0
LINE
  5
674
102
{ACAD_REACTORS
330
761
102
}
330
1F
100
AcDbEntity
  8
実線
100
AcDbLine
 10
321.0695299986277
 20
409.1644479664333
 30
0.0
 11
321.0695299986277
 21
352.1644479664334
 31
0.0
  0
LINE
  5
675
102
{ACAD_REACTORS
330
761
102
}
330
1F
100
AcDbEntity
  8
実線
100
AcDbLine
 10
416.0695299986277
 20
352.1644479664334
 30
0.0
 11
416.0695299986277
 21
409.1644479664333
 31
0.0
  0
LINE
  5
676
102
{ACAD_REACTORS
330
761
102
}
330
1F
100
AcDbEntity
  8
実線
100
AcDbLine
 10
321.0695299986277
 20
352.1644479664334
 30
0.0
 11
416.0695299986277
 21
352.1644479664334
 31
0.0
  0
LINE
  5
677
102
{ACAD_REACTORS
330
761
102
}
330
1F
100
AcDbEntity
  8
実線
100
AcDbLine
 10
408.5695299986266
 20
715.1644479664333
 30
0.0
 11
408.5695299986266
 21
860.6644479664332
 31
0.0
  0
LINE
  5
678
102
{ACAD_REACTORS
330
761
102
}
330
1F
100
AcDbEntity
  8
実線
100
AcDbLine
 10
328.5695299986269
 20
860.6644479664332
 30
0.0
 11
328.5695299986269
 21
715.1644479664333
 31
0.0
  0
LINE
  5
679
102
{ACAD_REACTORS
330
761
102
}
330
1F
100
AcDbEntity
  8
実線
100
AcDbLine
 10
408.5695299986266
 20
860.6644479664332
 30
0.0
 11
416.069529998627
 21
868.1644479664333
 31
0.0
  0
LINE
  5
67A
102
{ACAD_REACTORS
330
761
102
}
330
1F
100
AcDbEntity
  8
実線
100
AcDbLine
 10
321.0695299986268
 20
868.1644479664333
 30
0.0
 11
328.5695299986269
 21
860.6644479664332
 31
0.0
  0
LINE
  5
67B
102
{ACAD_REACTORS
330
761
102
}
330
1F
100
AcDbEntity
  8
実線
100
AcDbLine
 10
408.5695299986266
 20
860.6644479664332
 30
0.0
 11
328.5695299986269
 21
860.6644479664332
 31
0.0
  0
LINE
  5
67C
102
{ACAD_REACTORS
330
761
102
}
330
1F
100
AcDbEntity
  8
実線
100
AcDbLine
 10
321.0695299986268
 20
868.1644479664333
 30
0.0
 11
416.069529998627
 21
868.1644479664333
 31
0.0
  0
LINE
  5
67D
102
{ACAD_REACTORS
330
761
102
}
330
1F
100
AcDbEntity
  8
実線
100
AcDbLine
 10
416.069529998627
 20
868.1644479664333
 30
0.0
 11
416.069529998627
 21
925.1644479664333
 31
0.0
  0
LINE
  5
67E
102
{ACAD_REACTORS
330
761
102
}
330
1F
100
AcDbEntity
  8
実線
100
AcDbLine
 10
321.0695299986268
 20
925.1644479664333
 30
0.0
 11
321.0695299986268
 21
868.1644479664333
 31
0.0
  0
LINE
  5
67F
102
{ACAD_REACTORS
330
761
102
}
330
1F
100
AcDbEntity
  8
実線
100
AcDbLine
 10
416.069529998627
 20
925.1644479664333
 30
0.0
 11
321.0695299986268
 21
925.1644479664333
 31
0.0
  0
LINE
  5
680
102
{ACAD_REACTORS
330
761
102
}
330
1F
100
AcDbEntity
  8
実線
100
AcDbLine
 10
411.0695299986266
 20
930.1644479664332
 30
0.0
 11
326.0695299986269
 21
930.1644479664332
 31
0.0
  0
ARC
  5
681
102
{ACAD_REACTORS
330
761
102
}
330
1F
100
AcDbEntity
  8
実線
100
AcDbCircle
 10
411.0695299986266
 20
925.1644479664333
 30
0.0
 40
5.0
100
AcDbArc
 50
0.0
 51
90.0
  0
ARC
  5
682
102
{ACAD_REACTORS
330
761
102
}
330
1F
100
AcDbEntity
  8
実線
100
AcDbCircle
 10
326.0695299986269
 20
925.1644479664333
 30
0.0
 40
5.0
100
AcDbArc
 50
90.0
 51
180.0
  0
LINE
  5
683
102
{ACAD_REACTORS
330
761
102
}
330
1F
100
AcDbEntity
  8
実線
100
AcDbLine
 10
321.5923602297439
 20
582.1644479664334
 30
0.0
 11
415.5466997675111
 21
582.1644479664334
 31
0.0
  0
LINE
  5
684
102
{ACAD_REACTORS
330
761
102
}
330
1F
100
AcDbEntity
  8
実線
100
AcDbLine
 10
321.5923602297439
 20
592.1644479664332
 30
0.0
 11
415.5466997675111
 21
592.1644479664332
 31
0.0
  0
LINE
  5
685
102
{ACAD_REACTORS
330
761
102
}
330
1F
100
AcDbEntity
  8
実線
100
AcDbLine
 10
415.5466997675111
 20
582.1644479664334
 30
0.0
 11
415.5466997675111
 21
592.1644479664332
 31
0.0
  0
LINE
  5
686
102
{ACAD_REACTORS
330
761
102
}
330
1F
100
AcDbEntity
  8
実線
100
AcDbLine
 10
321.5923602297439
 20
592.1644479664332
 30
0.0
 11
321.5923602297439
 21
582.1644479664334
 31
0.0
  0
LINE
  5
687
102
{ACAD_REACTORS
330
761
102
}
330
1F
100
AcDbEntity
  8
実線
100
AcDbLine
 10
386.5984268090514
 20
582.1644479664334
 30
0.0
 11
386.5984268090514
 21
592.1644479664332
 31
0.0
  0
LINE
  5
688
102
{ACAD_REACTORS
330
761
102
}
330
1F
100
AcDbEntity
  8
実線
100
AcDbLine
 10
350.5406331882035
 20
582.1644479664334
 30
0.0
 11
350.5406331882035
 21
592.1644479664332
 31
0.0
  0
LINE
  5
689
102
{ACAD_REACTORS
330
761
102
}
330
1F
100
AcDbEntity
  8
実線
100
AcDbLine
 10
396.3359078730323
 20
608.9659631565985
 30
0.0
 11
401.449995323802
 21
608.9659631565985
 31
0.0
  0
LINE
  5
68A
102
{ACAD_REACTORS
330
761
102
}
330
1F
100
AcDbEntity
  8
実線
100
AcDbLine
 10
380.4499953238022
 20
638.6644479664332
 30
0.0
 11
401.449995323802
 21
608.9659631565985
 31
0.0
  0
LINE
  5
68B
102
{ACAD_REACTORS
330
761
102
}
330
1F
100
AcDbEntity
  8
実線
100
AcDbLine
 10
396.3359078730323
 20
668.3629327762684
 30
0.0
 11
401.449995323802
 21
668.3629327762684
 31
0.0
  0
LINE
  5
68C
102
{ACAD_REACTORS
330
761
102
}
330
1F
100
AcDbEntity
  8
実線
100
AcDbLine
 10
325.2956663912514
 20
655.6644479664334
 30
0.0
 11
330.6530933361423
 21
663.2409938113203
 31
0.0
  0
LINE
  5
68D
102
{ACAD_REACTORS
330
761
102
}
330
1F
100
AcDbEntity
  8
実線
100
AcDbLine
 10
380.4499953238022
 20
638.6644479664332
 30
0.0
 11
367.5695299986277
 21
638.6644479664332
 31
0.0
  0
LINE
  5
68E
102
{ACAD_REACTORS
330
761
102
}
330
1F
100
AcDbEntity
  8
実線
100
AcDbLine
 10
401.449995323802
 20
668.3629327762684
 30
0.0
 11
380.4499953238022
 21
638.6644479664332
 31
0.0
  0
ELLIPSE
  5
68F
102
{ACAD_REACTORS
330
761
102
}
330
1F
100
AcDbEntity
  8
実線
100
AcDbEllipse
 10
335.6890646734532
 20
638.6644479664332
 30
0.0
 11
0.0
 21
12.5
 31
0.0
210
0.0
220
0.0
230
1.0
 40
0.7071067811865476
 41
3.141592653589792
 42
4.71238898038469
  0
LINE
  5
690
102
{ACAD_REACTORS
330
761
102
}
330
1F
100
AcDbEntity
  8
実線
100
AcDbLine
 10
346.0415596467062
 20
651.1644479664332
 30
0.0
 11
335.6890646734532
 21
651.1644479664332
 31
0.0
  0
LINE
  5
691
102
{ACAD_REACTORS
330
761
102
}
330
1F
100
AcDbEntity
  8
実線
100
AcDbLine
 10
335.6890646734532
 20
626.1644479664332
 30
0.0
 11
346.0415596467062
 21
626.1644479664332
 31
0.0
  0
ELLIPSE
  5
692
102
{ACAD_REACTORS
330
761
102
}
330
1F
100
AcDbEntity
  8
実線
100
AcDbEllipse
 10
335.6890646734532
 20
638.6644479664332
 30
0.0
 11
0.0
 21
12.5
 31
0.0
210
0.0
220
0.0
230
1.0
 40
0.7071067811865476
 41
0.0
 42
0.1366722845325652
  0
ELLIPSE
  5
693
102
{ACAD_REACTORS
330
761
102
}
330
1F
100
AcDbEntity
  8
実線
100
AcDbEllipse
 10
335.6890646734532
 20
638.6644479664332
 30
0.0
 11
0.0
 21
12.5
 31
0.0
210
0.0
220
0.0
230
1.0
 40
0.7071067811865476
 41
3.004920369057245
 42
3.141592653589792
  0
ELLIPSE
  5
694
102
{ACAD_REACTORS
330
761
102
}
330
1F
100
AcDbEntity
  8
実線
100
AcDbEllipse
 10
335.6890646734532
 20
638.6644479664332
 30
0.0
 11
0.0
 21
12.5
 31
0.0
210
0.0
220
0.0
230
1.0
 40
0.7071067811865476
 41
4.71238898038469
 42
6.283185307179584
  0
LINE
  5
695
102
{ACAD_REACTORS
330
761
102
}
330
1F
100
AcDbEntity
  8
実線
100
AcDbLine
 10
326.0695299986275
 20
347.1644479664334
 30
0.0
 11
411.0695299986278
 21
347.1644479664334
 31
0.0
  0
ARC
  5
696
102
{ACAD_REACTORS
330
761
102
}
330
1F
100
AcDbEntity
  8
実線
100
AcDbCircle
 10
326.0695299986275
 20
352.1644479664334
 30
0.0
 40
5.0
100
AcDbArc
 50
180.0
 51
270.0
  0
ARC
  5
697
102
{ACAD_REACTORS
330
761
102
}
330
1F
100
AcDbEntity
  8
実線
100
AcDbCircle
 10
411.0695299986278
 20
352.1644479664334
 30
0.0
 40
5.0
100
AcDbArc
 50
270.0
 51
0.0
  0
LINE
  5
698
102
{ACAD_REACTORS
330
761
102
}
330
1F
100
AcDbEntity
  8
実線
100
AcDbLine
 10
333.9285138472501
 20
655.9824156636785
 30
0.0
 11
336.7101687942014
 21
651.1644479664332
 31
0.0
  0
ARC
  5
699
102
{ACAD_REACTORS
330
761
102
}
330
1F
100
AcDbEntity
  8
実線
100
AcDbCircle
 10
368.5695299986277
 20
675.9824156636782
 30
0.0
 40
40.0
100
AcDbArc
 50
180.0
 51
210.0000000000005
  0
ARC
  5
69A
102
{ACAD_REACTORS
330
761
102
}
330
1F
100
AcDbEntity
  8
実線
100
AcDbCircle
 10
368.5695299986277
 20
675.9824156636782
 30
0.0
 40
40.0
100
AcDbArc
 50
349.0187894681048
 51
0.0
  0
LINE
  5
69B
102
{ACAD_REACTORS
330
761
102
}
330
1F
100
AcDbEntity
  8
実線
100
AcDbLine
 10
408.5695299986277
 20
675.9824156636782
 30
0.0
 11
408.5695299986277
 21
685.1644479664332
 31
0.0
  0
LINE
  5
69C
102
{ACAD_REACTORS
330
761
102
}
330
1F
100
AcDbEntity
  8
実線
100
AcDbLine
 10
328.5695299986277
 20
685.1644479664332
 30
0.0
 11
328.5695299986277
 21
675.9824156636782
 31
0.0
  0
LINE
  5
69E
102
{ACAD_REACTORS
330
70F
102
}
330
1F
100
AcDbEntity
  8
中心線
100
AcDbLine
 10
368.5695299986277
 20
26.56596315658351
 30
0.0
 11
368.5695299986277
 21
170.5659631565835
 31
0.0
  0
LINE
  5
6A0
102
{ACAD_REACTORS
330
70D
102
}
330
1F
100
AcDbEntity
  8
中心線
100
AcDbLine
 10
368.5695299986266
 20
1106.565963156598
 30
0.0
 11
368.5695299986266
 21
1250.565963156599
 31
0.0
  0
LINE
  5
6A1
102
{ACAD_REACTORS
330
70D
102
}
330
1F
100
AcDbEntity
  8
中心線
100
AcDbLine
 10
440.5695299986266
 20
1178.565963156598
 30
0.0
 11
296.5695299986267
 21
1178.565963156598
 31
0.0
  0
LINE
  5
6A2
102
{ACAD_REACTORS
330
70F
102
}
330
1F
100
AcDbEntity
  8
中心線
100
AcDbLine
 10
440.5695299986276
 20
98.56596315659851
 30
0.0
 11
296.5695299986277
 21
98.56596315659857
 31
0.0
  0
LINE
  5
6AA
102
{ACAD_REACTORS
330
763
102
}
330
1F
100
AcDbEntity
  8
中心線
100
AcDbLine
 10
758.5695299986265
 20
638.6644479664335
 30
0.0
 11
938.5695299986267
 21
638.6644479664335
 31
0.0
  0
LINE
  5
6AB
102
{ACAD_REACTORS
330
763
102
}
330
1F
100
AcDbEntity
  8
中心線
100
AcDbLine
 10
776.5695299986264
 20
610.0644479664332
 30
0.0
 11
920.5695299986263
 21
610.0644479664332
 31
0.0
  0
LINE
  5
6AC
102
{ACAD_REACTORS
330
762
102
}
330
1F
100
AcDbEntity
  8
中心線
100
AcDbLine
 10
608.5695299986266
 20
308.6644479664333
 30
0.0
 11
608.5695299986266
 21
968.6644479664332
 31
0.0
  0
LINE
  5
6AD
102
{ACAD_REACTORS
330
762
102
}
330
1F
100
AcDbEntity
  8
中心線
100
AcDbLine
 10
536.5697994229581
 20
667.2644479664334
 30
0.0
 11
680.5692605742961
 21
667.2644479664334
 31
0.0
  0
LINE
  5
6AE
102
{ACAD_REACTORS
330
762
102
}
330
1F
100
AcDbEntity
  8
中心線
100
AcDbLine
 10
518.5695299986267
 20
638.6644479664335
 30
0.0
 11
698.5695299986267
 21
638.6644479664332
 31
0.0
  0
LINE
  5
6AF
102
{ACAD_REACTORS
330
762
102
}
330
1F
100
AcDbEntity
  8
中心線
100
AcDbLine
 10
553.5698827000397
 20
610.0644479664331
 30
0.0
 11
663.5691772972127
 21
610.0644479664332
 31
0.0
  0
LINE
  5
6B0
102
{ACAD_REACTORS
330
761
102
}
330
1F
100
AcDbEntity
  8
中心線
100
AcDbLine
 10
368.5695299986266
 20
308.6644479664333
 30
0.0
 11
368.5695299986266
 21
968.6644479664332
 31
0.0
  0
LINE
  5
6B1
102
{ACAD_REACTORS
330
761
102
}
330
1F
100
AcDbEntity
  8
中心線
100
AcDbLine
 10
313.5695299986277
 20
667.2644479664334
 30
0.0
 11
423.5695299986276
 21
667.2644479664334
 31
0.0
  0
LINE
  5
6B2
102
{ACAD_REACTORS
330
761
102
}
330
1F
100
AcDbEntity
  8
中心線
100
AcDbLine
 10
278.5695299986269
 20
638.6644479664335
 30
0.0
 11
458.5695299986269
 21
638.6644479664335
 31
0.0
  0
LINE
  5
6B3
102
{ACAD_REACTORS
330
761
102
}
330
1F
100
AcDbEntity
  8
中心線
100
AcDbLine
 10
296.5695299986267
 20
610.0644479664332
 30
0.0
 11
440.5695299986266
 21
610.0644479664332
 31
0.0
  0
LINE
  5
6B4
102
{ACAD_REACTORS
330
760
102
}
330
1F
100
AcDbEntity
  8
中心線
100
AcDbLine
 10
128.5695299986266
 20
308.6644479664333
 30
0.0
 11
128.5695299986266
 21
968.6644479664332
 31
0.0
  0
LINE
  5
6B5
102
{ACAD_REACTORS
330
760
102
}
330
1F
100
AcDbEntity
  8
中心線
100
AcDbLine
 10
56.5697994229581
 20
667.2644479664334
 30
0.0
 11
200.5692605742961
 21
667.2644479664334
 31
0.0
  0
LINE
  5
6B6
102
{ACAD_REACTORS
330
760
102
}
330
1F
100
AcDbEntity
  8
中心線
100
AcDbLine
 10
38.56952999862688
 20
638.6644479664332
 30
0.0
 11
218.5695299986269
 21
638.6644479664332
 31
0.0
  0
LINE
  5
6B7
102
{ACAD_REACTORS
330
760
102
}
330
1F
100
AcDbEntity
  8
中心線
100
AcDbLine
 10
73.56988270003956
 20
610.0644479664332
 30
0.0
 11
183.5691772972128
 21
610.0644479664332
 31
0.0
  0
LINE
  5
70B
102
{ACAD_REACTORS
330
70D
102
}
330
1F
100
AcDbEntity
  8
中心線
100
AcDbLine
 10
368.5695299986317
 20
1178.565963156593
 30
0.0
 11
317.6578417532003
 21
1127.654274911162
 31
0.0
  0
LINE
  5
70C
102
{ACAD_REACTORS
330
70F
102
}
330
1F
100
AcDbEntity
  8
中心線
100
AcDbLine
 10
317.6578417531887
 20
149.4776514020225
 30
0.0
 11
368.5695299986202
 21
98.56596315659112
 31
0.0
  0
ENDSEC
  0
SECTION
  2
OBJECTS
  0
DICTIONARY
  5
C
330
0
100
AcDbDictionary
281
     1
  3
ACAD_CIP_PREVIOUS_PRODUCT_INFO
350
355
  3
ACAD_COLOR
350
34B
  3
ACAD_DETAILVIEWSTYLE
350
34E
  3
ACAD_GROUP
350
D
  3
ACAD_LAYOUT
350
1A
  3
ACAD_MATERIAL
350
43
  3
ACAD_MLEADERSTYLE
350
5B
  3
ACAD_MLINESTYLE
350
17
  3
ACAD_PLOTSETTINGS
350
19
  3
ACAD_PLOTSTYLENAME
350
E
  3
ACAD_SCALELIST
350
47
  3
ACAD_SECTIONVIEWSTYLE
350
34C
  3
ACAD_TABLESTYLE
350
59
  3
ACAD_VISUALSTYLE
350
2A
  3
ACDB_RECOMPOSE_DATA
350
7B5
  3
AcDbVariableDictionary
350
300
  3
DWGPROPS
350
7B6
  0
DICTIONARY
  5
35C
330
2
100
AcDbDictionary
280
     1
281
     1
  3
ACAD_LAYERSTATES
360
35D
  0
DICTIONARY
  5
6BE
330
10
100
AcDbDictionary
280
     1
281
     1
  3
ADSK_XREC_LAYER_RECONCILED
360
6BF
  0
DICTIONARY
  5
358
330
357
100
AcDbDictionary
280
     1
281
     1
  3
ADSK_XREC_LAYER_RECONCILED
360
6C0
  0
DICTIONARY
  5
35A
330
359
100
AcDbDictionary
280
     1
281
     1
  3
ADSK_XREC_LAYER_RECONCILED
360
6C1
  0
DICTIONARY
  5
477
330
1F
100
AcDbDictionary
280
     1
281
     1
  3
ACAD_SORTENTS
360
478
  0
XRECORD
  5
355
102
{ACAD_REACTORS
330
C
102
}
330
C
100
AcDbXrecord
280
     1
300
ACDLT
300
2016
300
ACDLT_F_S
  0
DICTIONARY
  5
34B
102
{ACAD_REACTORS
330
C
102
}
330
C
100
AcDbDictionary
281
     1
  0
DICTIONARY
  5
34E
102
{ACAD_REACTORS
330
C
102
}
330
C
100
AcDbDictionary
281
     1
  3
Metric50
350
34F
  0
DICTIONARY
  5
D
102
{ACAD_REACTORS
330
C
102
}
330
C
100
AcDbDictionary
281
     1
  3
*A1
350
763
  3
*A2
350
70D
  3
*A3
350
70F
  3
*A4
350
760
  3
*A5
350
761
  3
*A6
350
762
  0
DICTIONARY
  5
1A
102
{ACAD_REACTORS
330
C
102
}
330
C
100
AcDbDictionary
281
     1
  3
Layout1
350
1E
  3
Model
350
22
  3
レイアウト1
350
350
  0
DICTIONARY
  5
43
102
{ACAD_REACTORS
330
C
102
}
330
C
100
AcDbDictionary
281
     1
  3
ByBlock
350
45
  3
ByLayer
350
44
  3
Global
350
46
  0
DICTIONARY
  5
5B
102
{ACAD_REACTORS
330
C
102
}
330
C
100
AcDbDictionary
281
     1
  3
Standard
350
5C
  0
DICTIONARY
  5
17
102
{ACAD_REACTORS
330
C
102
}
330
C
100
AcDbDictionary
281
     1
  3
Standard
350
18
  0
DICTIONARY
  5
19
102
{ACAD_REACTORS
330
C
102
}
330
C
100
AcDbDictionary
281
     1
  0
ACDBDICTIONARYWDFLT
  5
E
102
{ACAD_REACTORS
330
C
102
}
330
C
100
AcDbDictionary
281
     1
  3
Normal
350
F
100
AcDbDictionaryWithDefault
340
F
  0
DICTIONARY
  5
47
102
{ACAD_REACTORS
330
C
102
}
330
C
100
AcDbDictionary
281
     1
  3
A0
350
48
  3
A1
350
49
  3
A2
350
4A
  3
A3
350
4B
  3
A4
350
4C
  3
A5
350
4D
  3
A6
350
4E
  3
A7
350
4F
  3
A8
350
50
  3
A9
350
51
  3
B0
350
52
  3
B1
350
53
  3
B2
350
54
  3
B3
350
55
  3
B4
350
56
  3
B5
350
57
  3
B6
350
58
  0
DICTIONARY
  5
34C
102
{ACAD_REACTORS
330
C
102
}
330
C
100
AcDbDictionary
281
     1
  3
Metric50
350
34D
  0
DICTIONARY
  5
59
102
{ACAD_REACTORS
330
C
102
}
330
C
100
AcDbDictionary
281
     1
  3
Standard
350
5A
  0
DICTIONARY
  5
2A
102
{ACAD_REACTORS
330
C
102
}
330
C
100
AcDbDictionary
281
     1
  3
2dWireframe
350
2F
  3
Basic
350
32
  3
Brighten
350
36
  3
ColorChange
350
3A
  3
Conceptual
350
34
  3
Dim
350
35
  3
EdgeColorOff
350
3D
  3
Facepattern
350
39
  3
Flat
350
2B
  3
FlatWithEdges
350
2C
  3
Gouraud
350
2D
  3
GouraudWithEdges
350
2E
  3
Hidden
350
31
  3
JitterOff
350
3B
  3
Linepattern
350
38
  3
OverhangOff
350
3C
  3
Realistic
350
33
  3
Shaded
350
42
  3
Shaded with edges
350
41
  3
Shades of Gray
350
3E
  3
Sketchy
350
3F
  3
Thicken
350
37
  3
Wireframe
350
30
  3
X-Ray
350
40
  0
XRECORD
  5
7B5
102
{ACAD_REACTORS
330
C
102
}
330
C
100
AcDbXrecord
280
     1
 90
        1
330
5A
  0
DICTIONARY
  5
300
102
{ACAD_REACTORS
330
C
102
}
330
C
100
AcDbDictionary
281
     1
  3
CANNOSCALE
350
30E
  3
CENTEREXE
350
307
  3
CENTERLTYPEFILE
350
308
  3
CMLEADERSTYLE
350
302
  3
CTABLESTYLE
350
301
  3
CVIEWDETAILSTYLE
350
6C2
  3
CVIEWSECTIONSTYLE
350
6C3
  3
DIMASSOC
350
309
  3
HIDETEXT
350
30A
  3
INDEXCTL
350
716
  3
LAYEREVAL
350
6C5
  3
LAYERNOTIFY
350
6C6
  3
LIGHTINGUNITS
350
6C4
  3
LOFTANG1
350
7B1
  3
LOFTANG2
350
7B2
  3
MSLTSCALE
350
30F
  3
PSOLHEIGHT
350
7B0
  3
PSOLWIDTH
350
7AF
  3
SORTENTS
350
715
  3
XCLIPFRAME
350
7B3
  0
XRECORD
  5
7B6
102
{ACAD_REACTORS
330
C
102
}
330
C
100
AcDbXrecord
280
     1
  1
DWGPROPS COOKIE
  2

  3

  4

  6
File was created by TR2_DExp
  7

  8
fujino
  9

300
=
301
=
302
=
303
=
304
=
305
=
306
=
307
=
308
=
309
=
 40
0.0152183680555556
 41
2455188.75
 42
2459753.462170822
  1

 90
        0
  0
DICTIONARY
  5
35D
102
{ACAD_REACTORS
330
35C
102
}
330
35C
100
AcDbDictionary
281
     1
  0
XRECORD
  5
6BF
102
{ACAD_REACTORS
330
6BE
102
}
330
6BE
100
AcDbXrecord
280
     1
290
     1
  0
XRECORD
  5
6C0
102
{ACAD_REACTORS
330
358
102
}
330
358
100
AcDbXrecord
280
     1
290
     1
  0
XRECORD
  5
6C1
102
{ACAD_REACTORS
330
35A
102
}
330
35A
100
AcDbXrecord
280
     1
290
     1
  0
SORTENTSTABLE
  5
478
102
{ACAD_REACTORS
330
477
102
}
330
477
100
AcDbSortentsTable
330
1F
331
4AD
  5
5BC
331
4EC
  5
530
331
476
  5
641
331
472
  5
63D
331
4A9
  5
5B8
331
42D
  5
5F8
331
46C
  5
637
331
4E8
  5
52C
331
4A5
  5
5B4
331
429
  5
5F4
331
468
  5
633
331
4E4
  5
528
331
4E0
  5
524
331
464
  5
62F
331
425
  5
5F0
331
4A1
  5
5B0
331
460
  5
62B
331
421
  5
5EC
331
5DC
  5
45D
331
617
  5
49A
331
656
  5
3F0
331
59D
  5
501
331
599
  5
4FD
331
5D8
  5
459
331
613
  5
496
331
652
  5
3EC
331
64E
  5
3E8
331
595
  5
4F9
331
5D4
  5
455
331
60F
  5
492
331
60B
  5
48E
331
68D
  5
427
331
64A
  5
3E4
331
591
  5
4F5
331
527
  5
56B
331
566
  5
4CA
331
5D0
  5
451
331
562
  5
4C6
331
689
  5
423
331
523
  5
567
331
55E
  5
4C2
331
685
  5
41F
331
51F
  5
563
331
51B
  5
55F
331
55A
  5
4BE
331
681
  5
41B
331
49D
  5
5AC
331
4DC
  5
520
331
499
  5
5A8
331
45C
  5
627
331
4D8
  5
51C
331
495
  5
5A4
331
458
  5
623
331
4D4
  5
5E3
331
4D0
  5
5DF
331
491
  5
5A0
331
454
  5
61F
331
450
  5
61B
331
5CC
  5
44D
331
607
  5
48A
331
646
  5
3E0
331
58D
  5
4F1
331
589
  5
4ED
331
5C8
  5
449
331
603
  5
486
331
642
  5
3DC
331
63E
  5
3D8
331
585
  5
4E9
331
5C4
  5
445
331
5FF
  5
482
331
63A
  5
3D4
331
581
  5
4E5
331
5C0
  5
441
331
67D
  5
417
331
517
  5
55B
331
556
  5
4BA
331
5FB
  5
47E
331
679
  5
413
331
513
  5
557
331
552
  5
4B6
331
54E
  5
4B2
331
675
  5
40F
331
50F
  5
553
331
50B
  5
54F
331
54A
  5
4AE
331
671
  5
40B
331
4CC
  5
5DB
331
44C
  5
617
331
4C8
  5
5D7
331
507
  5
54B
331
503
  5
547
331
41D
  5
5E8
331
4C4
  5
5D3
331
448
  5
613
331
48F
  5
59E
331
4C0
  5
5CF
331
48B
  5
59A
331
419
  5
69C
331
444
  5
60F
331
440
  5
60B
331
5BC
  5
43D
331
636
  5
3D0
331
5B8
  5
439
331
5F7
  5
47A
331
632
  5
3CC
331
66D
  5
407
331
5B4
  5
518
331
5F3
  5
474
331
62E
  5
3C8
331
62A
  5
3C4
331
6B4
  5
6B4
331
669
  5
403
331
546
  5
4AA
331
5B0
  5
514
331
6B0
  5
6B0
331
542
  5
586
331
53E
  5
582
331
57D
  5
4E1
331
6AC
  5
6AC
331
53A
  5
57E
331
579
  5
4DD
331
4FF
  5
543
331
4BC
  5
5CB
331
487
  5
596
331
4FB
  5
53F
331
4B8
  5
5C7
331
4F7
  5
53B
331
43C
  5
607
331
483
  5
592
331
6A2
  5
6A2
331
4F3
  5
537
331
4B4
  5
5C3
331
438
  5
603
331
47F
  5
58E
331
4B0
  5
5BF
331
47B
  5
58A
331
434
  5
5FF
331
430
  5
5FB
331
5EF
  5
470
331
5AC
  5
510
331
5EB
  5
46C
331
626
  5
3C0
331
665
  5
3FF
331
5A8
  5
50C
331
5E7
  5
468
331
622
  5
4A5
331
661
  5
3FB
331
65D
  5
3F7
331
5A4
  5
508
331
5E3
  5
464
331
61E
  5
4A1
331
61A
  5
49D
331
69C
  5
436
331
659
  5
3F3
331
5A0
  5
504
331
536
  5
57A
331
575
  5
4D9
331
571
  5
4D5
331
698
  5
432
331
532
  5
576
331
52E
  5
572
331
56D
  5
4D1
331
694
  5
42E
331
52A
  5
56E
331
569
  5
4CD
331
690
  5
42A
331
4EF
  5
533
331
4AC
  5
5BB
331
4EB
  5
52F
331
46F
  5
63A
331
475
  5
640
331
471
  5
63C
331
4A8
  5
5B7
331
42C
  5
5F7
331
46B
  5
636
331
4E7
  5
52B
331
4E3
  5
527
331
4A4
  5
5B3
331
428
  5
5F3
331
467
  5
632
331
463
  5
62E
331
424
  5
5EF
331
4A0
  5
5AF
331
420
  5
5EB
331
5DF
  5
460
331
5DB
  5
45C
331
616
  5
499
331
655
  5
3EF
331
59C
  5
500
331
598
  5
4FC
331
5D7
  5
458
331
612
  5
495
331
651
  5
3EB
331
64D
  5
3E7
331
594
  5
4F8
331
5D3
  5
454
331
60E
  5
491
331
60A
  5
48D
331
68C
  5
426
331
649
  5
3E3
331
590
  5
4F4
331
526
  5
56A
331
565
  5
4C9
331
561
  5
4C5
331
688
  5
422
331
522
  5
566
331
51E
  5
562
331
55D
  5
4C1
331
684
  5
41E
331
51A
  5
55E
331
559
  5
4BD
331
680
  5
41A
331
4DF
  5
523
331
49C
  5
5AB
331
45F
  5
62A
331
4DB
  5
51F
331
498
  5
5A7
331
45B
  5
626
331
4D7
  5
51B
331
494
  5
5A3
331
457
  5
622
331
4D3
  5
5E2
331
453
  5
61E
331
490
  5
59F
331
5CF
  5
450
331
5CB
  5
44C
331
606
  5
489
331
645
  5
3DF
331
58C
  5
4F0
331
588
  5
4EC
331
5C7
  5
448
331
602
  5
485
331
641
  5
3DB
331
63D
  5
3D7
331
584
  5
4E8
331
5C3
  5
444
331
5FE
  5
481
331
5FA
  5
47D
331
67C
  5
416
331
639
  5
3D3
331
580
  5
4E4
331
516
  5
55A
331
555
  5
4B9
331
551
  5
4B5
331
678
  5
412
331
512
  5
556
331
54D
  5
4B1
331
674
  5
40E
331
50E
  5
552
331
50A
  5
54E
331
549
  5
4AD
331
670
  5
40A
331
4CF
  5
5DE
331
44F
  5
61A
331
4CB
  5
5DA
331
44B
  5
616
331
4C7
  5
5D6
331
506
  5
54A
331
502
  5
546
331
48E
  5
59D
331
41C
  5
5E7
331
447
  5
612
331
4C3
  5
5D2
331
48A
  5
599
331
418
  5
69B
331
443
  5
60E
331
5BF
  5
440
331
5BB
  5
43C
331
635
  5
3CF
331
5B7
  5
438
331
5F6
  5
479
331
631
  5
3CB
331
62D
  5
3C7
331
6B7
  5
6B7
331
66C
  5
406
331
5B3
  5
517
331
5F2
  5
473
331
629
  5
3C3
331
6B3
  5
6B3
331
668
  5
402
331
545
  5
4A9
331
6AF
  5
6AF
331
541
  5
585
331
53D
  5
581
331
57C
  5
4E0
331
6AB
  5
6AB
331
539
  5
57D
331
578
  5
4DC
331
4BF
  5
5CE
331
4FE
  5
542
331
4BB
  5
5CA
331
43F
  5
60A
331
486
  5
595
331
4FA
  5
53E
331
6A1
  5
6A1
331
4B7
  5
5C6
331
43B
  5
606
331
482
  5
591
331
4F6
  5
53A
331
4F2
  5
536
331
4B3
  5
5C2
331
437
  5
602
331
47E
  5
58D
331
47A
  5
589
331
433
  5
5FE
331
5EE
  5
46F
331
5AF
  5
513
331
5AB
  5
50F
331
5EA
  5
46B
331
625
  5
3BF
331
664
  5
3FE
331
660
  5
3FA
331
5A7
  5
50B
331
5E6
  5
467
331
621
  5
4A4
331
65C
  5
3F6
331
5A3
  5
507
331
5E2
  5
463
331
61D
  5
4A0
331
619
  5
49C
331
69B
  5
435
331
658
  5
3F2
331
535
  5
579
331
574
  5
4D8
331
570
  5
4D4
331
697
  5
431
331
531
  5
575
331
52D
  5
571
331
56C
  5
4D0
331
693
  5
42D
331
529
  5
56D
331
568
  5
4CC
331
4AF
  5
5BE
331
4EE
  5
532
331
474
  5
63F
331
4AB
  5
5BA
331
42F
  5
5FA
331
46E
  5
639
331
4EA
  5
52E
331
470
  5
63B
331
4A7
  5
5B6
331
42B
  5
5F6
331
46A
  5
635
331
4E6
  5
52A
331
4E2
  5
526
331
4A3
  5
5B2
331
427
  5
5F2
331
466
  5
631
331
462
  5
62D
331
423
  5
5EE
331
5DE
  5
45F
331
59F
  5
503
331
59B
  5
4FF
331
5DA
  5
45B
331
615
  5
498
331
654
  5
3EE
331
597
  5
4FB
331
5D6
  5
457
331
611
  5
494
331
650
  5
3EA
331
64C
  5
3E6
331
593
  5
4F7
331
5D2
  5
453
331
60D
  5
490
331
68F
  5
429
331
609
  5
48C
331
68B
  5
425
331
648
  5
3E2
331
525
  5
569
331
564
  5
4C8
331
560
  5
4C4
331
687
  5
421
331
521
  5
565
331
51D
  5
561
331
55C
  5
4C0
331
683
  5
41D
331
519
  5
55D
331
558
  5
4BC
331
49F
  5
5AE
331
4DE
  5
522
331
49B
  5
5AA
331
45E
  5
629
331
4DA
  5
51E
331
497
  5
5A6
331
45A
  5
625
331
4D6
  5
51A
331
4D2
  5
5E1
331
493
  5
5A2
331
456
  5
621
331
452
  5
61D
331
5CE
  5
44F
331
58F
  5
4F3
331
5CA
  5
44B
331
605
  5
488
331
644
  5
3DE
331
58B
  5
4EF
331
587
  5
4EB
331
5C6
  5
447
331
601
  5
484
331
640
  5
3DA
331
63C
  5
3D6
331
583
  5
4E7
331
5C2
  5
443
331
5FD
  5
480
331
67F
  5
419
331
5F9
  5
47C
331
67B
  5
415
331
638
  5
3D2
331
515
  5
559
331
554
  5
4B8
331
550
  5
4B4
331
677
  5
411
331
511
  5
555
331
50D
  5
551
331
54C
  5
4B0
331
673
  5
40D
331
509
  5
54D
331
548
  5
4AC
331
4CE
  5
5DD
331
44E
  5
619
331
4CA
  5
5D9
331
505
  5
549
331
41F
  5
5EA
331
44A
  5
615
331
4C6
  5
5D5
331
501
  5
545
331
48D
  5
59C
331
41B
  5
5E6
331
446
  5
611
331
4C2
  5
5D1
331
442
  5
60D
331
489
  5
598
331
5BE
  5
43F
331
5BA
  5
43B
331
634
  5
3CE
331
66F
  5
409
331
5B6
  5
437
331
5F5
  5
476
331
630
  5
3CA
331
62C
  5
3C6
331
6B6
  5
6B6
331
66B
  5
405
331
5B2
  5
516
331
5F1
  5
472
331
628
  5
3C2
331
6B2
  5
6B2
331
544
  5
4A8
331
540
  5
584
331
57F
  5
4E3
331
6AE
  5
6AE
331
53C
  5
580
331
57B
  5
4DF
331
6AA
  5
6AA
331
538
  5
57C
331
4BE
  5
5CD
331
4FD
  5
541
331
4BA
  5
5C9
331
43E
  5
609
331
485
  5
594
331
4F9
  5
53D
331
6A0
  5
6A0
331
4B6
  5
5C5
331
43A
  5
605
331
481
  5
590
331
4F5
  5
539
331
4F1
  5
535
331
47D
  5
58C
331
436
  5
601
331
4B2
  5
5C1
331
479
  5
588
331
432
  5
5FD
331
5ED
  5
46E
331
667
  5
401
331
5AE
  5
512
331
5AA
  5
50E
331
5E9
  5
46A
331
624
  5
4A7
331
663
  5
3FD
331
65F
  5
3F9
331
5A6
  5
50A
331
5E5
  5
466
331
620
  5
4A3
331
61C
  5
49F
331
69E
  5
69E
331
65B
  5
3F5
331
5A2
  5
506
331
577
  5
4DB
331
5E1
  5
462
331
618
  5
49B
331
573
  5
4D7
331
69A
  5
434
331
534
  5
578
331
56F
  5
4D3
331
696
  5
430
331
530
  5
574
331
52C
  5
570
331
56B
  5
4CF
331
692
  5
42C
331
528
  5
56C
331
4AE
  5
5BD
331
4ED
  5
531
331
473
  5
63E
331
4AA
  5
5B9
331
42E
  5
5F9
331
46D
  5
638
331
4E9
  5
52D
331
4A6
  5
5B5
331
42A
  5
5F5
331
469
  5
634
331
4E5
  5
529
331
4E1
  5
525
331
4A2
  5
5B1
331
426
  5
5F1
331
465
  5
630
331
461
  5
62C
331
422
  5
5ED
331
5DD
  5
45E
331
657
  5
3F1
331
59E
  5
502
331
59A
  5
4FE
331
5D9
  5
45A
331
614
  5
497
331
653
  5
3ED
331
64F
  5
3E9
331
596
  5
4FA
331
5D5
  5
456
331
610
  5
493
331
64B
  5
3E5
331
592
  5
4F6
331
5D1
  5
452
331
68E
  5
428
331
567
  5
4CB
331
60C
  5
48F
331
608
  5
48B
331
68A
  5
424
331
524
  5
568
331
563
  5
4C7
331
55F
  5
4C3
331
686
  5
420
331
520
  5
564
331
51C
  5
560
331
55B
  5
4BF
331
682
  5
41C
331
518
  5
55C
331
49E
  5
5AD
331
4DD
  5
521
331
49A
  5
5A9
331
45D
  5
628
331
4D9
  5
51D
331
496
  5
5A5
331
459
  5
624
331
4D5
  5
5E4
331
4D1
  5
5E0
331
492
  5
5A1
331
455
  5
620
331
451
  5
61C
331
5CD
  5
44E
331
647
  5
3E1
331
58E
  5
4F2
331
58A
  5
4EE
331
5C9
  5
44A
331
604
  5
487
331
643
  5
3DD
331
586
  5
4EA
331
5C5
  5
446
331
600
  5
483
331
63F
  5
3D9
331
63B
  5
3D5
331
582
  5
4E6
331
5C1
  5
442
331
5FC
  5
47F
331
557
  5
4BB
331
67E
  5
418
331
5F8
  5
47B
331
67A
  5
414
331
514
  5
558
331
553
  5
4B7
331
54F
  5
4B3
331
676
  5
410
331
510
  5
554
331
50C
  5
550
331
54B
  5
4AF
331
672
  5
40C
331
508
  5
54C
331
4CD
  5
5DC
331
44D
  5
618
331
4C9
  5
5D8
331
504
  5
548
331
41E
  5
5E9
331
449
  5
614
331
4C5
  5
5D4
331
4C1
  5
5D0
331
500
  5
544
331
48C
  5
59B
331
41A
  5
5E5
331
445
  5
610
331
441
  5
60C
331
488
  5
597
331
5BD
  5
43E
331
637
  5
3D1
331
5B9
  5
43A
331
633
  5
3CD
331
66E
  5
408
331
5B5
  5
519
331
5F4
  5
475
331
62F
  5
3C9
331
5F0
  5
471
331
62B
  5
3C5
331
6B5
  5
6B5
331
66A
  5
404
331
547
  5
4AB
331
5B1
  5
515
331
6B1
  5
6B1
331
543
  5
587
331
53F
  5
583
331
57E
  5
4E2
331
6AD
  5
6AD
331
53B
  5
57F
331
57A
  5
4DE
331
4BD
  5
5CC
331
4FC
  5
540
331
4B9
  5
5C8
331
43D
  5
608
331
484
  5
593
331
4F8
  5
53C
331
4F4
  5
538
331
4B5
  5
5C4
331
439
  5
604
331
480
  5
58F
331
4F0
  5
534
331
47C
  5
58B
331
435
  5
600
331
4B1
  5
5C0
331
431
  5
5FC
331
5EC
  5
46D
331
627
  5
3C1
331
666
  5
400
331
5AD
  5
511
331
5A9
  5
50D
331
5E8
  5
469
331
623
  5
4A6
331
662
  5
3FC
331
65E
  5
3F8
331
5A5
  5
509
331
5E4
  5
465
331
61F
  5
4A2
331
61B
  5
49E
331
65A
  5
3F4
331
5A1
  5
505
331
537
  5
57B
331
576
  5
4DA
331
5E0
  5
461
331
572
  5
4D6
331
699
  5
433
331
533
  5
577
331
52F
  5
573
331
56E
  5
4D2
331
695
  5
42F
331
52B
  5
56F
331
56A
  5
4CE
331
691
  5
42B
  0
ACDBDETAILVIEWSTYLE
  5
34F
102
{ACAD_XDICTIONARY
360
7EE
102
}
102
{ACAD_REACTORS
330
34E
102
}
330
34E
100
AcDbModelDocViewStyle
 70
     0
  3
Metric50
290
     0
100
AcDbDetailViewStyle
 70
     0
 71
     0
 90
        3
 71
     1
340
11
 40
5.0
340
0
 40
5.0
300

 40
0.0
280
     1
 71
     2
340
16
 90
       25
 71
     3
340
11
 40
5.0
 90
        0
 40
15.0
 90
        1
300
%<\AcVar ViewDetailId>% (%<\AcVar ViewScale \f "%sn">%)
 71
     4
340
16
 90
       25
340
16
 90
       25
280
     0
  0
GROUP
  5
763
102
{ACAD_REACTORS
330
D
102
}
330
D
100
AcDbGroup
300

 70
     1
 71
     1
340
6AB
340
6AA
340
419
340
418
340
543
340
542
340
541
340
540
340
53F
340
53E
340
53D
340
53C
340
53B
340
53A
340
539
340
538
340
537
340
536
340
535
340
534
340
533
340
532
340
531
340
530
340
52F
340
52E
340
52D
340
52C
340
52B
340
52A
340
529
340
528
340
527
340
526
340
525
340
524
340
523
340
522
340
521
340
520
340
51F
340
51E
340
51D
340
51C
340
51B
340
51A
340
519
340
518
340
517
340
516
340
515
340
514
340
513
340
512
340
511
340
510
340
50F
340
50E
340
50D
340
50C
340
50B
340
50A
340
509
340
508
340
507
340
506
340
505
340
504
340
503
340
502
340
501
340
500
340
4FF
340
4FE
340
4FD
340
4FC
340
4FB
340
4FA
340
4F9
340
4F8
340
4F7
340
4F6
340
4F5
340
4F4
340
4F3
340
4F2
340
4F1
340
4F0
340
4EF
340
4EE
340
4ED
340
4EC
340
4EB
340
4EA
340
4E9
340
4E8
340
4E7
340
4E6
340
4E5
340
4E4
340
4E3
340
4E2
340
4E1
340
4E0
340
4DF
340
4DE
340
4DD
340
4DC
340
4DB
340
4DA
340
4D9
340
4D8
340
4D7
340
4D6
  0
GROUP
  5
70D
102
{ACAD_REACTORS
330
D
102
}
330
D
100
AcDbGroup
300

 70
     1
 71
     1
340
70B
340
6A1
340
6A0
340
4D5
340
4D4
340
4D3
340
4D2
340
4D1
340
4D0
340
4CF
340
4CE
340
4CD
340
4CC
340
4CB
340
4CA
340
4C9
340
4C8
340
4C7
340
4C6
340
4C5
340
4C4
340
4C3
340
4C2
340
4C1
340
4C0
340
4BF
340
4BE
340
4BD
340
4BC
340
4BB
340
4BA
340
4B9
340
4B8
340
4B7
340
4B6
340
4B5
340
4B4
340
4B3
340
4B2
340
4B1
340
4B0
340
4AF
340
4AE
340
4AD
340
4AC
340
4AB
340
4AA
340
4A9
340
4A8
340
4A7
340
4A6
340
4A5
340
4A4
340
4A3
340
4A2
340
4A1
340
4A0
340
49F
340
49E
340
49D
340
49C
340
49B
340
49A
340
499
340
498
340
497
340
496
340
495
340
494
340
493
340
492
340
491
340
490
340
48F
340
48E
340
48D
340
48C
340
48B
340
48A
340
489
340
488
340
487
340
486
340
485
340
484
340
483
340
482
340
481
340
480
340
47F
340
47E
340
47D
340
47C
340
47B
340
47A
340
479
  0
GROUP
  5
70F
102
{ACAD_REACTORS
330
D
102
}
330
D
100
AcDbGroup
300

 70
     1
 71
     1
340
70C
340
6A2
340
69E
340
476
340
475
340
474
340
473
340
472
340
471
340
470
340
46F
340
46E
340
46D
340
46C
340
46B
340
46A
340
469
340
468
340
467
340
466
340
465
340
464
340
463
340
462
340
461
340
460
340
45F
340
45E
340
45D
340
45C
340
45B
340
45A
340
459
340
458
340
457
340
456
340
455
340
454
340
453
340
452
340
451
340
450
340
44F
340
44E
340
44D
340
44C
340
44B
340
44A
340
449
340
448
340
447
340
446
340
445
340
444
340
443
340
442
340
441
340
440
340
43F
340
43E
340
43D
340
43C
340
43B
340
43A
340
439
340
438
340
437
340
436
340
435
340
434
340
433
340
432
340
431
340
430
340
42F
340
42E
340
42D
340
42C
340
42B
340
42A
340
429
340
428
340
427
340
426
340
425
340
424
340
423
340
422
340
421
340
420
340
41F
340
41E
340
41D
340
41C
340
41B
340
41A
  0
GROUP
  5
760
102
{ACAD_REACTORS
330
D
102
}
330
D
100
AcDbGroup
300

 70
     1
 71
     1
340
6B7
340
6B6
340
6B5
340
6B4
340
624
340
623
340
622
340
621
340
620
340
61F
340
61E
340
61D
340
61C
340
61B
340
61A
340
619
340
618
340
617
340
616
340
615
340
614
340
613
340
612
340
611
340
610
340
60F
340
60E
340
60D
340
60C
340
60B
340
60A
340
609
340
608
340
607
340
606
340
605
340
604
340
603
340
602
340
601
340
600
340
5FF
340
5FE
340
5FD
340
5FC
340
5FB
340
5FA
340
5F9
340
5F8
340
5F7
340
5F6
340
5F5
340
5F4
340
5F3
340
5F2
340
5F1
340
5F0
340
5EF
340
5EE
340
5ED
340
5EC
340
5EB
340
5EA
340
5E9
340
5E8
340
5E7
340
5E6
340
5E5
340
5E4
340
5E3
340
5E2
340
5E1
340
5E0
340
5DF
340
5DE
340
5DD
340
5DC
340
5DB
340
5DA
340
5D9
340
5D8
340
5D7
340
5D6
340
5D5
340
5D4
340
5D3
340
5D2
340
5D1
340
5D0
340
5CF
340
5CE
340
5CD
340
5CC
340
5CB
340
5CA
340
5C9
340
5C8
340
5C7
340
5C6
340
5C5
340
5C4
340
5C3
340
5C2
340
5C1
340
5C0
340
5BF
340
5BE
340
5BD
340
5BC
340
5BB
340
5BA
340
5B9
340
5B8
340
5B7
340
5B6
  0
GROUP
  5
761
102
{ACAD_REACTORS
330
D
102
}
330
D
100
AcDbGroup
300

 70
     1
 71
     1
340
6B3
340
6B2
340
6B1
340
6B0
340
69C
340
69B
340
69A
340
699
340
698
340
697
340
696
340
695
340
694
340
693
340
692
340
691
340
690
340
68F
340
68E
340
68D
340
68C
340
68B
340
68A
340
689
340
688
340
687
340
686
340
685
340
684
340
683
340
682
340
681
340
680
340
67F
340
67E
340
67D
340
67C
340
67B
340
67A
340
679
340
678
340
677
340
676
340
675
340
674
340
673
340
672
340
671
340
670
340
66F
340
66E
340
66D
340
66C
340
66B
340
66A
340
669
340
668
340
667
340
666
340
665
340
664
340
663
340
662
340
661
340
660
340
65F
340
65E
340
65D
340
65C
340
65B
340
65A
340
659
340
658
340
657
340
656
340
655
340
654
340
653
340
652
340
651
340
650
340
64F
340
64E
340
64D
340
64C
340
64B
340
64A
340
649
340
648
340
647
340
646
340
645
340
644
340
643
340
642
340
641
340
640
340
63F
340
63E
340
63D
340
63C
340
63B
340
63A
340
639
340
638
340
637
340
636
340
635
340
634
340
633
340
632
340
631
340
630
340
62F
340
62E
340
62D
340
62C
340
62B
340
62A
340
629
340
628
340
627
340
626
340
625
  0
GROUP
  5
762
102
{ACAD_REACTORS
330
D
102
}
330
D
100
AcDbGroup
300

 70
     1
 71
     1
340
6AF
340
6AE
340
6AD
340
6AC
340
5B5
340
5B4
340
5B3
340
5B2
340
5B1
340
5B0
340
5AF
340
5AE
340
5AD
340
5AC
340
5AB
340
5AA
340
5A9
340
5A8
340
5A7
340
5A6
340
5A5
340
5A4
340
5A3
340
5A2
340
5A1
340
5A0
340
59F
340
59E
340
59D
340
59C
340
59B
340
59A
340
599
340
598
340
597
340
596
340
595
340
594
340
593
340
592
340
591
340
590
340
58F
340
58E
340
58D
340
58C
340
58B
340
58A
340
589
340
588
340
587
340
586
340
585
340
584
340
583
340
582
340
581
340
580
340
57F
340
57E
340
57D
340
57C
340
57B
340
57A
340
579
340
578
340
577
340
576
340
575
340
574
340
573
340
572
340
571
340
570
340
56F
340
56E
340
56D
340
56C
340
56B
340
56A
340
569
340
568
340
567
340
566
340
565
340
564
340
563
340
562
340
561
340
560
340
55F
340
55E
340
55D
340
55C
340
55B
340
55A
340
559
340
558
340
557
340
556
340
555
340
554
340
553
340
552
340
551
340
550
340
54F
340
54E
340
54D
340
54C
340
54B
340
54A
340
549
340
548
340
547
340
546
340
545
340
544
  0
LAYOUT
  5
1E
102
{ACAD_XDICTIONARY
360
7B7
102
}
102
{ACAD_REACTORS
330
1A
102
}
330
1A
100
AcDbPlotSettings
  1

  2
none_device
  4

  6

 40
0.0
 41
0.0
 42
0.0
 43
0.0
 44
0.0
 45
0.0
 46
0.0
 47
0.0
 48
0.0
 49
0.0
140
0.0
141
0.0
142
1.0
143
1.0
 70
   688
 72
     1
 73
     0
 74
     5
  7

 75
    16
147
1.0
148
0.0
149
0.0
100
AcDbLayout
  1
Layout1
 70
     1
 71
     1
 10
0.0
 20
0.0
 11
420.0
 21
297.0
 12
0.0
 22
0.0
 32
0.0
 14
1.000000000000000E+20
 24
1.000000000000000E+20
 34
1.000000000000000E+20
 15
-1.000000000000000E+20
 25
-1.000000000000000E+20
 35
-1.000000000000000E+20
146
0.0
 13
0.0
 23
0.0
 33
0.0
 16
1.0
 26
0.0
 36
0.0
 17
0.0
 27
1.0
 37
0.0
 76
     0
330
1B
  0
LAYOUT
  5
22
102
{ACAD_XDICTIONARY
360
7B9
102
}
102
{ACAD_REACTORS
330
1A
102
}
330
1A
100
AcDbPlotSettings
  1

  2
none_device
  4
Letter_(8.50_x_11.00_Inches)
  6

 40
6.349999999999997
 41
6.349999999999997
 42
6.350005079999997
 43
6.350005079999997
 44
215.9
 45
279.4
 46
0.0
 47
0.0
 48
0.0
 49
0.0
140
0.0
141
0.0
142
1.0
143
1.0
 70
  1712
 72
     1
 73
     0
 74
     0
  7

 75
     0
147
1.0
148
0.0
149
0.0
100
AcDbLayout
  1
Model
 70
     1
 71
     0
 10
-441.3259878158569
 20
-736.0708465576172
 11
1055.342836380005
 21
695.2163543701171
 12
0.0
 22
0.0
 32
0.0
 14
-441.3259878158569
 24
-736.0708465576172
 34
0.0
 15
1055.342836380005
 25
695.2163543701171
 35
0.0
146
0.0
 13
0.0
 23
0.0
 33
0.0
 16
1.0
 26
0.0
 36
0.0
 17
0.0
 27
1.0
 37
0.0
 76
     0
330
1F
331
29
  0
LAYOUT
  5
350
102
{ACAD_XDICTIONARY
360
7F0
102
}
102
{ACAD_REACTORS
330
1A
102
}
330
1A
100
AcDbPlotSettings
  1

  2
青梅 FX DocuCentre-V C2275 T2
  4

  6

 40
0.0
 41
0.0
 42
0.0
 43
0.0
 44
0.0
 45
0.0
 46
0.0
 47
0.0
 48
0.0
 49
0.0
140
0.0
141
0.0
142
1.0
143
1.0
 70
   688
 72
     0
 73
     0
 74
     5
  7
AutoCAD_PEN.ctb
 75
    16
147
1.0
148
0.0
149
0.0
100
AcDbLayout
  1
レイアウト1
 70
     1
 71
     2
 10
0.0
 20
0.0
 11
12.0
 21
9.0
 12
0.0
 22
0.0
 32
0.0
 14
0.0
 24
0.0
 34
0.0
 15
0.0
 25
0.0
 35
0.0
146
0.0
 13
0.0
 23
0.0
 33
0.0
 16
1.0
 26
0.0
 36
0.0
 17
0.0
 27
1.0
 37
0.0
 76
     0
330
23
  0
MATERIAL
  5
45
102
{ACAD_XDICTIONARY
360
342
102
}
102
{ACAD_REACTORS
330
43
102
}
330
43
100
AcDbMaterial
  1
ByBlock
  0
MATERIAL
  5
44
102
{ACAD_XDICTIONARY
360
340
102
}
102
{ACAD_REACTORS
330
43
102
}
330
43
100
AcDbMaterial
  1
ByLayer
  0
MATERIAL
  5
46
102
{ACAD_XDICTIONARY
360
344
102
}
102
{ACAD_REACTORS
330
43
102
}
330
43
100
AcDbMaterial
  1
Global
  0
MLEADERSTYLE
  5
5C
102
{ACAD_REACTORS
330
5B
102
}
330
5B
100
AcDbMLeaderStyle
170
     2
171
     1
172
     0
 90
        2
 40
0.0
 41
0.0
173
     1
 91
-1056964608
340
14
 92
       -2
290
     1
 42
2.0
291
     1
 43
8.0
  3
Standard
 44
4.0
300

342
11
174
     1
178
     6
175
     1
176
     0
 93
-1056964608
 45
4.0
292
     0
297
     0
 46
4.0
 94
-1056964608
 47
1.0
 49
1.0
140
1.0
293
     1
141
0.0
294
     1
177
     0
142
1.0
295
     0
296
     0
143
3.75
1001
ACAD_MLEADERVER
1070
     2
  0
MLINESTYLE
  5
18
102
{ACAD_REACTORS
330
17
102
}
330
17
100
AcDbMlineStyle
  2
STANDARD
 70
     0
  3

 62
   256
 51
90.0
 52
90.0
 71
     2
 49
0.5
 62
   256
  6
BYLAYER
 49
-0.5
 62
   256
  6
BYLAYER
  0
ACDBPLACEHOLDER
  5
F
102
{ACAD_REACTORS
330
E
102
}
330
E
  0
SCALE
  5
48
102
{ACAD_REACTORS
330
47
102
}
330
47
100
AcDbScale
 70
     0
300
1:1
140
1.0
141
1.0
290
     1
  0
SCALE
  5
49
102
{ACAD_REACTORS
330
47
102
}
330
47
100
AcDbScale
 70
     0
300
1:2
140
1.0
141
2.0
290
     0
  0
SCALE
  5
4A
102
{ACAD_REACTORS
330
47
102
}
330
47
100
AcDbScale
 70
     0
300
1:4
140
1.0
141
4.0
290
     0
  0
SCALE
  5
4B
102
{ACAD_REACTORS
330
47
102
}
330
47
100
AcDbScale
 70
     0
300
1:5
140
1.0
141
5.0
290
     0
  0
SCALE
  5
4C
102
{ACAD_REACTORS
330
47
102
}
330
47
100
AcDbScale
 70
     0
300
1:8
140
1.0
141
8.0
290
     0
  0
SCALE
  5
4D
102
{ACAD_REACTORS
330
47
102
}
330
47
100
AcDbScale
 70
     0
300
1:10
140
1.0
141
10.0
290
     0
  0
SCALE
  5
4E
102
{ACAD_REACTORS
330
47
102
}
330
47
100
AcDbScale
 70
     0
300
1:16
140
1.0
141
16.0
290
     0
  0
SCALE
  5
4F
102
{ACAD_REACTORS
330
47
102
}
330
47
100
AcDbScale
 70
     0
300
1:20
140
1.0
141
20.0
290
     0
  0
SCALE
  5
50
102
{ACAD_REACTORS
330
47
102
}
330
47
100
AcDbScale
 70
     0
300
1:30
140
1.0
141
30.0
290
     0
  0
SCALE
  5
51
102
{ACAD_REACTORS
330
47
102
}
330
47
100
AcDbScale
 70
     0
300
1:40
140
1.0
141
40.0
290
     0
  0
SCALE
  5
52
102
{ACAD_REACTORS
330
47
102
}
330
47
100
AcDbScale
 70
     0
300
1:50
140
1.0
141
50.0
290
     0
  0
SCALE
  5
53
102
{ACAD_REACTORS
330
47
102
}
330
47
100
AcDbScale
 70
     0
300
1:100
140
1.0
141
100.0
290
     0
  0
SCALE
  5
54
102
{ACAD_REACTORS
330
47
102
}
330
47
100
AcDbScale
 70
     0
300
2:1
140
2.0
141
1.0
290
     0
  0
SCALE
  5
55
102
{ACAD_REACTORS
330
47
102
}
330
47
100
AcDbScale
 70
     0
300
4:1
140
4.0
141
1.0
290
     0
  0
SCALE
  5
56
102
{ACAD_REACTORS
330
47
102
}
330
47
100
AcDbScale
 70
     0
300
8:1
140
8.0
141
1.0
290
     0
  0
SCALE
  5
57
102
{ACAD_REACTORS
330
47
102
}
330
47
100
AcDbScale
 70
     0
300
10:1
140
10.0
141
1.0
290
     0
  0
SCALE
  5
58
102
{ACAD_REACTORS
330
47
102
}
330
47
100
AcDbScale
 70
     0
300
100:1
140
100.0
141
1.0
290
     0
  0
ACDBSECTIONVIEWSTYLE
  5
34D
102
{ACAD_XDICTIONARY
360
7EC
102
}
102
{ACAD_REACTORS
330
34C
102
}
330
34C
100
AcDbModelDocViewStyle
 70
     0
  3
Metric50
290
     0
100
AcDbSectionViewStyle
 70
     0
 71
     0
 90
      102
 71
     1
340
11
 40
5.0
340
0
340
0
 40
5.0
300
I, O, Q, S, X, Z
 40
10.0
 90
        0
 40
2.5
 90
        0
 71
     2
340
16
 90
       25
340
16
 90
       50
 40
5.0
 40
2.5
 40
5.0
 71
     3
340
11
 40
5.0
 90
        0
 40
15.0
 90
        1
300
%<\AcVar ViewSectionStartId>%-%<\AcVar ViewSectionEndId>% (%<\AcVar ViewScale \f "%sn">%)
 71
     4
300
ANSI31
 40
1.0
 90
        0
290
     0
290
     0
 90
        6
 40
0.0
 40
1.570796326794896
 40
0.2617993877991494
 40
1.308996938995747
 40
-0.2617993877991494
 40
1.832595714594044
  0
TABLESTYLE
  5
5A
102
{ACAD_XDICTIONARY
360
6C7
102
}
102
{ACAD_REACTORS
330
59
102
}
330
59
100
AcDbTableStyle
  3
Standard
 70
     0
 71
     0
 40
1.5
 41
1.5
280
     0
281
     0
  7
Standard
140
4.5
170
     2
 62
     0
 63
     7
283
     0
274
    -2
284
     1
 64
     0
275
    -2
285
     1
 65
     0
276
    -2
286
     1
 66
     0
277
    -2
287
     1
 67
     0
278
    -2
288
     1
 68
     0
279
    -2
289
     1
 69
     0
  7
Standard
140
6.0
170
     5
 62
     0
 63
     7
283
     0
274
    -2
284
     1
 64
     0
275
    -2
285
     1
 65
     0
276
    -2
286
     1
 66
     0
277
    -2
287
     1
 67
     0
278
    -2
288
     1
 68
     0
279
    -2
289
     1
 69
     0
  7
Standard
140
4.5
170
     5
 62
     0
 63
     7
283
     0
274
    -2
284
     1
 64
     0
275
    -2
285
     1
 65
     0
276
    -2
286
     1
 66
     0
277
    -2
287
     1
 67
     0
278
    -2
288
     1
 68
     0
279
    -2
289
     1
 69
     0
  0
VISUALSTYLE
  5
2F
102
{ACAD_XDICTIONARY
360
7C3
102
}
102
{ACAD_REACTORS
330
2A
102
}
330
2A
100
AcDbVisualStyle
  2

 70
     4
 71
     0
 72
     2
 73
     0
 90
        0
 40
-0.6
 41
-30.0
 62
     5
 63
     7
 74
     1
 91
        4
 64
     7
 65
   257
 75
     1
175
     1
 42
1.0
 92
        0
 66
   257
 43
1.0
 76
     1
 77
     6
 78
     2
 67
     7
 79
     5
170
     0
171
     0
290
     0
174
     0
 93
        1
 44
0.0
173
     0
291
     0
 45
0.0
1001
ACAD
1000
AcDbSavedByObjectVersion
1070
     0
  0
VISUALSTYLE
  5
32
102
{ACAD_XDICTIONARY
360
7C9
102
}
102
{ACAD_REACTORS
330
2A
102
}
330
2A
100
AcDbVisualStyle
  2

 70
     7
 71
     1
 72
     0
 73
     1
 90
        0
 40
-0.6
 41
-30.0
 62
     5
 63
     7
 74
     0
 91
        4
 64
     7
 65
   257
 75
     1
175
     1
 42
1.0
 92
        8
 66
     7
 43
1.0
 76
     1
 77
     6
 78
     2
 67
     7
 79
     5
170
     0
171
     0
290
     0
174
     0
 93
        1
 44
0.0
173
     0
291
     1
 45
0.0
1001
ACAD
1000
AcDbSavedByObjectVersion
1070
     0
  0
VISUALSTYLE
  5
36
102
{ACAD_XDICTIONARY
360
7D1
102
}
102
{ACAD_REACTORS
330
2A
102
}
330
2A
100
AcDbVisualStyle
  2

 70
    12
 71
     2
 72
     2
 73
     0
 90
        0
 40
-0.6
 41
-30.0
 62
     5
 63
     7
 74
     1
 91
        4
 64
     7
 65
   257
 75
     1
175
     1
 42
1.0
 92
        8
 66
     7
 43
1.0
 76
     1
 77
     6
 78
     2
 67
     7
 79
     5
170
     0
171
     0
290
     0
174
     0
 93
        1
 44
50.0
173
     0
291
     1
 45
0.0
1001
ACAD
1000
AcDbSavedByObjectVersion
1070
     0
  0
VISUALSTYLE
  5
3A
102
{ACAD_XDICTIONARY
360
7D9
102
}
102
{ACAD_REACTORS
330
2A
102
}
330
2A
100
AcDbVisualStyle
  2

 70
    16
 71
     2
 72
     2
 73
     3
 90
        0
 40
-0.6
 41
-30.0
 62
     5
 63
     8
 74
     1
 91
        4
 64
     7
 65
   257
 75
     1
175
     1
 42
1.0
 92
        8
 66
     8
 43
1.0
 76
     1
 77
     6
 78
     2
 67
     7
 79
     5
170
     0
171
     0
290
     0
174
     0
 93
        1
 44
0.0
173
     0
291
     1
 45
0.0
1001
ACAD
1000
AcDbSavedByObjectVersion
1070
     0
  0
VISUALSTYLE
  5
34
102
{ACAD_XDICTIONARY
360
7CD
102
}
102
{ACAD_REACTORS
330
2A
102
}
330
2A
100
AcDbVisualStyle
  2

 70
     9
 71
     3
 72
     2
 73
     0
 90
        0
 40
-0.6
 41
-30.0
 62
     5
 63
     7
 74
     2
 91
        2
 64
     7
 65
   257
 75
     1
175
     1
 42
179.0
 92
        8
 66
     7
 43
1.0
 76
     1
 77
     6
 78
     2
 67
     7
 79
     3
170
     0
171
     0
290
     0
174
     0
 93
        1
 44
0.0
173
     0
291
     0
 45
0.0
1001
ACAD
1000
AcDbSavedByObjectVersion
1070
     0
  0
VISUALSTYLE
  5
35
102
{ACAD_XDICTIONARY
360
7CF
102
}
102
{ACAD_REACTORS
330
2A
102
}
330
2A
100
AcDbVisualStyle
  2

 70
    11
 71
     2
 72
     2
 73
     0
 90
        0
 40
-0.6
 41
-30.0
 62
     5
 63
     7
 74
     1
 91
        4
 64
     7
 65
   257
 75
     1
175
     1
 42
1.0
 92
        8
 66
     7
 43
1.0
 76
     1
 77
     6
 78
     2
 67
     7
 79
     5
170
     0
171
     0
290
     0
174
     0
 93
        1
 44
-50.0
173
     0
291
     1
 45
0.0
1001
ACAD
1000
AcDbSavedByObjectVersion
1070
     0
  0
VISUALSTYLE
  5
3D
102
{ACAD_XDICTIONARY
360
7DF
102
}
102
{ACAD_REACTORS
330
2A
102
}
330
2A
100
AcDbVisualStyle
  2

 70
    22
 71
     2
 72
     2
 73
     0
 90
        0
 40
-0.6
 41
-30.0
 62
     5
 63
     7
 74
     1
 91
        4
 64
     7
 65
   257
 75
     1
175
     1
 42
1.0
 92
        8
 66
     7
 43
1.0
 76
     1
 77
     6
 78
     2
 67
     7
 79
     5
170
     0
171
     0
290
     0
174
     0
 93
        1
 44
0.0
173
     0
291
     1
 45
0.0
1001
ACAD
1000
AcDbSavedByObjectVersion
1070
     0
  0
VISUALSTYLE
  5
39
102
{ACAD_XDICTIONARY
360
7D7
102
}
102
{ACAD_REACTORS
330
2A
102
}
330
2A
100
AcDbVisualStyle
  2

 70
    15
 71
     2
 72
     2
 73
     0
 90
        0
 40
-0.6
 41
-30.0
 62
     5
 63
     7
 74
     1
 91
        4
 64
     7
 65
   257
 75
     1
175
     1
 42
1.0
 92
        8
 66
     7
 43
1.0
 76
     1
 77
     6
 78
     2
 67
     7
 79
     5
170
     0
171
     0
290
     0
174
     0
 93
        1
 44
0.0
173
     0
291
     1
 45
0.0
1001
ACAD
1000
AcDbSavedByObjectVersion
1070
     0
  0
VISUALSTYLE
  5
2B
102
{ACAD_XDICTIONARY
360
7BB
102
}
102
{ACAD_REACTORS
330
2A
102
}
330
2A
100
AcDbVisualStyle
  2

 70
     0
 71
     2
 72
     1
 73
     1
 90
        2
 40
-0.6
 41
30.0
 62
     5
 63
     7
 74
     0
 91
        0
 64
     7
 65
   257
 75
     1
175
     1
 42
1.0
 92
        8
 66
     7
 43
1.0
 76
     1
 77
     6
 78
     2
 67
     7
 79
     5
170
     0
171
     0
290
     0
174
     0
 93
       13
 44
0.0
173
     0
291
     1
 45
0.0
1001
ACAD
1000
AcDbSavedByObjectVersion
1070
     0
  0
VISUALSTYLE
  5
2C
102
{ACAD_XDICTIONARY
360
7BD
102
}
102
{ACAD_REACTORS
330
2A
102
}
330
2A
100
AcDbVisualStyle
  2

 70
     1
 71
     2
 72
     1
 73
     1
 90
        2
 40
-0.6
 41
30.0
 62
     5
 63
     7
 74
     1
 91
        0
 64
     7
 65
   257
 75
     1
175
     1
 42
1.0
 92
        0
 66
   257
 43
1.0
 76
     1
 77
     6
 78
     2
 67
     7
 79
     5
170
     0
171
     0
290
     0
174
     0
 93
       13
 44
0.0
173
     0
291
     1
 45
0.0
1001
ACAD
1000
AcDbSavedByObjectVersion
1070
     0
  0
VISUALSTYLE
  5
2D
102
{ACAD_XDICTIONARY
360
7BF
102
}
102
{ACAD_REACTORS
330
2A
102
}
330
2A
100
AcDbVisualStyle
  2

 70
     2
 71
     2
 72
     2
 73
     1
 90
        2
 40
-0.6
 41
30.0
 62
     5
 63
     7
 74
     0
 91
        0
 64
     7
 65
   257
 75
     1
175
     1
 42
1.0
 92
        0
 66
     7
 43
1.0
 76
     1
 77
     6
 78
     2
 67
     7
 79
     5
170
     0
171
     0
290
     0
174
     0
 93
       13
 44
0.0
173
     0
291
     1
 45
0.0
1001
ACAD
1000
AcDbSavedByObjectVersion
1070
     0
  0
VISUALSTYLE
  5
2E
102
{ACAD_XDICTIONARY
360
7C1
102
}
102
{ACAD_REACTORS
330
2A
102
}
330
2A
100
AcDbVisualStyle
  2

 70
     3
 71
     2
 72
     2
 73
     1
 90
        2
 40
-0.6
 41
30.0
 62
     5
 63
     7
 74
     1
 91
        0
 64
     7
 65
   257
 75
     1
175
     1
 42
1.0
 92
        0
 66
   257
 43
1.0
 76
     1
 77
     6
 78
     2
 67
     7
 79
     5
170
     0
171
     0
290
     0
174
     0
 93
       13
 44
0.0
173
     0
291
     1
 45
0.0
1001
ACAD
1000
AcDbSavedByObjectVersion
1070
     0
  0
VISUALSTYLE
  5
31
102
{ACAD_XDICTIONARY
360
7C7
102
}
102
{ACAD_REACTORS
330
2A
102
}
330
2A
100
AcDbVisualStyle
  2

 70
     6
 71
     1
 72
     2
 73
     2
 90
        0
 40
-0.6
 41
-30.0
 62
     5
 63
     7
 74
     2
 91
        2
 64
     7
 65
   257
 75
     2
175
     1
 42
40.0
 92
        0
 66
   257
 43
1.0
 76
     1
 77
     6
 78
     2
 67
     7
 79
     3
170
     0
171
     0
290
     0
174
     0
 93
        1
 44
0.0
173
     0
291
     0
 45
0.0
1001
ACAD
1000
AcDbSavedByObjectVersion
1070
     0
  0
VISUALSTYLE
  5
3B
102
{ACAD_XDICTIONARY
360
7DB
102
}
102
{ACAD_REACTORS
330
2A
102
}
330
2A
100
AcDbVisualStyle
  2

 70
    20
 71
     2
 72
     2
 73
     0
 90
        0
 40
-0.6
 41
-30.0
 62
     5
 63
     7
 74
     1
 91
        4
 64
     7
 65
   257
 75
     1
175
     1
 42
1.0
 92
       10
 66
     7
 43
1.0
 76
     1
 77
     6
 78
     2
 67
     7
 79
     5
170
     0
171
     0
290
     0
174
     0
 93
        1
 44
0.0
173
     0
291
     1
 45
0.0
1001
ACAD
1000
AcDbSavedByObjectVersion
1070
     0
  0
VISUALSTYLE
  5
38
102
{ACAD_XDICTIONARY
360
7D5
102
}
102
{ACAD_REACTORS
330
2A
102
}
330
2A
100
AcDbVisualStyle
  2

 70
    14
 71
     2
 72
     2
 73
     0
 90
        0
 40
-0.6
 41
-30.0
 62
     5
 63
     7
 74
     1
 91
        4
 64
     7
 65
   257
 75
     7
175
     7
 42
1.0
 92
        8
 66
     7
 43
1.0
 76
     1
 77
     6
 78
     2
 67
     7
 79
     5
170
     0
171
     0
290
     0
174
     0
 93
        1
 44
0.0
173
     0
291
     1
 45
0.0
1001
ACAD
1000
AcDbSavedByObjectVersion
1070
     0
  0
VISUALSTYLE
  5
3C
102
{ACAD_XDICTIONARY
360
7DD
102
}
102
{ACAD_REACTORS
330
2A
102
}
330
2A
100
AcDbVisualStyle
  2

 70
    21
 71
     2
 72
     2
 73
     0
 90
        0
 40
-0.6
 41
-30.0
 62
     5
 63
     7
 74
     1
 91
        4
 64
     7
 65
   257
 75
     1
175
     1
 42
1.0
 92
        9
 66
     7
 43
1.0
 76
     1
 77
     6
 78
     2
 67
     7
 79
     5
170
     0
171
     0
290
     0
174
     0
 93
        1
 44
0.0
173
     0
291
     1
 45
0.0
1001
ACAD
1000
AcDbSavedByObjectVersion
1070
     0
  0
VISUALSTYLE
  5
33
102
{ACAD_XDICTIONARY
360
7CB
102
}
102
{ACAD_REACTORS
330
2A
102
}
330
2A
100
AcDbVisualStyle
  2

 70
     8
 71
     2
 72
     3
 73
     0
 90
        2
 40
-0.6
 41
30.0
 62
     5
 63
     7
 74
     0
 91
        0
 64
     7
 65
   257
 75
     1
175
     1
 42
1.0
 92
        8
 66
   257
 43
1.0
 76
     1
 77
     6
 78
     2
 67
     7
 79
     3
170
     0
171
     0
290
     0
174
     0
 93
       13
 44
0.0
173
     0
291
     0
 45
0.0
1001
ACAD
1000
AcDbSavedByObjectVersion
1070
     0
  0
VISUALSTYLE
  5
42
102
{ACAD_XDICTIONARY
360
7E9
102
}
102
{ACAD_REACTORS
330
2A
102
}
330
2A
100
AcDbVisualStyle
  2

 70
    27
 71
     2
 72
     2
 73
     1
 90
        2
 40
-0.6
 41
30.0
 62
     5
 63
     7
 74
     0
 91
        4
 64
     7
 65
   257
 75
     1
175
     1
 42
1.0
 92
        8
 66
   257
 43
1.0
 76
     1
 77
     6
 78
     2
 67
     8
 79
     3
170
     0
171
     0
290
     0
174
     0
 93
        5
 44
0.0
173
     0
291
     0
 45
0.0
1001
ACAD
1000
AcDbSavedByObjectVersion
1070
     0
  0
VISUALSTYLE
  5
41
102
{ACAD_XDICTIONARY
360
7E7
102
}
102
{ACAD_REACTORS
330
2A
102
}
330
2A
100
AcDbVisualStyle
  2

 70
    26
 71
     2
 72
     2
 73
     1
 90
        2
 40
-0.6
 41
30.0
 62
     5
 63
     7
 74
     1
 91
       10
 64
     7
 65
   257
 75
     2
175
     1
 42
1.0
 92
        8
 66
   257
 43
1.0
 76
     1
 77
     6
 78
     2
 67
     7
 79
     3
170
     0
171
     0
290
     0
174
     0
 93
        5
 44
0.0
173
     0
291
     0
 45
0.0
1001
ACAD
1000
AcDbSavedByObjectVersion
1070
     0
  0
VISUALSTYLE
  5
3E
102
{ACAD_XDICTIONARY
360
7E1
102
}
102
{ACAD_REACTORS
330
2A
102
}
330
2A
100
AcDbVisualStyle
  2

 70
    23
 71
     2
 72
     2
 73
     3
 90
        0
 40
-0.6
 41
-30.0
 62
     5
 63
     7
 74
     2
 91
        2
 64
     7
 65
     7
 75
     1
175
     1
 42
40.0
 92
        8
 66
     7
 43
1.0
 76
     1
 77
     6
 78
     2
 67
     7
 79
     3
170
     0
171
     0
290
     0
174
     0
 93
        1
 44
0.0
173
     0
291
     0
 45
0.0
1001
ACAD
1000
AcDbSavedByObjectVersion
1070
     0
  0
VISUALSTYLE
  5
3F
102
{ACAD_XDICTIONARY
360
7E3
102
}
102
{ACAD_REACTORS
330
2A
102
}
330
2A
100
AcDbVisualStyle
  2

 70
    24
 71
     1
 72
     2
 73
     2
 90
        0
 40
-0.6
 41
-30.0
 62
     5
 63
     7
 74
     2
 91
        2
 64
     7
 65
     7
 75
     1
175
     1
 42
40.0
 92
       11
 66
     7
 43
1.0
 76
     1
 77
     6
 78
     2
 67
     7
 79
     6
170
     0
171
     0
290
     0
174
     0
 93
        1
 44
0.0
173
     0
291
     0
 45
0.0
1001
ACAD
1000
AcDbSavedByObjectVersion
1070
     0
  0
VISUALSTYLE
  5
37
102
{ACAD_XDICTIONARY
360
7D3
102
}
102
{ACAD_REACTORS
330
2A
102
}
330
2A
100
AcDbVisualStyle
  2

 70
    13
 71
     2
 72
     2
 73
     0
 90
        0
 40
-0.6
 41
-30.0
 62
     5
 63
     7
 74
     1
 91
        4
 64
     7
 65
   257
 75
     1
175
     1
 42
1.0
 92
       12
 66
     7
 43
1.0
 76
     1
 77
     6
 78
     2
 67
     7
 79
     5
170
     0
171
     0
290
     0
174
     0
 93
        1
 44
0.0
173
     0
291
     1
 45
0.0
1001
ACAD
1000
AcDbSavedByObjectVersion
1070
     0
  0
VISUALSTYLE
  5
30
102
{ACAD_XDICTIONARY
360
7C5
102
}
102
{ACAD_REACTORS
330
2A
102
}
330
2A
100
AcDbVisualStyle
  2

 70
     5
 71
     0
 72
     2
 73
     0
 90
        0
 40
-0.6
 41
-30.0
 62
     5
 63
     7
 74
     1
 91
        4
 64
     7
 65
   257
 75
     1
175
     1
 42
1.0
 92
        0
 66
   257
 43
1.0
 76
     1
 77
     6
 78
     2
 67
     7
 79
     3
170
     0
171
     0
290
     0
174
     0
 93
        1
 44
0.0
173
     0
291
     0
 45
0.0
1001
ACAD
1000
AcDbSavedByObjectVersion
1070
     0
  0
VISUALSTYLE
  5
40
102
{ACAD_XDICTIONARY
360
7E5
102
}
102
{ACAD_REACTORS
330
2A
102
}
330
2A
100
AcDbVisualStyle
  2

 70
    25
 71
     2
 72
     2
 73
     1
 90
        1
 40
0.5
 41
-30.0
 62
     5
 63
     7
 74
     1
 91
        0
 64
     7
 65
   257
 75
     1
175
     1
 42
1.0
 92
        8
 66
     7
 43
1.0
 76
     1
 77
     6
 78
     2
 67
     7
 79
     3
170
     0
171
     0
290
     0
174
     0
 93
       13
 44
0.0
173
     0
291
     0
 45
0.0
1001
ACAD
1000
AcDbSavedByObjectVersion
1070
     0
  0
DICTIONARYVAR
  5
30E
102
{ACAD_REACTORS
330
300
102
}
330
300
100
DictionaryVariables
280
     0
  1
1:1
  0
DICTIONARYVAR
  5
307
102
{ACAD_REACTORS
330
300
102
}
330
300
100
DictionaryVariables
280
     0
  1
3.500000
  0
DICTIONARYVAR
  5
308
102
{ACAD_REACTORS
330
300
102
}
330
300
100
DictionaryVariables
280
     0
  1
acadiso.lin
  0
DICTIONARYVAR
  5
302
102
{ACAD_REACTORS
330
300
102
}
330
300
100
DictionaryVariables
280
     0
  1
STANDARD
  0
DICTIONARYVAR
  5
301
102
{ACAD_REACTORS
330
300
102
}
330
300
100
DictionaryVariables
280
     0
  1
STANDARD
  0
DICTIONARYVAR
  5
6C2
102
{ACAD_REACTORS
330
300
102
}
330
300
100
DictionaryVariables
280
     0
  1
Metric50
  0
DICTIONARYVAR
  5
6C3
102
{ACAD_REACTORS
330
300
102
}
330
300
100
DictionaryVariables
280
     0
  1
Metric50
  0
DICTIONARYVAR
  5
309
102
{ACAD_REACTORS
330
300
102
}
330
300
100
DictionaryVariables
280
     0
  1
2
  0
DICTIONARYVAR
  5
30A
102
{ACAD_REACTORS
330
300
102
}
330
300
100
DictionaryVariables
280
     0
  1
1
  0
DICTIONARYVAR
  5
716
102
{ACAD_REACTORS
330
300
102
}
330
300
100
DictionaryVariables
280
     0
  1
0
  0
DICTIONARYVAR
  5
6C5
102
{ACAD_REACTORS
330
300
102
}
330
300
100
DictionaryVariables
280
     0
  1
1
  0
DICTIONARYVAR
  5
6C6
102
{ACAD_REACTORS
330
300
102
}
330
300
100
DictionaryVariables
280
     0
  1
15
  0
DICTIONARYVAR
  5
6C4
102
{ACAD_REACTORS
330
300
102
}
330
300
100
DictionaryVariables
280
     0
  1
0
  0
DICTIONARYVAR
  5
7B1
102
{ACAD_REACTORS
330
300
102
}
330
300
100
DictionaryVariables
280
     0
  1
1.570796
  0
DICTIONARYVAR
  5
7B2
102
{ACAD_REACTORS
330
300
102
}
330
300
100
DictionaryVariables
280
     0
  1
1.570796
  0
DICTIONARYVAR
  5
30F
102
{ACAD_REACTORS
330
300
102
}
330
300
100
DictionaryVariables
280
     0
  1
1
  0
DICTIONARYVAR
  5
7B0
102
{ACAD_REACTORS
330
300
102
}
330
300
100
DictionaryVariables
280
     0
  1
80.000000
  0
DICTIONARYVAR
  5
7AF
102
{ACAD_REACTORS
330
300
102
}
330
300
100
DictionaryVariables
280
     0
  1
5.000000
  0
DICTIONARYVAR
  5
715
102
{ACAD_REACTORS
330
300
102
}
330
300
100
DictionaryVariables
280
     0
  1
127
  0
DICTIONARYVAR
  5
7B3
102
{ACAD_REACTORS
330
300
102
}
330
300
100
DictionaryVariables
280
     0
  1
2
  0
DICTIONARY
  5
7EE
330
34F
100
AcDbDictionary
280
     1
281
     1
  3
ACAD_XREC_ROUNDTRIP
360
7EF
  0
DICTIONARY
  5
7B7
330
1E
100
AcDbDictionary
280
     1
281
     1
  3
ACAD_XREC_ROUNDTRIP
360
7B8
  0
DICTIONARY
  5
7B9
330
22
100
AcDbDictionary
280
     1
281
     1
  3
ACAD_XREC_ROUNDTRIP
360
7BA
  0
DICTIONARY
  5
7F0
330
350
100
AcDbDictionary
280
     1
281
     1
  3
ACAD_XREC_ROUNDTRIP
360
7F1
  0
DICTIONARY
  5
342
330
45
100
AcDbDictionary
280
     1
281
     1
  3
ACAD_XREC_ROUNDTRIP
360
343
  0
DICTIONARY
  5
340
330
44
100
AcDbDictionary
280
     1
281
     1
  3
ACAD_XREC_ROUNDTRIP
360
341
  0
DICTIONARY
  5
344
330
46
100
AcDbDictionary
280
     1
281
     1
  3
ACAD_XREC_ROUNDTRIP
360
345
  0
DICTIONARY
  5
7EC
330
34D
100
AcDbDictionary
280
     1
281
     1
  3
ACAD_XREC_ROUNDTRIP
360
7ED
  0
DICTIONARY
  5
6C7
330
5A
100
AcDbDictionary
280
     1
281
     1
  3
ACAD_ROUNDTRIP_2008_TABLESTYLE_CELLSTYLEMAP
360
7B4
  3
ACAD_XREC_ROUNDTRIP
360
7EB
  0
DICTIONARY
  5
7C3
330
2F
100
AcDbDictionary
280
     1
281
     1
  3
ACAD_XREC_ROUNDTRIP
360
7C4
  0
DICTIONARY
  5
7C9
330
32
100
AcDbDictionary
280
     1
281
     1
  3
ACAD_XREC_ROUNDTRIP
360
7CA
  0
DICTIONARY
  5
7D1
330
36
100
AcDbDictionary
280
     1
281
     1
  3
ACAD_XREC_ROUNDTRIP
360
7D2
  0
DICTIONARY
  5
7D9
330
3A
100
AcDbDictionary
280
     1
281
     1
  3
ACAD_XREC_ROUNDTRIP
360
7DA
  0
DICTIONARY
  5
7CD
330
34
100
AcDbDictionary
280
     1
281
     1
  3
ACAD_XREC_ROUNDTRIP
360
7CE
  0
DICTIONARY
  5
7CF
330
35
100
AcDbDictionary
280
     1
281
     1
  3
ACAD_XREC_ROUNDTRIP
360
7D0
  0
DICTIONARY
  5
7DF
330
3D
100
AcDbDictionary
280
     1
281
     1
  3
ACAD_XREC_ROUNDTRIP
360
7E0
  0
DICTIONARY
  5
7D7
330
39
100
AcDbDictionary
280
     1
281
     1
  3
ACAD_XREC_ROUNDTRIP
360
7D8
  0
DICTIONARY
  5
7BB
330
2B
100
AcDbDictionary
280
     1
281
     1
  3
ACAD_XREC_ROUNDTRIP
360
7BC
  0
DICTIONARY
  5
7BD
330
2C
100
AcDbDictionary
280
     1
281
     1
  3
ACAD_XREC_ROUNDTRIP
360
7BE
  0
DICTIONARY
  5
7BF
330
2D
100
AcDbDictionary
280
     1
281
     1
  3
ACAD_XREC_ROUNDTRIP
360
7C0
  0
DICTIONARY
  5
7C1
330
2E
100
AcDbDictionary
280
     1
281
     1
  3
ACAD_XREC_ROUNDTRIP
360
7C2
  0
DICTIONARY
  5
7C7
330
31
100
AcDbDictionary
280
     1
281
     1
  3
ACAD_XREC_ROUNDTRIP
360
7C8
  0
DICTIONARY
  5
7DB
330
3B
100
AcDbDictionary
280
     1
281
     1
  3
ACAD_XREC_ROUNDTRIP
360
7DC
  0
DICTIONARY
  5
7D5
330
38
100
AcDbDictionary
280
     1
281
     1
  3
ACAD_XREC_ROUNDTRIP
360
7D6
  0
DICTIONARY
  5
7DD
330
3C
100
AcDbDictionary
280
     1
281
     1
  3
ACAD_XREC_ROUNDTRIP
360
7DE
  0
DICTIONARY
  5
7CB
330
33
100
AcDbDictionary
280
     1
281
     1
  3
ACAD_XREC_ROUNDTRIP
360
7CC
  0
DICTIONARY
  5
7E9
330
42
100
AcDbDictionary
280
     1
281
     1
  3
ACAD_XREC_ROUNDTRIP
360
7EA
  0
DICTIONARY
  5
7E7
330
41
100
AcDbDictionary
280
     1
281
     1
  3
ACAD_XREC_ROUNDTRIP
360
7E8
  0
DICTIONARY
  5
7E1
330
3E
100
AcDbDictionary
280
     1
281
     1
  3
ACAD_XREC_ROUNDTRIP
360
7E2
  0
DICTIONARY
  5
7E3
330
3F
100
AcDbDictionary
280
     1
281
     1
  3
ACAD_XREC_ROUNDTRIP
360
7E4
  0
DICTIONARY
  5
7D3
330
37
100
AcDbDictionary
280
     1
281
     1
  3
ACAD_XREC_ROUNDTRIP
360
7D4
  0
DICTIONARY
  5
7C5
330
30
100
AcDbDictionary
280
     1
281
     1
  3
ACAD_XREC_ROUNDTRIP
360
7C6
  0
DICTIONARY
  5
7E5
330
40
100
AcDbDictionary
280
     1
281
     1
  3
ACAD_XREC_ROUNDTRIP
360
7E6
  0
XRECORD
  5
7EF
102
{ACAD_REACTORS
330
7EE
102
}
330
7EE
100
AcDbXrecord
280
     1
102
DISPLAYNAME
  1
Metric50
102
FLAGS
 90
        0
  0
XRECORD
  5
7B8
102
{ACAD_REACTORS
330
7B7
102
}
330
7B7
100
AcDbXrecord
280
     1
102
SHADEPLOT
 70
     0
102
SHADEPLOTRESLEVEL
 70
     2
102
SHADEPLOTCUSTOMDPI
 70
   300
  0
XRECORD
  5
7BA
102
{ACAD_REACTORS
330
7B9
102
}
330
7B9
100
AcDbXrecord
280
     1
102
SHADEPLOT
 70
     0
102
SHADEPLOTRESLEVEL
 70
     2
102
SHADEPLOTCUSTOMDPI
 70
   300
  0
XRECORD
  5
7F1
102
{ACAD_REACTORS
330
7F0
102
}
330
7F0
100
AcDbXrecord
280
     1
102
SHADEPLOT
 70
     0
102
SHADEPLOTRESLEVEL
 70
     2
102
SHADEPLOTCUSTOMDPI
 70
   300
  0
XRECORD
  5
343
102
{ACAD_REACTORS
330
342
102
}
330
342
100
AcDbXrecord
280
     1
102
MATERIAL
148
0.0
149
0.0
149
0.0
 93
        0
 94
      127
282
     0
 72
     1
 77
     1
171
     1
175
     1
179
     1
273
     0
  0
XRECORD
  5
341
102
{ACAD_REACTORS
330
340
102
}
330
340
100
AcDbXrecord
280
     1
102
MATERIAL
148
0.0
149
0.0
149
0.0
 93
        0
 94
      127
282
     0
 72
     1
 77
     1
171
     1
175
     1
179
     1
273
     0
  0
XRECORD
  5
345
102
{ACAD_REACTORS
330
344
102
}
330
344
100
AcDbXrecord
280
     1
102
MATERIAL
148
0.0
149
0.0
149
0.0
 93
        0
 94
      127
282
     0
 72
     1
 77
     1
171
     1
175
     1
179
     1
273
     0
  0
XRECORD
  5
7ED
102
{ACAD_REACTORS
330
7EC
102
}
330
7EC
100
AcDbXrecord
280
     1
102
DISPLAYNAME
  1
Metric50
102
FLAGS
 90
        0
  0
CELLSTYLEMAP
  5
7B4
102
{ACAD_REACTORS
330
6C7
102
}
330
6C7
100
AcDbCellStyleMap
 90
        3
300
CELLSTYLE
  1
TABLEFORMAT_BEGIN
 90
        5
170
     1
 91
        0
 92
    32768
 62
   257
 93
        1
300
CONTENTFORMAT
  1
CONTENTFORMAT_BEGIN
 90
        0
 91
        0
 92
        4
 93
        0
300

 40
0.0
140
1.0
 94
        5
 62
     0
340
11
144
6.0
309
CONTENTFORMAT_END
171
     1
301
MARGIN
  1
CELLMARGIN_BEGIN
 40
1.5
 40
1.5
 40
1.5
 40
1.5
 40
0.18
 40
0.18
309
CELLMARGIN_END
 94
        6
 95
        1
302
GRIDFORMAT
  1
GRIDFORMAT_BEGIN
 90
        0
 91
        1
 62
     0
 92
       -2
340
0
 93
        0
 40
0.045
309
GRIDFORMAT_END
 95
        2
302
GRIDFORMAT
  1
GRIDFORMAT_BEGIN
 90
        0
 91
        1
 62
     0
 92
       -2
340
0
 93
        0
 40
0.045
309
GRIDFORMAT_END
 95
        4
302
GRIDFORMAT
  1
GRIDFORMAT_BEGIN
 90
        0
 91
        1
 62
     0
 92
       -2
340
0
 93
        0
 40
0.045
309
GRIDFORMAT_END
 95
        8
302
GRIDFORMAT
  1
GRIDFORMAT_BEGIN
 90
        0
 91
        1
 62
     0
 92
       -2
340
0
 93
        0
 40
0.045
309
GRIDFORMAT_END
 95
       16
302
GRIDFORMAT
  1
GRIDFORMAT_BEGIN
 90
        0
 91
        1
 62
     0
 92
       -2
340
0
 93
        0
 40
0.045
309
GRIDFORMAT_END
 95
       32
302
GRIDFORMAT
  1
GRIDFORMAT_BEGIN
 90
        0
 91
        1
 62
     0
 92
       -2
340
0
 93
        0
 40
0.045
309
GRIDFORMAT_END
309
TABLEFORMAT_END
  1
CELLSTYLE_BEGIN
 90
        1
 91
        1
300
_TITLE
309
CELLSTYLE_END
300
CELLSTYLE
  1
TABLEFORMAT_BEGIN
 90
        5
170
     1
 91
        0
 92
        0
 62
   257
 93
        1
300
CONTENTFORMAT
  1
CONTENTFORMAT_BEGIN
 90
        0
 91
        0
 92
        4
 93
        0
300

 40
0.0
140
1.0
 94
        5
 62
     0
340
11
144
4.5
309
CONTENTFORMAT_END
171
     1
301
MARGIN
  1
CELLMARGIN_BEGIN
 40
1.5
 40
1.5
 40
1.5
 40
1.5
 40
0.18
 40
0.18
309
CELLMARGIN_END
 94
        6
 95
        1
302
GRIDFORMAT
  1
GRIDFORMAT_BEGIN
 90
        0
 91
        1
 62
     0
 92
       -2
340
0
 93
        0
 40
0.045
309
GRIDFORMAT_END
 95
        2
302
GRIDFORMAT
  1
GRIDFORMAT_BEGIN
 90
        0
 91
        1
 62
     0
 92
       -2
340
0
 93
        0
 40
0.045
309
GRIDFORMAT_END
 95
        4
302
GRIDFORMAT
  1
GRIDFORMAT_BEGIN
 90
        0
 91
        1
 62
     0
 92
       -2
340
0
 93
        0
 40
0.045
309
GRIDFORMAT_END
 95
        8
302
GRIDFORMAT
  1
GRIDFORMAT_BEGIN
 90
        0
 91
        1
 62
     0
 92
       -2
340
0
 93
        0
 40
0.045
309
GRIDFORMAT_END
 95
       16
302
GRIDFORMAT
  1
GRIDFORMAT_BEGIN
 90
        0
 91
        1
 62
     0
 92
       -2
340
0
 93
        0
 40
0.045
309
GRIDFORMAT_END
 95
       32
302
GRIDFORMAT
  1
GRIDFORMAT_BEGIN
 90
        0
 91
        1
 62
     0
 92
       -2
340
0
 93
        0
 40
0.045
309
GRIDFORMAT_END
309
TABLEFORMAT_END
  1
CELLSTYLE_BEGIN
 90
        2
 91
        1
300
_HEADER
309
CELLSTYLE_END
300
CELLSTYLE
  1
TABLEFORMAT_BEGIN
 90
        5
170
     1
 91
        0
 92
        0
 62
   257
 93
        1
300
CONTENTFORMAT
  1
CONTENTFORMAT_BEGIN
 90
        0
 91
        0
 92
        4
 93
        0
300

 40
0.0
140
1.0
 94
        2
 62
     0
340
11
144
4.5
309
CONTENTFORMAT_END
171
     1
301
MARGIN
  1
CELLMARGIN_BEGIN
 40
1.5
 40
1.5
 40
1.5
 40
1.5
 40
0.18
 40
0.18
309
CELLMARGIN_END
 94
        6
 95
        1
302
GRIDFORMAT
  1
GRIDFORMAT_BEGIN
 90
        0
 91
        1
 62
     0
 92
       -2
340
0
 93
        0
 40
0.045
309
GRIDFORMAT_END
 95
        2
302
GRIDFORMAT
  1
GRIDFORMAT_BEGIN
 90
        0
 91
        1
 62
     0
 92
       -2
340
0
 93
        0
 40
0.045
309
GRIDFORMAT_END
 95
        4
302
GRIDFORMAT
  1
GRIDFORMAT_BEGIN
 90
        0
 91
        1
 62
     0
 92
       -2
340
0
 93
        0
 40
0.045
309
GRIDFORMAT_END
 95
        8
302
GRIDFORMAT
  1
GRIDFORMAT_BEGIN
 90
        0
 91
        1
 62
     0
 92
       -2
340
0
 93
        0
 40
0.045
309
GRIDFORMAT_END
 95
       16
302
GRIDFORMAT
  1
GRIDFORMAT_BEGIN
 90
        0
 91
        1
 62
     0
 92
       -2
340
0
 93
        0
 40
0.045
309
GRIDFORMAT_END
 95
       32
302
GRIDFORMAT
  1
GRIDFORMAT_BEGIN
 90
        0
 91
        1
 62
     0
 92
       -2
340
0
 93
        0
 40
0.045
309
GRIDFORMAT_END
309
TABLEFORMAT_END
  1
CELLSTYLE_BEGIN
 90
        3
 91
        2
300
_DATA
309
CELLSTYLE_END
  0
XRECORD
  5
7EB
102
{ACAD_REACTORS
330
6C7
102
}
330
6C7
100
AcDbXrecord
280
     1
102
ACAD_ROUNDTRIP_PRE2007_TABLESTYLE
 90
        4
 91
        0
  1

 92
        4
 93
        0
  2

 94
        4
 95
        0
  3

  0
XRECORD
  5
7C4
102
{ACAD_REACTORS
330
7C3
102
}
330
7C3
100
AcDbXrecord
280
     1
102
RTVSPost2010Prop28
280
     1
102
RTVSPost2010PropOp28
 70
     1
102
RTVSPost2010Prop29
280
     1
102
RTVSPost2010PropOp29
 70
     1
102
RTVSPost2010Prop30
280
     0
102
RTVSPost2010PropOp30
 70
     1
102
RTVSPost2010Prop31
280
     0
102
RTVSPost2010PropOp31
 70
     1
102
RTVSPost2010Prop32
280
     0
102
RTVSPost2010PropOp32
 70
     1
102
RTVSPost2010Prop33
280
     0
102
RTVSPost2010PropOp33
 70
     1
102
RTVSPost2010Prop34
280
     0
102
RTVSPost2010PropOp34
 70
     1
102
RTVSPost2010Prop35
280
     0
102
RTVSPost2010PropOp35
 70
     1
102
RTVSPost2010Prop36
280
     0
102
RTVSPost2010PropOp36
 70
     1
102
RTVSPost2010Prop37
 90
       50
102
RTVSPost2010PropOp37
 70
     1
102
RTVSPost2010Prop38
140
0.0
102
RTVSPost2010PropOp38
 70
     1
102
RTVSPost2010Prop39
140
1.0
102
RTVSPost2010PropOp39
 70
     1
102
RTVSPost2010Prop40
 90
        0
102
RTVSPost2010PropOp40
 70
     1
102
RTVSPost2010Prop41ColorIndex
 90
       18
102
RTVSPost2010Prop41ColorRGB
 90
        0
102
RTVSPost2010PropOp41
 70
     1
102
RTVSPost2010Prop42
 90
       50
102
RTVSPost2010PropOp42
 70
     1
102
RTVSPost2010Prop43
 90
        3
102
RTVSPost2010PropOp43
 70
     1
102
RTVSPost2010Prop44ColorIndex
 90
        5
102
RTVSPost2010Prop44ColorRGB
 90
      255
102
RTVSPost2010PropOp44
 70
     1
102
RTVSPost2010Prop45
280
     0
102
RTVSPost2010PropOp45
 70
     1
102
RTVSPost2010Prop46
 90
       50
102
RTVSPost2010PropOp46
 70
     1
102
RTVSPost2010Prop47
 90
       50
102
RTVSPost2010PropOp47
 70
     1
102
RTVSPost2010Prop48
 90
       50
102
RTVSPost2010PropOp48
 70
     1
102
RTVSPost2010Prop49
280
     0
102
RTVSPost2010PropOp49
 70
     1
102
RTVSPost2010Prop50
 90
       50
102
RTVSPost2010PropOp50
 70
     1
102
RTVSPost2010Prop51ColorIndex
 90
      256
102
RTVSPost2010Prop51ColorRGB
 90
-16777216
102
RTVSPost2010PropOp51
 70
     0
102
RTVSPost2010Prop52
140
1.0
102
RTVSPost2010PropOp52
 70
     0
102
RTVSPost2010Prop53
 90
        2
102
RTVSPost2010PropOp53
 70
     1
102
RTVSPost2010Prop54
  1
strokes_ogs.tif
102
RTVSPost2010PropOp54
 70
     1
102
RTVSPost2010Prop55
280
     0
102
RTVSPost2010PropOp55
 70
     1
102
RTVSPost2010Prop56
140
1.0
102
RTVSPost2010PropOp56
 70
     1
102
RTVSPost2010Prop57
140
1.0
102
RTVSPost2010PropOp57
 70
     1
102
RTVSPropertyOp0
 70
     1
102
RTVSPropertyOp1
 70
     1
102
RTVSPropertyOp2
 70
     1
102
RTVSPropertyOp3
 70
     1
102
RTVSPropertyOp4
 70
     1
102
RTVSPropertyOp5
 70
     1
102
RTVSPropertyOp6
 70
     1
102
RTVSPropertyOp7
 70
     1
102
RTVSPropertyOp8
 70
     1
102
RTVSPropertyOp9
 70
     1
102
RTVSPropertyOp10
 70
     1
102
RTVSPropertyOp11
 70
     1
102
RTVSPropertyOp12
 70
     1
102
RTVSPropertyOp13
 70
     1
102
RTVSPropertyOp14
 70
     1
102
RTVSPropertyOp15
 70
     1
102
RTVSPropertyOp16
 70
     1
102
RTVSPropertyOp17
 70
     1
102
RTVSPropertyOp18
 70
     1
102
RTVSPropertyOp19
 70
     1
102
RTVSPropertyOp20
 70
     1
102
RTVSPropertyOp21
 70
     1
102
RTVSPropertyOp22
 70
     1
102
RTVSPropertyOp23
 70
     1
102
RTVSPropertyOp24
 70
     1
102
RTVSPropertyOp25
 70
     1
102
RTVSPropertyOp26
 70
     1
102
RTVSPropertyOp27
 70
     1
102
RTVSPropertyOp28
 70
     1
102
RTVSPropertyOp29
 70
     1
102
RTVSPropertyOp30
 70
     1
102
RTVSPropertyOp31
 70
     1
102
RTVSPropertyOp32
 70
     1
102
RTVSPropertyOp33
 70
     1
102
RTVSPropertyOp34
 70
     1
102
RTVSPropertyOp35
 70
     1
102
RTVSPropertyOp36
 70
     1
102
RTVSPropertyOp37
 70
     1
102
RTVSPropertyOp38
 70
     1
102
RTVSPropertyOp39
 70
     1
102
RTVSPropertyOp40
 70
     1
102
RTVSPropertyOp41
 70
     1
102
RTVSPropertyOp42
 70
     1
102
RTVSPropertyOp43
 70
     1
102
RTVSPropertyOp44
 70
     1
102
RTVSPropertyOp45
 70
     1
102
RTVSPropertyOp46
 70
     1
102
RTVSPropertyOp47
 70
     1
102
RTVSPropertyOp48
 70
     1
102
RTVSPropertyOp49
 70
     1
102
RTVSPropertyOp50
 70
     1
102
RTVSPropertyOp51
 70
     0
102
RTVSPropertyOp52
 70
     0
102
RTVSPropertyOp53
 70
     1
102
RTVSPropertyOp54
 70
     1
102
RTVSPropertyOp55
 70
     1
102
RTVSPropertyOp56
 70
     1
102
RTVSPropertyOp57
 70
     1
102
RTVSPropertyOp58
 70
     1
102
RTVSPropertyOp59
 70
     1
102
RTVSPropertyOp60
 70
     1
102
RTVSPropertyOp61
 70
     1
102
RTVSPropertyOp62
 70
     1
  0
XRECORD
  5
7CA
102
{ACAD_REACTORS
330
7C9
102
}
330
7C9
100
AcDbXrecord
280
     1
102
RTVSPost2010Prop28
280
     0
102
RTVSPost2010PropOp28
 70
     1
102
RTVSPost2010Prop29
280
     1
102
RTVSPost2010PropOp29
 70
     1
102
RTVSPost2010Prop30
280
     1
102
RTVSPost2010PropOp30
 70
     1
102
RTVSPost2010Prop31
280
     0
102
RTVSPost2010PropOp31
 70
     1
102
RTVSPost2010Prop32
280
     0
102
RTVSPost2010PropOp32
 70
     1
102
RTVSPost2010Prop33
280
     0
102
RTVSPost2010PropOp33
 70
     1
102
RTVSPost2010Prop34
280
     0
102
RTVSPost2010PropOp34
 70
     1
102
RTVSPost2010Prop35
280
     0
102
RTVSPost2010PropOp35
 70
     1
102
RTVSPost2010Prop36
280
     0
102
RTVSPost2010PropOp36
 70
     1
102
RTVSPost2010Prop37
 90
       50
102
RTVSPost2010PropOp37
 70
     1
102
RTVSPost2010Prop38
140
0.0
102
RTVSPost2010PropOp38
 70
     1
102
RTVSPost2010Prop39
140
1.0
102
RTVSPost2010PropOp39
 70
     1
102
RTVSPost2010Prop40
 90
        0
102
RTVSPost2010PropOp40
 70
     1
102
RTVSPost2010Prop41ColorIndex
 90
       18
102
RTVSPost2010Prop41ColorRGB
 90
        0
102
RTVSPost2010PropOp41
 70
     1
102
RTVSPost2010Prop42
 90
       50
102
RTVSPost2010PropOp42
 70
     1
102
RTVSPost2010Prop43
 90
        3
102
RTVSPost2010PropOp43
 70
     1
102
RTVSPost2010Prop44ColorIndex
 90
        5
102
RTVSPost2010Prop44ColorRGB
 90
      255
102
RTVSPost2010PropOp44
 70
     1
102
RTVSPost2010Prop45
280
     0
102
RTVSPost2010PropOp45
 70
     1
102
RTVSPost2010Prop46
 90
       50
102
RTVSPost2010PropOp46
 70
     1
102
RTVSPost2010Prop47
 90
       50
102
RTVSPost2010PropOp47
 70
     1
102
RTVSPost2010Prop48
 90
       50
102
RTVSPost2010PropOp48
 70
     1
102
RTVSPost2010Prop49
280
     0
102
RTVSPost2010PropOp49
 70
     1
102
RTVSPost2010Prop50
 90
       50
102
RTVSPost2010PropOp50
 70
     1
102
RTVSPost2010Prop51ColorIndex
 90
      256
102
RTVSPost2010Prop51ColorRGB
 90
-16777216
102
RTVSPost2010PropOp51
 70
     0
102
RTVSPost2010Prop52
140
1.0
102
RTVSPost2010PropOp52
 70
     0
102
RTVSPost2010Prop53
 90
        2
102
RTVSPost2010PropOp53
 70
     1
102
RTVSPost2010Prop54
  1
strokes_ogs.tif
102
RTVSPost2010PropOp54
 70
     1
102
RTVSPost2010Prop55
280
     0
102
RTVSPost2010PropOp55
 70
     1
102
RTVSPost2010Prop56
140
1.0
102
RTVSPost2010PropOp56
 70
     1
102
RTVSPost2010Prop57
140
1.0
102
RTVSPost2010PropOp57
 70
     1
102
RTVSPropertyOp0
 70
     1
102
RTVSPropertyOp1
 70
     1
102
RTVSPropertyOp2
 70
     1
102
RTVSPropertyOp3
 70
     1
102
RTVSPropertyOp4
 70
     1
102
RTVSPropertyOp5
 70
     1
102
RTVSPropertyOp6
 70
     1
102
RTVSPropertyOp7
 70
     1
102
RTVSPropertyOp8
 70
     1
102
RTVSPropertyOp9
 70
     1
102
RTVSPropertyOp10
 70
     1
102
RTVSPropertyOp11
 70
     1
102
RTVSPropertyOp12
 70
     1
102
RTVSPropertyOp13
 70
     1
102
RTVSPropertyOp14
 70
     1
102
RTVSPropertyOp15
 70
     1
102
RTVSPropertyOp16
 70
     1
102
RTVSPropertyOp17
 70
     1
102
RTVSPropertyOp18
 70
     1
102
RTVSPropertyOp19
 70
     1
102
RTVSPropertyOp20
 70
     1
102
RTVSPropertyOp21
 70
     1
102
RTVSPropertyOp22
 70
     1
102
RTVSPropertyOp23
 70
     1
102
RTVSPropertyOp24
 70
     1
102
RTVSPropertyOp25
 70
     1
102
RTVSPropertyOp26
 70
     1
102
RTVSPropertyOp27
 70
     1
102
RTVSPropertyOp28
 70
     1
102
RTVSPropertyOp29
 70
     1
102
RTVSPropertyOp30
 70
     1
102
RTVSPropertyOp31
 70
     1
102
RTVSPropertyOp32
 70
     1
102
RTVSPropertyOp33
 70
     1
102
RTVSPropertyOp34
 70
     1
102
RTVSPropertyOp35
 70
     1
102
RTVSPropertyOp36
 70
     1
102
RTVSPropertyOp37
 70
     1
102
RTVSPropertyOp38
 70
     1
102
RTVSPropertyOp39
 70
     1
102
RTVSPropertyOp40
 70
     1
102
RTVSPropertyOp41
 70
     1
102
RTVSPropertyOp42
 70
     1
102
RTVSPropertyOp43
 70
     1
102
RTVSPropertyOp44
 70
     1
102
RTVSPropertyOp45
 70
     1
102
RTVSPropertyOp46
 70
     1
102
RTVSPropertyOp47
 70
     1
102
RTVSPropertyOp48
 70
     1
102
RTVSPropertyOp49
 70
     1
102
RTVSPropertyOp50
 70
     1
102
RTVSPropertyOp51
 70
     0
102
RTVSPropertyOp52
 70
     0
102
RTVSPropertyOp53
 70
     1
102
RTVSPropertyOp54
 70
     1
102
RTVSPropertyOp55
 70
     1
102
RTVSPropertyOp56
 70
     1
102
RTVSPropertyOp57
 70
     1
102
RTVSPropertyOp58
 70
     1
102
RTVSPropertyOp59
 70
     1
102
RTVSPropertyOp60
 70
     1
102
RTVSPropertyOp61
 70
     1
102
RTVSPropertyOp62
 70
     1
  0
XRECORD
  5
7D2
102
{ACAD_REACTORS
330
7D1
102
}
330
7D1
100
AcDbXrecord
280
     1
102
RTVSPost2010Prop28
280
     0
102
RTVSPost2010PropOp28
 70
     1
102
RTVSPost2010Prop29
280
     1
102
RTVSPost2010PropOp29
 70
     1
102
RTVSPost2010Prop30
280
     1
102
RTVSPost2010PropOp30
 70
     1
102
RTVSPost2010Prop31
280
     0
102
RTVSPost2010PropOp31
 70
     1
102
RTVSPost2010Prop32
280
     0
102
RTVSPost2010PropOp32
 70
     1
102
RTVSPost2010Prop33
280
     0
102
RTVSPost2010PropOp33
 70
     1
102
RTVSPost2010Prop34
280
     0
102
RTVSPost2010PropOp34
 70
     1
102
RTVSPost2010Prop35
280
     0
102
RTVSPost2010PropOp35
 70
     1
102
RTVSPost2010Prop36
280
     0
102
RTVSPost2010PropOp36
 70
     1
102
RTVSPost2010Prop37
 90
       50
102
RTVSPost2010PropOp37
 70
     1
102
RTVSPost2010Prop38
140
0.0
102
RTVSPost2010PropOp38
 70
     1
102
RTVSPost2010Prop39
140
1.0
102
RTVSPost2010PropOp39
 70
     1
102
RTVSPost2010Prop40
 90
        0
102
RTVSPost2010PropOp40
 70
     1
102
RTVSPost2010Prop41ColorIndex
 90
       18
102
RTVSPost2010Prop41ColorRGB
 90
        0
102
RTVSPost2010PropOp41
 70
     1
102
RTVSPost2010Prop42
 90
       50
102
RTVSPost2010PropOp42
 70
     1
102
RTVSPost2010Prop43
 90
        3
102
RTVSPost2010PropOp43
 70
     1
102
RTVSPost2010Prop44ColorIndex
 90
        5
102
RTVSPost2010Prop44ColorRGB
 90
      255
102
RTVSPost2010PropOp44
 70
     1
102
RTVSPost2010Prop45
280
     0
102
RTVSPost2010PropOp45
 70
     1
102
RTVSPost2010Prop46
 90
       50
102
RTVSPost2010PropOp46
 70
     1
102
RTVSPost2010Prop47
 90
       50
102
RTVSPost2010PropOp47
 70
     1
102
RTVSPost2010Prop48
 90
       50
102
RTVSPost2010PropOp48
 70
     1
102
RTVSPost2010Prop49
280
     0
102
RTVSPost2010PropOp49
 70
     1
102
RTVSPost2010Prop50
 90
       50
102
RTVSPost2010PropOp50
 70
     1
102
RTVSPost2010Prop51ColorIndex
 90
      256
102
RTVSPost2010Prop51ColorRGB
 90
-16777216
102
RTVSPost2010PropOp51
 70
     0
102
RTVSPost2010Prop52
140
1.0
102
RTVSPost2010PropOp52
 70
     0
102
RTVSPost2010Prop53
 90
        2
102
RTVSPost2010PropOp53
 70
     1
102
RTVSPost2010Prop54
  1
strokes_ogs.tif
102
RTVSPost2010PropOp54
 70
     1
102
RTVSPost2010Prop55
280
     0
102
RTVSPost2010PropOp55
 70
     1
102
RTVSPost2010Prop56
140
1.0
102
RTVSPost2010PropOp56
 70
     1
102
RTVSPost2010Prop57
140
1.0
102
RTVSPost2010PropOp57
 70
     1
102
RTVSPropertyOp0
 70
     1
102
RTVSPropertyOp1
 70
     1
102
RTVSPropertyOp2
 70
     1
102
RTVSPropertyOp3
 70
     1
102
RTVSPropertyOp4
 70
     1
102
RTVSPropertyOp5
 70
     1
102
RTVSPropertyOp6
 70
     1
102
RTVSPropertyOp7
 70
     1
102
RTVSPropertyOp8
 70
     1
102
RTVSPropertyOp9
 70
     1
102
RTVSPropertyOp10
 70
     1
102
RTVSPropertyOp11
 70
     1
102
RTVSPropertyOp12
 70
     1
102
RTVSPropertyOp13
 70
     1
102
RTVSPropertyOp14
 70
     1
102
RTVSPropertyOp15
 70
     1
102
RTVSPropertyOp16
 70
     1
102
RTVSPropertyOp17
 70
     1
102
RTVSPropertyOp18
 70
     1
102
RTVSPropertyOp19
 70
     1
102
RTVSPropertyOp20
 70
     1
102
RTVSPropertyOp21
 70
     1
102
RTVSPropertyOp22
 70
     1
102
RTVSPropertyOp23
 70
     1
102
RTVSPropertyOp24
 70
     1
102
RTVSPropertyOp25
 70
     1
102
RTVSPropertyOp26
 70
     1
102
RTVSPropertyOp27
 70
     1
102
RTVSPropertyOp28
 70
     1
102
RTVSPropertyOp29
 70
     1
102
RTVSPropertyOp30
 70
     1
102
RTVSPropertyOp31
 70
     1
102
RTVSPropertyOp32
 70
     1
102
RTVSPropertyOp33
 70
     1
102
RTVSPropertyOp34
 70
     1
102
RTVSPropertyOp35
 70
     1
102
RTVSPropertyOp36
 70
     1
102
RTVSPropertyOp37
 70
     1
102
RTVSPropertyOp38
 70
     1
102
RTVSPropertyOp39
 70
     1
102
RTVSPropertyOp40
 70
     1
102
RTVSPropertyOp41
 70
     1
102
RTVSPropertyOp42
 70
     1
102
RTVSPropertyOp43
 70
     1
102
RTVSPropertyOp44
 70
     1
102
RTVSPropertyOp45
 70
     1
102
RTVSPropertyOp46
 70
     1
102
RTVSPropertyOp47
 70
     1
102
RTVSPropertyOp48
 70
     1
102
RTVSPropertyOp49
 70
     1
102
RTVSPropertyOp50
 70
     1
102
RTVSPropertyOp51
 70
     0
102
RTVSPropertyOp52
 70
     0
102
RTVSPropertyOp53
 70
     1
102
RTVSPropertyOp54
 70
     1
102
RTVSPropertyOp55
 70
     1
102
RTVSPropertyOp56
 70
     1
102
RTVSPropertyOp57
 70
     1
102
RTVSPropertyOp58
 70
     1
102
RTVSPropertyOp59
 70
     1
102
RTVSPropertyOp60
 70
     1
102
RTVSPropertyOp61
 70
     1
102
RTVSPropertyOp62
 70
     1
  0
XRECORD
  5
7DA
102
{ACAD_REACTORS
330
7D9
102
}
330
7D9
100
AcDbXrecord
280
     1
102
RTVSPost2010Prop28
280
     0
102
RTVSPost2010PropOp28
 70
     1
102
RTVSPost2010Prop29
280
     1
102
RTVSPost2010PropOp29
 70
     1
102
RTVSPost2010Prop30
280
     1
102
RTVSPost2010PropOp30
 70
     1
102
RTVSPost2010Prop31
280
     0
102
RTVSPost2010PropOp31
 70
     1
102
RTVSPost2010Prop32
280
     0
102
RTVSPost2010PropOp32
 70
     1
102
RTVSPost2010Prop33
280
     0
102
RTVSPost2010PropOp33
 70
     1
102
RTVSPost2010Prop34
280
     0
102
RTVSPost2010PropOp34
 70
     1
102
RTVSPost2010Prop35
280
     0
102
RTVSPost2010PropOp35
 70
     1
102
RTVSPost2010Prop36
280
     0
102
RTVSPost2010PropOp36
 70
     1
102
RTVSPost2010Prop37
 90
       50
102
RTVSPost2010PropOp37
 70
     1
102
RTVSPost2010Prop38
140
0.0
102
RTVSPost2010PropOp38
 70
     1
102
RTVSPost2010Prop39
140
1.0
102
RTVSPost2010PropOp39
 70
     1
102
RTVSPost2010Prop40
 90
        0
102
RTVSPost2010PropOp40
 70
     1
102
RTVSPost2010Prop41ColorIndex
 90
       18
102
RTVSPost2010Prop41ColorRGB
 90
        0
102
RTVSPost2010PropOp41
 70
     1
102
RTVSPost2010Prop42
 90
       50
102
RTVSPost2010PropOp42
 70
     1
102
RTVSPost2010Prop43
 90
        3
102
RTVSPost2010PropOp43
 70
     1
102
RTVSPost2010Prop44ColorIndex
 90
        5
102
RTVSPost2010Prop44ColorRGB
 90
      255
102
RTVSPost2010PropOp44
 70
     1
102
RTVSPost2010Prop45
280
     0
102
RTVSPost2010PropOp45
 70
     1
102
RTVSPost2010Prop46
 90
       50
102
RTVSPost2010PropOp46
 70
     1
102
RTVSPost2010Prop47
 90
       50
102
RTVSPost2010PropOp47
 70
     1
102
RTVSPost2010Prop48
 90
       50
102
RTVSPost2010PropOp48
 70
     1
102
RTVSPost2010Prop49
280
     0
102
RTVSPost2010PropOp49
 70
     1
102
RTVSPost2010Prop50
 90
       50
102
RTVSPost2010PropOp50
 70
     1
102
RTVSPost2010Prop51ColorIndex
 90
      256
102
RTVSPost2010Prop51ColorRGB
 90
-16777216
102
RTVSPost2010PropOp51
 70
     0
102
RTVSPost2010Prop52
140
1.0
102
RTVSPost2010PropOp52
 70
     0
102
RTVSPost2010Prop53
 90
        2
102
RTVSPost2010PropOp53
 70
     1
102
RTVSPost2010Prop54
  1
strokes_ogs.tif
102
RTVSPost2010PropOp54
 70
     1
102
RTVSPost2010Prop55
280
     0
102
RTVSPost2010PropOp55
 70
     1
102
RTVSPost2010Prop56
140
1.0
102
RTVSPost2010PropOp56
 70
     1
102
RTVSPost2010Prop57
140
1.0
102
RTVSPost2010PropOp57
 70
     1
102
RTVSPropertyOp0
 70
     1
102
RTVSPropertyOp1
 70
     1
102
RTVSPropertyOp2
 70
     1
102
RTVSPropertyOp3
 70
     1
102
RTVSPropertyOp4
 70
     1
102
RTVSPropertyOp5
 70
     1
102
RTVSPropertyOp6
 70
     1
102
RTVSPropertyOp7
 70
     1
102
RTVSPropertyOp8
 70
     1
102
RTVSPropertyOp9
 70
     1
102
RTVSPropertyOp10
 70
     1
102
RTVSPropertyOp11
 70
     1
102
RTVSPropertyOp12
 70
     1
102
RTVSPropertyOp13
 70
     1
102
RTVSPropertyOp14
 70
     1
102
RTVSPropertyOp15
 70
     1
102
RTVSPropertyOp16
 70
     1
102
RTVSPropertyOp17
 70
     1
102
RTVSPropertyOp18
 70
     1
102
RTVSPropertyOp19
 70
     1
102
RTVSPropertyOp20
 70
     1
102
RTVSPropertyOp21
 70
     1
102
RTVSPropertyOp22
 70
     1
102
RTVSPropertyOp23
 70
     1
102
RTVSPropertyOp24
 70
     1
102
RTVSPropertyOp25
 70
     1
102
RTVSPropertyOp26
 70
     1
102
RTVSPropertyOp27
 70
     1
102
RTVSPropertyOp28
 70
     1
102
RTVSPropertyOp29
 70
     1
102
RTVSPropertyOp30
 70
     1
102
RTVSPropertyOp31
 70
     1
102
RTVSPropertyOp32
 70
     1
102
RTVSPropertyOp33
 70
     1
102
RTVSPropertyOp34
 70
     1
102
RTVSPropertyOp35
 70
     1
102
RTVSPropertyOp36
 70
     1
102
RTVSPropertyOp37
 70
     1
102
RTVSPropertyOp38
 70
     1
102
RTVSPropertyOp39
 70
     1
102
RTVSPropertyOp40
 70
     1
102
RTVSPropertyOp41
 70
     1
102
RTVSPropertyOp42
 70
     1
102
RTVSPropertyOp43
 70
     1
102
RTVSPropertyOp44
 70
     1
102
RTVSPropertyOp45
 70
     1
102
RTVSPropertyOp46
 70
     1
102
RTVSPropertyOp47
 70
     1
102
RTVSPropertyOp48
 70
     1
102
RTVSPropertyOp49
 70
     1
102
RTVSPropertyOp50
 70
     1
102
RTVSPropertyOp51
 70
     0
102
RTVSPropertyOp52
 70
     0
102
RTVSPropertyOp53
 70
     1
102
RTVSPropertyOp54
 70
     1
102
RTVSPropertyOp55
 70
     1
102
RTVSPropertyOp56
 70
     1
102
RTVSPropertyOp57
 70
     1
102
RTVSPropertyOp58
 70
     1
102
RTVSPropertyOp59
 70
     1
102
RTVSPropertyOp60
 70
     1
102
RTVSPropertyOp61
 70
     1
102
RTVSPropertyOp62
 70
     1
  0
XRECORD
  5
7CE
102
{ACAD_REACTORS
330
7CD
102
}
330
7CD
100
AcDbXrecord
280
     1
102
RTVSPost2010Prop28
280
     0
102
RTVSPost2010PropOp28
 70
     1
102
RTVSPost2010Prop29
280
     1
102
RTVSPost2010PropOp29
 70
     1
102
RTVSPost2010Prop30
280
     1
102
RTVSPost2010PropOp30
 70
     1
102
RTVSPost2010Prop31
280
     0
102
RTVSPost2010PropOp31
 70
     1
102
RTVSPost2010Prop32
280
     0
102
RTVSPost2010PropOp32
 70
     1
102
RTVSPost2010Prop33
280
     0
102
RTVSPost2010PropOp33
 70
     1
102
RTVSPost2010Prop34
280
     0
102
RTVSPost2010PropOp34
 70
     1
102
RTVSPost2010Prop35
280
     0
102
RTVSPost2010PropOp35
 70
     1
102
RTVSPost2010Prop36
280
     0
102
RTVSPost2010PropOp36
 70
     1
102
RTVSPost2010Prop37
 90
       50
102
RTVSPost2010PropOp37
 70
     1
102
RTVSPost2010Prop38
140
0.0
102
RTVSPost2010PropOp38
 70
     1
102
RTVSPost2010Prop39
140
1.0
102
RTVSPost2010PropOp39
 70
     1
102
RTVSPost2010Prop40
 90
        0
102
RTVSPost2010PropOp40
 70
     1
102
RTVSPost2010Prop41ColorIndex
 90
       18
102
RTVSPost2010Prop41ColorRGB
 90
        0
102
RTVSPost2010PropOp41
 70
     1
102
RTVSPost2010Prop42
 90
       50
102
RTVSPost2010PropOp42
 70
     1
102
RTVSPost2010Prop43
 90
        3
102
RTVSPost2010PropOp43
 70
     1
102
RTVSPost2010Prop44ColorIndex
 90
        5
102
RTVSPost2010Prop44ColorRGB
 90
      255
102
RTVSPost2010PropOp44
 70
     1
102
RTVSPost2010Prop45
280
     0
102
RTVSPost2010PropOp45
 70
     1
102
RTVSPost2010Prop46
 90
       50
102
RTVSPost2010PropOp46
 70
     1
102
RTVSPost2010Prop47
 90
       50
102
RTVSPost2010PropOp47
 70
     1
102
RTVSPost2010Prop48
 90
       50
102
RTVSPost2010PropOp48
 70
     1
102
RTVSPost2010Prop49
280
     0
102
RTVSPost2010PropOp49
 70
     1
102
RTVSPost2010Prop50
 90
       50
102
RTVSPost2010PropOp50
 70
     1
102
RTVSPost2010Prop51ColorIndex
 90
      256
102
RTVSPost2010Prop51ColorRGB
 90
-16777216
102
RTVSPost2010PropOp51
 70
     0
102
RTVSPost2010Prop52
140
1.0
102
RTVSPost2010PropOp52
 70
     0
102
RTVSPost2010Prop53
 90
        2
102
RTVSPost2010PropOp53
 70
     1
102
RTVSPost2010Prop54
  1
strokes_ogs.tif
102
RTVSPost2010PropOp54
 70
     1
102
RTVSPost2010Prop55
280
     0
102
RTVSPost2010PropOp55
 70
     1
102
RTVSPost2010Prop56
140
1.0
102
RTVSPost2010PropOp56
 70
     1
102
RTVSPost2010Prop57
140
1.0
102
RTVSPost2010PropOp57
 70
     1
102
RTVSPropertyOp0
 70
     1
102
RTVSPropertyOp1
 70
     1
102
RTVSPropertyOp2
 70
     1
102
RTVSPropertyOp3
 70
     1
102
RTVSPropertyOp4
 70
     1
102
RTVSPropertyOp5
 70
     1
102
RTVSPropertyOp6
 70
     1
102
RTVSPropertyOp7
 70
     1
102
RTVSPropertyOp8
 70
     1
102
RTVSPropertyOp9
 70
     1
102
RTVSPropertyOp10
 70
     1
102
RTVSPropertyOp11
 70
     1
102
RTVSPropertyOp12
 70
     1
102
RTVSPropertyOp13
 70
     1
102
RTVSPropertyOp14
 70
     1
102
RTVSPropertyOp15
 70
     1
102
RTVSPropertyOp16
 70
     1
102
RTVSPropertyOp17
 70
     1
102
RTVSPropertyOp18
 70
     1
102
RTVSPropertyOp19
 70
     1
102
RTVSPropertyOp20
 70
     1
102
RTVSPropertyOp21
 70
     1
102
RTVSPropertyOp22
 70
     1
102
RTVSPropertyOp23
 70
     1
102
RTVSPropertyOp24
 70
     1
102
RTVSPropertyOp25
 70
     1
102
RTVSPropertyOp26
 70
     1
102
RTVSPropertyOp27
 70
     1
102
RTVSPropertyOp28
 70
     1
102
RTVSPropertyOp29
 70
     1
102
RTVSPropertyOp30
 70
     1
102
RTVSPropertyOp31
 70
     1
102
RTVSPropertyOp32
 70
     1
102
RTVSPropertyOp33
 70
     1
102
RTVSPropertyOp34
 70
     1
102
RTVSPropertyOp35
 70
     1
102
RTVSPropertyOp36
 70
     1
102
RTVSPropertyOp37
 70
     1
102
RTVSPropertyOp38
 70
     1
102
RTVSPropertyOp39
 70
     1
102
RTVSPropertyOp40
 70
     1
102
RTVSPropertyOp41
 70
     1
102
RTVSPropertyOp42
 70
     1
102
RTVSPropertyOp43
 70
     1
102
RTVSPropertyOp44
 70
     1
102
RTVSPropertyOp45
 70
     1
102
RTVSPropertyOp46
 70
     1
102
RTVSPropertyOp47
 70
     1
102
RTVSPropertyOp48
 70
     1
102
RTVSPropertyOp49
 70
     1
102
RTVSPropertyOp50
 70
     1
102
RTVSPropertyOp51
 70
     0
102
RTVSPropertyOp52
 70
     0
102
RTVSPropertyOp53
 70
     1
102
RTVSPropertyOp54
 70
     1
102
RTVSPropertyOp55
 70
     1
102
RTVSPropertyOp56
 70
     1
102
RTVSPropertyOp57
 70
     1
102
RTVSPropertyOp58
 70
     1
102
RTVSPropertyOp59
 70
     1
102
RTVSPropertyOp60
 70
     1
102
RTVSPropertyOp61
 70
     1
102
RTVSPropertyOp62
 70
     1
  0
XRECORD
  5
7D0
102
{ACAD_REACTORS
330
7CF
102
}
330
7CF
100
AcDbXrecord
280
     1
102
RTVSPost2010Prop28
280
     0
102
RTVSPost2010PropOp28
 70
     1
102
RTVSPost2010Prop29
280
     1
102
RTVSPost2010PropOp29
 70
     1
102
RTVSPost2010Prop30
280
     1
102
RTVSPost2010PropOp30
 70
     1
102
RTVSPost2010Prop31
280
     0
102
RTVSPost2010PropOp31
 70
     1
102
RTVSPost2010Prop32
280
     0
102
RTVSPost2010PropOp32
 70
     1
102
RTVSPost2010Prop33
280
     0
102
RTVSPost2010PropOp33
 70
     1
102
RTVSPost2010Prop34
280
     0
102
RTVSPost2010PropOp34
 70
     1
102
RTVSPost2010Prop35
280
     0
102
RTVSPost2010PropOp35
 70
     1
102
RTVSPost2010Prop36
280
     0
102
RTVSPost2010PropOp36
 70
     1
102
RTVSPost2010Prop37
 90
       50
102
RTVSPost2010PropOp37
 70
     1
102
RTVSPost2010Prop38
140
0.0
102
RTVSPost2010PropOp38
 70
     1
102
RTVSPost2010Prop39
140
1.0
102
RTVSPost2010PropOp39
 70
     1
102
RTVSPost2010Prop40
 90
        0
102
RTVSPost2010PropOp40
 70
     1
102
RTVSPost2010Prop41ColorIndex
 90
       18
102
RTVSPost2010Prop41ColorRGB
 90
        0
102
RTVSPost2010PropOp41
 70
     1
102
RTVSPost2010Prop42
 90
       50
102
RTVSPost2010PropOp42
 70
     1
102
RTVSPost2010Prop43
 90
        3
102
RTVSPost2010PropOp43
 70
     1
102
RTVSPost2010Prop44ColorIndex
 90
        5
102
RTVSPost2010Prop44ColorRGB
 90
      255
102
RTVSPost2010PropOp44
 70
     1
102
RTVSPost2010Prop45
280
     0
102
RTVSPost2010PropOp45
 70
     1
102
RTVSPost2010Prop46
 90
       50
102
RTVSPost2010PropOp46
 70
     1
102
RTVSPost2010Prop47
 90
       50
102
RTVSPost2010PropOp47
 70
     1
102
RTVSPost2010Prop48
 90
       50
102
RTVSPost2010PropOp48
 70
     1
102
RTVSPost2010Prop49
280
     0
102
RTVSPost2010PropOp49
 70
     1
102
RTVSPost2010Prop50
 90
       50
102
RTVSPost2010PropOp50
 70
     1
102
RTVSPost2010Prop51ColorIndex
 90
      256
102
RTVSPost2010Prop51ColorRGB
 90
-16777216
102
RTVSPost2010PropOp51
 70
     0
102
RTVSPost2010Prop52
140
1.0
102
RTVSPost2010PropOp52
 70
     0
102
RTVSPost2010Prop53
 90
        2
102
RTVSPost2010PropOp53
 70
     1
102
RTVSPost2010Prop54
  1
strokes_ogs.tif
102
RTVSPost2010PropOp54
 70
     1
102
RTVSPost2010Prop55
280
     0
102
RTVSPost2010PropOp55
 70
     1
102
RTVSPost2010Prop56
140
1.0
102
RTVSPost2010PropOp56
 70
     1
102
RTVSPost2010Prop57
140
1.0
102
RTVSPost2010PropOp57
 70
     1
102
RTVSPropertyOp0
 70
     1
102
RTVSPropertyOp1
 70
     1
102
RTVSPropertyOp2
 70
     1
102
RTVSPropertyOp3
 70
     1
102
RTVSPropertyOp4
 70
     1
102
RTVSPropertyOp5
 70
     1
102
RTVSPropertyOp6
 70
     1
102
RTVSPropertyOp7
 70
     1
102
RTVSPropertyOp8
 70
     1
102
RTVSPropertyOp9
 70
     1
102
RTVSPropertyOp10
 70
     1
102
RTVSPropertyOp11
 70
     1
102
RTVSPropertyOp12
 70
     1
102
RTVSPropertyOp13
 70
     1
102
RTVSPropertyOp14
 70
     1
102
RTVSPropertyOp15
 70
     1
102
RTVSPropertyOp16
 70
     1
102
RTVSPropertyOp17
 70
     1
102
RTVSPropertyOp18
 70
     1
102
RTVSPropertyOp19
 70
     1
102
RTVSPropertyOp20
 70
     1
102
RTVSPropertyOp21
 70
     1
102
RTVSPropertyOp22
 70
     1
102
RTVSPropertyOp23
 70
     1
102
RTVSPropertyOp24
 70
     1
102
RTVSPropertyOp25
 70
     1
102
RTVSPropertyOp26
 70
     1
102
RTVSPropertyOp27
 70
     1
102
RTVSPropertyOp28
 70
     1
102
RTVSPropertyOp29
 70
     1
102
RTVSPropertyOp30
 70
     1
102
RTVSPropertyOp31
 70
     1
102
RTVSPropertyOp32
 70
     1
102
RTVSPropertyOp33
 70
     1
102
RTVSPropertyOp34
 70
     1
102
RTVSPropertyOp35
 70
     1
102
RTVSPropertyOp36
 70
     1
102
RTVSPropertyOp37
 70
     1
102
RTVSPropertyOp38
 70
     1
102
RTVSPropertyOp39
 70
     1
102
RTVSPropertyOp40
 70
     1
102
RTVSPropertyOp41
 70
     1
102
RTVSPropertyOp42
 70
     1
102
RTVSPropertyOp43
 70
     1
102
RTVSPropertyOp44
 70
     1
102
RTVSPropertyOp45
 70
     1
102
RTVSPropertyOp46
 70
     1
102
RTVSPropertyOp47
 70
     1
102
RTVSPropertyOp48
 70
     1
102
RTVSPropertyOp49
 70
     1
102
RTVSPropertyOp50
 70
     1
102
RTVSPropertyOp51
 70
     0
102
RTVSPropertyOp52
 70
     0
102
RTVSPropertyOp53
 70
     1
102
RTVSPropertyOp54
 70
     1
102
RTVSPropertyOp55
 70
     1
102
RTVSPropertyOp56
 70
     1
102
RTVSPropertyOp57
 70
     1
102
RTVSPropertyOp58
 70
     1
102
RTVSPropertyOp59
 70
     1
102
RTVSPropertyOp60
 70
     1
102
RTVSPropertyOp61
 70
     1
102
RTVSPropertyOp62
 70
     1
  0
XRECORD
  5
7E0
102
{ACAD_REACTORS
330
7DF
102
}
330
7DF
100
AcDbXrecord
280
     1
102
RTVSPost2010Prop28
280
     0
102
RTVSPost2010PropOp28
 70
     0
102
RTVSPost2010Prop29
280
     1
102
RTVSPost2010PropOp29
 70
     0
102
RTVSPost2010Prop30
280
     1
102
RTVSPost2010PropOp30
 70
     0
102
RTVSPost2010Prop31
280
     0
102
RTVSPost2010PropOp31
 70
     0
102
RTVSPost2010Prop32
280
     0
102
RTVSPost2010PropOp32
 70
     0
102
RTVSPost2010Prop33
280
     0
102
RTVSPost2010PropOp33
 70
     0
102
RTVSPost2010Prop34
280
     0
102
RTVSPost2010PropOp34
 70
     0
102
RTVSPost2010Prop35
280
     0
102
RTVSPost2010PropOp35
 70
     0
102
RTVSPost2010Prop36
280
     0
102
RTVSPost2010PropOp36
 70
     0
102
RTVSPost2010Prop37
 90
       50
102
RTVSPost2010PropOp37
 70
     0
102
RTVSPost2010Prop38
140
0.0
102
RTVSPost2010PropOp38
 70
     0
102
RTVSPost2010Prop39
140
1.0
102
RTVSPost2010PropOp39
 70
     0
102
RTVSPost2010Prop40
 90
        0
102
RTVSPost2010PropOp40
 70
     0
102
RTVSPost2010Prop41ColorIndex
 90
       18
102
RTVSPost2010Prop41ColorRGB
 90
        0
102
RTVSPost2010PropOp41
 70
     0
102
RTVSPost2010Prop42
 90
       50
102
RTVSPost2010PropOp42
 70
     0
102
RTVSPost2010Prop43
 90
        3
102
RTVSPost2010PropOp43
 70
     0
102
RTVSPost2010Prop44ColorIndex
 90
        5
102
RTVSPost2010Prop44ColorRGB
 90
      255
102
RTVSPost2010PropOp44
 70
     0
102
RTVSPost2010Prop45
280
     0
102
RTVSPost2010PropOp45
 70
     0
102
RTVSPost2010Prop46
 90
       50
102
RTVSPost2010PropOp46
 70
     0
102
RTVSPost2010Prop47
 90
       50
102
RTVSPost2010PropOp47
 70
     0
102
RTVSPost2010Prop48
 90
       50
102
RTVSPost2010PropOp48
 70
     0
102
RTVSPost2010Prop49
280
     0
102
RTVSPost2010PropOp49
 70
     0
102
RTVSPost2010Prop50
 90
       50
102
RTVSPost2010PropOp50
 70
     0
102
RTVSPost2010Prop51ColorIndex
 90
      256
102
RTVSPost2010Prop51ColorRGB
 90
-16777216
102
RTVSPost2010PropOp51
 70
     0
102
RTVSPost2010Prop52
140
1.0
102
RTVSPost2010PropOp52
 70
     0
102
RTVSPost2010Prop53
 90
        2
102
RTVSPost2010PropOp53
 70
     0
102
RTVSPost2010Prop54
  1
strokes_ogs.tif
102
RTVSPost2010PropOp54
 70
     0
102
RTVSPost2010Prop55
280
     0
102
RTVSPost2010PropOp55
 70
     0
102
RTVSPost2010Prop56
140
1.0
102
RTVSPost2010PropOp56
 70
     0
102
RTVSPost2010Prop57
140
1.0
102
RTVSPost2010PropOp57
 70
     0
102
RTVSPropertyOp0
 70
     0
102
RTVSPropertyOp1
 70
     0
102
RTVSPropertyOp2
 70
     0
102
RTVSPropertyOp3
 70
     0
102
RTVSPropertyOp4
 70
     0
102
RTVSPropertyOp5
 70
     0
102
RTVSPropertyOp6
 70
     0
102
RTVSPropertyOp7
 70
     0
102
RTVSPropertyOp8
 70
     0
102
RTVSPropertyOp9
 70
     0
102
RTVSPropertyOp10
 70
     0
102
RTVSPropertyOp11
 70
     0
102
RTVSPropertyOp12
 70
     0
102
RTVSPropertyOp13
 70
     0
102
RTVSPropertyOp14
 70
     2
102
RTVSPropertyOp15
 70
     0
102
RTVSPropertyOp16
 70
     0
102
RTVSPropertyOp17
 70
     0
102
RTVSPropertyOp18
 70
     0
102
RTVSPropertyOp19
 70
     0
102
RTVSPropertyOp20
 70
     0
102
RTVSPropertyOp21
 70
     0
102
RTVSPropertyOp22
 70
     0
102
RTVSPropertyOp23
 70
     0
102
RTVSPropertyOp24
 70
     0
102
RTVSPropertyOp25
 70
     0
102
RTVSPropertyOp26
 70
     0
102
RTVSPropertyOp27
 70
     0
102
RTVSPropertyOp28
 70
     0
102
RTVSPropertyOp29
 70
     0
102
RTVSPropertyOp30
 70
     0
102
RTVSPropertyOp31
 70
     0
102
RTVSPropertyOp32
 70
     0
102
RTVSPropertyOp33
 70
     0
102
RTVSPropertyOp34
 70
     0
102
RTVSPropertyOp35
 70
     0
102
RTVSPropertyOp36
 70
     0
102
RTVSPropertyOp37
 70
     0
102
RTVSPropertyOp38
 70
     0
102
RTVSPropertyOp39
 70
     0
102
RTVSPropertyOp40
 70
     0
102
RTVSPropertyOp41
 70
     0
102
RTVSPropertyOp42
 70
     0
102
RTVSPropertyOp43
 70
     0
102
RTVSPropertyOp44
 70
     0
102
RTVSPropertyOp45
 70
     0
102
RTVSPropertyOp46
 70
     0
102
RTVSPropertyOp47
 70
     0
102
RTVSPropertyOp48
 70
     0
102
RTVSPropertyOp49
 70
     0
102
RTVSPropertyOp50
 70
     0
102
RTVSPropertyOp51
 70
     0
102
RTVSPropertyOp52
 70
     0
102
RTVSPropertyOp53
 70
     0
102
RTVSPropertyOp54
 70
     0
102
RTVSPropertyOp55
 70
     0
102
RTVSPropertyOp56
 70
     0
102
RTVSPropertyOp57
 70
     0
102
RTVSPropertyOp58
 70
     1
102
RTVSPropertyOp59
 70
     1
102
RTVSPropertyOp60
 70
     1
102
RTVSPropertyOp61
 70
     1
102
RTVSPropertyOp62
 70
     1
  0
XRECORD
  5
7D8
102
{ACAD_REACTORS
330
7D7
102
}
330
7D7
100
AcDbXrecord
280
     1
102
RTVSPost2010Prop28
280
     0
102
RTVSPost2010PropOp28
 70
     1
102
RTVSPost2010Prop29
280
     1
102
RTVSPost2010PropOp29
 70
     1
102
RTVSPost2010Prop30
280
     1
102
RTVSPost2010PropOp30
 70
     1
102
RTVSPost2010Prop31
280
     0
102
RTVSPost2010PropOp31
 70
     1
102
RTVSPost2010Prop32
280
     0
102
RTVSPost2010PropOp32
 70
     1
102
RTVSPost2010Prop33
280
     0
102
RTVSPost2010PropOp33
 70
     1
102
RTVSPost2010Prop34
280
     0
102
RTVSPost2010PropOp34
 70
     1
102
RTVSPost2010Prop35
280
     0
102
RTVSPost2010PropOp35
 70
     1
102
RTVSPost2010Prop36
280
     0
102
RTVSPost2010PropOp36
 70
     1
102
RTVSPost2010Prop37
 90
       50
102
RTVSPost2010PropOp37
 70
     1
102
RTVSPost2010Prop38
140
0.0
102
RTVSPost2010PropOp38
 70
     1
102
RTVSPost2010Prop39
140
1.0
102
RTVSPost2010PropOp39
 70
     1
102
RTVSPost2010Prop40
 90
        0
102
RTVSPost2010PropOp40
 70
     1
102
RTVSPost2010Prop41ColorIndex
 90
       18
102
RTVSPost2010Prop41ColorRGB
 90
        0
102
RTVSPost2010PropOp41
 70
     1
102
RTVSPost2010Prop42
 90
       50
102
RTVSPost2010PropOp42
 70
     1
102
RTVSPost2010Prop43
 90
        3
102
RTVSPost2010PropOp43
 70
     1
102
RTVSPost2010Prop44ColorIndex
 90
        5
102
RTVSPost2010Prop44ColorRGB
 90
      255
102
RTVSPost2010PropOp44
 70
     1
102
RTVSPost2010Prop45
280
     0
102
RTVSPost2010PropOp45
 70
     1
102
RTVSPost2010Prop46
 90
       50
102
RTVSPost2010PropOp46
 70
     1
102
RTVSPost2010Prop47
 90
       50
102
RTVSPost2010PropOp47
 70
     1
102
RTVSPost2010Prop48
 90
       50
102
RTVSPost2010PropOp48
 70
     1
102
RTVSPost2010Prop49
280
     0
102
RTVSPost2010PropOp49
 70
     1
102
RTVSPost2010Prop50
 90
       50
102
RTVSPost2010PropOp50
 70
     1
102
RTVSPost2010Prop51ColorIndex
 90
      256
102
RTVSPost2010Prop51ColorRGB
 90
-16777216
102
RTVSPost2010PropOp51
 70
     0
102
RTVSPost2010Prop52
140
1.0
102
RTVSPost2010PropOp52
 70
     0
102
RTVSPost2010Prop53
 90
        2
102
RTVSPost2010PropOp53
 70
     1
102
RTVSPost2010Prop54
  1
strokes_ogs.tif
102
RTVSPost2010PropOp54
 70
     1
102
RTVSPost2010Prop55
280
     0
102
RTVSPost2010PropOp55
 70
     1
102
RTVSPost2010Prop56
140
1.0
102
RTVSPost2010PropOp56
 70
     1
102
RTVSPost2010Prop57
140
1.0
102
RTVSPost2010PropOp57
 70
     1
102
RTVSPropertyOp0
 70
     1
102
RTVSPropertyOp1
 70
     1
102
RTVSPropertyOp2
 70
     1
102
RTVSPropertyOp3
 70
     1
102
RTVSPropertyOp4
 70
     1
102
RTVSPropertyOp5
 70
     1
102
RTVSPropertyOp6
 70
     1
102
RTVSPropertyOp7
 70
     1
102
RTVSPropertyOp8
 70
     1
102
RTVSPropertyOp9
 70
     1
102
RTVSPropertyOp10
 70
     1
102
RTVSPropertyOp11
 70
     1
102
RTVSPropertyOp12
 70
     1
102
RTVSPropertyOp13
 70
     1
102
RTVSPropertyOp14
 70
     1
102
RTVSPropertyOp15
 70
     1
102
RTVSPropertyOp16
 70
     1
102
RTVSPropertyOp17
 70
     1
102
RTVSPropertyOp18
 70
     1
102
RTVSPropertyOp19
 70
     1
102
RTVSPropertyOp20
 70
     1
102
RTVSPropertyOp21
 70
     1
102
RTVSPropertyOp22
 70
     1
102
RTVSPropertyOp23
 70
     1
102
RTVSPropertyOp24
 70
     1
102
RTVSPropertyOp25
 70
     1
102
RTVSPropertyOp26
 70
     1
102
RTVSPropertyOp27
 70
     1
102
RTVSPropertyOp28
 70
     1
102
RTVSPropertyOp29
 70
     1
102
RTVSPropertyOp30
 70
     1
102
RTVSPropertyOp31
 70
     1
102
RTVSPropertyOp32
 70
     1
102
RTVSPropertyOp33
 70
     1
102
RTVSPropertyOp34
 70
     1
102
RTVSPropertyOp35
 70
     1
102
RTVSPropertyOp36
 70
     1
102
RTVSPropertyOp37
 70
     1
102
RTVSPropertyOp38
 70
     1
102
RTVSPropertyOp39
 70
     1
102
RTVSPropertyOp40
 70
     1
102
RTVSPropertyOp41
 70
     1
102
RTVSPropertyOp42
 70
     1
102
RTVSPropertyOp43
 70
     1
102
RTVSPropertyOp44
 70
     1
102
RTVSPropertyOp45
 70
     1
102
RTVSPropertyOp46
 70
     1
102
RTVSPropertyOp47
 70
     1
102
RTVSPropertyOp48
 70
     1
102
RTVSPropertyOp49
 70
     1
102
RTVSPropertyOp50
 70
     1
102
RTVSPropertyOp51
 70
     0
102
RTVSPropertyOp52
 70
     0
102
RTVSPropertyOp53
 70
     1
102
RTVSPropertyOp54
 70
     1
102
RTVSPropertyOp55
 70
     1
102
RTVSPropertyOp56
 70
     1
102
RTVSPropertyOp57
 70
     1
102
RTVSPropertyOp58
 70
     1
102
RTVSPropertyOp59
 70
     1
102
RTVSPropertyOp60
 70
     1
102
RTVSPropertyOp61
 70
     1
102
RTVSPropertyOp62
 70
     1
  0
XRECORD
  5
7BC
102
{ACAD_REACTORS
330
7BB
102
}
330
7BB
100
AcDbXrecord
280
     1
102
RTVSPost2010Prop28
280
     0
102
RTVSPost2010PropOp28
 70
     1
102
RTVSPost2010Prop29
280
     1
102
RTVSPost2010PropOp29
 70
     1
102
RTVSPost2010Prop30
280
     1
102
RTVSPost2010PropOp30
 70
     1
102
RTVSPost2010Prop31
280
     0
102
RTVSPost2010PropOp31
 70
     1
102
RTVSPost2010Prop32
280
     0
102
RTVSPost2010PropOp32
 70
     1
102
RTVSPost2010Prop33
280
     0
102
RTVSPost2010PropOp33
 70
     1
102
RTVSPost2010Prop34
280
     0
102
RTVSPost2010PropOp34
 70
     1
102
RTVSPost2010Prop35
280
     0
102
RTVSPost2010PropOp35
 70
     1
102
RTVSPost2010Prop36
280
     0
102
RTVSPost2010PropOp36
 70
     1
102
RTVSPost2010Prop37
 90
       50
102
RTVSPost2010PropOp37
 70
     1
102
RTVSPost2010Prop38
140
0.0
102
RTVSPost2010PropOp38
 70
     1
102
RTVSPost2010Prop39
140
1.0
102
RTVSPost2010PropOp39
 70
     1
102
RTVSPost2010Prop40
 90
        0
102
RTVSPost2010PropOp40
 70
     1
102
RTVSPost2010Prop41ColorIndex
 90
       18
102
RTVSPost2010Prop41ColorRGB
 90
        0
102
RTVSPost2010PropOp41
 70
     1
102
RTVSPost2010Prop42
 90
       50
102
RTVSPost2010PropOp42
 70
     1
102
RTVSPost2010Prop43
 90
        3
102
RTVSPost2010PropOp43
 70
     1
102
RTVSPost2010Prop44ColorIndex
 90
        5
102
RTVSPost2010Prop44ColorRGB
 90
      255
102
RTVSPost2010PropOp44
 70
     1
102
RTVSPost2010Prop45
280
     0
102
RTVSPost2010PropOp45
 70
     1
102
RTVSPost2010Prop46
 90
       50
102
RTVSPost2010PropOp46
 70
     1
102
RTVSPost2010Prop47
 90
       50
102
RTVSPost2010PropOp47
 70
     1
102
RTVSPost2010Prop48
 90
       50
102
RTVSPost2010PropOp48
 70
     1
102
RTVSPost2010Prop49
280
     0
102
RTVSPost2010PropOp49
 70
     1
102
RTVSPost2010Prop50
 90
       50
102
RTVSPost2010PropOp50
 70
     1
102
RTVSPost2010Prop51ColorIndex
 90
      256
102
RTVSPost2010Prop51ColorRGB
 90
-16777216
102
RTVSPost2010PropOp51
 70
     0
102
RTVSPost2010Prop52
140
1.0
102
RTVSPost2010PropOp52
 70
     0
102
RTVSPost2010Prop53
 90
        2
102
RTVSPost2010PropOp53
 70
     1
102
RTVSPost2010Prop54
  1
strokes_ogs.tif
102
RTVSPost2010PropOp54
 70
     1
102
RTVSPost2010Prop55
280
     0
102
RTVSPost2010PropOp55
 70
     1
102
RTVSPost2010Prop56
140
1.0
102
RTVSPost2010PropOp56
 70
     1
102
RTVSPost2010Prop57
140
1.0
102
RTVSPost2010PropOp57
 70
     1
102
RTVSPropertyOp0
 70
     1
102
RTVSPropertyOp1
 70
     1
102
RTVSPropertyOp2
 70
     1
102
RTVSPropertyOp3
 70
     1
102
RTVSPropertyOp4
 70
     1
102
RTVSPropertyOp5
 70
     1
102
RTVSPropertyOp6
 70
     1
102
RTVSPropertyOp7
 70
     1
102
RTVSPropertyOp8
 70
     1
102
RTVSPropertyOp9
 70
     1
102
RTVSPropertyOp10
 70
     1
102
RTVSPropertyOp11
 70
     1
102
RTVSPropertyOp12
 70
     1
102
RTVSPropertyOp13
 70
     1
102
RTVSPropertyOp14
 70
     1
102
RTVSPropertyOp15
 70
     1
102
RTVSPropertyOp16
 70
     1
102
RTVSPropertyOp17
 70
     1
102
RTVSPropertyOp18
 70
     1
102
RTVSPropertyOp19
 70
     1
102
RTVSPropertyOp20
 70
     1
102
RTVSPropertyOp21
 70
     1
102
RTVSPropertyOp22
 70
     1
102
RTVSPropertyOp23
 70
     1
102
RTVSPropertyOp24
 70
     1
102
RTVSPropertyOp25
 70
     1
102
RTVSPropertyOp26
 70
     1
102
RTVSPropertyOp27
 70
     1
102
RTVSPropertyOp28
 70
     1
102
RTVSPropertyOp29
 70
     1
102
RTVSPropertyOp30
 70
     1
102
RTVSPropertyOp31
 70
     1
102
RTVSPropertyOp32
 70
     1
102
RTVSPropertyOp33
 70
     1
102
RTVSPropertyOp34
 70
     1
102
RTVSPropertyOp35
 70
     1
102
RTVSPropertyOp36
 70
     1
102
RTVSPropertyOp37
 70
     1
102
RTVSPropertyOp38
 70
     1
102
RTVSPropertyOp39
 70
     1
102
RTVSPropertyOp40
 70
     1
102
RTVSPropertyOp41
 70
     1
102
RTVSPropertyOp42
 70
     1
102
RTVSPropertyOp43
 70
     1
102
RTVSPropertyOp44
 70
     1
102
RTVSPropertyOp45
 70
     1
102
RTVSPropertyOp46
 70
     1
102
RTVSPropertyOp47
 70
     1
102
RTVSPropertyOp48
 70
     1
102
RTVSPropertyOp49
 70
     1
102
RTVSPropertyOp50
 70
     1
102
RTVSPropertyOp51
 70
     0
102
RTVSPropertyOp52
 70
     0
102
RTVSPropertyOp53
 70
     1
102
RTVSPropertyOp54
 70
     1
102
RTVSPropertyOp55
 70
     1
102
RTVSPropertyOp56
 70
     1
102
RTVSPropertyOp57
 70
     1
102
RTVSPropertyOp58
 70
     1
102
RTVSPropertyOp59
 70
     1
102
RTVSPropertyOp60
 70
     1
102
RTVSPropertyOp61
 70
     1
102
RTVSPropertyOp62
 70
     1
  0
XRECORD
  5
7BE
102
{ACAD_REACTORS
330
7BD
102
}
330
7BD
100
AcDbXrecord
280
     1
102
RTVSPost2010Prop28
280
     0
102
RTVSPost2010PropOp28
 70
     1
102
RTVSPost2010Prop29
280
     1
102
RTVSPost2010PropOp29
 70
     1
102
RTVSPost2010Prop30
280
     1
102
RTVSPost2010PropOp30
 70
     1
102
RTVSPost2010Prop31
280
     0
102
RTVSPost2010PropOp31
 70
     1
102
RTVSPost2010Prop32
280
     0
102
RTVSPost2010PropOp32
 70
     1
102
RTVSPost2010Prop33
280
     0
102
RTVSPost2010PropOp33
 70
     1
102
RTVSPost2010Prop34
280
     0
102
RTVSPost2010PropOp34
 70
     1
102
RTVSPost2010Prop35
280
     0
102
RTVSPost2010PropOp35
 70
     1
102
RTVSPost2010Prop36
280
     0
102
RTVSPost2010PropOp36
 70
     1
102
RTVSPost2010Prop37
 90
       50
102
RTVSPost2010PropOp37
 70
     1
102
RTVSPost2010Prop38
140
0.0
102
RTVSPost2010PropOp38
 70
     1
102
RTVSPost2010Prop39
140
1.0
102
RTVSPost2010PropOp39
 70
     1
102
RTVSPost2010Prop40
 90
        0
102
RTVSPost2010PropOp40
 70
     1
102
RTVSPost2010Prop41ColorIndex
 90
       18
102
RTVSPost2010Prop41ColorRGB
 90
        0
102
RTVSPost2010PropOp41
 70
     1
102
RTVSPost2010Prop42
 90
       50
102
RTVSPost2010PropOp42
 70
     1
102
RTVSPost2010Prop43
 90
        3
102
RTVSPost2010PropOp43
 70
     1
102
RTVSPost2010Prop44ColorIndex
 90
        5
102
RTVSPost2010Prop44ColorRGB
 90
      255
102
RTVSPost2010PropOp44
 70
     1
102
RTVSPost2010Prop45
280
     0
102
RTVSPost2010PropOp45
 70
     1
102
RTVSPost2010Prop46
 90
       50
102
RTVSPost2010PropOp46
 70
     1
102
RTVSPost2010Prop47
 90
       50
102
RTVSPost2010PropOp47
 70
     1
102
RTVSPost2010Prop48
 90
       50
102
RTVSPost2010PropOp48
 70
     1
102
RTVSPost2010Prop49
280
     0
102
RTVSPost2010PropOp49
 70
     1
102
RTVSPost2010Prop50
 90
       50
102
RTVSPost2010PropOp50
 70
     1
102
RTVSPost2010Prop51ColorIndex
 90
      256
102
RTVSPost2010Prop51ColorRGB
 90
-16777216
102
RTVSPost2010PropOp51
 70
     0
102
RTVSPost2010Prop52
140
1.0
102
RTVSPost2010PropOp52
 70
     0
102
RTVSPost2010Prop53
 90
        2
102
RTVSPost2010PropOp53
 70
     1
102
RTVSPost2010Prop54
  1
strokes_ogs.tif
102
RTVSPost2010PropOp54
 70
     1
102
RTVSPost2010Prop55
280
     0
102
RTVSPost2010PropOp55
 70
     1
102
RTVSPost2010Prop56
140
1.0
102
RTVSPost2010PropOp56
 70
     1
102
RTVSPost2010Prop57
140
1.0
102
RTVSPost2010PropOp57
 70
     1
102
RTVSPropertyOp0
 70
     1
102
RTVSPropertyOp1
 70
     1
102
RTVSPropertyOp2
 70
     1
102
RTVSPropertyOp3
 70
     1
102
RTVSPropertyOp4
 70
     1
102
RTVSPropertyOp5
 70
     1
102
RTVSPropertyOp6
 70
     1
102
RTVSPropertyOp7
 70
     1
102
RTVSPropertyOp8
 70
     1
102
RTVSPropertyOp9
 70
     1
102
RTVSPropertyOp10
 70
     1
102
RTVSPropertyOp11
 70
     1
102
RTVSPropertyOp12
 70
     1
102
RTVSPropertyOp13
 70
     1
102
RTVSPropertyOp14
 70
     1
102
RTVSPropertyOp15
 70
     1
102
RTVSPropertyOp16
 70
     1
102
RTVSPropertyOp17
 70
     1
102
RTVSPropertyOp18
 70
     1
102
RTVSPropertyOp19
 70
     1
102
RTVSPropertyOp20
 70
     1
102
RTVSPropertyOp21
 70
     1
102
RTVSPropertyOp22
 70
     1
102
RTVSPropertyOp23
 70
     1
102
RTVSPropertyOp24
 70
     1
102
RTVSPropertyOp25
 70
     1
102
RTVSPropertyOp26
 70
     1
102
RTVSPropertyOp27
 70
     1
102
RTVSPropertyOp28
 70
     1
102
RTVSPropertyOp29
 70
     1
102
RTVSPropertyOp30
 70
     1
102
RTVSPropertyOp31
 70
     1
102
RTVSPropertyOp32
 70
     1
102
RTVSPropertyOp33
 70
     1
102
RTVSPropertyOp34
 70
     1
102
RTVSPropertyOp35
 70
     1
102
RTVSPropertyOp36
 70
     1
102
RTVSPropertyOp37
 70
     1
102
RTVSPropertyOp38
 70
     1
102
RTVSPropertyOp39
 70
     1
102
RTVSPropertyOp40
 70
     1
102
RTVSPropertyOp41
 70
     1
102
RTVSPropertyOp42
 70
     1
102
RTVSPropertyOp43
 70
     1
102
RTVSPropertyOp44
 70
     1
102
RTVSPropertyOp45
 70
     1
102
RTVSPropertyOp46
 70
     1
102
RTVSPropertyOp47
 70
     1
102
RTVSPropertyOp48
 70
     1
102
RTVSPropertyOp49
 70
     1
102
RTVSPropertyOp50
 70
     1
102
RTVSPropertyOp51
 70
     0
102
RTVSPropertyOp52
 70
     0
102
RTVSPropertyOp53
 70
     1
102
RTVSPropertyOp54
 70
     1
102
RTVSPropertyOp55
 70
     1
102
RTVSPropertyOp56
 70
     1
102
RTVSPropertyOp57
 70
     1
102
RTVSPropertyOp58
 70
     1
102
RTVSPropertyOp59
 70
     1
102
RTVSPropertyOp60
 70
     1
102
RTVSPropertyOp61
 70
     1
102
RTVSPropertyOp62
 70
     1
  0
XRECORD
  5
7C0
102
{ACAD_REACTORS
330
7BF
102
}
330
7BF
100
AcDbXrecord
280
     1
102
RTVSPost2010Prop28
280
     0
102
RTVSPost2010PropOp28
 70
     1
102
RTVSPost2010Prop29
280
     1
102
RTVSPost2010PropOp29
 70
     1
102
RTVSPost2010Prop30
280
     1
102
RTVSPost2010PropOp30
 70
     1
102
RTVSPost2010Prop31
280
     0
102
RTVSPost2010PropOp31
 70
     1
102
RTVSPost2010Prop32
280
     0
102
RTVSPost2010PropOp32
 70
     1
102
RTVSPost2010Prop33
280
     0
102
RTVSPost2010PropOp33
 70
     1
102
RTVSPost2010Prop34
280
     0
102
RTVSPost2010PropOp34
 70
     1
102
RTVSPost2010Prop35
280
     0
102
RTVSPost2010PropOp35
 70
     1
102
RTVSPost2010Prop36
280
     0
102
RTVSPost2010PropOp36
 70
     1
102
RTVSPost2010Prop37
 90
       50
102
RTVSPost2010PropOp37
 70
     1
102
RTVSPost2010Prop38
140
0.0
102
RTVSPost2010PropOp38
 70
     1
102
RTVSPost2010Prop39
140
1.0
102
RTVSPost2010PropOp39
 70
     1
102
RTVSPost2010Prop40
 90
        0
102
RTVSPost2010PropOp40
 70
     1
102
RTVSPost2010Prop41ColorIndex
 90
       18
102
RTVSPost2010Prop41ColorRGB
 90
        0
102
RTVSPost2010PropOp41
 70
     1
102
RTVSPost2010Prop42
 90
       50
102
RTVSPost2010PropOp42
 70
     1
102
RTVSPost2010Prop43
 90
        3
102
RTVSPost2010PropOp43
 70
     1
102
RTVSPost2010Prop44ColorIndex
 90
        5
102
RTVSPost2010Prop44ColorRGB
 90
      255
102
RTVSPost2010PropOp44
 70
     1
102
RTVSPost2010Prop45
280
     0
102
RTVSPost2010PropOp45
 70
     1
102
RTVSPost2010Prop46
 90
       50
102
RTVSPost2010PropOp46
 70
     1
102
RTVSPost2010Prop47
 90
       50
102
RTVSPost2010PropOp47
 70
     1
102
RTVSPost2010Prop48
 90
       50
102
RTVSPost2010PropOp48
 70
     1
102
RTVSPost2010Prop49
280
     0
102
RTVSPost2010PropOp49
 70
     1
102
RTVSPost2010Prop50
 90
       50
102
RTVSPost2010PropOp50
 70
     1
102
RTVSPost2010Prop51ColorIndex
 90
      256
102
RTVSPost2010Prop51ColorRGB
 90
-16777216
102
RTVSPost2010PropOp51
 70
     0
102
RTVSPost2010Prop52
140
1.0
102
RTVSPost2010PropOp52
 70
     0
102
RTVSPost2010Prop53
 90
        2
102
RTVSPost2010PropOp53
 70
     1
102
RTVSPost2010Prop54
  1
strokes_ogs.tif
102
RTVSPost2010PropOp54
 70
     1
102
RTVSPost2010Prop55
280
     0
102
RTVSPost2010PropOp55
 70
     1
102
RTVSPost2010Prop56
140
1.0
102
RTVSPost2010PropOp56
 70
     1
102
RTVSPost2010Prop57
140
1.0
102
RTVSPost2010PropOp57
 70
     1
102
RTVSPropertyOp0
 70
     1
102
RTVSPropertyOp1
 70
     1
102
RTVSPropertyOp2
 70
     1
102
RTVSPropertyOp3
 70
     1
102
RTVSPropertyOp4
 70
     1
102
RTVSPropertyOp5
 70
     1
102
RTVSPropertyOp6
 70
     1
102
RTVSPropertyOp7
 70
     1
102
RTVSPropertyOp8
 70
     1
102
RTVSPropertyOp9
 70
     1
102
RTVSPropertyOp10
 70
     1
102
RTVSPropertyOp11
 70
     1
102
RTVSPropertyOp12
 70
     1
102
RTVSPropertyOp13
 70
     1
102
RTVSPropertyOp14
 70
     1
102
RTVSPropertyOp15
 70
     1
102
RTVSPropertyOp16
 70
     1
102
RTVSPropertyOp17
 70
     1
102
RTVSPropertyOp18
 70
     1
102
RTVSPropertyOp19
 70
     1
102
RTVSPropertyOp20
 70
     1
102
RTVSPropertyOp21
 70
     1
102
RTVSPropertyOp22
 70
     1
102
RTVSPropertyOp23
 70
     1
102
RTVSPropertyOp24
 70
     1
102
RTVSPropertyOp25
 70
     1
102
RTVSPropertyOp26
 70
     1
102
RTVSPropertyOp27
 70
     1
102
RTVSPropertyOp28
 70
     1
102
RTVSPropertyOp29
 70
     1
102
RTVSPropertyOp30
 70
     1
102
RTVSPropertyOp31
 70
     1
102
RTVSPropertyOp32
 70
     1
102
RTVSPropertyOp33
 70
     1
102
RTVSPropertyOp34
 70
     1
102
RTVSPropertyOp35
 70
     1
102
RTVSPropertyOp36
 70
     1
102
RTVSPropertyOp37
 70
     1
102
RTVSPropertyOp38
 70
     1
102
RTVSPropertyOp39
 70
     1
102
RTVSPropertyOp40
 70
     1
102
RTVSPropertyOp41
 70
     1
102
RTVSPropertyOp42
 70
     1
102
RTVSPropertyOp43
 70
     1
102
RTVSPropertyOp44
 70
     1
102
RTVSPropertyOp45
 70
     1
102
RTVSPropertyOp46
 70
     1
102
RTVSPropertyOp47
 70
     1
102
RTVSPropertyOp48
 70
     1
102
RTVSPropertyOp49
 70
     1
102
RTVSPropertyOp50
 70
     1
102
RTVSPropertyOp51
 70
     0
102
RTVSPropertyOp52
 70
     0
102
RTVSPropertyOp53
 70
     1
102
RTVSPropertyOp54
 70
     1
102
RTVSPropertyOp55
 70
     1
102
RTVSPropertyOp56
 70
     1
102
RTVSPropertyOp57
 70
     1
102
RTVSPropertyOp58
 70
     1
102
RTVSPropertyOp59
 70
     1
102
RTVSPropertyOp60
 70
     1
102
RTVSPropertyOp61
 70
     1
102
RTVSPropertyOp62
 70
     1
  0
XRECORD
  5
7C2
102
{ACAD_REACTORS
330
7C1
102
}
330
7C1
100
AcDbXrecord
280
     1
102
RTVSPost2010Prop28
280
     0
102
RTVSPost2010PropOp28
 70
     1
102
RTVSPost2010Prop29
280
     1
102
RTVSPost2010PropOp29
 70
     1
102
RTVSPost2010Prop30
280
     1
102
RTVSPost2010PropOp30
 70
     1
102
RTVSPost2010Prop31
280
     0
102
RTVSPost2010PropOp31
 70
     1
102
RTVSPost2010Prop32
280
     0
102
RTVSPost2010PropOp32
 70
     1
102
RTVSPost2010Prop33
280
     0
102
RTVSPost2010PropOp33
 70
     1
102
RTVSPost2010Prop34
280
     0
102
RTVSPost2010PropOp34
 70
     1
102
RTVSPost2010Prop35
280
     0
102
RTVSPost2010PropOp35
 70
     1
102
RTVSPost2010Prop36
280
     0
102
RTVSPost2010PropOp36
 70
     1
102
RTVSPost2010Prop37
 90
       50
102
RTVSPost2010PropOp37
 70
     1
102
RTVSPost2010Prop38
140
0.0
102
RTVSPost2010PropOp38
 70
     1
102
RTVSPost2010Prop39
140
1.0
102
RTVSPost2010PropOp39
 70
     1
102
RTVSPost2010Prop40
 90
        0
102
RTVSPost2010PropOp40
 70
     1
102
RTVSPost2010Prop41ColorIndex
 90
       18
102
RTVSPost2010Prop41ColorRGB
 90
        0
102
RTVSPost2010PropOp41
 70
     1
102
RTVSPost2010Prop42
 90
       50
102
RTVSPost2010PropOp42
 70
     1
102
RTVSPost2010Prop43
 90
        3
102
RTVSPost2010PropOp43
 70
     1
102
RTVSPost2010Prop44ColorIndex
 90
        5
102
RTVSPost2010Prop44ColorRGB
 90
      255
102
RTVSPost2010PropOp44
 70
     1
102
RTVSPost2010Prop45
280
     0
102
RTVSPost2010PropOp45
 70
     1
102
RTVSPost2010Prop46
 90
       50
102
RTVSPost2010PropOp46
 70
     1
102
RTVSPost2010Prop47
 90
       50
102
RTVSPost2010PropOp47
 70
     1
102
RTVSPost2010Prop48
 90
       50
102
RTVSPost2010PropOp48
 70
     1
102
RTVSPost2010Prop49
280
     0
102
RTVSPost2010PropOp49
 70
     1
102
RTVSPost2010Prop50
 90
       50
102
RTVSPost2010PropOp50
 70
     1
102
RTVSPost2010Prop51ColorIndex
 90
      256
102
RTVSPost2010Prop51ColorRGB
 90
-16777216
102
RTVSPost2010PropOp51
 70
     0
102
RTVSPost2010Prop52
140
1.0
102
RTVSPost2010PropOp52
 70
     0
102
RTVSPost2010Prop53
 90
        2
102
RTVSPost2010PropOp53
 70
     1
102
RTVSPost2010Prop54
  1
strokes_ogs.tif
102
RTVSPost2010PropOp54
 70
     1
102
RTVSPost2010Prop55
280
     0
102
RTVSPost2010PropOp55
 70
     1
102
RTVSPost2010Prop56
140
1.0
102
RTVSPost2010PropOp56
 70
     1
102
RTVSPost2010Prop57
140
1.0
102
RTVSPost2010PropOp57
 70
     1
102
RTVSPropertyOp0
 70
     1
102
RTVSPropertyOp1
 70
     1
102
RTVSPropertyOp2
 70
     1
102
RTVSPropertyOp3
 70
     1
102
RTVSPropertyOp4
 70
     1
102
RTVSPropertyOp5
 70
     1
102
RTVSPropertyOp6
 70
     1
102
RTVSPropertyOp7
 70
     1
102
RTVSPropertyOp8
 70
     1
102
RTVSPropertyOp9
 70
     1
102
RTVSPropertyOp10
 70
     1
102
RTVSPropertyOp11
 70
     1
102
RTVSPropertyOp12
 70
     1
102
RTVSPropertyOp13
 70
     1
102
RTVSPropertyOp14
 70
     1
102
RTVSPropertyOp15
 70
     1
102
RTVSPropertyOp16
 70
     1
102
RTVSPropertyOp17
 70
     1
102
RTVSPropertyOp18
 70
     1
102
RTVSPropertyOp19
 70
     1
102
RTVSPropertyOp20
 70
     1
102
RTVSPropertyOp21
 70
     1
102
RTVSPropertyOp22
 70
     1
102
RTVSPropertyOp23
 70
     1
102
RTVSPropertyOp24
 70
     1
102
RTVSPropertyOp25
 70
     1
102
RTVSPropertyOp26
 70
     1
102
RTVSPropertyOp27
 70
     1
102
RTVSPropertyOp28
 70
     1
102
RTVSPropertyOp29
 70
     1
102
RTVSPropertyOp30
 70
     1
102
RTVSPropertyOp31
 70
     1
102
RTVSPropertyOp32
 70
     1
102
RTVSPropertyOp33
 70
     1
102
RTVSPropertyOp34
 70
     1
102
RTVSPropertyOp35
 70
     1
102
RTVSPropertyOp36
 70
     1
102
RTVSPropertyOp37
 70
     1
102
RTVSPropertyOp38
 70
     1
102
RTVSPropertyOp39
 70
     1
102
RTVSPropertyOp40
 70
     1
102
RTVSPropertyOp41
 70
     1
102
RTVSPropertyOp42
 70
     1
102
RTVSPropertyOp43
 70
     1
102
RTVSPropertyOp44
 70
     1
102
RTVSPropertyOp45
 70
     1
102
RTVSPropertyOp46
 70
     1
102
RTVSPropertyOp47
 70
     1
102
RTVSPropertyOp48
 70
     1
102
RTVSPropertyOp49
 70
     1
102
RTVSPropertyOp50
 70
     1
102
RTVSPropertyOp51
 70
     0
102
RTVSPropertyOp52
 70
     0
102
RTVSPropertyOp53
 70
     1
102
RTVSPropertyOp54
 70
     1
102
RTVSPropertyOp55
 70
     1
102
RTVSPropertyOp56
 70
     1
102
RTVSPropertyOp57
 70
     1
102
RTVSPropertyOp58
 70
     1
102
RTVSPropertyOp59
 70
     1
102
RTVSPropertyOp60
 70
     1
102
RTVSPropertyOp61
 70
     1
102
RTVSPropertyOp62
 70
     1
  0
XRECORD
  5
7C8
102
{ACAD_REACTORS
330
7C7
102
}
330
7C7
100
AcDbXrecord
280
     1
102
RTVSPost2010Prop28
280
     0
102
RTVSPost2010PropOp28
 70
     1
102
RTVSPost2010Prop29
280
     1
102
RTVSPost2010PropOp29
 70
     1
102
RTVSPost2010Prop30
280
     1
102
RTVSPost2010PropOp30
 70
     1
102
RTVSPost2010Prop31
280
     0
102
RTVSPost2010PropOp31
 70
     1
102
RTVSPost2010Prop32
280
     0
102
RTVSPost2010PropOp32
 70
     1
102
RTVSPost2010Prop33
280
     0
102
RTVSPost2010PropOp33
 70
     1
102
RTVSPost2010Prop34
280
     0
102
RTVSPost2010PropOp34
 70
     1
102
RTVSPost2010Prop35
280
     0
102
RTVSPost2010PropOp35
 70
     1
102
RTVSPost2010Prop36
280
     0
102
RTVSPost2010PropOp36
 70
     1
102
RTVSPost2010Prop37
 90
       50
102
RTVSPost2010PropOp37
 70
     1
102
RTVSPost2010Prop38
140
0.0
102
RTVSPost2010PropOp38
 70
     1
102
RTVSPost2010Prop39
140
1.0
102
RTVSPost2010PropOp39
 70
     1
102
RTVSPost2010Prop40
 90
        0
102
RTVSPost2010PropOp40
 70
     1
102
RTVSPost2010Prop41ColorIndex
 90
       18
102
RTVSPost2010Prop41ColorRGB
 90
        0
102
RTVSPost2010PropOp41
 70
     1
102
RTVSPost2010Prop42
 90
       50
102
RTVSPost2010PropOp42
 70
     1
102
RTVSPost2010Prop43
 90
        3
102
RTVSPost2010PropOp43
 70
     1
102
RTVSPost2010Prop44ColorIndex
 90
        5
102
RTVSPost2010Prop44ColorRGB
 90
      255
102
RTVSPost2010PropOp44
 70
     1
102
RTVSPost2010Prop45
280
     0
102
RTVSPost2010PropOp45
 70
     1
102
RTVSPost2010Prop46
 90
       50
102
RTVSPost2010PropOp46
 70
     1
102
RTVSPost2010Prop47
 90
       50
102
RTVSPost2010PropOp47
 70
     1
102
RTVSPost2010Prop48
 90
       50
102
RTVSPost2010PropOp48
 70
     1
102
RTVSPost2010Prop49
280
     0
102
RTVSPost2010PropOp49
 70
     1
102
RTVSPost2010Prop50
 90
       50
102
RTVSPost2010PropOp50
 70
     1
102
RTVSPost2010Prop51ColorIndex
 90
      256
102
RTVSPost2010Prop51ColorRGB
 90
-16777216
102
RTVSPost2010PropOp51
 70
     0
102
RTVSPost2010Prop52
140
1.0
102
RTVSPost2010PropOp52
 70
     0
102
RTVSPost2010Prop53
 90
        2
102
RTVSPost2010PropOp53
 70
     1
102
RTVSPost2010Prop54
  1
strokes_ogs.tif
102
RTVSPost2010PropOp54
 70
     1
102
RTVSPost2010Prop55
280
     0
102
RTVSPost2010PropOp55
 70
     1
102
RTVSPost2010Prop56
140
1.0
102
RTVSPost2010PropOp56
 70
     1
102
RTVSPost2010Prop57
140
1.0
102
RTVSPost2010PropOp57
 70
     1
102
RTVSPropertyOp0
 70
     1
102
RTVSPropertyOp1
 70
     1
102
RTVSPropertyOp2
 70
     1
102
RTVSPropertyOp3
 70
     1
102
RTVSPropertyOp4
 70
     1
102
RTVSPropertyOp5
 70
     1
102
RTVSPropertyOp6
 70
     1
102
RTVSPropertyOp7
 70
     1
102
RTVSPropertyOp8
 70
     1
102
RTVSPropertyOp9
 70
     1
102
RTVSPropertyOp10
 70
     1
102
RTVSPropertyOp11
 70
     1
102
RTVSPropertyOp12
 70
     1
102
RTVSPropertyOp13
 70
     1
102
RTVSPropertyOp14
 70
     1
102
RTVSPropertyOp15
 70
     1
102
RTVSPropertyOp16
 70
     1
102
RTVSPropertyOp17
 70
     1
102
RTVSPropertyOp18
 70
     1
102
RTVSPropertyOp19
 70
     1
102
RTVSPropertyOp20
 70
     1
102
RTVSPropertyOp21
 70
     1
102
RTVSPropertyOp22
 70
     1
102
RTVSPropertyOp23
 70
     1
102
RTVSPropertyOp24
 70
     1
102
RTVSPropertyOp25
 70
     1
102
RTVSPropertyOp26
 70
     1
102
RTVSPropertyOp27
 70
     1
102
RTVSPropertyOp28
 70
     1
102
RTVSPropertyOp29
 70
     1
102
RTVSPropertyOp30
 70
     1
102
RTVSPropertyOp31
 70
     1
102
RTVSPropertyOp32
 70
     1
102
RTVSPropertyOp33
 70
     1
102
RTVSPropertyOp34
 70
     1
102
RTVSPropertyOp35
 70
     1
102
RTVSPropertyOp36
 70
     1
102
RTVSPropertyOp37
 70
     1
102
RTVSPropertyOp38
 70
     1
102
RTVSPropertyOp39
 70
     1
102
RTVSPropertyOp40
 70
     1
102
RTVSPropertyOp41
 70
     1
102
RTVSPropertyOp42
 70
     1
102
RTVSPropertyOp43
 70
     1
102
RTVSPropertyOp44
 70
     1
102
RTVSPropertyOp45
 70
     1
102
RTVSPropertyOp46
 70
     1
102
RTVSPropertyOp47
 70
     1
102
RTVSPropertyOp48
 70
     1
102
RTVSPropertyOp49
 70
     1
102
RTVSPropertyOp50
 70
     1
102
RTVSPropertyOp51
 70
     0
102
RTVSPropertyOp52
 70
     0
102
RTVSPropertyOp53
 70
     1
102
RTVSPropertyOp54
 70
     1
102
RTVSPropertyOp55
 70
     1
102
RTVSPropertyOp56
 70
     1
102
RTVSPropertyOp57
 70
     1
102
RTVSPropertyOp58
 70
     1
102
RTVSPropertyOp59
 70
     1
102
RTVSPropertyOp60
 70
     1
102
RTVSPropertyOp61
 70
     1
102
RTVSPropertyOp62
 70
     1
  0
XRECORD
  5
7DC
102
{ACAD_REACTORS
330
7DB
102
}
330
7DB
100
AcDbXrecord
280
     1
102
RTVSPost2010Prop28
280
     0
102
RTVSPost2010PropOp28
 70
     0
102
RTVSPost2010Prop29
280
     1
102
RTVSPost2010PropOp29
 70
     0
102
RTVSPost2010Prop30
280
     1
102
RTVSPost2010PropOp30
 70
     0
102
RTVSPost2010Prop31
280
     0
102
RTVSPost2010PropOp31
 70
     0
102
RTVSPost2010Prop32
280
     0
102
RTVSPost2010PropOp32
 70
     0
102
RTVSPost2010Prop33
280
     0
102
RTVSPost2010PropOp33
 70
     0
102
RTVSPost2010Prop34
280
     0
102
RTVSPost2010PropOp34
 70
     0
102
RTVSPost2010Prop35
280
     0
102
RTVSPost2010PropOp35
 70
     0
102
RTVSPost2010Prop36
280
     0
102
RTVSPost2010PropOp36
 70
     0
102
RTVSPost2010Prop37
 90
       50
102
RTVSPost2010PropOp37
 70
     0
102
RTVSPost2010Prop38
140
0.0
102
RTVSPost2010PropOp38
 70
     0
102
RTVSPost2010Prop39
140
1.0
102
RTVSPost2010PropOp39
 70
     0
102
RTVSPost2010Prop40
 90
        0
102
RTVSPost2010PropOp40
 70
     0
102
RTVSPost2010Prop41ColorIndex
 90
       18
102
RTVSPost2010Prop41ColorRGB
 90
        0
102
RTVSPost2010PropOp41
 70
     0
102
RTVSPost2010Prop42
 90
       50
102
RTVSPost2010PropOp42
 70
     0
102
RTVSPost2010Prop43
 90
        3
102
RTVSPost2010PropOp43
 70
     0
102
RTVSPost2010Prop44ColorIndex
 90
        5
102
RTVSPost2010Prop44ColorRGB
 90
      255
102
RTVSPost2010PropOp44
 70
     0
102
RTVSPost2010Prop45
280
     0
102
RTVSPost2010PropOp45
 70
     0
102
RTVSPost2010Prop46
 90
       50
102
RTVSPost2010PropOp46
 70
     0
102
RTVSPost2010Prop47
 90
       50
102
RTVSPost2010PropOp47
 70
     0
102
RTVSPost2010Prop48
 90
       50
102
RTVSPost2010PropOp48
 70
     0
102
RTVSPost2010Prop49
280
     0
102
RTVSPost2010PropOp49
 70
     0
102
RTVSPost2010Prop50
 90
       50
102
RTVSPost2010PropOp50
 70
     0
102
RTVSPost2010Prop51ColorIndex
 90
      256
102
RTVSPost2010Prop51ColorRGB
 90
-16777216
102
RTVSPost2010PropOp51
 70
     0
102
RTVSPost2010Prop52
140
1.0
102
RTVSPost2010PropOp52
 70
     0
102
RTVSPost2010Prop53
 90
        2
102
RTVSPost2010PropOp53
 70
     0
102
RTVSPost2010Prop54
  1
strokes_ogs.tif
102
RTVSPost2010PropOp54
 70
     0
102
RTVSPost2010Prop55
280
     0
102
RTVSPost2010PropOp55
 70
     0
102
RTVSPost2010Prop56
140
1.0
102
RTVSPost2010PropOp56
 70
     0
102
RTVSPost2010Prop57
140
1.0
102
RTVSPost2010PropOp57
 70
     0
102
RTVSPropertyOp0
 70
     0
102
RTVSPropertyOp1
 70
     0
102
RTVSPropertyOp2
 70
     0
102
RTVSPropertyOp3
 70
     0
102
RTVSPropertyOp4
 70
     0
102
RTVSPropertyOp5
 70
     0
102
RTVSPropertyOp6
 70
     0
102
RTVSPropertyOp7
 70
     0
102
RTVSPropertyOp8
 70
     0
102
RTVSPropertyOp9
 70
     0
102
RTVSPropertyOp10
 70
     0
102
RTVSPropertyOp11
 70
     0
102
RTVSPropertyOp12
 70
     0
102
RTVSPropertyOp13
 70
     0
102
RTVSPropertyOp14
 70
     2
102
RTVSPropertyOp15
 70
     0
102
RTVSPropertyOp16
 70
     0
102
RTVSPropertyOp17
 70
     0
102
RTVSPropertyOp18
 70
     0
102
RTVSPropertyOp19
 70
     0
102
RTVSPropertyOp20
 70
     0
102
RTVSPropertyOp21
 70
     0
102
RTVSPropertyOp22
 70
     0
102
RTVSPropertyOp23
 70
     0
102
RTVSPropertyOp24
 70
     0
102
RTVSPropertyOp25
 70
     0
102
RTVSPropertyOp26
 70
     0
102
RTVSPropertyOp27
 70
     0
102
RTVSPropertyOp28
 70
     0
102
RTVSPropertyOp29
 70
     0
102
RTVSPropertyOp30
 70
     0
102
RTVSPropertyOp31
 70
     0
102
RTVSPropertyOp32
 70
     0
102
RTVSPropertyOp33
 70
     0
102
RTVSPropertyOp34
 70
     0
102
RTVSPropertyOp35
 70
     0
102
RTVSPropertyOp36
 70
     0
102
RTVSPropertyOp37
 70
     0
102
RTVSPropertyOp38
 70
     0
102
RTVSPropertyOp39
 70
     0
102
RTVSPropertyOp40
 70
     0
102
RTVSPropertyOp41
 70
     0
102
RTVSPropertyOp42
 70
     0
102
RTVSPropertyOp43
 70
     0
102
RTVSPropertyOp44
 70
     0
102
RTVSPropertyOp45
 70
     0
102
RTVSPropertyOp46
 70
     0
102
RTVSPropertyOp47
 70
     0
102
RTVSPropertyOp48
 70
     0
102
RTVSPropertyOp49
 70
     0
102
RTVSPropertyOp50
 70
     0
102
RTVSPropertyOp51
 70
     0
102
RTVSPropertyOp52
 70
     0
102
RTVSPropertyOp53
 70
     0
102
RTVSPropertyOp54
 70
     0
102
RTVSPropertyOp55
 70
     0
102
RTVSPropertyOp56
 70
     0
102
RTVSPropertyOp57
 70
     0
102
RTVSPropertyOp58
 70
     1
102
RTVSPropertyOp59
 70
     1
102
RTVSPropertyOp60
 70
     1
102
RTVSPropertyOp61
 70
     1
102
RTVSPropertyOp62
 70
     1
  0
XRECORD
  5
7D6
102
{ACAD_REACTORS
330
7D5
102
}
330
7D5
100
AcDbXrecord
280
     1
102
RTVSPost2010Prop28
280
     0
102
RTVSPost2010PropOp28
 70
     1
102
RTVSPost2010Prop29
280
     1
102
RTVSPost2010PropOp29
 70
     1
102
RTVSPost2010Prop30
280
     1
102
RTVSPost2010PropOp30
 70
     1
102
RTVSPost2010Prop31
280
     0
102
RTVSPost2010PropOp31
 70
     1
102
RTVSPost2010Prop32
280
     0
102
RTVSPost2010PropOp32
 70
     1
102
RTVSPost2010Prop33
280
     0
102
RTVSPost2010PropOp33
 70
     1
102
RTVSPost2010Prop34
280
     0
102
RTVSPost2010PropOp34
 70
     1
102
RTVSPost2010Prop35
280
     0
102
RTVSPost2010PropOp35
 70
     1
102
RTVSPost2010Prop36
280
     0
102
RTVSPost2010PropOp36
 70
     1
102
RTVSPost2010Prop37
 90
       50
102
RTVSPost2010PropOp37
 70
     1
102
RTVSPost2010Prop38
140
0.0
102
RTVSPost2010PropOp38
 70
     1
102
RTVSPost2010Prop39
140
1.0
102
RTVSPost2010PropOp39
 70
     1
102
RTVSPost2010Prop40
 90
        0
102
RTVSPost2010PropOp40
 70
     1
102
RTVSPost2010Prop41ColorIndex
 90
       18
102
RTVSPost2010Prop41ColorRGB
 90
        0
102
RTVSPost2010PropOp41
 70
     1
102
RTVSPost2010Prop42
 90
       50
102
RTVSPost2010PropOp42
 70
     1
102
RTVSPost2010Prop43
 90
        3
102
RTVSPost2010PropOp43
 70
     1
102
RTVSPost2010Prop44ColorIndex
 90
        5
102
RTVSPost2010Prop44ColorRGB
 90
      255
102
RTVSPost2010PropOp44
 70
     1
102
RTVSPost2010Prop45
280
     0
102
RTVSPost2010PropOp45
 70
     1
102
RTVSPost2010Prop46
 90
       50
102
RTVSPost2010PropOp46
 70
     1
102
RTVSPost2010Prop47
 90
       50
102
RTVSPost2010PropOp47
 70
     1
102
RTVSPost2010Prop48
 90
       50
102
RTVSPost2010PropOp48
 70
     1
102
RTVSPost2010Prop49
280
     0
102
RTVSPost2010PropOp49
 70
     1
102
RTVSPost2010Prop50
 90
       50
102
RTVSPost2010PropOp50
 70
     1
102
RTVSPost2010Prop51ColorIndex
 90
      256
102
RTVSPost2010Prop51ColorRGB
 90
-16777216
102
RTVSPost2010PropOp51
 70
     0
102
RTVSPost2010Prop52
140
1.0
102
RTVSPost2010PropOp52
 70
     0
102
RTVSPost2010Prop53
 90
        2
102
RTVSPost2010PropOp53
 70
     1
102
RTVSPost2010Prop54
  1
strokes_ogs.tif
102
RTVSPost2010PropOp54
 70
     1
102
RTVSPost2010Prop55
280
     0
102
RTVSPost2010PropOp55
 70
     1
102
RTVSPost2010Prop56
140
1.0
102
RTVSPost2010PropOp56
 70
     1
102
RTVSPost2010Prop57
140
1.0
102
RTVSPost2010PropOp57
 70
     1
102
RTVSPropertyOp0
 70
     1
102
RTVSPropertyOp1
 70
     1
102
RTVSPropertyOp2
 70
     1
102
RTVSPropertyOp3
 70
     1
102
RTVSPropertyOp4
 70
     1
102
RTVSPropertyOp5
 70
     1
102
RTVSPropertyOp6
 70
     1
102
RTVSPropertyOp7
 70
     1
102
RTVSPropertyOp8
 70
     1
102
RTVSPropertyOp9
 70
     1
102
RTVSPropertyOp10
 70
     1
102
RTVSPropertyOp11
 70
     1
102
RTVSPropertyOp12
 70
     1
102
RTVSPropertyOp13
 70
     1
102
RTVSPropertyOp14
 70
     1
102
RTVSPropertyOp15
 70
     1
102
RTVSPropertyOp16
 70
     1
102
RTVSPropertyOp17
 70
     1
102
RTVSPropertyOp18
 70
     1
102
RTVSPropertyOp19
 70
     1
102
RTVSPropertyOp20
 70
     1
102
RTVSPropertyOp21
 70
     1
102
RTVSPropertyOp22
 70
     1
102
RTVSPropertyOp23
 70
     1
102
RTVSPropertyOp24
 70
     1
102
RTVSPropertyOp25
 70
     1
102
RTVSPropertyOp26
 70
     1
102
RTVSPropertyOp27
 70
     1
102
RTVSPropertyOp28
 70
     1
102
RTVSPropertyOp29
 70
     1
102
RTVSPropertyOp30
 70
     1
102
RTVSPropertyOp31
 70
     1
102
RTVSPropertyOp32
 70
     1
102
RTVSPropertyOp33
 70
     1
102
RTVSPropertyOp34
 70
     1
102
RTVSPropertyOp35
 70
     1
102
RTVSPropertyOp36
 70
     1
102
RTVSPropertyOp37
 70
     1
102
RTVSPropertyOp38
 70
     1
102
RTVSPropertyOp39
 70
     1
102
RTVSPropertyOp40
 70
     1
102
RTVSPropertyOp41
 70
     1
102
RTVSPropertyOp42
 70
     1
102
RTVSPropertyOp43
 70
     1
102
RTVSPropertyOp44
 70
     1
102
RTVSPropertyOp45
 70
     1
102
RTVSPropertyOp46
 70
     1
102
RTVSPropertyOp47
 70
     1
102
RTVSPropertyOp48
 70
     1
102
RTVSPropertyOp49
 70
     1
102
RTVSPropertyOp50
 70
     1
102
RTVSPropertyOp51
 70
     0
102
RTVSPropertyOp52
 70
     0
102
RTVSPropertyOp53
 70
     1
102
RTVSPropertyOp54
 70
     1
102
RTVSPropertyOp55
 70
     1
102
RTVSPropertyOp56
 70
     1
102
RTVSPropertyOp57
 70
     1
102
RTVSPropertyOp58
 70
     1
102
RTVSPropertyOp59
 70
     1
102
RTVSPropertyOp60
 70
     1
102
RTVSPropertyOp61
 70
     1
102
RTVSPropertyOp62
 70
     1
  0
XRECORD
  5
7DE
102
{ACAD_REACTORS
330
7DD
102
}
330
7DD
100
AcDbXrecord
280
     1
102
RTVSPost2010Prop28
280
     0
102
RTVSPost2010PropOp28
 70
     0
102
RTVSPost2010Prop29
280
     1
102
RTVSPost2010PropOp29
 70
     0
102
RTVSPost2010Prop30
280
     1
102
RTVSPost2010PropOp30
 70
     0
102
RTVSPost2010Prop31
280
     0
102
RTVSPost2010PropOp31
 70
     0
102
RTVSPost2010Prop32
280
     0
102
RTVSPost2010PropOp32
 70
     0
102
RTVSPost2010Prop33
280
     0
102
RTVSPost2010PropOp33
 70
     0
102
RTVSPost2010Prop34
280
     0
102
RTVSPost2010PropOp34
 70
     0
102
RTVSPost2010Prop35
280
     0
102
RTVSPost2010PropOp35
 70
     0
102
RTVSPost2010Prop36
280
     0
102
RTVSPost2010PropOp36
 70
     0
102
RTVSPost2010Prop37
 90
       50
102
RTVSPost2010PropOp37
 70
     0
102
RTVSPost2010Prop38
140
0.0
102
RTVSPost2010PropOp38
 70
     0
102
RTVSPost2010Prop39
140
1.0
102
RTVSPost2010PropOp39
 70
     0
102
RTVSPost2010Prop40
 90
        0
102
RTVSPost2010PropOp40
 70
     0
102
RTVSPost2010Prop41ColorIndex
 90
       18
102
RTVSPost2010Prop41ColorRGB
 90
        0
102
RTVSPost2010PropOp41
 70
     0
102
RTVSPost2010Prop42
 90
       50
102
RTVSPost2010PropOp42
 70
     0
102
RTVSPost2010Prop43
 90
        3
102
RTVSPost2010PropOp43
 70
     0
102
RTVSPost2010Prop44ColorIndex
 90
        5
102
RTVSPost2010Prop44ColorRGB
 90
      255
102
RTVSPost2010PropOp44
 70
     0
102
RTVSPost2010Prop45
280
     0
102
RTVSPost2010PropOp45
 70
     0
102
RTVSPost2010Prop46
 90
       50
102
RTVSPost2010PropOp46
 70
     0
102
RTVSPost2010Prop47
 90
       50
102
RTVSPost2010PropOp47
 70
     0
102
RTVSPost2010Prop48
 90
       50
102
RTVSPost2010PropOp48
 70
     0
102
RTVSPost2010Prop49
280
     0
102
RTVSPost2010PropOp49
 70
     0
102
RTVSPost2010Prop50
 90
       50
102
RTVSPost2010PropOp50
 70
     0
102
RTVSPost2010Prop51ColorIndex
 90
      256
102
RTVSPost2010Prop51ColorRGB
 90
-16777216
102
RTVSPost2010PropOp51
 70
     0
102
RTVSPost2010Prop52
140
1.0
102
RTVSPost2010PropOp52
 70
     0
102
RTVSPost2010Prop53
 90
        2
102
RTVSPost2010PropOp53
 70
     0
102
RTVSPost2010Prop54
  1
strokes_ogs.tif
102
RTVSPost2010PropOp54
 70
     0
102
RTVSPost2010Prop55
280
     0
102
RTVSPost2010PropOp55
 70
     0
102
RTVSPost2010Prop56
140
1.0
102
RTVSPost2010PropOp56
 70
     0
102
RTVSPost2010Prop57
140
1.0
102
RTVSPost2010PropOp57
 70
     0
102
RTVSPropertyOp0
 70
     0
102
RTVSPropertyOp1
 70
     0
102
RTVSPropertyOp2
 70
     0
102
RTVSPropertyOp3
 70
     0
102
RTVSPropertyOp4
 70
     0
102
RTVSPropertyOp5
 70
     0
102
RTVSPropertyOp6
 70
     0
102
RTVSPropertyOp7
 70
     0
102
RTVSPropertyOp8
 70
     0
102
RTVSPropertyOp9
 70
     0
102
RTVSPropertyOp10
 70
     0
102
RTVSPropertyOp11
 70
     0
102
RTVSPropertyOp12
 70
     0
102
RTVSPropertyOp13
 70
     0
102
RTVSPropertyOp14
 70
     2
102
RTVSPropertyOp15
 70
     0
102
RTVSPropertyOp16
 70
     0
102
RTVSPropertyOp17
 70
     0
102
RTVSPropertyOp18
 70
     0
102
RTVSPropertyOp19
 70
     0
102
RTVSPropertyOp20
 70
     0
102
RTVSPropertyOp21
 70
     0
102
RTVSPropertyOp22
 70
     0
102
RTVSPropertyOp23
 70
     0
102
RTVSPropertyOp24
 70
     0
102
RTVSPropertyOp25
 70
     0
102
RTVSPropertyOp26
 70
     0
102
RTVSPropertyOp27
 70
     0
102
RTVSPropertyOp28
 70
     0
102
RTVSPropertyOp29
 70
     0
102
RTVSPropertyOp30
 70
     0
102
RTVSPropertyOp31
 70
     0
102
RTVSPropertyOp32
 70
     0
102
RTVSPropertyOp33
 70
     0
102
RTVSPropertyOp34
 70
     0
102
RTVSPropertyOp35
 70
     0
102
RTVSPropertyOp36
 70
     0
102
RTVSPropertyOp37
 70
     0
102
RTVSPropertyOp38
 70
     0
102
RTVSPropertyOp39
 70
     0
102
RTVSPropertyOp40
 70
     0
102
RTVSPropertyOp41
 70
     0
102
RTVSPropertyOp42
 70
     0
102
RTVSPropertyOp43
 70
     0
102
RTVSPropertyOp44
 70
     0
102
RTVSPropertyOp45
 70
     0
102
RTVSPropertyOp46
 70
     0
102
RTVSPropertyOp47
 70
     0
102
RTVSPropertyOp48
 70
     0
102
RTVSPropertyOp49
 70
     0
102
RTVSPropertyOp50
 70
     0
102
RTVSPropertyOp51
 70
     0
102
RTVSPropertyOp52
 70
     0
102
RTVSPropertyOp53
 70
     0
102
RTVSPropertyOp54
 70
     0
102
RTVSPropertyOp55
 70
     0
102
RTVSPropertyOp56
 70
     0
102
RTVSPropertyOp57
 70
     0
102
RTVSPropertyOp58
 70
     1
102
RTVSPropertyOp59
 70
     1
102
RTVSPropertyOp60
 70
     1
102
RTVSPropertyOp61
 70
     1
102
RTVSPropertyOp62
 70
     1
  0
XRECORD
  5
7CC
102
{ACAD_REACTORS
330
7CB
102
}
330
7CB
100
AcDbXrecord
280
     1
102
RTVSPost2010Prop28
280
     0
102
RTVSPost2010PropOp28
 70
     1
102
RTVSPost2010Prop29
280
     1
102
RTVSPost2010PropOp29
 70
     1
102
RTVSPost2010Prop30
280
     1
102
RTVSPost2010PropOp30
 70
     1
102
RTVSPost2010Prop31
280
     0
102
RTVSPost2010PropOp31
 70
     1
102
RTVSPost2010Prop32
280
     0
102
RTVSPost2010PropOp32
 70
     1
102
RTVSPost2010Prop33
280
     0
102
RTVSPost2010PropOp33
 70
     1
102
RTVSPost2010Prop34
280
     0
102
RTVSPost2010PropOp34
 70
     1
102
RTVSPost2010Prop35
280
     0
102
RTVSPost2010PropOp35
 70
     1
102
RTVSPost2010Prop36
280
     0
102
RTVSPost2010PropOp36
 70
     1
102
RTVSPost2010Prop37
 90
       50
102
RTVSPost2010PropOp37
 70
     1
102
RTVSPost2010Prop38
140
0.0
102
RTVSPost2010PropOp38
 70
     1
102
RTVSPost2010Prop39
140
1.0
102
RTVSPost2010PropOp39
 70
     1
102
RTVSPost2010Prop40
 90
        0
102
RTVSPost2010PropOp40
 70
     1
102
RTVSPost2010Prop41ColorIndex
 90
       18
102
RTVSPost2010Prop41ColorRGB
 90
        0
102
RTVSPost2010PropOp41
 70
     1
102
RTVSPost2010Prop42
 90
       50
102
RTVSPost2010PropOp42
 70
     1
102
RTVSPost2010Prop43
 90
        3
102
RTVSPost2010PropOp43
 70
     1
102
RTVSPost2010Prop44ColorIndex
 90
        5
102
RTVSPost2010Prop44ColorRGB
 90
      255
102
RTVSPost2010PropOp44
 70
     1
102
RTVSPost2010Prop45
280
     0
102
RTVSPost2010PropOp45
 70
     1
102
RTVSPost2010Prop46
 90
       50
102
RTVSPost2010PropOp46
 70
     1
102
RTVSPost2010Prop47
 90
       50
102
RTVSPost2010PropOp47
 70
     1
102
RTVSPost2010Prop48
 90
       50
102
RTVSPost2010PropOp48
 70
     1
102
RTVSPost2010Prop49
280
     0
102
RTVSPost2010PropOp49
 70
     1
102
RTVSPost2010Prop50
 90
       50
102
RTVSPost2010PropOp50
 70
     1
102
RTVSPost2010Prop51ColorIndex
 90
      256
102
RTVSPost2010Prop51ColorRGB
 90
-16777216
102
RTVSPost2010PropOp51
 70
     0
102
RTVSPost2010Prop52
140
1.0
102
RTVSPost2010PropOp52
 70
     0
102
RTVSPost2010Prop53
 90
        2
102
RTVSPost2010PropOp53
 70
     1
102
RTVSPost2010Prop54
  1
strokes_ogs.tif
102
RTVSPost2010PropOp54
 70
     1
102
RTVSPost2010Prop55
280
     0
102
RTVSPost2010PropOp55
 70
     1
102
RTVSPost2010Prop56
140
1.0
102
RTVSPost2010PropOp56
 70
     1
102
RTVSPost2010Prop57
140
1.0
102
RTVSPost2010PropOp57
 70
     1
102
RTVSPropertyOp0
 70
     1
102
RTVSPropertyOp1
 70
     1
102
RTVSPropertyOp2
 70
     1
102
RTVSPropertyOp3
 70
     1
102
RTVSPropertyOp4
 70
     1
102
RTVSPropertyOp5
 70
     1
102
RTVSPropertyOp6
 70
     1
102
RTVSPropertyOp7
 70
     1
102
RTVSPropertyOp8
 70
     1
102
RTVSPropertyOp9
 70
     1
102
RTVSPropertyOp10
 70
     1
102
RTVSPropertyOp11
 70
     1
102
RTVSPropertyOp12
 70
     1
102
RTVSPropertyOp13
 70
     1
102
RTVSPropertyOp14
 70
     1
102
RTVSPropertyOp15
 70
     1
102
RTVSPropertyOp16
 70
     1
102
RTVSPropertyOp17
 70
     1
102
RTVSPropertyOp18
 70
     1
102
RTVSPropertyOp19
 70
     1
102
RTVSPropertyOp20
 70
     1
102
RTVSPropertyOp21
 70
     1
102
RTVSPropertyOp22
 70
     1
102
RTVSPropertyOp23
 70
     1
102
RTVSPropertyOp24
 70
     1
102
RTVSPropertyOp25
 70
     1
102
RTVSPropertyOp26
 70
     1
102
RTVSPropertyOp27
 70
     1
102
RTVSPropertyOp28
 70
     1
102
RTVSPropertyOp29
 70
     1
102
RTVSPropertyOp30
 70
     1
102
RTVSPropertyOp31
 70
     1
102
RTVSPropertyOp32
 70
     1
102
RTVSPropertyOp33
 70
     1
102
RTVSPropertyOp34
 70
     1
102
RTVSPropertyOp35
 70
     1
102
RTVSPropertyOp36
 70
     1
102
RTVSPropertyOp37
 70
     1
102
RTVSPropertyOp38
 70
     1
102
RTVSPropertyOp39
 70
     1
102
RTVSPropertyOp40
 70
     1
102
RTVSPropertyOp41
 70
     1
102
RTVSPropertyOp42
 70
     1
102
RTVSPropertyOp43
 70
     1
102
RTVSPropertyOp44
 70
     1
102
RTVSPropertyOp45
 70
     1
102
RTVSPropertyOp46
 70
     1
102
RTVSPropertyOp47
 70
     1
102
RTVSPropertyOp48
 70
     1
102
RTVSPropertyOp49
 70
     1
102
RTVSPropertyOp50
 70
     1
102
RTVSPropertyOp51
 70
     0
102
RTVSPropertyOp52
 70
     0
102
RTVSPropertyOp53
 70
     1
102
RTVSPropertyOp54
 70
     1
102
RTVSPropertyOp55
 70
     1
102
RTVSPropertyOp56
 70
     1
102
RTVSPropertyOp57
 70
     1
102
RTVSPropertyOp58
 70
     1
102
RTVSPropertyOp59
 70
     1
102
RTVSPropertyOp60
 70
     1
102
RTVSPropertyOp61
 70
     1
102
RTVSPropertyOp62
 70
     1
  0
XRECORD
  5
7EA
102
{ACAD_REACTORS
330
7E9
102
}
330
7E9
100
AcDbXrecord
280
     1
102
RTVSPost2010Prop28
280
     0
102
RTVSPost2010PropOp28
 70
     1
102
RTVSPost2010Prop29
280
     1
102
RTVSPost2010PropOp29
 70
     1
102
RTVSPost2010Prop30
280
     1
102
RTVSPost2010PropOp30
 70
     1
102
RTVSPost2010Prop31
280
     0
102
RTVSPost2010PropOp31
 70
     1
102
RTVSPost2010Prop32
280
     0
102
RTVSPost2010PropOp32
 70
     1
102
RTVSPost2010Prop33
280
     0
102
RTVSPost2010PropOp33
 70
     1
102
RTVSPost2010Prop34
280
     0
102
RTVSPost2010PropOp34
 70
     1
102
RTVSPost2010Prop35
280
     0
102
RTVSPost2010PropOp35
 70
     1
102
RTVSPost2010Prop36
280
     0
102
RTVSPost2010PropOp36
 70
     1
102
RTVSPost2010Prop37
 90
       50
102
RTVSPost2010PropOp37
 70
     1
102
RTVSPost2010Prop38
140
0.0
102
RTVSPost2010PropOp38
 70
     1
102
RTVSPost2010Prop39
140
1.0
102
RTVSPost2010PropOp39
 70
     1
102
RTVSPost2010Prop40
 90
        0
102
RTVSPost2010PropOp40
 70
     1
102
RTVSPost2010Prop41ColorIndex
 90
       18
102
RTVSPost2010Prop41ColorRGB
 90
        0
102
RTVSPost2010PropOp41
 70
     1
102
RTVSPost2010Prop42
 90
       50
102
RTVSPost2010PropOp42
 70
     1
102
RTVSPost2010Prop43
 90
        3
102
RTVSPost2010PropOp43
 70
     1
102
RTVSPost2010Prop44ColorIndex
 90
        5
102
RTVSPost2010Prop44ColorRGB
 90
      255
102
RTVSPost2010PropOp44
 70
     1
102
RTVSPost2010Prop45
280
     0
102
RTVSPost2010PropOp45
 70
     1
102
RTVSPost2010Prop46
 90
       50
102
RTVSPost2010PropOp46
 70
     1
102
RTVSPost2010Prop47
 90
       50
102
RTVSPost2010PropOp47
 70
     1
102
RTVSPost2010Prop48
 90
       50
102
RTVSPost2010PropOp48
 70
     1
102
RTVSPost2010Prop49
280
     0
102
RTVSPost2010PropOp49
 70
     1
102
RTVSPost2010Prop50
 90
       50
102
RTVSPost2010PropOp50
 70
     1
102
RTVSPost2010Prop51ColorIndex
 90
      256
102
RTVSPost2010Prop51ColorRGB
 90
-16777216
102
RTVSPost2010PropOp51
 70
     0
102
RTVSPost2010Prop52
140
1.0
102
RTVSPost2010PropOp52
 70
     0
102
RTVSPost2010Prop53
 90
        2
102
RTVSPost2010PropOp53
 70
     1
102
RTVSPost2010Prop54
  1
strokes_ogs.tif
102
RTVSPost2010PropOp54
 70
     1
102
RTVSPost2010Prop55
280
     0
102
RTVSPost2010PropOp55
 70
     1
102
RTVSPost2010Prop56
140
1.0
102
RTVSPost2010PropOp56
 70
     1
102
RTVSPost2010Prop57
140
1.0
102
RTVSPost2010PropOp57
 70
     1
102
RTVSPropertyOp0
 70
     1
102
RTVSPropertyOp1
 70
     1
102
RTVSPropertyOp2
 70
     1
102
RTVSPropertyOp3
 70
     1
102
RTVSPropertyOp4
 70
     1
102
RTVSPropertyOp5
 70
     1
102
RTVSPropertyOp6
 70
     1
102
RTVSPropertyOp7
 70
     1
102
RTVSPropertyOp8
 70
     1
102
RTVSPropertyOp9
 70
     1
102
RTVSPropertyOp10
 70
     1
102
RTVSPropertyOp11
 70
     1
102
RTVSPropertyOp12
 70
     1
102
RTVSPropertyOp13
 70
     1
102
RTVSPropertyOp14
 70
     1
102
RTVSPropertyOp15
 70
     1
102
RTVSPropertyOp16
 70
     1
102
RTVSPropertyOp17
 70
     1
102
RTVSPropertyOp18
 70
     1
102
RTVSPropertyOp19
 70
     1
102
RTVSPropertyOp20
 70
     1
102
RTVSPropertyOp21
 70
     1
102
RTVSPropertyOp22
 70
     1
102
RTVSPropertyOp23
 70
     1
102
RTVSPropertyOp24
 70
     1
102
RTVSPropertyOp25
 70
     1
102
RTVSPropertyOp26
 70
     1
102
RTVSPropertyOp27
 70
     1
102
RTVSPropertyOp28
 70
     1
102
RTVSPropertyOp29
 70
     1
102
RTVSPropertyOp30
 70
     1
102
RTVSPropertyOp31
 70
     1
102
RTVSPropertyOp32
 70
     1
102
RTVSPropertyOp33
 70
     1
102
RTVSPropertyOp34
 70
     1
102
RTVSPropertyOp35
 70
     1
102
RTVSPropertyOp36
 70
     1
102
RTVSPropertyOp37
 70
     1
102
RTVSPropertyOp38
 70
     1
102
RTVSPropertyOp39
 70
     1
102
RTVSPropertyOp40
 70
     1
102
RTVSPropertyOp41
 70
     1
102
RTVSPropertyOp42
 70
     1
102
RTVSPropertyOp43
 70
     1
102
RTVSPropertyOp44
 70
     1
102
RTVSPropertyOp45
 70
     1
102
RTVSPropertyOp46
 70
     1
102
RTVSPropertyOp47
 70
     1
102
RTVSPropertyOp48
 70
     1
102
RTVSPropertyOp49
 70
     1
102
RTVSPropertyOp50
 70
     1
102
RTVSPropertyOp51
 70
     0
102
RTVSPropertyOp52
 70
     0
102
RTVSPropertyOp53
 70
     1
102
RTVSPropertyOp54
 70
     1
102
RTVSPropertyOp55
 70
     1
102
RTVSPropertyOp56
 70
     1
102
RTVSPropertyOp57
 70
     1
102
RTVSPropertyOp58
 70
     1
102
RTVSPropertyOp59
 70
     1
102
RTVSPropertyOp60
 70
     1
102
RTVSPropertyOp61
 70
     1
102
RTVSPropertyOp62
 70
     1
  0
XRECORD
  5
7E8
102
{ACAD_REACTORS
330
7E7
102
}
330
7E7
100
AcDbXrecord
280
     1
102
RTVSPost2010Prop28
280
     0
102
RTVSPost2010PropOp28
 70
     1
102
RTVSPost2010Prop29
280
     1
102
RTVSPost2010PropOp29
 70
     1
102
RTVSPost2010Prop30
280
     1
102
RTVSPost2010PropOp30
 70
     1
102
RTVSPost2010Prop31
280
     0
102
RTVSPost2010PropOp31
 70
     1
102
RTVSPost2010Prop32
280
     0
102
RTVSPost2010PropOp32
 70
     1
102
RTVSPost2010Prop33
280
     0
102
RTVSPost2010PropOp33
 70
     1
102
RTVSPost2010Prop34
280
     0
102
RTVSPost2010PropOp34
 70
     1
102
RTVSPost2010Prop35
280
     0
102
RTVSPost2010PropOp35
 70
     1
102
RTVSPost2010Prop36
280
     0
102
RTVSPost2010PropOp36
 70
     1
102
RTVSPost2010Prop37
 90
       50
102
RTVSPost2010PropOp37
 70
     1
102
RTVSPost2010Prop38
140
0.0
102
RTVSPost2010PropOp38
 70
     1
102
RTVSPost2010Prop39
140
1.0
102
RTVSPost2010PropOp39
 70
     1
102
RTVSPost2010Prop40
 90
        0
102
RTVSPost2010PropOp40
 70
     1
102
RTVSPost2010Prop41ColorIndex
 90
       18
102
RTVSPost2010Prop41ColorRGB
 90
        0
102
RTVSPost2010PropOp41
 70
     1
102
RTVSPost2010Prop42
 90
       50
102
RTVSPost2010PropOp42
 70
     1
102
RTVSPost2010Prop43
 90
        3
102
RTVSPost2010PropOp43
 70
     1
102
RTVSPost2010Prop44ColorIndex
 90
        5
102
RTVSPost2010Prop44ColorRGB
 90
      255
102
RTVSPost2010PropOp44
 70
     1
102
RTVSPost2010Prop45
280
     0
102
RTVSPost2010PropOp45
 70
     1
102
RTVSPost2010Prop46
 90
       50
102
RTVSPost2010PropOp46
 70
     1
102
RTVSPost2010Prop47
 90
       50
102
RTVSPost2010PropOp47
 70
     1
102
RTVSPost2010Prop48
 90
       50
102
RTVSPost2010PropOp48
 70
     1
102
RTVSPost2010Prop49
280
     0
102
RTVSPost2010PropOp49
 70
     1
102
RTVSPost2010Prop50
 90
       50
102
RTVSPost2010PropOp50
 70
     1
102
RTVSPost2010Prop51ColorIndex
 90
      256
102
RTVSPost2010Prop51ColorRGB
 90
-16777216
102
RTVSPost2010PropOp51
 70
     0
102
RTVSPost2010Prop52
140
1.0
102
RTVSPost2010PropOp52
 70
     0
102
RTVSPost2010Prop53
 90
        2
102
RTVSPost2010PropOp53
 70
     1
102
RTVSPost2010Prop54
  1
strokes_ogs.tif
102
RTVSPost2010PropOp54
 70
     1
102
RTVSPost2010Prop55
280
     0
102
RTVSPost2010PropOp55
 70
     1
102
RTVSPost2010Prop56
140
1.0
102
RTVSPost2010PropOp56
 70
     1
102
RTVSPost2010Prop57
140
1.0
102
RTVSPost2010PropOp57
 70
     1
102
RTVSPropertyOp0
 70
     1
102
RTVSPropertyOp1
 70
     1
102
RTVSPropertyOp2
 70
     1
102
RTVSPropertyOp3
 70
     1
102
RTVSPropertyOp4
 70
     1
102
RTVSPropertyOp5
 70
     1
102
RTVSPropertyOp6
 70
     1
102
RTVSPropertyOp7
 70
     1
102
RTVSPropertyOp8
 70
     1
102
RTVSPropertyOp9
 70
     1
102
RTVSPropertyOp10
 70
     1
102
RTVSPropertyOp11
 70
     1
102
RTVSPropertyOp12
 70
     1
102
RTVSPropertyOp13
 70
     1
102
RTVSPropertyOp14
 70
     1
102
RTVSPropertyOp15
 70
     1
102
RTVSPropertyOp16
 70
     1
102
RTVSPropertyOp17
 70
     1
102
RTVSPropertyOp18
 70
     1
102
RTVSPropertyOp19
 70
     1
102
RTVSPropertyOp20
 70
     1
102
RTVSPropertyOp21
 70
     1
102
RTVSPropertyOp22
 70
     1
102
RTVSPropertyOp23
 70
     1
102
RTVSPropertyOp24
 70
     1
102
RTVSPropertyOp25
 70
     1
102
RTVSPropertyOp26
 70
     1
102
RTVSPropertyOp27
 70
     1
102
RTVSPropertyOp28
 70
     1
102
RTVSPropertyOp29
 70
     1
102
RTVSPropertyOp30
 70
     1
102
RTVSPropertyOp31
 70
     1
102
RTVSPropertyOp32
 70
     1
102
RTVSPropertyOp33
 70
     1
102
RTVSPropertyOp34
 70
     1
102
RTVSPropertyOp35
 70
     1
102
RTVSPropertyOp36
 70
     1
102
RTVSPropertyOp37
 70
     1
102
RTVSPropertyOp38
 70
     1
102
RTVSPropertyOp39
 70
     1
102
RTVSPropertyOp40
 70
     1
102
RTVSPropertyOp41
 70
     1
102
RTVSPropertyOp42
 70
     1
102
RTVSPropertyOp43
 70
     1
102
RTVSPropertyOp44
 70
     1
102
RTVSPropertyOp45
 70
     1
102
RTVSPropertyOp46
 70
     1
102
RTVSPropertyOp47
 70
     1
102
RTVSPropertyOp48
 70
     1
102
RTVSPropertyOp49
 70
     1
102
RTVSPropertyOp50
 70
     1
102
RTVSPropertyOp51
 70
     0
102
RTVSPropertyOp52
 70
     0
102
RTVSPropertyOp53
 70
     1
102
RTVSPropertyOp54
 70
     1
102
RTVSPropertyOp55
 70
     1
102
RTVSPropertyOp56
 70
     1
102
RTVSPropertyOp57
 70
     1
102
RTVSPropertyOp58
 70
     1
102
RTVSPropertyOp59
 70
     1
102
RTVSPropertyOp60
 70
     1
102
RTVSPropertyOp61
 70
     1
102
RTVSPropertyOp62
 70
     1
  0
XRECORD
  5
7E2
102
{ACAD_REACTORS
330
7E1
102
}
330
7E1
100
AcDbXrecord
280
     1
102
RTVSPost2010Prop28
280
     0
102
RTVSPost2010PropOp28
 70
     1
102
RTVSPost2010Prop29
280
     1
102
RTVSPost2010PropOp29
 70
     1
102
RTVSPost2010Prop30
280
     1
102
RTVSPost2010PropOp30
 70
     1
102
RTVSPost2010Prop31
280
     0
102
RTVSPost2010PropOp31
 70
     1
102
RTVSPost2010Prop32
280
     0
102
RTVSPost2010PropOp32
 70
     1
102
RTVSPost2010Prop33
280
     0
102
RTVSPost2010PropOp33
 70
     1
102
RTVSPost2010Prop34
280
     0
102
RTVSPost2010PropOp34
 70
     1
102
RTVSPost2010Prop35
280
     0
102
RTVSPost2010PropOp35
 70
     1
102
RTVSPost2010Prop36
280
     0
102
RTVSPost2010PropOp36
 70
     1
102
RTVSPost2010Prop37
 90
       50
102
RTVSPost2010PropOp37
 70
     1
102
RTVSPost2010Prop38
140
0.0
102
RTVSPost2010PropOp38
 70
     1
102
RTVSPost2010Prop39
140
1.0
102
RTVSPost2010PropOp39
 70
     1
102
RTVSPost2010Prop40
 90
        0
102
RTVSPost2010PropOp40
 70
     1
102
RTVSPost2010Prop41ColorIndex
 90
       18
102
RTVSPost2010Prop41ColorRGB
 90
        0
102
RTVSPost2010PropOp41
 70
     1
102
RTVSPost2010Prop42
 90
       50
102
RTVSPost2010PropOp42
 70
     1
102
RTVSPost2010Prop43
 90
        3
102
RTVSPost2010PropOp43
 70
     1
102
RTVSPost2010Prop44ColorIndex
 90
        5
102
RTVSPost2010Prop44ColorRGB
 90
      255
102
RTVSPost2010PropOp44
 70
     1
102
RTVSPost2010Prop45
280
     0
102
RTVSPost2010PropOp45
 70
     1
102
RTVSPost2010Prop46
 90
       50
102
RTVSPost2010PropOp46
 70
     1
102
RTVSPost2010Prop47
 90
       50
102
RTVSPost2010PropOp47
 70
     1
102
RTVSPost2010Prop48
 90
       50
102
RTVSPost2010PropOp48
 70
     1
102
RTVSPost2010Prop49
280
     0
102
RTVSPost2010PropOp49
 70
     1
102
RTVSPost2010Prop50
 90
       50
102
RTVSPost2010PropOp50
 70
     1
102
RTVSPost2010Prop51ColorIndex
 90
      256
102
RTVSPost2010Prop51ColorRGB
 90
-16777216
102
RTVSPost2010PropOp51
 70
     0
102
RTVSPost2010Prop52
140
1.0
102
RTVSPost2010PropOp52
 70
     0
102
RTVSPost2010Prop53
 90
        2
102
RTVSPost2010PropOp53
 70
     1
102
RTVSPost2010Prop54
  1
strokes_ogs.tif
102
RTVSPost2010PropOp54
 70
     1
102
RTVSPost2010Prop55
280
     0
102
RTVSPost2010PropOp55
 70
     1
102
RTVSPost2010Prop56
140
1.0
102
RTVSPost2010PropOp56
 70
     1
102
RTVSPost2010Prop57
140
1.0
102
RTVSPost2010PropOp57
 70
     1
102
RTVSPropertyOp0
 70
     1
102
RTVSPropertyOp1
 70
     1
102
RTVSPropertyOp2
 70
     1
102
RTVSPropertyOp3
 70
     1
102
RTVSPropertyOp4
 70
     1
102
RTVSPropertyOp5
 70
     1
102
RTVSPropertyOp6
 70
     1
102
RTVSPropertyOp7
 70
     1
102
RTVSPropertyOp8
 70
     1
102
RTVSPropertyOp9
 70
     1
102
RTVSPropertyOp10
 70
     1
102
RTVSPropertyOp11
 70
     1
102
RTVSPropertyOp12
 70
     1
102
RTVSPropertyOp13
 70
     1
102
RTVSPropertyOp14
 70
     1
102
RTVSPropertyOp15
 70
     1
102
RTVSPropertyOp16
 70
     1
102
RTVSPropertyOp17
 70
     1
102
RTVSPropertyOp18
 70
     1
102
RTVSPropertyOp19
 70
     1
102
RTVSPropertyOp20
 70
     1
102
RTVSPropertyOp21
 70
     1
102
RTVSPropertyOp22
 70
     1
102
RTVSPropertyOp23
 70
     1
102
RTVSPropertyOp24
 70
     1
102
RTVSPropertyOp25
 70
     1
102
RTVSPropertyOp26
 70
     1
102
RTVSPropertyOp27
 70
     1
102
RTVSPropertyOp28
 70
     1
102
RTVSPropertyOp29
 70
     1
102
RTVSPropertyOp30
 70
     1
102
RTVSPropertyOp31
 70
     1
102
RTVSPropertyOp32
 70
     1
102
RTVSPropertyOp33
 70
     1
102
RTVSPropertyOp34
 70
     1
102
RTVSPropertyOp35
 70
     1
102
RTVSPropertyOp36
 70
     1
102
RTVSPropertyOp37
 70
     1
102
RTVSPropertyOp38
 70
     1
102
RTVSPropertyOp39
 70
     1
102
RTVSPropertyOp40
 70
     1
102
RTVSPropertyOp41
 70
     1
102
RTVSPropertyOp42
 70
     1
102
RTVSPropertyOp43
 70
     1
102
RTVSPropertyOp44
 70
     1
102
RTVSPropertyOp45
 70
     1
102
RTVSPropertyOp46
 70
     1
102
RTVSPropertyOp47
 70
     1
102
RTVSPropertyOp48
 70
     1
102
RTVSPropertyOp49
 70
     1
102
RTVSPropertyOp50
 70
     1
102
RTVSPropertyOp51
 70
     0
102
RTVSPropertyOp52
 70
     0
102
RTVSPropertyOp53
 70
     1
102
RTVSPropertyOp54
 70
     1
102
RTVSPropertyOp55
 70
     1
102
RTVSPropertyOp56
 70
     1
102
RTVSPropertyOp57
 70
     1
102
RTVSPropertyOp58
 70
     1
102
RTVSPropertyOp59
 70
     1
102
RTVSPropertyOp60
 70
     1
102
RTVSPropertyOp61
 70
     1
102
RTVSPropertyOp62
 70
     1
  0
XRECORD
  5
7E4
102
{ACAD_REACTORS
330
7E3
102
}
330
7E3
100
AcDbXrecord
280
     1
102
RTVSPost2010Prop28
280
     0
102
RTVSPost2010PropOp28
 70
     1
102
RTVSPost2010Prop29
280
     1
102
RTVSPost2010PropOp29
 70
     1
102
RTVSPost2010Prop30
280
     1
102
RTVSPost2010PropOp30
 70
     1
102
RTVSPost2010Prop31
280
     0
102
RTVSPost2010PropOp31
 70
     1
102
RTVSPost2010Prop32
280
     0
102
RTVSPost2010PropOp32
 70
     1
102
RTVSPost2010Prop33
280
     0
102
RTVSPost2010PropOp33
 70
     1
102
RTVSPost2010Prop34
280
     0
102
RTVSPost2010PropOp34
 70
     1
102
RTVSPost2010Prop35
280
     0
102
RTVSPost2010PropOp35
 70
     1
102
RTVSPost2010Prop36
280
     0
102
RTVSPost2010PropOp36
 70
     1
102
RTVSPost2010Prop37
 90
       50
102
RTVSPost2010PropOp37
 70
     1
102
RTVSPost2010Prop38
140
0.0
102
RTVSPost2010PropOp38
 70
     1
102
RTVSPost2010Prop39
140
1.0
102
RTVSPost2010PropOp39
 70
     1
102
RTVSPost2010Prop40
 90
        0
102
RTVSPost2010PropOp40
 70
     1
102
RTVSPost2010Prop41ColorIndex
 90
       18
102
RTVSPost2010Prop41ColorRGB
 90
        0
102
RTVSPost2010PropOp41
 70
     1
102
RTVSPost2010Prop42
 90
       50
102
RTVSPost2010PropOp42
 70
     1
102
RTVSPost2010Prop43
 90
        3
102
RTVSPost2010PropOp43
 70
     1
102
RTVSPost2010Prop44ColorIndex
 90
        5
102
RTVSPost2010Prop44ColorRGB
 90
      255
102
RTVSPost2010PropOp44
 70
     1
102
RTVSPost2010Prop45
280
     0
102
RTVSPost2010PropOp45
 70
     1
102
RTVSPost2010Prop46
 90
       50
102
RTVSPost2010PropOp46
 70
     1
102
RTVSPost2010Prop47
 90
       50
102
RTVSPost2010PropOp47
 70
     1
102
RTVSPost2010Prop48
 90
       50
102
RTVSPost2010PropOp48
 70
     1
102
RTVSPost2010Prop49
280
     0
102
RTVSPost2010PropOp49
 70
     1
102
RTVSPost2010Prop50
 90
       50
102
RTVSPost2010PropOp50
 70
     1
102
RTVSPost2010Prop51ColorIndex
 90
      256
102
RTVSPost2010Prop51ColorRGB
 90
-16777216
102
RTVSPost2010PropOp51
 70
     0
102
RTVSPost2010Prop52
140
1.0
102
RTVSPost2010PropOp52
 70
     0
102
RTVSPost2010Prop53
 90
        2
102
RTVSPost2010PropOp53
 70
     1
102
RTVSPost2010Prop54
  1
strokes_ogs.tif
102
RTVSPost2010PropOp54
 70
     1
102
RTVSPost2010Prop55
280
     0
102
RTVSPost2010PropOp55
 70
     1
102
RTVSPost2010Prop56
140
1.0
102
RTVSPost2010PropOp56
 70
     1
102
RTVSPost2010Prop57
140
1.0
102
RTVSPost2010PropOp57
 70
     1
102
RTVSPropertyOp0
 70
     1
102
RTVSPropertyOp1
 70
     1
102
RTVSPropertyOp2
 70
     1
102
RTVSPropertyOp3
 70
     1
102
RTVSPropertyOp4
 70
     1
102
RTVSPropertyOp5
 70
     1
102
RTVSPropertyOp6
 70
     1
102
RTVSPropertyOp7
 70
     1
102
RTVSPropertyOp8
 70
     1
102
RTVSPropertyOp9
 70
     1
102
RTVSPropertyOp10
 70
     1
102
RTVSPropertyOp11
 70
     1
102
RTVSPropertyOp12
 70
     1
102
RTVSPropertyOp13
 70
     1
102
RTVSPropertyOp14
 70
     1
102
RTVSPropertyOp15
 70
     1
102
RTVSPropertyOp16
 70
     1
102
RTVSPropertyOp17
 70
     1
102
RTVSPropertyOp18
 70
     1
102
RTVSPropertyOp19
 70
     1
102
RTVSPropertyOp20
 70
     1
102
RTVSPropertyOp21
 70
     1
102
RTVSPropertyOp22
 70
     1
102
RTVSPropertyOp23
 70
     1
102
RTVSPropertyOp24
 70
     1
102
RTVSPropertyOp25
 70
     1
102
RTVSPropertyOp26
 70
     1
102
RTVSPropertyOp27
 70
     1
102
RTVSPropertyOp28
 70
     1
102
RTVSPropertyOp29
 70
     1
102
RTVSPropertyOp30
 70
     1
102
RTVSPropertyOp31
 70
     1
102
RTVSPropertyOp32
 70
     1
102
RTVSPropertyOp33
 70
     1
102
RTVSPropertyOp34
 70
     1
102
RTVSPropertyOp35
 70
     1
102
RTVSPropertyOp36
 70
     1
102
RTVSPropertyOp37
 70
     1
102
RTVSPropertyOp38
 70
     1
102
RTVSPropertyOp39
 70
     1
102
RTVSPropertyOp40
 70
     1
102
RTVSPropertyOp41
 70
     1
102
RTVSPropertyOp42
 70
     1
102
RTVSPropertyOp43
 70
     1
102
RTVSPropertyOp44
 70
     1
102
RTVSPropertyOp45
 70
     1
102
RTVSPropertyOp46
 70
     1
102
RTVSPropertyOp47
 70
     1
102
RTVSPropertyOp48
 70
     1
102
RTVSPropertyOp49
 70
     1
102
RTVSPropertyOp50
 70
     1
102
RTVSPropertyOp51
 70
     0
102
RTVSPropertyOp52
 70
     0
102
RTVSPropertyOp53
 70
     1
102
RTVSPropertyOp54
 70
     1
102
RTVSPropertyOp55
 70
     1
102
RTVSPropertyOp56
 70
     1
102
RTVSPropertyOp57
 70
     1
102
RTVSPropertyOp58
 70
     1
102
RTVSPropertyOp59
 70
     1
102
RTVSPropertyOp60
 70
     1
102
RTVSPropertyOp61
 70
     1
102
RTVSPropertyOp62
 70
     1
  0
XRECORD
  5
7D4
102
{ACAD_REACTORS
330
7D3
102
}
330
7D3
100
AcDbXrecord
280
     1
102
RTVSPost2010Prop28
280
     0
102
RTVSPost2010PropOp28
 70
     1
102
RTVSPost2010Prop29
280
     1
102
RTVSPost2010PropOp29
 70
     1
102
RTVSPost2010Prop30
280
     1
102
RTVSPost2010PropOp30
 70
     1
102
RTVSPost2010Prop31
280
     0
102
RTVSPost2010PropOp31
 70
     1
102
RTVSPost2010Prop32
280
     0
102
RTVSPost2010PropOp32
 70
     1
102
RTVSPost2010Prop33
280
     0
102
RTVSPost2010PropOp33
 70
     1
102
RTVSPost2010Prop34
280
     0
102
RTVSPost2010PropOp34
 70
     1
102
RTVSPost2010Prop35
280
     0
102
RTVSPost2010PropOp35
 70
     1
102
RTVSPost2010Prop36
280
     0
102
RTVSPost2010PropOp36
 70
     1
102
RTVSPost2010Prop37
 90
       50
102
RTVSPost2010PropOp37
 70
     1
102
RTVSPost2010Prop38
140
0.0
102
RTVSPost2010PropOp38
 70
     1
102
RTVSPost2010Prop39
140
1.0
102
RTVSPost2010PropOp39
 70
     1
102
RTVSPost2010Prop40
 90
        0
102
RTVSPost2010PropOp40
 70
     1
102
RTVSPost2010Prop41ColorIndex
 90
       18
102
RTVSPost2010Prop41ColorRGB
 90
        0
102
RTVSPost2010PropOp41
 70
     1
102
RTVSPost2010Prop42
 90
       50
102
RTVSPost2010PropOp42
 70
     1
102
RTVSPost2010Prop43
 90
        3
102
RTVSPost2010PropOp43
 70
     1
102
RTVSPost2010Prop44ColorIndex
 90
        5
102
RTVSPost2010Prop44ColorRGB
 90
      255
102
RTVSPost2010PropOp44
 70
     1
102
RTVSPost2010Prop45
280
     0
102
RTVSPost2010PropOp45
 70
     1
102
RTVSPost2010Prop46
 90
       50
102
RTVSPost2010PropOp46
 70
     1
102
RTVSPost2010Prop47
 90
       50
102
RTVSPost2010PropOp47
 70
     1
102
RTVSPost2010Prop48
 90
       50
102
RTVSPost2010PropOp48
 70
     1
102
RTVSPost2010Prop49
280
     0
102
RTVSPost2010PropOp49
 70
     1
102
RTVSPost2010Prop50
 90
       50
102
RTVSPost2010PropOp50
 70
     1
102
RTVSPost2010Prop51ColorIndex
 90
      256
102
RTVSPost2010Prop51ColorRGB
 90
-16777216
102
RTVSPost2010PropOp51
 70
     0
102
RTVSPost2010Prop52
140
1.0
102
RTVSPost2010PropOp52
 70
     0
102
RTVSPost2010Prop53
 90
        2
102
RTVSPost2010PropOp53
 70
     1
102
RTVSPost2010Prop54
  1
strokes_ogs.tif
102
RTVSPost2010PropOp54
 70
     1
102
RTVSPost2010Prop55
280
     0
102
RTVSPost2010PropOp55
 70
     1
102
RTVSPost2010Prop56
140
1.0
102
RTVSPost2010PropOp56
 70
     1
102
RTVSPost2010Prop57
140
1.0
102
RTVSPost2010PropOp57
 70
     1
102
RTVSPropertyOp0
 70
     1
102
RTVSPropertyOp1
 70
     1
102
RTVSPropertyOp2
 70
     1
102
RTVSPropertyOp3
 70
     1
102
RTVSPropertyOp4
 70
     1
102
RTVSPropertyOp5
 70
     1
102
RTVSPropertyOp6
 70
     1
102
RTVSPropertyOp7
 70
     1
102
RTVSPropertyOp8
 70
     1
102
RTVSPropertyOp9
 70
     1
102
RTVSPropertyOp10
 70
     1
102
RTVSPropertyOp11
 70
     1
102
RTVSPropertyOp12
 70
     1
102
RTVSPropertyOp13
 70
     1
102
RTVSPropertyOp14
 70
     1
102
RTVSPropertyOp15
 70
     1
102
RTVSPropertyOp16
 70
     1
102
RTVSPropertyOp17
 70
     1
102
RTVSPropertyOp18
 70
     1
102
RTVSPropertyOp19
 70
     1
102
RTVSPropertyOp20
 70
     1
102
RTVSPropertyOp21
 70
     1
102
RTVSPropertyOp22
 70
     1
102
RTVSPropertyOp23
 70
     1
102
RTVSPropertyOp24
 70
     1
102
RTVSPropertyOp25
 70
     1
102
RTVSPropertyOp26
 70
     1
102
RTVSPropertyOp27
 70
     1
102
RTVSPropertyOp28
 70
     1
102
RTVSPropertyOp29
 70
     1
102
RTVSPropertyOp30
 70
     1
102
RTVSPropertyOp31
 70
     1
102
RTVSPropertyOp32
 70
     1
102
RTVSPropertyOp33
 70
     1
102
RTVSPropertyOp34
 70
     1
102
RTVSPropertyOp35
 70
     1
102
RTVSPropertyOp36
 70
     1
102
RTVSPropertyOp37
 70
     1
102
RTVSPropertyOp38
 70
     1
102
RTVSPropertyOp39
 70
     1
102
RTVSPropertyOp40
 70
     1
102
RTVSPropertyOp41
 70
     1
102
RTVSPropertyOp42
 70
     1
102
RTVSPropertyOp43
 70
     1
102
RTVSPropertyOp44
 70
     1
102
RTVSPropertyOp45
 70
     1
102
RTVSPropertyOp46
 70
     1
102
RTVSPropertyOp47
 70
     1
102
RTVSPropertyOp48
 70
     1
102
RTVSPropertyOp49
 70
     1
102
RTVSPropertyOp50
 70
     1
102
RTVSPropertyOp51
 70
     0
102
RTVSPropertyOp52
 70
     0
102
RTVSPropertyOp53
 70
     1
102
RTVSPropertyOp54
 70
     1
102
RTVSPropertyOp55
 70
     1
102
RTVSPropertyOp56
 70
     1
102
RTVSPropertyOp57
 70
     1
102
RTVSPropertyOp58
 70
     1
102
RTVSPropertyOp59
 70
     1
102
RTVSPropertyOp60
 70
     1
102
RTVSPropertyOp61
 70
     1
102
RTVSPropertyOp62
 70
     1
  0
XRECORD
  5
7C6
102
{ACAD_REACTORS
330
7C5
102
}
330
7C5
100
AcDbXrecord
280
     1
102
RTVSPost2010Prop28
280
     0
102
RTVSPost2010PropOp28
 70
     1
102
RTVSPost2010Prop29
280
     1
102
RTVSPost2010PropOp29
 70
     1
102
RTVSPost2010Prop30
280
     1
102
RTVSPost2010PropOp30
 70
     1
102
RTVSPost2010Prop31
280
     0
102
RTVSPost2010PropOp31
 70
     1
102
RTVSPost2010Prop32
280
     0
102
RTVSPost2010PropOp32
 70
     1
102
RTVSPost2010Prop33
280
     0
102
RTVSPost2010PropOp33
 70
     1
102
RTVSPost2010Prop34
280
     0
102
RTVSPost2010PropOp34
 70
     1
102
RTVSPost2010Prop35
280
     0
102
RTVSPost2010PropOp35
 70
     1
102
RTVSPost2010Prop36
280
     0
102
RTVSPost2010PropOp36
 70
     1
102
RTVSPost2010Prop37
 90
       50
102
RTVSPost2010PropOp37
 70
     1
102
RTVSPost2010Prop38
140
0.0
102
RTVSPost2010PropOp38
 70
     1
102
RTVSPost2010Prop39
140
1.0
102
RTVSPost2010PropOp39
 70
     1
102
RTVSPost2010Prop40
 90
        0
102
RTVSPost2010PropOp40
 70
     1
102
RTVSPost2010Prop41ColorIndex
 90
       18
102
RTVSPost2010Prop41ColorRGB
 90
        0
102
RTVSPost2010PropOp41
 70
     1
102
RTVSPost2010Prop42
 90
       50
102
RTVSPost2010PropOp42
 70
     1
102
RTVSPost2010Prop43
 90
        3
102
RTVSPost2010PropOp43
 70
     1
102
RTVSPost2010Prop44ColorIndex
 90
        5
102
RTVSPost2010Prop44ColorRGB
 90
      255
102
RTVSPost2010PropOp44
 70
     1
102
RTVSPost2010Prop45
280
     0
102
RTVSPost2010PropOp45
 70
     1
102
RTVSPost2010Prop46
 90
       50
102
RTVSPost2010PropOp46
 70
     1
102
RTVSPost2010Prop47
 90
       50
102
RTVSPost2010PropOp47
 70
     1
102
RTVSPost2010Prop48
 90
       50
102
RTVSPost2010PropOp48
 70
     1
102
RTVSPost2010Prop49
280
     0
102
RTVSPost2010PropOp49
 70
     1
102
RTVSPost2010Prop50
 90
       50
102
RTVSPost2010PropOp50
 70
     1
102
RTVSPost2010Prop51ColorIndex
 90
      256
102
RTVSPost2010Prop51ColorRGB
 90
-16777216
102
RTVSPost2010PropOp51
 70
     0
102
RTVSPost2010Prop52
140
1.0
102
RTVSPost2010PropOp52
 70
     0
102
RTVSPost2010Prop53
 90
        2
102
RTVSPost2010PropOp53
 70
     1
102
RTVSPost2010Prop54
  1
strokes_ogs.tif
102
RTVSPost2010PropOp54
 70
     1
102
RTVSPost2010Prop55
280
     0
102
RTVSPost2010PropOp55
 70
     1
102
RTVSPost2010Prop56
140
1.0
102
RTVSPost2010PropOp56
 70
     1
102
RTVSPost2010Prop57
140
1.0
102
RTVSPost2010PropOp57
 70
     1
102
RTVSPropertyOp0
 70
     1
102
RTVSPropertyOp1
 70
     1
102
RTVSPropertyOp2
 70
     1
102
RTVSPropertyOp3
 70
     1
102
RTVSPropertyOp4
 70
     1
102
RTVSPropertyOp5
 70
     1
102
RTVSPropertyOp6
 70
     1
102
RTVSPropertyOp7
 70
     1
102
RTVSPropertyOp8
 70
     1
102
RTVSPropertyOp9
 70
     1
102
RTVSPropertyOp10
 70
     1
102
RTVSPropertyOp11
 70
     1
102
RTVSPropertyOp12
 70
     1
102
RTVSPropertyOp13
 70
     1
102
RTVSPropertyOp14
 70
     1
102
RTVSPropertyOp15
 70
     1
102
RTVSPropertyOp16
 70
     1
102
RTVSPropertyOp17
 70
     1
102
RTVSPropertyOp18
 70
     1
102
RTVSPropertyOp19
 70
     1
102
RTVSPropertyOp20
 70
     1
102
RTVSPropertyOp21
 70
     1
102
RTVSPropertyOp22
 70
     1
102
RTVSPropertyOp23
 70
     1
102
RTVSPropertyOp24
 70
     1
102
RTVSPropertyOp25
 70
     1
102
RTVSPropertyOp26
 70
     1
102
RTVSPropertyOp27
 70
     1
102
RTVSPropertyOp28
 70
     1
102
RTVSPropertyOp29
 70
     1
102
RTVSPropertyOp30
 70
     1
102
RTVSPropertyOp31
 70
     1
102
RTVSPropertyOp32
 70
     1
102
RTVSPropertyOp33
 70
     1
102
RTVSPropertyOp34
 70
     1
102
RTVSPropertyOp35
 70
     1
102
RTVSPropertyOp36
 70
     1
102
RTVSPropertyOp37
 70
     1
102
RTVSPropertyOp38
 70
     1
102
RTVSPropertyOp39
 70
     1
102
RTVSPropertyOp40
 70
     1
102
RTVSPropertyOp41
 70
     1
102
RTVSPropertyOp42
 70
     1
102
RTVSPropertyOp43
 70
     1
102
RTVSPropertyOp44
 70
     1
102
RTVSPropertyOp45
 70
     1
102
RTVSPropertyOp46
 70
     1
102
RTVSPropertyOp47
 70
     1
102
RTVSPropertyOp48
 70
     1
102
RTVSPropertyOp49
 70
     1
102
RTVSPropertyOp50
 70
     1
102
RTVSPropertyOp51
 70
     0
102
RTVSPropertyOp52
 70
     0
102
RTVSPropertyOp53
 70
     1
102
RTVSPropertyOp54
 70
     1
102
RTVSPropertyOp55
 70
     1
102
RTVSPropertyOp56
 70
     1
102
RTVSPropertyOp57
 70
     1
102
RTVSPropertyOp58
 70
     1
102
RTVSPropertyOp59
 70
     1
102
RTVSPropertyOp60
 70
     1
102
RTVSPropertyOp61
 70
     1
102
RTVSPropertyOp62
 70
     1
  0
XRECORD
  5
7E6
102
{ACAD_REACTORS
330
7E5
102
}
330
7E5
100
AcDbXrecord
280
     1
102
RTVSPost2010Prop28
280
     0
102
RTVSPost2010PropOp28
 70
     1
102
RTVSPost2010Prop29
280
     1
102
RTVSPost2010PropOp29
 70
     1
102
RTVSPost2010Prop30
280
     1
102
RTVSPost2010PropOp30
 70
     1
102
RTVSPost2010Prop31
280
     0
102
RTVSPost2010PropOp31
 70
     1
102
RTVSPost2010Prop32
280
     0
102
RTVSPost2010PropOp32
 70
     1
102
RTVSPost2010Prop33
280
     0
102
RTVSPost2010PropOp33
 70
     1
102
RTVSPost2010Prop34
280
     0
102
RTVSPost2010PropOp34
 70
     1
102
RTVSPost2010Prop35
280
     0
102
RTVSPost2010PropOp35
 70
     1
102
RTVSPost2010Prop36
280
     0
102
RTVSPost2010PropOp36
 70
     1
102
RTVSPost2010Prop37
 90
       50
102
RTVSPost2010PropOp37
 70
     1
102
RTVSPost2010Prop38
140
0.0
102
RTVSPost2010PropOp38
 70
     1
102
RTVSPost2010Prop39
140
1.0
102
RTVSPost2010PropOp39
 70
     1
102
RTVSPost2010Prop40
 90
        0
102
RTVSPost2010PropOp40
 70
     1
102
RTVSPost2010Prop41ColorIndex
 90
       18
102
RTVSPost2010Prop41ColorRGB
 90
        0
102
RTVSPost2010PropOp41
 70
     1
102
RTVSPost2010Prop42
 90
       50
102
RTVSPost2010PropOp42
 70
     1
102
RTVSPost2010Prop43
 90
        3
102
RTVSPost2010PropOp43
 70
     1
102
RTVSPost2010Prop44ColorIndex
 90
        5
102
RTVSPost2010Prop44ColorRGB
 90
      255
102
RTVSPost2010PropOp44
 70
     1
102
RTVSPost2010Prop45
280
     0
102
RTVSPost2010PropOp45
 70
     1
102
RTVSPost2010Prop46
 90
       50
102
RTVSPost2010PropOp46
 70
     1
102
RTVSPost2010Prop47
 90
       50
102
RTVSPost2010PropOp47
 70
     1
102
RTVSPost2010Prop48
 90
       50
102
RTVSPost2010PropOp48
 70
     1
102
RTVSPost2010Prop49
280
     0
102
RTVSPost2010PropOp49
 70
     1
102
RTVSPost2010Prop50
 90
       50
102
RTVSPost2010PropOp50
 70
     1
102
RTVSPost2010Prop51ColorIndex
 90
      256
102
RTVSPost2010Prop51ColorRGB
 90
-16777216
102
RTVSPost2010PropOp51
 70
     0
102
RTVSPost2010Prop52
140
1.0
102
RTVSPost2010PropOp52
 70
     0
102
RTVSPost2010Prop53
 90
        2
102
RTVSPost2010PropOp53
 70
     1
102
RTVSPost2010Prop54
  1
strokes_ogs.tif
102
RTVSPost2010PropOp54
 70
     1
102
RTVSPost2010Prop55
280
     0
102
RTVSPost2010PropOp55
 70
     1
102
RTVSPost2010Prop56
140
1.0
102
RTVSPost2010PropOp56
 70
     1
102
RTVSPost2010Prop57
140
1.0
102
RTVSPost2010PropOp57
 70
     1
102
RTVSPropertyOp0
 70
     1
102
RTVSPropertyOp1
 70
     1
102
RTVSPropertyOp2
 70
     1
102
RTVSPropertyOp3
 70
     1
102
RTVSPropertyOp4
 70
     1
102
RTVSPropertyOp5
 70
     1
102
RTVSPropertyOp6
 70
     1
102
RTVSPropertyOp7
 70
     1
102
RTVSPropertyOp8
 70
     1
102
RTVSPropertyOp9
 70
     1
102
RTVSPropertyOp10
 70
     1
102
RTVSPropertyOp11
 70
     1
102
RTVSPropertyOp12
 70
     1
102
RTVSPropertyOp13
 70
     1
102
RTVSPropertyOp14
 70
     1
102
RTVSPropertyOp15
 70
     1
102
RTVSPropertyOp16
 70
     1
102
RTVSPropertyOp17
 70
     1
102
RTVSPropertyOp18
 70
     1
102
RTVSPropertyOp19
 70
     1
102
RTVSPropertyOp20
 70
     1
102
RTVSPropertyOp21
 70
     1
102
RTVSPropertyOp22
 70
     1
102
RTVSPropertyOp23
 70
     1
102
RTVSPropertyOp24
 70
     1
102
RTVSPropertyOp25
 70
     1
102
RTVSPropertyOp26
 70
     1
102
RTVSPropertyOp27
 70
     1
102
RTVSPropertyOp28
 70
     1
102
RTVSPropertyOp29
 70
     1
102
RTVSPropertyOp30
 70
     1
102
RTVSPropertyOp31
 70
     1
102
RTVSPropertyOp32
 70
     1
102
RTVSPropertyOp33
 70
     1
102
RTVSPropertyOp34
 70
     1
102
RTVSPropertyOp35
 70
     1
102
RTVSPropertyOp36
 70
     1
102
RTVSPropertyOp37
 70
     1
102
RTVSPropertyOp38
 70
     1
102
RTVSPropertyOp39
 70
     1
102
RTVSPropertyOp40
 70
     1
102
RTVSPropertyOp41
 70
     1
102
RTVSPropertyOp42
 70
     1
102
RTVSPropertyOp43
 70
     1
102
RTVSPropertyOp44
 70
     1
102
RTVSPropertyOp45
 70
     1
102
RTVSPropertyOp46
 70
     1
102
RTVSPropertyOp47
 70
     1
102
RTVSPropertyOp48
 70
     1
102
RTVSPropertyOp49
 70
     1
102
RTVSPropertyOp50
 70
     1
102
RTVSPropertyOp51
 70
     0
102
RTVSPropertyOp52
 70
     0
102
RTVSPropertyOp53
 70
     1
102
RTVSPropertyOp54
 70
     1
102
RTVSPropertyOp55
 70
     1
102
RTVSPropertyOp56
 70
     1
102
RTVSPropertyOp57
 70
     1
102
RTVSPropertyOp58
 70
     1
102
RTVSPropertyOp59
 70
     1
102
RTVSPropertyOp60
 70
     1
102
RTVSPropertyOp61
 70
     1
102
RTVSPropertyOp62
 70
     1
  0
ENDSEC
  0
EOF
