  0
SECTION
  2
HEADER
  9
$ACADVER
  1
AC1015
  9
$ACADMAINTVER
 70
    20
  9
$DWGCODEPAGE
  3
ANSI_932
  9
$INSBASE
 10
0.0
 20
0.0
 30
0.0
  9
$EXTMIN
 10
-188.36049691884
 20
-208.8019714765887
 30
0.0
  9
$EXTMAX
 10
1987.108511395899
 20
1630.618545883754
 30
0.0
  9
$LIMMIN
 10
-495.9438934326063
 20
-614.9048767089738
  9
$LIMMAX
 10
1148.160537719727
 20
799.8255310058486
  9
$ORTHOMODE
 70
     0
  9
$REGENMODE
 70
     1
  9
$FILLMODE
 70
     1
  9
$QTEXTMODE
 70
     0
  9
$MIRRTEXT
 70
     1
  9
$LTSCALE
 40
0.0917643990103654
  9
$ATTMODE
 70
     1
  9
$TEXTSIZE
 40
2.5
  9
$TRACEWID
 40
1.0
  9
$TEXTSTYLE
  7
Standard
  9
$CLAYER
  8
0
  9
$CELTYPE
  6
ByLayer
  9
$CECOLOR
 62
   256
  9
$CELTSCALE
 40
1.0
  9
$DISPSILH
 70
     0
  9
$DIMSCALE
 40
1.0
  9
$DIMASZ
 40
2.5
  9
$DIMEXO
 40
0.625
  9
$DIMDLI
 40
3.75
  9
$DIMRND
 40
0.0
  9
$DIMDLE
 40
0.0
  9
$DIMEXE
 40
1.25
  9
$DIMTP
 40
0.0
  9
$DIMTM
 40
0.0
  9
$DIMTXT
 40
2.5
  9
$DIMCEN
 40
2.5
  9
$DIMTSZ
 40
0.0
  9
$DIMTOL
 70
     0
  9
$DIMLIM
 70
     0
  9
$DIMTIH
 70
     0
  9
$DIMTOH
 70
     0
  9
$DIMSE1
 70
     0
  9
$DIMSE2
 70
     0
  9
$DIMTAD
 70
     1
  9
$DIMZIN
 70
     0
  9
$DIMBLK
  1

  9
$DIMASO
 70
     1
  9
$DIMSHO
 70
     1
  9
$DIMPOST
  1

  9
$DIMAPOST
  1

  9
$DIMALT
 70
     0
  9
$DIMALTD
 70
     3
  9
$DIMALTF
 40
0.03937007874016
  9
$DIMLFAC
 40
1.0
  9
$DIMTOFL
 70
     1
  9
$DIMTVP
 40
0.0
  9
$DIMTIX
 70
     0
  9
$DIMSOXD
 70
     0
  9
$DIMSAH
 70
     0
  9
$DIMBLK1
  1

  9
$DIMBLK2
  1

  9
$DIMSTYLE
  2
Standard
  9
$DIMCLRD
 70
     0
  9
$DIMCLRE
 70
     0
  9
$DIMCLRT
 70
     0
  9
$DIMTFAC
 40
0.75
  9
$DIMGAP
 40
0.625
  9
$DIMJUST
 70
     0
  9
$DIMSD1
 70
     0
  9
$DIMSD2
 70
     0
  9
$DIMTOLJ
 70
     0
  9
$DIMTZIN
 70
     8
  9
$DIMALTZ
 70
     0
  9
$DIMALTTZ
 70
     0
  9
$DIMUPT
 70
     0
  9
$DIMDEC
 70
     2
  9
$DIMTDEC
 70
     2
  9
$DIMALTU
 70
     2
  9
$DIMALTTD
 70
     3
  9
$DIMTXSTY
  7
Standard
  9
$DIMAUNIT
 70
     0
  9
$DIMADEC
 70
     0
  9
$DIMALTRND
 40
0.0
  9
$DIMAZIN
 70
     0
  9
$DIMDSEP
 70
    46
  9
$DIMATFIT
 70
     3
  9
$DIMFRAC
 70
     0
  9
$DIMLDRBLK
  1

  9
$DIMLUNIT
 70
     2
  9
$DIMLWD
 70
    -2
  9
$DIMLWE
 70
    -2
  9
$DIMTMOVE
 70
     0
  9
$LUNITS
 70
     2
  9
$LUPREC
 70
     4
  9
$SKETCHINC
 40
1.0
  9
$FILLETRAD
 40
0.0
  9
$AUNITS
 70
     0
  9
$AUPREC
 70
     0
  9
$MENU
  1
.
  9
$ELEVATION
 40
0.0
  9
$PELEVATION
 40
0.0
  9
$THICKNESS
 40
0.0
  9
$LIMCHECK
 70
     0
  9
$CHAMFERA
 40
10.0
  9
$CHAMFERB
 40
10.0
  9
$CHAMFERC
 40
20.0
  9
$CHAMFERD
 40
0.0
  9
$SKPOLY
 70
     0
  9
$TDCREATE
 40
2455188.750000000
  9
$TDUCREATE
 40
2455188.375000000
  9
$TDUPDATE
 40
2459753.625873877
  9
$TDUUPDATE
 40
2459753.250873877
  9
$TDINDWG
 40
0.0078678819
  9
$TDUSRTIMER
 40
0.0078676736
  9
$USRTIMER
 70
     1
  9
$ANGBASE
 50
0.0
  9
$ANGDIR
 70
     0
  9
$PDMODE
 70
     0
  9
$PDSIZE
 40
0.0
  9
$PLINEWID
 40
0.0
  9
$SPLFRAME
 70
     0
  9
$SPLINETYPE
 70
     6
  9
$SPLINESEGS
 70
     8
  9
$HANDSEED
  5
715
  9
$SURFTAB1
 70
     6
  9
$SURFTAB2
 70
     6
  9
$SURFTYPE
 70
     6
  9
$SURFU
 70
     6
  9
$SURFV
 70
     6
  9
$UCSBASE
  2

  9
$UCSNAME
  2

  9
$UCSORG
 10
0.0
 20
0.0
 30
0.0
  9
$UCSXDIR
 10
1.0
 20
0.0
 30
0.0
  9
$UCSYDIR
 10
0.0
 20
1.0
 30
0.0
  9
$UCSORTHOREF
  2

  9
$UCSORTHOVIEW
 70
     0
  9
$UCSORGTOP
 10
0.0
 20
0.0
 30
0.0
  9
$UCSORGBOTTOM
 10
0.0
 20
0.0
 30
0.0
  9
$UCSORGLEFT
 10
0.0
 20
0.0
 30
0.0
  9
$UCSORGRIGHT
 10
0.0
 20
0.0
 30
0.0
  9
$UCSORGFRONT
 10
0.0
 20
0.0
 30
0.0
  9
$UCSORGBACK
 10
0.0
 20
0.0
 30
0.0
  9
$PUCSBASE
  2

  9
$PUCSNAME
  2

  9
$PUCSORG
 10
0.0
 20
0.0
 30
0.0
  9
$PUCSXDIR
 10
1.0
 20
0.0
 30
0.0
  9
$PUCSYDIR
 10
0.0
 20
1.0
 30
0.0
  9
$PUCSORTHOREF
  2

  9
$PUCSORTHOVIEW
 70
     0
  9
$PUCSORGTOP
 10
0.0
 20
0.0
 30
0.0
  9
$PUCSORGBOTTOM
 10
0.0
 20
0.0
 30
0.0
  9
$PUCSORGLEFT
 10
0.0
 20
0.0
 30
0.0
  9
$PUCSORGRIGHT
 10
0.0
 20
0.0
 30
0.0
  9
$PUCSORGFRONT
 10
0.0
 20
0.0
 30
0.0
  9
$PUCSORGBACK
 10
0.0
 20
0.0
 30
0.0
  9
$USERI1
 70
     0
  9
$USERI2
 70
     0
  9
$USERI3
 70
     0
  9
$USERI4
 70
     0
  9
$USERI5
 70
     0
  9
$USERR1
 40
0.0
  9
$USERR2
 40
0.0
  9
$USERR3
 40
0.0
  9
$USERR4
 40
0.0
  9
$USERR5
 40
0.0
  9
$WORLDVIEW
 70
     1
  9
$SHADEDGE
 70
     3
  9
$SHADEDIF
 70
    70
  9
$TILEMODE
 70
     1
  9
$MAXACTVP
 70
    64
  9
$PINSBASE
 10
0.0
 20
0.0
 30
0.0
  9
$PLIMCHECK
 70
     0
  9
$PEXTMIN
 10
1.000000000000000E+20
 20
1.000000000000000E+20
 30
1.000000000000000E+20
  9
$PEXTMAX
 10
-1.000000000000000E+20
 20
-1.000000000000000E+20
 30
-1.000000000000000E+20
  9
$PLIMMIN
 10
0.0
 20
0.0
  9
$PLIMMAX
 10
420.0
 20
297.0
  9
$UNITMODE
 70
     0
  9
$VISRETAIN
 70
     1
  9
$PLINEGEN
 70
     0
  9
$PSLTSCALE
 70
     1
  9
$TREEDEPTH
 70
  3020
  9
$CMLSTYLE
  2
Standard
  9
$CMLJUST
 70
     0
  9
$CMLSCALE
 40
20.0
  9
$PROXYGRAPHICS
 70
     1
  9
$MEASUREMENT
 70
     1
  9
$CELWEIGHT
370
    -1
  9
$ENDCAPS
280
     0
  9
$JOINSTYLE
280
     0
  9
$LWDISPLAY
290
     0
  9
$INSUNITS
 70
     4
  9
$HYPERLINKBASE
  1

  9
$STYLESHEET
  1

  9
$XEDIT
290
     1
  9
$CEPSNTYPE
380
     0
  9
$PSTYLEMODE
290
     1
  9
$FINGERPRINTGUID
  2
{BEDCA76D-0EC2-4115-A07D-B294E192B092}
  9
$VERSIONGUID
  2
{5A370E44-45C9-4CB3-B0DA-B9F6A75CFE3C}
  9
$EXTNAMES
290
     1
  9
$PSVPSCALE
 40
0.0
  9
$OLESTARTUP
290
     0
  0
ENDSEC
  0
SECTION
  2
CLASSES
  0
CLASS
  1
ACDBDICTIONARYWDFLT
  2
AcDbDictionaryWithDefault
  3
ObjectDBX Classes
 90
        0
280
     0
281
     0
  0
CLASS
  1
VISUALSTYLE
  2
AcDbVisualStyle
  3
ObjectDBX Classes
 90
     4095
280
     0
281
     0
  0
CLASS
  1
MATERIAL
  2
AcDbMaterial
  3
ObjectDBX Classes
 90
     1153
280
     0
281
     0
  0
CLASS
  1
SCALE
  2
AcDbScale
  3
ObjectDBX Classes
 90
     1153
280
     0
281
     0
  0
CLASS
  1
TABLESTYLE
  2
AcDbTableStyle
  3
ObjectDBX Classes
 90
     4095
280
     0
281
     0
  0
CLASS
  1
MLEADERSTYLE
  2
AcDbMLeaderStyle
  3
ACDB_MLEADERSTYLE_CLASS
 90
     4095
280
     0
281
     0
  0
CLASS
  1
SUN
  2
AcDbSun
  3
SCENEOE
 90
    33921
280
     0
281
     0
  0
CLASS
  1
DICTIONARYVAR
  2
AcDbDictionaryVar
  3
ObjectDBX Classes
 90
        0
280
     0
281
     0
  0
CLASS
  1
ACDBSECTIONVIEWSTYLE
  2
AcDbSectionViewStyle
  3
ObjectDBX Classes
 90
     1025
280
     0
281
     0
  0
CLASS
  1
ACDBDETAILVIEWSTYLE
  2
AcDbDetailViewStyle
  3
ObjectDBX Classes
 90
     1025
280
     0
281
     0
  0
CLASS
  1
SORTENTSTABLE
  2
AcDbSortentsTable
  3
ObjectDBX Classes
 90
        0
280
     0
281
     0
  0
CLASS
  1
CELLSTYLEMAP
  2
AcDbCellStyleMap
  3
ObjectDBX Classes
 90
     1152
280
     0
281
     0
  0
CLASS
  1
ACDBPLACEHOLDER
  2
AcDbPlaceHolder
  3
ObjectDBX Classes
 90
        0
280
     0
281
     0
  0
CLASS
  1
LAYOUT
  2
AcDbLayout
  3
ObjectDBX Classes
 90
        0
280
     0
281
     0
  0
ENDSEC
  0
SECTION
  2
TABLES
  0
TABLE
  2
VPORT
  5
8
330
0
100
AcDbSymbolTable
 70
     1
  0
VPORT
  5
29
330
8
100
AcDbSymbolTableRecord
100
AcDbViewportTableRecord
  2
*Active
 70
     0
 10
0.0
 20
0.0
 11
1.0
 21
1.0
 12
1069.85730064352
 22
248.3974739838493
 13
0.0
 23
0.0
 14
10.0
 24
10.0
 15
10.0
 25
10.0
 16
0.0
 26
0.0
 36
1.0
 17
0.0
 27
0.0
 37
0.0
 40
2330.708099617208
 41
2.094640820980615
 42
50.0
 43
0.0
 44
0.0
 50
0.0
 51
0.0
 71
     0
 72
 20000
 73
     1
 74
     3
 75
     0
 76
     0
 77
     0
 78
     0
281
     0
 65
     1
110
0.0
120
0.0
130
0.0
111
1.0
121
0.0
131
0.0
112
0.0
122
1.0
132
0.0
 79
     0
146
0.0
1001
ACAD_NAV_VCDISPLAY
1070
     3
  0
ENDTAB
  0
TABLE
  2
LTYPE
  5
5
330
0
100
AcDbSymbolTable
 70
     2
  0
LTYPE
  5
14
330
5
100
AcDbSymbolTableRecord
100
AcDbLinetypeTableRecord
  2
ByBlock
 70
     0
  3

 72
    65
 73
     0
 40
0.0
  0
LTYPE
  5
15
330
5
100
AcDbSymbolTableRecord
100
AcDbLinetypeTableRecord
  2
ByLayer
 70
     0
  3

 72
    65
 73
     0
 40
0.0
  0
LTYPE
  5
16
330
5
100
AcDbSymbolTableRecord
100
AcDbLinetypeTableRecord
  2
Continuous
 70
     0
  3
Solid line
 72
    65
 73
     0
 40
0.0
  0
LTYPE
  5
2EC
330
5
100
AcDbSymbolTableRecord
100
AcDbLinetypeTableRecord
  2
CENTER2
 70
     0
  3
Center (.5x) ___ _ ___ _ ___ _ ___ _ ___ _ ___
 72
    65
 73
     4
 40
28.575
 49
19.05
 74
     0
 49
-3.174999999999998
 74
     0
 49
3.174999999999998
 74
     0
 49
-3.174999999999998
 74
     0
  0
ENDTAB
  0
TABLE
  2
LAYER
  5
2
102
{ACAD_XDICTIONARY
360
2F2
102
}
330
0
100
AcDbSymbolTable
 70
     4
  0
LAYER
  5
10
102
{ACAD_XDICTIONARY
360
677
102
}
330
2
100
AcDbSymbolTableRecord
100
AcDbLayerTableRecord
  2
0
 70
     0
 62
     7
  6
Continuous
370
    -3
390
F
  0
LAYER
  5
66
330
2
100
AcDbSymbolTableRecord
100
AcDbLayerTableRecord
  2
Defpoints
 70
     0
 62
     7
  6
Continuous
290
     0
370
    -3
390
F
  0
LAYER
  5
2ED
102
{ACAD_XDICTIONARY
360
2EE
102
}
330
2
100
AcDbSymbolTableRecord
100
AcDbLayerTableRecord
  2
中心線
 70
     0
 62
     3
  6
CENTER2
370
    -3
390
F
  0
LAYER
  5
2EF
102
{ACAD_XDICTIONARY
360
2F0
102
}
330
2
100
AcDbSymbolTableRecord
100
AcDbLayerTableRecord
  2
実線
 70
     0
 62
     7
  6
Continuous
370
    -3
390
F
  0
ENDTAB
  0
TABLE
  2
STYLE
  5
3
330
0
100
AcDbSymbolTable
 70
     1
  0
STYLE
  5
11
330
3
100
AcDbSymbolTableRecord
100
AcDbTextStyleTableRecord
  2
Standard
 70
     0
 40
0.0
 41
1.0
 50
0.0
 71
     0
 42
2.5
  3
txt
  4
extfont2
  0
ENDTAB
  0
TABLE
  2
VIEW
  5
6
330
0
100
AcDbSymbolTable
 70
     0
  0
ENDTAB
  0
TABLE
  2
UCS
  5
7
330
0
100
AcDbSymbolTable
 70
     0
  0
ENDTAB
  0
TABLE
  2
APPID
  5
9
330
0
100
AcDbSymbolTable
 70
     4
  0
APPID
  5
12
330
9
100
AcDbSymbolTableRecord
100
AcDbRegAppTableRecord
  2
ACAD
 70
     0
  0
APPID
  5
2DC
330
9
100
AcDbSymbolTableRecord
100
AcDbRegAppTableRecord
  2
ACAD_MLEADERVER
 70
     0
  0
APPID
  5
2F1
330
9
100
AcDbSymbolTableRecord
100
AcDbRegAppTableRecord
  2
ACAD_NAV_VCDISPLAY
 70
     0
  0
APPID
  5
6C5
330
9
100
AcDbSymbolTableRecord
100
AcDbRegAppTableRecord
  2
ACAD_DSTYLE_DIMRADIAL_EXTENSION
 70
     0
  0
ENDTAB
  0
TABLE
  2
DIMSTYLE
  5
A
330
0
100
AcDbSymbolTable
 70
     1
100
AcDbDimStyleTable
 71
     1
340
27
  0
DIMSTYLE
105
27
330
A
100
AcDbSymbolTableRecord
100
AcDbDimStyleTableRecord
  2
Standard
 70
     0
 41
2.5
 42
0.625
 43
3.75
 44
1.25
 73
     0
 74
     0
 77
     1
140
2.5
141
2.5
143
0.03937007874016
146
0.75
147
0.625
171
     3
172
     1
271
     2
272
     2
274
     3
283
     0
284
     8
340
11
  0
ENDTAB
  0
TABLE
  2
BLOCK_RECORD
  5
1
330
0
100
AcDbSymbolTable
 70
     1
  0
BLOCK_RECORD
  5
1F
102
{ACAD_XDICTIONARY
360
492
102
}
330
1
100
AcDbSymbolTableRecord
100
AcDbBlockTableRecord
  2
*Model_Space
340
22
  0
BLOCK_RECORD
  5
1B
330
1
100
AcDbSymbolTableRecord
100
AcDbBlockTableRecord
  2
*Paper_Space
340
1E
  0
BLOCK_RECORD
  5
23
330
1
100
AcDbSymbolTableRecord
100
AcDbBlockTableRecord
  2
*Paper_Space0
340
2E6
  0
ENDTAB
  0
ENDSEC
  0
SECTION
  2
BLOCKS
  0
BLOCK
  5
20
330
1F
100
AcDbEntity
  8
0
100
AcDbBlockBegin
  2
*Model_Space
 70
     0
 10
0.0
 20
0.0
 30
0.0
  3
*Model_Space
  1

  0
ENDBLK
  5
21
330
1F
100
AcDbEntity
  8
0
100
AcDbBlockEnd
  0
BLOCK
  5
1C
330
1B
100
AcDbEntity
 67
     1
  8
0
100
AcDbBlockBegin
  2
*Paper_Space
 70
     0
 10
0.0
 20
0.0
 30
0.0
  3
*Paper_Space
  1

  0
ENDBLK
  5
1D
330
1B
100
AcDbEntity
 67
     1
  8
0
100
AcDbBlockEnd
  0
BLOCK
  5
24
330
23
100
AcDbEntity
 67
     1
  8
0
100
AcDbBlockBegin
  2
*Paper_Space0
 70
     0
 10
0.0
 20
0.0
 30
0.0
  3
*Paper_Space0
  1

  0
ENDBLK
  5
25
330
23
100
AcDbEntity
 67
     1
  8
0
100
AcDbBlockEnd
  0
ENDSEC
  0
SECTION
  2
ENTITIES
  0
CIRCLE
  5
448
102
{ACAD_REACTORS
330
673
102
}
330
1F
100
AcDbEntity
  8
実線
100
AcDbCircle
 10
441.9722088848565
 20
915.2662965965445
 30
0.0
 40
7.5
  0
ARC
  5
449
102
{ACAD_REACTORS
330
673
102
}
330
1F
100
AcDbEntity
  8
実線
100
AcDbCircle
 10
391.1925197070176
 20
963.4474460950995
 30
0.0
 40
9.999999999999996
100
AcDbArc
 50
136.5041419820548
 51
214.9999999999974
  0
ARC
  5
44A
102
{ACAD_REACTORS
330
673
102
}
330
1F
100
AcDbEntity
  8
実線
100
AcDbCircle
 10
441.9722088848561
 20
915.2662965965445
 30
0.0
 40
79.9999999999998
100
AcDbArc
 50
133.4958580179451
 51
136.5041419820548
  0
ARC
  5
44B
102
{ACAD_REACTORS
330
673
102
}
330
1F
100
AcDbEntity
  8
実線
100
AcDbCircle
 10
393.7910593863019
 20
966.0459857743838
 30
0.0
 40
10.00000000000002
100
AcDbArc
 50
55.00000000000264
 51
133.4958580179451
  0
LINE
  5
44C
102
{ACAD_REACTORS
330
673
102
}
330
1F
100
AcDbEntity
  8
実線
100
AcDbLine
 10
399.5268237498123
 20
974.2375062172737
 30
0.0
 11
399.6641121846287
 21
974.1413758203057
 31
0.0
  0
LINE
  5
44D
102
{ACAD_REACTORS
330
673
102
}
330
1F
100
AcDbEntity
  8
実線
100
AcDbLine
 10
484.2803055850842
 20
974.1413758203057
 30
0.0
 11
484.4175940199007
 21
974.2375062172737
 31
0.0
  0
LINE
  5
44E
102
{ACAD_REACTORS
330
673
102
}
330
1F
100
AcDbEntity
  8
実線
100
AcDbLine
 10
383.0971296610952
 20
957.5743932967725
 30
0.0
 11
383.0009992641277
 21
957.7116817315886
 31
0.0
  0
ARC
  5
44F
102
{ACAD_REACTORS
330
673
102
}
330
1F
100
AcDbEntity
  8
実線
100
AcDbCircle
 10
492.7518980626951
 20
867.0851470979906
 30
0.0
 40
10.0
100
AcDbArc
 50
316.5041419820549
 51
34.99999999999737
  0
ARC
  5
450
102
{ACAD_REACTORS
330
673
102
}
330
1F
100
AcDbEntity
  8
実線
100
AcDbCircle
 10
441.9722088848559
 20
915.2662965965346
 30
0.0
 40
79.99999999999343
100
AcDbArc
 50
313.4958580179451
 51
316.5041419820641
  0
ARC
  5
451
102
{ACAD_REACTORS
330
673
102
}
330
1F
100
AcDbEntity
  8
実線
100
AcDbCircle
 10
490.1533583834111
 20
864.4866074187055
 30
0.0
 40
10.00000000000038
100
AcDbArc
 50
235.0000000000026
 51
313.4958580179451
  0
LINE
  5
452
102
{ACAD_REACTORS
330
673
102
}
330
1F
100
AcDbEntity
  8
実線
100
AcDbLine
 10
484.4175940199007
 20
856.2950869758156
 30
0.0
 11
484.2803055850842
 21
856.3912173727835
 31
0.0
  0
LINE
  5
453
102
{ACAD_REACTORS
330
673
102
}
330
1F
100
AcDbEntity
  8
実線
100
AcDbLine
 10
399.6641121846287
 20
856.3912173727835
 30
0.0
 11
399.5268237498123
 21
856.2950869758156
 31
0.0
  0
ARC
  5
454
102
{ACAD_REACTORS
330
673
102
}
330
1F
100
AcDbEntity
  8
実線
100
AcDbCircle
 10
393.7910593863019
 20
864.4866074187055
 30
0.0
 40
9.999999999999982
100
AcDbArc
 50
226.5041419820549
 51
304.9999999999974
  0
ARC
  5
455
102
{ACAD_REACTORS
330
673
102
}
330
1F
100
AcDbEntity
  8
実線
100
AcDbCircle
 10
441.9722088848565
 20
915.2662965965346
 30
0.0
 40
79.99999999999268
100
AcDbArc
 50
223.4958580179359
 51
226.5041419820549
  0
ARC
  5
456
102
{ACAD_REACTORS
330
673
102
}
330
1F
100
AcDbEntity
  8
実線
100
AcDbCircle
 10
492.7518980626951
 20
963.4474460950995
 30
0.0
 40
9.999999999999976
100
AcDbArc
 50
325.0000000000026
 51
43.49585801794513
  0
ARC
  5
457
102
{ACAD_REACTORS
330
673
102
}
330
1F
100
AcDbEntity
  8
実線
100
AcDbCircle
 10
391.1925197070176
 20
867.0851470979906
 30
0.0
 40
9.999999999999591
100
AcDbArc
 50
145.0000000000026
 51
223.4958580179451
  0
LINE
  5
458
102
{ACAD_REACTORS
330
673
102
}
330
1F
100
AcDbEntity
  8
実線
100
AcDbLine
 10
500.8472881086178
 20
872.9581998963167
 30
0.0
 11
500.9434185055853
 21
872.8209114615006
 31
0.0
  0
ARC
  5
459
102
{ACAD_REACTORS
330
673
102
}
330
1F
100
AcDbEntity
  8
実線
100
AcDbCircle
 10
490.153358383411
 20
966.0459857743838
 30
0.0
 40
9.999999999999991
100
AcDbArc
 50
46.50414198205487
 51
124.9999999999974
  0
ARC
  5
45A
102
{ACAD_REACTORS
330
673
102
}
330
1F
100
AcDbEntity
  8
実線
100
AcDbCircle
 10
441.9722088848565
 20
915.2662965965445
 30
0.0
 40
79.99999999999984
100
AcDbArc
 50
43.49585801794513
 51
46.50414198205487
  0
LINE
  5
45B
102
{ACAD_REACTORS
330
673
102
}
330
1F
100
AcDbEntity
  8
実線
100
AcDbLine
 10
500.9434185055853
 20
957.7116817315886
 30
0.0
 11
500.8472881086178
 21
957.5743932967725
 31
0.0
  0
LINE
  5
45C
102
{ACAD_REACTORS
330
673
102
}
330
1F
100
AcDbEntity
  8
実線
100
AcDbLine
 10
383.000999264128
 20
872.8209114615006
 30
0.0
 11
383.0971296610956
 21
872.9581998963167
 31
0.0
  0
LINE
  5
45D
102
{ACAD_REACTORS
330
673
102
}
330
1F
100
AcDbEntity
  8
実線
100
AcDbLine
 10
343.5722088848573
 20
883.5162965965546
 30
0.0
 11
376.7940875556817
 21
883.5162965965546
 31
0.0
  0
LINE
  5
45E
102
{ACAD_REACTORS
330
673
102
}
330
1F
100
AcDbEntity
  8
実線
100
AcDbLine
 10
376.7940875556916
 20
947.0162965965545
 30
0.0
 11
343.5722088848573
 21
947.0162965965545
 31
0.0
  0
LINE
  5
45F
102
{ACAD_REACTORS
330
673
102
}
330
1F
100
AcDbEntity
  8
実線
100
AcDbLine
 10
343.5722088848573
 20
947.0162965965545
 30
0.0
 11
340.4722088848573
 21
954.0162965965546
 31
0.0
  0
LINE
  5
460
102
{ACAD_REACTORS
330
673
102
}
330
1F
100
AcDbEntity
  8
実線
100
AcDbLine
 10
340.4722088848573
 20
876.5162965965545
 30
0.0
 11
343.5722088848573
 21
883.5162965965546
 31
0.0
  0
LINE
  5
461
102
{ACAD_REACTORS
330
673
102
}
330
1F
100
AcDbEntity
  8
実線
100
AcDbLine
 10
343.5722088848573
 20
947.0162965965545
 30
0.0
 11
343.5722088848573
 21
883.5162965965546
 31
0.0
  0
LINE
  5
462
102
{ACAD_REACTORS
330
673
102
}
330
1F
100
AcDbEntity
  8
実線
100
AcDbLine
 10
336.9722088848573
 20
876.5162965965545
 30
0.0
 11
340.4722088848573
 21
876.5162965965545
 31
0.0
  0
LINE
  5
463
102
{ACAD_REACTORS
330
673
102
}
330
1F
100
AcDbEntity
  8
実線
100
AcDbLine
 10
340.4722088848573
 20
954.0162965965546
 30
0.0
 11
336.9722088848573
 21
954.0162965965546
 31
0.0
  0
LINE
  5
464
102
{ACAD_REACTORS
330
673
102
}
330
1F
100
AcDbEntity
  8
実線
100
AcDbLine
 10
336.9722088848573
 20
954.0162965965546
 30
0.0
 11
336.9722088848573
 21
876.5162965965545
 31
0.0
  0
LINE
  5
465
102
{ACAD_REACTORS
330
673
102
}
330
1F
100
AcDbEntity
  8
実線
100
AcDbLine
 10
340.4722088848573
 20
954.0162965965546
 30
0.0
 11
340.4722088848573
 21
876.5162965965545
 31
0.0
  0
LINE
  5
466
102
{ACAD_REACTORS
330
673
102
}
330
1F
100
AcDbEntity
  8
実線
100
AcDbLine
 10
540.3722088848554
 20
947.0162965965347
 30
0.0
 11
507.1503302140314
 21
947.0162965965347
 31
0.0
  0
LINE
  5
467
102
{ACAD_REACTORS
330
673
102
}
330
1F
100
AcDbEntity
  8
実線
100
AcDbLine
 10
507.1503302140215
 20
883.5162965965347
 30
0.0
 11
540.3722088848554
 21
883.5162965965347
 31
0.0
  0
LINE
  5
468
102
{ACAD_REACTORS
330
673
102
}
330
1F
100
AcDbEntity
  8
実線
100
AcDbLine
 10
540.3722088848554
 20
883.5162965965347
 30
0.0
 11
543.4722088848555
 21
876.5162965965346
 31
0.0
  0
LINE
  5
469
102
{ACAD_REACTORS
330
673
102
}
330
1F
100
AcDbEntity
  8
実線
100
AcDbLine
 10
543.4722088848555
 20
954.0162965965347
 30
0.0
 11
540.3722088848554
 21
947.0162965965347
 31
0.0
  0
LINE
  5
46A
102
{ACAD_REACTORS
330
673
102
}
330
1F
100
AcDbEntity
  8
実線
100
AcDbLine
 10
540.3722088848554
 20
883.5162965965347
 30
0.0
 11
540.3722088848554
 21
947.0162965965347
 31
0.0
  0
LINE
  5
46B
102
{ACAD_REACTORS
330
673
102
}
330
1F
100
AcDbEntity
  8
実線
100
AcDbLine
 10
546.9722088848555
 20
954.0162965965347
 30
0.0
 11
543.4722088848555
 21
954.0162965965347
 31
0.0
  0
LINE
  5
46C
102
{ACAD_REACTORS
330
673
102
}
330
1F
100
AcDbEntity
  8
実線
100
AcDbLine
 10
543.4722088848555
 20
876.5162965965346
 30
0.0
 11
546.9722088848555
 21
876.5162965965346
 31
0.0
  0
LINE
  5
46D
102
{ACAD_REACTORS
330
673
102
}
330
1F
100
AcDbEntity
  8
実線
100
AcDbLine
 10
546.9722088848555
 20
876.5162965965346
 30
0.0
 11
546.9722088848555
 21
954.0162965965347
 31
0.0
  0
LINE
  5
46E
102
{ACAD_REACTORS
330
673
102
}
330
1F
100
AcDbEntity
  8
実線
100
AcDbLine
 10
543.4722088848555
 20
876.5162965965346
 30
0.0
 11
543.4722088848555
 21
954.0162965965347
 31
0.0
  0
CIRCLE
  5
46F
102
{ACAD_REACTORS
330
673
102
}
330
1F
100
AcDbEntity
  8
実線
100
AcDbCircle
 10
441.9722088848565
 20
915.2662965965445
 30
0.0
 40
46.0
  0
LINE
  5
470
102
{ACAD_REACTORS
330
673
102
}
330
1F
100
AcDbEntity
  8
実線
100
AcDbLine
 10
436.9722088848566
 20
902.1662965965447
 30
0.0
 11
461.9722088848566
 21
902.1662965965447
 31
0.0
  0
LINE
  5
471
102
{ACAD_REACTORS
330
673
102
}
330
1F
100
AcDbEntity
  8
実線
100
AcDbLine
 10
436.9722088848566
 20
902.1662965965447
 30
0.0
 11
436.9722088848566
 21
894.2662965965446
 31
0.0
  0
LINE
  5
472
102
{ACAD_REACTORS
330
673
102
}
330
1F
100
AcDbEntity
  8
実線
100
AcDbLine
 10
456.9722088848566
 20
894.2662965965446
 30
0.0
 11
461.9722088848566
 21
894.2662965965446
 31
0.0
  0
LINE
  5
473
102
{ACAD_REACTORS
330
673
102
}
330
1F
100
AcDbEntity
  8
実線
100
AcDbLine
 10
461.9722088848566
 20
894.2662965965446
 30
0.0
 11
461.9722088848566
 21
902.1662965965447
 31
0.0
  0
ARC
  5
474
102
{ACAD_REACTORS
330
673
102
}
330
1F
100
AcDbEntity
  8
実線
100
AcDbCircle
 10
441.9722088848565
 20
915.2662965965445
 30
0.0
 40
25.0
100
AcDbArc
 50
233.1301023541533
 51
293.0739180656353
  0
LINE
  5
475
102
{ACAD_REACTORS
330
673
102
}
330
1F
100
AcDbEntity
  8
実線
100
AcDbLine
 10
468.4722088848566
 20
896.7162965965446
 30
0.0
 11
468.4722088848566
 21
899.7162965965447
 31
0.0
  0
LINE
  5
476
102
{ACAD_REACTORS
330
673
102
}
330
1F
100
AcDbEntity
  8
実線
100
AcDbLine
 10
461.9722088848566
 20
896.7162965965446
 30
0.0
 11
468.4722088848566
 21
896.7162965965446
 31
0.0
  0
LINE
  5
477
102
{ACAD_REACTORS
330
673
102
}
330
1F
100
AcDbEntity
  8
実線
100
AcDbLine
 10
468.4722088848566
 20
899.7162965965447
 30
0.0
 11
461.9722088848566
 21
899.7162965965447
 31
0.0
  0
CIRCLE
  5
478
102
{ACAD_REACTORS
330
673
102
}
330
1F
100
AcDbEntity
  8
実線
100
AcDbCircle
 10
441.9722088848565
 20
915.2662965965445
 30
0.0
 40
12.5
  0
ARC
  5
479
102
{ACAD_REACTORS
330
673
102
}
330
1F
100
AcDbEntity
  8
実線
100
AcDbCircle
 10
441.9722088848565
 20
915.2662965965445
 30
0.0
 40
25.0
100
AcDbArc
 50
323.1301023541534
 51
233.1301023541533
  0
LINE
  5
47A
102
{ACAD_REACTORS
330
673
102
}
330
1F
100
AcDbEntity
  8
実線
100
AcDbLine
 10
426.9722088848566
 20
895.2662965965446
 30
0.0
 11
436.9722088848566
 21
895.2662965965446
 31
0.0
  0
LINE
  5
47B
102
{ACAD_REACTORS
330
673
102
}
330
1F
100
AcDbEntity
  8
実線
100
AcDbLine
 10
436.9722088848565
 20
894.2662965965446
 30
0.0
 11
456.9722088848566
 21
894.2662965965446
 31
0.0
  0
LINE
  5
47C
102
{ACAD_REACTORS
330
673
102
}
330
1F
100
AcDbEntity
  8
実線
100
AcDbLine
 10
456.9722088848566
 20
894.2662965965446
 30
0.0
 11
456.9722088848566
 21
892.2662965965447
 31
0.0
  0
LINE
  5
47D
102
{ACAD_REACTORS
330
673
102
}
330
1F
100
AcDbEntity
  8
実線
100
AcDbLine
 10
456.9722088848566
 20
892.2662965965447
 30
0.0
 11
436.9722088848565
 21
892.2662965965447
 31
0.0
  0
LINE
  5
47E
102
{ACAD_REACTORS
330
673
102
}
330
1F
100
AcDbEntity
  8
実線
100
AcDbLine
 10
436.9722088848565
 20
892.2662965965447
 30
0.0
 11
436.9722088848565
 21
894.2662965965446
 31
0.0
  0
CIRCLE
  5
47F
102
{ACAD_REACTORS
330
673
102
}
330
1F
100
AcDbEntity
  8
実線
100
AcDbCircle
 10
441.9722088848565
 20
915.2662965965445
 30
0.0
 40
72.5
  0
LINE
  5
480
102
{ACAD_REACTORS
330
673
102
}
330
1F
100
AcDbEntity
  8
実線
100
AcDbLine
 10
410.2222088848667
 20
850.0881752673695
 30
0.0
 11
410.2222088848667
 21
816.8662965965445
 31
0.0
  0
LINE
  5
481
102
{ACAD_REACTORS
330
673
102
}
330
1F
100
AcDbEntity
  8
実線
100
AcDbLine
 10
410.2222088848667
 20
1013.666296596544
 30
0.0
 11
410.2222088848667
 21
980.4444179257197
 31
0.0
  0
LINE
  5
482
102
{ACAD_REACTORS
330
673
102
}
330
1F
100
AcDbEntity
  8
実線
100
AcDbLine
 10
473.7222088848667
 20
980.4444179257098
 30
0.0
 11
473.7222088848667
 21
1013.666296596544
 31
0.0
  0
LINE
  5
483
102
{ACAD_REACTORS
330
673
102
}
330
1F
100
AcDbEntity
  8
実線
100
AcDbLine
 10
473.7222088848667
 20
816.8662965965445
 30
0.0
 11
473.7222088848667
 21
850.0881752673796
 31
0.0
  0
LINE
  5
484
102
{ACAD_REACTORS
330
673
102
}
330
1F
100
AcDbEntity
  8
実線
100
AcDbLine
 10
403.2222088848667
 20
1020.266296596544
 30
0.0
 11
403.2222088848667
 21
1016.766296596544
 31
0.0
  0
LINE
  5
485
102
{ACAD_REACTORS
330
673
102
}
330
1F
100
AcDbEntity
  8
実線
100
AcDbLine
 10
480.7222088848667
 20
1016.766296596544
 30
0.0
 11
480.7222088848667
 21
1020.266296596544
 31
0.0
  0
LINE
  5
486
102
{ACAD_REACTORS
330
673
102
}
330
1F
100
AcDbEntity
  8
実線
100
AcDbLine
 10
480.7222088848667
 20
1020.266296596544
 30
0.0
 11
403.2222088848667
 21
1020.266296596544
 31
0.0
  0
LINE
  5
487
102
{ACAD_REACTORS
330
673
102
}
330
1F
100
AcDbEntity
  8
実線
100
AcDbLine
 10
473.7222088848667
 20
1013.666296596544
 30
0.0
 11
480.7222088848667
 21
1016.766296596544
 31
0.0
  0
LINE
  5
488
102
{ACAD_REACTORS
330
673
102
}
330
1F
100
AcDbEntity
  8
実線
100
AcDbLine
 10
403.2222088848667
 20
1016.766296596544
 30
0.0
 11
410.2222088848667
 21
1013.666296596544
 31
0.0
  0
LINE
  5
489
102
{ACAD_REACTORS
330
673
102
}
330
1F
100
AcDbEntity
  8
実線
100
AcDbLine
 10
480.7222088848667
 20
1016.766296596544
 30
0.0
 11
403.2222088848667
 21
1016.766296596544
 31
0.0
  0
LINE
  5
48A
102
{ACAD_REACTORS
330
673
102
}
330
1F
100
AcDbEntity
  8
実線
100
AcDbLine
 10
473.7222088848667
 20
1013.666296596544
 30
0.0
 11
410.2222088848667
 21
1013.666296596544
 31
0.0
  0
LINE
  5
48B
102
{ACAD_REACTORS
330
673
102
}
330
1F
100
AcDbEntity
  8
実線
100
AcDbLine
 10
410.2222088848667
 20
816.8662965965445
 30
0.0
 11
403.2222088848667
 21
813.7662965965446
 31
0.0
  0
LINE
  5
48C
102
{ACAD_REACTORS
330
673
102
}
330
1F
100
AcDbEntity
  8
実線
100
AcDbLine
 10
480.7222088848667
 20
813.7662965965446
 30
0.0
 11
473.7222088848667
 21
816.8662965965445
 31
0.0
  0
LINE
  5
48D
102
{ACAD_REACTORS
330
673
102
}
330
1F
100
AcDbEntity
  8
実線
100
AcDbLine
 10
410.2222088848667
 20
816.8662965965445
 30
0.0
 11
473.7222088848667
 21
816.8662965965445
 31
0.0
  0
LINE
  5
48E
102
{ACAD_REACTORS
330
673
102
}
330
1F
100
AcDbEntity
  8
実線
100
AcDbLine
 10
480.7222088848667
 20
810.2662965965446
 30
0.0
 11
480.7222088848667
 21
813.7662965965446
 31
0.0
  0
LINE
  5
48F
102
{ACAD_REACTORS
330
673
102
}
330
1F
100
AcDbEntity
  8
実線
100
AcDbLine
 10
403.2222088848667
 20
813.7662965965446
 30
0.0
 11
403.2222088848667
 21
810.2662965965446
 31
0.0
  0
LINE
  5
490
102
{ACAD_REACTORS
330
673
102
}
330
1F
100
AcDbEntity
  8
実線
100
AcDbLine
 10
403.2222088848667
 20
810.2662965965446
 30
0.0
 11
480.7222088848667
 21
810.2662965965446
 31
0.0
  0
LINE
  5
491
102
{ACAD_REACTORS
330
673
102
}
330
1F
100
AcDbEntity
  8
実線
100
AcDbLine
 10
403.2222088848667
 20
813.7662965965446
 30
0.0
 11
480.7222088848667
 21
813.7662965965446
 31
0.0
  0
ARC
  5
494
102
{ACAD_REACTORS
330
676
102
}
330
1F
100
AcDbEntity
  8
実線
100
AcDbCircle
 10
441.9722088848559
 20
135.2662965965548
 30
0.0
 40
72.5
100
AcDbArc
 50
115.9719473351106
 51
125.7013224146263
  0
ARC
  5
495
102
{ACAD_REACTORS
330
676
102
}
330
1F
100
AcDbEntity
  8
実線
100
AcDbCircle
 10
441.9722088848559
 20
135.2662965965548
 30
0.0
 40
72.5
100
AcDbArc
 50
144.2986775853718
 51
154.0280526648894
  0
ARC
  5
496
102
{ACAD_REACTORS
330
676
102
}
330
1F
100
AcDbEntity
  8
実線
100
AcDbCircle
 10
441.9722088848559
 20
135.2662965965548
 30
0.0
 40
72.5
100
AcDbArc
 50
205.9719473351237
 51
215.7013224146282
  0
ARC
  5
497
102
{ACAD_REACTORS
330
676
102
}
330
1F
100
AcDbEntity
  8
実線
100
AcDbCircle
 10
441.9722088848559
 20
135.2662965965548
 30
0.0
 40
72.5
100
AcDbArc
 50
234.2986775853737
 51
244.0280526648894
  0
ARC
  5
498
102
{ACAD_REACTORS
330
676
102
}
330
1F
100
AcDbEntity
  8
実線
100
AcDbCircle
 10
441.9722088848559
 20
135.2662965965548
 30
0.0
 40
72.5
100
AcDbArc
 50
295.9719473351237
 51
305.7013224146262
  0
ARC
  5
499
102
{ACAD_REACTORS
330
676
102
}
330
1F
100
AcDbEntity
  8
実線
100
AcDbCircle
 10
441.9722088848559
 20
135.2662965965548
 30
0.0
 40
72.5
100
AcDbArc
 50
324.2986775853718
 51
334.0280526648909
  0
ARC
  5
49A
102
{ACAD_REACTORS
330
676
102
}
330
1F
100
AcDbEntity
  8
実線
100
AcDbCircle
 10
441.9722088848559
 20
135.2662965965548
 30
0.0
 40
72.5
100
AcDbArc
 50
25.97194733512513
 51
35.70132241462816
  0
ARC
  5
49B
102
{ACAD_REACTORS
330
676
102
}
330
1F
100
AcDbEntity
  8
実線
100
AcDbCircle
 10
441.9722088848559
 20
135.2662965965548
 30
0.0
 40
72.5
100
AcDbArc
 50
54.29867758537375
 51
64.02805266487487
  0
ARC
  5
49C
102
{ACAD_REACTORS
330
676
102
}
330
1F
100
AcDbEntity
  8
実線
100
AcDbCircle
 10
441.9722088848559
 20
135.2662965965548
 30
0.0
 40
67.5
100
AcDbArc
 50
118.0583407610216
 51
124.2081770830585
  0
ARC
  5
49D
102
{ACAD_REACTORS
330
676
102
}
330
1F
100
AcDbEntity
  8
実線
100
AcDbCircle
 10
441.9722088848559
 20
135.2662965965548
 30
0.0
 40
67.5
100
AcDbArc
 50
145.7918229169415
 51
151.9416592389783
  0
ARC
  5
49E
102
{ACAD_REACTORS
330
676
102
}
330
1F
100
AcDbEntity
  8
実線
100
AcDbCircle
 10
441.9722088848559
 20
135.2662965965548
 30
0.0
 40
67.5
100
AcDbArc
 50
208.058340761045
 51
214.2081770830585
  0
ARC
  5
49F
102
{ACAD_REACTORS
330
676
102
}
330
1F
100
AcDbEntity
  8
実線
100
AcDbCircle
 10
441.9722088848559
 20
135.2662965965548
 30
0.0
 40
67.5
100
AcDbArc
 50
235.7918229169415
 51
241.9416592389783
  0
ARC
  5
4A0
102
{ACAD_REACTORS
330
676
102
}
330
1F
100
AcDbEntity
  8
実線
100
AcDbCircle
 10
441.9722088848559
 20
135.2662965965548
 30
0.0
 40
67.5
100
AcDbArc
 50
298.0583407610362
 51
304.2081770830586
  0
ARC
  5
4A1
102
{ACAD_REACTORS
330
676
102
}
330
1F
100
AcDbEntity
  8
実線
100
AcDbCircle
 10
441.9722088848559
 20
135.2662965965548
 30
0.0
 40
67.5
100
AcDbArc
 50
325.7918229169415
 51
331.9416592389784
  0
ARC
  5
4A2
102
{ACAD_REACTORS
330
676
102
}
330
1F
100
AcDbEntity
  8
実線
100
AcDbCircle
 10
441.9722088848559
 20
135.2662965965548
 30
0.0
 40
67.5
100
AcDbArc
 50
28.058340761045
 51
34.20817708305852
  0
ARC
  5
4A3
102
{ACAD_REACTORS
330
676
102
}
330
1F
100
AcDbEntity
  8
実線
100
AcDbCircle
 10
441.9722088848559
 20
135.2662965965548
 30
0.0
 40
67.5
100
AcDbArc
 50
55.79182291694149
 51
61.94165923896381
  0
LINE
  5
4A4
102
{ACAD_REACTORS
330
676
102
}
330
1F
100
AcDbEntity
  8
実線
100
AcDbLine
 10
343.5722088848568
 20
103.5162965965447
 30
0.0
 11
397.0618815647402
 21
103.5162965965447
 31
0.0
  0
LINE
  5
4A5
102
{ACAD_REACTORS
330
676
102
}
330
1F
100
AcDbEntity
  8
実線
100
AcDbLine
 10
397.0618815647402
 20
167.0162965965447
 30
0.0
 11
343.5722088848568
 21
167.0162965965447
 31
0.0
  0
LINE
  5
4A6
102
{ACAD_REACTORS
330
676
102
}
330
1F
100
AcDbEntity
  8
実線
100
AcDbLine
 10
343.5722088848568
 20
103.5162965965447
 30
0.0
 11
343.5722088848568
 21
167.0162965965447
 31
0.0
  0
LINE
  5
4A7
102
{ACAD_REACTORS
330
676
102
}
330
1F
100
AcDbEntity
  8
実線
100
AcDbLine
 10
343.5722088848568
 20
167.0162965965447
 30
0.0
 11
340.4722088848568
 21
174.0162965965448
 31
0.0
  0
LINE
  5
4A8
102
{ACAD_REACTORS
330
676
102
}
330
1F
100
AcDbEntity
  8
実線
100
AcDbLine
 10
340.4722088848568
 20
96.51629659654474
 30
0.0
 11
343.5722088848568
 21
103.5162965965447
 31
0.0
  0
LINE
  5
4A9
102
{ACAD_REACTORS
330
676
102
}
330
1F
100
AcDbEntity
  8
実線
100
AcDbLine
 10
336.9722088848567
 20
96.51629659654474
 30
0.0
 11
336.9722088848567
 21
174.0162965965448
 31
0.0
  0
LINE
  5
4AA
102
{ACAD_REACTORS
330
676
102
}
330
1F
100
AcDbEntity
  8
実線
100
AcDbLine
 10
340.4722088848568
 20
96.51629659654474
 30
0.0
 11
340.4722088848568
 21
174.0162965965448
 31
0.0
  0
LINE
  5
4AB
102
{ACAD_REACTORS
330
676
102
}
330
1F
100
AcDbEntity
  8
実線
100
AcDbLine
 10
336.9722088848567
 20
96.51629659654474
 30
0.0
 11
340.4722088848568
 21
96.51629659654474
 31
0.0
  0
LINE
  5
4AC
102
{ACAD_REACTORS
330
676
102
}
330
1F
100
AcDbEntity
  8
実線
100
AcDbLine
 10
340.4722088848568
 20
174.0162965965448
 30
0.0
 11
336.9722088848567
 21
174.0162965965448
 31
0.0
  0
LINE
  5
4AD
102
{ACAD_REACTORS
330
676
102
}
330
1F
100
AcDbEntity
  8
実線
100
AcDbLine
 10
540.3722088848549
 20
167.0162965965651
 30
0.0
 11
486.8825362049589
 21
167.0162965965651
 31
0.0
  0
LINE
  5
4AE
102
{ACAD_REACTORS
330
676
102
}
330
1F
100
AcDbEntity
  8
実線
100
AcDbLine
 10
486.8825362049873
 20
103.5162965965651
 30
0.0
 11
540.3722088848549
 21
103.5162965965651
 31
0.0
  0
LINE
  5
4AF
102
{ACAD_REACTORS
330
676
102
}
330
1F
100
AcDbEntity
  8
実線
100
AcDbLine
 10
540.3722088848549
 20
167.0162965965651
 30
0.0
 11
540.3722088848549
 21
103.5162965965651
 31
0.0
  0
LINE
  5
4B0
102
{ACAD_REACTORS
330
676
102
}
330
1F
100
AcDbEntity
  8
実線
100
AcDbLine
 10
540.3722088848549
 20
103.5162965965651
 30
0.0
 11
543.4722088848549
 21
96.51629659656499
 31
0.0
  0
LINE
  5
4B1
102
{ACAD_REACTORS
330
676
102
}
330
1F
100
AcDbEntity
  8
実線
100
AcDbLine
 10
543.4722088848549
 20
174.0162965965651
 30
0.0
 11
540.3722088848549
 21
167.0162965965651
 31
0.0
  0
LINE
  5
4B2
102
{ACAD_REACTORS
330
676
102
}
330
1F
100
AcDbEntity
  8
実線
100
AcDbLine
 10
546.9722088848548
 20
174.0162965965651
 30
0.0
 11
546.9722088848548
 21
96.51629659656499
 31
0.0
  0
LINE
  5
4B3
102
{ACAD_REACTORS
330
676
102
}
330
1F
100
AcDbEntity
  8
実線
100
AcDbLine
 10
543.4722088848549
 20
174.0162965965651
 30
0.0
 11
543.4722088848549
 21
96.51629659656499
 31
0.0
  0
LINE
  5
4B4
102
{ACAD_REACTORS
330
676
102
}
330
1F
100
AcDbEntity
  8
実線
100
AcDbLine
 10
546.9722088848548
 20
174.0162965965651
 30
0.0
 11
543.4722088848549
 21
174.0162965965651
 31
0.0
  0
LINE
  5
4B5
102
{ACAD_REACTORS
330
676
102
}
330
1F
100
AcDbEntity
  8
実線
100
AcDbLine
 10
543.4722088848549
 20
96.51629659656499
 30
0.0
 11
546.9722088848548
 21
96.51629659656499
 31
0.0
  0
ARC
  5
4B6
102
{ACAD_REACTORS
330
676
102
}
330
1F
100
AcDbEntity
  8
実線
100
AcDbCircle
 10
396.7222088848662
 20
157.2662965965555
 30
0.0
 40
3.0
100
AcDbArc
 50
90.0
 51
180.0
  0
LINE
  5
4B7
102
{ACAD_REACTORS
330
676
102
}
330
1F
100
AcDbEntity
  8
実線
100
AcDbLine
 10
396.7222088848662
 20
160.2662965965555
 30
0.0
 11
410.7222088848661
 21
160.2662965965555
 31
0.0
  0
LINE
  5
4B8
102
{ACAD_REACTORS
330
676
102
}
330
1F
100
AcDbEntity
  8
実線
100
AcDbLine
 10
410.7222088848661
 20
110.2662965965556
 30
0.0
 11
396.7222088848662
 21
110.2662965965556
 31
0.0
  0
ARC
  5
4B9
102
{ACAD_REACTORS
330
676
102
}
330
1F
100
AcDbEntity
  8
実線
100
AcDbCircle
 10
410.7222088848661
 20
113.2662965965556
 30
0.0
 40
3.0
100
AcDbArc
 50
270.0
 51
0.0
  0
LINE
  5
4BA
102
{ACAD_REACTORS
330
676
102
}
330
1F
100
AcDbEntity
  8
実線
100
AcDbLine
 10
413.7222088848662
 20
157.2662965965555
 30
0.0
 11
413.7222088848662
 21
113.2662965965556
 31
0.0
  0
ARC
  5
4BB
102
{ACAD_REACTORS
330
676
102
}
330
1F
100
AcDbEntity
  8
実線
100
AcDbCircle
 10
410.7222088848661
 20
157.2662965965555
 30
0.0
 40
3.0
100
AcDbArc
 50
0.0
 51
90.0
  0
LINE
  5
4BC
102
{ACAD_REACTORS
330
676
102
}
330
1F
100
AcDbEntity
  8
実線
100
AcDbLine
 10
393.7222088848662
 20
113.2662965965556
 30
0.0
 11
393.7222088848662
 21
157.2662965965555
 31
0.0
  0
ARC
  5
4BD
102
{ACAD_REACTORS
330
676
102
}
330
1F
100
AcDbEntity
  8
実線
100
AcDbCircle
 10
396.7222088848662
 20
113.2662965965556
 30
0.0
 40
3.0
100
AcDbArc
 50
180.0
 51
270.0
  0
ARC
  5
4BE
102
{ACAD_REACTORS
330
676
102
}
330
1F
100
AcDbEntity
  8
実線
100
AcDbCircle
 10
492.7518980626956
 20
183.4474460950994
 30
0.0
 40
10.0
100
AcDbArc
 50
325.0000000000026
 51
43.49585801794513
  0
ARC
  5
4BF
102
{ACAD_REACTORS
330
676
102
}
330
1F
100
AcDbEntity
  8
実線
100
AcDbCircle
 10
441.9722088848559
 20
135.2662965965548
 30
0.0
 40
79.99999999999343
100
AcDbArc
 50
43.49585801793593
 51
46.50414198205487
  0
ARC
  5
4C0
102
{ACAD_REACTORS
330
676
102
}
330
1F
100
AcDbEntity
  8
実線
100
AcDbCircle
 10
490.1533583834113
 20
186.0459857743835
 30
0.0
 40
10.00000000000038
100
AcDbArc
 50
46.50414198205487
 51
124.9999999999974
  0
LINE
  5
4C1
102
{ACAD_REACTORS
330
676
102
}
330
1F
100
AcDbEntity
  8
実線
100
AcDbLine
 10
484.4175940199006
 20
194.2375062172739
 30
0.0
 11
473.7222088848661
 21
186.7485169216662
 31
0.0
  0
LINE
  5
4C2
102
{ACAD_REACTORS
330
676
102
}
330
1F
100
AcDbEntity
  8
実線
100
AcDbLine
 10
493.4544292099855
 20
167.0162965965651
 30
0.0
 11
500.9434185055853
 21
177.7116817315889
 31
0.0
  0
ARC
  5
4C3
102
{ACAD_REACTORS
330
676
102
}
330
1F
100
AcDbEntity
  8
実線
100
AcDbCircle
 10
490.1533583834113
 20
84.48660741870588
 30
0.0
 40
9.999999999999991
100
AcDbArc
 50
235.0000000000026
 51
313.4958580179451
  0
ARC
  5
4C4
102
{ACAD_REACTORS
330
676
102
}
330
1F
100
AcDbEntity
  8
実線
100
AcDbCircle
 10
441.9722088848565
 20
135.2662965965446
 30
0.0
 40
79.99999999999984
100
AcDbArc
 50
313.4958580179451
 51
316.5041419820549
  0
ARC
  5
4C5
102
{ACAD_REACTORS
330
676
102
}
330
1F
100
AcDbEntity
  8
実線
100
AcDbCircle
 10
492.7518980626953
 20
87.08514709798999
 30
0.0
 40
9.999999999999976
100
AcDbArc
 50
316.5041419820549
 51
34.99999999999737
  0
LINE
  5
4C6
102
{ACAD_REACTORS
330
676
102
}
330
1F
100
AcDbEntity
  8
実線
100
AcDbLine
 10
500.9434185055853
 20
92.8209114615006
 30
0.0
 11
493.4544292099571
 21
103.5162965965651
 31
0.0
  0
LINE
  5
4C7
102
{ACAD_REACTORS
330
676
102
}
330
1F
100
AcDbEntity
  8
実線
100
AcDbLine
 10
473.7222088848661
 20
83.78407627142337
 30
0.0
 11
484.4175940199006
 21
76.29508697581605
 31
0.0
  0
ARC
  5
4C8
102
{ACAD_REACTORS
330
676
102
}
330
1F
100
AcDbEntity
  8
実線
100
AcDbCircle
 10
391.1925197070178
 20
87.08514709798999
 30
0.0
 40
9.999999999999996
100
AcDbArc
 50
145.0000000000026
 51
223.4958580179451
  0
ARC
  5
4C9
102
{ACAD_REACTORS
330
676
102
}
330
1F
100
AcDbEntity
  8
実線
100
AcDbCircle
 10
441.9722088848565
 20
135.2662965965446
 30
0.0
 40
79.9999999999998
100
AcDbArc
 50
223.4958580179451
 51
226.5041419820549
  0
ARC
  5
4CA
102
{ACAD_REACTORS
330
676
102
}
330
1F
100
AcDbEntity
  8
実線
100
AcDbCircle
 10
393.791059386302
 20
84.486607418706
 30
0.0
 40
10.00000000000002
100
AcDbArc
 50
226.5041419820549
 51
304.9999999999974
  0
LINE
  5
4CB
102
{ACAD_REACTORS
330
676
102
}
330
1F
100
AcDbEntity
  8
実線
100
AcDbLine
 10
399.5268237498121
 20
76.29508697581605
 30
0.0
 11
410.2222088848662
 21
83.78407627143678
 31
0.0
  0
LINE
  5
4CC
102
{ACAD_REACTORS
330
676
102
}
330
1F
100
AcDbEntity
  8
実線
100
AcDbLine
 10
390.4899885597418
 20
103.5162965965447
 30
0.0
 11
383.0009992641278
 21
92.8209114615006
 31
0.0
  0
LINE
  5
4CD
102
{ACAD_REACTORS
330
676
102
}
330
1F
100
AcDbEntity
  8
実線
100
AcDbLine
 10
383.0009992641281
 20
177.7116817315891
 30
0.0
 11
390.4899885597421
 21
167.0162965965447
 31
0.0
  0
LINE
  5
4CE
102
{ACAD_REACTORS
330
676
102
}
330
1F
100
AcDbEntity
  8
実線
100
AcDbLine
 10
410.2222088848662
 20
186.7485169216527
 30
0.0
 11
399.5268237498121
 21
194.2375062172734
 31
0.0
  0
ARC
  5
4CF
102
{ACAD_REACTORS
330
676
102
}
330
1F
100
AcDbEntity
  8
実線
100
AcDbCircle
 10
391.1925197070178
 20
183.4474460950995
 30
0.0
 40
9.999999999999591
100
AcDbArc
 50
136.5041419820548
 51
214.9999999999974
  0
ARC
  5
4D0
102
{ACAD_REACTORS
330
676
102
}
330
1F
100
AcDbEntity
  8
実線
100
AcDbCircle
 10
393.791059386302
 20
186.0459857743835
 30
0.0
 40
9.999999999999982
100
AcDbArc
 50
55.00000000000264
 51
133.4958580179451
  0
ARC
  5
4D1
102
{ACAD_REACTORS
330
676
102
}
330
1F
100
AcDbEntity
  8
実線
100
AcDbCircle
 10
441.9722088848565
 20
135.2662965965548
 30
0.0
 40
79.99999999999268
100
AcDbArc
 50
133.4958580179451
 51
136.504141982064
  0
ARC
  5
4D2
102
{ACAD_REACTORS
330
676
102
}
330
1F
100
AcDbEntity
  8
実線
100
AcDbCircle
 10
441.9722088848565
 20
135.2662965965447
 30
0.0
 40
55.0
100
AcDbArc
 50
197.9496260048923
 51
234.7410514611875
  0
ARC
  5
4D3
102
{ACAD_REACTORS
330
676
102
}
330
1F
100
AcDbEntity
  8
実線
100
AcDbCircle
 10
441.9722088848565
 20
135.2662965965447
 30
0.0
 40
55.0
100
AcDbArc
 50
305.258948538836
 51
342.0503739951344
  0
ARC
  5
4D4
102
{ACAD_REACTORS
330
676
102
}
330
1F
100
AcDbEntity
  8
実線
100
AcDbCircle
 10
441.9722088848565
 20
135.2662965965447
 30
0.0
 40
55.0
100
AcDbArc
 50
17.94962600491295
 51
54.74105146116404
  0
ARC
  5
4D5
102
{ACAD_REACTORS
330
676
102
}
330
1F
100
AcDbEntity
  8
実線
100
AcDbCircle
 10
441.9722088848565
 20
135.2662965965447
 30
0.0
 40
55.0
100
AcDbArc
 50
125.2589485388125
 51
162.0503739951076
  0
LINE
  5
4D6
102
{ACAD_REACTORS
330
676
102
}
330
1F
100
AcDbEntity
  8
実線
100
AcDbLine
 10
473.7222088848661
 20
160.2662965965336
 30
0.0
 11
473.7222088848661
 21
233.6662965965554
 31
0.0
  0
LINE
  5
4D7
102
{ACAD_REACTORS
330
676
102
}
330
1F
100
AcDbEntity
  8
実線
100
AcDbLine
 10
473.7222088848661
 20
36.86629659655546
 30
0.0
 11
473.7222088848661
 21
110.2662965965337
 31
0.0
  0
LINE
  5
4D8
102
{ACAD_REACTORS
330
676
102
}
330
1F
100
AcDbEntity
  8
実線
100
AcDbLine
 10
410.2222088848662
 20
110.2662965965556
 30
0.0
 11
410.2222088848662
 21
36.86629659655546
 31
0.0
  0
LINE
  5
4D9
102
{ACAD_REACTORS
330
676
102
}
330
1F
100
AcDbEntity
  8
実線
100
AcDbLine
 10
410.2222088848662
 20
233.6662965965554
 30
0.0
 11
410.2222088848662
 21
160.2662965965555
 31
0.0
  0
LINE
  5
4DA
102
{ACAD_REACTORS
330
676
102
}
330
1F
100
AcDbEntity
  8
実線
100
AcDbLine
 10
410.2222088848662
 20
233.6662965965554
 30
0.0
 11
473.7222088848661
 21
233.6662965965554
 31
0.0
  0
LINE
  5
4DB
102
{ACAD_REACTORS
330
676
102
}
330
1F
100
AcDbEntity
  8
実線
100
AcDbLine
 10
473.7222088848661
 20
233.6662965965554
 30
0.0
 11
480.7222088848662
 21
236.7662965965556
 31
0.0
  0
LINE
  5
4DC
102
{ACAD_REACTORS
330
676
102
}
330
1F
100
AcDbEntity
  8
実線
100
AcDbLine
 10
403.2222088848661
 20
236.7662965965556
 30
0.0
 11
410.2222088848662
 21
233.6662965965554
 31
0.0
  0
LINE
  5
4DD
102
{ACAD_REACTORS
330
676
102
}
330
1F
100
AcDbEntity
  8
実線
100
AcDbLine
 10
403.2222088848661
 20
240.2662965965555
 30
0.0
 11
480.7222088848662
 21
240.2662965965555
 31
0.0
  0
LINE
  5
4DE
102
{ACAD_REACTORS
330
676
102
}
330
1F
100
AcDbEntity
  8
実線
100
AcDbLine
 10
403.2222088848661
 20
236.7662965965556
 30
0.0
 11
480.7222088848662
 21
236.7662965965556
 31
0.0
  0
LINE
  5
4DF
102
{ACAD_REACTORS
330
676
102
}
330
1F
100
AcDbEntity
  8
実線
100
AcDbLine
 10
403.2222088848661
 20
240.2662965965555
 30
0.0
 11
403.2222088848661
 21
236.7662965965556
 31
0.0
  0
LINE
  5
4E0
102
{ACAD_REACTORS
330
676
102
}
330
1F
100
AcDbEntity
  8
実線
100
AcDbLine
 10
480.7222088848662
 20
236.7662965965556
 30
0.0
 11
480.7222088848662
 21
240.2662965965555
 31
0.0
  0
LINE
  5
4E1
102
{ACAD_REACTORS
330
676
102
}
330
1F
100
AcDbEntity
  8
実線
100
AcDbLine
 10
473.7222088848661
 20
36.86629659655546
 30
0.0
 11
410.2222088848662
 21
36.86629659655546
 31
0.0
  0
LINE
  5
4E2
102
{ACAD_REACTORS
330
676
102
}
330
1F
100
AcDbEntity
  8
実線
100
AcDbLine
 10
410.2222088848662
 20
36.86629659655546
 30
0.0
 11
403.2222088848661
 21
33.76629659655549
 31
0.0
  0
LINE
  5
4E3
102
{ACAD_REACTORS
330
676
102
}
330
1F
100
AcDbEntity
  8
実線
100
AcDbLine
 10
480.7222088848662
 20
33.76629659655549
 30
0.0
 11
473.7222088848661
 21
36.86629659655546
 31
0.0
  0
LINE
  5
4E4
102
{ACAD_REACTORS
330
676
102
}
330
1F
100
AcDbEntity
  8
実線
100
AcDbLine
 10
480.7222088848662
 20
30.26629659655549
 30
0.0
 11
403.2222088848661
 21
30.26629659655549
 31
0.0
  0
LINE
  5
4E5
102
{ACAD_REACTORS
330
676
102
}
330
1F
100
AcDbEntity
  8
実線
100
AcDbLine
 10
480.7222088848662
 20
33.76629659655549
 30
0.0
 11
403.2222088848661
 21
33.76629659655549
 31
0.0
  0
LINE
  5
4E6
102
{ACAD_REACTORS
330
676
102
}
330
1F
100
AcDbEntity
  8
実線
100
AcDbLine
 10
480.7222088848662
 20
30.26629659655549
 30
0.0
 11
480.7222088848662
 21
33.76629659655549
 31
0.0
  0
LINE
  5
4E7
102
{ACAD_REACTORS
330
676
102
}
330
1F
100
AcDbEntity
  8
実線
100
AcDbLine
 10
403.2222088848661
 20
33.76629659655549
 30
0.0
 11
403.2222088848661
 21
30.26629659655549
 31
0.0
  0
ARC
  5
4E8
102
{ACAD_REACTORS
330
676
102
}
330
1F
100
AcDbEntity
  8
実線
100
AcDbCircle
 10
473.222208884847
 20
157.2662965965336
 30
0.0
 40
3.0
100
AcDbArc
 50
90.0
 51
180.0
  0
ARC
  5
4E9
102
{ACAD_REACTORS
330
676
102
}
330
1F
100
AcDbEntity
  8
実線
100
AcDbCircle
 10
487.2222088848469
 20
157.2662965965336
 30
0.0
 40
3.0
100
AcDbArc
 50
0.0
 51
90.0
  0
ARC
  5
4EA
102
{ACAD_REACTORS
330
676
102
}
330
1F
100
AcDbEntity
  8
実線
100
AcDbCircle
 10
473.222208884847
 20
113.2662965965337
 30
0.0
 40
3.0
100
AcDbArc
 50
180.0
 51
270.0
  0
ARC
  5
4EB
102
{ACAD_REACTORS
330
676
102
}
330
1F
100
AcDbEntity
  8
実線
100
AcDbCircle
 10
487.2222088848469
 20
113.2662965965337
 30
0.0
 40
3.0
100
AcDbArc
 50
270.0
 51
0.0
  0
LINE
  5
4EC
102
{ACAD_REACTORS
330
676
102
}
330
1F
100
AcDbEntity
  8
実線
100
AcDbLine
 10
470.2222088848469
 20
113.2662965965337
 30
0.0
 11
470.2222088848469
 21
157.2662965965337
 31
0.0
  0
LINE
  5
4ED
102
{ACAD_REACTORS
330
676
102
}
330
1F
100
AcDbEntity
  8
実線
100
AcDbLine
 10
487.2222088848469
 20
110.2662965965337
 30
0.0
 11
473.222208884847
 21
110.2662965965337
 31
0.0
  0
LINE
  5
4EE
102
{ACAD_REACTORS
330
676
102
}
330
1F
100
AcDbEntity
  8
実線
100
AcDbLine
 10
490.2222088848469
 20
157.2662965965336
 30
0.0
 11
490.2222088848469
 21
113.2662965965337
 31
0.0
  0
LINE
  5
4EF
102
{ACAD_REACTORS
330
676
102
}
330
1F
100
AcDbEntity
  8
実線
100
AcDbLine
 10
473.222208884847
 20
160.2662965965337
 30
0.0
 11
487.2222088848469
 21
160.2662965965337
 31
0.0
  0
LINE
  5
4F0
102
{ACAD_REACTORS
330
671
102
}
330
1F
100
AcDbEntity
  8
実線
100
AcDbLine
 10
1034.472208884857
 20
758.0662965965445
 30
0.0
 11
1049.472208884856
 21
758.0662965965445
 31
0.0
  0
LINE
  5
4F1
102
{ACAD_REACTORS
330
671
102
}
330
1F
100
AcDbEntity
  8
実線
100
AcDbLine
 10
1049.472208884856
 20
752.7662965965446
 30
0.0
 11
1049.472208884856
 21
758.0662965965445
 31
0.0
  0
LINE
  5
4F2
102
{ACAD_REACTORS
330
671
102
}
330
1F
100
AcDbEntity
  8
実線
100
AcDbLine
 10
1034.472208884857
 20
758.0662965965445
 30
0.0
 11
1034.472208884857
 21
752.7662965965446
 31
0.0
  0
LINE
  5
4F3
102
{ACAD_REACTORS
330
671
102
}
330
1F
100
AcDbEntity
  8
実線
100
AcDbLine
 10
981.1925197070175
 20
475.7662965965447
 30
0.0
 11
1102.751898062695
 21
475.7662965965447
 31
0.0
  0
LINE
  5
4F4
102
{ACAD_REACTORS
330
671
102
}
330
1F
100
AcDbEntity
  8
実線
100
AcDbLine
 10
981.1925197070175
 20
489.2662965965447
 30
0.0
 11
1102.751898062695
 21
489.2662965965447
 31
0.0
  0
LINE
  5
4F5
102
{ACAD_REACTORS
330
671
102
}
330
1F
100
AcDbEntity
  8
実線
100
AcDbLine
 10
1102.751898062695
 20
475.7662965965447
 30
0.0
 11
1102.751898062695
 21
489.2662965965447
 31
0.0
  0
LINE
  5
4F6
102
{ACAD_REACTORS
330
671
102
}
330
1F
100
AcDbEntity
  8
実線
100
AcDbLine
 10
981.1925197070175
 20
489.2662965965447
 30
0.0
 11
981.1925197070175
 21
475.7662965965447
 31
0.0
  0
LINE
  5
4F7
102
{ACAD_REACTORS
330
671
102
}
330
1F
100
AcDbEntity
  8
実線
100
AcDbLine
 10
1068.782181034797
 20
475.7662965965447
 30
0.0
 11
1068.782181034797
 21
489.2662965965447
 31
0.0
  0
LINE
  5
4F8
102
{ACAD_REACTORS
330
671
102
}
330
1F
100
AcDbEntity
  8
実線
100
AcDbLine
 10
1015.162236734914
 20
475.7662965965447
 30
0.0
 11
1015.162236734914
 21
489.2662965965447
 31
0.0
  0
LINE
  5
4F9
102
{ACAD_REACTORS
330
671
102
}
330
1F
100
AcDbEntity
  8
実線
100
AcDbLine
 10
969.4722088848566
 20
695.2662965965446
 30
0.0
 11
1114.472208884856
 21
695.2662965965446
 31
0.0
  0
LINE
  5
4FA
102
{ACAD_REACTORS
330
671
102
}
330
1F
100
AcDbEntity
  8
実線
100
AcDbLine
 10
1114.472208884856
 20
594.2662965965448
 30
0.0
 11
1114.472208884856
 21
695.2662965965446
 31
0.0
  0
LINE
  5
4FB
102
{ACAD_REACTORS
330
671
102
}
330
1F
100
AcDbEntity
  8
実線
100
AcDbLine
 10
969.4722088848566
 20
695.2662965965446
 30
0.0
 11
969.4722088848566
 21
594.2662965965448
 31
0.0
  0
LINE
  5
4FC
102
{ACAD_REACTORS
330
671
102
}
330
1F
100
AcDbEntity
  8
実線
100
AcDbLine
 10
1114.472208884856
 20
594.2662965965448
 30
0.0
 11
969.4722088848566
 21
594.2662965965448
 31
0.0
  0
LINE
  5
4FD
102
{ACAD_REACTORS
330
671
102
}
330
1F
100
AcDbEntity
  8
実線
100
AcDbLine
 10
1109.472208884856
 20
592.2662965965445
 30
0.0
 11
1109.472208884856
 21
594.2662965965448
 31
0.0
  0
LINE
  5
4FE
102
{ACAD_REACTORS
330
671
102
}
330
1F
100
AcDbEntity
  8
実線
100
AcDbLine
 10
974.4722088848567
 20
594.2662965965448
 30
0.0
 11
974.4722088848567
 21
592.2662965965445
 31
0.0
  0
LINE
  5
4FF
102
{ACAD_REACTORS
330
671
102
}
330
1F
100
AcDbEntity
  8
実線
100
AcDbLine
 10
1109.472208884856
 20
592.2662965965445
 30
0.0
 11
974.4722088848567
 21
592.2662965965445
 31
0.0
  0
LINE
  5
500
102
{ACAD_REACTORS
330
671
102
}
330
1F
100
AcDbEntity
  8
実線
100
AcDbLine
 10
1049.972208884856
 20
489.3103931451427
 30
0.0
 11
1049.972208884856
 21
527.2662965965448
 31
0.0
  0
LINE
  5
501
102
{ACAD_REACTORS
330
671
102
}
330
1F
100
AcDbEntity
  8
実線
100
AcDbLine
 10
1033.972208884856
 20
527.2662965965448
 30
0.0
 11
1033.972208884856
 21
489.3103931451427
 31
0.0
  0
LINE
  5
502
102
{ACAD_REACTORS
330
671
102
}
330
1F
100
AcDbEntity
  8
実線
100
AcDbLine
 10
1140.372208884855
 20
467.0162965965444
 30
0.0
 11
1102.751898062694
 21
467.0162965965444
 31
0.0
  0
LINE
  5
503
102
{ACAD_REACTORS
330
671
102
}
330
1F
100
AcDbEntity
  8
実線
100
AcDbLine
 10
1095.687753030942
 20
403.5162965965447
 30
0.0
 11
1140.372208884855
 21
403.5162965965447
 31
0.0
  0
LINE
  5
504
102
{ACAD_REACTORS
330
671
102
}
330
1F
100
AcDbEntity
  8
実線
100
AcDbLine
 10
1140.372208884855
 20
403.5162965965447
 30
0.0
 11
1140.372208884855
 21
467.0162965965444
 31
0.0
  0
LINE
  5
505
102
{ACAD_REACTORS
330
671
102
}
330
1F
100
AcDbEntity
  8
実線
100
AcDbLine
 10
1140.372208884855
 20
403.5162965965447
 30
0.0
 11
1143.472208884856
 21
396.5162965965445
 31
0.0
  0
LINE
  5
506
102
{ACAD_REACTORS
330
671
102
}
330
1F
100
AcDbEntity
  8
実線
100
AcDbLine
 10
1143.472208884856
 20
474.0162965965447
 30
0.0
 11
1140.372208884855
 21
467.0162965965444
 31
0.0
  0
LINE
  5
507
102
{ACAD_REACTORS
330
671
102
}
330
1F
100
AcDbEntity
  8
実線
100
AcDbLine
 10
1146.972208884855
 20
396.5162965965445
 30
0.0
 11
1146.972208884855
 21
474.0162965965447
 31
0.0
  0
LINE
  5
508
102
{ACAD_REACTORS
330
671
102
}
330
1F
100
AcDbEntity
  8
実線
100
AcDbLine
 10
1143.472208884856
 20
396.5162965965445
 30
0.0
 11
1143.472208884856
 21
474.0162965965447
 31
0.0
  0
LINE
  5
509
102
{ACAD_REACTORS
330
671
102
}
330
1F
100
AcDbEntity
  8
実線
100
AcDbLine
 10
1146.972208884855
 20
474.0162965965447
 30
0.0
 11
1143.472208884856
 21
474.0162965965447
 31
0.0
  0
LINE
  5
50A
102
{ACAD_REACTORS
330
671
102
}
330
1F
100
AcDbEntity
  8
実線
100
AcDbLine
 10
1143.472208884856
 20
396.5162965965445
 30
0.0
 11
1146.972208884855
 21
396.5162965965445
 31
0.0
  0
LINE
  5
50B
102
{ACAD_REACTORS
330
671
102
}
330
1F
100
AcDbEntity
  8
実線
100
AcDbLine
 10
943.5722088848566
 20
403.5162965965447
 30
0.0
 11
988.2566647387687
 21
403.5162965965447
 31
0.0
  0
LINE
  5
50C
102
{ACAD_REACTORS
330
671
102
}
330
1F
100
AcDbEntity
  8
実線
100
AcDbLine
 10
981.1925197070165
 20
467.0162965965444
 30
0.0
 11
943.5722088848566
 21
467.0162965965444
 31
0.0
  0
LINE
  5
50D
102
{ACAD_REACTORS
330
671
102
}
330
1F
100
AcDbEntity
  8
実線
100
AcDbLine
 10
943.5722088848566
 20
467.0162965965444
 30
0.0
 11
940.4722088848567
 21
474.0162965965447
 31
0.0
  0
LINE
  5
50E
102
{ACAD_REACTORS
330
671
102
}
330
1F
100
AcDbEntity
  8
実線
100
AcDbLine
 10
940.4722088848567
 20
396.5162965965445
 30
0.0
 11
943.5722088848566
 21
403.5162965965447
 31
0.0
  0
LINE
  5
50F
102
{ACAD_REACTORS
330
671
102
}
330
1F
100
AcDbEntity
  8
実線
100
AcDbLine
 10
943.5722088848566
 20
467.0162965965444
 30
0.0
 11
943.5722088848566
 21
403.5162965965447
 31
0.0
  0
LINE
  5
510
102
{ACAD_REACTORS
330
671
102
}
330
1F
100
AcDbEntity
  8
実線
100
AcDbLine
 10
936.9722088848567
 20
396.5162965965445
 30
0.0
 11
940.4722088848567
 21
396.5162965965445
 31
0.0
  0
LINE
  5
511
102
{ACAD_REACTORS
330
671
102
}
330
1F
100
AcDbEntity
  8
実線
100
AcDbLine
 10
940.4722088848567
 20
474.0162965965447
 30
0.0
 11
936.9722088848567
 21
474.0162965965447
 31
0.0
  0
LINE
  5
512
102
{ACAD_REACTORS
330
671
102
}
330
1F
100
AcDbEntity
  8
実線
100
AcDbLine
 10
936.9722088848567
 20
396.5162965965445
 30
0.0
 11
936.9722088848567
 21
474.0162965965447
 31
0.0
  0
LINE
  5
513
102
{ACAD_REACTORS
330
671
102
}
330
1F
100
AcDbEntity
  8
実線
100
AcDbLine
 10
940.4722088848567
 20
396.5162965965445
 30
0.0
 11
940.4722088848567
 21
474.0162965965447
 31
0.0
  0
LINE
  5
514
102
{ACAD_REACTORS
330
671
102
}
330
1F
100
AcDbEntity
  8
実線
100
AcDbLine
 10
995.9722088848566
 20
710.2662965965446
 30
0.0
 11
1087.972208884856
 21
710.2662965965446
 31
0.0
  0
LINE
  5
515
102
{ACAD_REACTORS
330
671
102
}
330
1F
100
AcDbEntity
  8
実線
100
AcDbLine
 10
1087.972208884856
 20
700.2662965965446
 30
0.0
 11
1087.972208884856
 21
710.2662965965446
 31
0.0
  0
LINE
  5
516
102
{ACAD_REACTORS
330
671
102
}
330
1F
100
AcDbEntity
  8
実線
100
AcDbLine
 10
995.9722088848566
 20
710.2662965965446
 30
0.0
 11
995.9722088848566
 21
700.2662965965446
 31
0.0
  0
LINE
  5
517
102
{ACAD_REACTORS
330
671
102
}
330
1F
100
AcDbEntity
  8
実線
100
AcDbLine
 10
1049.972208884856
 20
717.2662965965446
 30
0.0
 11
1049.972208884856
 21
747.7662965965446
 31
0.0
  0
LINE
  5
518
102
{ACAD_REACTORS
330
671
102
}
330
1F
100
AcDbEntity
  8
実線
100
AcDbLine
 10
1033.972208884856
 20
747.7662965965446
 30
0.0
 11
1033.972208884856
 21
717.2662965965446
 31
0.0
  0
LINE
  5
519
102
{ACAD_REACTORS
330
671
102
}
330
1F
100
AcDbEntity
  8
実線
100
AcDbLine
 10
1033.972208884856
 20
746.3162965965445
 30
0.0
 11
1021.972208884856
 21
746.3162965965445
 31
0.0
  0
LINE
  5
51A
102
{ACAD_REACTORS
330
671
102
}
330
1F
100
AcDbEntity
  8
実線
100
AcDbLine
 10
1034.472208884857
 20
754.2162965965444
 30
0.0
 11
1021.972208884856
 21
754.2162965965444
 31
0.0
  0
LINE
  5
51B
102
{ACAD_REACTORS
330
671
102
}
330
1F
100
AcDbEntity
  8
実線
100
AcDbLine
 10
1021.972208884856
 20
754.2162965965444
 30
0.0
 11
1021.972208884856
 21
746.3162965965445
 31
0.0
  0
LINE
  5
51C
102
{ACAD_REACTORS
330
671
102
}
330
1F
100
AcDbEntity
  8
実線
100
AcDbLine
 10
1016.972208884856
 20
715.2662965965446
 30
0.0
 11
1066.972208884856
 21
715.2662965965446
 31
0.0
  0
LINE
  5
51D
102
{ACAD_REACTORS
330
671
102
}
330
1F
100
AcDbEntity
  8
実線
100
AcDbLine
 10
1066.972208884856
 20
710.2662965965446
 30
0.0
 11
1066.972208884856
 21
715.2662965965446
 31
0.0
  0
LINE
  5
51E
102
{ACAD_REACTORS
330
671
102
}
330
1F
100
AcDbEntity
  8
実線
100
AcDbLine
 10
1016.972208884856
 20
715.2662965965446
 30
0.0
 11
1016.972208884856
 21
710.2662965965446
 31
0.0
  0
LINE
  5
51F
102
{ACAD_REACTORS
330
671
102
}
330
1F
100
AcDbEntity
  8
実線
100
AcDbLine
 10
1021.972208884856
 20
751.7662965965446
 30
0.0
 11
1015.472208884856
 21
751.7662965965446
 31
0.0
  0
LINE
  5
520
102
{ACAD_REACTORS
330
671
102
}
330
1F
100
AcDbEntity
  8
実線
100
AcDbLine
 10
1015.472208884856
 20
748.7662965965446
 30
0.0
 11
1021.972208884856
 21
748.7662965965446
 31
0.0
  0
LINE
  5
521
102
{ACAD_REACTORS
330
671
102
}
330
1F
100
AcDbEntity
  8
実線
100
AcDbLine
 10
1015.472208884856
 20
751.7662965965446
 30
0.0
 11
1015.472208884856
 21
748.7662965965446
 31
0.0
  0
LINE
  5
522
102
{ACAD_REACTORS
330
671
102
}
330
1F
100
AcDbEntity
  8
実線
100
AcDbLine
 10
1033.972208884856
 20
730.3162965965445
 30
0.0
 11
1021.972208884856
 21
730.3162965965445
 31
0.0
  0
LINE
  5
523
102
{ACAD_REACTORS
330
671
102
}
330
1F
100
AcDbEntity
  8
実線
100
AcDbLine
 10
1033.972208884856
 20
738.2162965965444
 30
0.0
 11
1021.972208884856
 21
738.2162965965444
 31
0.0
  0
LINE
  5
524
102
{ACAD_REACTORS
330
671
102
}
330
1F
100
AcDbEntity
  8
実線
100
AcDbLine
 10
1021.972208884856
 20
738.2162965965444
 30
0.0
 11
1021.972208884856
 21
730.3162965965445
 31
0.0
  0
LINE
  5
525
102
{ACAD_REACTORS
330
671
102
}
330
1F
100
AcDbEntity
  8
実線
100
AcDbLine
 10
1021.972208884856
 20
735.7662965965446
 30
0.0
 11
1015.472208884856
 21
735.7662965965446
 31
0.0
  0
LINE
  5
526
102
{ACAD_REACTORS
330
671
102
}
330
1F
100
AcDbEntity
  8
実線
100
AcDbLine
 10
1015.472208884856
 20
732.7662965965446
 30
0.0
 11
1021.972208884856
 21
732.7662965965446
 31
0.0
  0
LINE
  5
527
102
{ACAD_REACTORS
330
671
102
}
330
1F
100
AcDbEntity
  8
実線
100
AcDbLine
 10
1015.472208884856
 20
735.7662965965446
 30
0.0
 11
1015.472208884856
 21
732.7662965965446
 31
0.0
  0
LINE
  5
528
102
{ACAD_REACTORS
330
671
102
}
330
1F
100
AcDbEntity
  8
実線
100
AcDbLine
 10
1029.472208884856
 20
752.7662965965446
 30
0.0
 11
1054.472208884856
 21
752.7662965965446
 31
0.0
  0
LINE
  5
529
102
{ACAD_REACTORS
330
671
102
}
330
1F
100
AcDbEntity
  8
実線
100
AcDbLine
 10
1054.472208884856
 20
747.7662965965446
 30
0.0
 11
1054.472208884856
 21
752.7662965965446
 31
0.0
  0
LINE
  5
52A
102
{ACAD_REACTORS
330
671
102
}
330
1F
100
AcDbEntity
  8
実線
100
AcDbLine
 10
1029.472208884856
 20
752.7662965965446
 30
0.0
 11
1029.472208884856
 21
747.7662965965446
 31
0.0
  0
LINE
  5
52B
102
{ACAD_REACTORS
330
671
102
}
330
1F
100
AcDbEntity
  8
実線
100
AcDbLine
 10
1054.472208884856
 20
747.7662965965446
 30
0.0
 11
1029.472208884856
 21
747.7662965965446
 31
0.0
  0
LINE
  5
52C
102
{ACAD_REACTORS
330
671
102
}
330
1F
100
AcDbEntity
  8
実線
100
AcDbLine
 10
1026.972208884856
 20
754.2162965965444
 30
0.0
 11
1026.972208884856
 21
755.2662965965446
 31
0.0
  0
LINE
  5
52D
102
{ACAD_REACTORS
330
671
102
}
330
1F
100
AcDbEntity
  8
実線
100
AcDbLine
 10
1026.972208884856
 20
738.2162965965444
 30
0.0
 11
1026.972208884856
 21
746.3162965965445
 31
0.0
  0
LINE
  5
52E
102
{ACAD_REACTORS
330
671
102
}
330
1F
100
AcDbEntity
  8
実線
100
AcDbLine
 10
1026.972208884856
 20
717.2662965964964
 30
0.0
 11
1026.972208884856
 21
730.3162965965445
 31
0.0
  0
LINE
  5
52F
102
{ACAD_REACTORS
330
671
102
}
330
1F
100
AcDbEntity
  8
実線
100
AcDbLine
 10
1034.472208884857
 20
755.2662965965446
 30
0.0
 11
1026.972208884856
 21
755.2662965965446
 31
0.0
  0
LINE
  5
530
102
{ACAD_REACTORS
330
671
102
}
330
1F
100
AcDbEntity
  8
実線
100
AcDbLine
 10
1066.972208884856
 20
715.2662965965446
 30
0.0
 11
1066.972208884856
 21
717.2662965965446
 31
0.0
  0
LINE
  5
531
102
{ACAD_REACTORS
330
671
102
}
330
1F
100
AcDbEntity
  8
実線
100
AcDbLine
 10
1016.972208884856
 20
717.2662965965446
 30
0.0
 11
1016.972208884856
 21
715.2662965965446
 31
0.0
  0
LINE
  5
532
102
{ACAD_REACTORS
330
671
102
}
330
1F
100
AcDbEntity
  8
実線
100
AcDbLine
 10
1066.972208884856
 20
717.2662965965446
 30
0.0
 11
1016.972208884856
 21
717.2662965965446
 31
0.0
  0
LINE
  5
533
102
{ACAD_REACTORS
330
671
102
}
330
1F
100
AcDbEntity
  8
実線
100
AcDbLine
 10
1070.222208884845
 20
338.0162965965445
 30
0.0
 11
1090.222208884846
 21
338.0162965965445
 31
0.0
  0
LINE
  5
534
102
{ACAD_REACTORS
330
671
102
}
330
1F
100
AcDbEntity
  8
実線
100
AcDbLine
 10
1070.222208884845
 20
338.0162965965445
 30
0.0
 11
1070.222208884845
 21
344.7427221767949
 31
0.0
  0
LINE
  5
535
102
{ACAD_REACTORS
330
671
102
}
330
1F
100
AcDbEntity
  8
実線
100
AcDbLine
 10
1090.222208884846
 20
402.4512506945257
 30
0.0
 11
1090.222208884846
 21
338.0162965965445
 31
0.0
  0
LINE
  5
536
102
{ACAD_REACTORS
330
671
102
}
330
1F
100
AcDbEntity
  8
実線
100
AcDbLine
 10
1090.222208884846
 20
395.6262975510218
 30
0.0
 11
1095.163729327745
 21
402.6835201218238
 31
0.0
  0
LINE
  5
537
102
{ACAD_REACTORS
330
671
102
}
330
1F
100
AcDbEntity
  8
実線
100
AcDbLine
 10
988.7806884419656
 20
402.6835201218238
 30
0.0
 11
993.7222088848656
 21
395.6262975510214
 31
0.0
  0
ARC
  5
538
102
{ACAD_REACTORS
330
671
102
}
330
1F
100
AcDbEntity
  8
実線
100
AcDbCircle
 10
1086.972208884856
 20
408.4192844853342
 30
0.0
 40
10.0
100
AcDbArc
 50
325.0000000000026
 51
330.6397780086135
  0
ARC
  5
539
102
{ACAD_REACTORS
330
671
102
}
330
1F
100
AcDbEntity
  8
実線
100
AcDbCircle
 10
996.9722088848557
 20
408.4192844853342
 30
0.0
 40
10.0
100
AcDbArc
 50
209.3602219913865
 51
214.9999999999974
  0
LINE
  5
53A
102
{ACAD_REACTORS
330
671
102
}
330
1F
100
AcDbEntity
  8
実線
100
AcDbLine
 10
1102.751898062694
 20
460.7662965965444
 30
0.0
 11
1102.751898062694
 21
475.7662965965447
 31
0.0
  0
LINE
  5
53B
102
{ACAD_REACTORS
330
671
102
}
330
1F
100
AcDbEntity
  8
実線
100
AcDbLine
 10
1102.751898062694
 20
460.7662965965444
 30
0.0
 11
1068.782181034796
 21
460.7662965965444
 31
0.0
  0
LINE
  5
53C
102
{ACAD_REACTORS
330
671
102
}
330
1F
100
AcDbEntity
  8
実線
100
AcDbLine
 10
981.1925197070165
 20
460.7662965965444
 30
0.0
 11
1015.162236734914
 21
460.7662965965444
 31
0.0
  0
LINE
  5
53D
102
{ACAD_REACTORS
330
671
102
}
330
1F
100
AcDbEntity
  8
実線
100
AcDbLine
 10
981.1925197070165
 20
475.7662965965447
 30
0.0
 11
981.1925197070165
 21
460.7662965965444
 31
0.0
  0
LINE
  5
53E
102
{ACAD_REACTORS
330
671
102
}
330
1F
100
AcDbEntity
  8
実線
100
AcDbLine
 10
1068.782181034796
 20
460.7662965965444
 30
0.0
 11
1068.782181034796
 21
475.7662965965447
 31
0.0
  0
LINE
  5
53F
102
{ACAD_REACTORS
330
671
102
}
330
1F
100
AcDbEntity
  8
実線
100
AcDbLine
 10
1015.162236734914
 20
460.7662965965444
 30
0.0
 11
1015.162236734914
 21
475.7662965965447
 31
0.0
  0
LINE
  5
540
102
{ACAD_REACTORS
330
671
102
}
330
1F
100
AcDbEntity
  8
実線
100
AcDbLine
 10
972.4722088848565
 20
700.2662965965446
 30
0.0
 11
1111.472208884856
 21
700.2662965965446
 31
0.0
  0
ARC
  5
541
102
{ACAD_REACTORS
330
671
102
}
330
1F
100
AcDbEntity
  8
実線
100
AcDbCircle
 10
1111.472208884856
 20
697.2662965965446
 30
0.0
 40
3.0
100
AcDbArc
 50
0.0
 51
90.0
  0
ARC
  5
542
102
{ACAD_REACTORS
330
671
102
}
330
1F
100
AcDbEntity
  8
実線
100
AcDbCircle
 10
972.4722088848565
 20
697.2662965965446
 30
0.0
 40
3.0
100
AcDbArc
 50
90.0
 51
180.0
  0
LINE
  5
543
102
{ACAD_REACTORS
330
671
102
}
330
1F
100
AcDbEntity
  8
実線
100
AcDbLine
 10
1114.472208884856
 20
695.2662965965446
 30
0.0
 11
1114.472208884856
 21
697.2662965965446
 31
0.0
  0
LINE
  5
544
102
{ACAD_REACTORS
330
671
102
}
330
1F
100
AcDbEntity
  8
実線
100
AcDbLine
 10
969.4722088848566
 20
697.2662965965446
 30
0.0
 11
969.4722088848566
 21
695.2662965965446
 31
0.0
  0
CIRCLE
  5
545
102
{ACAD_REACTORS
330
671
102
}
330
1F
100
AcDbEntity
  8
実線
100
AcDbCircle
 10
1041.972208884845
 20
371.2662965965447
 30
0.0
 40
38.75
  0
ARC
  5
546
102
{ACAD_REACTORS
330
671
102
}
330
1F
100
AcDbEntity
  8
実線
100
AcDbCircle
 10
1046.672208884856
 20
540.7662965965449
 30
0.0
 40
53.0
100
AcDbArc
 50
194.7568156063301
 51
256.3360910030539
  0
LINE
  5
547
102
{ACAD_REACTORS
330
671
102
}
330
1F
100
AcDbEntity
  8
実線
100
AcDbLine
 10
979.6722088848564
 20
592.2662965965445
 30
0.0
 11
979.6722088848564
 21
540.7662965965449
 31
0.0
  0
ARC
  5
548
102
{ACAD_REACTORS
330
671
102
}
330
1F
100
AcDbEntity
  8
実線
100
AcDbCircle
 10
1046.672208884856
 20
540.7662965965449
 30
0.0
 40
66.99999999999993
100
AcDbArc
 50
180.0
 51
230.2334159308337
  0
ARC
  5
549
102
{ACAD_REACTORS
330
671
102
}
330
1F
100
AcDbEntity
  8
実線
100
AcDbCircle
 10
1037.272208884856
 20
540.7662965965449
 30
0.0
 40
53.0
100
AcDbArc
 50
283.663908996946
 51
345.2431843936698
  0
ARC
  5
54A
102
{ACAD_REACTORS
330
671
102
}
330
1F
100
AcDbEntity
  8
実線
100
AcDbCircle
 10
1037.272208884856
 20
540.7662965965449
 30
0.0
 40
66.99999999999993
100
AcDbArc
 50
309.7665840691663
 51
0.0
  0
LINE
  5
54B
102
{ACAD_REACTORS
330
671
102
}
330
1F
100
AcDbEntity
  8
実線
100
AcDbLine
 10
1104.272208884856
 20
592.2662965965445
 30
0.0
 11
1104.272208884856
 21
540.7662965965449
 31
0.0
  0
LINE
  5
54C
102
{ACAD_REACTORS
330
671
102
}
330
1F
100
AcDbEntity
  8
実線
100
AcDbLine
 10
993.8291927765986
 20
527.2662965965448
 30
0.0
 11
1090.115224993114
 21
527.2662965965448
 31
0.0
  0
LINE
  5
54D
102
{ACAD_REACTORS
330
671
102
}
330
1F
100
AcDbEntity
  8
実線
100
AcDbLine
 10
993.8291927765986
 20
527.2662965965448
 30
0.0
 11
993.8291927765986
 21
592.2662965965445
 31
0.0
  0
LINE
  5
54E
102
{ACAD_REACTORS
330
671
102
}
330
1F
100
AcDbEntity
  8
実線
100
AcDbLine
 10
1090.115224993114
 20
592.2662965965445
 30
0.0
 11
1090.115224993114
 21
527.2662965965448
 31
0.0
  0
LINE
  5
54F
102
{ACAD_REACTORS
330
671
102
}
330
1F
100
AcDbEntity
  8
実線
100
AcDbLine
 10
1013.722208884866
 20
338.0162965965445
 30
0.0
 11
993.7222088848656
 21
338.0162965965445
 31
0.0
  0
LINE
  5
550
102
{ACAD_REACTORS
330
671
102
}
330
1F
100
AcDbEntity
  8
実線
100
AcDbLine
 10
1013.722208884866
 20
344.7427221767743
 30
0.0
 11
1013.722208884866
 21
338.0162965965445
 31
0.0
  0
LINE
  5
551
102
{ACAD_REACTORS
330
671
102
}
330
1F
100
AcDbEntity
  8
実線
100
AcDbLine
 10
993.7222088848656
 20
338.0162965965445
 30
0.0
 11
993.7222088848656
 21
402.4512506945383
 31
0.0
  0
LINE
  5
552
102
{ACAD_REACTORS
330
672
102
}
330
1F
100
AcDbEntity
  8
実線
100
AcDbLine
 10
749.4722088848566
 20
758.0662965965445
 30
0.0
 11
734.4722088848566
 21
758.0662965965445
 31
0.0
  0
LINE
  5
553
102
{ACAD_REACTORS
330
672
102
}
330
1F
100
AcDbEntity
  8
実線
100
AcDbLine
 10
749.4722088848566
 20
752.7662965965446
 30
0.0
 11
749.4722088848566
 21
758.0662965965445
 31
0.0
  0
LINE
  5
554
102
{ACAD_REACTORS
330
672
102
}
330
1F
100
AcDbEntity
  8
実線
100
AcDbLine
 10
734.4722088848566
 20
758.0662965965445
 30
0.0
 11
734.4722088848566
 21
752.7662965965446
 31
0.0
  0
LINE
  5
555
102
{ACAD_REACTORS
330
672
102
}
330
1F
100
AcDbEntity
  8
実線
100
AcDbLine
 10
681.1925197070177
 20
475.7662965965447
 30
0.0
 11
802.7518980626956
 21
475.7662965965447
 31
0.0
  0
LINE
  5
556
102
{ACAD_REACTORS
330
672
102
}
330
1F
100
AcDbEntity
  8
実線
100
AcDbLine
 10
681.1925197070177
 20
489.2662965965447
 30
0.0
 11
802.7518980626956
 21
489.2662965965447
 31
0.0
  0
LINE
  5
557
102
{ACAD_REACTORS
330
672
102
}
330
1F
100
AcDbEntity
  8
実線
100
AcDbLine
 10
802.7518980626956
 20
475.7662965965447
 30
0.0
 11
802.7518980626956
 21
489.2662965965447
 31
0.0
  0
LINE
  5
558
102
{ACAD_REACTORS
330
672
102
}
330
1F
100
AcDbEntity
  8
実線
100
AcDbLine
 10
681.1925197070177
 20
489.2662965965447
 30
0.0
 11
681.1925197070177
 21
475.7662965965447
 31
0.0
  0
LINE
  5
559
102
{ACAD_REACTORS
330
672
102
}
330
1F
100
AcDbEntity
  8
実線
100
AcDbLine
 10
768.7821810347977
 20
475.7662965965447
 30
0.0
 11
768.7821810347977
 21
489.2662965965447
 31
0.0
  0
LINE
  5
55A
102
{ACAD_REACTORS
330
672
102
}
330
1F
100
AcDbEntity
  8
実線
100
AcDbLine
 10
715.1622367349157
 20
475.7662965965447
 30
0.0
 11
715.1622367349157
 21
489.2662965965447
 31
0.0
  0
LINE
  5
55B
102
{ACAD_REACTORS
330
672
102
}
330
1F
100
AcDbEntity
  8
実線
100
AcDbLine
 10
669.4722088848569
 20
594.2662965965448
 30
0.0
 11
814.4722088848565
 21
594.2662965965448
 31
0.0
  0
LINE
  5
55C
102
{ACAD_REACTORS
330
672
102
}
330
1F
100
AcDbEntity
  8
実線
100
AcDbLine
 10
814.4722088848565
 20
695.2662965965446
 30
0.0
 11
669.4722088848569
 21
695.2662965965446
 31
0.0
  0
LINE
  5
55D
102
{ACAD_REACTORS
330
672
102
}
330
1F
100
AcDbEntity
  8
実線
100
AcDbLine
 10
814.4722088848565
 20
594.2662965965448
 30
0.0
 11
814.4722088848565
 21
695.2662965965446
 31
0.0
  0
LINE
  5
55E
102
{ACAD_REACTORS
330
672
102
}
330
1F
100
AcDbEntity
  8
実線
100
AcDbLine
 10
669.4722088848569
 20
695.2662965965446
 30
0.0
 11
669.4722088848569
 21
594.2662965965448
 31
0.0
  0
LINE
  5
55F
102
{ACAD_REACTORS
330
672
102
}
330
1F
100
AcDbEntity
  8
実線
100
AcDbLine
 10
674.4722088848568
 20
592.2662965965445
 30
0.0
 11
809.4722088848566
 21
592.2662965965445
 31
0.0
  0
LINE
  5
560
102
{ACAD_REACTORS
330
672
102
}
330
1F
100
AcDbEntity
  8
実線
100
AcDbLine
 10
809.4722088848566
 20
592.2662965965445
 30
0.0
 11
809.4722088848566
 21
594.2662965965448
 31
0.0
  0
LINE
  5
561
102
{ACAD_REACTORS
330
672
102
}
330
1F
100
AcDbEntity
  8
実線
100
AcDbLine
 10
674.4722088848568
 20
594.2662965965448
 30
0.0
 11
674.4722088848568
 21
592.2662965965445
 31
0.0
  0
CIRCLE
  5
562
102
{ACAD_REACTORS
330
672
102
}
330
1F
100
AcDbEntity
  8
実線
100
AcDbCircle
 10
741.9722088848468
 20
435.2662965965447
 30
0.0
 40
38.75
  0
LINE
  5
563
102
{ACAD_REACTORS
330
672
102
}
330
1F
100
AcDbEntity
  8
実線
100
AcDbLine
 10
787.9722088848566
 20
710.2662965965446
 30
0.0
 11
695.9722088848568
 21
710.2662965965446
 31
0.0
  0
LINE
  5
564
102
{ACAD_REACTORS
330
672
102
}
330
1F
100
AcDbEntity
  8
実線
100
AcDbLine
 10
787.9722088848566
 20
700.2662965965446
 30
0.0
 11
787.9722088848566
 21
710.2662965965446
 31
0.0
  0
LINE
  5
565
102
{ACAD_REACTORS
330
672
102
}
330
1F
100
AcDbEntity
  8
実線
100
AcDbLine
 10
695.9722088848568
 20
710.2662965965446
 30
0.0
 11
695.9722088848568
 21
700.2662965965446
 31
0.0
  0
LINE
  5
566
102
{ACAD_REACTORS
330
672
102
}
330
1F
100
AcDbEntity
  8
実線
100
AcDbLine
 10
749.9722088848566
 20
717.2662965965446
 30
0.0
 11
749.9722088848566
 21
747.7662965965446
 31
0.0
  0
LINE
  5
567
102
{ACAD_REACTORS
330
672
102
}
330
1F
100
AcDbEntity
  8
実線
100
AcDbLine
 10
733.9722088848566
 20
747.7662965965446
 30
0.0
 11
733.9722088848566
 21
717.2662965965446
 31
0.0
  0
LINE
  5
568
102
{ACAD_REACTORS
330
672
102
}
330
1F
100
AcDbEntity
  8
実線
100
AcDbLine
 10
728.8722088848564
 20
746.3162965965445
 30
0.0
 11
720.9722088848568
 21
746.3162965965445
 31
0.0
  0
LINE
  5
569
102
{ACAD_REACTORS
330
672
102
}
330
1F
100
AcDbEntity
  8
実線
100
AcDbLine
 10
720.9722088848568
 20
746.3162965965445
 30
0.0
 11
720.9722088848568
 21
754.2162965965444
 31
0.0
  0
LINE
  5
56A
102
{ACAD_REACTORS
330
672
102
}
330
1F
100
AcDbEntity
  8
実線
100
AcDbLine
 10
728.8722088848564
 20
754.2162965965444
 30
0.0
 11
728.8722088848564
 21
746.3162965965445
 31
0.0
  0
LINE
  5
56B
102
{ACAD_REACTORS
330
672
102
}
330
1F
100
AcDbEntity
  8
実線
100
AcDbLine
 10
720.9722088848568
 20
754.2162965965444
 30
0.0
 11
728.8722088848564
 21
754.2162965965444
 31
0.0
  0
LINE
  5
56C
102
{ACAD_REACTORS
330
672
102
}
330
1F
100
AcDbEntity
  8
実線
100
AcDbLine
 10
718.9722088848569
 20
715.2662965965446
 30
0.0
 11
716.9722088848568
 21
715.2662965965446
 31
0.0
  0
LINE
  5
56D
102
{ACAD_REACTORS
330
672
102
}
330
1F
100
AcDbEntity
  8
実線
100
AcDbLine
 10
766.9722088848565
 20
710.2662965965446
 30
0.0
 11
766.9722088848565
 21
715.2662965965446
 31
0.0
  0
LINE
  5
56E
102
{ACAD_REACTORS
330
672
102
}
330
1F
100
AcDbEntity
  8
実線
100
AcDbLine
 10
716.9722088848568
 20
715.2662965965446
 30
0.0
 11
716.9722088848568
 21
710.2662965965446
 31
0.0
  0
CIRCLE
  5
56F
102
{ACAD_REACTORS
330
672
102
}
330
1F
100
AcDbEntity
  8
実線
100
AcDbCircle
 10
724.9222088848567
 20
750.2662965965446
 30
0.0
 40
1.5
  0
LINE
  5
570
102
{ACAD_REACTORS
330
672
102
}
330
1F
100
AcDbEntity
  8
実線
100
AcDbLine
 10
720.9722088848568
 20
730.3162965965445
 30
0.0
 11
720.9722088848568
 21
738.2162965965444
 31
0.0
  0
LINE
  5
571
102
{ACAD_REACTORS
330
672
102
}
330
1F
100
AcDbEntity
  8
実線
100
AcDbLine
 10
728.8722088848564
 20
738.2162965965444
 30
0.0
 11
728.8722088848564
 21
730.3162965965445
 31
0.0
  0
LINE
  5
572
102
{ACAD_REACTORS
330
672
102
}
330
1F
100
AcDbEntity
  8
実線
100
AcDbLine
 10
720.9722088848568
 20
738.2162965965444
 30
0.0
 11
728.8722088848564
 21
738.2162965965444
 31
0.0
  0
LINE
  5
573
102
{ACAD_REACTORS
330
672
102
}
330
1F
100
AcDbEntity
  8
実線
100
AcDbLine
 10
728.8722088848564
 20
730.3162965965445
 30
0.0
 11
720.9722088848568
 21
730.3162965965445
 31
0.0
  0
CIRCLE
  5
574
102
{ACAD_REACTORS
330
672
102
}
330
1F
100
AcDbEntity
  8
実線
100
AcDbCircle
 10
724.9222088848567
 20
734.2662965965446
 30
0.0
 40
1.5
  0
LINE
  5
575
102
{ACAD_REACTORS
330
672
102
}
330
1F
100
AcDbEntity
  8
実線
100
AcDbLine
 10
754.4722088848565
 20
752.7662965965446
 30
0.0
 11
729.4722088848565
 21
752.7662965965446
 31
0.0
  0
LINE
  5
576
102
{ACAD_REACTORS
330
672
102
}
330
1F
100
AcDbEntity
  8
実線
100
AcDbLine
 10
729.4722088848565
 20
747.7662965965446
 30
0.0
 11
754.4722088848565
 21
747.7662965965446
 31
0.0
  0
LINE
  5
577
102
{ACAD_REACTORS
330
672
102
}
330
1F
100
AcDbEntity
  8
実線
100
AcDbLine
 10
754.4722088848565
 20
747.7662965965446
 30
0.0
 11
754.4722088848565
 21
752.7662965965446
 31
0.0
  0
LINE
  5
578
102
{ACAD_REACTORS
330
672
102
}
330
1F
100
AcDbEntity
  8
実線
100
AcDbLine
 10
729.4722088848565
 20
752.7662965965446
 30
0.0
 11
729.4722088848565
 21
747.7662965965446
 31
0.0
  0
LINE
  5
579
102
{ACAD_REACTORS
330
672
102
}
330
1F
100
AcDbEntity
  8
実線
100
AcDbLine
 10
720.9722088848568
 20
717.2662965964964
 30
0.0
 11
766.9722088848565
 21
717.2662965964964
 31
0.0
  0
LINE
  5
57A
102
{ACAD_REACTORS
330
672
102
}
330
1F
100
AcDbEntity
  8
実線
100
AcDbLine
 10
718.9722088848569
 20
715.2662965965446
 30
0.0
 11
766.9722088848565
 21
715.2662965965446
 31
0.0
  0
LINE
  5
57B
102
{ACAD_REACTORS
330
672
102
}
330
1F
100
AcDbEntity
  8
実線
100
AcDbLine
 10
720.9722088848568
 20
754.2162965965444
 30
0.0
 11
720.9722088848568
 21
755.2662965965446
 31
0.0
  0
LINE
  5
57C
102
{ACAD_REACTORS
330
672
102
}
330
1F
100
AcDbEntity
  8
実線
100
AcDbLine
 10
720.9722088848568
 20
738.2162965965444
 30
0.0
 11
720.9722088848568
 21
746.3162965965445
 31
0.0
  0
LINE
  5
57D
102
{ACAD_REACTORS
330
672
102
}
330
1F
100
AcDbEntity
  8
実線
100
AcDbLine
 10
720.9722088848568
 20
717.2662965964964
 30
0.0
 11
720.9722088848568
 21
730.3162965965445
 31
0.0
  0
LINE
  5
57E
102
{ACAD_REACTORS
330
672
102
}
330
1F
100
AcDbEntity
  8
実線
100
AcDbLine
 10
720.9722088848568
 20
755.2662965965446
 30
0.0
 11
718.9722088848569
 21
755.2662965965446
 31
0.0
  0
LINE
  5
57F
102
{ACAD_REACTORS
330
672
102
}
330
1F
100
AcDbEntity
  8
実線
100
AcDbLine
 10
718.9722088848569
 20
715.2662965965446
 30
0.0
 11
718.9722088848569
 21
755.2662965965446
 31
0.0
  0
LINE
  5
580
102
{ACAD_REACTORS
330
672
102
}
330
1F
100
AcDbEntity
  8
実線
100
AcDbLine
 10
721.9722088848747
 20
715.2662965965446
 30
0.0
 11
721.9722088848747
 21
717.2662965964964
 31
0.0
  0
LINE
  5
581
102
{ACAD_REACTORS
330
672
102
}
330
1F
100
AcDbEntity
  8
実線
100
AcDbLine
 10
766.9722088848565
 20
715.2662965965446
 30
0.0
 11
766.9722088848565
 21
717.2662965965446
 31
0.0
  0
LINE
  5
582
102
{ACAD_REACTORS
330
672
102
}
330
1F
100
AcDbEntity
  8
実線
100
AcDbLine
 10
796.9722088848666
 20
408.4192844853342
 30
0.0
 11
796.9722088848666
 21
460.7662965965444
 31
0.0
  0
LINE
  5
583
102
{ACAD_REACTORS
330
672
102
}
330
1F
100
AcDbEntity
  8
実線
100
AcDbLine
 10
686.9722088848666
 20
460.7662965965444
 30
0.0
 11
686.9722088848666
 21
408.4192844853342
 31
0.0
  0
ARC
  5
584
102
{ACAD_REACTORS
330
672
102
}
330
1F
100
AcDbEntity
  8
実線
100
AcDbCircle
 10
786.9722088848666
 20
408.4192844853342
 30
0.0
 40
10.0
100
AcDbArc
 50
327.2960189846346
 51
0.0
  0
ARC
  5
585
102
{ACAD_REACTORS
330
672
102
}
330
1F
100
AcDbEntity
  8
実線
100
AcDbCircle
 10
696.9722088848666
 20
408.4192844853342
 30
0.0
 40
10.0
100
AcDbArc
 50
180.0
 51
212.7039810153653
  0
LINE
  5
586
102
{ACAD_REACTORS
330
672
102
}
330
1F
100
AcDbEntity
  8
実線
100
AcDbLine
 10
802.7518980627057
 20
460.7662965965444
 30
0.0
 11
802.7518980627057
 21
475.7662965965447
 31
0.0
  0
LINE
  5
587
102
{ACAD_REACTORS
330
672
102
}
330
1F
100
AcDbEntity
  8
実線
100
AcDbLine
 10
802.7518980627057
 20
460.7662965965444
 30
0.0
 11
771.1494688658659
 21
460.7662965965444
 31
0.0
  0
LINE
  5
588
102
{ACAD_REACTORS
330
672
102
}
330
1F
100
AcDbEntity
  8
実線
100
AcDbLine
 10
681.1925197070276
 20
460.7662965965444
 30
0.0
 11
712.7949489038266
 21
460.7662965965444
 31
0.0
  0
LINE
  5
589
102
{ACAD_REACTORS
330
672
102
}
330
1F
100
AcDbEntity
  8
実線
100
AcDbLine
 10
681.1925197070276
 20
475.7662965965447
 30
0.0
 11
681.1925197070276
 21
460.7662965965444
 31
0.0
  0
LINE
  5
58A
102
{ACAD_REACTORS
330
672
102
}
330
1F
100
AcDbEntity
  8
実線
100
AcDbLine
 10
768.7821810348077
 20
463.2446434619026
 30
0.0
 11
768.7821810348077
 21
475.7662965965447
 31
0.0
  0
LINE
  5
58B
102
{ACAD_REACTORS
330
672
102
}
330
1F
100
AcDbEntity
  8
実線
100
AcDbLine
 10
715.1622367349257
 20
463.2446434619415
 30
0.0
 11
715.1622367349257
 21
475.7662965965447
 31
0.0
  0
LINE
  5
58C
102
{ACAD_REACTORS
330
672
102
}
330
1F
100
AcDbEntity
  8
実線
100
AcDbLine
 10
814.4722088848565
 20
695.2662965965446
 30
0.0
 11
814.4722088848565
 21
697.2662965965446
 31
0.0
  0
LINE
  5
58D
102
{ACAD_REACTORS
330
672
102
}
330
1F
100
AcDbEntity
  8
実線
100
AcDbLine
 10
669.4722088848569
 20
697.2662965965446
 30
0.0
 11
669.4722088848569
 21
695.2662965965446
 31
0.0
  0
LINE
  5
58E
102
{ACAD_REACTORS
330
672
102
}
330
1F
100
AcDbEntity
  8
実線
100
AcDbLine
 10
811.4722088848566
 20
700.2662965965446
 30
0.0
 11
672.4722088848568
 21
700.2662965965446
 31
0.0
  0
ARC
  5
58F
102
{ACAD_REACTORS
330
672
102
}
330
1F
100
AcDbEntity
  8
実線
100
AcDbCircle
 10
811.4722088848566
 20
697.2662965965446
 30
0.0
 40
3.0
100
AcDbArc
 50
0.0
 51
90.0
  0
ARC
  5
590
102
{ACAD_REACTORS
330
672
102
}
330
1F
100
AcDbEntity
  8
実線
100
AcDbCircle
 10
672.4722088848568
 20
697.2662965965446
 30
0.0
 40
3.0
100
AcDbArc
 50
90.0
 51
180.0
  0
LINE
  5
591
102
{ACAD_REACTORS
330
672
102
}
330
1F
100
AcDbEntity
  8
実線
100
AcDbLine
 10
688.5574764545647
 20
403.0162965965447
 30
0.0
 11
643.5722088848567
 21
403.0162965965447
 31
0.0
  0
LINE
  5
592
102
{ACAD_REACTORS
330
672
102
}
330
1F
100
AcDbEntity
  8
実線
100
AcDbLine
 10
840.3722088848555
 20
403.0162965965447
 30
0.0
 11
795.3869413151696
 21
403.0162965965447
 31
0.0
  0
LINE
  5
593
102
{ACAD_REACTORS
330
672
102
}
330
1F
100
AcDbEntity
  8
実線
100
AcDbLine
 10
766.9722088848787
 20
339.5162965965448
 30
0.0
 11
840.3722088848564
 21
339.5162965965448
 31
0.0
  0
LINE
  5
594
102
{ACAD_REACTORS
330
672
102
}
330
1F
100
AcDbEntity
  8
実線
100
AcDbLine
 10
643.5722088848567
 20
339.5162965965448
 30
0.0
 11
716.9722088848787
 21
339.5162965965448
 31
0.0
  0
LINE
  5
595
102
{ACAD_REACTORS
330
672
102
}
330
1F
100
AcDbEntity
  8
実線
100
AcDbLine
 10
846.9722088848566
 20
332.5162965965447
 30
0.0
 11
846.9722088848566
 21
410.0162965965447
 31
0.0
  0
LINE
  5
596
102
{ACAD_REACTORS
330
672
102
}
330
1F
100
AcDbEntity
  8
実線
100
AcDbLine
 10
846.9722088848566
 20
410.0162965965447
 30
0.0
 11
843.4722088848566
 21
410.0162965965447
 31
0.0
  0
LINE
  5
597
102
{ACAD_REACTORS
330
672
102
}
330
1F
100
AcDbEntity
  8
実線
100
AcDbLine
 10
843.4722088848566
 20
332.5162965965447
 30
0.0
 11
846.9722088848566
 21
332.5162965965447
 31
0.0
  0
LINE
  5
598
102
{ACAD_REACTORS
330
672
102
}
330
1F
100
AcDbEntity
  8
実線
100
AcDbLine
 10
636.9722088848568
 20
332.5162965965447
 30
0.0
 11
640.4722088848568
 21
332.5162965965447
 31
0.0
  0
LINE
  5
599
102
{ACAD_REACTORS
330
672
102
}
330
1F
100
AcDbEntity
  8
実線
100
AcDbLine
 10
640.4722088848568
 20
410.0162965965447
 30
0.0
 11
636.9722088848568
 21
410.0162965965447
 31
0.0
  0
LINE
  5
59A
102
{ACAD_REACTORS
330
672
102
}
330
1F
100
AcDbEntity
  8
実線
100
AcDbLine
 10
636.9722088848568
 20
410.0162965965447
 30
0.0
 11
636.9722088848568
 21
332.5162965965447
 31
0.0
  0
LINE
  5
59B
102
{ACAD_REACTORS
330
672
102
}
330
1F
100
AcDbEntity
  8
実線
100
AcDbLine
 10
643.5722088848567
 20
403.0162965965447
 30
0.0
 11
640.4722088848568
 21
410.0162965965447
 31
0.0
  0
LINE
  5
59C
102
{ACAD_REACTORS
330
672
102
}
330
1F
100
AcDbEntity
  8
実線
100
AcDbLine
 10
640.4722088848568
 20
332.5162965965447
 30
0.0
 11
643.5722088848567
 21
339.5162965965448
 31
0.0
  0
LINE
  5
59D
102
{ACAD_REACTORS
330
672
102
}
330
1F
100
AcDbEntity
  8
実線
100
AcDbLine
 10
640.4722088848568
 20
410.0162965965447
 30
0.0
 11
640.4722088848568
 21
332.5162965965447
 31
0.0
  0
LINE
  5
59E
102
{ACAD_REACTORS
330
672
102
}
330
1F
100
AcDbEntity
  8
実線
100
AcDbLine
 10
643.5722088848567
 20
403.0162965965447
 30
0.0
 11
643.5722088848567
 21
339.5162965965448
 31
0.0
  0
LINE
  5
59F
102
{ACAD_REACTORS
330
672
102
}
330
1F
100
AcDbEntity
  8
実線
100
AcDbLine
 10
843.4722088848566
 20
332.5162965965447
 30
0.0
 11
843.4722088848566
 21
410.0162965965447
 31
0.0
  0
LINE
  5
5A0
102
{ACAD_REACTORS
330
672
102
}
330
1F
100
AcDbEntity
  8
実線
100
AcDbLine
 10
840.3722088848555
 20
339.5162965965448
 30
0.0
 11
840.3722088848555
 21
403.0162965965447
 31
0.0
  0
LINE
  5
5A1
102
{ACAD_REACTORS
330
672
102
}
330
1F
100
AcDbEntity
  8
実線
100
AcDbLine
 10
840.3722088848555
 20
339.5162965965448
 30
0.0
 11
843.4722088848566
 21
332.5162965965447
 31
0.0
  0
LINE
  5
5A2
102
{ACAD_REACTORS
330
672
102
}
330
1F
100
AcDbEntity
  8
実線
100
AcDbLine
 10
843.4722088848566
 20
410.0162965965447
 30
0.0
 11
840.3722088848555
 21
403.0162965965447
 31
0.0
  0
LINE
  5
5A3
102
{ACAD_REACTORS
330
672
102
}
330
1F
100
AcDbEntity
  8
実線
100
AcDbLine
 10
755.4722088848566
 20
527.2662965965448
 30
0.0
 11
791.9722088848566
 21
527.2662965965448
 31
0.0
  0
LINE
  5
5A4
102
{ACAD_REACTORS
330
672
102
}
330
1F
100
AcDbEntity
  8
実線
100
AcDbLine
 10
791.9722088848566
 20
527.2662965965448
 30
0.0
 11
791.9722088848566
 21
592.2662965965445
 31
0.0
  0
LINE
  5
5A5
102
{ACAD_REACTORS
330
672
102
}
330
1F
100
AcDbEntity
  8
実線
100
AcDbLine
 10
691.9722088848568
 20
592.2662965965445
 30
0.0
 11
691.9722088848568
 21
527.2662965965448
 31
0.0
  0
LINE
  5
5A6
102
{ACAD_REACTORS
330
672
102
}
330
1F
100
AcDbEntity
  8
実線
100
AcDbLine
 10
691.9722088848568
 20
527.2662965965448
 30
0.0
 11
728.4722088848566
 21
527.2662965965448
 31
0.0
  0
LINE
  5
5A7
102
{ACAD_REACTORS
330
672
102
}
330
1F
100
AcDbEntity
  8
実線
100
AcDbLine
 10
728.4722088848566
 20
489.2662965965448
 30
0.0
 11
728.4722088848566
 21
592.2662965965445
 31
0.0
  0
LINE
  5
5A8
102
{ACAD_REACTORS
330
672
102
}
330
1F
100
AcDbEntity
  8
実線
100
AcDbLine
 10
755.4722088848566
 20
489.2662965965448
 30
0.0
 11
755.4722088848566
 21
592.2662965965445
 31
0.0
  0
LINE
  5
5A9
102
{ACAD_REACTORS
330
672
102
}
330
1F
100
AcDbEntity
  8
実線
100
AcDbLine
 10
766.9722088848787
 20
338.0162965965445
 30
0.0
 11
716.9722088848787
 21
338.0162965965445
 31
0.0
  0
LINE
  5
5AA
102
{ACAD_REACTORS
330
672
102
}
330
1F
100
AcDbEntity
  8
実線
100
AcDbLine
 10
716.9722088848787
 20
338.0162965965445
 30
0.0
 11
716.9722088848787
 21
400.5488846462286
 31
0.0
  0
LINE
  5
5AB
102
{ACAD_REACTORS
330
672
102
}
330
1F
100
AcDbEntity
  8
実線
100
AcDbLine
 10
766.9722088848787
 20
400.548884646244
 30
0.0
 11
766.9722088848787
 21
338.0162965965445
 31
0.0
  0
LINE
  5
5AC
102
{ACAD_REACTORS
330
675
102
}
330
1F
100
AcDbEntity
  8
実線
100
AcDbLine
 10
149.4722088848666
 20
752.7662965965446
 30
0.0
 11
149.4722088848666
 21
758.0662965965445
 31
0.0
  0
LINE
  5
5AD
102
{ACAD_REACTORS
330
675
102
}
330
1F
100
AcDbEntity
  8
実線
100
AcDbLine
 10
134.4722088848666
 20
758.0662965965445
 30
0.0
 11
134.4722088848666
 21
752.7662965965446
 31
0.0
  0
LINE
  5
5AE
102
{ACAD_REACTORS
330
675
102
}
330
1F
100
AcDbEntity
  8
実線
100
AcDbLine
 10
149.4722088848666
 20
758.0662965965445
 30
0.0
 11
134.4722088848666
 21
758.0662965965445
 31
0.0
  0
LINE
  5
5AF
102
{ACAD_REACTORS
330
675
102
}
330
1F
100
AcDbEntity
  8
実線
100
AcDbLine
 10
81.19251970702794
 20
489.2662965965447
 30
0.0
 11
202.7518980627054
 21
489.2662965965447
 31
0.0
  0
LINE
  5
5B0
102
{ACAD_REACTORS
330
675
102
}
330
1F
100
AcDbEntity
  8
実線
100
AcDbLine
 10
202.7518980627054
 20
475.7662965965447
 30
0.0
 11
202.7518980627054
 21
489.2662965965447
 31
0.0
  0
LINE
  5
5B1
102
{ACAD_REACTORS
330
675
102
}
330
1F
100
AcDbEntity
  8
実線
100
AcDbLine
 10
81.19251970702794
 20
489.2662965965447
 30
0.0
 11
81.19251970702794
 21
475.7662965965447
 31
0.0
  0
LINE
  5
5B2
102
{ACAD_REACTORS
330
675
102
}
330
1F
100
AcDbEntity
  8
実線
100
AcDbLine
 10
168.782181034808
 20
475.7662965965447
 30
0.0
 11
168.782181034808
 21
489.2662965965447
 31
0.0
  0
LINE
  5
5B3
102
{ACAD_REACTORS
330
675
102
}
330
1F
100
AcDbEntity
  8
実線
100
AcDbLine
 10
115.1622367349256
 20
475.7662965965447
 30
0.0
 11
115.1622367349256
 21
489.2662965965447
 31
0.0
  0
LINE
  5
5B4
102
{ACAD_REACTORS
330
675
102
}
330
1F
100
AcDbEntity
  8
実線
100
AcDbLine
 10
214.4722088848666
 20
594.2662965965448
 30
0.0
 11
214.4722088848666
 21
695.2662965965446
 31
0.0
  0
LINE
  5
5B5
102
{ACAD_REACTORS
330
675
102
}
330
1F
100
AcDbEntity
  8
実線
100
AcDbLine
 10
69.47220888486686
 20
695.2662965965446
 30
0.0
 11
69.47220888486686
 21
594.2662965965448
 31
0.0
  0
LINE
  5
5B6
102
{ACAD_REACTORS
330
675
102
}
330
1F
100
AcDbEntity
  8
実線
100
AcDbLine
 10
214.4722088848666
 20
695.2662965965446
 30
0.0
 11
69.47220888486686
 21
695.2662965965446
 31
0.0
  0
LINE
  5
5B7
102
{ACAD_REACTORS
330
675
102
}
330
1F
100
AcDbEntity
  8
実線
100
AcDbLine
 10
214.4722088848666
 20
594.2662965965448
 30
0.0
 11
69.47220888486686
 21
594.2662965965448
 31
0.0
  0
LINE
  5
5B8
102
{ACAD_REACTORS
330
675
102
}
330
1F
100
AcDbEntity
  8
実線
100
AcDbLine
 10
209.4722088848666
 20
592.2662965965445
 30
0.0
 11
209.4722088848666
 21
594.2662965965448
 31
0.0
  0
LINE
  5
5B9
102
{ACAD_REACTORS
330
675
102
}
330
1F
100
AcDbEntity
  8
実線
100
AcDbLine
 10
74.47220888486663
 20
594.2662965965448
 30
0.0
 11
74.47220888486663
 21
592.2662965965445
 31
0.0
  0
LINE
  5
5BA
102
{ACAD_REACTORS
330
675
102
}
330
1F
100
AcDbEntity
  8
実線
100
AcDbLine
 10
209.4722088848666
 20
592.2662965965445
 30
0.0
 11
74.47220888486663
 21
592.2662965965445
 31
0.0
  0
CIRCLE
  5
5BB
102
{ACAD_REACTORS
330
675
102
}
330
1F
100
AcDbEntity
  8
実線
100
AcDbCircle
 10
141.9722088848566
 20
435.2662965965447
 30
0.0
 40
38.75
  0
LINE
  5
5BC
102
{ACAD_REACTORS
330
675
102
}
330
1F
100
AcDbEntity
  8
実線
100
AcDbLine
 10
187.9722088848666
 20
700.2662965965446
 30
0.0
 11
187.9722088848666
 21
710.2662965965446
 31
0.0
  0
LINE
  5
5BD
102
{ACAD_REACTORS
330
675
102
}
330
1F
100
AcDbEntity
  8
実線
100
AcDbLine
 10
95.97220888486663
 20
710.2662965965446
 30
0.0
 11
95.97220888486663
 21
700.2662965965446
 31
0.0
  0
LINE
  5
5BE
102
{ACAD_REACTORS
330
675
102
}
330
1F
100
AcDbEntity
  8
実線
100
AcDbLine
 10
187.9722088848666
 20
710.2662965965446
 30
0.0
 11
95.97220888486663
 21
710.2662965965446
 31
0.0
  0
LINE
  5
5BF
102
{ACAD_REACTORS
330
675
102
}
330
1F
100
AcDbEntity
  8
実線
100
AcDbLine
 10
149.9722088848666
 20
717.2662965965446
 30
0.0
 11
149.9722088848666
 21
747.7662965965446
 31
0.0
  0
LINE
  5
5C0
102
{ACAD_REACTORS
330
675
102
}
330
1F
100
AcDbEntity
  8
実線
100
AcDbLine
 10
133.9722088848666
 20
747.7662965965446
 30
0.0
 11
133.9722088848666
 21
717.2662965965446
 31
0.0
  0
LINE
  5
5C1
102
{ACAD_REACTORS
330
675
102
}
330
1F
100
AcDbEntity
  8
実線
100
AcDbLine
 10
155.0722088848667
 20
754.2162965965444
 30
0.0
 11
162.9722088848666
 21
754.2162965965444
 31
0.0
  0
LINE
  5
5C2
102
{ACAD_REACTORS
330
675
102
}
330
1F
100
AcDbEntity
  8
実線
100
AcDbLine
 10
162.9722088848666
 20
746.3162965965445
 30
0.0
 11
155.0722088848667
 21
746.3162965965445
 31
0.0
  0
LINE
  5
5C3
102
{ACAD_REACTORS
330
675
102
}
330
1F
100
AcDbEntity
  8
実線
100
AcDbLine
 10
155.0722088848667
 20
746.3162965965445
 30
0.0
 11
155.0722088848667
 21
754.2162965965444
 31
0.0
  0
LINE
  5
5C4
102
{ACAD_REACTORS
330
675
102
}
330
1F
100
AcDbEntity
  8
実線
100
AcDbLine
 10
166.9722088848666
 20
710.2662965965446
 30
0.0
 11
166.9722088848666
 21
715.2662965965446
 31
0.0
  0
LINE
  5
5C5
102
{ACAD_REACTORS
330
675
102
}
330
1F
100
AcDbEntity
  8
実線
100
AcDbLine
 10
116.9722088848666
 20
715.2662965965446
 30
0.0
 11
116.9722088848666
 21
710.2662965965446
 31
0.0
  0
LINE
  5
5C6
102
{ACAD_REACTORS
330
675
102
}
330
1F
100
AcDbEntity
  8
実線
100
AcDbLine
 10
116.9722088848666
 20
715.2662965965446
 30
0.0
 11
166.9722088848666
 21
715.2662965965446
 31
0.0
  0
LINE
  5
5C7
102
{ACAD_REACTORS
330
675
102
}
330
1F
100
AcDbEntity
  8
実線
100
AcDbLine
 10
155.0722088848667
 20
738.2162965965444
 30
0.0
 11
162.9722088848666
 21
738.2162965965444
 31
0.0
  0
LINE
  5
5C8
102
{ACAD_REACTORS
330
675
102
}
330
1F
100
AcDbEntity
  8
実線
100
AcDbLine
 10
155.0722088848667
 20
730.3162965965445
 30
0.0
 11
155.0722088848667
 21
738.2162965965444
 31
0.0
  0
LINE
  5
5C9
102
{ACAD_REACTORS
330
675
102
}
330
1F
100
AcDbEntity
  8
実線
100
AcDbLine
 10
162.9722088848666
 20
730.3162965965445
 30
0.0
 11
155.0722088848667
 21
730.3162965965445
 31
0.0
  0
LINE
  5
5CA
102
{ACAD_REACTORS
330
675
102
}
330
1F
100
AcDbEntity
  8
実線
100
AcDbLine
 10
154.4722088848666
 20
747.7662965965446
 30
0.0
 11
154.4722088848666
 21
752.7662965965446
 31
0.0
  0
LINE
  5
5CB
102
{ACAD_REACTORS
330
675
102
}
330
1F
100
AcDbEntity
  8
実線
100
AcDbLine
 10
129.4722088848666
 20
752.7662965965446
 30
0.0
 11
129.4722088848666
 21
747.7662965965446
 31
0.0
  0
LINE
  5
5CC
102
{ACAD_REACTORS
330
675
102
}
330
1F
100
AcDbEntity
  8
実線
100
AcDbLine
 10
154.4722088848666
 20
752.7662965965446
 30
0.0
 11
129.4722088848666
 21
752.7662965965446
 31
0.0
  0
LINE
  5
5CD
102
{ACAD_REACTORS
330
675
102
}
330
1F
100
AcDbEntity
  8
実線
100
AcDbLine
 10
129.4722088848666
 20
747.7662965965446
 30
0.0
 11
154.4722088848666
 21
747.7662965965446
 31
0.0
  0
LINE
  5
5CE
102
{ACAD_REACTORS
330
675
102
}
330
1F
100
AcDbEntity
  8
実線
100
AcDbLine
 10
162.9722088848666
 20
717.2662965964964
 30
0.0
 11
116.9722088848666
 21
717.2662965964964
 31
0.0
  0
LINE
  5
5CF
102
{ACAD_REACTORS
330
675
102
}
330
1F
100
AcDbEntity
  8
実線
100
AcDbLine
 10
164.9722088848666
 20
715.2662965965446
 30
0.0
 11
164.9722088848666
 21
755.2662965965446
 31
0.0
  0
LINE
  5
5D0
102
{ACAD_REACTORS
330
675
102
}
330
1F
100
AcDbEntity
  8
実線
100
AcDbLine
 10
164.9722088848666
 20
755.2662965965446
 30
0.0
 11
162.9722088848666
 21
755.2662965965446
 31
0.0
  0
LINE
  5
5D1
102
{ACAD_REACTORS
330
675
102
}
330
1F
100
AcDbEntity
  8
実線
100
AcDbLine
 10
162.9722088848666
 20
755.2662965965446
 30
0.0
 11
162.9722088848666
 21
717.2662965964964
 31
0.0
  0
LINE
  5
5D2
102
{ACAD_REACTORS
330
675
102
}
330
1F
100
AcDbEntity
  8
実線
100
AcDbLine
 10
161.9722088848666
 20
717.2662965965446
 30
0.0
 11
161.9722088848666
 21
715.2662965965446
 31
0.0
  0
LINE
  5
5D3
102
{ACAD_REACTORS
330
675
102
}
330
1F
100
AcDbEntity
  8
実線
100
AcDbLine
 10
116.9722088848666
 20
717.2662965965446
 30
0.0
 11
116.9722088848666
 21
715.2662965965446
 31
0.0
  0
LINE
  5
5D4
102
{ACAD_REACTORS
330
675
102
}
330
1F
100
AcDbEntity
  8
実線
100
AcDbLine
 10
166.9722088848673
 20
338.0162965965445
 30
0.0
 11
116.9722088848673
 21
338.0162965965445
 31
0.0
  0
LINE
  5
5D5
102
{ACAD_REACTORS
330
675
102
}
330
1F
100
AcDbEntity
  8
実線
100
AcDbLine
 10
166.9722088848673
 20
400.5488846462441
 30
0.0
 11
166.9722088848673
 21
338.0162965965445
 31
0.0
  0
LINE
  5
5D6
102
{ACAD_REACTORS
330
675
102
}
330
1F
100
AcDbEntity
  8
実線
100
AcDbLine
 10
116.9722088848673
 20
338.0162965965445
 30
0.0
 11
116.9722088848673
 21
400.5488846462293
 31
0.0
  0
LINE
  5
5D7
102
{ACAD_REACTORS
330
675
102
}
330
1F
100
AcDbEntity
  8
実線
100
AcDbLine
 10
81.19251970701771
 20
475.7662965965447
 30
0.0
 11
202.7518980626954
 21
475.7662965965447
 31
0.0
  0
LINE
  5
5D8
102
{ACAD_REACTORS
330
675
102
}
330
1F
100
AcDbEntity
  8
実線
100
AcDbLine
 10
196.9722088848566
 20
408.4192844853342
 30
0.0
 11
196.9722088848566
 21
460.7662965965444
 31
0.0
  0
LINE
  5
5D9
102
{ACAD_REACTORS
330
675
102
}
330
1F
100
AcDbEntity
  8
実線
100
AcDbLine
 10
86.97220888485663
 20
460.7662965965444
 30
0.0
 11
86.97220888485663
 21
408.4192844853342
 31
0.0
  0
ARC
  5
5DA
102
{ACAD_REACTORS
330
675
102
}
330
1F
100
AcDbEntity
  8
実線
100
AcDbCircle
 10
186.9722088848566
 20
408.4192844853342
 30
0.0
 40
10.0
100
AcDbArc
 50
327.2960189846346
 51
0.0
  0
ARC
  5
5DB
102
{ACAD_REACTORS
330
675
102
}
330
1F
100
AcDbEntity
  8
実線
100
AcDbCircle
 10
96.97220888485663
 20
408.4192844853342
 30
0.0
 40
10.0
100
AcDbArc
 50
180.0
 51
212.7039810153653
  0
LINE
  5
5DC
102
{ACAD_REACTORS
330
675
102
}
330
1F
100
AcDbEntity
  8
実線
100
AcDbLine
 10
202.7518980626954
 20
460.7662965965444
 30
0.0
 11
202.7518980626954
 21
475.7662965965447
 31
0.0
  0
LINE
  5
5DD
102
{ACAD_REACTORS
330
675
102
}
330
1F
100
AcDbEntity
  8
実線
100
AcDbLine
 10
202.7518980626954
 20
460.7662965965444
 30
0.0
 11
171.149468865876
 21
460.7662965965444
 31
0.0
  0
LINE
  5
5DE
102
{ACAD_REACTORS
330
675
102
}
330
1F
100
AcDbEntity
  8
実線
100
AcDbLine
 10
81.19251970701771
 20
460.7662965965444
 30
0.0
 11
112.7949489038372
 21
460.7662965965444
 31
0.0
  0
LINE
  5
5DF
102
{ACAD_REACTORS
330
675
102
}
330
1F
100
AcDbEntity
  8
実線
100
AcDbLine
 10
81.19251970701771
 20
475.7662965965447
 30
0.0
 11
81.19251970701771
 21
460.7662965965444
 31
0.0
  0
LINE
  5
5E0
102
{ACAD_REACTORS
330
675
102
}
330
1F
100
AcDbEntity
  8
実線
100
AcDbLine
 10
168.7821810347977
 20
463.244643461922
 30
0.0
 11
168.7821810347977
 21
475.7662965965447
 31
0.0
  0
LINE
  5
5E1
102
{ACAD_REACTORS
330
675
102
}
330
1F
100
AcDbEntity
  8
実線
100
AcDbLine
 10
115.1622367349155
 20
463.244643461922
 30
0.0
 11
115.1622367349155
 21
475.7662965965447
 31
0.0
  0
LINE
  5
5E2
102
{ACAD_REACTORS
330
675
102
}
330
1F
100
AcDbEntity
  8
実線
100
AcDbLine
 10
214.4722088848666
 20
695.2662965965446
 30
0.0
 11
214.4722088848666
 21
697.2662965965446
 31
0.0
  0
LINE
  5
5E3
102
{ACAD_REACTORS
330
675
102
}
330
1F
100
AcDbEntity
  8
実線
100
AcDbLine
 10
69.47220888486686
 20
697.2662965965446
 30
0.0
 11
69.47220888486686
 21
695.2662965965446
 31
0.0
  0
LINE
  5
5E4
102
{ACAD_REACTORS
330
675
102
}
330
1F
100
AcDbEntity
  8
実線
100
AcDbLine
 10
72.47220888486663
 20
700.2662965965446
 30
0.0
 11
211.4722088848666
 21
700.2662965965446
 31
0.0
  0
ARC
  5
5E5
102
{ACAD_REACTORS
330
675
102
}
330
1F
100
AcDbEntity
  8
実線
100
AcDbCircle
 10
211.4722088848666
 20
697.2662965965446
 30
0.0
 40
3.0
100
AcDbArc
 50
0.0
 51
90.0
  0
ARC
  5
5E6
102
{ACAD_REACTORS
330
675
102
}
330
1F
100
AcDbEntity
  8
実線
100
AcDbCircle
 10
72.47220888486663
 20
697.2662965965446
 30
0.0
 40
3.0
100
AcDbArc
 50
90.0
 51
180.0
  0
LINE
  5
5E7
102
{ACAD_REACTORS
330
675
102
}
330
1F
100
AcDbEntity
  8
実線
100
AcDbLine
 10
166.9722088848673
 20
339.5162965965448
 30
0.0
 11
240.3722088848673
 21
339.5162965965448
 31
0.0
  0
LINE
  5
5E8
102
{ACAD_REACTORS
330
675
102
}
330
1F
100
AcDbEntity
  8
実線
100
AcDbLine
 10
43.57220888486745
 20
339.5162965965448
 30
0.0
 11
116.9722088848673
 21
339.5162965965448
 31
0.0
  0
LINE
  5
5E9
102
{ACAD_REACTORS
330
675
102
}
330
1F
100
AcDbEntity
  8
実線
100
AcDbLine
 10
88.5574764545538
 20
403.0162965965447
 30
0.0
 11
43.57220888486745
 21
403.0162965965447
 31
0.0
  0
LINE
  5
5EA
102
{ACAD_REACTORS
330
675
102
}
330
1F
100
AcDbEntity
  8
実線
100
AcDbLine
 10
240.3722088848673
 20
403.0162965965447
 30
0.0
 11
195.3869413151594
 21
403.0162965965447
 31
0.0
  0
LINE
  5
5EB
102
{ACAD_REACTORS
330
675
102
}
330
1F
100
AcDbEntity
  8
実線
100
AcDbLine
 10
240.3722088848673
 20
339.5162965965448
 30
0.0
 11
240.3722088848673
 21
403.0162965965447
 31
0.0
  0
LINE
  5
5EC
102
{ACAD_REACTORS
330
675
102
}
330
1F
100
AcDbEntity
  8
実線
100
AcDbLine
 10
240.3722088848673
 20
339.5162965965448
 30
0.0
 11
243.4722088848672
 21
332.5162965965447
 31
0.0
  0
LINE
  5
5ED
102
{ACAD_REACTORS
330
675
102
}
330
1F
100
AcDbEntity
  8
実線
100
AcDbLine
 10
243.4722088848672
 20
410.0162965965447
 30
0.0
 11
240.3722088848673
 21
403.0162965965447
 31
0.0
  0
LINE
  5
5EE
102
{ACAD_REACTORS
330
675
102
}
330
1F
100
AcDbEntity
  8
実線
100
AcDbLine
 10
43.57220888486745
 20
403.0162965965447
 30
0.0
 11
40.47220888486743
 21
410.0162965965447
 31
0.0
  0
LINE
  5
5EF
102
{ACAD_REACTORS
330
675
102
}
330
1F
100
AcDbEntity
  8
実線
100
AcDbLine
 10
40.47220888486743
 20
332.5162965965447
 30
0.0
 11
43.57220888486745
 21
339.5162965965448
 31
0.0
  0
LINE
  5
5F0
102
{ACAD_REACTORS
330
675
102
}
330
1F
100
AcDbEntity
  8
実線
100
AcDbLine
 10
43.57220888486745
 20
403.0162965965447
 30
0.0
 11
43.57220888486745
 21
339.5162965965448
 31
0.0
  0
LINE
  5
5F1
102
{ACAD_REACTORS
330
675
102
}
330
1F
100
AcDbEntity
  8
実線
100
AcDbLine
 10
36.97220888486743
 20
332.5162965965447
 30
0.0
 11
40.47220888486743
 21
332.5162965965447
 31
0.0
  0
LINE
  5
5F2
102
{ACAD_REACTORS
330
675
102
}
330
1F
100
AcDbEntity
  8
実線
100
AcDbLine
 10
40.47220888486743
 20
410.0162965965447
 30
0.0
 11
36.97220888486743
 21
410.0162965965447
 31
0.0
  0
LINE
  5
5F3
102
{ACAD_REACTORS
330
675
102
}
330
1F
100
AcDbEntity
  8
実線
100
AcDbLine
 10
36.97220888486743
 20
410.0162965965447
 30
0.0
 11
36.97220888486743
 21
332.5162965965447
 31
0.0
  0
LINE
  5
5F4
102
{ACAD_REACTORS
330
675
102
}
330
1F
100
AcDbEntity
  8
実線
100
AcDbLine
 10
40.47220888486743
 20
410.0162965965447
 30
0.0
 11
40.47220888486743
 21
332.5162965965447
 31
0.0
  0
LINE
  5
5F5
102
{ACAD_REACTORS
330
675
102
}
330
1F
100
AcDbEntity
  8
実線
100
AcDbLine
 10
246.9722088848672
 20
332.5162965965447
 30
0.0
 11
246.9722088848672
 21
410.0162965965447
 31
0.0
  0
LINE
  5
5F6
102
{ACAD_REACTORS
330
675
102
}
330
1F
100
AcDbEntity
  8
実線
100
AcDbLine
 10
243.4722088848672
 20
332.5162965965447
 30
0.0
 11
243.4722088848672
 21
410.0162965965447
 31
0.0
  0
LINE
  5
5F7
102
{ACAD_REACTORS
330
675
102
}
330
1F
100
AcDbEntity
  8
実線
100
AcDbLine
 10
246.9722088848672
 20
410.0162965965447
 30
0.0
 11
243.4722088848672
 21
410.0162965965447
 31
0.0
  0
LINE
  5
5F8
102
{ACAD_REACTORS
330
675
102
}
330
1F
100
AcDbEntity
  8
実線
100
AcDbLine
 10
243.4722088848672
 20
332.5162965965447
 30
0.0
 11
246.9722088848672
 21
332.5162965965447
 31
0.0
  0
LINE
  5
5F9
102
{ACAD_REACTORS
330
675
102
}
330
1F
100
AcDbEntity
  8
実線
100
AcDbLine
 10
155.4722088848666
 20
527.2662965965448
 30
0.0
 11
191.9722088848666
 21
527.2662965965448
 31
0.0
  0
LINE
  5
5FA
102
{ACAD_REACTORS
330
675
102
}
330
1F
100
AcDbEntity
  8
実線
100
AcDbLine
 10
191.9722088848666
 20
527.2662965965448
 30
0.0
 11
191.9722088848666
 21
592.2662965965445
 31
0.0
  0
LINE
  5
5FB
102
{ACAD_REACTORS
330
675
102
}
330
1F
100
AcDbEntity
  8
実線
100
AcDbLine
 10
91.97220888486663
 20
592.2662965965445
 30
0.0
 11
91.97220888486663
 21
527.2662965965448
 31
0.0
  0
LINE
  5
5FC
102
{ACAD_REACTORS
330
675
102
}
330
1F
100
AcDbEntity
  8
実線
100
AcDbLine
 10
91.97220888486663
 20
527.2662965965448
 30
0.0
 11
128.4722088848666
 21
527.2662965965448
 31
0.0
  0
LINE
  5
5FD
102
{ACAD_REACTORS
330
675
102
}
330
1F
100
AcDbEntity
  8
実線
100
AcDbLine
 10
128.4722088848666
 20
489.2662965965448
 30
0.0
 11
128.4722088848666
 21
592.2662965965445
 31
0.0
  0
LINE
  5
5FE
102
{ACAD_REACTORS
330
675
102
}
330
1F
100
AcDbEntity
  8
実線
100
AcDbLine
 10
155.4722088848666
 20
489.2662965965448
 30
0.0
 11
155.4722088848666
 21
592.2662965965445
 31
0.0
  0
LINE
  5
5FF
102
{ACAD_REACTORS
330
674
102
}
330
1F
100
AcDbEntity
  8
実線
100
AcDbLine
 10
449.4722088848566
 20
755.2662965965446
 30
0.0
 11
449.4722088848566
 21
758.0662965965445
 31
0.0
  0
LINE
  5
600
102
{ACAD_REACTORS
330
674
102
}
330
1F
100
AcDbEntity
  8
実線
100
AcDbLine
 10
434.4722088848562
 20
758.0662965965445
 30
0.0
 11
434.4722088848562
 21
752.7662965965446
 31
0.0
  0
LINE
  5
601
102
{ACAD_REACTORS
330
674
102
}
330
1F
100
AcDbEntity
  8
実線
100
AcDbLine
 10
449.4722088848566
 20
758.0662965965445
 30
0.0
 11
434.4722088848562
 21
758.0662965965445
 31
0.0
  0
LINE
  5
602
102
{ACAD_REACTORS
330
674
102
}
330
1F
100
AcDbEntity
  8
実線
100
AcDbLine
 10
502.7518980626955
 20
489.2662965965447
 30
0.0
 11
381.1925197070183
 21
489.2662965965447
 31
0.0
  0
LINE
  5
603
102
{ACAD_REACTORS
330
674
102
}
330
1F
100
AcDbEntity
  8
実線
100
AcDbLine
 10
502.7518980626955
 20
475.7662965965447
 30
0.0
 11
381.1925197070183
 21
475.7662965965447
 31
0.0
  0
LINE
  5
604
102
{ACAD_REACTORS
330
674
102
}
330
1F
100
AcDbEntity
  8
実線
100
AcDbLine
 10
381.1925197070183
 20
489.2662965965447
 30
0.0
 11
381.1925197070183
 21
475.7662965965447
 31
0.0
  0
LINE
  5
605
102
{ACAD_REACTORS
330
674
102
}
330
1F
100
AcDbEntity
  8
実線
100
AcDbLine
 10
502.7518980626955
 20
475.7662965965447
 30
0.0
 11
502.7518980626955
 21
489.2662965965447
 31
0.0
  0
LINE
  5
606
102
{ACAD_REACTORS
330
674
102
}
330
1F
100
AcDbEntity
  8
実線
100
AcDbLine
 10
415.1622367349152
 20
475.7662965965447
 30
0.0
 11
415.1622367349152
 21
489.2662965965447
 31
0.0
  0
LINE
  5
607
102
{ACAD_REACTORS
330
674
102
}
330
1F
100
AcDbEntity
  8
実線
100
AcDbLine
 10
468.7821810347978
 20
475.7662965965447
 30
0.0
 11
468.7821810347978
 21
489.2662965965447
 31
0.0
  0
LINE
  5
608
102
{ACAD_REACTORS
330
674
102
}
330
1F
100
AcDbEntity
  8
実線
100
AcDbLine
 10
514.4722088848566
 20
594.2662965965448
 30
0.0
 11
369.4722088848566
 21
594.2662965965448
 31
0.0
  0
LINE
  5
609
102
{ACAD_REACTORS
330
674
102
}
330
1F
100
AcDbEntity
  8
実線
100
AcDbLine
 10
514.4722088848566
 20
594.2662965965448
 30
0.0
 11
514.4722088848566
 21
695.2662965965446
 31
0.0
  0
LINE
  5
60A
102
{ACAD_REACTORS
330
674
102
}
330
1F
100
AcDbEntity
  8
実線
100
AcDbLine
 10
369.4722088848566
 20
695.2662965965446
 30
0.0
 11
369.4722088848566
 21
594.2662965965448
 31
0.0
  0
LINE
  5
60B
102
{ACAD_REACTORS
330
674
102
}
330
1F
100
AcDbEntity
  8
実線
100
AcDbLine
 10
514.4722088848566
 20
695.2662965965446
 30
0.0
 11
369.4722088848566
 21
695.2662965965446
 31
0.0
  0
LINE
  5
60C
102
{ACAD_REACTORS
330
674
102
}
330
1F
100
AcDbEntity
  8
実線
100
AcDbLine
 10
509.4722088848566
 20
592.2662965965445
 30
0.0
 11
374.4722088848566
 21
592.2662965965445
 31
0.0
  0
LINE
  5
60D
102
{ACAD_REACTORS
330
674
102
}
330
1F
100
AcDbEntity
  8
実線
100
AcDbLine
 10
509.4722088848566
 20
592.2662965965445
 30
0.0
 11
509.4722088848566
 21
594.2662965965448
 31
0.0
  0
LINE
  5
60E
102
{ACAD_REACTORS
330
674
102
}
330
1F
100
AcDbEntity
  8
実線
100
AcDbLine
 10
374.4722088848565
 20
594.2662965965448
 30
0.0
 11
374.4722088848565
 21
592.2662965965445
 31
0.0
  0
LINE
  5
60F
102
{ACAD_REACTORS
330
674
102
}
330
1F
100
AcDbEntity
  8
実線
100
AcDbLine
 10
449.9722088848565
 20
489.3103931451427
 30
0.0
 11
449.9722088848565
 21
527.2662965965448
 31
0.0
  0
LINE
  5
610
102
{ACAD_REACTORS
330
674
102
}
330
1F
100
AcDbEntity
  8
実線
100
AcDbLine
 10
433.9722088848565
 20
527.2662965965448
 30
0.0
 11
433.9722088848565
 21
489.3103931451427
 31
0.0
  0
LINE
  5
611
102
{ACAD_REACTORS
330
674
102
}
330
1F
100
AcDbEntity
  8
実線
100
AcDbLine
 10
343.5722088848573
 20
403.5162965965447
 30
0.0
 11
388.2566647387707
 21
403.5162965965447
 31
0.0
  0
LINE
  5
612
102
{ACAD_REACTORS
330
674
102
}
330
1F
100
AcDbEntity
  8
実線
100
AcDbLine
 10
381.1925197070184
 20
467.0162965965444
 30
0.0
 11
343.5722088848573
 21
467.0162965965444
 31
0.0
  0
LINE
  5
613
102
{ACAD_REACTORS
330
674
102
}
330
1F
100
AcDbEntity
  8
実線
100
AcDbLine
 10
336.9722088848573
 20
396.5162965965445
 30
0.0
 11
340.4722088848573
 21
396.5162965965445
 31
0.0
  0
LINE
  5
614
102
{ACAD_REACTORS
330
674
102
}
330
1F
100
AcDbEntity
  8
実線
100
AcDbLine
 10
340.4722088848573
 20
474.0162965965447
 30
0.0
 11
336.9722088848573
 21
474.0162965965447
 31
0.0
  0
LINE
  5
615
102
{ACAD_REACTORS
330
674
102
}
330
1F
100
AcDbEntity
  8
実線
100
AcDbLine
 10
336.9722088848573
 20
396.5162965965445
 30
0.0
 11
336.9722088848573
 21
474.0162965965447
 31
0.0
  0
LINE
  5
616
102
{ACAD_REACTORS
330
674
102
}
330
1F
100
AcDbEntity
  8
実線
100
AcDbLine
 10
343.5722088848573
 20
467.0162965965444
 30
0.0
 11
340.4722088848573
 21
474.0162965965447
 31
0.0
  0
LINE
  5
617
102
{ACAD_REACTORS
330
674
102
}
330
1F
100
AcDbEntity
  8
実線
100
AcDbLine
 10
340.4722088848573
 20
396.5162965965445
 30
0.0
 11
343.5722088848573
 21
403.5162965965447
 31
0.0
  0
LINE
  5
618
102
{ACAD_REACTORS
330
674
102
}
330
1F
100
AcDbEntity
  8
実線
100
AcDbLine
 10
340.4722088848573
 20
474.0162965965447
 30
0.0
 11
340.4722088848573
 21
396.5162965965445
 31
0.0
  0
LINE
  5
619
102
{ACAD_REACTORS
330
674
102
}
330
1F
100
AcDbEntity
  8
実線
100
AcDbLine
 10
343.5722088848573
 20
467.0162965965444
 30
0.0
 11
343.5722088848573
 21
403.5162965965447
 31
0.0
  0
LINE
  5
61A
102
{ACAD_REACTORS
330
674
102
}
330
1F
100
AcDbEntity
  8
実線
100
AcDbLine
 10
540.3722088848554
 20
467.0162965965444
 30
0.0
 11
502.7518980626958
 21
467.0162965965444
 31
0.0
  0
LINE
  5
61B
102
{ACAD_REACTORS
330
674
102
}
330
1F
100
AcDbEntity
  8
実線
100
AcDbLine
 10
495.6877530309436
 20
403.5162965965447
 30
0.0
 11
540.3722088848554
 21
403.5162965965447
 31
0.0
  0
LINE
  5
61C
102
{ACAD_REACTORS
330
674
102
}
330
1F
100
AcDbEntity
  8
実線
100
AcDbLine
 10
540.3722088848554
 20
403.5162965965447
 30
0.0
 11
540.3722088848554
 21
467.0162965965444
 31
0.0
  0
LINE
  5
61D
102
{ACAD_REACTORS
330
674
102
}
330
1F
100
AcDbEntity
  8
実線
100
AcDbLine
 10
540.3722088848554
 20
403.5162965965447
 30
0.0
 11
543.4722088848555
 21
396.5162965965445
 31
0.0
  0
LINE
  5
61E
102
{ACAD_REACTORS
330
674
102
}
330
1F
100
AcDbEntity
  8
実線
100
AcDbLine
 10
543.4722088848555
 20
474.0162965965447
 30
0.0
 11
540.3722088848554
 21
467.0162965965444
 31
0.0
  0
LINE
  5
61F
102
{ACAD_REACTORS
330
674
102
}
330
1F
100
AcDbEntity
  8
実線
100
AcDbLine
 10
546.9722088848555
 20
396.5162965965445
 30
0.0
 11
546.9722088848555
 21
474.0162965965447
 31
0.0
  0
LINE
  5
620
102
{ACAD_REACTORS
330
674
102
}
330
1F
100
AcDbEntity
  8
実線
100
AcDbLine
 10
543.4722088848555
 20
396.5162965965445
 30
0.0
 11
543.4722088848555
 21
474.0162965965447
 31
0.0
  0
LINE
  5
621
102
{ACAD_REACTORS
330
674
102
}
330
1F
100
AcDbEntity
  8
実線
100
AcDbLine
 10
546.9722088848555
 20
474.0162965965447
 30
0.0
 11
543.4722088848555
 21
474.0162965965447
 31
0.0
  0
LINE
  5
622
102
{ACAD_REACTORS
330
674
102
}
330
1F
100
AcDbEntity
  8
実線
100
AcDbLine
 10
543.4722088848555
 20
396.5162965965445
 30
0.0
 11
546.9722088848555
 21
396.5162965965445
 31
0.0
  0
LINE
  5
623
102
{ACAD_REACTORS
330
674
102
}
330
1F
100
AcDbEntity
  8
実線
100
AcDbLine
 10
487.9722088848561
 20
700.2662965965446
 30
0.0
 11
487.9722088848561
 21
710.2662965965446
 31
0.0
  0
LINE
  5
624
102
{ACAD_REACTORS
330
674
102
}
330
1F
100
AcDbEntity
  8
実線
100
AcDbLine
 10
395.9722088848566
 20
710.2662965965446
 30
0.0
 11
395.9722088848566
 21
700.2662965965446
 31
0.0
  0
LINE
  5
625
102
{ACAD_REACTORS
330
674
102
}
330
1F
100
AcDbEntity
  8
実線
100
AcDbLine
 10
487.9722088848565
 20
710.2662965965446
 30
0.0
 11
395.9722088848566
 21
710.2662965965446
 31
0.0
  0
LINE
  5
626
102
{ACAD_REACTORS
330
674
102
}
330
1F
100
AcDbEntity
  8
実線
100
AcDbLine
 10
433.9722088848565
 20
747.7662965965446
 30
0.0
 11
433.9722088848565
 21
717.2662965965446
 31
0.0
  0
LINE
  5
627
102
{ACAD_REACTORS
330
674
102
}
330
1F
100
AcDbEntity
  8
実線
100
AcDbLine
 10
456.9722088848566
 20
746.3162965965445
 30
0.0
 11
461.9722088848566
 21
746.3162965965445
 31
0.0
  0
LINE
  5
628
102
{ACAD_REACTORS
330
674
102
}
330
1F
100
AcDbEntity
  8
実線
100
AcDbLine
 10
461.9722088848566
 20
746.3162965965445
 30
0.0
 11
461.9722088848566
 21
754.2162965965444
 31
0.0
  0
LINE
  5
629
102
{ACAD_REACTORS
330
674
102
}
330
1F
100
AcDbEntity
  8
実線
100
AcDbLine
 10
456.9722088848566
 20
754.2162965965444
 30
0.0
 11
461.9722088848566
 21
754.2162965965444
 31
0.0
  0
LINE
  5
62A
102
{ACAD_REACTORS
330
674
102
}
330
1F
100
AcDbEntity
  8
実線
100
AcDbLine
 10
466.9722088848565
 20
710.2662965965446
 30
0.0
 11
466.9722088848565
 21
715.2662965965446
 31
0.0
  0
LINE
  5
62B
102
{ACAD_REACTORS
330
674
102
}
330
1F
100
AcDbEntity
  8
実線
100
AcDbLine
 10
416.9722088848565
 20
715.2662965965446
 30
0.0
 11
416.9722088848565
 21
710.2662965965446
 31
0.0
  0
LINE
  5
62C
102
{ACAD_REACTORS
330
674
102
}
330
1F
100
AcDbEntity
  8
実線
100
AcDbLine
 10
416.9722088848565
 20
715.2662965965446
 30
0.0
 11
451.7701678559891
 21
715.2662965965446
 31
0.0
  0
LINE
  5
62D
102
{ACAD_REACTORS
330
674
102
}
330
1F
100
AcDbEntity
  8
実線
100
AcDbLine
 10
468.4722088848566
 20
751.7662965965446
 30
0.0
 11
468.4722088848566
 21
748.7662965965446
 31
0.0
  0
LINE
  5
62E
102
{ACAD_REACTORS
330
674
102
}
330
1F
100
AcDbEntity
  8
実線
100
AcDbLine
 10
461.9722088848566
 20
748.7662965965446
 30
0.0
 11
468.4722088848566
 21
748.7662965965446
 31
0.0
  0
LINE
  5
62F
102
{ACAD_REACTORS
330
674
102
}
330
1F
100
AcDbEntity
  8
実線
100
AcDbLine
 10
468.4722088848566
 20
751.7662965965446
 30
0.0
 11
461.9722088848566
 21
751.7662965965446
 31
0.0
  0
LINE
  5
630
102
{ACAD_REACTORS
330
674
102
}
330
1F
100
AcDbEntity
  8
実線
100
AcDbLine
 10
456.9722088848566
 20
730.3162965965445
 30
0.0
 11
461.9722088848566
 21
730.3162965965445
 31
0.0
  0
LINE
  5
631
102
{ACAD_REACTORS
330
674
102
}
330
1F
100
AcDbEntity
  8
実線
100
AcDbLine
 10
461.9722088848566
 20
730.3162965965445
 30
0.0
 11
461.9722088848566
 21
738.2162965965444
 31
0.0
  0
LINE
  5
632
102
{ACAD_REACTORS
330
674
102
}
330
1F
100
AcDbEntity
  8
実線
100
AcDbLine
 10
456.9722088848566
 20
738.2162965965444
 30
0.0
 11
461.9722088848566
 21
738.2162965965444
 31
0.0
  0
LINE
  5
633
102
{ACAD_REACTORS
330
674
102
}
330
1F
100
AcDbEntity
  8
実線
100
AcDbLine
 10
468.4722088848566
 20
735.7662965965446
 30
0.0
 11
468.4722088848566
 21
732.7662965965446
 31
0.0
  0
LINE
  5
634
102
{ACAD_REACTORS
330
674
102
}
330
1F
100
AcDbEntity
  8
実線
100
AcDbLine
 10
461.9722088848566
 20
732.7662965965446
 30
0.0
 11
468.4722088848566
 21
732.7662965965446
 31
0.0
  0
LINE
  5
635
102
{ACAD_REACTORS
330
674
102
}
330
1F
100
AcDbEntity
  8
実線
100
AcDbLine
 10
468.4722088848566
 20
735.7662965965446
 30
0.0
 11
461.9722088848566
 21
735.7662965965446
 31
0.0
  0
LINE
  5
636
102
{ACAD_REACTORS
330
674
102
}
330
1F
100
AcDbEntity
  8
実線
100
AcDbLine
 10
429.4722088848565
 20
752.7662965965446
 30
0.0
 11
429.4722088848565
 21
747.7662965965446
 31
0.0
  0
LINE
  5
637
102
{ACAD_REACTORS
330
674
102
}
330
1F
100
AcDbEntity
  8
実線
100
AcDbLine
 10
436.9722088848566
 20
752.7662965965446
 30
0.0
 11
429.4722088848565
 21
752.7662965965446
 31
0.0
  0
LINE
  5
638
102
{ACAD_REACTORS
330
674
102
}
330
1F
100
AcDbEntity
  8
実線
100
AcDbLine
 10
436.9722088848566
 20
747.7662965965446
 30
0.0
 11
429.4722088848565
 21
747.7662965965446
 31
0.0
  0
LINE
  5
639
102
{ACAD_REACTORS
330
674
102
}
330
1F
100
AcDbEntity
  8
実線
100
AcDbLine
 10
466.9722088848565
 20
715.2662965965446
 30
0.0
 11
451.7701678559891
 21
715.2662965965446
 31
0.0
  0
LINE
  5
63A
102
{ACAD_REACTORS
330
674
102
}
330
1F
100
AcDbEntity
  8
実線
100
AcDbLine
 10
416.9722088848565
 20
717.2662965965446
 30
0.0
 11
436.9722088848566
 21
717.2662965965446
 31
0.0
  0
LINE
  5
63B
102
{ACAD_REACTORS
330
674
102
}
330
1F
100
AcDbEntity
  8
実線
100
AcDbLine
 10
466.9722088848565
 20
715.2662965965446
 30
0.0
 11
466.9722088848565
 21
717.2662965965446
 31
0.0
  0
LINE
  5
63C
102
{ACAD_REACTORS
330
674
102
}
330
1F
100
AcDbEntity
  8
実線
100
AcDbLine
 10
416.9722088848565
 20
717.2662965965446
 30
0.0
 11
416.9722088848565
 21
715.2662965965446
 31
0.0
  0
LINE
  5
63D
102
{ACAD_REACTORS
330
674
102
}
330
1F
100
AcDbEntity
  8
実線
100
AcDbLine
 10
466.9722088848565
 20
717.2662965965446
 30
0.0
 11
456.9722088848566
 21
717.2662965964964
 31
0.0
  0
LINE
  5
63E
102
{ACAD_REACTORS
330
674
102
}
330
1F
100
AcDbEntity
  8
実線
100
AcDbLine
 10
426.9722088848566
 20
717.2662965965446
 30
0.0
 11
426.9722088848566
 21
715.2662965965446
 31
0.0
  0
LINE
  5
63F
102
{ACAD_REACTORS
330
674
102
}
330
1F
100
AcDbEntity
  8
実線
100
AcDbLine
 10
456.9722088848566
 20
715.2662965965446
 30
0.0
 11
456.9722088848566
 21
755.2662965965446
 31
0.0
  0
LINE
  5
640
102
{ACAD_REACTORS
330
674
102
}
330
1F
100
AcDbEntity
  8
実線
100
AcDbLine
 10
456.9722088848566
 20
755.2662965965446
 30
0.0
 11
436.9722088848565
 21
755.2662965965446
 31
0.0
  0
LINE
  5
641
102
{ACAD_REACTORS
330
674
102
}
330
1F
100
AcDbEntity
  8
実線
100
AcDbLine
 10
436.9722088848565
 20
715.2662965965446
 30
0.0
 11
436.9722088848565
 21
755.2662965965446
 31
0.0
  0
LINE
  5
642
102
{ACAD_REACTORS
330
674
102
}
330
1F
100
AcDbEntity
  8
実線
100
AcDbLine
 10
393.7222088848668
 20
338.0162965965445
 30
0.0
 11
413.7222088848667
 21
338.0162965965445
 31
0.0
  0
LINE
  5
643
102
{ACAD_REACTORS
330
674
102
}
330
1F
100
AcDbEntity
  8
実線
100
AcDbLine
 10
393.7222088848668
 20
338.0162965965445
 30
0.0
 11
393.7222088848668
 21
402.4512506945386
 31
0.0
  0
LINE
  5
644
102
{ACAD_REACTORS
330
674
102
}
330
1F
100
AcDbEntity
  8
実線
100
AcDbLine
 10
413.7222088848667
 20
344.7427221767949
 30
0.0
 11
413.7222088848667
 21
338.0162965965445
 31
0.0
  0
LINE
  5
645
102
{ACAD_REACTORS
330
674
102
}
330
1F
100
AcDbEntity
  8
実線
100
AcDbLine
 10
490.2222088848475
 20
395.6262975510214
 30
0.0
 11
495.163729327747
 21
402.6835201218238
 31
0.0
  0
LINE
  5
646
102
{ACAD_REACTORS
330
674
102
}
330
1F
100
AcDbEntity
  8
実線
100
AcDbLine
 10
388.7806884419673
 20
402.6835201218238
 30
0.0
 11
393.7222088848668
 21
395.6262975510218
 31
0.0
  0
ARC
  5
647
102
{ACAD_REACTORS
330
674
102
}
330
1F
100
AcDbEntity
  8
実線
100
AcDbCircle
 10
486.972208884857
 20
408.4192844853342
 30
0.0
 40
10.0
100
AcDbArc
 50
325.0000000000026
 51
330.6397780086135
  0
ARC
  5
648
102
{ACAD_REACTORS
330
674
102
}
330
1F
100
AcDbEntity
  8
実線
100
AcDbCircle
 10
396.9722088848571
 20
408.4192844853342
 30
0.0
 40
10.0
100
AcDbArc
 50
209.3602219913865
 51
214.9999999999974
  0
LINE
  5
649
102
{ACAD_REACTORS
330
674
102
}
330
1F
100
AcDbEntity
  8
実線
100
AcDbLine
 10
381.1925197070187
 20
460.7662965965444
 30
0.0
 11
415.162236734916
 21
460.7662965965444
 31
0.0
  0
LINE
  5
64A
102
{ACAD_REACTORS
330
674
102
}
330
1F
100
AcDbEntity
  8
実線
100
AcDbLine
 10
381.1925197070187
 20
475.7662965965447
 30
0.0
 11
381.1925197070187
 21
460.7662965965444
 31
0.0
  0
LINE
  5
64B
102
{ACAD_REACTORS
330
674
102
}
330
1F
100
AcDbEntity
  8
実線
100
AcDbLine
 10
502.7518980626958
 20
460.7662965965444
 30
0.0
 11
502.7518980626958
 21
475.7662965965447
 31
0.0
  0
LINE
  5
64C
102
{ACAD_REACTORS
330
674
102
}
330
1F
100
AcDbEntity
  8
実線
100
AcDbLine
 10
502.7518980626958
 20
460.7662965965444
 30
0.0
 11
468.7821810347985
 21
460.7662965965444
 31
0.0
  0
LINE
  5
64D
102
{ACAD_REACTORS
330
674
102
}
330
1F
100
AcDbEntity
  8
実線
100
AcDbLine
 10
415.162236734916
 20
460.7662965965444
 30
0.0
 11
415.162236734916
 21
475.7662965965447
 31
0.0
  0
LINE
  5
64E
102
{ACAD_REACTORS
330
674
102
}
330
1F
100
AcDbEntity
  8
実線
100
AcDbLine
 10
468.7821810347985
 20
460.7662965965444
 30
0.0
 11
468.7821810347985
 21
475.7662965965447
 31
0.0
  0
LINE
  5
64F
102
{ACAD_REACTORS
330
674
102
}
330
1F
100
AcDbEntity
  8
実線
100
AcDbLine
 10
372.4722088853127
 20
700.2662965965446
 30
0.0
 11
511.4722088848566
 21
700.2662965965446
 31
0.0
  0
ARC
  5
650
102
{ACAD_REACTORS
330
674
102
}
330
1F
100
AcDbEntity
  8
実線
100
AcDbCircle
 10
511.4722088848566
 20
697.2662965965446
 30
0.0
 40
3.0
100
AcDbArc
 50
0.0
 51
90.0
  0
ARC
  5
651
102
{ACAD_REACTORS
330
674
102
}
330
1F
100
AcDbEntity
  8
実線
100
AcDbCircle
 10
372.4722088848566
 20
697.2662965965446
 30
0.0
 40
3.0
100
AcDbArc
 50
90.0
 51
180.0
  0
LINE
  5
652
102
{ACAD_REACTORS
330
674
102
}
330
1F
100
AcDbEntity
  8
実線
100
AcDbLine
 10
514.4722088848566
 20
695.2662965965446
 30
0.0
 11
514.4722088848566
 21
697.2662965965446
 31
0.0
  0
LINE
  5
653
102
{ACAD_REACTORS
330
674
102
}
330
1F
100
AcDbEntity
  8
実線
100
AcDbLine
 10
369.4722088848566
 20
697.2662965965446
 30
0.0
 11
369.4722088848566
 21
695.2662965965446
 31
0.0
  0
CIRCLE
  5
654
102
{ACAD_REACTORS
330
674
102
}
330
1F
100
AcDbEntity
  8
実線
100
AcDbCircle
 10
441.9722088848667
 20
371.2662965965447
 30
0.0
 40
38.75
  0
ARC
  5
655
102
{ACAD_REACTORS
330
674
102
}
330
1F
100
AcDbEntity
  8
実線
100
AcDbCircle
 10
437.2722088848564
 20
540.7662965965449
 30
0.0
 40
53.0
100
AcDbArc
 50
283.663908996946
 51
345.2431843936698
  0
LINE
  5
656
102
{ACAD_REACTORS
330
674
102
}
330
1F
100
AcDbEntity
  8
実線
100
AcDbLine
 10
504.2722088848567
 20
592.2662965965445
 30
0.0
 11
504.2722088848567
 21
540.7662965965449
 31
0.0
  0
ARC
  5
657
102
{ACAD_REACTORS
330
674
102
}
330
1F
100
AcDbEntity
  8
実線
100
AcDbCircle
 10
437.2722088848567
 20
540.7662965965449
 30
0.0
 40
66.99999999999993
100
AcDbArc
 50
309.7665840691642
 51
0.0
  0
LINE
  5
658
102
{ACAD_REACTORS
330
674
102
}
330
1F
100
AcDbEntity
  8
実線
100
AcDbLine
 10
379.6722088848567
 20
592.2662965965445
 30
0.0
 11
379.6722088848567
 21
540.7662965965449
 31
0.0
  0
ARC
  5
659
102
{ACAD_REACTORS
330
674
102
}
330
1F
100
AcDbEntity
  8
実線
100
AcDbCircle
 10
446.6722088848562
 20
540.7662965965449
 30
0.0
 40
66.99999999999993
100
AcDbArc
 50
180.0
 51
230.2334159308358
  0
ARC
  5
65A
102
{ACAD_REACTORS
330
674
102
}
330
1F
100
AcDbEntity
  8
実線
100
AcDbCircle
 10
446.6722088848566
 20
540.7662965965449
 30
0.0
 40
53.0
100
AcDbArc
 50
194.7568156063301
 51
256.3360910030539
  0
LINE
  5
65B
102
{ACAD_REACTORS
330
674
102
}
330
1F
100
AcDbEntity
  8
実線
100
AcDbLine
 10
393.8291927765984
 20
527.2662965965448
 30
0.0
 11
490.1152249931146
 21
527.2662965965448
 31
0.0
  0
LINE
  5
65C
102
{ACAD_REACTORS
330
674
102
}
330
1F
100
AcDbEntity
  8
実線
100
AcDbLine
 10
490.1152249931146
 20
527.2662965965448
 30
0.0
 11
490.1152249931146
 21
592.2662965965445
 31
0.0
  0
LINE
  5
65D
102
{ACAD_REACTORS
330
674
102
}
330
1F
100
AcDbEntity
  8
実線
100
AcDbLine
 10
393.8291927765984
 20
592.2662965965445
 30
0.0
 11
393.8291927765984
 21
527.2662965965448
 31
0.0
  0
LINE
  5
65E
102
{ACAD_REACTORS
330
674
102
}
330
1F
100
AcDbEntity
  8
実線
100
AcDbLine
 10
490.2222088848475
 20
338.0162965965445
 30
0.0
 11
470.2222088848475
 21
338.0162965965445
 31
0.0
  0
LINE
  5
65F
102
{ACAD_REACTORS
330
674
102
}
330
1F
100
AcDbEntity
  8
実線
100
AcDbLine
 10
490.2222088848475
 20
402.4512506945253
 30
0.0
 11
490.2222088848475
 21
338.0162965965445
 31
0.0
  0
LINE
  5
660
102
{ACAD_REACTORS
330
674
102
}
330
1F
100
AcDbEntity
  8
実線
100
AcDbLine
 10
470.2222088848475
 20
338.0162965965445
 30
0.0
 11
470.2222088848475
 21
344.7427221767743
 31
0.0
  0
LINE
  5
661
102
{ACAD_REACTORS
330
676
102
}
330
1F
100
AcDbEntity
  8
中心線
100
AcDbLine
 10
334.9722088848566
 20
135.2662965965447
 30
0.0
 11
548.9722088848566
 21
135.2662965965447
 31
0.0
  0
LINE
  5
662
102
{ACAD_REACTORS
330
676
102
}
330
1F
100
AcDbEntity
  8
中心線
100
AcDbLine
 10
441.9722088848565
 20
28.26629659654475
 30
0.0
 11
441.9722088848565
 21
242.2662965965447
 31
0.0
  0
LINE
  5
663
102
{ACAD_REACTORS
330
673
102
}
330
1F
100
AcDbEntity
  8
中心線
100
AcDbLine
 10
334.9722088848566
 20
915.2662965965445
 30
0.0
 11
548.9722088848566
 21
915.2662965965445
 31
0.0
  0
LINE
  5
664
102
{ACAD_REACTORS
330
673
102
}
330
1F
100
AcDbEntity
  8
中心線
100
AcDbLine
 10
441.9722088848565
 20
808.2662965965447
 30
0.0
 11
441.9722088848565
 21
1022.266296596544
 31
0.0
  0
LINE
  5
665
102
{ACAD_REACTORS
330
671
102
}
330
1F
100
AcDbEntity
  8
中心線
100
AcDbLine
 10
934.9722088848549
 20
435.2662965965447
 30
0.0
 11
1148.972208884855
 21
435.2662965965447
 31
0.0
  0
LINE
  5
666
102
{ACAD_REACTORS
330
671
102
}
330
1F
100
AcDbEntity
  8
中心線
100
AcDbLine
 10
1041.972208884856
 20
328.2662965965447
 30
0.0
 11
1041.972208884856
 21
765.0553478554631
 31
0.0
  0
LINE
  5
667
102
{ACAD_REACTORS
330
671
102
}
330
1F
100
AcDbEntity
  8
中心線
100
AcDbLine
 10
961.9722088848455
 20
371.2662965965447
 30
0.0
 11
1121.972208884845
 21
371.2662965965447
 31
0.0
  0
LINE
  5
668
102
{ACAD_REACTORS
330
672
102
}
330
1F
100
AcDbEntity
  8
中心線
100
AcDbLine
 10
661.9722088848373
 20
435.2662965965447
 30
0.0
 11
821.9722088848373
 21
435.2662965965447
 31
0.0
  0
LINE
  5
669
102
{ACAD_REACTORS
330
672
102
}
330
1F
100
AcDbEntity
  8
中心線
100
AcDbLine
 10
741.9722088848565
 20
328.2662965965448
 30
0.0
 11
741.9722088848565
 21
765.055347855463
 31
0.0
  0
LINE
  5
66A
102
{ACAD_REACTORS
330
672
102
}
330
1F
100
AcDbEntity
  8
中心線
100
AcDbLine
 10
634.9722088848566
 20
371.2662965965447
 30
0.0
 11
848.9722088848566
 21
371.2662965965447
 31
0.0
  0
LINE
  5
66B
102
{ACAD_REACTORS
330
674
102
}
330
1F
100
AcDbEntity
  8
中心線
100
AcDbLine
 10
334.9722088848566
 20
435.2662965965447
 30
0.0
 11
548.9722088848566
 21
435.2662965965447
 31
0.0
  0
LINE
  5
66C
102
{ACAD_REACTORS
330
674
102
}
330
1F
100
AcDbEntity
  8
中心線
100
AcDbLine
 10
441.9722088848565
 20
328.2662965965447
 30
0.0
 11
441.9722088848566
 21
765.0553478554631
 31
0.0
  0
LINE
  5
66D
102
{ACAD_REACTORS
330
674
102
}
330
1F
100
AcDbEntity
  8
中心線
100
AcDbLine
 10
361.972208884847
 20
371.2662965965447
 30
0.0
 11
521.972208884847
 21
371.2662965965447
 31
0.0
  0
LINE
  5
66E
102
{ACAD_REACTORS
330
675
102
}
330
1F
100
AcDbEntity
  8
中心線
100
AcDbLine
 10
61.9722088848369
 20
435.2662965965447
 30
0.0
 11
221.9722088848369
 21
435.2662965965447
 31
0.0
  0
LINE
  5
66F
102
{ACAD_REACTORS
330
675
102
}
330
1F
100
AcDbEntity
  8
中心線
100
AcDbLine
 10
141.9722088848566
 20
328.2662965965448
 30
0.0
 11
141.9722088848566
 21
765.055347855463
 31
0.0
  0
LINE
  5
670
102
{ACAD_REACTORS
330
675
102
}
330
1F
100
AcDbEntity
  8
中心線
100
AcDbLine
 10
34.97220888485663
 20
371.2662965965447
 30
0.0
 11
248.9722088848566
 21
371.2662965965447
 31
0.0
  0
ENDSEC
  0
SECTION
  2
OBJECTS
  0
DICTIONARY
  5
C
330
0
100
AcDbDictionary
281
     1
  3
ACAD_CIP_PREVIOUS_PRODUCT_INFO
350
2EB
  3
ACAD_COLOR
350
2E1
  3
ACAD_DETAILVIEWSTYLE
350
2E4
  3
ACAD_GROUP
350
D
  3
ACAD_LAYOUT
350
1A
  3
ACAD_MATERIAL
350
43
  3
ACAD_MLEADERSTYLE
350
5B
  3
ACAD_MLINESTYLE
350
17
  3
ACAD_PLOTSETTINGS
350
19
  3
ACAD_PLOTSTYLENAME
350
E
  3
ACAD_SCALELIST
350
47
  3
ACAD_SECTIONVIEWSTYLE
350
2E2
  3
ACAD_TABLESTYLE
350
59
  3
ACAD_VISUALSTYLE
350
2A
  3
ACDB_RECOMPOSE_DATA
350
6D8
  3
AcDbVariableDictionary
350
296
  3
DWGPROPS
350
6D9
  0
DICTIONARY
  5
2F2
330
2
100
AcDbDictionary
280
     1
281
     1
  3
ACAD_LAYERSTATES
360
2F3
  0
DICTIONARY
  5
677
330
10
100
AcDbDictionary
280
     1
281
     1
  3
ADSK_XREC_LAYER_RECONCILED
360
678
  0
DICTIONARY
  5
2EE
330
2ED
100
AcDbDictionary
280
     1
281
     1
  3
ADSK_XREC_LAYER_RECONCILED
360
679
  0
DICTIONARY
  5
2F0
330
2EF
100
AcDbDictionary
280
     1
281
     1
  3
ADSK_XREC_LAYER_RECONCILED
360
67A
  0
DICTIONARY
  5
492
330
1F
100
AcDbDictionary
280
     1
281
     1
  3
ACAD_SORTENTS
360
493
  0
XRECORD
  5
2EB
102
{ACAD_REACTORS
330
C
102
}
330
C
100
AcDbXrecord
280
     1
300
ACDLT
300
2016
300
ACDLT_F_S
  0
DICTIONARY
  5
2E1
102
{ACAD_REACTORS
330
C
102
}
330
C
100
AcDbDictionary
281
     1
  0
DICTIONARY
  5
2E4
102
{ACAD_REACTORS
330
C
102
}
330
C
100
AcDbDictionary
281
     1
  3
Metric50
350
2E5
  0
DICTIONARY
  5
D
102
{ACAD_REACTORS
330
C
102
}
330
C
100
AcDbDictionary
281
     1
  3
*A1
350
671
  3
*A2
350
672
  3
*A3
350
673
  3
*A4
350
674
  3
*A5
350
675
  3
*A6
350
676
  0
DICTIONARY
  5
1A
102
{ACAD_REACTORS
330
C
102
}
330
C
100
AcDbDictionary
281
     1
  3
Layout1
350
1E
  3
Model
350
22
  3
レイアウト1
350
2E6
  0
DICTIONARY
  5
43
102
{ACAD_REACTORS
330
C
102
}
330
C
100
AcDbDictionary
281
     1
  3
ByBlock
350
45
  3
ByLayer
350
44
  3
Global
350
46
  0
DICTIONARY
  5
5B
102
{ACAD_REACTORS
330
C
102
}
330
C
100
AcDbDictionary
281
     1
  3
Standard
350
5C
  0
DICTIONARY
  5
17
102
{ACAD_REACTORS
330
C
102
}
330
C
100
AcDbDictionary
281
     1
  3
Standard
350
18
  0
DICTIONARY
  5
19
102
{ACAD_REACTORS
330
C
102
}
330
C
100
AcDbDictionary
281
     1
  0
ACDBDICTIONARYWDFLT
  5
E
102
{ACAD_REACTORS
330
C
102
}
330
C
100
AcDbDictionary
281
     1
  3
Normal
350
F
100
AcDbDictionaryWithDefault
340
F
  0
DICTIONARY
  5
47
102
{ACAD_REACTORS
330
C
102
}
330
C
100
AcDbDictionary
281
     1
  3
A0
350
48
  3
A1
350
49
  3
A2
350
4A
  3
A3
350
4B
  3
A4
350
4C
  3
A5
350
4D
  3
A6
350
4E
  3
A7
350
4F
  3
A8
350
50
  3
A9
350
51
  3
B0
350
52
  3
B1
350
53
  3
B2
350
54
  3
B3
350
55
  3
B4
350
56
  3
B5
350
57
  3
B6
350
58
  0
DICTIONARY
  5
2E2
102
{ACAD_REACTORS
330
C
102
}
330
C
100
AcDbDictionary
281
     1
  3
Metric50
350
2E3
  0
DICTIONARY
  5
59
102
{ACAD_REACTORS
330
C
102
}
330
C
100
AcDbDictionary
281
     1
  3
Standard
350
5A
  0
DICTIONARY
  5
2A
102
{ACAD_REACTORS
330
C
102
}
330
C
100
AcDbDictionary
281
     1
  3
2dWireframe
350
2F
  3
Basic
350
32
  3
Brighten
350
36
  3
ColorChange
350
3A
  3
Conceptual
350
34
  3
Dim
350
35
  3
EdgeColorOff
350
3D
  3
Facepattern
350
39
  3
Flat
350
2B
  3
FlatWithEdges
350
2C
  3
Gouraud
350
2D
  3
GouraudWithEdges
350
2E
  3
Hidden
350
31
  3
JitterOff
350
3B
  3
Linepattern
350
38
  3
OverhangOff
350
3C
  3
Realistic
350
33
  3
Shaded
350
42
  3
Shaded with edges
350
41
  3
Shades of Gray
350
3E
  3
Sketchy
350
3F
  3
Thicken
350
37
  3
Wireframe
350
30
  3
X-Ray
350
40
  0
XRECORD
  5
6D8
102
{ACAD_REACTORS
330
C
102
}
330
C
100
AcDbXrecord
280
     1
 90
        1
330
5A
  0
DICTIONARY
  5
296
102
{ACAD_REACTORS
330
C
102
}
330
C
100
AcDbDictionary
281
     1
  3
CANNOSCALE
350
2A4
  3
CENTEREXE
350
29D
  3
CENTERLTYPEFILE
350
29E
  3
CMLEADERSTYLE
350
298
  3
CTABLESTYLE
350
297
  3
CVIEWDETAILSTYLE
350
67B
  3
CVIEWSECTIONSTYLE
350
67C
  3
DIMASSOC
350
29F
  3
HIDETEXT
350
2A0
  3
INDEXCTL
350
6D0
  3
LAYEREVAL
350
67E
  3
LAYERNOTIFY
350
67F
  3
LIGHTINGUNITS
350
67D
  3
LOFTANG1
350
6D3
  3
LOFTANG2
350
6D4
  3
LONGITUDE
350
6D5
  3
MSLTSCALE
350
2A5
  3
PSOLHEIGHT
350
6D2
  3
PSOLWIDTH
350
6D1
  3
SORTENTS
350
6CF
  3
XCLIPFRAME
350
6D6
  0
XRECORD
  5
6D9
102
{ACAD_REACTORS
330
C
102
}
330
C
100
AcDbXrecord
280
     1
  1
DWGPROPS COOKIE
  2

  3

  4

  6
File was created by TR2_DExp
  7

  8
fujino
  9

300
=
301
=
302
=
303
=
304
=
305
=
306
=
307
=
308
=
309
=
 40
0.0078671064814815
 41
2455188.75
 42
2459753.625873877
  1

 90
        0
  0
DICTIONARY
  5
2F3
102
{ACAD_REACTORS
330
2F2
102
}
330
2F2
100
AcDbDictionary
281
     1
  0
XRECORD
  5
678
102
{ACAD_REACTORS
330
677
102
}
330
677
100
AcDbXrecord
280
     1
290
     1
  0
XRECORD
  5
679
102
{ACAD_REACTORS
330
2EE
102
}
330
2EE
100
AcDbXrecord
280
     1
290
     1
  0
XRECORD
  5
67A
102
{ACAD_REACTORS
330
2F0
102
}
330
2F0
100
AcDbXrecord
280
     1
290
     1
  0
SORTENTSTABLE
  5
493
102
{ACAD_REACTORS
330
492
102
}
330
492
100
AcDbSortentsTable
330
1F
331
5F5
  5
44C
331
49D
  5
51D
331
5F1
  5
448
331
50F
  5
4D1
331
466
  5
58E
331
499
  5
519
331
5ED
  5
444
331
57D
  5
481
331
50B
  5
4CD
331
62C
  5
3CE
331
628
  5
3CA
331
4D4
  5
554
331
462
  5
58A
331
507
  5
4C9
331
546
  5
508
331
579
  5
47D
331
48D
  5
5B5
331
5E9
  5
440
331
4D0
  5
550
331
5B4
  5
40B
331
503
  5
4C5
331
542
  5
504
331
575
  5
479
331
489
  5
5B1
331
571
  5
475
331
5B0
  5
407
331
66F
  5
66F
331
66B
  5
66B
331
667
  5
667
331
663
  5
663
331
5E5
  5
43C
331
624
  5
3C6
331
45E
  5
586
331
45A
  5
582
331
5E1
  5
438
331
485
  5
5AD
331
4CC
  5
54C
331
620
  5
3C2
331
4FF
  5
4C1
331
53E
  5
500
331
456
  5
57E
331
5DD
  5
434
331
53A
  5
4FC
331
481
  5
5A9
331
4C8
  5
548
331
56D
  5
471
331
5AC
  5
403
331
4FB
  5
4BD
331
61C
  5
3BE
331
618
  5
3BA
331
452
  5
57A
331
5D9
  5
430
331
4F7
  5
4B9
331
536
  5
4F8
331
47D
  5
5A5
331
569
  5
46D
331
5A8
  5
4AE
331
4C4
  5
544
331
4C0
  5
540
331
5A4
  5
4AA
331
4F3
  5
4B5
331
532
  5
4F4
331
565
  5
469
331
479
  5
5A1
331
5A0
  5
4A6
331
561
  5
465
331
65F
  5
401
331
65B
  5
3FD
331
657
  5
3F9
331
653
  5
3F5
331
5D5
  5
42C
331
614
  5
3B6
331
44E
  5
576
331
44A
  5
572
331
5D1
  5
428
331
475
  5
59D
331
4BC
  5
53C
331
610
  5
3B2
331
4EF
  5
56F
331
52E
  5
4F0
331
5CD
  5
424
331
52A
  5
4EC
331
471
  5
599
331
4B8
  5
538
331
55D
  5
461
331
59C
  5
4A2
331
4EB
  5
56B
331
60C
  5
3AE
331
608
  5
3AA
331
5C9
  5
420
331
4E7
  5
567
331
526
  5
4E8
331
46D
  5
595
331
559
  5
45D
331
598
  5
49E
331
4B4
  5
534
331
4B0
  5
530
331
4E3
  5
563
331
522
  5
4E4
331
469
  5
591
331
555
  5
459
331
594
  5
49A
331
590
  5
496
331
551
  5
513
331
64F
  5
3F1
331
64B
  5
3ED
331
647
  5
3E9
331
643
  5
3E5
331
5C5
  5
41C
331
604
  5
3A6
331
5C1
  5
418
331
4AC
  5
52C
331
600
  5
3A2
331
4DF
  5
55F
331
51E
  5
4E0
331
496
  5
516
331
5BD
  5
414
331
51A
  5
4DC
331
4A8
  5
528
331
54D
  5
50F
331
58C
  5
490
331
4DB
  5
55B
331
5FC
  5
453
331
5F8
  5
44F
331
5B9
  5
410
331
516
  5
4D8
331
549
  5
50B
331
588
  5
48C
331
4A4
  5
524
331
4A0
  5
520
331
512
  5
4D4
331
584
  5
488
331
580
  5
484
331
63F
  5
3E1
331
63B
  5
3DD
331
637
  5
3D9
331
633
  5
3D5
331
5F4
  5
44B
331
49C
  5
51C
331
5F0
  5
447
331
50E
  5
4D0
331
62F
  5
3D1
331
62B
  5
3CD
331
465
  5
58D
331
5EC
  5
443
331
498
  5
518
331
4D7
  5
557
331
57C
  5
480
331
50A
  5
4CC
331
4D3
  5
553
331
461
  5
589
331
506
  5
4C8
331
545
  5
507
331
48C
  5
5B4
331
578
  5
47C
331
5B7
  5
40E
331
5E8
  5
43F
331
488
  5
5B0
331
5B3
  5
40A
331
502
  5
4C4
331
541
  5
503
331
574
  5
478
331
570
  5
474
331
66E
  5
66E
331
66A
  5
66A
331
666
  5
666
331
662
  5
662
331
627
  5
3C9
331
5E4
  5
43B
331
623
  5
3C5
331
4CF
  5
54F
331
45D
  5
585
331
459
  5
581
331
5E0
  5
437
331
484
  5
5AC
331
4CB
  5
54B
331
61F
  5
3C1
331
5AF
  5
406
331
4FE
  5
4C0
331
53D
  5
4FF
331
455
  5
57D
331
5DC
  5
433
331
539
  5
4FB
331
480
  5
5A8
331
4C7
  5
547
331
56C
  5
470
331
5AB
  5
4B1
331
4FA
  5
4BC
331
61B
  5
3BD
331
4C3
  5
543
331
451
  5
579
331
4F6
  5
4B8
331
535
  5
4F7
331
47C
  5
5A4
331
568
  5
46C
331
5A7
  5
4AD
331
5D8
  5
42F
331
5A3
  5
4A9
331
4F2
  5
4B4
331
531
  5
4F3
331
564
  5
468
331
478
  5
5A0
331
560
  5
464
331
65E
  5
400
331
65A
  5
3FC
331
656
  5
3F8
331
652
  5
3F4
331
617
  5
3B9
331
5D4
  5
42B
331
613
  5
3B5
331
4BF
  5
53F
331
44D
  5
575
331
449
  5
571
331
5D0
  5
427
331
474
  5
59C
331
4BB
  5
53B
331
60F
  5
3B1
331
59F
  5
4A5
331
4EE
  5
56E
331
52D
  5
4EF
331
5CC
  5
423
331
529
  5
4EB
331
470
  5
598
331
4B7
  5
537
331
55C
  5
460
331
59B
  5
4A1
331
4EA
  5
56A
331
60B
  5
3AD
331
5C8
  5
41F
331
4E6
  5
566
331
525
  5
4E7
331
46C
  5
594
331
558
  5
45C
331
597
  5
49D
331
4B3
  5
533
331
593
  5
499
331
4E2
  5
562
331
521
  5
4E3
331
554
  5
458
331
468
  5
590
331
550
  5
512
331
64E
  5
3F0
331
64A
  5
3EC
331
646
  5
3E8
331
642
  5
3E4
331
607
  5
3A9
331
5C4
  5
41B
331
4AF
  5
52F
331
603
  5
3A5
331
5C0
  5
417
331
4AB
  5
52B
331
5FF
  5
3A1
331
58F
  5
495
331
4DE
  5
55E
331
51D
  5
4DF
331
495
  5
515
331
5BC
  5
413
331
519
  5
4DB
331
4A7
  5
527
331
54C
  5
50E
331
58B
  5
48F
331
4DA
  5
55A
331
5FB
  5
452
331
491
  5
5B9
331
5B8
  5
40F
331
515
  5
4D7
331
548
  5
50A
331
587
  5
48B
331
4A3
  5
523
331
511
  5
4D3
331
583
  5
487
331
63E
  5
3E0
331
63A
  5
3DC
331
636
  5
3D8
331
632
  5
3D4
331
5F7
  5
44E
331
49F
  5
51F
331
5F3
  5
44A
331
49B
  5
51B
331
5EF
  5
446
331
57F
  5
483
331
50D
  5
4CF
331
62E
  5
3D0
331
62A
  5
3CC
331
464
  5
58C
331
5EB
  5
442
331
509
  5
4CB
331
57B
  5
47F
331
48F
  5
5B7
331
4D6
  5
556
331
4D2
  5
552
331
460
  5
588
331
505
  5
4C7
331
544
  5
506
331
48B
  5
5B3
331
577
  5
47B
331
5B6
  5
40D
331
5B2
  5
409
331
501
  5
4C3
331
540
  5
502
331
573
  5
477
331
66D
  5
66D
331
669
  5
669
331
665
  5
665
331
661
  5
661
331
5E7
  5
43E
331
626
  5
3C8
331
5E3
  5
43A
331
622
  5
3C4
331
487
  5
5AF
331
4CE
  5
54E
331
45C
  5
584
331
458
  5
580
331
5DF
  5
436
331
53C
  5
4FE
331
483
  5
5AB
331
4CA
  5
54A
331
56F
  5
473
331
5AE
  5
405
331
4FD
  5
4BF
331
61E
  5
3C0
331
61A
  5
3BC
331
454
  5
57C
331
5DB
  5
432
331
538
  5
4FA
331
47F
  5
5A7
331
4C6
  5
546
331
56B
  5
46F
331
5AA
  5
4B0
331
4F9
  5
4BB
331
4C2
  5
542
331
450
  5
578
331
4F5
  5
4B7
331
534
  5
4F6
331
47B
  5
5A3
331
567
  5
46B
331
5A6
  5
4AC
331
5A2
  5
4A8
331
4F1
  5
4B3
331
530
  5
4F2
331
563
  5
467
331
65D
  5
3FF
331
659
  5
3FB
331
655
  5
3F7
331
651
  5
3F3
331
616
  5
3B8
331
5D7
  5
42E
331
5D3
  5
42A
331
612
  5
3B4
331
477
  5
59F
331
4BE
  5
53E
331
44C
  5
574
331
448
  5
570
331
5CF
  5
426
331
473
  5
59B
331
4BA
  5
53A
331
60E
  5
3B0
331
55F
  5
463
331
59E
  5
4A4
331
4ED
  5
56D
331
52C
  5
4EE
331
5CB
  5
422
331
528
  5
4EA
331
46F
  5
597
331
4B6
  5
536
331
55B
  5
45F
331
59A
  5
4A0
331
4E9
  5
569
331
60A
  5
3AC
331
4B2
  5
532
331
4E5
  5
565
331
524
  5
4E6
331
46B
  5
593
331
557
  5
45B
331
596
  5
49C
331
592
  5
498
331
4E1
  5
561
331
520
  5
4E2
331
553
  5
457
331
64D
  5
3EF
331
649
  5
3EB
331
645
  5
3E7
331
641
  5
3E3
331
606
  5
3A8
331
5C7
  5
41E
331
5C3
  5
41A
331
4AE
  5
52E
331
602
  5
3A4
331
5BF
  5
416
331
4AA
  5
52A
331
5FE
  5
455
331
54F
  5
511
331
58E
  5
494
331
4DD
  5
55D
331
51C
  5
4DE
331
494
  5
514
331
5BB
  5
412
331
518
  5
4DA
331
4A6
  5
526
331
54B
  5
50D
331
58A
  5
48E
331
4D9
  5
559
331
5FA
  5
451
331
490
  5
5B8
331
514
  5
4D6
331
586
  5
48A
331
4A2
  5
522
331
582
  5
486
331
510
  5
4D2
331
63D
  5
3DF
331
639
  5
3DB
331
635
  5
3D7
331
631
  5
3D3
331
5F6
  5
44D
331
49E
  5
51E
331
5F2
  5
449
331
467
  5
58F
331
49A
  5
51A
331
5EE
  5
445
331
57E
  5
482
331
50C
  5
4CE
331
62D
  5
3CF
331
629
  5
3CB
331
463
  5
58B
331
5EA
  5
441
331
508
  5
4CA
331
547
  5
509
331
57A
  5
47E
331
48E
  5
5B6
331
4D5
  5
555
331
4D1
  5
551
331
5B5
  5
40C
331
504
  5
4C6
331
543
  5
505
331
576
  5
47A
331
48A
  5
5B2
331
5B1
  5
408
331
500
  5
4C2
331
572
  5
476
331
66C
  5
66C
331
668
  5
668
331
664
  5
664
331
660
  5
402
331
5E6
  5
43D
331
625
  5
3C7
331
45F
  5
587
331
45B
  5
583
331
5E2
  5
439
331
486
  5
5AE
331
4CD
  5
54D
331
621
  5
3C3
331
53F
  5
501
331
457
  5
57F
331
5DE
  5
435
331
53B
  5
4FD
331
482
  5
5AA
331
4C9
  5
549
331
56E
  5
472
331
5AD
  5
404
331
4FC
  5
4BE
331
61D
  5
3BF
331
619
  5
3BB
331
453
  5
57B
331
5DA
  5
431
331
4F8
  5
4BA
331
537
  5
4F9
331
47E
  5
5A6
331
56A
  5
46E
331
5A9
  5
4AF
331
4C5
  5
545
331
4C1
  5
541
331
4F4
  5
4B6
331
533
  5
4F5
331
47A
  5
5A2
331
566
  5
46A
331
5A5
  5
4AB
331
5A1
  5
4A7
331
4F0
  5
4B2
331
562
  5
466
331
65C
  5
3FE
331
658
  5
3FA
331
654
  5
3F6
331
650
  5
3F2
331
5D6
  5
42D
331
615
  5
3B7
331
44F
  5
577
331
5D2
  5
429
331
611
  5
3B3
331
476
  5
59E
331
4BD
  5
53D
331
52F
  5
4F1
331
44B
  5
573
331
5CE
  5
425
331
52B
  5
4ED
331
472
  5
59A
331
4B9
  5
539
331
55E
  5
462
331
59D
  5
4A3
331
4EC
  5
56C
331
60D
  5
3AF
331
609
  5
3AB
331
5CA
  5
421
331
527
  5
4E9
331
46E
  5
596
331
4B5
  5
535
331
55A
  5
45E
331
599
  5
49F
331
4E8
  5
568
331
670
  5
670
331
4B1
  5
531
331
4E4
  5
564
331
523
  5
4E5
331
46A
  5
592
331
556
  5
45A
331
595
  5
49B
331
591
  5
497
331
4E0
  5
560
331
552
  5
456
331
64C
  5
3EE
331
648
  5
3EA
331
644
  5
3E6
331
640
  5
3E2
331
605
  5
3A7
331
5C6
  5
41D
331
5C2
  5
419
331
4AD
  5
52D
331
601
  5
3A3
331
51F
  5
4E1
331
497
  5
517
331
5BE
  5
415
331
4A9
  5
529
331
5FD
  5
454
331
54E
  5
510
331
58D
  5
491
331
4DC
  5
55C
331
51B
  5
4DD
331
5BA
  5
411
331
517
  5
4D9
331
4A5
  5
525
331
54A
  5
50C
331
589
  5
48D
331
4D8
  5
558
331
5F9
  5
450
331
4A1
  5
521
331
513
  5
4D5
331
585
  5
489
331
581
  5
485
331
63C
  5
3DE
331
638
  5
3DA
331
634
  5
3D6
331
630
  5
3D2
  0
ACDBDETAILVIEWSTYLE
  5
2E5
102
{ACAD_XDICTIONARY
360
711
102
}
102
{ACAD_REACTORS
330
2E4
102
}
330
2E4
100
AcDbModelDocViewStyle
 70
     0
  3
Metric50
290
     0
100
AcDbDetailViewStyle
 70
     0
 71
     0
 90
        3
 71
     1
340
11
 40
5.0
340
0
 40
5.0
300

 40
0.0
280
     1
 71
     2
340
16
 90
       25
 71
     3
340
11
 40
5.0
 90
        0
 40
15.0
 90
        1
300
%<\AcVar ViewDetailId>% (%<\AcVar ViewScale \f "%sn">%)
 71
     4
340
16
 90
       25
340
16
 90
       25
280
     0
  0
GROUP
  5
671
102
{ACAD_REACTORS
330
D
102
}
330
D
100
AcDbGroup
300

 70
     1
 71
     1
340
667
340
666
340
665
340
551
340
550
340
54F
340
54E
340
54D
340
54C
340
54B
340
54A
340
549
340
548
340
547
340
546
340
545
340
544
340
543
340
542
340
541
340
540
340
53F
340
53E
340
53D
340
53C
340
53B
340
53A
340
539
340
538
340
537
340
536
340
535
340
534
340
533
340
532
340
531
340
530
340
52F
340
52E
340
52D
340
52C
340
52B
340
52A
340
529
340
528
340
527
340
526
340
525
340
524
340
523
340
522
340
521
340
520
340
51F
340
51E
340
51D
340
51C
340
51B
340
51A
340
519
340
518
340
517
340
516
340
515
340
514
340
513
340
512
340
511
340
510
340
50F
340
50E
340
50D
340
50C
340
50B
340
50A
340
509
340
508
340
507
340
506
340
505
340
504
340
503
340
502
340
501
340
500
340
4FF
340
4FE
340
4FD
340
4FC
340
4FB
340
4FA
340
4F9
340
4F8
340
4F7
340
4F6
340
4F5
340
4F4
340
4F3
340
4F2
340
4F1
340
4F0
  0
GROUP
  5
672
102
{ACAD_REACTORS
330
D
102
}
330
D
100
AcDbGroup
300

 70
     1
 71
     1
340
66A
340
669
340
668
340
5AB
340
5AA
340
5A9
340
5A8
340
5A7
340
5A6
340
5A5
340
5A4
340
5A3
340
5A2
340
5A1
340
5A0
340
59F
340
59E
340
59D
340
59C
340
59B
340
59A
340
599
340
598
340
597
340
596
340
595
340
594
340
593
340
592
340
591
340
590
340
58F
340
58E
340
58D
340
58C
340
58B
340
58A
340
589
340
588
340
587
340
586
340
585
340
584
340
583
340
582
340
581
340
580
340
57F
340
57E
340
57D
340
57C
340
57B
340
57A
340
579
340
578
340
577
340
576
340
575
340
574
340
573
340
572
340
571
340
570
340
56F
340
56E
340
56D
340
56C
340
56B
340
56A
340
569
340
568
340
567
340
566
340
565
340
564
340
563
340
562
340
561
340
560
340
55F
340
55E
340
55D
340
55C
340
55B
340
55A
340
559
340
558
340
557
340
556
340
555
340
554
340
553
340
552
  0
GROUP
  5
673
102
{ACAD_REACTORS
330
D
102
}
330
D
100
AcDbGroup
300

 70
     1
 71
     1
340
664
340
663
340
491
340
490
340
48F
340
48E
340
48D
340
48C
340
48B
340
48A
340
489
340
488
340
487
340
486
340
485
340
484
340
483
340
482
340
481
340
480
340
47F
340
47E
340
47D
340
47C
340
47B
340
47A
340
479
340
478
340
477
340
476
340
475
340
474
340
473
340
472
340
471
340
470
340
46F
340
46E
340
46D
340
46C
340
46B
340
46A
340
469
340
468
340
467
340
466
340
465
340
464
340
463
340
462
340
461
340
460
340
45F
340
45E
340
45D
340
45C
340
45B
340
45A
340
459
340
458
340
457
340
456
340
455
340
454
340
453
340
452
340
451
340
450
340
44F
340
44E
340
44D
340
44C
340
44B
340
44A
340
449
340
448
  0
GROUP
  5
674
102
{ACAD_REACTORS
330
D
102
}
330
D
100
AcDbGroup
300

 70
     1
 71
     1
340
66D
340
66C
340
66B
340
660
340
65F
340
65E
340
65D
340
65C
340
65B
340
65A
340
659
340
658
340
657
340
656
340
655
340
654
340
653
340
652
340
651
340
650
340
64F
340
64E
340
64D
340
64C
340
64B
340
64A
340
649
340
648
340
647
340
646
340
645
340
644
340
643
340
642
340
641
340
640
340
63F
340
63E
340
63D
340
63C
340
63B
340
63A
340
639
340
638
340
637
340
636
340
635
340
634
340
633
340
632
340
631
340
630
340
62F
340
62E
340
62D
340
62C
340
62B
340
62A
340
629
340
628
340
627
340
626
340
625
340
624
340
623
340
622
340
621
340
620
340
61F
340
61E
340
61D
340
61C
340
61B
340
61A
340
619
340
618
340
617
340
616
340
615
340
614
340
613
340
612
340
611
340
610
340
60F
340
60E
340
60D
340
60C
340
60B
340
60A
340
609
340
608
340
607
340
606
340
605
340
604
340
603
340
602
340
601
340
600
340
5FF
  0
GROUP
  5
675
102
{ACAD_REACTORS
330
D
102
}
330
D
100
AcDbGroup
300

 70
     1
 71
     1
340
670
340
66F
340
66E
340
5FE
340
5FD
340
5FC
340
5FB
340
5FA
340
5F9
340
5F8
340
5F7
340
5F6
340
5F5
340
5F4
340
5F3
340
5F2
340
5F1
340
5F0
340
5EF
340
5EE
340
5ED
340
5EC
340
5EB
340
5EA
340
5E9
340
5E8
340
5E7
340
5E6
340
5E5
340
5E4
340
5E3
340
5E2
340
5E1
340
5E0
340
5DF
340
5DE
340
5DD
340
5DC
340
5DB
340
5DA
340
5D9
340
5D8
340
5D7
340
5D6
340
5D5
340
5D4
340
5D3
340
5D2
340
5D1
340
5D0
340
5CF
340
5CE
340
5CD
340
5CC
340
5CB
340
5CA
340
5C9
340
5C8
340
5C7
340
5C6
340
5C5
340
5C4
340
5C3
340
5C2
340
5C1
340
5C0
340
5BF
340
5BE
340
5BD
340
5BC
340
5BB
340
5BA
340
5B9
340
5B8
340
5B7
340
5B6
340
5B5
340
5B4
340
5B3
340
5B2
340
5B1
340
5B0
340
5AF
340
5AE
340
5AD
340
5AC
  0
GROUP
  5
676
102
{ACAD_REACTORS
330
D
102
}
330
D
100
AcDbGroup
300

 70
     1
 71
     1
340
662
340
661
340
4EF
340
4EE
340
4ED
340
4EC
340
4EB
340
4EA
340
4E9
340
4E8
340
4E7
340
4E6
340
4E5
340
4E4
340
4E3
340
4E2
340
4E1
340
4E0
340
4DF
340
4DE
340
4DD
340
4DC
340
4DB
340
4DA
340
4D9
340
4D8
340
4D7
340
4D6
340
4D5
340
4D4
340
4D3
340
4D2
340
4D1
340
4D0
340
4CF
340
4CE
340
4CD
340
4CC
340
4CB
340
4CA
340
4C9
340
4C8
340
4C7
340
4C6
340
4C5
340
4C4
340
4C3
340
4C2
340
4C1
340
4C0
340
4BF
340
4BE
340
4BD
340
4BC
340
4BB
340
4BA
340
4B9
340
4B8
340
4B7
340
4B6
340
4B5
340
4B4
340
4B3
340
4B2
340
4B1
340
4B0
340
4AF
340
4AE
340
4AD
340
4AC
340
4AB
340
4AA
340
4A9
340
4A8
340
4A7
340
4A6
340
4A5
340
4A4
340
4A3
340
4A2
340
4A1
340
4A0
340
49F
340
49E
340
49D
340
49C
340
49B
340
49A
340
499
340
498
340
497
340
496
340
495
340
494
  0
LAYOUT
  5
1E
102
{ACAD_XDICTIONARY
360
6DA
102
}
102
{ACAD_REACTORS
330
1A
102
}
330
1A
100
AcDbPlotSettings
  1

  2
none_device
  4

  6

 40
0.0
 41
0.0
 42
0.0
 43
0.0
 44
0.0
 45
0.0
 46
0.0
 47
0.0
 48
0.0
 49
0.0
140
0.0
141
0.0
142
1.0
143
1.0
 70
   688
 72
     1
 73
     0
 74
     5
  7

 75
    16
147
1.0
148
0.0
149
0.0
100
AcDbLayout
  1
Layout1
 70
     1
 71
     1
 10
0.0
 20
0.0
 11
420.0
 21
297.0
 12
0.0
 22
0.0
 32
0.0
 14
1.000000000000000E+20
 24
1.000000000000000E+20
 34
1.000000000000000E+20
 15
-1.000000000000000E+20
 25
-1.000000000000000E+20
 35
-1.000000000000000E+20
146
0.0
 13
0.0
 23
0.0
 33
0.0
 16
1.0
 26
0.0
 36
0.0
 17
0.0
 27
1.0
 37
0.0
 76
     0
330
1B
  0
LAYOUT
  5
22
102
{ACAD_XDICTIONARY
360
6DC
102
}
102
{ACAD_REACTORS
330
1A
102
}
330
1A
100
AcDbPlotSettings
  1

  2
none_device
  4
Letter_(8.50_x_11.00_Inches)
  6

 40
6.349999999999998
 41
6.349999999999998
 42
6.350005079999998
 43
6.350005079999998
 44
215.9
 45
279.4
 46
0.0
 47
0.0
 48
0.0
 49
0.0
140
0.0
141
0.0
142
1.0
143
1.0
 70
  1712
 72
     1
 73
     0
 74
     0
  7

 75
     0
147
1.0
148
0.0
149
0.0
100
AcDbLayout
  1
Model
 70
     1
 71
     0
 10
-495.9438934326063
 20
-614.9048767089738
 11
1148.160537719727
 21
799.8255310058486
 12
0.0
 22
0.0
 32
0.0
 14
-495.9438934326063
 24
-614.9048767089738
 34
0.0
 15
1148.160537719727
 25
799.8255310058486
 35
0.0
146
0.0
 13
0.0
 23
0.0
 33
0.0
 16
1.0
 26
0.0
 36
0.0
 17
0.0
 27
1.0
 37
0.0
 76
     0
330
1F
331
29
  0
LAYOUT
  5
2E6
102
{ACAD_XDICTIONARY
360
713
102
}
102
{ACAD_REACTORS
330
1A
102
}
330
1A
100
AcDbPlotSettings
  1

  2
青梅 FX DocuCentre-V C2275 T2
  4

  6

 40
0.0
 41
0.0
 42
0.0
 43
0.0
 44
0.0
 45
0.0
 46
0.0
 47
0.0
 48
0.0
 49
0.0
140
0.0
141
0.0
142
1.0
143
1.0
 70
   688
 72
     0
 73
     0
 74
     5
  7
AutoCAD_PEN.ctb
 75
    16
147
1.0
148
0.0
149
0.0
100
AcDbLayout
  1
レイアウト1
 70
     1
 71
     2
 10
0.0
 20
0.0
 11
12.0
 21
9.0
 12
0.0
 22
0.0
 32
0.0
 14
0.0
 24
0.0
 34
0.0
 15
0.0
 25
0.0
 35
0.0
146
0.0
 13
0.0
 23
0.0
 33
0.0
 16
1.0
 26
0.0
 36
0.0
 17
0.0
 27
1.0
 37
0.0
 76
     0
330
23
  0
MATERIAL
  5
45
102
{ACAD_XDICTIONARY
360
2D8
102
}
102
{ACAD_REACTORS
330
43
102
}
330
43
100
AcDbMaterial
  1
ByBlock
  0
MATERIAL
  5
44
102
{ACAD_XDICTIONARY
360
2D6
102
}
102
{ACAD_REACTORS
330
43
102
}
330
43
100
AcDbMaterial
  1
ByLayer
  0
MATERIAL
  5
46
102
{ACAD_XDICTIONARY
360
2DA
102
}
102
{ACAD_REACTORS
330
43
102
}
330
43
100
AcDbMaterial
  1
Global
  0
MLEADERSTYLE
  5
5C
102
{ACAD_REACTORS
330
5B
102
}
330
5B
100
AcDbMLeaderStyle
170
     2
171
     1
172
     0
 90
        2
 40
0.0
 41
0.0
173
     1
 91
-1056964608
340
14
 92
       -2
290
     1
 42
2.0
291
     1
 43
8.0
  3
Standard
 44
4.0
300

342
11
174
     1
178
     6
175
     1
176
     0
 93
-1056964608
 45
4.0
292
     0
297
     0
 46
4.0
 94
-1056964608
 47
1.0
 49
1.0
140
1.0
293
     1
141
0.0
294
     1
177
     0
142
1.0
295
     0
296
     0
143
3.75
1001
ACAD_MLEADERVER
1070
     2
  0
MLINESTYLE
  5
18
102
{ACAD_REACTORS
330
17
102
}
330
17
100
AcDbMlineStyle
  2
STANDARD
 70
     0
  3

 62
   256
 51
90.0
 52
90.0
 71
     2
 49
0.5
 62
   256
  6
BYLAYER
 49
-0.5
 62
   256
  6
BYLAYER
  0
ACDBPLACEHOLDER
  5
F
102
{ACAD_REACTORS
330
E
102
}
330
E
  0
SCALE
  5
48
102
{ACAD_REACTORS
330
47
102
}
330
47
100
AcDbScale
 70
     0
300
1:1
140
1.0
141
1.0
290
     1
  0
SCALE
  5
49
102
{ACAD_REACTORS
330
47
102
}
330
47
100
AcDbScale
 70
     0
300
1:2
140
1.0
141
2.0
290
     0
  0
SCALE
  5
4A
102
{ACAD_REACTORS
330
47
102
}
330
47
100
AcDbScale
 70
     0
300
1:4
140
1.0
141
4.0
290
     0
  0
SCALE
  5
4B
102
{ACAD_REACTORS
330
47
102
}
330
47
100
AcDbScale
 70
     0
300
1:5
140
1.0
141
5.0
290
     0
  0
SCALE
  5
4C
102
{ACAD_REACTORS
330
47
102
}
330
47
100
AcDbScale
 70
     0
300
1:8
140
1.0
141
8.0
290
     0
  0
SCALE
  5
4D
102
{ACAD_REACTORS
330
47
102
}
330
47
100
AcDbScale
 70
     0
300
1:10
140
1.0
141
10.0
290
     0
  0
SCALE
  5
4E
102
{ACAD_REACTORS
330
47
102
}
330
47
100
AcDbScale
 70
     0
300
1:16
140
1.0
141
16.0
290
     0
  0
SCALE
  5
4F
102
{ACAD_REACTORS
330
47
102
}
330
47
100
AcDbScale
 70
     0
300
1:20
140
1.0
141
20.0
290
     0
  0
SCALE
  5
50
102
{ACAD_REACTORS
330
47
102
}
330
47
100
AcDbScale
 70
     0
300
1:30
140
1.0
141
30.0
290
     0
  0
SCALE
  5
51
102
{ACAD_REACTORS
330
47
102
}
330
47
100
AcDbScale
 70
     0
300
1:40
140
1.0
141
40.0
290
     0
  0
SCALE
  5
52
102
{ACAD_REACTORS
330
47
102
}
330
47
100
AcDbScale
 70
     0
300
1:50
140
1.0
141
50.0
290
     0
  0
SCALE
  5
53
102
{ACAD_REACTORS
330
47
102
}
330
47
100
AcDbScale
 70
     0
300
1:100
140
1.0
141
100.0
290
     0
  0
SCALE
  5
54
102
{ACAD_REACTORS
330
47
102
}
330
47
100
AcDbScale
 70
     0
300
2:1
140
2.0
141
1.0
290
     0
  0
SCALE
  5
55
102
{ACAD_REACTORS
330
47
102
}
330
47
100
AcDbScale
 70
     0
300
4:1
140
4.0
141
1.0
290
     0
  0
SCALE
  5
56
102
{ACAD_REACTORS
330
47
102
}
330
47
100
AcDbScale
 70
     0
300
8:1
140
8.0
141
1.0
290
     0
  0
SCALE
  5
57
102
{ACAD_REACTORS
330
47
102
}
330
47
100
AcDbScale
 70
     0
300
10:1
140
10.0
141
1.0
290
     0
  0
SCALE
  5
58
102
{ACAD_REACTORS
330
47
102
}
330
47
100
AcDbScale
 70
     0
300
100:1
140
100.0
141
1.0
290
     0
  0
ACDBSECTIONVIEWSTYLE
  5
2E3
102
{ACAD_XDICTIONARY
360
70F
102
}
102
{ACAD_REACTORS
330
2E2
102
}
330
2E2
100
AcDbModelDocViewStyle
 70
     0
  3
Metric50
290
     0
100
AcDbSectionViewStyle
 70
     0
 71
     0
 90
      102
 71
     1
340
11
 40
5.0
340
0
340
0
 40
5.0
300
I, O, Q, S, X, Z
 40
10.0
 90
        0
 40
2.5
 90
        0
 71
     2
340
16
 90
       25
340
16
 90
       50
 40
5.0
 40
2.5
 40
5.0
 71
     3
340
11
 40
5.0
 90
        0
 40
15.0
 90
        1
300
%<\AcVar ViewSectionStartId>%-%<\AcVar ViewSectionEndId>% (%<\AcVar ViewScale \f "%sn">%)
 71
     4
300
ANSI31
 40
1.0
 90
        0
290
     0
290
     0
 90
        6
 40
0.0
 40
1.570796326794896
 40
0.2617993877991494
 40
1.308996938995747
 40
-0.2617993877991494
 40
1.832595714594045
  0
TABLESTYLE
  5
5A
102
{ACAD_XDICTIONARY
360
680
102
}
102
{ACAD_REACTORS
330
59
102
}
330
59
100
AcDbTableStyle
  3
Standard
 70
     0
 71
     0
 40
1.5
 41
1.5
280
     0
281
     0
  7
Standard
140
4.5
170
     2
 62
     0
 63
     7
283
     0
274
    -2
284
     1
 64
     0
275
    -2
285
     1
 65
     0
276
    -2
286
     1
 66
     0
277
    -2
287
     1
 67
     0
278
    -2
288
     1
 68
     0
279
    -2
289
     1
 69
     0
  7
Standard
140
6.0
170
     5
 62
     0
 63
     7
283
     0
274
    -2
284
     1
 64
     0
275
    -2
285
     1
 65
     0
276
    -2
286
     1
 66
     0
277
    -2
287
     1
 67
     0
278
    -2
288
     1
 68
     0
279
    -2
289
     1
 69
     0
  7
Standard
140
4.5
170
     5
 62
     0
 63
     7
283
     0
274
    -2
284
     1
 64
     0
275
    -2
285
     1
 65
     0
276
    -2
286
     1
 66
     0
277
    -2
287
     1
 67
     0
278
    -2
288
     1
 68
     0
279
    -2
289
     1
 69
     0
  0
VISUALSTYLE
  5
2F
102
{ACAD_XDICTIONARY
360
6E6
102
}
102
{ACAD_REACTORS
330
2A
102
}
330
2A
100
AcDbVisualStyle
  2

 70
     4
 71
     0
 72
     2
 73
     0
 90
        0
 40
-0.6
 41
-30.0
 62
     5
 63
     7
 74
     1
 91
        4
 64
     7
 65
   257
 75
     1
175
     1
 42
1.0
 92
        0
 66
   257
 43
1.0
 76
     1
 77
     6
 78
     2
 67
     7
 79
     5
170
     0
171
     0
290
     0
174
     0
 93
        1
 44
0.0
173
     0
291
     0
 45
0.0
1001
ACAD
1000
AcDbSavedByObjectVersion
1070
     0
  0
VISUALSTYLE
  5
32
102
{ACAD_XDICTIONARY
360
6EC
102
}
102
{ACAD_REACTORS
330
2A
102
}
330
2A
100
AcDbVisualStyle
  2

 70
     7
 71
     1
 72
     0
 73
     1
 90
        0
 40
-0.6
 41
-30.0
 62
     5
 63
     7
 74
     0
 91
        4
 64
     7
 65
   257
 75
     1
175
     1
 42
1.0
 92
        8
 66
     7
 43
1.0
 76
     1
 77
     6
 78
     2
 67
     7
 79
     5
170
     0
171
     0
290
     0
174
     0
 93
        1
 44
0.0
173
     0
291
     1
 45
0.0
1001
ACAD
1000
AcDbSavedByObjectVersion
1070
     0
  0
VISUALSTYLE
  5
36
102
{ACAD_XDICTIONARY
360
6F4
102
}
102
{ACAD_REACTORS
330
2A
102
}
330
2A
100
AcDbVisualStyle
  2

 70
    12
 71
     2
 72
     2
 73
     0
 90
        0
 40
-0.6
 41
-30.0
 62
     5
 63
     7
 74
     1
 91
        4
 64
     7
 65
   257
 75
     1
175
     1
 42
1.0
 92
        8
 66
     7
 43
1.0
 76
     1
 77
     6
 78
     2
 67
     7
 79
     5
170
     0
171
     0
290
     0
174
     0
 93
        1
 44
50.0
173
     0
291
     1
 45
0.0
1001
ACAD
1000
AcDbSavedByObjectVersion
1070
     0
  0
VISUALSTYLE
  5
3A
102
{ACAD_XDICTIONARY
360
6FC
102
}
102
{ACAD_REACTORS
330
2A
102
}
330
2A
100
AcDbVisualStyle
  2

 70
    16
 71
     2
 72
     2
 73
     3
 90
        0
 40
-0.6
 41
-30.0
 62
     5
 63
     8
 74
     1
 91
        4
 64
     7
 65
   257
 75
     1
175
     1
 42
1.0
 92
        8
 66
     8
 43
1.0
 76
     1
 77
     6
 78
     2
 67
     7
 79
     5
170
     0
171
     0
290
     0
174
     0
 93
        1
 44
0.0
173
     0
291
     1
 45
0.0
1001
ACAD
1000
AcDbSavedByObjectVersion
1070
     0
  0
VISUALSTYLE
  5
34
102
{ACAD_XDICTIONARY
360
6F0
102
}
102
{ACAD_REACTORS
330
2A
102
}
330
2A
100
AcDbVisualStyle
  2

 70
     9
 71
     3
 72
     2
 73
     0
 90
        0
 40
-0.6
 41
-30.0
 62
     5
 63
     7
 74
     2
 91
        2
 64
     7
 65
   257
 75
     1
175
     1
 42
179.0
 92
        8
 66
     7
 43
1.0
 76
     1
 77
     6
 78
     2
 67
     7
 79
     3
170
     0
171
     0
290
     0
174
     0
 93
        1
 44
0.0
173
     0
291
     0
 45
0.0
1001
ACAD
1000
AcDbSavedByObjectVersion
1070
     0
  0
VISUALSTYLE
  5
35
102
{ACAD_XDICTIONARY
360
6F2
102
}
102
{ACAD_REACTORS
330
2A
102
}
330
2A
100
AcDbVisualStyle
  2

 70
    11
 71
     2
 72
     2
 73
     0
 90
        0
 40
-0.6
 41
-30.0
 62
     5
 63
     7
 74
     1
 91
        4
 64
     7
 65
   257
 75
     1
175
     1
 42
1.0
 92
        8
 66
     7
 43
1.0
 76
     1
 77
     6
 78
     2
 67
     7
 79
     5
170
     0
171
     0
290
     0
174
     0
 93
        1
 44
-50.0
173
     0
291
     1
 45
0.0
1001
ACAD
1000
AcDbSavedByObjectVersion
1070
     0
  0
VISUALSTYLE
  5
3D
102
{ACAD_XDICTIONARY
360
702
102
}
102
{ACAD_REACTORS
330
2A
102
}
330
2A
100
AcDbVisualStyle
  2

 70
    22
 71
     2
 72
     2
 73
     0
 90
        0
 40
-0.6
 41
-30.0
 62
     5
 63
     7
 74
     1
 91
        4
 64
     7
 65
   257
 75
     1
175
     1
 42
1.0
 92
        8
 66
     7
 43
1.0
 76
     1
 77
     6
 78
     2
 67
     7
 79
     5
170
     0
171
     0
290
     0
174
     0
 93
        1
 44
0.0
173
     0
291
     1
 45
0.0
1001
ACAD
1000
AcDbSavedByObjectVersion
1070
     0
  0
VISUALSTYLE
  5
39
102
{ACAD_XDICTIONARY
360
6FA
102
}
102
{ACAD_REACTORS
330
2A
102
}
330
2A
100
AcDbVisualStyle
  2

 70
    15
 71
     2
 72
     2
 73
     0
 90
        0
 40
-0.6
 41
-30.0
 62
     5
 63
     7
 74
     1
 91
        4
 64
     7
 65
   257
 75
     1
175
     1
 42
1.0
 92
        8
 66
     7
 43
1.0
 76
     1
 77
     6
 78
     2
 67
     7
 79
     5
170
     0
171
     0
290
     0
174
     0
 93
        1
 44
0.0
173
     0
291
     1
 45
0.0
1001
ACAD
1000
AcDbSavedByObjectVersion
1070
     0
  0
VISUALSTYLE
  5
2B
102
{ACAD_XDICTIONARY
360
6DE
102
}
102
{ACAD_REACTORS
330
2A
102
}
330
2A
100
AcDbVisualStyle
  2

 70
     0
 71
     2
 72
     1
 73
     1
 90
        2
 40
-0.6
 41
30.0
 62
     5
 63
     7
 74
     0
 91
        0
 64
     7
 65
   257
 75
     1
175
     1
 42
1.0
 92
        8
 66
     7
 43
1.0
 76
     1
 77
     6
 78
     2
 67
     7
 79
     5
170
     0
171
     0
290
     0
174
     0
 93
       13
 44
0.0
173
     0
291
     1
 45
0.0
1001
ACAD
1000
AcDbSavedByObjectVersion
1070
     0
  0
VISUALSTYLE
  5
2C
102
{ACAD_XDICTIONARY
360
6E0
102
}
102
{ACAD_REACTORS
330
2A
102
}
330
2A
100
AcDbVisualStyle
  2

 70
     1
 71
     2
 72
     1
 73
     1
 90
        2
 40
-0.6
 41
30.0
 62
     5
 63
     7
 74
     1
 91
        0
 64
     7
 65
   257
 75
     1
175
     1
 42
1.0
 92
        0
 66
   257
 43
1.0
 76
     1
 77
     6
 78
     2
 67
     7
 79
     5
170
     0
171
     0
290
     0
174
     0
 93
       13
 44
0.0
173
     0
291
     1
 45
0.0
1001
ACAD
1000
AcDbSavedByObjectVersion
1070
     0
  0
VISUALSTYLE
  5
2D
102
{ACAD_XDICTIONARY
360
6E2
102
}
102
{ACAD_REACTORS
330
2A
102
}
330
2A
100
AcDbVisualStyle
  2

 70
     2
 71
     2
 72
     2
 73
     1
 90
        2
 40
-0.6
 41
30.0
 62
     5
 63
     7
 74
     0
 91
        0
 64
     7
 65
   257
 75
     1
175
     1
 42
1.0
 92
        0
 66
     7
 43
1.0
 76
     1
 77
     6
 78
     2
 67
     7
 79
     5
170
     0
171
     0
290
     0
174
     0
 93
       13
 44
0.0
173
     0
291
     1
 45
0.0
1001
ACAD
1000
AcDbSavedByObjectVersion
1070
     0
  0
VISUALSTYLE
  5
2E
102
{ACAD_XDICTIONARY
360
6E4
102
}
102
{ACAD_REACTORS
330
2A
102
}
330
2A
100
AcDbVisualStyle
  2

 70
     3
 71
     2
 72
     2
 73
     1
 90
        2
 40
-0.6
 41
30.0
 62
     5
 63
     7
 74
     1
 91
        0
 64
     7
 65
   257
 75
     1
175
     1
 42
1.0
 92
        0
 66
   257
 43
1.0
 76
     1
 77
     6
 78
     2
 67
     7
 79
     5
170
     0
171
     0
290
     0
174
     0
 93
       13
 44
0.0
173
     0
291
     1
 45
0.0
1001
ACAD
1000
AcDbSavedByObjectVersion
1070
     0
  0
VISUALSTYLE
  5
31
102
{ACAD_XDICTIONARY
360
6EA
102
}
102
{ACAD_REACTORS
330
2A
102
}
330
2A
100
AcDbVisualStyle
  2

 70
     6
 71
     1
 72
     2
 73
     2
 90
        0
 40
-0.6
 41
-30.0
 62
     5
 63
     7
 74
     2
 91
        2
 64
     7
 65
   257
 75
     2
175
     1
 42
40.0
 92
        0
 66
   257
 43
1.0
 76
     1
 77
     6
 78
     2
 67
     7
 79
     3
170
     0
171
     0
290
     0
174
     0
 93
        1
 44
0.0
173
     0
291
     0
 45
0.0
1001
ACAD
1000
AcDbSavedByObjectVersion
1070
     0
  0
VISUALSTYLE
  5
3B
102
{ACAD_XDICTIONARY
360
6FE
102
}
102
{ACAD_REACTORS
330
2A
102
}
330
2A
100
AcDbVisualStyle
  2

 70
    20
 71
     2
 72
     2
 73
     0
 90
        0
 40
-0.6
 41
-30.0
 62
     5
 63
     7
 74
     1
 91
        4
 64
     7
 65
   257
 75
     1
175
     1
 42
1.0
 92
       10
 66
     7
 43
1.0
 76
     1
 77
     6
 78
     2
 67
     7
 79
     5
170
     0
171
     0
290
     0
174
     0
 93
        1
 44
0.0
173
     0
291
     1
 45
0.0
1001
ACAD
1000
AcDbSavedByObjectVersion
1070
     0
  0
VISUALSTYLE
  5
38
102
{ACAD_XDICTIONARY
360
6F8
102
}
102
{ACAD_REACTORS
330
2A
102
}
330
2A
100
AcDbVisualStyle
  2

 70
    14
 71
     2
 72
     2
 73
     0
 90
        0
 40
-0.6
 41
-30.0
 62
     5
 63
     7
 74
     1
 91
        4
 64
     7
 65
   257
 75
     7
175
     7
 42
1.0
 92
        8
 66
     7
 43
1.0
 76
     1
 77
     6
 78
     2
 67
     7
 79
     5
170
     0
171
     0
290
     0
174
     0
 93
        1
 44
0.0
173
     0
291
     1
 45
0.0
1001
ACAD
1000
AcDbSavedByObjectVersion
1070
     0
  0
VISUALSTYLE
  5
3C
102
{ACAD_XDICTIONARY
360
700
102
}
102
{ACAD_REACTORS
330
2A
102
}
330
2A
100
AcDbVisualStyle
  2

 70
    21
 71
     2
 72
     2
 73
     0
 90
        0
 40
-0.6
 41
-30.0
 62
     5
 63
     7
 74
     1
 91
        4
 64
     7
 65
   257
 75
     1
175
     1
 42
1.0
 92
        9
 66
     7
 43
1.0
 76
     1
 77
     6
 78
     2
 67
     7
 79
     5
170
     0
171
     0
290
     0
174
     0
 93
        1
 44
0.0
173
     0
291
     1
 45
0.0
1001
ACAD
1000
AcDbSavedByObjectVersion
1070
     0
  0
VISUALSTYLE
  5
33
102
{ACAD_XDICTIONARY
360
6EE
102
}
102
{ACAD_REACTORS
330
2A
102
}
330
2A
100
AcDbVisualStyle
  2

 70
     8
 71
     2
 72
     3
 73
     0
 90
        2
 40
-0.6
 41
30.0
 62
     5
 63
     7
 74
     0
 91
        0
 64
     7
 65
   257
 75
     1
175
     1
 42
1.0
 92
        8
 66
   257
 43
1.0
 76
     1
 77
     6
 78
     2
 67
     7
 79
     3
170
     0
171
     0
290
     0
174
     0
 93
       13
 44
0.0
173
     0
291
     0
 45
0.0
1001
ACAD
1000
AcDbSavedByObjectVersion
1070
     0
  0
VISUALSTYLE
  5
42
102
{ACAD_XDICTIONARY
360
70C
102
}
102
{ACAD_REACTORS
330
2A
102
}
330
2A
100
AcDbVisualStyle
  2

 70
    27
 71
     2
 72
     2
 73
     1
 90
        2
 40
-0.6
 41
30.0
 62
     5
 63
     7
 74
     0
 91
        4
 64
     7
 65
   257
 75
     1
175
     1
 42
1.0
 92
        8
 66
   257
 43
1.0
 76
     1
 77
     6
 78
     2
 67
     8
 79
     3
170
     0
171
     0
290
     0
174
     0
 93
        5
 44
0.0
173
     0
291
     0
 45
0.0
1001
ACAD
1000
AcDbSavedByObjectVersion
1070
     0
  0
VISUALSTYLE
  5
41
102
{ACAD_XDICTIONARY
360
70A
102
}
102
{ACAD_REACTORS
330
2A
102
}
330
2A
100
AcDbVisualStyle
  2

 70
    26
 71
     2
 72
     2
 73
     1
 90
        2
 40
-0.6
 41
30.0
 62
     5
 63
     7
 74
     1
 91
       10
 64
     7
 65
   257
 75
     2
175
     1
 42
1.0
 92
        8
 66
   257
 43
1.0
 76
     1
 77
     6
 78
     2
 67
     7
 79
     3
170
     0
171
     0
290
     0
174
     0
 93
        5
 44
0.0
173
     0
291
     0
 45
0.0
1001
ACAD
1000
AcDbSavedByObjectVersion
1070
     0
  0
VISUALSTYLE
  5
3E
102
{ACAD_XDICTIONARY
360
704
102
}
102
{ACAD_REACTORS
330
2A
102
}
330
2A
100
AcDbVisualStyle
  2

 70
    23
 71
     2
 72
     2
 73
     3
 90
        0
 40
-0.6
 41
-30.0
 62
     5
 63
     7
 74
     2
 91
        2
 64
     7
 65
     7
 75
     1
175
     1
 42
40.0
 92
        8
 66
     7
 43
1.0
 76
     1
 77
     6
 78
     2
 67
     7
 79
     3
170
     0
171
     0
290
     0
174
     0
 93
        1
 44
0.0
173
     0
291
     0
 45
0.0
1001
ACAD
1000
AcDbSavedByObjectVersion
1070
     0
  0
VISUALSTYLE
  5
3F
102
{ACAD_XDICTIONARY
360
706
102
}
102
{ACAD_REACTORS
330
2A
102
}
330
2A
100
AcDbVisualStyle
  2

 70
    24
 71
     1
 72
     2
 73
     2
 90
        0
 40
-0.6
 41
-30.0
 62
     5
 63
     7
 74
     2
 91
        2
 64
     7
 65
     7
 75
     1
175
     1
 42
40.0
 92
       11
 66
     7
 43
1.0
 76
     1
 77
     6
 78
     2
 67
     7
 79
     6
170
     0
171
     0
290
     0
174
     0
 93
        1
 44
0.0
173
     0
291
     0
 45
0.0
1001
ACAD
1000
AcDbSavedByObjectVersion
1070
     0
  0
VISUALSTYLE
  5
37
102
{ACAD_XDICTIONARY
360
6F6
102
}
102
{ACAD_REACTORS
330
2A
102
}
330
2A
100
AcDbVisualStyle
  2

 70
    13
 71
     2
 72
     2
 73
     0
 90
        0
 40
-0.6
 41
-30.0
 62
     5
 63
     7
 74
     1
 91
        4
 64
     7
 65
   257
 75
     1
175
     1
 42
1.0
 92
       12
 66
     7
 43
1.0
 76
     1
 77
     6
 78
     2
 67
     7
 79
     5
170
     0
171
     0
290
     0
174
     0
 93
        1
 44
0.0
173
     0
291
     1
 45
0.0
1001
ACAD
1000
AcDbSavedByObjectVersion
1070
     0
  0
VISUALSTYLE
  5
30
102
{ACAD_XDICTIONARY
360
6E8
102
}
102
{ACAD_REACTORS
330
2A
102
}
330
2A
100
AcDbVisualStyle
  2

 70
     5
 71
     0
 72
     2
 73
     0
 90
        0
 40
-0.6
 41
-30.0
 62
     5
 63
     7
 74
     1
 91
        4
 64
     7
 65
   257
 75
     1
175
     1
 42
1.0
 92
        0
 66
   257
 43
1.0
 76
     1
 77
     6
 78
     2
 67
     7
 79
     3
170
     0
171
     0
290
     0
174
     0
 93
        1
 44
0.0
173
     0
291
     0
 45
0.0
1001
ACAD
1000
AcDbSavedByObjectVersion
1070
     0
  0
VISUALSTYLE
  5
40
102
{ACAD_XDICTIONARY
360
708
102
}
102
{ACAD_REACTORS
330
2A
102
}
330
2A
100
AcDbVisualStyle
  2

 70
    25
 71
     2
 72
     2
 73
     1
 90
        1
 40
0.5
 41
-30.0
 62
     5
 63
     7
 74
     1
 91
        0
 64
     7
 65
   257
 75
     1
175
     1
 42
1.0
 92
        8
 66
     7
 43
1.0
 76
     1
 77
     6
 78
     2
 67
     7
 79
     3
170
     0
171
     0
290
     0
174
     0
 93
       13
 44
0.0
173
     0
291
     0
 45
0.0
1001
ACAD
1000
AcDbSavedByObjectVersion
1070
     0
  0
DICTIONARYVAR
  5
2A4
102
{ACAD_REACTORS
330
296
102
}
330
296
100
DictionaryVariables
280
     0
  1
1:1
  0
DICTIONARYVAR
  5
29D
102
{ACAD_REACTORS
330
296
102
}
330
296
100
DictionaryVariables
280
     0
  1
3.500000
  0
DICTIONARYVAR
  5
29E
102
{ACAD_REACTORS
330
296
102
}
330
296
100
DictionaryVariables
280
     0
  1
acadiso.lin
  0
DICTIONARYVAR
  5
298
102
{ACAD_REACTORS
330
296
102
}
330
296
100
DictionaryVariables
280
     0
  1
STANDARD
  0
DICTIONARYVAR
  5
297
102
{ACAD_REACTORS
330
296
102
}
330
296
100
DictionaryVariables
280
     0
  1
STANDARD
  0
DICTIONARYVAR
  5
67B
102
{ACAD_REACTORS
330
296
102
}
330
296
100
DictionaryVariables
280
     0
  1
Metric50
  0
DICTIONARYVAR
  5
67C
102
{ACAD_REACTORS
330
296
102
}
330
296
100
DictionaryVariables
280
     0
  1
Metric50
  0
DICTIONARYVAR
  5
29F
102
{ACAD_REACTORS
330
296
102
}
330
296
100
DictionaryVariables
280
     0
  1
2
  0
DICTIONARYVAR
  5
2A0
102
{ACAD_REACTORS
330
296
102
}
330
296
100
DictionaryVariables
280
     0
  1
1
  0
DICTIONARYVAR
  5
6D0
102
{ACAD_REACTORS
330
296
102
}
330
296
100
DictionaryVariables
280
     0
  1
0
  0
DICTIONARYVAR
  5
67E
102
{ACAD_REACTORS
330
296
102
}
330
296
100
DictionaryVariables
280
     0
  1
1
  0
DICTIONARYVAR
  5
67F
102
{ACAD_REACTORS
330
296
102
}
330
296
100
DictionaryVariables
280
     0
  1
15
  0
DICTIONARYVAR
  5
67D
102
{ACAD_REACTORS
330
296
102
}
330
296
100
DictionaryVariables
280
     0
  1
0
  0
DICTIONARYVAR
  5
6D3
102
{ACAD_REACTORS
330
296
102
}
330
296
100
DictionaryVariables
280
     0
  1
1.570796
  0
DICTIONARYVAR
  5
6D4
102
{ACAD_REACTORS
330
296
102
}
330
296
100
DictionaryVariables
280
     0
  1
1.570796
  0
DICTIONARYVAR
  5
6D5
102
{ACAD_REACTORS
330
296
102
}
330
296
100
DictionaryVariables
280
     0
  1
-122.394000
  0
DICTIONARYVAR
  5
2A5
102
{ACAD_REACTORS
330
296
102
}
330
296
100
DictionaryVariables
280
     0
  1
1
  0
DICTIONARYVAR
  5
6D2
102
{ACAD_REACTORS
330
296
102
}
330
296
100
DictionaryVariables
280
     0
  1
80.000000
  0
DICTIONARYVAR
  5
6D1
102
{ACAD_REACTORS
330
296
102
}
330
296
100
DictionaryVariables
280
     0
  1
5.000000
  0
DICTIONARYVAR
  5
6CF
102
{ACAD_REACTORS
330
296
102
}
330
296
100
DictionaryVariables
280
     0
  1
127
  0
DICTIONARYVAR
  5
6D6
102
{ACAD_REACTORS
330
296
102
}
330
296
100
DictionaryVariables
280
     0
  1
2
  0
DICTIONARY
  5
711
330
2E5
100
AcDbDictionary
280
     1
281
     1
  3
ACAD_XREC_ROUNDTRIP
360
712
  0
DICTIONARY
  5
6DA
330
1E
100
AcDbDictionary
280
     1
281
     1
  3
ACAD_XREC_ROUNDTRIP
360
6DB
  0
DICTIONARY
  5
6DC
330
22
100
AcDbDictionary
280
     1
281
     1
  3
ACAD_XREC_ROUNDTRIP
360
6DD
  0
DICTIONARY
  5
713
330
2E6
100
AcDbDictionary
280
     1
281
     1
  3
ACAD_XREC_ROUNDTRIP
360
714
  0
DICTIONARY
  5
2D8
330
45
100
AcDbDictionary
280
     1
281
     1
  3
ACAD_XREC_ROUNDTRIP
360
2D9
  0
DICTIONARY
  5
2D6
330
44
100
AcDbDictionary
280
     1
281
     1
  3
ACAD_XREC_ROUNDTRIP
360
2D7
  0
DICTIONARY
  5
2DA
330
46
100
AcDbDictionary
280
     1
281
     1
  3
ACAD_XREC_ROUNDTRIP
360
2DB
  0
DICTIONARY
  5
70F
330
2E3
100
AcDbDictionary
280
     1
281
     1
  3
ACAD_XREC_ROUNDTRIP
360
710
  0
DICTIONARY
  5
680
330
5A
100
AcDbDictionary
280
     1
281
     1
  3
ACAD_ROUNDTRIP_2008_TABLESTYLE_CELLSTYLEMAP
360
6D7
  3
ACAD_XREC_ROUNDTRIP
360
70E
  0
DICTIONARY
  5
6E6
330
2F
100
AcDbDictionary
280
     1
281
     1
  3
ACAD_XREC_ROUNDTRIP
360
6E7
  0
DICTIONARY
  5
6EC
330
32
100
AcDbDictionary
280
     1
281
     1
  3
ACAD_XREC_ROUNDTRIP
360
6ED
  0
DICTIONARY
  5
6F4
330
36
100
AcDbDictionary
280
     1
281
     1
  3
ACAD_XREC_ROUNDTRIP
360
6F5
  0
DICTIONARY
  5
6FC
330
3A
100
AcDbDictionary
280
     1
281
     1
  3
ACAD_XREC_ROUNDTRIP
360
6FD
  0
DICTIONARY
  5
6F0
330
34
100
AcDbDictionary
280
     1
281
     1
  3
ACAD_XREC_ROUNDTRIP
360
6F1
  0
DICTIONARY
  5
6F2
330
35
100
AcDbDictionary
280
     1
281
     1
  3
ACAD_XREC_ROUNDTRIP
360
6F3
  0
DICTIONARY
  5
702
330
3D
100
AcDbDictionary
280
     1
281
     1
  3
ACAD_XREC_ROUNDTRIP
360
703
  0
DICTIONARY
  5
6FA
330
39
100
AcDbDictionary
280
     1
281
     1
  3
ACAD_XREC_ROUNDTRIP
360
6FB
  0
DICTIONARY
  5
6DE
330
2B
100
AcDbDictionary
280
     1
281
     1
  3
ACAD_XREC_ROUNDTRIP
360
6DF
  0
DICTIONARY
  5
6E0
330
2C
100
AcDbDictionary
280
     1
281
     1
  3
ACAD_XREC_ROUNDTRIP
360
6E1
  0
DICTIONARY
  5
6E2
330
2D
100
AcDbDictionary
280
     1
281
     1
  3
ACAD_XREC_ROUNDTRIP
360
6E3
  0
DICTIONARY
  5
6E4
330
2E
100
AcDbDictionary
280
     1
281
     1
  3
ACAD_XREC_ROUNDTRIP
360
6E5
  0
DICTIONARY
  5
6EA
330
31
100
AcDbDictionary
280
     1
281
     1
  3
ACAD_XREC_ROUNDTRIP
360
6EB
  0
DICTIONARY
  5
6FE
330
3B
100
AcDbDictionary
280
     1
281
     1
  3
ACAD_XREC_ROUNDTRIP
360
6FF
  0
DICTIONARY
  5
6F8
330
38
100
AcDbDictionary
280
     1
281
     1
  3
ACAD_XREC_ROUNDTRIP
360
6F9
  0
DICTIONARY
  5
700
330
3C
100
AcDbDictionary
280
     1
281
     1
  3
ACAD_XREC_ROUNDTRIP
360
701
  0
DICTIONARY
  5
6EE
330
33
100
AcDbDictionary
280
     1
281
     1
  3
ACAD_XREC_ROUNDTRIP
360
6EF
  0
DICTIONARY
  5
70C
330
42
100
AcDbDictionary
280
     1
281
     1
  3
ACAD_XREC_ROUNDTRIP
360
70D
  0
DICTIONARY
  5
70A
330
41
100
AcDbDictionary
280
     1
281
     1
  3
ACAD_XREC_ROUNDTRIP
360
70B
  0
DICTIONARY
  5
704
330
3E
100
AcDbDictionary
280
     1
281
     1
  3
ACAD_XREC_ROUNDTRIP
360
705
  0
DICTIONARY
  5
706
330
3F
100
AcDbDictionary
280
     1
281
     1
  3
ACAD_XREC_ROUNDTRIP
360
707
  0
DICTIONARY
  5
6F6
330
37
100
AcDbDictionary
280
     1
281
     1
  3
ACAD_XREC_ROUNDTRIP
360
6F7
  0
DICTIONARY
  5
6E8
330
30
100
AcDbDictionary
280
     1
281
     1
  3
ACAD_XREC_ROUNDTRIP
360
6E9
  0
DICTIONARY
  5
708
330
40
100
AcDbDictionary
280
     1
281
     1
  3
ACAD_XREC_ROUNDTRIP
360
709
  0
XRECORD
  5
712
102
{ACAD_REACTORS
330
711
102
}
330
711
100
AcDbXrecord
280
     1
102
DISPLAYNAME
  1
Metric50
102
FLAGS
 90
        0
  0
XRECORD
  5
6DB
102
{ACAD_REACTORS
330
6DA
102
}
330
6DA
100
AcDbXrecord
280
     1
102
SHADEPLOT
 70
     0
102
SHADEPLOTRESLEVEL
 70
     2
102
SHADEPLOTCUSTOMDPI
 70
   300
  0
XRECORD
  5
6DD
102
{ACAD_REACTORS
330
6DC
102
}
330
6DC
100
AcDbXrecord
280
     1
102
SHADEPLOT
 70
     0
102
SHADEPLOTRESLEVEL
 70
     2
102
SHADEPLOTCUSTOMDPI
 70
   300
  0
XRECORD
  5
714
102
{ACAD_REACTORS
330
713
102
}
330
713
100
AcDbXrecord
280
     1
102
SHADEPLOT
 70
     0
102
SHADEPLOTRESLEVEL
 70
     2
102
SHADEPLOTCUSTOMDPI
 70
   300
  0
XRECORD
  5
2D9
102
{ACAD_REACTORS
330
2D8
102
}
330
2D8
100
AcDbXrecord
280
     1
102
MATERIAL
148
0.0
149
0.0
149
0.0
 93
        0
 94
      127
282
     0
 72
     1
 77
     1
171
     1
175
     1
179
     1
273
     0
  0
XRECORD
  5
2D7
102
{ACAD_REACTORS
330
2D6
102
}
330
2D6
100
AcDbXrecord
280
     1
102
MATERIAL
148
0.0
149
0.0
149
0.0
 93
        0
 94
      127
282
     0
 72
     1
 77
     1
171
     1
175
     1
179
     1
273
     0
  0
XRECORD
  5
2DB
102
{ACAD_REACTORS
330
2DA
102
}
330
2DA
100
AcDbXrecord
280
     1
102
MATERIAL
148
0.0
149
0.0
149
0.0
 93
        0
 94
      127
282
     0
 72
     1
 77
     1
171
     1
175
     1
179
     1
273
     0
  0
XRECORD
  5
710
102
{ACAD_REACTORS
330
70F
102
}
330
70F
100
AcDbXrecord
280
     1
102
DISPLAYNAME
  1
Metric50
102
FLAGS
 90
        0
  0
CELLSTYLEMAP
  5
6D7
102
{ACAD_REACTORS
330
680
102
}
330
680
100
AcDbCellStyleMap
 90
        3
300
CELLSTYLE
  1
TABLEFORMAT_BEGIN
 90
        5
170
     1
 91
        0
 92
    32768
 62
   257
 93
        1
300
CONTENTFORMAT
  1
CONTENTFORMAT_BEGIN
 90
        0
 91
        0
 92
        4
 93
        0
300

 40
0.0
140
1.0
 94
        5
 62
     0
340
11
144
6.0
309
CONTENTFORMAT_END
171
     1
301
MARGIN
  1
CELLMARGIN_BEGIN
 40
1.5
 40
1.5
 40
1.5
 40
1.5
 40
0.18
 40
0.18
309
CELLMARGIN_END
 94
        6
 95
        1
302
GRIDFORMAT
  1
GRIDFORMAT_BEGIN
 90
        0
 91
        1
 62
     0
 92
       -2
340
0
 93
        0
 40
0.045
309
GRIDFORMAT_END
 95
        2
302
GRIDFORMAT
  1
GRIDFORMAT_BEGIN
 90
        0
 91
        1
 62
     0
 92
       -2
340
0
 93
        0
 40
0.045
309
GRIDFORMAT_END
 95
        4
302
GRIDFORMAT
  1
GRIDFORMAT_BEGIN
 90
        0
 91
        1
 62
     0
 92
       -2
340
0
 93
        0
 40
0.045
309
GRIDFORMAT_END
 95
        8
302
GRIDFORMAT
  1
GRIDFORMAT_BEGIN
 90
        0
 91
        1
 62
     0
 92
       -2
340
0
 93
        0
 40
0.045
309
GRIDFORMAT_END
 95
       16
302
GRIDFORMAT
  1
GRIDFORMAT_BEGIN
 90
        0
 91
        1
 62
     0
 92
       -2
340
0
 93
        0
 40
0.045
309
GRIDFORMAT_END
 95
       32
302
GRIDFORMAT
  1
GRIDFORMAT_BEGIN
 90
        0
 91
        1
 62
     0
 92
       -2
340
0
 93
        0
 40
0.045
309
GRIDFORMAT_END
309
TABLEFORMAT_END
  1
CELLSTYLE_BEGIN
 90
        1
 91
        1
300
_TITLE
309
CELLSTYLE_END
300
CELLSTYLE
  1
TABLEFORMAT_BEGIN
 90
        5
170
     1
 91
        0
 92
        0
 62
   257
 93
        1
300
CONTENTFORMAT
  1
CONTENTFORMAT_BEGIN
 90
        0
 91
        0
 92
        4
 93
        0
300

 40
0.0
140
1.0
 94
        5
 62
     0
340
11
144
4.5
309
CONTENTFORMAT_END
171
     1
301
MARGIN
  1
CELLMARGIN_BEGIN
 40
1.5
 40
1.5
 40
1.5
 40
1.5
 40
0.18
 40
0.18
309
CELLMARGIN_END
 94
        6
 95
        1
302
GRIDFORMAT
  1
GRIDFORMAT_BEGIN
 90
        0
 91
        1
 62
     0
 92
       -2
340
0
 93
        0
 40
0.045
309
GRIDFORMAT_END
 95
        2
302
GRIDFORMAT
  1
GRIDFORMAT_BEGIN
 90
        0
 91
        1
 62
     0
 92
       -2
340
0
 93
        0
 40
0.045
309
GRIDFORMAT_END
 95
        4
302
GRIDFORMAT
  1
GRIDFORMAT_BEGIN
 90
        0
 91
        1
 62
     0
 92
       -2
340
0
 93
        0
 40
0.045
309
GRIDFORMAT_END
 95
        8
302
GRIDFORMAT
  1
GRIDFORMAT_BEGIN
 90
        0
 91
        1
 62
     0
 92
       -2
340
0
 93
        0
 40
0.045
309
GRIDFORMAT_END
 95
       16
302
GRIDFORMAT
  1
GRIDFORMAT_BEGIN
 90
        0
 91
        1
 62
     0
 92
       -2
340
0
 93
        0
 40
0.045
309
GRIDFORMAT_END
 95
       32
302
GRIDFORMAT
  1
GRIDFORMAT_BEGIN
 90
        0
 91
        1
 62
     0
 92
       -2
340
0
 93
        0
 40
0.045
309
GRIDFORMAT_END
309
TABLEFORMAT_END
  1
CELLSTYLE_BEGIN
 90
        2
 91
        1
300
_HEADER
309
CELLSTYLE_END
300
CELLSTYLE
  1
TABLEFORMAT_BEGIN
 90
        5
170
     1
 91
        0
 92
        0
 62
   257
 93
        1
300
CONTENTFORMAT
  1
CONTENTFORMAT_BEGIN
 90
        0
 91
        0
 92
        4
 93
        0
300

 40
0.0
140
1.0
 94
        2
 62
     0
340
11
144
4.5
309
CONTENTFORMAT_END
171
     1
301
MARGIN
  1
CELLMARGIN_BEGIN
 40
1.5
 40
1.5
 40
1.5
 40
1.5
 40
0.18
 40
0.18
309
CELLMARGIN_END
 94
        6
 95
        1
302
GRIDFORMAT
  1
GRIDFORMAT_BEGIN
 90
        0
 91
        1
 62
     0
 92
       -2
340
0
 93
        0
 40
0.045
309
GRIDFORMAT_END
 95
        2
302
GRIDFORMAT
  1
GRIDFORMAT_BEGIN
 90
        0
 91
        1
 62
     0
 92
       -2
340
0
 93
        0
 40
0.045
309
GRIDFORMAT_END
 95
        4
302
GRIDFORMAT
  1
GRIDFORMAT_BEGIN
 90
        0
 91
        1
 62
     0
 92
       -2
340
0
 93
        0
 40
0.045
309
GRIDFORMAT_END
 95
        8
302
GRIDFORMAT
  1
GRIDFORMAT_BEGIN
 90
        0
 91
        1
 62
     0
 92
       -2
340
0
 93
        0
 40
0.045
309
GRIDFORMAT_END
 95
       16
302
GRIDFORMAT
  1
GRIDFORMAT_BEGIN
 90
        0
 91
        1
 62
     0
 92
       -2
340
0
 93
        0
 40
0.045
309
GRIDFORMAT_END
 95
       32
302
GRIDFORMAT
  1
GRIDFORMAT_BEGIN
 90
        0
 91
        1
 62
     0
 92
       -2
340
0
 93
        0
 40
0.045
309
GRIDFORMAT_END
309
TABLEFORMAT_END
  1
CELLSTYLE_BEGIN
 90
        3
 91
        2
300
_DATA
309
CELLSTYLE_END
  0
XRECORD
  5
70E
102
{ACAD_REACTORS
330
680
102
}
330
680
100
AcDbXrecord
280
     1
102
ACAD_ROUNDTRIP_PRE2007_TABLESTYLE
 90
        4
 91
        0
  1

 92
        4
 93
        0
  2

 94
        4
 95
        0
  3

  0
XRECORD
  5
6E7
102
{ACAD_REACTORS
330
6E6
102
}
330
6E6
100
AcDbXrecord
280
     1
102
RTVSPost2010Prop28
280
     1
102
RTVSPost2010PropOp28
 70
     1
102
RTVSPost2010Prop29
280
     1
102
RTVSPost2010PropOp29
 70
     1
102
RTVSPost2010Prop30
280
     0
102
RTVSPost2010PropOp30
 70
     1
102
RTVSPost2010Prop31
280
     0
102
RTVSPost2010PropOp31
 70
     1
102
RTVSPost2010Prop32
280
     0
102
RTVSPost2010PropOp32
 70
     1
102
RTVSPost2010Prop33
280
     0
102
RTVSPost2010PropOp33
 70
     1
102
RTVSPost2010Prop34
280
     0
102
RTVSPost2010PropOp34
 70
     1
102
RTVSPost2010Prop35
280
     0
102
RTVSPost2010PropOp35
 70
     1
102
RTVSPost2010Prop36
280
     0
102
RTVSPost2010PropOp36
 70
     1
102
RTVSPost2010Prop37
 90
       50
102
RTVSPost2010PropOp37
 70
     1
102
RTVSPost2010Prop38
140
0.0
102
RTVSPost2010PropOp38
 70
     1
102
RTVSPost2010Prop39
140
1.0
102
RTVSPost2010PropOp39
 70
     1
102
RTVSPost2010Prop40
 90
        0
102
RTVSPost2010PropOp40
 70
     1
102
RTVSPost2010Prop41ColorIndex
 90
       18
102
RTVSPost2010Prop41ColorRGB
 90
        0
102
RTVSPost2010PropOp41
 70
     1
102
RTVSPost2010Prop42
 90
       50
102
RTVSPost2010PropOp42
 70
     1
102
RTVSPost2010Prop43
 90
        3
102
RTVSPost2010PropOp43
 70
     1
102
RTVSPost2010Prop44ColorIndex
 90
        5
102
RTVSPost2010Prop44ColorRGB
 90
      255
102
RTVSPost2010PropOp44
 70
     1
102
RTVSPost2010Prop45
280
     0
102
RTVSPost2010PropOp45
 70
     1
102
RTVSPost2010Prop46
 90
       50
102
RTVSPost2010PropOp46
 70
     1
102
RTVSPost2010Prop47
 90
       50
102
RTVSPost2010PropOp47
 70
     1
102
RTVSPost2010Prop48
 90
       50
102
RTVSPost2010PropOp48
 70
     1
102
RTVSPost2010Prop49
280
     0
102
RTVSPost2010PropOp49
 70
     1
102
RTVSPost2010Prop50
 90
       50
102
RTVSPost2010PropOp50
 70
     1
102
RTVSPost2010Prop51ColorIndex
 90
      256
102
RTVSPost2010Prop51ColorRGB
 90
-16777216
102
RTVSPost2010PropOp51
 70
     0
102
RTVSPost2010Prop52
140
1.0
102
RTVSPost2010PropOp52
 70
     0
102
RTVSPost2010Prop53
 90
        2
102
RTVSPost2010PropOp53
 70
     1
102
RTVSPost2010Prop54
  1
strokes_ogs.tif
102
RTVSPost2010PropOp54
 70
     1
102
RTVSPost2010Prop55
280
     0
102
RTVSPost2010PropOp55
 70
     1
102
RTVSPost2010Prop56
140
1.0
102
RTVSPost2010PropOp56
 70
     1
102
RTVSPost2010Prop57
140
1.0
102
RTVSPost2010PropOp57
 70
     1
102
RTVSPropertyOp0
 70
     1
102
RTVSPropertyOp1
 70
     1
102
RTVSPropertyOp2
 70
     1
102
RTVSPropertyOp3
 70
     1
102
RTVSPropertyOp4
 70
     1
102
RTVSPropertyOp5
 70
     1
102
RTVSPropertyOp6
 70
     1
102
RTVSPropertyOp7
 70
     1
102
RTVSPropertyOp8
 70
     1
102
RTVSPropertyOp9
 70
     1
102
RTVSPropertyOp10
 70
     1
102
RTVSPropertyOp11
 70
     1
102
RTVSPropertyOp12
 70
     1
102
RTVSPropertyOp13
 70
     1
102
RTVSPropertyOp14
 70
     1
102
RTVSPropertyOp15
 70
     1
102
RTVSPropertyOp16
 70
     1
102
RTVSPropertyOp17
 70
     1
102
RTVSPropertyOp18
 70
     1
102
RTVSPropertyOp19
 70
     1
102
RTVSPropertyOp20
 70
     1
102
RTVSPropertyOp21
 70
     1
102
RTVSPropertyOp22
 70
     1
102
RTVSPropertyOp23
 70
     1
102
RTVSPropertyOp24
 70
     1
102
RTVSPropertyOp25
 70
     1
102
RTVSPropertyOp26
 70
     1
102
RTVSPropertyOp27
 70
     1
102
RTVSPropertyOp28
 70
     1
102
RTVSPropertyOp29
 70
     1
102
RTVSPropertyOp30
 70
     1
102
RTVSPropertyOp31
 70
     1
102
RTVSPropertyOp32
 70
     1
102
RTVSPropertyOp33
 70
     1
102
RTVSPropertyOp34
 70
     1
102
RTVSPropertyOp35
 70
     1
102
RTVSPropertyOp36
 70
     1
102
RTVSPropertyOp37
 70
     1
102
RTVSPropertyOp38
 70
     1
102
RTVSPropertyOp39
 70
     1
102
RTVSPropertyOp40
 70
     1
102
RTVSPropertyOp41
 70
     1
102
RTVSPropertyOp42
 70
     1
102
RTVSPropertyOp43
 70
     1
102
RTVSPropertyOp44
 70
     1
102
RTVSPropertyOp45
 70
     1
102
RTVSPropertyOp46
 70
     1
102
RTVSPropertyOp47
 70
     1
102
RTVSPropertyOp48
 70
     1
102
RTVSPropertyOp49
 70
     1
102
RTVSPropertyOp50
 70
     1
102
RTVSPropertyOp51
 70
     0
102
RTVSPropertyOp52
 70
     0
102
RTVSPropertyOp53
 70
     1
102
RTVSPropertyOp54
 70
     1
102
RTVSPropertyOp55
 70
     1
102
RTVSPropertyOp56
 70
     1
102
RTVSPropertyOp57
 70
     1
102
RTVSPropertyOp58
 70
     1
102
RTVSPropertyOp59
 70
     1
102
RTVSPropertyOp60
 70
     1
102
RTVSPropertyOp61
 70
     1
102
RTVSPropertyOp62
 70
     1
  0
XRECORD
  5
6ED
102
{ACAD_REACTORS
330
6EC
102
}
330
6EC
100
AcDbXrecord
280
     1
102
RTVSPost2010Prop28
280
     0
102
RTVSPost2010PropOp28
 70
     1
102
RTVSPost2010Prop29
280
     1
102
RTVSPost2010PropOp29
 70
     1
102
RTVSPost2010Prop30
280
     1
102
RTVSPost2010PropOp30
 70
     1
102
RTVSPost2010Prop31
280
     0
102
RTVSPost2010PropOp31
 70
     1
102
RTVSPost2010Prop32
280
     0
102
RTVSPost2010PropOp32
 70
     1
102
RTVSPost2010Prop33
280
     0
102
RTVSPost2010PropOp33
 70
     1
102
RTVSPost2010Prop34
280
     0
102
RTVSPost2010PropOp34
 70
     1
102
RTVSPost2010Prop35
280
     0
102
RTVSPost2010PropOp35
 70
     1
102
RTVSPost2010Prop36
280
     0
102
RTVSPost2010PropOp36
 70
     1
102
RTVSPost2010Prop37
 90
       50
102
RTVSPost2010PropOp37
 70
     1
102
RTVSPost2010Prop38
140
0.0
102
RTVSPost2010PropOp38
 70
     1
102
RTVSPost2010Prop39
140
1.0
102
RTVSPost2010PropOp39
 70
     1
102
RTVSPost2010Prop40
 90
        0
102
RTVSPost2010PropOp40
 70
     1
102
RTVSPost2010Prop41ColorIndex
 90
       18
102
RTVSPost2010Prop41ColorRGB
 90
        0
102
RTVSPost2010PropOp41
 70
     1
102
RTVSPost2010Prop42
 90
       50
102
RTVSPost2010PropOp42
 70
     1
102
RTVSPost2010Prop43
 90
        3
102
RTVSPost2010PropOp43
 70
     1
102
RTVSPost2010Prop44ColorIndex
 90
        5
102
RTVSPost2010Prop44ColorRGB
 90
      255
102
RTVSPost2010PropOp44
 70
     1
102
RTVSPost2010Prop45
280
     0
102
RTVSPost2010PropOp45
 70
     1
102
RTVSPost2010Prop46
 90
       50
102
RTVSPost2010PropOp46
 70
     1
102
RTVSPost2010Prop47
 90
       50
102
RTVSPost2010PropOp47
 70
     1
102
RTVSPost2010Prop48
 90
       50
102
RTVSPost2010PropOp48
 70
     1
102
RTVSPost2010Prop49
280
     0
102
RTVSPost2010PropOp49
 70
     1
102
RTVSPost2010Prop50
 90
       50
102
RTVSPost2010PropOp50
 70
     1
102
RTVSPost2010Prop51ColorIndex
 90
      256
102
RTVSPost2010Prop51ColorRGB
 90
-16777216
102
RTVSPost2010PropOp51
 70
     0
102
RTVSPost2010Prop52
140
1.0
102
RTVSPost2010PropOp52
 70
     0
102
RTVSPost2010Prop53
 90
        2
102
RTVSPost2010PropOp53
 70
     1
102
RTVSPost2010Prop54
  1
strokes_ogs.tif
102
RTVSPost2010PropOp54
 70
     1
102
RTVSPost2010Prop55
280
     0
102
RTVSPost2010PropOp55
 70
     1
102
RTVSPost2010Prop56
140
1.0
102
RTVSPost2010PropOp56
 70
     1
102
RTVSPost2010Prop57
140
1.0
102
RTVSPost2010PropOp57
 70
     1
102
RTVSPropertyOp0
 70
     1
102
RTVSPropertyOp1
 70
     1
102
RTVSPropertyOp2
 70
     1
102
RTVSPropertyOp3
 70
     1
102
RTVSPropertyOp4
 70
     1
102
RTVSPropertyOp5
 70
     1
102
RTVSPropertyOp6
 70
     1
102
RTVSPropertyOp7
 70
     1
102
RTVSPropertyOp8
 70
     1
102
RTVSPropertyOp9
 70
     1
102
RTVSPropertyOp10
 70
     1
102
RTVSPropertyOp11
 70
     1
102
RTVSPropertyOp12
 70
     1
102
RTVSPropertyOp13
 70
     1
102
RTVSPropertyOp14
 70
     1
102
RTVSPropertyOp15
 70
     1
102
RTVSPropertyOp16
 70
     1
102
RTVSPropertyOp17
 70
     1
102
RTVSPropertyOp18
 70
     1
102
RTVSPropertyOp19
 70
     1
102
RTVSPropertyOp20
 70
     1
102
RTVSPropertyOp21
 70
     1
102
RTVSPropertyOp22
 70
     1
102
RTVSPropertyOp23
 70
     1
102
RTVSPropertyOp24
 70
     1
102
RTVSPropertyOp25
 70
     1
102
RTVSPropertyOp26
 70
     1
102
RTVSPropertyOp27
 70
     1
102
RTVSPropertyOp28
 70
     1
102
RTVSPropertyOp29
 70
     1
102
RTVSPropertyOp30
 70
     1
102
RTVSPropertyOp31
 70
     1
102
RTVSPropertyOp32
 70
     1
102
RTVSPropertyOp33
 70
     1
102
RTVSPropertyOp34
 70
     1
102
RTVSPropertyOp35
 70
     1
102
RTVSPropertyOp36
 70
     1
102
RTVSPropertyOp37
 70
     1
102
RTVSPropertyOp38
 70
     1
102
RTVSPropertyOp39
 70
     1
102
RTVSPropertyOp40
 70
     1
102
RTVSPropertyOp41
 70
     1
102
RTVSPropertyOp42
 70
     1
102
RTVSPropertyOp43
 70
     1
102
RTVSPropertyOp44
 70
     1
102
RTVSPropertyOp45
 70
     1
102
RTVSPropertyOp46
 70
     1
102
RTVSPropertyOp47
 70
     1
102
RTVSPropertyOp48
 70
     1
102
RTVSPropertyOp49
 70
     1
102
RTVSPropertyOp50
 70
     1
102
RTVSPropertyOp51
 70
     0
102
RTVSPropertyOp52
 70
     0
102
RTVSPropertyOp53
 70
     1
102
RTVSPropertyOp54
 70
     1
102
RTVSPropertyOp55
 70
     1
102
RTVSPropertyOp56
 70
     1
102
RTVSPropertyOp57
 70
     1
102
RTVSPropertyOp58
 70
     1
102
RTVSPropertyOp59
 70
     1
102
RTVSPropertyOp60
 70
     1
102
RTVSPropertyOp61
 70
     1
102
RTVSPropertyOp62
 70
     1
  0
XRECORD
  5
6F5
102
{ACAD_REACTORS
330
6F4
102
}
330
6F4
100
AcDbXrecord
280
     1
102
RTVSPost2010Prop28
280
     0
102
RTVSPost2010PropOp28
 70
     1
102
RTVSPost2010Prop29
280
     1
102
RTVSPost2010PropOp29
 70
     1
102
RTVSPost2010Prop30
280
     1
102
RTVSPost2010PropOp30
 70
     1
102
RTVSPost2010Prop31
280
     0
102
RTVSPost2010PropOp31
 70
     1
102
RTVSPost2010Prop32
280
     0
102
RTVSPost2010PropOp32
 70
     1
102
RTVSPost2010Prop33
280
     0
102
RTVSPost2010PropOp33
 70
     1
102
RTVSPost2010Prop34
280
     0
102
RTVSPost2010PropOp34
 70
     1
102
RTVSPost2010Prop35
280
     0
102
RTVSPost2010PropOp35
 70
     1
102
RTVSPost2010Prop36
280
     0
102
RTVSPost2010PropOp36
 70
     1
102
RTVSPost2010Prop37
 90
       50
102
RTVSPost2010PropOp37
 70
     1
102
RTVSPost2010Prop38
140
0.0
102
RTVSPost2010PropOp38
 70
     1
102
RTVSPost2010Prop39
140
1.0
102
RTVSPost2010PropOp39
 70
     1
102
RTVSPost2010Prop40
 90
        0
102
RTVSPost2010PropOp40
 70
     1
102
RTVSPost2010Prop41ColorIndex
 90
       18
102
RTVSPost2010Prop41ColorRGB
 90
        0
102
RTVSPost2010PropOp41
 70
     1
102
RTVSPost2010Prop42
 90
       50
102
RTVSPost2010PropOp42
 70
     1
102
RTVSPost2010Prop43
 90
        3
102
RTVSPost2010PropOp43
 70
     1
102
RTVSPost2010Prop44ColorIndex
 90
        5
102
RTVSPost2010Prop44ColorRGB
 90
      255
102
RTVSPost2010PropOp44
 70
     1
102
RTVSPost2010Prop45
280
     0
102
RTVSPost2010PropOp45
 70
     1
102
RTVSPost2010Prop46
 90
       50
102
RTVSPost2010PropOp46
 70
     1
102
RTVSPost2010Prop47
 90
       50
102
RTVSPost2010PropOp47
 70
     1
102
RTVSPost2010Prop48
 90
       50
102
RTVSPost2010PropOp48
 70
     1
102
RTVSPost2010Prop49
280
     0
102
RTVSPost2010PropOp49
 70
     1
102
RTVSPost2010Prop50
 90
       50
102
RTVSPost2010PropOp50
 70
     1
102
RTVSPost2010Prop51ColorIndex
 90
      256
102
RTVSPost2010Prop51ColorRGB
 90
-16777216
102
RTVSPost2010PropOp51
 70
     0
102
RTVSPost2010Prop52
140
1.0
102
RTVSPost2010PropOp52
 70
     0
102
RTVSPost2010Prop53
 90
        2
102
RTVSPost2010PropOp53
 70
     1
102
RTVSPost2010Prop54
  1
strokes_ogs.tif
102
RTVSPost2010PropOp54
 70
     1
102
RTVSPost2010Prop55
280
     0
102
RTVSPost2010PropOp55
 70
     1
102
RTVSPost2010Prop56
140
1.0
102
RTVSPost2010PropOp56
 70
     1
102
RTVSPost2010Prop57
140
1.0
102
RTVSPost2010PropOp57
 70
     1
102
RTVSPropertyOp0
 70
     1
102
RTVSPropertyOp1
 70
     1
102
RTVSPropertyOp2
 70
     1
102
RTVSPropertyOp3
 70
     1
102
RTVSPropertyOp4
 70
     1
102
RTVSPropertyOp5
 70
     1
102
RTVSPropertyOp6
 70
     1
102
RTVSPropertyOp7
 70
     1
102
RTVSPropertyOp8
 70
     1
102
RTVSPropertyOp9
 70
     1
102
RTVSPropertyOp10
 70
     1
102
RTVSPropertyOp11
 70
     1
102
RTVSPropertyOp12
 70
     1
102
RTVSPropertyOp13
 70
     1
102
RTVSPropertyOp14
 70
     1
102
RTVSPropertyOp15
 70
     1
102
RTVSPropertyOp16
 70
     1
102
RTVSPropertyOp17
 70
     1
102
RTVSPropertyOp18
 70
     1
102
RTVSPropertyOp19
 70
     1
102
RTVSPropertyOp20
 70
     1
102
RTVSPropertyOp21
 70
     1
102
RTVSPropertyOp22
 70
     1
102
RTVSPropertyOp23
 70
     1
102
RTVSPropertyOp24
 70
     1
102
RTVSPropertyOp25
 70
     1
102
RTVSPropertyOp26
 70
     1
102
RTVSPropertyOp27
 70
     1
102
RTVSPropertyOp28
 70
     1
102
RTVSPropertyOp29
 70
     1
102
RTVSPropertyOp30
 70
     1
102
RTVSPropertyOp31
 70
     1
102
RTVSPropertyOp32
 70
     1
102
RTVSPropertyOp33
 70
     1
102
RTVSPropertyOp34
 70
     1
102
RTVSPropertyOp35
 70
     1
102
RTVSPropertyOp36
 70
     1
102
RTVSPropertyOp37
 70
     1
102
RTVSPropertyOp38
 70
     1
102
RTVSPropertyOp39
 70
     1
102
RTVSPropertyOp40
 70
     1
102
RTVSPropertyOp41
 70
     1
102
RTVSPropertyOp42
 70
     1
102
RTVSPropertyOp43
 70
     1
102
RTVSPropertyOp44
 70
     1
102
RTVSPropertyOp45
 70
     1
102
RTVSPropertyOp46
 70
     1
102
RTVSPropertyOp47
 70
     1
102
RTVSPropertyOp48
 70
     1
102
RTVSPropertyOp49
 70
     1
102
RTVSPropertyOp50
 70
     1
102
RTVSPropertyOp51
 70
     0
102
RTVSPropertyOp52
 70
     0
102
RTVSPropertyOp53
 70
     1
102
RTVSPropertyOp54
 70
     1
102
RTVSPropertyOp55
 70
     1
102
RTVSPropertyOp56
 70
     1
102
RTVSPropertyOp57
 70
     1
102
RTVSPropertyOp58
 70
     1
102
RTVSPropertyOp59
 70
     1
102
RTVSPropertyOp60
 70
     1
102
RTVSPropertyOp61
 70
     1
102
RTVSPropertyOp62
 70
     1
  0
XRECORD
  5
6FD
102
{ACAD_REACTORS
330
6FC
102
}
330
6FC
100
AcDbXrecord
280
     1
102
RTVSPost2010Prop28
280
     0
102
RTVSPost2010PropOp28
 70
     1
102
RTVSPost2010Prop29
280
     1
102
RTVSPost2010PropOp29
 70
     1
102
RTVSPost2010Prop30
280
     1
102
RTVSPost2010PropOp30
 70
     1
102
RTVSPost2010Prop31
280
     0
102
RTVSPost2010PropOp31
 70
     1
102
RTVSPost2010Prop32
280
     0
102
RTVSPost2010PropOp32
 70
     1
102
RTVSPost2010Prop33
280
     0
102
RTVSPost2010PropOp33
 70
     1
102
RTVSPost2010Prop34
280
     0
102
RTVSPost2010PropOp34
 70
     1
102
RTVSPost2010Prop35
280
     0
102
RTVSPost2010PropOp35
 70
     1
102
RTVSPost2010Prop36
280
     0
102
RTVSPost2010PropOp36
 70
     1
102
RTVSPost2010Prop37
 90
       50
102
RTVSPost2010PropOp37
 70
     1
102
RTVSPost2010Prop38
140
0.0
102
RTVSPost2010PropOp38
 70
     1
102
RTVSPost2010Prop39
140
1.0
102
RTVSPost2010PropOp39
 70
     1
102
RTVSPost2010Prop40
 90
        0
102
RTVSPost2010PropOp40
 70
     1
102
RTVSPost2010Prop41ColorIndex
 90
       18
102
RTVSPost2010Prop41ColorRGB
 90
        0
102
RTVSPost2010PropOp41
 70
     1
102
RTVSPost2010Prop42
 90
       50
102
RTVSPost2010PropOp42
 70
     1
102
RTVSPost2010Prop43
 90
        3
102
RTVSPost2010PropOp43
 70
     1
102
RTVSPost2010Prop44ColorIndex
 90
        5
102
RTVSPost2010Prop44ColorRGB
 90
      255
102
RTVSPost2010PropOp44
 70
     1
102
RTVSPost2010Prop45
280
     0
102
RTVSPost2010PropOp45
 70
     1
102
RTVSPost2010Prop46
 90
       50
102
RTVSPost2010PropOp46
 70
     1
102
RTVSPost2010Prop47
 90
       50
102
RTVSPost2010PropOp47
 70
     1
102
RTVSPost2010Prop48
 90
       50
102
RTVSPost2010PropOp48
 70
     1
102
RTVSPost2010Prop49
280
     0
102
RTVSPost2010PropOp49
 70
     1
102
RTVSPost2010Prop50
 90
       50
102
RTVSPost2010PropOp50
 70
     1
102
RTVSPost2010Prop51ColorIndex
 90
      256
102
RTVSPost2010Prop51ColorRGB
 90
-16777216
102
RTVSPost2010PropOp51
 70
     0
102
RTVSPost2010Prop52
140
1.0
102
RTVSPost2010PropOp52
 70
     0
102
RTVSPost2010Prop53
 90
        2
102
RTVSPost2010PropOp53
 70
     1
102
RTVSPost2010Prop54
  1
strokes_ogs.tif
102
RTVSPost2010PropOp54
 70
     1
102
RTVSPost2010Prop55
280
     0
102
RTVSPost2010PropOp55
 70
     1
102
RTVSPost2010Prop56
140
1.0
102
RTVSPost2010PropOp56
 70
     1
102
RTVSPost2010Prop57
140
1.0
102
RTVSPost2010PropOp57
 70
     1
102
RTVSPropertyOp0
 70
     1
102
RTVSPropertyOp1
 70
     1
102
RTVSPropertyOp2
 70
     1
102
RTVSPropertyOp3
 70
     1
102
RTVSPropertyOp4
 70
     1
102
RTVSPropertyOp5
 70
     1
102
RTVSPropertyOp6
 70
     1
102
RTVSPropertyOp7
 70
     1
102
RTVSPropertyOp8
 70
     1
102
RTVSPropertyOp9
 70
     1
102
RTVSPropertyOp10
 70
     1
102
RTVSPropertyOp11
 70
     1
102
RTVSPropertyOp12
 70
     1
102
RTVSPropertyOp13
 70
     1
102
RTVSPropertyOp14
 70
     1
102
RTVSPropertyOp15
 70
     1
102
RTVSPropertyOp16
 70
     1
102
RTVSPropertyOp17
 70
     1
102
RTVSPropertyOp18
 70
     1
102
RTVSPropertyOp19
 70
     1
102
RTVSPropertyOp20
 70
     1
102
RTVSPropertyOp21
 70
     1
102
RTVSPropertyOp22
 70
     1
102
RTVSPropertyOp23
 70
     1
102
RTVSPropertyOp24
 70
     1
102
RTVSPropertyOp25
 70
     1
102
RTVSPropertyOp26
 70
     1
102
RTVSPropertyOp27
 70
     1
102
RTVSPropertyOp28
 70
     1
102
RTVSPropertyOp29
 70
     1
102
RTVSPropertyOp30
 70
     1
102
RTVSPropertyOp31
 70
     1
102
RTVSPropertyOp32
 70
     1
102
RTVSPropertyOp33
 70
     1
102
RTVSPropertyOp34
 70
     1
102
RTVSPropertyOp35
 70
     1
102
RTVSPropertyOp36
 70
     1
102
RTVSPropertyOp37
 70
     1
102
RTVSPropertyOp38
 70
     1
102
RTVSPropertyOp39
 70
     1
102
RTVSPropertyOp40
 70
     1
102
RTVSPropertyOp41
 70
     1
102
RTVSPropertyOp42
 70
     1
102
RTVSPropertyOp43
 70
     1
102
RTVSPropertyOp44
 70
     1
102
RTVSPropertyOp45
 70
     1
102
RTVSPropertyOp46
 70
     1
102
RTVSPropertyOp47
 70
     1
102
RTVSPropertyOp48
 70
     1
102
RTVSPropertyOp49
 70
     1
102
RTVSPropertyOp50
 70
     1
102
RTVSPropertyOp51
 70
     0
102
RTVSPropertyOp52
 70
     0
102
RTVSPropertyOp53
 70
     1
102
RTVSPropertyOp54
 70
     1
102
RTVSPropertyOp55
 70
     1
102
RTVSPropertyOp56
 70
     1
102
RTVSPropertyOp57
 70
     1
102
RTVSPropertyOp58
 70
     1
102
RTVSPropertyOp59
 70
     1
102
RTVSPropertyOp60
 70
     1
102
RTVSPropertyOp61
 70
     1
102
RTVSPropertyOp62
 70
     1
  0
XRECORD
  5
6F1
102
{ACAD_REACTORS
330
6F0
102
}
330
6F0
100
AcDbXrecord
280
     1
102
RTVSPost2010Prop28
280
     0
102
RTVSPost2010PropOp28
 70
     1
102
RTVSPost2010Prop29
280
     1
102
RTVSPost2010PropOp29
 70
     1
102
RTVSPost2010Prop30
280
     1
102
RTVSPost2010PropOp30
 70
     1
102
RTVSPost2010Prop31
280
     0
102
RTVSPost2010PropOp31
 70
     1
102
RTVSPost2010Prop32
280
     0
102
RTVSPost2010PropOp32
 70
     1
102
RTVSPost2010Prop33
280
     0
102
RTVSPost2010PropOp33
 70
     1
102
RTVSPost2010Prop34
280
     0
102
RTVSPost2010PropOp34
 70
     1
102
RTVSPost2010Prop35
280
     0
102
RTVSPost2010PropOp35
 70
     1
102
RTVSPost2010Prop36
280
     0
102
RTVSPost2010PropOp36
 70
     1
102
RTVSPost2010Prop37
 90
       50
102
RTVSPost2010PropOp37
 70
     1
102
RTVSPost2010Prop38
140
0.0
102
RTVSPost2010PropOp38
 70
     1
102
RTVSPost2010Prop39
140
1.0
102
RTVSPost2010PropOp39
 70
     1
102
RTVSPost2010Prop40
 90
        0
102
RTVSPost2010PropOp40
 70
     1
102
RTVSPost2010Prop41ColorIndex
 90
       18
102
RTVSPost2010Prop41ColorRGB
 90
        0
102
RTVSPost2010PropOp41
 70
     1
102
RTVSPost2010Prop42
 90
       50
102
RTVSPost2010PropOp42
 70
     1
102
RTVSPost2010Prop43
 90
        3
102
RTVSPost2010PropOp43
 70
     1
102
RTVSPost2010Prop44ColorIndex
 90
        5
102
RTVSPost2010Prop44ColorRGB
 90
      255
102
RTVSPost2010PropOp44
 70
     1
102
RTVSPost2010Prop45
280
     0
102
RTVSPost2010PropOp45
 70
     1
102
RTVSPost2010Prop46
 90
       50
102
RTVSPost2010PropOp46
 70
     1
102
RTVSPost2010Prop47
 90
       50
102
RTVSPost2010PropOp47
 70
     1
102
RTVSPost2010Prop48
 90
       50
102
RTVSPost2010PropOp48
 70
     1
102
RTVSPost2010Prop49
280
     0
102
RTVSPost2010PropOp49
 70
     1
102
RTVSPost2010Prop50
 90
       50
102
RTVSPost2010PropOp50
 70
     1
102
RTVSPost2010Prop51ColorIndex
 90
      256
102
RTVSPost2010Prop51ColorRGB
 90
-16777216
102
RTVSPost2010PropOp51
 70
     0
102
RTVSPost2010Prop52
140
1.0
102
RTVSPost2010PropOp52
 70
     0
102
RTVSPost2010Prop53
 90
        2
102
RTVSPost2010PropOp53
 70
     1
102
RTVSPost2010Prop54
  1
strokes_ogs.tif
102
RTVSPost2010PropOp54
 70
     1
102
RTVSPost2010Prop55
280
     0
102
RTVSPost2010PropOp55
 70
     1
102
RTVSPost2010Prop56
140
1.0
102
RTVSPost2010PropOp56
 70
     1
102
RTVSPost2010Prop57
140
1.0
102
RTVSPost2010PropOp57
 70
     1
102
RTVSPropertyOp0
 70
     1
102
RTVSPropertyOp1
 70
     1
102
RTVSPropertyOp2
 70
     1
102
RTVSPropertyOp3
 70
     1
102
RTVSPropertyOp4
 70
     1
102
RTVSPropertyOp5
 70
     1
102
RTVSPropertyOp6
 70
     1
102
RTVSPropertyOp7
 70
     1
102
RTVSPropertyOp8
 70
     1
102
RTVSPropertyOp9
 70
     1
102
RTVSPropertyOp10
 70
     1
102
RTVSPropertyOp11
 70
     1
102
RTVSPropertyOp12
 70
     1
102
RTVSPropertyOp13
 70
     1
102
RTVSPropertyOp14
 70
     1
102
RTVSPropertyOp15
 70
     1
102
RTVSPropertyOp16
 70
     1
102
RTVSPropertyOp17
 70
     1
102
RTVSPropertyOp18
 70
     1
102
RTVSPropertyOp19
 70
     1
102
RTVSPropertyOp20
 70
     1
102
RTVSPropertyOp21
 70
     1
102
RTVSPropertyOp22
 70
     1
102
RTVSPropertyOp23
 70
     1
102
RTVSPropertyOp24
 70
     1
102
RTVSPropertyOp25
 70
     1
102
RTVSPropertyOp26
 70
     1
102
RTVSPropertyOp27
 70
     1
102
RTVSPropertyOp28
 70
     1
102
RTVSPropertyOp29
 70
     1
102
RTVSPropertyOp30
 70
     1
102
RTVSPropertyOp31
 70
     1
102
RTVSPropertyOp32
 70
     1
102
RTVSPropertyOp33
 70
     1
102
RTVSPropertyOp34
 70
     1
102
RTVSPropertyOp35
 70
     1
102
RTVSPropertyOp36
 70
     1
102
RTVSPropertyOp37
 70
     1
102
RTVSPropertyOp38
 70
     1
102
RTVSPropertyOp39
 70
     1
102
RTVSPropertyOp40
 70
     1
102
RTVSPropertyOp41
 70
     1
102
RTVSPropertyOp42
 70
     1
102
RTVSPropertyOp43
 70
     1
102
RTVSPropertyOp44
 70
     1
102
RTVSPropertyOp45
 70
     1
102
RTVSPropertyOp46
 70
     1
102
RTVSPropertyOp47
 70
     1
102
RTVSPropertyOp48
 70
     1
102
RTVSPropertyOp49
 70
     1
102
RTVSPropertyOp50
 70
     1
102
RTVSPropertyOp51
 70
     0
102
RTVSPropertyOp52
 70
     0
102
RTVSPropertyOp53
 70
     1
102
RTVSPropertyOp54
 70
     1
102
RTVSPropertyOp55
 70
     1
102
RTVSPropertyOp56
 70
     1
102
RTVSPropertyOp57
 70
     1
102
RTVSPropertyOp58
 70
     1
102
RTVSPropertyOp59
 70
     1
102
RTVSPropertyOp60
 70
     1
102
RTVSPropertyOp61
 70
     1
102
RTVSPropertyOp62
 70
     1
  0
XRECORD
  5
6F3
102
{ACAD_REACTORS
330
6F2
102
}
330
6F2
100
AcDbXrecord
280
     1
102
RTVSPost2010Prop28
280
     0
102
RTVSPost2010PropOp28
 70
     1
102
RTVSPost2010Prop29
280
     1
102
RTVSPost2010PropOp29
 70
     1
102
RTVSPost2010Prop30
280
     1
102
RTVSPost2010PropOp30
 70
     1
102
RTVSPost2010Prop31
280
     0
102
RTVSPost2010PropOp31
 70
     1
102
RTVSPost2010Prop32
280
     0
102
RTVSPost2010PropOp32
 70
     1
102
RTVSPost2010Prop33
280
     0
102
RTVSPost2010PropOp33
 70
     1
102
RTVSPost2010Prop34
280
     0
102
RTVSPost2010PropOp34
 70
     1
102
RTVSPost2010Prop35
280
     0
102
RTVSPost2010PropOp35
 70
     1
102
RTVSPost2010Prop36
280
     0
102
RTVSPost2010PropOp36
 70
     1
102
RTVSPost2010Prop37
 90
       50
102
RTVSPost2010PropOp37
 70
     1
102
RTVSPost2010Prop38
140
0.0
102
RTVSPost2010PropOp38
 70
     1
102
RTVSPost2010Prop39
140
1.0
102
RTVSPost2010PropOp39
 70
     1
102
RTVSPost2010Prop40
 90
        0
102
RTVSPost2010PropOp40
 70
     1
102
RTVSPost2010Prop41ColorIndex
 90
       18
102
RTVSPost2010Prop41ColorRGB
 90
        0
102
RTVSPost2010PropOp41
 70
     1
102
RTVSPost2010Prop42
 90
       50
102
RTVSPost2010PropOp42
 70
     1
102
RTVSPost2010Prop43
 90
        3
102
RTVSPost2010PropOp43
 70
     1
102
RTVSPost2010Prop44ColorIndex
 90
        5
102
RTVSPost2010Prop44ColorRGB
 90
      255
102
RTVSPost2010PropOp44
 70
     1
102
RTVSPost2010Prop45
280
     0
102
RTVSPost2010PropOp45
 70
     1
102
RTVSPost2010Prop46
 90
       50
102
RTVSPost2010PropOp46
 70
     1
102
RTVSPost2010Prop47
 90
       50
102
RTVSPost2010PropOp47
 70
     1
102
RTVSPost2010Prop48
 90
       50
102
RTVSPost2010PropOp48
 70
     1
102
RTVSPost2010Prop49
280
     0
102
RTVSPost2010PropOp49
 70
     1
102
RTVSPost2010Prop50
 90
       50
102
RTVSPost2010PropOp50
 70
     1
102
RTVSPost2010Prop51ColorIndex
 90
      256
102
RTVSPost2010Prop51ColorRGB
 90
-16777216
102
RTVSPost2010PropOp51
 70
     0
102
RTVSPost2010Prop52
140
1.0
102
RTVSPost2010PropOp52
 70
     0
102
RTVSPost2010Prop53
 90
        2
102
RTVSPost2010PropOp53
 70
     1
102
RTVSPost2010Prop54
  1
strokes_ogs.tif
102
RTVSPost2010PropOp54
 70
     1
102
RTVSPost2010Prop55
280
     0
102
RTVSPost2010PropOp55
 70
     1
102
RTVSPost2010Prop56
140
1.0
102
RTVSPost2010PropOp56
 70
     1
102
RTVSPost2010Prop57
140
1.0
102
RTVSPost2010PropOp57
 70
     1
102
RTVSPropertyOp0
 70
     1
102
RTVSPropertyOp1
 70
     1
102
RTVSPropertyOp2
 70
     1
102
RTVSPropertyOp3
 70
     1
102
RTVSPropertyOp4
 70
     1
102
RTVSPropertyOp5
 70
     1
102
RTVSPropertyOp6
 70
     1
102
RTVSPropertyOp7
 70
     1
102
RTVSPropertyOp8
 70
     1
102
RTVSPropertyOp9
 70
     1
102
RTVSPropertyOp10
 70
     1
102
RTVSPropertyOp11
 70
     1
102
RTVSPropertyOp12
 70
     1
102
RTVSPropertyOp13
 70
     1
102
RTVSPropertyOp14
 70
     1
102
RTVSPropertyOp15
 70
     1
102
RTVSPropertyOp16
 70
     1
102
RTVSPropertyOp17
 70
     1
102
RTVSPropertyOp18
 70
     1
102
RTVSPropertyOp19
 70
     1
102
RTVSPropertyOp20
 70
     1
102
RTVSPropertyOp21
 70
     1
102
RTVSPropertyOp22
 70
     1
102
RTVSPropertyOp23
 70
     1
102
RTVSPropertyOp24
 70
     1
102
RTVSPropertyOp25
 70
     1
102
RTVSPropertyOp26
 70
     1
102
RTVSPropertyOp27
 70
     1
102
RTVSPropertyOp28
 70
     1
102
RTVSPropertyOp29
 70
     1
102
RTVSPropertyOp30
 70
     1
102
RTVSPropertyOp31
 70
     1
102
RTVSPropertyOp32
 70
     1
102
RTVSPropertyOp33
 70
     1
102
RTVSPropertyOp34
 70
     1
102
RTVSPropertyOp35
 70
     1
102
RTVSPropertyOp36
 70
     1
102
RTVSPropertyOp37
 70
     1
102
RTVSPropertyOp38
 70
     1
102
RTVSPropertyOp39
 70
     1
102
RTVSPropertyOp40
 70
     1
102
RTVSPropertyOp41
 70
     1
102
RTVSPropertyOp42
 70
     1
102
RTVSPropertyOp43
 70
     1
102
RTVSPropertyOp44
 70
     1
102
RTVSPropertyOp45
 70
     1
102
RTVSPropertyOp46
 70
     1
102
RTVSPropertyOp47
 70
     1
102
RTVSPropertyOp48
 70
     1
102
RTVSPropertyOp49
 70
     1
102
RTVSPropertyOp50
 70
     1
102
RTVSPropertyOp51
 70
     0
102
RTVSPropertyOp52
 70
     0
102
RTVSPropertyOp53
 70
     1
102
RTVSPropertyOp54
 70
     1
102
RTVSPropertyOp55
 70
     1
102
RTVSPropertyOp56
 70
     1
102
RTVSPropertyOp57
 70
     1
102
RTVSPropertyOp58
 70
     1
102
RTVSPropertyOp59
 70
     1
102
RTVSPropertyOp60
 70
     1
102
RTVSPropertyOp61
 70
     1
102
RTVSPropertyOp62
 70
     1
  0
XRECORD
  5
703
102
{ACAD_REACTORS
330
702
102
}
330
702
100
AcDbXrecord
280
     1
102
RTVSPost2010Prop28
280
     0
102
RTVSPost2010PropOp28
 70
     0
102
RTVSPost2010Prop29
280
     1
102
RTVSPost2010PropOp29
 70
     0
102
RTVSPost2010Prop30
280
     1
102
RTVSPost2010PropOp30
 70
     0
102
RTVSPost2010Prop31
280
     0
102
RTVSPost2010PropOp31
 70
     0
102
RTVSPost2010Prop32
280
     0
102
RTVSPost2010PropOp32
 70
     0
102
RTVSPost2010Prop33
280
     0
102
RTVSPost2010PropOp33
 70
     0
102
RTVSPost2010Prop34
280
     0
102
RTVSPost2010PropOp34
 70
     0
102
RTVSPost2010Prop35
280
     0
102
RTVSPost2010PropOp35
 70
     0
102
RTVSPost2010Prop36
280
     0
102
RTVSPost2010PropOp36
 70
     0
102
RTVSPost2010Prop37
 90
       50
102
RTVSPost2010PropOp37
 70
     0
102
RTVSPost2010Prop38
140
0.0
102
RTVSPost2010PropOp38
 70
     0
102
RTVSPost2010Prop39
140
1.0
102
RTVSPost2010PropOp39
 70
     0
102
RTVSPost2010Prop40
 90
        0
102
RTVSPost2010PropOp40
 70
     0
102
RTVSPost2010Prop41ColorIndex
 90
       18
102
RTVSPost2010Prop41ColorRGB
 90
        0
102
RTVSPost2010PropOp41
 70
     0
102
RTVSPost2010Prop42
 90
       50
102
RTVSPost2010PropOp42
 70
     0
102
RTVSPost2010Prop43
 90
        3
102
RTVSPost2010PropOp43
 70
     0
102
RTVSPost2010Prop44ColorIndex
 90
        5
102
RTVSPost2010Prop44ColorRGB
 90
      255
102
RTVSPost2010PropOp44
 70
     0
102
RTVSPost2010Prop45
280
     0
102
RTVSPost2010PropOp45
 70
     0
102
RTVSPost2010Prop46
 90
       50
102
RTVSPost2010PropOp46
 70
     0
102
RTVSPost2010Prop47
 90
       50
102
RTVSPost2010PropOp47
 70
     0
102
RTVSPost2010Prop48
 90
       50
102
RTVSPost2010PropOp48
 70
     0
102
RTVSPost2010Prop49
280
     0
102
RTVSPost2010PropOp49
 70
     0
102
RTVSPost2010Prop50
 90
       50
102
RTVSPost2010PropOp50
 70
     0
102
RTVSPost2010Prop51ColorIndex
 90
      256
102
RTVSPost2010Prop51ColorRGB
 90
-16777216
102
RTVSPost2010PropOp51
 70
     0
102
RTVSPost2010Prop52
140
1.0
102
RTVSPost2010PropOp52
 70
     0
102
RTVSPost2010Prop53
 90
        2
102
RTVSPost2010PropOp53
 70
     0
102
RTVSPost2010Prop54
  1
strokes_ogs.tif
102
RTVSPost2010PropOp54
 70
     0
102
RTVSPost2010Prop55
280
     0
102
RTVSPost2010PropOp55
 70
     0
102
RTVSPost2010Prop56
140
1.0
102
RTVSPost2010PropOp56
 70
     0
102
RTVSPost2010Prop57
140
1.0
102
RTVSPost2010PropOp57
 70
     0
102
RTVSPropertyOp0
 70
     0
102
RTVSPropertyOp1
 70
     0
102
RTVSPropertyOp2
 70
     0
102
RTVSPropertyOp3
 70
     0
102
RTVSPropertyOp4
 70
     0
102
RTVSPropertyOp5
 70
     0
102
RTVSPropertyOp6
 70
     0
102
RTVSPropertyOp7
 70
     0
102
RTVSPropertyOp8
 70
     0
102
RTVSPropertyOp9
 70
     0
102
RTVSPropertyOp10
 70
     0
102
RTVSPropertyOp11
 70
     0
102
RTVSPropertyOp12
 70
     0
102
RTVSPropertyOp13
 70
     0
102
RTVSPropertyOp14
 70
     2
102
RTVSPropertyOp15
 70
     0
102
RTVSPropertyOp16
 70
     0
102
RTVSPropertyOp17
 70
     0
102
RTVSPropertyOp18
 70
     0
102
RTVSPropertyOp19
 70
     0
102
RTVSPropertyOp20
 70
     0
102
RTVSPropertyOp21
 70
     0
102
RTVSPropertyOp22
 70
     0
102
RTVSPropertyOp23
 70
     0
102
RTVSPropertyOp24
 70
     0
102
RTVSPropertyOp25
 70
     0
102
RTVSPropertyOp26
 70
     0
102
RTVSPropertyOp27
 70
     0
102
RTVSPropertyOp28
 70
     0
102
RTVSPropertyOp29
 70
     0
102
RTVSPropertyOp30
 70
     0
102
RTVSPropertyOp31
 70
     0
102
RTVSPropertyOp32
 70
     0
102
RTVSPropertyOp33
 70
     0
102
RTVSPropertyOp34
 70
     0
102
RTVSPropertyOp35
 70
     0
102
RTVSPropertyOp36
 70
     0
102
RTVSPropertyOp37
 70
     0
102
RTVSPropertyOp38
 70
     0
102
RTVSPropertyOp39
 70
     0
102
RTVSPropertyOp40
 70
     0
102
RTVSPropertyOp41
 70
     0
102
RTVSPropertyOp42
 70
     0
102
RTVSPropertyOp43
 70
     0
102
RTVSPropertyOp44
 70
     0
102
RTVSPropertyOp45
 70
     0
102
RTVSPropertyOp46
 70
     0
102
RTVSPropertyOp47
 70
     0
102
RTVSPropertyOp48
 70
     0
102
RTVSPropertyOp49
 70
     0
102
RTVSPropertyOp50
 70
     0
102
RTVSPropertyOp51
 70
     0
102
RTVSPropertyOp52
 70
     0
102
RTVSPropertyOp53
 70
     0
102
RTVSPropertyOp54
 70
     0
102
RTVSPropertyOp55
 70
     0
102
RTVSPropertyOp56
 70
     0
102
RTVSPropertyOp57
 70
     0
102
RTVSPropertyOp58
 70
     1
102
RTVSPropertyOp59
 70
     1
102
RTVSPropertyOp60
 70
     1
102
RTVSPropertyOp61
 70
     1
102
RTVSPropertyOp62
 70
     1
  0
XRECORD
  5
6FB
102
{ACAD_REACTORS
330
6FA
102
}
330
6FA
100
AcDbXrecord
280
     1
102
RTVSPost2010Prop28
280
     0
102
RTVSPost2010PropOp28
 70
     1
102
RTVSPost2010Prop29
280
     1
102
RTVSPost2010PropOp29
 70
     1
102
RTVSPost2010Prop30
280
     1
102
RTVSPost2010PropOp30
 70
     1
102
RTVSPost2010Prop31
280
     0
102
RTVSPost2010PropOp31
 70
     1
102
RTVSPost2010Prop32
280
     0
102
RTVSPost2010PropOp32
 70
     1
102
RTVSPost2010Prop33
280
     0
102
RTVSPost2010PropOp33
 70
     1
102
RTVSPost2010Prop34
280
     0
102
RTVSPost2010PropOp34
 70
     1
102
RTVSPost2010Prop35
280
     0
102
RTVSPost2010PropOp35
 70
     1
102
RTVSPost2010Prop36
280
     0
102
RTVSPost2010PropOp36
 70
     1
102
RTVSPost2010Prop37
 90
       50
102
RTVSPost2010PropOp37
 70
     1
102
RTVSPost2010Prop38
140
0.0
102
RTVSPost2010PropOp38
 70
     1
102
RTVSPost2010Prop39
140
1.0
102
RTVSPost2010PropOp39
 70
     1
102
RTVSPost2010Prop40
 90
        0
102
RTVSPost2010PropOp40
 70
     1
102
RTVSPost2010Prop41ColorIndex
 90
       18
102
RTVSPost2010Prop41ColorRGB
 90
        0
102
RTVSPost2010PropOp41
 70
     1
102
RTVSPost2010Prop42
 90
       50
102
RTVSPost2010PropOp42
 70
     1
102
RTVSPost2010Prop43
 90
        3
102
RTVSPost2010PropOp43
 70
     1
102
RTVSPost2010Prop44ColorIndex
 90
        5
102
RTVSPost2010Prop44ColorRGB
 90
      255
102
RTVSPost2010PropOp44
 70
     1
102
RTVSPost2010Prop45
280
     0
102
RTVSPost2010PropOp45
 70
     1
102
RTVSPost2010Prop46
 90
       50
102
RTVSPost2010PropOp46
 70
     1
102
RTVSPost2010Prop47
 90
       50
102
RTVSPost2010PropOp47
 70
     1
102
RTVSPost2010Prop48
 90
       50
102
RTVSPost2010PropOp48
 70
     1
102
RTVSPost2010Prop49
280
     0
102
RTVSPost2010PropOp49
 70
     1
102
RTVSPost2010Prop50
 90
       50
102
RTVSPost2010PropOp50
 70
     1
102
RTVSPost2010Prop51ColorIndex
 90
      256
102
RTVSPost2010Prop51ColorRGB
 90
-16777216
102
RTVSPost2010PropOp51
 70
     0
102
RTVSPost2010Prop52
140
1.0
102
RTVSPost2010PropOp52
 70
     0
102
RTVSPost2010Prop53
 90
        2
102
RTVSPost2010PropOp53
 70
     1
102
RTVSPost2010Prop54
  1
strokes_ogs.tif
102
RTVSPost2010PropOp54
 70
     1
102
RTVSPost2010Prop55
280
     0
102
RTVSPost2010PropOp55
 70
     1
102
RTVSPost2010Prop56
140
1.0
102
RTVSPost2010PropOp56
 70
     1
102
RTVSPost2010Prop57
140
1.0
102
RTVSPost2010PropOp57
 70
     1
102
RTVSPropertyOp0
 70
     1
102
RTVSPropertyOp1
 70
     1
102
RTVSPropertyOp2
 70
     1
102
RTVSPropertyOp3
 70
     1
102
RTVSPropertyOp4
 70
     1
102
RTVSPropertyOp5
 70
     1
102
RTVSPropertyOp6
 70
     1
102
RTVSPropertyOp7
 70
     1
102
RTVSPropertyOp8
 70
     1
102
RTVSPropertyOp9
 70
     1
102
RTVSPropertyOp10
 70
     1
102
RTVSPropertyOp11
 70
     1
102
RTVSPropertyOp12
 70
     1
102
RTVSPropertyOp13
 70
     1
102
RTVSPropertyOp14
 70
     1
102
RTVSPropertyOp15
 70
     1
102
RTVSPropertyOp16
 70
     1
102
RTVSPropertyOp17
 70
     1
102
RTVSPropertyOp18
 70
     1
102
RTVSPropertyOp19
 70
     1
102
RTVSPropertyOp20
 70
     1
102
RTVSPropertyOp21
 70
     1
102
RTVSPropertyOp22
 70
     1
102
RTVSPropertyOp23
 70
     1
102
RTVSPropertyOp24
 70
     1
102
RTVSPropertyOp25
 70
     1
102
RTVSPropertyOp26
 70
     1
102
RTVSPropertyOp27
 70
     1
102
RTVSPropertyOp28
 70
     1
102
RTVSPropertyOp29
 70
     1
102
RTVSPropertyOp30
 70
     1
102
RTVSPropertyOp31
 70
     1
102
RTVSPropertyOp32
 70
     1
102
RTVSPropertyOp33
 70
     1
102
RTVSPropertyOp34
 70
     1
102
RTVSPropertyOp35
 70
     1
102
RTVSPropertyOp36
 70
     1
102
RTVSPropertyOp37
 70
     1
102
RTVSPropertyOp38
 70
     1
102
RTVSPropertyOp39
 70
     1
102
RTVSPropertyOp40
 70
     1
102
RTVSPropertyOp41
 70
     1
102
RTVSPropertyOp42
 70
     1
102
RTVSPropertyOp43
 70
     1
102
RTVSPropertyOp44
 70
     1
102
RTVSPropertyOp45
 70
     1
102
RTVSPropertyOp46
 70
     1
102
RTVSPropertyOp47
 70
     1
102
RTVSPropertyOp48
 70
     1
102
RTVSPropertyOp49
 70
     1
102
RTVSPropertyOp50
 70
     1
102
RTVSPropertyOp51
 70
     0
102
RTVSPropertyOp52
 70
     0
102
RTVSPropertyOp53
 70
     1
102
RTVSPropertyOp54
 70
     1
102
RTVSPropertyOp55
 70
     1
102
RTVSPropertyOp56
 70
     1
102
RTVSPropertyOp57
 70
     1
102
RTVSPropertyOp58
 70
     1
102
RTVSPropertyOp59
 70
     1
102
RTVSPropertyOp60
 70
     1
102
RTVSPropertyOp61
 70
     1
102
RTVSPropertyOp62
 70
     1
  0
XRECORD
  5
6DF
102
{ACAD_REACTORS
330
6DE
102
}
330
6DE
100
AcDbXrecord
280
     1
102
RTVSPost2010Prop28
280
     0
102
RTVSPost2010PropOp28
 70
     1
102
RTVSPost2010Prop29
280
     1
102
RTVSPost2010PropOp29
 70
     1
102
RTVSPost2010Prop30
280
     1
102
RTVSPost2010PropOp30
 70
     1
102
RTVSPost2010Prop31
280
     0
102
RTVSPost2010PropOp31
 70
     1
102
RTVSPost2010Prop32
280
     0
102
RTVSPost2010PropOp32
 70
     1
102
RTVSPost2010Prop33
280
     0
102
RTVSPost2010PropOp33
 70
     1
102
RTVSPost2010Prop34
280
     0
102
RTVSPost2010PropOp34
 70
     1
102
RTVSPost2010Prop35
280
     0
102
RTVSPost2010PropOp35
 70
     1
102
RTVSPost2010Prop36
280
     0
102
RTVSPost2010PropOp36
 70
     1
102
RTVSPost2010Prop37
 90
       50
102
RTVSPost2010PropOp37
 70
     1
102
RTVSPost2010Prop38
140
0.0
102
RTVSPost2010PropOp38
 70
     1
102
RTVSPost2010Prop39
140
1.0
102
RTVSPost2010PropOp39
 70
     1
102
RTVSPost2010Prop40
 90
        0
102
RTVSPost2010PropOp40
 70
     1
102
RTVSPost2010Prop41ColorIndex
 90
       18
102
RTVSPost2010Prop41ColorRGB
 90
        0
102
RTVSPost2010PropOp41
 70
     1
102
RTVSPost2010Prop42
 90
       50
102
RTVSPost2010PropOp42
 70
     1
102
RTVSPost2010Prop43
 90
        3
102
RTVSPost2010PropOp43
 70
     1
102
RTVSPost2010Prop44ColorIndex
 90
        5
102
RTVSPost2010Prop44ColorRGB
 90
      255
102
RTVSPost2010PropOp44
 70
     1
102
RTVSPost2010Prop45
280
     0
102
RTVSPost2010PropOp45
 70
     1
102
RTVSPost2010Prop46
 90
       50
102
RTVSPost2010PropOp46
 70
     1
102
RTVSPost2010Prop47
 90
       50
102
RTVSPost2010PropOp47
 70
     1
102
RTVSPost2010Prop48
 90
       50
102
RTVSPost2010PropOp48
 70
     1
102
RTVSPost2010Prop49
280
     0
102
RTVSPost2010PropOp49
 70
     1
102
RTVSPost2010Prop50
 90
       50
102
RTVSPost2010PropOp50
 70
     1
102
RTVSPost2010Prop51ColorIndex
 90
      256
102
RTVSPost2010Prop51ColorRGB
 90
-16777216
102
RTVSPost2010PropOp51
 70
     0
102
RTVSPost2010Prop52
140
1.0
102
RTVSPost2010PropOp52
 70
     0
102
RTVSPost2010Prop53
 90
        2
102
RTVSPost2010PropOp53
 70
     1
102
RTVSPost2010Prop54
  1
strokes_ogs.tif
102
RTVSPost2010PropOp54
 70
     1
102
RTVSPost2010Prop55
280
     0
102
RTVSPost2010PropOp55
 70
     1
102
RTVSPost2010Prop56
140
1.0
102
RTVSPost2010PropOp56
 70
     1
102
RTVSPost2010Prop57
140
1.0
102
RTVSPost2010PropOp57
 70
     1
102
RTVSPropertyOp0
 70
     1
102
RTVSPropertyOp1
 70
     1
102
RTVSPropertyOp2
 70
     1
102
RTVSPropertyOp3
 70
     1
102
RTVSPropertyOp4
 70
     1
102
RTVSPropertyOp5
 70
     1
102
RTVSPropertyOp6
 70
     1
102
RTVSPropertyOp7
 70
     1
102
RTVSPropertyOp8
 70
     1
102
RTVSPropertyOp9
 70
     1
102
RTVSPropertyOp10
 70
     1
102
RTVSPropertyOp11
 70
     1
102
RTVSPropertyOp12
 70
     1
102
RTVSPropertyOp13
 70
     1
102
RTVSPropertyOp14
 70
     1
102
RTVSPropertyOp15
 70
     1
102
RTVSPropertyOp16
 70
     1
102
RTVSPropertyOp17
 70
     1
102
RTVSPropertyOp18
 70
     1
102
RTVSPropertyOp19
 70
     1
102
RTVSPropertyOp20
 70
     1
102
RTVSPropertyOp21
 70
     1
102
RTVSPropertyOp22
 70
     1
102
RTVSPropertyOp23
 70
     1
102
RTVSPropertyOp24
 70
     1
102
RTVSPropertyOp25
 70
     1
102
RTVSPropertyOp26
 70
     1
102
RTVSPropertyOp27
 70
     1
102
RTVSPropertyOp28
 70
     1
102
RTVSPropertyOp29
 70
     1
102
RTVSPropertyOp30
 70
     1
102
RTVSPropertyOp31
 70
     1
102
RTVSPropertyOp32
 70
     1
102
RTVSPropertyOp33
 70
     1
102
RTVSPropertyOp34
 70
     1
102
RTVSPropertyOp35
 70
     1
102
RTVSPropertyOp36
 70
     1
102
RTVSPropertyOp37
 70
     1
102
RTVSPropertyOp38
 70
     1
102
RTVSPropertyOp39
 70
     1
102
RTVSPropertyOp40
 70
     1
102
RTVSPropertyOp41
 70
     1
102
RTVSPropertyOp42
 70
     1
102
RTVSPropertyOp43
 70
     1
102
RTVSPropertyOp44
 70
     1
102
RTVSPropertyOp45
 70
     1
102
RTVSPropertyOp46
 70
     1
102
RTVSPropertyOp47
 70
     1
102
RTVSPropertyOp48
 70
     1
102
RTVSPropertyOp49
 70
     1
102
RTVSPropertyOp50
 70
     1
102
RTVSPropertyOp51
 70
     0
102
RTVSPropertyOp52
 70
     0
102
RTVSPropertyOp53
 70
     1
102
RTVSPropertyOp54
 70
     1
102
RTVSPropertyOp55
 70
     1
102
RTVSPropertyOp56
 70
     1
102
RTVSPropertyOp57
 70
     1
102
RTVSPropertyOp58
 70
     1
102
RTVSPropertyOp59
 70
     1
102
RTVSPropertyOp60
 70
     1
102
RTVSPropertyOp61
 70
     1
102
RTVSPropertyOp62
 70
     1
  0
XRECORD
  5
6E1
102
{ACAD_REACTORS
330
6E0
102
}
330
6E0
100
AcDbXrecord
280
     1
102
RTVSPost2010Prop28
280
     0
102
RTVSPost2010PropOp28
 70
     1
102
RTVSPost2010Prop29
280
     1
102
RTVSPost2010PropOp29
 70
     1
102
RTVSPost2010Prop30
280
     1
102
RTVSPost2010PropOp30
 70
     1
102
RTVSPost2010Prop31
280
     0
102
RTVSPost2010PropOp31
 70
     1
102
RTVSPost2010Prop32
280
     0
102
RTVSPost2010PropOp32
 70
     1
102
RTVSPost2010Prop33
280
     0
102
RTVSPost2010PropOp33
 70
     1
102
RTVSPost2010Prop34
280
     0
102
RTVSPost2010PropOp34
 70
     1
102
RTVSPost2010Prop35
280
     0
102
RTVSPost2010PropOp35
 70
     1
102
RTVSPost2010Prop36
280
     0
102
RTVSPost2010PropOp36
 70
     1
102
RTVSPost2010Prop37
 90
       50
102
RTVSPost2010PropOp37
 70
     1
102
RTVSPost2010Prop38
140
0.0
102
RTVSPost2010PropOp38
 70
     1
102
RTVSPost2010Prop39
140
1.0
102
RTVSPost2010PropOp39
 70
     1
102
RTVSPost2010Prop40
 90
        0
102
RTVSPost2010PropOp40
 70
     1
102
RTVSPost2010Prop41ColorIndex
 90
       18
102
RTVSPost2010Prop41ColorRGB
 90
        0
102
RTVSPost2010PropOp41
 70
     1
102
RTVSPost2010Prop42
 90
       50
102
RTVSPost2010PropOp42
 70
     1
102
RTVSPost2010Prop43
 90
        3
102
RTVSPost2010PropOp43
 70
     1
102
RTVSPost2010Prop44ColorIndex
 90
        5
102
RTVSPost2010Prop44ColorRGB
 90
      255
102
RTVSPost2010PropOp44
 70
     1
102
RTVSPost2010Prop45
280
     0
102
RTVSPost2010PropOp45
 70
     1
102
RTVSPost2010Prop46
 90
       50
102
RTVSPost2010PropOp46
 70
     1
102
RTVSPost2010Prop47
 90
       50
102
RTVSPost2010PropOp47
 70
     1
102
RTVSPost2010Prop48
 90
       50
102
RTVSPost2010PropOp48
 70
     1
102
RTVSPost2010Prop49
280
     0
102
RTVSPost2010PropOp49
 70
     1
102
RTVSPost2010Prop50
 90
       50
102
RTVSPost2010PropOp50
 70
     1
102
RTVSPost2010Prop51ColorIndex
 90
      256
102
RTVSPost2010Prop51ColorRGB
 90
-16777216
102
RTVSPost2010PropOp51
 70
     0
102
RTVSPost2010Prop52
140
1.0
102
RTVSPost2010PropOp52
 70
     0
102
RTVSPost2010Prop53
 90
        2
102
RTVSPost2010PropOp53
 70
     1
102
RTVSPost2010Prop54
  1
strokes_ogs.tif
102
RTVSPost2010PropOp54
 70
     1
102
RTVSPost2010Prop55
280
     0
102
RTVSPost2010PropOp55
 70
     1
102
RTVSPost2010Prop56
140
1.0
102
RTVSPost2010PropOp56
 70
     1
102
RTVSPost2010Prop57
140
1.0
102
RTVSPost2010PropOp57
 70
     1
102
RTVSPropertyOp0
 70
     1
102
RTVSPropertyOp1
 70
     1
102
RTVSPropertyOp2
 70
     1
102
RTVSPropertyOp3
 70
     1
102
RTVSPropertyOp4
 70
     1
102
RTVSPropertyOp5
 70
     1
102
RTVSPropertyOp6
 70
     1
102
RTVSPropertyOp7
 70
     1
102
RTVSPropertyOp8
 70
     1
102
RTVSPropertyOp9
 70
     1
102
RTVSPropertyOp10
 70
     1
102
RTVSPropertyOp11
 70
     1
102
RTVSPropertyOp12
 70
     1
102
RTVSPropertyOp13
 70
     1
102
RTVSPropertyOp14
 70
     1
102
RTVSPropertyOp15
 70
     1
102
RTVSPropertyOp16
 70
     1
102
RTVSPropertyOp17
 70
     1
102
RTVSPropertyOp18
 70
     1
102
RTVSPropertyOp19
 70
     1
102
RTVSPropertyOp20
 70
     1
102
RTVSPropertyOp21
 70
     1
102
RTVSPropertyOp22
 70
     1
102
RTVSPropertyOp23
 70
     1
102
RTVSPropertyOp24
 70
     1
102
RTVSPropertyOp25
 70
     1
102
RTVSPropertyOp26
 70
     1
102
RTVSPropertyOp27
 70
     1
102
RTVSPropertyOp28
 70
     1
102
RTVSPropertyOp29
 70
     1
102
RTVSPropertyOp30
 70
     1
102
RTVSPropertyOp31
 70
     1
102
RTVSPropertyOp32
 70
     1
102
RTVSPropertyOp33
 70
     1
102
RTVSPropertyOp34
 70
     1
102
RTVSPropertyOp35
 70
     1
102
RTVSPropertyOp36
 70
     1
102
RTVSPropertyOp37
 70
     1
102
RTVSPropertyOp38
 70
     1
102
RTVSPropertyOp39
 70
     1
102
RTVSPropertyOp40
 70
     1
102
RTVSPropertyOp41
 70
     1
102
RTVSPropertyOp42
 70
     1
102
RTVSPropertyOp43
 70
     1
102
RTVSPropertyOp44
 70
     1
102
RTVSPropertyOp45
 70
     1
102
RTVSPropertyOp46
 70
     1
102
RTVSPropertyOp47
 70
     1
102
RTVSPropertyOp48
 70
     1
102
RTVSPropertyOp49
 70
     1
102
RTVSPropertyOp50
 70
     1
102
RTVSPropertyOp51
 70
     0
102
RTVSPropertyOp52
 70
     0
102
RTVSPropertyOp53
 70
     1
102
RTVSPropertyOp54
 70
     1
102
RTVSPropertyOp55
 70
     1
102
RTVSPropertyOp56
 70
     1
102
RTVSPropertyOp57
 70
     1
102
RTVSPropertyOp58
 70
     1
102
RTVSPropertyOp59
 70
     1
102
RTVSPropertyOp60
 70
     1
102
RTVSPropertyOp61
 70
     1
102
RTVSPropertyOp62
 70
     1
  0
XRECORD
  5
6E3
102
{ACAD_REACTORS
330
6E2
102
}
330
6E2
100
AcDbXrecord
280
     1
102
RTVSPost2010Prop28
280
     0
102
RTVSPost2010PropOp28
 70
     1
102
RTVSPost2010Prop29
280
     1
102
RTVSPost2010PropOp29
 70
     1
102
RTVSPost2010Prop30
280
     1
102
RTVSPost2010PropOp30
 70
     1
102
RTVSPost2010Prop31
280
     0
102
RTVSPost2010PropOp31
 70
     1
102
RTVSPost2010Prop32
280
     0
102
RTVSPost2010PropOp32
 70
     1
102
RTVSPost2010Prop33
280
     0
102
RTVSPost2010PropOp33
 70
     1
102
RTVSPost2010Prop34
280
     0
102
RTVSPost2010PropOp34
 70
     1
102
RTVSPost2010Prop35
280
     0
102
RTVSPost2010PropOp35
 70
     1
102
RTVSPost2010Prop36
280
     0
102
RTVSPost2010PropOp36
 70
     1
102
RTVSPost2010Prop37
 90
       50
102
RTVSPost2010PropOp37
 70
     1
102
RTVSPost2010Prop38
140
0.0
102
RTVSPost2010PropOp38
 70
     1
102
RTVSPost2010Prop39
140
1.0
102
RTVSPost2010PropOp39
 70
     1
102
RTVSPost2010Prop40
 90
        0
102
RTVSPost2010PropOp40
 70
     1
102
RTVSPost2010Prop41ColorIndex
 90
       18
102
RTVSPost2010Prop41ColorRGB
 90
        0
102
RTVSPost2010PropOp41
 70
     1
102
RTVSPost2010Prop42
 90
       50
102
RTVSPost2010PropOp42
 70
     1
102
RTVSPost2010Prop43
 90
        3
102
RTVSPost2010PropOp43
 70
     1
102
RTVSPost2010Prop44ColorIndex
 90
        5
102
RTVSPost2010Prop44ColorRGB
 90
      255
102
RTVSPost2010PropOp44
 70
     1
102
RTVSPost2010Prop45
280
     0
102
RTVSPost2010PropOp45
 70
     1
102
RTVSPost2010Prop46
 90
       50
102
RTVSPost2010PropOp46
 70
     1
102
RTVSPost2010Prop47
 90
       50
102
RTVSPost2010PropOp47
 70
     1
102
RTVSPost2010Prop48
 90
       50
102
RTVSPost2010PropOp48
 70
     1
102
RTVSPost2010Prop49
280
     0
102
RTVSPost2010PropOp49
 70
     1
102
RTVSPost2010Prop50
 90
       50
102
RTVSPost2010PropOp50
 70
     1
102
RTVSPost2010Prop51ColorIndex
 90
      256
102
RTVSPost2010Prop51ColorRGB
 90
-16777216
102
RTVSPost2010PropOp51
 70
     0
102
RTVSPost2010Prop52
140
1.0
102
RTVSPost2010PropOp52
 70
     0
102
RTVSPost2010Prop53
 90
        2
102
RTVSPost2010PropOp53
 70
     1
102
RTVSPost2010Prop54
  1
strokes_ogs.tif
102
RTVSPost2010PropOp54
 70
     1
102
RTVSPost2010Prop55
280
     0
102
RTVSPost2010PropOp55
 70
     1
102
RTVSPost2010Prop56
140
1.0
102
RTVSPost2010PropOp56
 70
     1
102
RTVSPost2010Prop57
140
1.0
102
RTVSPost2010PropOp57
 70
     1
102
RTVSPropertyOp0
 70
     1
102
RTVSPropertyOp1
 70
     1
102
RTVSPropertyOp2
 70
     1
102
RTVSPropertyOp3
 70
     1
102
RTVSPropertyOp4
 70
     1
102
RTVSPropertyOp5
 70
     1
102
RTVSPropertyOp6
 70
     1
102
RTVSPropertyOp7
 70
     1
102
RTVSPropertyOp8
 70
     1
102
RTVSPropertyOp9
 70
     1
102
RTVSPropertyOp10
 70
     1
102
RTVSPropertyOp11
 70
     1
102
RTVSPropertyOp12
 70
     1
102
RTVSPropertyOp13
 70
     1
102
RTVSPropertyOp14
 70
     1
102
RTVSPropertyOp15
 70
     1
102
RTVSPropertyOp16
 70
     1
102
RTVSPropertyOp17
 70
     1
102
RTVSPropertyOp18
 70
     1
102
RTVSPropertyOp19
 70
     1
102
RTVSPropertyOp20
 70
     1
102
RTVSPropertyOp21
 70
     1
102
RTVSPropertyOp22
 70
     1
102
RTVSPropertyOp23
 70
     1
102
RTVSPropertyOp24
 70
     1
102
RTVSPropertyOp25
 70
     1
102
RTVSPropertyOp26
 70
     1
102
RTVSPropertyOp27
 70
     1
102
RTVSPropertyOp28
 70
     1
102
RTVSPropertyOp29
 70
     1
102
RTVSPropertyOp30
 70
     1
102
RTVSPropertyOp31
 70
     1
102
RTVSPropertyOp32
 70
     1
102
RTVSPropertyOp33
 70
     1
102
RTVSPropertyOp34
 70
     1
102
RTVSPropertyOp35
 70
     1
102
RTVSPropertyOp36
 70
     1
102
RTVSPropertyOp37
 70
     1
102
RTVSPropertyOp38
 70
     1
102
RTVSPropertyOp39
 70
     1
102
RTVSPropertyOp40
 70
     1
102
RTVSPropertyOp41
 70
     1
102
RTVSPropertyOp42
 70
     1
102
RTVSPropertyOp43
 70
     1
102
RTVSPropertyOp44
 70
     1
102
RTVSPropertyOp45
 70
     1
102
RTVSPropertyOp46
 70
     1
102
RTVSPropertyOp47
 70
     1
102
RTVSPropertyOp48
 70
     1
102
RTVSPropertyOp49
 70
     1
102
RTVSPropertyOp50
 70
     1
102
RTVSPropertyOp51
 70
     0
102
RTVSPropertyOp52
 70
     0
102
RTVSPropertyOp53
 70
     1
102
RTVSPropertyOp54
 70
     1
102
RTVSPropertyOp55
 70
     1
102
RTVSPropertyOp56
 70
     1
102
RTVSPropertyOp57
 70
     1
102
RTVSPropertyOp58
 70
     1
102
RTVSPropertyOp59
 70
     1
102
RTVSPropertyOp60
 70
     1
102
RTVSPropertyOp61
 70
     1
102
RTVSPropertyOp62
 70
     1
  0
XRECORD
  5
6E5
102
{ACAD_REACTORS
330
6E4
102
}
330
6E4
100
AcDbXrecord
280
     1
102
RTVSPost2010Prop28
280
     0
102
RTVSPost2010PropOp28
 70
     1
102
RTVSPost2010Prop29
280
     1
102
RTVSPost2010PropOp29
 70
     1
102
RTVSPost2010Prop30
280
     1
102
RTVSPost2010PropOp30
 70
     1
102
RTVSPost2010Prop31
280
     0
102
RTVSPost2010PropOp31
 70
     1
102
RTVSPost2010Prop32
280
     0
102
RTVSPost2010PropOp32
 70
     1
102
RTVSPost2010Prop33
280
     0
102
RTVSPost2010PropOp33
 70
     1
102
RTVSPost2010Prop34
280
     0
102
RTVSPost2010PropOp34
 70
     1
102
RTVSPost2010Prop35
280
     0
102
RTVSPost2010PropOp35
 70
     1
102
RTVSPost2010Prop36
280
     0
102
RTVSPost2010PropOp36
 70
     1
102
RTVSPost2010Prop37
 90
       50
102
RTVSPost2010PropOp37
 70
     1
102
RTVSPost2010Prop38
140
0.0
102
RTVSPost2010PropOp38
 70
     1
102
RTVSPost2010Prop39
140
1.0
102
RTVSPost2010PropOp39
 70
     1
102
RTVSPost2010Prop40
 90
        0
102
RTVSPost2010PropOp40
 70
     1
102
RTVSPost2010Prop41ColorIndex
 90
       18
102
RTVSPost2010Prop41ColorRGB
 90
        0
102
RTVSPost2010PropOp41
 70
     1
102
RTVSPost2010Prop42
 90
       50
102
RTVSPost2010PropOp42
 70
     1
102
RTVSPost2010Prop43
 90
        3
102
RTVSPost2010PropOp43
 70
     1
102
RTVSPost2010Prop44ColorIndex
 90
        5
102
RTVSPost2010Prop44ColorRGB
 90
      255
102
RTVSPost2010PropOp44
 70
     1
102
RTVSPost2010Prop45
280
     0
102
RTVSPost2010PropOp45
 70
     1
102
RTVSPost2010Prop46
 90
       50
102
RTVSPost2010PropOp46
 70
     1
102
RTVSPost2010Prop47
 90
       50
102
RTVSPost2010PropOp47
 70
     1
102
RTVSPost2010Prop48
 90
       50
102
RTVSPost2010PropOp48
 70
     1
102
RTVSPost2010Prop49
280
     0
102
RTVSPost2010PropOp49
 70
     1
102
RTVSPost2010Prop50
 90
       50
102
RTVSPost2010PropOp50
 70
     1
102
RTVSPost2010Prop51ColorIndex
 90
      256
102
RTVSPost2010Prop51ColorRGB
 90
-16777216
102
RTVSPost2010PropOp51
 70
     0
102
RTVSPost2010Prop52
140
1.0
102
RTVSPost2010PropOp52
 70
     0
102
RTVSPost2010Prop53
 90
        2
102
RTVSPost2010PropOp53
 70
     1
102
RTVSPost2010Prop54
  1
strokes_ogs.tif
102
RTVSPost2010PropOp54
 70
     1
102
RTVSPost2010Prop55
280
     0
102
RTVSPost2010PropOp55
 70
     1
102
RTVSPost2010Prop56
140
1.0
102
RTVSPost2010PropOp56
 70
     1
102
RTVSPost2010Prop57
140
1.0
102
RTVSPost2010PropOp57
 70
     1
102
RTVSPropertyOp0
 70
     1
102
RTVSPropertyOp1
 70
     1
102
RTVSPropertyOp2
 70
     1
102
RTVSPropertyOp3
 70
     1
102
RTVSPropertyOp4
 70
     1
102
RTVSPropertyOp5
 70
     1
102
RTVSPropertyOp6
 70
     1
102
RTVSPropertyOp7
 70
     1
102
RTVSPropertyOp8
 70
     1
102
RTVSPropertyOp9
 70
     1
102
RTVSPropertyOp10
 70
     1
102
RTVSPropertyOp11
 70
     1
102
RTVSPropertyOp12
 70
     1
102
RTVSPropertyOp13
 70
     1
102
RTVSPropertyOp14
 70
     1
102
RTVSPropertyOp15
 70
     1
102
RTVSPropertyOp16
 70
     1
102
RTVSPropertyOp17
 70
     1
102
RTVSPropertyOp18
 70
     1
102
RTVSPropertyOp19
 70
     1
102
RTVSPropertyOp20
 70
     1
102
RTVSPropertyOp21
 70
     1
102
RTVSPropertyOp22
 70
     1
102
RTVSPropertyOp23
 70
     1
102
RTVSPropertyOp24
 70
     1
102
RTVSPropertyOp25
 70
     1
102
RTVSPropertyOp26
 70
     1
102
RTVSPropertyOp27
 70
     1
102
RTVSPropertyOp28
 70
     1
102
RTVSPropertyOp29
 70
     1
102
RTVSPropertyOp30
 70
     1
102
RTVSPropertyOp31
 70
     1
102
RTVSPropertyOp32
 70
     1
102
RTVSPropertyOp33
 70
     1
102
RTVSPropertyOp34
 70
     1
102
RTVSPropertyOp35
 70
     1
102
RTVSPropertyOp36
 70
     1
102
RTVSPropertyOp37
 70
     1
102
RTVSPropertyOp38
 70
     1
102
RTVSPropertyOp39
 70
     1
102
RTVSPropertyOp40
 70
     1
102
RTVSPropertyOp41
 70
     1
102
RTVSPropertyOp42
 70
     1
102
RTVSPropertyOp43
 70
     1
102
RTVSPropertyOp44
 70
     1
102
RTVSPropertyOp45
 70
     1
102
RTVSPropertyOp46
 70
     1
102
RTVSPropertyOp47
 70
     1
102
RTVSPropertyOp48
 70
     1
102
RTVSPropertyOp49
 70
     1
102
RTVSPropertyOp50
 70
     1
102
RTVSPropertyOp51
 70
     0
102
RTVSPropertyOp52
 70
     0
102
RTVSPropertyOp53
 70
     1
102
RTVSPropertyOp54
 70
     1
102
RTVSPropertyOp55
 70
     1
102
RTVSPropertyOp56
 70
     1
102
RTVSPropertyOp57
 70
     1
102
RTVSPropertyOp58
 70
     1
102
RTVSPropertyOp59
 70
     1
102
RTVSPropertyOp60
 70
     1
102
RTVSPropertyOp61
 70
     1
102
RTVSPropertyOp62
 70
     1
  0
XRECORD
  5
6EB
102
{ACAD_REACTORS
330
6EA
102
}
330
6EA
100
AcDbXrecord
280
     1
102
RTVSPost2010Prop28
280
     0
102
RTVSPost2010PropOp28
 70
     1
102
RTVSPost2010Prop29
280
     1
102
RTVSPost2010PropOp29
 70
     1
102
RTVSPost2010Prop30
280
     1
102
RTVSPost2010PropOp30
 70
     1
102
RTVSPost2010Prop31
280
     0
102
RTVSPost2010PropOp31
 70
     1
102
RTVSPost2010Prop32
280
     0
102
RTVSPost2010PropOp32
 70
     1
102
RTVSPost2010Prop33
280
     0
102
RTVSPost2010PropOp33
 70
     1
102
RTVSPost2010Prop34
280
     0
102
RTVSPost2010PropOp34
 70
     1
102
RTVSPost2010Prop35
280
     0
102
RTVSPost2010PropOp35
 70
     1
102
RTVSPost2010Prop36
280
     0
102
RTVSPost2010PropOp36
 70
     1
102
RTVSPost2010Prop37
 90
       50
102
RTVSPost2010PropOp37
 70
     1
102
RTVSPost2010Prop38
140
0.0
102
RTVSPost2010PropOp38
 70
     1
102
RTVSPost2010Prop39
140
1.0
102
RTVSPost2010PropOp39
 70
     1
102
RTVSPost2010Prop40
 90
        0
102
RTVSPost2010PropOp40
 70
     1
102
RTVSPost2010Prop41ColorIndex
 90
       18
102
RTVSPost2010Prop41ColorRGB
 90
        0
102
RTVSPost2010PropOp41
 70
     1
102
RTVSPost2010Prop42
 90
       50
102
RTVSPost2010PropOp42
 70
     1
102
RTVSPost2010Prop43
 90
        3
102
RTVSPost2010PropOp43
 70
     1
102
RTVSPost2010Prop44ColorIndex
 90
        5
102
RTVSPost2010Prop44ColorRGB
 90
      255
102
RTVSPost2010PropOp44
 70
     1
102
RTVSPost2010Prop45
280
     0
102
RTVSPost2010PropOp45
 70
     1
102
RTVSPost2010Prop46
 90
       50
102
RTVSPost2010PropOp46
 70
     1
102
RTVSPost2010Prop47
 90
       50
102
RTVSPost2010PropOp47
 70
     1
102
RTVSPost2010Prop48
 90
       50
102
RTVSPost2010PropOp48
 70
     1
102
RTVSPost2010Prop49
280
     0
102
RTVSPost2010PropOp49
 70
     1
102
RTVSPost2010Prop50
 90
       50
102
RTVSPost2010PropOp50
 70
     1
102
RTVSPost2010Prop51ColorIndex
 90
      256
102
RTVSPost2010Prop51ColorRGB
 90
-16777216
102
RTVSPost2010PropOp51
 70
     0
102
RTVSPost2010Prop52
140
1.0
102
RTVSPost2010PropOp52
 70
     0
102
RTVSPost2010Prop53
 90
        2
102
RTVSPost2010PropOp53
 70
     1
102
RTVSPost2010Prop54
  1
strokes_ogs.tif
102
RTVSPost2010PropOp54
 70
     1
102
RTVSPost2010Prop55
280
     0
102
RTVSPost2010PropOp55
 70
     1
102
RTVSPost2010Prop56
140
1.0
102
RTVSPost2010PropOp56
 70
     1
102
RTVSPost2010Prop57
140
1.0
102
RTVSPost2010PropOp57
 70
     1
102
RTVSPropertyOp0
 70
     1
102
RTVSPropertyOp1
 70
     1
102
RTVSPropertyOp2
 70
     1
102
RTVSPropertyOp3
 70
     1
102
RTVSPropertyOp4
 70
     1
102
RTVSPropertyOp5
 70
     1
102
RTVSPropertyOp6
 70
     1
102
RTVSPropertyOp7
 70
     1
102
RTVSPropertyOp8
 70
     1
102
RTVSPropertyOp9
 70
     1
102
RTVSPropertyOp10
 70
     1
102
RTVSPropertyOp11
 70
     1
102
RTVSPropertyOp12
 70
     1
102
RTVSPropertyOp13
 70
     1
102
RTVSPropertyOp14
 70
     1
102
RTVSPropertyOp15
 70
     1
102
RTVSPropertyOp16
 70
     1
102
RTVSPropertyOp17
 70
     1
102
RTVSPropertyOp18
 70
     1
102
RTVSPropertyOp19
 70
     1
102
RTVSPropertyOp20
 70
     1
102
RTVSPropertyOp21
 70
     1
102
RTVSPropertyOp22
 70
     1
102
RTVSPropertyOp23
 70
     1
102
RTVSPropertyOp24
 70
     1
102
RTVSPropertyOp25
 70
     1
102
RTVSPropertyOp26
 70
     1
102
RTVSPropertyOp27
 70
     1
102
RTVSPropertyOp28
 70
     1
102
RTVSPropertyOp29
 70
     1
102
RTVSPropertyOp30
 70
     1
102
RTVSPropertyOp31
 70
     1
102
RTVSPropertyOp32
 70
     1
102
RTVSPropertyOp33
 70
     1
102
RTVSPropertyOp34
 70
     1
102
RTVSPropertyOp35
 70
     1
102
RTVSPropertyOp36
 70
     1
102
RTVSPropertyOp37
 70
     1
102
RTVSPropertyOp38
 70
     1
102
RTVSPropertyOp39
 70
     1
102
RTVSPropertyOp40
 70
     1
102
RTVSPropertyOp41
 70
     1
102
RTVSPropertyOp42
 70
     1
102
RTVSPropertyOp43
 70
     1
102
RTVSPropertyOp44
 70
     1
102
RTVSPropertyOp45
 70
     1
102
RTVSPropertyOp46
 70
     1
102
RTVSPropertyOp47
 70
     1
102
RTVSPropertyOp48
 70
     1
102
RTVSPropertyOp49
 70
     1
102
RTVSPropertyOp50
 70
     1
102
RTVSPropertyOp51
 70
     0
102
RTVSPropertyOp52
 70
     0
102
RTVSPropertyOp53
 70
     1
102
RTVSPropertyOp54
 70
     1
102
RTVSPropertyOp55
 70
     1
102
RTVSPropertyOp56
 70
     1
102
RTVSPropertyOp57
 70
     1
102
RTVSPropertyOp58
 70
     1
102
RTVSPropertyOp59
 70
     1
102
RTVSPropertyOp60
 70
     1
102
RTVSPropertyOp61
 70
     1
102
RTVSPropertyOp62
 70
     1
  0
XRECORD
  5
6FF
102
{ACAD_REACTORS
330
6FE
102
}
330
6FE
100
AcDbXrecord
280
     1
102
RTVSPost2010Prop28
280
     0
102
RTVSPost2010PropOp28
 70
     0
102
RTVSPost2010Prop29
280
     1
102
RTVSPost2010PropOp29
 70
     0
102
RTVSPost2010Prop30
280
     1
102
RTVSPost2010PropOp30
 70
     0
102
RTVSPost2010Prop31
280
     0
102
RTVSPost2010PropOp31
 70
     0
102
RTVSPost2010Prop32
280
     0
102
RTVSPost2010PropOp32
 70
     0
102
RTVSPost2010Prop33
280
     0
102
RTVSPost2010PropOp33
 70
     0
102
RTVSPost2010Prop34
280
     0
102
RTVSPost2010PropOp34
 70
     0
102
RTVSPost2010Prop35
280
     0
102
RTVSPost2010PropOp35
 70
     0
102
RTVSPost2010Prop36
280
     0
102
RTVSPost2010PropOp36
 70
     0
102
RTVSPost2010Prop37
 90
       50
102
RTVSPost2010PropOp37
 70
     0
102
RTVSPost2010Prop38
140
0.0
102
RTVSPost2010PropOp38
 70
     0
102
RTVSPost2010Prop39
140
1.0
102
RTVSPost2010PropOp39
 70
     0
102
RTVSPost2010Prop40
 90
        0
102
RTVSPost2010PropOp40
 70
     0
102
RTVSPost2010Prop41ColorIndex
 90
       18
102
RTVSPost2010Prop41ColorRGB
 90
        0
102
RTVSPost2010PropOp41
 70
     0
102
RTVSPost2010Prop42
 90
       50
102
RTVSPost2010PropOp42
 70
     0
102
RTVSPost2010Prop43
 90
        3
102
RTVSPost2010PropOp43
 70
     0
102
RTVSPost2010Prop44ColorIndex
 90
        5
102
RTVSPost2010Prop44ColorRGB
 90
      255
102
RTVSPost2010PropOp44
 70
     0
102
RTVSPost2010Prop45
280
     0
102
RTVSPost2010PropOp45
 70
     0
102
RTVSPost2010Prop46
 90
       50
102
RTVSPost2010PropOp46
 70
     0
102
RTVSPost2010Prop47
 90
       50
102
RTVSPost2010PropOp47
 70
     0
102
RTVSPost2010Prop48
 90
       50
102
RTVSPost2010PropOp48
 70
     0
102
RTVSPost2010Prop49
280
     0
102
RTVSPost2010PropOp49
 70
     0
102
RTVSPost2010Prop50
 90
       50
102
RTVSPost2010PropOp50
 70
     0
102
RTVSPost2010Prop51ColorIndex
 90
      256
102
RTVSPost2010Prop51ColorRGB
 90
-16777216
102
RTVSPost2010PropOp51
 70
     0
102
RTVSPost2010Prop52
140
1.0
102
RTVSPost2010PropOp52
 70
     0
102
RTVSPost2010Prop53
 90
        2
102
RTVSPost2010PropOp53
 70
     0
102
RTVSPost2010Prop54
  1
strokes_ogs.tif
102
RTVSPost2010PropOp54
 70
     0
102
RTVSPost2010Prop55
280
     0
102
RTVSPost2010PropOp55
 70
     0
102
RTVSPost2010Prop56
140
1.0
102
RTVSPost2010PropOp56
 70
     0
102
RTVSPost2010Prop57
140
1.0
102
RTVSPost2010PropOp57
 70
     0
102
RTVSPropertyOp0
 70
     0
102
RTVSPropertyOp1
 70
     0
102
RTVSPropertyOp2
 70
     0
102
RTVSPropertyOp3
 70
     0
102
RTVSPropertyOp4
 70
     0
102
RTVSPropertyOp5
 70
     0
102
RTVSPropertyOp6
 70
     0
102
RTVSPropertyOp7
 70
     0
102
RTVSPropertyOp8
 70
     0
102
RTVSPropertyOp9
 70
     0
102
RTVSPropertyOp10
 70
     0
102
RTVSPropertyOp11
 70
     0
102
RTVSPropertyOp12
 70
     0
102
RTVSPropertyOp13
 70
     0
102
RTVSPropertyOp14
 70
     2
102
RTVSPropertyOp15
 70
     0
102
RTVSPropertyOp16
 70
     0
102
RTVSPropertyOp17
 70
     0
102
RTVSPropertyOp18
 70
     0
102
RTVSPropertyOp19
 70
     0
102
RTVSPropertyOp20
 70
     0
102
RTVSPropertyOp21
 70
     0
102
RTVSPropertyOp22
 70
     0
102
RTVSPropertyOp23
 70
     0
102
RTVSPropertyOp24
 70
     0
102
RTVSPropertyOp25
 70
     0
102
RTVSPropertyOp26
 70
     0
102
RTVSPropertyOp27
 70
     0
102
RTVSPropertyOp28
 70
     0
102
RTVSPropertyOp29
 70
     0
102
RTVSPropertyOp30
 70
     0
102
RTVSPropertyOp31
 70
     0
102
RTVSPropertyOp32
 70
     0
102
RTVSPropertyOp33
 70
     0
102
RTVSPropertyOp34
 70
     0
102
RTVSPropertyOp35
 70
     0
102
RTVSPropertyOp36
 70
     0
102
RTVSPropertyOp37
 70
     0
102
RTVSPropertyOp38
 70
     0
102
RTVSPropertyOp39
 70
     0
102
RTVSPropertyOp40
 70
     0
102
RTVSPropertyOp41
 70
     0
102
RTVSPropertyOp42
 70
     0
102
RTVSPropertyOp43
 70
     0
102
RTVSPropertyOp44
 70
     0
102
RTVSPropertyOp45
 70
     0
102
RTVSPropertyOp46
 70
     0
102
RTVSPropertyOp47
 70
     0
102
RTVSPropertyOp48
 70
     0
102
RTVSPropertyOp49
 70
     0
102
RTVSPropertyOp50
 70
     0
102
RTVSPropertyOp51
 70
     0
102
RTVSPropertyOp52
 70
     0
102
RTVSPropertyOp53
 70
     0
102
RTVSPropertyOp54
 70
     0
102
RTVSPropertyOp55
 70
     0
102
RTVSPropertyOp56
 70
     0
102
RTVSPropertyOp57
 70
     0
102
RTVSPropertyOp58
 70
     1
102
RTVSPropertyOp59
 70
     1
102
RTVSPropertyOp60
 70
     1
102
RTVSPropertyOp61
 70
     1
102
RTVSPropertyOp62
 70
     1
  0
XRECORD
  5
6F9
102
{ACAD_REACTORS
330
6F8
102
}
330
6F8
100
AcDbXrecord
280
     1
102
RTVSPost2010Prop28
280
     0
102
RTVSPost2010PropOp28
 70
     1
102
RTVSPost2010Prop29
280
     1
102
RTVSPost2010PropOp29
 70
     1
102
RTVSPost2010Prop30
280
     1
102
RTVSPost2010PropOp30
 70
     1
102
RTVSPost2010Prop31
280
     0
102
RTVSPost2010PropOp31
 70
     1
102
RTVSPost2010Prop32
280
     0
102
RTVSPost2010PropOp32
 70
     1
102
RTVSPost2010Prop33
280
     0
102
RTVSPost2010PropOp33
 70
     1
102
RTVSPost2010Prop34
280
     0
102
RTVSPost2010PropOp34
 70
     1
102
RTVSPost2010Prop35
280
     0
102
RTVSPost2010PropOp35
 70
     1
102
RTVSPost2010Prop36
280
     0
102
RTVSPost2010PropOp36
 70
     1
102
RTVSPost2010Prop37
 90
       50
102
RTVSPost2010PropOp37
 70
     1
102
RTVSPost2010Prop38
140
0.0
102
RTVSPost2010PropOp38
 70
     1
102
RTVSPost2010Prop39
140
1.0
102
RTVSPost2010PropOp39
 70
     1
102
RTVSPost2010Prop40
 90
        0
102
RTVSPost2010PropOp40
 70
     1
102
RTVSPost2010Prop41ColorIndex
 90
       18
102
RTVSPost2010Prop41ColorRGB
 90
        0
102
RTVSPost2010PropOp41
 70
     1
102
RTVSPost2010Prop42
 90
       50
102
RTVSPost2010PropOp42
 70
     1
102
RTVSPost2010Prop43
 90
        3
102
RTVSPost2010PropOp43
 70
     1
102
RTVSPost2010Prop44ColorIndex
 90
        5
102
RTVSPost2010Prop44ColorRGB
 90
      255
102
RTVSPost2010PropOp44
 70
     1
102
RTVSPost2010Prop45
280
     0
102
RTVSPost2010PropOp45
 70
     1
102
RTVSPost2010Prop46
 90
       50
102
RTVSPost2010PropOp46
 70
     1
102
RTVSPost2010Prop47
 90
       50
102
RTVSPost2010PropOp47
 70
     1
102
RTVSPost2010Prop48
 90
       50
102
RTVSPost2010PropOp48
 70
     1
102
RTVSPost2010Prop49
280
     0
102
RTVSPost2010PropOp49
 70
     1
102
RTVSPost2010Prop50
 90
       50
102
RTVSPost2010PropOp50
 70
     1
102
RTVSPost2010Prop51ColorIndex
 90
      256
102
RTVSPost2010Prop51ColorRGB
 90
-16777216
102
RTVSPost2010PropOp51
 70
     0
102
RTVSPost2010Prop52
140
1.0
102
RTVSPost2010PropOp52
 70
     0
102
RTVSPost2010Prop53
 90
        2
102
RTVSPost2010PropOp53
 70
     1
102
RTVSPost2010Prop54
  1
strokes_ogs.tif
102
RTVSPost2010PropOp54
 70
     1
102
RTVSPost2010Prop55
280
     0
102
RTVSPost2010PropOp55
 70
     1
102
RTVSPost2010Prop56
140
1.0
102
RTVSPost2010PropOp56
 70
     1
102
RTVSPost2010Prop57
140
1.0
102
RTVSPost2010PropOp57
 70
     1
102
RTVSPropertyOp0
 70
     1
102
RTVSPropertyOp1
 70
     1
102
RTVSPropertyOp2
 70
     1
102
RTVSPropertyOp3
 70
     1
102
RTVSPropertyOp4
 70
     1
102
RTVSPropertyOp5
 70
     1
102
RTVSPropertyOp6
 70
     1
102
RTVSPropertyOp7
 70
     1
102
RTVSPropertyOp8
 70
     1
102
RTVSPropertyOp9
 70
     1
102
RTVSPropertyOp10
 70
     1
102
RTVSPropertyOp11
 70
     1
102
RTVSPropertyOp12
 70
     1
102
RTVSPropertyOp13
 70
     1
102
RTVSPropertyOp14
 70
     1
102
RTVSPropertyOp15
 70
     1
102
RTVSPropertyOp16
 70
     1
102
RTVSPropertyOp17
 70
     1
102
RTVSPropertyOp18
 70
     1
102
RTVSPropertyOp19
 70
     1
102
RTVSPropertyOp20
 70
     1
102
RTVSPropertyOp21
 70
     1
102
RTVSPropertyOp22
 70
     1
102
RTVSPropertyOp23
 70
     1
102
RTVSPropertyOp24
 70
     1
102
RTVSPropertyOp25
 70
     1
102
RTVSPropertyOp26
 70
     1
102
RTVSPropertyOp27
 70
     1
102
RTVSPropertyOp28
 70
     1
102
RTVSPropertyOp29
 70
     1
102
RTVSPropertyOp30
 70
     1
102
RTVSPropertyOp31
 70
     1
102
RTVSPropertyOp32
 70
     1
102
RTVSPropertyOp33
 70
     1
102
RTVSPropertyOp34
 70
     1
102
RTVSPropertyOp35
 70
     1
102
RTVSPropertyOp36
 70
     1
102
RTVSPropertyOp37
 70
     1
102
RTVSPropertyOp38
 70
     1
102
RTVSPropertyOp39
 70
     1
102
RTVSPropertyOp40
 70
     1
102
RTVSPropertyOp41
 70
     1
102
RTVSPropertyOp42
 70
     1
102
RTVSPropertyOp43
 70
     1
102
RTVSPropertyOp44
 70
     1
102
RTVSPropertyOp45
 70
     1
102
RTVSPropertyOp46
 70
     1
102
RTVSPropertyOp47
 70
     1
102
RTVSPropertyOp48
 70
     1
102
RTVSPropertyOp49
 70
     1
102
RTVSPropertyOp50
 70
     1
102
RTVSPropertyOp51
 70
     0
102
RTVSPropertyOp52
 70
     0
102
RTVSPropertyOp53
 70
     1
102
RTVSPropertyOp54
 70
     1
102
RTVSPropertyOp55
 70
     1
102
RTVSPropertyOp56
 70
     1
102
RTVSPropertyOp57
 70
     1
102
RTVSPropertyOp58
 70
     1
102
RTVSPropertyOp59
 70
     1
102
RTVSPropertyOp60
 70
     1
102
RTVSPropertyOp61
 70
     1
102
RTVSPropertyOp62
 70
     1
  0
XRECORD
  5
701
102
{ACAD_REACTORS
330
700
102
}
330
700
100
AcDbXrecord
280
     1
102
RTVSPost2010Prop28
280
     0
102
RTVSPost2010PropOp28
 70
     0
102
RTVSPost2010Prop29
280
     1
102
RTVSPost2010PropOp29
 70
     0
102
RTVSPost2010Prop30
280
     1
102
RTVSPost2010PropOp30
 70
     0
102
RTVSPost2010Prop31
280
     0
102
RTVSPost2010PropOp31
 70
     0
102
RTVSPost2010Prop32
280
     0
102
RTVSPost2010PropOp32
 70
     0
102
RTVSPost2010Prop33
280
     0
102
RTVSPost2010PropOp33
 70
     0
102
RTVSPost2010Prop34
280
     0
102
RTVSPost2010PropOp34
 70
     0
102
RTVSPost2010Prop35
280
     0
102
RTVSPost2010PropOp35
 70
     0
102
RTVSPost2010Prop36
280
     0
102
RTVSPost2010PropOp36
 70
     0
102
RTVSPost2010Prop37
 90
       50
102
RTVSPost2010PropOp37
 70
     0
102
RTVSPost2010Prop38
140
0.0
102
RTVSPost2010PropOp38
 70
     0
102
RTVSPost2010Prop39
140
1.0
102
RTVSPost2010PropOp39
 70
     0
102
RTVSPost2010Prop40
 90
        0
102
RTVSPost2010PropOp40
 70
     0
102
RTVSPost2010Prop41ColorIndex
 90
       18
102
RTVSPost2010Prop41ColorRGB
 90
        0
102
RTVSPost2010PropOp41
 70
     0
102
RTVSPost2010Prop42
 90
       50
102
RTVSPost2010PropOp42
 70
     0
102
RTVSPost2010Prop43
 90
        3
102
RTVSPost2010PropOp43
 70
     0
102
RTVSPost2010Prop44ColorIndex
 90
        5
102
RTVSPost2010Prop44ColorRGB
 90
      255
102
RTVSPost2010PropOp44
 70
     0
102
RTVSPost2010Prop45
280
     0
102
RTVSPost2010PropOp45
 70
     0
102
RTVSPost2010Prop46
 90
       50
102
RTVSPost2010PropOp46
 70
     0
102
RTVSPost2010Prop47
 90
       50
102
RTVSPost2010PropOp47
 70
     0
102
RTVSPost2010Prop48
 90
       50
102
RTVSPost2010PropOp48
 70
     0
102
RTVSPost2010Prop49
280
     0
102
RTVSPost2010PropOp49
 70
     0
102
RTVSPost2010Prop50
 90
       50
102
RTVSPost2010PropOp50
 70
     0
102
RTVSPost2010Prop51ColorIndex
 90
      256
102
RTVSPost2010Prop51ColorRGB
 90
-16777216
102
RTVSPost2010PropOp51
 70
     0
102
RTVSPost2010Prop52
140
1.0
102
RTVSPost2010PropOp52
 70
     0
102
RTVSPost2010Prop53
 90
        2
102
RTVSPost2010PropOp53
 70
     0
102
RTVSPost2010Prop54
  1
strokes_ogs.tif
102
RTVSPost2010PropOp54
 70
     0
102
RTVSPost2010Prop55
280
     0
102
RTVSPost2010PropOp55
 70
     0
102
RTVSPost2010Prop56
140
1.0
102
RTVSPost2010PropOp56
 70
     0
102
RTVSPost2010Prop57
140
1.0
102
RTVSPost2010PropOp57
 70
     0
102
RTVSPropertyOp0
 70
     0
102
RTVSPropertyOp1
 70
     0
102
RTVSPropertyOp2
 70
     0
102
RTVSPropertyOp3
 70
     0
102
RTVSPropertyOp4
 70
     0
102
RTVSPropertyOp5
 70
     0
102
RTVSPropertyOp6
 70
     0
102
RTVSPropertyOp7
 70
     0
102
RTVSPropertyOp8
 70
     0
102
RTVSPropertyOp9
 70
     0
102
RTVSPropertyOp10
 70
     0
102
RTVSPropertyOp11
 70
     0
102
RTVSPropertyOp12
 70
     0
102
RTVSPropertyOp13
 70
     0
102
RTVSPropertyOp14
 70
     2
102
RTVSPropertyOp15
 70
     0
102
RTVSPropertyOp16
 70
     0
102
RTVSPropertyOp17
 70
     0
102
RTVSPropertyOp18
 70
     0
102
RTVSPropertyOp19
 70
     0
102
RTVSPropertyOp20
 70
     0
102
RTVSPropertyOp21
 70
     0
102
RTVSPropertyOp22
 70
     0
102
RTVSPropertyOp23
 70
     0
102
RTVSPropertyOp24
 70
     0
102
RTVSPropertyOp25
 70
     0
102
RTVSPropertyOp26
 70
     0
102
RTVSPropertyOp27
 70
     0
102
RTVSPropertyOp28
 70
     0
102
RTVSPropertyOp29
 70
     0
102
RTVSPropertyOp30
 70
     0
102
RTVSPropertyOp31
 70
     0
102
RTVSPropertyOp32
 70
     0
102
RTVSPropertyOp33
 70
     0
102
RTVSPropertyOp34
 70
     0
102
RTVSPropertyOp35
 70
     0
102
RTVSPropertyOp36
 70
     0
102
RTVSPropertyOp37
 70
     0
102
RTVSPropertyOp38
 70
     0
102
RTVSPropertyOp39
 70
     0
102
RTVSPropertyOp40
 70
     0
102
RTVSPropertyOp41
 70
     0
102
RTVSPropertyOp42
 70
     0
102
RTVSPropertyOp43
 70
     0
102
RTVSPropertyOp44
 70
     0
102
RTVSPropertyOp45
 70
     0
102
RTVSPropertyOp46
 70
     0
102
RTVSPropertyOp47
 70
     0
102
RTVSPropertyOp48
 70
     0
102
RTVSPropertyOp49
 70
     0
102
RTVSPropertyOp50
 70
     0
102
RTVSPropertyOp51
 70
     0
102
RTVSPropertyOp52
 70
     0
102
RTVSPropertyOp53
 70
     0
102
RTVSPropertyOp54
 70
     0
102
RTVSPropertyOp55
 70
     0
102
RTVSPropertyOp56
 70
     0
102
RTVSPropertyOp57
 70
     0
102
RTVSPropertyOp58
 70
     1
102
RTVSPropertyOp59
 70
     1
102
RTVSPropertyOp60
 70
     1
102
RTVSPropertyOp61
 70
     1
102
RTVSPropertyOp62
 70
     1
  0
XRECORD
  5
6EF
102
{ACAD_REACTORS
330
6EE
102
}
330
6EE
100
AcDbXrecord
280
     1
102
RTVSPost2010Prop28
280
     0
102
RTVSPost2010PropOp28
 70
     1
102
RTVSPost2010Prop29
280
     1
102
RTVSPost2010PropOp29
 70
     1
102
RTVSPost2010Prop30
280
     1
102
RTVSPost2010PropOp30
 70
     1
102
RTVSPost2010Prop31
280
     0
102
RTVSPost2010PropOp31
 70
     1
102
RTVSPost2010Prop32
280
     0
102
RTVSPost2010PropOp32
 70
     1
102
RTVSPost2010Prop33
280
     0
102
RTVSPost2010PropOp33
 70
     1
102
RTVSPost2010Prop34
280
     0
102
RTVSPost2010PropOp34
 70
     1
102
RTVSPost2010Prop35
280
     0
102
RTVSPost2010PropOp35
 70
     1
102
RTVSPost2010Prop36
280
     0
102
RTVSPost2010PropOp36
 70
     1
102
RTVSPost2010Prop37
 90
       50
102
RTVSPost2010PropOp37
 70
     1
102
RTVSPost2010Prop38
140
0.0
102
RTVSPost2010PropOp38
 70
     1
102
RTVSPost2010Prop39
140
1.0
102
RTVSPost2010PropOp39
 70
     1
102
RTVSPost2010Prop40
 90
        0
102
RTVSPost2010PropOp40
 70
     1
102
RTVSPost2010Prop41ColorIndex
 90
       18
102
RTVSPost2010Prop41ColorRGB
 90
        0
102
RTVSPost2010PropOp41
 70
     1
102
RTVSPost2010Prop42
 90
       50
102
RTVSPost2010PropOp42
 70
     1
102
RTVSPost2010Prop43
 90
        3
102
RTVSPost2010PropOp43
 70
     1
102
RTVSPost2010Prop44ColorIndex
 90
        5
102
RTVSPost2010Prop44ColorRGB
 90
      255
102
RTVSPost2010PropOp44
 70
     1
102
RTVSPost2010Prop45
280
     0
102
RTVSPost2010PropOp45
 70
     1
102
RTVSPost2010Prop46
 90
       50
102
RTVSPost2010PropOp46
 70
     1
102
RTVSPost2010Prop47
 90
       50
102
RTVSPost2010PropOp47
 70
     1
102
RTVSPost2010Prop48
 90
       50
102
RTVSPost2010PropOp48
 70
     1
102
RTVSPost2010Prop49
280
     0
102
RTVSPost2010PropOp49
 70
     1
102
RTVSPost2010Prop50
 90
       50
102
RTVSPost2010PropOp50
 70
     1
102
RTVSPost2010Prop51ColorIndex
 90
      256
102
RTVSPost2010Prop51ColorRGB
 90
-16777216
102
RTVSPost2010PropOp51
 70
     0
102
RTVSPost2010Prop52
140
1.0
102
RTVSPost2010PropOp52
 70
     0
102
RTVSPost2010Prop53
 90
        2
102
RTVSPost2010PropOp53
 70
     1
102
RTVSPost2010Prop54
  1
strokes_ogs.tif
102
RTVSPost2010PropOp54
 70
     1
102
RTVSPost2010Prop55
280
     0
102
RTVSPost2010PropOp55
 70
     1
102
RTVSPost2010Prop56
140
1.0
102
RTVSPost2010PropOp56
 70
     1
102
RTVSPost2010Prop57
140
1.0
102
RTVSPost2010PropOp57
 70
     1
102
RTVSPropertyOp0
 70
     1
102
RTVSPropertyOp1
 70
     1
102
RTVSPropertyOp2
 70
     1
102
RTVSPropertyOp3
 70
     1
102
RTVSPropertyOp4
 70
     1
102
RTVSPropertyOp5
 70
     1
102
RTVSPropertyOp6
 70
     1
102
RTVSPropertyOp7
 70
     1
102
RTVSPropertyOp8
 70
     1
102
RTVSPropertyOp9
 70
     1
102
RTVSPropertyOp10
 70
     1
102
RTVSPropertyOp11
 70
     1
102
RTVSPropertyOp12
 70
     1
102
RTVSPropertyOp13
 70
     1
102
RTVSPropertyOp14
 70
     1
102
RTVSPropertyOp15
 70
     1
102
RTVSPropertyOp16
 70
     1
102
RTVSPropertyOp17
 70
     1
102
RTVSPropertyOp18
 70
     1
102
RTVSPropertyOp19
 70
     1
102
RTVSPropertyOp20
 70
     1
102
RTVSPropertyOp21
 70
     1
102
RTVSPropertyOp22
 70
     1
102
RTVSPropertyOp23
 70
     1
102
RTVSPropertyOp24
 70
     1
102
RTVSPropertyOp25
 70
     1
102
RTVSPropertyOp26
 70
     1
102
RTVSPropertyOp27
 70
     1
102
RTVSPropertyOp28
 70
     1
102
RTVSPropertyOp29
 70
     1
102
RTVSPropertyOp30
 70
     1
102
RTVSPropertyOp31
 70
     1
102
RTVSPropertyOp32
 70
     1
102
RTVSPropertyOp33
 70
     1
102
RTVSPropertyOp34
 70
     1
102
RTVSPropertyOp35
 70
     1
102
RTVSPropertyOp36
 70
     1
102
RTVSPropertyOp37
 70
     1
102
RTVSPropertyOp38
 70
     1
102
RTVSPropertyOp39
 70
     1
102
RTVSPropertyOp40
 70
     1
102
RTVSPropertyOp41
 70
     1
102
RTVSPropertyOp42
 70
     1
102
RTVSPropertyOp43
 70
     1
102
RTVSPropertyOp44
 70
     1
102
RTVSPropertyOp45
 70
     1
102
RTVSPropertyOp46
 70
     1
102
RTVSPropertyOp47
 70
     1
102
RTVSPropertyOp48
 70
     1
102
RTVSPropertyOp49
 70
     1
102
RTVSPropertyOp50
 70
     1
102
RTVSPropertyOp51
 70
     0
102
RTVSPropertyOp52
 70
     0
102
RTVSPropertyOp53
 70
     1
102
RTVSPropertyOp54
 70
     1
102
RTVSPropertyOp55
 70
     1
102
RTVSPropertyOp56
 70
     1
102
RTVSPropertyOp57
 70
     1
102
RTVSPropertyOp58
 70
     1
102
RTVSPropertyOp59
 70
     1
102
RTVSPropertyOp60
 70
     1
102
RTVSPropertyOp61
 70
     1
102
RTVSPropertyOp62
 70
     1
  0
XRECORD
  5
70D
102
{ACAD_REACTORS
330
70C
102
}
330
70C
100
AcDbXrecord
280
     1
102
RTVSPost2010Prop28
280
     0
102
RTVSPost2010PropOp28
 70
     1
102
RTVSPost2010Prop29
280
     1
102
RTVSPost2010PropOp29
 70
     1
102
RTVSPost2010Prop30
280
     1
102
RTVSPost2010PropOp30
 70
     1
102
RTVSPost2010Prop31
280
     0
102
RTVSPost2010PropOp31
 70
     1
102
RTVSPost2010Prop32
280
     0
102
RTVSPost2010PropOp32
 70
     1
102
RTVSPost2010Prop33
280
     0
102
RTVSPost2010PropOp33
 70
     1
102
RTVSPost2010Prop34
280
     0
102
RTVSPost2010PropOp34
 70
     1
102
RTVSPost2010Prop35
280
     0
102
RTVSPost2010PropOp35
 70
     1
102
RTVSPost2010Prop36
280
     0
102
RTVSPost2010PropOp36
 70
     1
102
RTVSPost2010Prop37
 90
       50
102
RTVSPost2010PropOp37
 70
     1
102
RTVSPost2010Prop38
140
0.0
102
RTVSPost2010PropOp38
 70
     1
102
RTVSPost2010Prop39
140
1.0
102
RTVSPost2010PropOp39
 70
     1
102
RTVSPost2010Prop40
 90
        0
102
RTVSPost2010PropOp40
 70
     1
102
RTVSPost2010Prop41ColorIndex
 90
       18
102
RTVSPost2010Prop41ColorRGB
 90
        0
102
RTVSPost2010PropOp41
 70
     1
102
RTVSPost2010Prop42
 90
       50
102
RTVSPost2010PropOp42
 70
     1
102
RTVSPost2010Prop43
 90
        3
102
RTVSPost2010PropOp43
 70
     1
102
RTVSPost2010Prop44ColorIndex
 90
        5
102
RTVSPost2010Prop44ColorRGB
 90
      255
102
RTVSPost2010PropOp44
 70
     1
102
RTVSPost2010Prop45
280
     0
102
RTVSPost2010PropOp45
 70
     1
102
RTVSPost2010Prop46
 90
       50
102
RTVSPost2010PropOp46
 70
     1
102
RTVSPost2010Prop47
 90
       50
102
RTVSPost2010PropOp47
 70
     1
102
RTVSPost2010Prop48
 90
       50
102
RTVSPost2010PropOp48
 70
     1
102
RTVSPost2010Prop49
280
     0
102
RTVSPost2010PropOp49
 70
     1
102
RTVSPost2010Prop50
 90
       50
102
RTVSPost2010PropOp50
 70
     1
102
RTVSPost2010Prop51ColorIndex
 90
      256
102
RTVSPost2010Prop51ColorRGB
 90
-16777216
102
RTVSPost2010PropOp51
 70
     0
102
RTVSPost2010Prop52
140
1.0
102
RTVSPost2010PropOp52
 70
     0
102
RTVSPost2010Prop53
 90
        2
102
RTVSPost2010PropOp53
 70
     1
102
RTVSPost2010Prop54
  1
strokes_ogs.tif
102
RTVSPost2010PropOp54
 70
     1
102
RTVSPost2010Prop55
280
     0
102
RTVSPost2010PropOp55
 70
     1
102
RTVSPost2010Prop56
140
1.0
102
RTVSPost2010PropOp56
 70
     1
102
RTVSPost2010Prop57
140
1.0
102
RTVSPost2010PropOp57
 70
     1
102
RTVSPropertyOp0
 70
     1
102
RTVSPropertyOp1
 70
     1
102
RTVSPropertyOp2
 70
     1
102
RTVSPropertyOp3
 70
     1
102
RTVSPropertyOp4
 70
     1
102
RTVSPropertyOp5
 70
     1
102
RTVSPropertyOp6
 70
     1
102
RTVSPropertyOp7
 70
     1
102
RTVSPropertyOp8
 70
     1
102
RTVSPropertyOp9
 70
     1
102
RTVSPropertyOp10
 70
     1
102
RTVSPropertyOp11
 70
     1
102
RTVSPropertyOp12
 70
     1
102
RTVSPropertyOp13
 70
     1
102
RTVSPropertyOp14
 70
     1
102
RTVSPropertyOp15
 70
     1
102
RTVSPropertyOp16
 70
     1
102
RTVSPropertyOp17
 70
     1
102
RTVSPropertyOp18
 70
     1
102
RTVSPropertyOp19
 70
     1
102
RTVSPropertyOp20
 70
     1
102
RTVSPropertyOp21
 70
     1
102
RTVSPropertyOp22
 70
     1
102
RTVSPropertyOp23
 70
     1
102
RTVSPropertyOp24
 70
     1
102
RTVSPropertyOp25
 70
     1
102
RTVSPropertyOp26
 70
     1
102
RTVSPropertyOp27
 70
     1
102
RTVSPropertyOp28
 70
     1
102
RTVSPropertyOp29
 70
     1
102
RTVSPropertyOp30
 70
     1
102
RTVSPropertyOp31
 70
     1
102
RTVSPropertyOp32
 70
     1
102
RTVSPropertyOp33
 70
     1
102
RTVSPropertyOp34
 70
     1
102
RTVSPropertyOp35
 70
     1
102
RTVSPropertyOp36
 70
     1
102
RTVSPropertyOp37
 70
     1
102
RTVSPropertyOp38
 70
     1
102
RTVSPropertyOp39
 70
     1
102
RTVSPropertyOp40
 70
     1
102
RTVSPropertyOp41
 70
     1
102
RTVSPropertyOp42
 70
     1
102
RTVSPropertyOp43
 70
     1
102
RTVSPropertyOp44
 70
     1
102
RTVSPropertyOp45
 70
     1
102
RTVSPropertyOp46
 70
     1
102
RTVSPropertyOp47
 70
     1
102
RTVSPropertyOp48
 70
     1
102
RTVSPropertyOp49
 70
     1
102
RTVSPropertyOp50
 70
     1
102
RTVSPropertyOp51
 70
     0
102
RTVSPropertyOp52
 70
     0
102
RTVSPropertyOp53
 70
     1
102
RTVSPropertyOp54
 70
     1
102
RTVSPropertyOp55
 70
     1
102
RTVSPropertyOp56
 70
     1
102
RTVSPropertyOp57
 70
     1
102
RTVSPropertyOp58
 70
     1
102
RTVSPropertyOp59
 70
     1
102
RTVSPropertyOp60
 70
     1
102
RTVSPropertyOp61
 70
     1
102
RTVSPropertyOp62
 70
     1
  0
XRECORD
  5
70B
102
{ACAD_REACTORS
330
70A
102
}
330
70A
100
AcDbXrecord
280
     1
102
RTVSPost2010Prop28
280
     0
102
RTVSPost2010PropOp28
 70
     1
102
RTVSPost2010Prop29
280
     1
102
RTVSPost2010PropOp29
 70
     1
102
RTVSPost2010Prop30
280
     1
102
RTVSPost2010PropOp30
 70
     1
102
RTVSPost2010Prop31
280
     0
102
RTVSPost2010PropOp31
 70
     1
102
RTVSPost2010Prop32
280
     0
102
RTVSPost2010PropOp32
 70
     1
102
RTVSPost2010Prop33
280
     0
102
RTVSPost2010PropOp33
 70
     1
102
RTVSPost2010Prop34
280
     0
102
RTVSPost2010PropOp34
 70
     1
102
RTVSPost2010Prop35
280
     0
102
RTVSPost2010PropOp35
 70
     1
102
RTVSPost2010Prop36
280
     0
102
RTVSPost2010PropOp36
 70
     1
102
RTVSPost2010Prop37
 90
       50
102
RTVSPost2010PropOp37
 70
     1
102
RTVSPost2010Prop38
140
0.0
102
RTVSPost2010PropOp38
 70
     1
102
RTVSPost2010Prop39
140
1.0
102
RTVSPost2010PropOp39
 70
     1
102
RTVSPost2010Prop40
 90
        0
102
RTVSPost2010PropOp40
 70
     1
102
RTVSPost2010Prop41ColorIndex
 90
       18
102
RTVSPost2010Prop41ColorRGB
 90
        0
102
RTVSPost2010PropOp41
 70
     1
102
RTVSPost2010Prop42
 90
       50
102
RTVSPost2010PropOp42
 70
     1
102
RTVSPost2010Prop43
 90
        3
102
RTVSPost2010PropOp43
 70
     1
102
RTVSPost2010Prop44ColorIndex
 90
        5
102
RTVSPost2010Prop44ColorRGB
 90
      255
102
RTVSPost2010PropOp44
 70
     1
102
RTVSPost2010Prop45
280
     0
102
RTVSPost2010PropOp45
 70
     1
102
RTVSPost2010Prop46
 90
       50
102
RTVSPost2010PropOp46
 70
     1
102
RTVSPost2010Prop47
 90
       50
102
RTVSPost2010PropOp47
 70
     1
102
RTVSPost2010Prop48
 90
       50
102
RTVSPost2010PropOp48
 70
     1
102
RTVSPost2010Prop49
280
     0
102
RTVSPost2010PropOp49
 70
     1
102
RTVSPost2010Prop50
 90
       50
102
RTVSPost2010PropOp50
 70
     1
102
RTVSPost2010Prop51ColorIndex
 90
      256
102
RTVSPost2010Prop51ColorRGB
 90
-16777216
102
RTVSPost2010PropOp51
 70
     0
102
RTVSPost2010Prop52
140
1.0
102
RTVSPost2010PropOp52
 70
     0
102
RTVSPost2010Prop53
 90
        2
102
RTVSPost2010PropOp53
 70
     1
102
RTVSPost2010Prop54
  1
strokes_ogs.tif
102
RTVSPost2010PropOp54
 70
     1
102
RTVSPost2010Prop55
280
     0
102
RTVSPost2010PropOp55
 70
     1
102
RTVSPost2010Prop56
140
1.0
102
RTVSPost2010PropOp56
 70
     1
102
RTVSPost2010Prop57
140
1.0
102
RTVSPost2010PropOp57
 70
     1
102
RTVSPropertyOp0
 70
     1
102
RTVSPropertyOp1
 70
     1
102
RTVSPropertyOp2
 70
     1
102
RTVSPropertyOp3
 70
     1
102
RTVSPropertyOp4
 70
     1
102
RTVSPropertyOp5
 70
     1
102
RTVSPropertyOp6
 70
     1
102
RTVSPropertyOp7
 70
     1
102
RTVSPropertyOp8
 70
     1
102
RTVSPropertyOp9
 70
     1
102
RTVSPropertyOp10
 70
     1
102
RTVSPropertyOp11
 70
     1
102
RTVSPropertyOp12
 70
     1
102
RTVSPropertyOp13
 70
     1
102
RTVSPropertyOp14
 70
     1
102
RTVSPropertyOp15
 70
     1
102
RTVSPropertyOp16
 70
     1
102
RTVSPropertyOp17
 70
     1
102
RTVSPropertyOp18
 70
     1
102
RTVSPropertyOp19
 70
     1
102
RTVSPropertyOp20
 70
     1
102
RTVSPropertyOp21
 70
     1
102
RTVSPropertyOp22
 70
     1
102
RTVSPropertyOp23
 70
     1
102
RTVSPropertyOp24
 70
     1
102
RTVSPropertyOp25
 70
     1
102
RTVSPropertyOp26
 70
     1
102
RTVSPropertyOp27
 70
     1
102
RTVSPropertyOp28
 70
     1
102
RTVSPropertyOp29
 70
     1
102
RTVSPropertyOp30
 70
     1
102
RTVSPropertyOp31
 70
     1
102
RTVSPropertyOp32
 70
     1
102
RTVSPropertyOp33
 70
     1
102
RTVSPropertyOp34
 70
     1
102
RTVSPropertyOp35
 70
     1
102
RTVSPropertyOp36
 70
     1
102
RTVSPropertyOp37
 70
     1
102
RTVSPropertyOp38
 70
     1
102
RTVSPropertyOp39
 70
     1
102
RTVSPropertyOp40
 70
     1
102
RTVSPropertyOp41
 70
     1
102
RTVSPropertyOp42
 70
     1
102
RTVSPropertyOp43
 70
     1
102
RTVSPropertyOp44
 70
     1
102
RTVSPropertyOp45
 70
     1
102
RTVSPropertyOp46
 70
     1
102
RTVSPropertyOp47
 70
     1
102
RTVSPropertyOp48
 70
     1
102
RTVSPropertyOp49
 70
     1
102
RTVSPropertyOp50
 70
     1
102
RTVSPropertyOp51
 70
     0
102
RTVSPropertyOp52
 70
     0
102
RTVSPropertyOp53
 70
     1
102
RTVSPropertyOp54
 70
     1
102
RTVSPropertyOp55
 70
     1
102
RTVSPropertyOp56
 70
     1
102
RTVSPropertyOp57
 70
     1
102
RTVSPropertyOp58
 70
     1
102
RTVSPropertyOp59
 70
     1
102
RTVSPropertyOp60
 70
     1
102
RTVSPropertyOp61
 70
     1
102
RTVSPropertyOp62
 70
     1
  0
XRECORD
  5
705
102
{ACAD_REACTORS
330
704
102
}
330
704
100
AcDbXrecord
280
     1
102
RTVSPost2010Prop28
280
     0
102
RTVSPost2010PropOp28
 70
     1
102
RTVSPost2010Prop29
280
     1
102
RTVSPost2010PropOp29
 70
     1
102
RTVSPost2010Prop30
280
     1
102
RTVSPost2010PropOp30
 70
     1
102
RTVSPost2010Prop31
280
     0
102
RTVSPost2010PropOp31
 70
     1
102
RTVSPost2010Prop32
280
     0
102
RTVSPost2010PropOp32
 70
     1
102
RTVSPost2010Prop33
280
     0
102
RTVSPost2010PropOp33
 70
     1
102
RTVSPost2010Prop34
280
     0
102
RTVSPost2010PropOp34
 70
     1
102
RTVSPost2010Prop35
280
     0
102
RTVSPost2010PropOp35
 70
     1
102
RTVSPost2010Prop36
280
     0
102
RTVSPost2010PropOp36
 70
     1
102
RTVSPost2010Prop37
 90
       50
102
RTVSPost2010PropOp37
 70
     1
102
RTVSPost2010Prop38
140
0.0
102
RTVSPost2010PropOp38
 70
     1
102
RTVSPost2010Prop39
140
1.0
102
RTVSPost2010PropOp39
 70
     1
102
RTVSPost2010Prop40
 90
        0
102
RTVSPost2010PropOp40
 70
     1
102
RTVSPost2010Prop41ColorIndex
 90
       18
102
RTVSPost2010Prop41ColorRGB
 90
        0
102
RTVSPost2010PropOp41
 70
     1
102
RTVSPost2010Prop42
 90
       50
102
RTVSPost2010PropOp42
 70
     1
102
RTVSPost2010Prop43
 90
        3
102
RTVSPost2010PropOp43
 70
     1
102
RTVSPost2010Prop44ColorIndex
 90
        5
102
RTVSPost2010Prop44ColorRGB
 90
      255
102
RTVSPost2010PropOp44
 70
     1
102
RTVSPost2010Prop45
280
     0
102
RTVSPost2010PropOp45
 70
     1
102
RTVSPost2010Prop46
 90
       50
102
RTVSPost2010PropOp46
 70
     1
102
RTVSPost2010Prop47
 90
       50
102
RTVSPost2010PropOp47
 70
     1
102
RTVSPost2010Prop48
 90
       50
102
RTVSPost2010PropOp48
 70
     1
102
RTVSPost2010Prop49
280
     0
102
RTVSPost2010PropOp49
 70
     1
102
RTVSPost2010Prop50
 90
       50
102
RTVSPost2010PropOp50
 70
     1
102
RTVSPost2010Prop51ColorIndex
 90
      256
102
RTVSPost2010Prop51ColorRGB
 90
-16777216
102
RTVSPost2010PropOp51
 70
     0
102
RTVSPost2010Prop52
140
1.0
102
RTVSPost2010PropOp52
 70
     0
102
RTVSPost2010Prop53
 90
        2
102
RTVSPost2010PropOp53
 70
     1
102
RTVSPost2010Prop54
  1
strokes_ogs.tif
102
RTVSPost2010PropOp54
 70
     1
102
RTVSPost2010Prop55
280
     0
102
RTVSPost2010PropOp55
 70
     1
102
RTVSPost2010Prop56
140
1.0
102
RTVSPost2010PropOp56
 70
     1
102
RTVSPost2010Prop57
140
1.0
102
RTVSPost2010PropOp57
 70
     1
102
RTVSPropertyOp0
 70
     1
102
RTVSPropertyOp1
 70
     1
102
RTVSPropertyOp2
 70
     1
102
RTVSPropertyOp3
 70
     1
102
RTVSPropertyOp4
 70
     1
102
RTVSPropertyOp5
 70
     1
102
RTVSPropertyOp6
 70
     1
102
RTVSPropertyOp7
 70
     1
102
RTVSPropertyOp8
 70
     1
102
RTVSPropertyOp9
 70
     1
102
RTVSPropertyOp10
 70
     1
102
RTVSPropertyOp11
 70
     1
102
RTVSPropertyOp12
 70
     1
102
RTVSPropertyOp13
 70
     1
102
RTVSPropertyOp14
 70
     1
102
RTVSPropertyOp15
 70
     1
102
RTVSPropertyOp16
 70
     1
102
RTVSPropertyOp17
 70
     1
102
RTVSPropertyOp18
 70
     1
102
RTVSPropertyOp19
 70
     1
102
RTVSPropertyOp20
 70
     1
102
RTVSPropertyOp21
 70
     1
102
RTVSPropertyOp22
 70
     1
102
RTVSPropertyOp23
 70
     1
102
RTVSPropertyOp24
 70
     1
102
RTVSPropertyOp25
 70
     1
102
RTVSPropertyOp26
 70
     1
102
RTVSPropertyOp27
 70
     1
102
RTVSPropertyOp28
 70
     1
102
RTVSPropertyOp29
 70
     1
102
RTVSPropertyOp30
 70
     1
102
RTVSPropertyOp31
 70
     1
102
RTVSPropertyOp32
 70
     1
102
RTVSPropertyOp33
 70
     1
102
RTVSPropertyOp34
 70
     1
102
RTVSPropertyOp35
 70
     1
102
RTVSPropertyOp36
 70
     1
102
RTVSPropertyOp37
 70
     1
102
RTVSPropertyOp38
 70
     1
102
RTVSPropertyOp39
 70
     1
102
RTVSPropertyOp40
 70
     1
102
RTVSPropertyOp41
 70
     1
102
RTVSPropertyOp42
 70
     1
102
RTVSPropertyOp43
 70
     1
102
RTVSPropertyOp44
 70
     1
102
RTVSPropertyOp45
 70
     1
102
RTVSPropertyOp46
 70
     1
102
RTVSPropertyOp47
 70
     1
102
RTVSPropertyOp48
 70
     1
102
RTVSPropertyOp49
 70
     1
102
RTVSPropertyOp50
 70
     1
102
RTVSPropertyOp51
 70
     0
102
RTVSPropertyOp52
 70
     0
102
RTVSPropertyOp53
 70
     1
102
RTVSPropertyOp54
 70
     1
102
RTVSPropertyOp55
 70
     1
102
RTVSPropertyOp56
 70
     1
102
RTVSPropertyOp57
 70
     1
102
RTVSPropertyOp58
 70
     1
102
RTVSPropertyOp59
 70
     1
102
RTVSPropertyOp60
 70
     1
102
RTVSPropertyOp61
 70
     1
102
RTVSPropertyOp62
 70
     1
  0
XRECORD
  5
707
102
{ACAD_REACTORS
330
706
102
}
330
706
100
AcDbXrecord
280
     1
102
RTVSPost2010Prop28
280
     0
102
RTVSPost2010PropOp28
 70
     1
102
RTVSPost2010Prop29
280
     1
102
RTVSPost2010PropOp29
 70
     1
102
RTVSPost2010Prop30
280
     1
102
RTVSPost2010PropOp30
 70
     1
102
RTVSPost2010Prop31
280
     0
102
RTVSPost2010PropOp31
 70
     1
102
RTVSPost2010Prop32
280
     0
102
RTVSPost2010PropOp32
 70
     1
102
RTVSPost2010Prop33
280
     0
102
RTVSPost2010PropOp33
 70
     1
102
RTVSPost2010Prop34
280
     0
102
RTVSPost2010PropOp34
 70
     1
102
RTVSPost2010Prop35
280
     0
102
RTVSPost2010PropOp35
 70
     1
102
RTVSPost2010Prop36
280
     0
102
RTVSPost2010PropOp36
 70
     1
102
RTVSPost2010Prop37
 90
       50
102
RTVSPost2010PropOp37
 70
     1
102
RTVSPost2010Prop38
140
0.0
102
RTVSPost2010PropOp38
 70
     1
102
RTVSPost2010Prop39
140
1.0
102
RTVSPost2010PropOp39
 70
     1
102
RTVSPost2010Prop40
 90
        0
102
RTVSPost2010PropOp40
 70
     1
102
RTVSPost2010Prop41ColorIndex
 90
       18
102
RTVSPost2010Prop41ColorRGB
 90
        0
102
RTVSPost2010PropOp41
 70
     1
102
RTVSPost2010Prop42
 90
       50
102
RTVSPost2010PropOp42
 70
     1
102
RTVSPost2010Prop43
 90
        3
102
RTVSPost2010PropOp43
 70
     1
102
RTVSPost2010Prop44ColorIndex
 90
        5
102
RTVSPost2010Prop44ColorRGB
 90
      255
102
RTVSPost2010PropOp44
 70
     1
102
RTVSPost2010Prop45
280
     0
102
RTVSPost2010PropOp45
 70
     1
102
RTVSPost2010Prop46
 90
       50
102
RTVSPost2010PropOp46
 70
     1
102
RTVSPost2010Prop47
 90
       50
102
RTVSPost2010PropOp47
 70
     1
102
RTVSPost2010Prop48
 90
       50
102
RTVSPost2010PropOp48
 70
     1
102
RTVSPost2010Prop49
280
     0
102
RTVSPost2010PropOp49
 70
     1
102
RTVSPost2010Prop50
 90
       50
102
RTVSPost2010PropOp50
 70
     1
102
RTVSPost2010Prop51ColorIndex
 90
      256
102
RTVSPost2010Prop51ColorRGB
 90
-16777216
102
RTVSPost2010PropOp51
 70
     0
102
RTVSPost2010Prop52
140
1.0
102
RTVSPost2010PropOp52
 70
     0
102
RTVSPost2010Prop53
 90
        2
102
RTVSPost2010PropOp53
 70
     1
102
RTVSPost2010Prop54
  1
strokes_ogs.tif
102
RTVSPost2010PropOp54
 70
     1
102
RTVSPost2010Prop55
280
     0
102
RTVSPost2010PropOp55
 70
     1
102
RTVSPost2010Prop56
140
1.0
102
RTVSPost2010PropOp56
 70
     1
102
RTVSPost2010Prop57
140
1.0
102
RTVSPost2010PropOp57
 70
     1
102
RTVSPropertyOp0
 70
     1
102
RTVSPropertyOp1
 70
     1
102
RTVSPropertyOp2
 70
     1
102
RTVSPropertyOp3
 70
     1
102
RTVSPropertyOp4
 70
     1
102
RTVSPropertyOp5
 70
     1
102
RTVSPropertyOp6
 70
     1
102
RTVSPropertyOp7
 70
     1
102
RTVSPropertyOp8
 70
     1
102
RTVSPropertyOp9
 70
     1
102
RTVSPropertyOp10
 70
     1
102
RTVSPropertyOp11
 70
     1
102
RTVSPropertyOp12
 70
     1
102
RTVSPropertyOp13
 70
     1
102
RTVSPropertyOp14
 70
     1
102
RTVSPropertyOp15
 70
     1
102
RTVSPropertyOp16
 70
     1
102
RTVSPropertyOp17
 70
     1
102
RTVSPropertyOp18
 70
     1
102
RTVSPropertyOp19
 70
     1
102
RTVSPropertyOp20
 70
     1
102
RTVSPropertyOp21
 70
     1
102
RTVSPropertyOp22
 70
     1
102
RTVSPropertyOp23
 70
     1
102
RTVSPropertyOp24
 70
     1
102
RTVSPropertyOp25
 70
     1
102
RTVSPropertyOp26
 70
     1
102
RTVSPropertyOp27
 70
     1
102
RTVSPropertyOp28
 70
     1
102
RTVSPropertyOp29
 70
     1
102
RTVSPropertyOp30
 70
     1
102
RTVSPropertyOp31
 70
     1
102
RTVSPropertyOp32
 70
     1
102
RTVSPropertyOp33
 70
     1
102
RTVSPropertyOp34
 70
     1
102
RTVSPropertyOp35
 70
     1
102
RTVSPropertyOp36
 70
     1
102
RTVSPropertyOp37
 70
     1
102
RTVSPropertyOp38
 70
     1
102
RTVSPropertyOp39
 70
     1
102
RTVSPropertyOp40
 70
     1
102
RTVSPropertyOp41
 70
     1
102
RTVSPropertyOp42
 70
     1
102
RTVSPropertyOp43
 70
     1
102
RTVSPropertyOp44
 70
     1
102
RTVSPropertyOp45
 70
     1
102
RTVSPropertyOp46
 70
     1
102
RTVSPropertyOp47
 70
     1
102
RTVSPropertyOp48
 70
     1
102
RTVSPropertyOp49
 70
     1
102
RTVSPropertyOp50
 70
     1
102
RTVSPropertyOp51
 70
     0
102
RTVSPropertyOp52
 70
     0
102
RTVSPropertyOp53
 70
     1
102
RTVSPropertyOp54
 70
     1
102
RTVSPropertyOp55
 70
     1
102
RTVSPropertyOp56
 70
     1
102
RTVSPropertyOp57
 70
     1
102
RTVSPropertyOp58
 70
     1
102
RTVSPropertyOp59
 70
     1
102
RTVSPropertyOp60
 70
     1
102
RTVSPropertyOp61
 70
     1
102
RTVSPropertyOp62
 70
     1
  0
XRECORD
  5
6F7
102
{ACAD_REACTORS
330
6F6
102
}
330
6F6
100
AcDbXrecord
280
     1
102
RTVSPost2010Prop28
280
     0
102
RTVSPost2010PropOp28
 70
     1
102
RTVSPost2010Prop29
280
     1
102
RTVSPost2010PropOp29
 70
     1
102
RTVSPost2010Prop30
280
     1
102
RTVSPost2010PropOp30
 70
     1
102
RTVSPost2010Prop31
280
     0
102
RTVSPost2010PropOp31
 70
     1
102
RTVSPost2010Prop32
280
     0
102
RTVSPost2010PropOp32
 70
     1
102
RTVSPost2010Prop33
280
     0
102
RTVSPost2010PropOp33
 70
     1
102
RTVSPost2010Prop34
280
     0
102
RTVSPost2010PropOp34
 70
     1
102
RTVSPost2010Prop35
280
     0
102
RTVSPost2010PropOp35
 70
     1
102
RTVSPost2010Prop36
280
     0
102
RTVSPost2010PropOp36
 70
     1
102
RTVSPost2010Prop37
 90
       50
102
RTVSPost2010PropOp37
 70
     1
102
RTVSPost2010Prop38
140
0.0
102
RTVSPost2010PropOp38
 70
     1
102
RTVSPost2010Prop39
140
1.0
102
RTVSPost2010PropOp39
 70
     1
102
RTVSPost2010Prop40
 90
        0
102
RTVSPost2010PropOp40
 70
     1
102
RTVSPost2010Prop41ColorIndex
 90
       18
102
RTVSPost2010Prop41ColorRGB
 90
        0
102
RTVSPost2010PropOp41
 70
     1
102
RTVSPost2010Prop42
 90
       50
102
RTVSPost2010PropOp42
 70
     1
102
RTVSPost2010Prop43
 90
        3
102
RTVSPost2010PropOp43
 70
     1
102
RTVSPost2010Prop44ColorIndex
 90
        5
102
RTVSPost2010Prop44ColorRGB
 90
      255
102
RTVSPost2010PropOp44
 70
     1
102
RTVSPost2010Prop45
280
     0
102
RTVSPost2010PropOp45
 70
     1
102
RTVSPost2010Prop46
 90
       50
102
RTVSPost2010PropOp46
 70
     1
102
RTVSPost2010Prop47
 90
       50
102
RTVSPost2010PropOp47
 70
     1
102
RTVSPost2010Prop48
 90
       50
102
RTVSPost2010PropOp48
 70
     1
102
RTVSPost2010Prop49
280
     0
102
RTVSPost2010PropOp49
 70
     1
102
RTVSPost2010Prop50
 90
       50
102
RTVSPost2010PropOp50
 70
     1
102
RTVSPost2010Prop51ColorIndex
 90
      256
102
RTVSPost2010Prop51ColorRGB
 90
-16777216
102
RTVSPost2010PropOp51
 70
     0
102
RTVSPost2010Prop52
140
1.0
102
RTVSPost2010PropOp52
 70
     0
102
RTVSPost2010Prop53
 90
        2
102
RTVSPost2010PropOp53
 70
     1
102
RTVSPost2010Prop54
  1
strokes_ogs.tif
102
RTVSPost2010PropOp54
 70
     1
102
RTVSPost2010Prop55
280
     0
102
RTVSPost2010PropOp55
 70
     1
102
RTVSPost2010Prop56
140
1.0
102
RTVSPost2010PropOp56
 70
     1
102
RTVSPost2010Prop57
140
1.0
102
RTVSPost2010PropOp57
 70
     1
102
RTVSPropertyOp0
 70
     1
102
RTVSPropertyOp1
 70
     1
102
RTVSPropertyOp2
 70
     1
102
RTVSPropertyOp3
 70
     1
102
RTVSPropertyOp4
 70
     1
102
RTVSPropertyOp5
 70
     1
102
RTVSPropertyOp6
 70
     1
102
RTVSPropertyOp7
 70
     1
102
RTVSPropertyOp8
 70
     1
102
RTVSPropertyOp9
 70
     1
102
RTVSPropertyOp10
 70
     1
102
RTVSPropertyOp11
 70
     1
102
RTVSPropertyOp12
 70
     1
102
RTVSPropertyOp13
 70
     1
102
RTVSPropertyOp14
 70
     1
102
RTVSPropertyOp15
 70
     1
102
RTVSPropertyOp16
 70
     1
102
RTVSPropertyOp17
 70
     1
102
RTVSPropertyOp18
 70
     1
102
RTVSPropertyOp19
 70
     1
102
RTVSPropertyOp20
 70
     1
102
RTVSPropertyOp21
 70
     1
102
RTVSPropertyOp22
 70
     1
102
RTVSPropertyOp23
 70
     1
102
RTVSPropertyOp24
 70
     1
102
RTVSPropertyOp25
 70
     1
102
RTVSPropertyOp26
 70
     1
102
RTVSPropertyOp27
 70
     1
102
RTVSPropertyOp28
 70
     1
102
RTVSPropertyOp29
 70
     1
102
RTVSPropertyOp30
 70
     1
102
RTVSPropertyOp31
 70
     1
102
RTVSPropertyOp32
 70
     1
102
RTVSPropertyOp33
 70
     1
102
RTVSPropertyOp34
 70
     1
102
RTVSPropertyOp35
 70
     1
102
RTVSPropertyOp36
 70
     1
102
RTVSPropertyOp37
 70
     1
102
RTVSPropertyOp38
 70
     1
102
RTVSPropertyOp39
 70
     1
102
RTVSPropertyOp40
 70
     1
102
RTVSPropertyOp41
 70
     1
102
RTVSPropertyOp42
 70
     1
102
RTVSPropertyOp43
 70
     1
102
RTVSPropertyOp44
 70
     1
102
RTVSPropertyOp45
 70
     1
102
RTVSPropertyOp46
 70
     1
102
RTVSPropertyOp47
 70
     1
102
RTVSPropertyOp48
 70
     1
102
RTVSPropertyOp49
 70
     1
102
RTVSPropertyOp50
 70
     1
102
RTVSPropertyOp51
 70
     0
102
RTVSPropertyOp52
 70
     0
102
RTVSPropertyOp53
 70
     1
102
RTVSPropertyOp54
 70
     1
102
RTVSPropertyOp55
 70
     1
102
RTVSPropertyOp56
 70
     1
102
RTVSPropertyOp57
 70
     1
102
RTVSPropertyOp58
 70
     1
102
RTVSPropertyOp59
 70
     1
102
RTVSPropertyOp60
 70
     1
102
RTVSPropertyOp61
 70
     1
102
RTVSPropertyOp62
 70
     1
  0
XRECORD
  5
6E9
102
{ACAD_REACTORS
330
6E8
102
}
330
6E8
100
AcDbXrecord
280
     1
102
RTVSPost2010Prop28
280
     0
102
RTVSPost2010PropOp28
 70
     1
102
RTVSPost2010Prop29
280
     1
102
RTVSPost2010PropOp29
 70
     1
102
RTVSPost2010Prop30
280
     1
102
RTVSPost2010PropOp30
 70
     1
102
RTVSPost2010Prop31
280
     0
102
RTVSPost2010PropOp31
 70
     1
102
RTVSPost2010Prop32
280
     0
102
RTVSPost2010PropOp32
 70
     1
102
RTVSPost2010Prop33
280
     0
102
RTVSPost2010PropOp33
 70
     1
102
RTVSPost2010Prop34
280
     0
102
RTVSPost2010PropOp34
 70
     1
102
RTVSPost2010Prop35
280
     0
102
RTVSPost2010PropOp35
 70
     1
102
RTVSPost2010Prop36
280
     0
102
RTVSPost2010PropOp36
 70
     1
102
RTVSPost2010Prop37
 90
       50
102
RTVSPost2010PropOp37
 70
     1
102
RTVSPost2010Prop38
140
0.0
102
RTVSPost2010PropOp38
 70
     1
102
RTVSPost2010Prop39
140
1.0
102
RTVSPost2010PropOp39
 70
     1
102
RTVSPost2010Prop40
 90
        0
102
RTVSPost2010PropOp40
 70
     1
102
RTVSPost2010Prop41ColorIndex
 90
       18
102
RTVSPost2010Prop41ColorRGB
 90
        0
102
RTVSPost2010PropOp41
 70
     1
102
RTVSPost2010Prop42
 90
       50
102
RTVSPost2010PropOp42
 70
     1
102
RTVSPost2010Prop43
 90
        3
102
RTVSPost2010PropOp43
 70
     1
102
RTVSPost2010Prop44ColorIndex
 90
        5
102
RTVSPost2010Prop44ColorRGB
 90
      255
102
RTVSPost2010PropOp44
 70
     1
102
RTVSPost2010Prop45
280
     0
102
RTVSPost2010PropOp45
 70
     1
102
RTVSPost2010Prop46
 90
       50
102
RTVSPost2010PropOp46
 70
     1
102
RTVSPost2010Prop47
 90
       50
102
RTVSPost2010PropOp47
 70
     1
102
RTVSPost2010Prop48
 90
       50
102
RTVSPost2010PropOp48
 70
     1
102
RTVSPost2010Prop49
280
     0
102
RTVSPost2010PropOp49
 70
     1
102
RTVSPost2010Prop50
 90
       50
102
RTVSPost2010PropOp50
 70
     1
102
RTVSPost2010Prop51ColorIndex
 90
      256
102
RTVSPost2010Prop51ColorRGB
 90
-16777216
102
RTVSPost2010PropOp51
 70
     0
102
RTVSPost2010Prop52
140
1.0
102
RTVSPost2010PropOp52
 70
     0
102
RTVSPost2010Prop53
 90
        2
102
RTVSPost2010PropOp53
 70
     1
102
RTVSPost2010Prop54
  1
strokes_ogs.tif
102
RTVSPost2010PropOp54
 70
     1
102
RTVSPost2010Prop55
280
     0
102
RTVSPost2010PropOp55
 70
     1
102
RTVSPost2010Prop56
140
1.0
102
RTVSPost2010PropOp56
 70
     1
102
RTVSPost2010Prop57
140
1.0
102
RTVSPost2010PropOp57
 70
     1
102
RTVSPropertyOp0
 70
     1
102
RTVSPropertyOp1
 70
     1
102
RTVSPropertyOp2
 70
     1
102
RTVSPropertyOp3
 70
     1
102
RTVSPropertyOp4
 70
     1
102
RTVSPropertyOp5
 70
     1
102
RTVSPropertyOp6
 70
     1
102
RTVSPropertyOp7
 70
     1
102
RTVSPropertyOp8
 70
     1
102
RTVSPropertyOp9
 70
     1
102
RTVSPropertyOp10
 70
     1
102
RTVSPropertyOp11
 70
     1
102
RTVSPropertyOp12
 70
     1
102
RTVSPropertyOp13
 70
     1
102
RTVSPropertyOp14
 70
     1
102
RTVSPropertyOp15
 70
     1
102
RTVSPropertyOp16
 70
     1
102
RTVSPropertyOp17
 70
     1
102
RTVSPropertyOp18
 70
     1
102
RTVSPropertyOp19
 70
     1
102
RTVSPropertyOp20
 70
     1
102
RTVSPropertyOp21
 70
     1
102
RTVSPropertyOp22
 70
     1
102
RTVSPropertyOp23
 70
     1
102
RTVSPropertyOp24
 70
     1
102
RTVSPropertyOp25
 70
     1
102
RTVSPropertyOp26
 70
     1
102
RTVSPropertyOp27
 70
     1
102
RTVSPropertyOp28
 70
     1
102
RTVSPropertyOp29
 70
     1
102
RTVSPropertyOp30
 70
     1
102
RTVSPropertyOp31
 70
     1
102
RTVSPropertyOp32
 70
     1
102
RTVSPropertyOp33
 70
     1
102
RTVSPropertyOp34
 70
     1
102
RTVSPropertyOp35
 70
     1
102
RTVSPropertyOp36
 70
     1
102
RTVSPropertyOp37
 70
     1
102
RTVSPropertyOp38
 70
     1
102
RTVSPropertyOp39
 70
     1
102
RTVSPropertyOp40
 70
     1
102
RTVSPropertyOp41
 70
     1
102
RTVSPropertyOp42
 70
     1
102
RTVSPropertyOp43
 70
     1
102
RTVSPropertyOp44
 70
     1
102
RTVSPropertyOp45
 70
     1
102
RTVSPropertyOp46
 70
     1
102
RTVSPropertyOp47
 70
     1
102
RTVSPropertyOp48
 70
     1
102
RTVSPropertyOp49
 70
     1
102
RTVSPropertyOp50
 70
     1
102
RTVSPropertyOp51
 70
     0
102
RTVSPropertyOp52
 70
     0
102
RTVSPropertyOp53
 70
     1
102
RTVSPropertyOp54
 70
     1
102
RTVSPropertyOp55
 70
     1
102
RTVSPropertyOp56
 70
     1
102
RTVSPropertyOp57
 70
     1
102
RTVSPropertyOp58
 70
     1
102
RTVSPropertyOp59
 70
     1
102
RTVSPropertyOp60
 70
     1
102
RTVSPropertyOp61
 70
     1
102
RTVSPropertyOp62
 70
     1
  0
XRECORD
  5
709
102
{ACAD_REACTORS
330
708
102
}
330
708
100
AcDbXrecord
280
     1
102
RTVSPost2010Prop28
280
     0
102
RTVSPost2010PropOp28
 70
     1
102
RTVSPost2010Prop29
280
     1
102
RTVSPost2010PropOp29
 70
     1
102
RTVSPost2010Prop30
280
     1
102
RTVSPost2010PropOp30
 70
     1
102
RTVSPost2010Prop31
280
     0
102
RTVSPost2010PropOp31
 70
     1
102
RTVSPost2010Prop32
280
     0
102
RTVSPost2010PropOp32
 70
     1
102
RTVSPost2010Prop33
280
     0
102
RTVSPost2010PropOp33
 70
     1
102
RTVSPost2010Prop34
280
     0
102
RTVSPost2010PropOp34
 70
     1
102
RTVSPost2010Prop35
280
     0
102
RTVSPost2010PropOp35
 70
     1
102
RTVSPost2010Prop36
280
     0
102
RTVSPost2010PropOp36
 70
     1
102
RTVSPost2010Prop37
 90
       50
102
RTVSPost2010PropOp37
 70
     1
102
RTVSPost2010Prop38
140
0.0
102
RTVSPost2010PropOp38
 70
     1
102
RTVSPost2010Prop39
140
1.0
102
RTVSPost2010PropOp39
 70
     1
102
RTVSPost2010Prop40
 90
        0
102
RTVSPost2010PropOp40
 70
     1
102
RTVSPost2010Prop41ColorIndex
 90
       18
102
RTVSPost2010Prop41ColorRGB
 90
        0
102
RTVSPost2010PropOp41
 70
     1
102
RTVSPost2010Prop42
 90
       50
102
RTVSPost2010PropOp42
 70
     1
102
RTVSPost2010Prop43
 90
        3
102
RTVSPost2010PropOp43
 70
     1
102
RTVSPost2010Prop44ColorIndex
 90
        5
102
RTVSPost2010Prop44ColorRGB
 90
      255
102
RTVSPost2010PropOp44
 70
     1
102
RTVSPost2010Prop45
280
     0
102
RTVSPost2010PropOp45
 70
     1
102
RTVSPost2010Prop46
 90
       50
102
RTVSPost2010PropOp46
 70
     1
102
RTVSPost2010Prop47
 90
       50
102
RTVSPost2010PropOp47
 70
     1
102
RTVSPost2010Prop48
 90
       50
102
RTVSPost2010PropOp48
 70
     1
102
RTVSPost2010Prop49
280
     0
102
RTVSPost2010PropOp49
 70
     1
102
RTVSPost2010Prop50
 90
       50
102
RTVSPost2010PropOp50
 70
     1
102
RTVSPost2010Prop51ColorIndex
 90
      256
102
RTVSPost2010Prop51ColorRGB
 90
-16777216
102
RTVSPost2010PropOp51
 70
     0
102
RTVSPost2010Prop52
140
1.0
102
RTVSPost2010PropOp52
 70
     0
102
RTVSPost2010Prop53
 90
        2
102
RTVSPost2010PropOp53
 70
     1
102
RTVSPost2010Prop54
  1
strokes_ogs.tif
102
RTVSPost2010PropOp54
 70
     1
102
RTVSPost2010Prop55
280
     0
102
RTVSPost2010PropOp55
 70
     1
102
RTVSPost2010Prop56
140
1.0
102
RTVSPost2010PropOp56
 70
     1
102
RTVSPost2010Prop57
140
1.0
102
RTVSPost2010PropOp57
 70
     1
102
RTVSPropertyOp0
 70
     1
102
RTVSPropertyOp1
 70
     1
102
RTVSPropertyOp2
 70
     1
102
RTVSPropertyOp3
 70
     1
102
RTVSPropertyOp4
 70
     1
102
RTVSPropertyOp5
 70
     1
102
RTVSPropertyOp6
 70
     1
102
RTVSPropertyOp7
 70
     1
102
RTVSPropertyOp8
 70
     1
102
RTVSPropertyOp9
 70
     1
102
RTVSPropertyOp10
 70
     1
102
RTVSPropertyOp11
 70
     1
102
RTVSPropertyOp12
 70
     1
102
RTVSPropertyOp13
 70
     1
102
RTVSPropertyOp14
 70
     1
102
RTVSPropertyOp15
 70
     1
102
RTVSPropertyOp16
 70
     1
102
RTVSPropertyOp17
 70
     1
102
RTVSPropertyOp18
 70
     1
102
RTVSPropertyOp19
 70
     1
102
RTVSPropertyOp20
 70
     1
102
RTVSPropertyOp21
 70
     1
102
RTVSPropertyOp22
 70
     1
102
RTVSPropertyOp23
 70
     1
102
RTVSPropertyOp24
 70
     1
102
RTVSPropertyOp25
 70
     1
102
RTVSPropertyOp26
 70
     1
102
RTVSPropertyOp27
 70
     1
102
RTVSPropertyOp28
 70
     1
102
RTVSPropertyOp29
 70
     1
102
RTVSPropertyOp30
 70
     1
102
RTVSPropertyOp31
 70
     1
102
RTVSPropertyOp32
 70
     1
102
RTVSPropertyOp33
 70
     1
102
RTVSPropertyOp34
 70
     1
102
RTVSPropertyOp35
 70
     1
102
RTVSPropertyOp36
 70
     1
102
RTVSPropertyOp37
 70
     1
102
RTVSPropertyOp38
 70
     1
102
RTVSPropertyOp39
 70
     1
102
RTVSPropertyOp40
 70
     1
102
RTVSPropertyOp41
 70
     1
102
RTVSPropertyOp42
 70
     1
102
RTVSPropertyOp43
 70
     1
102
RTVSPropertyOp44
 70
     1
102
RTVSPropertyOp45
 70
     1
102
RTVSPropertyOp46
 70
     1
102
RTVSPropertyOp47
 70
     1
102
RTVSPropertyOp48
 70
     1
102
RTVSPropertyOp49
 70
     1
102
RTVSPropertyOp50
 70
     1
102
RTVSPropertyOp51
 70
     0
102
RTVSPropertyOp52
 70
     0
102
RTVSPropertyOp53
 70
     1
102
RTVSPropertyOp54
 70
     1
102
RTVSPropertyOp55
 70
     1
102
RTVSPropertyOp56
 70
     1
102
RTVSPropertyOp57
 70
     1
102
RTVSPropertyOp58
 70
     1
102
RTVSPropertyOp59
 70
     1
102
RTVSPropertyOp60
 70
     1
102
RTVSPropertyOp61
 70
     1
102
RTVSPropertyOp62
 70
     1
  0
ENDSEC
  0
EOF
