  0
SECTION
  2
HEADER
  9
$ACADVER
  1
AC1015
  9
$ACADMAINTVER
 70
    20
  9
$DWGCODEPAGE
  3
ANSI_932
  9
$INSBASE
 10
0.0
 20
0.0
 30
0.0
  9
$EXTMIN
 10
-159.3916511551488
 20
1.231392126777592
 30
0.0
  9
$EXTMAX
 10
1716.856781440326
 20
1548.409189939055
 30
0.0
  9
$LIMMIN
 10
-485.7004852294716
 20
-536.1734275817662
  9
$LIMMAX
 10
1193.13298034668
 20
886.9045867919712
  9
$ORTHOMODE
 70
     0
  9
$REGENMODE
 70
     1
  9
$FILLMODE
 70
     1
  9
$QTEXTMODE
 70
     0
  9
$MIRRTEXT
 70
     1
  9
$LTSCALE
 40
0.1523278724490188
  9
$ATTMODE
 70
     1
  9
$TEXTSIZE
 40
2.5
  9
$TRACEWID
 40
1.0
  9
$TEXTSTYLE
  7
Standard
  9
$CLAYER
  8
0
  9
$CELTYPE
  6
ByLayer
  9
$CECOLOR
 62
   256
  9
$CELTSCALE
 40
1.0
  9
$DISPSILH
 70
     0
  9
$DIMSCALE
 40
1.0
  9
$DIMASZ
 40
2.5
  9
$DIMEXO
 40
0.625
  9
$DIMDLI
 40
3.75
  9
$DIMRND
 40
0.0
  9
$DIMDLE
 40
0.0
  9
$DIMEXE
 40
1.25
  9
$DIMTP
 40
0.0
  9
$DIMTM
 40
0.0
  9
$DIMTXT
 40
2.5
  9
$DIMCEN
 40
2.5
  9
$DIMTSZ
 40
0.0
  9
$DIMTOL
 70
     0
  9
$DIMLIM
 70
     0
  9
$DIMTIH
 70
     0
  9
$DIMTOH
 70
     0
  9
$DIMSE1
 70
     0
  9
$DIMSE2
 70
     0
  9
$DIMTAD
 70
     1
  9
$DIMZIN
 70
     0
  9
$DIMBLK
  1

  9
$DIMASO
 70
     1
  9
$DIMSHO
 70
     1
  9
$DIMPOST
  1

  9
$DIMAPOST
  1

  9
$DIMALT
 70
     0
  9
$DIMALTD
 70
     3
  9
$DIMALTF
 40
0.03937007874016
  9
$DIMLFAC
 40
1.0
  9
$DIMTOFL
 70
     1
  9
$DIMTVP
 40
0.0
  9
$DIMTIX
 70
     0
  9
$DIMSOXD
 70
     0
  9
$DIMSAH
 70
     0
  9
$DIMBLK1
  1

  9
$DIMBLK2
  1

  9
$DIMSTYLE
  2
Standard
  9
$DIMCLRD
 70
     0
  9
$DIMCLRE
 70
     0
  9
$DIMCLRT
 70
     0
  9
$DIMTFAC
 40
0.75
  9
$DIMGAP
 40
0.625
  9
$DIMJUST
 70
     0
  9
$DIMSD1
 70
     0
  9
$DIMSD2
 70
     0
  9
$DIMTOLJ
 70
     0
  9
$DIMTZIN
 70
     8
  9
$DIMALTZ
 70
     0
  9
$DIMALTTZ
 70
     0
  9
$DIMUPT
 70
     0
  9
$DIMDEC
 70
     2
  9
$DIMTDEC
 70
     2
  9
$DIMALTU
 70
     2
  9
$DIMALTTD
 70
     3
  9
$DIMTXSTY
  7
Standard
  9
$DIMAUNIT
 70
     0
  9
$DIMADEC
 70
     0
  9
$DIMALTRND
 40
0.0
  9
$DIMAZIN
 70
     0
  9
$DIMDSEP
 70
    46
  9
$DIMATFIT
 70
     3
  9
$DIMFRAC
 70
     0
  9
$DIMLDRBLK
  1

  9
$DIMLUNIT
 70
     2
  9
$DIMLWD
 70
    -2
  9
$DIMLWE
 70
    -2
  9
$DIMTMOVE
 70
     0
  9
$LUNITS
 70
     2
  9
$LUPREC
 70
     4
  9
$SKETCHINC
 40
1.0
  9
$FILLETRAD
 40
0.0
  9
$AUNITS
 70
     0
  9
$AUPREC
 70
     0
  9
$MENU
  1
.
  9
$ELEVATION
 40
0.0
  9
$PELEVATION
 40
0.0
  9
$THICKNESS
 40
0.0
  9
$LIMCHECK
 70
     0
  9
$CHAMFERA
 40
10.0
  9
$CHAMFERB
 40
10.0
  9
$CHAMFERC
 40
20.0
  9
$CHAMFERD
 40
0.0
  9
$SKPOLY
 70
     0
  9
$TDCREATE
 40
2455188.750000000
  9
$TDUCREATE
 40
2455188.375000000
  9
$TDUPDATE
 40
2459753.645337987
  9
$TDUUPDATE
 40
2459753.270337986
  9
$TDINDWG
 40
0.0073283796
  9
$TDUSRTIMER
 40
0.0073282176
  9
$USRTIMER
 70
     1
  9
$ANGBASE
 50
0.0
  9
$ANGDIR
 70
     0
  9
$PDMODE
 70
     0
  9
$PDSIZE
 40
0.0
  9
$PLINEWID
 40
0.0
  9
$SPLFRAME
 70
     0
  9
$SPLINETYPE
 70
     6
  9
$SPLINESEGS
 70
     8
  9
$HANDSEED
  5
6D1
  9
$SURFTAB1
 70
     6
  9
$SURFTAB2
 70
     6
  9
$SURFTYPE
 70
     6
  9
$SURFU
 70
     6
  9
$SURFV
 70
     6
  9
$UCSBASE
  2

  9
$UCSNAME
  2

  9
$UCSORG
 10
0.0
 20
0.0
 30
0.0
  9
$UCSXDIR
 10
1.0
 20
0.0
 30
0.0
  9
$UCSYDIR
 10
0.0
 20
1.0
 30
0.0
  9
$UCSORTHOREF
  2

  9
$UCSORTHOVIEW
 70
     0
  9
$UCSORGTOP
 10
0.0
 20
0.0
 30
0.0
  9
$UCSORGBOTTOM
 10
0.0
 20
0.0
 30
0.0
  9
$UCSORGLEFT
 10
0.0
 20
0.0
 30
0.0
  9
$UCSORGRIGHT
 10
0.0
 20
0.0
 30
0.0
  9
$UCSORGFRONT
 10
0.0
 20
0.0
 30
0.0
  9
$UCSORGBACK
 10
0.0
 20
0.0
 30
0.0
  9
$PUCSBASE
  2

  9
$PUCSNAME
  2

  9
$PUCSORG
 10
0.0
 20
0.0
 30
0.0
  9
$PUCSXDIR
 10
1.0
 20
0.0
 30
0.0
  9
$PUCSYDIR
 10
0.0
 20
1.0
 30
0.0
  9
$PUCSORTHOREF
  2

  9
$PUCSORTHOVIEW
 70
     0
  9
$PUCSORGTOP
 10
0.0
 20
0.0
 30
0.0
  9
$PUCSORGBOTTOM
 10
0.0
 20
0.0
 30
0.0
  9
$PUCSORGLEFT
 10
0.0
 20
0.0
 30
0.0
  9
$PUCSORGRIGHT
 10
0.0
 20
0.0
 30
0.0
  9
$PUCSORGFRONT
 10
0.0
 20
0.0
 30
0.0
  9
$PUCSORGBACK
 10
0.0
 20
0.0
 30
0.0
  9
$USERI1
 70
     0
  9
$USERI2
 70
     0
  9
$USERI3
 70
     0
  9
$USERI4
 70
     0
  9
$USERI5
 70
     0
  9
$USERR1
 40
0.0
  9
$USERR2
 40
0.0
  9
$USERR3
 40
0.0
  9
$USERR4
 40
0.0
  9
$USERR5
 40
0.0
  9
$WORLDVIEW
 70
     1
  9
$SHADEDGE
 70
     3
  9
$SHADEDIF
 70
    70
  9
$TILEMODE
 70
     1
  9
$MAXACTVP
 70
    64
  9
$PINSBASE
 10
0.0
 20
0.0
 30
0.0
  9
$PLIMCHECK
 70
     0
  9
$PEXTMIN
 10
1.000000000000000E+20
 20
1.000000000000000E+20
 30
1.000000000000000E+20
  9
$PEXTMAX
 10
-1.000000000000000E+20
 20
-1.000000000000000E+20
 30
-1.000000000000000E+20
  9
$PLIMMIN
 10
0.0
 20
0.0
  9
$PLIMMAX
 10
420.0
 20
297.0
  9
$UNITMODE
 70
     0
  9
$VISRETAIN
 70
     1
  9
$PLINEGEN
 70
     0
  9
$PSLTSCALE
 70
     1
  9
$TREEDEPTH
 70
  3020
  9
$CMLSTYLE
  2
Standard
  9
$CMLJUST
 70
     0
  9
$CMLSCALE
 40
20.0
  9
$PROXYGRAPHICS
 70
     1
  9
$MEASUREMENT
 70
     1
  9
$CELWEIGHT
370
    -1
  9
$ENDCAPS
280
     0
  9
$JOINSTYLE
280
     0
  9
$LWDISPLAY
290
     0
  9
$INSUNITS
 70
     4
  9
$HYPERLINKBASE
  1

  9
$STYLESHEET
  1

  9
$XEDIT
290
     1
  9
$CEPSNTYPE
380
     0
  9
$PSTYLEMODE
290
     1
  9
$FINGERPRINTGUID
  2
{6C772DD9-C2B4-474B-B220-102D5567BB42}
  9
$VERSIONGUID
  2
{97ED3A99-4976-4FAF-A8A5-56554C36BB59}
  9
$EXTNAMES
290
     1
  9
$PSVPSCALE
 40
0.0
  9
$OLESTARTUP
290
     0
  0
ENDSEC
  0
SECTION
  2
CLASSES
  0
CLASS
  1
ACDBDICTIONARYWDFLT
  2
AcDbDictionaryWithDefault
  3
ObjectDBX Classes
 90
        0
280
     0
281
     0
  0
CLASS
  1
VISUALSTYLE
  2
AcDbVisualStyle
  3
ObjectDBX Classes
 90
     4095
280
     0
281
     0
  0
CLASS
  1
MATERIAL
  2
AcDbMaterial
  3
ObjectDBX Classes
 90
     1153
280
     0
281
     0
  0
CLASS
  1
SCALE
  2
AcDbScale
  3
ObjectDBX Classes
 90
     1153
280
     0
281
     0
  0
CLASS
  1
TABLESTYLE
  2
AcDbTableStyle
  3
ObjectDBX Classes
 90
     4095
280
     0
281
     0
  0
CLASS
  1
MLEADERSTYLE
  2
AcDbMLeaderStyle
  3
ACDB_MLEADERSTYLE_CLASS
 90
     4095
280
     0
281
     0
  0
CLASS
  1
SUN
  2
AcDbSun
  3
SCENEOE
 90
    33921
280
     0
281
     0
  0
CLASS
  1
DICTIONARYVAR
  2
AcDbDictionaryVar
  3
ObjectDBX Classes
 90
        0
280
     0
281
     0
  0
CLASS
  1
ACDBSECTIONVIEWSTYLE
  2
AcDbSectionViewStyle
  3
ObjectDBX Classes
 90
     1025
280
     0
281
     0
  0
CLASS
  1
ACDBDETAILVIEWSTYLE
  2
AcDbDetailViewStyle
  3
ObjectDBX Classes
 90
     1025
280
     0
281
     0
  0
CLASS
  1
SORTENTSTABLE
  2
AcDbSortentsTable
  3
ObjectDBX Classes
 90
        0
280
     0
281
     0
  0
CLASS
  1
CELLSTYLEMAP
  2
AcDbCellStyleMap
  3
ObjectDBX Classes
 90
     1152
280
     0
281
     0
  0
CLASS
  1
ACDBPLACEHOLDER
  2
AcDbPlaceHolder
  3
ObjectDBX Classes
 90
        0
280
     0
281
     0
  0
CLASS
  1
LAYOUT
  2
AcDbLayout
  3
ObjectDBX Classes
 90
        0
280
     0
281
     0
  0
ENDSEC
  0
SECTION
  2
TABLES
  0
TABLE
  2
VPORT
  5
8
330
0
100
AcDbSymbolTable
 70
     1
  0
VPORT
  5
29
330
8
100
AcDbSymbolTableRecord
100
AcDbViewportTableRecord
  2
*Active
 70
     0
 10
0.0
 20
0.0
 11
1.0
 21
1.0
 12
1376.607104245
 22
468.0061360454146
 13
0.0
 23
0.0
 14
10.0
 24
10.0
 15
10.0
 25
10.0
 16
0.0
 26
0.0
 36
1.0
 17
0.0
 27
0.0
 37
0.0
 40
1430.751406666346
 41
2.204301075268817
 42
50.0
 43
0.0
 44
0.0
 50
0.0
 51
0.0
 71
     0
 72
 20000
 73
     1
 74
     3
 75
     0
 76
     0
 77
     0
 78
     0
281
     0
 65
     1
110
0.0
120
0.0
130
0.0
111
1.0
121
0.0
131
0.0
112
0.0
122
1.0
132
0.0
 79
     0
146
0.0
1001
ACAD_NAV_VCDISPLAY
1070
     3
  0
ENDTAB
  0
TABLE
  2
LTYPE
  5
5
330
0
100
AcDbSymbolTable
 70
     2
  0
LTYPE
  5
14
330
5
100
AcDbSymbolTableRecord
100
AcDbLinetypeTableRecord
  2
ByBlock
 70
     0
  3

 72
    65
 73
     0
 40
0.0
  0
LTYPE
  5
15
330
5
100
AcDbSymbolTableRecord
100
AcDbLinetypeTableRecord
  2
ByLayer
 70
     0
  3

 72
    65
 73
     0
 40
0.0
  0
LTYPE
  5
16
330
5
100
AcDbSymbolTableRecord
100
AcDbLinetypeTableRecord
  2
Continuous
 70
     0
  3
Solid line
 72
    65
 73
     0
 40
0.0
  0
LTYPE
  5
2A7
330
5
100
AcDbSymbolTableRecord
100
AcDbLinetypeTableRecord
  2
CENTER2
 70
     0
  3
Center (.5x) ___ _ ___ _ ___ _ ___ _ ___ _ ___
 72
    65
 73
     4
 40
28.575
 49
19.05
 74
     0
 49
-3.174999999999998
 74
     0
 49
3.174999999999998
 74
     0
 49
-3.174999999999998
 74
     0
  0
ENDTAB
  0
TABLE
  2
LAYER
  5
2
102
{ACAD_XDICTIONARY
360
2AD
102
}
330
0
100
AcDbSymbolTable
 70
     4
  0
LAYER
  5
10
102
{ACAD_XDICTIONARY
360
5F7
102
}
330
2
100
AcDbSymbolTableRecord
100
AcDbLayerTableRecord
  2
0
 70
     0
 62
     7
  6
Continuous
370
    -3
390
F
  0
LAYER
  5
66
330
2
100
AcDbSymbolTableRecord
100
AcDbLayerTableRecord
  2
Defpoints
 70
     0
 62
     7
  6
Continuous
290
     0
370
    -3
390
F
  0
LAYER
  5
2A8
102
{ACAD_XDICTIONARY
360
2A9
102
}
330
2
100
AcDbSymbolTableRecord
100
AcDbLayerTableRecord
  2
中心線
 70
     0
 62
     3
  6
CENTER2
370
    -3
390
F
  0
LAYER
  5
2AA
102
{ACAD_XDICTIONARY
360
2AB
102
}
330
2
100
AcDbSymbolTableRecord
100
AcDbLayerTableRecord
  2
実線
 70
     0
 62
     7
  6
Continuous
370
    -3
390
F
  0
ENDTAB
  0
TABLE
  2
STYLE
  5
3
330
0
100
AcDbSymbolTable
 70
     1
  0
STYLE
  5
11
330
3
100
AcDbSymbolTableRecord
100
AcDbTextStyleTableRecord
  2
Standard
 70
     0
 40
0.0
 41
1.0
 50
0.0
 71
     0
 42
2.5
  3
txt
  4
extfont2
  0
ENDTAB
  0
TABLE
  2
VIEW
  5
6
330
0
100
AcDbSymbolTable
 70
     0
  0
ENDTAB
  0
TABLE
  2
UCS
  5
7
330
0
100
AcDbSymbolTable
 70
     0
  0
ENDTAB
  0
TABLE
  2
APPID
  5
9
330
0
100
AcDbSymbolTable
 70
     4
  0
APPID
  5
12
330
9
100
AcDbSymbolTableRecord
100
AcDbRegAppTableRecord
  2
ACAD
 70
     0
  0
APPID
  5
297
330
9
100
AcDbSymbolTableRecord
100
AcDbRegAppTableRecord
  2
ACAD_MLEADERVER
 70
     0
  0
APPID
  5
2AC
330
9
100
AcDbSymbolTableRecord
100
AcDbRegAppTableRecord
  2
ACAD_NAV_VCDISPLAY
 70
     0
  0
APPID
  5
5E8
330
9
100
AcDbSymbolTableRecord
100
AcDbRegAppTableRecord
  2
ACAD_EXEMPT_FROM_CAD_STANDARDS
 70
     0
  0
ENDTAB
  0
TABLE
  2
DIMSTYLE
  5
A
330
0
100
AcDbSymbolTable
 70
     1
100
AcDbDimStyleTable
 71
     1
340
27
  0
DIMSTYLE
105
27
330
A
100
AcDbSymbolTableRecord
100
AcDbDimStyleTableRecord
  2
Standard
 70
     0
 41
2.5
 42
0.625
 43
3.75
 44
1.25
 73
     0
 74
     0
 77
     1
140
2.5
141
2.5
143
0.03937007874016
146
0.75
147
0.625
171
     3
172
     1
271
     2
272
     2
274
     3
283
     0
284
     8
340
11
  0
ENDTAB
  0
TABLE
  2
BLOCK_RECORD
  5
1
330
0
100
AcDbSymbolTable
 70
     1
  0
BLOCK_RECORD
  5
1F
102
{ACAD_XDICTIONARY
360
441
102
}
330
1
100
AcDbSymbolTableRecord
100
AcDbBlockTableRecord
  2
*Model_Space
340
22
  0
BLOCK_RECORD
  5
1B
330
1
100
AcDbSymbolTableRecord
100
AcDbBlockTableRecord
  2
*Paper_Space
340
1E
  0
BLOCK_RECORD
  5
23
330
1
100
AcDbSymbolTableRecord
100
AcDbBlockTableRecord
  2
*Paper_Space0
340
2A1
  0
ENDTAB
  0
ENDSEC
  0
SECTION
  2
BLOCKS
  0
BLOCK
  5
20
330
1F
100
AcDbEntity
  8
0
100
AcDbBlockBegin
  2
*Model_Space
 70
     0
 10
0.0
 20
0.0
 30
0.0
  3
*Model_Space
  1

  0
ENDBLK
  5
21
330
1F
100
AcDbEntity
  8
0
100
AcDbBlockEnd
  0
BLOCK
  5
1C
330
1B
100
AcDbEntity
 67
     1
  8
0
100
AcDbBlockBegin
  2
*Paper_Space
 70
     0
 10
0.0
 20
0.0
 30
0.0
  3
*Paper_Space
  1

  0
ENDBLK
  5
1D
330
1B
100
AcDbEntity
 67
     1
  8
0
100
AcDbBlockEnd
  0
BLOCK
  5
24
330
23
100
AcDbEntity
 67
     1
  8
0
100
AcDbBlockBegin
  2
*Paper_Space0
 70
     0
 10
0.0
 20
0.0
 30
0.0
  3
*Paper_Space0
  1

  0
ENDBLK
  5
25
330
23
100
AcDbEntity
 67
     1
  8
0
100
AcDbBlockEnd
  0
ENDSEC
  0
SECTION
  2
ENTITIES
  0
LINE
  5
403
102
{ACAD_REACTORS
330
5F2
102
}
330
1F
100
AcDbEntity
  8
実線
100
AcDbLine
 10
529.6945656088397
 20
998.8233211243301
 30
0.0
 11
529.7906960058074
 21
998.6860326895142
 31
0.0
  0
ARC
  5
404
102
{ACAD_REACTORS
330
5F2
102
}
330
1F
100
AcDbEntity
  8
実線
100
AcDbCircle
 10
422.6383368865238
 20
1091.911107002397
 30
0.0
 40
10.00000000000002
100
AcDbArc
 50
54.99999999999904
 51
133.4958580179451
  0
ARC
  5
405
102
{ACAD_REACTORS
330
5F2
102
}
330
1F
100
AcDbEntity
  8
実線
100
AcDbCircle
 10
470.8194863850788
 20
1041.131417824558
 30
0.0
 40
79.99999999999984
100
AcDbArc
 50
43.49585801794283
 51
46.50414198205487
  0
ARC
  5
406
102
{ACAD_REACTORS
330
5F2
102
}
330
1F
100
AcDbEntity
  8
実線
100
AcDbCircle
 10
521.5991755629174
 20
1089.312567323113
 30
0.0
 40
9.999999999999976
100
AcDbArc
 50
325.0000000000026
 51
43.49585801794283
  0
LINE
  5
407
102
{ACAD_REACTORS
330
5F2
102
}
330
1F
100
AcDbEntity
  8
実線
100
AcDbLine
 10
529.7906960058074
 20
1083.576802959602
 30
0.0
 11
529.6945656088397
 21
1083.439514524786
 31
0.0
  0
ARC
  5
408
102
{ACAD_REACTORS
330
5F2
102
}
330
1F
100
AcDbEntity
  8
実線
100
AcDbCircle
 10
420.0397972072396
 20
1089.312567323113
 30
0.0
 40
9.999999999999996
100
AcDbArc
 50
136.5041419820572
 51
214.9999999999974
  0
ARC
  5
409
102
{ACAD_REACTORS
330
5F2
102
}
330
1F
100
AcDbEntity
  8
実線
100
AcDbCircle
 10
470.8194863850785
 20
1041.131417824558
 30
0.0
 40
79.9999999999998
100
AcDbArc
 50
133.4958580179451
 51
136.5041419820572
  0
ARC
  5
40A
102
{ACAD_REACTORS
330
5F2
102
}
330
1F
100
AcDbEntity
  8
実線
100
AcDbCircle
 10
470.819486385078
 20
1041.131417824548
 30
0.0
 40
79.99999999999343
100
AcDbArc
 50
313.4958580179451
 51
316.5041419820641
  0
LINE
  5
40B
102
{ACAD_REACTORS
330
5F2
102
}
330
1F
100
AcDbEntity
  8
実線
100
AcDbLine
 10
428.3741012500343
 20
1100.102627445287
 30
0.0
 11
428.5113896848509
 21
1100.006497048319
 31
0.0
  0
LINE
  5
40C
102
{ACAD_REACTORS
330
5F2
102
}
330
1F
100
AcDbEntity
  8
実線
100
AcDbLine
 10
513.1275830853063
 20
1100.006497048319
 30
0.0
 11
513.2648715201226
 21
1100.102627445287
 31
0.0
  0
ARC
  5
40D
102
{ACAD_REACTORS
330
5F2
102
}
330
1F
100
AcDbEntity
  8
実線
100
AcDbCircle
 10
519.0006358836332
 20
1091.911107002397
 30
0.0
 40
9.999999999999991
100
AcDbArc
 50
46.50414198205487
 51
125.0000000000009
  0
ARC
  5
40E
102
{ACAD_REACTORS
330
5F2
102
}
330
1F
100
AcDbEntity
  8
実線
100
AcDbCircle
 10
420.0397972072396
 20
992.9502683260029
 30
0.0
 40
9.999999999999591
100
AcDbArc
 50
145.0000000000026
 51
223.4958580179428
  0
LINE
  5
40F
102
{ACAD_REACTORS
330
5F2
102
}
330
1F
100
AcDbEntity
  8
実線
100
AcDbLine
 10
411.84827676435
 20
998.6860326895133
 30
0.0
 11
411.9444071613176
 21
998.8233211243301
 31
0.0
  0
LINE
  5
410
102
{ACAD_REACTORS
330
5F2
102
}
330
1F
100
AcDbEntity
  8
実線
100
AcDbLine
 10
411.9444071613172
 20
1083.439514524786
 30
0.0
 11
411.8482767643498
 21
1083.576802959602
 31
0.0
  0
ARC
  5
411
102
{ACAD_REACTORS
330
5F2
102
}
330
1F
100
AcDbEntity
  8
実線
100
AcDbCircle
 10
521.5991755629174
 20
992.9502683260029
 30
0.0
 40
10.0
100
AcDbArc
 50
316.5041419820572
 51
34.99999999999737
  0
ARC
  5
412
102
{ACAD_REACTORS
330
5F2
102
}
330
1F
100
AcDbEntity
  8
実線
100
AcDbCircle
 10
422.638336886524
 20
990.351728646719
 30
0.0
 40
9.999999999999982
100
AcDbArc
 50
226.5041419820549
 51
305.000000000001
  0
ARC
  5
413
102
{ACAD_REACTORS
330
5F2
102
}
330
1F
100
AcDbEntity
  8
実線
100
AcDbCircle
 10
519.0006358836333
 20
990.351728646719
 30
0.0
 40
10.00000000000038
100
AcDbArc
 50
234.999999999999
 51
313.4958580179451
  0
LINE
  5
414
102
{ACAD_REACTORS
330
5F2
102
}
330
1F
100
AcDbEntity
  8
実線
100
AcDbLine
 10
513.2648715201225
 20
982.1602082038291
 30
0.0
 11
513.1275830853061
 21
982.2563386007962
 31
0.0
  0
ARC
  5
415
102
{ACAD_REACTORS
330
5F2
102
}
330
1F
100
AcDbEntity
  8
実線
100
AcDbCircle
 10
470.8194863850788
 20
1041.131417824548
 30
0.0
 40
79.99999999999268
100
AcDbArc
 50
223.4958580179359
 51
226.5041419820549
  0
LINE
  5
416
102
{ACAD_REACTORS
330
5F2
102
}
330
1F
100
AcDbEntity
  8
実線
100
AcDbLine
 10
428.5113896848509
 20
982.2563386007971
 30
0.0
 11
428.3741012500343
 21
982.1602082038291
 31
0.0
  0
CIRCLE
  5
417
102
{ACAD_REACTORS
330
5F2
102
}
330
1F
100
AcDbEntity
  8
実線
100
AcDbCircle
 10
470.8194863850788
 20
1041.131417824558
 30
0.0
 40
43.3
  0
CIRCLE
  5
418
102
{ACAD_REACTORS
330
5F2
102
}
330
1F
100
AcDbEntity
  8
実線
100
AcDbCircle
 10
470.8194863850788
 20
1041.131417824558
 30
0.0
 40
44.0
  0
LINE
  5
419
102
{ACAD_REACTORS
330
5F2
102
}
330
1F
100
AcDbEntity
  8
実線
100
AcDbLine
 10
372.4194863850786
 20
1009.381417824558
 30
0.0
 11
405.6413650559086
 21
1009.381417824558
 31
0.0
  0
LINE
  5
41A
102
{ACAD_REACTORS
330
5F2
102
}
330
1F
100
AcDbEntity
  8
実線
100
AcDbLine
 10
405.6413650559086
 20
1072.881417824558
 30
0.0
 11
372.4194863850786
 21
1072.881417824558
 31
0.0
  0
LINE
  5
41B
102
{ACAD_REACTORS
330
5F2
102
}
330
1F
100
AcDbEntity
  8
実線
100
AcDbLine
 10
372.4194863850786
 20
1072.881417824558
 30
0.0
 11
369.3194863850786
 21
1079.881417824558
 31
0.0
  0
LINE
  5
41C
102
{ACAD_REACTORS
330
5F2
102
}
330
1F
100
AcDbEntity
  8
実線
100
AcDbLine
 10
369.3194863850786
 20
1002.381417824558
 30
0.0
 11
372.4194863850786
 21
1009.381417824558
 31
0.0
  0
LINE
  5
41D
102
{ACAD_REACTORS
330
5F2
102
}
330
1F
100
AcDbEntity
  8
実線
100
AcDbLine
 10
372.4194863850786
 20
1072.881417824558
 30
0.0
 11
372.4194863850786
 21
1009.381417824558
 31
0.0
  0
LINE
  5
41E
102
{ACAD_REACTORS
330
5F2
102
}
330
1F
100
AcDbEntity
  8
実線
100
AcDbLine
 10
365.8194863850787
 20
1002.381417824558
 30
0.0
 11
369.3194863850786
 21
1002.381417824558
 31
0.0
  0
LINE
  5
41F
102
{ACAD_REACTORS
330
5F2
102
}
330
1F
100
AcDbEntity
  8
実線
100
AcDbLine
 10
369.3194863850786
 20
1079.881417824558
 30
0.0
 11
365.8194863850786
 21
1079.881417824558
 31
0.0
  0
LINE
  5
420
102
{ACAD_REACTORS
330
5F2
102
}
330
1F
100
AcDbEntity
  8
実線
100
AcDbLine
 10
365.8194863850787
 20
1079.881417824558
 30
0.0
 11
365.8194863850787
 21
1002.381417824558
 31
0.0
  0
LINE
  5
421
102
{ACAD_REACTORS
330
5F2
102
}
330
1F
100
AcDbEntity
  8
実線
100
AcDbLine
 10
369.3194863850786
 20
1079.881417824558
 30
0.0
 11
369.3194863850786
 21
1002.381417824558
 31
0.0
  0
LINE
  5
422
102
{ACAD_REACTORS
330
5F2
102
}
330
1F
100
AcDbEntity
  8
実線
100
AcDbLine
 10
569.2194863850775
 20
1072.881417824537
 30
0.0
 11
535.9976077142583
 21
1072.881417824537
 31
0.0
  0
LINE
  5
423
102
{ACAD_REACTORS
330
5F2
102
}
330
1F
100
AcDbEntity
  8
実線
100
AcDbLine
 10
535.9976077142387
 20
1009.381417824538
 30
0.0
 11
569.2194863850775
 21
1009.381417824538
 31
0.0
  0
LINE
  5
424
102
{ACAD_REACTORS
330
5F2
102
}
330
1F
100
AcDbEntity
  8
実線
100
AcDbLine
 10
569.2194863850775
 20
1009.381417824538
 30
0.0
 11
572.3194863850774
 21
1002.381417824538
 31
0.0
  0
LINE
  5
425
102
{ACAD_REACTORS
330
5F2
102
}
330
1F
100
AcDbEntity
  8
実線
100
AcDbLine
 10
572.3194863850774
 20
1079.881417824538
 30
0.0
 11
569.2194863850775
 21
1072.881417824537
 31
0.0
  0
LINE
  5
426
102
{ACAD_REACTORS
330
5F2
102
}
330
1F
100
AcDbEntity
  8
実線
100
AcDbLine
 10
569.2194863850775
 20
1009.381417824538
 30
0.0
 11
569.2194863850775
 21
1072.881417824537
 31
0.0
  0
LINE
  5
427
102
{ACAD_REACTORS
330
5F2
102
}
330
1F
100
AcDbEntity
  8
実線
100
AcDbLine
 10
575.8194863850774
 20
1079.881417824538
 30
0.0
 11
572.3194863850774
 21
1079.881417824538
 31
0.0
  0
LINE
  5
428
102
{ACAD_REACTORS
330
5F2
102
}
330
1F
100
AcDbEntity
  8
実線
100
AcDbLine
 10
572.3194863850774
 20
1002.381417824538
 30
0.0
 11
575.8194863850774
 21
1002.381417824538
 31
0.0
  0
LINE
  5
429
102
{ACAD_REACTORS
330
5F2
102
}
330
1F
100
AcDbEntity
  8
実線
100
AcDbLine
 10
575.8194863850774
 20
1002.381417824538
 30
0.0
 11
575.8194863850774
 21
1079.881417824538
 31
0.0
  0
LINE
  5
42A
102
{ACAD_REACTORS
330
5F2
102
}
330
1F
100
AcDbEntity
  8
実線
100
AcDbLine
 10
572.3194863850774
 20
1002.381417824538
 30
0.0
 11
572.3194863850774
 21
1079.881417824538
 31
0.0
  0
CIRCLE
  5
42B
102
{ACAD_REACTORS
330
5F2
102
}
330
1F
100
AcDbEntity
  8
実線
100
AcDbCircle
 10
470.8194863850788
 20
1041.131417824558
 30
0.0
 40
46.0
  0
CIRCLE
  5
42C
102
{ACAD_REACTORS
330
5F2
102
}
330
1F
100
AcDbEntity
  8
実線
100
AcDbCircle
 10
470.8194863850788
 20
1041.131417824558
 30
0.0
 40
42.5
  0
CIRCLE
  5
42D
102
{ACAD_REACTORS
330
5F2
102
}
330
1F
100
AcDbEntity
  8
実線
100
AcDbCircle
 10
470.8194863850788
 20
1041.131417824558
 30
0.0
 40
16.5
  0
CIRCLE
  5
42E
102
{ACAD_REACTORS
330
5F2
102
}
330
1F
100
AcDbEntity
  8
実線
100
AcDbCircle
 10
470.8194863850788
 20
1041.131417824558
 30
0.0
 40
72.5
  0
LINE
  5
42F
102
{ACAD_REACTORS
330
5F2
102
}
330
1F
100
AcDbEntity
  8
実線
100
AcDbLine
 10
439.0694863850881
 20
975.953296495383
 30
0.0
 11
439.0694863850881
 21
942.7314178245469
 31
0.0
  0
LINE
  5
430
102
{ACAD_REACTORS
330
5F2
102
}
330
1F
100
AcDbEntity
  8
実線
100
AcDbLine
 10
439.0694863850881
 20
1139.531417824547
 30
0.0
 11
439.0694863850881
 21
1106.309539153733
 31
0.0
  0
LINE
  5
431
102
{ACAD_REACTORS
330
5F2
102
}
330
1F
100
AcDbEntity
  8
実線
100
AcDbLine
 10
502.5694863850881
 20
1106.309539153723
 30
0.0
 11
502.5694863850881
 21
1139.531417824547
 31
0.0
  0
LINE
  5
432
102
{ACAD_REACTORS
330
5F2
102
}
330
1F
100
AcDbEntity
  8
実線
100
AcDbLine
 10
502.5694863850881
 20
942.7314178245469
 30
0.0
 11
502.5694863850881
 21
975.953296495393
 31
0.0
  0
LINE
  5
433
102
{ACAD_REACTORS
330
5F2
102
}
330
1F
100
AcDbEntity
  8
実線
100
AcDbLine
 10
432.0694863850881
 20
1146.131417824547
 30
0.0
 11
432.0694863850881
 21
1142.631417824547
 31
0.0
  0
LINE
  5
434
102
{ACAD_REACTORS
330
5F2
102
}
330
1F
100
AcDbEntity
  8
実線
100
AcDbLine
 10
509.5694863850881
 20
1142.631417824547
 30
0.0
 11
509.5694863850881
 21
1146.131417824547
 31
0.0
  0
LINE
  5
435
102
{ACAD_REACTORS
330
5F2
102
}
330
1F
100
AcDbEntity
  8
実線
100
AcDbLine
 10
509.5694863850881
 20
1146.131417824547
 30
0.0
 11
432.0694863850881
 21
1146.131417824547
 31
0.0
  0
LINE
  5
436
102
{ACAD_REACTORS
330
5F2
102
}
330
1F
100
AcDbEntity
  8
実線
100
AcDbLine
 10
502.5694863850881
 20
1139.531417824547
 30
0.0
 11
509.5694863850881
 21
1142.631417824547
 31
0.0
  0
LINE
  5
437
102
{ACAD_REACTORS
330
5F2
102
}
330
1F
100
AcDbEntity
  8
実線
100
AcDbLine
 10
432.0694863850881
 20
1142.631417824547
 30
0.0
 11
439.0694863850881
 21
1139.531417824547
 31
0.0
  0
LINE
  5
438
102
{ACAD_REACTORS
330
5F2
102
}
330
1F
100
AcDbEntity
  8
実線
100
AcDbLine
 10
509.5694863850881
 20
1142.631417824547
 30
0.0
 11
432.0694863850881
 21
1142.631417824547
 31
0.0
  0
LINE
  5
439
102
{ACAD_REACTORS
330
5F2
102
}
330
1F
100
AcDbEntity
  8
実線
100
AcDbLine
 10
502.5694863850881
 20
1139.531417824547
 30
0.0
 11
439.0694863850881
 21
1139.531417824547
 31
0.0
  0
LINE
  5
43A
102
{ACAD_REACTORS
330
5F2
102
}
330
1F
100
AcDbEntity
  8
実線
100
AcDbLine
 10
439.0694863850881
 20
942.7314178245469
 30
0.0
 11
432.0694863850881
 21
939.631417824547
 31
0.0
  0
LINE
  5
43B
102
{ACAD_REACTORS
330
5F2
102
}
330
1F
100
AcDbEntity
  8
実線
100
AcDbLine
 10
509.5694863850881
 20
939.631417824547
 30
0.0
 11
502.5694863850881
 21
942.7314178245469
 31
0.0
  0
LINE
  5
43C
102
{ACAD_REACTORS
330
5F2
102
}
330
1F
100
AcDbEntity
  8
実線
100
AcDbLine
 10
439.0694863850881
 20
942.7314178245469
 30
0.0
 11
502.5694863850881
 21
942.7314178245469
 31
0.0
  0
LINE
  5
43D
102
{ACAD_REACTORS
330
5F2
102
}
330
1F
100
AcDbEntity
  8
実線
100
AcDbLine
 10
509.5694863850881
 20
936.131417824547
 30
0.0
 11
509.5694863850881
 21
939.631417824547
 31
0.0
  0
LINE
  5
43E
102
{ACAD_REACTORS
330
5F2
102
}
330
1F
100
AcDbEntity
  8
実線
100
AcDbLine
 10
432.0694863850881
 20
939.631417824547
 30
0.0
 11
432.0694863850881
 21
936.131417824547
 31
0.0
  0
LINE
  5
43F
102
{ACAD_REACTORS
330
5F2
102
}
330
1F
100
AcDbEntity
  8
実線
100
AcDbLine
 10
432.0694863850881
 20
936.131417824547
 30
0.0
 11
509.5694863850881
 21
936.131417824547
 31
0.0
  0
LINE
  5
440
102
{ACAD_REACTORS
330
5F2
102
}
330
1F
100
AcDbEntity
  8
実線
100
AcDbLine
 10
432.0694863850881
 20
939.631417824547
 30
0.0
 11
509.5694863850881
 21
939.631417824547
 31
0.0
  0
ARC
  5
443
102
{ACAD_REACTORS
330
5E7
102
}
330
1F
100
AcDbEntity
  8
実線
100
AcDbCircle
 10
470.8194863850788
 20
141.1314178245584
 30
0.0
 40
72.5
100
AcDbArc
 50
115.9719473351084
 51
125.7013224146308
  0
ARC
  5
444
102
{ACAD_REACTORS
330
5E7
102
}
330
1F
100
AcDbEntity
  8
実線
100
AcDbCircle
 10
470.8194863850788
 20
141.1314178245584
 30
0.0
 40
72.5
100
AcDbArc
 50
144.2986775853737
 51
154.0280526648828
  0
ARC
  5
445
102
{ACAD_REACTORS
330
5E7
102
}
330
1F
100
AcDbEntity
  8
実線
100
AcDbCircle
 10
470.8194863850788
 20
141.1314178245584
 30
0.0
 40
72.5
100
AcDbArc
 50
205.9719473351171
 51
215.7013224146262
  0
ARC
  5
446
102
{ACAD_REACTORS
330
5E7
102
}
330
1F
100
AcDbEntity
  8
実線
100
AcDbCircle
 10
470.8194863850788
 20
141.1314178245584
 30
0.0
 40
72.5
100
AcDbArc
 50
234.2986775853692
 51
244.0280526648916
  0
ARC
  5
447
102
{ACAD_REACTORS
330
5E7
102
}
330
1F
100
AcDbEntity
  8
実線
100
AcDbCircle
 10
470.8194863850788
 20
141.1314178245584
 30
0.0
 40
72.5
100
AcDbArc
 50
295.9719473351229
 51
305.7013224146308
  0
ARC
  5
448
102
{ACAD_REACTORS
330
5E7
102
}
330
1F
100
AcDbEntity
  8
実線
100
AcDbCircle
 10
470.8194863850788
 20
141.1314178245584
 30
0.0
 40
72.5
100
AcDbArc
 50
324.2986775853737
 51
334.0280526648974
  0
ARC
  5
449
102
{ACAD_REACTORS
330
5E7
102
}
330
1F
100
AcDbEntity
  8
実線
100
AcDbCircle
 10
470.8194863850788
 20
141.1314178245584
 30
0.0
 40
72.5
100
AcDbArc
 50
25.97194733513898
 51
35.70132241462626
  0
ARC
  5
44A
102
{ACAD_REACTORS
330
5E7
102
}
330
1F
100
AcDbEntity
  8
実線
100
AcDbCircle
 10
470.8194863850788
 20
141.1314178245584
 30
0.0
 40
72.5
100
AcDbArc
 50
54.29867758536919
 51
64.02805266487558
  0
ARC
  5
44B
102
{ACAD_REACTORS
330
5E7
102
}
330
1F
100
AcDbEntity
  8
実線
100
AcDbCircle
 10
470.8194863850788
 20
141.1314178245584
 30
0.0
 40
67.5
100
AcDbArc
 50
118.0583407610216
 51
124.2081770830598
  0
ARC
  5
44C
102
{ACAD_REACTORS
330
5E7
102
}
330
1F
100
AcDbEntity
  8
実線
100
AcDbCircle
 10
470.8194863850788
 20
141.1314178245584
 30
0.0
 40
67.5
100
AcDbArc
 50
145.7918229169424
 51
151.9416592389711
  0
ARC
  5
44D
102
{ACAD_REACTORS
330
5E7
102
}
330
1F
100
AcDbEntity
  8
実線
100
AcDbCircle
 10
470.8194863850788
 20
141.1314178245584
 30
0.0
 40
67.5
100
AcDbArc
 50
208.0583407610289
 51
214.2081770830576
  0
ARC
  5
44E
102
{ACAD_REACTORS
330
5E7
102
}
330
1F
100
AcDbEntity
  8
実線
100
AcDbCircle
 10
470.8194863850788
 20
141.1314178245584
 30
0.0
 40
67.5
100
AcDbArc
 50
235.7918229169401
 51
241.9416592389783
  0
ARC
  5
44F
102
{ACAD_REACTORS
330
5E7
102
}
330
1F
100
AcDbEntity
  8
実線
100
AcDbCircle
 10
470.8194863850788
 20
141.1314178245584
 30
0.0
 40
67.5
100
AcDbArc
 50
298.0583407610384
 51
304.2081770830599
  0
ARC
  5
450
102
{ACAD_REACTORS
330
5E7
102
}
330
1F
100
AcDbEntity
  8
実線
100
AcDbCircle
 10
470.8194863850788
 20
141.1314178245584
 30
0.0
 40
67.5
100
AcDbArc
 50
325.7918229169424
 51
331.9416592389857
  0
ARC
  5
451
102
{ACAD_REACTORS
330
5E7
102
}
330
1F
100
AcDbEntity
  8
実線
100
AcDbCircle
 10
470.8194863850788
 20
141.1314178245584
 30
0.0
 40
67.5
100
AcDbArc
 50
28.05834076105151
 51
34.2081770830576
  0
ARC
  5
452
102
{ACAD_REACTORS
330
5E7
102
}
330
1F
100
AcDbEntity
  8
実線
100
AcDbCircle
 10
470.8194863850788
 20
141.1314178245584
 30
0.0
 40
67.5
100
AcDbArc
 50
55.79182291694014
 51
61.94165923896161
  0
LINE
  5
453
102
{ACAD_REACTORS
330
5E7
102
}
330
1F
100
AcDbEntity
  8
実線
100
AcDbLine
 10
372.4194863850786
 20
109.3814178245584
 30
0.0
 11
425.9091590649623
 21
109.3814178245584
 31
0.0
  0
LINE
  5
454
102
{ACAD_REACTORS
330
5E7
102
}
330
1F
100
AcDbEntity
  8
実線
100
AcDbLine
 10
425.9091590649623
 20
172.8814178245584
 30
0.0
 11
372.4194863850786
 21
172.8814178245584
 31
0.0
  0
LINE
  5
455
102
{ACAD_REACTORS
330
5E7
102
}
330
1F
100
AcDbEntity
  8
実線
100
AcDbLine
 10
372.4194863850786
 20
109.3814178245584
 30
0.0
 11
372.4194863850786
 21
172.8814178245584
 31
0.0
  0
LINE
  5
456
102
{ACAD_REACTORS
330
5E7
102
}
330
1F
100
AcDbEntity
  8
実線
100
AcDbLine
 10
372.4194863850786
 20
172.8814178245584
 30
0.0
 11
369.3194863850786
 21
179.8814178245584
 31
0.0
  0
LINE
  5
457
102
{ACAD_REACTORS
330
5E7
102
}
330
1F
100
AcDbEntity
  8
実線
100
AcDbLine
 10
369.3194863850786
 20
102.3814178245584
 30
0.0
 11
372.4194863850786
 21
109.3814178245584
 31
0.0
  0
LINE
  5
458
102
{ACAD_REACTORS
330
5E7
102
}
330
1F
100
AcDbEntity
  8
実線
100
AcDbLine
 10
365.8194863850787
 20
102.3814178245584
 30
0.0
 11
365.8194863850787
 21
179.8814178245584
 31
0.0
  0
LINE
  5
459
102
{ACAD_REACTORS
330
5E7
102
}
330
1F
100
AcDbEntity
  8
実線
100
AcDbLine
 10
369.3194863850786
 20
102.3814178245584
 30
0.0
 11
369.3194863850786
 21
179.8814178245584
 31
0.0
  0
LINE
  5
45A
102
{ACAD_REACTORS
330
5E7
102
}
330
1F
100
AcDbEntity
  8
実線
100
AcDbLine
 10
365.8194863850787
 20
102.3814178245584
 30
0.0
 11
369.3194863850786
 21
102.3814178245584
 31
0.0
  0
LINE
  5
45B
102
{ACAD_REACTORS
330
5E7
102
}
330
1F
100
AcDbEntity
  8
実線
100
AcDbLine
 10
369.3194863850786
 20
179.8814178245584
 30
0.0
 11
365.8194863850786
 21
179.8814178245584
 31
0.0
  0
LINE
  5
45C
102
{ACAD_REACTORS
330
5E7
102
}
330
1F
100
AcDbEntity
  8
実線
100
AcDbLine
 10
569.2194863850775
 20
172.8814178245786
 30
0.0
 11
515.7298137051807
 21
172.8814178245786
 31
0.0
  0
LINE
  5
45D
102
{ACAD_REACTORS
330
5E7
102
}
330
1F
100
AcDbEntity
  8
実線
100
AcDbLine
 10
515.7298137052094
 20
109.3814178245786
 30
0.0
 11
569.2194863850775
 21
109.3814178245786
 31
0.0
  0
LINE
  5
45E
102
{ACAD_REACTORS
330
5E7
102
}
330
1F
100
AcDbEntity
  8
実線
100
AcDbLine
 10
569.2194863850775
 20
172.8814178245786
 30
0.0
 11
569.2194863850775
 21
109.3814178245786
 31
0.0
  0
LINE
  5
45F
102
{ACAD_REACTORS
330
5E7
102
}
330
1F
100
AcDbEntity
  8
実線
100
AcDbLine
 10
569.2194863850775
 20
109.3814178245786
 30
0.0
 11
572.3194863850774
 21
102.3814178245786
 31
0.0
  0
LINE
  5
460
102
{ACAD_REACTORS
330
5E7
102
}
330
1F
100
AcDbEntity
  8
実線
100
AcDbLine
 10
572.3194863850774
 20
179.8814178245787
 30
0.0
 11
569.2194863850775
 21
172.8814178245786
 31
0.0
  0
LINE
  5
461
102
{ACAD_REACTORS
330
5E7
102
}
330
1F
100
AcDbEntity
  8
実線
100
AcDbLine
 10
575.8194863850774
 20
179.8814178245787
 30
0.0
 11
575.8194863850774
 21
102.3814178245786
 31
0.0
  0
LINE
  5
462
102
{ACAD_REACTORS
330
5E7
102
}
330
1F
100
AcDbEntity
  8
実線
100
AcDbLine
 10
572.3194863850774
 20
179.8814178245787
 30
0.0
 11
572.3194863850774
 21
102.3814178245786
 31
0.0
  0
LINE
  5
463
102
{ACAD_REACTORS
330
5E7
102
}
330
1F
100
AcDbEntity
  8
実線
100
AcDbLine
 10
575.8194863850774
 20
179.8814178245787
 30
0.0
 11
572.3194863850774
 21
179.8814178245787
 31
0.0
  0
LINE
  5
464
102
{ACAD_REACTORS
330
5E7
102
}
330
1F
100
AcDbEntity
  8
実線
100
AcDbLine
 10
572.3194863850774
 20
102.3814178245786
 30
0.0
 11
575.8194863850774
 21
102.3814178245786
 31
0.0
  0
LINE
  5
465
102
{ACAD_REACTORS
330
5E7
102
}
330
1F
100
AcDbEntity
  8
実線
100
AcDbLine
 10
502.5694863850881
 20
166.1314178245472
 30
0.0
 11
502.5694863850881
 21
239.5314178245691
 31
0.0
  0
LINE
  5
466
102
{ACAD_REACTORS
330
5E7
102
}
330
1F
100
AcDbEntity
  8
実線
100
AcDbLine
 10
502.5694863850881
 20
42.73141782456912
 30
0.0
 11
502.5694863850881
 21
116.1314178245472
 31
0.0
  0
LINE
  5
467
102
{ACAD_REACTORS
330
5E7
102
}
330
1F
100
AcDbEntity
  8
実線
100
AcDbLine
 10
439.0694863850881
 20
116.1314178245692
 30
0.0
 11
439.0694863850881
 21
42.73141782456912
 31
0.0
  0
LINE
  5
468
102
{ACAD_REACTORS
330
5E7
102
}
330
1F
100
AcDbEntity
  8
実線
100
AcDbLine
 10
439.0694863850881
 20
239.5314178245691
 30
0.0
 11
439.0694863850881
 21
166.1314178245692
 31
0.0
  0
LINE
  5
469
102
{ACAD_REACTORS
330
5E7
102
}
330
1F
100
AcDbEntity
  8
実線
100
AcDbLine
 10
432.0694863850881
 20
246.1314178245692
 30
0.0
 11
509.5694863850881
 21
246.1314178245692
 31
0.0
  0
LINE
  5
46A
102
{ACAD_REACTORS
330
5E7
102
}
330
1F
100
AcDbEntity
  8
実線
100
AcDbLine
 10
432.0694863850881
 20
246.1314178245692
 30
0.0
 11
432.0694863850881
 21
242.6314178245692
 31
0.0
  0
LINE
  5
46B
102
{ACAD_REACTORS
330
5E7
102
}
330
1F
100
AcDbEntity
  8
実線
100
AcDbLine
 10
509.5694863850881
 20
242.6314178245692
 30
0.0
 11
509.5694863850881
 21
246.1314178245692
 31
0.0
  0
LINE
  5
46C
102
{ACAD_REACTORS
330
5E7
102
}
330
1F
100
AcDbEntity
  8
実線
100
AcDbLine
 10
432.0694863850881
 20
242.6314178245692
 30
0.0
 11
509.5694863850881
 21
242.6314178245692
 31
0.0
  0
LINE
  5
46D
102
{ACAD_REACTORS
330
5E7
102
}
330
1F
100
AcDbEntity
  8
実線
100
AcDbLine
 10
439.0694863850881
 20
239.5314178245691
 30
0.0
 11
502.5694863850881
 21
239.5314178245691
 31
0.0
  0
LINE
  5
46E
102
{ACAD_REACTORS
330
5E7
102
}
330
1F
100
AcDbEntity
  8
実線
100
AcDbLine
 10
502.5694863850881
 20
239.5314178245691
 30
0.0
 11
509.5694863850881
 21
242.6314178245692
 31
0.0
  0
LINE
  5
46F
102
{ACAD_REACTORS
330
5E7
102
}
330
1F
100
AcDbEntity
  8
実線
100
AcDbLine
 10
432.0694863850881
 20
242.6314178245692
 30
0.0
 11
439.0694863850881
 21
239.5314178245691
 31
0.0
  0
LINE
  5
470
102
{ACAD_REACTORS
330
5E7
102
}
330
1F
100
AcDbEntity
  8
実線
100
AcDbLine
 10
502.5694863850881
 20
42.73141782456912
 30
0.0
 11
439.0694863850881
 21
42.73141782456912
 31
0.0
  0
LINE
  5
471
102
{ACAD_REACTORS
330
5E7
102
}
330
1F
100
AcDbEntity
  8
実線
100
AcDbLine
 10
439.0694863850881
 20
42.73141782456912
 30
0.0
 11
432.0694863850881
 21
39.63141782456921
 31
0.0
  0
LINE
  5
472
102
{ACAD_REACTORS
330
5E7
102
}
330
1F
100
AcDbEntity
  8
実線
100
AcDbLine
 10
509.5694863850881
 20
39.63141782456921
 30
0.0
 11
502.5694863850881
 21
42.73141782456912
 31
0.0
  0
LINE
  5
473
102
{ACAD_REACTORS
330
5E7
102
}
330
1F
100
AcDbEntity
  8
実線
100
AcDbLine
 10
509.5694863850881
 20
36.13141782456921
 30
0.0
 11
432.0694863850881
 21
36.13141782456921
 31
0.0
  0
LINE
  5
474
102
{ACAD_REACTORS
330
5E7
102
}
330
1F
100
AcDbEntity
  8
実線
100
AcDbLine
 10
509.5694863850881
 20
39.63141782456921
 30
0.0
 11
432.0694863850881
 21
39.63141782456921
 31
0.0
  0
LINE
  5
475
102
{ACAD_REACTORS
330
5E7
102
}
330
1F
100
AcDbEntity
  8
実線
100
AcDbLine
 10
509.5694863850881
 20
36.13141782456921
 30
0.0
 11
509.5694863850881
 21
39.63141782456921
 31
0.0
  0
LINE
  5
476
102
{ACAD_REACTORS
330
5E7
102
}
330
1F
100
AcDbEntity
  8
実線
100
AcDbLine
 10
432.0694863850881
 20
39.63141782456921
 30
0.0
 11
432.0694863850881
 21
36.13141782456921
 31
0.0
  0
LINE
  5
477
102
{ACAD_REACTORS
330
5E7
102
}
330
1F
100
AcDbEntity
  8
実線
100
AcDbLine
 10
439.0694863850881
 20
192.6136381496664
 30
0.0
 11
428.3741012500343
 21
200.1026274452871
 31
0.0
  0
ARC
  5
478
102
{ACAD_REACTORS
330
5E7
102
}
330
1F
100
AcDbEntity
  8
実線
100
AcDbCircle
 10
422.638336886524
 20
191.9111070023973
 30
0.0
 40
9.999999999999982
100
AcDbArc
 50
54.99999999999904
 51
133.4958580179451
  0
ARC
  5
479
102
{ACAD_REACTORS
330
5E7
102
}
330
1F
100
AcDbEntity
  8
実線
100
AcDbCircle
 10
470.8194863850788
 20
141.1314178245686
 30
0.0
 40
79.99999999999268
100
AcDbArc
 50
133.4958580179451
 51
136.504141982064
  0
LINE
  5
47A
102
{ACAD_REACTORS
330
5E7
102
}
330
1F
100
AcDbEntity
  8
実線
100
AcDbLine
 10
411.84827676435
 20
183.5768029596029
 30
0.0
 11
419.337266059964
 21
172.8814178245584
 31
0.0
  0
ARC
  5
47B
102
{ACAD_REACTORS
330
5E7
102
}
330
1F
100
AcDbEntity
  8
実線
100
AcDbCircle
 10
420.0397972072396
 20
189.3125673231131
 30
0.0
 40
9.999999999999591
100
AcDbArc
 50
136.5041419820572
 51
214.9999999999974
  0
ARC
  5
47C
102
{ACAD_REACTORS
330
5E7
102
}
330
1F
100
AcDbEntity
  8
実線
100
AcDbCircle
 10
519.0006358836333
 20
191.9111070023973
 30
0.0
 40
10.00000000000038
100
AcDbArc
 50
46.50414198205487
 51
125.0000000000009
  0
LINE
  5
47D
102
{ACAD_REACTORS
330
5E7
102
}
330
1F
100
AcDbEntity
  8
実線
100
AcDbLine
 10
513.2648715201225
 20
200.1026274452875
 30
0.0
 11
502.5694863850881
 21
192.6136381496799
 31
0.0
  0
LINE
  5
47E
102
{ACAD_REACTORS
330
5E7
102
}
330
1F
100
AcDbEntity
  8
実線
100
AcDbLine
 10
522.3017067102074
 20
172.8814178245786
 30
0.0
 11
529.7906960058074
 21
183.5768029596026
 31
0.0
  0
ARC
  5
47F
102
{ACAD_REACTORS
330
5E7
102
}
330
1F
100
AcDbEntity
  8
実線
100
AcDbCircle
 10
521.5991755629174
 20
189.3125673231131
 30
0.0
 40
10.0
100
AcDbArc
 50
325.0000000000026
 51
43.49585801794283
  0
ARC
  5
480
102
{ACAD_REACTORS
330
5E7
102
}
330
1F
100
AcDbEntity
  8
実線
100
AcDbCircle
 10
470.819486385078
 20
141.1314178245686
 30
0.0
 40
79.99999999999343
100
AcDbArc
 50
43.49585801793593
 51
46.50414198205487
  0
ARC
  5
481
102
{ACAD_REACTORS
330
5E7
102
}
330
1F
100
AcDbEntity
  8
実線
100
AcDbCircle
 10
420.0397972072396
 20
92.9502683260037
 30
0.0
 40
9.999999999999996
100
AcDbArc
 50
145.0000000000026
 51
223.4958580179428
  0
ARC
  5
482
102
{ACAD_REACTORS
330
5E7
102
}
330
1F
100
AcDbEntity
  8
実線
100
AcDbCircle
 10
470.8194863850785
 20
141.1314178245581
 30
0.0
 40
79.9999999999998
100
AcDbArc
 50
223.4958580179428
 51
226.5041419820549
  0
ARC
  5
483
102
{ACAD_REACTORS
330
5E7
102
}
330
1F
100
AcDbEntity
  8
実線
100
AcDbCircle
 10
422.6383368865238
 20
90.35172864671961
 30
0.0
 40
10.00000000000002
100
AcDbArc
 50
226.5041419820549
 51
305.000000000001
  0
LINE
  5
484
102
{ACAD_REACTORS
330
5E7
102
}
330
1F
100
AcDbEntity
  8
実線
100
AcDbLine
 10
428.3741012500343
 20
82.1602082038296
 30
0.0
 11
439.0694863850881
 21
89.64919749945039
 31
0.0
  0
LINE
  5
485
102
{ACAD_REACTORS
330
5E7
102
}
330
1F
100
AcDbEntity
  8
実線
100
AcDbLine
 10
419.3372660599639
 20
109.3814178245584
 30
0.0
 11
411.8482767643498
 21
98.6860326895141
 31
0.0
  0
LINE
  5
486
102
{ACAD_REACTORS
330
5E7
102
}
330
1F
100
AcDbEntity
  8
実線
100
AcDbLine
 10
529.7906960058074
 20
98.6860326895141
 30
0.0
 11
522.301706710179
 21
109.3814178245786
 31
0.0
  0
ARC
  5
487
102
{ACAD_REACTORS
330
5E7
102
}
330
1F
100
AcDbEntity
  8
実線
100
AcDbCircle
 10
470.8194863850788
 20
141.1314178245581
 30
0.0
 40
79.99999999999984
100
AcDbArc
 50
313.4958580179451
 51
316.5041419820572
  0
ARC
  5
488
102
{ACAD_REACTORS
330
5E7
102
}
330
1F
100
AcDbEntity
  8
実線
100
AcDbCircle
 10
521.5991755629174
 20
92.9502683260037
 30
0.0
 40
9.999999999999976
100
AcDbArc
 50
316.5041419820572
 51
34.99999999999737
  0
LINE
  5
489
102
{ACAD_REACTORS
330
5E7
102
}
330
1F
100
AcDbEntity
  8
実線
100
AcDbLine
 10
502.5694863850881
 20
89.64919749943703
 30
0.0
 11
513.2648715201228
 21
82.1602082038296
 31
0.0
  0
ARC
  5
48A
102
{ACAD_REACTORS
330
5E7
102
}
330
1F
100
AcDbEntity
  8
実線
100
AcDbCircle
 10
519.0006358836332
 20
90.35172864671949
 30
0.0
 40
9.999999999999991
100
AcDbArc
 50
234.999999999999
 51
313.4958580179451
  0
ARC
  5
48B
102
{ACAD_REACTORS
330
5E7
102
}
330
1F
100
AcDbEntity
  8
実線
100
AcDbCircle
 10
470.8194863850788
 20
141.1314178245584
 30
0.0
 40
55.0
100
AcDbArc
 50
197.9496260048928
 51
234.7410514611884
  0
ARC
  5
48C
102
{ACAD_REACTORS
330
5E7
102
}
330
1F
100
AcDbEntity
  8
実線
100
AcDbCircle
 10
470.8194863850788
 20
141.1314178245584
 30
0.0
 40
55.0
100
AcDbArc
 50
305.258948538836
 51
342.0503739951344
  0
ARC
  5
48D
102
{ACAD_REACTORS
330
5E7
102
}
330
1F
100
AcDbEntity
  8
実線
100
AcDbCircle
 10
470.8194863850788
 20
141.1314178245584
 30
0.0
 40
55.0
100
AcDbArc
 50
17.94962600491346
 51
54.74105146116404
  0
ARC
  5
48E
102
{ACAD_REACTORS
330
5E7
102
}
330
1F
100
AcDbEntity
  8
実線
100
AcDbCircle
 10
470.8194863850788
 20
141.1314178245584
 30
0.0
 40
55.0
100
AcDbArc
 50
125.2589485388115
 51
162.0503739951071
  0
ARC
  5
48F
102
{ACAD_REACTORS
330
5E7
102
}
330
1F
100
AcDbEntity
  8
実線
100
AcDbCircle
 10
439.5694863850881
 20
119.1314178245692
 30
0.0
 40
3.0
100
AcDbArc
 50
270.0
 51
0.0
  0
LINE
  5
490
102
{ACAD_REACTORS
330
5E7
102
}
330
1F
100
AcDbEntity
  8
実線
100
AcDbLine
 10
425.5694863850881
 20
166.1314178245692
 30
0.0
 11
439.5694863850881
 21
166.1314178245692
 31
0.0
  0
LINE
  5
491
102
{ACAD_REACTORS
330
5E7
102
}
330
1F
100
AcDbEntity
  8
実線
100
AcDbLine
 10
422.5694863850881
 20
119.1314178245692
 30
0.0
 11
422.5694863850881
 21
163.1314178245692
 31
0.0
  0
LINE
  5
492
102
{ACAD_REACTORS
330
5E7
102
}
330
1F
100
AcDbEntity
  8
実線
100
AcDbLine
 10
439.5694863850881
 20
116.1314178245692
 30
0.0
 11
425.5694863850881
 21
116.1314178245692
 31
0.0
  0
LINE
  5
493
102
{ACAD_REACTORS
330
5E7
102
}
330
1F
100
AcDbEntity
  8
実線
100
AcDbLine
 10
442.5694863850881
 20
163.1314178245692
 30
0.0
 11
442.5694863850881
 21
119.1314178245692
 31
0.0
  0
ARC
  5
494
102
{ACAD_REACTORS
330
5E7
102
}
330
1F
100
AcDbEntity
  8
実線
100
AcDbCircle
 10
439.5694863850881
 20
163.1314178245692
 30
0.0
 40
3.0
100
AcDbArc
 50
0.0
 51
90.0
  0
ARC
  5
495
102
{ACAD_REACTORS
330
5E7
102
}
330
1F
100
AcDbEntity
  8
実線
100
AcDbCircle
 10
425.5694863850881
 20
163.1314178245692
 30
0.0
 40
3.0
100
AcDbArc
 50
90.0
 51
180.0
  0
ARC
  5
496
102
{ACAD_REACTORS
330
5E7
102
}
330
1F
100
AcDbEntity
  8
実線
100
AcDbCircle
 10
425.5694863850881
 20
119.1314178245692
 30
0.0
 40
3.0
100
AcDbArc
 50
180.0
 51
270.0
  0
LINE
  5
497
102
{ACAD_REACTORS
330
5E7
102
}
330
1F
100
AcDbEntity
  8
実線
100
AcDbLine
 10
499.0694863850688
 20
119.1314178245472
 30
0.0
 11
499.0694863850688
 21
163.1314178245473
 31
0.0
  0
ARC
  5
498
102
{ACAD_REACTORS
330
5E7
102
}
330
1F
100
AcDbEntity
  8
実線
100
AcDbCircle
 10
502.0694863850687
 20
163.1314178245473
 30
0.0
 40
3.0
100
AcDbArc
 50
90.0
 51
180.0
  0
ARC
  5
499
102
{ACAD_REACTORS
330
5E7
102
}
330
1F
100
AcDbEntity
  8
実線
100
AcDbCircle
 10
502.0694863850687
 20
119.1314178245472
 30
0.0
 40
3.0
100
AcDbArc
 50
180.0
 51
270.0
  0
ARC
  5
49A
102
{ACAD_REACTORS
330
5E7
102
}
330
1F
100
AcDbEntity
  8
実線
100
AcDbCircle
 10
516.0694863850688
 20
119.1314178245472
 30
0.0
 40
3.0
100
AcDbArc
 50
270.0
 51
0.0
  0
ARC
  5
49B
102
{ACAD_REACTORS
330
5E7
102
}
330
1F
100
AcDbEntity
  8
実線
100
AcDbCircle
 10
516.0694863850688
 20
163.1314178245473
 30
0.0
 40
3.0
100
AcDbArc
 50
0.0
 51
90.0
  0
LINE
  5
49C
102
{ACAD_REACTORS
330
5E7
102
}
330
1F
100
AcDbEntity
  8
実線
100
AcDbLine
 10
519.0694863850687
 20
163.1314178245473
 30
0.0
 11
519.0694863850687
 21
119.1314178245472
 31
0.0
  0
LINE
  5
49D
102
{ACAD_REACTORS
330
5E7
102
}
330
1F
100
AcDbEntity
  8
実線
100
AcDbLine
 10
502.0694863850687
 20
166.1314178245473
 30
0.0
 11
516.0694863850688
 21
166.1314178245473
 31
0.0
  0
LINE
  5
49E
102
{ACAD_REACTORS
330
5E7
102
}
330
1F
100
AcDbEntity
  8
実線
100
AcDbLine
 10
516.0694863850688
 20
116.1314178245472
 30
0.0
 11
502.0694863850687
 21
116.1314178245472
 31
0.0
  0
LINE
  5
49F
102
{ACAD_REACTORS
330
5F3
102
}
330
1F
100
AcDbEntity
  8
実線
100
AcDbLine
 10
1010.03979720723
 20
495.1314178245582
 30
0.0
 11
1131.599175562908
 21
495.1314178245582
 31
0.0
  0
LINE
  5
4A0
102
{ACAD_REACTORS
330
5F3
102
}
330
1F
100
AcDbEntity
  8
実線
100
AcDbLine
 10
1131.599175562908
 20
481.6314178245582
 30
0.0
 11
1131.599175562908
 21
495.1314178245582
 31
0.0
  0
LINE
  5
4A1
102
{ACAD_REACTORS
330
5F3
102
}
330
1F
100
AcDbEntity
  8
実線
100
AcDbLine
 10
1010.03979720723
 20
495.1314178245582
 30
0.0
 11
1010.03979720723
 21
481.6314178245582
 31
0.0
  0
LINE
  5
4A2
102
{ACAD_REACTORS
330
5F3
102
}
330
1F
100
AcDbEntity
  8
実線
100
AcDbLine
 10
1097.629458535011
 20
481.6314178245582
 30
0.0
 11
1097.629458535011
 21
495.1314178245582
 31
0.0
  0
LINE
  5
4A3
102
{ACAD_REACTORS
330
5F3
102
}
330
1F
100
AcDbEntity
  8
実線
100
AcDbLine
 10
1044.009514235128
 20
481.6314178245582
 30
0.0
 11
1044.009514235128
 21
495.1314178245582
 31
0.0
  0
LINE
  5
4A4
102
{ACAD_REACTORS
330
5F3
102
}
330
1F
100
AcDbEntity
  8
実線
100
AcDbLine
 10
998.3194863850698
 20
701.1314178245583
 30
0.0
 11
1143.319486385069
 21
701.1314178245583
 31
0.0
  0
LINE
  5
4A5
102
{ACAD_REACTORS
330
5F3
102
}
330
1F
100
AcDbEntity
  8
実線
100
AcDbLine
 10
1143.319486385069
 20
600.1314178245583
 30
0.0
 11
1143.319486385069
 21
701.1314178245583
 31
0.0
  0
LINE
  5
4A6
102
{ACAD_REACTORS
330
5F3
102
}
330
1F
100
AcDbEntity
  8
実線
100
AcDbLine
 10
998.3194863850698
 20
701.1314178245583
 30
0.0
 11
998.3194863850698
 21
600.1314178245583
 31
0.0
  0
LINE
  5
4A7
102
{ACAD_REACTORS
330
5F3
102
}
330
1F
100
AcDbEntity
  8
実線
100
AcDbLine
 10
1143.319486385069
 20
600.1314178245583
 30
0.0
 11
998.3194863850698
 21
600.1314178245583
 31
0.0
  0
LINE
  5
4A8
102
{ACAD_REACTORS
330
5F3
102
}
330
1F
100
AcDbEntity
  8
実線
100
AcDbLine
 10
1138.31948638507
 20
598.1314178245582
 30
0.0
 11
1138.31948638507
 21
600.1314178245583
 31
0.0
  0
LINE
  5
4A9
102
{ACAD_REACTORS
330
5F3
102
}
330
1F
100
AcDbEntity
  8
実線
100
AcDbLine
 10
1003.319486385069
 20
600.1314178245583
 30
0.0
 11
1003.319486385069
 21
598.1314178245582
 31
0.0
  0
LINE
  5
4AA
102
{ACAD_REACTORS
330
5F3
102
}
330
1F
100
AcDbEntity
  8
実線
100
AcDbLine
 10
1138.31948638507
 20
598.1314178245582
 30
0.0
 11
1003.319486385069
 21
598.1314178245582
 31
0.0
  0
LINE
  5
4AB
102
{ACAD_REACTORS
330
5F3
102
}
330
1F
100
AcDbEntity
  8
実線
100
AcDbLine
 10
1078.819486385069
 20
495.1755143731563
 30
0.0
 11
1078.819486385069
 21
533.1314178245583
 31
0.0
  0
LINE
  5
4AC
102
{ACAD_REACTORS
330
5F3
102
}
330
1F
100
AcDbEntity
  8
実線
100
AcDbLine
 10
1062.819486385069
 20
533.1314178245583
 30
0.0
 11
1062.819486385069
 21
495.1755143731563
 31
0.0
  0
LINE
  5
4AD
102
{ACAD_REACTORS
330
5F3
102
}
330
1F
100
AcDbEntity
  8
実線
100
AcDbLine
 10
1027.519486385069
 20
763.8314178245583
 30
0.0
 11
1114.119486385069
 21
763.8314178245583
 31
0.0
  0
LINE
  5
4AE
102
{ACAD_REACTORS
330
5F3
102
}
330
1F
100
AcDbEntity
  8
実線
100
AcDbLine
 10
1114.119486385069
 20
727.8314178245584
 30
0.0
 11
1114.119486385069
 21
763.8314178245583
 31
0.0
  0
LINE
  5
4AF
102
{ACAD_REACTORS
330
5F3
102
}
330
1F
100
AcDbEntity
  8
実線
100
AcDbLine
 10
1027.519486385069
 20
763.8314178245583
 30
0.0
 11
1027.519486385069
 21
727.8314178245584
 31
0.0
  0
LINE
  5
4B0
102
{ACAD_REACTORS
330
5F3
102
}
330
1F
100
AcDbEntity
  8
実線
100
AcDbLine
 10
1027.519486385069
 20
727.831417824558
 30
0.0
 11
1114.119486385069
 21
727.831417824558
 31
0.0
  0
LINE
  5
4B1
102
{ACAD_REACTORS
330
5F3
102
}
330
1F
100
AcDbEntity
  8
実線
100
AcDbLine
 10
1027.519486385069
 20
727.831417824558
 30
0.0
 11
1026.819486385069
 21
724.1314178245582
 31
0.0
  0
LINE
  5
4B2
102
{ACAD_REACTORS
330
5F3
102
}
330
1F
100
AcDbEntity
  8
実線
100
AcDbLine
 10
1114.81948638507
 20
724.1314178245582
 30
0.0
 11
1114.119486385069
 21
727.8314178245584
 31
0.0
  0
LINE
  5
4B3
102
{ACAD_REACTORS
330
5F3
102
}
330
1F
100
AcDbEntity
  8
実線
100
AcDbLine
 10
1026.819486385069
 20
724.1314178245582
 30
0.0
 11
1114.81948638507
 21
724.1314178245582
 31
0.0
  0
LINE
  5
4B4
102
{ACAD_REACTORS
330
5F3
102
}
330
1F
100
AcDbEntity
  8
実線
100
AcDbLine
 10
1169.219486385069
 20
472.8814178245584
 30
0.0
 11
1131.599175562908
 21
472.8814178245584
 31
0.0
  0
LINE
  5
4B5
102
{ACAD_REACTORS
330
5F3
102
}
330
1F
100
AcDbEntity
  8
実線
100
AcDbLine
 10
1124.535030531156
 20
409.3814178245584
 30
0.0
 11
1169.219486385069
 21
409.3814178245584
 31
0.0
  0
LINE
  5
4B6
102
{ACAD_REACTORS
330
5F3
102
}
330
1F
100
AcDbEntity
  8
実線
100
AcDbLine
 10
1175.819486385069
 20
402.3814178245584
 30
0.0
 11
1175.819486385069
 21
479.8814178245582
 31
0.0
  0
LINE
  5
4B7
102
{ACAD_REACTORS
330
5F3
102
}
330
1F
100
AcDbEntity
  8
実線
100
AcDbLine
 10
1175.819486385069
 20
479.8814178245582
 30
0.0
 11
1172.319486385069
 21
479.8814178245582
 31
0.0
  0
LINE
  5
4B8
102
{ACAD_REACTORS
330
5F3
102
}
330
1F
100
AcDbEntity
  8
実線
100
AcDbLine
 10
1172.319486385069
 20
402.3814178245584
 30
0.0
 11
1175.819486385069
 21
402.3814178245584
 31
0.0
  0
LINE
  5
4B9
102
{ACAD_REACTORS
330
5F3
102
}
330
1F
100
AcDbEntity
  8
実線
100
AcDbLine
 10
1172.319486385069
 20
402.3814178245584
 30
0.0
 11
1172.319486385069
 21
479.8814178245582
 31
0.0
  0
LINE
  5
4BA
102
{ACAD_REACTORS
330
5F3
102
}
330
1F
100
AcDbEntity
  8
実線
100
AcDbLine
 10
1169.219486385069
 20
409.3814178245584
 30
0.0
 11
1169.219486385069
 21
472.8814178245584
 31
0.0
  0
LINE
  5
4BB
102
{ACAD_REACTORS
330
5F3
102
}
330
1F
100
AcDbEntity
  8
実線
100
AcDbLine
 10
1169.219486385069
 20
409.3814178245584
 30
0.0
 11
1172.319486385069
 21
402.3814178245584
 31
0.0
  0
LINE
  5
4BC
102
{ACAD_REACTORS
330
5F3
102
}
330
1F
100
AcDbEntity
  8
実線
100
AcDbLine
 10
1172.319486385069
 20
479.8814178245582
 30
0.0
 11
1169.219486385069
 21
472.8814178245584
 31
0.0
  0
LINE
  5
4BD
102
{ACAD_REACTORS
330
5F3
102
}
330
1F
100
AcDbEntity
  8
実線
100
AcDbLine
 10
972.419486385071
 20
409.3814178245584
 30
0.0
 11
1017.103942238983
 21
409.3814178245584
 31
0.0
  0
LINE
  5
4BE
102
{ACAD_REACTORS
330
5F3
102
}
330
1F
100
AcDbEntity
  8
実線
100
AcDbLine
 10
1010.03979720723
 20
472.8814178245584
 30
0.0
 11
972.419486385071
 21
472.8814178245584
 31
0.0
  0
LINE
  5
4BF
102
{ACAD_REACTORS
330
5F3
102
}
330
1F
100
AcDbEntity
  8
実線
100
AcDbLine
 10
972.419486385071
 20
472.8814178245584
 30
0.0
 11
969.3194863850699
 21
479.8814178245582
 31
0.0
  0
LINE
  5
4C0
102
{ACAD_REACTORS
330
5F3
102
}
330
1F
100
AcDbEntity
  8
実線
100
AcDbLine
 10
969.3194863850699
 20
402.3814178245584
 30
0.0
 11
972.419486385071
 21
409.3814178245584
 31
0.0
  0
LINE
  5
4C1
102
{ACAD_REACTORS
330
5F3
102
}
330
1F
100
AcDbEntity
  8
実線
100
AcDbLine
 10
972.419486385071
 20
472.8814178245584
 30
0.0
 11
972.419486385071
 21
409.3814178245584
 31
0.0
  0
LINE
  5
4C2
102
{ACAD_REACTORS
330
5F3
102
}
330
1F
100
AcDbEntity
  8
実線
100
AcDbLine
 10
965.8194863850708
 20
402.3814178245584
 30
0.0
 11
969.3194863850699
 21
402.3814178245584
 31
0.0
  0
LINE
  5
4C3
102
{ACAD_REACTORS
330
5F3
102
}
330
1F
100
AcDbEntity
  8
実線
100
AcDbLine
 10
969.3194863850699
 20
479.8814178245582
 30
0.0
 11
965.8194863850708
 21
479.8814178245582
 31
0.0
  0
LINE
  5
4C4
102
{ACAD_REACTORS
330
5F3
102
}
330
1F
100
AcDbEntity
  8
実線
100
AcDbLine
 10
965.8194863850708
 20
402.3814178245584
 30
0.0
 11
965.8194863850708
 21
479.8814178245582
 31
0.0
  0
LINE
  5
4C5
102
{ACAD_REACTORS
330
5F3
102
}
330
1F
100
AcDbEntity
  8
実線
100
AcDbLine
 10
969.3194863850699
 20
402.3814178245584
 30
0.0
 11
969.3194863850699
 21
479.8814178245582
 31
0.0
  0
LINE
  5
4C6
102
{ACAD_REACTORS
330
5F3
102
}
330
1F
100
AcDbEntity
  8
実線
100
AcDbLine
 10
1024.819486385069
 20
717.1314178245583
 30
0.0
 11
1116.81948638507
 21
717.1314178245583
 31
0.0
  0
LINE
  5
4C7
102
{ACAD_REACTORS
330
5F3
102
}
330
1F
100
AcDbEntity
  8
実線
100
AcDbLine
 10
1116.81948638507
 20
706.1314178245583
 30
0.0
 11
1116.81948638507
 21
717.1314178245583
 31
0.0
  0
LINE
  5
4C8
102
{ACAD_REACTORS
330
5F3
102
}
330
1F
100
AcDbEntity
  8
実線
100
AcDbLine
 10
1024.819486385069
 20
717.1314178245583
 30
0.0
 11
1024.819486385069
 21
706.1314178245583
 31
0.0
  0
LINE
  5
4C9
102
{ACAD_REACTORS
330
5F3
102
}
330
1F
100
AcDbEntity
  8
実線
100
AcDbLine
 10
1087.819486385069
 20
717.1314178245583
 30
0.0
 11
1087.819486385069
 21
724.1314178245582
 31
0.0
  0
LINE
  5
4CA
102
{ACAD_REACTORS
330
5F3
102
}
330
1F
100
AcDbEntity
  8
実線
100
AcDbLine
 10
1053.819486385069
 20
724.1314178245588
 30
0.0
 11
1053.819486385069
 21
717.1314178245584
 31
0.0
  0
LINE
  5
4CB
102
{ACAD_REACTORS
330
5F3
102
}
330
1F
100
AcDbEntity
  8
実線
100
AcDbLine
 10
1113.319486385069
 20
763.8314178245583
 30
0.0
 11
1113.319486385069
 21
840.8314178245584
 31
0.0
  0
LINE
  5
4CC
102
{ACAD_REACTORS
330
5F3
102
}
330
1F
100
AcDbEntity
  8
実線
100
AcDbLine
 10
1028.319486385069
 20
840.8314178245584
 30
0.0
 11
1028.319486385069
 21
763.8314178245583
 31
0.0
  0
LINE
  5
4CD
102
{ACAD_REACTORS
330
5F3
102
}
330
1F
100
AcDbEntity
  8
実線
100
AcDbLine
 10
1054.319486385069
 20
850.0314178245584
 30
0.0
 11
1087.319486385069
 21
850.0314178245584
 31
0.0
  0
LINE
  5
4CE
102
{ACAD_REACTORS
330
5F3
102
}
330
1F
100
AcDbEntity
  8
実線
100
AcDbLine
 10
1054.319486385069
 20
850.0314178245584
 30
0.0
 11
1028.319486385069
 21
840.8314178245584
 31
0.0
  0
LINE
  5
4CF
102
{ACAD_REACTORS
330
5F3
102
}
330
1F
100
AcDbEntity
  8
実線
100
AcDbLine
 10
1113.319486385069
 20
840.8314178245584
 30
0.0
 11
1087.319486385069
 21
850.0314178245584
 31
0.0
  0
LINE
  5
4D0
102
{ACAD_REACTORS
330
5F3
102
}
330
1F
100
AcDbEntity
  8
実線
100
AcDbLine
 10
1028.319486385069
 20
840.8314178245584
 30
0.0
 11
1113.319486385069
 21
840.8314178245584
 31
0.0
  0
LINE
  5
4D1
102
{ACAD_REACTORS
330
5F3
102
}
330
1F
100
AcDbEntity
  8
実線
100
AcDbLine
 10
1001.319486385069
 20
706.1314178245583
 30
0.0
 11
1140.319486385069
 21
706.1314178245583
 31
0.0
  0
ARC
  5
4D2
102
{ACAD_REACTORS
330
5F3
102
}
330
1F
100
AcDbEntity
  8
実線
100
AcDbCircle
 10
1140.319486385069
 20
703.1314178245582
 30
0.0
 40
3.0
100
AcDbArc
 50
0.0
 51
90.0
  0
ARC
  5
4D3
102
{ACAD_REACTORS
330
5F3
102
}
330
1F
100
AcDbEntity
  8
実線
100
AcDbCircle
 10
1001.319486385069
 20
703.1314178245582
 30
0.0
 40
3.0
100
AcDbArc
 50
90.0
 51
180.0
  0
LINE
  5
4D4
102
{ACAD_REACTORS
330
5F3
102
}
330
1F
100
AcDbEntity
  8
実線
100
AcDbLine
 10
1143.319486385069
 20
701.1314178245583
 30
0.0
 11
1143.319486385069
 21
703.1314178245582
 31
0.0
  0
LINE
  5
4D5
102
{ACAD_REACTORS
330
5F3
102
}
330
1F
100
AcDbEntity
  8
実線
100
AcDbLine
 10
998.3194863850698
 20
703.1314178245582
 30
0.0
 11
998.3194863850698
 21
701.1314178245583
 31
0.0
  0
CIRCLE
  5
4D6
102
{ACAD_REACTORS
330
5F3
102
}
330
1F
100
AcDbEntity
  8
実線
100
AcDbCircle
 10
1070.81948638506
 20
377.1314178245582
 30
0.0
 40
38.75
  0
LINE
  5
4D7
102
{ACAD_REACTORS
330
5F3
102
}
330
1F
100
AcDbEntity
  8
実線
100
AcDbLine
 10
1133.119486385069
 20
598.1314178245582
 30
0.0
 11
1133.119486385069
 21
546.6314178245583
 31
0.0
  0
ARC
  5
4D8
102
{ACAD_REACTORS
330
5F3
102
}
330
1F
100
AcDbEntity
  8
実線
100
AcDbCircle
 10
1066.119486385069
 20
546.6314178245583
 30
0.0
 40
66.99999999999993
100
AcDbArc
 50
309.7665840691653
 51
0.0
  0
ARC
  5
4D9
102
{ACAD_REACTORS
330
5F3
102
}
330
1F
100
AcDbEntity
  8
実線
100
AcDbCircle
 10
1066.119486385069
 20
546.6314178245584
 30
0.0
 40
53.0
100
AcDbArc
 50
283.6639089969457
 51
345.2431843936698
  0
ARC
  5
4DA
102
{ACAD_REACTORS
330
5F3
102
}
330
1F
100
AcDbEntity
  8
実線
100
AcDbCircle
 10
1075.519486385069
 20
546.6314178245583
 30
0.0
 40
66.99999999999993
100
AcDbArc
 50
180.0
 51
230.2334159308347
  0
ARC
  5
4DB
102
{ACAD_REACTORS
330
5F3
102
}
330
1F
100
AcDbEntity
  8
実線
100
AcDbCircle
 10
1075.519486385069
 20
546.6314178245584
 30
0.0
 40
53.0
100
AcDbArc
 50
194.7568156063301
 51
256.3360910030543
  0
LINE
  5
4DC
102
{ACAD_REACTORS
330
5F3
102
}
330
1F
100
AcDbEntity
  8
実線
100
AcDbLine
 10
1008.519486385069
 20
598.1314178245582
 30
0.0
 11
1008.519486385069
 21
546.6314178245583
 31
0.0
  0
LINE
  5
4DD
102
{ACAD_REACTORS
330
5F3
102
}
330
1F
100
AcDbEntity
  8
実線
100
AcDbLine
 10
1022.676470276811
 20
533.1314178245583
 30
0.0
 11
1022.676470276811
 21
598.1314178245582
 31
0.0
  0
LINE
  5
4DE
102
{ACAD_REACTORS
330
5F3
102
}
330
1F
100
AcDbEntity
  8
実線
100
AcDbLine
 10
1022.676470276811
 20
533.1314178245583
 30
0.0
 11
1118.962502493328
 21
533.1314178245583
 31
0.0
  0
LINE
  5
4DF
102
{ACAD_REACTORS
330
5F3
102
}
330
1F
100
AcDbEntity
  8
実線
100
AcDbLine
 10
1118.962502493328
 20
598.1314178245582
 30
0.0
 11
1118.962502493328
 21
533.1314178245583
 31
0.0
  0
LINE
  5
4E0
102
{ACAD_REACTORS
330
5F3
102
}
330
1F
100
AcDbEntity
  8
実線
100
AcDbLine
 10
1119.06948638506
 20
401.4914187790354
 30
0.0
 11
1124.011006827958
 21
408.5486413498378
 31
0.0
  0
LINE
  5
4E1
102
{ACAD_REACTORS
330
5F3
102
}
330
1F
100
AcDbEntity
  8
実線
100
AcDbLine
 10
1017.627965942179
 20
408.5486413498378
 30
0.0
 11
1022.569486385079
 21
401.4914187790351
 31
0.0
  0
LINE
  5
4E2
102
{ACAD_REACTORS
330
5F3
102
}
330
1F
100
AcDbEntity
  8
実線
100
AcDbLine
 10
1010.03979720723
 20
481.6314178245582
 30
0.0
 11
1131.599175562908
 21
481.6314178245582
 31
0.0
  0
ARC
  5
4E3
102
{ACAD_REACTORS
330
5F3
102
}
330
1F
100
AcDbEntity
  8
実線
100
AcDbCircle
 10
1115.819486385069
 20
414.2844057133483
 30
0.0
 40
10.0
100
AcDbArc
 50
325.0000000000026
 51
330.6397780086127
  0
ARC
  5
4E4
102
{ACAD_REACTORS
330
5F3
102
}
330
1F
100
AcDbEntity
  8
実線
100
AcDbCircle
 10
1025.819486385069
 20
414.2844057133483
 30
0.0
 40
10.0
100
AcDbArc
 50
209.3602219913873
 51
214.9999999999974
  0
LINE
  5
4E5
102
{ACAD_REACTORS
330
5F3
102
}
330
1F
100
AcDbEntity
  8
実線
100
AcDbLine
 10
1131.599175562908
 20
466.6314178245584
 30
0.0
 11
1131.599175562908
 21
481.6314178245582
 31
0.0
  0
LINE
  5
4E6
102
{ACAD_REACTORS
330
5F3
102
}
330
1F
100
AcDbEntity
  8
実線
100
AcDbLine
 10
1131.599175562908
 20
466.6314178245584
 30
0.0
 11
1097.629458535011
 21
466.6314178245584
 31
0.0
  0
LINE
  5
4E7
102
{ACAD_REACTORS
330
5F3
102
}
330
1F
100
AcDbEntity
  8
実線
100
AcDbLine
 10
1010.03979720723
 20
466.6314178245584
 30
0.0
 11
1044.009514235128
 21
466.6314178245584
 31
0.0
  0
LINE
  5
4E8
102
{ACAD_REACTORS
330
5F3
102
}
330
1F
100
AcDbEntity
  8
実線
100
AcDbLine
 10
1010.03979720723
 20
481.6314178245582
 30
0.0
 11
1010.03979720723
 21
466.6314178245584
 31
0.0
  0
LINE
  5
4E9
102
{ACAD_REACTORS
330
5F3
102
}
330
1F
100
AcDbEntity
  8
実線
100
AcDbLine
 10
1097.629458535011
 20
466.6314178245584
 30
0.0
 11
1097.629458535011
 21
481.6314178245582
 31
0.0
  0
LINE
  5
4EA
102
{ACAD_REACTORS
330
5F3
102
}
330
1F
100
AcDbEntity
  8
実線
100
AcDbLine
 10
1044.009514235128
 20
466.6314178245584
 30
0.0
 11
1044.009514235128
 21
481.6314178245582
 31
0.0
  0
LINE
  5
4EB
102
{ACAD_REACTORS
330
5F3
102
}
330
1F
100
AcDbEntity
  8
実線
100
AcDbLine
 10
1119.06948638506
 20
343.8814178245584
 30
0.0
 11
1099.06948638506
 21
343.8814178245584
 31
0.0
  0
LINE
  5
4EC
102
{ACAD_REACTORS
330
5F3
102
}
330
1F
100
AcDbEntity
  8
実線
100
AcDbLine
 10
1119.06948638506
 20
408.3163719225394
 30
0.0
 11
1119.06948638506
 21
343.8814178245584
 31
0.0
  0
LINE
  5
4ED
102
{ACAD_REACTORS
330
5F3
102
}
330
1F
100
AcDbEntity
  8
実線
100
AcDbLine
 10
1099.06948638506
 20
343.8814178245584
 30
0.0
 11
1099.06948638506
 21
350.6078434048086
 31
0.0
  0
LINE
  5
4EE
102
{ACAD_REACTORS
330
5F3
102
}
330
1F
100
AcDbEntity
  8
実線
100
AcDbLine
 10
1042.569486385079
 20
343.8814178245584
 30
0.0
 11
1022.569486385079
 21
343.8814178245584
 31
0.0
  0
LINE
  5
4EF
102
{ACAD_REACTORS
330
5F3
102
}
330
1F
100
AcDbEntity
  8
実線
100
AcDbLine
 10
1042.569486385079
 20
350.6078434047881
 30
0.0
 11
1042.569486385079
 21
343.8814178245584
 31
0.0
  0
LINE
  5
4F0
102
{ACAD_REACTORS
330
5F3
102
}
330
1F
100
AcDbEntity
  8
実線
100
AcDbLine
 10
1022.569486385079
 20
343.8814178245584
 30
0.0
 11
1022.569486385079
 21
408.3163719225522
 31
0.0
  0
LINE
  5
4F1
102
{ACAD_REACTORS
330
5F4
102
}
330
1F
100
AcDbEntity
  8
実線
100
AcDbLine
 10
710.0397972072498
 20
481.6314178245583
 30
0.0
 11
831.5991755629278
 21
481.6314178245583
 31
0.0
  0
LINE
  5
4F2
102
{ACAD_REACTORS
330
5F4
102
}
330
1F
100
AcDbEntity
  8
実線
100
AcDbLine
 10
710.0397972072498
 20
495.1314178245584
 30
0.0
 11
831.5991755629278
 21
495.1314178245584
 31
0.0
  0
LINE
  5
4F3
102
{ACAD_REACTORS
330
5F4
102
}
330
1F
100
AcDbEntity
  8
実線
100
AcDbLine
 10
831.5991755629278
 20
481.6314178245583
 30
0.0
 11
831.5991755629278
 21
495.1314178245584
 31
0.0
  0
LINE
  5
4F4
102
{ACAD_REACTORS
330
5F4
102
}
330
1F
100
AcDbEntity
  8
実線
100
AcDbLine
 10
710.0397972072498
 20
495.1314178245584
 30
0.0
 11
710.0397972072498
 21
481.6314178245583
 31
0.0
  0
LINE
  5
4F5
102
{ACAD_REACTORS
330
5F4
102
}
330
1F
100
AcDbEntity
  8
実線
100
AcDbLine
 10
797.6294585350298
 20
481.6314178245583
 30
0.0
 11
797.6294585350298
 21
495.1314178245584
 31
0.0
  0
LINE
  5
4F6
102
{ACAD_REACTORS
330
5F4
102
}
330
1F
100
AcDbEntity
  8
実線
100
AcDbLine
 10
744.0095142351477
 20
481.6314178245583
 30
0.0
 11
744.0095142351477
 21
495.1314178245584
 31
0.0
  0
LINE
  5
4F7
102
{ACAD_REACTORS
330
5F4
102
}
330
1F
100
AcDbEntity
  8
実線
100
AcDbLine
 10
698.3194863850889
 20
600.1314178245584
 30
0.0
 11
843.3194863850889
 21
600.1314178245584
 31
0.0
  0
LINE
  5
4F8
102
{ACAD_REACTORS
330
5F4
102
}
330
1F
100
AcDbEntity
  8
実線
100
AcDbLine
 10
843.3194863850889
 20
600.1314178245584
 30
0.0
 11
843.3194863850889
 21
701.1314178245584
 31
0.0
  0
LINE
  5
4F9
102
{ACAD_REACTORS
330
5F4
102
}
330
1F
100
AcDbEntity
  8
実線
100
AcDbLine
 10
698.3194863850889
 20
701.1314178245584
 30
0.0
 11
698.3194863850889
 21
600.1314178245584
 31
0.0
  0
LINE
  5
4FA
102
{ACAD_REACTORS
330
5F4
102
}
330
1F
100
AcDbEntity
  8
実線
100
AcDbLine
 10
703.3194863850889
 20
598.1314178245583
 30
0.0
 11
838.3194863850889
 21
598.1314178245583
 31
0.0
  0
LINE
  5
4FB
102
{ACAD_REACTORS
330
5F4
102
}
330
1F
100
AcDbEntity
  8
実線
100
AcDbLine
 10
838.3194863850889
 20
598.1314178245583
 30
0.0
 11
838.3194863850889
 21
600.1314178245584
 31
0.0
  0
LINE
  5
4FC
102
{ACAD_REACTORS
330
5F4
102
}
330
1F
100
AcDbEntity
  8
実線
100
AcDbLine
 10
703.3194863850889
 20
600.1314178245584
 30
0.0
 11
703.3194863850889
 21
598.1314178245583
 31
0.0
  0
LINE
  5
4FD
102
{ACAD_REACTORS
330
5F4
102
}
330
1F
100
AcDbEntity
  8
実線
100
AcDbLine
 10
814.1194863850888
 20
763.8314178245584
 30
0.0
 11
727.5194863850887
 21
763.8314178245584
 31
0.0
  0
LINE
  5
4FE
102
{ACAD_REACTORS
330
5F4
102
}
330
1F
100
AcDbEntity
  8
実線
100
AcDbLine
 10
814.1194863850888
 20
727.8314178245586
 30
0.0
 11
814.1194863850888
 21
763.8314178245584
 31
0.0
  0
LINE
  5
4FF
102
{ACAD_REACTORS
330
5F4
102
}
330
1F
100
AcDbEntity
  8
実線
100
AcDbLine
 10
727.5194863850887
 20
763.8314178245584
 30
0.0
 11
727.5194863850887
 21
727.8314178245586
 31
0.0
  0
LINE
  5
500
102
{ACAD_REACTORS
330
5F4
102
}
330
1F
100
AcDbEntity
  8
実線
100
AcDbLine
 10
726.8194863850888
 20
724.1314178245584
 30
0.0
 11
814.8194863850889
 21
724.1314178245584
 31
0.0
  0
LINE
  5
501
102
{ACAD_REACTORS
330
5F4
102
}
330
1F
100
AcDbEntity
  8
実線
100
AcDbLine
 10
814.1194863850888
 20
727.8314178245582
 30
0.0
 11
727.5194863850887
 21
727.8314178245582
 31
0.0
  0
LINE
  5
502
102
{ACAD_REACTORS
330
5F4
102
}
330
1F
100
AcDbEntity
  8
実線
100
AcDbLine
 10
727.5194863850887
 20
727.8314178245582
 30
0.0
 11
726.8194863850888
 21
724.1314178245584
 31
0.0
  0
LINE
  5
503
102
{ACAD_REACTORS
330
5F4
102
}
330
1F
100
AcDbEntity
  8
実線
100
AcDbLine
 10
814.8194863850889
 20
724.1314178245584
 30
0.0
 11
814.1194863850888
 21
727.8314178245586
 31
0.0
  0
CIRCLE
  5
504
102
{ACAD_REACTORS
330
5F4
102
}
330
1F
100
AcDbEntity
  8
実線
100
AcDbCircle
 10
770.8194863850689
 20
441.1314178245585
 30
0.0
 40
38.75
  0
LINE
  5
505
102
{ACAD_REACTORS
330
5F4
102
}
330
1F
100
AcDbEntity
  8
実線
100
AcDbLine
 10
816.8194863850889
 20
717.1314178245584
 30
0.0
 11
724.8194863850889
 21
717.1314178245584
 31
0.0
  0
LINE
  5
506
102
{ACAD_REACTORS
330
5F4
102
}
330
1F
100
AcDbEntity
  8
実線
100
AcDbLine
 10
816.8194863850889
 20
706.1314178245583
 30
0.0
 11
816.8194863850889
 21
717.1314178245584
 31
0.0
  0
LINE
  5
507
102
{ACAD_REACTORS
330
5F4
102
}
330
1F
100
AcDbEntity
  8
実線
100
AcDbLine
 10
724.8194863850889
 20
717.1314178245584
 30
0.0
 11
724.8194863850889
 21
706.1314178245583
 31
0.0
  0
LINE
  5
508
102
{ACAD_REACTORS
330
5F4
102
}
330
1F
100
AcDbEntity
  8
実線
100
AcDbLine
 10
787.8194863850889
 20
717.1314178245584
 30
0.0
 11
787.8194863850889
 21
724.1314178245584
 31
0.0
  0
LINE
  5
509
102
{ACAD_REACTORS
330
5F4
102
}
330
1F
100
AcDbEntity
  8
実線
100
AcDbLine
 10
753.8194863850889
 20
724.1314178245588
 30
0.0
 11
753.8194863850889
 21
717.1314178245585
 31
0.0
  0
LINE
  5
50A
102
{ACAD_REACTORS
330
5F4
102
}
330
1F
100
AcDbEntity
  8
実線
100
AcDbLine
 10
813.3194863850889
 20
763.8314178245584
 30
0.0
 11
813.3194863850889
 21
840.8314178245586
 31
0.0
  0
LINE
  5
50B
102
{ACAD_REACTORS
330
5F4
102
}
330
1F
100
AcDbEntity
  8
実線
100
AcDbLine
 10
728.3194863850889
 20
840.8314178245586
 30
0.0
 11
728.3194863850889
 21
763.8314178245584
 31
0.0
  0
LINE
  5
50C
102
{ACAD_REACTORS
330
5F4
102
}
330
1F
100
AcDbEntity
  8
実線
100
AcDbLine
 10
728.3194863850889
 20
840.8314178245586
 30
0.0
 11
813.3194863850889
 21
840.8314178245586
 31
0.0
  0
LINE
  5
50D
102
{ACAD_REACTORS
330
5F4
102
}
330
1F
100
AcDbEntity
  8
実線
100
AcDbLine
 10
787.3194863850889
 20
850.0314178245584
 30
0.0
 11
754.3194863850889
 21
850.0314178245584
 31
0.0
  0
LINE
  5
50E
102
{ACAD_REACTORS
330
5F4
102
}
330
1F
100
AcDbEntity
  8
実線
100
AcDbLine
 10
754.3194863850889
 20
850.0314178245584
 30
0.0
 11
728.3194863850889
 21
840.8314178245586
 31
0.0
  0
LINE
  5
50F
102
{ACAD_REACTORS
330
5F4
102
}
330
1F
100
AcDbEntity
  8
実線
100
AcDbLine
 10
813.3194863850889
 20
840.8314178245586
 30
0.0
 11
787.3194863850889
 21
850.0314178245584
 31
0.0
  0
LINE
  5
510
102
{ACAD_REACTORS
330
5F4
102
}
330
1F
100
AcDbEntity
  8
実線
100
AcDbLine
 10
843.3194863850889
 20
701.1314178245584
 30
0.0
 11
698.3194863850889
 21
701.1314178245584
 31
0.0
  0
LINE
  5
511
102
{ACAD_REACTORS
330
5F4
102
}
330
1F
100
AcDbEntity
  8
実線
100
AcDbLine
 10
843.3194863850889
 20
701.1314178245584
 30
0.0
 11
843.3194863850889
 21
703.1314178245584
 31
0.0
  0
LINE
  5
512
102
{ACAD_REACTORS
330
5F4
102
}
330
1F
100
AcDbEntity
  8
実線
100
AcDbLine
 10
698.3194863850889
 20
703.1314178245584
 30
0.0
 11
698.3194863850889
 21
701.1314178245584
 31
0.0
  0
LINE
  5
513
102
{ACAD_REACTORS
330
5F4
102
}
330
1F
100
AcDbEntity
  8
実線
100
AcDbLine
 10
840.3194863850888
 20
706.1314178245583
 30
0.0
 11
701.3194863850888
 21
706.1314178245583
 31
0.0
  0
ARC
  5
514
102
{ACAD_REACTORS
330
5F4
102
}
330
1F
100
AcDbEntity
  8
実線
100
AcDbCircle
 10
840.3194863850888
 20
703.1314178245584
 30
0.0
 40
3.0
100
AcDbArc
 50
0.0
 51
90.0
  0
ARC
  5
515
102
{ACAD_REACTORS
330
5F4
102
}
330
1F
100
AcDbEntity
  8
実線
100
AcDbCircle
 10
701.3194863850888
 20
703.1314178245584
 30
0.0
 40
3.0
100
AcDbArc
 50
90.0
 51
180.0
  0
LINE
  5
516
102
{ACAD_REACTORS
330
5F4
102
}
330
1F
100
AcDbEntity
  8
実線
100
AcDbLine
 10
717.4047539547858
 20
408.8814178245582
 30
0.0
 11
672.4194863850779
 21
408.8814178245582
 31
0.0
  0
LINE
  5
517
102
{ACAD_REACTORS
330
5F4
102
}
330
1F
100
AcDbEntity
  8
実線
100
AcDbLine
 10
869.2194863850778
 20
408.8814178245582
 30
0.0
 11
824.2342188153918
 21
408.8814178245582
 31
0.0
  0
LINE
  5
518
102
{ACAD_REACTORS
330
5F4
102
}
330
1F
100
AcDbEntity
  8
実線
100
AcDbLine
 10
795.8194863850998
 20
345.3814178245584
 30
0.0
 11
869.2194863850778
 21
345.3814178245584
 31
0.0
  0
LINE
  5
519
102
{ACAD_REACTORS
330
5F4
102
}
330
1F
100
AcDbEntity
  8
実線
100
AcDbLine
 10
672.4194863850779
 20
345.3814178245584
 30
0.0
 11
745.8194863850998
 21
345.3814178245584
 31
0.0
  0
LINE
  5
51A
102
{ACAD_REACTORS
330
5F4
102
}
330
1F
100
AcDbEntity
  8
実線
100
AcDbLine
 10
665.8194863850777
 20
338.3814178245584
 30
0.0
 11
669.3194863850777
 21
338.3814178245584
 31
0.0
  0
LINE
  5
51B
102
{ACAD_REACTORS
330
5F4
102
}
330
1F
100
AcDbEntity
  8
実線
100
AcDbLine
 10
669.3194863850777
 20
415.8814178245584
 30
0.0
 11
665.8194863850777
 21
415.8814178245584
 31
0.0
  0
LINE
  5
51C
102
{ACAD_REACTORS
330
5F4
102
}
330
1F
100
AcDbEntity
  8
実線
100
AcDbLine
 10
665.8194863850777
 20
415.8814178245584
 30
0.0
 11
665.8194863850777
 21
338.3814178245584
 31
0.0
  0
LINE
  5
51D
102
{ACAD_REACTORS
330
5F4
102
}
330
1F
100
AcDbEntity
  8
実線
100
AcDbLine
 10
875.8194863850777
 20
338.3814178245584
 30
0.0
 11
875.8194863850777
 21
415.8814178245584
 31
0.0
  0
LINE
  5
51E
102
{ACAD_REACTORS
330
5F4
102
}
330
1F
100
AcDbEntity
  8
実線
100
AcDbLine
 10
875.8194863850777
 20
415.8814178245584
 30
0.0
 11
872.3194863850777
 21
415.8814178245584
 31
0.0
  0
LINE
  5
51F
102
{ACAD_REACTORS
330
5F4
102
}
330
1F
100
AcDbEntity
  8
実線
100
AcDbLine
 10
872.3194863850777
 20
338.3814178245584
 30
0.0
 11
875.8194863850777
 21
338.3814178245584
 31
0.0
  0
LINE
  5
520
102
{ACAD_REACTORS
330
5F4
102
}
330
1F
100
AcDbEntity
  8
実線
100
AcDbLine
 10
672.4194863850779
 20
408.8814178245582
 30
0.0
 11
669.3194863850777
 21
415.8814178245584
 31
0.0
  0
LINE
  5
521
102
{ACAD_REACTORS
330
5F4
102
}
330
1F
100
AcDbEntity
  8
実線
100
AcDbLine
 10
669.3194863850777
 20
338.3814178245584
 30
0.0
 11
672.4194863850779
 21
345.3814178245584
 31
0.0
  0
LINE
  5
522
102
{ACAD_REACTORS
330
5F4
102
}
330
1F
100
AcDbEntity
  8
実線
100
AcDbLine
 10
669.3194863850777
 20
415.8814178245584
 30
0.0
 11
669.3194863850777
 21
338.3814178245584
 31
0.0
  0
LINE
  5
523
102
{ACAD_REACTORS
330
5F4
102
}
330
1F
100
AcDbEntity
  8
実線
100
AcDbLine
 10
672.4194863850779
 20
408.8814178245582
 30
0.0
 11
672.4194863850779
 21
345.3814178245584
 31
0.0
  0
LINE
  5
524
102
{ACAD_REACTORS
330
5F4
102
}
330
1F
100
AcDbEntity
  8
実線
100
AcDbLine
 10
872.3194863850777
 20
338.3814178245584
 30
0.0
 11
872.3194863850777
 21
415.8814178245584
 31
0.0
  0
LINE
  5
525
102
{ACAD_REACTORS
330
5F4
102
}
330
1F
100
AcDbEntity
  8
実線
100
AcDbLine
 10
869.2194863850778
 20
345.3814178245584
 30
0.0
 11
869.2194863850778
 21
408.8814178245582
 31
0.0
  0
LINE
  5
526
102
{ACAD_REACTORS
330
5F4
102
}
330
1F
100
AcDbEntity
  8
実線
100
AcDbLine
 10
869.2194863850778
 20
345.3814178245584
 30
0.0
 11
872.3194863850777
 21
338.3814178245584
 31
0.0
  0
LINE
  5
527
102
{ACAD_REACTORS
330
5F4
102
}
330
1F
100
AcDbEntity
  8
実線
100
AcDbLine
 10
872.3194863850777
 20
415.8814178245584
 30
0.0
 11
869.2194863850778
 21
408.8814178245582
 31
0.0
  0
LINE
  5
528
102
{ACAD_REACTORS
330
5F4
102
}
330
1F
100
AcDbEntity
  8
実線
100
AcDbLine
 10
720.8194863850889
 20
598.1314178245583
 30
0.0
 11
720.8194863850889
 21
533.1314178245584
 31
0.0
  0
LINE
  5
529
102
{ACAD_REACTORS
330
5F4
102
}
330
1F
100
AcDbEntity
  8
実線
100
AcDbLine
 10
720.8194863850889
 20
533.1314178245584
 30
0.0
 11
757.3194863850889
 21
533.1314178245584
 31
0.0
  0
LINE
  5
52A
102
{ACAD_REACTORS
330
5F4
102
}
330
1F
100
AcDbEntity
  8
実線
100
AcDbLine
 10
784.3194863850889
 20
533.1314178245584
 30
0.0
 11
820.8194863850888
 21
533.1314178245584
 31
0.0
  0
LINE
  5
52B
102
{ACAD_REACTORS
330
5F4
102
}
330
1F
100
AcDbEntity
  8
実線
100
AcDbLine
 10
820.8194863850888
 20
533.1314178245584
 30
0.0
 11
820.8194863850888
 21
598.1314178245583
 31
0.0
  0
LINE
  5
52C
102
{ACAD_REACTORS
330
5F4
102
}
330
1F
100
AcDbEntity
  8
実線
100
AcDbLine
 10
784.3194863850889
 20
495.1314178245585
 30
0.0
 11
784.3194863850889
 21
598.1314178245583
 31
0.0
  0
LINE
  5
52D
102
{ACAD_REACTORS
330
5F4
102
}
330
1F
100
AcDbEntity
  8
実線
100
AcDbLine
 10
757.3194863850889
 20
495.1314178245585
 30
0.0
 11
757.3194863850889
 21
598.1314178245583
 31
0.0
  0
LINE
  5
52E
102
{ACAD_REACTORS
330
5F4
102
}
330
1F
100
AcDbEntity
  8
実線
100
AcDbLine
 10
825.8194863850889
 20
414.2844057133483
 30
0.0
 11
825.8194863850889
 21
466.6314178245585
 31
0.0
  0
LINE
  5
52F
102
{ACAD_REACTORS
330
5F4
102
}
330
1F
100
AcDbEntity
  8
実線
100
AcDbLine
 10
715.8194863850889
 20
466.6314178245585
 30
0.0
 11
715.8194863850889
 21
414.2844057133483
 31
0.0
  0
ARC
  5
530
102
{ACAD_REACTORS
330
5F4
102
}
330
1F
100
AcDbEntity
  8
実線
100
AcDbCircle
 10
815.8194863850889
 20
414.2844057133483
 30
0.0
 40
10.0
100
AcDbArc
 50
327.2960189846355
 51
0.0
  0
ARC
  5
531
102
{ACAD_REACTORS
330
5F4
102
}
330
1F
100
AcDbEntity
  8
実線
100
AcDbCircle
 10
725.8194863850889
 20
414.2844057133483
 30
0.0
 40
10.0
100
AcDbArc
 50
180.0
 51
212.7039810153622
  0
LINE
  5
532
102
{ACAD_REACTORS
330
5F4
102
}
330
1F
100
AcDbEntity
  8
実線
100
AcDbLine
 10
831.5991755629278
 20
466.6314178245585
 30
0.0
 11
831.5991755629278
 21
481.6314178245583
 31
0.0
  0
LINE
  5
533
102
{ACAD_REACTORS
330
5F4
102
}
330
1F
100
AcDbEntity
  8
実線
100
AcDbLine
 10
831.5991755629278
 20
466.6314178245585
 30
0.0
 11
799.9967463660879
 21
466.6314178245585
 31
0.0
  0
LINE
  5
534
102
{ACAD_REACTORS
330
5F4
102
}
330
1F
100
AcDbEntity
  8
実線
100
AcDbLine
 10
710.0397972072498
 20
466.6314178245585
 30
0.0
 11
741.6422264040487
 21
466.6314178245585
 31
0.0
  0
LINE
  5
535
102
{ACAD_REACTORS
330
5F4
102
}
330
1F
100
AcDbEntity
  8
実線
100
AcDbLine
 10
710.0397972072498
 20
481.6314178245583
 30
0.0
 11
710.0397972072498
 21
466.6314178245585
 31
0.0
  0
LINE
  5
536
102
{ACAD_REACTORS
330
5F4
102
}
330
1F
100
AcDbEntity
  8
実線
100
AcDbLine
 10
797.6294585350298
 20
469.1097646899164
 30
0.0
 11
797.6294585350298
 21
481.6314178245583
 31
0.0
  0
LINE
  5
537
102
{ACAD_REACTORS
330
5F4
102
}
330
1F
100
AcDbEntity
  8
実線
100
AcDbLine
 10
744.0095142351477
 20
469.1097646899553
 30
0.0
 11
744.0095142351477
 21
481.6314178245583
 31
0.0
  0
LINE
  5
538
102
{ACAD_REACTORS
330
5F4
102
}
330
1F
100
AcDbEntity
  8
実線
100
AcDbLine
 10
745.8194863850998
 20
343.8814178245585
 30
0.0
 11
795.8194863850998
 21
343.8814178245585
 31
0.0
  0
LINE
  5
539
102
{ACAD_REACTORS
330
5F4
102
}
330
1F
100
AcDbEntity
  8
実線
100
AcDbLine
 10
745.8194863850998
 20
343.8814178245585
 30
0.0
 11
745.8194863850998
 21
406.4140058742425
 31
0.0
  0
LINE
  5
53A
102
{ACAD_REACTORS
330
5F4
102
}
330
1F
100
AcDbEntity
  8
実線
100
AcDbLine
 10
795.8194863850998
 20
406.4140058742578
 30
0.0
 11
795.8194863850998
 21
343.8814178245585
 31
0.0
  0
LINE
  5
53B
102
{ACAD_REACTORS
330
5F6
102
}
330
1F
100
AcDbEntity
  8
実線
100
AcDbLine
 10
110.03979720724
 20
495.1314178245582
 30
0.0
 11
231.5991755629176
 21
495.1314178245582
 31
0.0
  0
LINE
  5
53C
102
{ACAD_REACTORS
330
5F6
102
}
330
1F
100
AcDbEntity
  8
実線
100
AcDbLine
 10
231.5991755629176
 20
481.6314178245582
 30
0.0
 11
231.5991755629176
 21
495.1314178245582
 31
0.0
  0
LINE
  5
53D
102
{ACAD_REACTORS
330
5F6
102
}
330
1F
100
AcDbEntity
  8
実線
100
AcDbLine
 10
110.03979720724
 20
495.1314178245582
 30
0.0
 11
110.03979720724
 21
481.6314178245582
 31
0.0
  0
LINE
  5
53E
102
{ACAD_REACTORS
330
5F6
102
}
330
1F
100
AcDbEntity
  8
実線
100
AcDbLine
 10
197.6294585350199
 20
481.6314178245582
 30
0.0
 11
197.6294585350199
 21
495.1314178245582
 31
0.0
  0
LINE
  5
53F
102
{ACAD_REACTORS
330
5F6
102
}
330
1F
100
AcDbEntity
  8
実線
100
AcDbLine
 10
144.0095142351376
 20
481.6314178245582
 30
0.0
 11
144.0095142351376
 21
495.1314178245582
 31
0.0
  0
LINE
  5
540
102
{ACAD_REACTORS
330
5F6
102
}
330
1F
100
AcDbEntity
  8
実線
100
AcDbLine
 10
243.3194863850788
 20
600.1314178245583
 30
0.0
 11
243.3194863850788
 21
701.1314178245583
 31
0.0
  0
LINE
  5
541
102
{ACAD_REACTORS
330
5F6
102
}
330
1F
100
AcDbEntity
  8
実線
100
AcDbLine
 10
98.31948638507885
 20
701.1314178245583
 30
0.0
 11
98.31948638507885
 21
600.1314178245583
 31
0.0
  0
LINE
  5
542
102
{ACAD_REACTORS
330
5F6
102
}
330
1F
100
AcDbEntity
  8
実線
100
AcDbLine
 10
243.3194863850788
 20
701.1314178245583
 30
0.0
 11
98.31948638507885
 21
701.1314178245583
 31
0.0
  0
LINE
  5
543
102
{ACAD_REACTORS
330
5F6
102
}
330
1F
100
AcDbEntity
  8
実線
100
AcDbLine
 10
243.3194863850788
 20
600.1314178245583
 30
0.0
 11
98.31948638507885
 21
600.1314178245583
 31
0.0
  0
LINE
  5
544
102
{ACAD_REACTORS
330
5F6
102
}
330
1F
100
AcDbEntity
  8
実線
100
AcDbLine
 10
238.3194863850789
 20
598.1314178245582
 30
0.0
 11
238.3194863850789
 21
600.1314178245583
 31
0.0
  0
LINE
  5
545
102
{ACAD_REACTORS
330
5F6
102
}
330
1F
100
AcDbEntity
  8
実線
100
AcDbLine
 10
103.3194863850788
 20
600.1314178245583
 30
0.0
 11
103.3194863850788
 21
598.1314178245582
 31
0.0
  0
LINE
  5
546
102
{ACAD_REACTORS
330
5F6
102
}
330
1F
100
AcDbEntity
  8
実線
100
AcDbLine
 10
238.3194863850789
 20
598.1314178245582
 30
0.0
 11
103.3194863850788
 21
598.1314178245582
 31
0.0
  0
LINE
  5
547
102
{ACAD_REACTORS
330
5F6
102
}
330
1F
100
AcDbEntity
  8
実線
100
AcDbLine
 10
214.1194863850789
 20
727.8314178245584
 30
0.0
 11
214.1194863850789
 21
763.8314178245583
 31
0.0
  0
LINE
  5
548
102
{ACAD_REACTORS
330
5F6
102
}
330
1F
100
AcDbEntity
  8
実線
100
AcDbLine
 10
127.5194863850788
 20
763.8314178245583
 30
0.0
 11
127.5194863850788
 21
727.8314178245584
 31
0.0
  0
LINE
  5
549
102
{ACAD_REACTORS
330
5F6
102
}
330
1F
100
AcDbEntity
  8
実線
100
AcDbLine
 10
214.1194863850789
 20
763.8314178245583
 30
0.0
 11
127.5194863850788
 21
763.8314178245583
 31
0.0
  0
LINE
  5
54A
102
{ACAD_REACTORS
330
5F6
102
}
330
1F
100
AcDbEntity
  8
実線
100
AcDbLine
 10
127.5194863850788
 20
727.831417824558
 30
0.0
 11
126.8194863850788
 21
724.1314178245582
 31
0.0
  0
LINE
  5
54B
102
{ACAD_REACTORS
330
5F6
102
}
330
1F
100
AcDbEntity
  8
実線
100
AcDbLine
 10
214.8194863850787
 20
724.1314178245582
 30
0.0
 11
214.1194863850789
 21
727.8314178245584
 31
0.0
  0
LINE
  5
54C
102
{ACAD_REACTORS
330
5F6
102
}
330
1F
100
AcDbEntity
  8
実線
100
AcDbLine
 10
126.8194863850788
 20
724.1314178245582
 30
0.0
 11
214.8194863850787
 21
724.1314178245582
 31
0.0
  0
LINE
  5
54D
102
{ACAD_REACTORS
330
5F6
102
}
330
1F
100
AcDbEntity
  8
実線
100
AcDbLine
 10
214.1194863850789
 20
727.831417824558
 30
0.0
 11
127.5194863850788
 21
727.831417824558
 31
0.0
  0
CIRCLE
  5
54E
102
{ACAD_REACTORS
330
5F6
102
}
330
1F
100
AcDbEntity
  8
実線
100
AcDbCircle
 10
170.8194863850788
 20
441.1314178245584
 30
0.0
 40
38.75
  0
LINE
  5
54F
102
{ACAD_REACTORS
330
5F6
102
}
330
1F
100
AcDbEntity
  8
実線
100
AcDbLine
 10
216.8194863850787
 20
706.1314178245583
 30
0.0
 11
216.8194863850787
 21
717.1314178245583
 31
0.0
  0
LINE
  5
550
102
{ACAD_REACTORS
330
5F6
102
}
330
1F
100
AcDbEntity
  8
実線
100
AcDbLine
 10
124.8194863850788
 20
717.1314178245583
 30
0.0
 11
124.8194863850788
 21
706.1314178245583
 31
0.0
  0
LINE
  5
551
102
{ACAD_REACTORS
330
5F6
102
}
330
1F
100
AcDbEntity
  8
実線
100
AcDbLine
 10
216.8194863850787
 20
717.1314178245583
 30
0.0
 11
124.8194863850788
 21
717.1314178245583
 31
0.0
  0
LINE
  5
552
102
{ACAD_REACTORS
330
5F6
102
}
330
1F
100
AcDbEntity
  8
実線
100
AcDbLine
 10
187.8194863850788
 20
717.1314178245583
 30
0.0
 11
187.8194863850788
 21
724.1314178245582
 31
0.0
  0
LINE
  5
553
102
{ACAD_REACTORS
330
5F6
102
}
330
1F
100
AcDbEntity
  8
実線
100
AcDbLine
 10
153.8194863850788
 20
724.1314178245588
 30
0.0
 11
153.8194863850788
 21
717.1314178245584
 31
0.0
  0
LINE
  5
554
102
{ACAD_REACTORS
330
5F6
102
}
330
1F
100
AcDbEntity
  8
実線
100
AcDbLine
 10
213.3194863850787
 20
763.8314178245583
 30
0.0
 11
213.3194863850787
 21
840.8314178245584
 31
0.0
  0
LINE
  5
555
102
{ACAD_REACTORS
330
5F6
102
}
330
1F
100
AcDbEntity
  8
実線
100
AcDbLine
 10
128.3194863850788
 20
840.8314178245584
 30
0.0
 11
128.3194863850788
 21
763.8314178245583
 31
0.0
  0
LINE
  5
556
102
{ACAD_REACTORS
330
5F6
102
}
330
1F
100
AcDbEntity
  8
実線
100
AcDbLine
 10
154.3194863850788
 20
850.0314178245584
 30
0.0
 11
128.3194863850788
 21
840.8314178245584
 31
0.0
  0
LINE
  5
557
102
{ACAD_REACTORS
330
5F6
102
}
330
1F
100
AcDbEntity
  8
実線
100
AcDbLine
 10
213.3194863850787
 20
840.8314178245584
 30
0.0
 11
187.3194863850788
 21
850.0314178245584
 31
0.0
  0
LINE
  5
558
102
{ACAD_REACTORS
330
5F6
102
}
330
1F
100
AcDbEntity
  8
実線
100
AcDbLine
 10
128.3194863850788
 20
840.8314178245584
 30
0.0
 11
213.3194863850787
 21
840.8314178245584
 31
0.0
  0
LINE
  5
559
102
{ACAD_REACTORS
330
5F6
102
}
330
1F
100
AcDbEntity
  8
実線
100
AcDbLine
 10
187.3194863850788
 20
850.0314178245584
 30
0.0
 11
154.3194863850788
 21
850.0314178245584
 31
0.0
  0
LINE
  5
55A
102
{ACAD_REACTORS
330
5F6
102
}
330
1F
100
AcDbEntity
  8
実線
100
AcDbLine
 10
243.3194863850788
 20
701.1314178245583
 30
0.0
 11
243.3194863850788
 21
703.1314178245582
 31
0.0
  0
LINE
  5
55B
102
{ACAD_REACTORS
330
5F6
102
}
330
1F
100
AcDbEntity
  8
実線
100
AcDbLine
 10
98.31948638507885
 20
703.1314178245582
 30
0.0
 11
98.31948638507885
 21
701.1314178245583
 31
0.0
  0
LINE
  5
55C
102
{ACAD_REACTORS
330
5F6
102
}
330
1F
100
AcDbEntity
  8
実線
100
AcDbLine
 10
101.3194863850788
 20
706.1314178245583
 30
0.0
 11
240.3194863850789
 21
706.1314178245583
 31
0.0
  0
ARC
  5
55D
102
{ACAD_REACTORS
330
5F6
102
}
330
1F
100
AcDbEntity
  8
実線
100
AcDbCircle
 10
240.3194863850789
 20
703.1314178245582
 30
0.0
 40
3.0
100
AcDbArc
 50
0.0
 51
90.0
  0
ARC
  5
55E
102
{ACAD_REACTORS
330
5F6
102
}
330
1F
100
AcDbEntity
  8
実線
100
AcDbCircle
 10
101.3194863850788
 20
703.1314178245582
 30
0.0
 40
3.0
100
AcDbArc
 50
90.0
 51
180.0
  0
LINE
  5
55F
102
{ACAD_REACTORS
330
5F6
102
}
330
1F
100
AcDbEntity
  8
実線
100
AcDbLine
 10
195.8194863850896
 20
345.3814178245583
 30
0.0
 11
269.2194863850896
 21
345.3814178245583
 31
0.0
  0
LINE
  5
560
102
{ACAD_REACTORS
330
5F6
102
}
330
1F
100
AcDbEntity
  8
実線
100
AcDbLine
 10
72.41948638508961
 20
345.3814178245583
 30
0.0
 11
145.8194863850896
 21
345.3814178245583
 31
0.0
  0
LINE
  5
561
102
{ACAD_REACTORS
330
5F6
102
}
330
1F
100
AcDbEntity
  8
実線
100
AcDbLine
 10
117.404753954776
 20
408.8814178245582
 30
0.0
 11
72.41948638508961
 21
408.8814178245582
 31
0.0
  0
LINE
  5
562
102
{ACAD_REACTORS
330
5F6
102
}
330
1F
100
AcDbEntity
  8
実線
100
AcDbLine
 10
269.2194863850896
 20
408.8814178245582
 30
0.0
 11
224.2342188153817
 21
408.8814178245582
 31
0.0
  0
LINE
  5
563
102
{ACAD_REACTORS
330
5F6
102
}
330
1F
100
AcDbEntity
  8
実線
100
AcDbLine
 10
65.81948638508959
 20
338.3814178245583
 30
0.0
 11
69.31948638508959
 21
338.3814178245583
 31
0.0
  0
LINE
  5
564
102
{ACAD_REACTORS
330
5F6
102
}
330
1F
100
AcDbEntity
  8
実線
100
AcDbLine
 10
69.31948638508959
 20
415.8814178245584
 30
0.0
 11
65.81948638508959
 21
415.8814178245584
 31
0.0
  0
LINE
  5
565
102
{ACAD_REACTORS
330
5F6
102
}
330
1F
100
AcDbEntity
  8
実線
100
AcDbLine
 10
65.81948638508959
 20
415.8814178245584
 30
0.0
 11
65.81948638508959
 21
338.3814178245583
 31
0.0
  0
LINE
  5
566
102
{ACAD_REACTORS
330
5F6
102
}
330
1F
100
AcDbEntity
  8
実線
100
AcDbLine
 10
275.8194863850897
 20
338.3814178245583
 30
0.0
 11
275.8194863850897
 21
415.8814178245584
 31
0.0
  0
LINE
  5
567
102
{ACAD_REACTORS
330
5F6
102
}
330
1F
100
AcDbEntity
  8
実線
100
AcDbLine
 10
275.8194863850897
 20
415.8814178245584
 30
0.0
 11
272.3194863850896
 21
415.8814178245584
 31
0.0
  0
LINE
  5
568
102
{ACAD_REACTORS
330
5F6
102
}
330
1F
100
AcDbEntity
  8
実線
100
AcDbLine
 10
272.3194863850896
 20
338.3814178245583
 30
0.0
 11
275.8194863850897
 21
338.3814178245583
 31
0.0
  0
LINE
  5
569
102
{ACAD_REACTORS
330
5F6
102
}
330
1F
100
AcDbEntity
  8
実線
100
AcDbLine
 10
272.3194863850896
 20
338.3814178245583
 30
0.0
 11
272.3194863850896
 21
415.8814178245584
 31
0.0
  0
LINE
  5
56A
102
{ACAD_REACTORS
330
5F6
102
}
330
1F
100
AcDbEntity
  8
実線
100
AcDbLine
 10
269.2194863850896
 20
345.3814178245583
 30
0.0
 11
269.2194863850896
 21
408.8814178245582
 31
0.0
  0
LINE
  5
56B
102
{ACAD_REACTORS
330
5F6
102
}
330
1F
100
AcDbEntity
  8
実線
100
AcDbLine
 10
269.2194863850896
 20
345.3814178245583
 30
0.0
 11
272.3194863850896
 21
338.3814178245583
 31
0.0
  0
LINE
  5
56C
102
{ACAD_REACTORS
330
5F6
102
}
330
1F
100
AcDbEntity
  8
実線
100
AcDbLine
 10
272.3194863850896
 20
415.8814178245584
 30
0.0
 11
269.2194863850896
 21
408.8814178245582
 31
0.0
  0
LINE
  5
56D
102
{ACAD_REACTORS
330
5F6
102
}
330
1F
100
AcDbEntity
  8
実線
100
AcDbLine
 10
72.41948638508961
 20
408.8814178245582
 30
0.0
 11
69.31948638508959
 21
415.8814178245584
 31
0.0
  0
LINE
  5
56E
102
{ACAD_REACTORS
330
5F6
102
}
330
1F
100
AcDbEntity
  8
実線
100
AcDbLine
 10
69.31948638508959
 20
338.3814178245583
 30
0.0
 11
72.41948638508961
 21
345.3814178245583
 31
0.0
  0
LINE
  5
56F
102
{ACAD_REACTORS
330
5F6
102
}
330
1F
100
AcDbEntity
  8
実線
100
AcDbLine
 10
69.31948638508959
 20
415.8814178245584
 30
0.0
 11
69.31948638508959
 21
338.3814178245583
 31
0.0
  0
LINE
  5
570
102
{ACAD_REACTORS
330
5F6
102
}
330
1F
100
AcDbEntity
  8
実線
100
AcDbLine
 10
72.41948638508961
 20
408.8814178245582
 30
0.0
 11
72.41948638508961
 21
345.3814178245583
 31
0.0
  0
LINE
  5
571
102
{ACAD_REACTORS
330
5F6
102
}
330
1F
100
AcDbEntity
  8
実線
100
AcDbLine
 10
120.8194863850788
 20
598.1314178245582
 30
0.0
 11
120.8194863850788
 21
533.1314178245583
 31
0.0
  0
LINE
  5
572
102
{ACAD_REACTORS
330
5F6
102
}
330
1F
100
AcDbEntity
  8
実線
100
AcDbLine
 10
120.8194863850788
 20
533.1314178245583
 30
0.0
 11
157.3194863850788
 21
533.1314178245583
 31
0.0
  0
LINE
  5
573
102
{ACAD_REACTORS
330
5F6
102
}
330
1F
100
AcDbEntity
  8
実線
100
AcDbLine
 10
184.3194863850788
 20
533.1314178245583
 30
0.0
 11
220.8194863850788
 21
533.1314178245583
 31
0.0
  0
LINE
  5
574
102
{ACAD_REACTORS
330
5F6
102
}
330
1F
100
AcDbEntity
  8
実線
100
AcDbLine
 10
220.8194863850788
 20
533.1314178245583
 30
0.0
 11
220.8194863850788
 21
598.1314178245582
 31
0.0
  0
LINE
  5
575
102
{ACAD_REACTORS
330
5F6
102
}
330
1F
100
AcDbEntity
  8
実線
100
AcDbLine
 10
157.3194863850788
 20
495.1314178245584
 30
0.0
 11
157.3194863850788
 21
598.1314178245582
 31
0.0
  0
LINE
  5
576
102
{ACAD_REACTORS
330
5F6
102
}
330
1F
100
AcDbEntity
  8
実線
100
AcDbLine
 10
184.3194863850788
 20
495.1314178245584
 30
0.0
 11
184.3194863850788
 21
598.1314178245582
 31
0.0
  0
LINE
  5
577
102
{ACAD_REACTORS
330
5F6
102
}
330
1F
100
AcDbEntity
  8
実線
100
AcDbLine
 10
110.03979720724
 20
481.6314178245582
 30
0.0
 11
231.5991755629176
 21
481.6314178245582
 31
0.0
  0
LINE
  5
578
102
{ACAD_REACTORS
330
5F6
102
}
330
1F
100
AcDbEntity
  8
実線
100
AcDbLine
 10
225.8194863850787
 20
414.2844057133483
 30
0.0
 11
225.8194863850787
 21
466.6314178245584
 31
0.0
  0
LINE
  5
579
102
{ACAD_REACTORS
330
5F6
102
}
330
1F
100
AcDbEntity
  8
実線
100
AcDbLine
 10
115.8194863850788
 20
466.6314178245584
 30
0.0
 11
115.8194863850788
 21
414.2844057133483
 31
0.0
  0
ARC
  5
57A
102
{ACAD_REACTORS
330
5F6
102
}
330
1F
100
AcDbEntity
  8
実線
100
AcDbCircle
 10
215.8194863850787
 20
414.2844057133483
 30
0.0
 40
10.0
100
AcDbArc
 50
327.2960189846355
 51
0.0
  0
ARC
  5
57B
102
{ACAD_REACTORS
330
5F6
102
}
330
1F
100
AcDbEntity
  8
実線
100
AcDbCircle
 10
125.8194863850788
 20
414.2844057133483
 30
0.0
 40
10.0
100
AcDbArc
 50
180.0
 51
212.7039810153622
  0
LINE
  5
57C
102
{ACAD_REACTORS
330
5F6
102
}
330
1F
100
AcDbEntity
  8
実線
100
AcDbLine
 10
231.5991755629176
 20
466.6314178245584
 30
0.0
 11
231.5991755629176
 21
481.6314178245582
 31
0.0
  0
LINE
  5
57D
102
{ACAD_REACTORS
330
5F6
102
}
330
1F
100
AcDbEntity
  8
実線
100
AcDbLine
 10
231.5991755629176
 20
466.6314178245584
 30
0.0
 11
199.9967463660982
 21
466.6314178245584
 31
0.0
  0
LINE
  5
57E
102
{ACAD_REACTORS
330
5F6
102
}
330
1F
100
AcDbEntity
  8
実線
100
AcDbLine
 10
110.03979720724
 20
466.6314178245584
 30
0.0
 11
141.6422264040594
 21
466.6314178245584
 31
0.0
  0
LINE
  5
57F
102
{ACAD_REACTORS
330
5F6
102
}
330
1F
100
AcDbEntity
  8
実線
100
AcDbLine
 10
110.03979720724
 20
481.6314178245582
 30
0.0
 11
110.03979720724
 21
466.6314178245584
 31
0.0
  0
LINE
  5
580
102
{ACAD_REACTORS
330
5F6
102
}
330
1F
100
AcDbEntity
  8
実線
100
AcDbLine
 10
197.6294585350199
 20
469.1097646899359
 30
0.0
 11
197.6294585350199
 21
481.6314178245582
 31
0.0
  0
LINE
  5
581
102
{ACAD_REACTORS
330
5F6
102
}
330
1F
100
AcDbEntity
  8
実線
100
AcDbLine
 10
144.0095142351376
 20
469.1097646899359
 30
0.0
 11
144.0095142351376
 21
481.6314178245582
 31
0.0
  0
LINE
  5
582
102
{ACAD_REACTORS
330
5F6
102
}
330
1F
100
AcDbEntity
  8
実線
100
AcDbLine
 10
145.8194863850896
 20
343.8814178245584
 30
0.0
 11
195.8194863850896
 21
343.8814178245584
 31
0.0
  0
LINE
  5
583
102
{ACAD_REACTORS
330
5F6
102
}
330
1F
100
AcDbEntity
  8
実線
100
AcDbLine
 10
145.8194863850896
 20
343.8814178245584
 30
0.0
 11
145.8194863850896
 21
406.4140058742428
 31
0.0
  0
LINE
  5
584
102
{ACAD_REACTORS
330
5F6
102
}
330
1F
100
AcDbEntity
  8
実線
100
AcDbLine
 10
195.8194863850896
 20
406.4140058742577
 30
0.0
 11
195.8194863850896
 21
343.8814178245584
 31
0.0
  0
LINE
  5
585
102
{ACAD_REACTORS
330
5F5
102
}
330
1F
100
AcDbEntity
  8
実線
100
AcDbLine
 10
531.5991755629173
 20
481.6314178245582
 30
0.0
 11
410.0397972072402
 21
481.6314178245582
 31
0.0
  0
LINE
  5
586
102
{ACAD_REACTORS
330
5F5
102
}
330
1F
100
AcDbEntity
  8
実線
100
AcDbLine
 10
531.5991755629173
 20
495.1314178245582
 30
0.0
 11
410.0397972072402
 21
495.1314178245582
 31
0.0
  0
LINE
  5
587
102
{ACAD_REACTORS
330
5F5
102
}
330
1F
100
AcDbEntity
  8
実線
100
AcDbLine
 10
410.0397972072402
 20
495.1314178245582
 30
0.0
 11
410.0397972072402
 21
481.6314178245582
 31
0.0
  0
LINE
  5
588
102
{ACAD_REACTORS
330
5F5
102
}
330
1F
100
AcDbEntity
  8
実線
100
AcDbLine
 10
531.5991755629173
 20
481.6314178245582
 30
0.0
 11
531.5991755629173
 21
495.1314178245582
 31
0.0
  0
LINE
  5
589
102
{ACAD_REACTORS
330
5F5
102
}
330
1F
100
AcDbEntity
  8
実線
100
AcDbLine
 10
444.0095142351373
 20
481.6314178245582
 30
0.0
 11
444.0095142351373
 21
495.1314178245582
 31
0.0
  0
LINE
  5
58A
102
{ACAD_REACTORS
330
5F5
102
}
330
1F
100
AcDbEntity
  8
実線
100
AcDbLine
 10
497.6294585350197
 20
481.6314178245582
 30
0.0
 11
497.6294585350197
 21
495.1314178245582
 31
0.0
  0
LINE
  5
58B
102
{ACAD_REACTORS
330
5F5
102
}
330
1F
100
AcDbEntity
  8
実線
100
AcDbLine
 10
543.3194863850785
 20
600.1314178245583
 30
0.0
 11
398.3194863850784
 21
600.1314178245583
 31
0.0
  0
LINE
  5
58C
102
{ACAD_REACTORS
330
5F5
102
}
330
1F
100
AcDbEntity
  8
実線
100
AcDbLine
 10
543.3194863850785
 20
600.1314178245583
 30
0.0
 11
543.3194863850785
 21
701.1314178245583
 31
0.0
  0
LINE
  5
58D
102
{ACAD_REACTORS
330
5F5
102
}
330
1F
100
AcDbEntity
  8
実線
100
AcDbLine
 10
398.3194863850784
 20
701.1314178245583
 30
0.0
 11
398.3194863850784
 21
600.1314178245583
 31
0.0
  0
LINE
  5
58E
102
{ACAD_REACTORS
330
5F5
102
}
330
1F
100
AcDbEntity
  8
実線
100
AcDbLine
 10
543.3194863850785
 20
701.1314178245583
 30
0.0
 11
398.3194863850784
 21
701.1314178245583
 31
0.0
  0
LINE
  5
58F
102
{ACAD_REACTORS
330
5F5
102
}
330
1F
100
AcDbEntity
  8
実線
100
AcDbLine
 10
538.3194863850786
 20
598.1314178245582
 30
0.0
 11
403.3194863850784
 21
598.1314178245582
 31
0.0
  0
LINE
  5
590
102
{ACAD_REACTORS
330
5F5
102
}
330
1F
100
AcDbEntity
  8
実線
100
AcDbLine
 10
538.3194863850786
 20
598.1314178245582
 30
0.0
 11
538.3194863850786
 21
600.1314178245583
 31
0.0
  0
LINE
  5
591
102
{ACAD_REACTORS
330
5F5
102
}
330
1F
100
AcDbEntity
  8
実線
100
AcDbLine
 10
403.3194863850784
 20
600.1314178245583
 30
0.0
 11
403.3194863850784
 21
598.1314178245582
 31
0.0
  0
LINE
  5
592
102
{ACAD_REACTORS
330
5F5
102
}
330
1F
100
AcDbEntity
  8
実線
100
AcDbLine
 10
478.8194863850788
 20
495.1755143731563
 30
0.0
 11
478.8194863850788
 21
533.1314178245583
 31
0.0
  0
LINE
  5
593
102
{ACAD_REACTORS
330
5F5
102
}
330
1F
100
AcDbEntity
  8
実線
100
AcDbLine
 10
462.8194863850786
 20
533.1314178245583
 30
0.0
 11
462.8194863850786
 21
495.1755143731563
 31
0.0
  0
LINE
  5
594
102
{ACAD_REACTORS
330
5F5
102
}
330
1F
100
AcDbEntity
  8
実線
100
AcDbLine
 10
514.1194863850786
 20
727.8314178245584
 30
0.0
 11
514.1194863850786
 21
763.8314178245583
 31
0.0
  0
LINE
  5
595
102
{ACAD_REACTORS
330
5F5
102
}
330
1F
100
AcDbEntity
  8
実線
100
AcDbLine
 10
427.5194863850786
 20
763.8314178245583
 30
0.0
 11
427.5194863850786
 21
727.8314178245584
 31
0.0
  0
LINE
  5
596
102
{ACAD_REACTORS
330
5F5
102
}
330
1F
100
AcDbEntity
  8
実線
100
AcDbLine
 10
514.1194863850786
 20
763.8314178245583
 30
0.0
 11
427.5194863850786
 21
763.8314178245583
 31
0.0
  0
LINE
  5
597
102
{ACAD_REACTORS
330
5F5
102
}
330
1F
100
AcDbEntity
  8
実線
100
AcDbLine
 10
514.8194863850785
 20
724.1314178245582
 30
0.0
 11
426.8194863850784
 21
724.1314178245582
 31
0.0
  0
LINE
  5
598
102
{ACAD_REACTORS
330
5F5
102
}
330
1F
100
AcDbEntity
  8
実線
100
AcDbLine
 10
427.5194863850786
 20
727.831417824558
 30
0.0
 11
426.8194863850784
 21
724.1314178245582
 31
0.0
  0
LINE
  5
599
102
{ACAD_REACTORS
330
5F5
102
}
330
1F
100
AcDbEntity
  8
実線
100
AcDbLine
 10
514.8194863850784
 20
724.1314178245582
 30
0.0
 11
514.1194863850786
 21
727.8314178245584
 31
0.0
  0
LINE
  5
59A
102
{ACAD_REACTORS
330
5F5
102
}
330
1F
100
AcDbEntity
  8
実線
100
AcDbLine
 10
514.1194863850786
 20
727.831417824558
 30
0.0
 11
427.5194863850786
 21
727.831417824558
 31
0.0
  0
LINE
  5
59B
102
{ACAD_REACTORS
330
5F5
102
}
330
1F
100
AcDbEntity
  8
実線
100
AcDbLine
 10
372.4194863850786
 20
409.3814178245584
 30
0.0
 11
417.1039422389923
 21
409.3814178245584
 31
0.0
  0
LINE
  5
59C
102
{ACAD_REACTORS
330
5F5
102
}
330
1F
100
AcDbEntity
  8
実線
100
AcDbLine
 10
410.0397972072396
 20
472.8814178245584
 30
0.0
 11
372.4194863850786
 21
472.8814178245584
 31
0.0
  0
LINE
  5
59D
102
{ACAD_REACTORS
330
5F5
102
}
330
1F
100
AcDbEntity
  8
実線
100
AcDbLine
 10
372.4194863850786
 20
472.8814178245584
 30
0.0
 11
369.3194863850786
 21
479.8814178245582
 31
0.0
  0
LINE
  5
59E
102
{ACAD_REACTORS
330
5F5
102
}
330
1F
100
AcDbEntity
  8
実線
100
AcDbLine
 10
369.3194863850786
 20
402.3814178245584
 30
0.0
 11
372.4194863850786
 21
409.3814178245584
 31
0.0
  0
LINE
  5
59F
102
{ACAD_REACTORS
330
5F5
102
}
330
1F
100
AcDbEntity
  8
実線
100
AcDbLine
 10
372.4194863850786
 20
472.8814178245584
 30
0.0
 11
372.4194863850786
 21
409.3814178245584
 31
0.0
  0
LINE
  5
5A0
102
{ACAD_REACTORS
330
5F5
102
}
330
1F
100
AcDbEntity
  8
実線
100
AcDbLine
 10
365.8194863850787
 20
402.3814178245584
 30
0.0
 11
369.3194863850786
 21
402.3814178245584
 31
0.0
  0
LINE
  5
5A1
102
{ACAD_REACTORS
330
5F5
102
}
330
1F
100
AcDbEntity
  8
実線
100
AcDbLine
 10
369.3194863850786
 20
479.8814178245582
 30
0.0
 11
365.8194863850786
 21
479.8814178245582
 31
0.0
  0
LINE
  5
5A2
102
{ACAD_REACTORS
330
5F5
102
}
330
1F
100
AcDbEntity
  8
実線
100
AcDbLine
 10
365.8194863850787
 20
402.3814178245584
 30
0.0
 11
365.8194863850787
 21
479.8814178245582
 31
0.0
  0
LINE
  5
5A3
102
{ACAD_REACTORS
330
5F5
102
}
330
1F
100
AcDbEntity
  8
実線
100
AcDbLine
 10
369.3194863850786
 20
402.3814178245584
 30
0.0
 11
369.3194863850786
 21
479.8814178245582
 31
0.0
  0
LINE
  5
5A4
102
{ACAD_REACTORS
330
5F5
102
}
330
1F
100
AcDbEntity
  8
実線
100
AcDbLine
 10
569.2194863850775
 20
472.8814178245584
 30
0.0
 11
531.5991755629173
 21
472.8814178245584
 31
0.0
  0
LINE
  5
5A5
102
{ACAD_REACTORS
330
5F5
102
}
330
1F
100
AcDbEntity
  8
実線
100
AcDbLine
 10
524.5350305311649
 20
409.3814178245584
 30
0.0
 11
569.2194863850775
 21
409.3814178245584
 31
0.0
  0
LINE
  5
5A6
102
{ACAD_REACTORS
330
5F5
102
}
330
1F
100
AcDbEntity
  8
実線
100
AcDbLine
 10
569.2194863850775
 20
409.3814178245584
 30
0.0
 11
569.2194863850775
 21
472.8814178245584
 31
0.0
  0
LINE
  5
5A7
102
{ACAD_REACTORS
330
5F5
102
}
330
1F
100
AcDbEntity
  8
実線
100
AcDbLine
 10
569.2194863850775
 20
409.3814178245584
 30
0.0
 11
572.3194863850774
 21
402.3814178245584
 31
0.0
  0
LINE
  5
5A8
102
{ACAD_REACTORS
330
5F5
102
}
330
1F
100
AcDbEntity
  8
実線
100
AcDbLine
 10
572.3194863850774
 20
479.8814178245582
 30
0.0
 11
569.2194863850775
 21
472.8814178245584
 31
0.0
  0
LINE
  5
5A9
102
{ACAD_REACTORS
330
5F5
102
}
330
1F
100
AcDbEntity
  8
実線
100
AcDbLine
 10
575.8194863850774
 20
402.3814178245584
 30
0.0
 11
575.8194863850774
 21
479.8814178245582
 31
0.0
  0
LINE
  5
5AA
102
{ACAD_REACTORS
330
5F5
102
}
330
1F
100
AcDbEntity
  8
実線
100
AcDbLine
 10
572.3194863850774
 20
402.3814178245584
 30
0.0
 11
572.3194863850774
 21
479.8814178245582
 31
0.0
  0
LINE
  5
5AB
102
{ACAD_REACTORS
330
5F5
102
}
330
1F
100
AcDbEntity
  8
実線
100
AcDbLine
 10
575.8194863850774
 20
479.8814178245582
 30
0.0
 11
572.3194863850774
 21
479.8814178245582
 31
0.0
  0
LINE
  5
5AC
102
{ACAD_REACTORS
330
5F5
102
}
330
1F
100
AcDbEntity
  8
実線
100
AcDbLine
 10
572.3194863850774
 20
402.3814178245584
 30
0.0
 11
575.8194863850774
 21
402.3814178245584
 31
0.0
  0
LINE
  5
5AD
102
{ACAD_REACTORS
330
5F5
102
}
330
1F
100
AcDbEntity
  8
実線
100
AcDbLine
 10
516.8194863850785
 20
706.1314178245583
 30
0.0
 11
516.8194863850785
 21
717.1314178245583
 31
0.0
  0
LINE
  5
5AE
102
{ACAD_REACTORS
330
5F5
102
}
330
1F
100
AcDbEntity
  8
実線
100
AcDbLine
 10
424.8194863850785
 20
717.1314178245583
 30
0.0
 11
424.8194863850785
 21
706.1314178245583
 31
0.0
  0
LINE
  5
5AF
102
{ACAD_REACTORS
330
5F5
102
}
330
1F
100
AcDbEntity
  8
実線
100
AcDbLine
 10
516.8194863850787
 20
717.1314178245583
 30
0.0
 11
424.8194863850785
 21
717.1314178245583
 31
0.0
  0
LINE
  5
5B0
102
{ACAD_REACTORS
330
5F5
102
}
330
1F
100
AcDbEntity
  8
実線
100
AcDbLine
 10
487.8194863850786
 20
717.1314178245583
 30
0.0
 11
487.8194863850786
 21
724.1314178245582
 31
0.0
  0
LINE
  5
5B1
102
{ACAD_REACTORS
330
5F5
102
}
330
1F
100
AcDbEntity
  8
実線
100
AcDbLine
 10
453.8194863850784
 20
724.1314178245588
 30
0.0
 11
453.8194863850784
 21
717.1314178245584
 31
0.0
  0
LINE
  5
5B2
102
{ACAD_REACTORS
330
5F5
102
}
330
1F
100
AcDbEntity
  8
実線
100
AcDbLine
 10
513.3194863850786
 20
763.8314178245583
 30
0.0
 11
513.3194863850786
 21
840.8314178245584
 31
0.0
  0
LINE
  5
5B3
102
{ACAD_REACTORS
330
5F5
102
}
330
1F
100
AcDbEntity
  8
実線
100
AcDbLine
 10
428.3194863850788
 20
840.8314178245584
 30
0.0
 11
428.3194863850788
 21
763.8314178245583
 31
0.0
  0
LINE
  5
5B4
102
{ACAD_REACTORS
330
5F5
102
}
330
1F
100
AcDbEntity
  8
実線
100
AcDbLine
 10
513.3194863850787
 20
840.8314178245584
 30
0.0
 11
428.3194863850784
 21
840.8314178245584
 31
0.0
  0
LINE
  5
5B5
102
{ACAD_REACTORS
330
5F5
102
}
330
1F
100
AcDbEntity
  8
実線
100
AcDbLine
 10
454.3194863850787
 20
850.0314178245584
 30
0.0
 11
428.3194863850784
 21
840.8314178245584
 31
0.0
  0
LINE
  5
5B6
102
{ACAD_REACTORS
330
5F5
102
}
330
1F
100
AcDbEntity
  8
実線
100
AcDbLine
 10
513.3194863850787
 20
840.8314178245584
 30
0.0
 11
487.3194863850788
 21
850.0314178245584
 31
0.0
  0
LINE
  5
5B7
102
{ACAD_REACTORS
330
5F5
102
}
330
1F
100
AcDbEntity
  8
実線
100
AcDbLine
 10
487.3194863850788
 20
850.0314178245584
 30
0.0
 11
454.3194863850787
 21
850.0314178245584
 31
0.0
  0
LINE
  5
5B8
102
{ACAD_REACTORS
330
5F5
102
}
330
1F
100
AcDbEntity
  8
実線
100
AcDbLine
 10
401.3194863855345
 20
706.1314178245583
 30
0.0
 11
540.3194863850788
 21
706.1314178245583
 31
0.0
  0
ARC
  5
5B9
102
{ACAD_REACTORS
330
5F5
102
}
330
1F
100
AcDbEntity
  8
実線
100
AcDbCircle
 10
540.3194863850788
 20
703.1314178245582
 30
0.0
 40
3.0
100
AcDbArc
 50
0.0
 51
90.0
  0
ARC
  5
5BA
102
{ACAD_REACTORS
330
5F5
102
}
330
1F
100
AcDbEntity
  8
実線
100
AcDbCircle
 10
401.3194863850785
 20
703.1314178245582
 30
0.0
 40
3.0
100
AcDbArc
 50
90.0
 51
180.0
  0
LINE
  5
5BB
102
{ACAD_REACTORS
330
5F5
102
}
330
1F
100
AcDbEntity
  8
実線
100
AcDbLine
 10
543.3194863850785
 20
701.1314178245583
 30
0.0
 11
543.3194863850785
 21
703.1314178245582
 31
0.0
  0
LINE
  5
5BC
102
{ACAD_REACTORS
330
5F5
102
}
330
1F
100
AcDbEntity
  8
実線
100
AcDbLine
 10
398.3194863850784
 20
703.1314178245582
 30
0.0
 11
398.3194863850784
 21
701.1314178245583
 31
0.0
  0
CIRCLE
  5
5BD
102
{ACAD_REACTORS
330
5F5
102
}
330
1F
100
AcDbEntity
  8
実線
100
AcDbCircle
 10
470.8194863850881
 20
377.1314178245582
 30
0.0
 40
38.75
  0
LINE
  5
5BE
102
{ACAD_REACTORS
330
5F5
102
}
330
1F
100
AcDbEntity
  8
実線
100
AcDbLine
 10
408.5194863850785
 20
598.1314178245582
 30
0.0
 11
408.5194863850785
 21
546.6314178245583
 31
0.0
  0
ARC
  5
5BF
102
{ACAD_REACTORS
330
5F5
102
}
330
1F
100
AcDbEntity
  8
実線
100
AcDbCircle
 10
475.5194863850785
 20
546.6314178245583
 30
0.0
 40
66.99999999999993
100
AcDbArc
 50
180.0
 51
230.2334159308383
  0
ARC
  5
5C0
102
{ACAD_REACTORS
330
5F5
102
}
330
1F
100
AcDbEntity
  8
実線
100
AcDbCircle
 10
475.5194863850785
 20
546.6314178245584
 30
0.0
 40
53.0
100
AcDbArc
 50
194.7568156063301
 51
256.3360910030507
  0
LINE
  5
5C1
102
{ACAD_REACTORS
330
5F5
102
}
330
1F
100
AcDbEntity
  8
実線
100
AcDbLine
 10
533.1194863850786
 20
598.1314178245582
 30
0.0
 11
533.1194863850786
 21
546.6314178245583
 31
0.0
  0
ARC
  5
5C2
102
{ACAD_REACTORS
330
5F5
102
}
330
1F
100
AcDbEntity
  8
実線
100
AcDbCircle
 10
466.1194863850786
 20
546.6314178245584
 30
0.0
 40
53.0
100
AcDbArc
 50
283.6639089969493
 51
345.2431843936698
  0
ARC
  5
5C3
102
{ACAD_REACTORS
330
5F5
102
}
330
1F
100
AcDbEntity
  8
実線
100
AcDbCircle
 10
466.1194863850786
 20
546.6314178245583
 30
0.0
 40
66.99999999999993
100
AcDbArc
 50
309.7665840691617
 51
0.0
  0
LINE
  5
5C4
102
{ACAD_REACTORS
330
5F5
102
}
330
1F
100
AcDbEntity
  8
実線
100
AcDbLine
 10
422.6764702768205
 20
533.1314178245583
 30
0.0
 11
518.9625024933367
 21
533.1314178245583
 31
0.0
  0
LINE
  5
5C5
102
{ACAD_REACTORS
330
5F5
102
}
330
1F
100
AcDbEntity
  8
実線
100
AcDbLine
 10
518.9625024933367
 20
533.1314178245583
 30
0.0
 11
518.9625024933367
 21
598.1314178245582
 31
0.0
  0
LINE
  5
5C6
102
{ACAD_REACTORS
330
5F5
102
}
330
1F
100
AcDbEntity
  8
実線
100
AcDbLine
 10
422.6764702768205
 20
598.1314178245582
 30
0.0
 11
422.6764702768205
 21
533.1314178245583
 31
0.0
  0
LINE
  5
5C7
102
{ACAD_REACTORS
330
5F5
102
}
330
1F
100
AcDbEntity
  8
実線
100
AcDbLine
 10
519.0694863850687
 20
401.4914187790351
 30
0.0
 11
524.0110068279685
 21
408.5486413498378
 31
0.0
  0
LINE
  5
5C8
102
{ACAD_REACTORS
330
5F5
102
}
330
1F
100
AcDbEntity
  8
実線
100
AcDbLine
 10
417.6279659421887
 20
408.5486413498378
 30
0.0
 11
422.5694863850881
 21
401.4914187790354
 31
0.0
  0
ARC
  5
5C9
102
{ACAD_REACTORS
330
5F5
102
}
330
1F
100
AcDbEntity
  8
実線
100
AcDbCircle
 10
515.8194863850788
 20
414.2844057133483
 30
0.0
 40
10.0
100
AcDbArc
 50
325.0000000000026
 51
330.6397780086113
  0
ARC
  5
5CA
102
{ACAD_REACTORS
330
5F5
102
}
330
1F
100
AcDbEntity
  8
実線
100
AcDbCircle
 10
425.8194863850786
 20
414.2844057133483
 30
0.0
 40
10.0
100
AcDbArc
 50
209.3602219913887
 51
214.9999999999974
  0
LINE
  5
5CB
102
{ACAD_REACTORS
330
5F5
102
}
330
1F
100
AcDbEntity
  8
実線
100
AcDbLine
 10
410.0397972072402
 20
466.6314178245584
 30
0.0
 11
444.0095142351373
 21
466.6314178245584
 31
0.0
  0
LINE
  5
5CC
102
{ACAD_REACTORS
330
5F5
102
}
330
1F
100
AcDbEntity
  8
実線
100
AcDbLine
 10
410.0397972072402
 20
481.6314178245582
 30
0.0
 11
410.0397972072402
 21
466.6314178245584
 31
0.0
  0
LINE
  5
5CD
102
{ACAD_REACTORS
330
5F5
102
}
330
1F
100
AcDbEntity
  8
実線
100
AcDbLine
 10
531.5991755629173
 20
466.6314178245584
 30
0.0
 11
531.5991755629173
 21
481.6314178245582
 31
0.0
  0
LINE
  5
5CE
102
{ACAD_REACTORS
330
5F5
102
}
330
1F
100
AcDbEntity
  8
実線
100
AcDbLine
 10
531.5991755629173
 20
466.6314178245584
 30
0.0
 11
497.6294585350197
 21
466.6314178245584
 31
0.0
  0
LINE
  5
5CF
102
{ACAD_REACTORS
330
5F5
102
}
330
1F
100
AcDbEntity
  8
実線
100
AcDbLine
 10
444.0095142351373
 20
466.6314178245584
 30
0.0
 11
444.0095142351373
 21
481.6314178245582
 31
0.0
  0
LINE
  5
5D0
102
{ACAD_REACTORS
330
5F5
102
}
330
1F
100
AcDbEntity
  8
実線
100
AcDbLine
 10
497.6294585350197
 20
466.6314178245584
 30
0.0
 11
497.6294585350197
 21
481.6314178245582
 31
0.0
  0
LINE
  5
5D1
102
{ACAD_REACTORS
330
5F5
102
}
330
1F
100
AcDbEntity
  8
実線
100
AcDbLine
 10
422.5694863850881
 20
343.8814178245584
 30
0.0
 11
442.5694863850881
 21
343.8814178245584
 31
0.0
  0
LINE
  5
5D2
102
{ACAD_REACTORS
330
5F5
102
}
330
1F
100
AcDbEntity
  8
実線
100
AcDbLine
 10
422.5694863850881
 20
343.8814178245584
 30
0.0
 11
422.5694863850881
 21
408.3163719225524
 31
0.0
  0
LINE
  5
5D3
102
{ACAD_REACTORS
330
5F5
102
}
330
1F
100
AcDbEntity
  8
実線
100
AcDbLine
 10
442.5694863850881
 20
350.6078434048086
 30
0.0
 11
442.5694863850881
 21
343.8814178245584
 31
0.0
  0
LINE
  5
5D4
102
{ACAD_REACTORS
330
5F5
102
}
330
1F
100
AcDbEntity
  8
実線
100
AcDbLine
 10
519.0694863850687
 20
343.8814178245584
 30
0.0
 11
499.0694863850688
 21
343.8814178245584
 31
0.0
  0
LINE
  5
5D5
102
{ACAD_REACTORS
330
5F5
102
}
330
1F
100
AcDbEntity
  8
実線
100
AcDbLine
 10
499.0694863850688
 20
343.8814178245584
 30
0.0
 11
499.0694863850688
 21
350.6078434047881
 31
0.0
  0
LINE
  5
5D6
102
{ACAD_REACTORS
330
5F5
102
}
330
1F
100
AcDbEntity
  8
実線
100
AcDbLine
 10
519.0694863850687
 20
408.316371922539
 30
0.0
 11
519.0694863850687
 21
343.8814178245584
 31
0.0
  0
LINE
  5
5D7
102
{ACAD_REACTORS
330
5E7
102
}
330
1F
100
AcDbEntity
  8
中心線
100
AcDbLine
 10
363.8194863850785
 20
141.1314178245584
 30
0.0
 11
577.8194863850785
 21
141.1314178245584
 31
0.0
  0
LINE
  5
5D8
102
{ACAD_REACTORS
330
5E7
102
}
330
1F
100
AcDbEntity
  8
中心線
100
AcDbLine
 10
470.8194863850787
 20
34.13141782455841
 30
0.0
 11
470.8194863850787
 21
248.1314178245584
 31
0.0
  0
LINE
  5
5D9
102
{ACAD_REACTORS
330
5F2
102
}
330
1F
100
AcDbEntity
  8
中心線
100
AcDbLine
 10
363.8194863850785
 20
1041.131417824558
 30
0.0
 11
577.8194863850784
 21
1041.131417824558
 31
0.0
  0
LINE
  5
5DA
102
{ACAD_REACTORS
330
5F2
102
}
330
1F
100
AcDbEntity
  8
中心線
100
AcDbLine
 10
470.8194863850785
 20
934.131417824558
 30
0.0
 11
470.8194863850785
 21
1148.131417824558
 31
0.0
  0
LINE
  5
5DB
102
{ACAD_REACTORS
330
5F3
102
}
330
1F
100
AcDbEntity
  8
中心線
100
AcDbLine
 10
963.819486385069
 20
441.1314178245584
 30
0.0
 11
1177.819486385069
 21
441.1314178245584
 31
0.0
  0
LINE
  5
5DC
102
{ACAD_REACTORS
330
5F3
102
}
330
1F
100
AcDbEntity
  8
中心線
100
AcDbLine
 10
1070.819486385069
 20
334.1314178245584
 30
0.0
 11
1070.819486385069
 21
858.4523432800423
 31
0.0
  0
LINE
  5
5DD
102
{ACAD_REACTORS
330
5F3
102
}
330
1F
100
AcDbEntity
  8
中心線
100
AcDbLine
 10
990.819486385069
 20
377.1314178245582
 30
0.0
 11
1150.819486385069
 21
377.1314178245582
 31
0.0
  0
LINE
  5
5DE
102
{ACAD_REACTORS
330
5F4
102
}
330
1F
100
AcDbEntity
  8
中心線
100
AcDbLine
 10
690.8194863850883
 20
441.1314178245585
 30
0.0
 11
850.8194863850883
 21
441.1314178245585
 31
0.0
  0
LINE
  5
5E0
102
{ACAD_REACTORS
330
5F4
102
}
330
1F
100
AcDbEntity
  8
中心線
100
AcDbLine
 10
663.819486385079
 20
377.1314178245583
 30
0.0
 11
877.819486385079
 21
377.1314178245583
 31
0.0
  0
LINE
  5
5E1
102
{ACAD_REACTORS
330
5F5
102
}
330
1F
100
AcDbEntity
  8
中心線
100
AcDbLine
 10
363.8194863850689
 20
441.1314178245584
 30
0.0
 11
577.8194863850688
 21
441.1314178245584
 31
0.0
  0
LINE
  5
5E3
102
{ACAD_REACTORS
330
5F5
102
}
330
1F
100
AcDbEntity
  8
中心線
100
AcDbLine
 10
390.8194863850881
 20
377.1314178245582
 30
0.0
 11
550.8194863850881
 21
377.1314178245582
 31
0.0
  0
LINE
  5
5E4
102
{ACAD_REACTORS
330
5F6
102
}
330
1F
100
AcDbEntity
  8
中心線
100
AcDbLine
 10
90.81948638506895
 20
441.1314178245584
 30
0.0
 11
250.819486385069
 21
441.1314178245584
 31
0.0
  0
LINE
  5
5E6
102
{ACAD_REACTORS
330
5F6
102
}
330
1F
100
AcDbEntity
  8
中心線
100
AcDbLine
 10
63.81948638506904
 20
377.1314178245582
 30
0.0
 11
277.819486385069
 21
377.1314178245582
 31
0.0
  0
LINE
  5
5EF
102
{ACAD_REACTORS
330
5F4
102
}
330
1F
100
AcDbEntity
  8
中心線
100
AcDbLine
 10
770.8194863850788
 20
334.1314178245585
 30
0.0
 11
770.8194863850787
 21
858.4523432800423
 31
0.0
  0
LINE
  5
5F0
102
{ACAD_REACTORS
330
5F5
102
}
330
1F
100
AcDbEntity
  8
中心線
100
AcDbLine
 10
470.819486385069
 20
334.1314178245584
 30
0.0
 11
470.819486385069
 21
858.4523432800425
 31
0.0
  0
LINE
  5
5F1
102
{ACAD_REACTORS
330
5F6
102
}
330
1F
100
AcDbEntity
  8
中心線
100
AcDbLine
 10
170.8194863850689
 20
334.1314178245586
 30
0.0
 11
170.819486385069
 21
858.4523432800427
 31
0.0
  0
ENDSEC
  0
SECTION
  2
OBJECTS
  0
DICTIONARY
  5
C
330
0
100
AcDbDictionary
281
     1
  3
ACAD_CIP_PREVIOUS_PRODUCT_INFO
350
2A6
  3
ACAD_COLOR
350
29C
  3
ACAD_DETAILVIEWSTYLE
350
29F
  3
ACAD_GROUP
350
D
  3
ACAD_LAYOUT
350
1A
  3
ACAD_MATERIAL
350
43
  3
ACAD_MLEADERSTYLE
350
5B
  3
ACAD_MLINESTYLE
350
17
  3
ACAD_PLOTSETTINGS
350
19
  3
ACAD_PLOTSTYLENAME
350
E
  3
ACAD_SCALELIST
350
47
  3
ACAD_SECTIONVIEWSTYLE
350
29D
  3
ACAD_TABLESTYLE
350
59
  3
ACAD_VISUALSTYLE
350
2A
  3
ACDB_RECOMPOSE_DATA
350
694
  3
AcDbVariableDictionary
350
251
  3
DWGPROPS
350
695
  0
DICTIONARY
  5
2AD
330
2
100
AcDbDictionary
280
     1
281
     1
  3
ACAD_LAYERSTATES
360
2AE
  0
DICTIONARY
  5
5F7
330
10
100
AcDbDictionary
280
     1
281
     1
  3
ADSK_XREC_LAYER_RECONCILED
360
5F8
  0
DICTIONARY
  5
2A9
330
2A8
100
AcDbDictionary
280
     1
281
     1
  3
ADSK_XREC_LAYER_RECONCILED
360
5F9
  0
DICTIONARY
  5
2AB
330
2AA
100
AcDbDictionary
280
     1
281
     1
  3
ADSK_XREC_LAYER_RECONCILED
360
5FA
  0
DICTIONARY
  5
441
330
1F
100
AcDbDictionary
280
     1
281
     1
  3
ACAD_SORTENTS
360
442
  0
XRECORD
  5
2A6
102
{ACAD_REACTORS
330
C
102
}
330
C
100
AcDbXrecord
280
     1
300
ACDLT
300
2016
300
ACDLT_F_S
  0
DICTIONARY
  5
29C
102
{ACAD_REACTORS
330
C
102
}
330
C
100
AcDbDictionary
281
     1
  0
DICTIONARY
  5
29F
102
{ACAD_REACTORS
330
C
102
}
330
C
100
AcDbDictionary
281
     1
  3
Metric50
350
2A0
  0
DICTIONARY
  5
D
102
{ACAD_REACTORS
330
C
102
}
330
C
100
AcDbDictionary
281
     1
  3
*A1
350
5E7
  3
*A2
350
5F2
  3
*A3
350
5F3
  3
*A4
350
5F4
  3
*A5
350
5F5
  3
*A6
350
5F6
  0
DICTIONARY
  5
1A
102
{ACAD_REACTORS
330
C
102
}
330
C
100
AcDbDictionary
281
     1
  3
Layout1
350
1E
  3
Model
350
22
  3
レイアウト1
350
2A1
  0
DICTIONARY
  5
43
102
{ACAD_REACTORS
330
C
102
}
330
C
100
AcDbDictionary
281
     1
  3
ByBlock
350
45
  3
ByLayer
350
44
  3
Global
350
46
  0
DICTIONARY
  5
5B
102
{ACAD_REACTORS
330
C
102
}
330
C
100
AcDbDictionary
281
     1
  3
Standard
350
5C
  0
DICTIONARY
  5
17
102
{ACAD_REACTORS
330
C
102
}
330
C
100
AcDbDictionary
281
     1
  3
Standard
350
18
  0
DICTIONARY
  5
19
102
{ACAD_REACTORS
330
C
102
}
330
C
100
AcDbDictionary
281
     1
  0
ACDBDICTIONARYWDFLT
  5
E
102
{ACAD_REACTORS
330
C
102
}
330
C
100
AcDbDictionary
281
     1
  3
Normal
350
F
100
AcDbDictionaryWithDefault
340
F
  0
DICTIONARY
  5
47
102
{ACAD_REACTORS
330
C
102
}
330
C
100
AcDbDictionary
281
     1
  3
A0
350
48
  3
A1
350
49
  3
A2
350
4A
  3
A3
350
4B
  3
A4
350
4C
  3
A5
350
4D
  3
A6
350
4E
  3
A7
350
4F
  3
A8
350
50
  3
A9
350
51
  3
B0
350
52
  3
B1
350
53
  3
B2
350
54
  3
B3
350
55
  3
B4
350
56
  3
B5
350
57
  3
B6
350
58
  0
DICTIONARY
  5
29D
102
{ACAD_REACTORS
330
C
102
}
330
C
100
AcDbDictionary
281
     1
  3
Metric50
350
29E
  0
DICTIONARY
  5
59
102
{ACAD_REACTORS
330
C
102
}
330
C
100
AcDbDictionary
281
     1
  3
Standard
350
5A
  0
DICTIONARY
  5
2A
102
{ACAD_REACTORS
330
C
102
}
330
C
100
AcDbDictionary
281
     1
  3
2dWireframe
350
2F
  3
Basic
350
32
  3
Brighten
350
36
  3
ColorChange
350
3A
  3
Conceptual
350
34
  3
Dim
350
35
  3
EdgeColorOff
350
3D
  3
Facepattern
350
39
  3
Flat
350
2B
  3
FlatWithEdges
350
2C
  3
Gouraud
350
2D
  3
GouraudWithEdges
350
2E
  3
Hidden
350
31
  3
JitterOff
350
3B
  3
Linepattern
350
38
  3
OverhangOff
350
3C
  3
Realistic
350
33
  3
Shaded
350
42
  3
Shaded with edges
350
41
  3
Shades of Gray
350
3E
  3
Sketchy
350
3F
  3
Thicken
350
37
  3
Wireframe
350
30
  3
X-Ray
350
40
  0
XRECORD
  5
694
102
{ACAD_REACTORS
330
C
102
}
330
C
100
AcDbXrecord
280
     1
 90
        1
330
5A
  0
DICTIONARY
  5
251
102
{ACAD_REACTORS
330
C
102
}
330
C
100
AcDbDictionary
281
     1
  3
CANNOSCALE
350
25F
  3
CENTEREXE
350
258
  3
CENTERLTYPEFILE
350
259
  3
CMLEADERSTYLE
350
253
  3
CTABLESTYLE
350
252
  3
CVIEWDETAILSTYLE
350
5FB
  3
CVIEWSECTIONSTYLE
350
5FC
  3
DIMASSOC
350
25A
  3
HIDETEXT
350
25B
  3
INDEXCTL
350
64E
  3
LAYEREVAL
350
5FE
  3
LAYERNOTIFY
350
5FF
  3
LIGHTINGUNITS
350
5FD
  3
LOFTANG1
350
651
  3
LOFTANG2
350
652
  3
LONGITUDE
350
653
  3
MSLTSCALE
350
260
  3
PSOLHEIGHT
350
650
  3
PSOLWIDTH
350
64F
  3
SORTENTS
350
64D
  3
XCLIPFRAME
350
654
  0
XRECORD
  5
695
102
{ACAD_REACTORS
330
C
102
}
330
C
100
AcDbXrecord
280
     1
  1
DWGPROPS COOKIE
  2

  3

  4

  6
File was created by TR2_DExp
  7

  8
fujino
  9

300
=
301
=
302
=
303
=
304
=
305
=
306
=
307
=
308
=
309
=
 40
0.0073273611111111
 41
2455188.75
 42
2459753.645337987
  1

 90
        0
  0
DICTIONARY
  5
2AE
102
{ACAD_REACTORS
330
2AD
102
}
330
2AD
100
AcDbDictionary
281
     1
  0
XRECORD
  5
5F8
102
{ACAD_REACTORS
330
5F7
102
}
330
5F7
100
AcDbXrecord
280
     1
290
     1
  0
XRECORD
  5
5F9
102
{ACAD_REACTORS
330
2A9
102
}
330
2A9
100
AcDbXrecord
280
     1
290
     1
  0
XRECORD
  5
5FA
102
{ACAD_REACTORS
330
2AB
102
}
330
2AB
100
AcDbXrecord
280
     1
290
     1
  0
SORTENTSTABLE
  5
442
102
{ACAD_REACTORS
330
441
102
}
330
441
100
AcDbSortentsTable
330
1F
331
5A5
  5
37C
331
5A1
  5
378
331
5DC
  5
5DC
331
59D
  5
374
331
44F
  5
4A2
331
5D8
  5
5D8
331
599
  5
370
331
44B
  5
49E
331
486
  5
4D9
331
5E3
  5
5E3
331
482
  5
4D5
331
41C
  5
50B
331
52D
  5
434
331
4BF
  5
464
331
418
  5
507
331
529
  5
430
331
4BB
  5
460
331
4F6
  5
3FD
331
525
  5
42C
331
564
  5
3D7
331
4B7
  5
45C
331
560
  5
3D3
331
4B3
  5
458
331
4F2
  5
3F9
331
521
  5
428
331
595
  5
36C
331
5D4
  5
3AB
331
591
  5
368
331
5D0
  5
3A7
331
58D
  5
364
331
5CC
  5
3A3
331
43F
  5
52E
331
47E
  5
4D1
331
5C8
  5
39F
331
47A
  5
4CD
331
589
  5
360
331
43B
  5
52A
331
437
  5
526
331
476
  5
4C9
331
433
  5
522
331
472
  5
4C5
331
414
  5
503
331
410
  5
4FF
331
40C
  5
4FB
331
51D
  5
424
331
55C
  5
3CF
331
4AF
  5
454
331
4EE
  5
493
331
408
  5
4F7
331
519
  5
420
331
558
  5
3CB
331
4AB
  5
450
331
4EA
  5
48F
331
4E6
  5
48B
331
515
  5
41C
331
554
  5
3C7
331
4A7
  5
44C
331
550
  5
3C3
331
4A3
  5
448
331
4E2
  5
487
331
511
  5
418
331
585
  5
35C
331
5C4
  5
39B
331
581
  5
3F4
331
5C0
  5
397
331
57D
  5
3F0
331
5BC
  5
393
331
42F
  5
51E
331
46E
  5
4C1
331
5B8
  5
38F
331
46A
  5
4BD
331
579
  5
3EC
331
42B
  5
51A
331
427
  5
516
331
466
  5
4B9
331
423
  5
512
331
462
  5
4B5
331
404
  5
4F3
331
5F1
  5
5F1
331
54C
  5
3BF
331
49F
  5
444
331
4DE
  5
483
331
50D
  5
414
331
509
  5
410
331
548
  5
3BB
331
49B
  5
4EE
331
4DA
  5
47F
331
4D6
  5
47B
331
505
  5
40C
331
544
  5
3B7
331
497
  5
4EA
331
493
  5
4E6
331
4D2
  5
477
331
501
  5
408
331
540
  5
3B3
331
575
  5
3E8
331
5B4
  5
38B
331
571
  5
3E4
331
5B0
  5
387
331
56D
  5
3E0
331
5AC
  5
383
331
45E
  5
4B1
331
5A8
  5
37F
331
45A
  5
4AD
331
569
  5
3DC
331
456
  5
4A9
331
452
  5
4A5
331
444
  5
497
331
440
  5
52F
331
53C
  5
3AF
331
48F
  5
4E2
331
4CE
  5
473
331
4FD
  5
404
331
4F9
  5
400
331
538
  5
43F
331
48B
  5
4DE
331
4CA
  5
46F
331
4C6
  5
46B
331
534
  5
43B
331
4C2
  5
467
331
530
  5
437
331
5A4
  5
37B
331
5A0
  5
377
331
5DB
  5
5DB
331
59C
  5
373
331
44E
  5
4A1
331
44A
  5
49D
331
598
  5
36F
331
5E6
  5
5E6
331
485
  5
4D8
331
481
  5
4D4
331
41F
  5
50E
331
41B
  5
50A
331
52C
  5
433
331
4BE
  5
463
331
528
  5
42F
331
567
  5
3DA
331
4BA
  5
45F
331
4B6
  5
45B
331
4F5
  5
3FC
331
524
  5
42B
331
563
  5
3D6
331
4B2
  5
457
331
4F1
  5
3F8
331
520
  5
427
331
5D7
  5
5D7
331
594
  5
36B
331
5D3
  5
3AA
331
590
  5
367
331
5CF
  5
3A6
331
47D
  5
4D0
331
58C
  5
363
331
43E
  5
52D
331
5CB
  5
3A2
331
479
  5
4CC
331
588
  5
35F
331
43A
  5
529
331
436
  5
525
331
475
  5
4C8
331
432
  5
521
331
471
  5
4C4
331
417
  5
506
331
413
  5
502
331
40F
  5
4FE
331
55F
  5
3D2
331
40B
  5
4FA
331
51C
  5
423
331
55B
  5
3CE
331
4AE
  5
453
331
4ED
  5
492
331
4E9
  5
48E
331
518
  5
41F
331
557
  5
3CA
331
4AA
  5
44F
331
4E5
  5
48A
331
514
  5
41B
331
553
  5
3C6
331
4A6
  5
44B
331
4A2
  5
447
331
4E1
  5
486
331
510
  5
417
331
5C7
  5
39E
331
584
  5
3F7
331
5C3
  5
39A
331
580
  5
3F3
331
5BF
  5
396
331
57C
  5
3EF
331
5BB
  5
392
331
42E
  5
51D
331
46D
  5
4C0
331
469
  5
4BC
331
578
  5
3EB
331
42A
  5
519
331
426
  5
515
331
465
  5
4B8
331
422
  5
511
331
461
  5
4B4
331
407
  5
4F6
331
403
  5
4F2
331
54F
  5
3C2
331
5F0
  5
5F0
331
50C
  5
413
331
54B
  5
3BE
331
49E
  5
4F1
331
4DD
  5
482
331
508
  5
40F
331
547
  5
3BA
331
49A
  5
4ED
331
4D9
  5
47E
331
4D5
  5
47A
331
504
  5
40B
331
543
  5
3B6
331
496
  5
4E9
331
492
  5
4E5
331
4D1
  5
476
331
500
  5
407
331
5B7
  5
38E
331
574
  5
3E7
331
5B3
  5
38A
331
570
  5
3E3
331
5AF
  5
386
331
56C
  5
3DF
331
5AB
  5
382
331
45D
  5
4B0
331
459
  5
4AC
331
568
  5
3DB
331
455
  5
4A8
331
451
  5
4A4
331
447
  5
49A
331
443
  5
496
331
53F
  5
3B2
331
53B
  5
3AE
331
48E
  5
4E1
331
4CD
  5
472
331
4FC
  5
403
331
4F8
  5
3FF
331
537
  5
43E
331
48A
  5
4DD
331
4C9
  5
46E
331
4C5
  5
46A
331
533
  5
43A
331
4C1
  5
466
331
5A7
  5
37E
331
5A3
  5
37A
331
5DE
  5
5DE
331
59F
  5
376
331
5DA
  5
5DA
331
59B
  5
372
331
44D
  5
4A0
331
449
  5
49C
331
484
  5
4D7
331
5E1
  5
5E1
331
480
  5
4D3
331
41E
  5
50D
331
41A
  5
509
331
52F
  5
436
331
52B
  5
432
331
4BD
  5
462
331
527
  5
42E
331
566
  5
3D9
331
4B9
  5
45E
331
4B5
  5
45A
331
4F4
  5
3FB
331
523
  5
42A
331
562
  5
3D5
331
4B1
  5
456
331
4F0
  5
495
331
597
  5
36E
331
5D6
  5
3AD
331
593
  5
36A
331
5D2
  5
3A9
331
58F
  5
366
331
5CE
  5
3A5
331
5CA
  5
3A1
331
47C
  5
4CF
331
58B
  5
362
331
43D
  5
52C
331
439
  5
528
331
478
  5
4CB
331
435
  5
524
331
474
  5
4C7
331
431
  5
520
331
470
  5
4C3
331
5EF
  5
5EF
331
416
  5
505
331
412
  5
501
331
40E
  5
4FD
331
55E
  5
3D1
331
40A
  5
4F9
331
51F
  5
426
331
51B
  5
422
331
55A
  5
3CD
331
4AD
  5
452
331
4EC
  5
491
331
4E8
  5
48D
331
517
  5
41E
331
556
  5
3C9
331
4A9
  5
44E
331
4A5
  5
44A
331
4E4
  5
489
331
513
  5
41A
331
552
  5
3C5
331
4A1
  5
446
331
4E0
  5
485
331
5C6
  5
39D
331
587
  5
35E
331
583
  5
3F6
331
5C2
  5
399
331
57F
  5
3F2
331
5BE
  5
395
331
46C
  5
4BF
331
57B
  5
3EE
331
42D
  5
51C
331
5BA
  5
391
331
468
  5
4BB
331
429
  5
518
331
425
  5
514
331
464
  5
4B7
331
421
  5
510
331
460
  5
4B3
331
406
  5
4F5
331
54E
  5
3C1
331
50F
  5
416
331
50B
  5
412
331
54A
  5
3BD
331
49D
  5
4F0
331
4DC
  5
481
331
4D8
  5
47D
331
507
  5
40E
331
546
  5
3B9
331
499
  5
4EC
331
4D4
  5
479
331
503
  5
40A
331
542
  5
3B5
331
495
  5
4E8
331
491
  5
4E4
331
4D0
  5
475
331
5B6
  5
38D
331
577
  5
3EA
331
573
  5
3E6
331
5B2
  5
389
331
56F
  5
3E2
331
5AE
  5
385
331
56B
  5
3DE
331
5AA
  5
381
331
45C
  5
4AF
331
458
  5
4AB
331
454
  5
4A7
331
450
  5
4A3
331
446
  5
499
331
53E
  5
3B1
331
4FF
  5
406
331
4FB
  5
402
331
53A
  5
443
331
48D
  5
4E0
331
4CC
  5
471
331
536
  5
43D
331
489
  5
4DC
331
4C8
  5
46D
331
4C4
  5
469
331
532
  5
439
331
4C0
  5
465
331
5A6
  5
37D
331
5A2
  5
379
331
5DD
  5
5DD
331
59E
  5
375
331
5D9
  5
5D9
331
59A
  5
371
331
44C
  5
49F
331
448
  5
49B
331
487
  5
4DA
331
5E4
  5
5E4
331
483
  5
4D6
331
5E0
  5
5E0
331
41D
  5
50C
331
52E
  5
435
331
419
  5
508
331
52A
  5
431
331
4BC
  5
461
331
4F7
  5
3FE
331
526
  5
42D
331
565
  5
3D8
331
4B8
  5
45D
331
561
  5
3D4
331
4B4
  5
459
331
4F3
  5
3FA
331
522
  5
429
331
4B0
  5
455
331
596
  5
36D
331
5D5
  5
3AC
331
592
  5
369
331
5D1
  5
3A8
331
58E
  5
365
331
5CD
  5
3A4
331
47F
  5
4D2
331
5C9
  5
3A0
331
47B
  5
4CE
331
58A
  5
361
331
43C
  5
52B
331
438
  5
527
331
477
  5
4CA
331
434
  5
523
331
473
  5
4C6
331
430
  5
51F
331
415
  5
504
331
411
  5
500
331
40D
  5
4FC
331
55D
  5
3D0
331
409
  5
4F8
331
4EF
  5
494
331
51E
  5
425
331
51A
  5
421
331
559
  5
3CC
331
4AC
  5
451
331
4EB
  5
490
331
4E7
  5
48C
331
516
  5
41D
331
555
  5
3C8
331
4A8
  5
44D
331
4A4
  5
449
331
4E3
  5
488
331
512
  5
419
331
551
  5
3C4
331
4A0
  5
445
331
586
  5
35D
331
5C5
  5
39C
331
582
  5
3F5
331
5C1
  5
398
331
57E
  5
3F1
331
5BD
  5
394
331
46F
  5
4C2
331
5B9
  5
390
331
46B
  5
4BE
331
57A
  5
3ED
331
42C
  5
51B
331
428
  5
517
331
467
  5
4BA
331
424
  5
513
331
463
  5
4B6
331
420
  5
50F
331
405
  5
4F4
331
54D
  5
3C0
331
4DF
  5
484
331
50E
  5
415
331
50A
  5
411
331
549
  5
3BC
331
49C
  5
4EF
331
4DB
  5
480
331
4D7
  5
47C
331
506
  5
40D
331
545
  5
3B8
331
498
  5
4EB
331
494
  5
4E7
331
4D3
  5
478
331
502
  5
409
331
541
  5
3B4
331
490
  5
4E3
331
5B5
  5
38C
331
576
  5
3E9
331
572
  5
3E5
331
5B1
  5
388
331
56E
  5
3E1
331
5AD
  5
384
331
45F
  5
4B2
331
45B
  5
4AE
331
56A
  5
3DD
331
5A9
  5
380
331
457
  5
4AA
331
453
  5
4A6
331
445
  5
498
331
53D
  5
3B0
331
4CF
  5
474
331
4FE
  5
405
331
4FA
  5
401
331
539
  5
440
331
48C
  5
4DF
331
4CB
  5
470
331
4C7
  5
46C
331
535
  5
43C
331
488
  5
4DB
331
4C3
  5
468
331
531
  5
438
  0
ACDBDETAILVIEWSTYLE
  5
2A0
102
{ACAD_XDICTIONARY
360
6CD
102
}
102
{ACAD_REACTORS
330
29F
102
}
330
29F
100
AcDbModelDocViewStyle
 70
     0
  3
Metric50
290
     0
100
AcDbDetailViewStyle
 70
     0
 71
     0
 90
        3
 71
     1
340
11
 40
5.0
340
0
 40
5.0
300

 40
0.0
280
     1
 71
     2
340
16
 90
       25
 71
     3
340
11
 40
5.0
 90
        0
 40
15.0
 90
        1
300
%<\AcVar ViewDetailId>% (%<\AcVar ViewScale \f "%sn">%)
 71
     4
340
16
 90
       25
340
16
 90
       25
280
     0
  0
GROUP
  5
5E7
102
{ACAD_REACTORS
330
D
102
}
330
D
100
AcDbGroup
300

 70
     1
 71
     1
340
5D8
340
5D7
340
49E
340
49D
340
49C
340
49B
340
49A
340
499
340
498
340
497
340
496
340
495
340
494
340
493
340
492
340
491
340
490
340
48F
340
48E
340
48D
340
48C
340
48B
340
48A
340
489
340
488
340
487
340
486
340
485
340
484
340
483
340
482
340
481
340
480
340
47F
340
47E
340
47D
340
47C
340
47B
340
47A
340
479
340
478
340
477
340
476
340
475
340
474
340
473
340
472
340
471
340
470
340
46F
340
46E
340
46D
340
46C
340
46B
340
46A
340
469
340
468
340
467
340
466
340
465
340
464
340
463
340
462
340
461
340
460
340
45F
340
45E
340
45D
340
45C
340
45B
340
45A
340
459
340
458
340
457
340
456
340
455
340
454
340
453
340
452
340
451
340
450
340
44F
340
44E
340
44D
340
44C
340
44B
340
44A
340
449
340
448
340
447
340
446
340
445
340
444
340
443
  0
GROUP
  5
5F2
102
{ACAD_REACTORS
330
D
102
}
330
D
100
AcDbGroup
300

 70
     1
 71
     1
340
5DA
340
5D9
340
440
340
43F
340
43E
340
43D
340
43C
340
43B
340
43A
340
439
340
438
340
437
340
436
340
435
340
434
340
433
340
432
340
431
340
430
340
42F
340
42E
340
42D
340
42C
340
42B
340
42A
340
429
340
428
340
427
340
426
340
425
340
424
340
423
340
422
340
421
340
420
340
41F
340
41E
340
41D
340
41C
340
41B
340
41A
340
419
340
418
340
417
340
416
340
415
340
414
340
413
340
412
340
411
340
410
340
40F
340
40E
340
40D
340
40C
340
40B
340
40A
340
409
340
408
340
407
340
406
340
405
340
404
340
403
  0
GROUP
  5
5F3
102
{ACAD_REACTORS
330
D
102
}
330
D
100
AcDbGroup
300

 70
     1
 71
     1
340
5DD
340
5DC
340
5DB
340
4F0
340
4EF
340
4EE
340
4ED
340
4EC
340
4EB
340
4EA
340
4E9
340
4E8
340
4E7
340
4E6
340
4E5
340
4E4
340
4E3
340
4E2
340
4E1
340
4E0
340
4DF
340
4DE
340
4DD
340
4DC
340
4DB
340
4DA
340
4D9
340
4D8
340
4D7
340
4D6
340
4D5
340
4D4
340
4D3
340
4D2
340
4D1
340
4D0
340
4CF
340
4CE
340
4CD
340
4CC
340
4CB
340
4CA
340
4C9
340
4C8
340
4C7
340
4C6
340
4C5
340
4C4
340
4C3
340
4C2
340
4C1
340
4C0
340
4BF
340
4BE
340
4BD
340
4BC
340
4BB
340
4BA
340
4B9
340
4B8
340
4B7
340
4B6
340
4B5
340
4B4
340
4B3
340
4B2
340
4B1
340
4B0
340
4AF
340
4AE
340
4AD
340
4AC
340
4AB
340
4AA
340
4A9
340
4A8
340
4A7
340
4A6
340
4A5
340
4A4
340
4A3
340
4A2
340
4A1
340
4A0
340
49F
  0
GROUP
  5
5F4
102
{ACAD_REACTORS
330
D
102
}
330
D
100
AcDbGroup
300

 70
     1
 71
     1
340
5EF
340
5E0
340
5DE
340
53A
340
539
340
538
340
537
340
536
340
535
340
534
340
533
340
532
340
531
340
530
340
52F
340
52E
340
52D
340
52C
340
52B
340
52A
340
529
340
528
340
527
340
526
340
525
340
524
340
523
340
522
340
521
340
520
340
51F
340
51E
340
51D
340
51C
340
51B
340
51A
340
519
340
518
340
517
340
516
340
515
340
514
340
513
340
512
340
511
340
510
340
50F
340
50E
340
50D
340
50C
340
50B
340
50A
340
509
340
508
340
507
340
506
340
505
340
504
340
503
340
502
340
501
340
500
340
4FF
340
4FE
340
4FD
340
4FC
340
4FB
340
4FA
340
4F9
340
4F8
340
4F7
340
4F6
340
4F5
340
4F4
340
4F3
340
4F2
340
4F1
  0
GROUP
  5
5F5
102
{ACAD_REACTORS
330
D
102
}
330
D
100
AcDbGroup
300

 70
     1
 71
     1
340
5F0
340
5E3
340
5E1
340
5D6
340
5D5
340
5D4
340
5D3
340
5D2
340
5D1
340
5D0
340
5CF
340
5CE
340
5CD
340
5CC
340
5CB
340
5CA
340
5C9
340
5C8
340
5C7
340
5C6
340
5C5
340
5C4
340
5C3
340
5C2
340
5C1
340
5C0
340
5BF
340
5BE
340
5BD
340
5BC
340
5BB
340
5BA
340
5B9
340
5B8
340
5B7
340
5B6
340
5B5
340
5B4
340
5B3
340
5B2
340
5B1
340
5B0
340
5AF
340
5AE
340
5AD
340
5AC
340
5AB
340
5AA
340
5A9
340
5A8
340
5A7
340
5A6
340
5A5
340
5A4
340
5A3
340
5A2
340
5A1
340
5A0
340
59F
340
59E
340
59D
340
59C
340
59B
340
59A
340
599
340
598
340
597
340
596
340
595
340
594
340
593
340
592
340
591
340
590
340
58F
340
58E
340
58D
340
58C
340
58B
340
58A
340
589
340
588
340
587
340
586
340
585
  0
GROUP
  5
5F6
102
{ACAD_REACTORS
330
D
102
}
330
D
100
AcDbGroup
300

 70
     1
 71
     1
340
5F1
340
5E6
340
5E4
340
584
340
583
340
582
340
581
340
580
340
57F
340
57E
340
57D
340
57C
340
57B
340
57A
340
579
340
578
340
577
340
576
340
575
340
574
340
573
340
572
340
571
340
570
340
56F
340
56E
340
56D
340
56C
340
56B
340
56A
340
569
340
568
340
567
340
566
340
565
340
564
340
563
340
562
340
561
340
560
340
55F
340
55E
340
55D
340
55C
340
55B
340
55A
340
559
340
558
340
557
340
556
340
555
340
554
340
553
340
552
340
551
340
550
340
54F
340
54E
340
54D
340
54C
340
54B
340
54A
340
549
340
548
340
547
340
546
340
545
340
544
340
543
340
542
340
541
340
540
340
53F
340
53E
340
53D
340
53C
340
53B
  0
LAYOUT
  5
1E
102
{ACAD_XDICTIONARY
360
696
102
}
102
{ACAD_REACTORS
330
1A
102
}
330
1A
100
AcDbPlotSettings
  1

  2
none_device
  4

  6

 40
0.0
 41
0.0
 42
0.0
 43
0.0
 44
0.0
 45
0.0
 46
0.0
 47
0.0
 48
0.0
 49
0.0
140
0.0
141
0.0
142
1.0
143
1.0
 70
   688
 72
     1
 73
     0
 74
     5
  7

 75
    16
147
1.0
148
0.0
149
0.0
100
AcDbLayout
  1
Layout1
 70
     1
 71
     1
 10
0.0
 20
0.0
 11
420.0
 21
297.0
 12
0.0
 22
0.0
 32
0.0
 14
1.000000000000000E+20
 24
1.000000000000000E+20
 34
1.000000000000000E+20
 15
-1.000000000000000E+20
 25
-1.000000000000000E+20
 35
-1.000000000000000E+20
146
0.0
 13
0.0
 23
0.0
 33
0.0
 16
1.0
 26
0.0
 36
0.0
 17
0.0
 27
1.0
 37
0.0
 76
     0
330
1B
  0
LAYOUT
  5
22
102
{ACAD_XDICTIONARY
360
698
102
}
102
{ACAD_REACTORS
330
1A
102
}
330
1A
100
AcDbPlotSettings
  1

  2
none_device
  4
Letter_(8.50_x_11.00_Inches)
  6

 40
6.349999999999998
 41
6.349999999999998
 42
6.350005079999998
 43
6.350005079999998
 44
215.9
 45
279.4
 46
0.0
 47
0.0
 48
0.0
 49
0.0
140
0.0
141
0.0
142
1.0
143
1.0
 70
  1712
 72
     1
 73
     0
 74
     0
  7

 75
     0
147
1.0
148
0.0
149
0.0
100
AcDbLayout
  1
Model
 70
     1
 71
     0
 10
-485.7004852294716
 20
-536.1734275817662
 11
1193.13298034668
 21
886.9045867919712
 12
0.0
 22
0.0
 32
0.0
 14
-485.7004852294716
 24
-536.1734275817662
 34
0.0
 15
1193.13298034668
 25
886.9045867919712
 35
0.0
146
0.0
 13
0.0
 23
0.0
 33
0.0
 16
1.0
 26
0.0
 36
0.0
 17
0.0
 27
1.0
 37
0.0
 76
     0
330
1F
331
29
  0
LAYOUT
  5
2A1
102
{ACAD_XDICTIONARY
360
6CF
102
}
102
{ACAD_REACTORS
330
1A
102
}
330
1A
100
AcDbPlotSettings
  1

  2
青梅 FX DocuCentre-V C2275 T2
  4

  6

 40
0.0
 41
0.0
 42
0.0
 43
0.0
 44
0.0
 45
0.0
 46
0.0
 47
0.0
 48
0.0
 49
0.0
140
0.0
141
0.0
142
1.0
143
1.0
 70
   688
 72
     0
 73
     0
 74
     5
  7
AutoCAD_PEN.ctb
 75
    16
147
1.0
148
0.0
149
0.0
100
AcDbLayout
  1
レイアウト1
 70
     1
 71
     2
 10
0.0
 20
0.0
 11
12.0
 21
9.0
 12
0.0
 22
0.0
 32
0.0
 14
0.0
 24
0.0
 34
0.0
 15
0.0
 25
0.0
 35
0.0
146
0.0
 13
0.0
 23
0.0
 33
0.0
 16
1.0
 26
0.0
 36
0.0
 17
0.0
 27
1.0
 37
0.0
 76
     0
330
23
  0
MATERIAL
  5
45
102
{ACAD_XDICTIONARY
360
293
102
}
102
{ACAD_REACTORS
330
43
102
}
330
43
100
AcDbMaterial
  1
ByBlock
  0
MATERIAL
  5
44
102
{ACAD_XDICTIONARY
360
291
102
}
102
{ACAD_REACTORS
330
43
102
}
330
43
100
AcDbMaterial
  1
ByLayer
  0
MATERIAL
  5
46
102
{ACAD_XDICTIONARY
360
295
102
}
102
{ACAD_REACTORS
330
43
102
}
330
43
100
AcDbMaterial
  1
Global
  0
MLEADERSTYLE
  5
5C
102
{ACAD_REACTORS
330
5B
102
}
330
5B
100
AcDbMLeaderStyle
170
     2
171
     1
172
     0
 90
        2
 40
0.0
 41
0.0
173
     1
 91
-1056964608
340
14
 92
       -2
290
     1
 42
2.0
291
     1
 43
8.0
  3
Standard
 44
4.0
300

342
11
174
     1
178
     6
175
     1
176
     0
 93
-1056964608
 45
4.0
292
     0
297
     0
 46
4.0
 94
-1056964608
 47
1.0
 49
1.0
140
1.0
293
     1
141
0.0
294
     1
177
     0
142
1.0
295
     0
296
     0
143
3.75
1001
ACAD_MLEADERVER
1070
     2
  0
MLINESTYLE
  5
18
102
{ACAD_REACTORS
330
17
102
}
330
17
100
AcDbMlineStyle
  2
STANDARD
 70
     0
  3

 62
   256
 51
90.0
 52
90.0
 71
     2
 49
0.5
 62
   256
  6
BYLAYER
 49
-0.5
 62
   256
  6
BYLAYER
  0
ACDBPLACEHOLDER
  5
F
102
{ACAD_REACTORS
330
E
102
}
330
E
  0
SCALE
  5
48
102
{ACAD_REACTORS
330
47
102
}
330
47
100
AcDbScale
 70
     0
300
1:1
140
1.0
141
1.0
290
     1
  0
SCALE
  5
49
102
{ACAD_REACTORS
330
47
102
}
330
47
100
AcDbScale
 70
     0
300
1:2
140
1.0
141
2.0
290
     0
  0
SCALE
  5
4A
102
{ACAD_REACTORS
330
47
102
}
330
47
100
AcDbScale
 70
     0
300
1:4
140
1.0
141
4.0
290
     0
  0
SCALE
  5
4B
102
{ACAD_REACTORS
330
47
102
}
330
47
100
AcDbScale
 70
     0
300
1:5
140
1.0
141
5.0
290
     0
  0
SCALE
  5
4C
102
{ACAD_REACTORS
330
47
102
}
330
47
100
AcDbScale
 70
     0
300
1:8
140
1.0
141
8.0
290
     0
  0
SCALE
  5
4D
102
{ACAD_REACTORS
330
47
102
}
330
47
100
AcDbScale
 70
     0
300
1:10
140
1.0
141
10.0
290
     0
  0
SCALE
  5
4E
102
{ACAD_REACTORS
330
47
102
}
330
47
100
AcDbScale
 70
     0
300
1:16
140
1.0
141
16.0
290
     0
  0
SCALE
  5
4F
102
{ACAD_REACTORS
330
47
102
}
330
47
100
AcDbScale
 70
     0
300
1:20
140
1.0
141
20.0
290
     0
  0
SCALE
  5
50
102
{ACAD_REACTORS
330
47
102
}
330
47
100
AcDbScale
 70
     0
300
1:30
140
1.0
141
30.0
290
     0
  0
SCALE
  5
51
102
{ACAD_REACTORS
330
47
102
}
330
47
100
AcDbScale
 70
     0
300
1:40
140
1.0
141
40.0
290
     0
  0
SCALE
  5
52
102
{ACAD_REACTORS
330
47
102
}
330
47
100
AcDbScale
 70
     0
300
1:50
140
1.0
141
50.0
290
     0
  0
SCALE
  5
53
102
{ACAD_REACTORS
330
47
102
}
330
47
100
AcDbScale
 70
     0
300
1:100
140
1.0
141
100.0
290
     0
  0
SCALE
  5
54
102
{ACAD_REACTORS
330
47
102
}
330
47
100
AcDbScale
 70
     0
300
2:1
140
2.0
141
1.0
290
     0
  0
SCALE
  5
55
102
{ACAD_REACTORS
330
47
102
}
330
47
100
AcDbScale
 70
     0
300
4:1
140
4.0
141
1.0
290
     0
  0
SCALE
  5
56
102
{ACAD_REACTORS
330
47
102
}
330
47
100
AcDbScale
 70
     0
300
8:1
140
8.0
141
1.0
290
     0
  0
SCALE
  5
57
102
{ACAD_REACTORS
330
47
102
}
330
47
100
AcDbScale
 70
     0
300
10:1
140
10.0
141
1.0
290
     0
  0
SCALE
  5
58
102
{ACAD_REACTORS
330
47
102
}
330
47
100
AcDbScale
 70
     0
300
100:1
140
100.0
141
1.0
290
     0
  0
ACDBSECTIONVIEWSTYLE
  5
29E
102
{ACAD_XDICTIONARY
360
6CB
102
}
102
{ACAD_REACTORS
330
29D
102
}
330
29D
100
AcDbModelDocViewStyle
 70
     0
  3
Metric50
290
     0
100
AcDbSectionViewStyle
 70
     0
 71
     0
 90
      102
 71
     1
340
11
 40
5.0
340
0
340
0
 40
5.0
300
I, O, Q, S, X, Z
 40
10.0
 90
        0
 40
2.5
 90
        0
 71
     2
340
16
 90
       25
340
16
 90
       50
 40
5.0
 40
2.5
 40
5.0
 71
     3
340
11
 40
5.0
 90
        0
 40
15.0
 90
        1
300
%<\AcVar ViewSectionStartId>%-%<\AcVar ViewSectionEndId>% (%<\AcVar ViewScale \f "%sn">%)
 71
     4
300
ANSI31
 40
1.0
 90
        0
290
     0
290
     0
 90
        6
 40
0.0
 40
1.570796326794896
 40
0.2617993877991494
 40
1.308996938995747
 40
-0.2617993877991494
 40
1.832595714594045
  0
TABLESTYLE
  5
5A
102
{ACAD_XDICTIONARY
360
600
102
}
102
{ACAD_REACTORS
330
59
102
}
330
59
100
AcDbTableStyle
  3
Standard
 70
     0
 71
     0
 40
1.5
 41
1.5
280
     0
281
     0
  7
Standard
140
4.5
170
     2
 62
     0
 63
     7
283
     0
274
    -2
284
     1
 64
     0
275
    -2
285
     1
 65
     0
276
    -2
286
     1
 66
     0
277
    -2
287
     1
 67
     0
278
    -2
288
     1
 68
     0
279
    -2
289
     1
 69
     0
  7
Standard
140
6.0
170
     5
 62
     0
 63
     7
283
     0
274
    -2
284
     1
 64
     0
275
    -2
285
     1
 65
     0
276
    -2
286
     1
 66
     0
277
    -2
287
     1
 67
     0
278
    -2
288
     1
 68
     0
279
    -2
289
     1
 69
     0
  7
Standard
140
4.5
170
     5
 62
     0
 63
     7
283
     0
274
    -2
284
     1
 64
     0
275
    -2
285
     1
 65
     0
276
    -2
286
     1
 66
     0
277
    -2
287
     1
 67
     0
278
    -2
288
     1
 68
     0
279
    -2
289
     1
 69
     0
  0
VISUALSTYLE
  5
2F
102
{ACAD_XDICTIONARY
360
6A2
102
}
102
{ACAD_REACTORS
330
2A
102
}
330
2A
100
AcDbVisualStyle
  2

 70
     4
 71
     0
 72
     2
 73
     0
 90
        0
 40
-0.6
 41
-30.0
 62
     5
 63
     7
 74
     1
 91
        4
 64
     7
 65
   257
 75
     1
175
     1
 42
1.0
 92
        0
 66
   257
 43
1.0
 76
     1
 77
     6
 78
     2
 67
     7
 79
     5
170
     0
171
     0
290
     0
174
     0
 93
        1
 44
0.0
173
     0
291
     0
 45
0.0
1001
ACAD
1000
AcDbSavedByObjectVersion
1070
     0
  0
VISUALSTYLE
  5
32
102
{ACAD_XDICTIONARY
360
6A8
102
}
102
{ACAD_REACTORS
330
2A
102
}
330
2A
100
AcDbVisualStyle
  2

 70
     7
 71
     1
 72
     0
 73
     1
 90
        0
 40
-0.6
 41
-30.0
 62
     5
 63
     7
 74
     0
 91
        4
 64
     7
 65
   257
 75
     1
175
     1
 42
1.0
 92
        8
 66
     7
 43
1.0
 76
     1
 77
     6
 78
     2
 67
     7
 79
     5
170
     0
171
     0
290
     0
174
     0
 93
        1
 44
0.0
173
     0
291
     1
 45
0.0
1001
ACAD
1000
AcDbSavedByObjectVersion
1070
     0
  0
VISUALSTYLE
  5
36
102
{ACAD_XDICTIONARY
360
6B0
102
}
102
{ACAD_REACTORS
330
2A
102
}
330
2A
100
AcDbVisualStyle
  2

 70
    12
 71
     2
 72
     2
 73
     0
 90
        0
 40
-0.6
 41
-30.0
 62
     5
 63
     7
 74
     1
 91
        4
 64
     7
 65
   257
 75
     1
175
     1
 42
1.0
 92
        8
 66
     7
 43
1.0
 76
     1
 77
     6
 78
     2
 67
     7
 79
     5
170
     0
171
     0
290
     0
174
     0
 93
        1
 44
50.0
173
     0
291
     1
 45
0.0
1001
ACAD
1000
AcDbSavedByObjectVersion
1070
     0
  0
VISUALSTYLE
  5
3A
102
{ACAD_XDICTIONARY
360
6B8
102
}
102
{ACAD_REACTORS
330
2A
102
}
330
2A
100
AcDbVisualStyle
  2

 70
    16
 71
     2
 72
     2
 73
     3
 90
        0
 40
-0.6
 41
-30.0
 62
     5
 63
     8
 74
     1
 91
        4
 64
     7
 65
   257
 75
     1
175
     1
 42
1.0
 92
        8
 66
     8
 43
1.0
 76
     1
 77
     6
 78
     2
 67
     7
 79
     5
170
     0
171
     0
290
     0
174
     0
 93
        1
 44
0.0
173
     0
291
     1
 45
0.0
1001
ACAD
1000
AcDbSavedByObjectVersion
1070
     0
  0
VISUALSTYLE
  5
34
102
{ACAD_XDICTIONARY
360
6AC
102
}
102
{ACAD_REACTORS
330
2A
102
}
330
2A
100
AcDbVisualStyle
  2

 70
     9
 71
     3
 72
     2
 73
     0
 90
        0
 40
-0.6
 41
-30.0
 62
     5
 63
     7
 74
     2
 91
        2
 64
     7
 65
   257
 75
     1
175
     1
 42
179.0
 92
        8
 66
     7
 43
1.0
 76
     1
 77
     6
 78
     2
 67
     7
 79
     3
170
     0
171
     0
290
     0
174
     0
 93
        1
 44
0.0
173
     0
291
     0
 45
0.0
1001
ACAD
1000
AcDbSavedByObjectVersion
1070
     0
  0
VISUALSTYLE
  5
35
102
{ACAD_XDICTIONARY
360
6AE
102
}
102
{ACAD_REACTORS
330
2A
102
}
330
2A
100
AcDbVisualStyle
  2

 70
    11
 71
     2
 72
     2
 73
     0
 90
        0
 40
-0.6
 41
-30.0
 62
     5
 63
     7
 74
     1
 91
        4
 64
     7
 65
   257
 75
     1
175
     1
 42
1.0
 92
        8
 66
     7
 43
1.0
 76
     1
 77
     6
 78
     2
 67
     7
 79
     5
170
     0
171
     0
290
     0
174
     0
 93
        1
 44
-50.0
173
     0
291
     1
 45
0.0
1001
ACAD
1000
AcDbSavedByObjectVersion
1070
     0
  0
VISUALSTYLE
  5
3D
102
{ACAD_XDICTIONARY
360
6BE
102
}
102
{ACAD_REACTORS
330
2A
102
}
330
2A
100
AcDbVisualStyle
  2

 70
    22
 71
     2
 72
     2
 73
     0
 90
        0
 40
-0.6
 41
-30.0
 62
     5
 63
     7
 74
     1
 91
        4
 64
     7
 65
   257
 75
     1
175
     1
 42
1.0
 92
        8
 66
     7
 43
1.0
 76
     1
 77
     6
 78
     2
 67
     7
 79
     5
170
     0
171
     0
290
     0
174
     0
 93
        1
 44
0.0
173
     0
291
     1
 45
0.0
1001
ACAD
1000
AcDbSavedByObjectVersion
1070
     0
  0
VISUALSTYLE
  5
39
102
{ACAD_XDICTIONARY
360
6B6
102
}
102
{ACAD_REACTORS
330
2A
102
}
330
2A
100
AcDbVisualStyle
  2

 70
    15
 71
     2
 72
     2
 73
     0
 90
        0
 40
-0.6
 41
-30.0
 62
     5
 63
     7
 74
     1
 91
        4
 64
     7
 65
   257
 75
     1
175
     1
 42
1.0
 92
        8
 66
     7
 43
1.0
 76
     1
 77
     6
 78
     2
 67
     7
 79
     5
170
     0
171
     0
290
     0
174
     0
 93
        1
 44
0.0
173
     0
291
     1
 45
0.0
1001
ACAD
1000
AcDbSavedByObjectVersion
1070
     0
  0
VISUALSTYLE
  5
2B
102
{ACAD_XDICTIONARY
360
69A
102
}
102
{ACAD_REACTORS
330
2A
102
}
330
2A
100
AcDbVisualStyle
  2

 70
     0
 71
     2
 72
     1
 73
     1
 90
        2
 40
-0.6
 41
30.0
 62
     5
 63
     7
 74
     0
 91
        0
 64
     7
 65
   257
 75
     1
175
     1
 42
1.0
 92
        8
 66
     7
 43
1.0
 76
     1
 77
     6
 78
     2
 67
     7
 79
     5
170
     0
171
     0
290
     0
174
     0
 93
       13
 44
0.0
173
     0
291
     1
 45
0.0
1001
ACAD
1000
AcDbSavedByObjectVersion
1070
     0
  0
VISUALSTYLE
  5
2C
102
{ACAD_XDICTIONARY
360
69C
102
}
102
{ACAD_REACTORS
330
2A
102
}
330
2A
100
AcDbVisualStyle
  2

 70
     1
 71
     2
 72
     1
 73
     1
 90
        2
 40
-0.6
 41
30.0
 62
     5
 63
     7
 74
     1
 91
        0
 64
     7
 65
   257
 75
     1
175
     1
 42
1.0
 92
        0
 66
   257
 43
1.0
 76
     1
 77
     6
 78
     2
 67
     7
 79
     5
170
     0
171
     0
290
     0
174
     0
 93
       13
 44
0.0
173
     0
291
     1
 45
0.0
1001
ACAD
1000
AcDbSavedByObjectVersion
1070
     0
  0
VISUALSTYLE
  5
2D
102
{ACAD_XDICTIONARY
360
69E
102
}
102
{ACAD_REACTORS
330
2A
102
}
330
2A
100
AcDbVisualStyle
  2

 70
     2
 71
     2
 72
     2
 73
     1
 90
        2
 40
-0.6
 41
30.0
 62
     5
 63
     7
 74
     0
 91
        0
 64
     7
 65
   257
 75
     1
175
     1
 42
1.0
 92
        0
 66
     7
 43
1.0
 76
     1
 77
     6
 78
     2
 67
     7
 79
     5
170
     0
171
     0
290
     0
174
     0
 93
       13
 44
0.0
173
     0
291
     1
 45
0.0
1001
ACAD
1000
AcDbSavedByObjectVersion
1070
     0
  0
VISUALSTYLE
  5
2E
102
{ACAD_XDICTIONARY
360
6A0
102
}
102
{ACAD_REACTORS
330
2A
102
}
330
2A
100
AcDbVisualStyle
  2

 70
     3
 71
     2
 72
     2
 73
     1
 90
        2
 40
-0.6
 41
30.0
 62
     5
 63
     7
 74
     1
 91
        0
 64
     7
 65
   257
 75
     1
175
     1
 42
1.0
 92
        0
 66
   257
 43
1.0
 76
     1
 77
     6
 78
     2
 67
     7
 79
     5
170
     0
171
     0
290
     0
174
     0
 93
       13
 44
0.0
173
     0
291
     1
 45
0.0
1001
ACAD
1000
AcDbSavedByObjectVersion
1070
     0
  0
VISUALSTYLE
  5
31
102
{ACAD_XDICTIONARY
360
6A6
102
}
102
{ACAD_REACTORS
330
2A
102
}
330
2A
100
AcDbVisualStyle
  2

 70
     6
 71
     1
 72
     2
 73
     2
 90
        0
 40
-0.6
 41
-30.0
 62
     5
 63
     7
 74
     2
 91
        2
 64
     7
 65
   257
 75
     2
175
     1
 42
40.0
 92
        0
 66
   257
 43
1.0
 76
     1
 77
     6
 78
     2
 67
     7
 79
     3
170
     0
171
     0
290
     0
174
     0
 93
        1
 44
0.0
173
     0
291
     0
 45
0.0
1001
ACAD
1000
AcDbSavedByObjectVersion
1070
     0
  0
VISUALSTYLE
  5
3B
102
{ACAD_XDICTIONARY
360
6BA
102
}
102
{ACAD_REACTORS
330
2A
102
}
330
2A
100
AcDbVisualStyle
  2

 70
    20
 71
     2
 72
     2
 73
     0
 90
        0
 40
-0.6
 41
-30.0
 62
     5
 63
     7
 74
     1
 91
        4
 64
     7
 65
   257
 75
     1
175
     1
 42
1.0
 92
       10
 66
     7
 43
1.0
 76
     1
 77
     6
 78
     2
 67
     7
 79
     5
170
     0
171
     0
290
     0
174
     0
 93
        1
 44
0.0
173
     0
291
     1
 45
0.0
1001
ACAD
1000
AcDbSavedByObjectVersion
1070
     0
  0
VISUALSTYLE
  5
38
102
{ACAD_XDICTIONARY
360
6B4
102
}
102
{ACAD_REACTORS
330
2A
102
}
330
2A
100
AcDbVisualStyle
  2

 70
    14
 71
     2
 72
     2
 73
     0
 90
        0
 40
-0.6
 41
-30.0
 62
     5
 63
     7
 74
     1
 91
        4
 64
     7
 65
   257
 75
     7
175
     7
 42
1.0
 92
        8
 66
     7
 43
1.0
 76
     1
 77
     6
 78
     2
 67
     7
 79
     5
170
     0
171
     0
290
     0
174
     0
 93
        1
 44
0.0
173
     0
291
     1
 45
0.0
1001
ACAD
1000
AcDbSavedByObjectVersion
1070
     0
  0
VISUALSTYLE
  5
3C
102
{ACAD_XDICTIONARY
360
6BC
102
}
102
{ACAD_REACTORS
330
2A
102
}
330
2A
100
AcDbVisualStyle
  2

 70
    21
 71
     2
 72
     2
 73
     0
 90
        0
 40
-0.6
 41
-30.0
 62
     5
 63
     7
 74
     1
 91
        4
 64
     7
 65
   257
 75
     1
175
     1
 42
1.0
 92
        9
 66
     7
 43
1.0
 76
     1
 77
     6
 78
     2
 67
     7
 79
     5
170
     0
171
     0
290
     0
174
     0
 93
        1
 44
0.0
173
     0
291
     1
 45
0.0
1001
ACAD
1000
AcDbSavedByObjectVersion
1070
     0
  0
VISUALSTYLE
  5
33
102
{ACAD_XDICTIONARY
360
6AA
102
}
102
{ACAD_REACTORS
330
2A
102
}
330
2A
100
AcDbVisualStyle
  2

 70
     8
 71
     2
 72
     3
 73
     0
 90
        2
 40
-0.6
 41
30.0
 62
     5
 63
     7
 74
     0
 91
        0
 64
     7
 65
   257
 75
     1
175
     1
 42
1.0
 92
        8
 66
   257
 43
1.0
 76
     1
 77
     6
 78
     2
 67
     7
 79
     3
170
     0
171
     0
290
     0
174
     0
 93
       13
 44
0.0
173
     0
291
     0
 45
0.0
1001
ACAD
1000
AcDbSavedByObjectVersion
1070
     0
  0
VISUALSTYLE
  5
42
102
{ACAD_XDICTIONARY
360
6C8
102
}
102
{ACAD_REACTORS
330
2A
102
}
330
2A
100
AcDbVisualStyle
  2

 70
    27
 71
     2
 72
     2
 73
     1
 90
        2
 40
-0.6
 41
30.0
 62
     5
 63
     7
 74
     0
 91
        4
 64
     7
 65
   257
 75
     1
175
     1
 42
1.0
 92
        8
 66
   257
 43
1.0
 76
     1
 77
     6
 78
     2
 67
     8
 79
     3
170
     0
171
     0
290
     0
174
     0
 93
        5
 44
0.0
173
     0
291
     0
 45
0.0
1001
ACAD
1000
AcDbSavedByObjectVersion
1070
     0
  0
VISUALSTYLE
  5
41
102
{ACAD_XDICTIONARY
360
6C6
102
}
102
{ACAD_REACTORS
330
2A
102
}
330
2A
100
AcDbVisualStyle
  2

 70
    26
 71
     2
 72
     2
 73
     1
 90
        2
 40
-0.6
 41
30.0
 62
     5
 63
     7
 74
     1
 91
       10
 64
     7
 65
   257
 75
     2
175
     1
 42
1.0
 92
        8
 66
   257
 43
1.0
 76
     1
 77
     6
 78
     2
 67
     7
 79
     3
170
     0
171
     0
290
     0
174
     0
 93
        5
 44
0.0
173
     0
291
     0
 45
0.0
1001
ACAD
1000
AcDbSavedByObjectVersion
1070
     0
  0
VISUALSTYLE
  5
3E
102
{ACAD_XDICTIONARY
360
6C0
102
}
102
{ACAD_REACTORS
330
2A
102
}
330
2A
100
AcDbVisualStyle
  2

 70
    23
 71
     2
 72
     2
 73
     3
 90
        0
 40
-0.6
 41
-30.0
 62
     5
 63
     7
 74
     2
 91
        2
 64
     7
 65
     7
 75
     1
175
     1
 42
40.0
 92
        8
 66
     7
 43
1.0
 76
     1
 77
     6
 78
     2
 67
     7
 79
     3
170
     0
171
     0
290
     0
174
     0
 93
        1
 44
0.0
173
     0
291
     0
 45
0.0
1001
ACAD
1000
AcDbSavedByObjectVersion
1070
     0
  0
VISUALSTYLE
  5
3F
102
{ACAD_XDICTIONARY
360
6C2
102
}
102
{ACAD_REACTORS
330
2A
102
}
330
2A
100
AcDbVisualStyle
  2

 70
    24
 71
     1
 72
     2
 73
     2
 90
        0
 40
-0.6
 41
-30.0
 62
     5
 63
     7
 74
     2
 91
        2
 64
     7
 65
     7
 75
     1
175
     1
 42
40.0
 92
       11
 66
     7
 43
1.0
 76
     1
 77
     6
 78
     2
 67
     7
 79
     6
170
     0
171
     0
290
     0
174
     0
 93
        1
 44
0.0
173
     0
291
     0
 45
0.0
1001
ACAD
1000
AcDbSavedByObjectVersion
1070
     0
  0
VISUALSTYLE
  5
37
102
{ACAD_XDICTIONARY
360
6B2
102
}
102
{ACAD_REACTORS
330
2A
102
}
330
2A
100
AcDbVisualStyle
  2

 70
    13
 71
     2
 72
     2
 73
     0
 90
        0
 40
-0.6
 41
-30.0
 62
     5
 63
     7
 74
     1
 91
        4
 64
     7
 65
   257
 75
     1
175
     1
 42
1.0
 92
       12
 66
     7
 43
1.0
 76
     1
 77
     6
 78
     2
 67
     7
 79
     5
170
     0
171
     0
290
     0
174
     0
 93
        1
 44
0.0
173
     0
291
     1
 45
0.0
1001
ACAD
1000
AcDbSavedByObjectVersion
1070
     0
  0
VISUALSTYLE
  5
30
102
{ACAD_XDICTIONARY
360
6A4
102
}
102
{ACAD_REACTORS
330
2A
102
}
330
2A
100
AcDbVisualStyle
  2

 70
     5
 71
     0
 72
     2
 73
     0
 90
        0
 40
-0.6
 41
-30.0
 62
     5
 63
     7
 74
     1
 91
        4
 64
     7
 65
   257
 75
     1
175
     1
 42
1.0
 92
        0
 66
   257
 43
1.0
 76
     1
 77
     6
 78
     2
 67
     7
 79
     3
170
     0
171
     0
290
     0
174
     0
 93
        1
 44
0.0
173
     0
291
     0
 45
0.0
1001
ACAD
1000
AcDbSavedByObjectVersion
1070
     0
  0
VISUALSTYLE
  5
40
102
{ACAD_XDICTIONARY
360
6C4
102
}
102
{ACAD_REACTORS
330
2A
102
}
330
2A
100
AcDbVisualStyle
  2

 70
    25
 71
     2
 72
     2
 73
     1
 90
        1
 40
0.5
 41
-30.0
 62
     5
 63
     7
 74
     1
 91
        0
 64
     7
 65
   257
 75
     1
175
     1
 42
1.0
 92
        8
 66
     7
 43
1.0
 76
     1
 77
     6
 78
     2
 67
     7
 79
     3
170
     0
171
     0
290
     0
174
     0
 93
       13
 44
0.0
173
     0
291
     0
 45
0.0
1001
ACAD
1000
AcDbSavedByObjectVersion
1070
     0
  0
DICTIONARYVAR
  5
25F
102
{ACAD_REACTORS
330
251
102
}
330
251
100
DictionaryVariables
280
     0
  1
1:1
  0
DICTIONARYVAR
  5
258
102
{ACAD_REACTORS
330
251
102
}
330
251
100
DictionaryVariables
280
     0
  1
3.500000
  0
DICTIONARYVAR
  5
259
102
{ACAD_REACTORS
330
251
102
}
330
251
100
DictionaryVariables
280
     0
  1
acadiso.lin
  0
DICTIONARYVAR
  5
253
102
{ACAD_REACTORS
330
251
102
}
330
251
100
DictionaryVariables
280
     0
  1
STANDARD
  0
DICTIONARYVAR
  5
252
102
{ACAD_REACTORS
330
251
102
}
330
251
100
DictionaryVariables
280
     0
  1
STANDARD
  0
DICTIONARYVAR
  5
5FB
102
{ACAD_REACTORS
330
251
102
}
330
251
100
DictionaryVariables
280
     0
  1
Metric50
  0
DICTIONARYVAR
  5
5FC
102
{ACAD_REACTORS
330
251
102
}
330
251
100
DictionaryVariables
280
     0
  1
Metric50
  0
DICTIONARYVAR
  5
25A
102
{ACAD_REACTORS
330
251
102
}
330
251
100
DictionaryVariables
280
     0
  1
2
  0
DICTIONARYVAR
  5
25B
102
{ACAD_REACTORS
330
251
102
}
330
251
100
DictionaryVariables
280
     0
  1
1
  0
DICTIONARYVAR
  5
64E
102
{ACAD_REACTORS
330
251
102
}
330
251
100
DictionaryVariables
280
     0
  1
0
  0
DICTIONARYVAR
  5
5FE
102
{ACAD_REACTORS
330
251
102
}
330
251
100
DictionaryVariables
280
     0
  1
1
  0
DICTIONARYVAR
  5
5FF
102
{ACAD_REACTORS
330
251
102
}
330
251
100
DictionaryVariables
280
     0
  1
15
  0
DICTIONARYVAR
  5
5FD
102
{ACAD_REACTORS
330
251
102
}
330
251
100
DictionaryVariables
280
     0
  1
0
  0
DICTIONARYVAR
  5
651
102
{ACAD_REACTORS
330
251
102
}
330
251
100
DictionaryVariables
280
     0
  1
1.570796
  0
DICTIONARYVAR
  5
652
102
{ACAD_REACTORS
330
251
102
}
330
251
100
DictionaryVariables
280
     0
  1
1.570796
  0
DICTIONARYVAR
  5
653
102
{ACAD_REACTORS
330
251
102
}
330
251
100
DictionaryVariables
280
     0
  1
-122.394000
  0
DICTIONARYVAR
  5
260
102
{ACAD_REACTORS
330
251
102
}
330
251
100
DictionaryVariables
280
     0
  1
1
  0
DICTIONARYVAR
  5
650
102
{ACAD_REACTORS
330
251
102
}
330
251
100
DictionaryVariables
280
     0
  1
80.000000
  0
DICTIONARYVAR
  5
64F
102
{ACAD_REACTORS
330
251
102
}
330
251
100
DictionaryVariables
280
     0
  1
5.000000
  0
DICTIONARYVAR
  5
64D
102
{ACAD_REACTORS
330
251
102
}
330
251
100
DictionaryVariables
280
     0
  1
127
  0
DICTIONARYVAR
  5
654
102
{ACAD_REACTORS
330
251
102
}
330
251
100
DictionaryVariables
280
     0
  1
2
  0
DICTIONARY
  5
6CD
330
2A0
100
AcDbDictionary
280
     1
281
     1
  3
ACAD_XREC_ROUNDTRIP
360
6CE
  0
DICTIONARY
  5
696
330
1E
100
AcDbDictionary
280
     1
281
     1
  3
ACAD_XREC_ROUNDTRIP
360
697
  0
DICTIONARY
  5
698
330
22
100
AcDbDictionary
280
     1
281
     1
  3
ACAD_XREC_ROUNDTRIP
360
699
  0
DICTIONARY
  5
6CF
330
2A1
100
AcDbDictionary
280
     1
281
     1
  3
ACAD_XREC_ROUNDTRIP
360
6D0
  0
DICTIONARY
  5
293
330
45
100
AcDbDictionary
280
     1
281
     1
  3
ACAD_XREC_ROUNDTRIP
360
294
  0
DICTIONARY
  5
291
330
44
100
AcDbDictionary
280
     1
281
     1
  3
ACAD_XREC_ROUNDTRIP
360
292
  0
DICTIONARY
  5
295
330
46
100
AcDbDictionary
280
     1
281
     1
  3
ACAD_XREC_ROUNDTRIP
360
296
  0
DICTIONARY
  5
6CB
330
29E
100
AcDbDictionary
280
     1
281
     1
  3
ACAD_XREC_ROUNDTRIP
360
6CC
  0
DICTIONARY
  5
600
330
5A
100
AcDbDictionary
280
     1
281
     1
  3
ACAD_ROUNDTRIP_2008_TABLESTYLE_CELLSTYLEMAP
360
693
  3
ACAD_XREC_ROUNDTRIP
360
6CA
  0
DICTIONARY
  5
6A2
330
2F
100
AcDbDictionary
280
     1
281
     1
  3
ACAD_XREC_ROUNDTRIP
360
6A3
  0
DICTIONARY
  5
6A8
330
32
100
AcDbDictionary
280
     1
281
     1
  3
ACAD_XREC_ROUNDTRIP
360
6A9
  0
DICTIONARY
  5
6B0
330
36
100
AcDbDictionary
280
     1
281
     1
  3
ACAD_XREC_ROUNDTRIP
360
6B1
  0
DICTIONARY
  5
6B8
330
3A
100
AcDbDictionary
280
     1
281
     1
  3
ACAD_XREC_ROUNDTRIP
360
6B9
  0
DICTIONARY
  5
6AC
330
34
100
AcDbDictionary
280
     1
281
     1
  3
ACAD_XREC_ROUNDTRIP
360
6AD
  0
DICTIONARY
  5
6AE
330
35
100
AcDbDictionary
280
     1
281
     1
  3
ACAD_XREC_ROUNDTRIP
360
6AF
  0
DICTIONARY
  5
6BE
330
3D
100
AcDbDictionary
280
     1
281
     1
  3
ACAD_XREC_ROUNDTRIP
360
6BF
  0
DICTIONARY
  5
6B6
330
39
100
AcDbDictionary
280
     1
281
     1
  3
ACAD_XREC_ROUNDTRIP
360
6B7
  0
DICTIONARY
  5
69A
330
2B
100
AcDbDictionary
280
     1
281
     1
  3
ACAD_XREC_ROUNDTRIP
360
69B
  0
DICTIONARY
  5
69C
330
2C
100
AcDbDictionary
280
     1
281
     1
  3
ACAD_XREC_ROUNDTRIP
360
69D
  0
DICTIONARY
  5
69E
330
2D
100
AcDbDictionary
280
     1
281
     1
  3
ACAD_XREC_ROUNDTRIP
360
69F
  0
DICTIONARY
  5
6A0
330
2E
100
AcDbDictionary
280
     1
281
     1
  3
ACAD_XREC_ROUNDTRIP
360
6A1
  0
DICTIONARY
  5
6A6
330
31
100
AcDbDictionary
280
     1
281
     1
  3
ACAD_XREC_ROUNDTRIP
360
6A7
  0
DICTIONARY
  5
6BA
330
3B
100
AcDbDictionary
280
     1
281
     1
  3
ACAD_XREC_ROUNDTRIP
360
6BB
  0
DICTIONARY
  5
6B4
330
38
100
AcDbDictionary
280
     1
281
     1
  3
ACAD_XREC_ROUNDTRIP
360
6B5
  0
DICTIONARY
  5
6BC
330
3C
100
AcDbDictionary
280
     1
281
     1
  3
ACAD_XREC_ROUNDTRIP
360
6BD
  0
DICTIONARY
  5
6AA
330
33
100
AcDbDictionary
280
     1
281
     1
  3
ACAD_XREC_ROUNDTRIP
360
6AB
  0
DICTIONARY
  5
6C8
330
42
100
AcDbDictionary
280
     1
281
     1
  3
ACAD_XREC_ROUNDTRIP
360
6C9
  0
DICTIONARY
  5
6C6
330
41
100
AcDbDictionary
280
     1
281
     1
  3
ACAD_XREC_ROUNDTRIP
360
6C7
  0
DICTIONARY
  5
6C0
330
3E
100
AcDbDictionary
280
     1
281
     1
  3
ACAD_XREC_ROUNDTRIP
360
6C1
  0
DICTIONARY
  5
6C2
330
3F
100
AcDbDictionary
280
     1
281
     1
  3
ACAD_XREC_ROUNDTRIP
360
6C3
  0
DICTIONARY
  5
6B2
330
37
100
AcDbDictionary
280
     1
281
     1
  3
ACAD_XREC_ROUNDTRIP
360
6B3
  0
DICTIONARY
  5
6A4
330
30
100
AcDbDictionary
280
     1
281
     1
  3
ACAD_XREC_ROUNDTRIP
360
6A5
  0
DICTIONARY
  5
6C4
330
40
100
AcDbDictionary
280
     1
281
     1
  3
ACAD_XREC_ROUNDTRIP
360
6C5
  0
XRECORD
  5
6CE
102
{ACAD_REACTORS
330
6CD
102
}
330
6CD
100
AcDbXrecord
280
     1
102
DISPLAYNAME
  1
Metric50
102
FLAGS
 90
        0
  0
XRECORD
  5
697
102
{ACAD_REACTORS
330
696
102
}
330
696
100
AcDbXrecord
280
     1
102
SHADEPLOT
 70
     0
102
SHADEPLOTRESLEVEL
 70
     2
102
SHADEPLOTCUSTOMDPI
 70
   300
  0
XRECORD
  5
699
102
{ACAD_REACTORS
330
698
102
}
330
698
100
AcDbXrecord
280
     1
102
SHADEPLOT
 70
     0
102
SHADEPLOTRESLEVEL
 70
     2
102
SHADEPLOTCUSTOMDPI
 70
   300
  0
XRECORD
  5
6D0
102
{ACAD_REACTORS
330
6CF
102
}
330
6CF
100
AcDbXrecord
280
     1
102
SHADEPLOT
 70
     0
102
SHADEPLOTRESLEVEL
 70
     2
102
SHADEPLOTCUSTOMDPI
 70
   300
  0
XRECORD
  5
294
102
{ACAD_REACTORS
330
293
102
}
330
293
100
AcDbXrecord
280
     1
102
MATERIAL
148
0.0
149
0.0
149
0.0
 93
        0
 94
      127
282
     0
 72
     1
 77
     1
171
     1
175
     1
179
     1
273
     0
  0
XRECORD
  5
292
102
{ACAD_REACTORS
330
291
102
}
330
291
100
AcDbXrecord
280
     1
102
MATERIAL
148
0.0
149
0.0
149
0.0
 93
        0
 94
      127
282
     0
 72
     1
 77
     1
171
     1
175
     1
179
     1
273
     0
  0
XRECORD
  5
296
102
{ACAD_REACTORS
330
295
102
}
330
295
100
AcDbXrecord
280
     1
102
MATERIAL
148
0.0
149
0.0
149
0.0
 93
        0
 94
      127
282
     0
 72
     1
 77
     1
171
     1
175
     1
179
     1
273
     0
  0
XRECORD
  5
6CC
102
{ACAD_REACTORS
330
6CB
102
}
330
6CB
100
AcDbXrecord
280
     1
102
DISPLAYNAME
  1
Metric50
102
FLAGS
 90
        0
  0
CELLSTYLEMAP
  5
693
102
{ACAD_REACTORS
330
600
102
}
330
600
100
AcDbCellStyleMap
 90
        3
300
CELLSTYLE
  1
TABLEFORMAT_BEGIN
 90
        5
170
     1
 91
        0
 92
    32768
 62
   257
 93
        1
300
CONTENTFORMAT
  1
CONTENTFORMAT_BEGIN
 90
        0
 91
        0
 92
        4
 93
        0
300

 40
0.0
140
1.0
 94
        5
 62
     0
340
11
144
6.0
309
CONTENTFORMAT_END
171
     1
301
MARGIN
  1
CELLMARGIN_BEGIN
 40
1.5
 40
1.5
 40
1.5
 40
1.5
 40
0.18
 40
0.18
309
CELLMARGIN_END
 94
        6
 95
        1
302
GRIDFORMAT
  1
GRIDFORMAT_BEGIN
 90
        0
 91
        1
 62
     0
 92
       -2
340
0
 93
        0
 40
0.045
309
GRIDFORMAT_END
 95
        2
302
GRIDFORMAT
  1
GRIDFORMAT_BEGIN
 90
        0
 91
        1
 62
     0
 92
       -2
340
0
 93
        0
 40
0.045
309
GRIDFORMAT_END
 95
        4
302
GRIDFORMAT
  1
GRIDFORMAT_BEGIN
 90
        0
 91
        1
 62
     0
 92
       -2
340
0
 93
        0
 40
0.045
309
GRIDFORMAT_END
 95
        8
302
GRIDFORMAT
  1
GRIDFORMAT_BEGIN
 90
        0
 91
        1
 62
     0
 92
       -2
340
0
 93
        0
 40
0.045
309
GRIDFORMAT_END
 95
       16
302
GRIDFORMAT
  1
GRIDFORMAT_BEGIN
 90
        0
 91
        1
 62
     0
 92
       -2
340
0
 93
        0
 40
0.045
309
GRIDFORMAT_END
 95
       32
302
GRIDFORMAT
  1
GRIDFORMAT_BEGIN
 90
        0
 91
        1
 62
     0
 92
       -2
340
0
 93
        0
 40
0.045
309
GRIDFORMAT_END
309
TABLEFORMAT_END
  1
CELLSTYLE_BEGIN
 90
        1
 91
        1
300
_TITLE
309
CELLSTYLE_END
300
CELLSTYLE
  1
TABLEFORMAT_BEGIN
 90
        5
170
     1
 91
        0
 92
        0
 62
   257
 93
        1
300
CONTENTFORMAT
  1
CONTENTFORMAT_BEGIN
 90
        0
 91
        0
 92
        4
 93
        0
300

 40
0.0
140
1.0
 94
        5
 62
     0
340
11
144
4.5
309
CONTENTFORMAT_END
171
     1
301
MARGIN
  1
CELLMARGIN_BEGIN
 40
1.5
 40
1.5
 40
1.5
 40
1.5
 40
0.18
 40
0.18
309
CELLMARGIN_END
 94
        6
 95
        1
302
GRIDFORMAT
  1
GRIDFORMAT_BEGIN
 90
        0
 91
        1
 62
     0
 92
       -2
340
0
 93
        0
 40
0.045
309
GRIDFORMAT_END
 95
        2
302
GRIDFORMAT
  1
GRIDFORMAT_BEGIN
 90
        0
 91
        1
 62
     0
 92
       -2
340
0
 93
        0
 40
0.045
309
GRIDFORMAT_END
 95
        4
302
GRIDFORMAT
  1
GRIDFORMAT_BEGIN
 90
        0
 91
        1
 62
     0
 92
       -2
340
0
 93
        0
 40
0.045
309
GRIDFORMAT_END
 95
        8
302
GRIDFORMAT
  1
GRIDFORMAT_BEGIN
 90
        0
 91
        1
 62
     0
 92
       -2
340
0
 93
        0
 40
0.045
309
GRIDFORMAT_END
 95
       16
302
GRIDFORMAT
  1
GRIDFORMAT_BEGIN
 90
        0
 91
        1
 62
     0
 92
       -2
340
0
 93
        0
 40
0.045
309
GRIDFORMAT_END
 95
       32
302
GRIDFORMAT
  1
GRIDFORMAT_BEGIN
 90
        0
 91
        1
 62
     0
 92
       -2
340
0
 93
        0
 40
0.045
309
GRIDFORMAT_END
309
TABLEFORMAT_END
  1
CELLSTYLE_BEGIN
 90
        2
 91
        1
300
_HEADER
309
CELLSTYLE_END
300
CELLSTYLE
  1
TABLEFORMAT_BEGIN
 90
        5
170
     1
 91
        0
 92
        0
 62
   257
 93
        1
300
CONTENTFORMAT
  1
CONTENTFORMAT_BEGIN
 90
        0
 91
        0
 92
        4
 93
        0
300

 40
0.0
140
1.0
 94
        2
 62
     0
340
11
144
4.5
309
CONTENTFORMAT_END
171
     1
301
MARGIN
  1
CELLMARGIN_BEGIN
 40
1.5
 40
1.5
 40
1.5
 40
1.5
 40
0.18
 40
0.18
309
CELLMARGIN_END
 94
        6
 95
        1
302
GRIDFORMAT
  1
GRIDFORMAT_BEGIN
 90
        0
 91
        1
 62
     0
 92
       -2
340
0
 93
        0
 40
0.045
309
GRIDFORMAT_END
 95
        2
302
GRIDFORMAT
  1
GRIDFORMAT_BEGIN
 90
        0
 91
        1
 62
     0
 92
       -2
340
0
 93
        0
 40
0.045
309
GRIDFORMAT_END
 95
        4
302
GRIDFORMAT
  1
GRIDFORMAT_BEGIN
 90
        0
 91
        1
 62
     0
 92
       -2
340
0
 93
        0
 40
0.045
309
GRIDFORMAT_END
 95
        8
302
GRIDFORMAT
  1
GRIDFORMAT_BEGIN
 90
        0
 91
        1
 62
     0
 92
       -2
340
0
 93
        0
 40
0.045
309
GRIDFORMAT_END
 95
       16
302
GRIDFORMAT
  1
GRIDFORMAT_BEGIN
 90
        0
 91
        1
 62
     0
 92
       -2
340
0
 93
        0
 40
0.045
309
GRIDFORMAT_END
 95
       32
302
GRIDFORMAT
  1
GRIDFORMAT_BEGIN
 90
        0
 91
        1
 62
     0
 92
       -2
340
0
 93
        0
 40
0.045
309
GRIDFORMAT_END
309
TABLEFORMAT_END
  1
CELLSTYLE_BEGIN
 90
        3
 91
        2
300
_DATA
309
CELLSTYLE_END
  0
XRECORD
  5
6CA
102
{ACAD_REACTORS
330
600
102
}
330
600
100
AcDbXrecord
280
     1
102
ACAD_ROUNDTRIP_PRE2007_TABLESTYLE
 90
        4
 91
        0
  1

 92
        4
 93
        0
  2

 94
        4
 95
        0
  3

  0
XRECORD
  5
6A3
102
{ACAD_REACTORS
330
6A2
102
}
330
6A2
100
AcDbXrecord
280
     1
102
RTVSPost2010Prop28
280
     1
102
RTVSPost2010PropOp28
 70
     1
102
RTVSPost2010Prop29
280
     1
102
RTVSPost2010PropOp29
 70
     1
102
RTVSPost2010Prop30
280
     0
102
RTVSPost2010PropOp30
 70
     1
102
RTVSPost2010Prop31
280
     0
102
RTVSPost2010PropOp31
 70
     1
102
RTVSPost2010Prop32
280
     0
102
RTVSPost2010PropOp32
 70
     1
102
RTVSPost2010Prop33
280
     0
102
RTVSPost2010PropOp33
 70
     1
102
RTVSPost2010Prop34
280
     0
102
RTVSPost2010PropOp34
 70
     1
102
RTVSPost2010Prop35
280
     0
102
RTVSPost2010PropOp35
 70
     1
102
RTVSPost2010Prop36
280
     0
102
RTVSPost2010PropOp36
 70
     1
102
RTVSPost2010Prop37
 90
       50
102
RTVSPost2010PropOp37
 70
     1
102
RTVSPost2010Prop38
140
0.0
102
RTVSPost2010PropOp38
 70
     1
102
RTVSPost2010Prop39
140
1.0
102
RTVSPost2010PropOp39
 70
     1
102
RTVSPost2010Prop40
 90
        0
102
RTVSPost2010PropOp40
 70
     1
102
RTVSPost2010Prop41ColorIndex
 90
       18
102
RTVSPost2010Prop41ColorRGB
 90
        0
102
RTVSPost2010PropOp41
 70
     1
102
RTVSPost2010Prop42
 90
       50
102
RTVSPost2010PropOp42
 70
     1
102
RTVSPost2010Prop43
 90
        3
102
RTVSPost2010PropOp43
 70
     1
102
RTVSPost2010Prop44ColorIndex
 90
        5
102
RTVSPost2010Prop44ColorRGB
 90
      255
102
RTVSPost2010PropOp44
 70
     1
102
RTVSPost2010Prop45
280
     0
102
RTVSPost2010PropOp45
 70
     1
102
RTVSPost2010Prop46
 90
       50
102
RTVSPost2010PropOp46
 70
     1
102
RTVSPost2010Prop47
 90
       50
102
RTVSPost2010PropOp47
 70
     1
102
RTVSPost2010Prop48
 90
       50
102
RTVSPost2010PropOp48
 70
     1
102
RTVSPost2010Prop49
280
     0
102
RTVSPost2010PropOp49
 70
     1
102
RTVSPost2010Prop50
 90
       50
102
RTVSPost2010PropOp50
 70
     1
102
RTVSPost2010Prop51ColorIndex
 90
      256
102
RTVSPost2010Prop51ColorRGB
 90
-16777216
102
RTVSPost2010PropOp51
 70
     0
102
RTVSPost2010Prop52
140
1.0
102
RTVSPost2010PropOp52
 70
     0
102
RTVSPost2010Prop53
 90
        2
102
RTVSPost2010PropOp53
 70
     1
102
RTVSPost2010Prop54
  1
strokes_ogs.tif
102
RTVSPost2010PropOp54
 70
     1
102
RTVSPost2010Prop55
280
     0
102
RTVSPost2010PropOp55
 70
     1
102
RTVSPost2010Prop56
140
1.0
102
RTVSPost2010PropOp56
 70
     1
102
RTVSPost2010Prop57
140
1.0
102
RTVSPost2010PropOp57
 70
     1
102
RTVSPropertyOp0
 70
     1
102
RTVSPropertyOp1
 70
     1
102
RTVSPropertyOp2
 70
     1
102
RTVSPropertyOp3
 70
     1
102
RTVSPropertyOp4
 70
     1
102
RTVSPropertyOp5
 70
     1
102
RTVSPropertyOp6
 70
     1
102
RTVSPropertyOp7
 70
     1
102
RTVSPropertyOp8
 70
     1
102
RTVSPropertyOp9
 70
     1
102
RTVSPropertyOp10
 70
     1
102
RTVSPropertyOp11
 70
     1
102
RTVSPropertyOp12
 70
     1
102
RTVSPropertyOp13
 70
     1
102
RTVSPropertyOp14
 70
     1
102
RTVSPropertyOp15
 70
     1
102
RTVSPropertyOp16
 70
     1
102
RTVSPropertyOp17
 70
     1
102
RTVSPropertyOp18
 70
     1
102
RTVSPropertyOp19
 70
     1
102
RTVSPropertyOp20
 70
     1
102
RTVSPropertyOp21
 70
     1
102
RTVSPropertyOp22
 70
     1
102
RTVSPropertyOp23
 70
     1
102
RTVSPropertyOp24
 70
     1
102
RTVSPropertyOp25
 70
     1
102
RTVSPropertyOp26
 70
     1
102
RTVSPropertyOp27
 70
     1
102
RTVSPropertyOp28
 70
     1
102
RTVSPropertyOp29
 70
     1
102
RTVSPropertyOp30
 70
     1
102
RTVSPropertyOp31
 70
     1
102
RTVSPropertyOp32
 70
     1
102
RTVSPropertyOp33
 70
     1
102
RTVSPropertyOp34
 70
     1
102
RTVSPropertyOp35
 70
     1
102
RTVSPropertyOp36
 70
     1
102
RTVSPropertyOp37
 70
     1
102
RTVSPropertyOp38
 70
     1
102
RTVSPropertyOp39
 70
     1
102
RTVSPropertyOp40
 70
     1
102
RTVSPropertyOp41
 70
     1
102
RTVSPropertyOp42
 70
     1
102
RTVSPropertyOp43
 70
     1
102
RTVSPropertyOp44
 70
     1
102
RTVSPropertyOp45
 70
     1
102
RTVSPropertyOp46
 70
     1
102
RTVSPropertyOp47
 70
     1
102
RTVSPropertyOp48
 70
     1
102
RTVSPropertyOp49
 70
     1
102
RTVSPropertyOp50
 70
     1
102
RTVSPropertyOp51
 70
     0
102
RTVSPropertyOp52
 70
     0
102
RTVSPropertyOp53
 70
     1
102
RTVSPropertyOp54
 70
     1
102
RTVSPropertyOp55
 70
     1
102
RTVSPropertyOp56
 70
     1
102
RTVSPropertyOp57
 70
     1
102
RTVSPropertyOp58
 70
     1
102
RTVSPropertyOp59
 70
     1
102
RTVSPropertyOp60
 70
     1
102
RTVSPropertyOp61
 70
     1
102
RTVSPropertyOp62
 70
     1
  0
XRECORD
  5
6A9
102
{ACAD_REACTORS
330
6A8
102
}
330
6A8
100
AcDbXrecord
280
     1
102
RTVSPost2010Prop28
280
     0
102
RTVSPost2010PropOp28
 70
     1
102
RTVSPost2010Prop29
280
     1
102
RTVSPost2010PropOp29
 70
     1
102
RTVSPost2010Prop30
280
     1
102
RTVSPost2010PropOp30
 70
     1
102
RTVSPost2010Prop31
280
     0
102
RTVSPost2010PropOp31
 70
     1
102
RTVSPost2010Prop32
280
     0
102
RTVSPost2010PropOp32
 70
     1
102
RTVSPost2010Prop33
280
     0
102
RTVSPost2010PropOp33
 70
     1
102
RTVSPost2010Prop34
280
     0
102
RTVSPost2010PropOp34
 70
     1
102
RTVSPost2010Prop35
280
     0
102
RTVSPost2010PropOp35
 70
     1
102
RTVSPost2010Prop36
280
     0
102
RTVSPost2010PropOp36
 70
     1
102
RTVSPost2010Prop37
 90
       50
102
RTVSPost2010PropOp37
 70
     1
102
RTVSPost2010Prop38
140
0.0
102
RTVSPost2010PropOp38
 70
     1
102
RTVSPost2010Prop39
140
1.0
102
RTVSPost2010PropOp39
 70
     1
102
RTVSPost2010Prop40
 90
        0
102
RTVSPost2010PropOp40
 70
     1
102
RTVSPost2010Prop41ColorIndex
 90
       18
102
RTVSPost2010Prop41ColorRGB
 90
        0
102
RTVSPost2010PropOp41
 70
     1
102
RTVSPost2010Prop42
 90
       50
102
RTVSPost2010PropOp42
 70
     1
102
RTVSPost2010Prop43
 90
        3
102
RTVSPost2010PropOp43
 70
     1
102
RTVSPost2010Prop44ColorIndex
 90
        5
102
RTVSPost2010Prop44ColorRGB
 90
      255
102
RTVSPost2010PropOp44
 70
     1
102
RTVSPost2010Prop45
280
     0
102
RTVSPost2010PropOp45
 70
     1
102
RTVSPost2010Prop46
 90
       50
102
RTVSPost2010PropOp46
 70
     1
102
RTVSPost2010Prop47
 90
       50
102
RTVSPost2010PropOp47
 70
     1
102
RTVSPost2010Prop48
 90
       50
102
RTVSPost2010PropOp48
 70
     1
102
RTVSPost2010Prop49
280
     0
102
RTVSPost2010PropOp49
 70
     1
102
RTVSPost2010Prop50
 90
       50
102
RTVSPost2010PropOp50
 70
     1
102
RTVSPost2010Prop51ColorIndex
 90
      256
102
RTVSPost2010Prop51ColorRGB
 90
-16777216
102
RTVSPost2010PropOp51
 70
     0
102
RTVSPost2010Prop52
140
1.0
102
RTVSPost2010PropOp52
 70
     0
102
RTVSPost2010Prop53
 90
        2
102
RTVSPost2010PropOp53
 70
     1
102
RTVSPost2010Prop54
  1
strokes_ogs.tif
102
RTVSPost2010PropOp54
 70
     1
102
RTVSPost2010Prop55
280
     0
102
RTVSPost2010PropOp55
 70
     1
102
RTVSPost2010Prop56
140
1.0
102
RTVSPost2010PropOp56
 70
     1
102
RTVSPost2010Prop57
140
1.0
102
RTVSPost2010PropOp57
 70
     1
102
RTVSPropertyOp0
 70
     1
102
RTVSPropertyOp1
 70
     1
102
RTVSPropertyOp2
 70
     1
102
RTVSPropertyOp3
 70
     1
102
RTVSPropertyOp4
 70
     1
102
RTVSPropertyOp5
 70
     1
102
RTVSPropertyOp6
 70
     1
102
RTVSPropertyOp7
 70
     1
102
RTVSPropertyOp8
 70
     1
102
RTVSPropertyOp9
 70
     1
102
RTVSPropertyOp10
 70
     1
102
RTVSPropertyOp11
 70
     1
102
RTVSPropertyOp12
 70
     1
102
RTVSPropertyOp13
 70
     1
102
RTVSPropertyOp14
 70
     1
102
RTVSPropertyOp15
 70
     1
102
RTVSPropertyOp16
 70
     1
102
RTVSPropertyOp17
 70
     1
102
RTVSPropertyOp18
 70
     1
102
RTVSPropertyOp19
 70
     1
102
RTVSPropertyOp20
 70
     1
102
RTVSPropertyOp21
 70
     1
102
RTVSPropertyOp22
 70
     1
102
RTVSPropertyOp23
 70
     1
102
RTVSPropertyOp24
 70
     1
102
RTVSPropertyOp25
 70
     1
102
RTVSPropertyOp26
 70
     1
102
RTVSPropertyOp27
 70
     1
102
RTVSPropertyOp28
 70
     1
102
RTVSPropertyOp29
 70
     1
102
RTVSPropertyOp30
 70
     1
102
RTVSPropertyOp31
 70
     1
102
RTVSPropertyOp32
 70
     1
102
RTVSPropertyOp33
 70
     1
102
RTVSPropertyOp34
 70
     1
102
RTVSPropertyOp35
 70
     1
102
RTVSPropertyOp36
 70
     1
102
RTVSPropertyOp37
 70
     1
102
RTVSPropertyOp38
 70
     1
102
RTVSPropertyOp39
 70
     1
102
RTVSPropertyOp40
 70
     1
102
RTVSPropertyOp41
 70
     1
102
RTVSPropertyOp42
 70
     1
102
RTVSPropertyOp43
 70
     1
102
RTVSPropertyOp44
 70
     1
102
RTVSPropertyOp45
 70
     1
102
RTVSPropertyOp46
 70
     1
102
RTVSPropertyOp47
 70
     1
102
RTVSPropertyOp48
 70
     1
102
RTVSPropertyOp49
 70
     1
102
RTVSPropertyOp50
 70
     1
102
RTVSPropertyOp51
 70
     0
102
RTVSPropertyOp52
 70
     0
102
RTVSPropertyOp53
 70
     1
102
RTVSPropertyOp54
 70
     1
102
RTVSPropertyOp55
 70
     1
102
RTVSPropertyOp56
 70
     1
102
RTVSPropertyOp57
 70
     1
102
RTVSPropertyOp58
 70
     1
102
RTVSPropertyOp59
 70
     1
102
RTVSPropertyOp60
 70
     1
102
RTVSPropertyOp61
 70
     1
102
RTVSPropertyOp62
 70
     1
  0
XRECORD
  5
6B1
102
{ACAD_REACTORS
330
6B0
102
}
330
6B0
100
AcDbXrecord
280
     1
102
RTVSPost2010Prop28
280
     0
102
RTVSPost2010PropOp28
 70
     1
102
RTVSPost2010Prop29
280
     1
102
RTVSPost2010PropOp29
 70
     1
102
RTVSPost2010Prop30
280
     1
102
RTVSPost2010PropOp30
 70
     1
102
RTVSPost2010Prop31
280
     0
102
RTVSPost2010PropOp31
 70
     1
102
RTVSPost2010Prop32
280
     0
102
RTVSPost2010PropOp32
 70
     1
102
RTVSPost2010Prop33
280
     0
102
RTVSPost2010PropOp33
 70
     1
102
RTVSPost2010Prop34
280
     0
102
RTVSPost2010PropOp34
 70
     1
102
RTVSPost2010Prop35
280
     0
102
RTVSPost2010PropOp35
 70
     1
102
RTVSPost2010Prop36
280
     0
102
RTVSPost2010PropOp36
 70
     1
102
RTVSPost2010Prop37
 90
       50
102
RTVSPost2010PropOp37
 70
     1
102
RTVSPost2010Prop38
140
0.0
102
RTVSPost2010PropOp38
 70
     1
102
RTVSPost2010Prop39
140
1.0
102
RTVSPost2010PropOp39
 70
     1
102
RTVSPost2010Prop40
 90
        0
102
RTVSPost2010PropOp40
 70
     1
102
RTVSPost2010Prop41ColorIndex
 90
       18
102
RTVSPost2010Prop41ColorRGB
 90
        0
102
RTVSPost2010PropOp41
 70
     1
102
RTVSPost2010Prop42
 90
       50
102
RTVSPost2010PropOp42
 70
     1
102
RTVSPost2010Prop43
 90
        3
102
RTVSPost2010PropOp43
 70
     1
102
RTVSPost2010Prop44ColorIndex
 90
        5
102
RTVSPost2010Prop44ColorRGB
 90
      255
102
RTVSPost2010PropOp44
 70
     1
102
RTVSPost2010Prop45
280
     0
102
RTVSPost2010PropOp45
 70
     1
102
RTVSPost2010Prop46
 90
       50
102
RTVSPost2010PropOp46
 70
     1
102
RTVSPost2010Prop47
 90
       50
102
RTVSPost2010PropOp47
 70
     1
102
RTVSPost2010Prop48
 90
       50
102
RTVSPost2010PropOp48
 70
     1
102
RTVSPost2010Prop49
280
     0
102
RTVSPost2010PropOp49
 70
     1
102
RTVSPost2010Prop50
 90
       50
102
RTVSPost2010PropOp50
 70
     1
102
RTVSPost2010Prop51ColorIndex
 90
      256
102
RTVSPost2010Prop51ColorRGB
 90
-16777216
102
RTVSPost2010PropOp51
 70
     0
102
RTVSPost2010Prop52
140
1.0
102
RTVSPost2010PropOp52
 70
     0
102
RTVSPost2010Prop53
 90
        2
102
RTVSPost2010PropOp53
 70
     1
102
RTVSPost2010Prop54
  1
strokes_ogs.tif
102
RTVSPost2010PropOp54
 70
     1
102
RTVSPost2010Prop55
280
     0
102
RTVSPost2010PropOp55
 70
     1
102
RTVSPost2010Prop56
140
1.0
102
RTVSPost2010PropOp56
 70
     1
102
RTVSPost2010Prop57
140
1.0
102
RTVSPost2010PropOp57
 70
     1
102
RTVSPropertyOp0
 70
     1
102
RTVSPropertyOp1
 70
     1
102
RTVSPropertyOp2
 70
     1
102
RTVSPropertyOp3
 70
     1
102
RTVSPropertyOp4
 70
     1
102
RTVSPropertyOp5
 70
     1
102
RTVSPropertyOp6
 70
     1
102
RTVSPropertyOp7
 70
     1
102
RTVSPropertyOp8
 70
     1
102
RTVSPropertyOp9
 70
     1
102
RTVSPropertyOp10
 70
     1
102
RTVSPropertyOp11
 70
     1
102
RTVSPropertyOp12
 70
     1
102
RTVSPropertyOp13
 70
     1
102
RTVSPropertyOp14
 70
     1
102
RTVSPropertyOp15
 70
     1
102
RTVSPropertyOp16
 70
     1
102
RTVSPropertyOp17
 70
     1
102
RTVSPropertyOp18
 70
     1
102
RTVSPropertyOp19
 70
     1
102
RTVSPropertyOp20
 70
     1
102
RTVSPropertyOp21
 70
     1
102
RTVSPropertyOp22
 70
     1
102
RTVSPropertyOp23
 70
     1
102
RTVSPropertyOp24
 70
     1
102
RTVSPropertyOp25
 70
     1
102
RTVSPropertyOp26
 70
     1
102
RTVSPropertyOp27
 70
     1
102
RTVSPropertyOp28
 70
     1
102
RTVSPropertyOp29
 70
     1
102
RTVSPropertyOp30
 70
     1
102
RTVSPropertyOp31
 70
     1
102
RTVSPropertyOp32
 70
     1
102
RTVSPropertyOp33
 70
     1
102
RTVSPropertyOp34
 70
     1
102
RTVSPropertyOp35
 70
     1
102
RTVSPropertyOp36
 70
     1
102
RTVSPropertyOp37
 70
     1
102
RTVSPropertyOp38
 70
     1
102
RTVSPropertyOp39
 70
     1
102
RTVSPropertyOp40
 70
     1
102
RTVSPropertyOp41
 70
     1
102
RTVSPropertyOp42
 70
     1
102
RTVSPropertyOp43
 70
     1
102
RTVSPropertyOp44
 70
     1
102
RTVSPropertyOp45
 70
     1
102
RTVSPropertyOp46
 70
     1
102
RTVSPropertyOp47
 70
     1
102
RTVSPropertyOp48
 70
     1
102
RTVSPropertyOp49
 70
     1
102
RTVSPropertyOp50
 70
     1
102
RTVSPropertyOp51
 70
     0
102
RTVSPropertyOp52
 70
     0
102
RTVSPropertyOp53
 70
     1
102
RTVSPropertyOp54
 70
     1
102
RTVSPropertyOp55
 70
     1
102
RTVSPropertyOp56
 70
     1
102
RTVSPropertyOp57
 70
     1
102
RTVSPropertyOp58
 70
     1
102
RTVSPropertyOp59
 70
     1
102
RTVSPropertyOp60
 70
     1
102
RTVSPropertyOp61
 70
     1
102
RTVSPropertyOp62
 70
     1
  0
XRECORD
  5
6B9
102
{ACAD_REACTORS
330
6B8
102
}
330
6B8
100
AcDbXrecord
280
     1
102
RTVSPost2010Prop28
280
     0
102
RTVSPost2010PropOp28
 70
     1
102
RTVSPost2010Prop29
280
     1
102
RTVSPost2010PropOp29
 70
     1
102
RTVSPost2010Prop30
280
     1
102
RTVSPost2010PropOp30
 70
     1
102
RTVSPost2010Prop31
280
     0
102
RTVSPost2010PropOp31
 70
     1
102
RTVSPost2010Prop32
280
     0
102
RTVSPost2010PropOp32
 70
     1
102
RTVSPost2010Prop33
280
     0
102
RTVSPost2010PropOp33
 70
     1
102
RTVSPost2010Prop34
280
     0
102
RTVSPost2010PropOp34
 70
     1
102
RTVSPost2010Prop35
280
     0
102
RTVSPost2010PropOp35
 70
     1
102
RTVSPost2010Prop36
280
     0
102
RTVSPost2010PropOp36
 70
     1
102
RTVSPost2010Prop37
 90
       50
102
RTVSPost2010PropOp37
 70
     1
102
RTVSPost2010Prop38
140
0.0
102
RTVSPost2010PropOp38
 70
     1
102
RTVSPost2010Prop39
140
1.0
102
RTVSPost2010PropOp39
 70
     1
102
RTVSPost2010Prop40
 90
        0
102
RTVSPost2010PropOp40
 70
     1
102
RTVSPost2010Prop41ColorIndex
 90
       18
102
RTVSPost2010Prop41ColorRGB
 90
        0
102
RTVSPost2010PropOp41
 70
     1
102
RTVSPost2010Prop42
 90
       50
102
RTVSPost2010PropOp42
 70
     1
102
RTVSPost2010Prop43
 90
        3
102
RTVSPost2010PropOp43
 70
     1
102
RTVSPost2010Prop44ColorIndex
 90
        5
102
RTVSPost2010Prop44ColorRGB
 90
      255
102
RTVSPost2010PropOp44
 70
     1
102
RTVSPost2010Prop45
280
     0
102
RTVSPost2010PropOp45
 70
     1
102
RTVSPost2010Prop46
 90
       50
102
RTVSPost2010PropOp46
 70
     1
102
RTVSPost2010Prop47
 90
       50
102
RTVSPost2010PropOp47
 70
     1
102
RTVSPost2010Prop48
 90
       50
102
RTVSPost2010PropOp48
 70
     1
102
RTVSPost2010Prop49
280
     0
102
RTVSPost2010PropOp49
 70
     1
102
RTVSPost2010Prop50
 90
       50
102
RTVSPost2010PropOp50
 70
     1
102
RTVSPost2010Prop51ColorIndex
 90
      256
102
RTVSPost2010Prop51ColorRGB
 90
-16777216
102
RTVSPost2010PropOp51
 70
     0
102
RTVSPost2010Prop52
140
1.0
102
RTVSPost2010PropOp52
 70
     0
102
RTVSPost2010Prop53
 90
        2
102
RTVSPost2010PropOp53
 70
     1
102
RTVSPost2010Prop54
  1
strokes_ogs.tif
102
RTVSPost2010PropOp54
 70
     1
102
RTVSPost2010Prop55
280
     0
102
RTVSPost2010PropOp55
 70
     1
102
RTVSPost2010Prop56
140
1.0
102
RTVSPost2010PropOp56
 70
     1
102
RTVSPost2010Prop57
140
1.0
102
RTVSPost2010PropOp57
 70
     1
102
RTVSPropertyOp0
 70
     1
102
RTVSPropertyOp1
 70
     1
102
RTVSPropertyOp2
 70
     1
102
RTVSPropertyOp3
 70
     1
102
RTVSPropertyOp4
 70
     1
102
RTVSPropertyOp5
 70
     1
102
RTVSPropertyOp6
 70
     1
102
RTVSPropertyOp7
 70
     1
102
RTVSPropertyOp8
 70
     1
102
RTVSPropertyOp9
 70
     1
102
RTVSPropertyOp10
 70
     1
102
RTVSPropertyOp11
 70
     1
102
RTVSPropertyOp12
 70
     1
102
RTVSPropertyOp13
 70
     1
102
RTVSPropertyOp14
 70
     1
102
RTVSPropertyOp15
 70
     1
102
RTVSPropertyOp16
 70
     1
102
RTVSPropertyOp17
 70
     1
102
RTVSPropertyOp18
 70
     1
102
RTVSPropertyOp19
 70
     1
102
RTVSPropertyOp20
 70
     1
102
RTVSPropertyOp21
 70
     1
102
RTVSPropertyOp22
 70
     1
102
RTVSPropertyOp23
 70
     1
102
RTVSPropertyOp24
 70
     1
102
RTVSPropertyOp25
 70
     1
102
RTVSPropertyOp26
 70
     1
102
RTVSPropertyOp27
 70
     1
102
RTVSPropertyOp28
 70
     1
102
RTVSPropertyOp29
 70
     1
102
RTVSPropertyOp30
 70
     1
102
RTVSPropertyOp31
 70
     1
102
RTVSPropertyOp32
 70
     1
102
RTVSPropertyOp33
 70
     1
102
RTVSPropertyOp34
 70
     1
102
RTVSPropertyOp35
 70
     1
102
RTVSPropertyOp36
 70
     1
102
RTVSPropertyOp37
 70
     1
102
RTVSPropertyOp38
 70
     1
102
RTVSPropertyOp39
 70
     1
102
RTVSPropertyOp40
 70
     1
102
RTVSPropertyOp41
 70
     1
102
RTVSPropertyOp42
 70
     1
102
RTVSPropertyOp43
 70
     1
102
RTVSPropertyOp44
 70
     1
102
RTVSPropertyOp45
 70
     1
102
RTVSPropertyOp46
 70
     1
102
RTVSPropertyOp47
 70
     1
102
RTVSPropertyOp48
 70
     1
102
RTVSPropertyOp49
 70
     1
102
RTVSPropertyOp50
 70
     1
102
RTVSPropertyOp51
 70
     0
102
RTVSPropertyOp52
 70
     0
102
RTVSPropertyOp53
 70
     1
102
RTVSPropertyOp54
 70
     1
102
RTVSPropertyOp55
 70
     1
102
RTVSPropertyOp56
 70
     1
102
RTVSPropertyOp57
 70
     1
102
RTVSPropertyOp58
 70
     1
102
RTVSPropertyOp59
 70
     1
102
RTVSPropertyOp60
 70
     1
102
RTVSPropertyOp61
 70
     1
102
RTVSPropertyOp62
 70
     1
  0
XRECORD
  5
6AD
102
{ACAD_REACTORS
330
6AC
102
}
330
6AC
100
AcDbXrecord
280
     1
102
RTVSPost2010Prop28
280
     0
102
RTVSPost2010PropOp28
 70
     1
102
RTVSPost2010Prop29
280
     1
102
RTVSPost2010PropOp29
 70
     1
102
RTVSPost2010Prop30
280
     1
102
RTVSPost2010PropOp30
 70
     1
102
RTVSPost2010Prop31
280
     0
102
RTVSPost2010PropOp31
 70
     1
102
RTVSPost2010Prop32
280
     0
102
RTVSPost2010PropOp32
 70
     1
102
RTVSPost2010Prop33
280
     0
102
RTVSPost2010PropOp33
 70
     1
102
RTVSPost2010Prop34
280
     0
102
RTVSPost2010PropOp34
 70
     1
102
RTVSPost2010Prop35
280
     0
102
RTVSPost2010PropOp35
 70
     1
102
RTVSPost2010Prop36
280
     0
102
RTVSPost2010PropOp36
 70
     1
102
RTVSPost2010Prop37
 90
       50
102
RTVSPost2010PropOp37
 70
     1
102
RTVSPost2010Prop38
140
0.0
102
RTVSPost2010PropOp38
 70
     1
102
RTVSPost2010Prop39
140
1.0
102
RTVSPost2010PropOp39
 70
     1
102
RTVSPost2010Prop40
 90
        0
102
RTVSPost2010PropOp40
 70
     1
102
RTVSPost2010Prop41ColorIndex
 90
       18
102
RTVSPost2010Prop41ColorRGB
 90
        0
102
RTVSPost2010PropOp41
 70
     1
102
RTVSPost2010Prop42
 90
       50
102
RTVSPost2010PropOp42
 70
     1
102
RTVSPost2010Prop43
 90
        3
102
RTVSPost2010PropOp43
 70
     1
102
RTVSPost2010Prop44ColorIndex
 90
        5
102
RTVSPost2010Prop44ColorRGB
 90
      255
102
RTVSPost2010PropOp44
 70
     1
102
RTVSPost2010Prop45
280
     0
102
RTVSPost2010PropOp45
 70
     1
102
RTVSPost2010Prop46
 90
       50
102
RTVSPost2010PropOp46
 70
     1
102
RTVSPost2010Prop47
 90
       50
102
RTVSPost2010PropOp47
 70
     1
102
RTVSPost2010Prop48
 90
       50
102
RTVSPost2010PropOp48
 70
     1
102
RTVSPost2010Prop49
280
     0
102
RTVSPost2010PropOp49
 70
     1
102
RTVSPost2010Prop50
 90
       50
102
RTVSPost2010PropOp50
 70
     1
102
RTVSPost2010Prop51ColorIndex
 90
      256
102
RTVSPost2010Prop51ColorRGB
 90
-16777216
102
RTVSPost2010PropOp51
 70
     0
102
RTVSPost2010Prop52
140
1.0
102
RTVSPost2010PropOp52
 70
     0
102
RTVSPost2010Prop53
 90
        2
102
RTVSPost2010PropOp53
 70
     1
102
RTVSPost2010Prop54
  1
strokes_ogs.tif
102
RTVSPost2010PropOp54
 70
     1
102
RTVSPost2010Prop55
280
     0
102
RTVSPost2010PropOp55
 70
     1
102
RTVSPost2010Prop56
140
1.0
102
RTVSPost2010PropOp56
 70
     1
102
RTVSPost2010Prop57
140
1.0
102
RTVSPost2010PropOp57
 70
     1
102
RTVSPropertyOp0
 70
     1
102
RTVSPropertyOp1
 70
     1
102
RTVSPropertyOp2
 70
     1
102
RTVSPropertyOp3
 70
     1
102
RTVSPropertyOp4
 70
     1
102
RTVSPropertyOp5
 70
     1
102
RTVSPropertyOp6
 70
     1
102
RTVSPropertyOp7
 70
     1
102
RTVSPropertyOp8
 70
     1
102
RTVSPropertyOp9
 70
     1
102
RTVSPropertyOp10
 70
     1
102
RTVSPropertyOp11
 70
     1
102
RTVSPropertyOp12
 70
     1
102
RTVSPropertyOp13
 70
     1
102
RTVSPropertyOp14
 70
     1
102
RTVSPropertyOp15
 70
     1
102
RTVSPropertyOp16
 70
     1
102
RTVSPropertyOp17
 70
     1
102
RTVSPropertyOp18
 70
     1
102
RTVSPropertyOp19
 70
     1
102
RTVSPropertyOp20
 70
     1
102
RTVSPropertyOp21
 70
     1
102
RTVSPropertyOp22
 70
     1
102
RTVSPropertyOp23
 70
     1
102
RTVSPropertyOp24
 70
     1
102
RTVSPropertyOp25
 70
     1
102
RTVSPropertyOp26
 70
     1
102
RTVSPropertyOp27
 70
     1
102
RTVSPropertyOp28
 70
     1
102
RTVSPropertyOp29
 70
     1
102
RTVSPropertyOp30
 70
     1
102
RTVSPropertyOp31
 70
     1
102
RTVSPropertyOp32
 70
     1
102
RTVSPropertyOp33
 70
     1
102
RTVSPropertyOp34
 70
     1
102
RTVSPropertyOp35
 70
     1
102
RTVSPropertyOp36
 70
     1
102
RTVSPropertyOp37
 70
     1
102
RTVSPropertyOp38
 70
     1
102
RTVSPropertyOp39
 70
     1
102
RTVSPropertyOp40
 70
     1
102
RTVSPropertyOp41
 70
     1
102
RTVSPropertyOp42
 70
     1
102
RTVSPropertyOp43
 70
     1
102
RTVSPropertyOp44
 70
     1
102
RTVSPropertyOp45
 70
     1
102
RTVSPropertyOp46
 70
     1
102
RTVSPropertyOp47
 70
     1
102
RTVSPropertyOp48
 70
     1
102
RTVSPropertyOp49
 70
     1
102
RTVSPropertyOp50
 70
     1
102
RTVSPropertyOp51
 70
     0
102
RTVSPropertyOp52
 70
     0
102
RTVSPropertyOp53
 70
     1
102
RTVSPropertyOp54
 70
     1
102
RTVSPropertyOp55
 70
     1
102
RTVSPropertyOp56
 70
     1
102
RTVSPropertyOp57
 70
     1
102
RTVSPropertyOp58
 70
     1
102
RTVSPropertyOp59
 70
     1
102
RTVSPropertyOp60
 70
     1
102
RTVSPropertyOp61
 70
     1
102
RTVSPropertyOp62
 70
     1
  0
XRECORD
  5
6AF
102
{ACAD_REACTORS
330
6AE
102
}
330
6AE
100
AcDbXrecord
280
     1
102
RTVSPost2010Prop28
280
     0
102
RTVSPost2010PropOp28
 70
     1
102
RTVSPost2010Prop29
280
     1
102
RTVSPost2010PropOp29
 70
     1
102
RTVSPost2010Prop30
280
     1
102
RTVSPost2010PropOp30
 70
     1
102
RTVSPost2010Prop31
280
     0
102
RTVSPost2010PropOp31
 70
     1
102
RTVSPost2010Prop32
280
     0
102
RTVSPost2010PropOp32
 70
     1
102
RTVSPost2010Prop33
280
     0
102
RTVSPost2010PropOp33
 70
     1
102
RTVSPost2010Prop34
280
     0
102
RTVSPost2010PropOp34
 70
     1
102
RTVSPost2010Prop35
280
     0
102
RTVSPost2010PropOp35
 70
     1
102
RTVSPost2010Prop36
280
     0
102
RTVSPost2010PropOp36
 70
     1
102
RTVSPost2010Prop37
 90
       50
102
RTVSPost2010PropOp37
 70
     1
102
RTVSPost2010Prop38
140
0.0
102
RTVSPost2010PropOp38
 70
     1
102
RTVSPost2010Prop39
140
1.0
102
RTVSPost2010PropOp39
 70
     1
102
RTVSPost2010Prop40
 90
        0
102
RTVSPost2010PropOp40
 70
     1
102
RTVSPost2010Prop41ColorIndex
 90
       18
102
RTVSPost2010Prop41ColorRGB
 90
        0
102
RTVSPost2010PropOp41
 70
     1
102
RTVSPost2010Prop42
 90
       50
102
RTVSPost2010PropOp42
 70
     1
102
RTVSPost2010Prop43
 90
        3
102
RTVSPost2010PropOp43
 70
     1
102
RTVSPost2010Prop44ColorIndex
 90
        5
102
RTVSPost2010Prop44ColorRGB
 90
      255
102
RTVSPost2010PropOp44
 70
     1
102
RTVSPost2010Prop45
280
     0
102
RTVSPost2010PropOp45
 70
     1
102
RTVSPost2010Prop46
 90
       50
102
RTVSPost2010PropOp46
 70
     1
102
RTVSPost2010Prop47
 90
       50
102
RTVSPost2010PropOp47
 70
     1
102
RTVSPost2010Prop48
 90
       50
102
RTVSPost2010PropOp48
 70
     1
102
RTVSPost2010Prop49
280
     0
102
RTVSPost2010PropOp49
 70
     1
102
RTVSPost2010Prop50
 90
       50
102
RTVSPost2010PropOp50
 70
     1
102
RTVSPost2010Prop51ColorIndex
 90
      256
102
RTVSPost2010Prop51ColorRGB
 90
-16777216
102
RTVSPost2010PropOp51
 70
     0
102
RTVSPost2010Prop52
140
1.0
102
RTVSPost2010PropOp52
 70
     0
102
RTVSPost2010Prop53
 90
        2
102
RTVSPost2010PropOp53
 70
     1
102
RTVSPost2010Prop54
  1
strokes_ogs.tif
102
RTVSPost2010PropOp54
 70
     1
102
RTVSPost2010Prop55
280
     0
102
RTVSPost2010PropOp55
 70
     1
102
RTVSPost2010Prop56
140
1.0
102
RTVSPost2010PropOp56
 70
     1
102
RTVSPost2010Prop57
140
1.0
102
RTVSPost2010PropOp57
 70
     1
102
RTVSPropertyOp0
 70
     1
102
RTVSPropertyOp1
 70
     1
102
RTVSPropertyOp2
 70
     1
102
RTVSPropertyOp3
 70
     1
102
RTVSPropertyOp4
 70
     1
102
RTVSPropertyOp5
 70
     1
102
RTVSPropertyOp6
 70
     1
102
RTVSPropertyOp7
 70
     1
102
RTVSPropertyOp8
 70
     1
102
RTVSPropertyOp9
 70
     1
102
RTVSPropertyOp10
 70
     1
102
RTVSPropertyOp11
 70
     1
102
RTVSPropertyOp12
 70
     1
102
RTVSPropertyOp13
 70
     1
102
RTVSPropertyOp14
 70
     1
102
RTVSPropertyOp15
 70
     1
102
RTVSPropertyOp16
 70
     1
102
RTVSPropertyOp17
 70
     1
102
RTVSPropertyOp18
 70
     1
102
RTVSPropertyOp19
 70
     1
102
RTVSPropertyOp20
 70
     1
102
RTVSPropertyOp21
 70
     1
102
RTVSPropertyOp22
 70
     1
102
RTVSPropertyOp23
 70
     1
102
RTVSPropertyOp24
 70
     1
102
RTVSPropertyOp25
 70
     1
102
RTVSPropertyOp26
 70
     1
102
RTVSPropertyOp27
 70
     1
102
RTVSPropertyOp28
 70
     1
102
RTVSPropertyOp29
 70
     1
102
RTVSPropertyOp30
 70
     1
102
RTVSPropertyOp31
 70
     1
102
RTVSPropertyOp32
 70
     1
102
RTVSPropertyOp33
 70
     1
102
RTVSPropertyOp34
 70
     1
102
RTVSPropertyOp35
 70
     1
102
RTVSPropertyOp36
 70
     1
102
RTVSPropertyOp37
 70
     1
102
RTVSPropertyOp38
 70
     1
102
RTVSPropertyOp39
 70
     1
102
RTVSPropertyOp40
 70
     1
102
RTVSPropertyOp41
 70
     1
102
RTVSPropertyOp42
 70
     1
102
RTVSPropertyOp43
 70
     1
102
RTVSPropertyOp44
 70
     1
102
RTVSPropertyOp45
 70
     1
102
RTVSPropertyOp46
 70
     1
102
RTVSPropertyOp47
 70
     1
102
RTVSPropertyOp48
 70
     1
102
RTVSPropertyOp49
 70
     1
102
RTVSPropertyOp50
 70
     1
102
RTVSPropertyOp51
 70
     0
102
RTVSPropertyOp52
 70
     0
102
RTVSPropertyOp53
 70
     1
102
RTVSPropertyOp54
 70
     1
102
RTVSPropertyOp55
 70
     1
102
RTVSPropertyOp56
 70
     1
102
RTVSPropertyOp57
 70
     1
102
RTVSPropertyOp58
 70
     1
102
RTVSPropertyOp59
 70
     1
102
RTVSPropertyOp60
 70
     1
102
RTVSPropertyOp61
 70
     1
102
RTVSPropertyOp62
 70
     1
  0
XRECORD
  5
6BF
102
{ACAD_REACTORS
330
6BE
102
}
330
6BE
100
AcDbXrecord
280
     1
102
RTVSPost2010Prop28
280
     0
102
RTVSPost2010PropOp28
 70
     0
102
RTVSPost2010Prop29
280
     1
102
RTVSPost2010PropOp29
 70
     0
102
RTVSPost2010Prop30
280
     1
102
RTVSPost2010PropOp30
 70
     0
102
RTVSPost2010Prop31
280
     0
102
RTVSPost2010PropOp31
 70
     0
102
RTVSPost2010Prop32
280
     0
102
RTVSPost2010PropOp32
 70
     0
102
RTVSPost2010Prop33
280
     0
102
RTVSPost2010PropOp33
 70
     0
102
RTVSPost2010Prop34
280
     0
102
RTVSPost2010PropOp34
 70
     0
102
RTVSPost2010Prop35
280
     0
102
RTVSPost2010PropOp35
 70
     0
102
RTVSPost2010Prop36
280
     0
102
RTVSPost2010PropOp36
 70
     0
102
RTVSPost2010Prop37
 90
       50
102
RTVSPost2010PropOp37
 70
     0
102
RTVSPost2010Prop38
140
0.0
102
RTVSPost2010PropOp38
 70
     0
102
RTVSPost2010Prop39
140
1.0
102
RTVSPost2010PropOp39
 70
     0
102
RTVSPost2010Prop40
 90
        0
102
RTVSPost2010PropOp40
 70
     0
102
RTVSPost2010Prop41ColorIndex
 90
       18
102
RTVSPost2010Prop41ColorRGB
 90
        0
102
RTVSPost2010PropOp41
 70
     0
102
RTVSPost2010Prop42
 90
       50
102
RTVSPost2010PropOp42
 70
     0
102
RTVSPost2010Prop43
 90
        3
102
RTVSPost2010PropOp43
 70
     0
102
RTVSPost2010Prop44ColorIndex
 90
        5
102
RTVSPost2010Prop44ColorRGB
 90
      255
102
RTVSPost2010PropOp44
 70
     0
102
RTVSPost2010Prop45
280
     0
102
RTVSPost2010PropOp45
 70
     0
102
RTVSPost2010Prop46
 90
       50
102
RTVSPost2010PropOp46
 70
     0
102
RTVSPost2010Prop47
 90
       50
102
RTVSPost2010PropOp47
 70
     0
102
RTVSPost2010Prop48
 90
       50
102
RTVSPost2010PropOp48
 70
     0
102
RTVSPost2010Prop49
280
     0
102
RTVSPost2010PropOp49
 70
     0
102
RTVSPost2010Prop50
 90
       50
102
RTVSPost2010PropOp50
 70
     0
102
RTVSPost2010Prop51ColorIndex
 90
      256
102
RTVSPost2010Prop51ColorRGB
 90
-16777216
102
RTVSPost2010PropOp51
 70
     0
102
RTVSPost2010Prop52
140
1.0
102
RTVSPost2010PropOp52
 70
     0
102
RTVSPost2010Prop53
 90
        2
102
RTVSPost2010PropOp53
 70
     0
102
RTVSPost2010Prop54
  1
strokes_ogs.tif
102
RTVSPost2010PropOp54
 70
     0
102
RTVSPost2010Prop55
280
     0
102
RTVSPost2010PropOp55
 70
     0
102
RTVSPost2010Prop56
140
1.0
102
RTVSPost2010PropOp56
 70
     0
102
RTVSPost2010Prop57
140
1.0
102
RTVSPost2010PropOp57
 70
     0
102
RTVSPropertyOp0
 70
     0
102
RTVSPropertyOp1
 70
     0
102
RTVSPropertyOp2
 70
     0
102
RTVSPropertyOp3
 70
     0
102
RTVSPropertyOp4
 70
     0
102
RTVSPropertyOp5
 70
     0
102
RTVSPropertyOp6
 70
     0
102
RTVSPropertyOp7
 70
     0
102
RTVSPropertyOp8
 70
     0
102
RTVSPropertyOp9
 70
     0
102
RTVSPropertyOp10
 70
     0
102
RTVSPropertyOp11
 70
     0
102
RTVSPropertyOp12
 70
     0
102
RTVSPropertyOp13
 70
     0
102
RTVSPropertyOp14
 70
     2
102
RTVSPropertyOp15
 70
     0
102
RTVSPropertyOp16
 70
     0
102
RTVSPropertyOp17
 70
     0
102
RTVSPropertyOp18
 70
     0
102
RTVSPropertyOp19
 70
     0
102
RTVSPropertyOp20
 70
     0
102
RTVSPropertyOp21
 70
     0
102
RTVSPropertyOp22
 70
     0
102
RTVSPropertyOp23
 70
     0
102
RTVSPropertyOp24
 70
     0
102
RTVSPropertyOp25
 70
     0
102
RTVSPropertyOp26
 70
     0
102
RTVSPropertyOp27
 70
     0
102
RTVSPropertyOp28
 70
     0
102
RTVSPropertyOp29
 70
     0
102
RTVSPropertyOp30
 70
     0
102
RTVSPropertyOp31
 70
     0
102
RTVSPropertyOp32
 70
     0
102
RTVSPropertyOp33
 70
     0
102
RTVSPropertyOp34
 70
     0
102
RTVSPropertyOp35
 70
     0
102
RTVSPropertyOp36
 70
     0
102
RTVSPropertyOp37
 70
     0
102
RTVSPropertyOp38
 70
     0
102
RTVSPropertyOp39
 70
     0
102
RTVSPropertyOp40
 70
     0
102
RTVSPropertyOp41
 70
     0
102
RTVSPropertyOp42
 70
     0
102
RTVSPropertyOp43
 70
     0
102
RTVSPropertyOp44
 70
     0
102
RTVSPropertyOp45
 70
     0
102
RTVSPropertyOp46
 70
     0
102
RTVSPropertyOp47
 70
     0
102
RTVSPropertyOp48
 70
     0
102
RTVSPropertyOp49
 70
     0
102
RTVSPropertyOp50
 70
     0
102
RTVSPropertyOp51
 70
     0
102
RTVSPropertyOp52
 70
     0
102
RTVSPropertyOp53
 70
     0
102
RTVSPropertyOp54
 70
     0
102
RTVSPropertyOp55
 70
     0
102
RTVSPropertyOp56
 70
     0
102
RTVSPropertyOp57
 70
     0
102
RTVSPropertyOp58
 70
     1
102
RTVSPropertyOp59
 70
     1
102
RTVSPropertyOp60
 70
     1
102
RTVSPropertyOp61
 70
     1
102
RTVSPropertyOp62
 70
     1
  0
XRECORD
  5
6B7
102
{ACAD_REACTORS
330
6B6
102
}
330
6B6
100
AcDbXrecord
280
     1
102
RTVSPost2010Prop28
280
     0
102
RTVSPost2010PropOp28
 70
     1
102
RTVSPost2010Prop29
280
     1
102
RTVSPost2010PropOp29
 70
     1
102
RTVSPost2010Prop30
280
     1
102
RTVSPost2010PropOp30
 70
     1
102
RTVSPost2010Prop31
280
     0
102
RTVSPost2010PropOp31
 70
     1
102
RTVSPost2010Prop32
280
     0
102
RTVSPost2010PropOp32
 70
     1
102
RTVSPost2010Prop33
280
     0
102
RTVSPost2010PropOp33
 70
     1
102
RTVSPost2010Prop34
280
     0
102
RTVSPost2010PropOp34
 70
     1
102
RTVSPost2010Prop35
280
     0
102
RTVSPost2010PropOp35
 70
     1
102
RTVSPost2010Prop36
280
     0
102
RTVSPost2010PropOp36
 70
     1
102
RTVSPost2010Prop37
 90
       50
102
RTVSPost2010PropOp37
 70
     1
102
RTVSPost2010Prop38
140
0.0
102
RTVSPost2010PropOp38
 70
     1
102
RTVSPost2010Prop39
140
1.0
102
RTVSPost2010PropOp39
 70
     1
102
RTVSPost2010Prop40
 90
        0
102
RTVSPost2010PropOp40
 70
     1
102
RTVSPost2010Prop41ColorIndex
 90
       18
102
RTVSPost2010Prop41ColorRGB
 90
        0
102
RTVSPost2010PropOp41
 70
     1
102
RTVSPost2010Prop42
 90
       50
102
RTVSPost2010PropOp42
 70
     1
102
RTVSPost2010Prop43
 90
        3
102
RTVSPost2010PropOp43
 70
     1
102
RTVSPost2010Prop44ColorIndex
 90
        5
102
RTVSPost2010Prop44ColorRGB
 90
      255
102
RTVSPost2010PropOp44
 70
     1
102
RTVSPost2010Prop45
280
     0
102
RTVSPost2010PropOp45
 70
     1
102
RTVSPost2010Prop46
 90
       50
102
RTVSPost2010PropOp46
 70
     1
102
RTVSPost2010Prop47
 90
       50
102
RTVSPost2010PropOp47
 70
     1
102
RTVSPost2010Prop48
 90
       50
102
RTVSPost2010PropOp48
 70
     1
102
RTVSPost2010Prop49
280
     0
102
RTVSPost2010PropOp49
 70
     1
102
RTVSPost2010Prop50
 90
       50
102
RTVSPost2010PropOp50
 70
     1
102
RTVSPost2010Prop51ColorIndex
 90
      256
102
RTVSPost2010Prop51ColorRGB
 90
-16777216
102
RTVSPost2010PropOp51
 70
     0
102
RTVSPost2010Prop52
140
1.0
102
RTVSPost2010PropOp52
 70
     0
102
RTVSPost2010Prop53
 90
        2
102
RTVSPost2010PropOp53
 70
     1
102
RTVSPost2010Prop54
  1
strokes_ogs.tif
102
RTVSPost2010PropOp54
 70
     1
102
RTVSPost2010Prop55
280
     0
102
RTVSPost2010PropOp55
 70
     1
102
RTVSPost2010Prop56
140
1.0
102
RTVSPost2010PropOp56
 70
     1
102
RTVSPost2010Prop57
140
1.0
102
RTVSPost2010PropOp57
 70
     1
102
RTVSPropertyOp0
 70
     1
102
RTVSPropertyOp1
 70
     1
102
RTVSPropertyOp2
 70
     1
102
RTVSPropertyOp3
 70
     1
102
RTVSPropertyOp4
 70
     1
102
RTVSPropertyOp5
 70
     1
102
RTVSPropertyOp6
 70
     1
102
RTVSPropertyOp7
 70
     1
102
RTVSPropertyOp8
 70
     1
102
RTVSPropertyOp9
 70
     1
102
RTVSPropertyOp10
 70
     1
102
RTVSPropertyOp11
 70
     1
102
RTVSPropertyOp12
 70
     1
102
RTVSPropertyOp13
 70
     1
102
RTVSPropertyOp14
 70
     1
102
RTVSPropertyOp15
 70
     1
102
RTVSPropertyOp16
 70
     1
102
RTVSPropertyOp17
 70
     1
102
RTVSPropertyOp18
 70
     1
102
RTVSPropertyOp19
 70
     1
102
RTVSPropertyOp20
 70
     1
102
RTVSPropertyOp21
 70
     1
102
RTVSPropertyOp22
 70
     1
102
RTVSPropertyOp23
 70
     1
102
RTVSPropertyOp24
 70
     1
102
RTVSPropertyOp25
 70
     1
102
RTVSPropertyOp26
 70
     1
102
RTVSPropertyOp27
 70
     1
102
RTVSPropertyOp28
 70
     1
102
RTVSPropertyOp29
 70
     1
102
RTVSPropertyOp30
 70
     1
102
RTVSPropertyOp31
 70
     1
102
RTVSPropertyOp32
 70
     1
102
RTVSPropertyOp33
 70
     1
102
RTVSPropertyOp34
 70
     1
102
RTVSPropertyOp35
 70
     1
102
RTVSPropertyOp36
 70
     1
102
RTVSPropertyOp37
 70
     1
102
RTVSPropertyOp38
 70
     1
102
RTVSPropertyOp39
 70
     1
102
RTVSPropertyOp40
 70
     1
102
RTVSPropertyOp41
 70
     1
102
RTVSPropertyOp42
 70
     1
102
RTVSPropertyOp43
 70
     1
102
RTVSPropertyOp44
 70
     1
102
RTVSPropertyOp45
 70
     1
102
RTVSPropertyOp46
 70
     1
102
RTVSPropertyOp47
 70
     1
102
RTVSPropertyOp48
 70
     1
102
RTVSPropertyOp49
 70
     1
102
RTVSPropertyOp50
 70
     1
102
RTVSPropertyOp51
 70
     0
102
RTVSPropertyOp52
 70
     0
102
RTVSPropertyOp53
 70
     1
102
RTVSPropertyOp54
 70
     1
102
RTVSPropertyOp55
 70
     1
102
RTVSPropertyOp56
 70
     1
102
RTVSPropertyOp57
 70
     1
102
RTVSPropertyOp58
 70
     1
102
RTVSPropertyOp59
 70
     1
102
RTVSPropertyOp60
 70
     1
102
RTVSPropertyOp61
 70
     1
102
RTVSPropertyOp62
 70
     1
  0
XRECORD
  5
69B
102
{ACAD_REACTORS
330
69A
102
}
330
69A
100
AcDbXrecord
280
     1
102
RTVSPost2010Prop28
280
     0
102
RTVSPost2010PropOp28
 70
     1
102
RTVSPost2010Prop29
280
     1
102
RTVSPost2010PropOp29
 70
     1
102
RTVSPost2010Prop30
280
     1
102
RTVSPost2010PropOp30
 70
     1
102
RTVSPost2010Prop31
280
     0
102
RTVSPost2010PropOp31
 70
     1
102
RTVSPost2010Prop32
280
     0
102
RTVSPost2010PropOp32
 70
     1
102
RTVSPost2010Prop33
280
     0
102
RTVSPost2010PropOp33
 70
     1
102
RTVSPost2010Prop34
280
     0
102
RTVSPost2010PropOp34
 70
     1
102
RTVSPost2010Prop35
280
     0
102
RTVSPost2010PropOp35
 70
     1
102
RTVSPost2010Prop36
280
     0
102
RTVSPost2010PropOp36
 70
     1
102
RTVSPost2010Prop37
 90
       50
102
RTVSPost2010PropOp37
 70
     1
102
RTVSPost2010Prop38
140
0.0
102
RTVSPost2010PropOp38
 70
     1
102
RTVSPost2010Prop39
140
1.0
102
RTVSPost2010PropOp39
 70
     1
102
RTVSPost2010Prop40
 90
        0
102
RTVSPost2010PropOp40
 70
     1
102
RTVSPost2010Prop41ColorIndex
 90
       18
102
RTVSPost2010Prop41ColorRGB
 90
        0
102
RTVSPost2010PropOp41
 70
     1
102
RTVSPost2010Prop42
 90
       50
102
RTVSPost2010PropOp42
 70
     1
102
RTVSPost2010Prop43
 90
        3
102
RTVSPost2010PropOp43
 70
     1
102
RTVSPost2010Prop44ColorIndex
 90
        5
102
RTVSPost2010Prop44ColorRGB
 90
      255
102
RTVSPost2010PropOp44
 70
     1
102
RTVSPost2010Prop45
280
     0
102
RTVSPost2010PropOp45
 70
     1
102
RTVSPost2010Prop46
 90
       50
102
RTVSPost2010PropOp46
 70
     1
102
RTVSPost2010Prop47
 90
       50
102
RTVSPost2010PropOp47
 70
     1
102
RTVSPost2010Prop48
 90
       50
102
RTVSPost2010PropOp48
 70
     1
102
RTVSPost2010Prop49
280
     0
102
RTVSPost2010PropOp49
 70
     1
102
RTVSPost2010Prop50
 90
       50
102
RTVSPost2010PropOp50
 70
     1
102
RTVSPost2010Prop51ColorIndex
 90
      256
102
RTVSPost2010Prop51ColorRGB
 90
-16777216
102
RTVSPost2010PropOp51
 70
     0
102
RTVSPost2010Prop52
140
1.0
102
RTVSPost2010PropOp52
 70
     0
102
RTVSPost2010Prop53
 90
        2
102
RTVSPost2010PropOp53
 70
     1
102
RTVSPost2010Prop54
  1
strokes_ogs.tif
102
RTVSPost2010PropOp54
 70
     1
102
RTVSPost2010Prop55
280
     0
102
RTVSPost2010PropOp55
 70
     1
102
RTVSPost2010Prop56
140
1.0
102
RTVSPost2010PropOp56
 70
     1
102
RTVSPost2010Prop57
140
1.0
102
RTVSPost2010PropOp57
 70
     1
102
RTVSPropertyOp0
 70
     1
102
RTVSPropertyOp1
 70
     1
102
RTVSPropertyOp2
 70
     1
102
RTVSPropertyOp3
 70
     1
102
RTVSPropertyOp4
 70
     1
102
RTVSPropertyOp5
 70
     1
102
RTVSPropertyOp6
 70
     1
102
RTVSPropertyOp7
 70
     1
102
RTVSPropertyOp8
 70
     1
102
RTVSPropertyOp9
 70
     1
102
RTVSPropertyOp10
 70
     1
102
RTVSPropertyOp11
 70
     1
102
RTVSPropertyOp12
 70
     1
102
RTVSPropertyOp13
 70
     1
102
RTVSPropertyOp14
 70
     1
102
RTVSPropertyOp15
 70
     1
102
RTVSPropertyOp16
 70
     1
102
RTVSPropertyOp17
 70
     1
102
RTVSPropertyOp18
 70
     1
102
RTVSPropertyOp19
 70
     1
102
RTVSPropertyOp20
 70
     1
102
RTVSPropertyOp21
 70
     1
102
RTVSPropertyOp22
 70
     1
102
RTVSPropertyOp23
 70
     1
102
RTVSPropertyOp24
 70
     1
102
RTVSPropertyOp25
 70
     1
102
RTVSPropertyOp26
 70
     1
102
RTVSPropertyOp27
 70
     1
102
RTVSPropertyOp28
 70
     1
102
RTVSPropertyOp29
 70
     1
102
RTVSPropertyOp30
 70
     1
102
RTVSPropertyOp31
 70
     1
102
RTVSPropertyOp32
 70
     1
102
RTVSPropertyOp33
 70
     1
102
RTVSPropertyOp34
 70
     1
102
RTVSPropertyOp35
 70
     1
102
RTVSPropertyOp36
 70
     1
102
RTVSPropertyOp37
 70
     1
102
RTVSPropertyOp38
 70
     1
102
RTVSPropertyOp39
 70
     1
102
RTVSPropertyOp40
 70
     1
102
RTVSPropertyOp41
 70
     1
102
RTVSPropertyOp42
 70
     1
102
RTVSPropertyOp43
 70
     1
102
RTVSPropertyOp44
 70
     1
102
RTVSPropertyOp45
 70
     1
102
RTVSPropertyOp46
 70
     1
102
RTVSPropertyOp47
 70
     1
102
RTVSPropertyOp48
 70
     1
102
RTVSPropertyOp49
 70
     1
102
RTVSPropertyOp50
 70
     1
102
RTVSPropertyOp51
 70
     0
102
RTVSPropertyOp52
 70
     0
102
RTVSPropertyOp53
 70
     1
102
RTVSPropertyOp54
 70
     1
102
RTVSPropertyOp55
 70
     1
102
RTVSPropertyOp56
 70
     1
102
RTVSPropertyOp57
 70
     1
102
RTVSPropertyOp58
 70
     1
102
RTVSPropertyOp59
 70
     1
102
RTVSPropertyOp60
 70
     1
102
RTVSPropertyOp61
 70
     1
102
RTVSPropertyOp62
 70
     1
  0
XRECORD
  5
69D
102
{ACAD_REACTORS
330
69C
102
}
330
69C
100
AcDbXrecord
280
     1
102
RTVSPost2010Prop28
280
     0
102
RTVSPost2010PropOp28
 70
     1
102
RTVSPost2010Prop29
280
     1
102
RTVSPost2010PropOp29
 70
     1
102
RTVSPost2010Prop30
280
     1
102
RTVSPost2010PropOp30
 70
     1
102
RTVSPost2010Prop31
280
     0
102
RTVSPost2010PropOp31
 70
     1
102
RTVSPost2010Prop32
280
     0
102
RTVSPost2010PropOp32
 70
     1
102
RTVSPost2010Prop33
280
     0
102
RTVSPost2010PropOp33
 70
     1
102
RTVSPost2010Prop34
280
     0
102
RTVSPost2010PropOp34
 70
     1
102
RTVSPost2010Prop35
280
     0
102
RTVSPost2010PropOp35
 70
     1
102
RTVSPost2010Prop36
280
     0
102
RTVSPost2010PropOp36
 70
     1
102
RTVSPost2010Prop37
 90
       50
102
RTVSPost2010PropOp37
 70
     1
102
RTVSPost2010Prop38
140
0.0
102
RTVSPost2010PropOp38
 70
     1
102
RTVSPost2010Prop39
140
1.0
102
RTVSPost2010PropOp39
 70
     1
102
RTVSPost2010Prop40
 90
        0
102
RTVSPost2010PropOp40
 70
     1
102
RTVSPost2010Prop41ColorIndex
 90
       18
102
RTVSPost2010Prop41ColorRGB
 90
        0
102
RTVSPost2010PropOp41
 70
     1
102
RTVSPost2010Prop42
 90
       50
102
RTVSPost2010PropOp42
 70
     1
102
RTVSPost2010Prop43
 90
        3
102
RTVSPost2010PropOp43
 70
     1
102
RTVSPost2010Prop44ColorIndex
 90
        5
102
RTVSPost2010Prop44ColorRGB
 90
      255
102
RTVSPost2010PropOp44
 70
     1
102
RTVSPost2010Prop45
280
     0
102
RTVSPost2010PropOp45
 70
     1
102
RTVSPost2010Prop46
 90
       50
102
RTVSPost2010PropOp46
 70
     1
102
RTVSPost2010Prop47
 90
       50
102
RTVSPost2010PropOp47
 70
     1
102
RTVSPost2010Prop48
 90
       50
102
RTVSPost2010PropOp48
 70
     1
102
RTVSPost2010Prop49
280
     0
102
RTVSPost2010PropOp49
 70
     1
102
RTVSPost2010Prop50
 90
       50
102
RTVSPost2010PropOp50
 70
     1
102
RTVSPost2010Prop51ColorIndex
 90
      256
102
RTVSPost2010Prop51ColorRGB
 90
-16777216
102
RTVSPost2010PropOp51
 70
     0
102
RTVSPost2010Prop52
140
1.0
102
RTVSPost2010PropOp52
 70
     0
102
RTVSPost2010Prop53
 90
        2
102
RTVSPost2010PropOp53
 70
     1
102
RTVSPost2010Prop54
  1
strokes_ogs.tif
102
RTVSPost2010PropOp54
 70
     1
102
RTVSPost2010Prop55
280
     0
102
RTVSPost2010PropOp55
 70
     1
102
RTVSPost2010Prop56
140
1.0
102
RTVSPost2010PropOp56
 70
     1
102
RTVSPost2010Prop57
140
1.0
102
RTVSPost2010PropOp57
 70
     1
102
RTVSPropertyOp0
 70
     1
102
RTVSPropertyOp1
 70
     1
102
RTVSPropertyOp2
 70
     1
102
RTVSPropertyOp3
 70
     1
102
RTVSPropertyOp4
 70
     1
102
RTVSPropertyOp5
 70
     1
102
RTVSPropertyOp6
 70
     1
102
RTVSPropertyOp7
 70
     1
102
RTVSPropertyOp8
 70
     1
102
RTVSPropertyOp9
 70
     1
102
RTVSPropertyOp10
 70
     1
102
RTVSPropertyOp11
 70
     1
102
RTVSPropertyOp12
 70
     1
102
RTVSPropertyOp13
 70
     1
102
RTVSPropertyOp14
 70
     1
102
RTVSPropertyOp15
 70
     1
102
RTVSPropertyOp16
 70
     1
102
RTVSPropertyOp17
 70
     1
102
RTVSPropertyOp18
 70
     1
102
RTVSPropertyOp19
 70
     1
102
RTVSPropertyOp20
 70
     1
102
RTVSPropertyOp21
 70
     1
102
RTVSPropertyOp22
 70
     1
102
RTVSPropertyOp23
 70
     1
102
RTVSPropertyOp24
 70
     1
102
RTVSPropertyOp25
 70
     1
102
RTVSPropertyOp26
 70
     1
102
RTVSPropertyOp27
 70
     1
102
RTVSPropertyOp28
 70
     1
102
RTVSPropertyOp29
 70
     1
102
RTVSPropertyOp30
 70
     1
102
RTVSPropertyOp31
 70
     1
102
RTVSPropertyOp32
 70
     1
102
RTVSPropertyOp33
 70
     1
102
RTVSPropertyOp34
 70
     1
102
RTVSPropertyOp35
 70
     1
102
RTVSPropertyOp36
 70
     1
102
RTVSPropertyOp37
 70
     1
102
RTVSPropertyOp38
 70
     1
102
RTVSPropertyOp39
 70
     1
102
RTVSPropertyOp40
 70
     1
102
RTVSPropertyOp41
 70
     1
102
RTVSPropertyOp42
 70
     1
102
RTVSPropertyOp43
 70
     1
102
RTVSPropertyOp44
 70
     1
102
RTVSPropertyOp45
 70
     1
102
RTVSPropertyOp46
 70
     1
102
RTVSPropertyOp47
 70
     1
102
RTVSPropertyOp48
 70
     1
102
RTVSPropertyOp49
 70
     1
102
RTVSPropertyOp50
 70
     1
102
RTVSPropertyOp51
 70
     0
102
RTVSPropertyOp52
 70
     0
102
RTVSPropertyOp53
 70
     1
102
RTVSPropertyOp54
 70
     1
102
RTVSPropertyOp55
 70
     1
102
RTVSPropertyOp56
 70
     1
102
RTVSPropertyOp57
 70
     1
102
RTVSPropertyOp58
 70
     1
102
RTVSPropertyOp59
 70
     1
102
RTVSPropertyOp60
 70
     1
102
RTVSPropertyOp61
 70
     1
102
RTVSPropertyOp62
 70
     1
  0
XRECORD
  5
69F
102
{ACAD_REACTORS
330
69E
102
}
330
69E
100
AcDbXrecord
280
     1
102
RTVSPost2010Prop28
280
     0
102
RTVSPost2010PropOp28
 70
     1
102
RTVSPost2010Prop29
280
     1
102
RTVSPost2010PropOp29
 70
     1
102
RTVSPost2010Prop30
280
     1
102
RTVSPost2010PropOp30
 70
     1
102
RTVSPost2010Prop31
280
     0
102
RTVSPost2010PropOp31
 70
     1
102
RTVSPost2010Prop32
280
     0
102
RTVSPost2010PropOp32
 70
     1
102
RTVSPost2010Prop33
280
     0
102
RTVSPost2010PropOp33
 70
     1
102
RTVSPost2010Prop34
280
     0
102
RTVSPost2010PropOp34
 70
     1
102
RTVSPost2010Prop35
280
     0
102
RTVSPost2010PropOp35
 70
     1
102
RTVSPost2010Prop36
280
     0
102
RTVSPost2010PropOp36
 70
     1
102
RTVSPost2010Prop37
 90
       50
102
RTVSPost2010PropOp37
 70
     1
102
RTVSPost2010Prop38
140
0.0
102
RTVSPost2010PropOp38
 70
     1
102
RTVSPost2010Prop39
140
1.0
102
RTVSPost2010PropOp39
 70
     1
102
RTVSPost2010Prop40
 90
        0
102
RTVSPost2010PropOp40
 70
     1
102
RTVSPost2010Prop41ColorIndex
 90
       18
102
RTVSPost2010Prop41ColorRGB
 90
        0
102
RTVSPost2010PropOp41
 70
     1
102
RTVSPost2010Prop42
 90
       50
102
RTVSPost2010PropOp42
 70
     1
102
RTVSPost2010Prop43
 90
        3
102
RTVSPost2010PropOp43
 70
     1
102
RTVSPost2010Prop44ColorIndex
 90
        5
102
RTVSPost2010Prop44ColorRGB
 90
      255
102
RTVSPost2010PropOp44
 70
     1
102
RTVSPost2010Prop45
280
     0
102
RTVSPost2010PropOp45
 70
     1
102
RTVSPost2010Prop46
 90
       50
102
RTVSPost2010PropOp46
 70
     1
102
RTVSPost2010Prop47
 90
       50
102
RTVSPost2010PropOp47
 70
     1
102
RTVSPost2010Prop48
 90
       50
102
RTVSPost2010PropOp48
 70
     1
102
RTVSPost2010Prop49
280
     0
102
RTVSPost2010PropOp49
 70
     1
102
RTVSPost2010Prop50
 90
       50
102
RTVSPost2010PropOp50
 70
     1
102
RTVSPost2010Prop51ColorIndex
 90
      256
102
RTVSPost2010Prop51ColorRGB
 90
-16777216
102
RTVSPost2010PropOp51
 70
     0
102
RTVSPost2010Prop52
140
1.0
102
RTVSPost2010PropOp52
 70
     0
102
RTVSPost2010Prop53
 90
        2
102
RTVSPost2010PropOp53
 70
     1
102
RTVSPost2010Prop54
  1
strokes_ogs.tif
102
RTVSPost2010PropOp54
 70
     1
102
RTVSPost2010Prop55
280
     0
102
RTVSPost2010PropOp55
 70
     1
102
RTVSPost2010Prop56
140
1.0
102
RTVSPost2010PropOp56
 70
     1
102
RTVSPost2010Prop57
140
1.0
102
RTVSPost2010PropOp57
 70
     1
102
RTVSPropertyOp0
 70
     1
102
RTVSPropertyOp1
 70
     1
102
RTVSPropertyOp2
 70
     1
102
RTVSPropertyOp3
 70
     1
102
RTVSPropertyOp4
 70
     1
102
RTVSPropertyOp5
 70
     1
102
RTVSPropertyOp6
 70
     1
102
RTVSPropertyOp7
 70
     1
102
RTVSPropertyOp8
 70
     1
102
RTVSPropertyOp9
 70
     1
102
RTVSPropertyOp10
 70
     1
102
RTVSPropertyOp11
 70
     1
102
RTVSPropertyOp12
 70
     1
102
RTVSPropertyOp13
 70
     1
102
RTVSPropertyOp14
 70
     1
102
RTVSPropertyOp15
 70
     1
102
RTVSPropertyOp16
 70
     1
102
RTVSPropertyOp17
 70
     1
102
RTVSPropertyOp18
 70
     1
102
RTVSPropertyOp19
 70
     1
102
RTVSPropertyOp20
 70
     1
102
RTVSPropertyOp21
 70
     1
102
RTVSPropertyOp22
 70
     1
102
RTVSPropertyOp23
 70
     1
102
RTVSPropertyOp24
 70
     1
102
RTVSPropertyOp25
 70
     1
102
RTVSPropertyOp26
 70
     1
102
RTVSPropertyOp27
 70
     1
102
RTVSPropertyOp28
 70
     1
102
RTVSPropertyOp29
 70
     1
102
RTVSPropertyOp30
 70
     1
102
RTVSPropertyOp31
 70
     1
102
RTVSPropertyOp32
 70
     1
102
RTVSPropertyOp33
 70
     1
102
RTVSPropertyOp34
 70
     1
102
RTVSPropertyOp35
 70
     1
102
RTVSPropertyOp36
 70
     1
102
RTVSPropertyOp37
 70
     1
102
RTVSPropertyOp38
 70
     1
102
RTVSPropertyOp39
 70
     1
102
RTVSPropertyOp40
 70
     1
102
RTVSPropertyOp41
 70
     1
102
RTVSPropertyOp42
 70
     1
102
RTVSPropertyOp43
 70
     1
102
RTVSPropertyOp44
 70
     1
102
RTVSPropertyOp45
 70
     1
102
RTVSPropertyOp46
 70
     1
102
RTVSPropertyOp47
 70
     1
102
RTVSPropertyOp48
 70
     1
102
RTVSPropertyOp49
 70
     1
102
RTVSPropertyOp50
 70
     1
102
RTVSPropertyOp51
 70
     0
102
RTVSPropertyOp52
 70
     0
102
RTVSPropertyOp53
 70
     1
102
RTVSPropertyOp54
 70
     1
102
RTVSPropertyOp55
 70
     1
102
RTVSPropertyOp56
 70
     1
102
RTVSPropertyOp57
 70
     1
102
RTVSPropertyOp58
 70
     1
102
RTVSPropertyOp59
 70
     1
102
RTVSPropertyOp60
 70
     1
102
RTVSPropertyOp61
 70
     1
102
RTVSPropertyOp62
 70
     1
  0
XRECORD
  5
6A1
102
{ACAD_REACTORS
330
6A0
102
}
330
6A0
100
AcDbXrecord
280
     1
102
RTVSPost2010Prop28
280
     0
102
RTVSPost2010PropOp28
 70
     1
102
RTVSPost2010Prop29
280
     1
102
RTVSPost2010PropOp29
 70
     1
102
RTVSPost2010Prop30
280
     1
102
RTVSPost2010PropOp30
 70
     1
102
RTVSPost2010Prop31
280
     0
102
RTVSPost2010PropOp31
 70
     1
102
RTVSPost2010Prop32
280
     0
102
RTVSPost2010PropOp32
 70
     1
102
RTVSPost2010Prop33
280
     0
102
RTVSPost2010PropOp33
 70
     1
102
RTVSPost2010Prop34
280
     0
102
RTVSPost2010PropOp34
 70
     1
102
RTVSPost2010Prop35
280
     0
102
RTVSPost2010PropOp35
 70
     1
102
RTVSPost2010Prop36
280
     0
102
RTVSPost2010PropOp36
 70
     1
102
RTVSPost2010Prop37
 90
       50
102
RTVSPost2010PropOp37
 70
     1
102
RTVSPost2010Prop38
140
0.0
102
RTVSPost2010PropOp38
 70
     1
102
RTVSPost2010Prop39
140
1.0
102
RTVSPost2010PropOp39
 70
     1
102
RTVSPost2010Prop40
 90
        0
102
RTVSPost2010PropOp40
 70
     1
102
RTVSPost2010Prop41ColorIndex
 90
       18
102
RTVSPost2010Prop41ColorRGB
 90
        0
102
RTVSPost2010PropOp41
 70
     1
102
RTVSPost2010Prop42
 90
       50
102
RTVSPost2010PropOp42
 70
     1
102
RTVSPost2010Prop43
 90
        3
102
RTVSPost2010PropOp43
 70
     1
102
RTVSPost2010Prop44ColorIndex
 90
        5
102
RTVSPost2010Prop44ColorRGB
 90
      255
102
RTVSPost2010PropOp44
 70
     1
102
RTVSPost2010Prop45
280
     0
102
RTVSPost2010PropOp45
 70
     1
102
RTVSPost2010Prop46
 90
       50
102
RTVSPost2010PropOp46
 70
     1
102
RTVSPost2010Prop47
 90
       50
102
RTVSPost2010PropOp47
 70
     1
102
RTVSPost2010Prop48
 90
       50
102
RTVSPost2010PropOp48
 70
     1
102
RTVSPost2010Prop49
280
     0
102
RTVSPost2010PropOp49
 70
     1
102
RTVSPost2010Prop50
 90
       50
102
RTVSPost2010PropOp50
 70
     1
102
RTVSPost2010Prop51ColorIndex
 90
      256
102
RTVSPost2010Prop51ColorRGB
 90
-16777216
102
RTVSPost2010PropOp51
 70
     0
102
RTVSPost2010Prop52
140
1.0
102
RTVSPost2010PropOp52
 70
     0
102
RTVSPost2010Prop53
 90
        2
102
RTVSPost2010PropOp53
 70
     1
102
RTVSPost2010Prop54
  1
strokes_ogs.tif
102
RTVSPost2010PropOp54
 70
     1
102
RTVSPost2010Prop55
280
     0
102
RTVSPost2010PropOp55
 70
     1
102
RTVSPost2010Prop56
140
1.0
102
RTVSPost2010PropOp56
 70
     1
102
RTVSPost2010Prop57
140
1.0
102
RTVSPost2010PropOp57
 70
     1
102
RTVSPropertyOp0
 70
     1
102
RTVSPropertyOp1
 70
     1
102
RTVSPropertyOp2
 70
     1
102
RTVSPropertyOp3
 70
     1
102
RTVSPropertyOp4
 70
     1
102
RTVSPropertyOp5
 70
     1
102
RTVSPropertyOp6
 70
     1
102
RTVSPropertyOp7
 70
     1
102
RTVSPropertyOp8
 70
     1
102
RTVSPropertyOp9
 70
     1
102
RTVSPropertyOp10
 70
     1
102
RTVSPropertyOp11
 70
     1
102
RTVSPropertyOp12
 70
     1
102
RTVSPropertyOp13
 70
     1
102
RTVSPropertyOp14
 70
     1
102
RTVSPropertyOp15
 70
     1
102
RTVSPropertyOp16
 70
     1
102
RTVSPropertyOp17
 70
     1
102
RTVSPropertyOp18
 70
     1
102
RTVSPropertyOp19
 70
     1
102
RTVSPropertyOp20
 70
     1
102
RTVSPropertyOp21
 70
     1
102
RTVSPropertyOp22
 70
     1
102
RTVSPropertyOp23
 70
     1
102
RTVSPropertyOp24
 70
     1
102
RTVSPropertyOp25
 70
     1
102
RTVSPropertyOp26
 70
     1
102
RTVSPropertyOp27
 70
     1
102
RTVSPropertyOp28
 70
     1
102
RTVSPropertyOp29
 70
     1
102
RTVSPropertyOp30
 70
     1
102
RTVSPropertyOp31
 70
     1
102
RTVSPropertyOp32
 70
     1
102
RTVSPropertyOp33
 70
     1
102
RTVSPropertyOp34
 70
     1
102
RTVSPropertyOp35
 70
     1
102
RTVSPropertyOp36
 70
     1
102
RTVSPropertyOp37
 70
     1
102
RTVSPropertyOp38
 70
     1
102
RTVSPropertyOp39
 70
     1
102
RTVSPropertyOp40
 70
     1
102
RTVSPropertyOp41
 70
     1
102
RTVSPropertyOp42
 70
     1
102
RTVSPropertyOp43
 70
     1
102
RTVSPropertyOp44
 70
     1
102
RTVSPropertyOp45
 70
     1
102
RTVSPropertyOp46
 70
     1
102
RTVSPropertyOp47
 70
     1
102
RTVSPropertyOp48
 70
     1
102
RTVSPropertyOp49
 70
     1
102
RTVSPropertyOp50
 70
     1
102
RTVSPropertyOp51
 70
     0
102
RTVSPropertyOp52
 70
     0
102
RTVSPropertyOp53
 70
     1
102
RTVSPropertyOp54
 70
     1
102
RTVSPropertyOp55
 70
     1
102
RTVSPropertyOp56
 70
     1
102
RTVSPropertyOp57
 70
     1
102
RTVSPropertyOp58
 70
     1
102
RTVSPropertyOp59
 70
     1
102
RTVSPropertyOp60
 70
     1
102
RTVSPropertyOp61
 70
     1
102
RTVSPropertyOp62
 70
     1
  0
XRECORD
  5
6A7
102
{ACAD_REACTORS
330
6A6
102
}
330
6A6
100
AcDbXrecord
280
     1
102
RTVSPost2010Prop28
280
     0
102
RTVSPost2010PropOp28
 70
     1
102
RTVSPost2010Prop29
280
     1
102
RTVSPost2010PropOp29
 70
     1
102
RTVSPost2010Prop30
280
     1
102
RTVSPost2010PropOp30
 70
     1
102
RTVSPost2010Prop31
280
     0
102
RTVSPost2010PropOp31
 70
     1
102
RTVSPost2010Prop32
280
     0
102
RTVSPost2010PropOp32
 70
     1
102
RTVSPost2010Prop33
280
     0
102
RTVSPost2010PropOp33
 70
     1
102
RTVSPost2010Prop34
280
     0
102
RTVSPost2010PropOp34
 70
     1
102
RTVSPost2010Prop35
280
     0
102
RTVSPost2010PropOp35
 70
     1
102
RTVSPost2010Prop36
280
     0
102
RTVSPost2010PropOp36
 70
     1
102
RTVSPost2010Prop37
 90
       50
102
RTVSPost2010PropOp37
 70
     1
102
RTVSPost2010Prop38
140
0.0
102
RTVSPost2010PropOp38
 70
     1
102
RTVSPost2010Prop39
140
1.0
102
RTVSPost2010PropOp39
 70
     1
102
RTVSPost2010Prop40
 90
        0
102
RTVSPost2010PropOp40
 70
     1
102
RTVSPost2010Prop41ColorIndex
 90
       18
102
RTVSPost2010Prop41ColorRGB
 90
        0
102
RTVSPost2010PropOp41
 70
     1
102
RTVSPost2010Prop42
 90
       50
102
RTVSPost2010PropOp42
 70
     1
102
RTVSPost2010Prop43
 90
        3
102
RTVSPost2010PropOp43
 70
     1
102
RTVSPost2010Prop44ColorIndex
 90
        5
102
RTVSPost2010Prop44ColorRGB
 90
      255
102
RTVSPost2010PropOp44
 70
     1
102
RTVSPost2010Prop45
280
     0
102
RTVSPost2010PropOp45
 70
     1
102
RTVSPost2010Prop46
 90
       50
102
RTVSPost2010PropOp46
 70
     1
102
RTVSPost2010Prop47
 90
       50
102
RTVSPost2010PropOp47
 70
     1
102
RTVSPost2010Prop48
 90
       50
102
RTVSPost2010PropOp48
 70
     1
102
RTVSPost2010Prop49
280
     0
102
RTVSPost2010PropOp49
 70
     1
102
RTVSPost2010Prop50
 90
       50
102
RTVSPost2010PropOp50
 70
     1
102
RTVSPost2010Prop51ColorIndex
 90
      256
102
RTVSPost2010Prop51ColorRGB
 90
-16777216
102
RTVSPost2010PropOp51
 70
     0
102
RTVSPost2010Prop52
140
1.0
102
RTVSPost2010PropOp52
 70
     0
102
RTVSPost2010Prop53
 90
        2
102
RTVSPost2010PropOp53
 70
     1
102
RTVSPost2010Prop54
  1
strokes_ogs.tif
102
RTVSPost2010PropOp54
 70
     1
102
RTVSPost2010Prop55
280
     0
102
RTVSPost2010PropOp55
 70
     1
102
RTVSPost2010Prop56
140
1.0
102
RTVSPost2010PropOp56
 70
     1
102
RTVSPost2010Prop57
140
1.0
102
RTVSPost2010PropOp57
 70
     1
102
RTVSPropertyOp0
 70
     1
102
RTVSPropertyOp1
 70
     1
102
RTVSPropertyOp2
 70
     1
102
RTVSPropertyOp3
 70
     1
102
RTVSPropertyOp4
 70
     1
102
RTVSPropertyOp5
 70
     1
102
RTVSPropertyOp6
 70
     1
102
RTVSPropertyOp7
 70
     1
102
RTVSPropertyOp8
 70
     1
102
RTVSPropertyOp9
 70
     1
102
RTVSPropertyOp10
 70
     1
102
RTVSPropertyOp11
 70
     1
102
RTVSPropertyOp12
 70
     1
102
RTVSPropertyOp13
 70
     1
102
RTVSPropertyOp14
 70
     1
102
RTVSPropertyOp15
 70
     1
102
RTVSPropertyOp16
 70
     1
102
RTVSPropertyOp17
 70
     1
102
RTVSPropertyOp18
 70
     1
102
RTVSPropertyOp19
 70
     1
102
RTVSPropertyOp20
 70
     1
102
RTVSPropertyOp21
 70
     1
102
RTVSPropertyOp22
 70
     1
102
RTVSPropertyOp23
 70
     1
102
RTVSPropertyOp24
 70
     1
102
RTVSPropertyOp25
 70
     1
102
RTVSPropertyOp26
 70
     1
102
RTVSPropertyOp27
 70
     1
102
RTVSPropertyOp28
 70
     1
102
RTVSPropertyOp29
 70
     1
102
RTVSPropertyOp30
 70
     1
102
RTVSPropertyOp31
 70
     1
102
RTVSPropertyOp32
 70
     1
102
RTVSPropertyOp33
 70
     1
102
RTVSPropertyOp34
 70
     1
102
RTVSPropertyOp35
 70
     1
102
RTVSPropertyOp36
 70
     1
102
RTVSPropertyOp37
 70
     1
102
RTVSPropertyOp38
 70
     1
102
RTVSPropertyOp39
 70
     1
102
RTVSPropertyOp40
 70
     1
102
RTVSPropertyOp41
 70
     1
102
RTVSPropertyOp42
 70
     1
102
RTVSPropertyOp43
 70
     1
102
RTVSPropertyOp44
 70
     1
102
RTVSPropertyOp45
 70
     1
102
RTVSPropertyOp46
 70
     1
102
RTVSPropertyOp47
 70
     1
102
RTVSPropertyOp48
 70
     1
102
RTVSPropertyOp49
 70
     1
102
RTVSPropertyOp50
 70
     1
102
RTVSPropertyOp51
 70
     0
102
RTVSPropertyOp52
 70
     0
102
RTVSPropertyOp53
 70
     1
102
RTVSPropertyOp54
 70
     1
102
RTVSPropertyOp55
 70
     1
102
RTVSPropertyOp56
 70
     1
102
RTVSPropertyOp57
 70
     1
102
RTVSPropertyOp58
 70
     1
102
RTVSPropertyOp59
 70
     1
102
RTVSPropertyOp60
 70
     1
102
RTVSPropertyOp61
 70
     1
102
RTVSPropertyOp62
 70
     1
  0
XRECORD
  5
6BB
102
{ACAD_REACTORS
330
6BA
102
}
330
6BA
100
AcDbXrecord
280
     1
102
RTVSPost2010Prop28
280
     0
102
RTVSPost2010PropOp28
 70
     0
102
RTVSPost2010Prop29
280
     1
102
RTVSPost2010PropOp29
 70
     0
102
RTVSPost2010Prop30
280
     1
102
RTVSPost2010PropOp30
 70
     0
102
RTVSPost2010Prop31
280
     0
102
RTVSPost2010PropOp31
 70
     0
102
RTVSPost2010Prop32
280
     0
102
RTVSPost2010PropOp32
 70
     0
102
RTVSPost2010Prop33
280
     0
102
RTVSPost2010PropOp33
 70
     0
102
RTVSPost2010Prop34
280
     0
102
RTVSPost2010PropOp34
 70
     0
102
RTVSPost2010Prop35
280
     0
102
RTVSPost2010PropOp35
 70
     0
102
RTVSPost2010Prop36
280
     0
102
RTVSPost2010PropOp36
 70
     0
102
RTVSPost2010Prop37
 90
       50
102
RTVSPost2010PropOp37
 70
     0
102
RTVSPost2010Prop38
140
0.0
102
RTVSPost2010PropOp38
 70
     0
102
RTVSPost2010Prop39
140
1.0
102
RTVSPost2010PropOp39
 70
     0
102
RTVSPost2010Prop40
 90
        0
102
RTVSPost2010PropOp40
 70
     0
102
RTVSPost2010Prop41ColorIndex
 90
       18
102
RTVSPost2010Prop41ColorRGB
 90
        0
102
RTVSPost2010PropOp41
 70
     0
102
RTVSPost2010Prop42
 90
       50
102
RTVSPost2010PropOp42
 70
     0
102
RTVSPost2010Prop43
 90
        3
102
RTVSPost2010PropOp43
 70
     0
102
RTVSPost2010Prop44ColorIndex
 90
        5
102
RTVSPost2010Prop44ColorRGB
 90
      255
102
RTVSPost2010PropOp44
 70
     0
102
RTVSPost2010Prop45
280
     0
102
RTVSPost2010PropOp45
 70
     0
102
RTVSPost2010Prop46
 90
       50
102
RTVSPost2010PropOp46
 70
     0
102
RTVSPost2010Prop47
 90
       50
102
RTVSPost2010PropOp47
 70
     0
102
RTVSPost2010Prop48
 90
       50
102
RTVSPost2010PropOp48
 70
     0
102
RTVSPost2010Prop49
280
     0
102
RTVSPost2010PropOp49
 70
     0
102
RTVSPost2010Prop50
 90
       50
102
RTVSPost2010PropOp50
 70
     0
102
RTVSPost2010Prop51ColorIndex
 90
      256
102
RTVSPost2010Prop51ColorRGB
 90
-16777216
102
RTVSPost2010PropOp51
 70
     0
102
RTVSPost2010Prop52
140
1.0
102
RTVSPost2010PropOp52
 70
     0
102
RTVSPost2010Prop53
 90
        2
102
RTVSPost2010PropOp53
 70
     0
102
RTVSPost2010Prop54
  1
strokes_ogs.tif
102
RTVSPost2010PropOp54
 70
     0
102
RTVSPost2010Prop55
280
     0
102
RTVSPost2010PropOp55
 70
     0
102
RTVSPost2010Prop56
140
1.0
102
RTVSPost2010PropOp56
 70
     0
102
RTVSPost2010Prop57
140
1.0
102
RTVSPost2010PropOp57
 70
     0
102
RTVSPropertyOp0
 70
     0
102
RTVSPropertyOp1
 70
     0
102
RTVSPropertyOp2
 70
     0
102
RTVSPropertyOp3
 70
     0
102
RTVSPropertyOp4
 70
     0
102
RTVSPropertyOp5
 70
     0
102
RTVSPropertyOp6
 70
     0
102
RTVSPropertyOp7
 70
     0
102
RTVSPropertyOp8
 70
     0
102
RTVSPropertyOp9
 70
     0
102
RTVSPropertyOp10
 70
     0
102
RTVSPropertyOp11
 70
     0
102
RTVSPropertyOp12
 70
     0
102
RTVSPropertyOp13
 70
     0
102
RTVSPropertyOp14
 70
     2
102
RTVSPropertyOp15
 70
     0
102
RTVSPropertyOp16
 70
     0
102
RTVSPropertyOp17
 70
     0
102
RTVSPropertyOp18
 70
     0
102
RTVSPropertyOp19
 70
     0
102
RTVSPropertyOp20
 70
     0
102
RTVSPropertyOp21
 70
     0
102
RTVSPropertyOp22
 70
     0
102
RTVSPropertyOp23
 70
     0
102
RTVSPropertyOp24
 70
     0
102
RTVSPropertyOp25
 70
     0
102
RTVSPropertyOp26
 70
     0
102
RTVSPropertyOp27
 70
     0
102
RTVSPropertyOp28
 70
     0
102
RTVSPropertyOp29
 70
     0
102
RTVSPropertyOp30
 70
     0
102
RTVSPropertyOp31
 70
     0
102
RTVSPropertyOp32
 70
     0
102
RTVSPropertyOp33
 70
     0
102
RTVSPropertyOp34
 70
     0
102
RTVSPropertyOp35
 70
     0
102
RTVSPropertyOp36
 70
     0
102
RTVSPropertyOp37
 70
     0
102
RTVSPropertyOp38
 70
     0
102
RTVSPropertyOp39
 70
     0
102
RTVSPropertyOp40
 70
     0
102
RTVSPropertyOp41
 70
     0
102
RTVSPropertyOp42
 70
     0
102
RTVSPropertyOp43
 70
     0
102
RTVSPropertyOp44
 70
     0
102
RTVSPropertyOp45
 70
     0
102
RTVSPropertyOp46
 70
     0
102
RTVSPropertyOp47
 70
     0
102
RTVSPropertyOp48
 70
     0
102
RTVSPropertyOp49
 70
     0
102
RTVSPropertyOp50
 70
     0
102
RTVSPropertyOp51
 70
     0
102
RTVSPropertyOp52
 70
     0
102
RTVSPropertyOp53
 70
     0
102
RTVSPropertyOp54
 70
     0
102
RTVSPropertyOp55
 70
     0
102
RTVSPropertyOp56
 70
     0
102
RTVSPropertyOp57
 70
     0
102
RTVSPropertyOp58
 70
     1
102
RTVSPropertyOp59
 70
     1
102
RTVSPropertyOp60
 70
     1
102
RTVSPropertyOp61
 70
     1
102
RTVSPropertyOp62
 70
     1
  0
XRECORD
  5
6B5
102
{ACAD_REACTORS
330
6B4
102
}
330
6B4
100
AcDbXrecord
280
     1
102
RTVSPost2010Prop28
280
     0
102
RTVSPost2010PropOp28
 70
     1
102
RTVSPost2010Prop29
280
     1
102
RTVSPost2010PropOp29
 70
     1
102
RTVSPost2010Prop30
280
     1
102
RTVSPost2010PropOp30
 70
     1
102
RTVSPost2010Prop31
280
     0
102
RTVSPost2010PropOp31
 70
     1
102
RTVSPost2010Prop32
280
     0
102
RTVSPost2010PropOp32
 70
     1
102
RTVSPost2010Prop33
280
     0
102
RTVSPost2010PropOp33
 70
     1
102
RTVSPost2010Prop34
280
     0
102
RTVSPost2010PropOp34
 70
     1
102
RTVSPost2010Prop35
280
     0
102
RTVSPost2010PropOp35
 70
     1
102
RTVSPost2010Prop36
280
     0
102
RTVSPost2010PropOp36
 70
     1
102
RTVSPost2010Prop37
 90
       50
102
RTVSPost2010PropOp37
 70
     1
102
RTVSPost2010Prop38
140
0.0
102
RTVSPost2010PropOp38
 70
     1
102
RTVSPost2010Prop39
140
1.0
102
RTVSPost2010PropOp39
 70
     1
102
RTVSPost2010Prop40
 90
        0
102
RTVSPost2010PropOp40
 70
     1
102
RTVSPost2010Prop41ColorIndex
 90
       18
102
RTVSPost2010Prop41ColorRGB
 90
        0
102
RTVSPost2010PropOp41
 70
     1
102
RTVSPost2010Prop42
 90
       50
102
RTVSPost2010PropOp42
 70
     1
102
RTVSPost2010Prop43
 90
        3
102
RTVSPost2010PropOp43
 70
     1
102
RTVSPost2010Prop44ColorIndex
 90
        5
102
RTVSPost2010Prop44ColorRGB
 90
      255
102
RTVSPost2010PropOp44
 70
     1
102
RTVSPost2010Prop45
280
     0
102
RTVSPost2010PropOp45
 70
     1
102
RTVSPost2010Prop46
 90
       50
102
RTVSPost2010PropOp46
 70
     1
102
RTVSPost2010Prop47
 90
       50
102
RTVSPost2010PropOp47
 70
     1
102
RTVSPost2010Prop48
 90
       50
102
RTVSPost2010PropOp48
 70
     1
102
RTVSPost2010Prop49
280
     0
102
RTVSPost2010PropOp49
 70
     1
102
RTVSPost2010Prop50
 90
       50
102
RTVSPost2010PropOp50
 70
     1
102
RTVSPost2010Prop51ColorIndex
 90
      256
102
RTVSPost2010Prop51ColorRGB
 90
-16777216
102
RTVSPost2010PropOp51
 70
     0
102
RTVSPost2010Prop52
140
1.0
102
RTVSPost2010PropOp52
 70
     0
102
RTVSPost2010Prop53
 90
        2
102
RTVSPost2010PropOp53
 70
     1
102
RTVSPost2010Prop54
  1
strokes_ogs.tif
102
RTVSPost2010PropOp54
 70
     1
102
RTVSPost2010Prop55
280
     0
102
RTVSPost2010PropOp55
 70
     1
102
RTVSPost2010Prop56
140
1.0
102
RTVSPost2010PropOp56
 70
     1
102
RTVSPost2010Prop57
140
1.0
102
RTVSPost2010PropOp57
 70
     1
102
RTVSPropertyOp0
 70
     1
102
RTVSPropertyOp1
 70
     1
102
RTVSPropertyOp2
 70
     1
102
RTVSPropertyOp3
 70
     1
102
RTVSPropertyOp4
 70
     1
102
RTVSPropertyOp5
 70
     1
102
RTVSPropertyOp6
 70
     1
102
RTVSPropertyOp7
 70
     1
102
RTVSPropertyOp8
 70
     1
102
RTVSPropertyOp9
 70
     1
102
RTVSPropertyOp10
 70
     1
102
RTVSPropertyOp11
 70
     1
102
RTVSPropertyOp12
 70
     1
102
RTVSPropertyOp13
 70
     1
102
RTVSPropertyOp14
 70
     1
102
RTVSPropertyOp15
 70
     1
102
RTVSPropertyOp16
 70
     1
102
RTVSPropertyOp17
 70
     1
102
RTVSPropertyOp18
 70
     1
102
RTVSPropertyOp19
 70
     1
102
RTVSPropertyOp20
 70
     1
102
RTVSPropertyOp21
 70
     1
102
RTVSPropertyOp22
 70
     1
102
RTVSPropertyOp23
 70
     1
102
RTVSPropertyOp24
 70
     1
102
RTVSPropertyOp25
 70
     1
102
RTVSPropertyOp26
 70
     1
102
RTVSPropertyOp27
 70
     1
102
RTVSPropertyOp28
 70
     1
102
RTVSPropertyOp29
 70
     1
102
RTVSPropertyOp30
 70
     1
102
RTVSPropertyOp31
 70
     1
102
RTVSPropertyOp32
 70
     1
102
RTVSPropertyOp33
 70
     1
102
RTVSPropertyOp34
 70
     1
102
RTVSPropertyOp35
 70
     1
102
RTVSPropertyOp36
 70
     1
102
RTVSPropertyOp37
 70
     1
102
RTVSPropertyOp38
 70
     1
102
RTVSPropertyOp39
 70
     1
102
RTVSPropertyOp40
 70
     1
102
RTVSPropertyOp41
 70
     1
102
RTVSPropertyOp42
 70
     1
102
RTVSPropertyOp43
 70
     1
102
RTVSPropertyOp44
 70
     1
102
RTVSPropertyOp45
 70
     1
102
RTVSPropertyOp46
 70
     1
102
RTVSPropertyOp47
 70
     1
102
RTVSPropertyOp48
 70
     1
102
RTVSPropertyOp49
 70
     1
102
RTVSPropertyOp50
 70
     1
102
RTVSPropertyOp51
 70
     0
102
RTVSPropertyOp52
 70
     0
102
RTVSPropertyOp53
 70
     1
102
RTVSPropertyOp54
 70
     1
102
RTVSPropertyOp55
 70
     1
102
RTVSPropertyOp56
 70
     1
102
RTVSPropertyOp57
 70
     1
102
RTVSPropertyOp58
 70
     1
102
RTVSPropertyOp59
 70
     1
102
RTVSPropertyOp60
 70
     1
102
RTVSPropertyOp61
 70
     1
102
RTVSPropertyOp62
 70
     1
  0
XRECORD
  5
6BD
102
{ACAD_REACTORS
330
6BC
102
}
330
6BC
100
AcDbXrecord
280
     1
102
RTVSPost2010Prop28
280
     0
102
RTVSPost2010PropOp28
 70
     0
102
RTVSPost2010Prop29
280
     1
102
RTVSPost2010PropOp29
 70
     0
102
RTVSPost2010Prop30
280
     1
102
RTVSPost2010PropOp30
 70
     0
102
RTVSPost2010Prop31
280
     0
102
RTVSPost2010PropOp31
 70
     0
102
RTVSPost2010Prop32
280
     0
102
RTVSPost2010PropOp32
 70
     0
102
RTVSPost2010Prop33
280
     0
102
RTVSPost2010PropOp33
 70
     0
102
RTVSPost2010Prop34
280
     0
102
RTVSPost2010PropOp34
 70
     0
102
RTVSPost2010Prop35
280
     0
102
RTVSPost2010PropOp35
 70
     0
102
RTVSPost2010Prop36
280
     0
102
RTVSPost2010PropOp36
 70
     0
102
RTVSPost2010Prop37
 90
       50
102
RTVSPost2010PropOp37
 70
     0
102
RTVSPost2010Prop38
140
0.0
102
RTVSPost2010PropOp38
 70
     0
102
RTVSPost2010Prop39
140
1.0
102
RTVSPost2010PropOp39
 70
     0
102
RTVSPost2010Prop40
 90
        0
102
RTVSPost2010PropOp40
 70
     0
102
RTVSPost2010Prop41ColorIndex
 90
       18
102
RTVSPost2010Prop41ColorRGB
 90
        0
102
RTVSPost2010PropOp41
 70
     0
102
RTVSPost2010Prop42
 90
       50
102
RTVSPost2010PropOp42
 70
     0
102
RTVSPost2010Prop43
 90
        3
102
RTVSPost2010PropOp43
 70
     0
102
RTVSPost2010Prop44ColorIndex
 90
        5
102
RTVSPost2010Prop44ColorRGB
 90
      255
102
RTVSPost2010PropOp44
 70
     0
102
RTVSPost2010Prop45
280
     0
102
RTVSPost2010PropOp45
 70
     0
102
RTVSPost2010Prop46
 90
       50
102
RTVSPost2010PropOp46
 70
     0
102
RTVSPost2010Prop47
 90
       50
102
RTVSPost2010PropOp47
 70
     0
102
RTVSPost2010Prop48
 90
       50
102
RTVSPost2010PropOp48
 70
     0
102
RTVSPost2010Prop49
280
     0
102
RTVSPost2010PropOp49
 70
     0
102
RTVSPost2010Prop50
 90
       50
102
RTVSPost2010PropOp50
 70
     0
102
RTVSPost2010Prop51ColorIndex
 90
      256
102
RTVSPost2010Prop51ColorRGB
 90
-16777216
102
RTVSPost2010PropOp51
 70
     0
102
RTVSPost2010Prop52
140
1.0
102
RTVSPost2010PropOp52
 70
     0
102
RTVSPost2010Prop53
 90
        2
102
RTVSPost2010PropOp53
 70
     0
102
RTVSPost2010Prop54
  1
strokes_ogs.tif
102
RTVSPost2010PropOp54
 70
     0
102
RTVSPost2010Prop55
280
     0
102
RTVSPost2010PropOp55
 70
     0
102
RTVSPost2010Prop56
140
1.0
102
RTVSPost2010PropOp56
 70
     0
102
RTVSPost2010Prop57
140
1.0
102
RTVSPost2010PropOp57
 70
     0
102
RTVSPropertyOp0
 70
     0
102
RTVSPropertyOp1
 70
     0
102
RTVSPropertyOp2
 70
     0
102
RTVSPropertyOp3
 70
     0
102
RTVSPropertyOp4
 70
     0
102
RTVSPropertyOp5
 70
     0
102
RTVSPropertyOp6
 70
     0
102
RTVSPropertyOp7
 70
     0
102
RTVSPropertyOp8
 70
     0
102
RTVSPropertyOp9
 70
     0
102
RTVSPropertyOp10
 70
     0
102
RTVSPropertyOp11
 70
     0
102
RTVSPropertyOp12
 70
     0
102
RTVSPropertyOp13
 70
     0
102
RTVSPropertyOp14
 70
     2
102
RTVSPropertyOp15
 70
     0
102
RTVSPropertyOp16
 70
     0
102
RTVSPropertyOp17
 70
     0
102
RTVSPropertyOp18
 70
     0
102
RTVSPropertyOp19
 70
     0
102
RTVSPropertyOp20
 70
     0
102
RTVSPropertyOp21
 70
     0
102
RTVSPropertyOp22
 70
     0
102
RTVSPropertyOp23
 70
     0
102
RTVSPropertyOp24
 70
     0
102
RTVSPropertyOp25
 70
     0
102
RTVSPropertyOp26
 70
     0
102
RTVSPropertyOp27
 70
     0
102
RTVSPropertyOp28
 70
     0
102
RTVSPropertyOp29
 70
     0
102
RTVSPropertyOp30
 70
     0
102
RTVSPropertyOp31
 70
     0
102
RTVSPropertyOp32
 70
     0
102
RTVSPropertyOp33
 70
     0
102
RTVSPropertyOp34
 70
     0
102
RTVSPropertyOp35
 70
     0
102
RTVSPropertyOp36
 70
     0
102
RTVSPropertyOp37
 70
     0
102
RTVSPropertyOp38
 70
     0
102
RTVSPropertyOp39
 70
     0
102
RTVSPropertyOp40
 70
     0
102
RTVSPropertyOp41
 70
     0
102
RTVSPropertyOp42
 70
     0
102
RTVSPropertyOp43
 70
     0
102
RTVSPropertyOp44
 70
     0
102
RTVSPropertyOp45
 70
     0
102
RTVSPropertyOp46
 70
     0
102
RTVSPropertyOp47
 70
     0
102
RTVSPropertyOp48
 70
     0
102
RTVSPropertyOp49
 70
     0
102
RTVSPropertyOp50
 70
     0
102
RTVSPropertyOp51
 70
     0
102
RTVSPropertyOp52
 70
     0
102
RTVSPropertyOp53
 70
     0
102
RTVSPropertyOp54
 70
     0
102
RTVSPropertyOp55
 70
     0
102
RTVSPropertyOp56
 70
     0
102
RTVSPropertyOp57
 70
     0
102
RTVSPropertyOp58
 70
     1
102
RTVSPropertyOp59
 70
     1
102
RTVSPropertyOp60
 70
     1
102
RTVSPropertyOp61
 70
     1
102
RTVSPropertyOp62
 70
     1
  0
XRECORD
  5
6AB
102
{ACAD_REACTORS
330
6AA
102
}
330
6AA
100
AcDbXrecord
280
     1
102
RTVSPost2010Prop28
280
     0
102
RTVSPost2010PropOp28
 70
     1
102
RTVSPost2010Prop29
280
     1
102
RTVSPost2010PropOp29
 70
     1
102
RTVSPost2010Prop30
280
     1
102
RTVSPost2010PropOp30
 70
     1
102
RTVSPost2010Prop31
280
     0
102
RTVSPost2010PropOp31
 70
     1
102
RTVSPost2010Prop32
280
     0
102
RTVSPost2010PropOp32
 70
     1
102
RTVSPost2010Prop33
280
     0
102
RTVSPost2010PropOp33
 70
     1
102
RTVSPost2010Prop34
280
     0
102
RTVSPost2010PropOp34
 70
     1
102
RTVSPost2010Prop35
280
     0
102
RTVSPost2010PropOp35
 70
     1
102
RTVSPost2010Prop36
280
     0
102
RTVSPost2010PropOp36
 70
     1
102
RTVSPost2010Prop37
 90
       50
102
RTVSPost2010PropOp37
 70
     1
102
RTVSPost2010Prop38
140
0.0
102
RTVSPost2010PropOp38
 70
     1
102
RTVSPost2010Prop39
140
1.0
102
RTVSPost2010PropOp39
 70
     1
102
RTVSPost2010Prop40
 90
        0
102
RTVSPost2010PropOp40
 70
     1
102
RTVSPost2010Prop41ColorIndex
 90
       18
102
RTVSPost2010Prop41ColorRGB
 90
        0
102
RTVSPost2010PropOp41
 70
     1
102
RTVSPost2010Prop42
 90
       50
102
RTVSPost2010PropOp42
 70
     1
102
RTVSPost2010Prop43
 90
        3
102
RTVSPost2010PropOp43
 70
     1
102
RTVSPost2010Prop44ColorIndex
 90
        5
102
RTVSPost2010Prop44ColorRGB
 90
      255
102
RTVSPost2010PropOp44
 70
     1
102
RTVSPost2010Prop45
280
     0
102
RTVSPost2010PropOp45
 70
     1
102
RTVSPost2010Prop46
 90
       50
102
RTVSPost2010PropOp46
 70
     1
102
RTVSPost2010Prop47
 90
       50
102
RTVSPost2010PropOp47
 70
     1
102
RTVSPost2010Prop48
 90
       50
102
RTVSPost2010PropOp48
 70
     1
102
RTVSPost2010Prop49
280
     0
102
RTVSPost2010PropOp49
 70
     1
102
RTVSPost2010Prop50
 90
       50
102
RTVSPost2010PropOp50
 70
     1
102
RTVSPost2010Prop51ColorIndex
 90
      256
102
RTVSPost2010Prop51ColorRGB
 90
-16777216
102
RTVSPost2010PropOp51
 70
     0
102
RTVSPost2010Prop52
140
1.0
102
RTVSPost2010PropOp52
 70
     0
102
RTVSPost2010Prop53
 90
        2
102
RTVSPost2010PropOp53
 70
     1
102
RTVSPost2010Prop54
  1
strokes_ogs.tif
102
RTVSPost2010PropOp54
 70
     1
102
RTVSPost2010Prop55
280
     0
102
RTVSPost2010PropOp55
 70
     1
102
RTVSPost2010Prop56
140
1.0
102
RTVSPost2010PropOp56
 70
     1
102
RTVSPost2010Prop57
140
1.0
102
RTVSPost2010PropOp57
 70
     1
102
RTVSPropertyOp0
 70
     1
102
RTVSPropertyOp1
 70
     1
102
RTVSPropertyOp2
 70
     1
102
RTVSPropertyOp3
 70
     1
102
RTVSPropertyOp4
 70
     1
102
RTVSPropertyOp5
 70
     1
102
RTVSPropertyOp6
 70
     1
102
RTVSPropertyOp7
 70
     1
102
RTVSPropertyOp8
 70
     1
102
RTVSPropertyOp9
 70
     1
102
RTVSPropertyOp10
 70
     1
102
RTVSPropertyOp11
 70
     1
102
RTVSPropertyOp12
 70
     1
102
RTVSPropertyOp13
 70
     1
102
RTVSPropertyOp14
 70
     1
102
RTVSPropertyOp15
 70
     1
102
RTVSPropertyOp16
 70
     1
102
RTVSPropertyOp17
 70
     1
102
RTVSPropertyOp18
 70
     1
102
RTVSPropertyOp19
 70
     1
102
RTVSPropertyOp20
 70
     1
102
RTVSPropertyOp21
 70
     1
102
RTVSPropertyOp22
 70
     1
102
RTVSPropertyOp23
 70
     1
102
RTVSPropertyOp24
 70
     1
102
RTVSPropertyOp25
 70
     1
102
RTVSPropertyOp26
 70
     1
102
RTVSPropertyOp27
 70
     1
102
RTVSPropertyOp28
 70
     1
102
RTVSPropertyOp29
 70
     1
102
RTVSPropertyOp30
 70
     1
102
RTVSPropertyOp31
 70
     1
102
RTVSPropertyOp32
 70
     1
102
RTVSPropertyOp33
 70
     1
102
RTVSPropertyOp34
 70
     1
102
RTVSPropertyOp35
 70
     1
102
RTVSPropertyOp36
 70
     1
102
RTVSPropertyOp37
 70
     1
102
RTVSPropertyOp38
 70
     1
102
RTVSPropertyOp39
 70
     1
102
RTVSPropertyOp40
 70
     1
102
RTVSPropertyOp41
 70
     1
102
RTVSPropertyOp42
 70
     1
102
RTVSPropertyOp43
 70
     1
102
RTVSPropertyOp44
 70
     1
102
RTVSPropertyOp45
 70
     1
102
RTVSPropertyOp46
 70
     1
102
RTVSPropertyOp47
 70
     1
102
RTVSPropertyOp48
 70
     1
102
RTVSPropertyOp49
 70
     1
102
RTVSPropertyOp50
 70
     1
102
RTVSPropertyOp51
 70
     0
102
RTVSPropertyOp52
 70
     0
102
RTVSPropertyOp53
 70
     1
102
RTVSPropertyOp54
 70
     1
102
RTVSPropertyOp55
 70
     1
102
RTVSPropertyOp56
 70
     1
102
RTVSPropertyOp57
 70
     1
102
RTVSPropertyOp58
 70
     1
102
RTVSPropertyOp59
 70
     1
102
RTVSPropertyOp60
 70
     1
102
RTVSPropertyOp61
 70
     1
102
RTVSPropertyOp62
 70
     1
  0
XRECORD
  5
6C9
102
{ACAD_REACTORS
330
6C8
102
}
330
6C8
100
AcDbXrecord
280
     1
102
RTVSPost2010Prop28
280
     0
102
RTVSPost2010PropOp28
 70
     1
102
RTVSPost2010Prop29
280
     1
102
RTVSPost2010PropOp29
 70
     1
102
RTVSPost2010Prop30
280
     1
102
RTVSPost2010PropOp30
 70
     1
102
RTVSPost2010Prop31
280
     0
102
RTVSPost2010PropOp31
 70
     1
102
RTVSPost2010Prop32
280
     0
102
RTVSPost2010PropOp32
 70
     1
102
RTVSPost2010Prop33
280
     0
102
RTVSPost2010PropOp33
 70
     1
102
RTVSPost2010Prop34
280
     0
102
RTVSPost2010PropOp34
 70
     1
102
RTVSPost2010Prop35
280
     0
102
RTVSPost2010PropOp35
 70
     1
102
RTVSPost2010Prop36
280
     0
102
RTVSPost2010PropOp36
 70
     1
102
RTVSPost2010Prop37
 90
       50
102
RTVSPost2010PropOp37
 70
     1
102
RTVSPost2010Prop38
140
0.0
102
RTVSPost2010PropOp38
 70
     1
102
RTVSPost2010Prop39
140
1.0
102
RTVSPost2010PropOp39
 70
     1
102
RTVSPost2010Prop40
 90
        0
102
RTVSPost2010PropOp40
 70
     1
102
RTVSPost2010Prop41ColorIndex
 90
       18
102
RTVSPost2010Prop41ColorRGB
 90
        0
102
RTVSPost2010PropOp41
 70
     1
102
RTVSPost2010Prop42
 90
       50
102
RTVSPost2010PropOp42
 70
     1
102
RTVSPost2010Prop43
 90
        3
102
RTVSPost2010PropOp43
 70
     1
102
RTVSPost2010Prop44ColorIndex
 90
        5
102
RTVSPost2010Prop44ColorRGB
 90
      255
102
RTVSPost2010PropOp44
 70
     1
102
RTVSPost2010Prop45
280
     0
102
RTVSPost2010PropOp45
 70
     1
102
RTVSPost2010Prop46
 90
       50
102
RTVSPost2010PropOp46
 70
     1
102
RTVSPost2010Prop47
 90
       50
102
RTVSPost2010PropOp47
 70
     1
102
RTVSPost2010Prop48
 90
       50
102
RTVSPost2010PropOp48
 70
     1
102
RTVSPost2010Prop49
280
     0
102
RTVSPost2010PropOp49
 70
     1
102
RTVSPost2010Prop50
 90
       50
102
RTVSPost2010PropOp50
 70
     1
102
RTVSPost2010Prop51ColorIndex
 90
      256
102
RTVSPost2010Prop51ColorRGB
 90
-16777216
102
RTVSPost2010PropOp51
 70
     0
102
RTVSPost2010Prop52
140
1.0
102
RTVSPost2010PropOp52
 70
     0
102
RTVSPost2010Prop53
 90
        2
102
RTVSPost2010PropOp53
 70
     1
102
RTVSPost2010Prop54
  1
strokes_ogs.tif
102
RTVSPost2010PropOp54
 70
     1
102
RTVSPost2010Prop55
280
     0
102
RTVSPost2010PropOp55
 70
     1
102
RTVSPost2010Prop56
140
1.0
102
RTVSPost2010PropOp56
 70
     1
102
RTVSPost2010Prop57
140
1.0
102
RTVSPost2010PropOp57
 70
     1
102
RTVSPropertyOp0
 70
     1
102
RTVSPropertyOp1
 70
     1
102
RTVSPropertyOp2
 70
     1
102
RTVSPropertyOp3
 70
     1
102
RTVSPropertyOp4
 70
     1
102
RTVSPropertyOp5
 70
     1
102
RTVSPropertyOp6
 70
     1
102
RTVSPropertyOp7
 70
     1
102
RTVSPropertyOp8
 70
     1
102
RTVSPropertyOp9
 70
     1
102
RTVSPropertyOp10
 70
     1
102
RTVSPropertyOp11
 70
     1
102
RTVSPropertyOp12
 70
     1
102
RTVSPropertyOp13
 70
     1
102
RTVSPropertyOp14
 70
     1
102
RTVSPropertyOp15
 70
     1
102
RTVSPropertyOp16
 70
     1
102
RTVSPropertyOp17
 70
     1
102
RTVSPropertyOp18
 70
     1
102
RTVSPropertyOp19
 70
     1
102
RTVSPropertyOp20
 70
     1
102
RTVSPropertyOp21
 70
     1
102
RTVSPropertyOp22
 70
     1
102
RTVSPropertyOp23
 70
     1
102
RTVSPropertyOp24
 70
     1
102
RTVSPropertyOp25
 70
     1
102
RTVSPropertyOp26
 70
     1
102
RTVSPropertyOp27
 70
     1
102
RTVSPropertyOp28
 70
     1
102
RTVSPropertyOp29
 70
     1
102
RTVSPropertyOp30
 70
     1
102
RTVSPropertyOp31
 70
     1
102
RTVSPropertyOp32
 70
     1
102
RTVSPropertyOp33
 70
     1
102
RTVSPropertyOp34
 70
     1
102
RTVSPropertyOp35
 70
     1
102
RTVSPropertyOp36
 70
     1
102
RTVSPropertyOp37
 70
     1
102
RTVSPropertyOp38
 70
     1
102
RTVSPropertyOp39
 70
     1
102
RTVSPropertyOp40
 70
     1
102
RTVSPropertyOp41
 70
     1
102
RTVSPropertyOp42
 70
     1
102
RTVSPropertyOp43
 70
     1
102
RTVSPropertyOp44
 70
     1
102
RTVSPropertyOp45
 70
     1
102
RTVSPropertyOp46
 70
     1
102
RTVSPropertyOp47
 70
     1
102
RTVSPropertyOp48
 70
     1
102
RTVSPropertyOp49
 70
     1
102
RTVSPropertyOp50
 70
     1
102
RTVSPropertyOp51
 70
     0
102
RTVSPropertyOp52
 70
     0
102
RTVSPropertyOp53
 70
     1
102
RTVSPropertyOp54
 70
     1
102
RTVSPropertyOp55
 70
     1
102
RTVSPropertyOp56
 70
     1
102
RTVSPropertyOp57
 70
     1
102
RTVSPropertyOp58
 70
     1
102
RTVSPropertyOp59
 70
     1
102
RTVSPropertyOp60
 70
     1
102
RTVSPropertyOp61
 70
     1
102
RTVSPropertyOp62
 70
     1
  0
XRECORD
  5
6C7
102
{ACAD_REACTORS
330
6C6
102
}
330
6C6
100
AcDbXrecord
280
     1
102
RTVSPost2010Prop28
280
     0
102
RTVSPost2010PropOp28
 70
     1
102
RTVSPost2010Prop29
280
     1
102
RTVSPost2010PropOp29
 70
     1
102
RTVSPost2010Prop30
280
     1
102
RTVSPost2010PropOp30
 70
     1
102
RTVSPost2010Prop31
280
     0
102
RTVSPost2010PropOp31
 70
     1
102
RTVSPost2010Prop32
280
     0
102
RTVSPost2010PropOp32
 70
     1
102
RTVSPost2010Prop33
280
     0
102
RTVSPost2010PropOp33
 70
     1
102
RTVSPost2010Prop34
280
     0
102
RTVSPost2010PropOp34
 70
     1
102
RTVSPost2010Prop35
280
     0
102
RTVSPost2010PropOp35
 70
     1
102
RTVSPost2010Prop36
280
     0
102
RTVSPost2010PropOp36
 70
     1
102
RTVSPost2010Prop37
 90
       50
102
RTVSPost2010PropOp37
 70
     1
102
RTVSPost2010Prop38
140
0.0
102
RTVSPost2010PropOp38
 70
     1
102
RTVSPost2010Prop39
140
1.0
102
RTVSPost2010PropOp39
 70
     1
102
RTVSPost2010Prop40
 90
        0
102
RTVSPost2010PropOp40
 70
     1
102
RTVSPost2010Prop41ColorIndex
 90
       18
102
RTVSPost2010Prop41ColorRGB
 90
        0
102
RTVSPost2010PropOp41
 70
     1
102
RTVSPost2010Prop42
 90
       50
102
RTVSPost2010PropOp42
 70
     1
102
RTVSPost2010Prop43
 90
        3
102
RTVSPost2010PropOp43
 70
     1
102
RTVSPost2010Prop44ColorIndex
 90
        5
102
RTVSPost2010Prop44ColorRGB
 90
      255
102
RTVSPost2010PropOp44
 70
     1
102
RTVSPost2010Prop45
280
     0
102
RTVSPost2010PropOp45
 70
     1
102
RTVSPost2010Prop46
 90
       50
102
RTVSPost2010PropOp46
 70
     1
102
RTVSPost2010Prop47
 90
       50
102
RTVSPost2010PropOp47
 70
     1
102
RTVSPost2010Prop48
 90
       50
102
RTVSPost2010PropOp48
 70
     1
102
RTVSPost2010Prop49
280
     0
102
RTVSPost2010PropOp49
 70
     1
102
RTVSPost2010Prop50
 90
       50
102
RTVSPost2010PropOp50
 70
     1
102
RTVSPost2010Prop51ColorIndex
 90
      256
102
RTVSPost2010Prop51ColorRGB
 90
-16777216
102
RTVSPost2010PropOp51
 70
     0
102
RTVSPost2010Prop52
140
1.0
102
RTVSPost2010PropOp52
 70
     0
102
RTVSPost2010Prop53
 90
        2
102
RTVSPost2010PropOp53
 70
     1
102
RTVSPost2010Prop54
  1
strokes_ogs.tif
102
RTVSPost2010PropOp54
 70
     1
102
RTVSPost2010Prop55
280
     0
102
RTVSPost2010PropOp55
 70
     1
102
RTVSPost2010Prop56
140
1.0
102
RTVSPost2010PropOp56
 70
     1
102
RTVSPost2010Prop57
140
1.0
102
RTVSPost2010PropOp57
 70
     1
102
RTVSPropertyOp0
 70
     1
102
RTVSPropertyOp1
 70
     1
102
RTVSPropertyOp2
 70
     1
102
RTVSPropertyOp3
 70
     1
102
RTVSPropertyOp4
 70
     1
102
RTVSPropertyOp5
 70
     1
102
RTVSPropertyOp6
 70
     1
102
RTVSPropertyOp7
 70
     1
102
RTVSPropertyOp8
 70
     1
102
RTVSPropertyOp9
 70
     1
102
RTVSPropertyOp10
 70
     1
102
RTVSPropertyOp11
 70
     1
102
RTVSPropertyOp12
 70
     1
102
RTVSPropertyOp13
 70
     1
102
RTVSPropertyOp14
 70
     1
102
RTVSPropertyOp15
 70
     1
102
RTVSPropertyOp16
 70
     1
102
RTVSPropertyOp17
 70
     1
102
RTVSPropertyOp18
 70
     1
102
RTVSPropertyOp19
 70
     1
102
RTVSPropertyOp20
 70
     1
102
RTVSPropertyOp21
 70
     1
102
RTVSPropertyOp22
 70
     1
102
RTVSPropertyOp23
 70
     1
102
RTVSPropertyOp24
 70
     1
102
RTVSPropertyOp25
 70
     1
102
RTVSPropertyOp26
 70
     1
102
RTVSPropertyOp27
 70
     1
102
RTVSPropertyOp28
 70
     1
102
RTVSPropertyOp29
 70
     1
102
RTVSPropertyOp30
 70
     1
102
RTVSPropertyOp31
 70
     1
102
RTVSPropertyOp32
 70
     1
102
RTVSPropertyOp33
 70
     1
102
RTVSPropertyOp34
 70
     1
102
RTVSPropertyOp35
 70
     1
102
RTVSPropertyOp36
 70
     1
102
RTVSPropertyOp37
 70
     1
102
RTVSPropertyOp38
 70
     1
102
RTVSPropertyOp39
 70
     1
102
RTVSPropertyOp40
 70
     1
102
RTVSPropertyOp41
 70
     1
102
RTVSPropertyOp42
 70
     1
102
RTVSPropertyOp43
 70
     1
102
RTVSPropertyOp44
 70
     1
102
RTVSPropertyOp45
 70
     1
102
RTVSPropertyOp46
 70
     1
102
RTVSPropertyOp47
 70
     1
102
RTVSPropertyOp48
 70
     1
102
RTVSPropertyOp49
 70
     1
102
RTVSPropertyOp50
 70
     1
102
RTVSPropertyOp51
 70
     0
102
RTVSPropertyOp52
 70
     0
102
RTVSPropertyOp53
 70
     1
102
RTVSPropertyOp54
 70
     1
102
RTVSPropertyOp55
 70
     1
102
RTVSPropertyOp56
 70
     1
102
RTVSPropertyOp57
 70
     1
102
RTVSPropertyOp58
 70
     1
102
RTVSPropertyOp59
 70
     1
102
RTVSPropertyOp60
 70
     1
102
RTVSPropertyOp61
 70
     1
102
RTVSPropertyOp62
 70
     1
  0
XRECORD
  5
6C1
102
{ACAD_REACTORS
330
6C0
102
}
330
6C0
100
AcDbXrecord
280
     1
102
RTVSPost2010Prop28
280
     0
102
RTVSPost2010PropOp28
 70
     1
102
RTVSPost2010Prop29
280
     1
102
RTVSPost2010PropOp29
 70
     1
102
RTVSPost2010Prop30
280
     1
102
RTVSPost2010PropOp30
 70
     1
102
RTVSPost2010Prop31
280
     0
102
RTVSPost2010PropOp31
 70
     1
102
RTVSPost2010Prop32
280
     0
102
RTVSPost2010PropOp32
 70
     1
102
RTVSPost2010Prop33
280
     0
102
RTVSPost2010PropOp33
 70
     1
102
RTVSPost2010Prop34
280
     0
102
RTVSPost2010PropOp34
 70
     1
102
RTVSPost2010Prop35
280
     0
102
RTVSPost2010PropOp35
 70
     1
102
RTVSPost2010Prop36
280
     0
102
RTVSPost2010PropOp36
 70
     1
102
RTVSPost2010Prop37
 90
       50
102
RTVSPost2010PropOp37
 70
     1
102
RTVSPost2010Prop38
140
0.0
102
RTVSPost2010PropOp38
 70
     1
102
RTVSPost2010Prop39
140
1.0
102
RTVSPost2010PropOp39
 70
     1
102
RTVSPost2010Prop40
 90
        0
102
RTVSPost2010PropOp40
 70
     1
102
RTVSPost2010Prop41ColorIndex
 90
       18
102
RTVSPost2010Prop41ColorRGB
 90
        0
102
RTVSPost2010PropOp41
 70
     1
102
RTVSPost2010Prop42
 90
       50
102
RTVSPost2010PropOp42
 70
     1
102
RTVSPost2010Prop43
 90
        3
102
RTVSPost2010PropOp43
 70
     1
102
RTVSPost2010Prop44ColorIndex
 90
        5
102
RTVSPost2010Prop44ColorRGB
 90
      255
102
RTVSPost2010PropOp44
 70
     1
102
RTVSPost2010Prop45
280
     0
102
RTVSPost2010PropOp45
 70
     1
102
RTVSPost2010Prop46
 90
       50
102
RTVSPost2010PropOp46
 70
     1
102
RTVSPost2010Prop47
 90
       50
102
RTVSPost2010PropOp47
 70
     1
102
RTVSPost2010Prop48
 90
       50
102
RTVSPost2010PropOp48
 70
     1
102
RTVSPost2010Prop49
280
     0
102
RTVSPost2010PropOp49
 70
     1
102
RTVSPost2010Prop50
 90
       50
102
RTVSPost2010PropOp50
 70
     1
102
RTVSPost2010Prop51ColorIndex
 90
      256
102
RTVSPost2010Prop51ColorRGB
 90
-16777216
102
RTVSPost2010PropOp51
 70
     0
102
RTVSPost2010Prop52
140
1.0
102
RTVSPost2010PropOp52
 70
     0
102
RTVSPost2010Prop53
 90
        2
102
RTVSPost2010PropOp53
 70
     1
102
RTVSPost2010Prop54
  1
strokes_ogs.tif
102
RTVSPost2010PropOp54
 70
     1
102
RTVSPost2010Prop55
280
     0
102
RTVSPost2010PropOp55
 70
     1
102
RTVSPost2010Prop56
140
1.0
102
RTVSPost2010PropOp56
 70
     1
102
RTVSPost2010Prop57
140
1.0
102
RTVSPost2010PropOp57
 70
     1
102
RTVSPropertyOp0
 70
     1
102
RTVSPropertyOp1
 70
     1
102
RTVSPropertyOp2
 70
     1
102
RTVSPropertyOp3
 70
     1
102
RTVSPropertyOp4
 70
     1
102
RTVSPropertyOp5
 70
     1
102
RTVSPropertyOp6
 70
     1
102
RTVSPropertyOp7
 70
     1
102
RTVSPropertyOp8
 70
     1
102
RTVSPropertyOp9
 70
     1
102
RTVSPropertyOp10
 70
     1
102
RTVSPropertyOp11
 70
     1
102
RTVSPropertyOp12
 70
     1
102
RTVSPropertyOp13
 70
     1
102
RTVSPropertyOp14
 70
     1
102
RTVSPropertyOp15
 70
     1
102
RTVSPropertyOp16
 70
     1
102
RTVSPropertyOp17
 70
     1
102
RTVSPropertyOp18
 70
     1
102
RTVSPropertyOp19
 70
     1
102
RTVSPropertyOp20
 70
     1
102
RTVSPropertyOp21
 70
     1
102
RTVSPropertyOp22
 70
     1
102
RTVSPropertyOp23
 70
     1
102
RTVSPropertyOp24
 70
     1
102
RTVSPropertyOp25
 70
     1
102
RTVSPropertyOp26
 70
     1
102
RTVSPropertyOp27
 70
     1
102
RTVSPropertyOp28
 70
     1
102
RTVSPropertyOp29
 70
     1
102
RTVSPropertyOp30
 70
     1
102
RTVSPropertyOp31
 70
     1
102
RTVSPropertyOp32
 70
     1
102
RTVSPropertyOp33
 70
     1
102
RTVSPropertyOp34
 70
     1
102
RTVSPropertyOp35
 70
     1
102
RTVSPropertyOp36
 70
     1
102
RTVSPropertyOp37
 70
     1
102
RTVSPropertyOp38
 70
     1
102
RTVSPropertyOp39
 70
     1
102
RTVSPropertyOp40
 70
     1
102
RTVSPropertyOp41
 70
     1
102
RTVSPropertyOp42
 70
     1
102
RTVSPropertyOp43
 70
     1
102
RTVSPropertyOp44
 70
     1
102
RTVSPropertyOp45
 70
     1
102
RTVSPropertyOp46
 70
     1
102
RTVSPropertyOp47
 70
     1
102
RTVSPropertyOp48
 70
     1
102
RTVSPropertyOp49
 70
     1
102
RTVSPropertyOp50
 70
     1
102
RTVSPropertyOp51
 70
     0
102
RTVSPropertyOp52
 70
     0
102
RTVSPropertyOp53
 70
     1
102
RTVSPropertyOp54
 70
     1
102
RTVSPropertyOp55
 70
     1
102
RTVSPropertyOp56
 70
     1
102
RTVSPropertyOp57
 70
     1
102
RTVSPropertyOp58
 70
     1
102
RTVSPropertyOp59
 70
     1
102
RTVSPropertyOp60
 70
     1
102
RTVSPropertyOp61
 70
     1
102
RTVSPropertyOp62
 70
     1
  0
XRECORD
  5
6C3
102
{ACAD_REACTORS
330
6C2
102
}
330
6C2
100
AcDbXrecord
280
     1
102
RTVSPost2010Prop28
280
     0
102
RTVSPost2010PropOp28
 70
     1
102
RTVSPost2010Prop29
280
     1
102
RTVSPost2010PropOp29
 70
     1
102
RTVSPost2010Prop30
280
     1
102
RTVSPost2010PropOp30
 70
     1
102
RTVSPost2010Prop31
280
     0
102
RTVSPost2010PropOp31
 70
     1
102
RTVSPost2010Prop32
280
     0
102
RTVSPost2010PropOp32
 70
     1
102
RTVSPost2010Prop33
280
     0
102
RTVSPost2010PropOp33
 70
     1
102
RTVSPost2010Prop34
280
     0
102
RTVSPost2010PropOp34
 70
     1
102
RTVSPost2010Prop35
280
     0
102
RTVSPost2010PropOp35
 70
     1
102
RTVSPost2010Prop36
280
     0
102
RTVSPost2010PropOp36
 70
     1
102
RTVSPost2010Prop37
 90
       50
102
RTVSPost2010PropOp37
 70
     1
102
RTVSPost2010Prop38
140
0.0
102
RTVSPost2010PropOp38
 70
     1
102
RTVSPost2010Prop39
140
1.0
102
RTVSPost2010PropOp39
 70
     1
102
RTVSPost2010Prop40
 90
        0
102
RTVSPost2010PropOp40
 70
     1
102
RTVSPost2010Prop41ColorIndex
 90
       18
102
RTVSPost2010Prop41ColorRGB
 90
        0
102
RTVSPost2010PropOp41
 70
     1
102
RTVSPost2010Prop42
 90
       50
102
RTVSPost2010PropOp42
 70
     1
102
RTVSPost2010Prop43
 90
        3
102
RTVSPost2010PropOp43
 70
     1
102
RTVSPost2010Prop44ColorIndex
 90
        5
102
RTVSPost2010Prop44ColorRGB
 90
      255
102
RTVSPost2010PropOp44
 70
     1
102
RTVSPost2010Prop45
280
     0
102
RTVSPost2010PropOp45
 70
     1
102
RTVSPost2010Prop46
 90
       50
102
RTVSPost2010PropOp46
 70
     1
102
RTVSPost2010Prop47
 90
       50
102
RTVSPost2010PropOp47
 70
     1
102
RTVSPost2010Prop48
 90
       50
102
RTVSPost2010PropOp48
 70
     1
102
RTVSPost2010Prop49
280
     0
102
RTVSPost2010PropOp49
 70
     1
102
RTVSPost2010Prop50
 90
       50
102
RTVSPost2010PropOp50
 70
     1
102
RTVSPost2010Prop51ColorIndex
 90
      256
102
RTVSPost2010Prop51ColorRGB
 90
-16777216
102
RTVSPost2010PropOp51
 70
     0
102
RTVSPost2010Prop52
140
1.0
102
RTVSPost2010PropOp52
 70
     0
102
RTVSPost2010Prop53
 90
        2
102
RTVSPost2010PropOp53
 70
     1
102
RTVSPost2010Prop54
  1
strokes_ogs.tif
102
RTVSPost2010PropOp54
 70
     1
102
RTVSPost2010Prop55
280
     0
102
RTVSPost2010PropOp55
 70
     1
102
RTVSPost2010Prop56
140
1.0
102
RTVSPost2010PropOp56
 70
     1
102
RTVSPost2010Prop57
140
1.0
102
RTVSPost2010PropOp57
 70
     1
102
RTVSPropertyOp0
 70
     1
102
RTVSPropertyOp1
 70
     1
102
RTVSPropertyOp2
 70
     1
102
RTVSPropertyOp3
 70
     1
102
RTVSPropertyOp4
 70
     1
102
RTVSPropertyOp5
 70
     1
102
RTVSPropertyOp6
 70
     1
102
RTVSPropertyOp7
 70
     1
102
RTVSPropertyOp8
 70
     1
102
RTVSPropertyOp9
 70
     1
102
RTVSPropertyOp10
 70
     1
102
RTVSPropertyOp11
 70
     1
102
RTVSPropertyOp12
 70
     1
102
RTVSPropertyOp13
 70
     1
102
RTVSPropertyOp14
 70
     1
102
RTVSPropertyOp15
 70
     1
102
RTVSPropertyOp16
 70
     1
102
RTVSPropertyOp17
 70
     1
102
RTVSPropertyOp18
 70
     1
102
RTVSPropertyOp19
 70
     1
102
RTVSPropertyOp20
 70
     1
102
RTVSPropertyOp21
 70
     1
102
RTVSPropertyOp22
 70
     1
102
RTVSPropertyOp23
 70
     1
102
RTVSPropertyOp24
 70
     1
102
RTVSPropertyOp25
 70
     1
102
RTVSPropertyOp26
 70
     1
102
RTVSPropertyOp27
 70
     1
102
RTVSPropertyOp28
 70
     1
102
RTVSPropertyOp29
 70
     1
102
RTVSPropertyOp30
 70
     1
102
RTVSPropertyOp31
 70
     1
102
RTVSPropertyOp32
 70
     1
102
RTVSPropertyOp33
 70
     1
102
RTVSPropertyOp34
 70
     1
102
RTVSPropertyOp35
 70
     1
102
RTVSPropertyOp36
 70
     1
102
RTVSPropertyOp37
 70
     1
102
RTVSPropertyOp38
 70
     1
102
RTVSPropertyOp39
 70
     1
102
RTVSPropertyOp40
 70
     1
102
RTVSPropertyOp41
 70
     1
102
RTVSPropertyOp42
 70
     1
102
RTVSPropertyOp43
 70
     1
102
RTVSPropertyOp44
 70
     1
102
RTVSPropertyOp45
 70
     1
102
RTVSPropertyOp46
 70
     1
102
RTVSPropertyOp47
 70
     1
102
RTVSPropertyOp48
 70
     1
102
RTVSPropertyOp49
 70
     1
102
RTVSPropertyOp50
 70
     1
102
RTVSPropertyOp51
 70
     0
102
RTVSPropertyOp52
 70
     0
102
RTVSPropertyOp53
 70
     1
102
RTVSPropertyOp54
 70
     1
102
RTVSPropertyOp55
 70
     1
102
RTVSPropertyOp56
 70
     1
102
RTVSPropertyOp57
 70
     1
102
RTVSPropertyOp58
 70
     1
102
RTVSPropertyOp59
 70
     1
102
RTVSPropertyOp60
 70
     1
102
RTVSPropertyOp61
 70
     1
102
RTVSPropertyOp62
 70
     1
  0
XRECORD
  5
6B3
102
{ACAD_REACTORS
330
6B2
102
}
330
6B2
100
AcDbXrecord
280
     1
102
RTVSPost2010Prop28
280
     0
102
RTVSPost2010PropOp28
 70
     1
102
RTVSPost2010Prop29
280
     1
102
RTVSPost2010PropOp29
 70
     1
102
RTVSPost2010Prop30
280
     1
102
RTVSPost2010PropOp30
 70
     1
102
RTVSPost2010Prop31
280
     0
102
RTVSPost2010PropOp31
 70
     1
102
RTVSPost2010Prop32
280
     0
102
RTVSPost2010PropOp32
 70
     1
102
RTVSPost2010Prop33
280
     0
102
RTVSPost2010PropOp33
 70
     1
102
RTVSPost2010Prop34
280
     0
102
RTVSPost2010PropOp34
 70
     1
102
RTVSPost2010Prop35
280
     0
102
RTVSPost2010PropOp35
 70
     1
102
RTVSPost2010Prop36
280
     0
102
RTVSPost2010PropOp36
 70
     1
102
RTVSPost2010Prop37
 90
       50
102
RTVSPost2010PropOp37
 70
     1
102
RTVSPost2010Prop38
140
0.0
102
RTVSPost2010PropOp38
 70
     1
102
RTVSPost2010Prop39
140
1.0
102
RTVSPost2010PropOp39
 70
     1
102
RTVSPost2010Prop40
 90
        0
102
RTVSPost2010PropOp40
 70
     1
102
RTVSPost2010Prop41ColorIndex
 90
       18
102
RTVSPost2010Prop41ColorRGB
 90
        0
102
RTVSPost2010PropOp41
 70
     1
102
RTVSPost2010Prop42
 90
       50
102
RTVSPost2010PropOp42
 70
     1
102
RTVSPost2010Prop43
 90
        3
102
RTVSPost2010PropOp43
 70
     1
102
RTVSPost2010Prop44ColorIndex
 90
        5
102
RTVSPost2010Prop44ColorRGB
 90
      255
102
RTVSPost2010PropOp44
 70
     1
102
RTVSPost2010Prop45
280
     0
102
RTVSPost2010PropOp45
 70
     1
102
RTVSPost2010Prop46
 90
       50
102
RTVSPost2010PropOp46
 70
     1
102
RTVSPost2010Prop47
 90
       50
102
RTVSPost2010PropOp47
 70
     1
102
RTVSPost2010Prop48
 90
       50
102
RTVSPost2010PropOp48
 70
     1
102
RTVSPost2010Prop49
280
     0
102
RTVSPost2010PropOp49
 70
     1
102
RTVSPost2010Prop50
 90
       50
102
RTVSPost2010PropOp50
 70
     1
102
RTVSPost2010Prop51ColorIndex
 90
      256
102
RTVSPost2010Prop51ColorRGB
 90
-16777216
102
RTVSPost2010PropOp51
 70
     0
102
RTVSPost2010Prop52
140
1.0
102
RTVSPost2010PropOp52
 70
     0
102
RTVSPost2010Prop53
 90
        2
102
RTVSPost2010PropOp53
 70
     1
102
RTVSPost2010Prop54
  1
strokes_ogs.tif
102
RTVSPost2010PropOp54
 70
     1
102
RTVSPost2010Prop55
280
     0
102
RTVSPost2010PropOp55
 70
     1
102
RTVSPost2010Prop56
140
1.0
102
RTVSPost2010PropOp56
 70
     1
102
RTVSPost2010Prop57
140
1.0
102
RTVSPost2010PropOp57
 70
     1
102
RTVSPropertyOp0
 70
     1
102
RTVSPropertyOp1
 70
     1
102
RTVSPropertyOp2
 70
     1
102
RTVSPropertyOp3
 70
     1
102
RTVSPropertyOp4
 70
     1
102
RTVSPropertyOp5
 70
     1
102
RTVSPropertyOp6
 70
     1
102
RTVSPropertyOp7
 70
     1
102
RTVSPropertyOp8
 70
     1
102
RTVSPropertyOp9
 70
     1
102
RTVSPropertyOp10
 70
     1
102
RTVSPropertyOp11
 70
     1
102
RTVSPropertyOp12
 70
     1
102
RTVSPropertyOp13
 70
     1
102
RTVSPropertyOp14
 70
     1
102
RTVSPropertyOp15
 70
     1
102
RTVSPropertyOp16
 70
     1
102
RTVSPropertyOp17
 70
     1
102
RTVSPropertyOp18
 70
     1
102
RTVSPropertyOp19
 70
     1
102
RTVSPropertyOp20
 70
     1
102
RTVSPropertyOp21
 70
     1
102
RTVSPropertyOp22
 70
     1
102
RTVSPropertyOp23
 70
     1
102
RTVSPropertyOp24
 70
     1
102
RTVSPropertyOp25
 70
     1
102
RTVSPropertyOp26
 70
     1
102
RTVSPropertyOp27
 70
     1
102
RTVSPropertyOp28
 70
     1
102
RTVSPropertyOp29
 70
     1
102
RTVSPropertyOp30
 70
     1
102
RTVSPropertyOp31
 70
     1
102
RTVSPropertyOp32
 70
     1
102
RTVSPropertyOp33
 70
     1
102
RTVSPropertyOp34
 70
     1
102
RTVSPropertyOp35
 70
     1
102
RTVSPropertyOp36
 70
     1
102
RTVSPropertyOp37
 70
     1
102
RTVSPropertyOp38
 70
     1
102
RTVSPropertyOp39
 70
     1
102
RTVSPropertyOp40
 70
     1
102
RTVSPropertyOp41
 70
     1
102
RTVSPropertyOp42
 70
     1
102
RTVSPropertyOp43
 70
     1
102
RTVSPropertyOp44
 70
     1
102
RTVSPropertyOp45
 70
     1
102
RTVSPropertyOp46
 70
     1
102
RTVSPropertyOp47
 70
     1
102
RTVSPropertyOp48
 70
     1
102
RTVSPropertyOp49
 70
     1
102
RTVSPropertyOp50
 70
     1
102
RTVSPropertyOp51
 70
     0
102
RTVSPropertyOp52
 70
     0
102
RTVSPropertyOp53
 70
     1
102
RTVSPropertyOp54
 70
     1
102
RTVSPropertyOp55
 70
     1
102
RTVSPropertyOp56
 70
     1
102
RTVSPropertyOp57
 70
     1
102
RTVSPropertyOp58
 70
     1
102
RTVSPropertyOp59
 70
     1
102
RTVSPropertyOp60
 70
     1
102
RTVSPropertyOp61
 70
     1
102
RTVSPropertyOp62
 70
     1
  0
XRECORD
  5
6A5
102
{ACAD_REACTORS
330
6A4
102
}
330
6A4
100
AcDbXrecord
280
     1
102
RTVSPost2010Prop28
280
     0
102
RTVSPost2010PropOp28
 70
     1
102
RTVSPost2010Prop29
280
     1
102
RTVSPost2010PropOp29
 70
     1
102
RTVSPost2010Prop30
280
     1
102
RTVSPost2010PropOp30
 70
     1
102
RTVSPost2010Prop31
280
     0
102
RTVSPost2010PropOp31
 70
     1
102
RTVSPost2010Prop32
280
     0
102
RTVSPost2010PropOp32
 70
     1
102
RTVSPost2010Prop33
280
     0
102
RTVSPost2010PropOp33
 70
     1
102
RTVSPost2010Prop34
280
     0
102
RTVSPost2010PropOp34
 70
     1
102
RTVSPost2010Prop35
280
     0
102
RTVSPost2010PropOp35
 70
     1
102
RTVSPost2010Prop36
280
     0
102
RTVSPost2010PropOp36
 70
     1
102
RTVSPost2010Prop37
 90
       50
102
RTVSPost2010PropOp37
 70
     1
102
RTVSPost2010Prop38
140
0.0
102
RTVSPost2010PropOp38
 70
     1
102
RTVSPost2010Prop39
140
1.0
102
RTVSPost2010PropOp39
 70
     1
102
RTVSPost2010Prop40
 90
        0
102
RTVSPost2010PropOp40
 70
     1
102
RTVSPost2010Prop41ColorIndex
 90
       18
102
RTVSPost2010Prop41ColorRGB
 90
        0
102
RTVSPost2010PropOp41
 70
     1
102
RTVSPost2010Prop42
 90
       50
102
RTVSPost2010PropOp42
 70
     1
102
RTVSPost2010Prop43
 90
        3
102
RTVSPost2010PropOp43
 70
     1
102
RTVSPost2010Prop44ColorIndex
 90
        5
102
RTVSPost2010Prop44ColorRGB
 90
      255
102
RTVSPost2010PropOp44
 70
     1
102
RTVSPost2010Prop45
280
     0
102
RTVSPost2010PropOp45
 70
     1
102
RTVSPost2010Prop46
 90
       50
102
RTVSPost2010PropOp46
 70
     1
102
RTVSPost2010Prop47
 90
       50
102
RTVSPost2010PropOp47
 70
     1
102
RTVSPost2010Prop48
 90
       50
102
RTVSPost2010PropOp48
 70
     1
102
RTVSPost2010Prop49
280
     0
102
RTVSPost2010PropOp49
 70
     1
102
RTVSPost2010Prop50
 90
       50
102
RTVSPost2010PropOp50
 70
     1
102
RTVSPost2010Prop51ColorIndex
 90
      256
102
RTVSPost2010Prop51ColorRGB
 90
-16777216
102
RTVSPost2010PropOp51
 70
     0
102
RTVSPost2010Prop52
140
1.0
102
RTVSPost2010PropOp52
 70
     0
102
RTVSPost2010Prop53
 90
        2
102
RTVSPost2010PropOp53
 70
     1
102
RTVSPost2010Prop54
  1
strokes_ogs.tif
102
RTVSPost2010PropOp54
 70
     1
102
RTVSPost2010Prop55
280
     0
102
RTVSPost2010PropOp55
 70
     1
102
RTVSPost2010Prop56
140
1.0
102
RTVSPost2010PropOp56
 70
     1
102
RTVSPost2010Prop57
140
1.0
102
RTVSPost2010PropOp57
 70
     1
102
RTVSPropertyOp0
 70
     1
102
RTVSPropertyOp1
 70
     1
102
RTVSPropertyOp2
 70
     1
102
RTVSPropertyOp3
 70
     1
102
RTVSPropertyOp4
 70
     1
102
RTVSPropertyOp5
 70
     1
102
RTVSPropertyOp6
 70
     1
102
RTVSPropertyOp7
 70
     1
102
RTVSPropertyOp8
 70
     1
102
RTVSPropertyOp9
 70
     1
102
RTVSPropertyOp10
 70
     1
102
RTVSPropertyOp11
 70
     1
102
RTVSPropertyOp12
 70
     1
102
RTVSPropertyOp13
 70
     1
102
RTVSPropertyOp14
 70
     1
102
RTVSPropertyOp15
 70
     1
102
RTVSPropertyOp16
 70
     1
102
RTVSPropertyOp17
 70
     1
102
RTVSPropertyOp18
 70
     1
102
RTVSPropertyOp19
 70
     1
102
RTVSPropertyOp20
 70
     1
102
RTVSPropertyOp21
 70
     1
102
RTVSPropertyOp22
 70
     1
102
RTVSPropertyOp23
 70
     1
102
RTVSPropertyOp24
 70
     1
102
RTVSPropertyOp25
 70
     1
102
RTVSPropertyOp26
 70
     1
102
RTVSPropertyOp27
 70
     1
102
RTVSPropertyOp28
 70
     1
102
RTVSPropertyOp29
 70
     1
102
RTVSPropertyOp30
 70
     1
102
RTVSPropertyOp31
 70
     1
102
RTVSPropertyOp32
 70
     1
102
RTVSPropertyOp33
 70
     1
102
RTVSPropertyOp34
 70
     1
102
RTVSPropertyOp35
 70
     1
102
RTVSPropertyOp36
 70
     1
102
RTVSPropertyOp37
 70
     1
102
RTVSPropertyOp38
 70
     1
102
RTVSPropertyOp39
 70
     1
102
RTVSPropertyOp40
 70
     1
102
RTVSPropertyOp41
 70
     1
102
RTVSPropertyOp42
 70
     1
102
RTVSPropertyOp43
 70
     1
102
RTVSPropertyOp44
 70
     1
102
RTVSPropertyOp45
 70
     1
102
RTVSPropertyOp46
 70
     1
102
RTVSPropertyOp47
 70
     1
102
RTVSPropertyOp48
 70
     1
102
RTVSPropertyOp49
 70
     1
102
RTVSPropertyOp50
 70
     1
102
RTVSPropertyOp51
 70
     0
102
RTVSPropertyOp52
 70
     0
102
RTVSPropertyOp53
 70
     1
102
RTVSPropertyOp54
 70
     1
102
RTVSPropertyOp55
 70
     1
102
RTVSPropertyOp56
 70
     1
102
RTVSPropertyOp57
 70
     1
102
RTVSPropertyOp58
 70
     1
102
RTVSPropertyOp59
 70
     1
102
RTVSPropertyOp60
 70
     1
102
RTVSPropertyOp61
 70
     1
102
RTVSPropertyOp62
 70
     1
  0
XRECORD
  5
6C5
102
{ACAD_REACTORS
330
6C4
102
}
330
6C4
100
AcDbXrecord
280
     1
102
RTVSPost2010Prop28
280
     0
102
RTVSPost2010PropOp28
 70
     1
102
RTVSPost2010Prop29
280
     1
102
RTVSPost2010PropOp29
 70
     1
102
RTVSPost2010Prop30
280
     1
102
RTVSPost2010PropOp30
 70
     1
102
RTVSPost2010Prop31
280
     0
102
RTVSPost2010PropOp31
 70
     1
102
RTVSPost2010Prop32
280
     0
102
RTVSPost2010PropOp32
 70
     1
102
RTVSPost2010Prop33
280
     0
102
RTVSPost2010PropOp33
 70
     1
102
RTVSPost2010Prop34
280
     0
102
RTVSPost2010PropOp34
 70
     1
102
RTVSPost2010Prop35
280
     0
102
RTVSPost2010PropOp35
 70
     1
102
RTVSPost2010Prop36
280
     0
102
RTVSPost2010PropOp36
 70
     1
102
RTVSPost2010Prop37
 90
       50
102
RTVSPost2010PropOp37
 70
     1
102
RTVSPost2010Prop38
140
0.0
102
RTVSPost2010PropOp38
 70
     1
102
RTVSPost2010Prop39
140
1.0
102
RTVSPost2010PropOp39
 70
     1
102
RTVSPost2010Prop40
 90
        0
102
RTVSPost2010PropOp40
 70
     1
102
RTVSPost2010Prop41ColorIndex
 90
       18
102
RTVSPost2010Prop41ColorRGB
 90
        0
102
RTVSPost2010PropOp41
 70
     1
102
RTVSPost2010Prop42
 90
       50
102
RTVSPost2010PropOp42
 70
     1
102
RTVSPost2010Prop43
 90
        3
102
RTVSPost2010PropOp43
 70
     1
102
RTVSPost2010Prop44ColorIndex
 90
        5
102
RTVSPost2010Prop44ColorRGB
 90
      255
102
RTVSPost2010PropOp44
 70
     1
102
RTVSPost2010Prop45
280
     0
102
RTVSPost2010PropOp45
 70
     1
102
RTVSPost2010Prop46
 90
       50
102
RTVSPost2010PropOp46
 70
     1
102
RTVSPost2010Prop47
 90
       50
102
RTVSPost2010PropOp47
 70
     1
102
RTVSPost2010Prop48
 90
       50
102
RTVSPost2010PropOp48
 70
     1
102
RTVSPost2010Prop49
280
     0
102
RTVSPost2010PropOp49
 70
     1
102
RTVSPost2010Prop50
 90
       50
102
RTVSPost2010PropOp50
 70
     1
102
RTVSPost2010Prop51ColorIndex
 90
      256
102
RTVSPost2010Prop51ColorRGB
 90
-16777216
102
RTVSPost2010PropOp51
 70
     0
102
RTVSPost2010Prop52
140
1.0
102
RTVSPost2010PropOp52
 70
     0
102
RTVSPost2010Prop53
 90
        2
102
RTVSPost2010PropOp53
 70
     1
102
RTVSPost2010Prop54
  1
strokes_ogs.tif
102
RTVSPost2010PropOp54
 70
     1
102
RTVSPost2010Prop55
280
     0
102
RTVSPost2010PropOp55
 70
     1
102
RTVSPost2010Prop56
140
1.0
102
RTVSPost2010PropOp56
 70
     1
102
RTVSPost2010Prop57
140
1.0
102
RTVSPost2010PropOp57
 70
     1
102
RTVSPropertyOp0
 70
     1
102
RTVSPropertyOp1
 70
     1
102
RTVSPropertyOp2
 70
     1
102
RTVSPropertyOp3
 70
     1
102
RTVSPropertyOp4
 70
     1
102
RTVSPropertyOp5
 70
     1
102
RTVSPropertyOp6
 70
     1
102
RTVSPropertyOp7
 70
     1
102
RTVSPropertyOp8
 70
     1
102
RTVSPropertyOp9
 70
     1
102
RTVSPropertyOp10
 70
     1
102
RTVSPropertyOp11
 70
     1
102
RTVSPropertyOp12
 70
     1
102
RTVSPropertyOp13
 70
     1
102
RTVSPropertyOp14
 70
     1
102
RTVSPropertyOp15
 70
     1
102
RTVSPropertyOp16
 70
     1
102
RTVSPropertyOp17
 70
     1
102
RTVSPropertyOp18
 70
     1
102
RTVSPropertyOp19
 70
     1
102
RTVSPropertyOp20
 70
     1
102
RTVSPropertyOp21
 70
     1
102
RTVSPropertyOp22
 70
     1
102
RTVSPropertyOp23
 70
     1
102
RTVSPropertyOp24
 70
     1
102
RTVSPropertyOp25
 70
     1
102
RTVSPropertyOp26
 70
     1
102
RTVSPropertyOp27
 70
     1
102
RTVSPropertyOp28
 70
     1
102
RTVSPropertyOp29
 70
     1
102
RTVSPropertyOp30
 70
     1
102
RTVSPropertyOp31
 70
     1
102
RTVSPropertyOp32
 70
     1
102
RTVSPropertyOp33
 70
     1
102
RTVSPropertyOp34
 70
     1
102
RTVSPropertyOp35
 70
     1
102
RTVSPropertyOp36
 70
     1
102
RTVSPropertyOp37
 70
     1
102
RTVSPropertyOp38
 70
     1
102
RTVSPropertyOp39
 70
     1
102
RTVSPropertyOp40
 70
     1
102
RTVSPropertyOp41
 70
     1
102
RTVSPropertyOp42
 70
     1
102
RTVSPropertyOp43
 70
     1
102
RTVSPropertyOp44
 70
     1
102
RTVSPropertyOp45
 70
     1
102
RTVSPropertyOp46
 70
     1
102
RTVSPropertyOp47
 70
     1
102
RTVSPropertyOp48
 70
     1
102
RTVSPropertyOp49
 70
     1
102
RTVSPropertyOp50
 70
     1
102
RTVSPropertyOp51
 70
     0
102
RTVSPropertyOp52
 70
     0
102
RTVSPropertyOp53
 70
     1
102
RTVSPropertyOp54
 70
     1
102
RTVSPropertyOp55
 70
     1
102
RTVSPropertyOp56
 70
     1
102
RTVSPropertyOp57
 70
     1
102
RTVSPropertyOp58
 70
     1
102
RTVSPropertyOp59
 70
     1
102
RTVSPropertyOp60
 70
     1
102
RTVSPropertyOp61
 70
     1
102
RTVSPropertyOp62
 70
     1
  0
ENDSEC
  0
EOF
