  0
SECTION
  2
HEADER
  9
$ACADVER
  1
AC1015
  9
$ACADMAINTVER
 70
    20
  9
$DWGCODEPAGE
  3
ANSI_932
  9
$INSBASE
 10
0.0
 20
0.0
 30
0.0
  9
$EXTMIN
 10
20.63440935183678
 20
-8.452806219522642
 30
0.0
  9
$EXTMAX
 10
1491.525464099815
 20
1181.63502157124
 30
0.0
  9
$LIMMIN
 10
-352.7715301513571
 20
-455.4360198974507
  9
$LIMMAX
 10
1031.366134643555
 20
687.9910888671774
  9
$ORTHOMODE
 70
     0
  9
$REGENMODE
 70
     1
  9
$FILLMODE
 70
     1
  9
$QTEXTMODE
 70
     0
  9
$MIRRTEXT
 70
     1
  9
$LTSCALE
 40
0.111518607552596
  9
$ATTMODE
 70
     1
  9
$TEXTSIZE
 40
2.5
  9
$TRACEWID
 40
1.0
  9
$TEXTSTYLE
  7
Standard
  9
$CLAYER
  8
0
  9
$CELTYPE
  6
ByLayer
  9
$CECOLOR
 62
   256
  9
$CELTSCALE
 40
1.0
  9
$DISPSILH
 70
     0
  9
$DIMSCALE
 40
1.0
  9
$DIMASZ
 40
2.5
  9
$DIMEXO
 40
0.625
  9
$DIMDLI
 40
3.75
  9
$DIMRND
 40
0.0
  9
$DIMDLE
 40
0.0
  9
$DIMEXE
 40
1.25
  9
$DIMTP
 40
0.0
  9
$DIMTM
 40
0.0
  9
$DIMTXT
 40
2.5
  9
$DIMCEN
 40
2.5
  9
$DIMTSZ
 40
0.0
  9
$DIMTOL
 70
     0
  9
$DIMLIM
 70
     0
  9
$DIMTIH
 70
     0
  9
$DIMTOH
 70
     0
  9
$DIMSE1
 70
     0
  9
$DIMSE2
 70
     0
  9
$DIMTAD
 70
     1
  9
$DIMZIN
 70
     0
  9
$DIMBLK
  1

  9
$DIMASO
 70
     1
  9
$DIMSHO
 70
     1
  9
$DIMPOST
  1

  9
$DIMAPOST
  1

  9
$DIMALT
 70
     0
  9
$DIMALTD
 70
     3
  9
$DIMALTF
 40
0.03937007874016
  9
$DIMLFAC
 40
1.0
  9
$DIMTOFL
 70
     1
  9
$DIMTVP
 40
0.0
  9
$DIMTIX
 70
     0
  9
$DIMSOXD
 70
     0
  9
$DIMSAH
 70
     0
  9
$DIMBLK1
  1

  9
$DIMBLK2
  1

  9
$DIMSTYLE
  2
Standard
  9
$DIMCLRD
 70
     0
  9
$DIMCLRE
 70
     0
  9
$DIMCLRT
 70
     0
  9
$DIMTFAC
 40
0.75
  9
$DIMGAP
 40
0.625
  9
$DIMJUST
 70
     0
  9
$DIMSD1
 70
     0
  9
$DIMSD2
 70
     0
  9
$DIMTOLJ
 70
     0
  9
$DIMTZIN
 70
     8
  9
$DIMALTZ
 70
     0
  9
$DIMALTTZ
 70
     0
  9
$DIMUPT
 70
     0
  9
$DIMDEC
 70
     2
  9
$DIMTDEC
 70
     2
  9
$DIMALTU
 70
     2
  9
$DIMALTTD
 70
     3
  9
$DIMTXSTY
  7
Standard
  9
$DIMAUNIT
 70
     0
  9
$DIMADEC
 70
     0
  9
$DIMALTRND
 40
0.0
  9
$DIMAZIN
 70
     0
  9
$DIMDSEP
 70
    46
  9
$DIMATFIT
 70
     3
  9
$DIMFRAC
 70
     0
  9
$DIMLDRBLK
  1

  9
$DIMLUNIT
 70
     2
  9
$DIMLWD
 70
    -2
  9
$DIMLWE
 70
    -2
  9
$DIMTMOVE
 70
     0
  9
$LUNITS
 70
     2
  9
$LUPREC
 70
     4
  9
$SKETCHINC
 40
1.0
  9
$FILLETRAD
 40
0.0
  9
$AUNITS
 70
     0
  9
$AUPREC
 70
     0
  9
$MENU
  1
.
  9
$ELEVATION
 40
0.0
  9
$PELEVATION
 40
0.0
  9
$THICKNESS
 40
0.0
  9
$LIMCHECK
 70
     0
  9
$CHAMFERA
 40
10.0
  9
$CHAMFERB
 40
10.0
  9
$CHAMFERC
 40
20.0
  9
$CHAMFERD
 40
0.0
  9
$SKPOLY
 70
     0
  9
$TDCREATE
 40
2455188.750000000
  9
$TDUCREATE
 40
2455188.375000000
  9
$TDUPDATE
 40
2459753.660632616
  9
$TDUUPDATE
 40
2459753.285632616
  9
$TDINDWG
 40
0.0046243750
  9
$TDUSRTIMER
 40
0.0046242130
  9
$USRTIMER
 70
     1
  9
$ANGBASE
 50
0.0
  9
$ANGDIR
 70
     0
  9
$PDMODE
 70
     0
  9
$PDSIZE
 40
0.0
  9
$PLINEWID
 40
0.0
  9
$SPLFRAME
 70
     0
  9
$SPLINETYPE
 70
     6
  9
$SPLINESEGS
 70
     8
  9
$HANDSEED
  5
608
  9
$SURFTAB1
 70
     6
  9
$SURFTAB2
 70
     6
  9
$SURFTYPE
 70
     6
  9
$SURFU
 70
     6
  9
$SURFV
 70
     6
  9
$UCSBASE
  2

  9
$UCSNAME
  2

  9
$UCSORG
 10
0.0
 20
0.0
 30
0.0
  9
$UCSXDIR
 10
1.0
 20
0.0
 30
0.0
  9
$UCSYDIR
 10
0.0
 20
1.0
 30
0.0
  9
$UCSORTHOREF
  2

  9
$UCSORTHOVIEW
 70
     0
  9
$UCSORGTOP
 10
0.0
 20
0.0
 30
0.0
  9
$UCSORGBOTTOM
 10
0.0
 20
0.0
 30
0.0
  9
$UCSORGLEFT
 10
0.0
 20
0.0
 30
0.0
  9
$UCSORGRIGHT
 10
0.0
 20
0.0
 30
0.0
  9
$UCSORGFRONT
 10
0.0
 20
0.0
 30
0.0
  9
$UCSORGBACK
 10
0.0
 20
0.0
 30
0.0
  9
$PUCSBASE
  2

  9
$PUCSNAME
  2

  9
$PUCSORG
 10
0.0
 20
0.0
 30
0.0
  9
$PUCSXDIR
 10
1.0
 20
0.0
 30
0.0
  9
$PUCSYDIR
 10
0.0
 20
1.0
 30
0.0
  9
$PUCSORTHOREF
  2

  9
$PUCSORTHOVIEW
 70
     0
  9
$PUCSORGTOP
 10
0.0
 20
0.0
 30
0.0
  9
$PUCSORGBOTTOM
 10
0.0
 20
0.0
 30
0.0
  9
$PUCSORGLEFT
 10
0.0
 20
0.0
 30
0.0
  9
$PUCSORGRIGHT
 10
0.0
 20
0.0
 30
0.0
  9
$PUCSORGFRONT
 10
0.0
 20
0.0
 30
0.0
  9
$PUCSORGBACK
 10
0.0
 20
0.0
 30
0.0
  9
$USERI1
 70
     0
  9
$USERI2
 70
     0
  9
$USERI3
 70
     0
  9
$USERI4
 70
     0
  9
$USERI5
 70
     0
  9
$USERR1
 40
0.0
  9
$USERR2
 40
0.0
  9
$USERR3
 40
0.0
  9
$USERR4
 40
0.0
  9
$USERR5
 40
0.0
  9
$WORLDVIEW
 70
     1
  9
$SHADEDGE
 70
     3
  9
$SHADEDIF
 70
    70
  9
$TILEMODE
 70
     1
  9
$MAXACTVP
 70
    64
  9
$PINSBASE
 10
0.0
 20
0.0
 30
0.0
  9
$PLIMCHECK
 70
     0
  9
$PEXTMIN
 10
1.000000000000000E+20
 20
1.000000000000000E+20
 30
1.000000000000000E+20
  9
$PEXTMAX
 10
-1.000000000000000E+20
 20
-1.000000000000000E+20
 30
-1.000000000000000E+20
  9
$PLIMMIN
 10
0.0
 20
0.0
  9
$PLIMMAX
 10
420.0
 20
297.0
  9
$UNITMODE
 70
     0
  9
$VISRETAIN
 70
     1
  9
$PLINEGEN
 70
     0
  9
$PSLTSCALE
 70
     1
  9
$TREEDEPTH
 70
  3020
  9
$CMLSTYLE
  2
Standard
  9
$CMLJUST
 70
     0
  9
$CMLSCALE
 40
20.0
  9
$PROXYGRAPHICS
 70
     1
  9
$MEASUREMENT
 70
     1
  9
$CELWEIGHT
370
    -1
  9
$ENDCAPS
280
     0
  9
$JOINSTYLE
280
     0
  9
$LWDISPLAY
290
     0
  9
$INSUNITS
 70
     4
  9
$HYPERLINKBASE
  1

  9
$STYLESHEET
  1

  9
$XEDIT
290
     1
  9
$CEPSNTYPE
380
     0
  9
$PSTYLEMODE
290
     1
  9
$FINGERPRINTGUID
  2
{BAEF2A5F-1119-4F02-BE1A-460685FF15E5}
  9
$VERSIONGUID
  2
{9B975019-C64E-4417-8CF6-8A800A21694D}
  9
$EXTNAMES
290
     1
  9
$PSVPSCALE
 40
0.0
  9
$OLESTARTUP
290
     0
  0
ENDSEC
  0
SECTION
  2
CLASSES
  0
CLASS
  1
ACDBDICTIONARYWDFLT
  2
AcDbDictionaryWithDefault
  3
ObjectDBX Classes
 90
        0
280
     0
281
     0
  0
CLASS
  1
VISUALSTYLE
  2
AcDbVisualStyle
  3
ObjectDBX Classes
 90
     4095
280
     0
281
     0
  0
CLASS
  1
MATERIAL
  2
AcDbMaterial
  3
ObjectDBX Classes
 90
     1153
280
     0
281
     0
  0
CLASS
  1
SCALE
  2
AcDbScale
  3
ObjectDBX Classes
 90
     1153
280
     0
281
     0
  0
CLASS
  1
TABLESTYLE
  2
AcDbTableStyle
  3
ObjectDBX Classes
 90
     4095
280
     0
281
     0
  0
CLASS
  1
MLEADERSTYLE
  2
AcDbMLeaderStyle
  3
ACDB_MLEADERSTYLE_CLASS
 90
     4095
280
     0
281
     0
  0
CLASS
  1
SUN
  2
AcDbSun
  3
SCENEOE
 90
    33921
280
     0
281
     0
  0
CLASS
  1
DICTIONARYVAR
  2
AcDbDictionaryVar
  3
ObjectDBX Classes
 90
        0
280
     0
281
     0
  0
CLASS
  1
ACDBSECTIONVIEWSTYLE
  2
AcDbSectionViewStyle
  3
ObjectDBX Classes
 90
     1025
280
     0
281
     0
  0
CLASS
  1
ACDBDETAILVIEWSTYLE
  2
AcDbDetailViewStyle
  3
ObjectDBX Classes
 90
     1025
280
     0
281
     0
  0
CLASS
  1
SORTENTSTABLE
  2
AcDbSortentsTable
  3
ObjectDBX Classes
 90
        0
280
     0
281
     0
  0
CLASS
  1
CELLSTYLEMAP
  2
AcDbCellStyleMap
  3
ObjectDBX Classes
 90
     1152
280
     0
281
     0
  0
CLASS
  1
ACDBPLACEHOLDER
  2
AcDbPlaceHolder
  3
ObjectDBX Classes
 90
        0
280
     0
281
     0
  0
CLASS
  1
LAYOUT
  2
AcDbLayout
  3
ObjectDBX Classes
 90
        0
280
     0
281
     0
  0
ENDSEC
  0
SECTION
  2
TABLES
  0
TABLE
  2
VPORT
  5
8
330
0
100
AcDbSymbolTable
 70
     1
  0
VPORT
  5
29
330
8
100
AcDbSymbolTableRecord
100
AcDbViewportTableRecord
  2
*Active
 70
     0
 10
0.0
 20
0.0
 11
1.0
 21
1.0
 12
1095.545846195804
 22
446.2107979348639
 13
0.0
 23
0.0
 14
10.0
 24
10.0
 15
10.0
 25
10.0
 16
0.0
 26
0.0
 36
1.0
 17
0.0
 27
0.0
 37
0.0
 40
1217.475837349557
 41
2.204301075268817
 42
50.0
 43
0.0
 44
0.0
 50
0.0
 51
0.0
 71
     0
 72
 20000
 73
     1
 74
     3
 75
     0
 76
     0
 77
     0
 78
     0
281
     0
 65
     1
110
0.0
120
0.0
130
0.0
111
1.0
121
0.0
131
0.0
112
0.0
122
1.0
132
0.0
 79
     0
146
0.0
1001
ACAD_NAV_VCDISPLAY
1070
     3
  0
ENDTAB
  0
TABLE
  2
LTYPE
  5
5
330
0
100
AcDbSymbolTable
 70
     2
  0
LTYPE
  5
14
330
5
100
AcDbSymbolTableRecord
100
AcDbLinetypeTableRecord
  2
ByBlock
 70
     0
  3

 72
    65
 73
     0
 40
0.0
  0
LTYPE
  5
15
330
5
100
AcDbSymbolTableRecord
100
AcDbLinetypeTableRecord
  2
ByLayer
 70
     0
  3

 72
    65
 73
     0
 40
0.0
  0
LTYPE
  5
16
330
5
100
AcDbSymbolTableRecord
100
AcDbLinetypeTableRecord
  2
Continuous
 70
     0
  3
Solid line
 72
    65
 73
     0
 40
0.0
  0
LTYPE
  5
2A1
330
5
100
AcDbSymbolTableRecord
100
AcDbLinetypeTableRecord
  2
CENTER2
 70
     0
  3
Center (.5x) ___ _ ___ _ ___ _ ___ _ ___ _ ___
 72
    65
 73
     4
 40
28.575
 49
19.05
 74
     0
 49
-3.174999999999998
 74
     0
 49
3.174999999999998
 74
     0
 49
-3.174999999999998
 74
     0
  0
ENDTAB
  0
TABLE
  2
LAYER
  5
2
102
{ACAD_XDICTIONARY
360
2A7
102
}
330
0
100
AcDbSymbolTable
 70
     4
  0
LAYER
  5
10
102
{ACAD_XDICTIONARY
360
574
102
}
330
2
100
AcDbSymbolTableRecord
100
AcDbLayerTableRecord
  2
0
 70
     0
 62
     7
  6
Continuous
370
    -3
390
F
  0
LAYER
  5
66
330
2
100
AcDbSymbolTableRecord
100
AcDbLayerTableRecord
  2
Defpoints
 70
     0
 62
     7
  6
Continuous
290
     0
370
    -3
390
F
  0
LAYER
  5
2A2
102
{ACAD_XDICTIONARY
360
2A3
102
}
330
2
100
AcDbSymbolTableRecord
100
AcDbLayerTableRecord
  2
中心線
 70
     0
 62
     3
  6
CENTER2
370
    -3
390
F
  0
LAYER
  5
2A4
102
{ACAD_XDICTIONARY
360
2A5
102
}
330
2
100
AcDbSymbolTableRecord
100
AcDbLayerTableRecord
  2
実線
 70
     0
 62
     7
  6
Continuous
370
    -3
390
F
  0
ENDTAB
  0
TABLE
  2
STYLE
  5
3
330
0
100
AcDbSymbolTable
 70
     1
  0
STYLE
  5
11
330
3
100
AcDbSymbolTableRecord
100
AcDbTextStyleTableRecord
  2
Standard
 70
     0
 40
0.0
 41
1.0
 50
0.0
 71
     0
 42
2.5
  3
txt
  4
extfont2
  0
ENDTAB
  0
TABLE
  2
VIEW
  5
6
330
0
100
AcDbSymbolTable
 70
     0
  0
ENDTAB
  0
TABLE
  2
UCS
  5
7
330
0
100
AcDbSymbolTable
 70
     0
  0
ENDTAB
  0
TABLE
  2
APPID
  5
9
330
0
100
AcDbSymbolTable
 70
     4
  0
APPID
  5
12
330
9
100
AcDbSymbolTableRecord
100
AcDbRegAppTableRecord
  2
ACAD
 70
     0
  0
APPID
  5
291
330
9
100
AcDbSymbolTableRecord
100
AcDbRegAppTableRecord
  2
ACAD_MLEADERVER
 70
     0
  0
APPID
  5
2A6
330
9
100
AcDbSymbolTableRecord
100
AcDbRegAppTableRecord
  2
ACAD_NAV_VCDISPLAY
 70
     0
  0
APPID
  5
561
330
9
100
AcDbSymbolTableRecord
100
AcDbRegAppTableRecord
  2
ACAD_EXEMPT_FROM_CAD_STANDARDS
 70
     0
  0
ENDTAB
  0
TABLE
  2
DIMSTYLE
  5
A
330
0
100
AcDbSymbolTable
 70
     1
100
AcDbDimStyleTable
 71
     1
340
27
  0
DIMSTYLE
105
27
330
A
100
AcDbSymbolTableRecord
100
AcDbDimStyleTableRecord
  2
Standard
 70
     0
 41
2.5
 42
0.625
 43
3.75
 44
1.25
 73
     0
 74
     0
 77
     1
140
2.5
141
2.5
143
0.03937007874016
146
0.75
147
0.625
171
     3
172
     1
271
     2
272
     2
274
     3
283
     0
284
     8
340
11
  0
ENDTAB
  0
TABLE
  2
BLOCK_RECORD
  5
1
330
0
100
AcDbSymbolTable
 70
     1
  0
BLOCK_RECORD
  5
1F
102
{ACAD_XDICTIONARY
360
3C5
102
}
330
1
100
AcDbSymbolTableRecord
100
AcDbBlockTableRecord
  2
*Model_Space
340
22
  0
BLOCK_RECORD
  5
1B
330
1
100
AcDbSymbolTableRecord
100
AcDbBlockTableRecord
  2
*Paper_Space
340
1E
  0
BLOCK_RECORD
  5
23
330
1
100
AcDbSymbolTableRecord
100
AcDbBlockTableRecord
  2
*Paper_Space0
340
29B
  0
ENDTAB
  0
ENDSEC
  0
SECTION
  2
BLOCKS
  0
BLOCK
  5
20
330
1F
100
AcDbEntity
  8
0
100
AcDbBlockBegin
  2
*Model_Space
 70
     0
 10
0.0
 20
0.0
 30
0.0
  3
*Model_Space
  1

  0
ENDBLK
  5
21
330
1F
100
AcDbEntity
  8
0
100
AcDbBlockEnd
  0
BLOCK
  5
1C
330
1B
100
AcDbEntity
 67
     1
  8
0
100
AcDbBlockBegin
  2
*Paper_Space
 70
     0
 10
0.0
 20
0.0
 30
0.0
  3
*Paper_Space
  1

  0
ENDBLK
  5
1D
330
1B
100
AcDbEntity
 67
     1
  8
0
100
AcDbBlockEnd
  0
BLOCK
  5
24
330
23
100
AcDbEntity
 67
     1
  8
0
100
AcDbBlockBegin
  2
*Paper_Space0
 70
     0
 10
0.0
 20
0.0
 30
0.0
  3
*Paper_Space0
  1

  0
ENDBLK
  5
25
330
23
100
AcDbEntity
 67
     1
  8
0
100
AcDbBlockEnd
  0
ENDSEC
  0
SECTION
  2
ENTITIES
  0
LINE
  5
38D
102
{ACAD_REACTORS
330
570
102
}
330
1F
100
AcDbEntity
  8
実線
100
AcDbLine
 10
439.0344093518359
 20
834.8870363918598
 30
0.0
 11
405.8125306810116
 21
834.8870363918598
 31
0.0
  0
LINE
  5
38E
102
{ACAD_REACTORS
330
570
102
}
330
1F
100
AcDbEntity
  8
実線
100
AcDbLine
 10
405.8125306810017
 20
771.3870363918597
 30
0.0
 11
439.0344093518359
 21
771.3870363918597
 31
0.0
  0
LINE
  5
38F
102
{ACAD_REACTORS
330
570
102
}
330
1F
100
AcDbEntity
  8
実線
100
AcDbLine
 10
439.0344093518359
 20
771.3870363918597
 30
0.0
 11
442.1344093518359
 21
764.3870363918597
 31
0.0
  0
LINE
  5
390
102
{ACAD_REACTORS
330
570
102
}
330
1F
100
AcDbEntity
  8
実線
100
AcDbLine
 10
442.1344093518359
 20
841.8870363918596
 30
0.0
 11
439.0344093518359
 21
834.8870363918598
 31
0.0
  0
LINE
  5
391
102
{ACAD_REACTORS
330
570
102
}
330
1F
100
AcDbEntity
  8
実線
100
AcDbLine
 10
439.0344093518359
 20
771.3870363918597
 30
0.0
 11
439.0344093518359
 21
834.8870363918598
 31
0.0
  0
LINE
  5
392
102
{ACAD_REACTORS
330
570
102
}
330
1F
100
AcDbEntity
  8
実線
100
AcDbLine
 10
445.6344093518359
 20
841.8870363918596
 30
0.0
 11
442.1344093518359
 21
841.8870363918596
 31
0.0
  0
LINE
  5
393
102
{ACAD_REACTORS
330
570
102
}
330
1F
100
AcDbEntity
  8
実線
100
AcDbLine
 10
442.1344093518359
 20
764.3870363918597
 30
0.0
 11
445.6344093518359
 21
764.3870363918597
 31
0.0
  0
LINE
  5
394
102
{ACAD_REACTORS
330
570
102
}
330
1F
100
AcDbEntity
  8
実線
100
AcDbLine
 10
445.6344093518359
 20
764.3870363918597
 30
0.0
 11
445.6344093518359
 21
841.8870363918596
 31
0.0
  0
LINE
  5
395
102
{ACAD_REACTORS
330
570
102
}
330
1F
100
AcDbEntity
  8
実線
100
AcDbLine
 10
442.1344093518359
 20
764.3870363918597
 30
0.0
 11
442.1344093518359
 21
841.8870363918596
 31
0.0
  0
LINE
  5
396
102
{ACAD_REACTORS
330
570
102
}
330
1F
100
AcDbEntity
  8
実線
100
AcDbLine
 10
242.2344093518373
 20
771.3870363918797
 30
0.0
 11
275.4562880226618
 21
771.3870363918797
 31
0.0
  0
LINE
  5
397
102
{ACAD_REACTORS
330
570
102
}
330
1F
100
AcDbEntity
  8
実線
100
AcDbLine
 10
275.4562880226716
 20
834.8870363918797
 30
0.0
 11
242.2344093518373
 21
834.8870363918797
 31
0.0
  0
LINE
  5
398
102
{ACAD_REACTORS
330
570
102
}
330
1F
100
AcDbEntity
  8
実線
100
AcDbLine
 10
235.6344093518373
 20
764.3870363918797
 30
0.0
 11
239.1344093518373
 21
764.3870363918797
 31
0.0
  0
LINE
  5
399
102
{ACAD_REACTORS
330
570
102
}
330
1F
100
AcDbEntity
  8
実線
100
AcDbLine
 10
239.1344093518373
 20
841.8870363918797
 30
0.0
 11
235.6344093518373
 21
841.8870363918797
 31
0.0
  0
LINE
  5
39A
102
{ACAD_REACTORS
330
570
102
}
330
1F
100
AcDbEntity
  8
実線
100
AcDbLine
 10
235.6344093518373
 20
841.8870363918797
 30
0.0
 11
235.6344093518373
 21
764.3870363918797
 31
0.0
  0
LINE
  5
39B
102
{ACAD_REACTORS
330
570
102
}
330
1F
100
AcDbEntity
  8
実線
100
AcDbLine
 10
242.2344093518373
 20
834.8870363918797
 30
0.0
 11
239.1344093518373
 21
841.8870363918797
 31
0.0
  0
LINE
  5
39C
102
{ACAD_REACTORS
330
570
102
}
330
1F
100
AcDbEntity
  8
実線
100
AcDbLine
 10
239.1344093518373
 20
764.3870363918797
 30
0.0
 11
242.2344093518373
 21
771.3870363918797
 31
0.0
  0
LINE
  5
39D
102
{ACAD_REACTORS
330
570
102
}
330
1F
100
AcDbEntity
  8
実線
100
AcDbLine
 10
239.1344093518373
 20
841.8870363918797
 30
0.0
 11
239.1344093518373
 21
764.3870363918797
 31
0.0
  0
LINE
  5
39E
102
{ACAD_REACTORS
330
570
102
}
330
1F
100
AcDbEntity
  8
実線
100
AcDbLine
 10
242.2344093518373
 20
834.8870363918797
 30
0.0
 11
242.2344093518373
 21
771.3870363918797
 31
0.0
  0
CIRCLE
  5
39F
102
{ACAD_REACTORS
330
570
102
}
330
1F
100
AcDbEntity
  8
実線
100
AcDbCircle
 10
340.6344093518367
 20
803.1370363918695
 30
0.0
 40
46.0
  0
LINE
  5
3A0
102
{ACAD_REACTORS
330
570
102
}
330
1F
100
AcDbEntity
  8
実線
100
AcDbLine
 10
355.6344093518366
 20
782.1370363918695
 30
0.0
 11
360.6344093518368
 21
782.1370363918695
 31
0.0
  0
LINE
  5
3A1
102
{ACAD_REACTORS
330
570
102
}
330
1F
100
AcDbEntity
  8
実線
100
AcDbLine
 10
335.6344093518365
 20
790.0370363918696
 30
0.0
 11
360.6344093518368
 21
790.0370363918696
 31
0.0
  0
LINE
  5
3A2
102
{ACAD_REACTORS
330
570
102
}
330
1F
100
AcDbEntity
  8
実線
100
AcDbLine
 10
360.6344093518368
 20
782.1370363918695
 30
0.0
 11
360.6344093518368
 21
790.0370363918696
 31
0.0
  0
LINE
  5
3A3
102
{ACAD_REACTORS
330
570
102
}
330
1F
100
AcDbEntity
  8
実線
100
AcDbLine
 10
335.6344093518365
 20
790.0370363918696
 30
0.0
 11
335.6344093518365
 21
782.1370363918695
 31
0.0
  0
ARC
  5
3A4
102
{ACAD_REACTORS
330
570
102
}
330
1F
100
AcDbEntity
  8
実線
100
AcDbCircle
 10
340.6344093518367
 20
803.1370363918695
 30
0.0
 40
25.0
100
AcDbArc
 50
233.1301023541544
 51
293.0739180656317
  0
LINE
  5
3A5
102
{ACAD_REACTORS
330
570
102
}
330
1F
100
AcDbEntity
  8
実線
100
AcDbLine
 10
367.1344093518367
 20
784.5870363918695
 30
0.0
 11
367.1344093518367
 21
787.5870363918695
 31
0.0
  0
LINE
  5
3A6
102
{ACAD_REACTORS
330
570
102
}
330
1F
100
AcDbEntity
  8
実線
100
AcDbLine
 10
360.6344093518368
 20
784.5870363918695
 30
0.0
 11
367.1344093518367
 21
784.5870363918695
 31
0.0
  0
LINE
  5
3A7
102
{ACAD_REACTORS
330
570
102
}
330
1F
100
AcDbEntity
  8
実線
100
AcDbLine
 10
367.1344093518367
 20
787.5870363918695
 30
0.0
 11
360.6344093518368
 21
787.5870363918695
 31
0.0
  0
CIRCLE
  5
3A8
102
{ACAD_REACTORS
330
570
102
}
330
1F
100
AcDbEntity
  8
実線
100
AcDbCircle
 10
340.6344093518367
 20
803.1370363918695
 30
0.0
 40
12.5
  0
CIRCLE
  5
3A9
102
{ACAD_REACTORS
330
570
102
}
330
1F
100
AcDbEntity
  8
実線
100
AcDbCircle
 10
340.6344093518367
 20
803.1370363918695
 30
0.0
 40
7.5
  0
ARC
  5
3AA
102
{ACAD_REACTORS
330
570
102
}
330
1F
100
AcDbEntity
  8
実線
100
AcDbCircle
 10
340.6344093518368
 20
803.1370363918695
 30
0.0
 40
79.99999999999984
100
AcDbArc
 50
43.49585801794283
 51
46.50414198205487
  0
ARC
  5
3AB
102
{ACAD_REACTORS
330
570
102
}
330
1F
100
AcDbEntity
  8
実線
100
AcDbCircle
 10
289.8547201739979
 20
754.9558868933145
 30
0.0
 40
9.999999999999591
100
AcDbArc
 50
145.0000000000026
 51
223.4958580179428
  0
ARC
  5
3AC
102
{ACAD_REACTORS
330
570
102
}
330
1F
100
AcDbEntity
  8
実線
100
AcDbCircle
 10
340.6344093518369
 20
803.1370363918597
 30
0.0
 40
79.99999999999268
100
AcDbArc
 50
223.4958580179359
 51
226.5041419820549
  0
ARC
  5
3AD
102
{ACAD_REACTORS
330
570
102
}
330
1F
100
AcDbEntity
  8
実線
100
AcDbCircle
 10
292.4532598532821
 20
752.3573472140306
 30
0.0
 40
9.999999999999982
100
AcDbArc
 50
226.5041419820549
 51
305.000000000001
  0
LINE
  5
3AE
102
{ACAD_REACTORS
330
570
102
}
330
1F
100
AcDbEntity
  8
実線
100
AcDbLine
 10
298.3263126516089
 20
744.2619571681078
 30
0.0
 11
298.1890242167924
 21
744.1658267711407
 31
0.0
  0
LINE
  5
3AF
102
{ACAD_REACTORS
330
570
102
}
330
1F
100
AcDbEntity
  8
実線
100
AcDbLine
 10
383.0797944868808
 20
744.1658267711407
 30
0.0
 11
382.9425060520642
 21
744.2619571681078
 31
0.0
  0
ARC
  5
3B0
102
{ACAD_REACTORS
330
570
102
}
330
1F
100
AcDbEntity
  8
実線
100
AcDbCircle
 10
388.8155588503914
 20
752.3573472140306
 30
0.0
 40
10.00000000000038
100
AcDbArc
 50
234.999999999999
 51
313.4958580179451
  0
ARC
  5
3B1
102
{ACAD_REACTORS
330
570
102
}
330
1F
100
AcDbEntity
  8
実線
100
AcDbCircle
 10
340.6344093518361
 20
803.1370363918597
 30
0.0
 40
79.99999999999343
100
AcDbArc
 50
313.4958580179451
 51
316.5041419820641
  0
ARC
  5
3B2
102
{ACAD_REACTORS
330
570
102
}
330
1F
100
AcDbEntity
  8
実線
100
AcDbCircle
 10
391.4140985296755
 20
754.9558868933145
 30
0.0
 40
10.0
100
AcDbArc
 50
316.5041419820572
 51
34.99999999999737
  0
LINE
  5
3B3
102
{ACAD_REACTORS
330
570
102
}
330
1F
100
AcDbEntity
  8
実線
100
AcDbLine
 10
399.5094885755981
 20
760.8289396916416
 30
0.0
 11
399.6056189725655
 21
760.6916512568257
 31
0.0
  0
LINE
  5
3B4
102
{ACAD_REACTORS
330
570
102
}
330
1F
100
AcDbEntity
  8
実線
100
AcDbLine
 10
399.6056189725654
 20
845.5824215269137
 30
0.0
 11
399.5094885755979
 21
845.4451330920976
 31
0.0
  0
ARC
  5
3B5
102
{ACAD_REACTORS
330
570
102
}
330
1F
100
AcDbEntity
  8
実線
100
AcDbCircle
 10
391.4140985296755
 20
851.3181858904236
 30
0.0
 40
9.999999999999976
100
AcDbArc
 50
325.0000000000026
 51
43.49585801794283
  0
ARC
  5
3B6
102
{ACAD_REACTORS
330
570
102
}
330
1F
100
AcDbEntity
  8
実線
100
AcDbCircle
 10
388.8155588503914
 20
853.9167255697087
 30
0.0
 40
9.999999999999991
100
AcDbArc
 50
46.50414198205487
 51
125.0000000000009
  0
LINE
  5
3B7
102
{ACAD_REACTORS
330
570
102
}
330
1F
100
AcDbEntity
  8
実線
100
AcDbLine
 10
382.9425060520645
 20
862.0121156156306
 30
0.0
 11
383.0797944868809
 21
862.1082460125975
 31
0.0
  0
LINE
  5
3B8
102
{ACAD_REACTORS
330
570
102
}
330
1F
100
AcDbEntity
  8
実線
100
AcDbLine
 10
298.1890242167924
 20
862.1082460125975
 30
0.0
 11
298.3263126516089
 21
862.0121156156306
 31
0.0
  0
ARC
  5
3B9
102
{ACAD_REACTORS
330
570
102
}
330
1F
100
AcDbEntity
  8
実線
100
AcDbCircle
 10
292.453259853282
 20
853.9167255697087
 30
0.0
 40
10.00000000000002
100
AcDbArc
 50
54.99999999999904
 51
133.4958580179451
  0
ARC
  5
3BA
102
{ACAD_REACTORS
330
570
102
}
330
1F
100
AcDbEntity
  8
実線
100
AcDbCircle
 10
340.6344093518364
 20
803.1370363918695
 30
0.0
 40
79.9999999999998
100
AcDbArc
 50
133.4958580179451
 51
136.5041419820572
  0
ARC
  5
3BB
102
{ACAD_REACTORS
330
570
102
}
330
1F
100
AcDbEntity
  8
実線
100
AcDbCircle
 10
289.8547201739978
 20
851.3181858904236
 30
0.0
 40
9.999999999999996
100
AcDbArc
 50
136.5041419820572
 51
214.9999999999974
  0
LINE
  5
3BC
102
{ACAD_REACTORS
330
570
102
}
330
1F
100
AcDbEntity
  8
実線
100
AcDbLine
 10
281.7593301280754
 20
845.4451330920976
 30
0.0
 11
281.663199731108
 21
845.5824215269137
 31
0.0
  0
LINE
  5
3BD
102
{ACAD_REACTORS
330
570
102
}
330
1F
100
AcDbEntity
  8
実線
100
AcDbLine
 10
281.6631997311083
 20
760.6916512568245
 30
0.0
 11
281.7593301280756
 21
760.8289396916407
 31
0.0
  0
ARC
  5
3BE
102
{ACAD_REACTORS
330
570
102
}
330
1F
100
AcDbEntity
  8
実線
100
AcDbCircle
 10
340.6344093518367
 20
803.1370363918695
 30
0.0
 40
25.0
100
AcDbArc
 50
323.1301023541544
 51
233.1301023541544
  0
LINE
  5
3BF
102
{ACAD_REACTORS
330
570
102
}
330
1F
100
AcDbEntity
  8
実線
100
AcDbLine
 10
325.6344093518367
 20
783.1370363918694
 30
0.0
 11
335.6344093518368
 21
783.1370363918694
 31
0.0
  0
LINE
  5
3C0
102
{ACAD_REACTORS
330
570
102
}
330
1F
100
AcDbEntity
  8
実線
100
AcDbLine
 10
355.6344093518366
 20
780.1370363918695
 30
0.0
 11
335.6344093518365
 21
780.1370363918695
 31
0.0
  0
LINE
  5
3C1
102
{ACAD_REACTORS
330
570
102
}
330
1F
100
AcDbEntity
  8
実線
100
AcDbLine
 10
355.6344093518366
 20
782.1370363918695
 30
0.0
 11
355.6344093518366
 21
780.1370363918695
 31
0.0
  0
LINE
  5
3C2
102
{ACAD_REACTORS
330
570
102
}
330
1F
100
AcDbEntity
  8
実線
100
AcDbLine
 10
335.6344093518365
 20
782.1370363918695
 30
0.0
 11
355.6344093518366
 21
782.1370363918695
 31
0.0
  0
LINE
  5
3C3
102
{ACAD_REACTORS
330
570
102
}
330
1F
100
AcDbEntity
  8
実線
100
AcDbLine
 10
335.6344093518365
 20
780.1370363918695
 30
0.0
 11
335.6344093518365
 21
782.1370363918695
 31
0.0
  0
CIRCLE
  5
3C4
102
{ACAD_REACTORS
330
570
102
}
330
1F
100
AcDbEntity
  8
実線
100
AcDbCircle
 10
340.6344093518367
 20
803.1370363918695
 30
0.0
 40
72.5
  0
LINE
  5
3C7
102
{ACAD_REACTORS
330
573
102
}
330
1F
100
AcDbEntity
  8
実線
100
AcDbLine
 10
439.0344093518359
 20
114.887036391889
 30
0.0
 11
385.5447366719395
 21
114.887036391889
 31
0.0
  0
LINE
  5
3C8
102
{ACAD_REACTORS
330
573
102
}
330
1F
100
AcDbEntity
  8
実線
100
AcDbLine
 10
385.5447366719681
 20
51.38703639188904
 30
0.0
 11
439.0344093518359
 21
51.38703639188904
 31
0.0
  0
LINE
  5
3C9
102
{ACAD_REACTORS
330
573
102
}
330
1F
100
AcDbEntity
  8
実線
100
AcDbLine
 10
439.0344093518359
 20
114.887036391889
 30
0.0
 11
439.0344093518359
 21
51.38703639188904
 31
0.0
  0
LINE
  5
3CA
102
{ACAD_REACTORS
330
573
102
}
330
1F
100
AcDbEntity
  8
実線
100
AcDbLine
 10
439.0344093518359
 20
51.38703639188904
 30
0.0
 11
442.1344093518359
 21
44.38703639188898
 31
0.0
  0
LINE
  5
3CB
102
{ACAD_REACTORS
330
573
102
}
330
1F
100
AcDbEntity
  8
実線
100
AcDbLine
 10
442.1344093518359
 20
121.887036391889
 30
0.0
 11
439.0344093518359
 21
114.887036391889
 31
0.0
  0
LINE
  5
3CC
102
{ACAD_REACTORS
330
573
102
}
330
1F
100
AcDbEntity
  8
実線
100
AcDbLine
 10
445.6344093518359
 20
121.887036391889
 30
0.0
 11
445.6344093518359
 21
44.38703639188903
 31
0.0
  0
LINE
  5
3CD
102
{ACAD_REACTORS
330
573
102
}
330
1F
100
AcDbEntity
  8
実線
100
AcDbLine
 10
442.1344093518359
 20
121.887036391889
 30
0.0
 11
442.1344093518359
 21
44.38703639188903
 31
0.0
  0
LINE
  5
3CE
102
{ACAD_REACTORS
330
573
102
}
330
1F
100
AcDbEntity
  8
実線
100
AcDbLine
 10
445.6344093518359
 20
121.887036391889
 30
0.0
 11
442.1344093518359
 21
121.887036391889
 31
0.0
  0
LINE
  5
3CF
102
{ACAD_REACTORS
330
573
102
}
330
1F
100
AcDbEntity
  8
実線
100
AcDbLine
 10
442.1344093518359
 20
44.38703639188903
 30
0.0
 11
445.6344093518359
 21
44.38703639188903
 31
0.0
  0
LINE
  5
3D0
102
{ACAD_REACTORS
330
573
102
}
330
1F
100
AcDbEntity
  8
実線
100
AcDbLine
 10
242.2344093518373
 20
51.38703639186886
 30
0.0
 11
295.7240820317208
 21
51.38703639186886
 31
0.0
  0
LINE
  5
3D1
102
{ACAD_REACTORS
330
573
102
}
330
1F
100
AcDbEntity
  8
実線
100
AcDbLine
 10
295.7240820317208
 20
114.8870363918688
 30
0.0
 11
242.2344093518373
 21
114.8870363918688
 31
0.0
  0
LINE
  5
3D2
102
{ACAD_REACTORS
330
573
102
}
330
1F
100
AcDbEntity
  8
実線
100
AcDbLine
 10
242.2344093518373
 20
51.38703639186886
 30
0.0
 11
242.2344093518373
 21
114.8870363918688
 31
0.0
  0
LINE
  5
3D3
102
{ACAD_REACTORS
330
573
102
}
330
1F
100
AcDbEntity
  8
実線
100
AcDbLine
 10
242.2344093518373
 20
114.8870363918688
 30
0.0
 11
239.1344093518373
 21
121.8870363918688
 31
0.0
  0
LINE
  5
3D4
102
{ACAD_REACTORS
330
573
102
}
330
1F
100
AcDbEntity
  8
実線
100
AcDbLine
 10
239.1344093518373
 20
44.38703639186885
 30
0.0
 11
242.2344093518373
 21
51.38703639186886
 31
0.0
  0
LINE
  5
3D5
102
{ACAD_REACTORS
330
573
102
}
330
1F
100
AcDbEntity
  8
実線
100
AcDbLine
 10
235.6344093518373
 20
44.38703639186885
 30
0.0
 11
235.6344093518373
 21
121.8870363918688
 31
0.0
  0
LINE
  5
3D6
102
{ACAD_REACTORS
330
573
102
}
330
1F
100
AcDbEntity
  8
実線
100
AcDbLine
 10
239.1344093518373
 20
44.38703639186885
 30
0.0
 11
239.1344093518373
 21
121.8870363918688
 31
0.0
  0
LINE
  5
3D7
102
{ACAD_REACTORS
330
573
102
}
330
1F
100
AcDbEntity
  8
実線
100
AcDbLine
 10
235.6344093518373
 20
44.38703639186885
 30
0.0
 11
239.1344093518373
 21
44.38703639186885
 31
0.0
  0
LINE
  5
3D8
102
{ACAD_REACTORS
330
573
102
}
330
1F
100
AcDbEntity
  8
実線
100
AcDbLine
 10
239.1344093518373
 20
121.8870363918688
 30
0.0
 11
235.6344093518373
 21
121.8870363918688
 31
0.0
  0
CIRCLE
  5
3D9
102
{ACAD_REACTORS
330
573
102
}
330
1F
100
AcDbEntity
  8
実線
100
AcDbCircle
 10
340.6344093518374
 20
83.13703639186886
 30
0.0
 40
38.75
  0
ARC
  5
3DA
102
{ACAD_REACTORS
330
573
102
}
330
1F
100
AcDbEntity
  8
実線
100
AcDbCircle
 10
340.6344093518367
 20
83.13703639187895
 30
0.0
 40
72.5
100
AcDbArc
 50
54.29867758536919
 51
125.7013224146308
  0
ARC
  5
3DB
102
{ACAD_REACTORS
330
573
102
}
330
1F
100
AcDbEntity
  8
実線
100
AcDbCircle
 10
340.6344093518367
 20
83.13703639187895
 30
0.0
 40
72.5
100
AcDbArc
 50
144.2986775853692
 51
154.0280526648901
  0
ARC
  5
3DC
102
{ACAD_REACTORS
330
573
102
}
330
1F
100
AcDbEntity
  8
実線
100
AcDbCircle
 10
340.6344093518367
 20
83.13703639187895
 30
0.0
 40
72.5
100
AcDbArc
 50
205.9719473351281
 51
215.7013224146308
  0
ARC
  5
3DD
102
{ACAD_REACTORS
330
573
102
}
330
1F
100
AcDbEntity
  8
実線
100
AcDbCircle
 10
340.6344093518367
 20
83.13703639187895
 30
0.0
 40
72.5
100
AcDbArc
 50
234.2986775853692
 51
305.7013224146308
  0
ARC
  5
3DE
102
{ACAD_REACTORS
330
573
102
}
330
1F
100
AcDbEntity
  8
実線
100
AcDbCircle
 10
340.6344093518367
 20
83.13703639187895
 30
0.0
 40
72.5
100
AcDbArc
 50
324.2986775853692
 51
334.0280526648901
  0
ARC
  5
3DF
102
{ACAD_REACTORS
330
573
102
}
330
1F
100
AcDbEntity
  8
実線
100
AcDbCircle
 10
340.6344093518367
 20
83.13703639187895
 30
0.0
 40
72.5
100
AcDbArc
 50
25.97194733512806
 51
35.7013224146308
  0
ARC
  5
3E0
102
{ACAD_REACTORS
330
573
102
}
330
1F
100
AcDbEntity
  8
実線
100
AcDbCircle
 10
340.6344093518367
 20
83.13703639187895
 30
0.0
 40
67.5
100
AcDbArc
 50
55.79182291694014
 51
124.2081770830598
  0
ARC
  5
3E1
102
{ACAD_REACTORS
330
573
102
}
330
1F
100
AcDbEntity
  8
実線
100
AcDbCircle
 10
340.6344093518367
 20
83.13703639187895
 30
0.0
 40
67.5
100
AcDbArc
 50
145.7918229169379
 51
151.9416592389783
  0
ARC
  5
3E2
102
{ACAD_REACTORS
330
573
102
}
330
1F
100
AcDbEntity
  8
実線
100
AcDbCircle
 10
340.6344093518367
 20
83.13703639187895
 30
0.0
 40
67.5
100
AcDbArc
 50
208.0583407610406
 51
214.2081770830621
  0
ARC
  5
3E3
102
{ACAD_REACTORS
330
573
102
}
330
1F
100
AcDbEntity
  8
実線
100
AcDbCircle
 10
340.6344093518367
 20
83.13703639187895
 30
0.0
 40
67.5
100
AcDbArc
 50
235.7918229169401
 51
304.2081770830599
  0
ARC
  5
3E4
102
{ACAD_REACTORS
330
573
102
}
330
1F
100
AcDbEntity
  8
実線
100
AcDbCircle
 10
340.6344093518367
 20
83.13703639187895
 30
0.0
 40
67.5
100
AcDbArc
 50
325.7918229169379
 51
331.9416592389784
  0
ARC
  5
3E5
102
{ACAD_REACTORS
330
573
102
}
330
1F
100
AcDbEntity
  8
実線
100
AcDbCircle
 10
340.6344093518367
 20
83.13703639187895
 30
0.0
 40
67.5
100
AcDbArc
 50
28.05834076104059
 51
34.20817708306212
  0
LINE
  5
3E6
102
{ACAD_REACTORS
330
573
102
}
330
1F
100
AcDbEntity
  8
実線
100
AcDbLine
 10
281.6631997311089
 20
125.5824215269132
 30
0.0
 11
289.1521890267228
 21
114.8870363918688
 31
0.0
  0
LINE
  5
3E7
102
{ACAD_REACTORS
330
573
102
}
330
1F
100
AcDbEntity
  8
実線
100
AcDbLine
 10
313.8244372018961
 20
131.1602119774064
 30
0.0
 11
298.1890242167931
 21
142.1082460125976
 31
0.0
  0
ARC
  5
3E8
102
{ACAD_REACTORS
330
573
102
}
330
1F
100
AcDbEntity
  8
実線
100
AcDbCircle
 10
292.4532598532826
 20
133.9167255697076
 30
0.0
 40
9.999999999999982
100
AcDbArc
 50
54.99999999999904
 51
133.4958580179405
  0
ARC
  5
3E9
102
{ACAD_REACTORS
330
573
102
}
330
1F
100
AcDbEntity
  8
実線
100
AcDbCircle
 10
289.8547201739985
 20
131.3181858904235
 30
0.0
 40
9.999999999999591
100
AcDbArc
 50
136.5041419820594
 51
214.9999999999987
  0
ARC
  5
3EA
102
{ACAD_REACTORS
330
573
102
}
330
1F
100
AcDbEntity
  8
実線
100
AcDbCircle
 10
340.6344093518375
 20
83.13703639187895
 30
0.0
 40
79.99999999999268
100
AcDbArc
 50
133.4958580179451
 51
136.504141982064
  0
LINE
  5
3EB
102
{ACAD_REACTORS
330
573
102
}
330
1F
100
AcDbEntity
  8
実線
100
AcDbLine
 10
367.4443815017786
 20
35.11386080633125
 30
0.0
 11
383.0797944868815
 21
24.16582677114005
 31
0.0
  0
ARC
  5
3EC
102
{ACAD_REACTORS
330
573
102
}
330
1F
100
AcDbEntity
  8
実線
100
AcDbCircle
 10
388.8155588503919
 20
32.35734721403
 30
0.0
 40
9.999999999999991
100
AcDbArc
 50
234.999999999999
 51
313.4958580179406
  0
ARC
  5
3ED
102
{ACAD_REACTORS
330
573
102
}
330
1F
100
AcDbEntity
  8
実線
100
AcDbCircle
 10
340.6344093518374
 20
83.13703639186869
 30
0.0
 40
79.99999999999984
100
AcDbArc
 50
313.4958580179406
 51
316.5041419820595
  0
ARC
  5
3EE
102
{ACAD_REACTORS
330
573
102
}
330
1F
100
AcDbEntity
  8
実線
100
AcDbCircle
 10
391.4140985296763
 20
34.9558868933141
 30
0.0
 40
9.999999999999976
100
AcDbArc
 50
316.5041419820595
 51
34.99999999999963
  0
LINE
  5
3EF
102
{ACAD_REACTORS
330
573
102
}
330
1F
100
AcDbEntity
  8
実線
100
AcDbLine
 10
399.6056189725661
 20
40.69165125682459
 30
0.0
 11
392.1166296769379
 21
51.38703639188904
 31
0.0
  0
ARC
  5
3F0
102
{ACAD_REACTORS
330
573
102
}
330
1F
100
AcDbEntity
  8
実線
100
AcDbCircle
 10
292.4532598532826
 20
32.35734721403006
 30
0.0
 40
10.00000000000002
100
AcDbArc
 50
226.5041419820594
 51
305.000000000001
  0
LINE
  5
3F1
102
{ACAD_REACTORS
330
573
102
}
330
1F
100
AcDbEntity
  8
実線
100
AcDbLine
 10
289.1521890267226
 20
51.38703639186886
 30
0.0
 11
281.6631997311086
 21
40.69165125682459
 31
0.0
  0
LINE
  5
3F2
102
{ACAD_REACTORS
330
573
102
}
330
1F
100
AcDbEntity
  8
実線
100
AcDbLine
 10
298.1890242167931
 20
24.16582677114011
 30
0.0
 11
313.8244372018961
 21
35.11386080633125
 31
0.0
  0
ARC
  5
3F3
102
{ACAD_REACTORS
330
573
102
}
330
1F
100
AcDbEntity
  8
実線
100
AcDbCircle
 10
289.8547201739983
 20
34.95588689331416
 30
0.0
 40
9.999999999999996
100
AcDbArc
 50
145.0000000000003
 51
223.4958580179406
  0
ARC
  5
3F4
102
{ACAD_REACTORS
330
573
102
}
330
1F
100
AcDbEntity
  8
実線
100
AcDbCircle
 10
340.634409351837
 20
83.13703639186869
 30
0.0
 40
79.9999999999998
100
AcDbArc
 50
223.4958580179406
 51
226.5041419820594
  0
ARC
  5
3F5
102
{ACAD_REACTORS
330
573
102
}
330
1F
100
AcDbEntity
  8
実線
100
AcDbCircle
 10
340.6344093518368
 20
83.13703639187895
 30
0.0
 40
79.99999999999343
100
AcDbArc
 50
43.49585801793593
 51
46.50414198205487
  0
ARC
  5
3F6
102
{ACAD_REACTORS
330
573
102
}
330
1F
100
AcDbEntity
  8
実線
100
AcDbCircle
 10
391.4140985296763
 20
131.3181858904234
 30
0.0
 40
10.0
100
AcDbArc
 50
325.0000000000003
 51
43.49585801794053
  0
ARC
  5
3F7
102
{ACAD_REACTORS
330
573
102
}
330
1F
100
AcDbEntity
  8
実線
100
AcDbCircle
 10
388.8155588503921
 20
133.9167255697076
 30
0.0
 40
10.00000000000038
100
AcDbArc
 50
46.50414198205946
 51
125.0000000000009
  0
LINE
  5
3F8
102
{ACAD_REACTORS
330
573
102
}
330
1F
100
AcDbEntity
  8
実線
100
AcDbLine
 10
383.0797944868814
 20
142.1082460125978
 30
0.0
 11
367.4443815017786
 21
131.1602119774064
 31
0.0
  0
LINE
  5
3F9
102
{ACAD_REACTORS
330
573
102
}
330
1F
100
AcDbEntity
  8
実線
100
AcDbLine
 10
392.116629676966
 20
114.887036391889
 30
0.0
 11
399.6056189725661
 21
125.582421526913
 31
0.0
  0
ARC
  5
3FA
102
{ACAD_REACTORS
330
573
102
}
330
1F
100
AcDbEntity
  8
実線
100
AcDbCircle
 10
340.6344093518374
 20
83.13703639186886
 30
0.0
 40
55.0
100
AcDbArc
 50
206.6374901381757
 51
333.3625098618461
  0
ARC
  5
3FB
102
{ACAD_REACTORS
330
573
102
}
330
1F
100
AcDbEntity
  8
実線
100
AcDbCircle
 10
340.6344093518374
 20
83.13703639186886
 30
0.0
 40
55.0
100
AcDbArc
 50
26.63749013820118
 51
153.3625098618243
  0
LINE
  5
3FC
102
{ACAD_REACTORS
330
56E
102
}
330
1F
100
AcDbEntity
  8
実線
100
AcDbLine
 10
722.2344093518369
 20
291.3870363918686
 30
0.0
 11
770.7745060373487
 21
291.3870363918686
 31
0.0
  0
LINE
  5
3FD
102
{ACAD_REACTORS
330
56E
102
}
330
1F
100
AcDbEntity
  8
実線
100
AcDbLine
 10
759.8547201739967
 20
354.8870363918684
 30
0.0
 11
722.2344093518369
 21
354.8870363918684
 31
0.0
  0
LINE
  5
3FE
102
{ACAD_REACTORS
330
56E
102
}
330
1F
100
AcDbEntity
  8
実線
100
AcDbLine
 10
722.2344093518369
 20
354.8870363918684
 30
0.0
 11
719.1344093518377
 21
361.8870363918686
 31
0.0
  0
LINE
  5
3FF
102
{ACAD_REACTORS
330
56E
102
}
330
1F
100
AcDbEntity
  8
実線
100
AcDbLine
 10
719.1344093518377
 20
284.3870363918684
 30
0.0
 11
722.2344093518369
 21
291.3870363918686
 31
0.0
  0
LINE
  5
400
102
{ACAD_REACTORS
330
56E
102
}
330
1F
100
AcDbEntity
  8
実線
100
AcDbLine
 10
722.2344093518369
 20
354.8870363918684
 30
0.0
 11
722.2344093518369
 21
291.3870363918686
 31
0.0
  0
LINE
  5
401
102
{ACAD_REACTORS
330
56E
102
}
330
1F
100
AcDbEntity
  8
実線
100
AcDbLine
 10
715.6344093518367
 20
284.3870363918684
 30
0.0
 11
719.1344093518377
 21
284.3870363918684
 31
0.0
  0
LINE
  5
402
102
{ACAD_REACTORS
330
56E
102
}
330
1F
100
AcDbEntity
  8
実線
100
AcDbLine
 10
719.1344093518377
 20
361.8870363918686
 30
0.0
 11
715.6344093518367
 21
361.8870363918686
 31
0.0
  0
LINE
  5
403
102
{ACAD_REACTORS
330
56E
102
}
330
1F
100
AcDbEntity
  8
実線
100
AcDbLine
 10
715.6344093518367
 20
284.3870363918684
 30
0.0
 11
715.6344093518367
 21
361.8870363918686
 31
0.0
  0
LINE
  5
404
102
{ACAD_REACTORS
330
56E
102
}
330
1F
100
AcDbEntity
  8
実線
100
AcDbLine
 10
719.1344093518377
 20
284.3870363918684
 30
0.0
 11
719.1344093518377
 21
361.8870363918686
 31
0.0
  0
LINE
  5
405
102
{ACAD_REACTORS
330
56E
102
}
330
1F
100
AcDbEntity
  8
実線
100
AcDbLine
 10
919.0344093518357
 20
354.8870363918684
 30
0.0
 11
881.414098529674
 21
354.8870363918684
 31
0.0
  0
LINE
  5
406
102
{ACAD_REACTORS
330
56E
102
}
330
1F
100
AcDbEntity
  8
実線
100
AcDbLine
 10
870.4943126663229
 20
291.3870363918686
 30
0.0
 11
919.0344093518357
 21
291.3870363918686
 31
0.0
  0
LINE
  5
407
102
{ACAD_REACTORS
330
56E
102
}
330
1F
100
AcDbEntity
  8
実線
100
AcDbLine
 10
925.6344093518359
 20
284.3870363918684
 30
0.0
 11
925.6344093518359
 21
361.8870363918686
 31
0.0
  0
LINE
  5
408
102
{ACAD_REACTORS
330
56E
102
}
330
1F
100
AcDbEntity
  8
実線
100
AcDbLine
 10
925.6344093518359
 20
361.8870363918686
 30
0.0
 11
922.1344093518359
 21
361.8870363918686
 31
0.0
  0
LINE
  5
409
102
{ACAD_REACTORS
330
56E
102
}
330
1F
100
AcDbEntity
  8
実線
100
AcDbLine
 10
922.1344093518359
 20
284.3870363918684
 30
0.0
 11
925.6344093518359
 21
284.3870363918684
 31
0.0
  0
LINE
  5
40A
102
{ACAD_REACTORS
330
56E
102
}
330
1F
100
AcDbEntity
  8
実線
100
AcDbLine
 10
922.1344093518359
 20
284.3870363918684
 30
0.0
 11
922.1344093518359
 21
361.8870363918686
 31
0.0
  0
LINE
  5
40B
102
{ACAD_REACTORS
330
56E
102
}
330
1F
100
AcDbEntity
  8
実線
100
AcDbLine
 10
919.0344093518357
 20
291.3870363918686
 30
0.0
 11
919.0344093518357
 21
354.8870363918684
 31
0.0
  0
LINE
  5
40C
102
{ACAD_REACTORS
330
56E
102
}
330
1F
100
AcDbEntity
  8
実線
100
AcDbLine
 10
919.0344093518357
 20
291.3870363918686
 30
0.0
 11
922.1344093518359
 21
284.3870363918684
 31
0.0
  0
LINE
  5
40D
102
{ACAD_REACTORS
330
56E
102
}
330
1F
100
AcDbEntity
  8
実線
100
AcDbLine
 10
922.1344093518359
 20
361.8870363918686
 30
0.0
 11
919.0344093518357
 21
354.8870363918684
 31
0.0
  0
LINE
  5
40E
102
{ACAD_REACTORS
330
56E
102
}
330
1F
100
AcDbEntity
  8
実線
100
AcDbLine
 10
852.3844093518359
 20
224.7370363918685
 30
0.0
 11
852.3844093518359
 21
287.1370363918684
 31
0.0
  0
LINE
  5
40F
102
{ACAD_REACTORS
330
56E
102
}
330
1F
100
AcDbEntity
  8
実線
100
AcDbLine
 10
788.8844093518359
 20
287.1370363918684
 30
0.0
 11
788.8844093518359
 21
224.7370363918685
 31
0.0
  0
LINE
  5
410
102
{ACAD_REACTORS
330
56E
102
}
330
1F
100
AcDbEntity
  8
実線
100
AcDbLine
 10
788.8844093518359
 20
224.7370363918685
 30
0.0
 11
852.3844093518359
 21
224.7370363918685
 31
0.0
  0
LINE
  5
411
102
{ACAD_REACTORS
330
56E
102
}
330
1F
100
AcDbEntity
  8
実線
100
AcDbLine
 10
788.8844093518359
 20
224.7370363918685
 30
0.0
 11
781.8844093518358
 21
221.6370363918685
 31
0.0
  0
LINE
  5
412
102
{ACAD_REACTORS
330
56E
102
}
330
1F
100
AcDbEntity
  8
実線
100
AcDbLine
 10
859.3844093518359
 20
221.6370363918685
 30
0.0
 11
852.3844093518359
 21
224.7370363918685
 31
0.0
  0
LINE
  5
413
102
{ACAD_REACTORS
330
56E
102
}
330
1F
100
AcDbEntity
  8
実線
100
AcDbLine
 10
781.8844093518358
 20
218.1370363918686
 30
0.0
 11
859.3844093518359
 21
218.1370363918686
 31
0.0
  0
LINE
  5
414
102
{ACAD_REACTORS
330
56E
102
}
330
1F
100
AcDbEntity
  8
実線
100
AcDbLine
 10
781.8844093518358
 20
221.6370363918685
 30
0.0
 11
859.3844093518359
 21
221.6370363918685
 31
0.0
  0
LINE
  5
415
102
{ACAD_REACTORS
330
56E
102
}
330
1F
100
AcDbEntity
  8
実線
100
AcDbLine
 10
859.3844093518359
 20
218.1370363918686
 30
0.0
 11
859.3844093518359
 21
221.6370363918685
 31
0.0
  0
LINE
  5
416
102
{ACAD_REACTORS
330
56E
102
}
330
1F
100
AcDbEntity
  8
実線
100
AcDbLine
 10
781.8844093518358
 20
221.6370363918685
 30
0.0
 11
781.8844093518358
 21
218.1370363918686
 31
0.0
  0
LINE
  5
417
102
{ACAD_REACTORS
330
56E
102
}
330
1F
100
AcDbEntity
  8
実線
100
AcDbLine
 10
774.6344093518367
 20
598.1370363918686
 30
0.0
 11
866.6344093518368
 21
598.1370363918686
 31
0.0
  0
LINE
  5
418
102
{ACAD_REACTORS
330
56E
102
}
330
1F
100
AcDbEntity
  8
実線
100
AcDbLine
 10
866.6344093518368
 20
588.1370363918685
 30
0.0
 11
866.6344093518368
 21
598.1370363918686
 31
0.0
  0
LINE
  5
419
102
{ACAD_REACTORS
330
56E
102
}
330
1F
100
AcDbEntity
  8
実線
100
AcDbLine
 10
774.6344093518367
 20
598.1370363918686
 30
0.0
 11
774.6344093518367
 21
588.1370363918685
 31
0.0
  0
LINE
  5
41A
102
{ACAD_REACTORS
330
56E
102
}
330
1F
100
AcDbEntity
  8
実線
100
AcDbLine
 10
828.6344093518369
 20
605.1370363918685
 30
0.0
 11
828.6344093518369
 21
635.6370363918686
 31
0.0
  0
LINE
  5
41B
102
{ACAD_REACTORS
330
56E
102
}
330
1F
100
AcDbEntity
  8
実線
100
AcDbLine
 10
812.6344093518367
 20
635.6370363918686
 30
0.0
 11
812.6344093518367
 21
605.1370363918685
 31
0.0
  0
LINE
  5
41C
102
{ACAD_REACTORS
330
56E
102
}
330
1F
100
AcDbEntity
  8
実線
100
AcDbLine
 10
813.1344093518368
 20
642.0870363918681
 30
0.0
 11
800.6344093518368
 21
642.0870363918681
 31
0.0
  0
LINE
  5
41D
102
{ACAD_REACTORS
330
56E
102
}
330
1F
100
AcDbEntity
  8
実線
100
AcDbLine
 10
812.6344093518367
 20
634.1870363918685
 30
0.0
 11
800.6344093518368
 21
634.1870363918685
 31
0.0
  0
LINE
  5
41E
102
{ACAD_REACTORS
330
56E
102
}
330
1F
100
AcDbEntity
  8
実線
100
AcDbLine
 10
800.6344093518368
 20
642.0870363918687
 30
0.0
 11
800.6344093518368
 21
634.1870363918685
 31
0.0
  0
LINE
  5
41F
102
{ACAD_REACTORS
330
56E
102
}
330
1F
100
AcDbEntity
  8
実線
100
AcDbLine
 10
795.6344093518367
 20
603.1370363918686
 30
0.0
 11
845.634409351836
 21
603.1370363918686
 31
0.0
  0
LINE
  5
420
102
{ACAD_REACTORS
330
56E
102
}
330
1F
100
AcDbEntity
  8
実線
100
AcDbLine
 10
845.634409351836
 20
598.1370363918686
 30
0.0
 11
845.634409351836
 21
603.1370363918686
 31
0.0
  0
LINE
  5
421
102
{ACAD_REACTORS
330
56E
102
}
330
1F
100
AcDbEntity
  8
実線
100
AcDbLine
 10
795.6344093518367
 20
603.1370363918686
 30
0.0
 11
795.6344093518367
 21
598.1370363918686
 31
0.0
  0
LINE
  5
422
102
{ACAD_REACTORS
330
56E
102
}
330
1F
100
AcDbEntity
  8
実線
100
AcDbLine
 10
800.6344093518368
 20
639.6370363918686
 30
0.0
 11
794.1344093518368
 21
639.6370363918686
 31
0.0
  0
LINE
  5
423
102
{ACAD_REACTORS
330
56E
102
}
330
1F
100
AcDbEntity
  8
実線
100
AcDbLine
 10
794.1344093518368
 20
636.6370363918686
 30
0.0
 11
800.6344093518368
 21
636.6370363918686
 31
0.0
  0
LINE
  5
424
102
{ACAD_REACTORS
330
56E
102
}
330
1F
100
AcDbEntity
  8
実線
100
AcDbLine
 10
794.1344093518368
 20
639.6370363918686
 30
0.0
 11
794.1344093518368
 21
636.6370363918686
 31
0.0
  0
LINE
  5
425
102
{ACAD_REACTORS
330
56E
102
}
330
1F
100
AcDbEntity
  8
実線
100
AcDbLine
 10
812.6344093518367
 20
626.0870363918686
 30
0.0
 11
800.6344093518368
 21
626.0870363918686
 31
0.0
  0
LINE
  5
426
102
{ACAD_REACTORS
330
56E
102
}
330
1F
100
AcDbEntity
  8
実線
100
AcDbLine
 10
800.6344093518368
 20
626.0870363918686
 30
0.0
 11
800.6344093518368
 21
618.1870363918685
 31
0.0
  0
LINE
  5
427
102
{ACAD_REACTORS
330
56E
102
}
330
1F
100
AcDbEntity
  8
実線
100
AcDbLine
 10
812.6344093518367
 20
618.1870363918685
 30
0.0
 11
800.6344093518368
 21
618.1870363918685
 31
0.0
  0
LINE
  5
428
102
{ACAD_REACTORS
330
56E
102
}
330
1F
100
AcDbEntity
  8
実線
100
AcDbLine
 10
800.6344093518368
 20
623.6370363918683
 30
0.0
 11
794.1344093518368
 21
623.6370363918683
 31
0.0
  0
LINE
  5
429
102
{ACAD_REACTORS
330
56E
102
}
330
1F
100
AcDbEntity
  8
実線
100
AcDbLine
 10
794.1344093518368
 20
620.6370363918686
 30
0.0
 11
800.6344093518368
 21
620.6370363918686
 31
0.0
  0
LINE
  5
42A
102
{ACAD_REACTORS
330
56E
102
}
330
1F
100
AcDbEntity
  8
実線
100
AcDbLine
 10
794.1344093518368
 20
623.6370363918683
 30
0.0
 11
794.1344093518368
 21
620.6370363918686
 31
0.0
  0
LINE
  5
42B
102
{ACAD_REACTORS
330
56E
102
}
330
1F
100
AcDbEntity
  8
実線
100
AcDbLine
 10
808.1344093518367
 20
640.6370363918686
 30
0.0
 11
833.1344093518369
 21
640.6370363918686
 31
0.0
  0
LINE
  5
42C
102
{ACAD_REACTORS
330
56E
102
}
330
1F
100
AcDbEntity
  8
実線
100
AcDbLine
 10
833.1344093518369
 20
635.6370363918686
 30
0.0
 11
833.1344093518369
 21
640.6370363918686
 31
0.0
  0
LINE
  5
42D
102
{ACAD_REACTORS
330
56E
102
}
330
1F
100
AcDbEntity
  8
実線
100
AcDbLine
 10
808.1344093518367
 20
640.6370363918686
 30
0.0
 11
808.1344093518367
 21
635.6370363918686
 31
0.0
  0
LINE
  5
42E
102
{ACAD_REACTORS
330
56E
102
}
330
1F
100
AcDbEntity
  8
実線
100
AcDbLine
 10
833.1344093518369
 20
635.6370363918686
 30
0.0
 11
808.1344093518367
 21
635.6370363918686
 31
0.0
  0
LINE
  5
42F
102
{ACAD_REACTORS
330
56E
102
}
330
1F
100
AcDbEntity
  8
実線
100
AcDbLine
 10
813.1344093518368
 20
645.9370363918686
 30
0.0
 11
828.1344093518368
 21
645.9370363918686
 31
0.0
  0
LINE
  5
430
102
{ACAD_REACTORS
330
56E
102
}
330
1F
100
AcDbEntity
  8
実線
100
AcDbLine
 10
828.1344093518368
 20
640.6370363918686
 30
0.0
 11
828.1344093518368
 21
645.9370363918686
 31
0.0
  0
LINE
  5
431
102
{ACAD_REACTORS
330
56E
102
}
330
1F
100
AcDbEntity
  8
実線
100
AcDbLine
 10
813.1344093518368
 20
645.9370363918686
 30
0.0
 11
813.1344093518368
 21
640.6370363918686
 31
0.0
  0
LINE
  5
432
102
{ACAD_REACTORS
330
56E
102
}
330
1F
100
AcDbEntity
  8
実線
100
AcDbLine
 10
759.8547201739978
 20
363.6370363918686
 30
0.0
 11
881.4140985296749
 21
363.6370363918686
 31
0.0
  0
LINE
  5
433
102
{ACAD_REACTORS
330
56E
102
}
330
1F
100
AcDbEntity
  8
実線
100
AcDbLine
 10
759.8547201739978
 20
377.1370363918686
 30
0.0
 11
881.4140985296749
 21
377.1370363918686
 31
0.0
  0
LINE
  5
434
102
{ACAD_REACTORS
330
56E
102
}
330
1F
100
AcDbEntity
  8
実線
100
AcDbLine
 10
881.4140985296749
 20
363.6370363918686
 30
0.0
 11
881.4140985296749
 21
377.1370363918686
 31
0.0
  0
LINE
  5
435
102
{ACAD_REACTORS
330
56E
102
}
330
1F
100
AcDbEntity
  8
実線
100
AcDbLine
 10
759.8547201739978
 20
377.1370363918686
 30
0.0
 11
759.8547201739978
 21
363.6370363918686
 31
0.0
  0
LINE
  5
436
102
{ACAD_REACTORS
330
56E
102
}
330
1F
100
AcDbEntity
  8
実線
100
AcDbLine
 10
847.444381501778
 20
363.6370363918686
 30
0.0
 11
847.444381501778
 21
377.1370363918686
 31
0.0
  0
LINE
  5
437
102
{ACAD_REACTORS
330
56E
102
}
330
1F
100
AcDbEntity
  8
実線
100
AcDbLine
 10
793.8244372018947
 20
363.6370363918686
 30
0.0
 11
793.8244372018947
 21
377.1370363918686
 31
0.0
  0
LINE
  5
438
102
{ACAD_REACTORS
330
56E
102
}
330
1F
100
AcDbEntity
  8
実線
100
AcDbLine
 10
893.1344093518369
 20
482.1370363918683
 30
0.0
 11
893.1344093518369
 21
583.1370363918686
 31
0.0
  0
LINE
  5
439
102
{ACAD_REACTORS
330
56E
102
}
330
1F
100
AcDbEntity
  8
実線
100
AcDbLine
 10
748.1344093518368
 20
583.1370363918686
 30
0.0
 11
748.1344093518368
 21
482.1370363918683
 31
0.0
  0
LINE
  5
43A
102
{ACAD_REACTORS
330
56E
102
}
330
1F
100
AcDbEntity
  8
実線
100
AcDbLine
 10
893.1344093518369
 20
482.1370363918683
 30
0.0
 11
748.1344093518368
 21
482.1370363918683
 31
0.0
  0
LINE
  5
43B
102
{ACAD_REACTORS
330
56E
102
}
330
1F
100
AcDbEntity
  8
実線
100
AcDbLine
 10
888.1344093518368
 20
480.1370363918685
 30
0.0
 11
888.1344093518368
 21
482.1370363918683
 31
0.0
  0
LINE
  5
43C
102
{ACAD_REACTORS
330
56E
102
}
330
1F
100
AcDbEntity
  8
実線
100
AcDbLine
 10
753.1344093518367
 20
482.1370363918683
 30
0.0
 11
753.1344093518367
 21
480.1370363918685
 31
0.0
  0
LINE
  5
43D
102
{ACAD_REACTORS
330
56E
102
}
330
1F
100
AcDbEntity
  8
実線
100
AcDbLine
 10
888.1344093518368
 20
480.1370363918685
 30
0.0
 11
753.1344093518367
 21
480.1370363918685
 31
0.0
  0
LINE
  5
43E
102
{ACAD_REACTORS
330
56E
102
}
330
1F
100
AcDbEntity
  8
実線
100
AcDbLine
 10
828.6344093518369
 20
377.1811329404666
 30
0.0
 11
828.6344093518369
 21
415.1370363918683
 31
0.0
  0
LINE
  5
43F
102
{ACAD_REACTORS
330
56E
102
}
330
1F
100
AcDbEntity
  8
実線
100
AcDbLine
 10
812.6344093518367
 20
415.1370363918683
 30
0.0
 11
812.6344093518367
 21
377.1811329404666
 31
0.0
  0
ARC
  5
440
102
{ACAD_REACTORS
330
56E
102
}
330
1F
100
AcDbEntity
  8
実線
100
AcDbCircle
 10
825.3344093518366
 20
428.6370363918686
 30
0.0
 40
53.0
100
AcDbArc
 50
194.7568156063301
 51
256.3360910030543
  0
LINE
  5
441
102
{ACAD_REACTORS
330
56E
102
}
330
1F
100
AcDbEntity
  8
実線
100
AcDbLine
 10
758.3344093518368
 20
480.1370363918685
 30
0.0
 11
758.3344093518368
 21
428.6370363918686
 31
0.0
  0
ARC
  5
442
102
{ACAD_REACTORS
330
56E
102
}
330
1F
100
AcDbEntity
  8
実線
100
AcDbCircle
 10
825.3344093518366
 20
428.6370363918686
 30
0.0
 40
66.99999999999993
100
AcDbArc
 50
180.0
 51
230.2334159308347
  0
ARC
  5
443
102
{ACAD_REACTORS
330
56E
102
}
330
1F
100
AcDbEntity
  8
実線
100
AcDbCircle
 10
815.9344093518368
 20
428.6370363918686
 30
0.0
 40
53.0
100
AcDbArc
 50
283.6639089969457
 51
345.2431843936698
  0
ARC
  5
444
102
{ACAD_REACTORS
330
56E
102
}
330
1F
100
AcDbEntity
  8
実線
100
AcDbCircle
 10
815.9344093518368
 20
428.6370363918686
 30
0.0
 40
66.99999999999993
100
AcDbArc
 50
309.7665840691653
 51
0.0
  0
LINE
  5
445
102
{ACAD_REACTORS
330
56E
102
}
330
1F
100
AcDbEntity
  8
実線
100
AcDbLine
 10
882.9344093518367
 20
480.1370363918685
 30
0.0
 11
882.9344093518367
 21
428.6370363918686
 31
0.0
  0
LINE
  5
446
102
{ACAD_REACTORS
330
56E
102
}
330
1F
100
AcDbEntity
  8
実線
100
AcDbLine
 10
772.4913932435778
 20
415.1370363918683
 30
0.0
 11
772.4913932435778
 21
480.1370363918685
 31
0.0
  0
LINE
  5
447
102
{ACAD_REACTORS
330
56E
102
}
330
1F
100
AcDbEntity
  8
実線
100
AcDbLine
 10
772.4913932435778
 20
415.1370363918683
 30
0.0
 11
868.7774254600949
 21
415.1370363918683
 31
0.0
  0
LINE
  5
448
102
{ACAD_REACTORS
330
56E
102
}
330
1F
100
AcDbEntity
  8
実線
100
AcDbLine
 10
868.7774254600949
 20
480.1370363918685
 30
0.0
 11
868.7774254600949
 21
415.1370363918683
 31
0.0
  0
LINE
  5
449
102
{ACAD_REACTORS
330
56E
102
}
330
1F
100
AcDbEntity
  8
実線
100
AcDbLine
 10
859.6344093518359
 20
287.1370363918686
 30
0.0
 11
781.6344093518359
 21
287.1370363918686
 31
0.0
  0
ARC
  5
44A
102
{ACAD_REACTORS
330
56E
102
}
330
1F
100
AcDbEntity
  8
実線
100
AcDbCircle
 10
781.6344093518359
 20
303.1370363918684
 30
0.0
 40
16.0
100
AcDbArc
 50
227.2544307753404
 51
270.0
  0
ARC
  5
44B
102
{ACAD_REACTORS
330
56E
102
}
330
1F
100
AcDbEntity
  8
実線
100
AcDbCircle
 10
859.6344093518359
 20
303.1370363918684
 30
0.0
 40
16.0
100
AcDbArc
 50
270.0
 51
312.7455692246596
  0
LINE
  5
44C
102
{ACAD_REACTORS
330
56E
102
}
330
1F
100
AcDbEntity
  8
実線
100
AcDbLine
 10
881.4140985296749
 20
348.6370363918684
 30
0.0
 11
881.4140985296749
 21
363.6370363918686
 31
0.0
  0
LINE
  5
44D
102
{ACAD_REACTORS
330
56E
102
}
330
1F
100
AcDbEntity
  8
実線
100
AcDbLine
 10
881.4140985296749
 20
348.6370363918684
 30
0.0
 11
847.4443815017771
 21
348.6370363918684
 31
0.0
  0
LINE
  5
44E
102
{ACAD_REACTORS
330
56E
102
}
330
1F
100
AcDbEntity
  8
実線
100
AcDbLine
 10
759.8547201739967
 20
348.6370363918684
 30
0.0
 11
793.8244372018947
 21
348.6370363918684
 31
0.0
  0
LINE
  5
44F
102
{ACAD_REACTORS
330
56E
102
}
330
1F
100
AcDbEntity
  8
実線
100
AcDbLine
 10
759.8547201739967
 20
363.6370363918686
 30
0.0
 11
759.8547201739967
 21
348.6370363918684
 31
0.0
  0
LINE
  5
450
102
{ACAD_REACTORS
330
56E
102
}
330
1F
100
AcDbEntity
  8
実線
100
AcDbLine
 10
847.4443815017771
 20
348.6370363918684
 30
0.0
 11
847.4443815017771
 21
363.6370363918686
 31
0.0
  0
LINE
  5
451
102
{ACAD_REACTORS
330
56E
102
}
330
1F
100
AcDbEntity
  8
実線
100
AcDbLine
 10
793.8244372018947
 20
348.6370363918684
 30
0.0
 11
793.8244372018947
 21
363.6370363918686
 31
0.0
  0
LINE
  5
452
102
{ACAD_REACTORS
330
56E
102
}
330
1F
100
AcDbEntity
  8
実線
100
AcDbLine
 10
805.6344093518367
 20
642.0870363918687
 30
0.0
 11
805.6344093518367
 21
643.1370363918686
 31
0.0
  0
LINE
  5
453
102
{ACAD_REACTORS
330
56E
102
}
330
1F
100
AcDbEntity
  8
実線
100
AcDbLine
 10
805.6344093518358
 20
626.0870363918686
 30
0.0
 11
805.6344093518358
 21
634.1870363918685
 31
0.0
  0
LINE
  5
454
102
{ACAD_REACTORS
330
56E
102
}
330
1F
100
AcDbEntity
  8
実線
100
AcDbLine
 10
805.6344093518358
 20
605.137036391821
 30
0.0
 11
805.6344093518358
 21
618.1870363918685
 31
0.0
  0
LINE
  5
455
102
{ACAD_REACTORS
330
56E
102
}
330
1F
100
AcDbEntity
  8
実線
100
AcDbLine
 10
813.1344093518368
 20
643.1370363918686
 30
0.0
 11
805.6344093518367
 21
643.1370363918686
 31
0.0
  0
LINE
  5
456
102
{ACAD_REACTORS
330
56E
102
}
330
1F
100
AcDbEntity
  8
実線
100
AcDbLine
 10
845.634409351836
 20
603.1370363918686
 30
0.0
 11
845.634409351836
 21
605.1370363918685
 31
0.0
  0
LINE
  5
457
102
{ACAD_REACTORS
330
56E
102
}
330
1F
100
AcDbEntity
  8
実線
100
AcDbLine
 10
795.6344093518367
 20
605.1370363918685
 30
0.0
 11
795.6344093518367
 21
603.1370363918686
 31
0.0
  0
LINE
  5
458
102
{ACAD_REACTORS
330
56E
102
}
330
1F
100
AcDbEntity
  8
実線
100
AcDbLine
 10
845.634409351836
 20
605.1370363918685
 30
0.0
 11
795.6344093518367
 21
605.1370363918685
 31
0.0
  0
LINE
  5
459
102
{ACAD_REACTORS
330
56E
102
}
330
1F
100
AcDbEntity
  8
実線
100
AcDbLine
 10
751.1344093518367
 20
588.1370363918685
 30
0.0
 11
890.1344093518359
 21
588.1370363918685
 31
0.0
  0
ARC
  5
45A
102
{ACAD_REACTORS
330
56E
102
}
330
1F
100
AcDbEntity
  8
実線
100
AcDbCircle
 10
890.1344093518359
 20
585.1370363918686
 30
0.0
 40
3.0
100
AcDbArc
 50
0.0
 51
90.0
  0
ARC
  5
45B
102
{ACAD_REACTORS
330
56E
102
}
330
1F
100
AcDbEntity
  8
実線
100
AcDbCircle
 10
751.1344093518367
 20
585.1370363918686
 30
0.0
 40
3.0
100
AcDbArc
 50
90.0
 51
180.0
  0
LINE
  5
45C
102
{ACAD_REACTORS
330
56E
102
}
330
1F
100
AcDbEntity
  8
実線
100
AcDbLine
 10
748.1344093518368
 20
583.1370363918686
 30
0.0
 11
893.1344093518369
 21
583.1370363918686
 31
0.0
  0
LINE
  5
45D
102
{ACAD_REACTORS
330
56E
102
}
330
1F
100
AcDbEntity
  8
実線
100
AcDbLine
 10
893.1344093518369
 20
583.1370363918686
 30
0.0
 11
893.1344093518369
 21
585.1370363918686
 31
0.0
  0
LINE
  5
45E
102
{ACAD_REACTORS
330
56E
102
}
330
1F
100
AcDbEntity
  8
実線
100
AcDbLine
 10
748.1344093518368
 20
585.1370363918686
 30
0.0
 11
748.1344093518368
 21
583.1370363918686
 31
0.0
  0
CIRCLE
  5
45F
102
{ACAD_REACTORS
330
56F
102
}
330
1F
100
AcDbEntity
  8
実線
100
AcDbCircle
 10
580.6344093518268
 20
323.1370363918685
 30
0.0
 40
38.75
  0
LINE
  5
460
102
{ACAD_REACTORS
330
56F
102
}
330
1F
100
AcDbEntity
  8
実線
100
AcDbLine
 10
612.3844093518466
 20
224.7370363918685
 30
0.0
 11
612.3844093518466
 21
287.1370363918684
 31
0.0
  0
LINE
  5
461
102
{ACAD_REACTORS
330
56F
102
}
330
1F
100
AcDbEntity
  8
実線
100
AcDbLine
 10
548.8844093518473
 20
287.1370363918684
 30
0.0
 11
548.8844093518473
 21
224.7370363918685
 31
0.0
  0
LINE
  5
462
102
{ACAD_REACTORS
330
56F
102
}
330
1F
100
AcDbEntity
  8
実線
100
AcDbLine
 10
612.3844093518466
 20
224.7370363918685
 30
0.0
 11
548.8844093518473
 21
224.7370363918685
 31
0.0
  0
LINE
  5
463
102
{ACAD_REACTORS
330
56F
102
}
330
1F
100
AcDbEntity
  8
実線
100
AcDbLine
 10
548.8844093518473
 20
224.7370363918685
 30
0.0
 11
541.884409351847
 21
221.6370363918685
 31
0.0
  0
LINE
  5
464
102
{ACAD_REACTORS
330
56F
102
}
330
1F
100
AcDbEntity
  8
実線
100
AcDbLine
 10
619.3844093518467
 20
221.6370363918685
 30
0.0
 11
612.3844093518466
 21
224.7370363918685
 31
0.0
  0
LINE
  5
465
102
{ACAD_REACTORS
330
56F
102
}
330
1F
100
AcDbEntity
  8
実線
100
AcDbLine
 10
619.3844093518467
 20
218.1370363918686
 30
0.0
 11
541.884409351847
 21
218.1370363918686
 31
0.0
  0
LINE
  5
466
102
{ACAD_REACTORS
330
56F
102
}
330
1F
100
AcDbEntity
  8
実線
100
AcDbLine
 10
619.3844093518467
 20
221.6370363918685
 30
0.0
 11
541.884409351847
 21
221.6370363918685
 31
0.0
  0
LINE
  5
467
102
{ACAD_REACTORS
330
56F
102
}
330
1F
100
AcDbEntity
  8
実線
100
AcDbLine
 10
619.3844093518467
 20
218.1370363918686
 30
0.0
 11
619.3844093518467
 21
221.6370363918685
 31
0.0
  0
LINE
  5
468
102
{ACAD_REACTORS
330
56F
102
}
330
1F
100
AcDbEntity
  8
実線
100
AcDbLine
 10
541.884409351847
 20
221.6370363918685
 30
0.0
 11
541.884409351847
 21
218.1370363918686
 31
0.0
  0
LINE
  5
469
102
{ACAD_REACTORS
330
56F
102
}
330
1F
100
AcDbEntity
  8
実線
100
AcDbLine
 10
626.6344093518366
 20
598.1370363918686
 30
0.0
 11
534.6344093518369
 21
598.1370363918686
 31
0.0
  0
LINE
  5
46A
102
{ACAD_REACTORS
330
56F
102
}
330
1F
100
AcDbEntity
  8
実線
100
AcDbLine
 10
626.6344093518366
 20
588.1370363918685
 30
0.0
 11
626.6344093518366
 21
598.1370363918686
 31
0.0
  0
LINE
  5
46B
102
{ACAD_REACTORS
330
56F
102
}
330
1F
100
AcDbEntity
  8
実線
100
AcDbLine
 10
534.6344093518369
 20
598.1370363918686
 30
0.0
 11
534.6344093518369
 21
588.1370363918685
 31
0.0
  0
LINE
  5
46C
102
{ACAD_REACTORS
330
56F
102
}
330
1F
100
AcDbEntity
  8
実線
100
AcDbLine
 10
588.6344093518369
 20
605.1370363918685
 30
0.0
 11
588.6344093518369
 21
635.6370363918686
 31
0.0
  0
LINE
  5
46D
102
{ACAD_REACTORS
330
56F
102
}
330
1F
100
AcDbEntity
  8
実線
100
AcDbLine
 10
572.6344093518369
 20
635.6370363918686
 30
0.0
 11
572.6344093518369
 21
605.1370363918685
 31
0.0
  0
LINE
  5
46E
102
{ACAD_REACTORS
330
56F
102
}
330
1F
100
AcDbEntity
  8
実線
100
AcDbLine
 10
559.6344093518369
 20
642.0870363918687
 30
0.0
 11
567.5344093518368
 21
642.0870363918687
 31
0.0
  0
LINE
  5
46F
102
{ACAD_REACTORS
330
56F
102
}
330
1F
100
AcDbEntity
  8
実線
100
AcDbLine
 10
567.5344093518368
 20
642.0870363918687
 30
0.0
 11
567.5344093518368
 21
634.1870363918685
 31
0.0
  0
LINE
  5
470
102
{ACAD_REACTORS
330
56F
102
}
330
1F
100
AcDbEntity
  8
実線
100
AcDbLine
 10
559.6344093518369
 20
634.1870363918685
 30
0.0
 11
559.6344093518369
 21
642.0870363918687
 31
0.0
  0
LINE
  5
471
102
{ACAD_REACTORS
330
56F
102
}
330
1F
100
AcDbEntity
  8
実線
100
AcDbLine
 10
567.5344093518368
 20
634.1870363918685
 30
0.0
 11
559.6344093518369
 21
634.1870363918685
 31
0.0
  0
LINE
  5
472
102
{ACAD_REACTORS
330
56F
102
}
330
1F
100
AcDbEntity
  8
実線
100
AcDbLine
 10
557.6344093518368
 20
603.1370363918686
 30
0.0
 11
555.6344093518369
 21
603.1370363918686
 31
0.0
  0
LINE
  5
473
102
{ACAD_REACTORS
330
56F
102
}
330
1F
100
AcDbEntity
  8
実線
100
AcDbLine
 10
605.6344093518366
 20
598.1370363918686
 30
0.0
 11
605.6344093518366
 21
603.1370363918686
 31
0.0
  0
LINE
  5
474
102
{ACAD_REACTORS
330
56F
102
}
330
1F
100
AcDbEntity
  8
実線
100
AcDbLine
 10
555.6344093518369
 20
603.1370363918686
 30
0.0
 11
555.6344093518369
 21
598.1370363918686
 31
0.0
  0
CIRCLE
  5
475
102
{ACAD_REACTORS
330
56F
102
}
330
1F
100
AcDbEntity
  8
実線
100
AcDbCircle
 10
563.5844093518369
 20
638.1370363918685
 30
0.0
 40
1.5
  0
LINE
  5
476
102
{ACAD_REACTORS
330
56F
102
}
330
1F
100
AcDbEntity
  8
実線
100
AcDbLine
 10
559.6344093518369
 20
618.1870363918685
 30
0.0
 11
559.6344093518369
 21
626.0870363918686
 31
0.0
  0
LINE
  5
477
102
{ACAD_REACTORS
330
56F
102
}
330
1F
100
AcDbEntity
  8
実線
100
AcDbLine
 10
567.5344093518368
 20
618.1870363918685
 30
0.0
 11
559.6344093518369
 21
618.1870363918685
 31
0.0
  0
LINE
  5
478
102
{ACAD_REACTORS
330
56F
102
}
330
1F
100
AcDbEntity
  8
実線
100
AcDbLine
 10
559.6344093518369
 20
626.0870363918686
 30
0.0
 11
567.5344093518368
 21
626.0870363918686
 31
0.0
  0
LINE
  5
479
102
{ACAD_REACTORS
330
56F
102
}
330
1F
100
AcDbEntity
  8
実線
100
AcDbLine
 10
567.5344093518368
 20
626.0870363918686
 30
0.0
 11
567.5344093518368
 21
618.1870363918685
 31
0.0
  0
CIRCLE
  5
47A
102
{ACAD_REACTORS
330
56F
102
}
330
1F
100
AcDbEntity
  8
実線
100
AcDbCircle
 10
563.5844093518369
 20
622.1370363918686
 30
0.0
 40
1.5
  0
LINE
  5
47B
102
{ACAD_REACTORS
330
56F
102
}
330
1F
100
AcDbEntity
  8
実線
100
AcDbLine
 10
593.1344093518369
 20
640.6370363918686
 30
0.0
 11
568.1344093518369
 21
640.6370363918686
 31
0.0
  0
LINE
  5
47C
102
{ACAD_REACTORS
330
56F
102
}
330
1F
100
AcDbEntity
  8
実線
100
AcDbLine
 10
568.1344093518369
 20
635.6370363918686
 30
0.0
 11
593.1344093518369
 21
635.6370363918686
 31
0.0
  0
LINE
  5
47D
102
{ACAD_REACTORS
330
56F
102
}
330
1F
100
AcDbEntity
  8
実線
100
AcDbLine
 10
593.1344093518369
 20
635.6370363918686
 30
0.0
 11
593.1344093518369
 21
640.6370363918686
 31
0.0
  0
LINE
  5
47E
102
{ACAD_REACTORS
330
56F
102
}
330
1F
100
AcDbEntity
  8
実線
100
AcDbLine
 10
568.1344093518369
 20
640.6370363918686
 30
0.0
 11
568.1344093518369
 21
635.6370363918686
 31
0.0
  0
LINE
  5
47F
102
{ACAD_REACTORS
330
56F
102
}
330
1F
100
AcDbEntity
  8
実線
100
AcDbLine
 10
588.1344093518369
 20
645.9370363918686
 30
0.0
 11
573.1344093518369
 21
645.9370363918686
 31
0.0
  0
LINE
  5
480
102
{ACAD_REACTORS
330
56F
102
}
330
1F
100
AcDbEntity
  8
実線
100
AcDbLine
 10
588.1344093518369
 20
640.6370363918686
 30
0.0
 11
588.1344093518369
 21
645.9370363918686
 31
0.0
  0
LINE
  5
481
102
{ACAD_REACTORS
330
56F
102
}
330
1F
100
AcDbEntity
  8
実線
100
AcDbLine
 10
573.1344093518369
 20
645.9370363918686
 30
0.0
 11
573.1344093518369
 21
640.6370363918686
 31
0.0
  0
LINE
  5
482
102
{ACAD_REACTORS
330
56F
102
}
330
1F
100
AcDbEntity
  8
実線
100
AcDbLine
 10
519.8547201739978
 20
363.6370363918686
 30
0.0
 11
641.4140985296755
 21
363.6370363918686
 31
0.0
  0
LINE
  5
483
102
{ACAD_REACTORS
330
56F
102
}
330
1F
100
AcDbEntity
  8
実線
100
AcDbLine
 10
519.8547201739978
 20
377.1370363918686
 30
0.0
 11
641.4140985296755
 21
377.1370363918686
 31
0.0
  0
LINE
  5
484
102
{ACAD_REACTORS
330
56F
102
}
330
1F
100
AcDbEntity
  8
実線
100
AcDbLine
 10
641.4140985296755
 20
363.6370363918686
 30
0.0
 11
641.4140985296755
 21
377.1370363918686
 31
0.0
  0
LINE
  5
485
102
{ACAD_REACTORS
330
56F
102
}
330
1F
100
AcDbEntity
  8
実線
100
AcDbLine
 10
519.8547201739978
 20
377.1370363918686
 30
0.0
 11
519.8547201739978
 21
363.6370363918686
 31
0.0
  0
LINE
  5
486
102
{ACAD_REACTORS
330
56F
102
}
330
1F
100
AcDbEntity
  8
実線
100
AcDbLine
 10
607.4443815017775
 20
363.6370363918686
 30
0.0
 11
607.4443815017775
 21
377.1370363918686
 31
0.0
  0
LINE
  5
487
102
{ACAD_REACTORS
330
56F
102
}
330
1F
100
AcDbEntity
  8
実線
100
AcDbLine
 10
553.8244372018958
 20
363.6370363918686
 30
0.0
 11
553.8244372018958
 21
377.1370363918686
 31
0.0
  0
LINE
  5
488
102
{ACAD_REACTORS
330
56F
102
}
330
1F
100
AcDbEntity
  8
実線
100
AcDbLine
 10
508.1344093518368
 20
482.1370363918683
 30
0.0
 11
653.1344093518367
 21
482.1370363918683
 31
0.0
  0
LINE
  5
489
102
{ACAD_REACTORS
330
56F
102
}
330
1F
100
AcDbEntity
  8
実線
100
AcDbLine
 10
653.1344093518367
 20
583.1370363918686
 30
0.0
 11
508.1344093518368
 21
583.1370363918686
 31
0.0
  0
LINE
  5
48A
102
{ACAD_REACTORS
330
56F
102
}
330
1F
100
AcDbEntity
  8
実線
100
AcDbLine
 10
653.1344093518367
 20
482.1370363918683
 30
0.0
 11
653.1344093518367
 21
583.1370363918686
 31
0.0
  0
LINE
  5
48B
102
{ACAD_REACTORS
330
56F
102
}
330
1F
100
AcDbEntity
  8
実線
100
AcDbLine
 10
508.1344093518368
 20
583.1370363918686
 30
0.0
 11
508.1344093518368
 21
482.1370363918683
 31
0.0
  0
LINE
  5
48C
102
{ACAD_REACTORS
330
56F
102
}
330
1F
100
AcDbEntity
  8
実線
100
AcDbLine
 10
513.1344093518369
 20
480.1370363918685
 30
0.0
 11
648.1344093518366
 21
480.1370363918685
 31
0.0
  0
LINE
  5
48D
102
{ACAD_REACTORS
330
56F
102
}
330
1F
100
AcDbEntity
  8
実線
100
AcDbLine
 10
648.1344093518366
 20
480.1370363918685
 30
0.0
 11
648.1344093518366
 21
482.1370363918683
 31
0.0
  0
LINE
  5
48E
102
{ACAD_REACTORS
330
56F
102
}
330
1F
100
AcDbEntity
  8
実線
100
AcDbLine
 10
513.1344093518369
 20
482.1370363918683
 30
0.0
 11
513.1344093518369
 21
480.1370363918685
 31
0.0
  0
LINE
  5
48F
102
{ACAD_REACTORS
330
56F
102
}
330
1F
100
AcDbEntity
  8
実線
100
AcDbLine
 10
594.1344093518369
 20
415.1370363918683
 30
0.0
 11
630.6344093518366
 21
415.1370363918683
 31
0.0
  0
LINE
  5
490
102
{ACAD_REACTORS
330
56F
102
}
330
1F
100
AcDbEntity
  8
実線
100
AcDbLine
 10
630.6344093518366
 20
415.1370363918683
 30
0.0
 11
630.6344093518366
 21
480.1370363918685
 31
0.0
  0
LINE
  5
491
102
{ACAD_REACTORS
330
56F
102
}
330
1F
100
AcDbEntity
  8
実線
100
AcDbLine
 10
530.6344093518369
 20
480.1370363918685
 30
0.0
 11
530.6344093518369
 21
415.1370363918683
 31
0.0
  0
LINE
  5
492
102
{ACAD_REACTORS
330
56F
102
}
330
1F
100
AcDbEntity
  8
実線
100
AcDbLine
 10
530.6344093518369
 20
415.1370363918683
 30
0.0
 11
567.1344093518369
 21
415.1370363918683
 31
0.0
  0
LINE
  5
493
102
{ACAD_REACTORS
330
56F
102
}
330
1F
100
AcDbEntity
  8
実線
100
AcDbLine
 10
594.1344093518369
 20
377.1370363918686
 30
0.0
 11
594.1344093518369
 21
480.1370363918685
 31
0.0
  0
LINE
  5
494
102
{ACAD_REACTORS
330
56F
102
}
330
1F
100
AcDbEntity
  8
実線
100
AcDbLine
 10
567.1344093518369
 20
377.1370363918686
 30
0.0
 11
567.1344093518369
 21
480.1370363918685
 31
0.0
  0
LINE
  5
495
102
{ACAD_REACTORS
330
56F
102
}
330
1F
100
AcDbEntity
  8
実線
100
AcDbLine
 10
635.6344093518466
 20
303.1370363918684
 30
0.0
 11
635.6344093518466
 21
348.6370363918684
 31
0.0
  0
LINE
  5
496
102
{ACAD_REACTORS
330
56F
102
}
330
1F
100
AcDbEntity
  8
実線
100
AcDbLine
 10
525.6344093518473
 20
348.6370363918684
 30
0.0
 11
525.6344093518473
 21
303.1370363918684
 31
0.0
  0
LINE
  5
497
102
{ACAD_REACTORS
330
56F
102
}
330
1F
100
AcDbEntity
  8
実線
100
AcDbLine
 10
566.2969583928871
 20
287.1370363918686
 30
0.0
 11
541.6344093518469
 21
287.1370363918686
 31
0.0
  0
LINE
  5
498
102
{ACAD_REACTORS
330
56F
102
}
330
1F
100
AcDbEntity
  8
実線
100
AcDbLine
 10
619.6344093518466
 20
287.1370363918686
 30
0.0
 11
594.9718603107667
 21
287.1370363918686
 31
0.0
  0
ARC
  5
499
102
{ACAD_REACTORS
330
56F
102
}
330
1F
100
AcDbEntity
  8
実線
100
AcDbCircle
 10
541.6344093518469
 20
303.1370363918684
 30
0.0
 40
16.0
100
AcDbArc
 50
180.0
 51
270.0
  0
ARC
  5
49A
102
{ACAD_REACTORS
330
56F
102
}
330
1F
100
AcDbEntity
  8
実線
100
AcDbCircle
 10
619.6344093518466
 20
303.1370363918684
 30
0.0
 40
16.0
100
AcDbArc
 50
270.0
 51
0.0
  0
LINE
  5
49B
102
{ACAD_REACTORS
330
56F
102
}
330
1F
100
AcDbEntity
  8
実線
100
AcDbLine
 10
641.4140985296856
 20
348.6370363918684
 30
0.0
 11
641.4140985296856
 21
363.6370363918686
 31
0.0
  0
LINE
  5
49C
102
{ACAD_REACTORS
330
56F
102
}
330
1F
100
AcDbEntity
  8
実線
100
AcDbLine
 10
641.4140985296856
 20
348.6370363918684
 30
0.0
 11
609.8116693328456
 21
348.6370363918684
 31
0.0
  0
LINE
  5
49D
102
{ACAD_REACTORS
330
56F
102
}
330
1F
100
AcDbEntity
  8
実線
100
AcDbLine
 10
519.8547201740077
 20
348.6370363918684
 30
0.0
 11
551.4571493708074
 21
348.6370363918684
 31
0.0
  0
LINE
  5
49E
102
{ACAD_REACTORS
330
56F
102
}
330
1F
100
AcDbEntity
  8
実線
100
AcDbLine
 10
519.8547201740077
 20
363.6370363918686
 30
0.0
 11
519.8547201740077
 21
348.6370363918684
 31
0.0
  0
LINE
  5
49F
102
{ACAD_REACTORS
330
56F
102
}
330
1F
100
AcDbEntity
  8
実線
100
AcDbLine
 10
607.4443815017876
 20
351.1153832572266
 30
0.0
 11
607.4443815017876
 21
363.6370363918686
 31
0.0
  0
LINE
  5
4A0
102
{ACAD_REACTORS
330
56F
102
}
330
1F
100
AcDbEntity
  8
実線
100
AcDbLine
 10
553.8244372019058
 20
351.1153832572653
 30
0.0
 11
553.8244372019058
 21
363.6370363918686
 31
0.0
  0
LINE
  5
4A1
102
{ACAD_REACTORS
330
56F
102
}
330
1F
100
AcDbEntity
  8
実線
100
AcDbLine
 10
557.6344093518368
 20
603.1370363918686
 30
0.0
 11
605.6344093518366
 21
603.1370363918686
 31
0.0
  0
LINE
  5
4A2
102
{ACAD_REACTORS
330
56F
102
}
330
1F
100
AcDbEntity
  8
実線
100
AcDbLine
 10
559.6344093518369
 20
605.137036391821
 30
0.0
 11
605.6344093518366
 21
605.137036391821
 31
0.0
  0
LINE
  5
4A3
102
{ACAD_REACTORS
330
56F
102
}
330
1F
100
AcDbEntity
  8
実線
100
AcDbLine
 10
559.6344093518369
 20
642.0870363918687
 30
0.0
 11
559.6344093518369
 21
643.1370363918686
 31
0.0
  0
LINE
  5
4A4
102
{ACAD_REACTORS
330
56F
102
}
330
1F
100
AcDbEntity
  8
実線
100
AcDbLine
 10
559.6344093518369
 20
626.0870363918686
 30
0.0
 11
559.6344093518369
 21
634.1870363918685
 31
0.0
  0
LINE
  5
4A5
102
{ACAD_REACTORS
330
56F
102
}
330
1F
100
AcDbEntity
  8
実線
100
AcDbLine
 10
559.6344093518369
 20
605.137036391821
 30
0.0
 11
559.6344093518369
 21
618.1870363918685
 31
0.0
  0
LINE
  5
4A6
102
{ACAD_REACTORS
330
56F
102
}
330
1F
100
AcDbEntity
  8
実線
100
AcDbLine
 10
559.6344093518369
 20
643.1370363918686
 30
0.0
 11
557.6344093518368
 21
643.1370363918686
 31
0.0
  0
LINE
  5
4A7
102
{ACAD_REACTORS
330
56F
102
}
330
1F
100
AcDbEntity
  8
実線
100
AcDbLine
 10
557.6344093518368
 20
603.1370363918686
 30
0.0
 11
557.6344093518368
 21
643.1370363918686
 31
0.0
  0
LINE
  5
4A8
102
{ACAD_REACTORS
330
56F
102
}
330
1F
100
AcDbEntity
  8
実線
100
AcDbLine
 10
560.634409351855
 20
603.1370363918686
 30
0.0
 11
560.634409351855
 21
605.137036391821
 31
0.0
  0
LINE
  5
4A9
102
{ACAD_REACTORS
330
56F
102
}
330
1F
100
AcDbEntity
  8
実線
100
AcDbLine
 10
605.6344093518366
 20
603.1370363918686
 30
0.0
 11
605.6344093518366
 21
605.1370363918685
 31
0.0
  0
LINE
  5
4AA
102
{ACAD_REACTORS
330
56F
102
}
330
1F
100
AcDbEntity
  8
実線
100
AcDbLine
 10
650.1344093518366
 20
588.1370363918685
 30
0.0
 11
511.1344093518368
 21
588.1370363918685
 31
0.0
  0
ARC
  5
4AB
102
{ACAD_REACTORS
330
56F
102
}
330
1F
100
AcDbEntity
  8
実線
100
AcDbCircle
 10
650.1344093518366
 20
585.1370363918686
 30
0.0
 40
3.0
100
AcDbArc
 50
0.0
 51
90.0
  0
ARC
  5
4AC
102
{ACAD_REACTORS
330
56F
102
}
330
1F
100
AcDbEntity
  8
実線
100
AcDbCircle
 10
511.1344093518368
 20
585.1370363918686
 30
0.0
 40
3.0
100
AcDbArc
 50
90.0
 51
180.0
  0
LINE
  5
4AD
102
{ACAD_REACTORS
330
56F
102
}
330
1F
100
AcDbEntity
  8
実線
100
AcDbLine
 10
653.1344093518367
 20
583.1370363918686
 30
0.0
 11
653.1344093518367
 21
585.1370363918686
 31
0.0
  0
LINE
  5
4AE
102
{ACAD_REACTORS
330
56F
102
}
330
1F
100
AcDbEntity
  8
実線
100
AcDbLine
 10
508.1344093518368
 20
585.1370363918686
 30
0.0
 11
508.1344093518368
 21
583.1370363918686
 31
0.0
  0
CIRCLE
  5
4AF
102
{ACAD_REACTORS
330
572
102
}
330
1F
100
AcDbEntity
  8
実線
100
AcDbCircle
 10
100.6344093518369
 20
323.1370363918685
 30
0.0
 40
38.75
  0
LINE
  5
4B0
102
{ACAD_REACTORS
330
572
102
}
330
1F
100
AcDbEntity
  8
実線
100
AcDbLine
 10
132.3844093518367
 20
224.7370363918685
 30
0.0
 11
132.3844093518367
 21
287.1370363918684
 31
0.0
  0
LINE
  5
4B1
102
{ACAD_REACTORS
330
572
102
}
330
1F
100
AcDbEntity
  8
実線
100
AcDbLine
 10
68.88440935183689
 20
287.1370363918684
 30
0.0
 11
68.88440935183689
 21
224.7370363918685
 31
0.0
  0
LINE
  5
4B2
102
{ACAD_REACTORS
330
572
102
}
330
1F
100
AcDbEntity
  8
実線
100
AcDbLine
 10
139.3844093518369
 20
218.1370363918686
 30
0.0
 11
139.3844093518369
 21
221.6370363918685
 31
0.0
  0
LINE
  5
4B3
102
{ACAD_REACTORS
330
572
102
}
330
1F
100
AcDbEntity
  8
実線
100
AcDbLine
 10
61.88440935183689
 20
221.6370363918685
 30
0.0
 11
61.88440935183689
 21
218.1370363918686
 31
0.0
  0
LINE
  5
4B4
102
{ACAD_REACTORS
330
572
102
}
330
1F
100
AcDbEntity
  8
実線
100
AcDbLine
 10
61.88440935183689
 20
218.1370363918686
 30
0.0
 11
139.3844093518369
 21
218.1370363918686
 31
0.0
  0
LINE
  5
4B5
102
{ACAD_REACTORS
330
572
102
}
330
1F
100
AcDbEntity
  8
実線
100
AcDbLine
 10
68.88440935183689
 20
224.7370363918685
 30
0.0
 11
61.88440935183689
 21
221.6370363918685
 31
0.0
  0
LINE
  5
4B6
102
{ACAD_REACTORS
330
572
102
}
330
1F
100
AcDbEntity
  8
実線
100
AcDbLine
 10
139.3844093518369
 20
221.6370363918685
 30
0.0
 11
132.3844093518367
 21
224.7370363918685
 31
0.0
  0
LINE
  5
4B7
102
{ACAD_REACTORS
330
572
102
}
330
1F
100
AcDbEntity
  8
実線
100
AcDbLine
 10
61.88440935183689
 20
221.6370363918685
 30
0.0
 11
139.3844093518369
 21
221.6370363918685
 31
0.0
  0
LINE
  5
4B8
102
{ACAD_REACTORS
330
572
102
}
330
1F
100
AcDbEntity
  8
実線
100
AcDbLine
 10
68.88440935183689
 20
224.7370363918685
 30
0.0
 11
132.3844093518367
 21
224.7370363918685
 31
0.0
  0
LINE
  5
4B9
102
{ACAD_REACTORS
330
572
102
}
330
1F
100
AcDbEntity
  8
実線
100
AcDbLine
 10
146.634409351847
 20
588.1370363918685
 30
0.0
 11
146.634409351847
 21
598.1370363918686
 31
0.0
  0
LINE
  5
4BA
102
{ACAD_REACTORS
330
572
102
}
330
1F
100
AcDbEntity
  8
実線
100
AcDbLine
 10
54.63440935184696
 20
598.1370363918686
 30
0.0
 11
54.63440935184696
 21
588.1370363918685
 31
0.0
  0
LINE
  5
4BB
102
{ACAD_REACTORS
330
572
102
}
330
1F
100
AcDbEntity
  8
実線
100
AcDbLine
 10
146.634409351847
 20
598.1370363918686
 30
0.0
 11
54.63440935184696
 21
598.1370363918686
 31
0.0
  0
LINE
  5
4BC
102
{ACAD_REACTORS
330
572
102
}
330
1F
100
AcDbEntity
  8
実線
100
AcDbLine
 10
108.634409351847
 20
605.1370363918685
 30
0.0
 11
108.634409351847
 21
635.6370363918686
 31
0.0
  0
LINE
  5
4BD
102
{ACAD_REACTORS
330
572
102
}
330
1F
100
AcDbEntity
  8
実線
100
AcDbLine
 10
92.63440935184702
 20
635.6370363918686
 30
0.0
 11
92.63440935184702
 21
605.1370363918685
 31
0.0
  0
LINE
  5
4BE
102
{ACAD_REACTORS
330
572
102
}
330
1F
100
AcDbEntity
  8
実線
100
AcDbLine
 10
121.6344093518469
 20
634.1870363918685
 30
0.0
 11
113.7344093518469
 21
634.1870363918685
 31
0.0
  0
LINE
  5
4BF
102
{ACAD_REACTORS
330
572
102
}
330
1F
100
AcDbEntity
  8
実線
100
AcDbLine
 10
113.7344093518469
 20
642.0870363918687
 30
0.0
 11
121.6344093518469
 21
642.0870363918687
 31
0.0
  0
LINE
  5
4C0
102
{ACAD_REACTORS
330
572
102
}
330
1F
100
AcDbEntity
  8
実線
100
AcDbLine
 10
113.7344093518469
 20
634.1870363918685
 30
0.0
 11
113.7344093518469
 21
642.0870363918687
 31
0.0
  0
LINE
  5
4C1
102
{ACAD_REACTORS
330
572
102
}
330
1F
100
AcDbEntity
  8
実線
100
AcDbLine
 10
125.6344093518469
 20
598.1370363918686
 30
0.0
 11
125.6344093518469
 21
603.1370363918686
 31
0.0
  0
LINE
  5
4C2
102
{ACAD_REACTORS
330
572
102
}
330
1F
100
AcDbEntity
  8
実線
100
AcDbLine
 10
75.63440935184701
 20
603.1370363918686
 30
0.0
 11
75.63440935184701
 21
598.1370363918686
 31
0.0
  0
LINE
  5
4C3
102
{ACAD_REACTORS
330
572
102
}
330
1F
100
AcDbEntity
  8
実線
100
AcDbLine
 10
75.63440935184701
 20
603.1370363918686
 30
0.0
 11
125.6344093518469
 21
603.1370363918686
 31
0.0
  0
LINE
  5
4C4
102
{ACAD_REACTORS
330
572
102
}
330
1F
100
AcDbEntity
  8
実線
100
AcDbLine
 10
113.7344093518469
 20
618.1870363918685
 30
0.0
 11
113.7344093518469
 21
626.0870363918686
 31
0.0
  0
LINE
  5
4C5
102
{ACAD_REACTORS
330
572
102
}
330
1F
100
AcDbEntity
  8
実線
100
AcDbLine
 10
121.6344093518469
 20
618.1870363918685
 30
0.0
 11
113.7344093518469
 21
618.1870363918685
 31
0.0
  0
LINE
  5
4C6
102
{ACAD_REACTORS
330
572
102
}
330
1F
100
AcDbEntity
  8
実線
100
AcDbLine
 10
113.7344093518469
 20
626.0870363918686
 30
0.0
 11
121.6344093518469
 21
626.0870363918686
 31
0.0
  0
LINE
  5
4C7
102
{ACAD_REACTORS
330
572
102
}
330
1F
100
AcDbEntity
  8
実線
100
AcDbLine
 10
113.134409351847
 20
635.6370363918686
 30
0.0
 11
113.134409351847
 21
640.6370363918686
 31
0.0
  0
LINE
  5
4C8
102
{ACAD_REACTORS
330
572
102
}
330
1F
100
AcDbEntity
  8
実線
100
AcDbLine
 10
88.13440935184701
 20
640.6370363918686
 30
0.0
 11
88.13440935184701
 21
635.6370363918686
 31
0.0
  0
LINE
  5
4C9
102
{ACAD_REACTORS
330
572
102
}
330
1F
100
AcDbEntity
  8
実線
100
AcDbLine
 10
113.134409351847
 20
640.6370363918686
 30
0.0
 11
88.13440935184701
 21
640.6370363918686
 31
0.0
  0
LINE
  5
4CA
102
{ACAD_REACTORS
330
572
102
}
330
1F
100
AcDbEntity
  8
実線
100
AcDbLine
 10
88.13440935184701
 20
635.6370363918686
 30
0.0
 11
113.134409351847
 21
635.6370363918686
 31
0.0
  0
LINE
  5
4CB
102
{ACAD_REACTORS
330
572
102
}
330
1F
100
AcDbEntity
  8
実線
100
AcDbLine
 10
108.134409351847
 20
640.6370363918686
 30
0.0
 11
108.134409351847
 21
645.9370363918686
 31
0.0
  0
LINE
  5
4CC
102
{ACAD_REACTORS
330
572
102
}
330
1F
100
AcDbEntity
  8
実線
100
AcDbLine
 10
93.13440935184701
 20
645.9370363918686
 30
0.0
 11
93.13440935184701
 21
640.6370363918686
 31
0.0
  0
LINE
  5
4CD
102
{ACAD_REACTORS
330
572
102
}
330
1F
100
AcDbEntity
  8
実線
100
AcDbLine
 10
108.134409351847
 20
645.9370363918686
 30
0.0
 11
93.13440935184701
 21
645.9370363918686
 31
0.0
  0
LINE
  5
4CE
102
{ACAD_REACTORS
330
572
102
}
330
1F
100
AcDbEntity
  8
実線
100
AcDbLine
 10
39.85472017400821
 20
377.1370363918686
 30
0.0
 11
161.4140985296858
 21
377.1370363918686
 31
0.0
  0
LINE
  5
4CF
102
{ACAD_REACTORS
330
572
102
}
330
1F
100
AcDbEntity
  8
実線
100
AcDbLine
 10
161.4140985296858
 20
363.6370363918686
 30
0.0
 11
161.4140985296858
 21
377.1370363918686
 31
0.0
  0
LINE
  5
4D0
102
{ACAD_REACTORS
330
572
102
}
330
1F
100
AcDbEntity
  8
実線
100
AcDbLine
 10
39.85472017400821
 20
377.1370363918686
 30
0.0
 11
39.85472017400821
 21
363.6370363918686
 31
0.0
  0
LINE
  5
4D1
102
{ACAD_REACTORS
330
572
102
}
330
1F
100
AcDbEntity
  8
実線
100
AcDbLine
 10
127.4443815017881
 20
363.6370363918686
 30
0.0
 11
127.4443815017881
 21
377.1370363918686
 31
0.0
  0
LINE
  5
4D2
102
{ACAD_REACTORS
330
572
102
}
330
1F
100
AcDbEntity
  8
実線
100
AcDbLine
 10
73.82443720190576
 20
363.6370363918686
 30
0.0
 11
73.82443720190576
 21
377.1370363918686
 31
0.0
  0
LINE
  5
4D3
102
{ACAD_REACTORS
330
572
102
}
330
1F
100
AcDbEntity
  8
実線
100
AcDbLine
 10
173.134409351847
 20
482.1370363918683
 30
0.0
 11
173.134409351847
 21
583.1370363918686
 31
0.0
  0
LINE
  5
4D4
102
{ACAD_REACTORS
330
572
102
}
330
1F
100
AcDbEntity
  8
実線
100
AcDbLine
 10
28.13440935184696
 20
583.1370363918686
 30
0.0
 11
28.13440935184696
 21
482.1370363918683
 31
0.0
  0
LINE
  5
4D5
102
{ACAD_REACTORS
330
572
102
}
330
1F
100
AcDbEntity
  8
実線
100
AcDbLine
 10
173.134409351847
 20
482.1370363918683
 30
0.0
 11
28.13440935184696
 21
482.1370363918683
 31
0.0
  0
LINE
  5
4D6
102
{ACAD_REACTORS
330
572
102
}
330
1F
100
AcDbEntity
  8
実線
100
AcDbLine
 10
168.134409351847
 20
480.1370363918685
 30
0.0
 11
168.134409351847
 21
482.1370363918683
 31
0.0
  0
LINE
  5
4D7
102
{ACAD_REACTORS
330
572
102
}
330
1F
100
AcDbEntity
  8
実線
100
AcDbLine
 10
33.13440935184696
 20
482.1370363918683
 30
0.0
 11
33.13440935184696
 21
480.1370363918685
 31
0.0
  0
LINE
  5
4D8
102
{ACAD_REACTORS
330
572
102
}
330
1F
100
AcDbEntity
  8
実線
100
AcDbLine
 10
168.134409351847
 20
480.1370363918685
 30
0.0
 11
33.13440935184696
 21
480.1370363918685
 31
0.0
  0
LINE
  5
4D9
102
{ACAD_REACTORS
330
572
102
}
330
1F
100
AcDbEntity
  8
実線
100
AcDbLine
 10
50.63440935184695
 20
480.1370363918685
 30
0.0
 11
50.63440935184695
 21
415.1370363918683
 31
0.0
  0
LINE
  5
4DA
102
{ACAD_REACTORS
330
572
102
}
330
1F
100
AcDbEntity
  8
実線
100
AcDbLine
 10
50.63440935184695
 20
415.1370363918683
 30
0.0
 11
87.13440935184701
 21
415.1370363918683
 31
0.0
  0
LINE
  5
4DB
102
{ACAD_REACTORS
330
572
102
}
330
1F
100
AcDbEntity
  8
実線
100
AcDbLine
 10
114.134409351847
 20
415.1370363918683
 30
0.0
 11
150.634409351847
 21
415.1370363918683
 31
0.0
  0
LINE
  5
4DC
102
{ACAD_REACTORS
330
572
102
}
330
1F
100
AcDbEntity
  8
実線
100
AcDbLine
 10
150.634409351847
 20
415.1370363918683
 30
0.0
 11
150.634409351847
 21
480.1370363918685
 31
0.0
  0
LINE
  5
4DD
102
{ACAD_REACTORS
330
572
102
}
330
1F
100
AcDbEntity
  8
実線
100
AcDbLine
 10
87.13440935184701
 20
377.1370363918686
 30
0.0
 11
87.13440935184701
 21
480.1370363918685
 31
0.0
  0
LINE
  5
4DE
102
{ACAD_REACTORS
330
572
102
}
330
1F
100
AcDbEntity
  8
実線
100
AcDbLine
 10
114.134409351847
 20
377.1370363918686
 30
0.0
 11
114.134409351847
 21
480.1370363918685
 31
0.0
  0
LINE
  5
4DF
102
{ACAD_REACTORS
330
572
102
}
330
1F
100
AcDbEntity
  8
実線
100
AcDbLine
 10
86.29695839289718
 20
287.1370363918686
 30
0.0
 11
61.6344093518369
 21
287.1370363918686
 31
0.0
  0
LINE
  5
4E0
102
{ACAD_REACTORS
330
572
102
}
330
1F
100
AcDbEntity
  8
実線
100
AcDbLine
 10
139.6344093518369
 20
287.1370363918686
 30
0.0
 11
114.9718603107766
 21
287.1370363918686
 31
0.0
  0
ARC
  5
4E1
102
{ACAD_REACTORS
330
572
102
}
330
1F
100
AcDbEntity
  8
実線
100
AcDbCircle
 10
61.6344093518369
 20
303.1370363918684
 30
0.0
 40
16.0
100
AcDbArc
 50
180.0
 51
270.0
  0
ARC
  5
4E2
102
{ACAD_REACTORS
330
572
102
}
330
1F
100
AcDbEntity
  8
実線
100
AcDbCircle
 10
139.6344093518369
 20
303.1370363918684
 30
0.0
 40
16.0
100
AcDbArc
 50
270.0
 51
0.0
  0
LINE
  5
4E3
102
{ACAD_REACTORS
330
572
102
}
330
1F
100
AcDbEntity
  8
実線
100
AcDbLine
 10
39.85472017399798
 20
363.6370363918686
 30
0.0
 11
161.4140985296757
 21
363.6370363918686
 31
0.0
  0
LINE
  5
4E4
102
{ACAD_REACTORS
330
572
102
}
330
1F
100
AcDbEntity
  8
実線
100
AcDbLine
 10
155.6344093518369
 20
303.1370363918684
 30
0.0
 11
155.6344093518369
 21
348.6370363918684
 31
0.0
  0
LINE
  5
4E5
102
{ACAD_REACTORS
330
572
102
}
330
1F
100
AcDbEntity
  8
実線
100
AcDbLine
 10
45.63440935183689
 20
348.6370363918684
 30
0.0
 11
45.63440935183689
 21
303.1370363918684
 31
0.0
  0
LINE
  5
4E6
102
{ACAD_REACTORS
330
572
102
}
330
1F
100
AcDbEntity
  8
実線
100
AcDbLine
 10
161.4140985296757
 20
348.6370363918684
 30
0.0
 11
161.4140985296757
 21
363.6370363918686
 31
0.0
  0
LINE
  5
4E7
102
{ACAD_REACTORS
330
572
102
}
330
1F
100
AcDbEntity
  8
実線
100
AcDbLine
 10
161.4140985296757
 20
348.6370363918684
 30
0.0
 11
129.8116693328564
 21
348.6370363918684
 31
0.0
  0
LINE
  5
4E8
102
{ACAD_REACTORS
330
572
102
}
330
1F
100
AcDbEntity
  8
実線
100
AcDbLine
 10
39.85472017399798
 20
348.6370363918684
 30
0.0
 11
71.45714937081738
 21
348.6370363918684
 31
0.0
  0
LINE
  5
4E9
102
{ACAD_REACTORS
330
572
102
}
330
1F
100
AcDbEntity
  8
実線
100
AcDbLine
 10
39.85472017399798
 20
363.6370363918686
 30
0.0
 11
39.85472017399798
 21
348.6370363918684
 31
0.0
  0
LINE
  5
4EA
102
{ACAD_REACTORS
330
572
102
}
330
1F
100
AcDbEntity
  8
実線
100
AcDbLine
 10
127.444381501778
 20
351.115383257246
 30
0.0
 11
127.444381501778
 21
363.6370363918686
 31
0.0
  0
LINE
  5
4EB
102
{ACAD_REACTORS
330
572
102
}
330
1F
100
AcDbEntity
  8
実線
100
AcDbLine
 10
73.82443720189565
 20
351.115383257246
 30
0.0
 11
73.82443720189565
 21
363.6370363918686
 31
0.0
  0
LINE
  5
4EC
102
{ACAD_REACTORS
330
572
102
}
330
1F
100
AcDbEntity
  8
実線
100
AcDbLine
 10
121.6344093518469
 20
605.137036391821
 30
0.0
 11
75.63440935184701
 21
605.137036391821
 31
0.0
  0
LINE
  5
4ED
102
{ACAD_REACTORS
330
572
102
}
330
1F
100
AcDbEntity
  8
実線
100
AcDbLine
 10
123.6344093518469
 20
643.1370363918686
 30
0.0
 11
121.6344093518469
 21
643.1370363918686
 31
0.0
  0
LINE
  5
4EE
102
{ACAD_REACTORS
330
572
102
}
330
1F
100
AcDbEntity
  8
実線
100
AcDbLine
 10
123.6344093518469
 20
603.1370363918686
 30
0.0
 11
123.6344093518469
 21
643.1370363918686
 31
0.0
  0
LINE
  5
4EF
102
{ACAD_REACTORS
330
572
102
}
330
1F
100
AcDbEntity
  8
実線
100
AcDbLine
 10
121.6344093518469
 20
643.1370363918686
 30
0.0
 11
121.6344093518469
 21
605.137036391821
 31
0.0
  0
LINE
  5
4F0
102
{ACAD_REACTORS
330
572
102
}
330
1F
100
AcDbEntity
  8
実線
100
AcDbLine
 10
120.634409351847
 20
605.1370363918685
 30
0.0
 11
120.634409351847
 21
603.1370363918686
 31
0.0
  0
LINE
  5
4F1
102
{ACAD_REACTORS
330
572
102
}
330
1F
100
AcDbEntity
  8
実線
100
AcDbLine
 10
75.63440935184701
 20
605.1370363918685
 30
0.0
 11
75.63440935184701
 21
603.1370363918686
 31
0.0
  0
LINE
  5
4F2
102
{ACAD_REACTORS
330
572
102
}
330
1F
100
AcDbEntity
  8
実線
100
AcDbLine
 10
31.13440935184696
 20
588.1370363918685
 30
0.0
 11
170.134409351847
 21
588.1370363918685
 31
0.0
  0
ARC
  5
4F3
102
{ACAD_REACTORS
330
572
102
}
330
1F
100
AcDbEntity
  8
実線
100
AcDbCircle
 10
170.134409351847
 20
585.1370363918686
 30
0.0
 40
3.0
100
AcDbArc
 50
0.0
 51
90.0
  0
ARC
  5
4F4
102
{ACAD_REACTORS
330
572
102
}
330
1F
100
AcDbEntity
  8
実線
100
AcDbCircle
 10
31.13440935184696
 20
585.1370363918686
 30
0.0
 40
3.0
100
AcDbArc
 50
90.0
 51
180.0
  0
LINE
  5
4F5
102
{ACAD_REACTORS
330
572
102
}
330
1F
100
AcDbEntity
  8
実線
100
AcDbLine
 10
173.134409351847
 20
583.1370363918686
 30
0.0
 11
173.134409351847
 21
585.1370363918686
 31
0.0
  0
LINE
  5
4F6
102
{ACAD_REACTORS
330
572
102
}
330
1F
100
AcDbEntity
  8
実線
100
AcDbLine
 10
28.13440935184696
 20
585.1370363918686
 30
0.0
 11
28.13440935184696
 21
583.1370363918686
 31
0.0
  0
LINE
  5
4F7
102
{ACAD_REACTORS
330
572
102
}
330
1F
100
AcDbEntity
  8
実線
100
AcDbLine
 10
28.13440935184696
 20
583.1370363918686
 30
0.0
 11
173.134409351847
 21
583.1370363918686
 31
0.0
  0
LINE
  5
4F8
102
{ACAD_REACTORS
330
571
102
}
330
1F
100
AcDbEntity
  8
実線
100
AcDbLine
 10
439.0344093518359
 20
354.8870363918685
 30
0.0
 11
401.414098529676
 21
354.8870363918685
 31
0.0
  0
LINE
  5
4F9
102
{ACAD_REACTORS
330
571
102
}
330
1F
100
AcDbEntity
  8
実線
100
AcDbLine
 10
390.4943126663241
 20
291.3870363918686
 30
0.0
 11
439.0344093518359
 21
291.3870363918686
 31
0.0
  0
LINE
  5
4FA
102
{ACAD_REACTORS
330
571
102
}
330
1F
100
AcDbEntity
  8
実線
100
AcDbLine
 10
445.6344093518359
 20
284.3870363918685
 30
0.0
 11
445.6344093518359
 21
361.8870363918686
 31
0.0
  0
LINE
  5
4FB
102
{ACAD_REACTORS
330
571
102
}
330
1F
100
AcDbEntity
  8
実線
100
AcDbLine
 10
445.6344093518359
 20
361.8870363918686
 30
0.0
 11
442.1344093518359
 21
361.8870363918686
 31
0.0
  0
LINE
  5
4FC
102
{ACAD_REACTORS
330
571
102
}
330
1F
100
AcDbEntity
  8
実線
100
AcDbLine
 10
442.1344093518359
 20
284.3870363918685
 30
0.0
 11
445.6344093518359
 21
284.3870363918685
 31
0.0
  0
LINE
  5
4FD
102
{ACAD_REACTORS
330
571
102
}
330
1F
100
AcDbEntity
  8
実線
100
AcDbLine
 10
442.1344093518359
 20
284.3870363918685
 30
0.0
 11
442.1344093518359
 21
361.8870363918686
 31
0.0
  0
LINE
  5
4FE
102
{ACAD_REACTORS
330
571
102
}
330
1F
100
AcDbEntity
  8
実線
100
AcDbLine
 10
439.0344093518359
 20
291.3870363918686
 30
0.0
 11
439.0344093518359
 21
354.8870363918685
 31
0.0
  0
LINE
  5
4FF
102
{ACAD_REACTORS
330
571
102
}
330
1F
100
AcDbEntity
  8
実線
100
AcDbLine
 10
439.0344093518359
 20
291.3870363918686
 30
0.0
 11
442.1344093518359
 21
284.3870363918685
 31
0.0
  0
LINE
  5
500
102
{ACAD_REACTORS
330
571
102
}
330
1F
100
AcDbEntity
  8
実線
100
AcDbLine
 10
442.1344093518359
 20
361.8870363918686
 30
0.0
 11
439.0344093518359
 21
354.8870363918685
 31
0.0
  0
LINE
  5
501
102
{ACAD_REACTORS
330
571
102
}
330
1F
100
AcDbEntity
  8
実線
100
AcDbLine
 10
242.2344093518373
 20
291.3870363918686
 30
0.0
 11
290.7745060373506
 21
291.3870363918686
 31
0.0
  0
LINE
  5
502
102
{ACAD_REACTORS
330
571
102
}
330
1F
100
AcDbEntity
  8
実線
100
AcDbLine
 10
279.8547201739985
 20
354.8870363918685
 30
0.0
 11
242.2344093518373
 21
354.8870363918685
 31
0.0
  0
LINE
  5
503
102
{ACAD_REACTORS
330
571
102
}
330
1F
100
AcDbEntity
  8
実線
100
AcDbLine
 10
242.2344093518373
 20
354.8870363918685
 30
0.0
 11
239.1344093518373
 21
361.8870363918686
 31
0.0
  0
LINE
  5
504
102
{ACAD_REACTORS
330
571
102
}
330
1F
100
AcDbEntity
  8
実線
100
AcDbLine
 10
239.1344093518373
 20
284.3870363918685
 30
0.0
 11
242.2344093518373
 21
291.3870363918686
 31
0.0
  0
LINE
  5
505
102
{ACAD_REACTORS
330
571
102
}
330
1F
100
AcDbEntity
  8
実線
100
AcDbLine
 10
242.2344093518373
 20
354.8870363918685
 30
0.0
 11
242.2344093518373
 21
291.3870363918686
 31
0.0
  0
LINE
  5
506
102
{ACAD_REACTORS
330
571
102
}
330
1F
100
AcDbEntity
  8
実線
100
AcDbLine
 10
235.6344093518373
 20
284.3870363918685
 30
0.0
 11
239.1344093518373
 21
284.3870363918685
 31
0.0
  0
LINE
  5
507
102
{ACAD_REACTORS
330
571
102
}
330
1F
100
AcDbEntity
  8
実線
100
AcDbLine
 10
239.1344093518373
 20
361.8870363918686
 30
0.0
 11
235.6344093518373
 21
361.8870363918686
 31
0.0
  0
LINE
  5
508
102
{ACAD_REACTORS
330
571
102
}
330
1F
100
AcDbEntity
  8
実線
100
AcDbLine
 10
235.6344093518373
 20
284.3870363918685
 30
0.0
 11
235.6344093518373
 21
361.8870363918686
 31
0.0
  0
LINE
  5
509
102
{ACAD_REACTORS
330
571
102
}
330
1F
100
AcDbEntity
  8
実線
100
AcDbLine
 10
239.1344093518373
 20
284.3870363918685
 30
0.0
 11
239.1344093518373
 21
361.8870363918686
 31
0.0
  0
LINE
  5
50A
102
{ACAD_REACTORS
330
571
102
}
330
1F
100
AcDbEntity
  8
実線
100
AcDbLine
 10
372.3844093518374
 20
224.7370363918686
 30
0.0
 11
372.3844093518374
 21
287.1370363918685
 31
0.0
  0
LINE
  5
50B
102
{ACAD_REACTORS
330
571
102
}
330
1F
100
AcDbEntity
  8
実線
100
AcDbLine
 10
308.8844093518373
 20
287.1370363918685
 30
0.0
 11
308.8844093518373
 21
224.7370363918686
 31
0.0
  0
LINE
  5
50C
102
{ACAD_REACTORS
330
571
102
}
330
1F
100
AcDbEntity
  8
実線
100
AcDbLine
 10
308.8844093518373
 20
224.7370363918686
 30
0.0
 11
301.8844093518374
 21
221.6370363918686
 31
0.0
  0
LINE
  5
50D
102
{ACAD_REACTORS
330
571
102
}
330
1F
100
AcDbEntity
  8
実線
100
AcDbLine
 10
379.3844093518373
 20
221.6370363918686
 30
0.0
 11
372.3844093518374
 21
224.7370363918686
 31
0.0
  0
LINE
  5
50E
102
{ACAD_REACTORS
330
571
102
}
330
1F
100
AcDbEntity
  8
実線
100
AcDbLine
 10
308.8844093518373
 20
224.7370363918686
 30
0.0
 11
372.3844093518374
 21
224.7370363918686
 31
0.0
  0
LINE
  5
50F
102
{ACAD_REACTORS
330
571
102
}
330
1F
100
AcDbEntity
  8
実線
100
AcDbLine
 10
379.3844093518373
 20
218.1370363918686
 30
0.0
 11
379.3844093518373
 21
221.6370363918686
 31
0.0
  0
LINE
  5
510
102
{ACAD_REACTORS
330
571
102
}
330
1F
100
AcDbEntity
  8
実線
100
AcDbLine
 10
301.8844093518373
 20
221.6370363918686
 30
0.0
 11
301.8844093518373
 21
218.1370363918686
 31
0.0
  0
LINE
  5
511
102
{ACAD_REACTORS
330
571
102
}
330
1F
100
AcDbEntity
  8
実線
100
AcDbLine
 10
379.3844093518373
 20
218.1370363918686
 30
0.0
 11
301.8844093518373
 21
218.1370363918686
 31
0.0
  0
LINE
  5
512
102
{ACAD_REACTORS
330
571
102
}
330
1F
100
AcDbEntity
  8
実線
100
AcDbLine
 10
379.3844093518373
 20
221.6370363918686
 30
0.0
 11
301.8844093518373
 21
221.6370363918686
 31
0.0
  0
LINE
  5
513
102
{ACAD_REACTORS
330
571
102
}
330
1F
100
AcDbEntity
  8
実線
100
AcDbLine
 10
386.6344093518367
 20
588.1370363918687
 30
0.0
 11
386.6344093518367
 21
598.1370363918687
 31
0.0
  0
LINE
  5
514
102
{ACAD_REACTORS
330
571
102
}
330
1F
100
AcDbEntity
  8
実線
100
AcDbLine
 10
294.6344093518367
 20
598.1370363918687
 30
0.0
 11
294.6344093518367
 21
588.1370363918687
 31
0.0
  0
LINE
  5
515
102
{ACAD_REACTORS
330
571
102
}
330
1F
100
AcDbEntity
  8
実線
100
AcDbLine
 10
386.6344093518367
 20
598.1370363918687
 30
0.0
 11
294.6344093518367
 21
598.1370363918687
 31
0.0
  0
LINE
  5
516
102
{ACAD_REACTORS
330
571
102
}
330
1F
100
AcDbEntity
  8
実線
100
AcDbLine
 10
332.6344093518367
 20
635.6370363918687
 30
0.0
 11
332.6344093518367
 21
605.1370363918687
 31
0.0
  0
LINE
  5
517
102
{ACAD_REACTORS
330
571
102
}
330
1F
100
AcDbEntity
  8
実線
100
AcDbLine
 10
355.6344093518366
 20
634.1870363918687
 30
0.0
 11
360.6344093518368
 21
634.1870363918687
 31
0.0
  0
LINE
  5
518
102
{ACAD_REACTORS
330
571
102
}
330
1F
100
AcDbEntity
  8
実線
100
AcDbLine
 10
360.6344093518368
 20
634.1870363918687
 30
0.0
 11
360.6344093518368
 21
642.0870363918687
 31
0.0
  0
LINE
  5
519
102
{ACAD_REACTORS
330
571
102
}
330
1F
100
AcDbEntity
  8
実線
100
AcDbLine
 10
355.6344093518366
 20
642.0870363918687
 30
0.0
 11
360.6344093518368
 21
642.0870363918687
 31
0.0
  0
LINE
  5
51A
102
{ACAD_REACTORS
330
571
102
}
330
1F
100
AcDbEntity
  8
実線
100
AcDbLine
 10
365.6344093518367
 20
598.1370363918687
 30
0.0
 11
365.6344093518367
 21
603.1370363918687
 31
0.0
  0
LINE
  5
51B
102
{ACAD_REACTORS
330
571
102
}
330
1F
100
AcDbEntity
  8
実線
100
AcDbLine
 10
315.6344093518367
 20
603.1370363918687
 30
0.0
 11
315.6344093518367
 21
598.1370363918687
 31
0.0
  0
LINE
  5
51C
102
{ACAD_REACTORS
330
571
102
}
330
1F
100
AcDbEntity
  8
実線
100
AcDbLine
 10
315.6344093518367
 20
603.1370363918687
 30
0.0
 11
350.4323683229695
 21
603.1370363918687
 31
0.0
  0
LINE
  5
51D
102
{ACAD_REACTORS
330
571
102
}
330
1F
100
AcDbEntity
  8
実線
100
AcDbLine
 10
367.1344093518367
 20
639.6370363918687
 30
0.0
 11
367.1344093518367
 21
636.6370363918687
 31
0.0
  0
LINE
  5
51E
102
{ACAD_REACTORS
330
571
102
}
330
1F
100
AcDbEntity
  8
実線
100
AcDbLine
 10
360.6344093518368
 20
636.6370363918687
 30
0.0
 11
367.1344093518367
 21
636.6370363918687
 31
0.0
  0
LINE
  5
51F
102
{ACAD_REACTORS
330
571
102
}
330
1F
100
AcDbEntity
  8
実線
100
AcDbLine
 10
367.1344093518367
 20
639.6370363918687
 30
0.0
 11
360.6344093518368
 21
639.6370363918687
 31
0.0
  0
LINE
  5
520
102
{ACAD_REACTORS
330
571
102
}
330
1F
100
AcDbEntity
  8
実線
100
AcDbLine
 10
355.6344093518366
 20
626.0870363918686
 30
0.0
 11
360.6344093518368
 21
626.0870363918686
 31
0.0
  0
LINE
  5
521
102
{ACAD_REACTORS
330
571
102
}
330
1F
100
AcDbEntity
  8
実線
100
AcDbLine
 10
355.6344093518366
 20
618.1870363918685
 30
0.0
 11
360.6344093518368
 21
618.1870363918685
 31
0.0
  0
LINE
  5
522
102
{ACAD_REACTORS
330
571
102
}
330
1F
100
AcDbEntity
  8
実線
100
AcDbLine
 10
360.6344093518368
 20
618.1870363918685
 30
0.0
 11
360.6344093518368
 21
626.0870363918686
 31
0.0
  0
LINE
  5
523
102
{ACAD_REACTORS
330
571
102
}
330
1F
100
AcDbEntity
  8
実線
100
AcDbLine
 10
367.1344093518367
 20
623.6370363918685
 30
0.0
 11
367.1344093518367
 21
620.6370363918686
 31
0.0
  0
LINE
  5
524
102
{ACAD_REACTORS
330
571
102
}
330
1F
100
AcDbEntity
  8
実線
100
AcDbLine
 10
360.6344093518368
 20
620.6370363918686
 30
0.0
 11
367.1344093518367
 21
620.6370363918686
 31
0.0
  0
LINE
  5
525
102
{ACAD_REACTORS
330
571
102
}
330
1F
100
AcDbEntity
  8
実線
100
AcDbLine
 10
367.1344093518367
 20
623.6370363918685
 30
0.0
 11
360.6344093518368
 21
623.6370363918685
 31
0.0
  0
LINE
  5
526
102
{ACAD_REACTORS
330
571
102
}
330
1F
100
AcDbEntity
  8
実線
100
AcDbLine
 10
328.1344093518367
 20
640.6370363918687
 30
0.0
 11
328.1344093518367
 21
635.6370363918687
 31
0.0
  0
LINE
  5
527
102
{ACAD_REACTORS
330
571
102
}
330
1F
100
AcDbEntity
  8
実線
100
AcDbLine
 10
335.6344093518368
 20
640.6370363918687
 30
0.0
 11
328.1344093518367
 21
640.6370363918687
 31
0.0
  0
LINE
  5
528
102
{ACAD_REACTORS
330
571
102
}
330
1F
100
AcDbEntity
  8
実線
100
AcDbLine
 10
335.6344093518368
 20
635.6370363918687
 30
0.0
 11
328.1344093518367
 21
635.6370363918687
 31
0.0
  0
LINE
  5
529
102
{ACAD_REACTORS
330
571
102
}
330
1F
100
AcDbEntity
  8
実線
100
AcDbLine
 10
348.1344093518365
 20
643.1370363918687
 30
0.0
 11
348.1344093518365
 21
645.9370363918686
 31
0.0
  0
LINE
  5
52A
102
{ACAD_REACTORS
330
571
102
}
330
1F
100
AcDbEntity
  8
実線
100
AcDbLine
 10
333.1344093518367
 20
645.9370363918686
 30
0.0
 11
333.1344093518367
 21
640.6370363918687
 31
0.0
  0
LINE
  5
52B
102
{ACAD_REACTORS
330
571
102
}
330
1F
100
AcDbEntity
  8
実線
100
AcDbLine
 10
348.1344093518365
 20
645.9370363918686
 30
0.0
 11
333.1344093518367
 21
645.9370363918686
 31
0.0
  0
LINE
  5
52C
102
{ACAD_REACTORS
330
571
102
}
330
1F
100
AcDbEntity
  8
実線
100
AcDbLine
 10
401.4140985296754
 20
377.1370363918686
 30
0.0
 11
279.8547201739983
 21
377.1370363918686
 31
0.0
  0
LINE
  5
52D
102
{ACAD_REACTORS
330
571
102
}
330
1F
100
AcDbEntity
  8
実線
100
AcDbLine
 10
401.4140985296754
 20
363.6370363918686
 30
0.0
 11
279.8547201739983
 21
363.6370363918686
 31
0.0
  0
LINE
  5
52E
102
{ACAD_REACTORS
330
571
102
}
330
1F
100
AcDbEntity
  8
実線
100
AcDbLine
 10
279.8547201739983
 20
377.1370363918686
 30
0.0
 11
279.8547201739983
 21
363.6370363918686
 31
0.0
  0
LINE
  5
52F
102
{ACAD_REACTORS
330
571
102
}
330
1F
100
AcDbEntity
  8
実線
100
AcDbLine
 10
401.4140985296754
 20
363.6370363918686
 30
0.0
 11
401.4140985296754
 21
377.1370363918686
 31
0.0
  0
LINE
  5
530
102
{ACAD_REACTORS
330
571
102
}
330
1F
100
AcDbEntity
  8
実線
100
AcDbLine
 10
313.8244372018954
 20
363.6370363918686
 30
0.0
 11
313.8244372018954
 21
377.1370363918686
 31
0.0
  0
LINE
  5
531
102
{ACAD_REACTORS
330
571
102
}
330
1F
100
AcDbEntity
  8
実線
100
AcDbLine
 10
367.444381501778
 20
363.6370363918686
 30
0.0
 11
367.444381501778
 21
377.1370363918686
 31
0.0
  0
LINE
  5
532
102
{ACAD_REACTORS
330
571
102
}
330
1F
100
AcDbEntity
  8
実線
100
AcDbLine
 10
413.1344093518366
 20
482.1370363918685
 30
0.0
 11
268.1344093518366
 21
482.1370363918685
 31
0.0
  0
LINE
  5
533
102
{ACAD_REACTORS
330
571
102
}
330
1F
100
AcDbEntity
  8
実線
100
AcDbLine
 10
413.1344093518366
 20
482.1370363918685
 30
0.0
 11
413.1344093518366
 21
583.1370363918686
 31
0.0
  0
LINE
  5
534
102
{ACAD_REACTORS
330
571
102
}
330
1F
100
AcDbEntity
  8
実線
100
AcDbLine
 10
268.1344093518366
 20
583.1370363918686
 30
0.0
 11
268.1344093518366
 21
482.1370363918685
 31
0.0
  0
LINE
  5
535
102
{ACAD_REACTORS
330
571
102
}
330
1F
100
AcDbEntity
  8
実線
100
AcDbLine
 10
408.1344093518366
 20
480.1370363918685
 30
0.0
 11
273.1344093518367
 21
480.1370363918685
 31
0.0
  0
LINE
  5
536
102
{ACAD_REACTORS
330
571
102
}
330
1F
100
AcDbEntity
  8
実線
100
AcDbLine
 10
408.1344093518366
 20
480.1370363918685
 30
0.0
 11
408.1344093518366
 21
482.1370363918685
 31
0.0
  0
LINE
  5
537
102
{ACAD_REACTORS
330
571
102
}
330
1F
100
AcDbEntity
  8
実線
100
AcDbLine
 10
273.1344093518367
 20
482.1370363918685
 30
0.0
 11
273.1344093518367
 21
480.1370363918685
 31
0.0
  0
LINE
  5
538
102
{ACAD_REACTORS
330
571
102
}
330
1F
100
AcDbEntity
  8
実線
100
AcDbLine
 10
348.6344093518365
 20
377.1811329404667
 30
0.0
 11
348.6344093518365
 21
415.1370363918685
 31
0.0
  0
LINE
  5
539
102
{ACAD_REACTORS
330
571
102
}
330
1F
100
AcDbEntity
  8
実線
100
AcDbLine
 10
332.6344093518367
 20
415.1370363918685
 30
0.0
 11
332.6344093518367
 21
377.1811329404667
 31
0.0
  0
ARC
  5
53A
102
{ACAD_REACTORS
330
571
102
}
330
1F
100
AcDbEntity
  8
実線
100
AcDbCircle
 10
335.9344093518367
 20
428.6370363918686
 30
0.0
 40
66.99999999999993
100
AcDbArc
 50
309.7665840691617
 51
0.0
  0
LINE
  5
53B
102
{ACAD_REACTORS
330
571
102
}
330
1F
100
AcDbEntity
  8
実線
100
AcDbLine
 10
402.9344093518367
 20
480.1370363918685
 30
0.0
 11
402.9344093518365
 21
428.6370363918686
 31
0.0
  0
ARC
  5
53C
102
{ACAD_REACTORS
330
571
102
}
330
1F
100
AcDbEntity
  8
実線
100
AcDbCircle
 10
335.9344093518366
 20
428.6370363918686
 30
0.0
 40
53.0
100
AcDbArc
 50
283.6639089969493
 51
345.2431843936698
  0
LINE
  5
53D
102
{ACAD_REACTORS
330
571
102
}
330
1F
100
AcDbEntity
  8
実線
100
AcDbLine
 10
278.3344093518366
 20
480.1370363918685
 30
0.0
 11
278.3344093518366
 21
428.6370363918686
 31
0.0
  0
ARC
  5
53E
102
{ACAD_REACTORS
330
571
102
}
330
1F
100
AcDbEntity
  8
実線
100
AcDbCircle
 10
345.3344093518367
 20
428.6370363918686
 30
0.0
 40
66.99999999999993
100
AcDbArc
 50
180.0
 51
230.2334159308383
  0
ARC
  5
53F
102
{ACAD_REACTORS
330
571
102
}
330
1F
100
AcDbEntity
  8
実線
100
AcDbCircle
 10
345.3344093518367
 20
428.6370363918686
 30
0.0
 40
53.0
100
AcDbArc
 50
194.7568156063266
 51
256.3360910030507
  0
LINE
  5
540
102
{ACAD_REACTORS
330
571
102
}
330
1F
100
AcDbEntity
  8
実線
100
AcDbLine
 10
292.4913932435786
 20
415.1370363918685
 30
0.0
 11
388.777425460095
 21
415.1370363918685
 31
0.0
  0
LINE
  5
541
102
{ACAD_REACTORS
330
571
102
}
330
1F
100
AcDbEntity
  8
実線
100
AcDbLine
 10
388.777425460095
 20
415.1370363918685
 30
0.0
 11
388.777425460095
 21
480.1370363918685
 31
0.0
  0
LINE
  5
542
102
{ACAD_REACTORS
330
571
102
}
330
1F
100
AcDbEntity
  8
実線
100
AcDbLine
 10
292.4913932435786
 20
480.1370363918685
 30
0.0
 11
292.4913932435786
 21
415.1370363918685
 31
0.0
  0
LINE
  5
543
102
{ACAD_REACTORS
330
571
102
}
330
1F
100
AcDbEntity
  8
実線
100
AcDbLine
 10
379.6344093496015
 20
287.1370363918686
 30
0.0
 11
301.6344093518373
 21
287.1370363918686
 31
0.0
  0
ARC
  5
544
102
{ACAD_REACTORS
330
571
102
}
330
1F
100
AcDbEntity
  8
実線
100
AcDbCircle
 10
301.6344093518373
 20
303.1370363918685
 30
0.0
 40
16.0
100
AcDbArc
 50
227.2544307753439
 51
270.0
  0
ARC
  5
545
102
{ACAD_REACTORS
330
571
102
}
330
1F
100
AcDbEntity
  8
実線
100
AcDbCircle
 10
379.6344093518373
 20
303.1370363918685
 30
0.0
 40
16.0
100
AcDbArc
 50
270.0
 51
312.7455692246561
  0
LINE
  5
546
102
{ACAD_REACTORS
330
571
102
}
330
1F
100
AcDbEntity
  8
実線
100
AcDbLine
 10
279.8547201739989
 20
348.6370363918685
 30
0.0
 11
313.8244372018961
 21
348.6370363918685
 31
0.0
  0
LINE
  5
547
102
{ACAD_REACTORS
330
571
102
}
330
1F
100
AcDbEntity
  8
実線
100
AcDbLine
 10
279.8547201739989
 20
363.6370363918686
 30
0.0
 11
279.8547201739989
 21
348.6370363918685
 31
0.0
  0
LINE
  5
548
102
{ACAD_REACTORS
330
571
102
}
330
1F
100
AcDbEntity
  8
実線
100
AcDbLine
 10
401.4140985296761
 20
348.6370363918685
 30
0.0
 11
401.4140985296761
 21
363.6370363918686
 31
0.0
  0
LINE
  5
549
102
{ACAD_REACTORS
330
571
102
}
330
1F
100
AcDbEntity
  8
実線
100
AcDbLine
 10
401.4140985296761
 20
348.6370363918685
 30
0.0
 11
367.4443815017786
 21
348.6370363918685
 31
0.0
  0
LINE
  5
54A
102
{ACAD_REACTORS
330
571
102
}
330
1F
100
AcDbEntity
  8
実線
100
AcDbLine
 10
313.8244372018961
 20
348.6370363918685
 30
0.0
 11
313.8244372018961
 21
363.6370363918686
 31
0.0
  0
LINE
  5
54B
102
{ACAD_REACTORS
330
571
102
}
330
1F
100
AcDbEntity
  8
実線
100
AcDbLine
 10
367.4443815017786
 20
348.6370363918685
 30
0.0
 11
367.4443815017786
 21
363.6370363918686
 31
0.0
  0
LINE
  5
54C
102
{ACAD_REACTORS
330
571
102
}
330
1F
100
AcDbEntity
  8
実線
100
AcDbLine
 10
365.6344093518367
 20
603.1370363918687
 30
0.0
 11
350.4323683229695
 21
603.1370363918687
 31
0.0
  0
LINE
  5
54D
102
{ACAD_REACTORS
330
571
102
}
330
1F
100
AcDbEntity
  8
実線
100
AcDbLine
 10
315.6344093518367
 20
605.1370363918687
 30
0.0
 11
335.6344093518368
 21
605.1370363918687
 31
0.0
  0
LINE
  5
54E
102
{ACAD_REACTORS
330
571
102
}
330
1F
100
AcDbEntity
  8
実線
100
AcDbLine
 10
365.6344093518367
 20
603.1370363918687
 30
0.0
 11
365.6344093518367
 21
605.1370363918687
 31
0.0
  0
LINE
  5
54F
102
{ACAD_REACTORS
330
571
102
}
330
1F
100
AcDbEntity
  8
実線
100
AcDbLine
 10
315.6344093518367
 20
605.1370363918687
 30
0.0
 11
315.6344093518367
 21
603.1370363918687
 31
0.0
  0
LINE
  5
550
102
{ACAD_REACTORS
330
571
102
}
330
1F
100
AcDbEntity
  8
実線
100
AcDbLine
 10
365.6344093518367
 20
605.1370363918687
 30
0.0
 11
355.6344093518366
 21
605.1370363918212
 31
0.0
  0
LINE
  5
551
102
{ACAD_REACTORS
330
571
102
}
330
1F
100
AcDbEntity
  8
実線
100
AcDbLine
 10
325.6344093518367
 20
605.1370363918687
 30
0.0
 11
325.6344093518367
 21
603.1370363918687
 31
0.0
  0
LINE
  5
552
102
{ACAD_REACTORS
330
571
102
}
330
1F
100
AcDbEntity
  8
実線
100
AcDbLine
 10
355.6344093518366
 20
603.1370363918687
 30
0.0
 11
355.6344093518366
 21
643.1370363918687
 31
0.0
  0
LINE
  5
553
102
{ACAD_REACTORS
330
571
102
}
330
1F
100
AcDbEntity
  8
実線
100
AcDbLine
 10
335.6344093518365
 20
603.1370363918687
 30
0.0
 11
335.6344093518365
 21
643.1370363918687
 31
0.0
  0
LINE
  5
554
102
{ACAD_REACTORS
330
571
102
}
330
1F
100
AcDbEntity
  8
実線
100
AcDbLine
 10
355.6344093518366
 20
643.1370363918687
 30
0.0
 11
335.6344093518365
 21
643.1370363918687
 31
0.0
  0
LINE
  5
555
102
{ACAD_REACTORS
330
571
102
}
330
1F
100
AcDbEntity
  8
実線
100
AcDbLine
 10
271.1344093522926
 20
588.1370363918687
 30
0.0
 11
410.1344093518365
 21
588.1370363918687
 31
0.0
  0
ARC
  5
556
102
{ACAD_REACTORS
330
571
102
}
330
1F
100
AcDbEntity
  8
実線
100
AcDbCircle
 10
410.1344093518365
 20
585.1370363918687
 30
0.0
 40
3.0
100
AcDbArc
 50
0.0
 51
90.0
  0
ARC
  5
557
102
{ACAD_REACTORS
330
571
102
}
330
1F
100
AcDbEntity
  8
実線
100
AcDbCircle
 10
271.1344093518367
 20
585.1370363918687
 30
0.0
 40
3.0
100
AcDbArc
 50
90.0
 51
180.0
  0
LINE
  5
558
102
{ACAD_REACTORS
330
571
102
}
330
1F
100
AcDbEntity
  8
実線
100
AcDbLine
 10
413.1344093518366
 20
583.1370363918686
 30
0.0
 11
413.1344093518366
 21
585.1370363918687
 31
0.0
  0
LINE
  5
559
102
{ACAD_REACTORS
330
571
102
}
330
1F
100
AcDbEntity
  8
実線
100
AcDbLine
 10
268.1344093518366
 20
585.1370363918687
 30
0.0
 11
268.1344093518366
 21
583.1370363918686
 31
0.0
  0
LINE
  5
55A
102
{ACAD_REACTORS
330
571
102
}
330
1F
100
AcDbEntity
  8
実線
100
AcDbLine
 10
413.1344093518366
 20
583.1370363918686
 30
0.0
 11
268.1344093518366
 21
583.1370363918686
 31
0.0
  0
LINE
  5
55B
102
{ACAD_REACTORS
330
573
102
}
330
1F
100
AcDbEntity
  8
中心線
100
AcDbLine
 10
233.6344093518373
 20
83.13703639186867
 30
0.0
 11
447.6344093518373
 21
83.13703639186867
 31
0.0
  0
LINE
  5
55C
102
{ACAD_REACTORS
330
573
102
}
330
1F
100
AcDbEntity
  8
中心線
100
AcDbLine
 10
340.6344093518374
 20
3.137036391867923
 30
0.0
 11
340.6344093518374
 21
163.1370363918679
 31
0.0
  0
LINE
  5
55D
102
{ACAD_REACTORS
330
570
102
}
330
1F
100
AcDbEntity
  8
中心線
100
AcDbLine
 10
233.6344093518367
 20
803.1370363918686
 30
0.0
 11
447.6344093518366
 21
803.1370363918686
 31
0.0
  0
LINE
  5
55E
102
{ACAD_REACTORS
330
570
102
}
330
1F
100
AcDbEntity
  8
中心線
100
AcDbLine
 10
340.6344093518367
 20
723.1370363918686
 30
0.0
 11
340.6344093518367
 21
883.1370363918686
 31
0.0
  0
LINE
  5
55F
102
{ACAD_REACTORS
330
56E
102
}
330
1F
100
AcDbEntity
  8
中心線
100
AcDbLine
 10
713.6344093518367
 20
323.1370363918685
 30
0.0
 11
927.6344093518369
 21
323.1370363918685
 31
0.0
  0
LINE
  5
560
102
{ACAD_REACTORS
330
56E
102
}
330
1F
100
AcDbEntity
  8
中心線
100
AcDbLine
 10
820.6344093518367
 20
216.1370363918686
 30
0.0
 11
820.6344093518367
 21
657.8666290463965
 31
0.0
  0
LINE
  5
568
102
{ACAD_REACTORS
330
56F
102
}
330
1F
100
AcDbEntity
  8
中心線
100
AcDbLine
 10
500.6344093518367
 20
323.1370363918685
 30
0.0
 11
660.6344093518368
 21
323.1370363918685
 31
0.0
  0
LINE
  5
569
102
{ACAD_REACTORS
330
56F
102
}
330
1F
100
AcDbEntity
  8
中心線
100
AcDbLine
 10
580.6344093518369
 20
216.1370363918686
 30
0.0
 11
580.6344093518369
 21
657.8666290463965
 31
0.0
  0
LINE
  5
56A
102
{ACAD_REACTORS
330
571
102
}
330
1F
100
AcDbEntity
  8
中心線
100
AcDbLine
 10
233.6344093518373
 20
323.1370363918686
 30
0.0
 11
447.6344093518373
 21
323.1370363918686
 31
0.0
  0
LINE
  5
56B
102
{ACAD_REACTORS
330
571
102
}
330
1F
100
AcDbEntity
  8
中心線
100
AcDbLine
 10
340.6344093518369
 20
216.1370363918686
 30
0.0
 11
340.6344093518369
 21
657.8666290463965
 31
0.0
  0
LINE
  5
56C
102
{ACAD_REACTORS
330
572
102
}
330
1F
100
AcDbEntity
  8
中心線
100
AcDbLine
 10
20.63440935183678
 20
323.1370363918685
 30
0.0
 11
180.6344093518368
 21
323.1370363918685
 31
0.0
  0
LINE
  5
56D
102
{ACAD_REACTORS
330
572
102
}
330
1F
100
AcDbEntity
  8
中心線
100
AcDbLine
 10
100.6344093518369
 20
216.1370363918686
 30
0.0
 11
100.6344093518369
 21
657.8666290463965
 31
0.0
  0
ENDSEC
  0
SECTION
  2
OBJECTS
  0
DICTIONARY
  5
C
330
0
100
AcDbDictionary
281
     1
  3
ACAD_CIP_PREVIOUS_PRODUCT_INFO
350
2A0
  3
ACAD_COLOR
350
296
  3
ACAD_DETAILVIEWSTYLE
350
299
  3
ACAD_GROUP
350
D
  3
ACAD_LAYOUT
350
1A
  3
ACAD_MATERIAL
350
43
  3
ACAD_MLEADERSTYLE
350
5B
  3
ACAD_MLINESTYLE
350
17
  3
ACAD_PLOTSETTINGS
350
19
  3
ACAD_PLOTSTYLENAME
350
E
  3
ACAD_SCALELIST
350
47
  3
ACAD_SECTIONVIEWSTYLE
350
297
  3
ACAD_TABLESTYLE
350
59
  3
ACAD_VISUALSTYLE
350
2A
  3
ACDB_RECOMPOSE_DATA
350
5CB
  3
AcDbVariableDictionary
350
24B
  3
DWGPROPS
350
5CC
  0
DICTIONARY
  5
2A7
330
2
100
AcDbDictionary
280
     1
281
     1
  3
ACAD_LAYERSTATES
360
2A8
  0
DICTIONARY
  5
574
330
10
100
AcDbDictionary
280
     1
281
     1
  3
ADSK_XREC_LAYER_RECONCILED
360
575
  0
DICTIONARY
  5
2A3
330
2A2
100
AcDbDictionary
280
     1
281
     1
  3
ADSK_XREC_LAYER_RECONCILED
360
576
  0
DICTIONARY
  5
2A5
330
2A4
100
AcDbDictionary
280
     1
281
     1
  3
ADSK_XREC_LAYER_RECONCILED
360
577
  0
DICTIONARY
  5
3C5
330
1F
100
AcDbDictionary
280
     1
281
     1
  3
ACAD_SORTENTS
360
3C6
  0
XRECORD
  5
2A0
102
{ACAD_REACTORS
330
C
102
}
330
C
100
AcDbXrecord
280
     1
300
ACDLT
300
2016
300
ACDLT_F_S
  0
DICTIONARY
  5
296
102
{ACAD_REACTORS
330
C
102
}
330
C
100
AcDbDictionary
281
     1
  0
DICTIONARY
  5
299
102
{ACAD_REACTORS
330
C
102
}
330
C
100
AcDbDictionary
281
     1
  3
Metric50
350
29A
  0
DICTIONARY
  5
D
102
{ACAD_REACTORS
330
C
102
}
330
C
100
AcDbDictionary
281
     1
  3
*A1
350
56E
  3
*A2
350
56F
  3
*A3
350
570
  3
*A4
350
571
  3
*A5
350
572
  3
*A6
350
573
  0
DICTIONARY
  5
1A
102
{ACAD_REACTORS
330
C
102
}
330
C
100
AcDbDictionary
281
     1
  3
Layout1
350
1E
  3
Model
350
22
  3
レイアウト1
350
29B
  0
DICTIONARY
  5
43
102
{ACAD_REACTORS
330
C
102
}
330
C
100
AcDbDictionary
281
     1
  3
ByBlock
350
45
  3
ByLayer
350
44
  3
Global
350
46
  0
DICTIONARY
  5
5B
102
{ACAD_REACTORS
330
C
102
}
330
C
100
AcDbDictionary
281
     1
  3
Standard
350
5C
  0
DICTIONARY
  5
17
102
{ACAD_REACTORS
330
C
102
}
330
C
100
AcDbDictionary
281
     1
  3
Standard
350
18
  0
DICTIONARY
  5
19
102
{ACAD_REACTORS
330
C
102
}
330
C
100
AcDbDictionary
281
     1
  0
ACDBDICTIONARYWDFLT
  5
E
102
{ACAD_REACTORS
330
C
102
}
330
C
100
AcDbDictionary
281
     1
  3
Normal
350
F
100
AcDbDictionaryWithDefault
340
F
  0
DICTIONARY
  5
47
102
{ACAD_REACTORS
330
C
102
}
330
C
100
AcDbDictionary
281
     1
  3
A0
350
48
  3
A1
350
49
  3
A2
350
4A
  3
A3
350
4B
  3
A4
350
4C
  3
A5
350
4D
  3
A6
350
4E
  3
A7
350
4F
  3
A8
350
50
  3
A9
350
51
  3
B0
350
52
  3
B1
350
53
  3
B2
350
54
  3
B3
350
55
  3
B4
350
56
  3
B5
350
57
  3
B6
350
58
  0
DICTIONARY
  5
297
102
{ACAD_REACTORS
330
C
102
}
330
C
100
AcDbDictionary
281
     1
  3
Metric50
350
298
  0
DICTIONARY
  5
59
102
{ACAD_REACTORS
330
C
102
}
330
C
100
AcDbDictionary
281
     1
  3
Standard
350
5A
  0
DICTIONARY
  5
2A
102
{ACAD_REACTORS
330
C
102
}
330
C
100
AcDbDictionary
281
     1
  3
2dWireframe
350
2F
  3
Basic
350
32
  3
Brighten
350
36
  3
ColorChange
350
3A
  3
Conceptual
350
34
  3
Dim
350
35
  3
EdgeColorOff
350
3D
  3
Facepattern
350
39
  3
Flat
350
2B
  3
FlatWithEdges
350
2C
  3
Gouraud
350
2D
  3
GouraudWithEdges
350
2E
  3
Hidden
350
31
  3
JitterOff
350
3B
  3
Linepattern
350
38
  3
OverhangOff
350
3C
  3
Realistic
350
33
  3
Shaded
350
42
  3
Shaded with edges
350
41
  3
Shades of Gray
350
3E
  3
Sketchy
350
3F
  3
Thicken
350
37
  3
Wireframe
350
30
  3
X-Ray
350
40
  0
XRECORD
  5
5CB
102
{ACAD_REACTORS
330
C
102
}
330
C
100
AcDbXrecord
280
     1
 90
        1
330
5A
  0
DICTIONARY
  5
24B
102
{ACAD_REACTORS
330
C
102
}
330
C
100
AcDbDictionary
281
     1
  3
CANNOSCALE
350
259
  3
CENTEREXE
350
252
  3
CENTERLTYPEFILE
350
253
  3
CMLEADERSTYLE
350
24D
  3
CTABLESTYLE
350
24C
  3
CVIEWDETAILSTYLE
350
578
  3
CVIEWSECTIONSTYLE
350
579
  3
DIMASSOC
350
254
  3
HIDETEXT
350
255
  3
INDEXCTL
350
5C3
  3
LAYEREVAL
350
57B
  3
LAYERNOTIFY
350
57C
  3
LIGHTINGUNITS
350
57A
  3
LOFTANG1
350
5C6
  3
LOFTANG2
350
5C7
  3
LONGITUDE
350
5C8
  3
MSLTSCALE
350
25A
  3
PSOLHEIGHT
350
5C5
  3
PSOLWIDTH
350
5C4
  3
SORTENTS
350
5C2
  3
XCLIPFRAME
350
5C9
  0
XRECORD
  5
5CC
102
{ACAD_REACTORS
330
C
102
}
330
C
100
AcDbXrecord
280
     1
  1
DWGPROPS COOKIE
  2

  3

  4

  6
File was created by TR2_DExp
  7

  8
fujino
  9

300
=
301
=
302
=
303
=
304
=
305
=
306
=
307
=
308
=
309
=
 40
0.0046235763888889
 41
2455188.75
 42
2459753.660632616
  1

 90
        0
  0
DICTIONARY
  5
2A8
102
{ACAD_REACTORS
330
2A7
102
}
330
2A7
100
AcDbDictionary
281
     1
  0
XRECORD
  5
575
102
{ACAD_REACTORS
330
574
102
}
330
574
100
AcDbXrecord
280
     1
290
     1
  0
XRECORD
  5
576
102
{ACAD_REACTORS
330
2A3
102
}
330
2A3
100
AcDbXrecord
280
     1
290
     1
  0
XRECORD
  5
577
102
{ACAD_REACTORS
330
2A5
102
}
330
2A5
100
AcDbXrecord
280
     1
290
     1
  0
SORTENTSTABLE
  5
3C6
102
{ACAD_REACTORS
330
3C5
102
}
330
3C5
100
AcDbSortentsTable
330
1F
331
3ED
  5
4A5
331
3C7
  5
47F
331
3C3
  5
4EA
331
3E9
  5
4A1
331
3E5
  5
49D
331
3E1
  5
499
331
4B5
  5
387
331
4B1
  5
383
331
447
  5
467
331
4AD
  5
41A
331
52D
  5
353
331
443
  5
463
331
4EC
  5
3BE
331
4E8
  5
3BA
331
43F
  5
45F
331
47E
  5
3EB
331
529
  5
34F
331
4A9
  5
416
331
43B
  5
45B
331
47A
  5
3E7
331
525
  5
34B
331
521
  5
347
331
3A6
  5
4CD
331
3DD
  5
495
331
3D9
  5
491
331
3A2
  5
4C9
331
3D5
  5
48D
331
40C
  5
42C
331
3D1
  5
489
331
408
  5
428
331
4A5
  5
412
331
4E4
  5
3B6
331
4A1
  5
40E
331
4E0
  5
3B2
331
437
  5
457
331
476
  5
3E3
331
472
  5
3DF
331
49D
  5
40A
331
55C
  5
55C
331
51D
  5
343
331
433
  5
453
331
4DC
  5
3AE
331
4D8
  5
3AA
331
46E
  5
3DB
331
499
  5
406
331
519
  5
33F
331
558
  5
37E
331
42F
  5
44F
331
42B
  5
44B
331
46A
  5
3D7
331
515
  5
33B
331
554
  5
37A
331
550
  5
376
331
511
  5
337
331
39E
  5
4C5
331
39A
  5
4C1
331
404
  5
424
331
3CD
  5
485
331
396
  5
4BD
331
392
  5
4B9
331
3C9
  5
481
331
400
  5
420
331
56C
  5
56C
331
3BD
  5
4E4
331
568
  5
568
331
3B9
  5
4E0
331
4D4
  5
3A6
331
495
  5
402
331
491
  5
3FE
331
4D0
  5
3A2
331
427
  5
447
331
466
  5
3D3
331
48D
  5
3FA
331
4CC
  5
39E
331
50D
  5
333
331
54C
  5
372
331
423
  5
443
331
462
  5
3CF
331
45E
  5
47E
331
489
  5
3F6
331
509
  5
32F
331
548
  5
36E
331
41F
  5
43F
331
4C8
  5
39A
331
41B
  5
43B
331
45A
  5
47A
331
505
  5
32B
331
544
  5
36A
331
540
  5
366
331
501
  5
327
331
38E
  5
4B5
331
3FC
  5
41C
331
3B5
  5
4DC
331
3B1
  5
4D8
331
3F8
  5
4B0
331
3AD
  5
4D4
331
3F4
  5
4AC
331
3A9
  5
4D0
331
3F0
  5
4A8
331
4C4
  5
396
331
485
  5
3F2
331
481
  5
3EE
331
4C0
  5
392
331
417
  5
437
331
456
  5
476
331
4BC
  5
38E
331
4FD
  5
323
331
53C
  5
362
331
413
  5
433
331
452
  5
472
331
44E
  5
46E
331
4F9
  5
31F
331
538
  5
35E
331
4B8
  5
38A
331
44A
  5
46A
331
4F5
  5
3C9
331
534
  5
35A
331
530
  5
356
331
4F1
  5
3C3
331
3EC
  5
4A4
331
3C2
  5
4E9
331
3E8
  5
4A0
331
3E4
  5
49C
331
3E0
  5
498
331
4B4
  5
386
331
4B0
  5
382
331
446
  5
466
331
4EF
  5
3C1
331
4AC
  5
419
331
52C
  5
352
331
442
  5
462
331
4EB
  5
3BD
331
43E
  5
45E
331
47D
  5
3EA
331
528
  5
34E
331
4A8
  5
415
331
43A
  5
45A
331
479
  5
3E6
331
524
  5
34A
331
520
  5
346
331
3DC
  5
494
331
3A5
  5
4CC
331
3A1
  5
4C8
331
3D8
  5
490
331
40F
  5
42F
331
3D4
  5
48C
331
40B
  5
42B
331
3D0
  5
488
331
4E7
  5
3B9
331
4A4
  5
411
331
4E3
  5
3B5
331
4A0
  5
40D
331
4DF
  5
3B1
331
55F
  5
55F
331
436
  5
456
331
475
  5
3E2
331
471
  5
3DE
331
49C
  5
409
331
55B
  5
55B
331
51C
  5
342
331
432
  5
452
331
4DB
  5
3AD
331
42E
  5
44E
331
46D
  5
3DA
331
518
  5
33E
331
557
  5
37D
331
498
  5
405
331
42A
  5
44A
331
469
  5
3D6
331
514
  5
33A
331
553
  5
379
331
510
  5
336
331
39D
  5
4C4
331
407
  5
427
331
399
  5
4C0
331
395
  5
4BC
331
403
  5
423
331
3CC
  5
484
331
3C8
  5
480
331
391
  5
4B8
331
56B
  5
56B
331
3BC
  5
4E3
331
3B8
  5
4DF
331
4D7
  5
3A9
331
494
  5
401
331
4D3
  5
3A5
331
490
  5
3FD
331
4CF
  5
3A1
331
54F
  5
375
331
426
  5
446
331
465
  5
3D2
331
461
  5
3CE
331
48C
  5
3F9
331
50C
  5
332
331
54B
  5
371
331
422
  5
442
331
4CB
  5
39D
331
45D
  5
47D
331
488
  5
3F5
331
508
  5
32E
331
547
  5
36D
331
41E
  5
43E
331
41A
  5
43A
331
459
  5
479
331
504
  5
32A
331
543
  5
369
331
500
  5
326
331
38D
  5
4B4
331
3FF
  5
41F
331
3FB
  5
4B3
331
3B4
  5
4DB
331
3B0
  5
4D7
331
3F7
  5
4AF
331
3AC
  5
4D3
331
3F3
  5
4AB
331
3A8
  5
4CF
331
4C7
  5
399
331
4C3
  5
395
331
484
  5
3F1
331
480
  5
3ED
331
4BF
  5
391
331
53F
  5
365
331
416
  5
436
331
455
  5
475
331
4BB
  5
38D
331
4FC
  5
322
331
53B
  5
361
331
412
  5
432
331
451
  5
471
331
44D
  5
46D
331
4F8
  5
31E
331
537
  5
35D
331
449
  5
469
331
4F4
  5
3C8
331
533
  5
359
331
4F0
  5
3C2
331
3EF
  5
4A7
331
3EB
  5
4A3
331
3C1
  5
4E8
331
3E7
  5
49F
331
3E3
  5
49B
331
4B7
  5
389
331
4B3
  5
385
331
4AF
  5
381
331
52F
  5
355
331
445
  5
465
331
4EE
  5
3C0
331
4AB
  5
418
331
52B
  5
351
331
441
  5
461
331
4EA
  5
3BC
331
43D
  5
45D
331
47C
  5
3E9
331
527
  5
34D
331
439
  5
459
331
478
  5
3E5
331
523
  5
349
331
3DF
  5
497
331
3DB
  5
493
331
3A4
  5
4CB
331
3A0
  5
4C7
331
3D7
  5
48F
331
40E
  5
42E
331
3D3
  5
48B
331
40A
  5
42A
331
4E6
  5
3B8
331
4A7
  5
414
331
4A3
  5
410
331
4E2
  5
3B4
331
49F
  5
40C
331
4DE
  5
3B0
331
55E
  5
55E
331
51F
  5
345
331
435
  5
455
331
474
  5
3E1
331
470
  5
3DD
331
49B
  5
408
331
51B
  5
341
331
55A
  5
380
331
431
  5
451
331
4DA
  5
3AC
331
42D
  5
44D
331
46C
  5
3D9
331
517
  5
33D
331
556
  5
37C
331
552
  5
378
331
429
  5
449
331
468
  5
3D5
331
513
  5
339
331
39C
  5
4C3
331
406
  5
426
331
3CF
  5
487
331
398
  5
4BF
331
394
  5
4BB
331
3CB
  5
483
331
402
  5
422
331
3BF
  5
4E6
331
390
  5
4B7
331
56A
  5
56A
331
3BB
  5
4E2
331
4D6
  5
3A8
331
497
  5
404
331
493
  5
400
331
4D2
  5
3A4
331
48F
  5
3FC
331
4CE
  5
3A0
331
54E
  5
374
331
425
  5
445
331
464
  5
3D1
331
50F
  5
335
331
460
  5
3CD
331
48B
  5
3F8
331
50B
  5
331
331
54A
  5
370
331
421
  5
441
331
4CA
  5
39C
331
41D
  5
43D
331
45C
  5
47C
331
507
  5
32D
331
546
  5
36C
331
419
  5
439
331
458
  5
478
331
503
  5
329
331
542
  5
368
331
3FE
  5
41E
331
3B7
  5
4DE
331
3FA
  5
4B2
331
3B3
  5
4DA
331
3AF
  5
4D6
331
3F6
  5
4AE
331
3AB
  5
4D2
331
3F2
  5
4AA
331
4C6
  5
398
331
487
  5
3F4
331
483
  5
3F0
331
4C2
  5
394
331
4BE
  5
390
331
53E
  5
364
331
415
  5
435
331
454
  5
474
331
4FF
  5
325
331
450
  5
470
331
4FB
  5
321
331
53A
  5
360
331
411
  5
431
331
4BA
  5
38C
331
44C
  5
46C
331
4F7
  5
3CB
331
536
  5
35C
331
448
  5
468
331
4F3
  5
3C7
331
532
  5
358
331
3EE
  5
4A6
331
3EA
  5
4A2
331
3C4
  5
4EB
331
3C0
  5
4E7
331
3E6
  5
49E
331
3E2
  5
49A
331
4B6
  5
388
331
4B2
  5
384
331
4AE
  5
41B
331
52E
  5
354
331
444
  5
464
331
4ED
  5
3BF
331
4E9
  5
3BB
331
47F
  5
3EC
331
4AA
  5
417
331
52A
  5
350
331
440
  5
460
331
43C
  5
45C
331
47B
  5
3E8
331
526
  5
34C
331
438
  5
458
331
522
  5
348
331
3DE
  5
496
331
3A7
  5
4CE
331
3DA
  5
492
331
3A3
  5
4CA
331
3D6
  5
48E
331
40D
  5
42D
331
3D2
  5
48A
331
409
  5
429
331
4E5
  5
3B7
331
4A6
  5
413
331
4A2
  5
40F
331
4E1
  5
3B3
331
477
  5
3E4
331
49E
  5
40B
331
4DD
  5
3AF
331
55D
  5
55D
331
51E
  5
344
331
434
  5
454
331
473
  5
3E0
331
46F
  5
3DC
331
49A
  5
407
331
51A
  5
340
331
559
  5
37F
331
430
  5
450
331
4D9
  5
3AB
331
42C
  5
44C
331
46B
  5
3D8
331
516
  5
33C
331
555
  5
37B
331
551
  5
377
331
428
  5
448
331
512
  5
338
331
39F
  5
4C6
331
39B
  5
4C2
331
560
  5
560
331
405
  5
425
331
3CE
  5
486
331
397
  5
4BE
331
393
  5
4BA
331
3CA
  5
482
331
401
  5
421
331
56D
  5
56D
331
3BE
  5
4E5
331
569
  5
569
331
3BA
  5
4E1
331
4D5
  5
3A7
331
496
  5
403
331
492
  5
3FF
331
4D1
  5
3A3
331
467
  5
3D4
331
48E
  5
3FB
331
4CD
  5
39F
331
50E
  5
334
331
54D
  5
373
331
424
  5
444
331
463
  5
3D0
331
45F
  5
3CC
331
48A
  5
3F7
331
50A
  5
330
331
549
  5
36F
331
420
  5
440
331
4C9
  5
39B
331
41C
  5
43C
331
45B
  5
47B
331
506
  5
32C
331
545
  5
36B
331
541
  5
367
331
418
  5
438
331
502
  5
328
331
38F
  5
4B6
331
3FD
  5
41D
331
3B6
  5
4DD
331
3B2
  5
4D9
331
3F9
  5
4B1
331
3AE
  5
4D5
331
3F5
  5
4AD
331
3AA
  5
4D1
331
3F1
  5
4A9
331
4C5
  5
397
331
486
  5
3F3
331
482
  5
3EF
331
4C1
  5
393
331
457
  5
477
331
4BD
  5
38F
331
53D
  5
363
331
414
  5
434
331
453
  5
473
331
4FE
  5
324
331
44F
  5
46F
331
4FA
  5
320
331
539
  5
35F
331
410
  5
430
331
4B9
  5
38B
331
44B
  5
46B
331
4F6
  5
3CA
331
535
  5
35B
331
4F2
  5
3C4
331
531
  5
357
  0
ACDBDETAILVIEWSTYLE
  5
29A
102
{ACAD_XDICTIONARY
360
604
102
}
102
{ACAD_REACTORS
330
299
102
}
330
299
100
AcDbModelDocViewStyle
 70
     0
  3
Metric50
290
     0
100
AcDbDetailViewStyle
 70
     0
 71
     0
 90
        3
 71
     1
340
11
 40
5.0
340
0
 40
5.0
300

 40
0.0
280
     1
 71
     2
340
16
 90
       25
 71
     3
340
11
 40
5.0
 90
        0
 40
15.0
 90
        1
300
%<\AcVar ViewDetailId>% (%<\AcVar ViewScale \f "%sn">%)
 71
     4
340
16
 90
       25
340
16
 90
       25
280
     0
  0
GROUP
  5
56E
102
{ACAD_REACTORS
330
D
102
}
330
D
100
AcDbGroup
300

 70
     1
 71
     1
340
560
340
55F
340
45E
340
45D
340
45C
340
45B
340
45A
340
459
340
458
340
457
340
456
340
455
340
454
340
453
340
452
340
451
340
450
340
44F
340
44E
340
44D
340
44C
340
44B
340
44A
340
449
340
448
340
447
340
446
340
445
340
444
340
443
340
442
340
441
340
440
340
43F
340
43E
340
43D
340
43C
340
43B
340
43A
340
439
340
438
340
437
340
436
340
435
340
434
340
433
340
432
340
431
340
430
340
42F
340
42E
340
42D
340
42C
340
42B
340
42A
340
429
340
428
340
427
340
426
340
425
340
424
340
423
340
422
340
421
340
420
340
41F
340
41E
340
41D
340
41C
340
41B
340
41A
340
419
340
418
340
417
340
416
340
415
340
414
340
413
340
412
340
411
340
410
340
40F
340
40E
340
40D
340
40C
340
40B
340
40A
340
409
340
408
340
407
340
406
340
405
340
404
340
403
340
402
340
401
340
400
340
3FF
340
3FE
340
3FD
340
3FC
  0
GROUP
  5
56F
102
{ACAD_REACTORS
330
D
102
}
330
D
100
AcDbGroup
300

 70
     1
 71
     1
340
569
340
568
340
4AE
340
4AD
340
4AC
340
4AB
340
4AA
340
4A9
340
4A8
340
4A7
340
4A6
340
4A5
340
4A4
340
4A3
340
4A2
340
4A1
340
4A0
340
49F
340
49E
340
49D
340
49C
340
49B
340
49A
340
499
340
498
340
497
340
496
340
495
340
494
340
493
340
492
340
491
340
490
340
48F
340
48E
340
48D
340
48C
340
48B
340
48A
340
489
340
488
340
487
340
486
340
485
340
484
340
483
340
482
340
481
340
480
340
47F
340
47E
340
47D
340
47C
340
47B
340
47A
340
479
340
478
340
477
340
476
340
475
340
474
340
473
340
472
340
471
340
470
340
46F
340
46E
340
46D
340
46C
340
46B
340
46A
340
469
340
468
340
467
340
466
340
465
340
464
340
463
340
462
340
461
340
460
340
45F
  0
GROUP
  5
570
102
{ACAD_REACTORS
330
D
102
}
330
D
100
AcDbGroup
300

 70
     1
 71
     1
340
55E
340
55D
340
3C4
340
3C3
340
3C2
340
3C1
340
3C0
340
3BF
340
3BE
340
3BD
340
3BC
340
3BB
340
3BA
340
3B9
340
3B8
340
3B7
340
3B6
340
3B5
340
3B4
340
3B3
340
3B2
340
3B1
340
3B0
340
3AF
340
3AE
340
3AD
340
3AC
340
3AB
340
3AA
340
3A9
340
3A8
340
3A7
340
3A6
340
3A5
340
3A4
340
3A3
340
3A2
340
3A1
340
3A0
340
39F
340
39E
340
39D
340
39C
340
39B
340
39A
340
399
340
398
340
397
340
396
340
395
340
394
340
393
340
392
340
391
340
390
340
38F
340
38E
340
38D
  0
GROUP
  5
571
102
{ACAD_REACTORS
330
D
102
}
330
D
100
AcDbGroup
300

 70
     1
 71
     1
340
56B
340
56A
340
55A
340
559
340
558
340
557
340
556
340
555
340
554
340
553
340
552
340
551
340
550
340
54F
340
54E
340
54D
340
54C
340
54B
340
54A
340
549
340
548
340
547
340
546
340
545
340
544
340
543
340
542
340
541
340
540
340
53F
340
53E
340
53D
340
53C
340
53B
340
53A
340
539
340
538
340
537
340
536
340
535
340
534
340
533
340
532
340
531
340
530
340
52F
340
52E
340
52D
340
52C
340
52B
340
52A
340
529
340
528
340
527
340
526
340
525
340
524
340
523
340
522
340
521
340
520
340
51F
340
51E
340
51D
340
51C
340
51B
340
51A
340
519
340
518
340
517
340
516
340
515
340
514
340
513
340
512
340
511
340
510
340
50F
340
50E
340
50D
340
50C
340
50B
340
50A
340
509
340
508
340
507
340
506
340
505
340
504
340
503
340
502
340
501
340
500
340
4FF
340
4FE
340
4FD
340
4FC
340
4FB
340
4FA
340
4F9
340
4F8
  0
GROUP
  5
572
102
{ACAD_REACTORS
330
D
102
}
330
D
100
AcDbGroup
300

 70
     1
 71
     1
340
56D
340
56C
340
4F7
340
4F6
340
4F5
340
4F4
340
4F3
340
4F2
340
4F1
340
4F0
340
4EF
340
4EE
340
4ED
340
4EC
340
4EB
340
4EA
340
4E9
340
4E8
340
4E7
340
4E6
340
4E5
340
4E4
340
4E3
340
4E2
340
4E1
340
4E0
340
4DF
340
4DE
340
4DD
340
4DC
340
4DB
340
4DA
340
4D9
340
4D8
340
4D7
340
4D6
340
4D5
340
4D4
340
4D3
340
4D2
340
4D1
340
4D0
340
4CF
340
4CE
340
4CD
340
4CC
340
4CB
340
4CA
340
4C9
340
4C8
340
4C7
340
4C6
340
4C5
340
4C4
340
4C3
340
4C2
340
4C1
340
4C0
340
4BF
340
4BE
340
4BD
340
4BC
340
4BB
340
4BA
340
4B9
340
4B8
340
4B7
340
4B6
340
4B5
340
4B4
340
4B3
340
4B2
340
4B1
340
4B0
340
4AF
  0
GROUP
  5
573
102
{ACAD_REACTORS
330
D
102
}
330
D
100
AcDbGroup
300

 70
     1
 71
     1
340
55C
340
55B
340
3FB
340
3FA
340
3F9
340
3F8
340
3F7
340
3F6
340
3F5
340
3F4
340
3F3
340
3F2
340
3F1
340
3F0
340
3EF
340
3EE
340
3ED
340
3EC
340
3EB
340
3EA
340
3E9
340
3E8
340
3E7
340
3E6
340
3E5
340
3E4
340
3E3
340
3E2
340
3E1
340
3E0
340
3DF
340
3DE
340
3DD
340
3DC
340
3DB
340
3DA
340
3D9
340
3D8
340
3D7
340
3D6
340
3D5
340
3D4
340
3D3
340
3D2
340
3D1
340
3D0
340
3CF
340
3CE
340
3CD
340
3CC
340
3CB
340
3CA
340
3C9
340
3C8
340
3C7
  0
LAYOUT
  5
1E
102
{ACAD_XDICTIONARY
360
5CD
102
}
102
{ACAD_REACTORS
330
1A
102
}
330
1A
100
AcDbPlotSettings
  1

  2
none_device
  4

  6

 40
0.0
 41
0.0
 42
0.0
 43
0.0
 44
0.0
 45
0.0
 46
0.0
 47
0.0
 48
0.0
 49
0.0
140
0.0
141
0.0
142
1.0
143
1.0
 70
   688
 72
     1
 73
     0
 74
     5
  7

 75
    16
147
1.0
148
0.0
149
0.0
100
AcDbLayout
  1
Layout1
 70
     1
 71
     1
 10
0.0
 20
0.0
 11
420.0
 21
297.0
 12
0.0
 22
0.0
 32
0.0
 14
1.000000000000000E+20
 24
1.000000000000000E+20
 34
1.000000000000000E+20
 15
-1.000000000000000E+20
 25
-1.000000000000000E+20
 35
-1.000000000000000E+20
146
0.0
 13
0.0
 23
0.0
 33
0.0
 16
1.0
 26
0.0
 36
0.0
 17
0.0
 27
1.0
 37
0.0
 76
     0
330
1B
  0
LAYOUT
  5
22
102
{ACAD_XDICTIONARY
360
5CF
102
}
102
{ACAD_REACTORS
330
1A
102
}
330
1A
100
AcDbPlotSettings
  1

  2
none_device
  4
Letter_(8.50_x_11.00_Inches)
  6

 40
6.349999999999998
 41
6.349999999999998
 42
6.350005079999998
 43
6.350005079999998
 44
215.9
 45
279.4
 46
0.0
 47
0.0
 48
0.0
 49
0.0
140
0.0
141
0.0
142
1.0
143
1.0
 70
  1712
 72
     1
 73
     0
 74
     0
  7

 75
     0
147
1.0
148
0.0
149
0.0
100
AcDbLayout
  1
Model
 70
     1
 71
     0
 10
-352.7715301513571
 20
-455.4360198974507
 11
1031.366134643555
 21
687.9910888671774
 12
0.0
 22
0.0
 32
0.0
 14
-352.7715301513571
 24
-455.4360198974507
 34
0.0
 15
1031.366134643555
 25
687.9910888671774
 35
0.0
146
0.0
 13
0.0
 23
0.0
 33
0.0
 16
1.0
 26
0.0
 36
0.0
 17
0.0
 27
1.0
 37
0.0
 76
     0
330
1F
331
29
  0
LAYOUT
  5
29B
102
{ACAD_XDICTIONARY
360
606
102
}
102
{ACAD_REACTORS
330
1A
102
}
330
1A
100
AcDbPlotSettings
  1

  2
青梅 FX DocuCentre-V C2275 T2
  4

  6

 40
0.0
 41
0.0
 42
0.0
 43
0.0
 44
0.0
 45
0.0
 46
0.0
 47
0.0
 48
0.0
 49
0.0
140
0.0
141
0.0
142
1.0
143
1.0
 70
   688
 72
     0
 73
     0
 74
     5
  7
AutoCAD_PEN.ctb
 75
    16
147
1.0
148
0.0
149
0.0
100
AcDbLayout
  1
レイアウト1
 70
     1
 71
     2
 10
0.0
 20
0.0
 11
12.0
 21
9.0
 12
0.0
 22
0.0
 32
0.0
 14
0.0
 24
0.0
 34
0.0
 15
0.0
 25
0.0
 35
0.0
146
0.0
 13
0.0
 23
0.0
 33
0.0
 16
1.0
 26
0.0
 36
0.0
 17
0.0
 27
1.0
 37
0.0
 76
     0
330
23
  0
MATERIAL
  5
45
102
{ACAD_XDICTIONARY
360
28D
102
}
102
{ACAD_REACTORS
330
43
102
}
330
43
100
AcDbMaterial
  1
ByBlock
  0
MATERIAL
  5
44
102
{ACAD_XDICTIONARY
360
28B
102
}
102
{ACAD_REACTORS
330
43
102
}
330
43
100
AcDbMaterial
  1
ByLayer
  0
MATERIAL
  5
46
102
{ACAD_XDICTIONARY
360
28F
102
}
102
{ACAD_REACTORS
330
43
102
}
330
43
100
AcDbMaterial
  1
Global
  0
MLEADERSTYLE
  5
5C
102
{ACAD_REACTORS
330
5B
102
}
330
5B
100
AcDbMLeaderStyle
170
     2
171
     1
172
     0
 90
        2
 40
0.0
 41
0.0
173
     1
 91
-1056964608
340
14
 92
       -2
290
     1
 42
2.0
291
     1
 43
8.0
  3
Standard
 44
4.0
300

342
11
174
     1
178
     6
175
     1
176
     0
 93
-1056964608
 45
4.0
292
     0
297
     0
 46
4.0
 94
-1056964608
 47
1.0
 49
1.0
140
1.0
293
     1
141
0.0
294
     1
177
     0
142
1.0
295
     0
296
     0
143
3.75
1001
ACAD_MLEADERVER
1070
     2
  0
MLINESTYLE
  5
18
102
{ACAD_REACTORS
330
17
102
}
330
17
100
AcDbMlineStyle
  2
STANDARD
 70
     0
  3

 62
   256
 51
90.0
 52
90.0
 71
     2
 49
0.5
 62
   256
  6
BYLAYER
 49
-0.5
 62
   256
  6
BYLAYER
  0
ACDBPLACEHOLDER
  5
F
102
{ACAD_REACTORS
330
E
102
}
330
E
  0
SCALE
  5
48
102
{ACAD_REACTORS
330
47
102
}
330
47
100
AcDbScale
 70
     0
300
1:1
140
1.0
141
1.0
290
     1
  0
SCALE
  5
49
102
{ACAD_REACTORS
330
47
102
}
330
47
100
AcDbScale
 70
     0
300
1:2
140
1.0
141
2.0
290
     0
  0
SCALE
  5
4A
102
{ACAD_REACTORS
330
47
102
}
330
47
100
AcDbScale
 70
     0
300
1:4
140
1.0
141
4.0
290
     0
  0
SCALE
  5
4B
102
{ACAD_REACTORS
330
47
102
}
330
47
100
AcDbScale
 70
     0
300
1:5
140
1.0
141
5.0
290
     0
  0
SCALE
  5
4C
102
{ACAD_REACTORS
330
47
102
}
330
47
100
AcDbScale
 70
     0
300
1:8
140
1.0
141
8.0
290
     0
  0
SCALE
  5
4D
102
{ACAD_REACTORS
330
47
102
}
330
47
100
AcDbScale
 70
     0
300
1:10
140
1.0
141
10.0
290
     0
  0
SCALE
  5
4E
102
{ACAD_REACTORS
330
47
102
}
330
47
100
AcDbScale
 70
     0
300
1:16
140
1.0
141
16.0
290
     0
  0
SCALE
  5
4F
102
{ACAD_REACTORS
330
47
102
}
330
47
100
AcDbScale
 70
     0
300
1:20
140
1.0
141
20.0
290
     0
  0
SCALE
  5
50
102
{ACAD_REACTORS
330
47
102
}
330
47
100
AcDbScale
 70
     0
300
1:30
140
1.0
141
30.0
290
     0
  0
SCALE
  5
51
102
{ACAD_REACTORS
330
47
102
}
330
47
100
AcDbScale
 70
     0
300
1:40
140
1.0
141
40.0
290
     0
  0
SCALE
  5
52
102
{ACAD_REACTORS
330
47
102
}
330
47
100
AcDbScale
 70
     0
300
1:50
140
1.0
141
50.0
290
     0
  0
SCALE
  5
53
102
{ACAD_REACTORS
330
47
102
}
330
47
100
AcDbScale
 70
     0
300
1:100
140
1.0
141
100.0
290
     0
  0
SCALE
  5
54
102
{ACAD_REACTORS
330
47
102
}
330
47
100
AcDbScale
 70
     0
300
2:1
140
2.0
141
1.0
290
     0
  0
SCALE
  5
55
102
{ACAD_REACTORS
330
47
102
}
330
47
100
AcDbScale
 70
     0
300
4:1
140
4.0
141
1.0
290
     0
  0
SCALE
  5
56
102
{ACAD_REACTORS
330
47
102
}
330
47
100
AcDbScale
 70
     0
300
8:1
140
8.0
141
1.0
290
     0
  0
SCALE
  5
57
102
{ACAD_REACTORS
330
47
102
}
330
47
100
AcDbScale
 70
     0
300
10:1
140
10.0
141
1.0
290
     0
  0
SCALE
  5
58
102
{ACAD_REACTORS
330
47
102
}
330
47
100
AcDbScale
 70
     0
300
100:1
140
100.0
141
1.0
290
     0
  0
ACDBSECTIONVIEWSTYLE
  5
298
102
{ACAD_XDICTIONARY
360
602
102
}
102
{ACAD_REACTORS
330
297
102
}
330
297
100
AcDbModelDocViewStyle
 70
     0
  3
Metric50
290
     0
100
AcDbSectionViewStyle
 70
     0
 71
     0
 90
      102
 71
     1
340
11
 40
5.0
340
0
340
0
 40
5.0
300
I, O, Q, S, X, Z
 40
10.0
 90
        0
 40
2.5
 90
        0
 71
     2
340
16
 90
       25
340
16
 90
       50
 40
5.0
 40
2.5
 40
5.0
 71
     3
340
11
 40
5.0
 90
        0
 40
15.0
 90
        1
300
%<\AcVar ViewSectionStartId>%-%<\AcVar ViewSectionEndId>% (%<\AcVar ViewScale \f "%sn">%)
 71
     4
300
ANSI31
 40
1.0
 90
        0
290
     0
290
     0
 90
        6
 40
0.0
 40
1.570796326794896
 40
0.2617993877991494
 40
1.308996938995747
 40
-0.2617993877991494
 40
1.832595714594045
  0
TABLESTYLE
  5
5A
102
{ACAD_XDICTIONARY
360
57D
102
}
102
{ACAD_REACTORS
330
59
102
}
330
59
100
AcDbTableStyle
  3
Standard
 70
     0
 71
     0
 40
1.5
 41
1.5
280
     0
281
     0
  7
Standard
140
4.5
170
     2
 62
     0
 63
     7
283
     0
274
    -2
284
     1
 64
     0
275
    -2
285
     1
 65
     0
276
    -2
286
     1
 66
     0
277
    -2
287
     1
 67
     0
278
    -2
288
     1
 68
     0
279
    -2
289
     1
 69
     0
  7
Standard
140
6.0
170
     5
 62
     0
 63
     7
283
     0
274
    -2
284
     1
 64
     0
275
    -2
285
     1
 65
     0
276
    -2
286
     1
 66
     0
277
    -2
287
     1
 67
     0
278
    -2
288
     1
 68
     0
279
    -2
289
     1
 69
     0
  7
Standard
140
4.5
170
     5
 62
     0
 63
     7
283
     0
274
    -2
284
     1
 64
     0
275
    -2
285
     1
 65
     0
276
    -2
286
     1
 66
     0
277
    -2
287
     1
 67
     0
278
    -2
288
     1
 68
     0
279
    -2
289
     1
 69
     0
  0
VISUALSTYLE
  5
2F
102
{ACAD_XDICTIONARY
360
5D9
102
}
102
{ACAD_REACTORS
330
2A
102
}
330
2A
100
AcDbVisualStyle
  2

 70
     4
 71
     0
 72
     2
 73
     0
 90
        0
 40
-0.6
 41
-30.0
 62
     5
 63
     7
 74
     1
 91
        4
 64
     7
 65
   257
 75
     1
175
     1
 42
1.0
 92
        0
 66
   257
 43
1.0
 76
     1
 77
     6
 78
     2
 67
     7
 79
     5
170
     0
171
     0
290
     0
174
     0
 93
        1
 44
0.0
173
     0
291
     0
 45
0.0
1001
ACAD
1000
AcDbSavedByObjectVersion
1070
     0
  0
VISUALSTYLE
  5
32
102
{ACAD_XDICTIONARY
360
5DF
102
}
102
{ACAD_REACTORS
330
2A
102
}
330
2A
100
AcDbVisualStyle
  2

 70
     7
 71
     1
 72
     0
 73
     1
 90
        0
 40
-0.6
 41
-30.0
 62
     5
 63
     7
 74
     0
 91
        4
 64
     7
 65
   257
 75
     1
175
     1
 42
1.0
 92
        8
 66
     7
 43
1.0
 76
     1
 77
     6
 78
     2
 67
     7
 79
     5
170
     0
171
     0
290
     0
174
     0
 93
        1
 44
0.0
173
     0
291
     1
 45
0.0
1001
ACAD
1000
AcDbSavedByObjectVersion
1070
     0
  0
VISUALSTYLE
  5
36
102
{ACAD_XDICTIONARY
360
5E7
102
}
102
{ACAD_REACTORS
330
2A
102
}
330
2A
100
AcDbVisualStyle
  2

 70
    12
 71
     2
 72
     2
 73
     0
 90
        0
 40
-0.6
 41
-30.0
 62
     5
 63
     7
 74
     1
 91
        4
 64
     7
 65
   257
 75
     1
175
     1
 42
1.0
 92
        8
 66
     7
 43
1.0
 76
     1
 77
     6
 78
     2
 67
     7
 79
     5
170
     0
171
     0
290
     0
174
     0
 93
        1
 44
50.0
173
     0
291
     1
 45
0.0
1001
ACAD
1000
AcDbSavedByObjectVersion
1070
     0
  0
VISUALSTYLE
  5
3A
102
{ACAD_XDICTIONARY
360
5EF
102
}
102
{ACAD_REACTORS
330
2A
102
}
330
2A
100
AcDbVisualStyle
  2

 70
    16
 71
     2
 72
     2
 73
     3
 90
        0
 40
-0.6
 41
-30.0
 62
     5
 63
     8
 74
     1
 91
        4
 64
     7
 65
   257
 75
     1
175
     1
 42
1.0
 92
        8
 66
     8
 43
1.0
 76
     1
 77
     6
 78
     2
 67
     7
 79
     5
170
     0
171
     0
290
     0
174
     0
 93
        1
 44
0.0
173
     0
291
     1
 45
0.0
1001
ACAD
1000
AcDbSavedByObjectVersion
1070
     0
  0
VISUALSTYLE
  5
34
102
{ACAD_XDICTIONARY
360
5E3
102
}
102
{ACAD_REACTORS
330
2A
102
}
330
2A
100
AcDbVisualStyle
  2

 70
     9
 71
     3
 72
     2
 73
     0
 90
        0
 40
-0.6
 41
-30.0
 62
     5
 63
     7
 74
     2
 91
        2
 64
     7
 65
   257
 75
     1
175
     1
 42
179.0
 92
        8
 66
     7
 43
1.0
 76
     1
 77
     6
 78
     2
 67
     7
 79
     3
170
     0
171
     0
290
     0
174
     0
 93
        1
 44
0.0
173
     0
291
     0
 45
0.0
1001
ACAD
1000
AcDbSavedByObjectVersion
1070
     0
  0
VISUALSTYLE
  5
35
102
{ACAD_XDICTIONARY
360
5E5
102
}
102
{ACAD_REACTORS
330
2A
102
}
330
2A
100
AcDbVisualStyle
  2

 70
    11
 71
     2
 72
     2
 73
     0
 90
        0
 40
-0.6
 41
-30.0
 62
     5
 63
     7
 74
     1
 91
        4
 64
     7
 65
   257
 75
     1
175
     1
 42
1.0
 92
        8
 66
     7
 43
1.0
 76
     1
 77
     6
 78
     2
 67
     7
 79
     5
170
     0
171
     0
290
     0
174
     0
 93
        1
 44
-50.0
173
     0
291
     1
 45
0.0
1001
ACAD
1000
AcDbSavedByObjectVersion
1070
     0
  0
VISUALSTYLE
  5
3D
102
{ACAD_XDICTIONARY
360
5F5
102
}
102
{ACAD_REACTORS
330
2A
102
}
330
2A
100
AcDbVisualStyle
  2

 70
    22
 71
     2
 72
     2
 73
     0
 90
        0
 40
-0.6
 41
-30.0
 62
     5
 63
     7
 74
     1
 91
        4
 64
     7
 65
   257
 75
     1
175
     1
 42
1.0
 92
        8
 66
     7
 43
1.0
 76
     1
 77
     6
 78
     2
 67
     7
 79
     5
170
     0
171
     0
290
     0
174
     0
 93
        1
 44
0.0
173
     0
291
     1
 45
0.0
1001
ACAD
1000
AcDbSavedByObjectVersion
1070
     0
  0
VISUALSTYLE
  5
39
102
{ACAD_XDICTIONARY
360
5ED
102
}
102
{ACAD_REACTORS
330
2A
102
}
330
2A
100
AcDbVisualStyle
  2

 70
    15
 71
     2
 72
     2
 73
     0
 90
        0
 40
-0.6
 41
-30.0
 62
     5
 63
     7
 74
     1
 91
        4
 64
     7
 65
   257
 75
     1
175
     1
 42
1.0
 92
        8
 66
     7
 43
1.0
 76
     1
 77
     6
 78
     2
 67
     7
 79
     5
170
     0
171
     0
290
     0
174
     0
 93
        1
 44
0.0
173
     0
291
     1
 45
0.0
1001
ACAD
1000
AcDbSavedByObjectVersion
1070
     0
  0
VISUALSTYLE
  5
2B
102
{ACAD_XDICTIONARY
360
5D1
102
}
102
{ACAD_REACTORS
330
2A
102
}
330
2A
100
AcDbVisualStyle
  2

 70
     0
 71
     2
 72
     1
 73
     1
 90
        2
 40
-0.6
 41
30.0
 62
     5
 63
     7
 74
     0
 91
        0
 64
     7
 65
   257
 75
     1
175
     1
 42
1.0
 92
        8
 66
     7
 43
1.0
 76
     1
 77
     6
 78
     2
 67
     7
 79
     5
170
     0
171
     0
290
     0
174
     0
 93
       13
 44
0.0
173
     0
291
     1
 45
0.0
1001
ACAD
1000
AcDbSavedByObjectVersion
1070
     0
  0
VISUALSTYLE
  5
2C
102
{ACAD_XDICTIONARY
360
5D3
102
}
102
{ACAD_REACTORS
330
2A
102
}
330
2A
100
AcDbVisualStyle
  2

 70
     1
 71
     2
 72
     1
 73
     1
 90
        2
 40
-0.6
 41
30.0
 62
     5
 63
     7
 74
     1
 91
        0
 64
     7
 65
   257
 75
     1
175
     1
 42
1.0
 92
        0
 66
   257
 43
1.0
 76
     1
 77
     6
 78
     2
 67
     7
 79
     5
170
     0
171
     0
290
     0
174
     0
 93
       13
 44
0.0
173
     0
291
     1
 45
0.0
1001
ACAD
1000
AcDbSavedByObjectVersion
1070
     0
  0
VISUALSTYLE
  5
2D
102
{ACAD_XDICTIONARY
360
5D5
102
}
102
{ACAD_REACTORS
330
2A
102
}
330
2A
100
AcDbVisualStyle
  2

 70
     2
 71
     2
 72
     2
 73
     1
 90
        2
 40
-0.6
 41
30.0
 62
     5
 63
     7
 74
     0
 91
        0
 64
     7
 65
   257
 75
     1
175
     1
 42
1.0
 92
        0
 66
     7
 43
1.0
 76
     1
 77
     6
 78
     2
 67
     7
 79
     5
170
     0
171
     0
290
     0
174
     0
 93
       13
 44
0.0
173
     0
291
     1
 45
0.0
1001
ACAD
1000
AcDbSavedByObjectVersion
1070
     0
  0
VISUALSTYLE
  5
2E
102
{ACAD_XDICTIONARY
360
5D7
102
}
102
{ACAD_REACTORS
330
2A
102
}
330
2A
100
AcDbVisualStyle
  2

 70
     3
 71
     2
 72
     2
 73
     1
 90
        2
 40
-0.6
 41
30.0
 62
     5
 63
     7
 74
     1
 91
        0
 64
     7
 65
   257
 75
     1
175
     1
 42
1.0
 92
        0
 66
   257
 43
1.0
 76
     1
 77
     6
 78
     2
 67
     7
 79
     5
170
     0
171
     0
290
     0
174
     0
 93
       13
 44
0.0
173
     0
291
     1
 45
0.0
1001
ACAD
1000
AcDbSavedByObjectVersion
1070
     0
  0
VISUALSTYLE
  5
31
102
{ACAD_XDICTIONARY
360
5DD
102
}
102
{ACAD_REACTORS
330
2A
102
}
330
2A
100
AcDbVisualStyle
  2

 70
     6
 71
     1
 72
     2
 73
     2
 90
        0
 40
-0.6
 41
-30.0
 62
     5
 63
     7
 74
     2
 91
        2
 64
     7
 65
   257
 75
     2
175
     1
 42
40.0
 92
        0
 66
   257
 43
1.0
 76
     1
 77
     6
 78
     2
 67
     7
 79
     3
170
     0
171
     0
290
     0
174
     0
 93
        1
 44
0.0
173
     0
291
     0
 45
0.0
1001
ACAD
1000
AcDbSavedByObjectVersion
1070
     0
  0
VISUALSTYLE
  5
3B
102
{ACAD_XDICTIONARY
360
5F1
102
}
102
{ACAD_REACTORS
330
2A
102
}
330
2A
100
AcDbVisualStyle
  2

 70
    20
 71
     2
 72
     2
 73
     0
 90
        0
 40
-0.6
 41
-30.0
 62
     5
 63
     7
 74
     1
 91
        4
 64
     7
 65
   257
 75
     1
175
     1
 42
1.0
 92
       10
 66
     7
 43
1.0
 76
     1
 77
     6
 78
     2
 67
     7
 79
     5
170
     0
171
     0
290
     0
174
     0
 93
        1
 44
0.0
173
     0
291
     1
 45
0.0
1001
ACAD
1000
AcDbSavedByObjectVersion
1070
     0
  0
VISUALSTYLE
  5
38
102
{ACAD_XDICTIONARY
360
5EB
102
}
102
{ACAD_REACTORS
330
2A
102
}
330
2A
100
AcDbVisualStyle
  2

 70
    14
 71
     2
 72
     2
 73
     0
 90
        0
 40
-0.6
 41
-30.0
 62
     5
 63
     7
 74
     1
 91
        4
 64
     7
 65
   257
 75
     7
175
     7
 42
1.0
 92
        8
 66
     7
 43
1.0
 76
     1
 77
     6
 78
     2
 67
     7
 79
     5
170
     0
171
     0
290
     0
174
     0
 93
        1
 44
0.0
173
     0
291
     1
 45
0.0
1001
ACAD
1000
AcDbSavedByObjectVersion
1070
     0
  0
VISUALSTYLE
  5
3C
102
{ACAD_XDICTIONARY
360
5F3
102
}
102
{ACAD_REACTORS
330
2A
102
}
330
2A
100
AcDbVisualStyle
  2

 70
    21
 71
     2
 72
     2
 73
     0
 90
        0
 40
-0.6
 41
-30.0
 62
     5
 63
     7
 74
     1
 91
        4
 64
     7
 65
   257
 75
     1
175
     1
 42
1.0
 92
        9
 66
     7
 43
1.0
 76
     1
 77
     6
 78
     2
 67
     7
 79
     5
170
     0
171
     0
290
     0
174
     0
 93
        1
 44
0.0
173
     0
291
     1
 45
0.0
1001
ACAD
1000
AcDbSavedByObjectVersion
1070
     0
  0
VISUALSTYLE
  5
33
102
{ACAD_XDICTIONARY
360
5E1
102
}
102
{ACAD_REACTORS
330
2A
102
}
330
2A
100
AcDbVisualStyle
  2

 70
     8
 71
     2
 72
     3
 73
     0
 90
        2
 40
-0.6
 41
30.0
 62
     5
 63
     7
 74
     0
 91
        0
 64
     7
 65
   257
 75
     1
175
     1
 42
1.0
 92
        8
 66
   257
 43
1.0
 76
     1
 77
     6
 78
     2
 67
     7
 79
     3
170
     0
171
     0
290
     0
174
     0
 93
       13
 44
0.0
173
     0
291
     0
 45
0.0
1001
ACAD
1000
AcDbSavedByObjectVersion
1070
     0
  0
VISUALSTYLE
  5
42
102
{ACAD_XDICTIONARY
360
5FF
102
}
102
{ACAD_REACTORS
330
2A
102
}
330
2A
100
AcDbVisualStyle
  2

 70
    27
 71
     2
 72
     2
 73
     1
 90
        2
 40
-0.6
 41
30.0
 62
     5
 63
     7
 74
     0
 91
        4
 64
     7
 65
   257
 75
     1
175
     1
 42
1.0
 92
        8
 66
   257
 43
1.0
 76
     1
 77
     6
 78
     2
 67
     8
 79
     3
170
     0
171
     0
290
     0
174
     0
 93
        5
 44
0.0
173
     0
291
     0
 45
0.0
1001
ACAD
1000
AcDbSavedByObjectVersion
1070
     0
  0
VISUALSTYLE
  5
41
102
{ACAD_XDICTIONARY
360
5FD
102
}
102
{ACAD_REACTORS
330
2A
102
}
330
2A
100
AcDbVisualStyle
  2

 70
    26
 71
     2
 72
     2
 73
     1
 90
        2
 40
-0.6
 41
30.0
 62
     5
 63
     7
 74
     1
 91
       10
 64
     7
 65
   257
 75
     2
175
     1
 42
1.0
 92
        8
 66
   257
 43
1.0
 76
     1
 77
     6
 78
     2
 67
     7
 79
     3
170
     0
171
     0
290
     0
174
     0
 93
        5
 44
0.0
173
     0
291
     0
 45
0.0
1001
ACAD
1000
AcDbSavedByObjectVersion
1070
     0
  0
VISUALSTYLE
  5
3E
102
{ACAD_XDICTIONARY
360
5F7
102
}
102
{ACAD_REACTORS
330
2A
102
}
330
2A
100
AcDbVisualStyle
  2

 70
    23
 71
     2
 72
     2
 73
     3
 90
        0
 40
-0.6
 41
-30.0
 62
     5
 63
     7
 74
     2
 91
        2
 64
     7
 65
     7
 75
     1
175
     1
 42
40.0
 92
        8
 66
     7
 43
1.0
 76
     1
 77
     6
 78
     2
 67
     7
 79
     3
170
     0
171
     0
290
     0
174
     0
 93
        1
 44
0.0
173
     0
291
     0
 45
0.0
1001
ACAD
1000
AcDbSavedByObjectVersion
1070
     0
  0
VISUALSTYLE
  5
3F
102
{ACAD_XDICTIONARY
360
5F9
102
}
102
{ACAD_REACTORS
330
2A
102
}
330
2A
100
AcDbVisualStyle
  2

 70
    24
 71
     1
 72
     2
 73
     2
 90
        0
 40
-0.6
 41
-30.0
 62
     5
 63
     7
 74
     2
 91
        2
 64
     7
 65
     7
 75
     1
175
     1
 42
40.0
 92
       11
 66
     7
 43
1.0
 76
     1
 77
     6
 78
     2
 67
     7
 79
     6
170
     0
171
     0
290
     0
174
     0
 93
        1
 44
0.0
173
     0
291
     0
 45
0.0
1001
ACAD
1000
AcDbSavedByObjectVersion
1070
     0
  0
VISUALSTYLE
  5
37
102
{ACAD_XDICTIONARY
360
5E9
102
}
102
{ACAD_REACTORS
330
2A
102
}
330
2A
100
AcDbVisualStyle
  2

 70
    13
 71
     2
 72
     2
 73
     0
 90
        0
 40
-0.6
 41
-30.0
 62
     5
 63
     7
 74
     1
 91
        4
 64
     7
 65
   257
 75
     1
175
     1
 42
1.0
 92
       12
 66
     7
 43
1.0
 76
     1
 77
     6
 78
     2
 67
     7
 79
     5
170
     0
171
     0
290
     0
174
     0
 93
        1
 44
0.0
173
     0
291
     1
 45
0.0
1001
ACAD
1000
AcDbSavedByObjectVersion
1070
     0
  0
VISUALSTYLE
  5
30
102
{ACAD_XDICTIONARY
360
5DB
102
}
102
{ACAD_REACTORS
330
2A
102
}
330
2A
100
AcDbVisualStyle
  2

 70
     5
 71
     0
 72
     2
 73
     0
 90
        0
 40
-0.6
 41
-30.0
 62
     5
 63
     7
 74
     1
 91
        4
 64
     7
 65
   257
 75
     1
175
     1
 42
1.0
 92
        0
 66
   257
 43
1.0
 76
     1
 77
     6
 78
     2
 67
     7
 79
     3
170
     0
171
     0
290
     0
174
     0
 93
        1
 44
0.0
173
     0
291
     0
 45
0.0
1001
ACAD
1000
AcDbSavedByObjectVersion
1070
     0
  0
VISUALSTYLE
  5
40
102
{ACAD_XDICTIONARY
360
5FB
102
}
102
{ACAD_REACTORS
330
2A
102
}
330
2A
100
AcDbVisualStyle
  2

 70
    25
 71
     2
 72
     2
 73
     1
 90
        1
 40
0.5
 41
-30.0
 62
     5
 63
     7
 74
     1
 91
        0
 64
     7
 65
   257
 75
     1
175
     1
 42
1.0
 92
        8
 66
     7
 43
1.0
 76
     1
 77
     6
 78
     2
 67
     7
 79
     3
170
     0
171
     0
290
     0
174
     0
 93
       13
 44
0.0
173
     0
291
     0
 45
0.0
1001
ACAD
1000
AcDbSavedByObjectVersion
1070
     0
  0
DICTIONARYVAR
  5
259
102
{ACAD_REACTORS
330
24B
102
}
330
24B
100
DictionaryVariables
280
     0
  1
1:1
  0
DICTIONARYVAR
  5
252
102
{ACAD_REACTORS
330
24B
102
}
330
24B
100
DictionaryVariables
280
     0
  1
3.500000
  0
DICTIONARYVAR
  5
253
102
{ACAD_REACTORS
330
24B
102
}
330
24B
100
DictionaryVariables
280
     0
  1
acadiso.lin
  0
DICTIONARYVAR
  5
24D
102
{ACAD_REACTORS
330
24B
102
}
330
24B
100
DictionaryVariables
280
     0
  1
STANDARD
  0
DICTIONARYVAR
  5
24C
102
{ACAD_REACTORS
330
24B
102
}
330
24B
100
DictionaryVariables
280
     0
  1
STANDARD
  0
DICTIONARYVAR
  5
578
102
{ACAD_REACTORS
330
24B
102
}
330
24B
100
DictionaryVariables
280
     0
  1
Metric50
  0
DICTIONARYVAR
  5
579
102
{ACAD_REACTORS
330
24B
102
}
330
24B
100
DictionaryVariables
280
     0
  1
Metric50
  0
DICTIONARYVAR
  5
254
102
{ACAD_REACTORS
330
24B
102
}
330
24B
100
DictionaryVariables
280
     0
  1
2
  0
DICTIONARYVAR
  5
255
102
{ACAD_REACTORS
330
24B
102
}
330
24B
100
DictionaryVariables
280
     0
  1
1
  0
DICTIONARYVAR
  5
5C3
102
{ACAD_REACTORS
330
24B
102
}
330
24B
100
DictionaryVariables
280
     0
  1
0
  0
DICTIONARYVAR
  5
57B
102
{ACAD_REACTORS
330
24B
102
}
330
24B
100
DictionaryVariables
280
     0
  1
1
  0
DICTIONARYVAR
  5
57C
102
{ACAD_REACTORS
330
24B
102
}
330
24B
100
DictionaryVariables
280
     0
  1
15
  0
DICTIONARYVAR
  5
57A
102
{ACAD_REACTORS
330
24B
102
}
330
24B
100
DictionaryVariables
280
     0
  1
0
  0
DICTIONARYVAR
  5
5C6
102
{ACAD_REACTORS
330
24B
102
}
330
24B
100
DictionaryVariables
280
     0
  1
1.570796
  0
DICTIONARYVAR
  5
5C7
102
{ACAD_REACTORS
330
24B
102
}
330
24B
100
DictionaryVariables
280
     0
  1
1.570796
  0
DICTIONARYVAR
  5
5C8
102
{ACAD_REACTORS
330
24B
102
}
330
24B
100
DictionaryVariables
280
     0
  1
-122.394000
  0
DICTIONARYVAR
  5
25A
102
{ACAD_REACTORS
330
24B
102
}
330
24B
100
DictionaryVariables
280
     0
  1
1
  0
DICTIONARYVAR
  5
5C5
102
{ACAD_REACTORS
330
24B
102
}
330
24B
100
DictionaryVariables
280
     0
  1
80.000000
  0
DICTIONARYVAR
  5
5C4
102
{ACAD_REACTORS
330
24B
102
}
330
24B
100
DictionaryVariables
280
     0
  1
5.000000
  0
DICTIONARYVAR
  5
5C2
102
{ACAD_REACTORS
330
24B
102
}
330
24B
100
DictionaryVariables
280
     0
  1
127
  0
DICTIONARYVAR
  5
5C9
102
{ACAD_REACTORS
330
24B
102
}
330
24B
100
DictionaryVariables
280
     0
  1
2
  0
DICTIONARY
  5
604
330
29A
100
AcDbDictionary
280
     1
281
     1
  3
ACAD_XREC_ROUNDTRIP
360
605
  0
DICTIONARY
  5
5CD
330
1E
100
AcDbDictionary
280
     1
281
     1
  3
ACAD_XREC_ROUNDTRIP
360
5CE
  0
DICTIONARY
  5
5CF
330
22
100
AcDbDictionary
280
     1
281
     1
  3
ACAD_XREC_ROUNDTRIP
360
5D0
  0
DICTIONARY
  5
606
330
29B
100
AcDbDictionary
280
     1
281
     1
  3
ACAD_XREC_ROUNDTRIP
360
607
  0
DICTIONARY
  5
28D
330
45
100
AcDbDictionary
280
     1
281
     1
  3
ACAD_XREC_ROUNDTRIP
360
28E
  0
DICTIONARY
  5
28B
330
44
100
AcDbDictionary
280
     1
281
     1
  3
ACAD_XREC_ROUNDTRIP
360
28C
  0
DICTIONARY
  5
28F
330
46
100
AcDbDictionary
280
     1
281
     1
  3
ACAD_XREC_ROUNDTRIP
360
290
  0
DICTIONARY
  5
602
330
298
100
AcDbDictionary
280
     1
281
     1
  3
ACAD_XREC_ROUNDTRIP
360
603
  0
DICTIONARY
  5
57D
330
5A
100
AcDbDictionary
280
     1
281
     1
  3
ACAD_ROUNDTRIP_2008_TABLESTYLE_CELLSTYLEMAP
360
5CA
  3
ACAD_XREC_ROUNDTRIP
360
601
  0
DICTIONARY
  5
5D9
330
2F
100
AcDbDictionary
280
     1
281
     1
  3
ACAD_XREC_ROUNDTRIP
360
5DA
  0
DICTIONARY
  5
5DF
330
32
100
AcDbDictionary
280
     1
281
     1
  3
ACAD_XREC_ROUNDTRIP
360
5E0
  0
DICTIONARY
  5
5E7
330
36
100
AcDbDictionary
280
     1
281
     1
  3
ACAD_XREC_ROUNDTRIP
360
5E8
  0
DICTIONARY
  5
5EF
330
3A
100
AcDbDictionary
280
     1
281
     1
  3
ACAD_XREC_ROUNDTRIP
360
5F0
  0
DICTIONARY
  5
5E3
330
34
100
AcDbDictionary
280
     1
281
     1
  3
ACAD_XREC_ROUNDTRIP
360
5E4
  0
DICTIONARY
  5
5E5
330
35
100
AcDbDictionary
280
     1
281
     1
  3
ACAD_XREC_ROUNDTRIP
360
5E6
  0
DICTIONARY
  5
5F5
330
3D
100
AcDbDictionary
280
     1
281
     1
  3
ACAD_XREC_ROUNDTRIP
360
5F6
  0
DICTIONARY
  5
5ED
330
39
100
AcDbDictionary
280
     1
281
     1
  3
ACAD_XREC_ROUNDTRIP
360
5EE
  0
DICTIONARY
  5
5D1
330
2B
100
AcDbDictionary
280
     1
281
     1
  3
ACAD_XREC_ROUNDTRIP
360
5D2
  0
DICTIONARY
  5
5D3
330
2C
100
AcDbDictionary
280
     1
281
     1
  3
ACAD_XREC_ROUNDTRIP
360
5D4
  0
DICTIONARY
  5
5D5
330
2D
100
AcDbDictionary
280
     1
281
     1
  3
ACAD_XREC_ROUNDTRIP
360
5D6
  0
DICTIONARY
  5
5D7
330
2E
100
AcDbDictionary
280
     1
281
     1
  3
ACAD_XREC_ROUNDTRIP
360
5D8
  0
DICTIONARY
  5
5DD
330
31
100
AcDbDictionary
280
     1
281
     1
  3
ACAD_XREC_ROUNDTRIP
360
5DE
  0
DICTIONARY
  5
5F1
330
3B
100
AcDbDictionary
280
     1
281
     1
  3
ACAD_XREC_ROUNDTRIP
360
5F2
  0
DICTIONARY
  5
5EB
330
38
100
AcDbDictionary
280
     1
281
     1
  3
ACAD_XREC_ROUNDTRIP
360
5EC
  0
DICTIONARY
  5
5F3
330
3C
100
AcDbDictionary
280
     1
281
     1
  3
ACAD_XREC_ROUNDTRIP
360
5F4
  0
DICTIONARY
  5
5E1
330
33
100
AcDbDictionary
280
     1
281
     1
  3
ACAD_XREC_ROUNDTRIP
360
5E2
  0
DICTIONARY
  5
5FF
330
42
100
AcDbDictionary
280
     1
281
     1
  3
ACAD_XREC_ROUNDTRIP
360
600
  0
DICTIONARY
  5
5FD
330
41
100
AcDbDictionary
280
     1
281
     1
  3
ACAD_XREC_ROUNDTRIP
360
5FE
  0
DICTIONARY
  5
5F7
330
3E
100
AcDbDictionary
280
     1
281
     1
  3
ACAD_XREC_ROUNDTRIP
360
5F8
  0
DICTIONARY
  5
5F9
330
3F
100
AcDbDictionary
280
     1
281
     1
  3
ACAD_XREC_ROUNDTRIP
360
5FA
  0
DICTIONARY
  5
5E9
330
37
100
AcDbDictionary
280
     1
281
     1
  3
ACAD_XREC_ROUNDTRIP
360
5EA
  0
DICTIONARY
  5
5DB
330
30
100
AcDbDictionary
280
     1
281
     1
  3
ACAD_XREC_ROUNDTRIP
360
5DC
  0
DICTIONARY
  5
5FB
330
40
100
AcDbDictionary
280
     1
281
     1
  3
ACAD_XREC_ROUNDTRIP
360
5FC
  0
XRECORD
  5
605
102
{ACAD_REACTORS
330
604
102
}
330
604
100
AcDbXrecord
280
     1
102
DISPLAYNAME
  1
Metric50
102
FLAGS
 90
        0
  0
XRECORD
  5
5CE
102
{ACAD_REACTORS
330
5CD
102
}
330
5CD
100
AcDbXrecord
280
     1
102
SHADEPLOT
 70
     0
102
SHADEPLOTRESLEVEL
 70
     2
102
SHADEPLOTCUSTOMDPI
 70
   300
  0
XRECORD
  5
5D0
102
{ACAD_REACTORS
330
5CF
102
}
330
5CF
100
AcDbXrecord
280
     1
102
SHADEPLOT
 70
     0
102
SHADEPLOTRESLEVEL
 70
     2
102
SHADEPLOTCUSTOMDPI
 70
   300
  0
XRECORD
  5
607
102
{ACAD_REACTORS
330
606
102
}
330
606
100
AcDbXrecord
280
     1
102
SHADEPLOT
 70
     0
102
SHADEPLOTRESLEVEL
 70
     2
102
SHADEPLOTCUSTOMDPI
 70
   300
  0
XRECORD
  5
28E
102
{ACAD_REACTORS
330
28D
102
}
330
28D
100
AcDbXrecord
280
     1
102
MATERIAL
148
0.0
149
0.0
149
0.0
 93
        0
 94
      127
282
     0
 72
     1
 77
     1
171
     1
175
     1
179
     1
273
     0
  0
XRECORD
  5
28C
102
{ACAD_REACTORS
330
28B
102
}
330
28B
100
AcDbXrecord
280
     1
102
MATERIAL
148
0.0
149
0.0
149
0.0
 93
        0
 94
      127
282
     0
 72
     1
 77
     1
171
     1
175
     1
179
     1
273
     0
  0
XRECORD
  5
290
102
{ACAD_REACTORS
330
28F
102
}
330
28F
100
AcDbXrecord
280
     1
102
MATERIAL
148
0.0
149
0.0
149
0.0
 93
        0
 94
      127
282
     0
 72
     1
 77
     1
171
     1
175
     1
179
     1
273
     0
  0
XRECORD
  5
603
102
{ACAD_REACTORS
330
602
102
}
330
602
100
AcDbXrecord
280
     1
102
DISPLAYNAME
  1
Metric50
102
FLAGS
 90
        0
  0
CELLSTYLEMAP
  5
5CA
102
{ACAD_REACTORS
330
57D
102
}
330
57D
100
AcDbCellStyleMap
 90
        3
300
CELLSTYLE
  1
TABLEFORMAT_BEGIN
 90
        5
170
     1
 91
        0
 92
    32768
 62
   257
 93
        1
300
CONTENTFORMAT
  1
CONTENTFORMAT_BEGIN
 90
        0
 91
        0
 92
        4
 93
        0
300

 40
0.0
140
1.0
 94
        5
 62
     0
340
11
144
6.0
309
CONTENTFORMAT_END
171
     1
301
MARGIN
  1
CELLMARGIN_BEGIN
 40
1.5
 40
1.5
 40
1.5
 40
1.5
 40
0.18
 40
0.18
309
CELLMARGIN_END
 94
        6
 95
        1
302
GRIDFORMAT
  1
GRIDFORMAT_BEGIN
 90
        0
 91
        1
 62
     0
 92
       -2
340
0
 93
        0
 40
0.045
309
GRIDFORMAT_END
 95
        2
302
GRIDFORMAT
  1
GRIDFORMAT_BEGIN
 90
        0
 91
        1
 62
     0
 92
       -2
340
0
 93
        0
 40
0.045
309
GRIDFORMAT_END
 95
        4
302
GRIDFORMAT
  1
GRIDFORMAT_BEGIN
 90
        0
 91
        1
 62
     0
 92
       -2
340
0
 93
        0
 40
0.045
309
GRIDFORMAT_END
 95
        8
302
GRIDFORMAT
  1
GRIDFORMAT_BEGIN
 90
        0
 91
        1
 62
     0
 92
       -2
340
0
 93
        0
 40
0.045
309
GRIDFORMAT_END
 95
       16
302
GRIDFORMAT
  1
GRIDFORMAT_BEGIN
 90
        0
 91
        1
 62
     0
 92
       -2
340
0
 93
        0
 40
0.045
309
GRIDFORMAT_END
 95
       32
302
GRIDFORMAT
  1
GRIDFORMAT_BEGIN
 90
        0
 91
        1
 62
     0
 92
       -2
340
0
 93
        0
 40
0.045
309
GRIDFORMAT_END
309
TABLEFORMAT_END
  1
CELLSTYLE_BEGIN
 90
        1
 91
        1
300
_TITLE
309
CELLSTYLE_END
300
CELLSTYLE
  1
TABLEFORMAT_BEGIN
 90
        5
170
     1
 91
        0
 92
        0
 62
   257
 93
        1
300
CONTENTFORMAT
  1
CONTENTFORMAT_BEGIN
 90
        0
 91
        0
 92
        4
 93
        0
300

 40
0.0
140
1.0
 94
        5
 62
     0
340
11
144
4.5
309
CONTENTFORMAT_END
171
     1
301
MARGIN
  1
CELLMARGIN_BEGIN
 40
1.5
 40
1.5
 40
1.5
 40
1.5
 40
0.18
 40
0.18
309
CELLMARGIN_END
 94
        6
 95
        1
302
GRIDFORMAT
  1
GRIDFORMAT_BEGIN
 90
        0
 91
        1
 62
     0
 92
       -2
340
0
 93
        0
 40
0.045
309
GRIDFORMAT_END
 95
        2
302
GRIDFORMAT
  1
GRIDFORMAT_BEGIN
 90
        0
 91
        1
 62
     0
 92
       -2
340
0
 93
        0
 40
0.045
309
GRIDFORMAT_END
 95
        4
302
GRIDFORMAT
  1
GRIDFORMAT_BEGIN
 90
        0
 91
        1
 62
     0
 92
       -2
340
0
 93
        0
 40
0.045
309
GRIDFORMAT_END
 95
        8
302
GRIDFORMAT
  1
GRIDFORMAT_BEGIN
 90
        0
 91
        1
 62
     0
 92
       -2
340
0
 93
        0
 40
0.045
309
GRIDFORMAT_END
 95
       16
302
GRIDFORMAT
  1
GRIDFORMAT_BEGIN
 90
        0
 91
        1
 62
     0
 92
       -2
340
0
 93
        0
 40
0.045
309
GRIDFORMAT_END
 95
       32
302
GRIDFORMAT
  1
GRIDFORMAT_BEGIN
 90
        0
 91
        1
 62
     0
 92
       -2
340
0
 93
        0
 40
0.045
309
GRIDFORMAT_END
309
TABLEFORMAT_END
  1
CELLSTYLE_BEGIN
 90
        2
 91
        1
300
_HEADER
309
CELLSTYLE_END
300
CELLSTYLE
  1
TABLEFORMAT_BEGIN
 90
        5
170
     1
 91
        0
 92
        0
 62
   257
 93
        1
300
CONTENTFORMAT
  1
CONTENTFORMAT_BEGIN
 90
        0
 91
        0
 92
        4
 93
        0
300

 40
0.0
140
1.0
 94
        2
 62
     0
340
11
144
4.5
309
CONTENTFORMAT_END
171
     1
301
MARGIN
  1
CELLMARGIN_BEGIN
 40
1.5
 40
1.5
 40
1.5
 40
1.5
 40
0.18
 40
0.18
309
CELLMARGIN_END
 94
        6
 95
        1
302
GRIDFORMAT
  1
GRIDFORMAT_BEGIN
 90
        0
 91
        1
 62
     0
 92
       -2
340
0
 93
        0
 40
0.045
309
GRIDFORMAT_END
 95
        2
302
GRIDFORMAT
  1
GRIDFORMAT_BEGIN
 90
        0
 91
        1
 62
     0
 92
       -2
340
0
 93
        0
 40
0.045
309
GRIDFORMAT_END
 95
        4
302
GRIDFORMAT
  1
GRIDFORMAT_BEGIN
 90
        0
 91
        1
 62
     0
 92
       -2
340
0
 93
        0
 40
0.045
309
GRIDFORMAT_END
 95
        8
302
GRIDFORMAT
  1
GRIDFORMAT_BEGIN
 90
        0
 91
        1
 62
     0
 92
       -2
340
0
 93
        0
 40
0.045
309
GRIDFORMAT_END
 95
       16
302
GRIDFORMAT
  1
GRIDFORMAT_BEGIN
 90
        0
 91
        1
 62
     0
 92
       -2
340
0
 93
        0
 40
0.045
309
GRIDFORMAT_END
 95
       32
302
GRIDFORMAT
  1
GRIDFORMAT_BEGIN
 90
        0
 91
        1
 62
     0
 92
       -2
340
0
 93
        0
 40
0.045
309
GRIDFORMAT_END
309
TABLEFORMAT_END
  1
CELLSTYLE_BEGIN
 90
        3
 91
        2
300
_DATA
309
CELLSTYLE_END
  0
XRECORD
  5
601
102
{ACAD_REACTORS
330
57D
102
}
330
57D
100
AcDbXrecord
280
     1
102
ACAD_ROUNDTRIP_PRE2007_TABLESTYLE
 90
        4
 91
        0
  1

 92
        4
 93
        0
  2

 94
        4
 95
        0
  3

  0
XRECORD
  5
5DA
102
{ACAD_REACTORS
330
5D9
102
}
330
5D9
100
AcDbXrecord
280
     1
102
RTVSPost2010Prop28
280
     1
102
RTVSPost2010PropOp28
 70
     1
102
RTVSPost2010Prop29
280
     1
102
RTVSPost2010PropOp29
 70
     1
102
RTVSPost2010Prop30
280
     0
102
RTVSPost2010PropOp30
 70
     1
102
RTVSPost2010Prop31
280
     0
102
RTVSPost2010PropOp31
 70
     1
102
RTVSPost2010Prop32
280
     0
102
RTVSPost2010PropOp32
 70
     1
102
RTVSPost2010Prop33
280
     0
102
RTVSPost2010PropOp33
 70
     1
102
RTVSPost2010Prop34
280
     0
102
RTVSPost2010PropOp34
 70
     1
102
RTVSPost2010Prop35
280
     0
102
RTVSPost2010PropOp35
 70
     1
102
RTVSPost2010Prop36
280
     0
102
RTVSPost2010PropOp36
 70
     1
102
RTVSPost2010Prop37
 90
       50
102
RTVSPost2010PropOp37
 70
     1
102
RTVSPost2010Prop38
140
0.0
102
RTVSPost2010PropOp38
 70
     1
102
RTVSPost2010Prop39
140
1.0
102
RTVSPost2010PropOp39
 70
     1
102
RTVSPost2010Prop40
 90
        0
102
RTVSPost2010PropOp40
 70
     1
102
RTVSPost2010Prop41ColorIndex
 90
       18
102
RTVSPost2010Prop41ColorRGB
 90
        0
102
RTVSPost2010PropOp41
 70
     1
102
RTVSPost2010Prop42
 90
       50
102
RTVSPost2010PropOp42
 70
     1
102
RTVSPost2010Prop43
 90
        3
102
RTVSPost2010PropOp43
 70
     1
102
RTVSPost2010Prop44ColorIndex
 90
        5
102
RTVSPost2010Prop44ColorRGB
 90
      255
102
RTVSPost2010PropOp44
 70
     1
102
RTVSPost2010Prop45
280
     0
102
RTVSPost2010PropOp45
 70
     1
102
RTVSPost2010Prop46
 90
       50
102
RTVSPost2010PropOp46
 70
     1
102
RTVSPost2010Prop47
 90
       50
102
RTVSPost2010PropOp47
 70
     1
102
RTVSPost2010Prop48
 90
       50
102
RTVSPost2010PropOp48
 70
     1
102
RTVSPost2010Prop49
280
     0
102
RTVSPost2010PropOp49
 70
     1
102
RTVSPost2010Prop50
 90
       50
102
RTVSPost2010PropOp50
 70
     1
102
RTVSPost2010Prop51ColorIndex
 90
      256
102
RTVSPost2010Prop51ColorRGB
 90
-16777216
102
RTVSPost2010PropOp51
 70
     0
102
RTVSPost2010Prop52
140
1.0
102
RTVSPost2010PropOp52
 70
     0
102
RTVSPost2010Prop53
 90
        2
102
RTVSPost2010PropOp53
 70
     1
102
RTVSPost2010Prop54
  1
strokes_ogs.tif
102
RTVSPost2010PropOp54
 70
     1
102
RTVSPost2010Prop55
280
     0
102
RTVSPost2010PropOp55
 70
     1
102
RTVSPost2010Prop56
140
1.0
102
RTVSPost2010PropOp56
 70
     1
102
RTVSPost2010Prop57
140
1.0
102
RTVSPost2010PropOp57
 70
     1
102
RTVSPropertyOp0
 70
     1
102
RTVSPropertyOp1
 70
     1
102
RTVSPropertyOp2
 70
     1
102
RTVSPropertyOp3
 70
     1
102
RTVSPropertyOp4
 70
     1
102
RTVSPropertyOp5
 70
     1
102
RTVSPropertyOp6
 70
     1
102
RTVSPropertyOp7
 70
     1
102
RTVSPropertyOp8
 70
     1
102
RTVSPropertyOp9
 70
     1
102
RTVSPropertyOp10
 70
     1
102
RTVSPropertyOp11
 70
     1
102
RTVSPropertyOp12
 70
     1
102
RTVSPropertyOp13
 70
     1
102
RTVSPropertyOp14
 70
     1
102
RTVSPropertyOp15
 70
     1
102
RTVSPropertyOp16
 70
     1
102
RTVSPropertyOp17
 70
     1
102
RTVSPropertyOp18
 70
     1
102
RTVSPropertyOp19
 70
     1
102
RTVSPropertyOp20
 70
     1
102
RTVSPropertyOp21
 70
     1
102
RTVSPropertyOp22
 70
     1
102
RTVSPropertyOp23
 70
     1
102
RTVSPropertyOp24
 70
     1
102
RTVSPropertyOp25
 70
     1
102
RTVSPropertyOp26
 70
     1
102
RTVSPropertyOp27
 70
     1
102
RTVSPropertyOp28
 70
     1
102
RTVSPropertyOp29
 70
     1
102
RTVSPropertyOp30
 70
     1
102
RTVSPropertyOp31
 70
     1
102
RTVSPropertyOp32
 70
     1
102
RTVSPropertyOp33
 70
     1
102
RTVSPropertyOp34
 70
     1
102
RTVSPropertyOp35
 70
     1
102
RTVSPropertyOp36
 70
     1
102
RTVSPropertyOp37
 70
     1
102
RTVSPropertyOp38
 70
     1
102
RTVSPropertyOp39
 70
     1
102
RTVSPropertyOp40
 70
     1
102
RTVSPropertyOp41
 70
     1
102
RTVSPropertyOp42
 70
     1
102
RTVSPropertyOp43
 70
     1
102
RTVSPropertyOp44
 70
     1
102
RTVSPropertyOp45
 70
     1
102
RTVSPropertyOp46
 70
     1
102
RTVSPropertyOp47
 70
     1
102
RTVSPropertyOp48
 70
     1
102
RTVSPropertyOp49
 70
     1
102
RTVSPropertyOp50
 70
     1
102
RTVSPropertyOp51
 70
     0
102
RTVSPropertyOp52
 70
     0
102
RTVSPropertyOp53
 70
     1
102
RTVSPropertyOp54
 70
     1
102
RTVSPropertyOp55
 70
     1
102
RTVSPropertyOp56
 70
     1
102
RTVSPropertyOp57
 70
     1
102
RTVSPropertyOp58
 70
     1
102
RTVSPropertyOp59
 70
     1
102
RTVSPropertyOp60
 70
     1
102
RTVSPropertyOp61
 70
     1
102
RTVSPropertyOp62
 70
     1
  0
XRECORD
  5
5E0
102
{ACAD_REACTORS
330
5DF
102
}
330
5DF
100
AcDbXrecord
280
     1
102
RTVSPost2010Prop28
280
     0
102
RTVSPost2010PropOp28
 70
     1
102
RTVSPost2010Prop29
280
     1
102
RTVSPost2010PropOp29
 70
     1
102
RTVSPost2010Prop30
280
     1
102
RTVSPost2010PropOp30
 70
     1
102
RTVSPost2010Prop31
280
     0
102
RTVSPost2010PropOp31
 70
     1
102
RTVSPost2010Prop32
280
     0
102
RTVSPost2010PropOp32
 70
     1
102
RTVSPost2010Prop33
280
     0
102
RTVSPost2010PropOp33
 70
     1
102
RTVSPost2010Prop34
280
     0
102
RTVSPost2010PropOp34
 70
     1
102
RTVSPost2010Prop35
280
     0
102
RTVSPost2010PropOp35
 70
     1
102
RTVSPost2010Prop36
280
     0
102
RTVSPost2010PropOp36
 70
     1
102
RTVSPost2010Prop37
 90
       50
102
RTVSPost2010PropOp37
 70
     1
102
RTVSPost2010Prop38
140
0.0
102
RTVSPost2010PropOp38
 70
     1
102
RTVSPost2010Prop39
140
1.0
102
RTVSPost2010PropOp39
 70
     1
102
RTVSPost2010Prop40
 90
        0
102
RTVSPost2010PropOp40
 70
     1
102
RTVSPost2010Prop41ColorIndex
 90
       18
102
RTVSPost2010Prop41ColorRGB
 90
        0
102
RTVSPost2010PropOp41
 70
     1
102
RTVSPost2010Prop42
 90
       50
102
RTVSPost2010PropOp42
 70
     1
102
RTVSPost2010Prop43
 90
        3
102
RTVSPost2010PropOp43
 70
     1
102
RTVSPost2010Prop44ColorIndex
 90
        5
102
RTVSPost2010Prop44ColorRGB
 90
      255
102
RTVSPost2010PropOp44
 70
     1
102
RTVSPost2010Prop45
280
     0
102
RTVSPost2010PropOp45
 70
     1
102
RTVSPost2010Prop46
 90
       50
102
RTVSPost2010PropOp46
 70
     1
102
RTVSPost2010Prop47
 90
       50
102
RTVSPost2010PropOp47
 70
     1
102
RTVSPost2010Prop48
 90
       50
102
RTVSPost2010PropOp48
 70
     1
102
RTVSPost2010Prop49
280
     0
102
RTVSPost2010PropOp49
 70
     1
102
RTVSPost2010Prop50
 90
       50
102
RTVSPost2010PropOp50
 70
     1
102
RTVSPost2010Prop51ColorIndex
 90
      256
102
RTVSPost2010Prop51ColorRGB
 90
-16777216
102
RTVSPost2010PropOp51
 70
     0
102
RTVSPost2010Prop52
140
1.0
102
RTVSPost2010PropOp52
 70
     0
102
RTVSPost2010Prop53
 90
        2
102
RTVSPost2010PropOp53
 70
     1
102
RTVSPost2010Prop54
  1
strokes_ogs.tif
102
RTVSPost2010PropOp54
 70
     1
102
RTVSPost2010Prop55
280
     0
102
RTVSPost2010PropOp55
 70
     1
102
RTVSPost2010Prop56
140
1.0
102
RTVSPost2010PropOp56
 70
     1
102
RTVSPost2010Prop57
140
1.0
102
RTVSPost2010PropOp57
 70
     1
102
RTVSPropertyOp0
 70
     1
102
RTVSPropertyOp1
 70
     1
102
RTVSPropertyOp2
 70
     1
102
RTVSPropertyOp3
 70
     1
102
RTVSPropertyOp4
 70
     1
102
RTVSPropertyOp5
 70
     1
102
RTVSPropertyOp6
 70
     1
102
RTVSPropertyOp7
 70
     1
102
RTVSPropertyOp8
 70
     1
102
RTVSPropertyOp9
 70
     1
102
RTVSPropertyOp10
 70
     1
102
RTVSPropertyOp11
 70
     1
102
RTVSPropertyOp12
 70
     1
102
RTVSPropertyOp13
 70
     1
102
RTVSPropertyOp14
 70
     1
102
RTVSPropertyOp15
 70
     1
102
RTVSPropertyOp16
 70
     1
102
RTVSPropertyOp17
 70
     1
102
RTVSPropertyOp18
 70
     1
102
RTVSPropertyOp19
 70
     1
102
RTVSPropertyOp20
 70
     1
102
RTVSPropertyOp21
 70
     1
102
RTVSPropertyOp22
 70
     1
102
RTVSPropertyOp23
 70
     1
102
RTVSPropertyOp24
 70
     1
102
RTVSPropertyOp25
 70
     1
102
RTVSPropertyOp26
 70
     1
102
RTVSPropertyOp27
 70
     1
102
RTVSPropertyOp28
 70
     1
102
RTVSPropertyOp29
 70
     1
102
RTVSPropertyOp30
 70
     1
102
RTVSPropertyOp31
 70
     1
102
RTVSPropertyOp32
 70
     1
102
RTVSPropertyOp33
 70
     1
102
RTVSPropertyOp34
 70
     1
102
RTVSPropertyOp35
 70
     1
102
RTVSPropertyOp36
 70
     1
102
RTVSPropertyOp37
 70
     1
102
RTVSPropertyOp38
 70
     1
102
RTVSPropertyOp39
 70
     1
102
RTVSPropertyOp40
 70
     1
102
RTVSPropertyOp41
 70
     1
102
RTVSPropertyOp42
 70
     1
102
RTVSPropertyOp43
 70
     1
102
RTVSPropertyOp44
 70
     1
102
RTVSPropertyOp45
 70
     1
102
RTVSPropertyOp46
 70
     1
102
RTVSPropertyOp47
 70
     1
102
RTVSPropertyOp48
 70
     1
102
RTVSPropertyOp49
 70
     1
102
RTVSPropertyOp50
 70
     1
102
RTVSPropertyOp51
 70
     0
102
RTVSPropertyOp52
 70
     0
102
RTVSPropertyOp53
 70
     1
102
RTVSPropertyOp54
 70
     1
102
RTVSPropertyOp55
 70
     1
102
RTVSPropertyOp56
 70
     1
102
RTVSPropertyOp57
 70
     1
102
RTVSPropertyOp58
 70
     1
102
RTVSPropertyOp59
 70
     1
102
RTVSPropertyOp60
 70
     1
102
RTVSPropertyOp61
 70
     1
102
RTVSPropertyOp62
 70
     1
  0
XRECORD
  5
5E8
102
{ACAD_REACTORS
330
5E7
102
}
330
5E7
100
AcDbXrecord
280
     1
102
RTVSPost2010Prop28
280
     0
102
RTVSPost2010PropOp28
 70
     1
102
RTVSPost2010Prop29
280
     1
102
RTVSPost2010PropOp29
 70
     1
102
RTVSPost2010Prop30
280
     1
102
RTVSPost2010PropOp30
 70
     1
102
RTVSPost2010Prop31
280
     0
102
RTVSPost2010PropOp31
 70
     1
102
RTVSPost2010Prop32
280
     0
102
RTVSPost2010PropOp32
 70
     1
102
RTVSPost2010Prop33
280
     0
102
RTVSPost2010PropOp33
 70
     1
102
RTVSPost2010Prop34
280
     0
102
RTVSPost2010PropOp34
 70
     1
102
RTVSPost2010Prop35
280
     0
102
RTVSPost2010PropOp35
 70
     1
102
RTVSPost2010Prop36
280
     0
102
RTVSPost2010PropOp36
 70
     1
102
RTVSPost2010Prop37
 90
       50
102
RTVSPost2010PropOp37
 70
     1
102
RTVSPost2010Prop38
140
0.0
102
RTVSPost2010PropOp38
 70
     1
102
RTVSPost2010Prop39
140
1.0
102
RTVSPost2010PropOp39
 70
     1
102
RTVSPost2010Prop40
 90
        0
102
RTVSPost2010PropOp40
 70
     1
102
RTVSPost2010Prop41ColorIndex
 90
       18
102
RTVSPost2010Prop41ColorRGB
 90
        0
102
RTVSPost2010PropOp41
 70
     1
102
RTVSPost2010Prop42
 90
       50
102
RTVSPost2010PropOp42
 70
     1
102
RTVSPost2010Prop43
 90
        3
102
RTVSPost2010PropOp43
 70
     1
102
RTVSPost2010Prop44ColorIndex
 90
        5
102
RTVSPost2010Prop44ColorRGB
 90
      255
102
RTVSPost2010PropOp44
 70
     1
102
RTVSPost2010Prop45
280
     0
102
RTVSPost2010PropOp45
 70
     1
102
RTVSPost2010Prop46
 90
       50
102
RTVSPost2010PropOp46
 70
     1
102
RTVSPost2010Prop47
 90
       50
102
RTVSPost2010PropOp47
 70
     1
102
RTVSPost2010Prop48
 90
       50
102
RTVSPost2010PropOp48
 70
     1
102
RTVSPost2010Prop49
280
     0
102
RTVSPost2010PropOp49
 70
     1
102
RTVSPost2010Prop50
 90
       50
102
RTVSPost2010PropOp50
 70
     1
102
RTVSPost2010Prop51ColorIndex
 90
      256
102
RTVSPost2010Prop51ColorRGB
 90
-16777216
102
RTVSPost2010PropOp51
 70
     0
102
RTVSPost2010Prop52
140
1.0
102
RTVSPost2010PropOp52
 70
     0
102
RTVSPost2010Prop53
 90
        2
102
RTVSPost2010PropOp53
 70
     1
102
RTVSPost2010Prop54
  1
strokes_ogs.tif
102
RTVSPost2010PropOp54
 70
     1
102
RTVSPost2010Prop55
280
     0
102
RTVSPost2010PropOp55
 70
     1
102
RTVSPost2010Prop56
140
1.0
102
RTVSPost2010PropOp56
 70
     1
102
RTVSPost2010Prop57
140
1.0
102
RTVSPost2010PropOp57
 70
     1
102
RTVSPropertyOp0
 70
     1
102
RTVSPropertyOp1
 70
     1
102
RTVSPropertyOp2
 70
     1
102
RTVSPropertyOp3
 70
     1
102
RTVSPropertyOp4
 70
     1
102
RTVSPropertyOp5
 70
     1
102
RTVSPropertyOp6
 70
     1
102
RTVSPropertyOp7
 70
     1
102
RTVSPropertyOp8
 70
     1
102
RTVSPropertyOp9
 70
     1
102
RTVSPropertyOp10
 70
     1
102
RTVSPropertyOp11
 70
     1
102
RTVSPropertyOp12
 70
     1
102
RTVSPropertyOp13
 70
     1
102
RTVSPropertyOp14
 70
     1
102
RTVSPropertyOp15
 70
     1
102
RTVSPropertyOp16
 70
     1
102
RTVSPropertyOp17
 70
     1
102
RTVSPropertyOp18
 70
     1
102
RTVSPropertyOp19
 70
     1
102
RTVSPropertyOp20
 70
     1
102
RTVSPropertyOp21
 70
     1
102
RTVSPropertyOp22
 70
     1
102
RTVSPropertyOp23
 70
     1
102
RTVSPropertyOp24
 70
     1
102
RTVSPropertyOp25
 70
     1
102
RTVSPropertyOp26
 70
     1
102
RTVSPropertyOp27
 70
     1
102
RTVSPropertyOp28
 70
     1
102
RTVSPropertyOp29
 70
     1
102
RTVSPropertyOp30
 70
     1
102
RTVSPropertyOp31
 70
     1
102
RTVSPropertyOp32
 70
     1
102
RTVSPropertyOp33
 70
     1
102
RTVSPropertyOp34
 70
     1
102
RTVSPropertyOp35
 70
     1
102
RTVSPropertyOp36
 70
     1
102
RTVSPropertyOp37
 70
     1
102
RTVSPropertyOp38
 70
     1
102
RTVSPropertyOp39
 70
     1
102
RTVSPropertyOp40
 70
     1
102
RTVSPropertyOp41
 70
     1
102
RTVSPropertyOp42
 70
     1
102
RTVSPropertyOp43
 70
     1
102
RTVSPropertyOp44
 70
     1
102
RTVSPropertyOp45
 70
     1
102
RTVSPropertyOp46
 70
     1
102
RTVSPropertyOp47
 70
     1
102
RTVSPropertyOp48
 70
     1
102
RTVSPropertyOp49
 70
     1
102
RTVSPropertyOp50
 70
     1
102
RTVSPropertyOp51
 70
     0
102
RTVSPropertyOp52
 70
     0
102
RTVSPropertyOp53
 70
     1
102
RTVSPropertyOp54
 70
     1
102
RTVSPropertyOp55
 70
     1
102
RTVSPropertyOp56
 70
     1
102
RTVSPropertyOp57
 70
     1
102
RTVSPropertyOp58
 70
     1
102
RTVSPropertyOp59
 70
     1
102
RTVSPropertyOp60
 70
     1
102
RTVSPropertyOp61
 70
     1
102
RTVSPropertyOp62
 70
     1
  0
XRECORD
  5
5F0
102
{ACAD_REACTORS
330
5EF
102
}
330
5EF
100
AcDbXrecord
280
     1
102
RTVSPost2010Prop28
280
     0
102
RTVSPost2010PropOp28
 70
     1
102
RTVSPost2010Prop29
280
     1
102
RTVSPost2010PropOp29
 70
     1
102
RTVSPost2010Prop30
280
     1
102
RTVSPost2010PropOp30
 70
     1
102
RTVSPost2010Prop31
280
     0
102
RTVSPost2010PropOp31
 70
     1
102
RTVSPost2010Prop32
280
     0
102
RTVSPost2010PropOp32
 70
     1
102
RTVSPost2010Prop33
280
     0
102
RTVSPost2010PropOp33
 70
     1
102
RTVSPost2010Prop34
280
     0
102
RTVSPost2010PropOp34
 70
     1
102
RTVSPost2010Prop35
280
     0
102
RTVSPost2010PropOp35
 70
     1
102
RTVSPost2010Prop36
280
     0
102
RTVSPost2010PropOp36
 70
     1
102
RTVSPost2010Prop37
 90
       50
102
RTVSPost2010PropOp37
 70
     1
102
RTVSPost2010Prop38
140
0.0
102
RTVSPost2010PropOp38
 70
     1
102
RTVSPost2010Prop39
140
1.0
102
RTVSPost2010PropOp39
 70
     1
102
RTVSPost2010Prop40
 90
        0
102
RTVSPost2010PropOp40
 70
     1
102
RTVSPost2010Prop41ColorIndex
 90
       18
102
RTVSPost2010Prop41ColorRGB
 90
        0
102
RTVSPost2010PropOp41
 70
     1
102
RTVSPost2010Prop42
 90
       50
102
RTVSPost2010PropOp42
 70
     1
102
RTVSPost2010Prop43
 90
        3
102
RTVSPost2010PropOp43
 70
     1
102
RTVSPost2010Prop44ColorIndex
 90
        5
102
RTVSPost2010Prop44ColorRGB
 90
      255
102
RTVSPost2010PropOp44
 70
     1
102
RTVSPost2010Prop45
280
     0
102
RTVSPost2010PropOp45
 70
     1
102
RTVSPost2010Prop46
 90
       50
102
RTVSPost2010PropOp46
 70
     1
102
RTVSPost2010Prop47
 90
       50
102
RTVSPost2010PropOp47
 70
     1
102
RTVSPost2010Prop48
 90
       50
102
RTVSPost2010PropOp48
 70
     1
102
RTVSPost2010Prop49
280
     0
102
RTVSPost2010PropOp49
 70
     1
102
RTVSPost2010Prop50
 90
       50
102
RTVSPost2010PropOp50
 70
     1
102
RTVSPost2010Prop51ColorIndex
 90
      256
102
RTVSPost2010Prop51ColorRGB
 90
-16777216
102
RTVSPost2010PropOp51
 70
     0
102
RTVSPost2010Prop52
140
1.0
102
RTVSPost2010PropOp52
 70
     0
102
RTVSPost2010Prop53
 90
        2
102
RTVSPost2010PropOp53
 70
     1
102
RTVSPost2010Prop54
  1
strokes_ogs.tif
102
RTVSPost2010PropOp54
 70
     1
102
RTVSPost2010Prop55
280
     0
102
RTVSPost2010PropOp55
 70
     1
102
RTVSPost2010Prop56
140
1.0
102
RTVSPost2010PropOp56
 70
     1
102
RTVSPost2010Prop57
140
1.0
102
RTVSPost2010PropOp57
 70
     1
102
RTVSPropertyOp0
 70
     1
102
RTVSPropertyOp1
 70
     1
102
RTVSPropertyOp2
 70
     1
102
RTVSPropertyOp3
 70
     1
102
RTVSPropertyOp4
 70
     1
102
RTVSPropertyOp5
 70
     1
102
RTVSPropertyOp6
 70
     1
102
RTVSPropertyOp7
 70
     1
102
RTVSPropertyOp8
 70
     1
102
RTVSPropertyOp9
 70
     1
102
RTVSPropertyOp10
 70
     1
102
RTVSPropertyOp11
 70
     1
102
RTVSPropertyOp12
 70
     1
102
RTVSPropertyOp13
 70
     1
102
RTVSPropertyOp14
 70
     1
102
RTVSPropertyOp15
 70
     1
102
RTVSPropertyOp16
 70
     1
102
RTVSPropertyOp17
 70
     1
102
RTVSPropertyOp18
 70
     1
102
RTVSPropertyOp19
 70
     1
102
RTVSPropertyOp20
 70
     1
102
RTVSPropertyOp21
 70
     1
102
RTVSPropertyOp22
 70
     1
102
RTVSPropertyOp23
 70
     1
102
RTVSPropertyOp24
 70
     1
102
RTVSPropertyOp25
 70
     1
102
RTVSPropertyOp26
 70
     1
102
RTVSPropertyOp27
 70
     1
102
RTVSPropertyOp28
 70
     1
102
RTVSPropertyOp29
 70
     1
102
RTVSPropertyOp30
 70
     1
102
RTVSPropertyOp31
 70
     1
102
RTVSPropertyOp32
 70
     1
102
RTVSPropertyOp33
 70
     1
102
RTVSPropertyOp34
 70
     1
102
RTVSPropertyOp35
 70
     1
102
RTVSPropertyOp36
 70
     1
102
RTVSPropertyOp37
 70
     1
102
RTVSPropertyOp38
 70
     1
102
RTVSPropertyOp39
 70
     1
102
RTVSPropertyOp40
 70
     1
102
RTVSPropertyOp41
 70
     1
102
RTVSPropertyOp42
 70
     1
102
RTVSPropertyOp43
 70
     1
102
RTVSPropertyOp44
 70
     1
102
RTVSPropertyOp45
 70
     1
102
RTVSPropertyOp46
 70
     1
102
RTVSPropertyOp47
 70
     1
102
RTVSPropertyOp48
 70
     1
102
RTVSPropertyOp49
 70
     1
102
RTVSPropertyOp50
 70
     1
102
RTVSPropertyOp51
 70
     0
102
RTVSPropertyOp52
 70
     0
102
RTVSPropertyOp53
 70
     1
102
RTVSPropertyOp54
 70
     1
102
RTVSPropertyOp55
 70
     1
102
RTVSPropertyOp56
 70
     1
102
RTVSPropertyOp57
 70
     1
102
RTVSPropertyOp58
 70
     1
102
RTVSPropertyOp59
 70
     1
102
RTVSPropertyOp60
 70
     1
102
RTVSPropertyOp61
 70
     1
102
RTVSPropertyOp62
 70
     1
  0
XRECORD
  5
5E4
102
{ACAD_REACTORS
330
5E3
102
}
330
5E3
100
AcDbXrecord
280
     1
102
RTVSPost2010Prop28
280
     0
102
RTVSPost2010PropOp28
 70
     1
102
RTVSPost2010Prop29
280
     1
102
RTVSPost2010PropOp29
 70
     1
102
RTVSPost2010Prop30
280
     1
102
RTVSPost2010PropOp30
 70
     1
102
RTVSPost2010Prop31
280
     0
102
RTVSPost2010PropOp31
 70
     1
102
RTVSPost2010Prop32
280
     0
102
RTVSPost2010PropOp32
 70
     1
102
RTVSPost2010Prop33
280
     0
102
RTVSPost2010PropOp33
 70
     1
102
RTVSPost2010Prop34
280
     0
102
RTVSPost2010PropOp34
 70
     1
102
RTVSPost2010Prop35
280
     0
102
RTVSPost2010PropOp35
 70
     1
102
RTVSPost2010Prop36
280
     0
102
RTVSPost2010PropOp36
 70
     1
102
RTVSPost2010Prop37
 90
       50
102
RTVSPost2010PropOp37
 70
     1
102
RTVSPost2010Prop38
140
0.0
102
RTVSPost2010PropOp38
 70
     1
102
RTVSPost2010Prop39
140
1.0
102
RTVSPost2010PropOp39
 70
     1
102
RTVSPost2010Prop40
 90
        0
102
RTVSPost2010PropOp40
 70
     1
102
RTVSPost2010Prop41ColorIndex
 90
       18
102
RTVSPost2010Prop41ColorRGB
 90
        0
102
RTVSPost2010PropOp41
 70
     1
102
RTVSPost2010Prop42
 90
       50
102
RTVSPost2010PropOp42
 70
     1
102
RTVSPost2010Prop43
 90
        3
102
RTVSPost2010PropOp43
 70
     1
102
RTVSPost2010Prop44ColorIndex
 90
        5
102
RTVSPost2010Prop44ColorRGB
 90
      255
102
RTVSPost2010PropOp44
 70
     1
102
RTVSPost2010Prop45
280
     0
102
RTVSPost2010PropOp45
 70
     1
102
RTVSPost2010Prop46
 90
       50
102
RTVSPost2010PropOp46
 70
     1
102
RTVSPost2010Prop47
 90
       50
102
RTVSPost2010PropOp47
 70
     1
102
RTVSPost2010Prop48
 90
       50
102
RTVSPost2010PropOp48
 70
     1
102
RTVSPost2010Prop49
280
     0
102
RTVSPost2010PropOp49
 70
     1
102
RTVSPost2010Prop50
 90
       50
102
RTVSPost2010PropOp50
 70
     1
102
RTVSPost2010Prop51ColorIndex
 90
      256
102
RTVSPost2010Prop51ColorRGB
 90
-16777216
102
RTVSPost2010PropOp51
 70
     0
102
RTVSPost2010Prop52
140
1.0
102
RTVSPost2010PropOp52
 70
     0
102
RTVSPost2010Prop53
 90
        2
102
RTVSPost2010PropOp53
 70
     1
102
RTVSPost2010Prop54
  1
strokes_ogs.tif
102
RTVSPost2010PropOp54
 70
     1
102
RTVSPost2010Prop55
280
     0
102
RTVSPost2010PropOp55
 70
     1
102
RTVSPost2010Prop56
140
1.0
102
RTVSPost2010PropOp56
 70
     1
102
RTVSPost2010Prop57
140
1.0
102
RTVSPost2010PropOp57
 70
     1
102
RTVSPropertyOp0
 70
     1
102
RTVSPropertyOp1
 70
     1
102
RTVSPropertyOp2
 70
     1
102
RTVSPropertyOp3
 70
     1
102
RTVSPropertyOp4
 70
     1
102
RTVSPropertyOp5
 70
     1
102
RTVSPropertyOp6
 70
     1
102
RTVSPropertyOp7
 70
     1
102
RTVSPropertyOp8
 70
     1
102
RTVSPropertyOp9
 70
     1
102
RTVSPropertyOp10
 70
     1
102
RTVSPropertyOp11
 70
     1
102
RTVSPropertyOp12
 70
     1
102
RTVSPropertyOp13
 70
     1
102
RTVSPropertyOp14
 70
     1
102
RTVSPropertyOp15
 70
     1
102
RTVSPropertyOp16
 70
     1
102
RTVSPropertyOp17
 70
     1
102
RTVSPropertyOp18
 70
     1
102
RTVSPropertyOp19
 70
     1
102
RTVSPropertyOp20
 70
     1
102
RTVSPropertyOp21
 70
     1
102
RTVSPropertyOp22
 70
     1
102
RTVSPropertyOp23
 70
     1
102
RTVSPropertyOp24
 70
     1
102
RTVSPropertyOp25
 70
     1
102
RTVSPropertyOp26
 70
     1
102
RTVSPropertyOp27
 70
     1
102
RTVSPropertyOp28
 70
     1
102
RTVSPropertyOp29
 70
     1
102
RTVSPropertyOp30
 70
     1
102
RTVSPropertyOp31
 70
     1
102
RTVSPropertyOp32
 70
     1
102
RTVSPropertyOp33
 70
     1
102
RTVSPropertyOp34
 70
     1
102
RTVSPropertyOp35
 70
     1
102
RTVSPropertyOp36
 70
     1
102
RTVSPropertyOp37
 70
     1
102
RTVSPropertyOp38
 70
     1
102
RTVSPropertyOp39
 70
     1
102
RTVSPropertyOp40
 70
     1
102
RTVSPropertyOp41
 70
     1
102
RTVSPropertyOp42
 70
     1
102
RTVSPropertyOp43
 70
     1
102
RTVSPropertyOp44
 70
     1
102
RTVSPropertyOp45
 70
     1
102
RTVSPropertyOp46
 70
     1
102
RTVSPropertyOp47
 70
     1
102
RTVSPropertyOp48
 70
     1
102
RTVSPropertyOp49
 70
     1
102
RTVSPropertyOp50
 70
     1
102
RTVSPropertyOp51
 70
     0
102
RTVSPropertyOp52
 70
     0
102
RTVSPropertyOp53
 70
     1
102
RTVSPropertyOp54
 70
     1
102
RTVSPropertyOp55
 70
     1
102
RTVSPropertyOp56
 70
     1
102
RTVSPropertyOp57
 70
     1
102
RTVSPropertyOp58
 70
     1
102
RTVSPropertyOp59
 70
     1
102
RTVSPropertyOp60
 70
     1
102
RTVSPropertyOp61
 70
     1
102
RTVSPropertyOp62
 70
     1
  0
XRECORD
  5
5E6
102
{ACAD_REACTORS
330
5E5
102
}
330
5E5
100
AcDbXrecord
280
     1
102
RTVSPost2010Prop28
280
     0
102
RTVSPost2010PropOp28
 70
     1
102
RTVSPost2010Prop29
280
     1
102
RTVSPost2010PropOp29
 70
     1
102
RTVSPost2010Prop30
280
     1
102
RTVSPost2010PropOp30
 70
     1
102
RTVSPost2010Prop31
280
     0
102
RTVSPost2010PropOp31
 70
     1
102
RTVSPost2010Prop32
280
     0
102
RTVSPost2010PropOp32
 70
     1
102
RTVSPost2010Prop33
280
     0
102
RTVSPost2010PropOp33
 70
     1
102
RTVSPost2010Prop34
280
     0
102
RTVSPost2010PropOp34
 70
     1
102
RTVSPost2010Prop35
280
     0
102
RTVSPost2010PropOp35
 70
     1
102
RTVSPost2010Prop36
280
     0
102
RTVSPost2010PropOp36
 70
     1
102
RTVSPost2010Prop37
 90
       50
102
RTVSPost2010PropOp37
 70
     1
102
RTVSPost2010Prop38
140
0.0
102
RTVSPost2010PropOp38
 70
     1
102
RTVSPost2010Prop39
140
1.0
102
RTVSPost2010PropOp39
 70
     1
102
RTVSPost2010Prop40
 90
        0
102
RTVSPost2010PropOp40
 70
     1
102
RTVSPost2010Prop41ColorIndex
 90
       18
102
RTVSPost2010Prop41ColorRGB
 90
        0
102
RTVSPost2010PropOp41
 70
     1
102
RTVSPost2010Prop42
 90
       50
102
RTVSPost2010PropOp42
 70
     1
102
RTVSPost2010Prop43
 90
        3
102
RTVSPost2010PropOp43
 70
     1
102
RTVSPost2010Prop44ColorIndex
 90
        5
102
RTVSPost2010Prop44ColorRGB
 90
      255
102
RTVSPost2010PropOp44
 70
     1
102
RTVSPost2010Prop45
280
     0
102
RTVSPost2010PropOp45
 70
     1
102
RTVSPost2010Prop46
 90
       50
102
RTVSPost2010PropOp46
 70
     1
102
RTVSPost2010Prop47
 90
       50
102
RTVSPost2010PropOp47
 70
     1
102
RTVSPost2010Prop48
 90
       50
102
RTVSPost2010PropOp48
 70
     1
102
RTVSPost2010Prop49
280
     0
102
RTVSPost2010PropOp49
 70
     1
102
RTVSPost2010Prop50
 90
       50
102
RTVSPost2010PropOp50
 70
     1
102
RTVSPost2010Prop51ColorIndex
 90
      256
102
RTVSPost2010Prop51ColorRGB
 90
-16777216
102
RTVSPost2010PropOp51
 70
     0
102
RTVSPost2010Prop52
140
1.0
102
RTVSPost2010PropOp52
 70
     0
102
RTVSPost2010Prop53
 90
        2
102
RTVSPost2010PropOp53
 70
     1
102
RTVSPost2010Prop54
  1
strokes_ogs.tif
102
RTVSPost2010PropOp54
 70
     1
102
RTVSPost2010Prop55
280
     0
102
RTVSPost2010PropOp55
 70
     1
102
RTVSPost2010Prop56
140
1.0
102
RTVSPost2010PropOp56
 70
     1
102
RTVSPost2010Prop57
140
1.0
102
RTVSPost2010PropOp57
 70
     1
102
RTVSPropertyOp0
 70
     1
102
RTVSPropertyOp1
 70
     1
102
RTVSPropertyOp2
 70
     1
102
RTVSPropertyOp3
 70
     1
102
RTVSPropertyOp4
 70
     1
102
RTVSPropertyOp5
 70
     1
102
RTVSPropertyOp6
 70
     1
102
RTVSPropertyOp7
 70
     1
102
RTVSPropertyOp8
 70
     1
102
RTVSPropertyOp9
 70
     1
102
RTVSPropertyOp10
 70
     1
102
RTVSPropertyOp11
 70
     1
102
RTVSPropertyOp12
 70
     1
102
RTVSPropertyOp13
 70
     1
102
RTVSPropertyOp14
 70
     1
102
RTVSPropertyOp15
 70
     1
102
RTVSPropertyOp16
 70
     1
102
RTVSPropertyOp17
 70
     1
102
RTVSPropertyOp18
 70
     1
102
RTVSPropertyOp19
 70
     1
102
RTVSPropertyOp20
 70
     1
102
RTVSPropertyOp21
 70
     1
102
RTVSPropertyOp22
 70
     1
102
RTVSPropertyOp23
 70
     1
102
RTVSPropertyOp24
 70
     1
102
RTVSPropertyOp25
 70
     1
102
RTVSPropertyOp26
 70
     1
102
RTVSPropertyOp27
 70
     1
102
RTVSPropertyOp28
 70
     1
102
RTVSPropertyOp29
 70
     1
102
RTVSPropertyOp30
 70
     1
102
RTVSPropertyOp31
 70
     1
102
RTVSPropertyOp32
 70
     1
102
RTVSPropertyOp33
 70
     1
102
RTVSPropertyOp34
 70
     1
102
RTVSPropertyOp35
 70
     1
102
RTVSPropertyOp36
 70
     1
102
RTVSPropertyOp37
 70
     1
102
RTVSPropertyOp38
 70
     1
102
RTVSPropertyOp39
 70
     1
102
RTVSPropertyOp40
 70
     1
102
RTVSPropertyOp41
 70
     1
102
RTVSPropertyOp42
 70
     1
102
RTVSPropertyOp43
 70
     1
102
RTVSPropertyOp44
 70
     1
102
RTVSPropertyOp45
 70
     1
102
RTVSPropertyOp46
 70
     1
102
RTVSPropertyOp47
 70
     1
102
RTVSPropertyOp48
 70
     1
102
RTVSPropertyOp49
 70
     1
102
RTVSPropertyOp50
 70
     1
102
RTVSPropertyOp51
 70
     0
102
RTVSPropertyOp52
 70
     0
102
RTVSPropertyOp53
 70
     1
102
RTVSPropertyOp54
 70
     1
102
RTVSPropertyOp55
 70
     1
102
RTVSPropertyOp56
 70
     1
102
RTVSPropertyOp57
 70
     1
102
RTVSPropertyOp58
 70
     1
102
RTVSPropertyOp59
 70
     1
102
RTVSPropertyOp60
 70
     1
102
RTVSPropertyOp61
 70
     1
102
RTVSPropertyOp62
 70
     1
  0
XRECORD
  5
5F6
102
{ACAD_REACTORS
330
5F5
102
}
330
5F5
100
AcDbXrecord
280
     1
102
RTVSPost2010Prop28
280
     0
102
RTVSPost2010PropOp28
 70
     0
102
RTVSPost2010Prop29
280
     1
102
RTVSPost2010PropOp29
 70
     0
102
RTVSPost2010Prop30
280
     1
102
RTVSPost2010PropOp30
 70
     0
102
RTVSPost2010Prop31
280
     0
102
RTVSPost2010PropOp31
 70
     0
102
RTVSPost2010Prop32
280
     0
102
RTVSPost2010PropOp32
 70
     0
102
RTVSPost2010Prop33
280
     0
102
RTVSPost2010PropOp33
 70
     0
102
RTVSPost2010Prop34
280
     0
102
RTVSPost2010PropOp34
 70
     0
102
RTVSPost2010Prop35
280
     0
102
RTVSPost2010PropOp35
 70
     0
102
RTVSPost2010Prop36
280
     0
102
RTVSPost2010PropOp36
 70
     0
102
RTVSPost2010Prop37
 90
       50
102
RTVSPost2010PropOp37
 70
     0
102
RTVSPost2010Prop38
140
0.0
102
RTVSPost2010PropOp38
 70
     0
102
RTVSPost2010Prop39
140
1.0
102
RTVSPost2010PropOp39
 70
     0
102
RTVSPost2010Prop40
 90
        0
102
RTVSPost2010PropOp40
 70
     0
102
RTVSPost2010Prop41ColorIndex
 90
       18
102
RTVSPost2010Prop41ColorRGB
 90
        0
102
RTVSPost2010PropOp41
 70
     0
102
RTVSPost2010Prop42
 90
       50
102
RTVSPost2010PropOp42
 70
     0
102
RTVSPost2010Prop43
 90
        3
102
RTVSPost2010PropOp43
 70
     0
102
RTVSPost2010Prop44ColorIndex
 90
        5
102
RTVSPost2010Prop44ColorRGB
 90
      255
102
RTVSPost2010PropOp44
 70
     0
102
RTVSPost2010Prop45
280
     0
102
RTVSPost2010PropOp45
 70
     0
102
RTVSPost2010Prop46
 90
       50
102
RTVSPost2010PropOp46
 70
     0
102
RTVSPost2010Prop47
 90
       50
102
RTVSPost2010PropOp47
 70
     0
102
RTVSPost2010Prop48
 90
       50
102
RTVSPost2010PropOp48
 70
     0
102
RTVSPost2010Prop49
280
     0
102
RTVSPost2010PropOp49
 70
     0
102
RTVSPost2010Prop50
 90
       50
102
RTVSPost2010PropOp50
 70
     0
102
RTVSPost2010Prop51ColorIndex
 90
      256
102
RTVSPost2010Prop51ColorRGB
 90
-16777216
102
RTVSPost2010PropOp51
 70
     0
102
RTVSPost2010Prop52
140
1.0
102
RTVSPost2010PropOp52
 70
     0
102
RTVSPost2010Prop53
 90
        2
102
RTVSPost2010PropOp53
 70
     0
102
RTVSPost2010Prop54
  1
strokes_ogs.tif
102
RTVSPost2010PropOp54
 70
     0
102
RTVSPost2010Prop55
280
     0
102
RTVSPost2010PropOp55
 70
     0
102
RTVSPost2010Prop56
140
1.0
102
RTVSPost2010PropOp56
 70
     0
102
RTVSPost2010Prop57
140
1.0
102
RTVSPost2010PropOp57
 70
     0
102
RTVSPropertyOp0
 70
     0
102
RTVSPropertyOp1
 70
     0
102
RTVSPropertyOp2
 70
     0
102
RTVSPropertyOp3
 70
     0
102
RTVSPropertyOp4
 70
     0
102
RTVSPropertyOp5
 70
     0
102
RTVSPropertyOp6
 70
     0
102
RTVSPropertyOp7
 70
     0
102
RTVSPropertyOp8
 70
     0
102
RTVSPropertyOp9
 70
     0
102
RTVSPropertyOp10
 70
     0
102
RTVSPropertyOp11
 70
     0
102
RTVSPropertyOp12
 70
     0
102
RTVSPropertyOp13
 70
     0
102
RTVSPropertyOp14
 70
     2
102
RTVSPropertyOp15
 70
     0
102
RTVSPropertyOp16
 70
     0
102
RTVSPropertyOp17
 70
     0
102
RTVSPropertyOp18
 70
     0
102
RTVSPropertyOp19
 70
     0
102
RTVSPropertyOp20
 70
     0
102
RTVSPropertyOp21
 70
     0
102
RTVSPropertyOp22
 70
     0
102
RTVSPropertyOp23
 70
     0
102
RTVSPropertyOp24
 70
     0
102
RTVSPropertyOp25
 70
     0
102
RTVSPropertyOp26
 70
     0
102
RTVSPropertyOp27
 70
     0
102
RTVSPropertyOp28
 70
     0
102
RTVSPropertyOp29
 70
     0
102
RTVSPropertyOp30
 70
     0
102
RTVSPropertyOp31
 70
     0
102
RTVSPropertyOp32
 70
     0
102
RTVSPropertyOp33
 70
     0
102
RTVSPropertyOp34
 70
     0
102
RTVSPropertyOp35
 70
     0
102
RTVSPropertyOp36
 70
     0
102
RTVSPropertyOp37
 70
     0
102
RTVSPropertyOp38
 70
     0
102
RTVSPropertyOp39
 70
     0
102
RTVSPropertyOp40
 70
     0
102
RTVSPropertyOp41
 70
     0
102
RTVSPropertyOp42
 70
     0
102
RTVSPropertyOp43
 70
     0
102
RTVSPropertyOp44
 70
     0
102
RTVSPropertyOp45
 70
     0
102
RTVSPropertyOp46
 70
     0
102
RTVSPropertyOp47
 70
     0
102
RTVSPropertyOp48
 70
     0
102
RTVSPropertyOp49
 70
     0
102
RTVSPropertyOp50
 70
     0
102
RTVSPropertyOp51
 70
     0
102
RTVSPropertyOp52
 70
     0
102
RTVSPropertyOp53
 70
     0
102
RTVSPropertyOp54
 70
     0
102
RTVSPropertyOp55
 70
     0
102
RTVSPropertyOp56
 70
     0
102
RTVSPropertyOp57
 70
     0
102
RTVSPropertyOp58
 70
     1
102
RTVSPropertyOp59
 70
     1
102
RTVSPropertyOp60
 70
     1
102
RTVSPropertyOp61
 70
     1
102
RTVSPropertyOp62
 70
     1
  0
XRECORD
  5
5EE
102
{ACAD_REACTORS
330
5ED
102
}
330
5ED
100
AcDbXrecord
280
     1
102
RTVSPost2010Prop28
280
     0
102
RTVSPost2010PropOp28
 70
     1
102
RTVSPost2010Prop29
280
     1
102
RTVSPost2010PropOp29
 70
     1
102
RTVSPost2010Prop30
280
     1
102
RTVSPost2010PropOp30
 70
     1
102
RTVSPost2010Prop31
280
     0
102
RTVSPost2010PropOp31
 70
     1
102
RTVSPost2010Prop32
280
     0
102
RTVSPost2010PropOp32
 70
     1
102
RTVSPost2010Prop33
280
     0
102
RTVSPost2010PropOp33
 70
     1
102
RTVSPost2010Prop34
280
     0
102
RTVSPost2010PropOp34
 70
     1
102
RTVSPost2010Prop35
280
     0
102
RTVSPost2010PropOp35
 70
     1
102
RTVSPost2010Prop36
280
     0
102
RTVSPost2010PropOp36
 70
     1
102
RTVSPost2010Prop37
 90
       50
102
RTVSPost2010PropOp37
 70
     1
102
RTVSPost2010Prop38
140
0.0
102
RTVSPost2010PropOp38
 70
     1
102
RTVSPost2010Prop39
140
1.0
102
RTVSPost2010PropOp39
 70
     1
102
RTVSPost2010Prop40
 90
        0
102
RTVSPost2010PropOp40
 70
     1
102
RTVSPost2010Prop41ColorIndex
 90
       18
102
RTVSPost2010Prop41ColorRGB
 90
        0
102
RTVSPost2010PropOp41
 70
     1
102
RTVSPost2010Prop42
 90
       50
102
RTVSPost2010PropOp42
 70
     1
102
RTVSPost2010Prop43
 90
        3
102
RTVSPost2010PropOp43
 70
     1
102
RTVSPost2010Prop44ColorIndex
 90
        5
102
RTVSPost2010Prop44ColorRGB
 90
      255
102
RTVSPost2010PropOp44
 70
     1
102
RTVSPost2010Prop45
280
     0
102
RTVSPost2010PropOp45
 70
     1
102
RTVSPost2010Prop46
 90
       50
102
RTVSPost2010PropOp46
 70
     1
102
RTVSPost2010Prop47
 90
       50
102
RTVSPost2010PropOp47
 70
     1
102
RTVSPost2010Prop48
 90
       50
102
RTVSPost2010PropOp48
 70
     1
102
RTVSPost2010Prop49
280
     0
102
RTVSPost2010PropOp49
 70
     1
102
RTVSPost2010Prop50
 90
       50
102
RTVSPost2010PropOp50
 70
     1
102
RTVSPost2010Prop51ColorIndex
 90
      256
102
RTVSPost2010Prop51ColorRGB
 90
-16777216
102
RTVSPost2010PropOp51
 70
     0
102
RTVSPost2010Prop52
140
1.0
102
RTVSPost2010PropOp52
 70
     0
102
RTVSPost2010Prop53
 90
        2
102
RTVSPost2010PropOp53
 70
     1
102
RTVSPost2010Prop54
  1
strokes_ogs.tif
102
RTVSPost2010PropOp54
 70
     1
102
RTVSPost2010Prop55
280
     0
102
RTVSPost2010PropOp55
 70
     1
102
RTVSPost2010Prop56
140
1.0
102
RTVSPost2010PropOp56
 70
     1
102
RTVSPost2010Prop57
140
1.0
102
RTVSPost2010PropOp57
 70
     1
102
RTVSPropertyOp0
 70
     1
102
RTVSPropertyOp1
 70
     1
102
RTVSPropertyOp2
 70
     1
102
RTVSPropertyOp3
 70
     1
102
RTVSPropertyOp4
 70
     1
102
RTVSPropertyOp5
 70
     1
102
RTVSPropertyOp6
 70
     1
102
RTVSPropertyOp7
 70
     1
102
RTVSPropertyOp8
 70
     1
102
RTVSPropertyOp9
 70
     1
102
RTVSPropertyOp10
 70
     1
102
RTVSPropertyOp11
 70
     1
102
RTVSPropertyOp12
 70
     1
102
RTVSPropertyOp13
 70
     1
102
RTVSPropertyOp14
 70
     1
102
RTVSPropertyOp15
 70
     1
102
RTVSPropertyOp16
 70
     1
102
RTVSPropertyOp17
 70
     1
102
RTVSPropertyOp18
 70
     1
102
RTVSPropertyOp19
 70
     1
102
RTVSPropertyOp20
 70
     1
102
RTVSPropertyOp21
 70
     1
102
RTVSPropertyOp22
 70
     1
102
RTVSPropertyOp23
 70
     1
102
RTVSPropertyOp24
 70
     1
102
RTVSPropertyOp25
 70
     1
102
RTVSPropertyOp26
 70
     1
102
RTVSPropertyOp27
 70
     1
102
RTVSPropertyOp28
 70
     1
102
RTVSPropertyOp29
 70
     1
102
RTVSPropertyOp30
 70
     1
102
RTVSPropertyOp31
 70
     1
102
RTVSPropertyOp32
 70
     1
102
RTVSPropertyOp33
 70
     1
102
RTVSPropertyOp34
 70
     1
102
RTVSPropertyOp35
 70
     1
102
RTVSPropertyOp36
 70
     1
102
RTVSPropertyOp37
 70
     1
102
RTVSPropertyOp38
 70
     1
102
RTVSPropertyOp39
 70
     1
102
RTVSPropertyOp40
 70
     1
102
RTVSPropertyOp41
 70
     1
102
RTVSPropertyOp42
 70
     1
102
RTVSPropertyOp43
 70
     1
102
RTVSPropertyOp44
 70
     1
102
RTVSPropertyOp45
 70
     1
102
RTVSPropertyOp46
 70
     1
102
RTVSPropertyOp47
 70
     1
102
RTVSPropertyOp48
 70
     1
102
RTVSPropertyOp49
 70
     1
102
RTVSPropertyOp50
 70
     1
102
RTVSPropertyOp51
 70
     0
102
RTVSPropertyOp52
 70
     0
102
RTVSPropertyOp53
 70
     1
102
RTVSPropertyOp54
 70
     1
102
RTVSPropertyOp55
 70
     1
102
RTVSPropertyOp56
 70
     1
102
RTVSPropertyOp57
 70
     1
102
RTVSPropertyOp58
 70
     1
102
RTVSPropertyOp59
 70
     1
102
RTVSPropertyOp60
 70
     1
102
RTVSPropertyOp61
 70
     1
102
RTVSPropertyOp62
 70
     1
  0
XRECORD
  5
5D2
102
{ACAD_REACTORS
330
5D1
102
}
330
5D1
100
AcDbXrecord
280
     1
102
RTVSPost2010Prop28
280
     0
102
RTVSPost2010PropOp28
 70
     1
102
RTVSPost2010Prop29
280
     1
102
RTVSPost2010PropOp29
 70
     1
102
RTVSPost2010Prop30
280
     1
102
RTVSPost2010PropOp30
 70
     1
102
RTVSPost2010Prop31
280
     0
102
RTVSPost2010PropOp31
 70
     1
102
RTVSPost2010Prop32
280
     0
102
RTVSPost2010PropOp32
 70
     1
102
RTVSPost2010Prop33
280
     0
102
RTVSPost2010PropOp33
 70
     1
102
RTVSPost2010Prop34
280
     0
102
RTVSPost2010PropOp34
 70
     1
102
RTVSPost2010Prop35
280
     0
102
RTVSPost2010PropOp35
 70
     1
102
RTVSPost2010Prop36
280
     0
102
RTVSPost2010PropOp36
 70
     1
102
RTVSPost2010Prop37
 90
       50
102
RTVSPost2010PropOp37
 70
     1
102
RTVSPost2010Prop38
140
0.0
102
RTVSPost2010PropOp38
 70
     1
102
RTVSPost2010Prop39
140
1.0
102
RTVSPost2010PropOp39
 70
     1
102
RTVSPost2010Prop40
 90
        0
102
RTVSPost2010PropOp40
 70
     1
102
RTVSPost2010Prop41ColorIndex
 90
       18
102
RTVSPost2010Prop41ColorRGB
 90
        0
102
RTVSPost2010PropOp41
 70
     1
102
RTVSPost2010Prop42
 90
       50
102
RTVSPost2010PropOp42
 70
     1
102
RTVSPost2010Prop43
 90
        3
102
RTVSPost2010PropOp43
 70
     1
102
RTVSPost2010Prop44ColorIndex
 90
        5
102
RTVSPost2010Prop44ColorRGB
 90
      255
102
RTVSPost2010PropOp44
 70
     1
102
RTVSPost2010Prop45
280
     0
102
RTVSPost2010PropOp45
 70
     1
102
RTVSPost2010Prop46
 90
       50
102
RTVSPost2010PropOp46
 70
     1
102
RTVSPost2010Prop47
 90
       50
102
RTVSPost2010PropOp47
 70
     1
102
RTVSPost2010Prop48
 90
       50
102
RTVSPost2010PropOp48
 70
     1
102
RTVSPost2010Prop49
280
     0
102
RTVSPost2010PropOp49
 70
     1
102
RTVSPost2010Prop50
 90
       50
102
RTVSPost2010PropOp50
 70
     1
102
RTVSPost2010Prop51ColorIndex
 90
      256
102
RTVSPost2010Prop51ColorRGB
 90
-16777216
102
RTVSPost2010PropOp51
 70
     0
102
RTVSPost2010Prop52
140
1.0
102
RTVSPost2010PropOp52
 70
     0
102
RTVSPost2010Prop53
 90
        2
102
RTVSPost2010PropOp53
 70
     1
102
RTVSPost2010Prop54
  1
strokes_ogs.tif
102
RTVSPost2010PropOp54
 70
     1
102
RTVSPost2010Prop55
280
     0
102
RTVSPost2010PropOp55
 70
     1
102
RTVSPost2010Prop56
140
1.0
102
RTVSPost2010PropOp56
 70
     1
102
RTVSPost2010Prop57
140
1.0
102
RTVSPost2010PropOp57
 70
     1
102
RTVSPropertyOp0
 70
     1
102
RTVSPropertyOp1
 70
     1
102
RTVSPropertyOp2
 70
     1
102
RTVSPropertyOp3
 70
     1
102
RTVSPropertyOp4
 70
     1
102
RTVSPropertyOp5
 70
     1
102
RTVSPropertyOp6
 70
     1
102
RTVSPropertyOp7
 70
     1
102
RTVSPropertyOp8
 70
     1
102
RTVSPropertyOp9
 70
     1
102
RTVSPropertyOp10
 70
     1
102
RTVSPropertyOp11
 70
     1
102
RTVSPropertyOp12
 70
     1
102
RTVSPropertyOp13
 70
     1
102
RTVSPropertyOp14
 70
     1
102
RTVSPropertyOp15
 70
     1
102
RTVSPropertyOp16
 70
     1
102
RTVSPropertyOp17
 70
     1
102
RTVSPropertyOp18
 70
     1
102
RTVSPropertyOp19
 70
     1
102
RTVSPropertyOp20
 70
     1
102
RTVSPropertyOp21
 70
     1
102
RTVSPropertyOp22
 70
     1
102
RTVSPropertyOp23
 70
     1
102
RTVSPropertyOp24
 70
     1
102
RTVSPropertyOp25
 70
     1
102
RTVSPropertyOp26
 70
     1
102
RTVSPropertyOp27
 70
     1
102
RTVSPropertyOp28
 70
     1
102
RTVSPropertyOp29
 70
     1
102
RTVSPropertyOp30
 70
     1
102
RTVSPropertyOp31
 70
     1
102
RTVSPropertyOp32
 70
     1
102
RTVSPropertyOp33
 70
     1
102
RTVSPropertyOp34
 70
     1
102
RTVSPropertyOp35
 70
     1
102
RTVSPropertyOp36
 70
     1
102
RTVSPropertyOp37
 70
     1
102
RTVSPropertyOp38
 70
     1
102
RTVSPropertyOp39
 70
     1
102
RTVSPropertyOp40
 70
     1
102
RTVSPropertyOp41
 70
     1
102
RTVSPropertyOp42
 70
     1
102
RTVSPropertyOp43
 70
     1
102
RTVSPropertyOp44
 70
     1
102
RTVSPropertyOp45
 70
     1
102
RTVSPropertyOp46
 70
     1
102
RTVSPropertyOp47
 70
     1
102
RTVSPropertyOp48
 70
     1
102
RTVSPropertyOp49
 70
     1
102
RTVSPropertyOp50
 70
     1
102
RTVSPropertyOp51
 70
     0
102
RTVSPropertyOp52
 70
     0
102
RTVSPropertyOp53
 70
     1
102
RTVSPropertyOp54
 70
     1
102
RTVSPropertyOp55
 70
     1
102
RTVSPropertyOp56
 70
     1
102
RTVSPropertyOp57
 70
     1
102
RTVSPropertyOp58
 70
     1
102
RTVSPropertyOp59
 70
     1
102
RTVSPropertyOp60
 70
     1
102
RTVSPropertyOp61
 70
     1
102
RTVSPropertyOp62
 70
     1
  0
XRECORD
  5
5D4
102
{ACAD_REACTORS
330
5D3
102
}
330
5D3
100
AcDbXrecord
280
     1
102
RTVSPost2010Prop28
280
     0
102
RTVSPost2010PropOp28
 70
     1
102
RTVSPost2010Prop29
280
     1
102
RTVSPost2010PropOp29
 70
     1
102
RTVSPost2010Prop30
280
     1
102
RTVSPost2010PropOp30
 70
     1
102
RTVSPost2010Prop31
280
     0
102
RTVSPost2010PropOp31
 70
     1
102
RTVSPost2010Prop32
280
     0
102
RTVSPost2010PropOp32
 70
     1
102
RTVSPost2010Prop33
280
     0
102
RTVSPost2010PropOp33
 70
     1
102
RTVSPost2010Prop34
280
     0
102
RTVSPost2010PropOp34
 70
     1
102
RTVSPost2010Prop35
280
     0
102
RTVSPost2010PropOp35
 70
     1
102
RTVSPost2010Prop36
280
     0
102
RTVSPost2010PropOp36
 70
     1
102
RTVSPost2010Prop37
 90
       50
102
RTVSPost2010PropOp37
 70
     1
102
RTVSPost2010Prop38
140
0.0
102
RTVSPost2010PropOp38
 70
     1
102
RTVSPost2010Prop39
140
1.0
102
RTVSPost2010PropOp39
 70
     1
102
RTVSPost2010Prop40
 90
        0
102
RTVSPost2010PropOp40
 70
     1
102
RTVSPost2010Prop41ColorIndex
 90
       18
102
RTVSPost2010Prop41ColorRGB
 90
        0
102
RTVSPost2010PropOp41
 70
     1
102
RTVSPost2010Prop42
 90
       50
102
RTVSPost2010PropOp42
 70
     1
102
RTVSPost2010Prop43
 90
        3
102
RTVSPost2010PropOp43
 70
     1
102
RTVSPost2010Prop44ColorIndex
 90
        5
102
RTVSPost2010Prop44ColorRGB
 90
      255
102
RTVSPost2010PropOp44
 70
     1
102
RTVSPost2010Prop45
280
     0
102
RTVSPost2010PropOp45
 70
     1
102
RTVSPost2010Prop46
 90
       50
102
RTVSPost2010PropOp46
 70
     1
102
RTVSPost2010Prop47
 90
       50
102
RTVSPost2010PropOp47
 70
     1
102
RTVSPost2010Prop48
 90
       50
102
RTVSPost2010PropOp48
 70
     1
102
RTVSPost2010Prop49
280
     0
102
RTVSPost2010PropOp49
 70
     1
102
RTVSPost2010Prop50
 90
       50
102
RTVSPost2010PropOp50
 70
     1
102
RTVSPost2010Prop51ColorIndex
 90
      256
102
RTVSPost2010Prop51ColorRGB
 90
-16777216
102
RTVSPost2010PropOp51
 70
     0
102
RTVSPost2010Prop52
140
1.0
102
RTVSPost2010PropOp52
 70
     0
102
RTVSPost2010Prop53
 90
        2
102
RTVSPost2010PropOp53
 70
     1
102
RTVSPost2010Prop54
  1
strokes_ogs.tif
102
RTVSPost2010PropOp54
 70
     1
102
RTVSPost2010Prop55
280
     0
102
RTVSPost2010PropOp55
 70
     1
102
RTVSPost2010Prop56
140
1.0
102
RTVSPost2010PropOp56
 70
     1
102
RTVSPost2010Prop57
140
1.0
102
RTVSPost2010PropOp57
 70
     1
102
RTVSPropertyOp0
 70
     1
102
RTVSPropertyOp1
 70
     1
102
RTVSPropertyOp2
 70
     1
102
RTVSPropertyOp3
 70
     1
102
RTVSPropertyOp4
 70
     1
102
RTVSPropertyOp5
 70
     1
102
RTVSPropertyOp6
 70
     1
102
RTVSPropertyOp7
 70
     1
102
RTVSPropertyOp8
 70
     1
102
RTVSPropertyOp9
 70
     1
102
RTVSPropertyOp10
 70
     1
102
RTVSPropertyOp11
 70
     1
102
RTVSPropertyOp12
 70
     1
102
RTVSPropertyOp13
 70
     1
102
RTVSPropertyOp14
 70
     1
102
RTVSPropertyOp15
 70
     1
102
RTVSPropertyOp16
 70
     1
102
RTVSPropertyOp17
 70
     1
102
RTVSPropertyOp18
 70
     1
102
RTVSPropertyOp19
 70
     1
102
RTVSPropertyOp20
 70
     1
102
RTVSPropertyOp21
 70
     1
102
RTVSPropertyOp22
 70
     1
102
RTVSPropertyOp23
 70
     1
102
RTVSPropertyOp24
 70
     1
102
RTVSPropertyOp25
 70
     1
102
RTVSPropertyOp26
 70
     1
102
RTVSPropertyOp27
 70
     1
102
RTVSPropertyOp28
 70
     1
102
RTVSPropertyOp29
 70
     1
102
RTVSPropertyOp30
 70
     1
102
RTVSPropertyOp31
 70
     1
102
RTVSPropertyOp32
 70
     1
102
RTVSPropertyOp33
 70
     1
102
RTVSPropertyOp34
 70
     1
102
RTVSPropertyOp35
 70
     1
102
RTVSPropertyOp36
 70
     1
102
RTVSPropertyOp37
 70
     1
102
RTVSPropertyOp38
 70
     1
102
RTVSPropertyOp39
 70
     1
102
RTVSPropertyOp40
 70
     1
102
RTVSPropertyOp41
 70
     1
102
RTVSPropertyOp42
 70
     1
102
RTVSPropertyOp43
 70
     1
102
RTVSPropertyOp44
 70
     1
102
RTVSPropertyOp45
 70
     1
102
RTVSPropertyOp46
 70
     1
102
RTVSPropertyOp47
 70
     1
102
RTVSPropertyOp48
 70
     1
102
RTVSPropertyOp49
 70
     1
102
RTVSPropertyOp50
 70
     1
102
RTVSPropertyOp51
 70
     0
102
RTVSPropertyOp52
 70
     0
102
RTVSPropertyOp53
 70
     1
102
RTVSPropertyOp54
 70
     1
102
RTVSPropertyOp55
 70
     1
102
RTVSPropertyOp56
 70
     1
102
RTVSPropertyOp57
 70
     1
102
RTVSPropertyOp58
 70
     1
102
RTVSPropertyOp59
 70
     1
102
RTVSPropertyOp60
 70
     1
102
RTVSPropertyOp61
 70
     1
102
RTVSPropertyOp62
 70
     1
  0
XRECORD
  5
5D6
102
{ACAD_REACTORS
330
5D5
102
}
330
5D5
100
AcDbXrecord
280
     1
102
RTVSPost2010Prop28
280
     0
102
RTVSPost2010PropOp28
 70
     1
102
RTVSPost2010Prop29
280
     1
102
RTVSPost2010PropOp29
 70
     1
102
RTVSPost2010Prop30
280
     1
102
RTVSPost2010PropOp30
 70
     1
102
RTVSPost2010Prop31
280
     0
102
RTVSPost2010PropOp31
 70
     1
102
RTVSPost2010Prop32
280
     0
102
RTVSPost2010PropOp32
 70
     1
102
RTVSPost2010Prop33
280
     0
102
RTVSPost2010PropOp33
 70
     1
102
RTVSPost2010Prop34
280
     0
102
RTVSPost2010PropOp34
 70
     1
102
RTVSPost2010Prop35
280
     0
102
RTVSPost2010PropOp35
 70
     1
102
RTVSPost2010Prop36
280
     0
102
RTVSPost2010PropOp36
 70
     1
102
RTVSPost2010Prop37
 90
       50
102
RTVSPost2010PropOp37
 70
     1
102
RTVSPost2010Prop38
140
0.0
102
RTVSPost2010PropOp38
 70
     1
102
RTVSPost2010Prop39
140
1.0
102
RTVSPost2010PropOp39
 70
     1
102
RTVSPost2010Prop40
 90
        0
102
RTVSPost2010PropOp40
 70
     1
102
RTVSPost2010Prop41ColorIndex
 90
       18
102
RTVSPost2010Prop41ColorRGB
 90
        0
102
RTVSPost2010PropOp41
 70
     1
102
RTVSPost2010Prop42
 90
       50
102
RTVSPost2010PropOp42
 70
     1
102
RTVSPost2010Prop43
 90
        3
102
RTVSPost2010PropOp43
 70
     1
102
RTVSPost2010Prop44ColorIndex
 90
        5
102
RTVSPost2010Prop44ColorRGB
 90
      255
102
RTVSPost2010PropOp44
 70
     1
102
RTVSPost2010Prop45
280
     0
102
RTVSPost2010PropOp45
 70
     1
102
RTVSPost2010Prop46
 90
       50
102
RTVSPost2010PropOp46
 70
     1
102
RTVSPost2010Prop47
 90
       50
102
RTVSPost2010PropOp47
 70
     1
102
RTVSPost2010Prop48
 90
       50
102
RTVSPost2010PropOp48
 70
     1
102
RTVSPost2010Prop49
280
     0
102
RTVSPost2010PropOp49
 70
     1
102
RTVSPost2010Prop50
 90
       50
102
RTVSPost2010PropOp50
 70
     1
102
RTVSPost2010Prop51ColorIndex
 90
      256
102
RTVSPost2010Prop51ColorRGB
 90
-16777216
102
RTVSPost2010PropOp51
 70
     0
102
RTVSPost2010Prop52
140
1.0
102
RTVSPost2010PropOp52
 70
     0
102
RTVSPost2010Prop53
 90
        2
102
RTVSPost2010PropOp53
 70
     1
102
RTVSPost2010Prop54
  1
strokes_ogs.tif
102
RTVSPost2010PropOp54
 70
     1
102
RTVSPost2010Prop55
280
     0
102
RTVSPost2010PropOp55
 70
     1
102
RTVSPost2010Prop56
140
1.0
102
RTVSPost2010PropOp56
 70
     1
102
RTVSPost2010Prop57
140
1.0
102
RTVSPost2010PropOp57
 70
     1
102
RTVSPropertyOp0
 70
     1
102
RTVSPropertyOp1
 70
     1
102
RTVSPropertyOp2
 70
     1
102
RTVSPropertyOp3
 70
     1
102
RTVSPropertyOp4
 70
     1
102
RTVSPropertyOp5
 70
     1
102
RTVSPropertyOp6
 70
     1
102
RTVSPropertyOp7
 70
     1
102
RTVSPropertyOp8
 70
     1
102
RTVSPropertyOp9
 70
     1
102
RTVSPropertyOp10
 70
     1
102
RTVSPropertyOp11
 70
     1
102
RTVSPropertyOp12
 70
     1
102
RTVSPropertyOp13
 70
     1
102
RTVSPropertyOp14
 70
     1
102
RTVSPropertyOp15
 70
     1
102
RTVSPropertyOp16
 70
     1
102
RTVSPropertyOp17
 70
     1
102
RTVSPropertyOp18
 70
     1
102
RTVSPropertyOp19
 70
     1
102
RTVSPropertyOp20
 70
     1
102
RTVSPropertyOp21
 70
     1
102
RTVSPropertyOp22
 70
     1
102
RTVSPropertyOp23
 70
     1
102
RTVSPropertyOp24
 70
     1
102
RTVSPropertyOp25
 70
     1
102
RTVSPropertyOp26
 70
     1
102
RTVSPropertyOp27
 70
     1
102
RTVSPropertyOp28
 70
     1
102
RTVSPropertyOp29
 70
     1
102
RTVSPropertyOp30
 70
     1
102
RTVSPropertyOp31
 70
     1
102
RTVSPropertyOp32
 70
     1
102
RTVSPropertyOp33
 70
     1
102
RTVSPropertyOp34
 70
     1
102
RTVSPropertyOp35
 70
     1
102
RTVSPropertyOp36
 70
     1
102
RTVSPropertyOp37
 70
     1
102
RTVSPropertyOp38
 70
     1
102
RTVSPropertyOp39
 70
     1
102
RTVSPropertyOp40
 70
     1
102
RTVSPropertyOp41
 70
     1
102
RTVSPropertyOp42
 70
     1
102
RTVSPropertyOp43
 70
     1
102
RTVSPropertyOp44
 70
     1
102
RTVSPropertyOp45
 70
     1
102
RTVSPropertyOp46
 70
     1
102
RTVSPropertyOp47
 70
     1
102
RTVSPropertyOp48
 70
     1
102
RTVSPropertyOp49
 70
     1
102
RTVSPropertyOp50
 70
     1
102
RTVSPropertyOp51
 70
     0
102
RTVSPropertyOp52
 70
     0
102
RTVSPropertyOp53
 70
     1
102
RTVSPropertyOp54
 70
     1
102
RTVSPropertyOp55
 70
     1
102
RTVSPropertyOp56
 70
     1
102
RTVSPropertyOp57
 70
     1
102
RTVSPropertyOp58
 70
     1
102
RTVSPropertyOp59
 70
     1
102
RTVSPropertyOp60
 70
     1
102
RTVSPropertyOp61
 70
     1
102
RTVSPropertyOp62
 70
     1
  0
XRECORD
  5
5D8
102
{ACAD_REACTORS
330
5D7
102
}
330
5D7
100
AcDbXrecord
280
     1
102
RTVSPost2010Prop28
280
     0
102
RTVSPost2010PropOp28
 70
     1
102
RTVSPost2010Prop29
280
     1
102
RTVSPost2010PropOp29
 70
     1
102
RTVSPost2010Prop30
280
     1
102
RTVSPost2010PropOp30
 70
     1
102
RTVSPost2010Prop31
280
     0
102
RTVSPost2010PropOp31
 70
     1
102
RTVSPost2010Prop32
280
     0
102
RTVSPost2010PropOp32
 70
     1
102
RTVSPost2010Prop33
280
     0
102
RTVSPost2010PropOp33
 70
     1
102
RTVSPost2010Prop34
280
     0
102
RTVSPost2010PropOp34
 70
     1
102
RTVSPost2010Prop35
280
     0
102
RTVSPost2010PropOp35
 70
     1
102
RTVSPost2010Prop36
280
     0
102
RTVSPost2010PropOp36
 70
     1
102
RTVSPost2010Prop37
 90
       50
102
RTVSPost2010PropOp37
 70
     1
102
RTVSPost2010Prop38
140
0.0
102
RTVSPost2010PropOp38
 70
     1
102
RTVSPost2010Prop39
140
1.0
102
RTVSPost2010PropOp39
 70
     1
102
RTVSPost2010Prop40
 90
        0
102
RTVSPost2010PropOp40
 70
     1
102
RTVSPost2010Prop41ColorIndex
 90
       18
102
RTVSPost2010Prop41ColorRGB
 90
        0
102
RTVSPost2010PropOp41
 70
     1
102
RTVSPost2010Prop42
 90
       50
102
RTVSPost2010PropOp42
 70
     1
102
RTVSPost2010Prop43
 90
        3
102
RTVSPost2010PropOp43
 70
     1
102
RTVSPost2010Prop44ColorIndex
 90
        5
102
RTVSPost2010Prop44ColorRGB
 90
      255
102
RTVSPost2010PropOp44
 70
     1
102
RTVSPost2010Prop45
280
     0
102
RTVSPost2010PropOp45
 70
     1
102
RTVSPost2010Prop46
 90
       50
102
RTVSPost2010PropOp46
 70
     1
102
RTVSPost2010Prop47
 90
       50
102
RTVSPost2010PropOp47
 70
     1
102
RTVSPost2010Prop48
 90
       50
102
RTVSPost2010PropOp48
 70
     1
102
RTVSPost2010Prop49
280
     0
102
RTVSPost2010PropOp49
 70
     1
102
RTVSPost2010Prop50
 90
       50
102
RTVSPost2010PropOp50
 70
     1
102
RTVSPost2010Prop51ColorIndex
 90
      256
102
RTVSPost2010Prop51ColorRGB
 90
-16777216
102
RTVSPost2010PropOp51
 70
     0
102
RTVSPost2010Prop52
140
1.0
102
RTVSPost2010PropOp52
 70
     0
102
RTVSPost2010Prop53
 90
        2
102
RTVSPost2010PropOp53
 70
     1
102
RTVSPost2010Prop54
  1
strokes_ogs.tif
102
RTVSPost2010PropOp54
 70
     1
102
RTVSPost2010Prop55
280
     0
102
RTVSPost2010PropOp55
 70
     1
102
RTVSPost2010Prop56
140
1.0
102
RTVSPost2010PropOp56
 70
     1
102
RTVSPost2010Prop57
140
1.0
102
RTVSPost2010PropOp57
 70
     1
102
RTVSPropertyOp0
 70
     1
102
RTVSPropertyOp1
 70
     1
102
RTVSPropertyOp2
 70
     1
102
RTVSPropertyOp3
 70
     1
102
RTVSPropertyOp4
 70
     1
102
RTVSPropertyOp5
 70
     1
102
RTVSPropertyOp6
 70
     1
102
RTVSPropertyOp7
 70
     1
102
RTVSPropertyOp8
 70
     1
102
RTVSPropertyOp9
 70
     1
102
RTVSPropertyOp10
 70
     1
102
RTVSPropertyOp11
 70
     1
102
RTVSPropertyOp12
 70
     1
102
RTVSPropertyOp13
 70
     1
102
RTVSPropertyOp14
 70
     1
102
RTVSPropertyOp15
 70
     1
102
RTVSPropertyOp16
 70
     1
102
RTVSPropertyOp17
 70
     1
102
RTVSPropertyOp18
 70
     1
102
RTVSPropertyOp19
 70
     1
102
RTVSPropertyOp20
 70
     1
102
RTVSPropertyOp21
 70
     1
102
RTVSPropertyOp22
 70
     1
102
RTVSPropertyOp23
 70
     1
102
RTVSPropertyOp24
 70
     1
102
RTVSPropertyOp25
 70
     1
102
RTVSPropertyOp26
 70
     1
102
RTVSPropertyOp27
 70
     1
102
RTVSPropertyOp28
 70
     1
102
RTVSPropertyOp29
 70
     1
102
RTVSPropertyOp30
 70
     1
102
RTVSPropertyOp31
 70
     1
102
RTVSPropertyOp32
 70
     1
102
RTVSPropertyOp33
 70
     1
102
RTVSPropertyOp34
 70
     1
102
RTVSPropertyOp35
 70
     1
102
RTVSPropertyOp36
 70
     1
102
RTVSPropertyOp37
 70
     1
102
RTVSPropertyOp38
 70
     1
102
RTVSPropertyOp39
 70
     1
102
RTVSPropertyOp40
 70
     1
102
RTVSPropertyOp41
 70
     1
102
RTVSPropertyOp42
 70
     1
102
RTVSPropertyOp43
 70
     1
102
RTVSPropertyOp44
 70
     1
102
RTVSPropertyOp45
 70
     1
102
RTVSPropertyOp46
 70
     1
102
RTVSPropertyOp47
 70
     1
102
RTVSPropertyOp48
 70
     1
102
RTVSPropertyOp49
 70
     1
102
RTVSPropertyOp50
 70
     1
102
RTVSPropertyOp51
 70
     0
102
RTVSPropertyOp52
 70
     0
102
RTVSPropertyOp53
 70
     1
102
RTVSPropertyOp54
 70
     1
102
RTVSPropertyOp55
 70
     1
102
RTVSPropertyOp56
 70
     1
102
RTVSPropertyOp57
 70
     1
102
RTVSPropertyOp58
 70
     1
102
RTVSPropertyOp59
 70
     1
102
RTVSPropertyOp60
 70
     1
102
RTVSPropertyOp61
 70
     1
102
RTVSPropertyOp62
 70
     1
  0
XRECORD
  5
5DE
102
{ACAD_REACTORS
330
5DD
102
}
330
5DD
100
AcDbXrecord
280
     1
102
RTVSPost2010Prop28
280
     0
102
RTVSPost2010PropOp28
 70
     1
102
RTVSPost2010Prop29
280
     1
102
RTVSPost2010PropOp29
 70
     1
102
RTVSPost2010Prop30
280
     1
102
RTVSPost2010PropOp30
 70
     1
102
RTVSPost2010Prop31
280
     0
102
RTVSPost2010PropOp31
 70
     1
102
RTVSPost2010Prop32
280
     0
102
RTVSPost2010PropOp32
 70
     1
102
RTVSPost2010Prop33
280
     0
102
RTVSPost2010PropOp33
 70
     1
102
RTVSPost2010Prop34
280
     0
102
RTVSPost2010PropOp34
 70
     1
102
RTVSPost2010Prop35
280
     0
102
RTVSPost2010PropOp35
 70
     1
102
RTVSPost2010Prop36
280
     0
102
RTVSPost2010PropOp36
 70
     1
102
RTVSPost2010Prop37
 90
       50
102
RTVSPost2010PropOp37
 70
     1
102
RTVSPost2010Prop38
140
0.0
102
RTVSPost2010PropOp38
 70
     1
102
RTVSPost2010Prop39
140
1.0
102
RTVSPost2010PropOp39
 70
     1
102
RTVSPost2010Prop40
 90
        0
102
RTVSPost2010PropOp40
 70
     1
102
RTVSPost2010Prop41ColorIndex
 90
       18
102
RTVSPost2010Prop41ColorRGB
 90
        0
102
RTVSPost2010PropOp41
 70
     1
102
RTVSPost2010Prop42
 90
       50
102
RTVSPost2010PropOp42
 70
     1
102
RTVSPost2010Prop43
 90
        3
102
RTVSPost2010PropOp43
 70
     1
102
RTVSPost2010Prop44ColorIndex
 90
        5
102
RTVSPost2010Prop44ColorRGB
 90
      255
102
RTVSPost2010PropOp44
 70
     1
102
RTVSPost2010Prop45
280
     0
102
RTVSPost2010PropOp45
 70
     1
102
RTVSPost2010Prop46
 90
       50
102
RTVSPost2010PropOp46
 70
     1
102
RTVSPost2010Prop47
 90
       50
102
RTVSPost2010PropOp47
 70
     1
102
RTVSPost2010Prop48
 90
       50
102
RTVSPost2010PropOp48
 70
     1
102
RTVSPost2010Prop49
280
     0
102
RTVSPost2010PropOp49
 70
     1
102
RTVSPost2010Prop50
 90
       50
102
RTVSPost2010PropOp50
 70
     1
102
RTVSPost2010Prop51ColorIndex
 90
      256
102
RTVSPost2010Prop51ColorRGB
 90
-16777216
102
RTVSPost2010PropOp51
 70
     0
102
RTVSPost2010Prop52
140
1.0
102
RTVSPost2010PropOp52
 70
     0
102
RTVSPost2010Prop53
 90
        2
102
RTVSPost2010PropOp53
 70
     1
102
RTVSPost2010Prop54
  1
strokes_ogs.tif
102
RTVSPost2010PropOp54
 70
     1
102
RTVSPost2010Prop55
280
     0
102
RTVSPost2010PropOp55
 70
     1
102
RTVSPost2010Prop56
140
1.0
102
RTVSPost2010PropOp56
 70
     1
102
RTVSPost2010Prop57
140
1.0
102
RTVSPost2010PropOp57
 70
     1
102
RTVSPropertyOp0
 70
     1
102
RTVSPropertyOp1
 70
     1
102
RTVSPropertyOp2
 70
     1
102
RTVSPropertyOp3
 70
     1
102
RTVSPropertyOp4
 70
     1
102
RTVSPropertyOp5
 70
     1
102
RTVSPropertyOp6
 70
     1
102
RTVSPropertyOp7
 70
     1
102
RTVSPropertyOp8
 70
     1
102
RTVSPropertyOp9
 70
     1
102
RTVSPropertyOp10
 70
     1
102
RTVSPropertyOp11
 70
     1
102
RTVSPropertyOp12
 70
     1
102
RTVSPropertyOp13
 70
     1
102
RTVSPropertyOp14
 70
     1
102
RTVSPropertyOp15
 70
     1
102
RTVSPropertyOp16
 70
     1
102
RTVSPropertyOp17
 70
     1
102
RTVSPropertyOp18
 70
     1
102
RTVSPropertyOp19
 70
     1
102
RTVSPropertyOp20
 70
     1
102
RTVSPropertyOp21
 70
     1
102
RTVSPropertyOp22
 70
     1
102
RTVSPropertyOp23
 70
     1
102
RTVSPropertyOp24
 70
     1
102
RTVSPropertyOp25
 70
     1
102
RTVSPropertyOp26
 70
     1
102
RTVSPropertyOp27
 70
     1
102
RTVSPropertyOp28
 70
     1
102
RTVSPropertyOp29
 70
     1
102
RTVSPropertyOp30
 70
     1
102
RTVSPropertyOp31
 70
     1
102
RTVSPropertyOp32
 70
     1
102
RTVSPropertyOp33
 70
     1
102
RTVSPropertyOp34
 70
     1
102
RTVSPropertyOp35
 70
     1
102
RTVSPropertyOp36
 70
     1
102
RTVSPropertyOp37
 70
     1
102
RTVSPropertyOp38
 70
     1
102
RTVSPropertyOp39
 70
     1
102
RTVSPropertyOp40
 70
     1
102
RTVSPropertyOp41
 70
     1
102
RTVSPropertyOp42
 70
     1
102
RTVSPropertyOp43
 70
     1
102
RTVSPropertyOp44
 70
     1
102
RTVSPropertyOp45
 70
     1
102
RTVSPropertyOp46
 70
     1
102
RTVSPropertyOp47
 70
     1
102
RTVSPropertyOp48
 70
     1
102
RTVSPropertyOp49
 70
     1
102
RTVSPropertyOp50
 70
     1
102
RTVSPropertyOp51
 70
     0
102
RTVSPropertyOp52
 70
     0
102
RTVSPropertyOp53
 70
     1
102
RTVSPropertyOp54
 70
     1
102
RTVSPropertyOp55
 70
     1
102
RTVSPropertyOp56
 70
     1
102
RTVSPropertyOp57
 70
     1
102
RTVSPropertyOp58
 70
     1
102
RTVSPropertyOp59
 70
     1
102
RTVSPropertyOp60
 70
     1
102
RTVSPropertyOp61
 70
     1
102
RTVSPropertyOp62
 70
     1
  0
XRECORD
  5
5F2
102
{ACAD_REACTORS
330
5F1
102
}
330
5F1
100
AcDbXrecord
280
     1
102
RTVSPost2010Prop28
280
     0
102
RTVSPost2010PropOp28
 70
     0
102
RTVSPost2010Prop29
280
     1
102
RTVSPost2010PropOp29
 70
     0
102
RTVSPost2010Prop30
280
     1
102
RTVSPost2010PropOp30
 70
     0
102
RTVSPost2010Prop31
280
     0
102
RTVSPost2010PropOp31
 70
     0
102
RTVSPost2010Prop32
280
     0
102
RTVSPost2010PropOp32
 70
     0
102
RTVSPost2010Prop33
280
     0
102
RTVSPost2010PropOp33
 70
     0
102
RTVSPost2010Prop34
280
     0
102
RTVSPost2010PropOp34
 70
     0
102
RTVSPost2010Prop35
280
     0
102
RTVSPost2010PropOp35
 70
     0
102
RTVSPost2010Prop36
280
     0
102
RTVSPost2010PropOp36
 70
     0
102
RTVSPost2010Prop37
 90
       50
102
RTVSPost2010PropOp37
 70
     0
102
RTVSPost2010Prop38
140
0.0
102
RTVSPost2010PropOp38
 70
     0
102
RTVSPost2010Prop39
140
1.0
102
RTVSPost2010PropOp39
 70
     0
102
RTVSPost2010Prop40
 90
        0
102
RTVSPost2010PropOp40
 70
     0
102
RTVSPost2010Prop41ColorIndex
 90
       18
102
RTVSPost2010Prop41ColorRGB
 90
        0
102
RTVSPost2010PropOp41
 70
     0
102
RTVSPost2010Prop42
 90
       50
102
RTVSPost2010PropOp42
 70
     0
102
RTVSPost2010Prop43
 90
        3
102
RTVSPost2010PropOp43
 70
     0
102
RTVSPost2010Prop44ColorIndex
 90
        5
102
RTVSPost2010Prop44ColorRGB
 90
      255
102
RTVSPost2010PropOp44
 70
     0
102
RTVSPost2010Prop45
280
     0
102
RTVSPost2010PropOp45
 70
     0
102
RTVSPost2010Prop46
 90
       50
102
RTVSPost2010PropOp46
 70
     0
102
RTVSPost2010Prop47
 90
       50
102
RTVSPost2010PropOp47
 70
     0
102
RTVSPost2010Prop48
 90
       50
102
RTVSPost2010PropOp48
 70
     0
102
RTVSPost2010Prop49
280
     0
102
RTVSPost2010PropOp49
 70
     0
102
RTVSPost2010Prop50
 90
       50
102
RTVSPost2010PropOp50
 70
     0
102
RTVSPost2010Prop51ColorIndex
 90
      256
102
RTVSPost2010Prop51ColorRGB
 90
-16777216
102
RTVSPost2010PropOp51
 70
     0
102
RTVSPost2010Prop52
140
1.0
102
RTVSPost2010PropOp52
 70
     0
102
RTVSPost2010Prop53
 90
        2
102
RTVSPost2010PropOp53
 70
     0
102
RTVSPost2010Prop54
  1
strokes_ogs.tif
102
RTVSPost2010PropOp54
 70
     0
102
RTVSPost2010Prop55
280
     0
102
RTVSPost2010PropOp55
 70
     0
102
RTVSPost2010Prop56
140
1.0
102
RTVSPost2010PropOp56
 70
     0
102
RTVSPost2010Prop57
140
1.0
102
RTVSPost2010PropOp57
 70
     0
102
RTVSPropertyOp0
 70
     0
102
RTVSPropertyOp1
 70
     0
102
RTVSPropertyOp2
 70
     0
102
RTVSPropertyOp3
 70
     0
102
RTVSPropertyOp4
 70
     0
102
RTVSPropertyOp5
 70
     0
102
RTVSPropertyOp6
 70
     0
102
RTVSPropertyOp7
 70
     0
102
RTVSPropertyOp8
 70
     0
102
RTVSPropertyOp9
 70
     0
102
RTVSPropertyOp10
 70
     0
102
RTVSPropertyOp11
 70
     0
102
RTVSPropertyOp12
 70
     0
102
RTVSPropertyOp13
 70
     0
102
RTVSPropertyOp14
 70
     2
102
RTVSPropertyOp15
 70
     0
102
RTVSPropertyOp16
 70
     0
102
RTVSPropertyOp17
 70
     0
102
RTVSPropertyOp18
 70
     0
102
RTVSPropertyOp19
 70
     0
102
RTVSPropertyOp20
 70
     0
102
RTVSPropertyOp21
 70
     0
102
RTVSPropertyOp22
 70
     0
102
RTVSPropertyOp23
 70
     0
102
RTVSPropertyOp24
 70
     0
102
RTVSPropertyOp25
 70
     0
102
RTVSPropertyOp26
 70
     0
102
RTVSPropertyOp27
 70
     0
102
RTVSPropertyOp28
 70
     0
102
RTVSPropertyOp29
 70
     0
102
RTVSPropertyOp30
 70
     0
102
RTVSPropertyOp31
 70
     0
102
RTVSPropertyOp32
 70
     0
102
RTVSPropertyOp33
 70
     0
102
RTVSPropertyOp34
 70
     0
102
RTVSPropertyOp35
 70
     0
102
RTVSPropertyOp36
 70
     0
102
RTVSPropertyOp37
 70
     0
102
RTVSPropertyOp38
 70
     0
102
RTVSPropertyOp39
 70
     0
102
RTVSPropertyOp40
 70
     0
102
RTVSPropertyOp41
 70
     0
102
RTVSPropertyOp42
 70
     0
102
RTVSPropertyOp43
 70
     0
102
RTVSPropertyOp44
 70
     0
102
RTVSPropertyOp45
 70
     0
102
RTVSPropertyOp46
 70
     0
102
RTVSPropertyOp47
 70
     0
102
RTVSPropertyOp48
 70
     0
102
RTVSPropertyOp49
 70
     0
102
RTVSPropertyOp50
 70
     0
102
RTVSPropertyOp51
 70
     0
102
RTVSPropertyOp52
 70
     0
102
RTVSPropertyOp53
 70
     0
102
RTVSPropertyOp54
 70
     0
102
RTVSPropertyOp55
 70
     0
102
RTVSPropertyOp56
 70
     0
102
RTVSPropertyOp57
 70
     0
102
RTVSPropertyOp58
 70
     1
102
RTVSPropertyOp59
 70
     1
102
RTVSPropertyOp60
 70
     1
102
RTVSPropertyOp61
 70
     1
102
RTVSPropertyOp62
 70
     1
  0
XRECORD
  5
5EC
102
{ACAD_REACTORS
330
5EB
102
}
330
5EB
100
AcDbXrecord
280
     1
102
RTVSPost2010Prop28
280
     0
102
RTVSPost2010PropOp28
 70
     1
102
RTVSPost2010Prop29
280
     1
102
RTVSPost2010PropOp29
 70
     1
102
RTVSPost2010Prop30
280
     1
102
RTVSPost2010PropOp30
 70
     1
102
RTVSPost2010Prop31
280
     0
102
RTVSPost2010PropOp31
 70
     1
102
RTVSPost2010Prop32
280
     0
102
RTVSPost2010PropOp32
 70
     1
102
RTVSPost2010Prop33
280
     0
102
RTVSPost2010PropOp33
 70
     1
102
RTVSPost2010Prop34
280
     0
102
RTVSPost2010PropOp34
 70
     1
102
RTVSPost2010Prop35
280
     0
102
RTVSPost2010PropOp35
 70
     1
102
RTVSPost2010Prop36
280
     0
102
RTVSPost2010PropOp36
 70
     1
102
RTVSPost2010Prop37
 90
       50
102
RTVSPost2010PropOp37
 70
     1
102
RTVSPost2010Prop38
140
0.0
102
RTVSPost2010PropOp38
 70
     1
102
RTVSPost2010Prop39
140
1.0
102
RTVSPost2010PropOp39
 70
     1
102
RTVSPost2010Prop40
 90
        0
102
RTVSPost2010PropOp40
 70
     1
102
RTVSPost2010Prop41ColorIndex
 90
       18
102
RTVSPost2010Prop41ColorRGB
 90
        0
102
RTVSPost2010PropOp41
 70
     1
102
RTVSPost2010Prop42
 90
       50
102
RTVSPost2010PropOp42
 70
     1
102
RTVSPost2010Prop43
 90
        3
102
RTVSPost2010PropOp43
 70
     1
102
RTVSPost2010Prop44ColorIndex
 90
        5
102
RTVSPost2010Prop44ColorRGB
 90
      255
102
RTVSPost2010PropOp44
 70
     1
102
RTVSPost2010Prop45
280
     0
102
RTVSPost2010PropOp45
 70
     1
102
RTVSPost2010Prop46
 90
       50
102
RTVSPost2010PropOp46
 70
     1
102
RTVSPost2010Prop47
 90
       50
102
RTVSPost2010PropOp47
 70
     1
102
RTVSPost2010Prop48
 90
       50
102
RTVSPost2010PropOp48
 70
     1
102
RTVSPost2010Prop49
280
     0
102
RTVSPost2010PropOp49
 70
     1
102
RTVSPost2010Prop50
 90
       50
102
RTVSPost2010PropOp50
 70
     1
102
RTVSPost2010Prop51ColorIndex
 90
      256
102
RTVSPost2010Prop51ColorRGB
 90
-16777216
102
RTVSPost2010PropOp51
 70
     0
102
RTVSPost2010Prop52
140
1.0
102
RTVSPost2010PropOp52
 70
     0
102
RTVSPost2010Prop53
 90
        2
102
RTVSPost2010PropOp53
 70
     1
102
RTVSPost2010Prop54
  1
strokes_ogs.tif
102
RTVSPost2010PropOp54
 70
     1
102
RTVSPost2010Prop55
280
     0
102
RTVSPost2010PropOp55
 70
     1
102
RTVSPost2010Prop56
140
1.0
102
RTVSPost2010PropOp56
 70
     1
102
RTVSPost2010Prop57
140
1.0
102
RTVSPost2010PropOp57
 70
     1
102
RTVSPropertyOp0
 70
     1
102
RTVSPropertyOp1
 70
     1
102
RTVSPropertyOp2
 70
     1
102
RTVSPropertyOp3
 70
     1
102
RTVSPropertyOp4
 70
     1
102
RTVSPropertyOp5
 70
     1
102
RTVSPropertyOp6
 70
     1
102
RTVSPropertyOp7
 70
     1
102
RTVSPropertyOp8
 70
     1
102
RTVSPropertyOp9
 70
     1
102
RTVSPropertyOp10
 70
     1
102
RTVSPropertyOp11
 70
     1
102
RTVSPropertyOp12
 70
     1
102
RTVSPropertyOp13
 70
     1
102
RTVSPropertyOp14
 70
     1
102
RTVSPropertyOp15
 70
     1
102
RTVSPropertyOp16
 70
     1
102
RTVSPropertyOp17
 70
     1
102
RTVSPropertyOp18
 70
     1
102
RTVSPropertyOp19
 70
     1
102
RTVSPropertyOp20
 70
     1
102
RTVSPropertyOp21
 70
     1
102
RTVSPropertyOp22
 70
     1
102
RTVSPropertyOp23
 70
     1
102
RTVSPropertyOp24
 70
     1
102
RTVSPropertyOp25
 70
     1
102
RTVSPropertyOp26
 70
     1
102
RTVSPropertyOp27
 70
     1
102
RTVSPropertyOp28
 70
     1
102
RTVSPropertyOp29
 70
     1
102
RTVSPropertyOp30
 70
     1
102
RTVSPropertyOp31
 70
     1
102
RTVSPropertyOp32
 70
     1
102
RTVSPropertyOp33
 70
     1
102
RTVSPropertyOp34
 70
     1
102
RTVSPropertyOp35
 70
     1
102
RTVSPropertyOp36
 70
     1
102
RTVSPropertyOp37
 70
     1
102
RTVSPropertyOp38
 70
     1
102
RTVSPropertyOp39
 70
     1
102
RTVSPropertyOp40
 70
     1
102
RTVSPropertyOp41
 70
     1
102
RTVSPropertyOp42
 70
     1
102
RTVSPropertyOp43
 70
     1
102
RTVSPropertyOp44
 70
     1
102
RTVSPropertyOp45
 70
     1
102
RTVSPropertyOp46
 70
     1
102
RTVSPropertyOp47
 70
     1
102
RTVSPropertyOp48
 70
     1
102
RTVSPropertyOp49
 70
     1
102
RTVSPropertyOp50
 70
     1
102
RTVSPropertyOp51
 70
     0
102
RTVSPropertyOp52
 70
     0
102
RTVSPropertyOp53
 70
     1
102
RTVSPropertyOp54
 70
     1
102
RTVSPropertyOp55
 70
     1
102
RTVSPropertyOp56
 70
     1
102
RTVSPropertyOp57
 70
     1
102
RTVSPropertyOp58
 70
     1
102
RTVSPropertyOp59
 70
     1
102
RTVSPropertyOp60
 70
     1
102
RTVSPropertyOp61
 70
     1
102
RTVSPropertyOp62
 70
     1
  0
XRECORD
  5
5F4
102
{ACAD_REACTORS
330
5F3
102
}
330
5F3
100
AcDbXrecord
280
     1
102
RTVSPost2010Prop28
280
     0
102
RTVSPost2010PropOp28
 70
     0
102
RTVSPost2010Prop29
280
     1
102
RTVSPost2010PropOp29
 70
     0
102
RTVSPost2010Prop30
280
     1
102
RTVSPost2010PropOp30
 70
     0
102
RTVSPost2010Prop31
280
     0
102
RTVSPost2010PropOp31
 70
     0
102
RTVSPost2010Prop32
280
     0
102
RTVSPost2010PropOp32
 70
     0
102
RTVSPost2010Prop33
280
     0
102
RTVSPost2010PropOp33
 70
     0
102
RTVSPost2010Prop34
280
     0
102
RTVSPost2010PropOp34
 70
     0
102
RTVSPost2010Prop35
280
     0
102
RTVSPost2010PropOp35
 70
     0
102
RTVSPost2010Prop36
280
     0
102
RTVSPost2010PropOp36
 70
     0
102
RTVSPost2010Prop37
 90
       50
102
RTVSPost2010PropOp37
 70
     0
102
RTVSPost2010Prop38
140
0.0
102
RTVSPost2010PropOp38
 70
     0
102
RTVSPost2010Prop39
140
1.0
102
RTVSPost2010PropOp39
 70
     0
102
RTVSPost2010Prop40
 90
        0
102
RTVSPost2010PropOp40
 70
     0
102
RTVSPost2010Prop41ColorIndex
 90
       18
102
RTVSPost2010Prop41ColorRGB
 90
        0
102
RTVSPost2010PropOp41
 70
     0
102
RTVSPost2010Prop42
 90
       50
102
RTVSPost2010PropOp42
 70
     0
102
RTVSPost2010Prop43
 90
        3
102
RTVSPost2010PropOp43
 70
     0
102
RTVSPost2010Prop44ColorIndex
 90
        5
102
RTVSPost2010Prop44ColorRGB
 90
      255
102
RTVSPost2010PropOp44
 70
     0
102
RTVSPost2010Prop45
280
     0
102
RTVSPost2010PropOp45
 70
     0
102
RTVSPost2010Prop46
 90
       50
102
RTVSPost2010PropOp46
 70
     0
102
RTVSPost2010Prop47
 90
       50
102
RTVSPost2010PropOp47
 70
     0
102
RTVSPost2010Prop48
 90
       50
102
RTVSPost2010PropOp48
 70
     0
102
RTVSPost2010Prop49
280
     0
102
RTVSPost2010PropOp49
 70
     0
102
RTVSPost2010Prop50
 90
       50
102
RTVSPost2010PropOp50
 70
     0
102
RTVSPost2010Prop51ColorIndex
 90
      256
102
RTVSPost2010Prop51ColorRGB
 90
-16777216
102
RTVSPost2010PropOp51
 70
     0
102
RTVSPost2010Prop52
140
1.0
102
RTVSPost2010PropOp52
 70
     0
102
RTVSPost2010Prop53
 90
        2
102
RTVSPost2010PropOp53
 70
     0
102
RTVSPost2010Prop54
  1
strokes_ogs.tif
102
RTVSPost2010PropOp54
 70
     0
102
RTVSPost2010Prop55
280
     0
102
RTVSPost2010PropOp55
 70
     0
102
RTVSPost2010Prop56
140
1.0
102
RTVSPost2010PropOp56
 70
     0
102
RTVSPost2010Prop57
140
1.0
102
RTVSPost2010PropOp57
 70
     0
102
RTVSPropertyOp0
 70
     0
102
RTVSPropertyOp1
 70
     0
102
RTVSPropertyOp2
 70
     0
102
RTVSPropertyOp3
 70
     0
102
RTVSPropertyOp4
 70
     0
102
RTVSPropertyOp5
 70
     0
102
RTVSPropertyOp6
 70
     0
102
RTVSPropertyOp7
 70
     0
102
RTVSPropertyOp8
 70
     0
102
RTVSPropertyOp9
 70
     0
102
RTVSPropertyOp10
 70
     0
102
RTVSPropertyOp11
 70
     0
102
RTVSPropertyOp12
 70
     0
102
RTVSPropertyOp13
 70
     0
102
RTVSPropertyOp14
 70
     2
102
RTVSPropertyOp15
 70
     0
102
RTVSPropertyOp16
 70
     0
102
RTVSPropertyOp17
 70
     0
102
RTVSPropertyOp18
 70
     0
102
RTVSPropertyOp19
 70
     0
102
RTVSPropertyOp20
 70
     0
102
RTVSPropertyOp21
 70
     0
102
RTVSPropertyOp22
 70
     0
102
RTVSPropertyOp23
 70
     0
102
RTVSPropertyOp24
 70
     0
102
RTVSPropertyOp25
 70
     0
102
RTVSPropertyOp26
 70
     0
102
RTVSPropertyOp27
 70
     0
102
RTVSPropertyOp28
 70
     0
102
RTVSPropertyOp29
 70
     0
102
RTVSPropertyOp30
 70
     0
102
RTVSPropertyOp31
 70
     0
102
RTVSPropertyOp32
 70
     0
102
RTVSPropertyOp33
 70
     0
102
RTVSPropertyOp34
 70
     0
102
RTVSPropertyOp35
 70
     0
102
RTVSPropertyOp36
 70
     0
102
RTVSPropertyOp37
 70
     0
102
RTVSPropertyOp38
 70
     0
102
RTVSPropertyOp39
 70
     0
102
RTVSPropertyOp40
 70
     0
102
RTVSPropertyOp41
 70
     0
102
RTVSPropertyOp42
 70
     0
102
RTVSPropertyOp43
 70
     0
102
RTVSPropertyOp44
 70
     0
102
RTVSPropertyOp45
 70
     0
102
RTVSPropertyOp46
 70
     0
102
RTVSPropertyOp47
 70
     0
102
RTVSPropertyOp48
 70
     0
102
RTVSPropertyOp49
 70
     0
102
RTVSPropertyOp50
 70
     0
102
RTVSPropertyOp51
 70
     0
102
RTVSPropertyOp52
 70
     0
102
RTVSPropertyOp53
 70
     0
102
RTVSPropertyOp54
 70
     0
102
RTVSPropertyOp55
 70
     0
102
RTVSPropertyOp56
 70
     0
102
RTVSPropertyOp57
 70
     0
102
RTVSPropertyOp58
 70
     1
102
RTVSPropertyOp59
 70
     1
102
RTVSPropertyOp60
 70
     1
102
RTVSPropertyOp61
 70
     1
102
RTVSPropertyOp62
 70
     1
  0
XRECORD
  5
5E2
102
{ACAD_REACTORS
330
5E1
102
}
330
5E1
100
AcDbXrecord
280
     1
102
RTVSPost2010Prop28
280
     0
102
RTVSPost2010PropOp28
 70
     1
102
RTVSPost2010Prop29
280
     1
102
RTVSPost2010PropOp29
 70
     1
102
RTVSPost2010Prop30
280
     1
102
RTVSPost2010PropOp30
 70
     1
102
RTVSPost2010Prop31
280
     0
102
RTVSPost2010PropOp31
 70
     1
102
RTVSPost2010Prop32
280
     0
102
RTVSPost2010PropOp32
 70
     1
102
RTVSPost2010Prop33
280
     0
102
RTVSPost2010PropOp33
 70
     1
102
RTVSPost2010Prop34
280
     0
102
RTVSPost2010PropOp34
 70
     1
102
RTVSPost2010Prop35
280
     0
102
RTVSPost2010PropOp35
 70
     1
102
RTVSPost2010Prop36
280
     0
102
RTVSPost2010PropOp36
 70
     1
102
RTVSPost2010Prop37
 90
       50
102
RTVSPost2010PropOp37
 70
     1
102
RTVSPost2010Prop38
140
0.0
102
RTVSPost2010PropOp38
 70
     1
102
RTVSPost2010Prop39
140
1.0
102
RTVSPost2010PropOp39
 70
     1
102
RTVSPost2010Prop40
 90
        0
102
RTVSPost2010PropOp40
 70
     1
102
RTVSPost2010Prop41ColorIndex
 90
       18
102
RTVSPost2010Prop41ColorRGB
 90
        0
102
RTVSPost2010PropOp41
 70
     1
102
RTVSPost2010Prop42
 90
       50
102
RTVSPost2010PropOp42
 70
     1
102
RTVSPost2010Prop43
 90
        3
102
RTVSPost2010PropOp43
 70
     1
102
RTVSPost2010Prop44ColorIndex
 90
        5
102
RTVSPost2010Prop44ColorRGB
 90
      255
102
RTVSPost2010PropOp44
 70
     1
102
RTVSPost2010Prop45
280
     0
102
RTVSPost2010PropOp45
 70
     1
102
RTVSPost2010Prop46
 90
       50
102
RTVSPost2010PropOp46
 70
     1
102
RTVSPost2010Prop47
 90
       50
102
RTVSPost2010PropOp47
 70
     1
102
RTVSPost2010Prop48
 90
       50
102
RTVSPost2010PropOp48
 70
     1
102
RTVSPost2010Prop49
280
     0
102
RTVSPost2010PropOp49
 70
     1
102
RTVSPost2010Prop50
 90
       50
102
RTVSPost2010PropOp50
 70
     1
102
RTVSPost2010Prop51ColorIndex
 90
      256
102
RTVSPost2010Prop51ColorRGB
 90
-16777216
102
RTVSPost2010PropOp51
 70
     0
102
RTVSPost2010Prop52
140
1.0
102
RTVSPost2010PropOp52
 70
     0
102
RTVSPost2010Prop53
 90
        2
102
RTVSPost2010PropOp53
 70
     1
102
RTVSPost2010Prop54
  1
strokes_ogs.tif
102
RTVSPost2010PropOp54
 70
     1
102
RTVSPost2010Prop55
280
     0
102
RTVSPost2010PropOp55
 70
     1
102
RTVSPost2010Prop56
140
1.0
102
RTVSPost2010PropOp56
 70
     1
102
RTVSPost2010Prop57
140
1.0
102
RTVSPost2010PropOp57
 70
     1
102
RTVSPropertyOp0
 70
     1
102
RTVSPropertyOp1
 70
     1
102
RTVSPropertyOp2
 70
     1
102
RTVSPropertyOp3
 70
     1
102
RTVSPropertyOp4
 70
     1
102
RTVSPropertyOp5
 70
     1
102
RTVSPropertyOp6
 70
     1
102
RTVSPropertyOp7
 70
     1
102
RTVSPropertyOp8
 70
     1
102
RTVSPropertyOp9
 70
     1
102
RTVSPropertyOp10
 70
     1
102
RTVSPropertyOp11
 70
     1
102
RTVSPropertyOp12
 70
     1
102
RTVSPropertyOp13
 70
     1
102
RTVSPropertyOp14
 70
     1
102
RTVSPropertyOp15
 70
     1
102
RTVSPropertyOp16
 70
     1
102
RTVSPropertyOp17
 70
     1
102
RTVSPropertyOp18
 70
     1
102
RTVSPropertyOp19
 70
     1
102
RTVSPropertyOp20
 70
     1
102
RTVSPropertyOp21
 70
     1
102
RTVSPropertyOp22
 70
     1
102
RTVSPropertyOp23
 70
     1
102
RTVSPropertyOp24
 70
     1
102
RTVSPropertyOp25
 70
     1
102
RTVSPropertyOp26
 70
     1
102
RTVSPropertyOp27
 70
     1
102
RTVSPropertyOp28
 70
     1
102
RTVSPropertyOp29
 70
     1
102
RTVSPropertyOp30
 70
     1
102
RTVSPropertyOp31
 70
     1
102
RTVSPropertyOp32
 70
     1
102
RTVSPropertyOp33
 70
     1
102
RTVSPropertyOp34
 70
     1
102
RTVSPropertyOp35
 70
     1
102
RTVSPropertyOp36
 70
     1
102
RTVSPropertyOp37
 70
     1
102
RTVSPropertyOp38
 70
     1
102
RTVSPropertyOp39
 70
     1
102
RTVSPropertyOp40
 70
     1
102
RTVSPropertyOp41
 70
     1
102
RTVSPropertyOp42
 70
     1
102
RTVSPropertyOp43
 70
     1
102
RTVSPropertyOp44
 70
     1
102
RTVSPropertyOp45
 70
     1
102
RTVSPropertyOp46
 70
     1
102
RTVSPropertyOp47
 70
     1
102
RTVSPropertyOp48
 70
     1
102
RTVSPropertyOp49
 70
     1
102
RTVSPropertyOp50
 70
     1
102
RTVSPropertyOp51
 70
     0
102
RTVSPropertyOp52
 70
     0
102
RTVSPropertyOp53
 70
     1
102
RTVSPropertyOp54
 70
     1
102
RTVSPropertyOp55
 70
     1
102
RTVSPropertyOp56
 70
     1
102
RTVSPropertyOp57
 70
     1
102
RTVSPropertyOp58
 70
     1
102
RTVSPropertyOp59
 70
     1
102
RTVSPropertyOp60
 70
     1
102
RTVSPropertyOp61
 70
     1
102
RTVSPropertyOp62
 70
     1
  0
XRECORD
  5
600
102
{ACAD_REACTORS
330
5FF
102
}
330
5FF
100
AcDbXrecord
280
     1
102
RTVSPost2010Prop28
280
     0
102
RTVSPost2010PropOp28
 70
     1
102
RTVSPost2010Prop29
280
     1
102
RTVSPost2010PropOp29
 70
     1
102
RTVSPost2010Prop30
280
     1
102
RTVSPost2010PropOp30
 70
     1
102
RTVSPost2010Prop31
280
     0
102
RTVSPost2010PropOp31
 70
     1
102
RTVSPost2010Prop32
280
     0
102
RTVSPost2010PropOp32
 70
     1
102
RTVSPost2010Prop33
280
     0
102
RTVSPost2010PropOp33
 70
     1
102
RTVSPost2010Prop34
280
     0
102
RTVSPost2010PropOp34
 70
     1
102
RTVSPost2010Prop35
280
     0
102
RTVSPost2010PropOp35
 70
     1
102
RTVSPost2010Prop36
280
     0
102
RTVSPost2010PropOp36
 70
     1
102
RTVSPost2010Prop37
 90
       50
102
RTVSPost2010PropOp37
 70
     1
102
RTVSPost2010Prop38
140
0.0
102
RTVSPost2010PropOp38
 70
     1
102
RTVSPost2010Prop39
140
1.0
102
RTVSPost2010PropOp39
 70
     1
102
RTVSPost2010Prop40
 90
        0
102
RTVSPost2010PropOp40
 70
     1
102
RTVSPost2010Prop41ColorIndex
 90
       18
102
RTVSPost2010Prop41ColorRGB
 90
        0
102
RTVSPost2010PropOp41
 70
     1
102
RTVSPost2010Prop42
 90
       50
102
RTVSPost2010PropOp42
 70
     1
102
RTVSPost2010Prop43
 90
        3
102
RTVSPost2010PropOp43
 70
     1
102
RTVSPost2010Prop44ColorIndex
 90
        5
102
RTVSPost2010Prop44ColorRGB
 90
      255
102
RTVSPost2010PropOp44
 70
     1
102
RTVSPost2010Prop45
280
     0
102
RTVSPost2010PropOp45
 70
     1
102
RTVSPost2010Prop46
 90
       50
102
RTVSPost2010PropOp46
 70
     1
102
RTVSPost2010Prop47
 90
       50
102
RTVSPost2010PropOp47
 70
     1
102
RTVSPost2010Prop48
 90
       50
102
RTVSPost2010PropOp48
 70
     1
102
RTVSPost2010Prop49
280
     0
102
RTVSPost2010PropOp49
 70
     1
102
RTVSPost2010Prop50
 90
       50
102
RTVSPost2010PropOp50
 70
     1
102
RTVSPost2010Prop51ColorIndex
 90
      256
102
RTVSPost2010Prop51ColorRGB
 90
-16777216
102
RTVSPost2010PropOp51
 70
     0
102
RTVSPost2010Prop52
140
1.0
102
RTVSPost2010PropOp52
 70
     0
102
RTVSPost2010Prop53
 90
        2
102
RTVSPost2010PropOp53
 70
     1
102
RTVSPost2010Prop54
  1
strokes_ogs.tif
102
RTVSPost2010PropOp54
 70
     1
102
RTVSPost2010Prop55
280
     0
102
RTVSPost2010PropOp55
 70
     1
102
RTVSPost2010Prop56
140
1.0
102
RTVSPost2010PropOp56
 70
     1
102
RTVSPost2010Prop57
140
1.0
102
RTVSPost2010PropOp57
 70
     1
102
RTVSPropertyOp0
 70
     1
102
RTVSPropertyOp1
 70
     1
102
RTVSPropertyOp2
 70
     1
102
RTVSPropertyOp3
 70
     1
102
RTVSPropertyOp4
 70
     1
102
RTVSPropertyOp5
 70
     1
102
RTVSPropertyOp6
 70
     1
102
RTVSPropertyOp7
 70
     1
102
RTVSPropertyOp8
 70
     1
102
RTVSPropertyOp9
 70
     1
102
RTVSPropertyOp10
 70
     1
102
RTVSPropertyOp11
 70
     1
102
RTVSPropertyOp12
 70
     1
102
RTVSPropertyOp13
 70
     1
102
RTVSPropertyOp14
 70
     1
102
RTVSPropertyOp15
 70
     1
102
RTVSPropertyOp16
 70
     1
102
RTVSPropertyOp17
 70
     1
102
RTVSPropertyOp18
 70
     1
102
RTVSPropertyOp19
 70
     1
102
RTVSPropertyOp20
 70
     1
102
RTVSPropertyOp21
 70
     1
102
RTVSPropertyOp22
 70
     1
102
RTVSPropertyOp23
 70
     1
102
RTVSPropertyOp24
 70
     1
102
RTVSPropertyOp25
 70
     1
102
RTVSPropertyOp26
 70
     1
102
RTVSPropertyOp27
 70
     1
102
RTVSPropertyOp28
 70
     1
102
RTVSPropertyOp29
 70
     1
102
RTVSPropertyOp30
 70
     1
102
RTVSPropertyOp31
 70
     1
102
RTVSPropertyOp32
 70
     1
102
RTVSPropertyOp33
 70
     1
102
RTVSPropertyOp34
 70
     1
102
RTVSPropertyOp35
 70
     1
102
RTVSPropertyOp36
 70
     1
102
RTVSPropertyOp37
 70
     1
102
RTVSPropertyOp38
 70
     1
102
RTVSPropertyOp39
 70
     1
102
RTVSPropertyOp40
 70
     1
102
RTVSPropertyOp41
 70
     1
102
RTVSPropertyOp42
 70
     1
102
RTVSPropertyOp43
 70
     1
102
RTVSPropertyOp44
 70
     1
102
RTVSPropertyOp45
 70
     1
102
RTVSPropertyOp46
 70
     1
102
RTVSPropertyOp47
 70
     1
102
RTVSPropertyOp48
 70
     1
102
RTVSPropertyOp49
 70
     1
102
RTVSPropertyOp50
 70
     1
102
RTVSPropertyOp51
 70
     0
102
RTVSPropertyOp52
 70
     0
102
RTVSPropertyOp53
 70
     1
102
RTVSPropertyOp54
 70
     1
102
RTVSPropertyOp55
 70
     1
102
RTVSPropertyOp56
 70
     1
102
RTVSPropertyOp57
 70
     1
102
RTVSPropertyOp58
 70
     1
102
RTVSPropertyOp59
 70
     1
102
RTVSPropertyOp60
 70
     1
102
RTVSPropertyOp61
 70
     1
102
RTVSPropertyOp62
 70
     1
  0
XRECORD
  5
5FE
102
{ACAD_REACTORS
330
5FD
102
}
330
5FD
100
AcDbXrecord
280
     1
102
RTVSPost2010Prop28
280
     0
102
RTVSPost2010PropOp28
 70
     1
102
RTVSPost2010Prop29
280
     1
102
RTVSPost2010PropOp29
 70
     1
102
RTVSPost2010Prop30
280
     1
102
RTVSPost2010PropOp30
 70
     1
102
RTVSPost2010Prop31
280
     0
102
RTVSPost2010PropOp31
 70
     1
102
RTVSPost2010Prop32
280
     0
102
RTVSPost2010PropOp32
 70
     1
102
RTVSPost2010Prop33
280
     0
102
RTVSPost2010PropOp33
 70
     1
102
RTVSPost2010Prop34
280
     0
102
RTVSPost2010PropOp34
 70
     1
102
RTVSPost2010Prop35
280
     0
102
RTVSPost2010PropOp35
 70
     1
102
RTVSPost2010Prop36
280
     0
102
RTVSPost2010PropOp36
 70
     1
102
RTVSPost2010Prop37
 90
       50
102
RTVSPost2010PropOp37
 70
     1
102
RTVSPost2010Prop38
140
0.0
102
RTVSPost2010PropOp38
 70
     1
102
RTVSPost2010Prop39
140
1.0
102
RTVSPost2010PropOp39
 70
     1
102
RTVSPost2010Prop40
 90
        0
102
RTVSPost2010PropOp40
 70
     1
102
RTVSPost2010Prop41ColorIndex
 90
       18
102
RTVSPost2010Prop41ColorRGB
 90
        0
102
RTVSPost2010PropOp41
 70
     1
102
RTVSPost2010Prop42
 90
       50
102
RTVSPost2010PropOp42
 70
     1
102
RTVSPost2010Prop43
 90
        3
102
RTVSPost2010PropOp43
 70
     1
102
RTVSPost2010Prop44ColorIndex
 90
        5
102
RTVSPost2010Prop44ColorRGB
 90
      255
102
RTVSPost2010PropOp44
 70
     1
102
RTVSPost2010Prop45
280
     0
102
RTVSPost2010PropOp45
 70
     1
102
RTVSPost2010Prop46
 90
       50
102
RTVSPost2010PropOp46
 70
     1
102
RTVSPost2010Prop47
 90
       50
102
RTVSPost2010PropOp47
 70
     1
102
RTVSPost2010Prop48
 90
       50
102
RTVSPost2010PropOp48
 70
     1
102
RTVSPost2010Prop49
280
     0
102
RTVSPost2010PropOp49
 70
     1
102
RTVSPost2010Prop50
 90
       50
102
RTVSPost2010PropOp50
 70
     1
102
RTVSPost2010Prop51ColorIndex
 90
      256
102
RTVSPost2010Prop51ColorRGB
 90
-16777216
102
RTVSPost2010PropOp51
 70
     0
102
RTVSPost2010Prop52
140
1.0
102
RTVSPost2010PropOp52
 70
     0
102
RTVSPost2010Prop53
 90
        2
102
RTVSPost2010PropOp53
 70
     1
102
RTVSPost2010Prop54
  1
strokes_ogs.tif
102
RTVSPost2010PropOp54
 70
     1
102
RTVSPost2010Prop55
280
     0
102
RTVSPost2010PropOp55
 70
     1
102
RTVSPost2010Prop56
140
1.0
102
RTVSPost2010PropOp56
 70
     1
102
RTVSPost2010Prop57
140
1.0
102
RTVSPost2010PropOp57
 70
     1
102
RTVSPropertyOp0
 70
     1
102
RTVSPropertyOp1
 70
     1
102
RTVSPropertyOp2
 70
     1
102
RTVSPropertyOp3
 70
     1
102
RTVSPropertyOp4
 70
     1
102
RTVSPropertyOp5
 70
     1
102
RTVSPropertyOp6
 70
     1
102
RTVSPropertyOp7
 70
     1
102
RTVSPropertyOp8
 70
     1
102
RTVSPropertyOp9
 70
     1
102
RTVSPropertyOp10
 70
     1
102
RTVSPropertyOp11
 70
     1
102
RTVSPropertyOp12
 70
     1
102
RTVSPropertyOp13
 70
     1
102
RTVSPropertyOp14
 70
     1
102
RTVSPropertyOp15
 70
     1
102
RTVSPropertyOp16
 70
     1
102
RTVSPropertyOp17
 70
     1
102
RTVSPropertyOp18
 70
     1
102
RTVSPropertyOp19
 70
     1
102
RTVSPropertyOp20
 70
     1
102
RTVSPropertyOp21
 70
     1
102
RTVSPropertyOp22
 70
     1
102
RTVSPropertyOp23
 70
     1
102
RTVSPropertyOp24
 70
     1
102
RTVSPropertyOp25
 70
     1
102
RTVSPropertyOp26
 70
     1
102
RTVSPropertyOp27
 70
     1
102
RTVSPropertyOp28
 70
     1
102
RTVSPropertyOp29
 70
     1
102
RTVSPropertyOp30
 70
     1
102
RTVSPropertyOp31
 70
     1
102
RTVSPropertyOp32
 70
     1
102
RTVSPropertyOp33
 70
     1
102
RTVSPropertyOp34
 70
     1
102
RTVSPropertyOp35
 70
     1
102
RTVSPropertyOp36
 70
     1
102
RTVSPropertyOp37
 70
     1
102
RTVSPropertyOp38
 70
     1
102
RTVSPropertyOp39
 70
     1
102
RTVSPropertyOp40
 70
     1
102
RTVSPropertyOp41
 70
     1
102
RTVSPropertyOp42
 70
     1
102
RTVSPropertyOp43
 70
     1
102
RTVSPropertyOp44
 70
     1
102
RTVSPropertyOp45
 70
     1
102
RTVSPropertyOp46
 70
     1
102
RTVSPropertyOp47
 70
     1
102
RTVSPropertyOp48
 70
     1
102
RTVSPropertyOp49
 70
     1
102
RTVSPropertyOp50
 70
     1
102
RTVSPropertyOp51
 70
     0
102
RTVSPropertyOp52
 70
     0
102
RTVSPropertyOp53
 70
     1
102
RTVSPropertyOp54
 70
     1
102
RTVSPropertyOp55
 70
     1
102
RTVSPropertyOp56
 70
     1
102
RTVSPropertyOp57
 70
     1
102
RTVSPropertyOp58
 70
     1
102
RTVSPropertyOp59
 70
     1
102
RTVSPropertyOp60
 70
     1
102
RTVSPropertyOp61
 70
     1
102
RTVSPropertyOp62
 70
     1
  0
XRECORD
  5
5F8
102
{ACAD_REACTORS
330
5F7
102
}
330
5F7
100
AcDbXrecord
280
     1
102
RTVSPost2010Prop28
280
     0
102
RTVSPost2010PropOp28
 70
     1
102
RTVSPost2010Prop29
280
     1
102
RTVSPost2010PropOp29
 70
     1
102
RTVSPost2010Prop30
280
     1
102
RTVSPost2010PropOp30
 70
     1
102
RTVSPost2010Prop31
280
     0
102
RTVSPost2010PropOp31
 70
     1
102
RTVSPost2010Prop32
280
     0
102
RTVSPost2010PropOp32
 70
     1
102
RTVSPost2010Prop33
280
     0
102
RTVSPost2010PropOp33
 70
     1
102
RTVSPost2010Prop34
280
     0
102
RTVSPost2010PropOp34
 70
     1
102
RTVSPost2010Prop35
280
     0
102
RTVSPost2010PropOp35
 70
     1
102
RTVSPost2010Prop36
280
     0
102
RTVSPost2010PropOp36
 70
     1
102
RTVSPost2010Prop37
 90
       50
102
RTVSPost2010PropOp37
 70
     1
102
RTVSPost2010Prop38
140
0.0
102
RTVSPost2010PropOp38
 70
     1
102
RTVSPost2010Prop39
140
1.0
102
RTVSPost2010PropOp39
 70
     1
102
RTVSPost2010Prop40
 90
        0
102
RTVSPost2010PropOp40
 70
     1
102
RTVSPost2010Prop41ColorIndex
 90
       18
102
RTVSPost2010Prop41ColorRGB
 90
        0
102
RTVSPost2010PropOp41
 70
     1
102
RTVSPost2010Prop42
 90
       50
102
RTVSPost2010PropOp42
 70
     1
102
RTVSPost2010Prop43
 90
        3
102
RTVSPost2010PropOp43
 70
     1
102
RTVSPost2010Prop44ColorIndex
 90
        5
102
RTVSPost2010Prop44ColorRGB
 90
      255
102
RTVSPost2010PropOp44
 70
     1
102
RTVSPost2010Prop45
280
     0
102
RTVSPost2010PropOp45
 70
     1
102
RTVSPost2010Prop46
 90
       50
102
RTVSPost2010PropOp46
 70
     1
102
RTVSPost2010Prop47
 90
       50
102
RTVSPost2010PropOp47
 70
     1
102
RTVSPost2010Prop48
 90
       50
102
RTVSPost2010PropOp48
 70
     1
102
RTVSPost2010Prop49
280
     0
102
RTVSPost2010PropOp49
 70
     1
102
RTVSPost2010Prop50
 90
       50
102
RTVSPost2010PropOp50
 70
     1
102
RTVSPost2010Prop51ColorIndex
 90
      256
102
RTVSPost2010Prop51ColorRGB
 90
-16777216
102
RTVSPost2010PropOp51
 70
     0
102
RTVSPost2010Prop52
140
1.0
102
RTVSPost2010PropOp52
 70
     0
102
RTVSPost2010Prop53
 90
        2
102
RTVSPost2010PropOp53
 70
     1
102
RTVSPost2010Prop54
  1
strokes_ogs.tif
102
RTVSPost2010PropOp54
 70
     1
102
RTVSPost2010Prop55
280
     0
102
RTVSPost2010PropOp55
 70
     1
102
RTVSPost2010Prop56
140
1.0
102
RTVSPost2010PropOp56
 70
     1
102
RTVSPost2010Prop57
140
1.0
102
RTVSPost2010PropOp57
 70
     1
102
RTVSPropertyOp0
 70
     1
102
RTVSPropertyOp1
 70
     1
102
RTVSPropertyOp2
 70
     1
102
RTVSPropertyOp3
 70
     1
102
RTVSPropertyOp4
 70
     1
102
RTVSPropertyOp5
 70
     1
102
RTVSPropertyOp6
 70
     1
102
RTVSPropertyOp7
 70
     1
102
RTVSPropertyOp8
 70
     1
102
RTVSPropertyOp9
 70
     1
102
RTVSPropertyOp10
 70
     1
102
RTVSPropertyOp11
 70
     1
102
RTVSPropertyOp12
 70
     1
102
RTVSPropertyOp13
 70
     1
102
RTVSPropertyOp14
 70
     1
102
RTVSPropertyOp15
 70
     1
102
RTVSPropertyOp16
 70
     1
102
RTVSPropertyOp17
 70
     1
102
RTVSPropertyOp18
 70
     1
102
RTVSPropertyOp19
 70
     1
102
RTVSPropertyOp20
 70
     1
102
RTVSPropertyOp21
 70
     1
102
RTVSPropertyOp22
 70
     1
102
RTVSPropertyOp23
 70
     1
102
RTVSPropertyOp24
 70
     1
102
RTVSPropertyOp25
 70
     1
102
RTVSPropertyOp26
 70
     1
102
RTVSPropertyOp27
 70
     1
102
RTVSPropertyOp28
 70
     1
102
RTVSPropertyOp29
 70
     1
102
RTVSPropertyOp30
 70
     1
102
RTVSPropertyOp31
 70
     1
102
RTVSPropertyOp32
 70
     1
102
RTVSPropertyOp33
 70
     1
102
RTVSPropertyOp34
 70
     1
102
RTVSPropertyOp35
 70
     1
102
RTVSPropertyOp36
 70
     1
102
RTVSPropertyOp37
 70
     1
102
RTVSPropertyOp38
 70
     1
102
RTVSPropertyOp39
 70
     1
102
RTVSPropertyOp40
 70
     1
102
RTVSPropertyOp41
 70
     1
102
RTVSPropertyOp42
 70
     1
102
RTVSPropertyOp43
 70
     1
102
RTVSPropertyOp44
 70
     1
102
RTVSPropertyOp45
 70
     1
102
RTVSPropertyOp46
 70
     1
102
RTVSPropertyOp47
 70
     1
102
RTVSPropertyOp48
 70
     1
102
RTVSPropertyOp49
 70
     1
102
RTVSPropertyOp50
 70
     1
102
RTVSPropertyOp51
 70
     0
102
RTVSPropertyOp52
 70
     0
102
RTVSPropertyOp53
 70
     1
102
RTVSPropertyOp54
 70
     1
102
RTVSPropertyOp55
 70
     1
102
RTVSPropertyOp56
 70
     1
102
RTVSPropertyOp57
 70
     1
102
RTVSPropertyOp58
 70
     1
102
RTVSPropertyOp59
 70
     1
102
RTVSPropertyOp60
 70
     1
102
RTVSPropertyOp61
 70
     1
102
RTVSPropertyOp62
 70
     1
  0
XRECORD
  5
5FA
102
{ACAD_REACTORS
330
5F9
102
}
330
5F9
100
AcDbXrecord
280
     1
102
RTVSPost2010Prop28
280
     0
102
RTVSPost2010PropOp28
 70
     1
102
RTVSPost2010Prop29
280
     1
102
RTVSPost2010PropOp29
 70
     1
102
RTVSPost2010Prop30
280
     1
102
RTVSPost2010PropOp30
 70
     1
102
RTVSPost2010Prop31
280
     0
102
RTVSPost2010PropOp31
 70
     1
102
RTVSPost2010Prop32
280
     0
102
RTVSPost2010PropOp32
 70
     1
102
RTVSPost2010Prop33
280
     0
102
RTVSPost2010PropOp33
 70
     1
102
RTVSPost2010Prop34
280
     0
102
RTVSPost2010PropOp34
 70
     1
102
RTVSPost2010Prop35
280
     0
102
RTVSPost2010PropOp35
 70
     1
102
RTVSPost2010Prop36
280
     0
102
RTVSPost2010PropOp36
 70
     1
102
RTVSPost2010Prop37
 90
       50
102
RTVSPost2010PropOp37
 70
     1
102
RTVSPost2010Prop38
140
0.0
102
RTVSPost2010PropOp38
 70
     1
102
RTVSPost2010Prop39
140
1.0
102
RTVSPost2010PropOp39
 70
     1
102
RTVSPost2010Prop40
 90
        0
102
RTVSPost2010PropOp40
 70
     1
102
RTVSPost2010Prop41ColorIndex
 90
       18
102
RTVSPost2010Prop41ColorRGB
 90
        0
102
RTVSPost2010PropOp41
 70
     1
102
RTVSPost2010Prop42
 90
       50
102
RTVSPost2010PropOp42
 70
     1
102
RTVSPost2010Prop43
 90
        3
102
RTVSPost2010PropOp43
 70
     1
102
RTVSPost2010Prop44ColorIndex
 90
        5
102
RTVSPost2010Prop44ColorRGB
 90
      255
102
RTVSPost2010PropOp44
 70
     1
102
RTVSPost2010Prop45
280
     0
102
RTVSPost2010PropOp45
 70
     1
102
RTVSPost2010Prop46
 90
       50
102
RTVSPost2010PropOp46
 70
     1
102
RTVSPost2010Prop47
 90
       50
102
RTVSPost2010PropOp47
 70
     1
102
RTVSPost2010Prop48
 90
       50
102
RTVSPost2010PropOp48
 70
     1
102
RTVSPost2010Prop49
280
     0
102
RTVSPost2010PropOp49
 70
     1
102
RTVSPost2010Prop50
 90
       50
102
RTVSPost2010PropOp50
 70
     1
102
RTVSPost2010Prop51ColorIndex
 90
      256
102
RTVSPost2010Prop51ColorRGB
 90
-16777216
102
RTVSPost2010PropOp51
 70
     0
102
RTVSPost2010Prop52
140
1.0
102
RTVSPost2010PropOp52
 70
     0
102
RTVSPost2010Prop53
 90
        2
102
RTVSPost2010PropOp53
 70
     1
102
RTVSPost2010Prop54
  1
strokes_ogs.tif
102
RTVSPost2010PropOp54
 70
     1
102
RTVSPost2010Prop55
280
     0
102
RTVSPost2010PropOp55
 70
     1
102
RTVSPost2010Prop56
140
1.0
102
RTVSPost2010PropOp56
 70
     1
102
RTVSPost2010Prop57
140
1.0
102
RTVSPost2010PropOp57
 70
     1
102
RTVSPropertyOp0
 70
     1
102
RTVSPropertyOp1
 70
     1
102
RTVSPropertyOp2
 70
     1
102
RTVSPropertyOp3
 70
     1
102
RTVSPropertyOp4
 70
     1
102
RTVSPropertyOp5
 70
     1
102
RTVSPropertyOp6
 70
     1
102
RTVSPropertyOp7
 70
     1
102
RTVSPropertyOp8
 70
     1
102
RTVSPropertyOp9
 70
     1
102
RTVSPropertyOp10
 70
     1
102
RTVSPropertyOp11
 70
     1
102
RTVSPropertyOp12
 70
     1
102
RTVSPropertyOp13
 70
     1
102
RTVSPropertyOp14
 70
     1
102
RTVSPropertyOp15
 70
     1
102
RTVSPropertyOp16
 70
     1
102
RTVSPropertyOp17
 70
     1
102
RTVSPropertyOp18
 70
     1
102
RTVSPropertyOp19
 70
     1
102
RTVSPropertyOp20
 70
     1
102
RTVSPropertyOp21
 70
     1
102
RTVSPropertyOp22
 70
     1
102
RTVSPropertyOp23
 70
     1
102
RTVSPropertyOp24
 70
     1
102
RTVSPropertyOp25
 70
     1
102
RTVSPropertyOp26
 70
     1
102
RTVSPropertyOp27
 70
     1
102
RTVSPropertyOp28
 70
     1
102
RTVSPropertyOp29
 70
     1
102
RTVSPropertyOp30
 70
     1
102
RTVSPropertyOp31
 70
     1
102
RTVSPropertyOp32
 70
     1
102
RTVSPropertyOp33
 70
     1
102
RTVSPropertyOp34
 70
     1
102
RTVSPropertyOp35
 70
     1
102
RTVSPropertyOp36
 70
     1
102
RTVSPropertyOp37
 70
     1
102
RTVSPropertyOp38
 70
     1
102
RTVSPropertyOp39
 70
     1
102
RTVSPropertyOp40
 70
     1
102
RTVSPropertyOp41
 70
     1
102
RTVSPropertyOp42
 70
     1
102
RTVSPropertyOp43
 70
     1
102
RTVSPropertyOp44
 70
     1
102
RTVSPropertyOp45
 70
     1
102
RTVSPropertyOp46
 70
     1
102
RTVSPropertyOp47
 70
     1
102
RTVSPropertyOp48
 70
     1
102
RTVSPropertyOp49
 70
     1
102
RTVSPropertyOp50
 70
     1
102
RTVSPropertyOp51
 70
     0
102
RTVSPropertyOp52
 70
     0
102
RTVSPropertyOp53
 70
     1
102
RTVSPropertyOp54
 70
     1
102
RTVSPropertyOp55
 70
     1
102
RTVSPropertyOp56
 70
     1
102
RTVSPropertyOp57
 70
     1
102
RTVSPropertyOp58
 70
     1
102
RTVSPropertyOp59
 70
     1
102
RTVSPropertyOp60
 70
     1
102
RTVSPropertyOp61
 70
     1
102
RTVSPropertyOp62
 70
     1
  0
XRECORD
  5
5EA
102
{ACAD_REACTORS
330
5E9
102
}
330
5E9
100
AcDbXrecord
280
     1
102
RTVSPost2010Prop28
280
     0
102
RTVSPost2010PropOp28
 70
     1
102
RTVSPost2010Prop29
280
     1
102
RTVSPost2010PropOp29
 70
     1
102
RTVSPost2010Prop30
280
     1
102
RTVSPost2010PropOp30
 70
     1
102
RTVSPost2010Prop31
280
     0
102
RTVSPost2010PropOp31
 70
     1
102
RTVSPost2010Prop32
280
     0
102
RTVSPost2010PropOp32
 70
     1
102
RTVSPost2010Prop33
280
     0
102
RTVSPost2010PropOp33
 70
     1
102
RTVSPost2010Prop34
280
     0
102
RTVSPost2010PropOp34
 70
     1
102
RTVSPost2010Prop35
280
     0
102
RTVSPost2010PropOp35
 70
     1
102
RTVSPost2010Prop36
280
     0
102
RTVSPost2010PropOp36
 70
     1
102
RTVSPost2010Prop37
 90
       50
102
RTVSPost2010PropOp37
 70
     1
102
RTVSPost2010Prop38
140
0.0
102
RTVSPost2010PropOp38
 70
     1
102
RTVSPost2010Prop39
140
1.0
102
RTVSPost2010PropOp39
 70
     1
102
RTVSPost2010Prop40
 90
        0
102
RTVSPost2010PropOp40
 70
     1
102
RTVSPost2010Prop41ColorIndex
 90
       18
102
RTVSPost2010Prop41ColorRGB
 90
        0
102
RTVSPost2010PropOp41
 70
     1
102
RTVSPost2010Prop42
 90
       50
102
RTVSPost2010PropOp42
 70
     1
102
RTVSPost2010Prop43
 90
        3
102
RTVSPost2010PropOp43
 70
     1
102
RTVSPost2010Prop44ColorIndex
 90
        5
102
RTVSPost2010Prop44ColorRGB
 90
      255
102
RTVSPost2010PropOp44
 70
     1
102
RTVSPost2010Prop45
280
     0
102
RTVSPost2010PropOp45
 70
     1
102
RTVSPost2010Prop46
 90
       50
102
RTVSPost2010PropOp46
 70
     1
102
RTVSPost2010Prop47
 90
       50
102
RTVSPost2010PropOp47
 70
     1
102
RTVSPost2010Prop48
 90
       50
102
RTVSPost2010PropOp48
 70
     1
102
RTVSPost2010Prop49
280
     0
102
RTVSPost2010PropOp49
 70
     1
102
RTVSPost2010Prop50
 90
       50
102
RTVSPost2010PropOp50
 70
     1
102
RTVSPost2010Prop51ColorIndex
 90
      256
102
RTVSPost2010Prop51ColorRGB
 90
-16777216
102
RTVSPost2010PropOp51
 70
     0
102
RTVSPost2010Prop52
140
1.0
102
RTVSPost2010PropOp52
 70
     0
102
RTVSPost2010Prop53
 90
        2
102
RTVSPost2010PropOp53
 70
     1
102
RTVSPost2010Prop54
  1
strokes_ogs.tif
102
RTVSPost2010PropOp54
 70
     1
102
RTVSPost2010Prop55
280
     0
102
RTVSPost2010PropOp55
 70
     1
102
RTVSPost2010Prop56
140
1.0
102
RTVSPost2010PropOp56
 70
     1
102
RTVSPost2010Prop57
140
1.0
102
RTVSPost2010PropOp57
 70
     1
102
RTVSPropertyOp0
 70
     1
102
RTVSPropertyOp1
 70
     1
102
RTVSPropertyOp2
 70
     1
102
RTVSPropertyOp3
 70
     1
102
RTVSPropertyOp4
 70
     1
102
RTVSPropertyOp5
 70
     1
102
RTVSPropertyOp6
 70
     1
102
RTVSPropertyOp7
 70
     1
102
RTVSPropertyOp8
 70
     1
102
RTVSPropertyOp9
 70
     1
102
RTVSPropertyOp10
 70
     1
102
RTVSPropertyOp11
 70
     1
102
RTVSPropertyOp12
 70
     1
102
RTVSPropertyOp13
 70
     1
102
RTVSPropertyOp14
 70
     1
102
RTVSPropertyOp15
 70
     1
102
RTVSPropertyOp16
 70
     1
102
RTVSPropertyOp17
 70
     1
102
RTVSPropertyOp18
 70
     1
102
RTVSPropertyOp19
 70
     1
102
RTVSPropertyOp20
 70
     1
102
RTVSPropertyOp21
 70
     1
102
RTVSPropertyOp22
 70
     1
102
RTVSPropertyOp23
 70
     1
102
RTVSPropertyOp24
 70
     1
102
RTVSPropertyOp25
 70
     1
102
RTVSPropertyOp26
 70
     1
102
RTVSPropertyOp27
 70
     1
102
RTVSPropertyOp28
 70
     1
102
RTVSPropertyOp29
 70
     1
102
RTVSPropertyOp30
 70
     1
102
RTVSPropertyOp31
 70
     1
102
RTVSPropertyOp32
 70
     1
102
RTVSPropertyOp33
 70
     1
102
RTVSPropertyOp34
 70
     1
102
RTVSPropertyOp35
 70
     1
102
RTVSPropertyOp36
 70
     1
102
RTVSPropertyOp37
 70
     1
102
RTVSPropertyOp38
 70
     1
102
RTVSPropertyOp39
 70
     1
102
RTVSPropertyOp40
 70
     1
102
RTVSPropertyOp41
 70
     1
102
RTVSPropertyOp42
 70
     1
102
RTVSPropertyOp43
 70
     1
102
RTVSPropertyOp44
 70
     1
102
RTVSPropertyOp45
 70
     1
102
RTVSPropertyOp46
 70
     1
102
RTVSPropertyOp47
 70
     1
102
RTVSPropertyOp48
 70
     1
102
RTVSPropertyOp49
 70
     1
102
RTVSPropertyOp50
 70
     1
102
RTVSPropertyOp51
 70
     0
102
RTVSPropertyOp52
 70
     0
102
RTVSPropertyOp53
 70
     1
102
RTVSPropertyOp54
 70
     1
102
RTVSPropertyOp55
 70
     1
102
RTVSPropertyOp56
 70
     1
102
RTVSPropertyOp57
 70
     1
102
RTVSPropertyOp58
 70
     1
102
RTVSPropertyOp59
 70
     1
102
RTVSPropertyOp60
 70
     1
102
RTVSPropertyOp61
 70
     1
102
RTVSPropertyOp62
 70
     1
  0
XRECORD
  5
5DC
102
{ACAD_REACTORS
330
5DB
102
}
330
5DB
100
AcDbXrecord
280
     1
102
RTVSPost2010Prop28
280
     0
102
RTVSPost2010PropOp28
 70
     1
102
RTVSPost2010Prop29
280
     1
102
RTVSPost2010PropOp29
 70
     1
102
RTVSPost2010Prop30
280
     1
102
RTVSPost2010PropOp30
 70
     1
102
RTVSPost2010Prop31
280
     0
102
RTVSPost2010PropOp31
 70
     1
102
RTVSPost2010Prop32
280
     0
102
RTVSPost2010PropOp32
 70
     1
102
RTVSPost2010Prop33
280
     0
102
RTVSPost2010PropOp33
 70
     1
102
RTVSPost2010Prop34
280
     0
102
RTVSPost2010PropOp34
 70
     1
102
RTVSPost2010Prop35
280
     0
102
RTVSPost2010PropOp35
 70
     1
102
RTVSPost2010Prop36
280
     0
102
RTVSPost2010PropOp36
 70
     1
102
RTVSPost2010Prop37
 90
       50
102
RTVSPost2010PropOp37
 70
     1
102
RTVSPost2010Prop38
140
0.0
102
RTVSPost2010PropOp38
 70
     1
102
RTVSPost2010Prop39
140
1.0
102
RTVSPost2010PropOp39
 70
     1
102
RTVSPost2010Prop40
 90
        0
102
RTVSPost2010PropOp40
 70
     1
102
RTVSPost2010Prop41ColorIndex
 90
       18
102
RTVSPost2010Prop41ColorRGB
 90
        0
102
RTVSPost2010PropOp41
 70
     1
102
RTVSPost2010Prop42
 90
       50
102
RTVSPost2010PropOp42
 70
     1
102
RTVSPost2010Prop43
 90
        3
102
RTVSPost2010PropOp43
 70
     1
102
RTVSPost2010Prop44ColorIndex
 90
        5
102
RTVSPost2010Prop44ColorRGB
 90
      255
102
RTVSPost2010PropOp44
 70
     1
102
RTVSPost2010Prop45
280
     0
102
RTVSPost2010PropOp45
 70
     1
102
RTVSPost2010Prop46
 90
       50
102
RTVSPost2010PropOp46
 70
     1
102
RTVSPost2010Prop47
 90
       50
102
RTVSPost2010PropOp47
 70
     1
102
RTVSPost2010Prop48
 90
       50
102
RTVSPost2010PropOp48
 70
     1
102
RTVSPost2010Prop49
280
     0
102
RTVSPost2010PropOp49
 70
     1
102
RTVSPost2010Prop50
 90
       50
102
RTVSPost2010PropOp50
 70
     1
102
RTVSPost2010Prop51ColorIndex
 90
      256
102
RTVSPost2010Prop51ColorRGB
 90
-16777216
102
RTVSPost2010PropOp51
 70
     0
102
RTVSPost2010Prop52
140
1.0
102
RTVSPost2010PropOp52
 70
     0
102
RTVSPost2010Prop53
 90
        2
102
RTVSPost2010PropOp53
 70
     1
102
RTVSPost2010Prop54
  1
strokes_ogs.tif
102
RTVSPost2010PropOp54
 70
     1
102
RTVSPost2010Prop55
280
     0
102
RTVSPost2010PropOp55
 70
     1
102
RTVSPost2010Prop56
140
1.0
102
RTVSPost2010PropOp56
 70
     1
102
RTVSPost2010Prop57
140
1.0
102
RTVSPost2010PropOp57
 70
     1
102
RTVSPropertyOp0
 70
     1
102
RTVSPropertyOp1
 70
     1
102
RTVSPropertyOp2
 70
     1
102
RTVSPropertyOp3
 70
     1
102
RTVSPropertyOp4
 70
     1
102
RTVSPropertyOp5
 70
     1
102
RTVSPropertyOp6
 70
     1
102
RTVSPropertyOp7
 70
     1
102
RTVSPropertyOp8
 70
     1
102
RTVSPropertyOp9
 70
     1
102
RTVSPropertyOp10
 70
     1
102
RTVSPropertyOp11
 70
     1
102
RTVSPropertyOp12
 70
     1
102
RTVSPropertyOp13
 70
     1
102
RTVSPropertyOp14
 70
     1
102
RTVSPropertyOp15
 70
     1
102
RTVSPropertyOp16
 70
     1
102
RTVSPropertyOp17
 70
     1
102
RTVSPropertyOp18
 70
     1
102
RTVSPropertyOp19
 70
     1
102
RTVSPropertyOp20
 70
     1
102
RTVSPropertyOp21
 70
     1
102
RTVSPropertyOp22
 70
     1
102
RTVSPropertyOp23
 70
     1
102
RTVSPropertyOp24
 70
     1
102
RTVSPropertyOp25
 70
     1
102
RTVSPropertyOp26
 70
     1
102
RTVSPropertyOp27
 70
     1
102
RTVSPropertyOp28
 70
     1
102
RTVSPropertyOp29
 70
     1
102
RTVSPropertyOp30
 70
     1
102
RTVSPropertyOp31
 70
     1
102
RTVSPropertyOp32
 70
     1
102
RTVSPropertyOp33
 70
     1
102
RTVSPropertyOp34
 70
     1
102
RTVSPropertyOp35
 70
     1
102
RTVSPropertyOp36
 70
     1
102
RTVSPropertyOp37
 70
     1
102
RTVSPropertyOp38
 70
     1
102
RTVSPropertyOp39
 70
     1
102
RTVSPropertyOp40
 70
     1
102
RTVSPropertyOp41
 70
     1
102
RTVSPropertyOp42
 70
     1
102
RTVSPropertyOp43
 70
     1
102
RTVSPropertyOp44
 70
     1
102
RTVSPropertyOp45
 70
     1
102
RTVSPropertyOp46
 70
     1
102
RTVSPropertyOp47
 70
     1
102
RTVSPropertyOp48
 70
     1
102
RTVSPropertyOp49
 70
     1
102
RTVSPropertyOp50
 70
     1
102
RTVSPropertyOp51
 70
     0
102
RTVSPropertyOp52
 70
     0
102
RTVSPropertyOp53
 70
     1
102
RTVSPropertyOp54
 70
     1
102
RTVSPropertyOp55
 70
     1
102
RTVSPropertyOp56
 70
     1
102
RTVSPropertyOp57
 70
     1
102
RTVSPropertyOp58
 70
     1
102
RTVSPropertyOp59
 70
     1
102
RTVSPropertyOp60
 70
     1
102
RTVSPropertyOp61
 70
     1
102
RTVSPropertyOp62
 70
     1
  0
XRECORD
  5
5FC
102
{ACAD_REACTORS
330
5FB
102
}
330
5FB
100
AcDbXrecord
280
     1
102
RTVSPost2010Prop28
280
     0
102
RTVSPost2010PropOp28
 70
     1
102
RTVSPost2010Prop29
280
     1
102
RTVSPost2010PropOp29
 70
     1
102
RTVSPost2010Prop30
280
     1
102
RTVSPost2010PropOp30
 70
     1
102
RTVSPost2010Prop31
280
     0
102
RTVSPost2010PropOp31
 70
     1
102
RTVSPost2010Prop32
280
     0
102
RTVSPost2010PropOp32
 70
     1
102
RTVSPost2010Prop33
280
     0
102
RTVSPost2010PropOp33
 70
     1
102
RTVSPost2010Prop34
280
     0
102
RTVSPost2010PropOp34
 70
     1
102
RTVSPost2010Prop35
280
     0
102
RTVSPost2010PropOp35
 70
     1
102
RTVSPost2010Prop36
280
     0
102
RTVSPost2010PropOp36
 70
     1
102
RTVSPost2010Prop37
 90
       50
102
RTVSPost2010PropOp37
 70
     1
102
RTVSPost2010Prop38
140
0.0
102
RTVSPost2010PropOp38
 70
     1
102
RTVSPost2010Prop39
140
1.0
102
RTVSPost2010PropOp39
 70
     1
102
RTVSPost2010Prop40
 90
        0
102
RTVSPost2010PropOp40
 70
     1
102
RTVSPost2010Prop41ColorIndex
 90
       18
102
RTVSPost2010Prop41ColorRGB
 90
        0
102
RTVSPost2010PropOp41
 70
     1
102
RTVSPost2010Prop42
 90
       50
102
RTVSPost2010PropOp42
 70
     1
102
RTVSPost2010Prop43
 90
        3
102
RTVSPost2010PropOp43
 70
     1
102
RTVSPost2010Prop44ColorIndex
 90
        5
102
RTVSPost2010Prop44ColorRGB
 90
      255
102
RTVSPost2010PropOp44
 70
     1
102
RTVSPost2010Prop45
280
     0
102
RTVSPost2010PropOp45
 70
     1
102
RTVSPost2010Prop46
 90
       50
102
RTVSPost2010PropOp46
 70
     1
102
RTVSPost2010Prop47
 90
       50
102
RTVSPost2010PropOp47
 70
     1
102
RTVSPost2010Prop48
 90
       50
102
RTVSPost2010PropOp48
 70
     1
102
RTVSPost2010Prop49
280
     0
102
RTVSPost2010PropOp49
 70
     1
102
RTVSPost2010Prop50
 90
       50
102
RTVSPost2010PropOp50
 70
     1
102
RTVSPost2010Prop51ColorIndex
 90
      256
102
RTVSPost2010Prop51ColorRGB
 90
-16777216
102
RTVSPost2010PropOp51
 70
     0
102
RTVSPost2010Prop52
140
1.0
102
RTVSPost2010PropOp52
 70
     0
102
RTVSPost2010Prop53
 90
        2
102
RTVSPost2010PropOp53
 70
     1
102
RTVSPost2010Prop54
  1
strokes_ogs.tif
102
RTVSPost2010PropOp54
 70
     1
102
RTVSPost2010Prop55
280
     0
102
RTVSPost2010PropOp55
 70
     1
102
RTVSPost2010Prop56
140
1.0
102
RTVSPost2010PropOp56
 70
     1
102
RTVSPost2010Prop57
140
1.0
102
RTVSPost2010PropOp57
 70
     1
102
RTVSPropertyOp0
 70
     1
102
RTVSPropertyOp1
 70
     1
102
RTVSPropertyOp2
 70
     1
102
RTVSPropertyOp3
 70
     1
102
RTVSPropertyOp4
 70
     1
102
RTVSPropertyOp5
 70
     1
102
RTVSPropertyOp6
 70
     1
102
RTVSPropertyOp7
 70
     1
102
RTVSPropertyOp8
 70
     1
102
RTVSPropertyOp9
 70
     1
102
RTVSPropertyOp10
 70
     1
102
RTVSPropertyOp11
 70
     1
102
RTVSPropertyOp12
 70
     1
102
RTVSPropertyOp13
 70
     1
102
RTVSPropertyOp14
 70
     1
102
RTVSPropertyOp15
 70
     1
102
RTVSPropertyOp16
 70
     1
102
RTVSPropertyOp17
 70
     1
102
RTVSPropertyOp18
 70
     1
102
RTVSPropertyOp19
 70
     1
102
RTVSPropertyOp20
 70
     1
102
RTVSPropertyOp21
 70
     1
102
RTVSPropertyOp22
 70
     1
102
RTVSPropertyOp23
 70
     1
102
RTVSPropertyOp24
 70
     1
102
RTVSPropertyOp25
 70
     1
102
RTVSPropertyOp26
 70
     1
102
RTVSPropertyOp27
 70
     1
102
RTVSPropertyOp28
 70
     1
102
RTVSPropertyOp29
 70
     1
102
RTVSPropertyOp30
 70
     1
102
RTVSPropertyOp31
 70
     1
102
RTVSPropertyOp32
 70
     1
102
RTVSPropertyOp33
 70
     1
102
RTVSPropertyOp34
 70
     1
102
RTVSPropertyOp35
 70
     1
102
RTVSPropertyOp36
 70
     1
102
RTVSPropertyOp37
 70
     1
102
RTVSPropertyOp38
 70
     1
102
RTVSPropertyOp39
 70
     1
102
RTVSPropertyOp40
 70
     1
102
RTVSPropertyOp41
 70
     1
102
RTVSPropertyOp42
 70
     1
102
RTVSPropertyOp43
 70
     1
102
RTVSPropertyOp44
 70
     1
102
RTVSPropertyOp45
 70
     1
102
RTVSPropertyOp46
 70
     1
102
RTVSPropertyOp47
 70
     1
102
RTVSPropertyOp48
 70
     1
102
RTVSPropertyOp49
 70
     1
102
RTVSPropertyOp50
 70
     1
102
RTVSPropertyOp51
 70
     0
102
RTVSPropertyOp52
 70
     0
102
RTVSPropertyOp53
 70
     1
102
RTVSPropertyOp54
 70
     1
102
RTVSPropertyOp55
 70
     1
102
RTVSPropertyOp56
 70
     1
102
RTVSPropertyOp57
 70
     1
102
RTVSPropertyOp58
 70
     1
102
RTVSPropertyOp59
 70
     1
102
RTVSPropertyOp60
 70
     1
102
RTVSPropertyOp61
 70
     1
102
RTVSPropertyOp62
 70
     1
  0
ENDSEC
  0
EOF
