  0
SECTION
  2
HEADER
  9
$ACADVER
  1
AC1015
  9
$ACADMAINTVER
 70
    20
  9
$DWGCODEPAGE
  3
ANSI_932
  9
$INSBASE
 10
0.0
 20
0.0
 30
0.0
  9
$EXTMIN
 10
26.3552974423809
 20
10.13797088505771
 30
0.0
  9
$EXTMAX
 10
1884.723251533259
 20
1386.72505637485
 30
0.0
  9
$LIMMIN
 10
-488.2221374511618
 20
-426.5665931701557
  9
$LIMMAX
 10
1117.544250488281
 20
720.823516845693
  9
$ORTHOMODE
 70
     0
  9
$REGENMODE
 70
     1
  9
$FILLMODE
 70
     1
  9
$QTEXTMODE
 70
     0
  9
$MIRRTEXT
 70
     1
  9
$LTSCALE
 40
0.1278012373316006
  9
$ATTMODE
 70
     1
  9
$TEXTSIZE
 40
2.5
  9
$TRACEWID
 40
1.0
  9
$TEXTSTYLE
  7
Standard
  9
$CLAYER
  8
0
  9
$CELTYPE
  6
ByLayer
  9
$CECOLOR
 62
   256
  9
$CELTSCALE
 40
1.0
  9
$DISPSILH
 70
     0
  9
$DIMSCALE
 40
1.0
  9
$DIMASZ
 40
2.5
  9
$DIMEXO
 40
0.625
  9
$DIMDLI
 40
3.75
  9
$DIMRND
 40
0.0
  9
$DIMDLE
 40
0.0
  9
$DIMEXE
 40
1.25
  9
$DIMTP
 40
0.0
  9
$DIMTM
 40
0.0
  9
$DIMTXT
 40
2.5
  9
$DIMCEN
 40
2.5
  9
$DIMTSZ
 40
0.0
  9
$DIMTOL
 70
     0
  9
$DIMLIM
 70
     0
  9
$DIMTIH
 70
     0
  9
$DIMTOH
 70
     0
  9
$DIMSE1
 70
     0
  9
$DIMSE2
 70
     0
  9
$DIMTAD
 70
     1
  9
$DIMZIN
 70
     0
  9
$DIMBLK
  1

  9
$DIMASO
 70
     1
  9
$DIMSHO
 70
     1
  9
$DIMPOST
  1

  9
$DIMAPOST
  1

  9
$DIMALT
 70
     0
  9
$DIMALTD
 70
     3
  9
$DIMALTF
 40
0.03937007874016
  9
$DIMLFAC
 40
1.0
  9
$DIMTOFL
 70
     1
  9
$DIMTVP
 40
0.0
  9
$DIMTIX
 70
     0
  9
$DIMSOXD
 70
     0
  9
$DIMSAH
 70
     0
  9
$DIMBLK1
  1

  9
$DIMBLK2
  1

  9
$DIMSTYLE
  2
Standard
  9
$DIMCLRD
 70
     0
  9
$DIMCLRE
 70
     0
  9
$DIMCLRT
 70
     0
  9
$DIMTFAC
 40
0.75
  9
$DIMGAP
 40
0.625
  9
$DIMJUST
 70
     0
  9
$DIMSD1
 70
     0
  9
$DIMSD2
 70
     0
  9
$DIMTOLJ
 70
     0
  9
$DIMTZIN
 70
     8
  9
$DIMALTZ
 70
     0
  9
$DIMALTTZ
 70
     0
  9
$DIMUPT
 70
     0
  9
$DIMDEC
 70
     2
  9
$DIMTDEC
 70
     2
  9
$DIMALTU
 70
     2
  9
$DIMALTTD
 70
     3
  9
$DIMTXSTY
  7
Standard
  9
$DIMAUNIT
 70
     0
  9
$DIMADEC
 70
     0
  9
$DIMALTRND
 40
0.0
  9
$DIMAZIN
 70
     0
  9
$DIMDSEP
 70
    46
  9
$DIMATFIT
 70
     3
  9
$DIMFRAC
 70
     0
  9
$DIMLDRBLK
  1

  9
$DIMLUNIT
 70
     2
  9
$DIMLWD
 70
    -2
  9
$DIMLWE
 70
    -2
  9
$DIMTMOVE
 70
     0
  9
$LUNITS
 70
     2
  9
$LUPREC
 70
     4
  9
$SKETCHINC
 40
1.0
  9
$FILLETRAD
 40
0.0
  9
$AUNITS
 70
     0
  9
$AUPREC
 70
     0
  9
$MENU
  1
.
  9
$ELEVATION
 40
0.0
  9
$PELEVATION
 40
0.0
  9
$THICKNESS
 40
0.0
  9
$LIMCHECK
 70
     0
  9
$CHAMFERA
 40
10.0
  9
$CHAMFERB
 40
10.0
  9
$CHAMFERC
 40
20.0
  9
$CHAMFERD
 40
0.0
  9
$SKPOLY
 70
     0
  9
$TDCREATE
 40
2455188.750000000
  9
$TDUCREATE
 40
2455188.375000000
  9
$TDUPDATE
 40
2459753.657541516
  9
$TDUUPDATE
 40
2459753.282541516
  9
$TDINDWG
 40
0.0059459144
  9
$TDUSRTIMER
 40
0.0059456597
  9
$USRTIMER
 70
     1
  9
$ANGBASE
 50
0.0
  9
$ANGDIR
 70
     0
  9
$PDMODE
 70
     0
  9
$PDSIZE
 40
0.0
  9
$PLINEWID
 40
0.0
  9
$SPLFRAME
 70
     0
  9
$SPLINETYPE
 70
     6
  9
$SPLINESEGS
 70
     8
  9
$HANDSEED
  5
67B
  9
$SURFTAB1
 70
     6
  9
$SURFTAB2
 70
     6
  9
$SURFTYPE
 70
     6
  9
$SURFU
 70
     6
  9
$SURFV
 70
     6
  9
$UCSBASE
  2

  9
$UCSNAME
  2

  9
$UCSORG
 10
0.0
 20
0.0
 30
0.0
  9
$UCSXDIR
 10
1.0
 20
0.0
 30
0.0
  9
$UCSYDIR
 10
0.0
 20
1.0
 30
0.0
  9
$UCSORTHOREF
  2

  9
$UCSORTHOVIEW
 70
     0
  9
$UCSORGTOP
 10
0.0
 20
0.0
 30
0.0
  9
$UCSORGBOTTOM
 10
0.0
 20
0.0
 30
0.0
  9
$UCSORGLEFT
 10
0.0
 20
0.0
 30
0.0
  9
$UCSORGRIGHT
 10
0.0
 20
0.0
 30
0.0
  9
$UCSORGFRONT
 10
0.0
 20
0.0
 30
0.0
  9
$UCSORGBACK
 10
0.0
 20
0.0
 30
0.0
  9
$PUCSBASE
  2

  9
$PUCSNAME
  2

  9
$PUCSORG
 10
0.0
 20
0.0
 30
0.0
  9
$PUCSXDIR
 10
1.0
 20
0.0
 30
0.0
  9
$PUCSYDIR
 10
0.0
 20
1.0
 30
0.0
  9
$PUCSORTHOREF
  2

  9
$PUCSORTHOVIEW
 70
     0
  9
$PUCSORGTOP
 10
0.0
 20
0.0
 30
0.0
  9
$PUCSORGBOTTOM
 10
0.0
 20
0.0
 30
0.0
  9
$PUCSORGLEFT
 10
0.0
 20
0.0
 30
0.0
  9
$PUCSORGRIGHT
 10
0.0
 20
0.0
 30
0.0
  9
$PUCSORGFRONT
 10
0.0
 20
0.0
 30
0.0
  9
$PUCSORGBACK
 10
0.0
 20
0.0
 30
0.0
  9
$USERI1
 70
     0
  9
$USERI2
 70
     0
  9
$USERI3
 70
     0
  9
$USERI4
 70
     0
  9
$USERI5
 70
     0
  9
$USERR1
 40
0.0
  9
$USERR2
 40
0.0
  9
$USERR3
 40
0.0
  9
$USERR4
 40
0.0
  9
$USERR5
 40
0.0
  9
$WORLDVIEW
 70
     1
  9
$SHADEDGE
 70
     3
  9
$SHADEDIF
 70
    70
  9
$TILEMODE
 70
     1
  9
$MAXACTVP
 70
    64
  9
$PINSBASE
 10
0.0
 20
0.0
 30
0.0
  9
$PLIMCHECK
 70
     0
  9
$PEXTMIN
 10
1.000000000000000E+20
 20
1.000000000000000E+20
 30
1.000000000000000E+20
  9
$PEXTMAX
 10
-1.000000000000000E+20
 20
-1.000000000000000E+20
 30
-1.000000000000000E+20
  9
$PLIMMIN
 10
0.0
 20
0.0
  9
$PLIMMAX
 10
420.0
 20
297.0
  9
$UNITMODE
 70
     0
  9
$VISRETAIN
 70
     1
  9
$PLINEGEN
 70
     0
  9
$PSLTSCALE
 70
     1
  9
$TREEDEPTH
 70
  3020
  9
$CMLSTYLE
  2
Standard
  9
$CMLJUST
 70
     0
  9
$CMLSCALE
 40
20.0
  9
$PROXYGRAPHICS
 70
     1
  9
$MEASUREMENT
 70
     1
  9
$CELWEIGHT
370
    -1
  9
$ENDCAPS
280
     0
  9
$JOINSTYLE
280
     0
  9
$LWDISPLAY
290
     0
  9
$INSUNITS
 70
     4
  9
$HYPERLINKBASE
  1

  9
$STYLESHEET
  1

  9
$XEDIT
290
     1
  9
$CEPSNTYPE
380
     0
  9
$PSTYLEMODE
290
     1
  9
$FINGERPRINTGUID
  2
{70440E61-90A5-42D2-B97B-260D0EFDA829}
  9
$VERSIONGUID
  2
{A62D109B-A194-407A-979E-7FC66D194062}
  9
$EXTNAMES
290
     1
  9
$PSVPSCALE
 40
0.0
  9
$OLESTARTUP
290
     0
  0
ENDSEC
  0
SECTION
  2
CLASSES
  0
CLASS
  1
ACDBDICTIONARYWDFLT
  2
AcDbDictionaryWithDefault
  3
ObjectDBX Classes
 90
        0
280
     0
281
     0
  0
CLASS
  1
VISUALSTYLE
  2
AcDbVisualStyle
  3
ObjectDBX Classes
 90
     4095
280
     0
281
     0
  0
CLASS
  1
MATERIAL
  2
AcDbMaterial
  3
ObjectDBX Classes
 90
     1153
280
     0
281
     0
  0
CLASS
  1
SCALE
  2
AcDbScale
  3
ObjectDBX Classes
 90
     1153
280
     0
281
     0
  0
CLASS
  1
TABLESTYLE
  2
AcDbTableStyle
  3
ObjectDBX Classes
 90
     4095
280
     0
281
     0
  0
CLASS
  1
MLEADERSTYLE
  2
AcDbMLeaderStyle
  3
ACDB_MLEADERSTYLE_CLASS
 90
     4095
280
     0
281
     0
  0
CLASS
  1
SUN
  2
AcDbSun
  3
SCENEOE
 90
    33921
280
     0
281
     0
  0
CLASS
  1
DICTIONARYVAR
  2
AcDbDictionaryVar
  3
ObjectDBX Classes
 90
        0
280
     0
281
     0
  0
CLASS
  1
ACDBSECTIONVIEWSTYLE
  2
AcDbSectionViewStyle
  3
ObjectDBX Classes
 90
     1025
280
     0
281
     0
  0
CLASS
  1
ACDBDETAILVIEWSTYLE
  2
AcDbDetailViewStyle
  3
ObjectDBX Classes
 90
     1025
280
     0
281
     0
  0
CLASS
  1
SORTENTSTABLE
  2
AcDbSortentsTable
  3
ObjectDBX Classes
 90
        0
280
     0
281
     0
  0
CLASS
  1
CELLSTYLEMAP
  2
AcDbCellStyleMap
  3
ObjectDBX Classes
 90
     1152
280
     0
281
     0
  0
CLASS
  1
ACDBPLACEHOLDER
  2
AcDbPlaceHolder
  3
ObjectDBX Classes
 90
        0
280
     0
281
     0
  0
CLASS
  1
LAYOUT
  2
AcDbLayout
  3
ObjectDBX Classes
 90
        0
280
     0
281
     0
  0
ENDSEC
  0
SECTION
  2
TABLES
  0
TABLE
  2
VPORT
  5
8
330
0
100
AcDbSymbolTable
 70
     1
  0
VPORT
  5
29
330
8
100
AcDbSymbolTableRecord
100
AcDbViewportTableRecord
  2
*Active
 70
     0
 10
0.0
 20
0.0
 11
1.0
 21
1.0
 12
1297.964520612797
 22
318.6340473334139
 13
0.0
 23
0.0
 14
10.0
 24
10.0
 15
10.0
 25
10.0
 16
0.0
 26
0.0
 36
1.0
 17
0.0
 27
0.0
 37
0.0
 40
1449.188603596967
 41
2.204301075268817
 42
50.0
 43
0.0
 44
0.0
 50
0.0
 51
0.0
 71
     0
 72
 20000
 73
     1
 74
     3
 75
     0
 76
     0
 77
     0
 78
     0
281
     0
 65
     1
110
0.0
120
0.0
130
0.0
111
1.0
121
0.0
131
0.0
112
0.0
122
1.0
132
0.0
 79
     0
146
0.0
1001
ACAD_NAV_VCDISPLAY
1070
     3
  0
ENDTAB
  0
TABLE
  2
LTYPE
  5
5
330
0
100
AcDbSymbolTable
 70
     2
  0
LTYPE
  5
14
330
5
100
AcDbSymbolTableRecord
100
AcDbLinetypeTableRecord
  2
ByBlock
 70
     0
  3

 72
    65
 73
     0
 40
0.0
  0
LTYPE
  5
15
330
5
100
AcDbSymbolTableRecord
100
AcDbLinetypeTableRecord
  2
ByLayer
 70
     0
  3

 72
    65
 73
     0
 40
0.0
  0
LTYPE
  5
16
330
5
100
AcDbSymbolTableRecord
100
AcDbLinetypeTableRecord
  2
Continuous
 70
     0
  3
Solid line
 72
    65
 73
     0
 40
0.0
  0
LTYPE
  5
46F
330
5
100
AcDbSymbolTableRecord
100
AcDbLinetypeTableRecord
  2
CENTER2
 70
     0
  3
Center (.5x) ___ _ ___ _ ___ _ ___ _ ___ _ ___
 72
    65
 73
     4
 40
28.575
 49
19.05
 74
     0
 49
-3.174999999999998
 74
     0
 49
3.174999999999998
 74
     0
 49
-3.174999999999998
 74
     0
  0
ENDTAB
  0
TABLE
  2
LAYER
  5
2
102
{ACAD_XDICTIONARY
360
475
102
}
330
0
100
AcDbSymbolTable
 70
     4
  0
LAYER
  5
10
102
{ACAD_XDICTIONARY
360
56D
102
}
330
2
100
AcDbSymbolTableRecord
100
AcDbLayerTableRecord
  2
0
 70
     0
 62
     7
  6
Continuous
370
    -3
390
F
  0
LAYER
  5
66
330
2
100
AcDbSymbolTableRecord
100
AcDbLayerTableRecord
  2
Defpoints
 70
     0
 62
     7
  6
Continuous
290
     0
370
    -3
390
F
  0
LAYER
  5
470
102
{ACAD_XDICTIONARY
360
471
102
}
330
2
100
AcDbSymbolTableRecord
100
AcDbLayerTableRecord
  2
中心線
 70
     0
 62
     3
  6
CENTER2
370
    -3
390
F
  0
LAYER
  5
472
102
{ACAD_XDICTIONARY
360
473
102
}
330
2
100
AcDbSymbolTableRecord
100
AcDbLayerTableRecord
  2
実線
 70
     0
 62
     7
  6
Continuous
370
    -3
390
F
  0
ENDTAB
  0
TABLE
  2
STYLE
  5
3
330
0
100
AcDbSymbolTable
 70
     1
  0
STYLE
  5
11
330
3
100
AcDbSymbolTableRecord
100
AcDbTextStyleTableRecord
  2
Standard
 70
     0
 40
0.0
 41
1.0
 50
0.0
 71
     0
 42
2.5
  3
txt
  4
extfont2
  0
ENDTAB
  0
TABLE
  2
VIEW
  5
6
330
0
100
AcDbSymbolTable
 70
     0
  0
ENDTAB
  0
TABLE
  2
UCS
  5
7
330
0
100
AcDbSymbolTable
 70
     0
  0
ENDTAB
  0
TABLE
  2
APPID
  5
9
330
0
100
AcDbSymbolTable
 70
     3
  0
APPID
  5
12
330
9
100
AcDbSymbolTableRecord
100
AcDbRegAppTableRecord
  2
ACAD
 70
     0
  0
APPID
  5
291
330
9
100
AcDbSymbolTableRecord
100
AcDbRegAppTableRecord
  2
ACAD_MLEADERVER
 70
     0
  0
APPID
  5
474
330
9
100
AcDbSymbolTableRecord
100
AcDbRegAppTableRecord
  2
ACAD_NAV_VCDISPLAY
 70
     0
  0
ENDTAB
  0
TABLE
  2
DIMSTYLE
  5
A
330
0
100
AcDbSymbolTable
 70
     1
100
AcDbDimStyleTable
 71
     0
  0
DIMSTYLE
105
27
330
A
100
AcDbSymbolTableRecord
100
AcDbDimStyleTableRecord
  2
Standard
 70
     0
 41
2.5
 42
0.625
 43
3.75
 44
1.25
 73
     0
 74
     0
 77
     1
140
2.5
141
2.5
143
0.03937007874016
146
0.75
147
0.625
171
     3
172
     1
271
     2
272
     2
274
     3
283
     0
284
     8
340
11
  0
ENDTAB
  0
TABLE
  2
BLOCK_RECORD
  5
1
330
0
100
AcDbSymbolTable
 70
     1
  0
BLOCK_RECORD
  5
1F
102
{ACAD_XDICTIONARY
360
2D9
102
}
330
1
100
AcDbSymbolTableRecord
100
AcDbBlockTableRecord
  2
*Model_Space
340
22
  0
BLOCK_RECORD
  5
1B
330
1
100
AcDbSymbolTableRecord
100
AcDbBlockTableRecord
  2
*Paper_Space
340
1E
  0
BLOCK_RECORD
  5
23
330
1
100
AcDbSymbolTableRecord
100
AcDbBlockTableRecord
  2
*Paper_Space0
340
29B
  0
ENDTAB
  0
ENDSEC
  0
SECTION
  2
BLOCKS
  0
BLOCK
  5
20
330
1F
100
AcDbEntity
  8
0
100
AcDbBlockBegin
  2
*Model_Space
 70
     0
 10
0.0
 20
0.0
 30
0.0
  3
*Model_Space
  1

  0
ENDBLK
  5
21
330
1F
100
AcDbEntity
  8
0
100
AcDbBlockEnd
  0
BLOCK
  5
1C
330
1B
100
AcDbEntity
 67
     1
  8
0
100
AcDbBlockBegin
  2
*Paper_Space
 70
     0
 10
0.0
 20
0.0
 30
0.0
  3
*Paper_Space
  1

  0
ENDBLK
  5
1D
330
1B
100
AcDbEntity
 67
     1
  8
0
100
AcDbBlockEnd
  0
BLOCK
  5
24
330
23
100
AcDbEntity
 67
     1
  8
0
100
AcDbBlockBegin
  2
*Paper_Space0
 70
     0
 10
0.0
 20
0.0
 30
0.0
  3
*Paper_Space0
  1

  0
ENDBLK
  5
25
330
23
100
AcDbEntity
 67
     1
  8
0
100
AcDbBlockEnd
  0
ENDSEC
  0
SECTION
  2
ENTITIES
  0
LINE
  5
2A1
102
{ACAD_REACTORS
330
56C
102
}
330
1F
100
AcDbEntity
  8
実線
100
AcDbLine
 10
444.7546936347037
 20
841.5771512208612
 30
0.0
 11
411.532814963879
 21
841.5771512208612
 31
0.0
  0
LINE
  5
2A2
102
{ACAD_REACTORS
330
56C
102
}
330
1F
100
AcDbEntity
  8
実線
100
AcDbLine
 10
411.5328149638694
 20
778.0771512208612
 30
0.0
 11
444.7546936347037
 21
778.0771512208612
 31
0.0
  0
LINE
  5
2A3
102
{ACAD_REACTORS
330
56C
102
}
330
1F
100
AcDbEntity
  8
実線
100
AcDbLine
 10
451.3546936347032
 20
848.5771512208611
 30
0.0
 11
447.8546936347032
 21
848.5771512208611
 31
0.0
  0
LINE
  5
2A4
102
{ACAD_REACTORS
330
56C
102
}
330
1F
100
AcDbEntity
  8
実線
100
AcDbLine
 10
447.8546936347032
 20
771.0771512208611
 30
0.0
 11
451.3546936347032
 21
771.0771512208611
 31
0.0
  0
LINE
  5
2A5
102
{ACAD_REACTORS
330
56C
102
}
330
1F
100
AcDbEntity
  8
実線
100
AcDbLine
 10
451.3546936347032
 20
771.0771512208611
 30
0.0
 11
451.3546936347032
 21
848.5771512208611
 31
0.0
  0
LINE
  5
2A6
102
{ACAD_REACTORS
330
56C
102
}
330
1F
100
AcDbEntity
  8
実線
100
AcDbLine
 10
444.7546936347037
 20
778.0771512208612
 30
0.0
 11
447.8546936347032
 21
771.0771512208611
 31
0.0
  0
LINE
  5
2A7
102
{ACAD_REACTORS
330
56C
102
}
330
1F
100
AcDbEntity
  8
実線
100
AcDbLine
 10
447.8546936347032
 20
848.5771512208611
 30
0.0
 11
444.7546936347037
 21
841.5771512208612
 31
0.0
  0
LINE
  5
2A8
102
{ACAD_REACTORS
330
56C
102
}
330
1F
100
AcDbEntity
  8
実線
100
AcDbLine
 10
447.8546936347032
 20
771.0771512208611
 30
0.0
 11
447.8546936347032
 21
848.5771512208611
 31
0.0
  0
LINE
  5
2A9
102
{ACAD_REACTORS
330
56C
102
}
330
1F
100
AcDbEntity
  8
実線
100
AcDbLine
 10
444.7546936347037
 20
778.0771512208612
 30
0.0
 11
444.7546936347037
 21
841.5771512208612
 31
0.0
  0
CIRCLE
  5
2AA
102
{ACAD_REACTORS
330
56C
102
}
330
1F
100
AcDbEntity
  8
実線
100
AcDbCircle
 10
346.3546936347041
 20
809.8271512208714
 30
0.0
 40
46.0
  0
LINE
  5
2AB
102
{ACAD_REACTORS
330
56C
102
}
330
1F
100
AcDbEntity
  8
実線
100
AcDbLine
 10
366.354693634704
 20
788.8271512208714
 30
0.0
 11
366.354693634704
 21
796.7271512208712
 31
0.0
  0
LINE
  5
2AC
102
{ACAD_REACTORS
330
56C
102
}
330
1F
100
AcDbEntity
  8
実線
100
AcDbLine
 10
341.354693634704
 20
796.7271512208712
 30
0.0
 11
366.354693634704
 21
796.7271512208712
 31
0.0
  0
LINE
  5
2AD
102
{ACAD_REACTORS
330
56C
102
}
330
1F
100
AcDbEntity
  8
実線
100
AcDbLine
 10
341.354693634704
 20
796.7271512208712
 30
0.0
 11
341.354693634704
 21
788.8271512208714
 31
0.0
  0
LINE
  5
2AE
102
{ACAD_REACTORS
330
56C
102
}
330
1F
100
AcDbEntity
  8
実線
100
AcDbLine
 10
361.3546936347041
 20
788.8271512208714
 30
0.0
 11
366.354693634704
 21
788.8271512208714
 31
0.0
  0
ARC
  5
2AF
102
{ACAD_REACTORS
330
56C
102
}
330
1F
100
AcDbEntity
  8
実線
100
AcDbCircle
 10
346.3546936347041
 20
809.8271512208714
 30
0.0
 40
25.0
100
AcDbArc
 50
233.1301023541533
 51
293.0739180656353
  0
LINE
  5
2B0
102
{ACAD_REACTORS
330
56C
102
}
330
1F
100
AcDbEntity
  8
実線
100
AcDbLine
 10
372.8546936347042
 20
791.2771512208712
 30
0.0
 11
372.8546936347042
 21
794.2771512208712
 31
0.0
  0
LINE
  5
2B1
102
{ACAD_REACTORS
330
56C
102
}
330
1F
100
AcDbEntity
  8
実線
100
AcDbLine
 10
366.354693634704
 20
791.2771512208712
 30
0.0
 11
372.8546936347042
 21
791.2771512208712
 31
0.0
  0
LINE
  5
2B2
102
{ACAD_REACTORS
330
56C
102
}
330
1F
100
AcDbEntity
  8
実線
100
AcDbLine
 10
372.8546936347042
 20
794.2771512208712
 30
0.0
 11
366.354693634704
 21
794.2771512208712
 31
0.0
  0
CIRCLE
  5
2B3
102
{ACAD_REACTORS
330
56C
102
}
330
1F
100
AcDbEntity
  8
実線
100
AcDbCircle
 10
346.3546936347041
 20
809.8271512208714
 30
0.0
 40
12.5
  0
CIRCLE
  5
2B4
102
{ACAD_REACTORS
330
56C
102
}
330
1F
100
AcDbEntity
  8
実線
100
AcDbCircle
 10
346.3546936347041
 20
809.8271512208714
 30
0.0
 40
7.5
  0
LINE
  5
2B5
102
{ACAD_REACTORS
330
56C
102
}
330
1F
100
AcDbEntity
  8
実線
100
AcDbLine
 10
247.9546936347047
 20
778.0771512208811
 30
0.0
 11
281.1765723055292
 21
778.0771512208811
 31
0.0
  0
LINE
  5
2B6
102
{ACAD_REACTORS
330
56C
102
}
330
1F
100
AcDbEntity
  8
実線
100
AcDbLine
 10
281.176572305539
 20
841.5771512208811
 30
0.0
 11
247.9546936347047
 21
841.5771512208811
 31
0.0
  0
LINE
  5
2B7
102
{ACAD_REACTORS
330
56C
102
}
330
1F
100
AcDbEntity
  8
実線
100
AcDbLine
 10
247.9546936347047
 20
841.5771512208811
 30
0.0
 11
244.8546936347046
 21
848.5771512208811
 31
0.0
  0
LINE
  5
2B8
102
{ACAD_REACTORS
330
56C
102
}
330
1F
100
AcDbEntity
  8
実線
100
AcDbLine
 10
244.8546936347046
 20
771.0771512208812
 30
0.0
 11
247.9546936347047
 21
778.0771512208811
 31
0.0
  0
LINE
  5
2B9
102
{ACAD_REACTORS
330
56C
102
}
330
1F
100
AcDbEntity
  8
実線
100
AcDbLine
 10
247.9546936347047
 20
841.5771512208811
 30
0.0
 11
247.9546936347047
 21
778.0771512208811
 31
0.0
  0
LINE
  5
2BA
102
{ACAD_REACTORS
330
56C
102
}
330
1F
100
AcDbEntity
  8
実線
100
AcDbLine
 10
241.3546936347046
 20
771.0771512208812
 30
0.0
 11
244.8546936347046
 21
771.0771512208812
 31
0.0
  0
LINE
  5
2BB
102
{ACAD_REACTORS
330
56C
102
}
330
1F
100
AcDbEntity
  8
実線
100
AcDbLine
 10
244.8546936347046
 20
848.5771512208811
 30
0.0
 11
241.3546936347046
 21
848.5771512208811
 31
0.0
  0
LINE
  5
2BC
102
{ACAD_REACTORS
330
56C
102
}
330
1F
100
AcDbEntity
  8
実線
100
AcDbLine
 10
241.3546936347046
 20
848.5771512208811
 30
0.0
 11
241.3546936347046
 21
771.0771512208812
 31
0.0
  0
LINE
  5
2BD
102
{ACAD_REACTORS
330
56C
102
}
330
1F
100
AcDbEntity
  8
実線
100
AcDbLine
 10
244.8546936347046
 20
848.5771512208811
 30
0.0
 11
244.8546936347046
 21
771.0771512208812
 31
0.0
  0
ARC
  5
2BE
102
{ACAD_REACTORS
330
56C
102
}
330
1F
100
AcDbEntity
  8
実線
100
AcDbCircle
 10
295.5750044568651
 20
858.0083007194264
 30
0.0
 40
9.999999999999996
100
AcDbArc
 50
136.5041419820548
 51
214.9999999999974
  0
ARC
  5
2BF
102
{ACAD_REACTORS
330
56C
102
}
330
1F
100
AcDbEntity
  8
実線
100
AcDbCircle
 10
346.3546936347039
 20
809.8271512208714
 30
0.0
 40
79.9999999999998
100
AcDbArc
 50
133.4958580179451
 51
136.5041419820548
  0
LINE
  5
2C0
102
{ACAD_REACTORS
330
56C
102
}
330
1F
100
AcDbEntity
  8
実線
100
AcDbLine
 10
388.6627903349319
 20
868.7022304446323
 30
0.0
 11
388.8000787697483
 21
868.7983608416002
 31
0.0
  0
LINE
  5
2C1
102
{ACAD_REACTORS
330
56C
102
}
330
1F
100
AcDbEntity
  8
実線
100
AcDbLine
 10
287.4796144109428
 20
852.1352479210992
 30
0.0
 11
287.3834840139752
 21
852.2725363559152
 31
0.0
  0
ARC
  5
2C2
102
{ACAD_REACTORS
330
56C
102
}
330
1F
100
AcDbEntity
  8
実線
100
AcDbCircle
 10
346.3546936347041
 20
809.8271512208714
 30
0.0
 40
79.99999999999984
100
AcDbArc
 50
43.49585801794513
 51
46.50414198205487
  0
ARC
  5
2C3
102
{ACAD_REACTORS
330
56C
102
}
330
1F
100
AcDbEntity
  8
実線
100
AcDbCircle
 10
397.1343828125427
 20
858.0083007194264
 30
0.0
 40
9.999999999999976
100
AcDbArc
 50
325.0000000000026
 51
43.49585801794513
  0
ARC
  5
2C4
102
{ACAD_REACTORS
330
56C
102
}
330
1F
100
AcDbEntity
  8
実線
100
AcDbCircle
 10
394.5358431332586
 20
860.6068403987103
 30
0.0
 40
9.999999999999991
100
AcDbArc
 50
46.50414198205487
 51
124.9999999999974
  0
ARC
  5
2C5
102
{ACAD_REACTORS
330
56C
102
}
330
1F
100
AcDbEntity
  8
実線
100
AcDbCircle
 10
295.5750044568651
 20
761.6460017223162
 30
0.0
 40
9.999999999999591
100
AcDbArc
 50
145.0000000000026
 51
223.4958580179451
  0
LINE
  5
2C6
102
{ACAD_REACTORS
330
56C
102
}
330
1F
100
AcDbEntity
  8
実線
100
AcDbLine
 10
287.3834840139757
 20
767.3817660858271
 30
0.0
 11
287.4796144109431
 21
767.5190545206433
 31
0.0
  0
ARC
  5
2C7
102
{ACAD_REACTORS
330
56C
102
}
330
1F
100
AcDbEntity
  8
実線
100
AcDbCircle
 10
346.3546936347034
 20
809.8271512208611
 30
0.0
 40
79.99999999999343
100
AcDbArc
 50
313.4958580179451
 51
316.5041419820641
  0
ARC
  5
2C8
102
{ACAD_REACTORS
330
56C
102
}
330
1F
100
AcDbEntity
  8
実線
100
AcDbCircle
 10
394.5358431332587
 20
759.0474620430322
 30
0.0
 40
10.00000000000038
100
AcDbArc
 50
235.0000000000026
 51
313.4958580179451
  0
ARC
  5
2C9
102
{ACAD_REACTORS
330
56C
102
}
330
1F
100
AcDbEntity
  8
実線
100
AcDbCircle
 10
298.1735441361493
 20
860.6068403987103
 30
0.0
 40
10.00000000000002
100
AcDbArc
 50
55.00000000000264
 51
133.4958580179451
  0
LINE
  5
2CA
102
{ACAD_REACTORS
330
56C
102
}
330
1F
100
AcDbEntity
  8
実線
100
AcDbLine
 10
303.9093084996599
 20
868.7983608416002
 30
0.0
 11
304.0465969344761
 21
868.7022304446323
 31
0.0
  0
LINE
  5
2CB
102
{ACAD_REACTORS
330
56C
102
}
330
1F
100
AcDbEntity
  8
実線
100
AcDbLine
 10
304.0465969344761
 20
750.9520719971103
 30
0.0
 11
303.9093084996599
 21
750.8559416001421
 31
0.0
  0
ARC
  5
2CC
102
{ACAD_REACTORS
330
56C
102
}
330
1F
100
AcDbEntity
  8
実線
100
AcDbCircle
 10
298.1735441361493
 20
759.0474620430322
 30
0.0
 40
9.999999999999982
100
AcDbArc
 50
226.5041419820549
 51
304.9999999999974
  0
ARC
  5
2CD
102
{ACAD_REACTORS
330
56C
102
}
330
1F
100
AcDbEntity
  8
実線
100
AcDbCircle
 10
346.3546936347044
 20
809.8271512208611
 30
0.0
 40
79.99999999999268
100
AcDbArc
 50
223.4958580179359
 51
226.5041419820549
  0
LINE
  5
2CE
102
{ACAD_REACTORS
330
56C
102
}
330
1F
100
AcDbEntity
  8
実線
100
AcDbLine
 10
405.2297728584653
 20
767.5190545206433
 30
0.0
 11
405.3259032554329
 21
767.3817660858271
 31
0.0
  0
LINE
  5
2CF
102
{ACAD_REACTORS
330
56C
102
}
330
1F
100
AcDbEntity
  8
実線
100
AcDbLine
 10
405.3259032554329
 20
852.2725363559152
 30
0.0
 11
405.2297728584653
 21
852.1352479210992
 31
0.0
  0
ARC
  5
2D0
102
{ACAD_REACTORS
330
56C
102
}
330
1F
100
AcDbEntity
  8
実線
100
AcDbCircle
 10
397.1343828125427
 20
761.6460017223162
 30
0.0
 40
10.0
100
AcDbArc
 50
316.5041419820549
 51
34.99999999999737
  0
LINE
  5
2D1
102
{ACAD_REACTORS
330
56C
102
}
330
1F
100
AcDbEntity
  8
実線
100
AcDbLine
 10
388.8000787697481
 20
750.8559416001421
 30
0.0
 11
388.6627903349315
 21
750.9520719971092
 31
0.0
  0
ARC
  5
2D2
102
{ACAD_REACTORS
330
56C
102
}
330
1F
100
AcDbEntity
  8
実線
100
AcDbCircle
 10
346.3546936347041
 20
809.8271512208714
 30
0.0
 40
25.0
100
AcDbArc
 50
323.1301023541534
 51
233.1301023541533
  0
LINE
  5
2D3
102
{ACAD_REACTORS
330
56C
102
}
330
1F
100
AcDbEntity
  8
実線
100
AcDbLine
 10
331.3546936347041
 20
789.8271512208714
 30
0.0
 11
341.354693634704
 21
789.8271512208714
 31
0.0
  0
LINE
  5
2D4
102
{ACAD_REACTORS
330
56C
102
}
330
1F
100
AcDbEntity
  8
実線
100
AcDbLine
 10
341.354693634704
 20
786.8271512208714
 30
0.0
 11
341.354693634704
 21
788.8271512208714
 31
0.0
  0
LINE
  5
2D5
102
{ACAD_REACTORS
330
56C
102
}
330
1F
100
AcDbEntity
  8
実線
100
AcDbLine
 10
361.3546936347041
 20
788.8271512208714
 30
0.0
 11
361.3546936347041
 21
786.8271512208714
 31
0.0
  0
LINE
  5
2D6
102
{ACAD_REACTORS
330
56C
102
}
330
1F
100
AcDbEntity
  8
実線
100
AcDbLine
 10
341.354693634704
 20
788.8271512208714
 30
0.0
 11
361.3546936347041
 21
788.8271512208714
 31
0.0
  0
LINE
  5
2D7
102
{ACAD_REACTORS
330
56C
102
}
330
1F
100
AcDbEntity
  8
実線
100
AcDbLine
 10
361.3546936347041
 20
786.8271512208714
 30
0.0
 11
341.354693634704
 21
786.8271512208714
 31
0.0
  0
CIRCLE
  5
2D8
102
{ACAD_REACTORS
330
56C
102
}
330
1F
100
AcDbEntity
  8
実線
100
AcDbCircle
 10
346.3546936347041
 20
809.8271512208714
 30
0.0
 40
72.5
  0
LINE
  5
2DB
102
{ACAD_REACTORS
330
569
102
}
330
1F
100
AcDbEntity
  8
実線
100
AcDbLine
 10
444.7546936347044
 20
121.5771512208915
 30
0.0
 11
391.2650209548076
 21
121.5771512208915
 31
0.0
  0
LINE
  5
2DC
102
{ACAD_REACTORS
330
569
102
}
330
1F
100
AcDbEntity
  8
実線
100
AcDbLine
 10
391.2650209548361
 20
58.07715122089144
 30
0.0
 11
444.7546936347039
 21
58.07715122089144
 31
0.0
  0
LINE
  5
2DD
102
{ACAD_REACTORS
330
569
102
}
330
1F
100
AcDbEntity
  8
実線
100
AcDbLine
 10
444.7546936347044
 20
121.5771512208915
 30
0.0
 11
444.7546936347044
 21
58.07715122089144
 31
0.0
  0
LINE
  5
2DE
102
{ACAD_REACTORS
330
569
102
}
330
1F
100
AcDbEntity
  8
実線
100
AcDbLine
 10
444.7546936347044
 20
58.07715122089144
 30
0.0
 11
447.8546936347039
 21
51.07715122089155
 31
0.0
  0
LINE
  5
2DF
102
{ACAD_REACTORS
330
569
102
}
330
1F
100
AcDbEntity
  8
実線
100
AcDbLine
 10
447.8546936347039
 20
128.5771512208913
 30
0.0
 11
444.7546936347044
 21
121.5771512208915
 31
0.0
  0
LINE
  5
2E0
102
{ACAD_REACTORS
330
569
102
}
330
1F
100
AcDbEntity
  8
実線
100
AcDbLine
 10
451.3546936347039
 20
128.5771512208913
 30
0.0
 11
451.3546936347039
 21
51.07715122089132
 31
0.0
  0
LINE
  5
2E1
102
{ACAD_REACTORS
330
569
102
}
330
1F
100
AcDbEntity
  8
実線
100
AcDbLine
 10
447.8546936347039
 20
128.5771512208913
 30
0.0
 11
447.8546936347039
 21
51.07715122089132
 31
0.0
  0
LINE
  5
2E2
102
{ACAD_REACTORS
330
569
102
}
330
1F
100
AcDbEntity
  8
実線
100
AcDbLine
 10
451.3546936347039
 20
128.5771512208913
 30
0.0
 11
447.8546936347039
 21
128.5771512208913
 31
0.0
  0
LINE
  5
2E3
102
{ACAD_REACTORS
330
569
102
}
330
1F
100
AcDbEntity
  8
実線
100
AcDbLine
 10
447.8546936347039
 20
51.07715122089132
 30
0.0
 11
451.3546936347039
 21
51.07715122089132
 31
0.0
  0
LINE
  5
2E4
102
{ACAD_REACTORS
330
569
102
}
330
1F
100
AcDbEntity
  8
実線
100
AcDbLine
 10
247.9546936347053
 20
58.0771512208712
 30
0.0
 11
301.4443663145891
 21
58.0771512208712
 31
0.0
  0
LINE
  5
2E5
102
{ACAD_REACTORS
330
569
102
}
330
1F
100
AcDbEntity
  8
実線
100
AcDbLine
 10
301.4443663145891
 20
121.5771512208712
 30
0.0
 11
247.9546936347053
 21
121.5771512208712
 31
0.0
  0
LINE
  5
2E6
102
{ACAD_REACTORS
330
569
102
}
330
1F
100
AcDbEntity
  8
実線
100
AcDbLine
 10
247.9546936347053
 20
58.0771512208712
 30
0.0
 11
247.9546936347053
 21
121.5771512208712
 31
0.0
  0
LINE
  5
2E7
102
{ACAD_REACTORS
330
569
102
}
330
1F
100
AcDbEntity
  8
実線
100
AcDbLine
 10
247.9546936347053
 20
121.5771512208712
 30
0.0
 11
244.8546936347053
 21
128.5771512208712
 31
0.0
  0
LINE
  5
2E8
102
{ACAD_REACTORS
330
569
102
}
330
1F
100
AcDbEntity
  8
実線
100
AcDbLine
 10
244.8546936347053
 20
51.0771512208712
 30
0.0
 11
247.9546936347053
 21
58.0771512208712
 31
0.0
  0
LINE
  5
2E9
102
{ACAD_REACTORS
330
569
102
}
330
1F
100
AcDbEntity
  8
実線
100
AcDbLine
 10
241.3546936347053
 20
51.0771512208712
 30
0.0
 11
241.3546936347053
 21
128.5771512208712
 31
0.0
  0
LINE
  5
2EA
102
{ACAD_REACTORS
330
569
102
}
330
1F
100
AcDbEntity
  8
実線
100
AcDbLine
 10
244.8546936347053
 20
51.0771512208712
 30
0.0
 11
244.8546936347053
 21
128.5771512208712
 31
0.0
  0
LINE
  5
2EB
102
{ACAD_REACTORS
330
569
102
}
330
1F
100
AcDbEntity
  8
実線
100
AcDbLine
 10
241.3546936347053
 20
51.0771512208712
 30
0.0
 11
244.8546936347053
 21
51.0771512208712
 31
0.0
  0
LINE
  5
2EC
102
{ACAD_REACTORS
330
569
102
}
330
1F
100
AcDbEntity
  8
実線
100
AcDbLine
 10
244.8546936347053
 20
128.5771512208712
 30
0.0
 11
241.3546936347053
 21
128.5771512208712
 31
0.0
  0
CIRCLE
  5
2ED
102
{ACAD_REACTORS
330
569
102
}
330
1F
100
AcDbEntity
  8
実線
100
AcDbCircle
 10
346.3546936347052
 20
89.82715122087119
 30
0.0
 40
38.75
  0
ARC
  5
2EE
102
{ACAD_REACTORS
330
569
102
}
330
1F
100
AcDbEntity
  8
実線
100
AcDbCircle
 10
346.3546936347047
 20
89.82715122088137
 30
0.0
 40
72.5
100
AcDbArc
 50
54.29867758537375
 51
125.7013224146263
  0
ARC
  5
2EF
102
{ACAD_REACTORS
330
569
102
}
330
1F
100
AcDbEntity
  8
実線
100
AcDbCircle
 10
346.3546936347047
 20
89.82715122088137
 30
0.0
 40
72.5
100
AcDbArc
 50
144.2986775853665
 51
154.0280526648894
  0
ARC
  5
2F0
102
{ACAD_REACTORS
330
569
102
}
330
1F
100
AcDbEntity
  8
実線
100
AcDbCircle
 10
346.3546936347047
 20
89.82715122088137
 30
0.0
 40
72.5
100
AcDbArc
 50
205.9719473351281
 51
215.7013224146282
  0
ARC
  5
2F1
102
{ACAD_REACTORS
330
569
102
}
330
1F
100
AcDbEntity
  8
実線
100
AcDbCircle
 10
346.3546936347047
 20
89.82715122088137
 30
0.0
 40
72.5
100
AcDbArc
 50
234.2986775853737
 51
305.7013224146262
  0
ARC
  5
2F2
102
{ACAD_REACTORS
330
569
102
}
330
1F
100
AcDbEntity
  8
実線
100
AcDbCircle
 10
346.3546936347047
 20
89.82715122088137
 30
0.0
 40
72.5
100
AcDbArc
 50
324.2986775853718
 51
334.0280526648894
  0
ARC
  5
2F3
102
{ACAD_REACTORS
330
569
102
}
330
1F
100
AcDbEntity
  8
実線
100
AcDbCircle
 10
346.3546936347047
 20
89.82715122088137
 30
0.0
 40
72.5
100
AcDbArc
 50
25.97194733512806
 51
35.70132241462816
  0
ARC
  5
2F4
102
{ACAD_REACTORS
330
569
102
}
330
1F
100
AcDbEntity
  8
実線
100
AcDbCircle
 10
346.3546936347047
 20
89.82715122088137
 30
0.0
 40
67.5
100
AcDbArc
 50
55.79182291694149
 51
124.2081770830585
  0
ARC
  5
2F5
102
{ACAD_REACTORS
330
569
102
}
330
1F
100
AcDbEntity
  8
実線
100
AcDbCircle
 10
346.3546936347047
 20
89.82715122088137
 30
0.0
 40
67.5
100
AcDbArc
 50
145.7918229169342
 51
151.9416592389783
  0
ARC
  5
2F6
102
{ACAD_REACTORS
330
569
102
}
330
1F
100
AcDbEntity
  8
実線
100
AcDbCircle
 10
346.3546936347047
 20
89.82715122088137
 30
0.0
 40
67.5
100
AcDbArc
 50
208.0583407610406
 51
214.2081770830585
  0
ARC
  5
2F7
102
{ACAD_REACTORS
330
569
102
}
330
1F
100
AcDbEntity
  8
実線
100
AcDbCircle
 10
346.3546936347047
 20
89.82715122088137
 30
0.0
 40
67.5
100
AcDbArc
 50
235.7918229169415
 51
304.2081770830586
  0
ARC
  5
2F8
102
{ACAD_REACTORS
330
569
102
}
330
1F
100
AcDbEntity
  8
実線
100
AcDbCircle
 10
346.3546936347047
 20
89.82715122088137
 30
0.0
 40
67.5
100
AcDbArc
 50
325.7918229169343
 51
331.9416592389784
  0
ARC
  5
2F9
102
{ACAD_REACTORS
330
569
102
}
330
1F
100
AcDbEntity
  8
実線
100
AcDbCircle
 10
346.3546936347047
 20
89.82715122088137
 30
0.0
 40
67.5
100
AcDbArc
 50
28.05834076104059
 51
34.20817708305852
  0
LINE
  5
2FA
102
{ACAD_REACTORS
330
569
102
}
330
1F
100
AcDbEntity
  8
実線
100
AcDbLine
 10
388.8000787697495
 20
148.7983608416003
 30
0.0
 11
373.1646657846466
 21
137.8503268064088
 31
0.0
  0
LINE
  5
2FB
102
{ACAD_REACTORS
330
569
102
}
330
1F
100
AcDbEntity
  8
実線
100
AcDbLine
 10
397.8369139598343
 20
121.5771512208915
 30
0.0
 11
405.3259032554339
 21
132.2725363559154
 31
0.0
  0
ARC
  5
2FC
102
{ACAD_REACTORS
330
569
102
}
330
1F
100
AcDbEntity
  8
実線
100
AcDbCircle
 10
397.1343828125442
 20
138.0083007194259
 30
0.0
 40
10.0
100
AcDbArc
 50
325.0000000000026
 51
43.49585801794053
  0
ARC
  5
2FD
102
{ACAD_REACTORS
330
569
102
}
330
1F
100
AcDbEntity
  8
実線
100
AcDbCircle
 10
346.3546936347047
 20
89.82715122088137
 30
0.0
 40
79.99999999999343
100
AcDbArc
 50
43.49585801793593
 51
46.50414198205487
  0
ARC
  5
2FE
102
{ACAD_REACTORS
330
569
102
}
330
1F
100
AcDbEntity
  8
実線
100
AcDbCircle
 10
394.5358431332601
 20
140.60684039871
 30
0.0
 40
10.00000000000038
100
AcDbArc
 50
46.50414198205487
 51
124.9999999999974
  0
ARC
  5
2FF
102
{ACAD_REACTORS
330
569
102
}
330
1F
100
AcDbEntity
  8
実線
100
AcDbCircle
 10
394.5358431332601
 20
39.0474620430324
 30
0.0
 40
9.999999999999991
100
AcDbArc
 50
235.0000000000026
 51
313.4958580179451
  0
ARC
  5
300
102
{ACAD_REACTORS
330
569
102
}
330
1F
100
AcDbEntity
  8
実線
100
AcDbCircle
 10
346.3546936347052
 20
89.82715122087114
 30
0.0
 40
79.99999999999984
100
AcDbArc
 50
313.4958580179451
 51
316.5041419820595
  0
ARC
  5
301
102
{ACAD_REACTORS
330
569
102
}
330
1F
100
AcDbEntity
  8
実線
100
AcDbCircle
 10
397.1343828125442
 20
41.64600172231655
 30
0.0
 40
9.999999999999976
100
AcDbArc
 50
316.5041419820549
 51
34.99999999999737
  0
LINE
  5
302
102
{ACAD_REACTORS
330
569
102
}
330
1F
100
AcDbEntity
  8
実線
100
AcDbLine
 10
405.3259032554339
 20
47.38176608582693
 30
0.0
 11
397.8369139598058
 21
58.07715122089144
 31
0.0
  0
LINE
  5
303
102
{ACAD_REACTORS
330
569
102
}
330
1F
100
AcDbEntity
  8
実線
100
AcDbLine
 10
373.1646657846466
 20
41.80397563533353
 30
0.0
 11
388.8000787697496
 21
30.8559416001425
 31
0.0
  0
ARC
  5
304
102
{ACAD_REACTORS
330
569
102
}
330
1F
100
AcDbEntity
  8
実線
100
AcDbCircle
 10
346.3546936347052
 20
89.82715122087114
 30
0.0
 40
79.9999999999998
100
AcDbArc
 50
223.4958580179406
 51
226.5041419820549
  0
ARC
  5
305
102
{ACAD_REACTORS
330
569
102
}
330
1F
100
AcDbEntity
  8
実線
100
AcDbCircle
 10
295.5750044568664
 20
41.64600172231655
 30
0.0
 40
9.999999999999996
100
AcDbArc
 50
145.0000000000026
 51
223.4958580179406
  0
ARC
  5
306
102
{ACAD_REACTORS
330
569
102
}
330
1F
100
AcDbEntity
  8
実線
100
AcDbCircle
 10
298.1735441361504
 20
39.0474620430324
 30
0.0
 40
10.00000000000002
100
AcDbArc
 50
226.5041419820549
 51
304.9999999999974
  0
LINE
  5
307
102
{ACAD_REACTORS
330
569
102
}
330
1F
100
AcDbEntity
  8
実線
100
AcDbLine
 10
303.909308499661
 20
30.8559416001425
 30
0.0
 11
319.5447214847641
 21
41.80397563533353
 31
0.0
  0
LINE
  5
308
102
{ACAD_REACTORS
330
569
102
}
330
1F
100
AcDbEntity
  8
実線
100
AcDbLine
 10
294.8724733095907
 20
58.0771512208712
 30
0.0
 11
287.3834840139766
 21
47.38176608582693
 31
0.0
  0
LINE
  5
309
102
{ACAD_REACTORS
330
569
102
}
330
1F
100
AcDbEntity
  8
実線
100
AcDbLine
 10
287.3834840139768
 20
132.2725363559156
 30
0.0
 11
294.8724733095907
 21
121.5771512208712
 31
0.0
  0
LINE
  5
30A
102
{ACAD_REACTORS
330
569
102
}
330
1F
100
AcDbEntity
  8
実線
100
AcDbLine
 10
319.5447214847641
 20
137.8503268064088
 30
0.0
 11
303.909308499661
 21
148.7983608416
 31
0.0
  0
ARC
  5
30B
102
{ACAD_REACTORS
330
569
102
}
330
1F
100
AcDbEntity
  8
実線
100
AcDbCircle
 10
298.1735441361508
 20
140.60684039871
 30
0.0
 40
9.999999999999982
100
AcDbArc
 50
55.00000000000264
 51
133.4958580179451
  0
ARC
  5
30C
102
{ACAD_REACTORS
330
569
102
}
330
1F
100
AcDbEntity
  8
実線
100
AcDbCircle
 10
346.3546936347055
 20
89.82715122088137
 30
0.0
 40
79.99999999999268
100
AcDbArc
 50
133.4958580179451
 51
136.504141982064
  0
ARC
  5
30D
102
{ACAD_REACTORS
330
569
102
}
330
1F
100
AcDbEntity
  8
実線
100
AcDbCircle
 10
295.5750044568666
 20
138.0083007194259
 30
0.0
 40
9.999999999999591
100
AcDbArc
 50
136.5041419820594
 51
214.9999999999974
  0
ARC
  5
30E
102
{ACAD_REACTORS
330
569
102
}
330
1F
100
AcDbEntity
  8
実線
100
AcDbCircle
 10
346.3546936347052
 20
89.82715122087119
 30
0.0
 40
55.0
100
AcDbArc
 50
206.6374901381757
 51
333.3625098618491
  0
ARC
  5
30F
102
{ACAD_REACTORS
330
569
102
}
330
1F
100
AcDbEntity
  8
実線
100
AcDbCircle
 10
346.3546936347052
 20
89.82715122087119
 30
0.0
 40
55.0
100
AcDbArc
 50
26.63749013820045
 51
153.3625098618243
  0
LINE
  5
310
102
{ACAD_REACTORS
330
567
102
}
330
1F
100
AcDbEntity
  8
実線
100
AcDbLine
 10
727.9546936347042
 20
298.0771512208712
 30
0.0
 11
776.4947903202173
 21
298.0771512208712
 31
0.0
  0
LINE
  5
311
102
{ACAD_REACTORS
330
567
102
}
330
1F
100
AcDbEntity
  8
実線
100
AcDbLine
 10
765.5750044568655
 20
361.5771512208712
 30
0.0
 11
727.9546936347042
 21
361.5771512208712
 31
0.0
  0
LINE
  5
312
102
{ACAD_REACTORS
330
567
102
}
330
1F
100
AcDbEntity
  8
実線
100
AcDbLine
 10
727.9546936347042
 20
361.5771512208712
 30
0.0
 11
724.8546936347054
 21
368.5771512208712
 31
0.0
  0
LINE
  5
313
102
{ACAD_REACTORS
330
567
102
}
330
1F
100
AcDbEntity
  8
実線
100
AcDbLine
 10
724.8546936347054
 20
291.0771512208712
 30
0.0
 11
727.9546936347042
 21
298.0771512208712
 31
0.0
  0
LINE
  5
314
102
{ACAD_REACTORS
330
567
102
}
330
1F
100
AcDbEntity
  8
実線
100
AcDbLine
 10
727.9546936347042
 20
361.5771512208712
 30
0.0
 11
727.9546936347042
 21
298.0771512208712
 31
0.0
  0
LINE
  5
315
102
{ACAD_REACTORS
330
567
102
}
330
1F
100
AcDbEntity
  8
実線
100
AcDbLine
 10
721.3546936347054
 20
291.0771512208712
 30
0.0
 11
724.8546936347054
 21
291.0771512208712
 31
0.0
  0
LINE
  5
316
102
{ACAD_REACTORS
330
567
102
}
330
1F
100
AcDbEntity
  8
実線
100
AcDbLine
 10
724.8546936347054
 20
368.5771512208712
 30
0.0
 11
721.3546936347054
 21
368.5771512208712
 31
0.0
  0
LINE
  5
317
102
{ACAD_REACTORS
330
567
102
}
330
1F
100
AcDbEntity
  8
実線
100
AcDbLine
 10
721.3546936347054
 20
291.0771512208712
 30
0.0
 11
721.3546936347054
 21
368.5771512208712
 31
0.0
  0
LINE
  5
318
102
{ACAD_REACTORS
330
567
102
}
330
1F
100
AcDbEntity
  8
実線
100
AcDbLine
 10
724.8546936347054
 20
291.0771512208712
 30
0.0
 11
724.8546936347054
 21
368.5771512208712
 31
0.0
  0
LINE
  5
319
102
{ACAD_REACTORS
330
567
102
}
330
1F
100
AcDbEntity
  8
実線
100
AcDbLine
 10
780.3546936347043
 20
604.8271512208712
 30
0.0
 11
872.3546936347043
 21
604.8271512208712
 31
0.0
  0
LINE
  5
31A
102
{ACAD_REACTORS
330
567
102
}
330
1F
100
AcDbEntity
  8
実線
100
AcDbLine
 10
872.3546936347043
 20
594.8271512208711
 30
0.0
 11
872.3546936347043
 21
604.8271512208712
 31
0.0
  0
LINE
  5
31B
102
{ACAD_REACTORS
330
567
102
}
330
1F
100
AcDbEntity
  8
実線
100
AcDbLine
 10
780.3546936347043
 20
604.8271512208712
 30
0.0
 11
780.3546936347043
 21
594.8271512208711
 31
0.0
  0
LINE
  5
31C
102
{ACAD_REACTORS
330
567
102
}
330
1F
100
AcDbEntity
  8
実線
100
AcDbLine
 10
834.3546936347042
 20
611.8271512208711
 30
0.0
 11
834.3546936347042
 21
642.3271512208712
 31
0.0
  0
LINE
  5
31D
102
{ACAD_REACTORS
330
567
102
}
330
1F
100
AcDbEntity
  8
実線
100
AcDbLine
 10
818.3546936347042
 20
642.3271512208712
 30
0.0
 11
818.3546936347042
 21
611.8271512208711
 31
0.0
  0
LINE
  5
31E
102
{ACAD_REACTORS
330
567
102
}
330
1F
100
AcDbEntity
  8
実線
100
AcDbLine
 10
818.8546936347043
 20
648.7771512208712
 30
0.0
 11
806.3546936347043
 21
648.7771512208712
 31
0.0
  0
LINE
  5
31F
102
{ACAD_REACTORS
330
567
102
}
330
1F
100
AcDbEntity
  8
実線
100
AcDbLine
 10
806.3546936347043
 20
648.7771512208712
 30
0.0
 11
806.3546936347043
 21
640.8771512208712
 31
0.0
  0
LINE
  5
320
102
{ACAD_REACTORS
330
567
102
}
330
1F
100
AcDbEntity
  8
実線
100
AcDbLine
 10
818.3546936347042
 20
640.8771512208712
 30
0.0
 11
806.3546936347043
 21
640.8771512208712
 31
0.0
  0
LINE
  5
321
102
{ACAD_REACTORS
330
567
102
}
330
1F
100
AcDbEntity
  8
実線
100
AcDbLine
 10
801.3546936347042
 20
609.8271512208712
 30
0.0
 11
851.3546936347042
 21
609.8271512208712
 31
0.0
  0
LINE
  5
322
102
{ACAD_REACTORS
330
567
102
}
330
1F
100
AcDbEntity
  8
実線
100
AcDbLine
 10
851.3546936347042
 20
604.8271512208712
 30
0.0
 11
851.3546936347042
 21
609.8271512208712
 31
0.0
  0
LINE
  5
323
102
{ACAD_REACTORS
330
567
102
}
330
1F
100
AcDbEntity
  8
実線
100
AcDbLine
 10
801.3546936347042
 20
609.8271512208712
 30
0.0
 11
801.3546936347042
 21
604.8271512208712
 31
0.0
  0
LINE
  5
324
102
{ACAD_REACTORS
330
567
102
}
330
1F
100
AcDbEntity
  8
実線
100
AcDbLine
 10
806.3546936347043
 20
646.3271512208712
 30
0.0
 11
799.8546936347054
 21
646.3271512208712
 31
0.0
  0
LINE
  5
325
102
{ACAD_REACTORS
330
567
102
}
330
1F
100
AcDbEntity
  8
実線
100
AcDbLine
 10
799.8546936347054
 20
643.3271512208712
 30
0.0
 11
806.3546936347043
 21
643.3271512208712
 31
0.0
  0
LINE
  5
326
102
{ACAD_REACTORS
330
567
102
}
330
1F
100
AcDbEntity
  8
実線
100
AcDbLine
 10
799.8546936347054
 20
646.3271512208712
 30
0.0
 11
799.8546936347054
 21
643.3271512208712
 31
0.0
  0
LINE
  5
327
102
{ACAD_REACTORS
330
567
102
}
330
1F
100
AcDbEntity
  8
実線
100
AcDbLine
 10
818.3546936347042
 20
632.7771512208713
 30
0.0
 11
806.3546936347043
 21
632.7771512208713
 31
0.0
  0
LINE
  5
328
102
{ACAD_REACTORS
330
567
102
}
330
1F
100
AcDbEntity
  8
実線
100
AcDbLine
 10
818.3546936347042
 20
624.8771512208712
 30
0.0
 11
806.3546936347043
 21
624.8771512208712
 31
0.0
  0
LINE
  5
329
102
{ACAD_REACTORS
330
567
102
}
330
1F
100
AcDbEntity
  8
実線
100
AcDbLine
 10
806.3546936347043
 20
632.7771512208713
 30
0.0
 11
806.3546936347043
 21
624.8771512208712
 31
0.0
  0
LINE
  5
32A
102
{ACAD_REACTORS
330
567
102
}
330
1F
100
AcDbEntity
  8
実線
100
AcDbLine
 10
806.3546936347043
 20
630.3271512208712
 30
0.0
 11
799.8546936347054
 21
630.3271512208712
 31
0.0
  0
LINE
  5
32B
102
{ACAD_REACTORS
330
567
102
}
330
1F
100
AcDbEntity
  8
実線
100
AcDbLine
 10
799.8546936347054
 20
627.3271512208712
 30
0.0
 11
806.3546936347043
 21
627.3271512208712
 31
0.0
  0
LINE
  5
32C
102
{ACAD_REACTORS
330
567
102
}
330
1F
100
AcDbEntity
  8
実線
100
AcDbLine
 10
799.8546936347054
 20
630.3271512208712
 30
0.0
 11
799.8546936347054
 21
627.3271512208712
 31
0.0
  0
LINE
  5
32D
102
{ACAD_REACTORS
330
567
102
}
330
1F
100
AcDbEntity
  8
実線
100
AcDbLine
 10
813.8546936347042
 20
647.3271512208712
 30
0.0
 11
838.8546936347042
 21
647.3271512208712
 31
0.0
  0
LINE
  5
32E
102
{ACAD_REACTORS
330
567
102
}
330
1F
100
AcDbEntity
  8
実線
100
AcDbLine
 10
838.8546936347042
 20
642.3271512208712
 30
0.0
 11
838.8546936347042
 21
647.3271512208712
 31
0.0
  0
LINE
  5
32F
102
{ACAD_REACTORS
330
567
102
}
330
1F
100
AcDbEntity
  8
実線
100
AcDbLine
 10
813.8546936347042
 20
647.3271512208712
 30
0.0
 11
813.8546936347042
 21
642.3271512208712
 31
0.0
  0
LINE
  5
330
102
{ACAD_REACTORS
330
567
102
}
330
1F
100
AcDbEntity
  8
実線
100
AcDbLine
 10
838.8546936347042
 20
642.3271512208712
 30
0.0
 11
813.8546936347042
 21
642.3271512208712
 31
0.0
  0
LINE
  5
331
102
{ACAD_REACTORS
330
567
102
}
330
1F
100
AcDbEntity
  8
実線
100
AcDbLine
 10
818.8546936347043
 20
652.6271512208713
 30
0.0
 11
833.8546936347054
 21
652.6271512208713
 31
0.0
  0
LINE
  5
332
102
{ACAD_REACTORS
330
567
102
}
330
1F
100
AcDbEntity
  8
実線
100
AcDbLine
 10
833.8546936347054
 20
647.3271512208712
 30
0.0
 11
833.8546936347054
 21
652.6271512208713
 31
0.0
  0
LINE
  5
333
102
{ACAD_REACTORS
330
567
102
}
330
1F
100
AcDbEntity
  8
実線
100
AcDbLine
 10
818.8546936347043
 20
652.6271512208713
 30
0.0
 11
818.8546936347043
 21
647.3271512208712
 31
0.0
  0
LINE
  5
334
102
{ACAD_REACTORS
330
567
102
}
330
1F
100
AcDbEntity
  8
実線
100
AcDbLine
 10
924.7546936347035
 20
361.5771512208712
 30
0.0
 11
887.1343828125425
 21
361.5771512208712
 31
0.0
  0
LINE
  5
335
102
{ACAD_REACTORS
330
567
102
}
330
1F
100
AcDbEntity
  8
実線
100
AcDbLine
 10
876.2145969491903
 20
298.0771512208712
 30
0.0
 11
924.7546936347035
 21
298.0771512208712
 31
0.0
  0
LINE
  5
336
102
{ACAD_REACTORS
330
567
102
}
330
1F
100
AcDbEntity
  8
実線
100
AcDbLine
 10
931.3546936347034
 20
291.0771512208712
 30
0.0
 11
931.3546936347034
 21
368.5771512208712
 31
0.0
  0
LINE
  5
337
102
{ACAD_REACTORS
330
567
102
}
330
1F
100
AcDbEntity
  8
実線
100
AcDbLine
 10
931.3546936347034
 20
368.5771512208712
 30
0.0
 11
927.8546936347034
 21
368.5771512208712
 31
0.0
  0
LINE
  5
338
102
{ACAD_REACTORS
330
567
102
}
330
1F
100
AcDbEntity
  8
実線
100
AcDbLine
 10
927.8546936347034
 20
291.0771512208712
 30
0.0
 11
931.3546936347034
 21
291.0771512208712
 31
0.0
  0
LINE
  5
339
102
{ACAD_REACTORS
330
567
102
}
330
1F
100
AcDbEntity
  8
実線
100
AcDbLine
 10
927.8546936347034
 20
291.0771512208712
 30
0.0
 11
927.8546936347034
 21
368.5771512208712
 31
0.0
  0
LINE
  5
33A
102
{ACAD_REACTORS
330
567
102
}
330
1F
100
AcDbEntity
  8
実線
100
AcDbLine
 10
924.7546936347035
 20
298.0771512208712
 30
0.0
 11
924.7546936347035
 21
361.5771512208712
 31
0.0
  0
LINE
  5
33B
102
{ACAD_REACTORS
330
567
102
}
330
1F
100
AcDbEntity
  8
実線
100
AcDbLine
 10
924.7546936347035
 20
298.0771512208712
 30
0.0
 11
927.8546936347034
 21
291.0771512208712
 31
0.0
  0
LINE
  5
33C
102
{ACAD_REACTORS
330
567
102
}
330
1F
100
AcDbEntity
  8
実線
100
AcDbLine
 10
927.8546936347034
 20
368.5771512208712
 30
0.0
 11
924.7546936347035
 21
361.5771512208712
 31
0.0
  0
LINE
  5
33D
102
{ACAD_REACTORS
330
567
102
}
330
1F
100
AcDbEntity
  8
実線
100
AcDbLine
 10
858.1046936347034
 20
287.4271512208712
 30
0.0
 11
858.1046936347034
 21
293.8271512208712
 31
0.0
  0
LINE
  5
33E
102
{ACAD_REACTORS
330
567
102
}
330
1F
100
AcDbEntity
  8
実線
100
AcDbLine
 10
794.6046936347043
 20
293.8271512208712
 30
0.0
 11
794.6046936347043
 21
287.4271512208712
 31
0.0
  0
LINE
  5
33F
102
{ACAD_REACTORS
330
567
102
}
330
1F
100
AcDbEntity
  8
実線
100
AcDbLine
 10
794.6046936347043
 20
287.4271512208712
 30
0.0
 11
858.1046936347034
 21
287.4271512208712
 31
0.0
  0
LINE
  5
340
102
{ACAD_REACTORS
330
567
102
}
330
1F
100
AcDbEntity
  8
実線
100
AcDbLine
 10
794.6046936347043
 20
287.4271512208712
 30
0.0
 11
787.6046936347043
 21
284.3271512208712
 31
0.0
  0
LINE
  5
341
102
{ACAD_REACTORS
330
567
102
}
330
1F
100
AcDbEntity
  8
実線
100
AcDbLine
 10
865.1046936347034
 20
284.3271512208712
 30
0.0
 11
858.1046936347034
 21
287.4271512208712
 31
0.0
  0
LINE
  5
342
102
{ACAD_REACTORS
330
567
102
}
330
1F
100
AcDbEntity
  8
実線
100
AcDbLine
 10
787.6046936347043
 20
280.8271512208712
 30
0.0
 11
865.1046936347034
 21
280.8271512208712
 31
0.0
  0
LINE
  5
343
102
{ACAD_REACTORS
330
567
102
}
330
1F
100
AcDbEntity
  8
実線
100
AcDbLine
 10
787.6046936347043
 20
284.3271512208712
 30
0.0
 11
865.1046936347034
 21
284.3271512208712
 31
0.0
  0
LINE
  5
344
102
{ACAD_REACTORS
330
567
102
}
330
1F
100
AcDbEntity
  8
実線
100
AcDbLine
 10
865.1046936347034
 20
280.8271512208712
 30
0.0
 11
865.1046936347034
 21
284.3271512208712
 31
0.0
  0
LINE
  5
345
102
{ACAD_REACTORS
330
567
102
}
330
1F
100
AcDbEntity
  8
実線
100
AcDbLine
 10
787.6046936347043
 20
284.3271512208712
 30
0.0
 11
787.6046936347043
 21
280.8271512208712
 31
0.0
  0
LINE
  5
346
102
{ACAD_REACTORS
330
567
102
}
330
1F
100
AcDbEntity
  8
実線
100
AcDbLine
 10
765.5750044568655
 20
383.8271512208712
 30
0.0
 11
887.1343828125443
 21
383.8271512208712
 31
0.0
  0
LINE
  5
347
102
{ACAD_REACTORS
330
567
102
}
330
1F
100
AcDbEntity
  8
実線
100
AcDbLine
 10
765.5750044568655
 20
370.3271512208712
 30
0.0
 11
887.1343828125443
 21
370.3271512208712
 31
0.0
  0
LINE
  5
348
102
{ACAD_REACTORS
330
567
102
}
330
1F
100
AcDbEntity
  8
実線
100
AcDbLine
 10
887.1343828125443
 20
370.3271512208712
 30
0.0
 11
887.1343828125443
 21
383.8271512208712
 31
0.0
  0
LINE
  5
349
102
{ACAD_REACTORS
330
567
102
}
330
1F
100
AcDbEntity
  8
実線
100
AcDbLine
 10
765.5750044568655
 20
383.8271512208712
 30
0.0
 11
765.5750044568655
 21
370.3271512208712
 31
0.0
  0
LINE
  5
34A
102
{ACAD_REACTORS
330
567
102
}
330
1F
100
AcDbEntity
  8
実線
100
AcDbLine
 10
853.1646657846454
 20
370.3271512208712
 30
0.0
 11
853.1646657846454
 21
383.8271512208712
 31
0.0
  0
LINE
  5
34B
102
{ACAD_REACTORS
330
567
102
}
330
1F
100
AcDbEntity
  8
実線
100
AcDbLine
 10
799.5447214847622
 20
370.3271512208712
 30
0.0
 11
799.5447214847622
 21
383.8271512208712
 31
0.0
  0
LINE
  5
34C
102
{ACAD_REACTORS
330
567
102
}
330
1F
100
AcDbEntity
  8
実線
100
AcDbLine
 10
898.8546936347043
 20
488.8271512208712
 30
0.0
 11
898.8546936347043
 21
589.8271512208712
 31
0.0
  0
LINE
  5
34D
102
{ACAD_REACTORS
330
567
102
}
330
1F
100
AcDbEntity
  8
実線
100
AcDbLine
 10
753.8546936347054
 20
589.8271512208712
 30
0.0
 11
753.8546936347054
 21
488.8271512208712
 31
0.0
  0
LINE
  5
34E
102
{ACAD_REACTORS
330
567
102
}
330
1F
100
AcDbEntity
  8
実線
100
AcDbLine
 10
898.8546936347043
 20
488.8271512208712
 30
0.0
 11
753.8546936347054
 21
488.8271512208712
 31
0.0
  0
LINE
  5
34F
102
{ACAD_REACTORS
330
567
102
}
330
1F
100
AcDbEntity
  8
実線
100
AcDbLine
 10
893.8546936347043
 20
486.8271512208711
 30
0.0
 11
893.8546936347043
 21
488.8271512208712
 31
0.0
  0
LINE
  5
350
102
{ACAD_REACTORS
330
567
102
}
330
1F
100
AcDbEntity
  8
実線
100
AcDbLine
 10
758.8546936347043
 20
488.8271512208712
 30
0.0
 11
758.8546936347043
 21
486.8271512208711
 31
0.0
  0
LINE
  5
351
102
{ACAD_REACTORS
330
567
102
}
330
1F
100
AcDbEntity
  8
実線
100
AcDbLine
 10
893.8546936347043
 20
486.8271512208711
 30
0.0
 11
758.8546936347043
 21
486.8271512208711
 31
0.0
  0
LINE
  5
352
102
{ACAD_REACTORS
330
567
102
}
330
1F
100
AcDbEntity
  8
実線
100
AcDbLine
 10
834.3546936347042
 20
383.8712477694693
 30
0.0
 11
834.3546936347042
 21
421.8271512208712
 31
0.0
  0
LINE
  5
353
102
{ACAD_REACTORS
330
567
102
}
330
1F
100
AcDbEntity
  8
実線
100
AcDbLine
 10
818.3546936347042
 20
421.8271512208712
 30
0.0
 11
818.3546936347042
 21
383.8712477694693
 31
0.0
  0
ARC
  5
354
102
{ACAD_REACTORS
330
567
102
}
330
1F
100
AcDbEntity
  8
実線
100
AcDbCircle
 10
831.0546936347043
 20
435.3271512208712
 30
0.0
 40
53.0
100
AcDbArc
 50
194.7568156063301
 51
256.3360910030539
  0
LINE
  5
355
102
{ACAD_REACTORS
330
567
102
}
330
1F
100
AcDbEntity
  8
実線
100
AcDbLine
 10
764.0546936347043
 20
486.8271512208711
 30
0.0
 11
764.0546936347043
 21
435.3271512208712
 31
0.0
  0
ARC
  5
356
102
{ACAD_REACTORS
330
567
102
}
330
1F
100
AcDbEntity
  8
実線
100
AcDbCircle
 10
831.0546936347043
 20
435.3271512208712
 30
0.0
 40
66.99999999999993
100
AcDbArc
 50
180.0
 51
230.2334159308337
  0
ARC
  5
357
102
{ACAD_REACTORS
330
567
102
}
330
1F
100
AcDbEntity
  8
実線
100
AcDbCircle
 10
821.6546936347041
 20
435.3271512208712
 30
0.0
 40
53.0
100
AcDbArc
 50
283.663908996946
 51
345.2431843936698
  0
ARC
  5
358
102
{ACAD_REACTORS
330
567
102
}
330
1F
100
AcDbEntity
  8
実線
100
AcDbCircle
 10
821.6546936347041
 20
435.3271512208712
 30
0.0
 40
66.99999999999993
100
AcDbArc
 50
309.7665840691663
 51
0.0
  0
LINE
  5
359
102
{ACAD_REACTORS
330
567
102
}
330
1F
100
AcDbEntity
  8
実線
100
AcDbLine
 10
888.6546936347043
 20
486.8271512208711
 30
0.0
 11
888.6546936347043
 21
435.3271512208712
 31
0.0
  0
LINE
  5
35A
102
{ACAD_REACTORS
330
567
102
}
330
1F
100
AcDbEntity
  8
実線
100
AcDbLine
 10
778.2116775264464
 20
421.8271512208712
 30
0.0
 11
874.4977097429623
 21
421.8271512208712
 31
0.0
  0
LINE
  5
35B
102
{ACAD_REACTORS
330
567
102
}
330
1F
100
AcDbEntity
  8
実線
100
AcDbLine
 10
778.2116775264464
 20
421.8271512208712
 30
0.0
 11
778.2116775264464
 21
486.8271512208711
 31
0.0
  0
LINE
  5
35C
102
{ACAD_REACTORS
330
567
102
}
330
1F
100
AcDbEntity
  8
実線
100
AcDbLine
 10
874.4977097429623
 20
486.8271512208711
 30
0.0
 11
874.4977097429623
 21
421.8271512208712
 31
0.0
  0
LINE
  5
35D
102
{ACAD_REACTORS
330
567
102
}
330
1F
100
AcDbEntity
  8
実線
100
AcDbLine
 10
811.3546936347043
 20
648.7771512208712
 30
0.0
 11
811.3546936347043
 21
649.8271512208711
 31
0.0
  0
LINE
  5
35E
102
{ACAD_REACTORS
330
567
102
}
330
1F
100
AcDbEntity
  8
実線
100
AcDbLine
 10
811.3546936347043
 20
632.7771512208713
 30
0.0
 11
811.3546936347043
 21
640.8771512208712
 31
0.0
  0
LINE
  5
35F
102
{ACAD_REACTORS
330
567
102
}
330
1F
100
AcDbEntity
  8
実線
100
AcDbLine
 10
811.3546936347043
 20
611.8271512208239
 30
0.0
 11
811.3546936347043
 21
624.8771512208712
 31
0.0
  0
LINE
  5
360
102
{ACAD_REACTORS
330
567
102
}
330
1F
100
AcDbEntity
  8
実線
100
AcDbLine
 10
818.8546936347043
 20
649.8271512208711
 30
0.0
 11
811.3546936347043
 21
649.8271512208711
 31
0.0
  0
LINE
  5
361
102
{ACAD_REACTORS
330
567
102
}
330
1F
100
AcDbEntity
  8
実線
100
AcDbLine
 10
851.3546936347042
 20
609.8271512208712
 30
0.0
 11
851.3546936347042
 21
611.8271512208711
 31
0.0
  0
LINE
  5
362
102
{ACAD_REACTORS
330
567
102
}
330
1F
100
AcDbEntity
  8
実線
100
AcDbLine
 10
801.3546936347042
 20
611.8271512208711
 30
0.0
 11
801.3546936347042
 21
609.8271512208712
 31
0.0
  0
LINE
  5
363
102
{ACAD_REACTORS
330
567
102
}
330
1F
100
AcDbEntity
  8
実線
100
AcDbLine
 10
851.3546936347042
 20
611.8271512208711
 30
0.0
 11
801.3546936347042
 21
611.8271512208711
 31
0.0
  0
LINE
  5
364
102
{ACAD_REACTORS
330
567
102
}
330
1F
100
AcDbEntity
  8
実線
100
AcDbLine
 10
756.8546936347043
 20
594.8271512208711
 30
0.0
 11
895.8546936347042
 21
594.8271512208711
 31
0.0
  0
ARC
  5
365
102
{ACAD_REACTORS
330
567
102
}
330
1F
100
AcDbEntity
  8
実線
100
AcDbCircle
 10
895.8546936347042
 20
591.8271512208711
 30
0.0
 40
3.0
100
AcDbArc
 50
0.0
 51
90.0
  0
ARC
  5
366
102
{ACAD_REACTORS
330
567
102
}
330
1F
100
AcDbEntity
  8
実線
100
AcDbCircle
 10
756.8546936347043
 20
591.8271512208711
 30
0.0
 40
3.0
100
AcDbArc
 50
90.0
 51
180.0
  0
LINE
  5
367
102
{ACAD_REACTORS
330
567
102
}
330
1F
100
AcDbEntity
  8
実線
100
AcDbLine
 10
753.8546936347054
 20
589.8271512208712
 30
0.0
 11
898.8546936347043
 21
589.8271512208712
 31
0.0
  0
LINE
  5
368
102
{ACAD_REACTORS
330
567
102
}
330
1F
100
AcDbEntity
  8
実線
100
AcDbLine
 10
898.8546936347043
 20
589.8271512208712
 30
0.0
 11
898.8546936347043
 21
591.8271512208711
 31
0.0
  0
LINE
  5
369
102
{ACAD_REACTORS
330
567
102
}
330
1F
100
AcDbEntity
  8
実線
100
AcDbLine
 10
753.8546936347054
 20
591.8271512208711
 30
0.0
 11
753.8546936347054
 21
589.8271512208712
 31
0.0
  0
LINE
  5
36A
102
{ACAD_REACTORS
330
567
102
}
330
1F
100
AcDbEntity
  8
実線
100
AcDbLine
 10
865.3546936347034
 20
293.8271512208712
 30
0.0
 11
787.3546936347042
 21
293.8271512208712
 31
0.0
  0
ARC
  5
36B
102
{ACAD_REACTORS
330
567
102
}
330
1F
100
AcDbEntity
  8
実線
100
AcDbCircle
 10
787.3546936347042
 20
309.8271512208712
 30
0.0
 40
16.0
100
AcDbArc
 50
227.2544307753393
 51
270.0
  0
ARC
  5
36C
102
{ACAD_REACTORS
330
567
102
}
330
1F
100
AcDbEntity
  8
実線
100
AcDbCircle
 10
865.3546936347034
 20
309.8271512208712
 30
0.0
 40
16.0
100
AcDbArc
 50
270.0
 51
312.7455692246607
  0
LINE
  5
36D
102
{ACAD_REACTORS
330
567
102
}
330
1F
100
AcDbEntity
  8
実線
100
AcDbLine
 10
887.1343828125425
 20
355.3271512208712
 30
0.0
 11
887.1343828125425
 21
370.3271512208712
 31
0.0
  0
LINE
  5
36E
102
{ACAD_REACTORS
330
567
102
}
330
1F
100
AcDbEntity
  8
実線
100
AcDbLine
 10
887.1343828125425
 20
355.3271512208712
 30
0.0
 11
853.1646657846446
 21
355.3271512208712
 31
0.0
  0
LINE
  5
36F
102
{ACAD_REACTORS
330
567
102
}
330
1F
100
AcDbEntity
  8
実線
100
AcDbLine
 10
765.5750044568655
 20
355.3271512208712
 30
0.0
 11
799.5447214847622
 21
355.3271512208712
 31
0.0
  0
LINE
  5
370
102
{ACAD_REACTORS
330
567
102
}
330
1F
100
AcDbEntity
  8
実線
100
AcDbLine
 10
765.5750044568655
 20
370.3271512208712
 30
0.0
 11
765.5750044568655
 21
355.3271512208712
 31
0.0
  0
LINE
  5
371
102
{ACAD_REACTORS
330
567
102
}
330
1F
100
AcDbEntity
  8
実線
100
AcDbLine
 10
853.1646657846446
 20
355.3271512208712
 30
0.0
 11
853.1646657846446
 21
370.3271512208712
 31
0.0
  0
LINE
  5
372
102
{ACAD_REACTORS
330
567
102
}
330
1F
100
AcDbEntity
  8
実線
100
AcDbLine
 10
799.5447214847622
 20
355.3271512208712
 30
0.0
 11
799.5447214847622
 21
370.3271512208712
 31
0.0
  0
CIRCLE
  5
373
102
{ACAD_REACTORS
330
568
102
}
330
1F
100
AcDbEntity
  8
実線
100
AcDbCircle
 10
586.3546936346843
 20
329.8271512208712
 30
0.0
 40
38.75
  0
LINE
  5
374
102
{ACAD_REACTORS
330
568
102
}
330
1F
100
AcDbEntity
  8
実線
100
AcDbLine
 10
632.3546936346943
 20
604.8271512208712
 30
0.0
 11
540.3546936346942
 21
604.8271512208712
 31
0.0
  0
LINE
  5
375
102
{ACAD_REACTORS
330
568
102
}
330
1F
100
AcDbEntity
  8
実線
100
AcDbLine
 10
632.3546936346943
 20
594.8271512208711
 30
0.0
 11
632.3546936346943
 21
604.8271512208712
 31
0.0
  0
LINE
  5
376
102
{ACAD_REACTORS
330
568
102
}
330
1F
100
AcDbEntity
  8
実線
100
AcDbLine
 10
540.3546936346942
 20
604.8271512208712
 30
0.0
 11
540.3546936346942
 21
594.8271512208711
 31
0.0
  0
LINE
  5
377
102
{ACAD_REACTORS
330
568
102
}
330
1F
100
AcDbEntity
  8
実線
100
AcDbLine
 10
594.3546936346942
 20
611.8271512208711
 30
0.0
 11
594.3546936346942
 21
642.3271512208712
 31
0.0
  0
LINE
  5
378
102
{ACAD_REACTORS
330
568
102
}
330
1F
100
AcDbEntity
  8
実線
100
AcDbLine
 10
578.3546936346943
 20
642.3271512208712
 30
0.0
 11
578.3546936346943
 21
611.8271512208711
 31
0.0
  0
LINE
  5
379
102
{ACAD_REACTORS
330
568
102
}
330
1F
100
AcDbEntity
  8
実線
100
AcDbLine
 10
573.2546936346944
 20
640.8771512208712
 30
0.0
 11
565.3546936346942
 21
640.8771512208712
 31
0.0
  0
LINE
  5
37A
102
{ACAD_REACTORS
330
568
102
}
330
1F
100
AcDbEntity
  8
実線
100
AcDbLine
 10
565.3546936346942
 20
640.8771512208712
 30
0.0
 11
565.3546936346942
 21
648.7771512208712
 31
0.0
  0
LINE
  5
37B
102
{ACAD_REACTORS
330
568
102
}
330
1F
100
AcDbEntity
  8
実線
100
AcDbLine
 10
573.2546936346944
 20
648.7771512208712
 30
0.0
 11
573.2546936346944
 21
640.8771512208712
 31
0.0
  0
LINE
  5
37C
102
{ACAD_REACTORS
330
568
102
}
330
1F
100
AcDbEntity
  8
実線
100
AcDbLine
 10
565.3546936346942
 20
648.7771512208712
 30
0.0
 11
573.2546936346944
 21
648.7771512208712
 31
0.0
  0
LINE
  5
37D
102
{ACAD_REACTORS
330
568
102
}
330
1F
100
AcDbEntity
  8
実線
100
AcDbLine
 10
563.3546936346943
 20
609.8271512208712
 30
0.0
 11
561.3546936346942
 21
609.8271512208712
 31
0.0
  0
LINE
  5
37E
102
{ACAD_REACTORS
330
568
102
}
330
1F
100
AcDbEntity
  8
実線
100
AcDbLine
 10
611.3546936346942
 20
604.8271512208712
 30
0.0
 11
611.3546936346942
 21
609.8271512208712
 31
0.0
  0
LINE
  5
37F
102
{ACAD_REACTORS
330
568
102
}
330
1F
100
AcDbEntity
  8
実線
100
AcDbLine
 10
561.3546936346942
 20
609.8271512208712
 30
0.0
 11
561.3546936346942
 21
604.8271512208712
 31
0.0
  0
CIRCLE
  5
380
102
{ACAD_REACTORS
330
568
102
}
330
1F
100
AcDbEntity
  8
実線
100
AcDbCircle
 10
569.3046936346943
 20
644.8271512208711
 30
0.0
 40
1.5
  0
LINE
  5
381
102
{ACAD_REACTORS
330
568
102
}
330
1F
100
AcDbEntity
  8
実線
100
AcDbLine
 10
565.3546936346942
 20
624.8771512208712
 30
0.0
 11
565.3546936346942
 21
632.7771512208713
 31
0.0
  0
LINE
  5
382
102
{ACAD_REACTORS
330
568
102
}
330
1F
100
AcDbEntity
  8
実線
100
AcDbLine
 10
573.2546936346944
 20
632.7771512208713
 30
0.0
 11
573.2546936346944
 21
624.8771512208712
 31
0.0
  0
LINE
  5
383
102
{ACAD_REACTORS
330
568
102
}
330
1F
100
AcDbEntity
  8
実線
100
AcDbLine
 10
565.3546936346942
 20
632.7771512208713
 30
0.0
 11
573.2546936346944
 21
632.7771512208713
 31
0.0
  0
LINE
  5
384
102
{ACAD_REACTORS
330
568
102
}
330
1F
100
AcDbEntity
  8
実線
100
AcDbLine
 10
573.2546936346944
 20
624.8771512208712
 30
0.0
 11
565.3546936346942
 21
624.8771512208712
 31
0.0
  0
CIRCLE
  5
385
102
{ACAD_REACTORS
330
568
102
}
330
1F
100
AcDbEntity
  8
実線
100
AcDbCircle
 10
569.3046936346943
 20
628.8271512208711
 30
0.0
 40
1.5
  0
LINE
  5
386
102
{ACAD_REACTORS
330
568
102
}
330
1F
100
AcDbEntity
  8
実線
100
AcDbLine
 10
598.8546936346942
 20
647.3271512208712
 30
0.0
 11
573.8546936346942
 21
647.3271512208712
 31
0.0
  0
LINE
  5
387
102
{ACAD_REACTORS
330
568
102
}
330
1F
100
AcDbEntity
  8
実線
100
AcDbLine
 10
573.8546936346942
 20
642.3271512208712
 30
0.0
 11
598.8546936346942
 21
642.3271512208712
 31
0.0
  0
LINE
  5
388
102
{ACAD_REACTORS
330
568
102
}
330
1F
100
AcDbEntity
  8
実線
100
AcDbLine
 10
598.8546936346942
 20
642.3271512208712
 30
0.0
 11
598.8546936346942
 21
647.3271512208712
 31
0.0
  0
LINE
  5
389
102
{ACAD_REACTORS
330
568
102
}
330
1F
100
AcDbEntity
  8
実線
100
AcDbLine
 10
573.8546936346942
 20
647.3271512208712
 30
0.0
 11
573.8546936346942
 21
642.3271512208712
 31
0.0
  0
LINE
  5
38A
102
{ACAD_REACTORS
330
568
102
}
330
1F
100
AcDbEntity
  8
実線
100
AcDbLine
 10
593.8546936346942
 20
652.6271512208713
 30
0.0
 11
578.8546936346943
 21
652.6271512208713
 31
0.0
  0
LINE
  5
38B
102
{ACAD_REACTORS
330
568
102
}
330
1F
100
AcDbEntity
  8
実線
100
AcDbLine
 10
593.8546936346942
 20
647.3271512208712
 30
0.0
 11
593.8546936346942
 21
652.6271512208713
 31
0.0
  0
LINE
  5
38C
102
{ACAD_REACTORS
330
568
102
}
330
1F
100
AcDbEntity
  8
実線
100
AcDbLine
 10
578.8546936346943
 20
652.6271512208713
 30
0.0
 11
578.8546936346943
 21
647.3271512208712
 31
0.0
  0
LINE
  5
38D
102
{ACAD_REACTORS
330
568
102
}
330
1F
100
AcDbEntity
  8
実線
100
AcDbLine
 10
618.1046936347042
 20
287.4271512208712
 30
0.0
 11
618.1046936347042
 21
293.8271512208712
 31
0.0
  0
LINE
  5
38E
102
{ACAD_REACTORS
330
568
102
}
330
1F
100
AcDbEntity
  8
実線
100
AcDbLine
 10
554.6046936347043
 20
293.8271512208712
 30
0.0
 11
554.6046936347043
 21
287.4271512208712
 31
0.0
  0
LINE
  5
38F
102
{ACAD_REACTORS
330
568
102
}
330
1F
100
AcDbEntity
  8
実線
100
AcDbLine
 10
625.1046936347043
 20
280.8271512208712
 30
0.0
 11
547.6046936347042
 21
280.8271512208712
 31
0.0
  0
LINE
  5
390
102
{ACAD_REACTORS
330
568
102
}
330
1F
100
AcDbEntity
  8
実線
100
AcDbLine
 10
625.1046936347043
 20
280.8271512208712
 30
0.0
 11
625.1046936347043
 21
284.3271512208712
 31
0.0
  0
LINE
  5
391
102
{ACAD_REACTORS
330
568
102
}
330
1F
100
AcDbEntity
  8
実線
100
AcDbLine
 10
547.6046936347042
 20
284.3271512208712
 30
0.0
 11
547.6046936347042
 21
280.8271512208712
 31
0.0
  0
LINE
  5
392
102
{ACAD_REACTORS
330
568
102
}
330
1F
100
AcDbEntity
  8
実線
100
AcDbLine
 10
625.1046936347043
 20
284.3271512208712
 30
0.0
 11
547.6046936347042
 21
284.3271512208712
 31
0.0
  0
LINE
  5
393
102
{ACAD_REACTORS
330
568
102
}
330
1F
100
AcDbEntity
  8
実線
100
AcDbLine
 10
618.1046936347042
 20
287.4271512208712
 30
0.0
 11
554.6046936347043
 21
287.4271512208712
 31
0.0
  0
LINE
  5
394
102
{ACAD_REACTORS
330
568
102
}
330
1F
100
AcDbEntity
  8
実線
100
AcDbLine
 10
554.6046936347043
 20
287.4271512208712
 30
0.0
 11
547.6046936347042
 21
284.3271512208712
 31
0.0
  0
LINE
  5
395
102
{ACAD_REACTORS
330
568
102
}
330
1F
100
AcDbEntity
  8
実線
100
AcDbLine
 10
625.1046936347043
 20
284.3271512208712
 30
0.0
 11
618.1046936347042
 21
287.4271512208712
 31
0.0
  0
LINE
  5
396
102
{ACAD_REACTORS
330
568
102
}
330
1F
100
AcDbEntity
  8
実線
100
AcDbLine
 10
525.5750044568554
 20
383.8271512208712
 30
0.0
 11
647.1343828125334
 21
383.8271512208712
 31
0.0
  0
LINE
  5
397
102
{ACAD_REACTORS
330
568
102
}
330
1F
100
AcDbEntity
  8
実線
100
AcDbLine
 10
647.1343828125334
 20
370.3271512208712
 30
0.0
 11
647.1343828125334
 21
383.8271512208712
 31
0.0
  0
LINE
  5
398
102
{ACAD_REACTORS
330
568
102
}
330
1F
100
AcDbEntity
  8
実線
100
AcDbLine
 10
525.5750044568554
 20
383.8271512208712
 30
0.0
 11
525.5750044568554
 21
370.3271512208712
 31
0.0
  0
LINE
  5
399
102
{ACAD_REACTORS
330
568
102
}
330
1F
100
AcDbEntity
  8
実線
100
AcDbLine
 10
613.1646657846354
 20
370.3271512208712
 30
0.0
 11
613.1646657846354
 21
383.8271512208712
 31
0.0
  0
LINE
  5
39A
102
{ACAD_REACTORS
330
568
102
}
330
1F
100
AcDbEntity
  8
実線
100
AcDbLine
 10
559.5447214847533
 20
370.3271512208712
 30
0.0
 11
559.5447214847533
 21
383.8271512208712
 31
0.0
  0
LINE
  5
39B
102
{ACAD_REACTORS
330
568
102
}
330
1F
100
AcDbEntity
  8
実線
100
AcDbLine
 10
513.8546936346942
 20
488.8271512208712
 30
0.0
 11
658.8546936346943
 21
488.8271512208712
 31
0.0
  0
LINE
  5
39C
102
{ACAD_REACTORS
330
568
102
}
330
1F
100
AcDbEntity
  8
実線
100
AcDbLine
 10
658.8546936346943
 20
589.8271512208712
 30
0.0
 11
513.8546936346942
 21
589.8271512208712
 31
0.0
  0
LINE
  5
39D
102
{ACAD_REACTORS
330
568
102
}
330
1F
100
AcDbEntity
  8
実線
100
AcDbLine
 10
658.8546936346943
 20
488.8271512208712
 30
0.0
 11
658.8546936346943
 21
589.8271512208712
 31
0.0
  0
LINE
  5
39E
102
{ACAD_REACTORS
330
568
102
}
330
1F
100
AcDbEntity
  8
実線
100
AcDbLine
 10
513.8546936346942
 20
589.8271512208712
 30
0.0
 11
513.8546936346942
 21
488.8271512208712
 31
0.0
  0
LINE
  5
39F
102
{ACAD_REACTORS
330
568
102
}
330
1F
100
AcDbEntity
  8
実線
100
AcDbLine
 10
518.8546936346942
 20
486.8271512208711
 30
0.0
 11
653.8546936346943
 21
486.8271512208711
 31
0.0
  0
LINE
  5
3A0
102
{ACAD_REACTORS
330
568
102
}
330
1F
100
AcDbEntity
  8
実線
100
AcDbLine
 10
653.8546936346943
 20
486.8271512208711
 30
0.0
 11
653.8546936346943
 21
488.8271512208712
 31
0.0
  0
LINE
  5
3A1
102
{ACAD_REACTORS
330
568
102
}
330
1F
100
AcDbEntity
  8
実線
100
AcDbLine
 10
518.8546936346942
 20
488.8271512208712
 30
0.0
 11
518.8546936346942
 21
486.8271512208711
 31
0.0
  0
LINE
  5
3A2
102
{ACAD_REACTORS
330
568
102
}
330
1F
100
AcDbEntity
  8
実線
100
AcDbLine
 10
536.3546936346942
 20
486.8271512208711
 30
0.0
 11
536.3546936346942
 21
421.8271512208712
 31
0.0
  0
LINE
  5
3A3
102
{ACAD_REACTORS
330
568
102
}
330
1F
100
AcDbEntity
  8
実線
100
AcDbLine
 10
536.3546936346942
 20
421.8271512208712
 30
0.0
 11
572.8546936346942
 21
421.8271512208712
 31
0.0
  0
LINE
  5
3A4
102
{ACAD_REACTORS
330
568
102
}
330
1F
100
AcDbEntity
  8
実線
100
AcDbLine
 10
599.8546936346943
 20
421.8271512208712
 30
0.0
 11
636.3546936346942
 21
421.8271512208712
 31
0.0
  0
LINE
  5
3A5
102
{ACAD_REACTORS
330
568
102
}
330
1F
100
AcDbEntity
  8
実線
100
AcDbLine
 10
636.3546936346942
 20
421.8271512208712
 30
0.0
 11
636.3546936346942
 21
486.8271512208711
 31
0.0
  0
LINE
  5
3A6
102
{ACAD_REACTORS
330
568
102
}
330
1F
100
AcDbEntity
  8
実線
100
AcDbLine
 10
599.8546936346943
 20
383.8271512208712
 30
0.0
 11
599.8546936346943
 21
486.8271512208711
 31
0.0
  0
LINE
  5
3A7
102
{ACAD_REACTORS
330
568
102
}
330
1F
100
AcDbEntity
  8
実線
100
AcDbLine
 10
572.8546936346942
 20
383.8271512208712
 30
0.0
 11
572.8546936346942
 21
486.8271512208711
 31
0.0
  0
LINE
  5
3A8
102
{ACAD_REACTORS
330
568
102
}
330
1F
100
AcDbEntity
  8
実線
100
AcDbLine
 10
563.3546936346943
 20
609.8271512208712
 30
0.0
 11
611.3546936346942
 21
609.8271512208712
 31
0.0
  0
LINE
  5
3A9
102
{ACAD_REACTORS
330
568
102
}
330
1F
100
AcDbEntity
  8
実線
100
AcDbLine
 10
565.3546936346942
 20
611.8271512208239
 30
0.0
 11
611.3546936346942
 21
611.8271512208239
 31
0.0
  0
LINE
  5
3AA
102
{ACAD_REACTORS
330
568
102
}
330
1F
100
AcDbEntity
  8
実線
100
AcDbLine
 10
565.3546936346942
 20
648.7771512208712
 30
0.0
 11
565.3546936346942
 21
649.8271512208711
 31
0.0
  0
LINE
  5
3AB
102
{ACAD_REACTORS
330
568
102
}
330
1F
100
AcDbEntity
  8
実線
100
AcDbLine
 10
565.3546936346942
 20
632.7771512208713
 30
0.0
 11
565.3546936346942
 21
640.8771512208712
 31
0.0
  0
LINE
  5
3AC
102
{ACAD_REACTORS
330
568
102
}
330
1F
100
AcDbEntity
  8
実線
100
AcDbLine
 10
565.3546936346942
 20
611.8271512208239
 30
0.0
 11
565.3546936346942
 21
624.8771512208712
 31
0.0
  0
LINE
  5
3AD
102
{ACAD_REACTORS
330
568
102
}
330
1F
100
AcDbEntity
  8
実線
100
AcDbLine
 10
565.3546936346942
 20
649.8271512208711
 30
0.0
 11
563.3546936346943
 21
649.8271512208711
 31
0.0
  0
LINE
  5
3AE
102
{ACAD_REACTORS
330
568
102
}
330
1F
100
AcDbEntity
  8
実線
100
AcDbLine
 10
563.3546936346943
 20
609.8271512208712
 30
0.0
 11
563.3546936346943
 21
649.8271512208711
 31
0.0
  0
LINE
  5
3AF
102
{ACAD_REACTORS
330
568
102
}
330
1F
100
AcDbEntity
  8
実線
100
AcDbLine
 10
566.3546936347134
 20
609.8271512208712
 30
0.0
 11
566.3546936347134
 21
611.8271512208239
 31
0.0
  0
LINE
  5
3B0
102
{ACAD_REACTORS
330
568
102
}
330
1F
100
AcDbEntity
  8
実線
100
AcDbLine
 10
611.3546936346942
 20
609.8271512208712
 30
0.0
 11
611.3546936346942
 21
611.8271512208711
 31
0.0
  0
LINE
  5
3B1
102
{ACAD_REACTORS
330
568
102
}
330
1F
100
AcDbEntity
  8
実線
100
AcDbLine
 10
655.8546936346942
 20
594.8271512208711
 30
0.0
 11
516.8546936346943
 21
594.8271512208711
 31
0.0
  0
ARC
  5
3B2
102
{ACAD_REACTORS
330
568
102
}
330
1F
100
AcDbEntity
  8
実線
100
AcDbCircle
 10
655.8546936346942
 20
591.8271512208711
 30
0.0
 40
3.0
100
AcDbArc
 50
0.0
 51
90.0
  0
ARC
  5
3B3
102
{ACAD_REACTORS
330
568
102
}
330
1F
100
AcDbEntity
  8
実線
100
AcDbCircle
 10
516.8546936346943
 20
591.8271512208711
 30
0.0
 40
3.0
100
AcDbArc
 50
90.0
 51
180.0
  0
LINE
  5
3B4
102
{ACAD_REACTORS
330
568
102
}
330
1F
100
AcDbEntity
  8
実線
100
AcDbLine
 10
658.8546936346943
 20
589.8271512208712
 30
0.0
 11
658.8546936346943
 21
591.8271512208711
 31
0.0
  0
LINE
  5
3B5
102
{ACAD_REACTORS
330
568
102
}
330
1F
100
AcDbEntity
  8
実線
100
AcDbLine
 10
513.8546936346942
 20
591.8271512208711
 30
0.0
 11
513.8546936346942
 21
589.8271512208712
 31
0.0
  0
LINE
  5
3B6
102
{ACAD_REACTORS
330
568
102
}
330
1F
100
AcDbEntity
  8
実線
100
AcDbLine
 10
525.5750044568653
 20
370.3271512208712
 30
0.0
 11
647.1343828125434
 21
370.3271512208712
 31
0.0
  0
LINE
  5
3B7
102
{ACAD_REACTORS
330
568
102
}
330
1F
100
AcDbEntity
  8
実線
100
AcDbLine
 10
641.3546936347042
 20
309.8271512208712
 30
0.0
 11
641.3546936347042
 21
355.3271512208712
 31
0.0
  0
LINE
  5
3B8
102
{ACAD_REACTORS
330
568
102
}
330
1F
100
AcDbEntity
  8
実線
100
AcDbLine
 10
531.3546936347043
 20
355.3271512208712
 30
0.0
 11
531.3546936347043
 21
309.8271512208712
 31
0.0
  0
LINE
  5
3B9
102
{ACAD_REACTORS
330
568
102
}
330
1F
100
AcDbEntity
  8
実線
100
AcDbLine
 10
572.0172426757444
 20
293.8271512208712
 30
0.0
 11
547.3546936347043
 21
293.8271512208712
 31
0.0
  0
LINE
  5
3BA
102
{ACAD_REACTORS
330
568
102
}
330
1F
100
AcDbEntity
  8
実線
100
AcDbLine
 10
625.3546936347042
 20
293.8271512208712
 30
0.0
 11
600.6921445936243
 21
293.8271512208712
 31
0.0
  0
ARC
  5
3BB
102
{ACAD_REACTORS
330
568
102
}
330
1F
100
AcDbEntity
  8
実線
100
AcDbCircle
 10
547.3546936347043
 20
309.8271512208712
 30
0.0
 40
16.0
100
AcDbArc
 50
180.0
 51
270.0
  0
ARC
  5
3BC
102
{ACAD_REACTORS
330
568
102
}
330
1F
100
AcDbEntity
  8
実線
100
AcDbCircle
 10
625.3546936347042
 20
309.8271512208712
 30
0.0
 40
16.0
100
AcDbArc
 50
270.0
 51
0.0
  0
LINE
  5
3BD
102
{ACAD_REACTORS
330
568
102
}
330
1F
100
AcDbEntity
  8
実線
100
AcDbLine
 10
647.1343828125434
 20
355.3271512208712
 30
0.0
 11
647.1343828125434
 21
370.3271512208712
 31
0.0
  0
LINE
  5
3BE
102
{ACAD_REACTORS
330
568
102
}
330
1F
100
AcDbEntity
  8
実線
100
AcDbLine
 10
647.1343828125434
 20
355.3271512208712
 30
0.0
 11
615.5319536157032
 21
355.3271512208712
 31
0.0
  0
LINE
  5
3BF
102
{ACAD_REACTORS
330
568
102
}
330
1F
100
AcDbEntity
  8
実線
100
AcDbLine
 10
525.5750044568653
 20
355.3271512208712
 30
0.0
 11
557.1774336536653
 21
355.3271512208712
 31
0.0
  0
LINE
  5
3C0
102
{ACAD_REACTORS
330
568
102
}
330
1F
100
AcDbEntity
  8
実線
100
AcDbLine
 10
525.5750044568653
 20
370.3271512208712
 30
0.0
 11
525.5750044568653
 21
355.3271512208712
 31
0.0
  0
LINE
  5
3C1
102
{ACAD_REACTORS
330
568
102
}
330
1F
100
AcDbEntity
  8
実線
100
AcDbLine
 10
613.1646657846451
 20
357.8054980862294
 30
0.0
 11
613.1646657846451
 21
370.3271512208712
 31
0.0
  0
LINE
  5
3C2
102
{ACAD_REACTORS
330
568
102
}
330
1F
100
AcDbEntity
  8
実線
100
AcDbLine
 10
559.5447214847633
 20
357.805498086268
 30
0.0
 11
559.5447214847633
 21
370.3271512208712
 31
0.0
  0
LINE
  5
3C3
102
{ACAD_REACTORS
330
56B
102
}
330
1F
100
AcDbEntity
  8
実線
100
AcDbLine
 10
152.3546936347144
 20
594.8271512208711
 30
0.0
 11
152.3546936347144
 21
604.8271512208712
 31
0.0
  0
LINE
  5
3C4
102
{ACAD_REACTORS
330
56B
102
}
330
1F
100
AcDbEntity
  8
実線
100
AcDbLine
 10
60.35469363471463
 20
604.8271512208712
 30
0.0
 11
60.35469363471463
 21
594.8271512208711
 31
0.0
  0
LINE
  5
3C5
102
{ACAD_REACTORS
330
56B
102
}
330
1F
100
AcDbEntity
  8
実線
100
AcDbLine
 10
152.3546936347144
 20
604.8271512208712
 30
0.0
 11
60.35469363471463
 21
604.8271512208712
 31
0.0
  0
LINE
  5
3C6
102
{ACAD_REACTORS
330
56B
102
}
330
1F
100
AcDbEntity
  8
実線
100
AcDbLine
 10
114.3546936347146
 20
611.8271512208711
 30
0.0
 11
114.3546936347146
 21
642.3271512208712
 31
0.0
  0
LINE
  5
3C7
102
{ACAD_REACTORS
330
56B
102
}
330
1F
100
AcDbEntity
  8
実線
100
AcDbLine
 10
98.35469363471453
 20
642.3271512208712
 30
0.0
 11
98.35469363471453
 21
611.8271512208711
 31
0.0
  0
LINE
  5
3C8
102
{ACAD_REACTORS
330
56B
102
}
330
1F
100
AcDbEntity
  8
実線
100
AcDbLine
 10
119.4546936347144
 20
648.7771512208712
 30
0.0
 11
127.3546936347144
 21
648.7771512208712
 31
0.0
  0
LINE
  5
3C9
102
{ACAD_REACTORS
330
56B
102
}
330
1F
100
AcDbEntity
  8
実線
100
AcDbLine
 10
119.4546936347144
 20
640.8771512208712
 30
0.0
 11
119.4546936347144
 21
648.7771512208712
 31
0.0
  0
LINE
  5
3CA
102
{ACAD_REACTORS
330
56B
102
}
330
1F
100
AcDbEntity
  8
実線
100
AcDbLine
 10
127.3546936347144
 20
640.8771512208712
 30
0.0
 11
119.4546936347144
 21
640.8771512208712
 31
0.0
  0
LINE
  5
3CB
102
{ACAD_REACTORS
330
56B
102
}
330
1F
100
AcDbEntity
  8
実線
100
AcDbLine
 10
131.3546936347144
 20
604.8271512208712
 30
0.0
 11
131.3546936347144
 21
609.8271512208712
 31
0.0
  0
LINE
  5
3CC
102
{ACAD_REACTORS
330
56B
102
}
330
1F
100
AcDbEntity
  8
実線
100
AcDbLine
 10
81.35469363471463
 20
609.8271512208712
 30
0.0
 11
81.35469363471463
 21
604.8271512208712
 31
0.0
  0
LINE
  5
3CD
102
{ACAD_REACTORS
330
56B
102
}
330
1F
100
AcDbEntity
  8
実線
100
AcDbLine
 10
81.35469363471463
 20
609.8271512208712
 30
0.0
 11
131.3546936347144
 21
609.8271512208712
 31
0.0
  0
LINE
  5
3CE
102
{ACAD_REACTORS
330
56B
102
}
330
1F
100
AcDbEntity
  8
実線
100
AcDbLine
 10
119.4546936347144
 20
624.8771512208712
 30
0.0
 11
119.4546936347144
 21
632.7771512208713
 31
0.0
  0
LINE
  5
3CF
102
{ACAD_REACTORS
330
56B
102
}
330
1F
100
AcDbEntity
  8
実線
100
AcDbLine
 10
119.4546936347144
 20
632.7771512208713
 30
0.0
 11
127.3546936347144
 21
632.7771512208713
 31
0.0
  0
LINE
  5
3D0
102
{ACAD_REACTORS
330
56B
102
}
330
1F
100
AcDbEntity
  8
実線
100
AcDbLine
 10
127.3546936347144
 20
624.8771512208712
 30
0.0
 11
119.4546936347144
 21
624.8771512208712
 31
0.0
  0
LINE
  5
3D1
102
{ACAD_REACTORS
330
56B
102
}
330
1F
100
AcDbEntity
  8
実線
100
AcDbLine
 10
118.8546936347146
 20
642.3271512208712
 30
0.0
 11
118.8546936347146
 21
647.3271512208712
 31
0.0
  0
LINE
  5
3D2
102
{ACAD_REACTORS
330
56B
102
}
330
1F
100
AcDbEntity
  8
実線
100
AcDbLine
 10
93.85469363471463
 20
647.3271512208712
 30
0.0
 11
93.85469363471463
 21
642.3271512208712
 31
0.0
  0
LINE
  5
3D3
102
{ACAD_REACTORS
330
56B
102
}
330
1F
100
AcDbEntity
  8
実線
100
AcDbLine
 10
118.8546936347146
 20
647.3271512208712
 30
0.0
 11
93.85469363471463
 21
647.3271512208712
 31
0.0
  0
LINE
  5
3D4
102
{ACAD_REACTORS
330
56B
102
}
330
1F
100
AcDbEntity
  8
実線
100
AcDbLine
 10
93.85469363471463
 20
642.3271512208712
 30
0.0
 11
118.8546936347146
 21
642.3271512208712
 31
0.0
  0
LINE
  5
3D5
102
{ACAD_REACTORS
330
56B
102
}
330
1F
100
AcDbEntity
  8
実線
100
AcDbLine
 10
113.8546936347146
 20
647.3271512208712
 30
0.0
 11
113.8546936347146
 21
652.6271512208713
 31
0.0
  0
LINE
  5
3D6
102
{ACAD_REACTORS
330
56B
102
}
330
1F
100
AcDbEntity
  8
実線
100
AcDbLine
 10
98.85469363471464
 20
652.6271512208713
 30
0.0
 11
98.85469363471464
 21
647.3271512208712
 31
0.0
  0
LINE
  5
3D7
102
{ACAD_REACTORS
330
56B
102
}
330
1F
100
AcDbEntity
  8
実線
100
AcDbLine
 10
113.8546936347146
 20
652.6271512208713
 30
0.0
 11
98.85469363471464
 21
652.6271512208713
 31
0.0
  0
CIRCLE
  5
3D8
102
{ACAD_REACTORS
330
56B
102
}
330
1F
100
AcDbEntity
  8
実線
100
AcDbCircle
 10
106.3546936347043
 20
329.8271512208712
 30
0.0
 40
38.75
  0
LINE
  5
3D9
102
{ACAD_REACTORS
330
56B
102
}
330
1F
100
AcDbEntity
  8
実線
100
AcDbLine
 10
138.1046936347044
 20
287.4271512208712
 30
0.0
 11
138.1046936347044
 21
293.8271512208712
 31
0.0
  0
LINE
  5
3DA
102
{ACAD_REACTORS
330
56B
102
}
330
1F
100
AcDbEntity
  8
実線
100
AcDbLine
 10
74.60469363470429
 20
293.8271512208712
 30
0.0
 11
74.60469363470429
 21
287.4271512208712
 31
0.0
  0
LINE
  5
3DB
102
{ACAD_REACTORS
330
56B
102
}
330
1F
100
AcDbEntity
  8
実線
100
AcDbLine
 10
74.60469363470429
 20
287.4271512208712
 30
0.0
 11
67.60469363470452
 21
284.3271512208712
 31
0.0
  0
LINE
  5
3DC
102
{ACAD_REACTORS
330
56B
102
}
330
1F
100
AcDbEntity
  8
実線
100
AcDbLine
 10
145.1046936347043
 20
284.3271512208712
 30
0.0
 11
138.1046936347044
 21
287.4271512208712
 31
0.0
  0
LINE
  5
3DD
102
{ACAD_REACTORS
330
56B
102
}
330
1F
100
AcDbEntity
  8
実線
100
AcDbLine
 10
74.60469363470429
 20
287.4271512208712
 30
0.0
 11
138.1046936347044
 21
287.4271512208712
 31
0.0
  0
LINE
  5
3DE
102
{ACAD_REACTORS
330
56B
102
}
330
1F
100
AcDbEntity
  8
実線
100
AcDbLine
 10
145.1046936347043
 20
280.8271512208712
 30
0.0
 11
145.1046936347043
 21
284.3271512208712
 31
0.0
  0
LINE
  5
3DF
102
{ACAD_REACTORS
330
56B
102
}
330
1F
100
AcDbEntity
  8
実線
100
AcDbLine
 10
67.60469363470452
 20
284.3271512208712
 30
0.0
 11
67.60469363470452
 21
280.8271512208712
 31
0.0
  0
LINE
  5
3E0
102
{ACAD_REACTORS
330
56B
102
}
330
1F
100
AcDbEntity
  8
実線
100
AcDbLine
 10
67.60469363470452
 20
280.8271512208712
 30
0.0
 11
145.1046936347043
 21
280.8271512208712
 31
0.0
  0
LINE
  5
3E1
102
{ACAD_REACTORS
330
56B
102
}
330
1F
100
AcDbEntity
  8
実線
100
AcDbLine
 10
67.60469363470452
 20
284.3271512208712
 30
0.0
 11
145.1046936347043
 21
284.3271512208712
 31
0.0
  0
LINE
  5
3E2
102
{ACAD_REACTORS
330
56B
102
}
330
1F
100
AcDbEntity
  8
実線
100
AcDbLine
 10
45.57500445687582
 20
383.8271512208712
 30
0.0
 11
167.1343828125533
 21
383.8271512208712
 31
0.0
  0
LINE
  5
3E3
102
{ACAD_REACTORS
330
56B
102
}
330
1F
100
AcDbEntity
  8
実線
100
AcDbLine
 10
167.1343828125533
 20
370.3271512208712
 30
0.0
 11
167.1343828125533
 21
383.8271512208712
 31
0.0
  0
LINE
  5
3E4
102
{ACAD_REACTORS
330
56B
102
}
330
1F
100
AcDbEntity
  8
実線
100
AcDbLine
 10
45.57500445687582
 20
383.8271512208712
 30
0.0
 11
45.57500445687582
 21
370.3271512208712
 31
0.0
  0
LINE
  5
3E5
102
{ACAD_REACTORS
330
56B
102
}
330
1F
100
AcDbEntity
  8
実線
100
AcDbLine
 10
133.1646657846556
 20
370.3271512208712
 30
0.0
 11
133.1646657846556
 21
383.8271512208712
 31
0.0
  0
LINE
  5
3E6
102
{ACAD_REACTORS
330
56B
102
}
330
1F
100
AcDbEntity
  8
実線
100
AcDbLine
 10
79.54472148477328
 20
370.3271512208712
 30
0.0
 11
79.54472148477328
 21
383.8271512208712
 31
0.0
  0
LINE
  5
3E7
102
{ACAD_REACTORS
330
56B
102
}
330
1F
100
AcDbEntity
  8
実線
100
AcDbLine
 10
178.8546936347145
 20
488.8271512208712
 30
0.0
 11
178.8546936347145
 21
589.8271512208712
 31
0.0
  0
LINE
  5
3E8
102
{ACAD_REACTORS
330
56B
102
}
330
1F
100
AcDbEntity
  8
実線
100
AcDbLine
 10
33.85469363471464
 20
589.8271512208712
 30
0.0
 11
33.85469363471464
 21
488.8271512208712
 31
0.0
  0
LINE
  5
3E9
102
{ACAD_REACTORS
330
56B
102
}
330
1F
100
AcDbEntity
  8
実線
100
AcDbLine
 10
178.8546936347145
 20
488.8271512208712
 30
0.0
 11
33.85469363471464
 21
488.8271512208712
 31
0.0
  0
LINE
  5
3EA
102
{ACAD_REACTORS
330
56B
102
}
330
1F
100
AcDbEntity
  8
実線
100
AcDbLine
 10
173.8546936347144
 20
486.8271512208711
 30
0.0
 11
173.8546936347144
 21
488.8271512208712
 31
0.0
  0
LINE
  5
3EB
102
{ACAD_REACTORS
330
56B
102
}
330
1F
100
AcDbEntity
  8
実線
100
AcDbLine
 10
38.85469363471464
 20
488.8271512208712
 30
0.0
 11
38.85469363471464
 21
486.8271512208711
 31
0.0
  0
LINE
  5
3EC
102
{ACAD_REACTORS
330
56B
102
}
330
1F
100
AcDbEntity
  8
実線
100
AcDbLine
 10
173.8546936347144
 20
486.8271512208711
 30
0.0
 11
38.85469363471464
 21
486.8271512208711
 31
0.0
  0
LINE
  5
3ED
102
{ACAD_REACTORS
330
56B
102
}
330
1F
100
AcDbEntity
  8
実線
100
AcDbLine
 10
56.35469363471464
 20
486.8271512208711
 30
0.0
 11
56.35469363471464
 21
421.8271512208712
 31
0.0
  0
LINE
  5
3EE
102
{ACAD_REACTORS
330
56B
102
}
330
1F
100
AcDbEntity
  8
実線
100
AcDbLine
 10
56.35469363471464
 20
421.8271512208712
 30
0.0
 11
92.85469363471463
 21
421.8271512208712
 31
0.0
  0
LINE
  5
3EF
102
{ACAD_REACTORS
330
56B
102
}
330
1F
100
AcDbEntity
  8
実線
100
AcDbLine
 10
119.8546936347146
 20
421.8271512208712
 30
0.0
 11
156.3546936347146
 21
421.8271512208712
 31
0.0
  0
LINE
  5
3F0
102
{ACAD_REACTORS
330
56B
102
}
330
1F
100
AcDbEntity
  8
実線
100
AcDbLine
 10
156.3546936347146
 20
421.8271512208712
 30
0.0
 11
156.3546936347146
 21
486.8271512208711
 31
0.0
  0
LINE
  5
3F1
102
{ACAD_REACTORS
330
56B
102
}
330
1F
100
AcDbEntity
  8
実線
100
AcDbLine
 10
92.85469363471463
 20
383.8271512208712
 30
0.0
 11
92.85469363471463
 21
486.8271512208711
 31
0.0
  0
LINE
  5
3F2
102
{ACAD_REACTORS
330
56B
102
}
330
1F
100
AcDbEntity
  8
実線
100
AcDbLine
 10
119.8546936347146
 20
383.8271512208712
 30
0.0
 11
119.8546936347146
 21
486.8271512208711
 31
0.0
  0
LINE
  5
3F3
102
{ACAD_REACTORS
330
56B
102
}
330
1F
100
AcDbEntity
  8
実線
100
AcDbLine
 10
127.3546936347144
 20
611.8271512208239
 30
0.0
 11
81.35469363471463
 21
611.8271512208239
 31
0.0
  0
LINE
  5
3F4
102
{ACAD_REACTORS
330
56B
102
}
330
1F
100
AcDbEntity
  8
実線
100
AcDbLine
 10
127.3546936347144
 20
649.8271512208711
 30
0.0
 11
127.3546936347144
 21
611.8271512208239
 31
0.0
  0
LINE
  5
3F5
102
{ACAD_REACTORS
330
56B
102
}
330
1F
100
AcDbEntity
  8
実線
100
AcDbLine
 10
129.3546936347144
 20
649.8271512208711
 30
0.0
 11
127.3546936347144
 21
649.8271512208711
 31
0.0
  0
LINE
  5
3F6
102
{ACAD_REACTORS
330
56B
102
}
330
1F
100
AcDbEntity
  8
実線
100
AcDbLine
 10
129.3546936347144
 20
609.8271512208712
 30
0.0
 11
129.3546936347144
 21
649.8271512208711
 31
0.0
  0
LINE
  5
3F7
102
{ACAD_REACTORS
330
56B
102
}
330
1F
100
AcDbEntity
  8
実線
100
AcDbLine
 10
126.3546936347144
 20
611.8271512208711
 30
0.0
 11
126.3546936347144
 21
609.8271512208712
 31
0.0
  0
LINE
  5
3F8
102
{ACAD_REACTORS
330
56B
102
}
330
1F
100
AcDbEntity
  8
実線
100
AcDbLine
 10
81.35469363471463
 20
611.8271512208711
 30
0.0
 11
81.35469363471463
 21
609.8271512208712
 31
0.0
  0
LINE
  5
3F9
102
{ACAD_REACTORS
330
56B
102
}
330
1F
100
AcDbEntity
  8
実線
100
AcDbLine
 10
178.8546936347145
 20
589.8271512208712
 30
0.0
 11
178.8546936347145
 21
591.8271512208711
 31
0.0
  0
LINE
  5
3FA
102
{ACAD_REACTORS
330
56B
102
}
330
1F
100
AcDbEntity
  8
実線
100
AcDbLine
 10
33.85469363471464
 20
591.8271512208711
 30
0.0
 11
33.85469363471464
 21
589.8271512208712
 31
0.0
  0
LINE
  5
3FB
102
{ACAD_REACTORS
330
56B
102
}
330
1F
100
AcDbEntity
  8
実線
100
AcDbLine
 10
33.85469363471464
 20
589.8271512208712
 30
0.0
 11
178.8546936347145
 21
589.8271512208712
 31
0.0
  0
LINE
  5
3FC
102
{ACAD_REACTORS
330
56B
102
}
330
1F
100
AcDbEntity
  8
実線
100
AcDbLine
 10
36.85469363471464
 20
594.8271512208711
 30
0.0
 11
175.8546936347144
 21
594.8271512208711
 31
0.0
  0
ARC
  5
3FD
102
{ACAD_REACTORS
330
56B
102
}
330
1F
100
AcDbEntity
  8
実線
100
AcDbCircle
 10
175.8546936347144
 20
591.8271512208711
 30
0.0
 40
3.0
100
AcDbArc
 50
0.0
 51
90.0
  0
ARC
  5
3FE
102
{ACAD_REACTORS
330
56B
102
}
330
1F
100
AcDbEntity
  8
実線
100
AcDbCircle
 10
36.85469363471464
 20
591.8271512208711
 30
0.0
 40
3.0
100
AcDbArc
 50
90.0
 51
180.0
  0
LINE
  5
3FF
102
{ACAD_REACTORS
330
56B
102
}
330
1F
100
AcDbEntity
  8
実線
100
AcDbLine
 10
92.0172426757648
 20
293.8271512208712
 30
0.0
 11
67.35469363470452
 21
293.8271512208712
 31
0.0
  0
LINE
  5
400
102
{ACAD_REACTORS
330
56B
102
}
330
1F
100
AcDbEntity
  8
実線
100
AcDbLine
 10
145.3546936347043
 20
293.8271512208712
 30
0.0
 11
120.692144593644
 21
293.8271512208712
 31
0.0
  0
ARC
  5
401
102
{ACAD_REACTORS
330
56B
102
}
330
1F
100
AcDbEntity
  8
実線
100
AcDbCircle
 10
67.35469363470452
 20
309.8271512208712
 30
0.0
 40
16.0
100
AcDbArc
 50
180.0
 51
270.0
  0
ARC
  5
402
102
{ACAD_REACTORS
330
56B
102
}
330
1F
100
AcDbEntity
  8
実線
100
AcDbCircle
 10
145.3546936347043
 20
309.8271512208712
 30
0.0
 40
16.0
100
AcDbArc
 50
270.0
 51
0.0
  0
LINE
  5
403
102
{ACAD_REACTORS
330
56B
102
}
330
1F
100
AcDbEntity
  8
実線
100
AcDbLine
 10
45.57500445686549
 20
370.3271512208712
 30
0.0
 11
167.1343828125432
 21
370.3271512208712
 31
0.0
  0
LINE
  5
404
102
{ACAD_REACTORS
330
56B
102
}
330
1F
100
AcDbEntity
  8
実線
100
AcDbLine
 10
161.3546936347044
 20
309.8271512208712
 30
0.0
 11
161.3546936347044
 21
355.3271512208712
 31
0.0
  0
LINE
  5
405
102
{ACAD_REACTORS
330
56B
102
}
330
1F
100
AcDbEntity
  8
実線
100
AcDbLine
 10
51.35469363470429
 20
355.3271512208712
 30
0.0
 11
51.35469363470429
 21
309.8271512208712
 31
0.0
  0
LINE
  5
406
102
{ACAD_REACTORS
330
56B
102
}
330
1F
100
AcDbEntity
  8
実線
100
AcDbLine
 10
167.1343828125432
 20
355.3271512208712
 30
0.0
 11
167.1343828125432
 21
370.3271512208712
 31
0.0
  0
LINE
  5
407
102
{ACAD_REACTORS
330
56B
102
}
330
1F
100
AcDbEntity
  8
実線
100
AcDbLine
 10
167.1343828125432
 20
355.3271512208712
 30
0.0
 11
135.5319536157237
 21
355.3271512208712
 31
0.0
  0
LINE
  5
408
102
{ACAD_REACTORS
330
56B
102
}
330
1F
100
AcDbEntity
  8
実線
100
AcDbLine
 10
45.57500445686549
 20
355.3271512208712
 30
0.0
 11
77.17743365368495
 21
355.3271512208712
 31
0.0
  0
LINE
  5
409
102
{ACAD_REACTORS
330
56B
102
}
330
1F
100
AcDbEntity
  8
実線
100
AcDbLine
 10
45.57500445686549
 20
370.3271512208712
 30
0.0
 11
45.57500445686549
 21
355.3271512208712
 31
0.0
  0
LINE
  5
40A
102
{ACAD_REACTORS
330
56B
102
}
330
1F
100
AcDbEntity
  8
実線
100
AcDbLine
 10
133.1646657846455
 20
357.8054980862487
 30
0.0
 11
133.1646657846455
 21
370.3271512208712
 31
0.0
  0
LINE
  5
40B
102
{ACAD_REACTORS
330
56B
102
}
330
1F
100
AcDbEntity
  8
実線
100
AcDbLine
 10
79.54472148476338
 20
357.8054980862487
 30
0.0
 11
79.54472148476338
 21
370.3271512208712
 31
0.0
  0
LINE
  5
40C
102
{ACAD_REACTORS
330
56A
102
}
330
1F
100
AcDbEntity
  8
実線
100
AcDbLine
 10
444.7546936347037
 20
361.5771512208712
 30
0.0
 11
407.1343828125435
 21
361.5771512208712
 31
0.0
  0
LINE
  5
40D
102
{ACAD_REACTORS
330
56A
102
}
330
1F
100
AcDbEntity
  8
実線
100
AcDbLine
 10
396.2145969491913
 20
298.0771512208712
 30
0.0
 11
444.7546936347032
 21
298.0771512208712
 31
0.0
  0
LINE
  5
40E
102
{ACAD_REACTORS
330
56A
102
}
330
1F
100
AcDbEntity
  8
実線
100
AcDbLine
 10
444.7546936347037
 20
298.0771512208712
 30
0.0
 11
444.7546936347037
 21
361.5771512208712
 31
0.0
  0
LINE
  5
40F
102
{ACAD_REACTORS
330
56A
102
}
330
1F
100
AcDbEntity
  8
実線
100
AcDbLine
 10
444.7546936347037
 20
298.0771512208712
 30
0.0
 11
447.8546936347032
 21
291.0771512208712
 31
0.0
  0
LINE
  5
410
102
{ACAD_REACTORS
330
56A
102
}
330
1F
100
AcDbEntity
  8
実線
100
AcDbLine
 10
447.8546936347032
 20
368.5771512208712
 30
0.0
 11
444.7546936347037
 21
361.5771512208712
 31
0.0
  0
LINE
  5
411
102
{ACAD_REACTORS
330
56A
102
}
330
1F
100
AcDbEntity
  8
実線
100
AcDbLine
 10
451.3546936347032
 20
291.0771512208712
 30
0.0
 11
451.3546936347032
 21
368.5771512208712
 31
0.0
  0
LINE
  5
412
102
{ACAD_REACTORS
330
56A
102
}
330
1F
100
AcDbEntity
  8
実線
100
AcDbLine
 10
447.8546936347032
 20
291.0771512208712
 30
0.0
 11
447.8546936347032
 21
368.5771512208712
 31
0.0
  0
LINE
  5
413
102
{ACAD_REACTORS
330
56A
102
}
330
1F
100
AcDbEntity
  8
実線
100
AcDbLine
 10
451.3546936347032
 20
368.5771512208712
 30
0.0
 11
447.8546936347032
 21
368.5771512208712
 31
0.0
  0
LINE
  5
414
102
{ACAD_REACTORS
330
56A
102
}
330
1F
100
AcDbEntity
  8
実線
100
AcDbLine
 10
447.8546936347032
 20
291.0771512208712
 30
0.0
 11
451.3546936347032
 21
291.0771512208712
 31
0.0
  0
LINE
  5
415
102
{ACAD_REACTORS
330
56A
102
}
330
1F
100
AcDbEntity
  8
実線
100
AcDbLine
 10
392.3546936347041
 20
594.8271512208711
 30
0.0
 11
392.3546936347041
 21
604.8271512208712
 31
0.0
  0
LINE
  5
416
102
{ACAD_REACTORS
330
56A
102
}
330
1F
100
AcDbEntity
  8
実線
100
AcDbLine
 10
300.3546936347041
 20
604.8271512208712
 30
0.0
 11
300.3546936347041
 21
594.8271512208711
 31
0.0
  0
LINE
  5
417
102
{ACAD_REACTORS
330
56A
102
}
330
1F
100
AcDbEntity
  8
実線
100
AcDbLine
 10
392.3546936347042
 20
604.8271512208712
 30
0.0
 11
300.3546936347041
 21
604.8271512208712
 31
0.0
  0
LINE
  5
418
102
{ACAD_REACTORS
330
56A
102
}
330
1F
100
AcDbEntity
  8
実線
100
AcDbLine
 10
338.3546936347038
 20
642.3271512208712
 30
0.0
 11
338.3546936347038
 21
611.8271512208711
 31
0.0
  0
LINE
  5
419
102
{ACAD_REACTORS
330
56A
102
}
330
1F
100
AcDbEntity
  8
実線
100
AcDbLine
 10
361.3546936347041
 20
640.8771512208712
 30
0.0
 11
366.354693634704
 21
640.8771512208712
 31
0.0
  0
LINE
  5
41A
102
{ACAD_REACTORS
330
56A
102
}
330
1F
100
AcDbEntity
  8
実線
100
AcDbLine
 10
366.354693634704
 20
640.8771512208712
 30
0.0
 11
366.354693634704
 21
648.7771512208712
 31
0.0
  0
LINE
  5
41B
102
{ACAD_REACTORS
330
56A
102
}
330
1F
100
AcDbEntity
  8
実線
100
AcDbLine
 10
361.3546936347041
 20
648.7771512208712
 30
0.0
 11
366.354693634704
 21
648.7771512208712
 31
0.0
  0
LINE
  5
41C
102
{ACAD_REACTORS
330
56A
102
}
330
1F
100
AcDbEntity
  8
実線
100
AcDbLine
 10
371.3546936347041
 20
604.8271512208712
 30
0.0
 11
371.3546936347041
 21
609.8271512208712
 31
0.0
  0
LINE
  5
41D
102
{ACAD_REACTORS
330
56A
102
}
330
1F
100
AcDbEntity
  8
実線
100
AcDbLine
 10
321.3546936347039
 20
609.8271512208712
 30
0.0
 11
321.3546936347039
 21
604.8271512208712
 31
0.0
  0
LINE
  5
41E
102
{ACAD_REACTORS
330
56A
102
}
330
1F
100
AcDbEntity
  8
実線
100
AcDbLine
 10
321.3546936347039
 20
609.8271512208712
 30
0.0
 11
356.1526526058367
 21
609.8271512208712
 31
0.0
  0
LINE
  5
41F
102
{ACAD_REACTORS
330
56A
102
}
330
1F
100
AcDbEntity
  8
実線
100
AcDbLine
 10
372.8546936347042
 20
646.3271512208712
 30
0.0
 11
372.8546936347042
 21
643.3271512208712
 31
0.0
  0
LINE
  5
420
102
{ACAD_REACTORS
330
56A
102
}
330
1F
100
AcDbEntity
  8
実線
100
AcDbLine
 10
366.354693634704
 20
643.3271512208712
 30
0.0
 11
372.8546936347042
 21
643.3271512208712
 31
0.0
  0
LINE
  5
421
102
{ACAD_REACTORS
330
56A
102
}
330
1F
100
AcDbEntity
  8
実線
100
AcDbLine
 10
372.8546936347042
 20
646.3271512208712
 30
0.0
 11
366.354693634704
 21
646.3271512208712
 31
0.0
  0
LINE
  5
422
102
{ACAD_REACTORS
330
56A
102
}
330
1F
100
AcDbEntity
  8
実線
100
AcDbLine
 10
366.354693634704
 20
624.8771512208712
 30
0.0
 11
366.354693634704
 21
632.7771512208713
 31
0.0
  0
LINE
  5
423
102
{ACAD_REACTORS
330
56A
102
}
330
1F
100
AcDbEntity
  8
実線
100
AcDbLine
 10
361.3546936347041
 20
632.7771512208713
 30
0.0
 11
366.354693634704
 21
632.7771512208713
 31
0.0
  0
LINE
  5
424
102
{ACAD_REACTORS
330
56A
102
}
330
1F
100
AcDbEntity
  8
実線
100
AcDbLine
 10
361.3546936347041
 20
624.8771512208712
 30
0.0
 11
366.354693634704
 21
624.8771512208712
 31
0.0
  0
LINE
  5
425
102
{ACAD_REACTORS
330
56A
102
}
330
1F
100
AcDbEntity
  8
実線
100
AcDbLine
 10
372.8546936347042
 20
630.3271512208712
 30
0.0
 11
372.8546936347042
 21
627.3271512208712
 31
0.0
  0
LINE
  5
426
102
{ACAD_REACTORS
330
56A
102
}
330
1F
100
AcDbEntity
  8
実線
100
AcDbLine
 10
366.354693634704
 20
627.3271512208712
 30
0.0
 11
372.8546936347042
 21
627.3271512208712
 31
0.0
  0
LINE
  5
427
102
{ACAD_REACTORS
330
56A
102
}
330
1F
100
AcDbEntity
  8
実線
100
AcDbLine
 10
372.8546936347042
 20
630.3271512208712
 30
0.0
 11
366.354693634704
 21
630.3271512208712
 31
0.0
  0
LINE
  5
428
102
{ACAD_REACTORS
330
56A
102
}
330
1F
100
AcDbEntity
  8
実線
100
AcDbLine
 10
333.8546936347039
 20
647.3271512208712
 30
0.0
 11
333.8546936347039
 21
642.3271512208712
 31
0.0
  0
LINE
  5
429
102
{ACAD_REACTORS
330
56A
102
}
330
1F
100
AcDbEntity
  8
実線
100
AcDbLine
 10
341.354693634704
 20
647.3271512208712
 30
0.0
 11
333.8546936347039
 21
647.3271512208712
 31
0.0
  0
LINE
  5
42A
102
{ACAD_REACTORS
330
56A
102
}
330
1F
100
AcDbEntity
  8
実線
100
AcDbLine
 10
341.354693634704
 20
642.3271512208712
 30
0.0
 11
333.8546936347039
 21
642.3271512208712
 31
0.0
  0
LINE
  5
42B
102
{ACAD_REACTORS
330
56A
102
}
330
1F
100
AcDbEntity
  8
実線
100
AcDbLine
 10
353.854693634704
 20
649.8271512208711
 30
0.0
 11
353.854693634704
 21
652.6271512208713
 31
0.0
  0
LINE
  5
42C
102
{ACAD_REACTORS
330
56A
102
}
330
1F
100
AcDbEntity
  8
実線
100
AcDbLine
 10
338.8546936347041
 20
652.6271512208713
 30
0.0
 11
338.8546936347041
 21
647.3271512208712
 31
0.0
  0
LINE
  5
42D
102
{ACAD_REACTORS
330
56A
102
}
330
1F
100
AcDbEntity
  8
実線
100
AcDbLine
 10
353.854693634704
 20
652.6271512208713
 30
0.0
 11
338.8546936347041
 21
652.6271512208713
 31
0.0
  0
LINE
  5
42E
102
{ACAD_REACTORS
330
56A
102
}
330
1F
100
AcDbEntity
  8
実線
100
AcDbLine
 10
247.9546936347047
 20
298.0771512208712
 30
0.0
 11
296.4947903202181
 21
298.0771512208712
 31
0.0
  0
LINE
  5
42F
102
{ACAD_REACTORS
330
56A
102
}
330
1F
100
AcDbEntity
  8
実線
100
AcDbLine
 10
285.5750044568657
 20
361.5771512208712
 30
0.0
 11
247.9546936347047
 21
361.5771512208712
 31
0.0
  0
LINE
  5
430
102
{ACAD_REACTORS
330
56A
102
}
330
1F
100
AcDbEntity
  8
実線
100
AcDbLine
 10
241.3546936347046
 20
291.0771512208712
 30
0.0
 11
244.8546936347046
 21
291.0771512208712
 31
0.0
  0
LINE
  5
431
102
{ACAD_REACTORS
330
56A
102
}
330
1F
100
AcDbEntity
  8
実線
100
AcDbLine
 10
244.8546936347046
 20
368.5771512208712
 30
0.0
 11
241.3546936347046
 21
368.5771512208712
 31
0.0
  0
LINE
  5
432
102
{ACAD_REACTORS
330
56A
102
}
330
1F
100
AcDbEntity
  8
実線
100
AcDbLine
 10
241.3546936347046
 20
291.0771512208712
 30
0.0
 11
241.3546936347046
 21
368.5771512208712
 31
0.0
  0
LINE
  5
433
102
{ACAD_REACTORS
330
56A
102
}
330
1F
100
AcDbEntity
  8
実線
100
AcDbLine
 10
247.9546936347047
 20
361.5771512208712
 30
0.0
 11
244.8546936347046
 21
368.5771512208712
 31
0.0
  0
LINE
  5
434
102
{ACAD_REACTORS
330
56A
102
}
330
1F
100
AcDbEntity
  8
実線
100
AcDbLine
 10
244.8546936347046
 20
291.0771512208712
 30
0.0
 11
247.9546936347047
 21
298.0771512208712
 31
0.0
  0
LINE
  5
435
102
{ACAD_REACTORS
330
56A
102
}
330
1F
100
AcDbEntity
  8
実線
100
AcDbLine
 10
244.8546936347046
 20
368.5771512208712
 30
0.0
 11
244.8546936347046
 21
291.0771512208712
 31
0.0
  0
LINE
  5
436
102
{ACAD_REACTORS
330
56A
102
}
330
1F
100
AcDbEntity
  8
実線
100
AcDbLine
 10
247.9546936347047
 20
361.5771512208712
 30
0.0
 11
247.9546936347047
 21
298.0771512208712
 31
0.0
  0
LINE
  5
437
102
{ACAD_REACTORS
330
56A
102
}
330
1F
100
AcDbEntity
  8
実線
100
AcDbLine
 10
378.1046936347046
 20
287.4271512208712
 30
0.0
 11
378.1046936347046
 21
293.8271512208712
 31
0.0
  0
LINE
  5
438
102
{ACAD_REACTORS
330
56A
102
}
330
1F
100
AcDbEntity
  8
実線
100
AcDbLine
 10
314.6046936347046
 20
293.8271512208712
 30
0.0
 11
314.6046936347046
 21
287.4271512208712
 31
0.0
  0
LINE
  5
439
102
{ACAD_REACTORS
330
56A
102
}
330
1F
100
AcDbEntity
  8
実線
100
AcDbLine
 10
314.6046936347046
 20
287.4271512208712
 30
0.0
 11
307.6046936347046
 21
284.3271512208712
 31
0.0
  0
LINE
  5
43A
102
{ACAD_REACTORS
330
56A
102
}
330
1F
100
AcDbEntity
  8
実線
100
AcDbLine
 10
385.1046936347048
 20
284.3271512208712
 30
0.0
 11
378.1046936347046
 21
287.4271512208712
 31
0.0
  0
LINE
  5
43B
102
{ACAD_REACTORS
330
56A
102
}
330
1F
100
AcDbEntity
  8
実線
100
AcDbLine
 10
314.6046936347046
 20
287.4271512208712
 30
0.0
 11
378.1046936347046
 21
287.4271512208712
 31
0.0
  0
LINE
  5
43C
102
{ACAD_REACTORS
330
56A
102
}
330
1F
100
AcDbEntity
  8
実線
100
AcDbLine
 10
385.1046936347048
 20
280.8271512208712
 30
0.0
 11
385.1046936347048
 21
284.3271512208712
 31
0.0
  0
LINE
  5
43D
102
{ACAD_REACTORS
330
56A
102
}
330
1F
100
AcDbEntity
  8
実線
100
AcDbLine
 10
307.6046936347046
 20
284.3271512208712
 30
0.0
 11
307.6046936347046
 21
280.8271512208712
 31
0.0
  0
LINE
  5
43E
102
{ACAD_REACTORS
330
56A
102
}
330
1F
100
AcDbEntity
  8
実線
100
AcDbLine
 10
385.1046936347048
 20
280.8271512208712
 30
0.0
 11
307.6046936347046
 21
280.8271512208712
 31
0.0
  0
LINE
  5
43F
102
{ACAD_REACTORS
330
56A
102
}
330
1F
100
AcDbEntity
  8
実線
100
AcDbLine
 10
385.1046936347048
 20
284.3271512208712
 30
0.0
 11
307.6046936347046
 21
284.3271512208712
 31
0.0
  0
LINE
  5
440
102
{ACAD_REACTORS
330
56A
102
}
330
1F
100
AcDbEntity
  8
実線
100
AcDbLine
 10
407.134382812543
 20
370.3271512208712
 30
0.0
 11
285.5750044568656
 21
370.3271512208712
 31
0.0
  0
LINE
  5
441
102
{ACAD_REACTORS
330
56A
102
}
330
1F
100
AcDbEntity
  8
実線
100
AcDbLine
 10
407.134382812543
 20
383.8271512208712
 30
0.0
 11
285.5750044568656
 21
383.8271512208712
 31
0.0
  0
LINE
  5
442
102
{ACAD_REACTORS
330
56A
102
}
330
1F
100
AcDbEntity
  8
実線
100
AcDbLine
 10
285.5750044568656
 20
383.8271512208712
 30
0.0
 11
285.5750044568656
 21
370.3271512208712
 31
0.0
  0
LINE
  5
443
102
{ACAD_REACTORS
330
56A
102
}
330
1F
100
AcDbEntity
  8
実線
100
AcDbLine
 10
407.134382812543
 20
370.3271512208712
 30
0.0
 11
407.134382812543
 21
383.8271512208712
 31
0.0
  0
LINE
  5
444
102
{ACAD_REACTORS
330
56A
102
}
330
1F
100
AcDbEntity
  8
実線
100
AcDbLine
 10
319.5447214847629
 20
370.3271512208712
 30
0.0
 11
319.5447214847629
 21
383.8271512208712
 31
0.0
  0
LINE
  5
445
102
{ACAD_REACTORS
330
56A
102
}
330
1F
100
AcDbEntity
  8
実線
100
AcDbLine
 10
373.1646657846452
 20
370.3271512208712
 30
0.0
 11
373.1646657846452
 21
383.8271512208712
 31
0.0
  0
LINE
  5
446
102
{ACAD_REACTORS
330
56A
102
}
330
1F
100
AcDbEntity
  8
実線
100
AcDbLine
 10
418.854693634704
 20
488.8271512208712
 30
0.0
 11
273.8546936347041
 21
488.8271512208712
 31
0.0
  0
LINE
  5
447
102
{ACAD_REACTORS
330
56A
102
}
330
1F
100
AcDbEntity
  8
実線
100
AcDbLine
 10
418.854693634704
 20
488.8271512208712
 30
0.0
 11
418.854693634704
 21
589.8271512208712
 31
0.0
  0
LINE
  5
448
102
{ACAD_REACTORS
330
56A
102
}
330
1F
100
AcDbEntity
  8
実線
100
AcDbLine
 10
273.8546936347041
 20
589.8271512208712
 30
0.0
 11
273.8546936347041
 21
488.8271512208712
 31
0.0
  0
LINE
  5
449
102
{ACAD_REACTORS
330
56A
102
}
330
1F
100
AcDbEntity
  8
実線
100
AcDbLine
 10
418.854693634704
 20
589.8271512208712
 30
0.0
 11
273.8546936347041
 21
589.8271512208712
 31
0.0
  0
LINE
  5
44A
102
{ACAD_REACTORS
330
56A
102
}
330
1F
100
AcDbEntity
  8
実線
100
AcDbLine
 10
413.854693634704
 20
486.8271512208711
 30
0.0
 11
278.854693634704
 21
486.8271512208711
 31
0.0
  0
LINE
  5
44B
102
{ACAD_REACTORS
330
56A
102
}
330
1F
100
AcDbEntity
  8
実線
100
AcDbLine
 10
413.854693634704
 20
486.8271512208711
 30
0.0
 11
413.854693634704
 21
488.8271512208712
 31
0.0
  0
LINE
  5
44C
102
{ACAD_REACTORS
330
56A
102
}
330
1F
100
AcDbEntity
  8
実線
100
AcDbLine
 10
278.854693634704
 20
488.8271512208712
 30
0.0
 11
278.854693634704
 21
486.8271512208711
 31
0.0
  0
LINE
  5
44D
102
{ACAD_REACTORS
330
56A
102
}
330
1F
100
AcDbEntity
  8
実線
100
AcDbLine
 10
354.3546936347041
 20
383.8712477694693
 30
0.0
 11
354.3546936347041
 21
421.8271512208712
 31
0.0
  0
LINE
  5
44E
102
{ACAD_REACTORS
330
56A
102
}
330
1F
100
AcDbEntity
  8
実線
100
AcDbLine
 10
338.3546936347038
 20
421.8271512208712
 30
0.0
 11
338.3546936347038
 21
383.8712477694693
 31
0.0
  0
ARC
  5
44F
102
{ACAD_REACTORS
330
56A
102
}
330
1F
100
AcDbEntity
  8
実線
100
AcDbCircle
 10
351.054693634704
 20
435.3271512208712
 30
0.0
 40
66.99999999999993
100
AcDbArc
 50
180.0
 51
230.2334159308358
  0
ARC
  5
450
102
{ACAD_REACTORS
330
56A
102
}
330
1F
100
AcDbEntity
  8
実線
100
AcDbCircle
 10
351.054693634704
 20
435.3271512208712
 30
0.0
 40
53.0
100
AcDbArc
 50
194.7568156063301
 51
256.3360910030539
  0
LINE
  5
451
102
{ACAD_REACTORS
330
56A
102
}
330
1F
100
AcDbEntity
  8
実線
100
AcDbLine
 10
284.054693634704
 20
486.8271512208711
 30
0.0
 11
284.054693634704
 21
435.3271512208712
 31
0.0
  0
ARC
  5
452
102
{ACAD_REACTORS
330
56A
102
}
330
1F
100
AcDbEntity
  8
実線
100
AcDbCircle
 10
341.654693634704
 20
435.3271512208712
 30
0.0
 40
53.0
100
AcDbArc
 50
283.663908996946
 51
345.2431843936698
  0
ARC
  5
453
102
{ACAD_REACTORS
330
56A
102
}
330
1F
100
AcDbEntity
  8
実線
100
AcDbCircle
 10
341.654693634704
 20
435.3271512208712
 30
0.0
 40
66.99999999999993
100
AcDbArc
 50
309.7665840691642
 51
0.0
  0
LINE
  5
454
102
{ACAD_REACTORS
330
56A
102
}
330
1F
100
AcDbEntity
  8
実線
100
AcDbLine
 10
408.654693634704
 20
486.8271512208711
 30
0.0
 11
408.654693634704
 21
435.3271512208712
 31
0.0
  0
LINE
  5
455
102
{ACAD_REACTORS
330
56A
102
}
330
1F
100
AcDbEntity
  8
実線
100
AcDbLine
 10
298.2116775264461
 20
421.8271512208712
 30
0.0
 11
394.4977097429621
 21
421.8271512208712
 31
0.0
  0
LINE
  5
456
102
{ACAD_REACTORS
330
56A
102
}
330
1F
100
AcDbEntity
  8
実線
100
AcDbLine
 10
394.4977097429621
 20
421.8271512208712
 30
0.0
 11
394.4977097429621
 21
486.8271512208711
 31
0.0
  0
LINE
  5
457
102
{ACAD_REACTORS
330
56A
102
}
330
1F
100
AcDbEntity
  8
実線
100
AcDbLine
 10
298.2116775264461
 20
486.8271512208711
 30
0.0
 11
298.2116775264461
 21
421.8271512208712
 31
0.0
  0
LINE
  5
458
102
{ACAD_REACTORS
330
56A
102
}
330
1F
100
AcDbEntity
  8
実線
100
AcDbLine
 10
341.354693634704
 20
611.8271512208711
 30
0.0
 11
321.3546936347039
 21
611.8271512208711
 31
0.0
  0
LINE
  5
459
102
{ACAD_REACTORS
330
56A
102
}
330
1F
100
AcDbEntity
  8
実線
100
AcDbLine
 10
371.3546936347041
 20
609.8271512208712
 30
0.0
 11
356.1526526058367
 21
609.8271512208712
 31
0.0
  0
LINE
  5
45A
102
{ACAD_REACTORS
330
56A
102
}
330
1F
100
AcDbEntity
  8
実線
100
AcDbLine
 10
331.3546936347041
 20
611.8271512208711
 30
0.0
 11
331.3546936347041
 21
609.8271512208712
 31
0.0
  0
LINE
  5
45B
102
{ACAD_REACTORS
330
56A
102
}
330
1F
100
AcDbEntity
  8
実線
100
AcDbLine
 10
371.3546936347041
 20
609.8271512208712
 30
0.0
 11
371.3546936347041
 21
611.8271512208711
 31
0.0
  0
LINE
  5
45C
102
{ACAD_REACTORS
330
56A
102
}
330
1F
100
AcDbEntity
  8
実線
100
AcDbLine
 10
321.3546936347039
 20
611.8271512208711
 30
0.0
 11
321.3546936347039
 21
609.8271512208712
 31
0.0
  0
LINE
  5
45D
102
{ACAD_REACTORS
330
56A
102
}
330
1F
100
AcDbEntity
  8
実線
100
AcDbLine
 10
371.3546936347041
 20
611.8271512208711
 30
0.0
 11
361.3546936347041
 21
611.8271512208239
 31
0.0
  0
LINE
  5
45E
102
{ACAD_REACTORS
330
56A
102
}
330
1F
100
AcDbEntity
  8
実線
100
AcDbLine
 10
341.354693634704
 20
609.8271512208712
 30
0.0
 11
341.354693634704
 21
649.8271512208711
 31
0.0
  0
LINE
  5
45F
102
{ACAD_REACTORS
330
56A
102
}
330
1F
100
AcDbEntity
  8
実線
100
AcDbLine
 10
361.3546936347041
 20
649.8271512208711
 30
0.0
 11
341.354693634704
 21
649.8271512208711
 31
0.0
  0
LINE
  5
460
102
{ACAD_REACTORS
330
56A
102
}
330
1F
100
AcDbEntity
  8
実線
100
AcDbLine
 10
361.3546936347041
 20
609.8271512208712
 30
0.0
 11
361.3546936347041
 21
649.8271512208711
 31
0.0
  0
LINE
  5
461
102
{ACAD_REACTORS
330
56A
102
}
330
1F
100
AcDbEntity
  8
実線
100
AcDbLine
 10
418.854693634704
 20
589.8271512208712
 30
0.0
 11
418.854693634704
 21
591.8271512208711
 31
0.0
  0
LINE
  5
462
102
{ACAD_REACTORS
330
56A
102
}
330
1F
100
AcDbEntity
  8
実線
100
AcDbLine
 10
273.8546936347041
 20
591.8271512208711
 30
0.0
 11
273.8546936347041
 21
589.8271512208712
 31
0.0
  0
LINE
  5
463
102
{ACAD_REACTORS
330
56A
102
}
330
1F
100
AcDbEntity
  8
実線
100
AcDbLine
 10
276.8546936351602
 20
594.8271512208711
 30
0.0
 11
415.8546936347041
 21
594.8271512208711
 31
0.0
  0
ARC
  5
464
102
{ACAD_REACTORS
330
56A
102
}
330
1F
100
AcDbEntity
  8
実線
100
AcDbCircle
 10
415.8546936347041
 20
591.8271512208711
 30
0.0
 40
3.0
100
AcDbArc
 50
0.0
 51
90.0
  0
ARC
  5
465
102
{ACAD_REACTORS
330
56A
102
}
330
1F
100
AcDbEntity
  8
実線
100
AcDbCircle
 10
276.854693634704
 20
591.8271512208711
 30
0.0
 40
3.0
100
AcDbArc
 50
90.0
 51
180.0
  0
LINE
  5
466
102
{ACAD_REACTORS
330
56A
102
}
330
1F
100
AcDbEntity
  8
実線
100
AcDbLine
 10
385.3546936324691
 20
293.8271512208712
 30
0.0
 11
307.3546936347049
 21
293.8271512208712
 31
0.0
  0
ARC
  5
467
102
{ACAD_REACTORS
330
56A
102
}
330
1F
100
AcDbEntity
  8
実線
100
AcDbCircle
 10
307.3546936347049
 20
309.8271512208712
 30
0.0
 40
16.0
100
AcDbArc
 50
227.2544307753415
 51
270.0
  0
ARC
  5
468
102
{ACAD_REACTORS
330
56A
102
}
330
1F
100
AcDbEntity
  8
実線
100
AcDbCircle
 10
385.3546936347046
 20
309.8271512208712
 30
0.0
 40
16.0
100
AcDbArc
 50
270.0
 51
312.7455692246585
  0
LINE
  5
469
102
{ACAD_REACTORS
330
56A
102
}
330
1F
100
AcDbEntity
  8
実線
100
AcDbLine
 10
285.5750044568662
 20
355.3271512208712
 30
0.0
 11
319.5447214847634
 21
355.3271512208712
 31
0.0
  0
LINE
  5
46A
102
{ACAD_REACTORS
330
56A
102
}
330
1F
100
AcDbEntity
  8
実線
100
AcDbLine
 10
285.5750044568662
 20
370.3271512208712
 30
0.0
 11
285.5750044568662
 21
355.3271512208712
 31
0.0
  0
LINE
  5
46B
102
{ACAD_REACTORS
330
56A
102
}
330
1F
100
AcDbEntity
  8
実線
100
AcDbLine
 10
407.1343828125435
 20
355.3271512208712
 30
0.0
 11
407.1343828125435
 21
370.3271512208712
 31
0.0
  0
LINE
  5
46C
102
{ACAD_REACTORS
330
56A
102
}
330
1F
100
AcDbEntity
  8
実線
100
AcDbLine
 10
407.1343828125435
 20
355.3271512208712
 30
0.0
 11
373.1646657846459
 21
355.3271512208712
 31
0.0
  0
LINE
  5
46D
102
{ACAD_REACTORS
330
56A
102
}
330
1F
100
AcDbEntity
  8
実線
100
AcDbLine
 10
319.5447214847634
 20
355.3271512208712
 30
0.0
 11
319.5447214847634
 21
370.3271512208712
 31
0.0
  0
LINE
  5
46E
102
{ACAD_REACTORS
330
56A
102
}
330
1F
100
AcDbEntity
  8
実線
100
AcDbLine
 10
373.1646657846459
 20
355.3271512208712
 30
0.0
 11
373.1646657846459
 21
370.3271512208712
 31
0.0
  0
LINE
  5
55B
102
{ACAD_REACTORS
330
569
102
}
330
1F
100
AcDbEntity
  8
中心線
100
AcDbLine
 10
239.3551450789457
 20
89.82715122087119
 30
0.0
 11
453.3542421904648
 21
89.82715122087126
 31
0.0
  0
LINE
  5
55C
102
{ACAD_REACTORS
330
569
102
}
330
1F
100
AcDbEntity
  8
中心線
100
AcDbLine
 10
346.3546936347052
 20
10.13797088505771
 30
0.0
 11
346.3546936347052
 21
170.1379708850577
 31
0.0
  0
LINE
  5
55D
102
{ACAD_REACTORS
330
56C
102
}
330
1F
100
AcDbEntity
  8
中心線
100
AcDbLine
 10
239.3546936347038
 20
809.8271512208714
 30
0.0
 11
453.3546936347038
 21
809.8271512208714
 31
0.0
  0
LINE
  5
55E
102
{ACAD_REACTORS
330
56C
102
}
330
1F
100
AcDbEntity
  8
中心線
100
AcDbLine
 10
346.3546936347039
 20
729.8271512208714
 30
0.0
 11
346.3546936347039
 21
889.8271512208713
 31
0.0
  0
LINE
  5
55F
102
{ACAD_REACTORS
330
567
102
}
330
1F
100
AcDbEntity
  8
中心線
100
AcDbLine
 10
719.3551450789446
 20
329.8271512208712
 30
0.0
 11
933.3542421904637
 21
329.8271512208712
 31
0.0
  0
LINE
  5
560
102
{ACAD_REACTORS
330
567
102
}
330
1F
100
AcDbEntity
  8
中心線
100
AcDbLine
 10
826.3546936347042
 20
250.1379708850578
 30
0.0
 11
826.3546936347042
 21
657.2469519600263
 31
0.0
  0
LINE
  5
561
102
{ACAD_REACTORS
330
568
102
}
330
1F
100
AcDbEntity
  8
中心線
100
AcDbLine
 10
506.3552974423807
 20
329.8271512208712
 30
0.0
 11
666.3540898270277
 21
329.8271512208712
 31
0.0
  0
LINE
  5
562
102
{ACAD_REACTORS
330
568
102
}
330
1F
100
AcDbEntity
  8
中心線
100
AcDbLine
 10
586.3546936347042
 20
250.1379708850578
 30
0.0
 11
586.3546936347045
 21
657.2469519600263
 31
0.0
  0
LINE
  5
563
102
{ACAD_REACTORS
330
56A
102
}
330
1F
100
AcDbEntity
  8
中心線
100
AcDbLine
 10
239.3551450789447
 20
329.8271512208711
 30
0.0
 11
453.3542421904638
 21
329.8271512208711
 31
0.0
  0
LINE
  5
564
102
{ACAD_REACTORS
330
56A
102
}
330
1F
100
AcDbEntity
  8
中心線
100
AcDbLine
 10
346.3546936347044
 20
250.1379708850577
 30
0.0
 11
346.3546936347044
 21
657.2469519600262
 31
0.0
  0
LINE
  5
565
102
{ACAD_REACTORS
330
56B
102
}
330
1F
100
AcDbEntity
  8
中心線
100
AcDbLine
 10
26.3552974423809
 20
329.8271512208712
 30
0.0
 11
186.3540898270281
 21
329.8271512208712
 31
0.0
  0
LINE
  5
566
102
{ACAD_REACTORS
330
56B
102
}
330
1F
100
AcDbEntity
  8
中心線
100
AcDbLine
 10
106.3546936347043
 20
250.1379708850578
 30
0.0
 11
106.3546936347044
 21
657.2469519600263
 31
0.0
  0
ENDSEC
  0
SECTION
  2
OBJECTS
  0
DICTIONARY
  5
C
330
0
100
AcDbDictionary
281
     1
  3
ACAD_CIP_PREVIOUS_PRODUCT_INFO
350
2A0
  3
ACAD_COLOR
350
296
  3
ACAD_DETAILVIEWSTYLE
350
299
  3
ACAD_GROUP
350
D
  3
ACAD_LAYOUT
350
1A
  3
ACAD_MATERIAL
350
43
  3
ACAD_MLEADERSTYLE
350
5B
  3
ACAD_MLINESTYLE
350
17
  3
ACAD_PLOTSETTINGS
350
19
  3
ACAD_PLOTSTYLENAME
350
E
  3
ACAD_SCALELIST
350
47
  3
ACAD_SECTIONVIEWSTYLE
350
297
  3
ACAD_TABLESTYLE
350
59
  3
ACAD_VISUALSTYLE
350
2A
  3
ACDB_RECOMPOSE_DATA
350
63E
  3
AcDbVariableDictionary
350
24B
  3
DWGPROPS
350
63F
  0
DICTIONARY
  5
475
330
2
100
AcDbDictionary
280
     1
281
     1
  3
ACAD_LAYERSTATES
360
476
  0
DICTIONARY
  5
56D
330
10
100
AcDbDictionary
280
     1
281
     1
  3
ADSK_XREC_LAYER_RECONCILED
360
56E
  0
DICTIONARY
  5
471
330
470
100
AcDbDictionary
280
     1
281
     1
  3
ADSK_XREC_LAYER_RECONCILED
360
56F
  0
DICTIONARY
  5
473
330
472
100
AcDbDictionary
280
     1
281
     1
  3
ADSK_XREC_LAYER_RECONCILED
360
570
  0
DICTIONARY
  5
2D9
330
1F
100
AcDbDictionary
280
     1
281
     1
  3
ACAD_SORTENTS
360
2DA
  0
XRECORD
  5
2A0
102
{ACAD_REACTORS
330
C
102
}
330
C
100
AcDbXrecord
280
     1
300
ACDLT
300
2016
300
ACDLT_F_S
  0
DICTIONARY
  5
296
102
{ACAD_REACTORS
330
C
102
}
330
C
100
AcDbDictionary
281
     1
  0
DICTIONARY
  5
299
102
{ACAD_REACTORS
330
C
102
}
330
C
100
AcDbDictionary
281
     1
  3
Metric50
350
29A
  0
DICTIONARY
  5
D
102
{ACAD_REACTORS
330
C
102
}
330
C
100
AcDbDictionary
281
     1
  3
*A1
350
567
  3
*A2
350
568
  3
*A3
350
569
  3
*A4
350
56A
  3
*A5
350
56B
  3
*A6
350
56C
  0
DICTIONARY
  5
1A
102
{ACAD_REACTORS
330
C
102
}
330
C
100
AcDbDictionary
281
     1
  3
Layout1
350
1E
  3
Model
350
22
  3
レイアウト1
350
29B
  0
DICTIONARY
  5
43
102
{ACAD_REACTORS
330
C
102
}
330
C
100
AcDbDictionary
281
     1
  3
ByBlock
350
45
  3
ByLayer
350
44
  3
Global
350
46
  0
DICTIONARY
  5
5B
102
{ACAD_REACTORS
330
C
102
}
330
C
100
AcDbDictionary
281
     1
  3
Standard
350
5C
  0
DICTIONARY
  5
17
102
{ACAD_REACTORS
330
C
102
}
330
C
100
AcDbDictionary
281
     1
  3
Standard
350
18
  0
DICTIONARY
  5
19
102
{ACAD_REACTORS
330
C
102
}
330
C
100
AcDbDictionary
281
     1
  0
ACDBDICTIONARYWDFLT
  5
E
102
{ACAD_REACTORS
330
C
102
}
330
C
100
AcDbDictionary
281
     1
  3
Normal
350
F
100
AcDbDictionaryWithDefault
340
F
  0
DICTIONARY
  5
47
102
{ACAD_REACTORS
330
C
102
}
330
C
100
AcDbDictionary
281
     1
  3
A0
350
48
  3
A1
350
49
  3
A2
350
4A
  3
A3
350
4B
  3
A4
350
4C
  3
A5
350
4D
  3
A6
350
4E
  3
A7
350
4F
  3
A8
350
50
  3
A9
350
51
  3
B0
350
52
  3
B1
350
53
  3
B2
350
54
  3
B3
350
55
  3
B4
350
56
  3
B5
350
57
  3
B6
350
58
  0
DICTIONARY
  5
297
102
{ACAD_REACTORS
330
C
102
}
330
C
100
AcDbDictionary
281
     1
  3
Metric50
350
298
  0
DICTIONARY
  5
59
102
{ACAD_REACTORS
330
C
102
}
330
C
100
AcDbDictionary
281
     1
  3
Standard
350
5A
  0
DICTIONARY
  5
2A
102
{ACAD_REACTORS
330
C
102
}
330
C
100
AcDbDictionary
281
     1
  3
2dWireframe
350
2F
  3
Basic
350
32
  3
Brighten
350
36
  3
ColorChange
350
3A
  3
Conceptual
350
34
  3
Dim
350
35
  3
EdgeColorOff
350
3D
  3
Facepattern
350
39
  3
Flat
350
2B
  3
FlatWithEdges
350
2C
  3
Gouraud
350
2D
  3
GouraudWithEdges
350
2E
  3
Hidden
350
31
  3
JitterOff
350
3B
  3
Linepattern
350
38
  3
OverhangOff
350
3C
  3
Realistic
350
33
  3
Shaded
350
42
  3
Shaded with edges
350
41
  3
Shades of Gray
350
3E
  3
Sketchy
350
3F
  3
Thicken
350
37
  3
Wireframe
350
30
  3
X-Ray
350
40
  0
XRECORD
  5
63E
102
{ACAD_REACTORS
330
C
102
}
330
C
100
AcDbXrecord
280
     1
 90
        1
330
5A
  0
DICTIONARY
  5
24B
102
{ACAD_REACTORS
330
C
102
}
330
C
100
AcDbDictionary
281
     1
  3
CANNOSCALE
350
259
  3
CENTEREXE
350
252
  3
CENTERLTYPEFILE
350
253
  3
CMLEADERSTYLE
350
24D
  3
CTABLESTYLE
350
24C
  3
CVIEWDETAILSTYLE
350
571
  3
CVIEWSECTIONSTYLE
350
572
  3
DIMASSOC
350
254
  3
HIDETEXT
350
255
  3
INDEXCTL
350
5F8
  3
LAYEREVAL
350
574
  3
LAYERNOTIFY
350
575
  3
LIGHTINGUNITS
350
573
  3
LOFTANG1
350
5FB
  3
LOFTANG2
350
5FC
  3
LONGITUDE
350
5FD
  3
MSLTSCALE
350
25A
  3
PSOLHEIGHT
350
5FA
  3
PSOLWIDTH
350
5F9
  3
SORTENTS
350
5F7
  3
XCLIPFRAME
350
5FE
  0
XRECORD
  5
63F
102
{ACAD_REACTORS
330
C
102
}
330
C
100
AcDbXrecord
280
     1
  1
DWGPROPS COOKIE
  2

  3

  4

  6
File was created by TR2_DExp
  7

  8
fujino
  9

300
=
301
=
302
=
303
=
304
=
305
=
306
=
307
=
308
=
309
=
 40
0.0059450115740741
 41
2455188.75
 42
2459753.657541516
  1

 90
        0
  0
DICTIONARY
  5
476
102
{ACAD_REACTORS
330
475
102
}
330
475
100
AcDbDictionary
281
     1
  0
XRECORD
  5
56E
102
{ACAD_REACTORS
330
56D
102
}
330
56D
100
AcDbXrecord
280
     1
290
     1
  0
XRECORD
  5
56F
102
{ACAD_REACTORS
330
471
102
}
330
471
100
AcDbXrecord
280
     1
290
     1
  0
XRECORD
  5
570
102
{ACAD_REACTORS
330
473
102
}
330
473
100
AcDbXrecord
280
     1
290
     1
  0
SORTENTSTABLE
  5
2DA
102
{ACAD_REACTORS
330
2D9
102
}
330
2D9
100
AcDbSortentsTable
330
1F
331
36F
  5
3FE
331
32C
  5
3BB
331
36B
  5
3FA
331
328
  5
3B7
331
367
  5
3F6
331
363
  5
3F2
331
445
  5
2DC
331
2F5
  5
41C
331
441
  5
2D6
331
2BE
  5
454
331
3CD
  5
310
331
2F1
  5
418
331
43D
  5
2D2
331
2BA
  5
450
331
439
  5
2CE
331
3C9
  5
30C
331
2ED
  5
414
331
324
  5
3B3
331
320
  5
3AF
331
2E9
  5
410
331
3C5
  5
308
331
404
  5
347
331
400
  5
343
331
3C1
  5
39D
331
35F
  5
3EE
331
35B
  5
3EA
331
396
  5
372
331
357
  5
3E6
331
353
  5
3E2
331
392
  5
36E
331
435
  5
2CA
331
2B6
  5
44C
331
431
  5
2C6
331
2E5
  5
40C
331
31C
  5
3AB
331
46B
  5
302
331
2B2
  5
448
331
55C
  5
55C
331
2AE
  5
444
331
42D
  5
2C2
331
2E1
  5
408
331
3BD
  5
399
331
3FC
  5
33F
331
318
  5
3A7
331
2AA
  5
440
331
429
  5
2BE
331
2D5
  5
46B
331
3B9
  5
395
331
3F8
  5
33B
331
314
  5
3A3
331
310
  5
39F
331
2D1
  5
467
331
3B5
  5
391
331
3F4
  5
337
331
3F0
  5
333
331
3B1
  5
38D
331
34F
  5
3DE
331
38E
  5
36A
331
34B
  5
3DA
331
38A
  5
366
331
386
  5
362
331
347
  5
3D6
331
343
  5
3D2
331
382
  5
35E
331
464
  5
2FB
331
2A6
  5
43C
331
425
  5
2BA
331
421
  5
2B6
331
460
  5
2F7
331
564
  5
564
331
2CD
  5
463
331
2A2
  5
438
331
560
  5
560
331
2C9
  5
45F
331
3AD
  5
389
331
3EC
  5
32F
331
41D
  5
2B2
331
45C
  5
2F3
331
419
  5
2AE
331
2C5
  5
45B
331
3A9
  5
385
331
3E8
  5
32B
331
30C
  5
433
331
458
  5
2EF
331
308
  5
42F
331
2C1
  5
457
331
3A5
  5
381
331
3E4
  5
327
331
3E0
  5
323
331
3A1
  5
37D
331
33F
  5
3CE
331
37E
  5
35A
331
33B
  5
3CA
331
37A
  5
356
331
376
  5
352
331
337
  5
3C6
331
372
  5
401
331
333
  5
3C2
331
454
  5
2EB
331
415
  5
2AA
331
411
  5
2A6
331
304
  5
42B
331
450
  5
2E7
331
2DE
  5
405
331
40D
  5
2A2
331
39D
  5
379
331
3DC
  5
31F
331
300
  5
427
331
44C
  5
2E3
331
409
  5
34C
331
399
  5
375
331
3D8
  5
31B
331
2FC
  5
423
331
448
  5
2DF
331
3D4
  5
317
331
2F8
  5
41F
331
3D0
  5
313
331
32F
  5
3BE
331
36E
  5
3FD
331
32B
  5
3BA
331
36A
  5
3F9
331
366
  5
3F5
331
362
  5
3F1
331
444
  5
2DB
331
2F4
  5
41B
331
440
  5
2D5
331
2BD
  5
453
331
43C
  5
2D1
331
3CC
  5
30F
331
2F0
  5
417
331
327
  5
3B6
331
2B9
  5
44F
331
438
  5
2CD
331
2EC
  5
413
331
3C8
  5
30B
331
407
  5
34A
331
323
  5
3B2
331
403
  5
346
331
3C4
  5
307
331
2E8
  5
40F
331
3C0
  5
39C
331
35E
  5
3ED
331
35A
  5
3E9
331
395
  5
371
331
356
  5
3E5
331
352
  5
3E1
331
391
  5
36D
331
434
  5
2C9
331
31F
  5
3AE
331
46E
  5
305
331
2B5
  5
44B
331
55F
  5
55F
331
2B1
  5
447
331
430
  5
2C5
331
2E4
  5
40B
331
3FF
  5
342
331
31B
  5
3AA
331
46A
  5
301
331
55B
  5
55B
331
2AD
  5
443
331
42C
  5
2C1
331
2E0
  5
407
331
3BC
  5
398
331
3FB
  5
33E
331
317
  5
3A6
331
2A9
  5
43F
331
428
  5
2BD
331
2D4
  5
46A
331
3B8
  5
394
331
3F7
  5
33A
331
313
  5
3A2
331
2D0
  5
466
331
3B4
  5
390
331
3F3
  5
336
331
3B0
  5
38C
331
34E
  5
3DD
331
38D
  5
369
331
34A
  5
3D9
331
389
  5
365
331
385
  5
361
331
346
  5
3D5
331
342
  5
3D1
331
381
  5
35D
331
467
  5
2FE
331
424
  5
2B9
331
463
  5
2FA
331
2A5
  5
43B
331
420
  5
2B5
331
45F
  5
2F6
331
563
  5
563
331
2CC
  5
462
331
3EF
  5
332
331
2A1
  5
437
331
41C
  5
2B1
331
2C8
  5
45E
331
3AC
  5
388
331
3EB
  5
32E
331
30F
  5
436
331
45B
  5
2F2
331
418
  5
2AD
331
2C4
  5
45A
331
3A8
  5
384
331
3E7
  5
32A
331
30B
  5
432
331
2C0
  5
456
331
3A4
  5
380
331
3E3
  5
326
331
3A0
  5
37C
331
33E
  5
3CD
331
37D
  5
359
331
33A
  5
3C9
331
379
  5
355
331
375
  5
351
331
336
  5
3C5
331
332
  5
3C1
331
371
  5
400
331
457
  5
2EE
331
453
  5
2EA
331
307
  5
42E
331
414
  5
2A9
331
410
  5
2A5
331
3DF
  5
322
331
303
  5
42A
331
44F
  5
2E6
331
2DD
  5
404
331
40C
  5
2A1
331
39C
  5
378
331
3DB
  5
31E
331
2FF
  5
426
331
44B
  5
2E2
331
408
  5
34B
331
398
  5
374
331
3D7
  5
31A
331
2FB
  5
422
331
3D3
  5
316
331
32E
  5
3BD
331
36D
  5
3FC
331
32A
  5
3B9
331
369
  5
3F8
331
365
  5
3F4
331
361
  5
3F0
331
447
  5
2DE
331
2F7
  5
41E
331
443
  5
2D8
331
3CF
  5
312
331
2F3
  5
41A
331
43F
  5
2D4
331
2BC
  5
452
331
43B
  5
2D0
331
3CB
  5
30E
331
2EF
  5
416
331
326
  5
3B5
331
322
  5
3B1
331
2B8
  5
44E
331
2EB
  5
412
331
3C7
  5
30A
331
406
  5
349
331
402
  5
345
331
3C3
  5
306
331
35D
  5
3EC
331
359
  5
3E8
331
394
  5
370
331
355
  5
3E4
331
351
  5
3E0
331
390
  5
36C
331
437
  5
2CC
331
433
  5
2C8
331
31E
  5
3AD
331
46D
  5
304
331
2B4
  5
44A
331
2E7
  5
40E
331
55E
  5
55E
331
2B0
  5
446
331
42F
  5
2C4
331
2E3
  5
40A
331
3BF
  5
39B
331
3FE
  5
341
331
31A
  5
3A9
331
469
  5
300
331
2AC
  5
442
331
42B
  5
2C0
331
2D7
  5
46D
331
3BB
  5
397
331
3FA
  5
33D
331
316
  5
3A5
331
2A8
  5
43E
331
2D3
  5
469
331
3B7
  5
393
331
3F6
  5
339
331
312
  5
3A1
331
3F2
  5
335
331
3B3
  5
38F
331
34D
  5
3DC
331
38C
  5
368
331
349
  5
3D8
331
388
  5
364
331
384
  5
360
331
345
  5
3D4
331
341
  5
3D0
331
380
  5
35C
331
466
  5
2FD
331
427
  5
2BC
331
423
  5
2B8
331
462
  5
2F9
331
566
  5
566
331
2A4
  5
43A
331
2CF
  5
465
331
562
  5
562
331
2CB
  5
461
331
3EE
  5
331
331
41F
  5
2B4
331
45E
  5
2F5
331
3AF
  5
38B
331
41B
  5
2B0
331
2C7
  5
45D
331
3AB
  5
387
331
3EA
  5
32D
331
30E
  5
435
331
45A
  5
2F1
331
2C3
  5
459
331
3A7
  5
383
331
3E6
  5
329
331
30A
  5
431
331
3A3
  5
37F
331
3E2
  5
325
331
33D
  5
3CC
331
37C
  5
358
331
339
  5
3C8
331
378
  5
354
331
374
  5
350
331
335
  5
3C4
331
331
  5
3C0
331
370
  5
3FF
331
456
  5
2ED
331
417
  5
2AC
331
413
  5
2A8
331
306
  5
42D
331
452
  5
2E9
331
40F
  5
2A4
331
3DE
  5
321
331
302
  5
429
331
44E
  5
2E5
331
39F
  5
37B
331
2DC
  5
403
331
40B
  5
34E
331
39B
  5
377
331
3DA
  5
31D
331
2FE
  5
425
331
44A
  5
2E1
331
2D8
  5
46E
331
3D6
  5
319
331
2FA
  5
421
331
3D2
  5
315
331
32D
  5
3BC
331
36C
  5
3FB
331
329
  5
3B8
331
368
  5
3F7
331
364
  5
3F3
331
360
  5
3EF
331
446
  5
2DD
331
2F6
  5
41D
331
442
  5
2D7
331
2BF
  5
455
331
3CE
  5
311
331
2F2
  5
419
331
43E
  5
2D3
331
2BB
  5
451
331
43A
  5
2CF
331
3CA
  5
30D
331
2EE
  5
415
331
325
  5
3B4
331
321
  5
3B0
331
2EA
  5
411
331
3C6
  5
309
331
405
  5
348
331
401
  5
344
331
3C2
  5
39E
331
35C
  5
3EB
331
397
  5
373
331
358
  5
3E7
331
354
  5
3E3
331
393
  5
36F
331
350
  5
3DF
331
2B7
  5
44D
331
436
  5
2CB
331
432
  5
2C7
331
2E6
  5
40D
331
31D
  5
3AC
331
46C
  5
303
331
2B3
  5
449
331
55D
  5
55D
331
2AF
  5
445
331
42E
  5
2C3
331
2E2
  5
409
331
3BE
  5
39A
331
3FD
  5
340
331
319
  5
3A8
331
468
  5
2FF
331
2AB
  5
441
331
42A
  5
2BF
331
2D6
  5
46C
331
3BA
  5
396
331
3F9
  5
33C
331
315
  5
3A4
331
311
  5
3A0
331
2D2
  5
468
331
3B6
  5
392
331
3F5
  5
338
331
3F1
  5
334
331
3B2
  5
38E
331
38F
  5
36B
331
34C
  5
3DB
331
38B
  5
367
331
387
  5
363
331
348
  5
3D7
331
383
  5
35F
331
344
  5
3D3
331
340
  5
3CF
331
465
  5
2FC
331
2A7
  5
43D
331
426
  5
2BB
331
422
  5
2B7
331
461
  5
2F8
331
565
  5
565
331
2A3
  5
439
331
2CE
  5
464
331
561
  5
561
331
2CA
  5
460
331
3AE
  5
38A
331
3ED
  5
330
331
41E
  5
2B3
331
45D
  5
2F4
331
41A
  5
2AF
331
2C6
  5
45C
331
3AA
  5
386
331
3E9
  5
32C
331
30D
  5
434
331
459
  5
2F0
331
2C2
  5
458
331
3A6
  5
382
331
3E5
  5
328
331
309
  5
430
331
3E1
  5
324
331
3A2
  5
37E
331
37F
  5
35B
331
33C
  5
3CB
331
37B
  5
357
331
338
  5
3C7
331
377
  5
353
331
373
  5
34F
331
334
  5
3C3
331
330
  5
3BF
331
455
  5
2EC
331
416
  5
2AB
331
412
  5
2A7
331
305
  5
42C
331
451
  5
2E8
331
2DF
  5
406
331
40E
  5
2A3
331
3DD
  5
320
331
301
  5
428
331
44D
  5
2E4
331
39E
  5
37A
331
2DB
  5
402
331
40A
  5
34D
331
39A
  5
376
331
3D9
  5
31C
331
2FD
  5
424
331
449
  5
2E0
331
3D5
  5
318
331
2F9
  5
420
331
3D1
  5
314
  0
ACDBDETAILVIEWSTYLE
  5
29A
102
{ACAD_XDICTIONARY
360
677
102
}
102
{ACAD_REACTORS
330
299
102
}
330
299
100
AcDbModelDocViewStyle
 70
     0
  3
Metric50
290
     0
100
AcDbDetailViewStyle
 70
     0
 71
     0
 90
        3
 71
     1
340
11
 40
5.0
340
0
 40
5.0
300

 40
0.0
280
     1
 71
     2
340
16
 90
       25
 71
     3
340
11
 40
5.0
 90
        0
 40
15.0
 90
        1
300
%<\AcVar ViewDetailId>% (%<\AcVar ViewScale \f "%sn">%)
 71
     4
340
16
 90
       25
340
16
 90
       25
280
     0
  0
GROUP
  5
567
102
{ACAD_REACTORS
330
D
102
}
330
D
100
AcDbGroup
300

 70
     1
 71
     1
340
560
340
55F
340
372
340
371
340
370
340
36F
340
36E
340
36D
340
36C
340
36B
340
36A
340
369
340
368
340
367
340
366
340
365
340
364
340
363
340
362
340
361
340
360
340
35F
340
35E
340
35D
340
35C
340
35B
340
35A
340
359
340
358
340
357
340
356
340
355
340
354
340
353
340
352
340
351
340
350
340
34F
340
34E
340
34D
340
34C
340
34B
340
34A
340
349
340
348
340
347
340
346
340
345
340
344
340
343
340
342
340
341
340
340
340
33F
340
33E
340
33D
340
33C
340
33B
340
33A
340
339
340
338
340
337
340
336
340
335
340
334
340
333
340
332
340
331
340
330
340
32F
340
32E
340
32D
340
32C
340
32B
340
32A
340
329
340
328
340
327
340
326
340
325
340
324
340
323
340
322
340
321
340
320
340
31F
340
31E
340
31D
340
31C
340
31B
340
31A
340
319
340
318
340
317
340
316
340
315
340
314
340
313
340
312
340
311
340
310
  0
GROUP
  5
568
102
{ACAD_REACTORS
330
D
102
}
330
D
100
AcDbGroup
300

 70
     1
 71
     1
340
562
340
561
340
3C2
340
3C1
340
3C0
340
3BF
340
3BE
340
3BD
340
3BC
340
3BB
340
3BA
340
3B9
340
3B8
340
3B7
340
3B6
340
3B5
340
3B4
340
3B3
340
3B2
340
3B1
340
3B0
340
3AF
340
3AE
340
3AD
340
3AC
340
3AB
340
3AA
340
3A9
340
3A8
340
3A7
340
3A6
340
3A5
340
3A4
340
3A3
340
3A2
340
3A1
340
3A0
340
39F
340
39E
340
39D
340
39C
340
39B
340
39A
340
399
340
398
340
397
340
396
340
395
340
394
340
393
340
392
340
391
340
390
340
38F
340
38E
340
38D
340
38C
340
38B
340
38A
340
389
340
388
340
387
340
386
340
385
340
384
340
383
340
382
340
381
340
380
340
37F
340
37E
340
37D
340
37C
340
37B
340
37A
340
379
340
378
340
377
340
376
340
375
340
374
340
373
  0
GROUP
  5
569
102
{ACAD_REACTORS
330
D
102
}
330
D
100
AcDbGroup
300

 70
     1
 71
     1
340
55C
340
55B
340
30F
340
30E
340
30D
340
30C
340
30B
340
30A
340
309
340
308
340
307
340
306
340
305
340
304
340
303
340
302
340
301
340
300
340
2FF
340
2FE
340
2FD
340
2FC
340
2FB
340
2FA
340
2F9
340
2F8
340
2F7
340
2F6
340
2F5
340
2F4
340
2F3
340
2F2
340
2F1
340
2F0
340
2EF
340
2EE
340
2ED
340
2EC
340
2EB
340
2EA
340
2E9
340
2E8
340
2E7
340
2E6
340
2E5
340
2E4
340
2E3
340
2E2
340
2E1
340
2E0
340
2DF
340
2DE
340
2DD
340
2DC
340
2DB
  0
GROUP
  5
56A
102
{ACAD_REACTORS
330
D
102
}
330
D
100
AcDbGroup
300

 70
     1
 71
     1
340
564
340
563
340
46E
340
46D
340
46C
340
46B
340
46A
340
469
340
468
340
467
340
466
340
465
340
464
340
463
340
462
340
461
340
460
340
45F
340
45E
340
45D
340
45C
340
45B
340
45A
340
459
340
458
340
457
340
456
340
455
340
454
340
453
340
452
340
451
340
450
340
44F
340
44E
340
44D
340
44C
340
44B
340
44A
340
449
340
448
340
447
340
446
340
445
340
444
340
443
340
442
340
441
340
440
340
43F
340
43E
340
43D
340
43C
340
43B
340
43A
340
439
340
438
340
437
340
436
340
435
340
434
340
433
340
432
340
431
340
430
340
42F
340
42E
340
42D
340
42C
340
42B
340
42A
340
429
340
428
340
427
340
426
340
425
340
424
340
423
340
422
340
421
340
420
340
41F
340
41E
340
41D
340
41C
340
41B
340
41A
340
419
340
418
340
417
340
416
340
415
340
414
340
413
340
412
340
411
340
410
340
40F
340
40E
340
40D
340
40C
  0
GROUP
  5
56B
102
{ACAD_REACTORS
330
D
102
}
330
D
100
AcDbGroup
300

 70
     1
 71
     1
340
566
340
565
340
40B
340
40A
340
409
340
408
340
407
340
406
340
405
340
404
340
403
340
402
340
401
340
400
340
3FF
340
3FE
340
3FD
340
3FC
340
3FB
340
3FA
340
3F9
340
3F8
340
3F7
340
3F6
340
3F5
340
3F4
340
3F3
340
3F2
340
3F1
340
3F0
340
3EF
340
3EE
340
3ED
340
3EC
340
3EB
340
3EA
340
3E9
340
3E8
340
3E7
340
3E6
340
3E5
340
3E4
340
3E3
340
3E2
340
3E1
340
3E0
340
3DF
340
3DE
340
3DD
340
3DC
340
3DB
340
3DA
340
3D9
340
3D8
340
3D7
340
3D6
340
3D5
340
3D4
340
3D3
340
3D2
340
3D1
340
3D0
340
3CF
340
3CE
340
3CD
340
3CC
340
3CB
340
3CA
340
3C9
340
3C8
340
3C7
340
3C6
340
3C5
340
3C4
340
3C3
  0
GROUP
  5
56C
102
{ACAD_REACTORS
330
D
102
}
330
D
100
AcDbGroup
300

 70
     1
 71
     1
340
55E
340
55D
340
2D8
340
2D7
340
2D6
340
2D5
340
2D4
340
2D3
340
2D2
340
2D1
340
2D0
340
2CF
340
2CE
340
2CD
340
2CC
340
2CB
340
2CA
340
2C9
340
2C8
340
2C7
340
2C6
340
2C5
340
2C4
340
2C3
340
2C2
340
2C1
340
2C0
340
2BF
340
2BE
340
2BD
340
2BC
340
2BB
340
2BA
340
2B9
340
2B8
340
2B7
340
2B6
340
2B5
340
2B4
340
2B3
340
2B2
340
2B1
340
2B0
340
2AF
340
2AE
340
2AD
340
2AC
340
2AB
340
2AA
340
2A9
340
2A8
340
2A7
340
2A6
340
2A5
340
2A4
340
2A3
340
2A2
340
2A1
  0
LAYOUT
  5
1E
102
{ACAD_XDICTIONARY
360
640
102
}
102
{ACAD_REACTORS
330
1A
102
}
330
1A
100
AcDbPlotSettings
  1

  2
none_device
  4

  6

 40
0.0
 41
0.0
 42
0.0
 43
0.0
 44
0.0
 45
0.0
 46
0.0
 47
0.0
 48
0.0
 49
0.0
140
0.0
141
0.0
142
1.0
143
1.0
 70
   688
 72
     1
 73
     0
 74
     5
  7

 75
    16
147
1.0
148
0.0
149
0.0
100
AcDbLayout
  1
Layout1
 70
     1
 71
     1
 10
0.0
 20
0.0
 11
420.0
 21
297.0
 12
0.0
 22
0.0
 32
0.0
 14
1.000000000000000E+20
 24
1.000000000000000E+20
 34
1.000000000000000E+20
 15
-1.000000000000000E+20
 25
-1.000000000000000E+20
 35
-1.000000000000000E+20
146
0.0
 13
0.0
 23
0.0
 33
0.0
 16
1.0
 26
0.0
 36
0.0
 17
0.0
 27
1.0
 37
0.0
 76
     0
330
1B
  0
LAYOUT
  5
22
102
{ACAD_XDICTIONARY
360
642
102
}
102
{ACAD_REACTORS
330
1A
102
}
330
1A
100
AcDbPlotSettings
  1

  2
none_device
  4
Letter_(8.50_x_11.00_Inches)
  6

 40
6.349999999999997
 41
6.349999999999997
 42
6.350005079999997
 43
6.350005079999997
 44
215.9
 45
279.4
 46
0.0
 47
0.0
 48
0.0
 49
0.0
140
0.0
141
0.0
142
1.0
143
1.0
 70
  1712
 72
     1
 73
     0
 74
     0
  7

 75
     0
147
1.0
148
0.0
149
0.0
100
AcDbLayout
  1
Model
 70
     1
 71
     0
 10
-488.2221374511618
 20
-426.5665931701557
 11
1117.544250488281
 21
720.823516845693
 12
0.0
 22
0.0
 32
0.0
 14
-488.2221374511618
 24
-426.5665931701557
 34
0.0
 15
1117.544250488281
 25
720.823516845693
 35
0.0
146
0.0
 13
0.0
 23
0.0
 33
0.0
 16
1.0
 26
0.0
 36
0.0
 17
0.0
 27
1.0
 37
0.0
 76
     0
330
1F
331
29
  0
LAYOUT
  5
29B
102
{ACAD_XDICTIONARY
360
679
102
}
102
{ACAD_REACTORS
330
1A
102
}
330
1A
100
AcDbPlotSettings
  1

  2
青梅 FX DocuCentre-V C2275 T2
  4

  6

 40
0.0
 41
0.0
 42
0.0
 43
0.0
 44
0.0
 45
0.0
 46
0.0
 47
0.0
 48
0.0
 49
0.0
140
0.0
141
0.0
142
1.0
143
1.0
 70
   688
 72
     0
 73
     0
 74
     5
  7
AutoCAD_PEN.ctb
 75
    16
147
1.0
148
0.0
149
0.0
100
AcDbLayout
  1
レイアウト1
 70
     1
 71
     2
 10
0.0
 20
0.0
 11
12.0
 21
9.0
 12
0.0
 22
0.0
 32
0.0
 14
0.0
 24
0.0
 34
0.0
 15
0.0
 25
0.0
 35
0.0
146
0.0
 13
0.0
 23
0.0
 33
0.0
 16
1.0
 26
0.0
 36
0.0
 17
0.0
 27
1.0
 37
0.0
 76
     0
330
23
  0
MATERIAL
  5
45
102
{ACAD_XDICTIONARY
360
28D
102
}
102
{ACAD_REACTORS
330
43
102
}
330
43
100
AcDbMaterial
  1
ByBlock
  0
MATERIAL
  5
44
102
{ACAD_XDICTIONARY
360
28B
102
}
102
{ACAD_REACTORS
330
43
102
}
330
43
100
AcDbMaterial
  1
ByLayer
  0
MATERIAL
  5
46
102
{ACAD_XDICTIONARY
360
28F
102
}
102
{ACAD_REACTORS
330
43
102
}
330
43
100
AcDbMaterial
  1
Global
  0
MLEADERSTYLE
  5
5C
102
{ACAD_REACTORS
330
5B
102
}
330
5B
100
AcDbMLeaderStyle
170
     2
171
     1
172
     0
 90
        2
 40
0.0
 41
0.0
173
     1
 91
-1056964608
340
14
 92
       -2
290
     1
 42
2.0
291
     1
 43
8.0
  3
Standard
 44
4.0
300

342
11
174
     1
178
     6
175
     1
176
     0
 93
-1056964608
 45
4.0
292
     0
297
     0
 46
4.0
 94
-1056964608
 47
1.0
 49
1.0
140
1.0
293
     1
141
0.0
294
     1
177
     0
142
1.0
295
     0
296
     0
143
3.75
1001
ACAD_MLEADERVER
1070
     2
  0
MLINESTYLE
  5
18
102
{ACAD_REACTORS
330
17
102
}
330
17
100
AcDbMlineStyle
  2
STANDARD
 70
     0
  3

 62
   256
 51
90.0
 52
90.0
 71
     2
 49
0.5
 62
   256
  6
BYLAYER
 49
-0.5
 62
   256
  6
BYLAYER
  0
ACDBPLACEHOLDER
  5
F
102
{ACAD_REACTORS
330
E
102
}
330
E
  0
SCALE
  5
48
102
{ACAD_REACTORS
330
47
102
}
330
47
100
AcDbScale
 70
     0
300
1:1
140
1.0
141
1.0
290
     1
  0
SCALE
  5
49
102
{ACAD_REACTORS
330
47
102
}
330
47
100
AcDbScale
 70
     0
300
1:2
140
1.0
141
2.0
290
     0
  0
SCALE
  5
4A
102
{ACAD_REACTORS
330
47
102
}
330
47
100
AcDbScale
 70
     0
300
1:4
140
1.0
141
4.0
290
     0
  0
SCALE
  5
4B
102
{ACAD_REACTORS
330
47
102
}
330
47
100
AcDbScale
 70
     0
300
1:5
140
1.0
141
5.0
290
     0
  0
SCALE
  5
4C
102
{ACAD_REACTORS
330
47
102
}
330
47
100
AcDbScale
 70
     0
300
1:8
140
1.0
141
8.0
290
     0
  0
SCALE
  5
4D
102
{ACAD_REACTORS
330
47
102
}
330
47
100
AcDbScale
 70
     0
300
1:10
140
1.0
141
10.0
290
     0
  0
SCALE
  5
4E
102
{ACAD_REACTORS
330
47
102
}
330
47
100
AcDbScale
 70
     0
300
1:16
140
1.0
141
16.0
290
     0
  0
SCALE
  5
4F
102
{ACAD_REACTORS
330
47
102
}
330
47
100
AcDbScale
 70
     0
300
1:20
140
1.0
141
20.0
290
     0
  0
SCALE
  5
50
102
{ACAD_REACTORS
330
47
102
}
330
47
100
AcDbScale
 70
     0
300
1:30
140
1.0
141
30.0
290
     0
  0
SCALE
  5
51
102
{ACAD_REACTORS
330
47
102
}
330
47
100
AcDbScale
 70
     0
300
1:40
140
1.0
141
40.0
290
     0
  0
SCALE
  5
52
102
{ACAD_REACTORS
330
47
102
}
330
47
100
AcDbScale
 70
     0
300
1:50
140
1.0
141
50.0
290
     0
  0
SCALE
  5
53
102
{ACAD_REACTORS
330
47
102
}
330
47
100
AcDbScale
 70
     0
300
1:100
140
1.0
141
100.0
290
     0
  0
SCALE
  5
54
102
{ACAD_REACTORS
330
47
102
}
330
47
100
AcDbScale
 70
     0
300
2:1
140
2.0
141
1.0
290
     0
  0
SCALE
  5
55
102
{ACAD_REACTORS
330
47
102
}
330
47
100
AcDbScale
 70
     0
300
4:1
140
4.0
141
1.0
290
     0
  0
SCALE
  5
56
102
{ACAD_REACTORS
330
47
102
}
330
47
100
AcDbScale
 70
     0
300
8:1
140
8.0
141
1.0
290
     0
  0
SCALE
  5
57
102
{ACAD_REACTORS
330
47
102
}
330
47
100
AcDbScale
 70
     0
300
10:1
140
10.0
141
1.0
290
     0
  0
SCALE
  5
58
102
{ACAD_REACTORS
330
47
102
}
330
47
100
AcDbScale
 70
     0
300
100:1
140
100.0
141
1.0
290
     0
  0
ACDBSECTIONVIEWSTYLE
  5
298
102
{ACAD_XDICTIONARY
360
675
102
}
102
{ACAD_REACTORS
330
297
102
}
330
297
100
AcDbModelDocViewStyle
 70
     0
  3
Metric50
290
     0
100
AcDbSectionViewStyle
 70
     0
 71
     0
 90
      102
 71
     1
340
11
 40
5.0
340
0
340
0
 40
5.0
300
I, O, Q, S, X, Z
 40
10.0
 90
        0
 40
2.5
 90
        0
 71
     2
340
16
 90
       25
340
16
 90
       50
 40
5.0
 40
2.5
 40
5.0
 71
     3
340
11
 40
5.0
 90
        0
 40
15.0
 90
        1
300
%<\AcVar ViewSectionStartId>%-%<\AcVar ViewSectionEndId>% (%<\AcVar ViewScale \f "%sn">%)
 71
     4
300
ANSI31
 40
1.0
 90
        0
290
     0
290
     0
 90
        6
 40
0.0
 40
1.570796326794896
 40
0.2617993877991494
 40
1.308996938995747
 40
-0.2617993877991494
 40
1.832595714594044
  0
TABLESTYLE
  5
5A
102
{ACAD_XDICTIONARY
360
576
102
}
102
{ACAD_REACTORS
330
59
102
}
330
59
100
AcDbTableStyle
  3
Standard
 70
     0
 71
     0
 40
1.5
 41
1.5
280
     0
281
     0
  7
Standard
140
4.5
170
     2
 62
     0
 63
     7
283
     0
274
    -2
284
     1
 64
     0
275
    -2
285
     1
 65
     0
276
    -2
286
     1
 66
     0
277
    -2
287
     1
 67
     0
278
    -2
288
     1
 68
     0
279
    -2
289
     1
 69
     0
  7
Standard
140
6.0
170
     5
 62
     0
 63
     7
283
     0
274
    -2
284
     1
 64
     0
275
    -2
285
     1
 65
     0
276
    -2
286
     1
 66
     0
277
    -2
287
     1
 67
     0
278
    -2
288
     1
 68
     0
279
    -2
289
     1
 69
     0
  7
Standard
140
4.5
170
     5
 62
     0
 63
     7
283
     0
274
    -2
284
     1
 64
     0
275
    -2
285
     1
 65
     0
276
    -2
286
     1
 66
     0
277
    -2
287
     1
 67
     0
278
    -2
288
     1
 68
     0
279
    -2
289
     1
 69
     0
  0
VISUALSTYLE
  5
2F
102
{ACAD_XDICTIONARY
360
64C
102
}
102
{ACAD_REACTORS
330
2A
102
}
330
2A
100
AcDbVisualStyle
  2

 70
     4
 71
     0
 72
     2
 73
     0
 90
        0
 40
-0.6
 41
-30.0
 62
     5
 63
     7
 74
     1
 91
        4
 64
     7
 65
   257
 75
     1
175
     1
 42
1.0
 92
        0
 66
   257
 43
1.0
 76
     1
 77
     6
 78
     2
 67
     7
 79
     5
170
     0
171
     0
290
     0
174
     0
 93
        1
 44
0.0
173
     0
291
     0
 45
0.0
1001
ACAD
1000
AcDbSavedByObjectVersion
1070
     0
  0
VISUALSTYLE
  5
32
102
{ACAD_XDICTIONARY
360
652
102
}
102
{ACAD_REACTORS
330
2A
102
}
330
2A
100
AcDbVisualStyle
  2

 70
     7
 71
     1
 72
     0
 73
     1
 90
        0
 40
-0.6
 41
-30.0
 62
     5
 63
     7
 74
     0
 91
        4
 64
     7
 65
   257
 75
     1
175
     1
 42
1.0
 92
        8
 66
     7
 43
1.0
 76
     1
 77
     6
 78
     2
 67
     7
 79
     5
170
     0
171
     0
290
     0
174
     0
 93
        1
 44
0.0
173
     0
291
     1
 45
0.0
1001
ACAD
1000
AcDbSavedByObjectVersion
1070
     0
  0
VISUALSTYLE
  5
36
102
{ACAD_XDICTIONARY
360
65A
102
}
102
{ACAD_REACTORS
330
2A
102
}
330
2A
100
AcDbVisualStyle
  2

 70
    12
 71
     2
 72
     2
 73
     0
 90
        0
 40
-0.6
 41
-30.0
 62
     5
 63
     7
 74
     1
 91
        4
 64
     7
 65
   257
 75
     1
175
     1
 42
1.0
 92
        8
 66
     7
 43
1.0
 76
     1
 77
     6
 78
     2
 67
     7
 79
     5
170
     0
171
     0
290
     0
174
     0
 93
        1
 44
50.0
173
     0
291
     1
 45
0.0
1001
ACAD
1000
AcDbSavedByObjectVersion
1070
     0
  0
VISUALSTYLE
  5
3A
102
{ACAD_XDICTIONARY
360
662
102
}
102
{ACAD_REACTORS
330
2A
102
}
330
2A
100
AcDbVisualStyle
  2

 70
    16
 71
     2
 72
     2
 73
     3
 90
        0
 40
-0.6
 41
-30.0
 62
     5
 63
     8
 74
     1
 91
        4
 64
     7
 65
   257
 75
     1
175
     1
 42
1.0
 92
        8
 66
     8
 43
1.0
 76
     1
 77
     6
 78
     2
 67
     7
 79
     5
170
     0
171
     0
290
     0
174
     0
 93
        1
 44
0.0
173
     0
291
     1
 45
0.0
1001
ACAD
1000
AcDbSavedByObjectVersion
1070
     0
  0
VISUALSTYLE
  5
34
102
{ACAD_XDICTIONARY
360
656
102
}
102
{ACAD_REACTORS
330
2A
102
}
330
2A
100
AcDbVisualStyle
  2

 70
     9
 71
     3
 72
     2
 73
     0
 90
        0
 40
-0.6
 41
-30.0
 62
     5
 63
     7
 74
     2
 91
        2
 64
     7
 65
   257
 75
     1
175
     1
 42
179.0
 92
        8
 66
     7
 43
1.0
 76
     1
 77
     6
 78
     2
 67
     7
 79
     3
170
     0
171
     0
290
     0
174
     0
 93
        1
 44
0.0
173
     0
291
     0
 45
0.0
1001
ACAD
1000
AcDbSavedByObjectVersion
1070
     0
  0
VISUALSTYLE
  5
35
102
{ACAD_XDICTIONARY
360
658
102
}
102
{ACAD_REACTORS
330
2A
102
}
330
2A
100
AcDbVisualStyle
  2

 70
    11
 71
     2
 72
     2
 73
     0
 90
        0
 40
-0.6
 41
-30.0
 62
     5
 63
     7
 74
     1
 91
        4
 64
     7
 65
   257
 75
     1
175
     1
 42
1.0
 92
        8
 66
     7
 43
1.0
 76
     1
 77
     6
 78
     2
 67
     7
 79
     5
170
     0
171
     0
290
     0
174
     0
 93
        1
 44
-50.0
173
     0
291
     1
 45
0.0
1001
ACAD
1000
AcDbSavedByObjectVersion
1070
     0
  0
VISUALSTYLE
  5
3D
102
{ACAD_XDICTIONARY
360
668
102
}
102
{ACAD_REACTORS
330
2A
102
}
330
2A
100
AcDbVisualStyle
  2

 70
    22
 71
     2
 72
     2
 73
     0
 90
        0
 40
-0.6
 41
-30.0
 62
     5
 63
     7
 74
     1
 91
        4
 64
     7
 65
   257
 75
     1
175
     1
 42
1.0
 92
        8
 66
     7
 43
1.0
 76
     1
 77
     6
 78
     2
 67
     7
 79
     5
170
     0
171
     0
290
     0
174
     0
 93
        1
 44
0.0
173
     0
291
     1
 45
0.0
1001
ACAD
1000
AcDbSavedByObjectVersion
1070
     0
  0
VISUALSTYLE
  5
39
102
{ACAD_XDICTIONARY
360
660
102
}
102
{ACAD_REACTORS
330
2A
102
}
330
2A
100
AcDbVisualStyle
  2

 70
    15
 71
     2
 72
     2
 73
     0
 90
        0
 40
-0.6
 41
-30.0
 62
     5
 63
     7
 74
     1
 91
        4
 64
     7
 65
   257
 75
     1
175
     1
 42
1.0
 92
        8
 66
     7
 43
1.0
 76
     1
 77
     6
 78
     2
 67
     7
 79
     5
170
     0
171
     0
290
     0
174
     0
 93
        1
 44
0.0
173
     0
291
     1
 45
0.0
1001
ACAD
1000
AcDbSavedByObjectVersion
1070
     0
  0
VISUALSTYLE
  5
2B
102
{ACAD_XDICTIONARY
360
644
102
}
102
{ACAD_REACTORS
330
2A
102
}
330
2A
100
AcDbVisualStyle
  2

 70
     0
 71
     2
 72
     1
 73
     1
 90
        2
 40
-0.6
 41
30.0
 62
     5
 63
     7
 74
     0
 91
        0
 64
     7
 65
   257
 75
     1
175
     1
 42
1.0
 92
        8
 66
     7
 43
1.0
 76
     1
 77
     6
 78
     2
 67
     7
 79
     5
170
     0
171
     0
290
     0
174
     0
 93
       13
 44
0.0
173
     0
291
     1
 45
0.0
1001
ACAD
1000
AcDbSavedByObjectVersion
1070
     0
  0
VISUALSTYLE
  5
2C
102
{ACAD_XDICTIONARY
360
646
102
}
102
{ACAD_REACTORS
330
2A
102
}
330
2A
100
AcDbVisualStyle
  2

 70
     1
 71
     2
 72
     1
 73
     1
 90
        2
 40
-0.6
 41
30.0
 62
     5
 63
     7
 74
     1
 91
        0
 64
     7
 65
   257
 75
     1
175
     1
 42
1.0
 92
        0
 66
   257
 43
1.0
 76
     1
 77
     6
 78
     2
 67
     7
 79
     5
170
     0
171
     0
290
     0
174
     0
 93
       13
 44
0.0
173
     0
291
     1
 45
0.0
1001
ACAD
1000
AcDbSavedByObjectVersion
1070
     0
  0
VISUALSTYLE
  5
2D
102
{ACAD_XDICTIONARY
360
648
102
}
102
{ACAD_REACTORS
330
2A
102
}
330
2A
100
AcDbVisualStyle
  2

 70
     2
 71
     2
 72
     2
 73
     1
 90
        2
 40
-0.6
 41
30.0
 62
     5
 63
     7
 74
     0
 91
        0
 64
     7
 65
   257
 75
     1
175
     1
 42
1.0
 92
        0
 66
     7
 43
1.0
 76
     1
 77
     6
 78
     2
 67
     7
 79
     5
170
     0
171
     0
290
     0
174
     0
 93
       13
 44
0.0
173
     0
291
     1
 45
0.0
1001
ACAD
1000
AcDbSavedByObjectVersion
1070
     0
  0
VISUALSTYLE
  5
2E
102
{ACAD_XDICTIONARY
360
64A
102
}
102
{ACAD_REACTORS
330
2A
102
}
330
2A
100
AcDbVisualStyle
  2

 70
     3
 71
     2
 72
     2
 73
     1
 90
        2
 40
-0.6
 41
30.0
 62
     5
 63
     7
 74
     1
 91
        0
 64
     7
 65
   257
 75
     1
175
     1
 42
1.0
 92
        0
 66
   257
 43
1.0
 76
     1
 77
     6
 78
     2
 67
     7
 79
     5
170
     0
171
     0
290
     0
174
     0
 93
       13
 44
0.0
173
     0
291
     1
 45
0.0
1001
ACAD
1000
AcDbSavedByObjectVersion
1070
     0
  0
VISUALSTYLE
  5
31
102
{ACAD_XDICTIONARY
360
650
102
}
102
{ACAD_REACTORS
330
2A
102
}
330
2A
100
AcDbVisualStyle
  2

 70
     6
 71
     1
 72
     2
 73
     2
 90
        0
 40
-0.6
 41
-30.0
 62
     5
 63
     7
 74
     2
 91
        2
 64
     7
 65
   257
 75
     2
175
     1
 42
40.0
 92
        0
 66
   257
 43
1.0
 76
     1
 77
     6
 78
     2
 67
     7
 79
     3
170
     0
171
     0
290
     0
174
     0
 93
        1
 44
0.0
173
     0
291
     0
 45
0.0
1001
ACAD
1000
AcDbSavedByObjectVersion
1070
     0
  0
VISUALSTYLE
  5
3B
102
{ACAD_XDICTIONARY
360
664
102
}
102
{ACAD_REACTORS
330
2A
102
}
330
2A
100
AcDbVisualStyle
  2

 70
    20
 71
     2
 72
     2
 73
     0
 90
        0
 40
-0.6
 41
-30.0
 62
     5
 63
     7
 74
     1
 91
        4
 64
     7
 65
   257
 75
     1
175
     1
 42
1.0
 92
       10
 66
     7
 43
1.0
 76
     1
 77
     6
 78
     2
 67
     7
 79
     5
170
     0
171
     0
290
     0
174
     0
 93
        1
 44
0.0
173
     0
291
     1
 45
0.0
1001
ACAD
1000
AcDbSavedByObjectVersion
1070
     0
  0
VISUALSTYLE
  5
38
102
{ACAD_XDICTIONARY
360
65E
102
}
102
{ACAD_REACTORS
330
2A
102
}
330
2A
100
AcDbVisualStyle
  2

 70
    14
 71
     2
 72
     2
 73
     0
 90
        0
 40
-0.6
 41
-30.0
 62
     5
 63
     7
 74
     1
 91
        4
 64
     7
 65
   257
 75
     7
175
     7
 42
1.0
 92
        8
 66
     7
 43
1.0
 76
     1
 77
     6
 78
     2
 67
     7
 79
     5
170
     0
171
     0
290
     0
174
     0
 93
        1
 44
0.0
173
     0
291
     1
 45
0.0
1001
ACAD
1000
AcDbSavedByObjectVersion
1070
     0
  0
VISUALSTYLE
  5
3C
102
{ACAD_XDICTIONARY
360
666
102
}
102
{ACAD_REACTORS
330
2A
102
}
330
2A
100
AcDbVisualStyle
  2

 70
    21
 71
     2
 72
     2
 73
     0
 90
        0
 40
-0.6
 41
-30.0
 62
     5
 63
     7
 74
     1
 91
        4
 64
     7
 65
   257
 75
     1
175
     1
 42
1.0
 92
        9
 66
     7
 43
1.0
 76
     1
 77
     6
 78
     2
 67
     7
 79
     5
170
     0
171
     0
290
     0
174
     0
 93
        1
 44
0.0
173
     0
291
     1
 45
0.0
1001
ACAD
1000
AcDbSavedByObjectVersion
1070
     0
  0
VISUALSTYLE
  5
33
102
{ACAD_XDICTIONARY
360
654
102
}
102
{ACAD_REACTORS
330
2A
102
}
330
2A
100
AcDbVisualStyle
  2

 70
     8
 71
     2
 72
     3
 73
     0
 90
        2
 40
-0.6
 41
30.0
 62
     5
 63
     7
 74
     0
 91
        0
 64
     7
 65
   257
 75
     1
175
     1
 42
1.0
 92
        8
 66
   257
 43
1.0
 76
     1
 77
     6
 78
     2
 67
     7
 79
     3
170
     0
171
     0
290
     0
174
     0
 93
       13
 44
0.0
173
     0
291
     0
 45
0.0
1001
ACAD
1000
AcDbSavedByObjectVersion
1070
     0
  0
VISUALSTYLE
  5
42
102
{ACAD_XDICTIONARY
360
672
102
}
102
{ACAD_REACTORS
330
2A
102
}
330
2A
100
AcDbVisualStyle
  2

 70
    27
 71
     2
 72
     2
 73
     1
 90
        2
 40
-0.6
 41
30.0
 62
     5
 63
     7
 74
     0
 91
        4
 64
     7
 65
   257
 75
     1
175
     1
 42
1.0
 92
        8
 66
   257
 43
1.0
 76
     1
 77
     6
 78
     2
 67
     8
 79
     3
170
     0
171
     0
290
     0
174
     0
 93
        5
 44
0.0
173
     0
291
     0
 45
0.0
1001
ACAD
1000
AcDbSavedByObjectVersion
1070
     0
  0
VISUALSTYLE
  5
41
102
{ACAD_XDICTIONARY
360
670
102
}
102
{ACAD_REACTORS
330
2A
102
}
330
2A
100
AcDbVisualStyle
  2

 70
    26
 71
     2
 72
     2
 73
     1
 90
        2
 40
-0.6
 41
30.0
 62
     5
 63
     7
 74
     1
 91
       10
 64
     7
 65
   257
 75
     2
175
     1
 42
1.0
 92
        8
 66
   257
 43
1.0
 76
     1
 77
     6
 78
     2
 67
     7
 79
     3
170
     0
171
     0
290
     0
174
     0
 93
        5
 44
0.0
173
     0
291
     0
 45
0.0
1001
ACAD
1000
AcDbSavedByObjectVersion
1070
     0
  0
VISUALSTYLE
  5
3E
102
{ACAD_XDICTIONARY
360
66A
102
}
102
{ACAD_REACTORS
330
2A
102
}
330
2A
100
AcDbVisualStyle
  2

 70
    23
 71
     2
 72
     2
 73
     3
 90
        0
 40
-0.6
 41
-30.0
 62
     5
 63
     7
 74
     2
 91
        2
 64
     7
 65
     7
 75
     1
175
     1
 42
40.0
 92
        8
 66
     7
 43
1.0
 76
     1
 77
     6
 78
     2
 67
     7
 79
     3
170
     0
171
     0
290
     0
174
     0
 93
        1
 44
0.0
173
     0
291
     0
 45
0.0
1001
ACAD
1000
AcDbSavedByObjectVersion
1070
     0
  0
VISUALSTYLE
  5
3F
102
{ACAD_XDICTIONARY
360
66C
102
}
102
{ACAD_REACTORS
330
2A
102
}
330
2A
100
AcDbVisualStyle
  2

 70
    24
 71
     1
 72
     2
 73
     2
 90
        0
 40
-0.6
 41
-30.0
 62
     5
 63
     7
 74
     2
 91
        2
 64
     7
 65
     7
 75
     1
175
     1
 42
40.0
 92
       11
 66
     7
 43
1.0
 76
     1
 77
     6
 78
     2
 67
     7
 79
     6
170
     0
171
     0
290
     0
174
     0
 93
        1
 44
0.0
173
     0
291
     0
 45
0.0
1001
ACAD
1000
AcDbSavedByObjectVersion
1070
     0
  0
VISUALSTYLE
  5
37
102
{ACAD_XDICTIONARY
360
65C
102
}
102
{ACAD_REACTORS
330
2A
102
}
330
2A
100
AcDbVisualStyle
  2

 70
    13
 71
     2
 72
     2
 73
     0
 90
        0
 40
-0.6
 41
-30.0
 62
     5
 63
     7
 74
     1
 91
        4
 64
     7
 65
   257
 75
     1
175
     1
 42
1.0
 92
       12
 66
     7
 43
1.0
 76
     1
 77
     6
 78
     2
 67
     7
 79
     5
170
     0
171
     0
290
     0
174
     0
 93
        1
 44
0.0
173
     0
291
     1
 45
0.0
1001
ACAD
1000
AcDbSavedByObjectVersion
1070
     0
  0
VISUALSTYLE
  5
30
102
{ACAD_XDICTIONARY
360
64E
102
}
102
{ACAD_REACTORS
330
2A
102
}
330
2A
100
AcDbVisualStyle
  2

 70
     5
 71
     0
 72
     2
 73
     0
 90
        0
 40
-0.6
 41
-30.0
 62
     5
 63
     7
 74
     1
 91
        4
 64
     7
 65
   257
 75
     1
175
     1
 42
1.0
 92
        0
 66
   257
 43
1.0
 76
     1
 77
     6
 78
     2
 67
     7
 79
     3
170
     0
171
     0
290
     0
174
     0
 93
        1
 44
0.0
173
     0
291
     0
 45
0.0
1001
ACAD
1000
AcDbSavedByObjectVersion
1070
     0
  0
VISUALSTYLE
  5
40
102
{ACAD_XDICTIONARY
360
66E
102
}
102
{ACAD_REACTORS
330
2A
102
}
330
2A
100
AcDbVisualStyle
  2

 70
    25
 71
     2
 72
     2
 73
     1
 90
        1
 40
0.5
 41
-30.0
 62
     5
 63
     7
 74
     1
 91
        0
 64
     7
 65
   257
 75
     1
175
     1
 42
1.0
 92
        8
 66
     7
 43
1.0
 76
     1
 77
     6
 78
     2
 67
     7
 79
     3
170
     0
171
     0
290
     0
174
     0
 93
       13
 44
0.0
173
     0
291
     0
 45
0.0
1001
ACAD
1000
AcDbSavedByObjectVersion
1070
     0
  0
DICTIONARYVAR
  5
259
102
{ACAD_REACTORS
330
24B
102
}
330
24B
100
DictionaryVariables
280
     0
  1
1:1
  0
DICTIONARYVAR
  5
252
102
{ACAD_REACTORS
330
24B
102
}
330
24B
100
DictionaryVariables
280
     0
  1
3.500000
  0
DICTIONARYVAR
  5
253
102
{ACAD_REACTORS
330
24B
102
}
330
24B
100
DictionaryVariables
280
     0
  1
acadiso.lin
  0
DICTIONARYVAR
  5
24D
102
{ACAD_REACTORS
330
24B
102
}
330
24B
100
DictionaryVariables
280
     0
  1
STANDARD
  0
DICTIONARYVAR
  5
24C
102
{ACAD_REACTORS
330
24B
102
}
330
24B
100
DictionaryVariables
280
     0
  1
STANDARD
  0
DICTIONARYVAR
  5
571
102
{ACAD_REACTORS
330
24B
102
}
330
24B
100
DictionaryVariables
280
     0
  1
Metric50
  0
DICTIONARYVAR
  5
572
102
{ACAD_REACTORS
330
24B
102
}
330
24B
100
DictionaryVariables
280
     0
  1
Metric50
  0
DICTIONARYVAR
  5
254
102
{ACAD_REACTORS
330
24B
102
}
330
24B
100
DictionaryVariables
280
     0
  1
2
  0
DICTIONARYVAR
  5
255
102
{ACAD_REACTORS
330
24B
102
}
330
24B
100
DictionaryVariables
280
     0
  1
1
  0
DICTIONARYVAR
  5
5F8
102
{ACAD_REACTORS
330
24B
102
}
330
24B
100
DictionaryVariables
280
     0
  1
0
  0
DICTIONARYVAR
  5
574
102
{ACAD_REACTORS
330
24B
102
}
330
24B
100
DictionaryVariables
280
     0
  1
1
  0
DICTIONARYVAR
  5
575
102
{ACAD_REACTORS
330
24B
102
}
330
24B
100
DictionaryVariables
280
     0
  1
15
  0
DICTIONARYVAR
  5
573
102
{ACAD_REACTORS
330
24B
102
}
330
24B
100
DictionaryVariables
280
     0
  1
0
  0
DICTIONARYVAR
  5
5FB
102
{ACAD_REACTORS
330
24B
102
}
330
24B
100
DictionaryVariables
280
     0
  1
1.570796
  0
DICTIONARYVAR
  5
5FC
102
{ACAD_REACTORS
330
24B
102
}
330
24B
100
DictionaryVariables
280
     0
  1
1.570796
  0
DICTIONARYVAR
  5
5FD
102
{ACAD_REACTORS
330
24B
102
}
330
24B
100
DictionaryVariables
280
     0
  1
-122.394000
  0
DICTIONARYVAR
  5
25A
102
{ACAD_REACTORS
330
24B
102
}
330
24B
100
DictionaryVariables
280
     0
  1
1
  0
DICTIONARYVAR
  5
5FA
102
{ACAD_REACTORS
330
24B
102
}
330
24B
100
DictionaryVariables
280
     0
  1
80.000000
  0
DICTIONARYVAR
  5
5F9
102
{ACAD_REACTORS
330
24B
102
}
330
24B
100
DictionaryVariables
280
     0
  1
5.000000
  0
DICTIONARYVAR
  5
5F7
102
{ACAD_REACTORS
330
24B
102
}
330
24B
100
DictionaryVariables
280
     0
  1
127
  0
DICTIONARYVAR
  5
5FE
102
{ACAD_REACTORS
330
24B
102
}
330
24B
100
DictionaryVariables
280
     0
  1
2
  0
DICTIONARY
  5
677
330
29A
100
AcDbDictionary
280
     1
281
     1
  3
ACAD_XREC_ROUNDTRIP
360
678
  0
DICTIONARY
  5
640
330
1E
100
AcDbDictionary
280
     1
281
     1
  3
ACAD_XREC_ROUNDTRIP
360
641
  0
DICTIONARY
  5
642
330
22
100
AcDbDictionary
280
     1
281
     1
  3
ACAD_XREC_ROUNDTRIP
360
643
  0
DICTIONARY
  5
679
330
29B
100
AcDbDictionary
280
     1
281
     1
  3
ACAD_XREC_ROUNDTRIP
360
67A
  0
DICTIONARY
  5
28D
330
45
100
AcDbDictionary
280
     1
281
     1
  3
ACAD_XREC_ROUNDTRIP
360
28E
  0
DICTIONARY
  5
28B
330
44
100
AcDbDictionary
280
     1
281
     1
  3
ACAD_XREC_ROUNDTRIP
360
28C
  0
DICTIONARY
  5
28F
330
46
100
AcDbDictionary
280
     1
281
     1
  3
ACAD_XREC_ROUNDTRIP
360
290
  0
DICTIONARY
  5
675
330
298
100
AcDbDictionary
280
     1
281
     1
  3
ACAD_XREC_ROUNDTRIP
360
676
  0
DICTIONARY
  5
576
330
5A
100
AcDbDictionary
280
     1
281
     1
  3
ACAD_ROUNDTRIP_2008_TABLESTYLE_CELLSTYLEMAP
360
63D
  3
ACAD_XREC_ROUNDTRIP
360
674
  0
DICTIONARY
  5
64C
330
2F
100
AcDbDictionary
280
     1
281
     1
  3
ACAD_XREC_ROUNDTRIP
360
64D
  0
DICTIONARY
  5
652
330
32
100
AcDbDictionary
280
     1
281
     1
  3
ACAD_XREC_ROUNDTRIP
360
653
  0
DICTIONARY
  5
65A
330
36
100
AcDbDictionary
280
     1
281
     1
  3
ACAD_XREC_ROUNDTRIP
360
65B
  0
DICTIONARY
  5
662
330
3A
100
AcDbDictionary
280
     1
281
     1
  3
ACAD_XREC_ROUNDTRIP
360
663
  0
DICTIONARY
  5
656
330
34
100
AcDbDictionary
280
     1
281
     1
  3
ACAD_XREC_ROUNDTRIP
360
657
  0
DICTIONARY
  5
658
330
35
100
AcDbDictionary
280
     1
281
     1
  3
ACAD_XREC_ROUNDTRIP
360
659
  0
DICTIONARY
  5
668
330
3D
100
AcDbDictionary
280
     1
281
     1
  3
ACAD_XREC_ROUNDTRIP
360
669
  0
DICTIONARY
  5
660
330
39
100
AcDbDictionary
280
     1
281
     1
  3
ACAD_XREC_ROUNDTRIP
360
661
  0
DICTIONARY
  5
644
330
2B
100
AcDbDictionary
280
     1
281
     1
  3
ACAD_XREC_ROUNDTRIP
360
645
  0
DICTIONARY
  5
646
330
2C
100
AcDbDictionary
280
     1
281
     1
  3
ACAD_XREC_ROUNDTRIP
360
647
  0
DICTIONARY
  5
648
330
2D
100
AcDbDictionary
280
     1
281
     1
  3
ACAD_XREC_ROUNDTRIP
360
649
  0
DICTIONARY
  5
64A
330
2E
100
AcDbDictionary
280
     1
281
     1
  3
ACAD_XREC_ROUNDTRIP
360
64B
  0
DICTIONARY
  5
650
330
31
100
AcDbDictionary
280
     1
281
     1
  3
ACAD_XREC_ROUNDTRIP
360
651
  0
DICTIONARY
  5
664
330
3B
100
AcDbDictionary
280
     1
281
     1
  3
ACAD_XREC_ROUNDTRIP
360
665
  0
DICTIONARY
  5
65E
330
38
100
AcDbDictionary
280
     1
281
     1
  3
ACAD_XREC_ROUNDTRIP
360
65F
  0
DICTIONARY
  5
666
330
3C
100
AcDbDictionary
280
     1
281
     1
  3
ACAD_XREC_ROUNDTRIP
360
667
  0
DICTIONARY
  5
654
330
33
100
AcDbDictionary
280
     1
281
     1
  3
ACAD_XREC_ROUNDTRIP
360
655
  0
DICTIONARY
  5
672
330
42
100
AcDbDictionary
280
     1
281
     1
  3
ACAD_XREC_ROUNDTRIP
360
673
  0
DICTIONARY
  5
670
330
41
100
AcDbDictionary
280
     1
281
     1
  3
ACAD_XREC_ROUNDTRIP
360
671
  0
DICTIONARY
  5
66A
330
3E
100
AcDbDictionary
280
     1
281
     1
  3
ACAD_XREC_ROUNDTRIP
360
66B
  0
DICTIONARY
  5
66C
330
3F
100
AcDbDictionary
280
     1
281
     1
  3
ACAD_XREC_ROUNDTRIP
360
66D
  0
DICTIONARY
  5
65C
330
37
100
AcDbDictionary
280
     1
281
     1
  3
ACAD_XREC_ROUNDTRIP
360
65D
  0
DICTIONARY
  5
64E
330
30
100
AcDbDictionary
280
     1
281
     1
  3
ACAD_XREC_ROUNDTRIP
360
64F
  0
DICTIONARY
  5
66E
330
40
100
AcDbDictionary
280
     1
281
     1
  3
ACAD_XREC_ROUNDTRIP
360
66F
  0
XRECORD
  5
678
102
{ACAD_REACTORS
330
677
102
}
330
677
100
AcDbXrecord
280
     1
102
DISPLAYNAME
  1
Metric50
102
FLAGS
 90
        0
  0
XRECORD
  5
641
102
{ACAD_REACTORS
330
640
102
}
330
640
100
AcDbXrecord
280
     1
102
SHADEPLOT
 70
     0
102
SHADEPLOTRESLEVEL
 70
     2
102
SHADEPLOTCUSTOMDPI
 70
   300
  0
XRECORD
  5
643
102
{ACAD_REACTORS
330
642
102
}
330
642
100
AcDbXrecord
280
     1
102
SHADEPLOT
 70
     0
102
SHADEPLOTRESLEVEL
 70
     2
102
SHADEPLOTCUSTOMDPI
 70
   300
  0
XRECORD
  5
67A
102
{ACAD_REACTORS
330
679
102
}
330
679
100
AcDbXrecord
280
     1
102
SHADEPLOT
 70
     0
102
SHADEPLOTRESLEVEL
 70
     2
102
SHADEPLOTCUSTOMDPI
 70
   300
  0
XRECORD
  5
28E
102
{ACAD_REACTORS
330
28D
102
}
330
28D
100
AcDbXrecord
280
     1
102
MATERIAL
148
0.0
149
0.0
149
0.0
 93
        0
 94
      127
282
     0
 72
     1
 77
     1
171
     1
175
     1
179
     1
273
     0
  0
XRECORD
  5
28C
102
{ACAD_REACTORS
330
28B
102
}
330
28B
100
AcDbXrecord
280
     1
102
MATERIAL
148
0.0
149
0.0
149
0.0
 93
        0
 94
      127
282
     0
 72
     1
 77
     1
171
     1
175
     1
179
     1
273
     0
  0
XRECORD
  5
290
102
{ACAD_REACTORS
330
28F
102
}
330
28F
100
AcDbXrecord
280
     1
102
MATERIAL
148
0.0
149
0.0
149
0.0
 93
        0
 94
      127
282
     0
 72
     1
 77
     1
171
     1
175
     1
179
     1
273
     0
  0
XRECORD
  5
676
102
{ACAD_REACTORS
330
675
102
}
330
675
100
AcDbXrecord
280
     1
102
DISPLAYNAME
  1
Metric50
102
FLAGS
 90
        0
  0
CELLSTYLEMAP
  5
63D
102
{ACAD_REACTORS
330
576
102
}
330
576
100
AcDbCellStyleMap
 90
        3
300
CELLSTYLE
  1
TABLEFORMAT_BEGIN
 90
        5
170
     1
 91
        0
 92
    32768
 62
   257
 93
        1
300
CONTENTFORMAT
  1
CONTENTFORMAT_BEGIN
 90
        0
 91
        0
 92
        4
 93
        0
300

 40
0.0
140
1.0
 94
        5
 62
     0
340
11
144
6.0
309
CONTENTFORMAT_END
171
     1
301
MARGIN
  1
CELLMARGIN_BEGIN
 40
1.5
 40
1.5
 40
1.5
 40
1.5
 40
0.18
 40
0.18
309
CELLMARGIN_END
 94
        6
 95
        1
302
GRIDFORMAT
  1
GRIDFORMAT_BEGIN
 90
        0
 91
        1
 62
     0
 92
       -2
340
0
 93
        0
 40
0.045
309
GRIDFORMAT_END
 95
        2
302
GRIDFORMAT
  1
GRIDFORMAT_BEGIN
 90
        0
 91
        1
 62
     0
 92
       -2
340
0
 93
        0
 40
0.045
309
GRIDFORMAT_END
 95
        4
302
GRIDFORMAT
  1
GRIDFORMAT_BEGIN
 90
        0
 91
        1
 62
     0
 92
       -2
340
0
 93
        0
 40
0.045
309
GRIDFORMAT_END
 95
        8
302
GRIDFORMAT
  1
GRIDFORMAT_BEGIN
 90
        0
 91
        1
 62
     0
 92
       -2
340
0
 93
        0
 40
0.045
309
GRIDFORMAT_END
 95
       16
302
GRIDFORMAT
  1
GRIDFORMAT_BEGIN
 90
        0
 91
        1
 62
     0
 92
       -2
340
0
 93
        0
 40
0.045
309
GRIDFORMAT_END
 95
       32
302
GRIDFORMAT
  1
GRIDFORMAT_BEGIN
 90
        0
 91
        1
 62
     0
 92
       -2
340
0
 93
        0
 40
0.045
309
GRIDFORMAT_END
309
TABLEFORMAT_END
  1
CELLSTYLE_BEGIN
 90
        1
 91
        1
300
_TITLE
309
CELLSTYLE_END
300
CELLSTYLE
  1
TABLEFORMAT_BEGIN
 90
        5
170
     1
 91
        0
 92
        0
 62
   257
 93
        1
300
CONTENTFORMAT
  1
CONTENTFORMAT_BEGIN
 90
        0
 91
        0
 92
        4
 93
        0
300

 40
0.0
140
1.0
 94
        5
 62
     0
340
11
144
4.5
309
CONTENTFORMAT_END
171
     1
301
MARGIN
  1
CELLMARGIN_BEGIN
 40
1.5
 40
1.5
 40
1.5
 40
1.5
 40
0.18
 40
0.18
309
CELLMARGIN_END
 94
        6
 95
        1
302
GRIDFORMAT
  1
GRIDFORMAT_BEGIN
 90
        0
 91
        1
 62
     0
 92
       -2
340
0
 93
        0
 40
0.045
309
GRIDFORMAT_END
 95
        2
302
GRIDFORMAT
  1
GRIDFORMAT_BEGIN
 90
        0
 91
        1
 62
     0
 92
       -2
340
0
 93
        0
 40
0.045
309
GRIDFORMAT_END
 95
        4
302
GRIDFORMAT
  1
GRIDFORMAT_BEGIN
 90
        0
 91
        1
 62
     0
 92
       -2
340
0
 93
        0
 40
0.045
309
GRIDFORMAT_END
 95
        8
302
GRIDFORMAT
  1
GRIDFORMAT_BEGIN
 90
        0
 91
        1
 62
     0
 92
       -2
340
0
 93
        0
 40
0.045
309
GRIDFORMAT_END
 95
       16
302
GRIDFORMAT
  1
GRIDFORMAT_BEGIN
 90
        0
 91
        1
 62
     0
 92
       -2
340
0
 93
        0
 40
0.045
309
GRIDFORMAT_END
 95
       32
302
GRIDFORMAT
  1
GRIDFORMAT_BEGIN
 90
        0
 91
        1
 62
     0
 92
       -2
340
0
 93
        0
 40
0.045
309
GRIDFORMAT_END
309
TABLEFORMAT_END
  1
CELLSTYLE_BEGIN
 90
        2
 91
        1
300
_HEADER
309
CELLSTYLE_END
300
CELLSTYLE
  1
TABLEFORMAT_BEGIN
 90
        5
170
     1
 91
        0
 92
        0
 62
   257
 93
        1
300
CONTENTFORMAT
  1
CONTENTFORMAT_BEGIN
 90
        0
 91
        0
 92
        4
 93
        0
300

 40
0.0
140
1.0
 94
        2
 62
     0
340
11
144
4.5
309
CONTENTFORMAT_END
171
     1
301
MARGIN
  1
CELLMARGIN_BEGIN
 40
1.5
 40
1.5
 40
1.5
 40
1.5
 40
0.18
 40
0.18
309
CELLMARGIN_END
 94
        6
 95
        1
302
GRIDFORMAT
  1
GRIDFORMAT_BEGIN
 90
        0
 91
        1
 62
     0
 92
       -2
340
0
 93
        0
 40
0.045
309
GRIDFORMAT_END
 95
        2
302
GRIDFORMAT
  1
GRIDFORMAT_BEGIN
 90
        0
 91
        1
 62
     0
 92
       -2
340
0
 93
        0
 40
0.045
309
GRIDFORMAT_END
 95
        4
302
GRIDFORMAT
  1
GRIDFORMAT_BEGIN
 90
        0
 91
        1
 62
     0
 92
       -2
340
0
 93
        0
 40
0.045
309
GRIDFORMAT_END
 95
        8
302
GRIDFORMAT
  1
GRIDFORMAT_BEGIN
 90
        0
 91
        1
 62
     0
 92
       -2
340
0
 93
        0
 40
0.045
309
GRIDFORMAT_END
 95
       16
302
GRIDFORMAT
  1
GRIDFORMAT_BEGIN
 90
        0
 91
        1
 62
     0
 92
       -2
340
0
 93
        0
 40
0.045
309
GRIDFORMAT_END
 95
       32
302
GRIDFORMAT
  1
GRIDFORMAT_BEGIN
 90
        0
 91
        1
 62
     0
 92
       -2
340
0
 93
        0
 40
0.045
309
GRIDFORMAT_END
309
TABLEFORMAT_END
  1
CELLSTYLE_BEGIN
 90
        3
 91
        2
300
_DATA
309
CELLSTYLE_END
  0
XRECORD
  5
674
102
{ACAD_REACTORS
330
576
102
}
330
576
100
AcDbXrecord
280
     1
102
ACAD_ROUNDTRIP_PRE2007_TABLESTYLE
 90
        4
 91
        0
  1

 92
        4
 93
        0
  2

 94
        4
 95
        0
  3

  0
XRECORD
  5
64D
102
{ACAD_REACTORS
330
64C
102
}
330
64C
100
AcDbXrecord
280
     1
102
RTVSPost2010Prop28
280
     1
102
RTVSPost2010PropOp28
 70
     1
102
RTVSPost2010Prop29
280
     1
102
RTVSPost2010PropOp29
 70
     1
102
RTVSPost2010Prop30
280
     0
102
RTVSPost2010PropOp30
 70
     1
102
RTVSPost2010Prop31
280
     0
102
RTVSPost2010PropOp31
 70
     1
102
RTVSPost2010Prop32
280
     0
102
RTVSPost2010PropOp32
 70
     1
102
RTVSPost2010Prop33
280
     0
102
RTVSPost2010PropOp33
 70
     1
102
RTVSPost2010Prop34
280
     0
102
RTVSPost2010PropOp34
 70
     1
102
RTVSPost2010Prop35
280
     0
102
RTVSPost2010PropOp35
 70
     1
102
RTVSPost2010Prop36
280
     0
102
RTVSPost2010PropOp36
 70
     1
102
RTVSPost2010Prop37
 90
       50
102
RTVSPost2010PropOp37
 70
     1
102
RTVSPost2010Prop38
140
0.0
102
RTVSPost2010PropOp38
 70
     1
102
RTVSPost2010Prop39
140
1.0
102
RTVSPost2010PropOp39
 70
     1
102
RTVSPost2010Prop40
 90
        0
102
RTVSPost2010PropOp40
 70
     1
102
RTVSPost2010Prop41ColorIndex
 90
       18
102
RTVSPost2010Prop41ColorRGB
 90
        0
102
RTVSPost2010PropOp41
 70
     1
102
RTVSPost2010Prop42
 90
       50
102
RTVSPost2010PropOp42
 70
     1
102
RTVSPost2010Prop43
 90
        3
102
RTVSPost2010PropOp43
 70
     1
102
RTVSPost2010Prop44ColorIndex
 90
        5
102
RTVSPost2010Prop44ColorRGB
 90
      255
102
RTVSPost2010PropOp44
 70
     1
102
RTVSPost2010Prop45
280
     0
102
RTVSPost2010PropOp45
 70
     1
102
RTVSPost2010Prop46
 90
       50
102
RTVSPost2010PropOp46
 70
     1
102
RTVSPost2010Prop47
 90
       50
102
RTVSPost2010PropOp47
 70
     1
102
RTVSPost2010Prop48
 90
       50
102
RTVSPost2010PropOp48
 70
     1
102
RTVSPost2010Prop49
280
     0
102
RTVSPost2010PropOp49
 70
     1
102
RTVSPost2010Prop50
 90
       50
102
RTVSPost2010PropOp50
 70
     1
102
RTVSPost2010Prop51ColorIndex
 90
      256
102
RTVSPost2010Prop51ColorRGB
 90
-16777216
102
RTVSPost2010PropOp51
 70
     0
102
RTVSPost2010Prop52
140
1.0
102
RTVSPost2010PropOp52
 70
     0
102
RTVSPost2010Prop53
 90
        2
102
RTVSPost2010PropOp53
 70
     1
102
RTVSPost2010Prop54
  1
strokes_ogs.tif
102
RTVSPost2010PropOp54
 70
     1
102
RTVSPost2010Prop55
280
     0
102
RTVSPost2010PropOp55
 70
     1
102
RTVSPost2010Prop56
140
1.0
102
RTVSPost2010PropOp56
 70
     1
102
RTVSPost2010Prop57
140
1.0
102
RTVSPost2010PropOp57
 70
     1
102
RTVSPropertyOp0
 70
     1
102
RTVSPropertyOp1
 70
     1
102
RTVSPropertyOp2
 70
     1
102
RTVSPropertyOp3
 70
     1
102
RTVSPropertyOp4
 70
     1
102
RTVSPropertyOp5
 70
     1
102
RTVSPropertyOp6
 70
     1
102
RTVSPropertyOp7
 70
     1
102
RTVSPropertyOp8
 70
     1
102
RTVSPropertyOp9
 70
     1
102
RTVSPropertyOp10
 70
     1
102
RTVSPropertyOp11
 70
     1
102
RTVSPropertyOp12
 70
     1
102
RTVSPropertyOp13
 70
     1
102
RTVSPropertyOp14
 70
     1
102
RTVSPropertyOp15
 70
     1
102
RTVSPropertyOp16
 70
     1
102
RTVSPropertyOp17
 70
     1
102
RTVSPropertyOp18
 70
     1
102
RTVSPropertyOp19
 70
     1
102
RTVSPropertyOp20
 70
     1
102
RTVSPropertyOp21
 70
     1
102
RTVSPropertyOp22
 70
     1
102
RTVSPropertyOp23
 70
     1
102
RTVSPropertyOp24
 70
     1
102
RTVSPropertyOp25
 70
     1
102
RTVSPropertyOp26
 70
     1
102
RTVSPropertyOp27
 70
     1
102
RTVSPropertyOp28
 70
     1
102
RTVSPropertyOp29
 70
     1
102
RTVSPropertyOp30
 70
     1
102
RTVSPropertyOp31
 70
     1
102
RTVSPropertyOp32
 70
     1
102
RTVSPropertyOp33
 70
     1
102
RTVSPropertyOp34
 70
     1
102
RTVSPropertyOp35
 70
     1
102
RTVSPropertyOp36
 70
     1
102
RTVSPropertyOp37
 70
     1
102
RTVSPropertyOp38
 70
     1
102
RTVSPropertyOp39
 70
     1
102
RTVSPropertyOp40
 70
     1
102
RTVSPropertyOp41
 70
     1
102
RTVSPropertyOp42
 70
     1
102
RTVSPropertyOp43
 70
     1
102
RTVSPropertyOp44
 70
     1
102
RTVSPropertyOp45
 70
     1
102
RTVSPropertyOp46
 70
     1
102
RTVSPropertyOp47
 70
     1
102
RTVSPropertyOp48
 70
     1
102
RTVSPropertyOp49
 70
     1
102
RTVSPropertyOp50
 70
     1
102
RTVSPropertyOp51
 70
     0
102
RTVSPropertyOp52
 70
     0
102
RTVSPropertyOp53
 70
     1
102
RTVSPropertyOp54
 70
     1
102
RTVSPropertyOp55
 70
     1
102
RTVSPropertyOp56
 70
     1
102
RTVSPropertyOp57
 70
     1
102
RTVSPropertyOp58
 70
     1
102
RTVSPropertyOp59
 70
     1
102
RTVSPropertyOp60
 70
     1
102
RTVSPropertyOp61
 70
     1
102
RTVSPropertyOp62
 70
     1
  0
XRECORD
  5
653
102
{ACAD_REACTORS
330
652
102
}
330
652
100
AcDbXrecord
280
     1
102
RTVSPost2010Prop28
280
     0
102
RTVSPost2010PropOp28
 70
     1
102
RTVSPost2010Prop29
280
     1
102
RTVSPost2010PropOp29
 70
     1
102
RTVSPost2010Prop30
280
     1
102
RTVSPost2010PropOp30
 70
     1
102
RTVSPost2010Prop31
280
     0
102
RTVSPost2010PropOp31
 70
     1
102
RTVSPost2010Prop32
280
     0
102
RTVSPost2010PropOp32
 70
     1
102
RTVSPost2010Prop33
280
     0
102
RTVSPost2010PropOp33
 70
     1
102
RTVSPost2010Prop34
280
     0
102
RTVSPost2010PropOp34
 70
     1
102
RTVSPost2010Prop35
280
     0
102
RTVSPost2010PropOp35
 70
     1
102
RTVSPost2010Prop36
280
     0
102
RTVSPost2010PropOp36
 70
     1
102
RTVSPost2010Prop37
 90
       50
102
RTVSPost2010PropOp37
 70
     1
102
RTVSPost2010Prop38
140
0.0
102
RTVSPost2010PropOp38
 70
     1
102
RTVSPost2010Prop39
140
1.0
102
RTVSPost2010PropOp39
 70
     1
102
RTVSPost2010Prop40
 90
        0
102
RTVSPost2010PropOp40
 70
     1
102
RTVSPost2010Prop41ColorIndex
 90
       18
102
RTVSPost2010Prop41ColorRGB
 90
        0
102
RTVSPost2010PropOp41
 70
     1
102
RTVSPost2010Prop42
 90
       50
102
RTVSPost2010PropOp42
 70
     1
102
RTVSPost2010Prop43
 90
        3
102
RTVSPost2010PropOp43
 70
     1
102
RTVSPost2010Prop44ColorIndex
 90
        5
102
RTVSPost2010Prop44ColorRGB
 90
      255
102
RTVSPost2010PropOp44
 70
     1
102
RTVSPost2010Prop45
280
     0
102
RTVSPost2010PropOp45
 70
     1
102
RTVSPost2010Prop46
 90
       50
102
RTVSPost2010PropOp46
 70
     1
102
RTVSPost2010Prop47
 90
       50
102
RTVSPost2010PropOp47
 70
     1
102
RTVSPost2010Prop48
 90
       50
102
RTVSPost2010PropOp48
 70
     1
102
RTVSPost2010Prop49
280
     0
102
RTVSPost2010PropOp49
 70
     1
102
RTVSPost2010Prop50
 90
       50
102
RTVSPost2010PropOp50
 70
     1
102
RTVSPost2010Prop51ColorIndex
 90
      256
102
RTVSPost2010Prop51ColorRGB
 90
-16777216
102
RTVSPost2010PropOp51
 70
     0
102
RTVSPost2010Prop52
140
1.0
102
RTVSPost2010PropOp52
 70
     0
102
RTVSPost2010Prop53
 90
        2
102
RTVSPost2010PropOp53
 70
     1
102
RTVSPost2010Prop54
  1
strokes_ogs.tif
102
RTVSPost2010PropOp54
 70
     1
102
RTVSPost2010Prop55
280
     0
102
RTVSPost2010PropOp55
 70
     1
102
RTVSPost2010Prop56
140
1.0
102
RTVSPost2010PropOp56
 70
     1
102
RTVSPost2010Prop57
140
1.0
102
RTVSPost2010PropOp57
 70
     1
102
RTVSPropertyOp0
 70
     1
102
RTVSPropertyOp1
 70
     1
102
RTVSPropertyOp2
 70
     1
102
RTVSPropertyOp3
 70
     1
102
RTVSPropertyOp4
 70
     1
102
RTVSPropertyOp5
 70
     1
102
RTVSPropertyOp6
 70
     1
102
RTVSPropertyOp7
 70
     1
102
RTVSPropertyOp8
 70
     1
102
RTVSPropertyOp9
 70
     1
102
RTVSPropertyOp10
 70
     1
102
RTVSPropertyOp11
 70
     1
102
RTVSPropertyOp12
 70
     1
102
RTVSPropertyOp13
 70
     1
102
RTVSPropertyOp14
 70
     1
102
RTVSPropertyOp15
 70
     1
102
RTVSPropertyOp16
 70
     1
102
RTVSPropertyOp17
 70
     1
102
RTVSPropertyOp18
 70
     1
102
RTVSPropertyOp19
 70
     1
102
RTVSPropertyOp20
 70
     1
102
RTVSPropertyOp21
 70
     1
102
RTVSPropertyOp22
 70
     1
102
RTVSPropertyOp23
 70
     1
102
RTVSPropertyOp24
 70
     1
102
RTVSPropertyOp25
 70
     1
102
RTVSPropertyOp26
 70
     1
102
RTVSPropertyOp27
 70
     1
102
RTVSPropertyOp28
 70
     1
102
RTVSPropertyOp29
 70
     1
102
RTVSPropertyOp30
 70
     1
102
RTVSPropertyOp31
 70
     1
102
RTVSPropertyOp32
 70
     1
102
RTVSPropertyOp33
 70
     1
102
RTVSPropertyOp34
 70
     1
102
RTVSPropertyOp35
 70
     1
102
RTVSPropertyOp36
 70
     1
102
RTVSPropertyOp37
 70
     1
102
RTVSPropertyOp38
 70
     1
102
RTVSPropertyOp39
 70
     1
102
RTVSPropertyOp40
 70
     1
102
RTVSPropertyOp41
 70
     1
102
RTVSPropertyOp42
 70
     1
102
RTVSPropertyOp43
 70
     1
102
RTVSPropertyOp44
 70
     1
102
RTVSPropertyOp45
 70
     1
102
RTVSPropertyOp46
 70
     1
102
RTVSPropertyOp47
 70
     1
102
RTVSPropertyOp48
 70
     1
102
RTVSPropertyOp49
 70
     1
102
RTVSPropertyOp50
 70
     1
102
RTVSPropertyOp51
 70
     0
102
RTVSPropertyOp52
 70
     0
102
RTVSPropertyOp53
 70
     1
102
RTVSPropertyOp54
 70
     1
102
RTVSPropertyOp55
 70
     1
102
RTVSPropertyOp56
 70
     1
102
RTVSPropertyOp57
 70
     1
102
RTVSPropertyOp58
 70
     1
102
RTVSPropertyOp59
 70
     1
102
RTVSPropertyOp60
 70
     1
102
RTVSPropertyOp61
 70
     1
102
RTVSPropertyOp62
 70
     1
  0
XRECORD
  5
65B
102
{ACAD_REACTORS
330
65A
102
}
330
65A
100
AcDbXrecord
280
     1
102
RTVSPost2010Prop28
280
     0
102
RTVSPost2010PropOp28
 70
     1
102
RTVSPost2010Prop29
280
     1
102
RTVSPost2010PropOp29
 70
     1
102
RTVSPost2010Prop30
280
     1
102
RTVSPost2010PropOp30
 70
     1
102
RTVSPost2010Prop31
280
     0
102
RTVSPost2010PropOp31
 70
     1
102
RTVSPost2010Prop32
280
     0
102
RTVSPost2010PropOp32
 70
     1
102
RTVSPost2010Prop33
280
     0
102
RTVSPost2010PropOp33
 70
     1
102
RTVSPost2010Prop34
280
     0
102
RTVSPost2010PropOp34
 70
     1
102
RTVSPost2010Prop35
280
     0
102
RTVSPost2010PropOp35
 70
     1
102
RTVSPost2010Prop36
280
     0
102
RTVSPost2010PropOp36
 70
     1
102
RTVSPost2010Prop37
 90
       50
102
RTVSPost2010PropOp37
 70
     1
102
RTVSPost2010Prop38
140
0.0
102
RTVSPost2010PropOp38
 70
     1
102
RTVSPost2010Prop39
140
1.0
102
RTVSPost2010PropOp39
 70
     1
102
RTVSPost2010Prop40
 90
        0
102
RTVSPost2010PropOp40
 70
     1
102
RTVSPost2010Prop41ColorIndex
 90
       18
102
RTVSPost2010Prop41ColorRGB
 90
        0
102
RTVSPost2010PropOp41
 70
     1
102
RTVSPost2010Prop42
 90
       50
102
RTVSPost2010PropOp42
 70
     1
102
RTVSPost2010Prop43
 90
        3
102
RTVSPost2010PropOp43
 70
     1
102
RTVSPost2010Prop44ColorIndex
 90
        5
102
RTVSPost2010Prop44ColorRGB
 90
      255
102
RTVSPost2010PropOp44
 70
     1
102
RTVSPost2010Prop45
280
     0
102
RTVSPost2010PropOp45
 70
     1
102
RTVSPost2010Prop46
 90
       50
102
RTVSPost2010PropOp46
 70
     1
102
RTVSPost2010Prop47
 90
       50
102
RTVSPost2010PropOp47
 70
     1
102
RTVSPost2010Prop48
 90
       50
102
RTVSPost2010PropOp48
 70
     1
102
RTVSPost2010Prop49
280
     0
102
RTVSPost2010PropOp49
 70
     1
102
RTVSPost2010Prop50
 90
       50
102
RTVSPost2010PropOp50
 70
     1
102
RTVSPost2010Prop51ColorIndex
 90
      256
102
RTVSPost2010Prop51ColorRGB
 90
-16777216
102
RTVSPost2010PropOp51
 70
     0
102
RTVSPost2010Prop52
140
1.0
102
RTVSPost2010PropOp52
 70
     0
102
RTVSPost2010Prop53
 90
        2
102
RTVSPost2010PropOp53
 70
     1
102
RTVSPost2010Prop54
  1
strokes_ogs.tif
102
RTVSPost2010PropOp54
 70
     1
102
RTVSPost2010Prop55
280
     0
102
RTVSPost2010PropOp55
 70
     1
102
RTVSPost2010Prop56
140
1.0
102
RTVSPost2010PropOp56
 70
     1
102
RTVSPost2010Prop57
140
1.0
102
RTVSPost2010PropOp57
 70
     1
102
RTVSPropertyOp0
 70
     1
102
RTVSPropertyOp1
 70
     1
102
RTVSPropertyOp2
 70
     1
102
RTVSPropertyOp3
 70
     1
102
RTVSPropertyOp4
 70
     1
102
RTVSPropertyOp5
 70
     1
102
RTVSPropertyOp6
 70
     1
102
RTVSPropertyOp7
 70
     1
102
RTVSPropertyOp8
 70
     1
102
RTVSPropertyOp9
 70
     1
102
RTVSPropertyOp10
 70
     1
102
RTVSPropertyOp11
 70
     1
102
RTVSPropertyOp12
 70
     1
102
RTVSPropertyOp13
 70
     1
102
RTVSPropertyOp14
 70
     1
102
RTVSPropertyOp15
 70
     1
102
RTVSPropertyOp16
 70
     1
102
RTVSPropertyOp17
 70
     1
102
RTVSPropertyOp18
 70
     1
102
RTVSPropertyOp19
 70
     1
102
RTVSPropertyOp20
 70
     1
102
RTVSPropertyOp21
 70
     1
102
RTVSPropertyOp22
 70
     1
102
RTVSPropertyOp23
 70
     1
102
RTVSPropertyOp24
 70
     1
102
RTVSPropertyOp25
 70
     1
102
RTVSPropertyOp26
 70
     1
102
RTVSPropertyOp27
 70
     1
102
RTVSPropertyOp28
 70
     1
102
RTVSPropertyOp29
 70
     1
102
RTVSPropertyOp30
 70
     1
102
RTVSPropertyOp31
 70
     1
102
RTVSPropertyOp32
 70
     1
102
RTVSPropertyOp33
 70
     1
102
RTVSPropertyOp34
 70
     1
102
RTVSPropertyOp35
 70
     1
102
RTVSPropertyOp36
 70
     1
102
RTVSPropertyOp37
 70
     1
102
RTVSPropertyOp38
 70
     1
102
RTVSPropertyOp39
 70
     1
102
RTVSPropertyOp40
 70
     1
102
RTVSPropertyOp41
 70
     1
102
RTVSPropertyOp42
 70
     1
102
RTVSPropertyOp43
 70
     1
102
RTVSPropertyOp44
 70
     1
102
RTVSPropertyOp45
 70
     1
102
RTVSPropertyOp46
 70
     1
102
RTVSPropertyOp47
 70
     1
102
RTVSPropertyOp48
 70
     1
102
RTVSPropertyOp49
 70
     1
102
RTVSPropertyOp50
 70
     1
102
RTVSPropertyOp51
 70
     0
102
RTVSPropertyOp52
 70
     0
102
RTVSPropertyOp53
 70
     1
102
RTVSPropertyOp54
 70
     1
102
RTVSPropertyOp55
 70
     1
102
RTVSPropertyOp56
 70
     1
102
RTVSPropertyOp57
 70
     1
102
RTVSPropertyOp58
 70
     1
102
RTVSPropertyOp59
 70
     1
102
RTVSPropertyOp60
 70
     1
102
RTVSPropertyOp61
 70
     1
102
RTVSPropertyOp62
 70
     1
  0
XRECORD
  5
663
102
{ACAD_REACTORS
330
662
102
}
330
662
100
AcDbXrecord
280
     1
102
RTVSPost2010Prop28
280
     0
102
RTVSPost2010PropOp28
 70
     1
102
RTVSPost2010Prop29
280
     1
102
RTVSPost2010PropOp29
 70
     1
102
RTVSPost2010Prop30
280
     1
102
RTVSPost2010PropOp30
 70
     1
102
RTVSPost2010Prop31
280
     0
102
RTVSPost2010PropOp31
 70
     1
102
RTVSPost2010Prop32
280
     0
102
RTVSPost2010PropOp32
 70
     1
102
RTVSPost2010Prop33
280
     0
102
RTVSPost2010PropOp33
 70
     1
102
RTVSPost2010Prop34
280
     0
102
RTVSPost2010PropOp34
 70
     1
102
RTVSPost2010Prop35
280
     0
102
RTVSPost2010PropOp35
 70
     1
102
RTVSPost2010Prop36
280
     0
102
RTVSPost2010PropOp36
 70
     1
102
RTVSPost2010Prop37
 90
       50
102
RTVSPost2010PropOp37
 70
     1
102
RTVSPost2010Prop38
140
0.0
102
RTVSPost2010PropOp38
 70
     1
102
RTVSPost2010Prop39
140
1.0
102
RTVSPost2010PropOp39
 70
     1
102
RTVSPost2010Prop40
 90
        0
102
RTVSPost2010PropOp40
 70
     1
102
RTVSPost2010Prop41ColorIndex
 90
       18
102
RTVSPost2010Prop41ColorRGB
 90
        0
102
RTVSPost2010PropOp41
 70
     1
102
RTVSPost2010Prop42
 90
       50
102
RTVSPost2010PropOp42
 70
     1
102
RTVSPost2010Prop43
 90
        3
102
RTVSPost2010PropOp43
 70
     1
102
RTVSPost2010Prop44ColorIndex
 90
        5
102
RTVSPost2010Prop44ColorRGB
 90
      255
102
RTVSPost2010PropOp44
 70
     1
102
RTVSPost2010Prop45
280
     0
102
RTVSPost2010PropOp45
 70
     1
102
RTVSPost2010Prop46
 90
       50
102
RTVSPost2010PropOp46
 70
     1
102
RTVSPost2010Prop47
 90
       50
102
RTVSPost2010PropOp47
 70
     1
102
RTVSPost2010Prop48
 90
       50
102
RTVSPost2010PropOp48
 70
     1
102
RTVSPost2010Prop49
280
     0
102
RTVSPost2010PropOp49
 70
     1
102
RTVSPost2010Prop50
 90
       50
102
RTVSPost2010PropOp50
 70
     1
102
RTVSPost2010Prop51ColorIndex
 90
      256
102
RTVSPost2010Prop51ColorRGB
 90
-16777216
102
RTVSPost2010PropOp51
 70
     0
102
RTVSPost2010Prop52
140
1.0
102
RTVSPost2010PropOp52
 70
     0
102
RTVSPost2010Prop53
 90
        2
102
RTVSPost2010PropOp53
 70
     1
102
RTVSPost2010Prop54
  1
strokes_ogs.tif
102
RTVSPost2010PropOp54
 70
     1
102
RTVSPost2010Prop55
280
     0
102
RTVSPost2010PropOp55
 70
     1
102
RTVSPost2010Prop56
140
1.0
102
RTVSPost2010PropOp56
 70
     1
102
RTVSPost2010Prop57
140
1.0
102
RTVSPost2010PropOp57
 70
     1
102
RTVSPropertyOp0
 70
     1
102
RTVSPropertyOp1
 70
     1
102
RTVSPropertyOp2
 70
     1
102
RTVSPropertyOp3
 70
     1
102
RTVSPropertyOp4
 70
     1
102
RTVSPropertyOp5
 70
     1
102
RTVSPropertyOp6
 70
     1
102
RTVSPropertyOp7
 70
     1
102
RTVSPropertyOp8
 70
     1
102
RTVSPropertyOp9
 70
     1
102
RTVSPropertyOp10
 70
     1
102
RTVSPropertyOp11
 70
     1
102
RTVSPropertyOp12
 70
     1
102
RTVSPropertyOp13
 70
     1
102
RTVSPropertyOp14
 70
     1
102
RTVSPropertyOp15
 70
     1
102
RTVSPropertyOp16
 70
     1
102
RTVSPropertyOp17
 70
     1
102
RTVSPropertyOp18
 70
     1
102
RTVSPropertyOp19
 70
     1
102
RTVSPropertyOp20
 70
     1
102
RTVSPropertyOp21
 70
     1
102
RTVSPropertyOp22
 70
     1
102
RTVSPropertyOp23
 70
     1
102
RTVSPropertyOp24
 70
     1
102
RTVSPropertyOp25
 70
     1
102
RTVSPropertyOp26
 70
     1
102
RTVSPropertyOp27
 70
     1
102
RTVSPropertyOp28
 70
     1
102
RTVSPropertyOp29
 70
     1
102
RTVSPropertyOp30
 70
     1
102
RTVSPropertyOp31
 70
     1
102
RTVSPropertyOp32
 70
     1
102
RTVSPropertyOp33
 70
     1
102
RTVSPropertyOp34
 70
     1
102
RTVSPropertyOp35
 70
     1
102
RTVSPropertyOp36
 70
     1
102
RTVSPropertyOp37
 70
     1
102
RTVSPropertyOp38
 70
     1
102
RTVSPropertyOp39
 70
     1
102
RTVSPropertyOp40
 70
     1
102
RTVSPropertyOp41
 70
     1
102
RTVSPropertyOp42
 70
     1
102
RTVSPropertyOp43
 70
     1
102
RTVSPropertyOp44
 70
     1
102
RTVSPropertyOp45
 70
     1
102
RTVSPropertyOp46
 70
     1
102
RTVSPropertyOp47
 70
     1
102
RTVSPropertyOp48
 70
     1
102
RTVSPropertyOp49
 70
     1
102
RTVSPropertyOp50
 70
     1
102
RTVSPropertyOp51
 70
     0
102
RTVSPropertyOp52
 70
     0
102
RTVSPropertyOp53
 70
     1
102
RTVSPropertyOp54
 70
     1
102
RTVSPropertyOp55
 70
     1
102
RTVSPropertyOp56
 70
     1
102
RTVSPropertyOp57
 70
     1
102
RTVSPropertyOp58
 70
     1
102
RTVSPropertyOp59
 70
     1
102
RTVSPropertyOp60
 70
     1
102
RTVSPropertyOp61
 70
     1
102
RTVSPropertyOp62
 70
     1
  0
XRECORD
  5
657
102
{ACAD_REACTORS
330
656
102
}
330
656
100
AcDbXrecord
280
     1
102
RTVSPost2010Prop28
280
     0
102
RTVSPost2010PropOp28
 70
     1
102
RTVSPost2010Prop29
280
     1
102
RTVSPost2010PropOp29
 70
     1
102
RTVSPost2010Prop30
280
     1
102
RTVSPost2010PropOp30
 70
     1
102
RTVSPost2010Prop31
280
     0
102
RTVSPost2010PropOp31
 70
     1
102
RTVSPost2010Prop32
280
     0
102
RTVSPost2010PropOp32
 70
     1
102
RTVSPost2010Prop33
280
     0
102
RTVSPost2010PropOp33
 70
     1
102
RTVSPost2010Prop34
280
     0
102
RTVSPost2010PropOp34
 70
     1
102
RTVSPost2010Prop35
280
     0
102
RTVSPost2010PropOp35
 70
     1
102
RTVSPost2010Prop36
280
     0
102
RTVSPost2010PropOp36
 70
     1
102
RTVSPost2010Prop37
 90
       50
102
RTVSPost2010PropOp37
 70
     1
102
RTVSPost2010Prop38
140
0.0
102
RTVSPost2010PropOp38
 70
     1
102
RTVSPost2010Prop39
140
1.0
102
RTVSPost2010PropOp39
 70
     1
102
RTVSPost2010Prop40
 90
        0
102
RTVSPost2010PropOp40
 70
     1
102
RTVSPost2010Prop41ColorIndex
 90
       18
102
RTVSPost2010Prop41ColorRGB
 90
        0
102
RTVSPost2010PropOp41
 70
     1
102
RTVSPost2010Prop42
 90
       50
102
RTVSPost2010PropOp42
 70
     1
102
RTVSPost2010Prop43
 90
        3
102
RTVSPost2010PropOp43
 70
     1
102
RTVSPost2010Prop44ColorIndex
 90
        5
102
RTVSPost2010Prop44ColorRGB
 90
      255
102
RTVSPost2010PropOp44
 70
     1
102
RTVSPost2010Prop45
280
     0
102
RTVSPost2010PropOp45
 70
     1
102
RTVSPost2010Prop46
 90
       50
102
RTVSPost2010PropOp46
 70
     1
102
RTVSPost2010Prop47
 90
       50
102
RTVSPost2010PropOp47
 70
     1
102
RTVSPost2010Prop48
 90
       50
102
RTVSPost2010PropOp48
 70
     1
102
RTVSPost2010Prop49
280
     0
102
RTVSPost2010PropOp49
 70
     1
102
RTVSPost2010Prop50
 90
       50
102
RTVSPost2010PropOp50
 70
     1
102
RTVSPost2010Prop51ColorIndex
 90
      256
102
RTVSPost2010Prop51ColorRGB
 90
-16777216
102
RTVSPost2010PropOp51
 70
     0
102
RTVSPost2010Prop52
140
1.0
102
RTVSPost2010PropOp52
 70
     0
102
RTVSPost2010Prop53
 90
        2
102
RTVSPost2010PropOp53
 70
     1
102
RTVSPost2010Prop54
  1
strokes_ogs.tif
102
RTVSPost2010PropOp54
 70
     1
102
RTVSPost2010Prop55
280
     0
102
RTVSPost2010PropOp55
 70
     1
102
RTVSPost2010Prop56
140
1.0
102
RTVSPost2010PropOp56
 70
     1
102
RTVSPost2010Prop57
140
1.0
102
RTVSPost2010PropOp57
 70
     1
102
RTVSPropertyOp0
 70
     1
102
RTVSPropertyOp1
 70
     1
102
RTVSPropertyOp2
 70
     1
102
RTVSPropertyOp3
 70
     1
102
RTVSPropertyOp4
 70
     1
102
RTVSPropertyOp5
 70
     1
102
RTVSPropertyOp6
 70
     1
102
RTVSPropertyOp7
 70
     1
102
RTVSPropertyOp8
 70
     1
102
RTVSPropertyOp9
 70
     1
102
RTVSPropertyOp10
 70
     1
102
RTVSPropertyOp11
 70
     1
102
RTVSPropertyOp12
 70
     1
102
RTVSPropertyOp13
 70
     1
102
RTVSPropertyOp14
 70
     1
102
RTVSPropertyOp15
 70
     1
102
RTVSPropertyOp16
 70
     1
102
RTVSPropertyOp17
 70
     1
102
RTVSPropertyOp18
 70
     1
102
RTVSPropertyOp19
 70
     1
102
RTVSPropertyOp20
 70
     1
102
RTVSPropertyOp21
 70
     1
102
RTVSPropertyOp22
 70
     1
102
RTVSPropertyOp23
 70
     1
102
RTVSPropertyOp24
 70
     1
102
RTVSPropertyOp25
 70
     1
102
RTVSPropertyOp26
 70
     1
102
RTVSPropertyOp27
 70
     1
102
RTVSPropertyOp28
 70
     1
102
RTVSPropertyOp29
 70
     1
102
RTVSPropertyOp30
 70
     1
102
RTVSPropertyOp31
 70
     1
102
RTVSPropertyOp32
 70
     1
102
RTVSPropertyOp33
 70
     1
102
RTVSPropertyOp34
 70
     1
102
RTVSPropertyOp35
 70
     1
102
RTVSPropertyOp36
 70
     1
102
RTVSPropertyOp37
 70
     1
102
RTVSPropertyOp38
 70
     1
102
RTVSPropertyOp39
 70
     1
102
RTVSPropertyOp40
 70
     1
102
RTVSPropertyOp41
 70
     1
102
RTVSPropertyOp42
 70
     1
102
RTVSPropertyOp43
 70
     1
102
RTVSPropertyOp44
 70
     1
102
RTVSPropertyOp45
 70
     1
102
RTVSPropertyOp46
 70
     1
102
RTVSPropertyOp47
 70
     1
102
RTVSPropertyOp48
 70
     1
102
RTVSPropertyOp49
 70
     1
102
RTVSPropertyOp50
 70
     1
102
RTVSPropertyOp51
 70
     0
102
RTVSPropertyOp52
 70
     0
102
RTVSPropertyOp53
 70
     1
102
RTVSPropertyOp54
 70
     1
102
RTVSPropertyOp55
 70
     1
102
RTVSPropertyOp56
 70
     1
102
RTVSPropertyOp57
 70
     1
102
RTVSPropertyOp58
 70
     1
102
RTVSPropertyOp59
 70
     1
102
RTVSPropertyOp60
 70
     1
102
RTVSPropertyOp61
 70
     1
102
RTVSPropertyOp62
 70
     1
  0
XRECORD
  5
659
102
{ACAD_REACTORS
330
658
102
}
330
658
100
AcDbXrecord
280
     1
102
RTVSPost2010Prop28
280
     0
102
RTVSPost2010PropOp28
 70
     1
102
RTVSPost2010Prop29
280
     1
102
RTVSPost2010PropOp29
 70
     1
102
RTVSPost2010Prop30
280
     1
102
RTVSPost2010PropOp30
 70
     1
102
RTVSPost2010Prop31
280
     0
102
RTVSPost2010PropOp31
 70
     1
102
RTVSPost2010Prop32
280
     0
102
RTVSPost2010PropOp32
 70
     1
102
RTVSPost2010Prop33
280
     0
102
RTVSPost2010PropOp33
 70
     1
102
RTVSPost2010Prop34
280
     0
102
RTVSPost2010PropOp34
 70
     1
102
RTVSPost2010Prop35
280
     0
102
RTVSPost2010PropOp35
 70
     1
102
RTVSPost2010Prop36
280
     0
102
RTVSPost2010PropOp36
 70
     1
102
RTVSPost2010Prop37
 90
       50
102
RTVSPost2010PropOp37
 70
     1
102
RTVSPost2010Prop38
140
0.0
102
RTVSPost2010PropOp38
 70
     1
102
RTVSPost2010Prop39
140
1.0
102
RTVSPost2010PropOp39
 70
     1
102
RTVSPost2010Prop40
 90
        0
102
RTVSPost2010PropOp40
 70
     1
102
RTVSPost2010Prop41ColorIndex
 90
       18
102
RTVSPost2010Prop41ColorRGB
 90
        0
102
RTVSPost2010PropOp41
 70
     1
102
RTVSPost2010Prop42
 90
       50
102
RTVSPost2010PropOp42
 70
     1
102
RTVSPost2010Prop43
 90
        3
102
RTVSPost2010PropOp43
 70
     1
102
RTVSPost2010Prop44ColorIndex
 90
        5
102
RTVSPost2010Prop44ColorRGB
 90
      255
102
RTVSPost2010PropOp44
 70
     1
102
RTVSPost2010Prop45
280
     0
102
RTVSPost2010PropOp45
 70
     1
102
RTVSPost2010Prop46
 90
       50
102
RTVSPost2010PropOp46
 70
     1
102
RTVSPost2010Prop47
 90
       50
102
RTVSPost2010PropOp47
 70
     1
102
RTVSPost2010Prop48
 90
       50
102
RTVSPost2010PropOp48
 70
     1
102
RTVSPost2010Prop49
280
     0
102
RTVSPost2010PropOp49
 70
     1
102
RTVSPost2010Prop50
 90
       50
102
RTVSPost2010PropOp50
 70
     1
102
RTVSPost2010Prop51ColorIndex
 90
      256
102
RTVSPost2010Prop51ColorRGB
 90
-16777216
102
RTVSPost2010PropOp51
 70
     0
102
RTVSPost2010Prop52
140
1.0
102
RTVSPost2010PropOp52
 70
     0
102
RTVSPost2010Prop53
 90
        2
102
RTVSPost2010PropOp53
 70
     1
102
RTVSPost2010Prop54
  1
strokes_ogs.tif
102
RTVSPost2010PropOp54
 70
     1
102
RTVSPost2010Prop55
280
     0
102
RTVSPost2010PropOp55
 70
     1
102
RTVSPost2010Prop56
140
1.0
102
RTVSPost2010PropOp56
 70
     1
102
RTVSPost2010Prop57
140
1.0
102
RTVSPost2010PropOp57
 70
     1
102
RTVSPropertyOp0
 70
     1
102
RTVSPropertyOp1
 70
     1
102
RTVSPropertyOp2
 70
     1
102
RTVSPropertyOp3
 70
     1
102
RTVSPropertyOp4
 70
     1
102
RTVSPropertyOp5
 70
     1
102
RTVSPropertyOp6
 70
     1
102
RTVSPropertyOp7
 70
     1
102
RTVSPropertyOp8
 70
     1
102
RTVSPropertyOp9
 70
     1
102
RTVSPropertyOp10
 70
     1
102
RTVSPropertyOp11
 70
     1
102
RTVSPropertyOp12
 70
     1
102
RTVSPropertyOp13
 70
     1
102
RTVSPropertyOp14
 70
     1
102
RTVSPropertyOp15
 70
     1
102
RTVSPropertyOp16
 70
     1
102
RTVSPropertyOp17
 70
     1
102
RTVSPropertyOp18
 70
     1
102
RTVSPropertyOp19
 70
     1
102
RTVSPropertyOp20
 70
     1
102
RTVSPropertyOp21
 70
     1
102
RTVSPropertyOp22
 70
     1
102
RTVSPropertyOp23
 70
     1
102
RTVSPropertyOp24
 70
     1
102
RTVSPropertyOp25
 70
     1
102
RTVSPropertyOp26
 70
     1
102
RTVSPropertyOp27
 70
     1
102
RTVSPropertyOp28
 70
     1
102
RTVSPropertyOp29
 70
     1
102
RTVSPropertyOp30
 70
     1
102
RTVSPropertyOp31
 70
     1
102
RTVSPropertyOp32
 70
     1
102
RTVSPropertyOp33
 70
     1
102
RTVSPropertyOp34
 70
     1
102
RTVSPropertyOp35
 70
     1
102
RTVSPropertyOp36
 70
     1
102
RTVSPropertyOp37
 70
     1
102
RTVSPropertyOp38
 70
     1
102
RTVSPropertyOp39
 70
     1
102
RTVSPropertyOp40
 70
     1
102
RTVSPropertyOp41
 70
     1
102
RTVSPropertyOp42
 70
     1
102
RTVSPropertyOp43
 70
     1
102
RTVSPropertyOp44
 70
     1
102
RTVSPropertyOp45
 70
     1
102
RTVSPropertyOp46
 70
     1
102
RTVSPropertyOp47
 70
     1
102
RTVSPropertyOp48
 70
     1
102
RTVSPropertyOp49
 70
     1
102
RTVSPropertyOp50
 70
     1
102
RTVSPropertyOp51
 70
     0
102
RTVSPropertyOp52
 70
     0
102
RTVSPropertyOp53
 70
     1
102
RTVSPropertyOp54
 70
     1
102
RTVSPropertyOp55
 70
     1
102
RTVSPropertyOp56
 70
     1
102
RTVSPropertyOp57
 70
     1
102
RTVSPropertyOp58
 70
     1
102
RTVSPropertyOp59
 70
     1
102
RTVSPropertyOp60
 70
     1
102
RTVSPropertyOp61
 70
     1
102
RTVSPropertyOp62
 70
     1
  0
XRECORD
  5
669
102
{ACAD_REACTORS
330
668
102
}
330
668
100
AcDbXrecord
280
     1
102
RTVSPost2010Prop28
280
     0
102
RTVSPost2010PropOp28
 70
     0
102
RTVSPost2010Prop29
280
     1
102
RTVSPost2010PropOp29
 70
     0
102
RTVSPost2010Prop30
280
     1
102
RTVSPost2010PropOp30
 70
     0
102
RTVSPost2010Prop31
280
     0
102
RTVSPost2010PropOp31
 70
     0
102
RTVSPost2010Prop32
280
     0
102
RTVSPost2010PropOp32
 70
     0
102
RTVSPost2010Prop33
280
     0
102
RTVSPost2010PropOp33
 70
     0
102
RTVSPost2010Prop34
280
     0
102
RTVSPost2010PropOp34
 70
     0
102
RTVSPost2010Prop35
280
     0
102
RTVSPost2010PropOp35
 70
     0
102
RTVSPost2010Prop36
280
     0
102
RTVSPost2010PropOp36
 70
     0
102
RTVSPost2010Prop37
 90
       50
102
RTVSPost2010PropOp37
 70
     0
102
RTVSPost2010Prop38
140
0.0
102
RTVSPost2010PropOp38
 70
     0
102
RTVSPost2010Prop39
140
1.0
102
RTVSPost2010PropOp39
 70
     0
102
RTVSPost2010Prop40
 90
        0
102
RTVSPost2010PropOp40
 70
     0
102
RTVSPost2010Prop41ColorIndex
 90
       18
102
RTVSPost2010Prop41ColorRGB
 90
        0
102
RTVSPost2010PropOp41
 70
     0
102
RTVSPost2010Prop42
 90
       50
102
RTVSPost2010PropOp42
 70
     0
102
RTVSPost2010Prop43
 90
        3
102
RTVSPost2010PropOp43
 70
     0
102
RTVSPost2010Prop44ColorIndex
 90
        5
102
RTVSPost2010Prop44ColorRGB
 90
      255
102
RTVSPost2010PropOp44
 70
     0
102
RTVSPost2010Prop45
280
     0
102
RTVSPost2010PropOp45
 70
     0
102
RTVSPost2010Prop46
 90
       50
102
RTVSPost2010PropOp46
 70
     0
102
RTVSPost2010Prop47
 90
       50
102
RTVSPost2010PropOp47
 70
     0
102
RTVSPost2010Prop48
 90
       50
102
RTVSPost2010PropOp48
 70
     0
102
RTVSPost2010Prop49
280
     0
102
RTVSPost2010PropOp49
 70
     0
102
RTVSPost2010Prop50
 90
       50
102
RTVSPost2010PropOp50
 70
     0
102
RTVSPost2010Prop51ColorIndex
 90
      256
102
RTVSPost2010Prop51ColorRGB
 90
-16777216
102
RTVSPost2010PropOp51
 70
     0
102
RTVSPost2010Prop52
140
1.0
102
RTVSPost2010PropOp52
 70
     0
102
RTVSPost2010Prop53
 90
        2
102
RTVSPost2010PropOp53
 70
     0
102
RTVSPost2010Prop54
  1
strokes_ogs.tif
102
RTVSPost2010PropOp54
 70
     0
102
RTVSPost2010Prop55
280
     0
102
RTVSPost2010PropOp55
 70
     0
102
RTVSPost2010Prop56
140
1.0
102
RTVSPost2010PropOp56
 70
     0
102
RTVSPost2010Prop57
140
1.0
102
RTVSPost2010PropOp57
 70
     0
102
RTVSPropertyOp0
 70
     0
102
RTVSPropertyOp1
 70
     0
102
RTVSPropertyOp2
 70
     0
102
RTVSPropertyOp3
 70
     0
102
RTVSPropertyOp4
 70
     0
102
RTVSPropertyOp5
 70
     0
102
RTVSPropertyOp6
 70
     0
102
RTVSPropertyOp7
 70
     0
102
RTVSPropertyOp8
 70
     0
102
RTVSPropertyOp9
 70
     0
102
RTVSPropertyOp10
 70
     0
102
RTVSPropertyOp11
 70
     0
102
RTVSPropertyOp12
 70
     0
102
RTVSPropertyOp13
 70
     0
102
RTVSPropertyOp14
 70
     2
102
RTVSPropertyOp15
 70
     0
102
RTVSPropertyOp16
 70
     0
102
RTVSPropertyOp17
 70
     0
102
RTVSPropertyOp18
 70
     0
102
RTVSPropertyOp19
 70
     0
102
RTVSPropertyOp20
 70
     0
102
RTVSPropertyOp21
 70
     0
102
RTVSPropertyOp22
 70
     0
102
RTVSPropertyOp23
 70
     0
102
RTVSPropertyOp24
 70
     0
102
RTVSPropertyOp25
 70
     0
102
RTVSPropertyOp26
 70
     0
102
RTVSPropertyOp27
 70
     0
102
RTVSPropertyOp28
 70
     0
102
RTVSPropertyOp29
 70
     0
102
RTVSPropertyOp30
 70
     0
102
RTVSPropertyOp31
 70
     0
102
RTVSPropertyOp32
 70
     0
102
RTVSPropertyOp33
 70
     0
102
RTVSPropertyOp34
 70
     0
102
RTVSPropertyOp35
 70
     0
102
RTVSPropertyOp36
 70
     0
102
RTVSPropertyOp37
 70
     0
102
RTVSPropertyOp38
 70
     0
102
RTVSPropertyOp39
 70
     0
102
RTVSPropertyOp40
 70
     0
102
RTVSPropertyOp41
 70
     0
102
RTVSPropertyOp42
 70
     0
102
RTVSPropertyOp43
 70
     0
102
RTVSPropertyOp44
 70
     0
102
RTVSPropertyOp45
 70
     0
102
RTVSPropertyOp46
 70
     0
102
RTVSPropertyOp47
 70
     0
102
RTVSPropertyOp48
 70
     0
102
RTVSPropertyOp49
 70
     0
102
RTVSPropertyOp50
 70
     0
102
RTVSPropertyOp51
 70
     0
102
RTVSPropertyOp52
 70
     0
102
RTVSPropertyOp53
 70
     0
102
RTVSPropertyOp54
 70
     0
102
RTVSPropertyOp55
 70
     0
102
RTVSPropertyOp56
 70
     0
102
RTVSPropertyOp57
 70
     0
102
RTVSPropertyOp58
 70
     1
102
RTVSPropertyOp59
 70
     1
102
RTVSPropertyOp60
 70
     1
102
RTVSPropertyOp61
 70
     1
102
RTVSPropertyOp62
 70
     1
  0
XRECORD
  5
661
102
{ACAD_REACTORS
330
660
102
}
330
660
100
AcDbXrecord
280
     1
102
RTVSPost2010Prop28
280
     0
102
RTVSPost2010PropOp28
 70
     1
102
RTVSPost2010Prop29
280
     1
102
RTVSPost2010PropOp29
 70
     1
102
RTVSPost2010Prop30
280
     1
102
RTVSPost2010PropOp30
 70
     1
102
RTVSPost2010Prop31
280
     0
102
RTVSPost2010PropOp31
 70
     1
102
RTVSPost2010Prop32
280
     0
102
RTVSPost2010PropOp32
 70
     1
102
RTVSPost2010Prop33
280
     0
102
RTVSPost2010PropOp33
 70
     1
102
RTVSPost2010Prop34
280
     0
102
RTVSPost2010PropOp34
 70
     1
102
RTVSPost2010Prop35
280
     0
102
RTVSPost2010PropOp35
 70
     1
102
RTVSPost2010Prop36
280
     0
102
RTVSPost2010PropOp36
 70
     1
102
RTVSPost2010Prop37
 90
       50
102
RTVSPost2010PropOp37
 70
     1
102
RTVSPost2010Prop38
140
0.0
102
RTVSPost2010PropOp38
 70
     1
102
RTVSPost2010Prop39
140
1.0
102
RTVSPost2010PropOp39
 70
     1
102
RTVSPost2010Prop40
 90
        0
102
RTVSPost2010PropOp40
 70
     1
102
RTVSPost2010Prop41ColorIndex
 90
       18
102
RTVSPost2010Prop41ColorRGB
 90
        0
102
RTVSPost2010PropOp41
 70
     1
102
RTVSPost2010Prop42
 90
       50
102
RTVSPost2010PropOp42
 70
     1
102
RTVSPost2010Prop43
 90
        3
102
RTVSPost2010PropOp43
 70
     1
102
RTVSPost2010Prop44ColorIndex
 90
        5
102
RTVSPost2010Prop44ColorRGB
 90
      255
102
RTVSPost2010PropOp44
 70
     1
102
RTVSPost2010Prop45
280
     0
102
RTVSPost2010PropOp45
 70
     1
102
RTVSPost2010Prop46
 90
       50
102
RTVSPost2010PropOp46
 70
     1
102
RTVSPost2010Prop47
 90
       50
102
RTVSPost2010PropOp47
 70
     1
102
RTVSPost2010Prop48
 90
       50
102
RTVSPost2010PropOp48
 70
     1
102
RTVSPost2010Prop49
280
     0
102
RTVSPost2010PropOp49
 70
     1
102
RTVSPost2010Prop50
 90
       50
102
RTVSPost2010PropOp50
 70
     1
102
RTVSPost2010Prop51ColorIndex
 90
      256
102
RTVSPost2010Prop51ColorRGB
 90
-16777216
102
RTVSPost2010PropOp51
 70
     0
102
RTVSPost2010Prop52
140
1.0
102
RTVSPost2010PropOp52
 70
     0
102
RTVSPost2010Prop53
 90
        2
102
RTVSPost2010PropOp53
 70
     1
102
RTVSPost2010Prop54
  1
strokes_ogs.tif
102
RTVSPost2010PropOp54
 70
     1
102
RTVSPost2010Prop55
280
     0
102
RTVSPost2010PropOp55
 70
     1
102
RTVSPost2010Prop56
140
1.0
102
RTVSPost2010PropOp56
 70
     1
102
RTVSPost2010Prop57
140
1.0
102
RTVSPost2010PropOp57
 70
     1
102
RTVSPropertyOp0
 70
     1
102
RTVSPropertyOp1
 70
     1
102
RTVSPropertyOp2
 70
     1
102
RTVSPropertyOp3
 70
     1
102
RTVSPropertyOp4
 70
     1
102
RTVSPropertyOp5
 70
     1
102
RTVSPropertyOp6
 70
     1
102
RTVSPropertyOp7
 70
     1
102
RTVSPropertyOp8
 70
     1
102
RTVSPropertyOp9
 70
     1
102
RTVSPropertyOp10
 70
     1
102
RTVSPropertyOp11
 70
     1
102
RTVSPropertyOp12
 70
     1
102
RTVSPropertyOp13
 70
     1
102
RTVSPropertyOp14
 70
     1
102
RTVSPropertyOp15
 70
     1
102
RTVSPropertyOp16
 70
     1
102
RTVSPropertyOp17
 70
     1
102
RTVSPropertyOp18
 70
     1
102
RTVSPropertyOp19
 70
     1
102
RTVSPropertyOp20
 70
     1
102
RTVSPropertyOp21
 70
     1
102
RTVSPropertyOp22
 70
     1
102
RTVSPropertyOp23
 70
     1
102
RTVSPropertyOp24
 70
     1
102
RTVSPropertyOp25
 70
     1
102
RTVSPropertyOp26
 70
     1
102
RTVSPropertyOp27
 70
     1
102
RTVSPropertyOp28
 70
     1
102
RTVSPropertyOp29
 70
     1
102
RTVSPropertyOp30
 70
     1
102
RTVSPropertyOp31
 70
     1
102
RTVSPropertyOp32
 70
     1
102
RTVSPropertyOp33
 70
     1
102
RTVSPropertyOp34
 70
     1
102
RTVSPropertyOp35
 70
     1
102
RTVSPropertyOp36
 70
     1
102
RTVSPropertyOp37
 70
     1
102
RTVSPropertyOp38
 70
     1
102
RTVSPropertyOp39
 70
     1
102
RTVSPropertyOp40
 70
     1
102
RTVSPropertyOp41
 70
     1
102
RTVSPropertyOp42
 70
     1
102
RTVSPropertyOp43
 70
     1
102
RTVSPropertyOp44
 70
     1
102
RTVSPropertyOp45
 70
     1
102
RTVSPropertyOp46
 70
     1
102
RTVSPropertyOp47
 70
     1
102
RTVSPropertyOp48
 70
     1
102
RTVSPropertyOp49
 70
     1
102
RTVSPropertyOp50
 70
     1
102
RTVSPropertyOp51
 70
     0
102
RTVSPropertyOp52
 70
     0
102
RTVSPropertyOp53
 70
     1
102
RTVSPropertyOp54
 70
     1
102
RTVSPropertyOp55
 70
     1
102
RTVSPropertyOp56
 70
     1
102
RTVSPropertyOp57
 70
     1
102
RTVSPropertyOp58
 70
     1
102
RTVSPropertyOp59
 70
     1
102
RTVSPropertyOp60
 70
     1
102
RTVSPropertyOp61
 70
     1
102
RTVSPropertyOp62
 70
     1
  0
XRECORD
  5
645
102
{ACAD_REACTORS
330
644
102
}
330
644
100
AcDbXrecord
280
     1
102
RTVSPost2010Prop28
280
     0
102
RTVSPost2010PropOp28
 70
     1
102
RTVSPost2010Prop29
280
     1
102
RTVSPost2010PropOp29
 70
     1
102
RTVSPost2010Prop30
280
     1
102
RTVSPost2010PropOp30
 70
     1
102
RTVSPost2010Prop31
280
     0
102
RTVSPost2010PropOp31
 70
     1
102
RTVSPost2010Prop32
280
     0
102
RTVSPost2010PropOp32
 70
     1
102
RTVSPost2010Prop33
280
     0
102
RTVSPost2010PropOp33
 70
     1
102
RTVSPost2010Prop34
280
     0
102
RTVSPost2010PropOp34
 70
     1
102
RTVSPost2010Prop35
280
     0
102
RTVSPost2010PropOp35
 70
     1
102
RTVSPost2010Prop36
280
     0
102
RTVSPost2010PropOp36
 70
     1
102
RTVSPost2010Prop37
 90
       50
102
RTVSPost2010PropOp37
 70
     1
102
RTVSPost2010Prop38
140
0.0
102
RTVSPost2010PropOp38
 70
     1
102
RTVSPost2010Prop39
140
1.0
102
RTVSPost2010PropOp39
 70
     1
102
RTVSPost2010Prop40
 90
        0
102
RTVSPost2010PropOp40
 70
     1
102
RTVSPost2010Prop41ColorIndex
 90
       18
102
RTVSPost2010Prop41ColorRGB
 90
        0
102
RTVSPost2010PropOp41
 70
     1
102
RTVSPost2010Prop42
 90
       50
102
RTVSPost2010PropOp42
 70
     1
102
RTVSPost2010Prop43
 90
        3
102
RTVSPost2010PropOp43
 70
     1
102
RTVSPost2010Prop44ColorIndex
 90
        5
102
RTVSPost2010Prop44ColorRGB
 90
      255
102
RTVSPost2010PropOp44
 70
     1
102
RTVSPost2010Prop45
280
     0
102
RTVSPost2010PropOp45
 70
     1
102
RTVSPost2010Prop46
 90
       50
102
RTVSPost2010PropOp46
 70
     1
102
RTVSPost2010Prop47
 90
       50
102
RTVSPost2010PropOp47
 70
     1
102
RTVSPost2010Prop48
 90
       50
102
RTVSPost2010PropOp48
 70
     1
102
RTVSPost2010Prop49
280
     0
102
RTVSPost2010PropOp49
 70
     1
102
RTVSPost2010Prop50
 90
       50
102
RTVSPost2010PropOp50
 70
     1
102
RTVSPost2010Prop51ColorIndex
 90
      256
102
RTVSPost2010Prop51ColorRGB
 90
-16777216
102
RTVSPost2010PropOp51
 70
     0
102
RTVSPost2010Prop52
140
1.0
102
RTVSPost2010PropOp52
 70
     0
102
RTVSPost2010Prop53
 90
        2
102
RTVSPost2010PropOp53
 70
     1
102
RTVSPost2010Prop54
  1
strokes_ogs.tif
102
RTVSPost2010PropOp54
 70
     1
102
RTVSPost2010Prop55
280
     0
102
RTVSPost2010PropOp55
 70
     1
102
RTVSPost2010Prop56
140
1.0
102
RTVSPost2010PropOp56
 70
     1
102
RTVSPost2010Prop57
140
1.0
102
RTVSPost2010PropOp57
 70
     1
102
RTVSPropertyOp0
 70
     1
102
RTVSPropertyOp1
 70
     1
102
RTVSPropertyOp2
 70
     1
102
RTVSPropertyOp3
 70
     1
102
RTVSPropertyOp4
 70
     1
102
RTVSPropertyOp5
 70
     1
102
RTVSPropertyOp6
 70
     1
102
RTVSPropertyOp7
 70
     1
102
RTVSPropertyOp8
 70
     1
102
RTVSPropertyOp9
 70
     1
102
RTVSPropertyOp10
 70
     1
102
RTVSPropertyOp11
 70
     1
102
RTVSPropertyOp12
 70
     1
102
RTVSPropertyOp13
 70
     1
102
RTVSPropertyOp14
 70
     1
102
RTVSPropertyOp15
 70
     1
102
RTVSPropertyOp16
 70
     1
102
RTVSPropertyOp17
 70
     1
102
RTVSPropertyOp18
 70
     1
102
RTVSPropertyOp19
 70
     1
102
RTVSPropertyOp20
 70
     1
102
RTVSPropertyOp21
 70
     1
102
RTVSPropertyOp22
 70
     1
102
RTVSPropertyOp23
 70
     1
102
RTVSPropertyOp24
 70
     1
102
RTVSPropertyOp25
 70
     1
102
RTVSPropertyOp26
 70
     1
102
RTVSPropertyOp27
 70
     1
102
RTVSPropertyOp28
 70
     1
102
RTVSPropertyOp29
 70
     1
102
RTVSPropertyOp30
 70
     1
102
RTVSPropertyOp31
 70
     1
102
RTVSPropertyOp32
 70
     1
102
RTVSPropertyOp33
 70
     1
102
RTVSPropertyOp34
 70
     1
102
RTVSPropertyOp35
 70
     1
102
RTVSPropertyOp36
 70
     1
102
RTVSPropertyOp37
 70
     1
102
RTVSPropertyOp38
 70
     1
102
RTVSPropertyOp39
 70
     1
102
RTVSPropertyOp40
 70
     1
102
RTVSPropertyOp41
 70
     1
102
RTVSPropertyOp42
 70
     1
102
RTVSPropertyOp43
 70
     1
102
RTVSPropertyOp44
 70
     1
102
RTVSPropertyOp45
 70
     1
102
RTVSPropertyOp46
 70
     1
102
RTVSPropertyOp47
 70
     1
102
RTVSPropertyOp48
 70
     1
102
RTVSPropertyOp49
 70
     1
102
RTVSPropertyOp50
 70
     1
102
RTVSPropertyOp51
 70
     0
102
RTVSPropertyOp52
 70
     0
102
RTVSPropertyOp53
 70
     1
102
RTVSPropertyOp54
 70
     1
102
RTVSPropertyOp55
 70
     1
102
RTVSPropertyOp56
 70
     1
102
RTVSPropertyOp57
 70
     1
102
RTVSPropertyOp58
 70
     1
102
RTVSPropertyOp59
 70
     1
102
RTVSPropertyOp60
 70
     1
102
RTVSPropertyOp61
 70
     1
102
RTVSPropertyOp62
 70
     1
  0
XRECORD
  5
647
102
{ACAD_REACTORS
330
646
102
}
330
646
100
AcDbXrecord
280
     1
102
RTVSPost2010Prop28
280
     0
102
RTVSPost2010PropOp28
 70
     1
102
RTVSPost2010Prop29
280
     1
102
RTVSPost2010PropOp29
 70
     1
102
RTVSPost2010Prop30
280
     1
102
RTVSPost2010PropOp30
 70
     1
102
RTVSPost2010Prop31
280
     0
102
RTVSPost2010PropOp31
 70
     1
102
RTVSPost2010Prop32
280
     0
102
RTVSPost2010PropOp32
 70
     1
102
RTVSPost2010Prop33
280
     0
102
RTVSPost2010PropOp33
 70
     1
102
RTVSPost2010Prop34
280
     0
102
RTVSPost2010PropOp34
 70
     1
102
RTVSPost2010Prop35
280
     0
102
RTVSPost2010PropOp35
 70
     1
102
RTVSPost2010Prop36
280
     0
102
RTVSPost2010PropOp36
 70
     1
102
RTVSPost2010Prop37
 90
       50
102
RTVSPost2010PropOp37
 70
     1
102
RTVSPost2010Prop38
140
0.0
102
RTVSPost2010PropOp38
 70
     1
102
RTVSPost2010Prop39
140
1.0
102
RTVSPost2010PropOp39
 70
     1
102
RTVSPost2010Prop40
 90
        0
102
RTVSPost2010PropOp40
 70
     1
102
RTVSPost2010Prop41ColorIndex
 90
       18
102
RTVSPost2010Prop41ColorRGB
 90
        0
102
RTVSPost2010PropOp41
 70
     1
102
RTVSPost2010Prop42
 90
       50
102
RTVSPost2010PropOp42
 70
     1
102
RTVSPost2010Prop43
 90
        3
102
RTVSPost2010PropOp43
 70
     1
102
RTVSPost2010Prop44ColorIndex
 90
        5
102
RTVSPost2010Prop44ColorRGB
 90
      255
102
RTVSPost2010PropOp44
 70
     1
102
RTVSPost2010Prop45
280
     0
102
RTVSPost2010PropOp45
 70
     1
102
RTVSPost2010Prop46
 90
       50
102
RTVSPost2010PropOp46
 70
     1
102
RTVSPost2010Prop47
 90
       50
102
RTVSPost2010PropOp47
 70
     1
102
RTVSPost2010Prop48
 90
       50
102
RTVSPost2010PropOp48
 70
     1
102
RTVSPost2010Prop49
280
     0
102
RTVSPost2010PropOp49
 70
     1
102
RTVSPost2010Prop50
 90
       50
102
RTVSPost2010PropOp50
 70
     1
102
RTVSPost2010Prop51ColorIndex
 90
      256
102
RTVSPost2010Prop51ColorRGB
 90
-16777216
102
RTVSPost2010PropOp51
 70
     0
102
RTVSPost2010Prop52
140
1.0
102
RTVSPost2010PropOp52
 70
     0
102
RTVSPost2010Prop53
 90
        2
102
RTVSPost2010PropOp53
 70
     1
102
RTVSPost2010Prop54
  1
strokes_ogs.tif
102
RTVSPost2010PropOp54
 70
     1
102
RTVSPost2010Prop55
280
     0
102
RTVSPost2010PropOp55
 70
     1
102
RTVSPost2010Prop56
140
1.0
102
RTVSPost2010PropOp56
 70
     1
102
RTVSPost2010Prop57
140
1.0
102
RTVSPost2010PropOp57
 70
     1
102
RTVSPropertyOp0
 70
     1
102
RTVSPropertyOp1
 70
     1
102
RTVSPropertyOp2
 70
     1
102
RTVSPropertyOp3
 70
     1
102
RTVSPropertyOp4
 70
     1
102
RTVSPropertyOp5
 70
     1
102
RTVSPropertyOp6
 70
     1
102
RTVSPropertyOp7
 70
     1
102
RTVSPropertyOp8
 70
     1
102
RTVSPropertyOp9
 70
     1
102
RTVSPropertyOp10
 70
     1
102
RTVSPropertyOp11
 70
     1
102
RTVSPropertyOp12
 70
     1
102
RTVSPropertyOp13
 70
     1
102
RTVSPropertyOp14
 70
     1
102
RTVSPropertyOp15
 70
     1
102
RTVSPropertyOp16
 70
     1
102
RTVSPropertyOp17
 70
     1
102
RTVSPropertyOp18
 70
     1
102
RTVSPropertyOp19
 70
     1
102
RTVSPropertyOp20
 70
     1
102
RTVSPropertyOp21
 70
     1
102
RTVSPropertyOp22
 70
     1
102
RTVSPropertyOp23
 70
     1
102
RTVSPropertyOp24
 70
     1
102
RTVSPropertyOp25
 70
     1
102
RTVSPropertyOp26
 70
     1
102
RTVSPropertyOp27
 70
     1
102
RTVSPropertyOp28
 70
     1
102
RTVSPropertyOp29
 70
     1
102
RTVSPropertyOp30
 70
     1
102
RTVSPropertyOp31
 70
     1
102
RTVSPropertyOp32
 70
     1
102
RTVSPropertyOp33
 70
     1
102
RTVSPropertyOp34
 70
     1
102
RTVSPropertyOp35
 70
     1
102
RTVSPropertyOp36
 70
     1
102
RTVSPropertyOp37
 70
     1
102
RTVSPropertyOp38
 70
     1
102
RTVSPropertyOp39
 70
     1
102
RTVSPropertyOp40
 70
     1
102
RTVSPropertyOp41
 70
     1
102
RTVSPropertyOp42
 70
     1
102
RTVSPropertyOp43
 70
     1
102
RTVSPropertyOp44
 70
     1
102
RTVSPropertyOp45
 70
     1
102
RTVSPropertyOp46
 70
     1
102
RTVSPropertyOp47
 70
     1
102
RTVSPropertyOp48
 70
     1
102
RTVSPropertyOp49
 70
     1
102
RTVSPropertyOp50
 70
     1
102
RTVSPropertyOp51
 70
     0
102
RTVSPropertyOp52
 70
     0
102
RTVSPropertyOp53
 70
     1
102
RTVSPropertyOp54
 70
     1
102
RTVSPropertyOp55
 70
     1
102
RTVSPropertyOp56
 70
     1
102
RTVSPropertyOp57
 70
     1
102
RTVSPropertyOp58
 70
     1
102
RTVSPropertyOp59
 70
     1
102
RTVSPropertyOp60
 70
     1
102
RTVSPropertyOp61
 70
     1
102
RTVSPropertyOp62
 70
     1
  0
XRECORD
  5
649
102
{ACAD_REACTORS
330
648
102
}
330
648
100
AcDbXrecord
280
     1
102
RTVSPost2010Prop28
280
     0
102
RTVSPost2010PropOp28
 70
     1
102
RTVSPost2010Prop29
280
     1
102
RTVSPost2010PropOp29
 70
     1
102
RTVSPost2010Prop30
280
     1
102
RTVSPost2010PropOp30
 70
     1
102
RTVSPost2010Prop31
280
     0
102
RTVSPost2010PropOp31
 70
     1
102
RTVSPost2010Prop32
280
     0
102
RTVSPost2010PropOp32
 70
     1
102
RTVSPost2010Prop33
280
     0
102
RTVSPost2010PropOp33
 70
     1
102
RTVSPost2010Prop34
280
     0
102
RTVSPost2010PropOp34
 70
     1
102
RTVSPost2010Prop35
280
     0
102
RTVSPost2010PropOp35
 70
     1
102
RTVSPost2010Prop36
280
     0
102
RTVSPost2010PropOp36
 70
     1
102
RTVSPost2010Prop37
 90
       50
102
RTVSPost2010PropOp37
 70
     1
102
RTVSPost2010Prop38
140
0.0
102
RTVSPost2010PropOp38
 70
     1
102
RTVSPost2010Prop39
140
1.0
102
RTVSPost2010PropOp39
 70
     1
102
RTVSPost2010Prop40
 90
        0
102
RTVSPost2010PropOp40
 70
     1
102
RTVSPost2010Prop41ColorIndex
 90
       18
102
RTVSPost2010Prop41ColorRGB
 90
        0
102
RTVSPost2010PropOp41
 70
     1
102
RTVSPost2010Prop42
 90
       50
102
RTVSPost2010PropOp42
 70
     1
102
RTVSPost2010Prop43
 90
        3
102
RTVSPost2010PropOp43
 70
     1
102
RTVSPost2010Prop44ColorIndex
 90
        5
102
RTVSPost2010Prop44ColorRGB
 90
      255
102
RTVSPost2010PropOp44
 70
     1
102
RTVSPost2010Prop45
280
     0
102
RTVSPost2010PropOp45
 70
     1
102
RTVSPost2010Prop46
 90
       50
102
RTVSPost2010PropOp46
 70
     1
102
RTVSPost2010Prop47
 90
       50
102
RTVSPost2010PropOp47
 70
     1
102
RTVSPost2010Prop48
 90
       50
102
RTVSPost2010PropOp48
 70
     1
102
RTVSPost2010Prop49
280
     0
102
RTVSPost2010PropOp49
 70
     1
102
RTVSPost2010Prop50
 90
       50
102
RTVSPost2010PropOp50
 70
     1
102
RTVSPost2010Prop51ColorIndex
 90
      256
102
RTVSPost2010Prop51ColorRGB
 90
-16777216
102
RTVSPost2010PropOp51
 70
     0
102
RTVSPost2010Prop52
140
1.0
102
RTVSPost2010PropOp52
 70
     0
102
RTVSPost2010Prop53
 90
        2
102
RTVSPost2010PropOp53
 70
     1
102
RTVSPost2010Prop54
  1
strokes_ogs.tif
102
RTVSPost2010PropOp54
 70
     1
102
RTVSPost2010Prop55
280
     0
102
RTVSPost2010PropOp55
 70
     1
102
RTVSPost2010Prop56
140
1.0
102
RTVSPost2010PropOp56
 70
     1
102
RTVSPost2010Prop57
140
1.0
102
RTVSPost2010PropOp57
 70
     1
102
RTVSPropertyOp0
 70
     1
102
RTVSPropertyOp1
 70
     1
102
RTVSPropertyOp2
 70
     1
102
RTVSPropertyOp3
 70
     1
102
RTVSPropertyOp4
 70
     1
102
RTVSPropertyOp5
 70
     1
102
RTVSPropertyOp6
 70
     1
102
RTVSPropertyOp7
 70
     1
102
RTVSPropertyOp8
 70
     1
102
RTVSPropertyOp9
 70
     1
102
RTVSPropertyOp10
 70
     1
102
RTVSPropertyOp11
 70
     1
102
RTVSPropertyOp12
 70
     1
102
RTVSPropertyOp13
 70
     1
102
RTVSPropertyOp14
 70
     1
102
RTVSPropertyOp15
 70
     1
102
RTVSPropertyOp16
 70
     1
102
RTVSPropertyOp17
 70
     1
102
RTVSPropertyOp18
 70
     1
102
RTVSPropertyOp19
 70
     1
102
RTVSPropertyOp20
 70
     1
102
RTVSPropertyOp21
 70
     1
102
RTVSPropertyOp22
 70
     1
102
RTVSPropertyOp23
 70
     1
102
RTVSPropertyOp24
 70
     1
102
RTVSPropertyOp25
 70
     1
102
RTVSPropertyOp26
 70
     1
102
RTVSPropertyOp27
 70
     1
102
RTVSPropertyOp28
 70
     1
102
RTVSPropertyOp29
 70
     1
102
RTVSPropertyOp30
 70
     1
102
RTVSPropertyOp31
 70
     1
102
RTVSPropertyOp32
 70
     1
102
RTVSPropertyOp33
 70
     1
102
RTVSPropertyOp34
 70
     1
102
RTVSPropertyOp35
 70
     1
102
RTVSPropertyOp36
 70
     1
102
RTVSPropertyOp37
 70
     1
102
RTVSPropertyOp38
 70
     1
102
RTVSPropertyOp39
 70
     1
102
RTVSPropertyOp40
 70
     1
102
RTVSPropertyOp41
 70
     1
102
RTVSPropertyOp42
 70
     1
102
RTVSPropertyOp43
 70
     1
102
RTVSPropertyOp44
 70
     1
102
RTVSPropertyOp45
 70
     1
102
RTVSPropertyOp46
 70
     1
102
RTVSPropertyOp47
 70
     1
102
RTVSPropertyOp48
 70
     1
102
RTVSPropertyOp49
 70
     1
102
RTVSPropertyOp50
 70
     1
102
RTVSPropertyOp51
 70
     0
102
RTVSPropertyOp52
 70
     0
102
RTVSPropertyOp53
 70
     1
102
RTVSPropertyOp54
 70
     1
102
RTVSPropertyOp55
 70
     1
102
RTVSPropertyOp56
 70
     1
102
RTVSPropertyOp57
 70
     1
102
RTVSPropertyOp58
 70
     1
102
RTVSPropertyOp59
 70
     1
102
RTVSPropertyOp60
 70
     1
102
RTVSPropertyOp61
 70
     1
102
RTVSPropertyOp62
 70
     1
  0
XRECORD
  5
64B
102
{ACAD_REACTORS
330
64A
102
}
330
64A
100
AcDbXrecord
280
     1
102
RTVSPost2010Prop28
280
     0
102
RTVSPost2010PropOp28
 70
     1
102
RTVSPost2010Prop29
280
     1
102
RTVSPost2010PropOp29
 70
     1
102
RTVSPost2010Prop30
280
     1
102
RTVSPost2010PropOp30
 70
     1
102
RTVSPost2010Prop31
280
     0
102
RTVSPost2010PropOp31
 70
     1
102
RTVSPost2010Prop32
280
     0
102
RTVSPost2010PropOp32
 70
     1
102
RTVSPost2010Prop33
280
     0
102
RTVSPost2010PropOp33
 70
     1
102
RTVSPost2010Prop34
280
     0
102
RTVSPost2010PropOp34
 70
     1
102
RTVSPost2010Prop35
280
     0
102
RTVSPost2010PropOp35
 70
     1
102
RTVSPost2010Prop36
280
     0
102
RTVSPost2010PropOp36
 70
     1
102
RTVSPost2010Prop37
 90
       50
102
RTVSPost2010PropOp37
 70
     1
102
RTVSPost2010Prop38
140
0.0
102
RTVSPost2010PropOp38
 70
     1
102
RTVSPost2010Prop39
140
1.0
102
RTVSPost2010PropOp39
 70
     1
102
RTVSPost2010Prop40
 90
        0
102
RTVSPost2010PropOp40
 70
     1
102
RTVSPost2010Prop41ColorIndex
 90
       18
102
RTVSPost2010Prop41ColorRGB
 90
        0
102
RTVSPost2010PropOp41
 70
     1
102
RTVSPost2010Prop42
 90
       50
102
RTVSPost2010PropOp42
 70
     1
102
RTVSPost2010Prop43
 90
        3
102
RTVSPost2010PropOp43
 70
     1
102
RTVSPost2010Prop44ColorIndex
 90
        5
102
RTVSPost2010Prop44ColorRGB
 90
      255
102
RTVSPost2010PropOp44
 70
     1
102
RTVSPost2010Prop45
280
     0
102
RTVSPost2010PropOp45
 70
     1
102
RTVSPost2010Prop46
 90
       50
102
RTVSPost2010PropOp46
 70
     1
102
RTVSPost2010Prop47
 90
       50
102
RTVSPost2010PropOp47
 70
     1
102
RTVSPost2010Prop48
 90
       50
102
RTVSPost2010PropOp48
 70
     1
102
RTVSPost2010Prop49
280
     0
102
RTVSPost2010PropOp49
 70
     1
102
RTVSPost2010Prop50
 90
       50
102
RTVSPost2010PropOp50
 70
     1
102
RTVSPost2010Prop51ColorIndex
 90
      256
102
RTVSPost2010Prop51ColorRGB
 90
-16777216
102
RTVSPost2010PropOp51
 70
     0
102
RTVSPost2010Prop52
140
1.0
102
RTVSPost2010PropOp52
 70
     0
102
RTVSPost2010Prop53
 90
        2
102
RTVSPost2010PropOp53
 70
     1
102
RTVSPost2010Prop54
  1
strokes_ogs.tif
102
RTVSPost2010PropOp54
 70
     1
102
RTVSPost2010Prop55
280
     0
102
RTVSPost2010PropOp55
 70
     1
102
RTVSPost2010Prop56
140
1.0
102
RTVSPost2010PropOp56
 70
     1
102
RTVSPost2010Prop57
140
1.0
102
RTVSPost2010PropOp57
 70
     1
102
RTVSPropertyOp0
 70
     1
102
RTVSPropertyOp1
 70
     1
102
RTVSPropertyOp2
 70
     1
102
RTVSPropertyOp3
 70
     1
102
RTVSPropertyOp4
 70
     1
102
RTVSPropertyOp5
 70
     1
102
RTVSPropertyOp6
 70
     1
102
RTVSPropertyOp7
 70
     1
102
RTVSPropertyOp8
 70
     1
102
RTVSPropertyOp9
 70
     1
102
RTVSPropertyOp10
 70
     1
102
RTVSPropertyOp11
 70
     1
102
RTVSPropertyOp12
 70
     1
102
RTVSPropertyOp13
 70
     1
102
RTVSPropertyOp14
 70
     1
102
RTVSPropertyOp15
 70
     1
102
RTVSPropertyOp16
 70
     1
102
RTVSPropertyOp17
 70
     1
102
RTVSPropertyOp18
 70
     1
102
RTVSPropertyOp19
 70
     1
102
RTVSPropertyOp20
 70
     1
102
RTVSPropertyOp21
 70
     1
102
RTVSPropertyOp22
 70
     1
102
RTVSPropertyOp23
 70
     1
102
RTVSPropertyOp24
 70
     1
102
RTVSPropertyOp25
 70
     1
102
RTVSPropertyOp26
 70
     1
102
RTVSPropertyOp27
 70
     1
102
RTVSPropertyOp28
 70
     1
102
RTVSPropertyOp29
 70
     1
102
RTVSPropertyOp30
 70
     1
102
RTVSPropertyOp31
 70
     1
102
RTVSPropertyOp32
 70
     1
102
RTVSPropertyOp33
 70
     1
102
RTVSPropertyOp34
 70
     1
102
RTVSPropertyOp35
 70
     1
102
RTVSPropertyOp36
 70
     1
102
RTVSPropertyOp37
 70
     1
102
RTVSPropertyOp38
 70
     1
102
RTVSPropertyOp39
 70
     1
102
RTVSPropertyOp40
 70
     1
102
RTVSPropertyOp41
 70
     1
102
RTVSPropertyOp42
 70
     1
102
RTVSPropertyOp43
 70
     1
102
RTVSPropertyOp44
 70
     1
102
RTVSPropertyOp45
 70
     1
102
RTVSPropertyOp46
 70
     1
102
RTVSPropertyOp47
 70
     1
102
RTVSPropertyOp48
 70
     1
102
RTVSPropertyOp49
 70
     1
102
RTVSPropertyOp50
 70
     1
102
RTVSPropertyOp51
 70
     0
102
RTVSPropertyOp52
 70
     0
102
RTVSPropertyOp53
 70
     1
102
RTVSPropertyOp54
 70
     1
102
RTVSPropertyOp55
 70
     1
102
RTVSPropertyOp56
 70
     1
102
RTVSPropertyOp57
 70
     1
102
RTVSPropertyOp58
 70
     1
102
RTVSPropertyOp59
 70
     1
102
RTVSPropertyOp60
 70
     1
102
RTVSPropertyOp61
 70
     1
102
RTVSPropertyOp62
 70
     1
  0
XRECORD
  5
651
102
{ACAD_REACTORS
330
650
102
}
330
650
100
AcDbXrecord
280
     1
102
RTVSPost2010Prop28
280
     0
102
RTVSPost2010PropOp28
 70
     1
102
RTVSPost2010Prop29
280
     1
102
RTVSPost2010PropOp29
 70
     1
102
RTVSPost2010Prop30
280
     1
102
RTVSPost2010PropOp30
 70
     1
102
RTVSPost2010Prop31
280
     0
102
RTVSPost2010PropOp31
 70
     1
102
RTVSPost2010Prop32
280
     0
102
RTVSPost2010PropOp32
 70
     1
102
RTVSPost2010Prop33
280
     0
102
RTVSPost2010PropOp33
 70
     1
102
RTVSPost2010Prop34
280
     0
102
RTVSPost2010PropOp34
 70
     1
102
RTVSPost2010Prop35
280
     0
102
RTVSPost2010PropOp35
 70
     1
102
RTVSPost2010Prop36
280
     0
102
RTVSPost2010PropOp36
 70
     1
102
RTVSPost2010Prop37
 90
       50
102
RTVSPost2010PropOp37
 70
     1
102
RTVSPost2010Prop38
140
0.0
102
RTVSPost2010PropOp38
 70
     1
102
RTVSPost2010Prop39
140
1.0
102
RTVSPost2010PropOp39
 70
     1
102
RTVSPost2010Prop40
 90
        0
102
RTVSPost2010PropOp40
 70
     1
102
RTVSPost2010Prop41ColorIndex
 90
       18
102
RTVSPost2010Prop41ColorRGB
 90
        0
102
RTVSPost2010PropOp41
 70
     1
102
RTVSPost2010Prop42
 90
       50
102
RTVSPost2010PropOp42
 70
     1
102
RTVSPost2010Prop43
 90
        3
102
RTVSPost2010PropOp43
 70
     1
102
RTVSPost2010Prop44ColorIndex
 90
        5
102
RTVSPost2010Prop44ColorRGB
 90
      255
102
RTVSPost2010PropOp44
 70
     1
102
RTVSPost2010Prop45
280
     0
102
RTVSPost2010PropOp45
 70
     1
102
RTVSPost2010Prop46
 90
       50
102
RTVSPost2010PropOp46
 70
     1
102
RTVSPost2010Prop47
 90
       50
102
RTVSPost2010PropOp47
 70
     1
102
RTVSPost2010Prop48
 90
       50
102
RTVSPost2010PropOp48
 70
     1
102
RTVSPost2010Prop49
280
     0
102
RTVSPost2010PropOp49
 70
     1
102
RTVSPost2010Prop50
 90
       50
102
RTVSPost2010PropOp50
 70
     1
102
RTVSPost2010Prop51ColorIndex
 90
      256
102
RTVSPost2010Prop51ColorRGB
 90
-16777216
102
RTVSPost2010PropOp51
 70
     0
102
RTVSPost2010Prop52
140
1.0
102
RTVSPost2010PropOp52
 70
     0
102
RTVSPost2010Prop53
 90
        2
102
RTVSPost2010PropOp53
 70
     1
102
RTVSPost2010Prop54
  1
strokes_ogs.tif
102
RTVSPost2010PropOp54
 70
     1
102
RTVSPost2010Prop55
280
     0
102
RTVSPost2010PropOp55
 70
     1
102
RTVSPost2010Prop56
140
1.0
102
RTVSPost2010PropOp56
 70
     1
102
RTVSPost2010Prop57
140
1.0
102
RTVSPost2010PropOp57
 70
     1
102
RTVSPropertyOp0
 70
     1
102
RTVSPropertyOp1
 70
     1
102
RTVSPropertyOp2
 70
     1
102
RTVSPropertyOp3
 70
     1
102
RTVSPropertyOp4
 70
     1
102
RTVSPropertyOp5
 70
     1
102
RTVSPropertyOp6
 70
     1
102
RTVSPropertyOp7
 70
     1
102
RTVSPropertyOp8
 70
     1
102
RTVSPropertyOp9
 70
     1
102
RTVSPropertyOp10
 70
     1
102
RTVSPropertyOp11
 70
     1
102
RTVSPropertyOp12
 70
     1
102
RTVSPropertyOp13
 70
     1
102
RTVSPropertyOp14
 70
     1
102
RTVSPropertyOp15
 70
     1
102
RTVSPropertyOp16
 70
     1
102
RTVSPropertyOp17
 70
     1
102
RTVSPropertyOp18
 70
     1
102
RTVSPropertyOp19
 70
     1
102
RTVSPropertyOp20
 70
     1
102
RTVSPropertyOp21
 70
     1
102
RTVSPropertyOp22
 70
     1
102
RTVSPropertyOp23
 70
     1
102
RTVSPropertyOp24
 70
     1
102
RTVSPropertyOp25
 70
     1
102
RTVSPropertyOp26
 70
     1
102
RTVSPropertyOp27
 70
     1
102
RTVSPropertyOp28
 70
     1
102
RTVSPropertyOp29
 70
     1
102
RTVSPropertyOp30
 70
     1
102
RTVSPropertyOp31
 70
     1
102
RTVSPropertyOp32
 70
     1
102
RTVSPropertyOp33
 70
     1
102
RTVSPropertyOp34
 70
     1
102
RTVSPropertyOp35
 70
     1
102
RTVSPropertyOp36
 70
     1
102
RTVSPropertyOp37
 70
     1
102
RTVSPropertyOp38
 70
     1
102
RTVSPropertyOp39
 70
     1
102
RTVSPropertyOp40
 70
     1
102
RTVSPropertyOp41
 70
     1
102
RTVSPropertyOp42
 70
     1
102
RTVSPropertyOp43
 70
     1
102
RTVSPropertyOp44
 70
     1
102
RTVSPropertyOp45
 70
     1
102
RTVSPropertyOp46
 70
     1
102
RTVSPropertyOp47
 70
     1
102
RTVSPropertyOp48
 70
     1
102
RTVSPropertyOp49
 70
     1
102
RTVSPropertyOp50
 70
     1
102
RTVSPropertyOp51
 70
     0
102
RTVSPropertyOp52
 70
     0
102
RTVSPropertyOp53
 70
     1
102
RTVSPropertyOp54
 70
     1
102
RTVSPropertyOp55
 70
     1
102
RTVSPropertyOp56
 70
     1
102
RTVSPropertyOp57
 70
     1
102
RTVSPropertyOp58
 70
     1
102
RTVSPropertyOp59
 70
     1
102
RTVSPropertyOp60
 70
     1
102
RTVSPropertyOp61
 70
     1
102
RTVSPropertyOp62
 70
     1
  0
XRECORD
  5
665
102
{ACAD_REACTORS
330
664
102
}
330
664
100
AcDbXrecord
280
     1
102
RTVSPost2010Prop28
280
     0
102
RTVSPost2010PropOp28
 70
     0
102
RTVSPost2010Prop29
280
     1
102
RTVSPost2010PropOp29
 70
     0
102
RTVSPost2010Prop30
280
     1
102
RTVSPost2010PropOp30
 70
     0
102
RTVSPost2010Prop31
280
     0
102
RTVSPost2010PropOp31
 70
     0
102
RTVSPost2010Prop32
280
     0
102
RTVSPost2010PropOp32
 70
     0
102
RTVSPost2010Prop33
280
     0
102
RTVSPost2010PropOp33
 70
     0
102
RTVSPost2010Prop34
280
     0
102
RTVSPost2010PropOp34
 70
     0
102
RTVSPost2010Prop35
280
     0
102
RTVSPost2010PropOp35
 70
     0
102
RTVSPost2010Prop36
280
     0
102
RTVSPost2010PropOp36
 70
     0
102
RTVSPost2010Prop37
 90
       50
102
RTVSPost2010PropOp37
 70
     0
102
RTVSPost2010Prop38
140
0.0
102
RTVSPost2010PropOp38
 70
     0
102
RTVSPost2010Prop39
140
1.0
102
RTVSPost2010PropOp39
 70
     0
102
RTVSPost2010Prop40
 90
        0
102
RTVSPost2010PropOp40
 70
     0
102
RTVSPost2010Prop41ColorIndex
 90
       18
102
RTVSPost2010Prop41ColorRGB
 90
        0
102
RTVSPost2010PropOp41
 70
     0
102
RTVSPost2010Prop42
 90
       50
102
RTVSPost2010PropOp42
 70
     0
102
RTVSPost2010Prop43
 90
        3
102
RTVSPost2010PropOp43
 70
     0
102
RTVSPost2010Prop44ColorIndex
 90
        5
102
RTVSPost2010Prop44ColorRGB
 90
      255
102
RTVSPost2010PropOp44
 70
     0
102
RTVSPost2010Prop45
280
     0
102
RTVSPost2010PropOp45
 70
     0
102
RTVSPost2010Prop46
 90
       50
102
RTVSPost2010PropOp46
 70
     0
102
RTVSPost2010Prop47
 90
       50
102
RTVSPost2010PropOp47
 70
     0
102
RTVSPost2010Prop48
 90
       50
102
RTVSPost2010PropOp48
 70
     0
102
RTVSPost2010Prop49
280
     0
102
RTVSPost2010PropOp49
 70
     0
102
RTVSPost2010Prop50
 90
       50
102
RTVSPost2010PropOp50
 70
     0
102
RTVSPost2010Prop51ColorIndex
 90
      256
102
RTVSPost2010Prop51ColorRGB
 90
-16777216
102
RTVSPost2010PropOp51
 70
     0
102
RTVSPost2010Prop52
140
1.0
102
RTVSPost2010PropOp52
 70
     0
102
RTVSPost2010Prop53
 90
        2
102
RTVSPost2010PropOp53
 70
     0
102
RTVSPost2010Prop54
  1
strokes_ogs.tif
102
RTVSPost2010PropOp54
 70
     0
102
RTVSPost2010Prop55
280
     0
102
RTVSPost2010PropOp55
 70
     0
102
RTVSPost2010Prop56
140
1.0
102
RTVSPost2010PropOp56
 70
     0
102
RTVSPost2010Prop57
140
1.0
102
RTVSPost2010PropOp57
 70
     0
102
RTVSPropertyOp0
 70
     0
102
RTVSPropertyOp1
 70
     0
102
RTVSPropertyOp2
 70
     0
102
RTVSPropertyOp3
 70
     0
102
RTVSPropertyOp4
 70
     0
102
RTVSPropertyOp5
 70
     0
102
RTVSPropertyOp6
 70
     0
102
RTVSPropertyOp7
 70
     0
102
RTVSPropertyOp8
 70
     0
102
RTVSPropertyOp9
 70
     0
102
RTVSPropertyOp10
 70
     0
102
RTVSPropertyOp11
 70
     0
102
RTVSPropertyOp12
 70
     0
102
RTVSPropertyOp13
 70
     0
102
RTVSPropertyOp14
 70
     2
102
RTVSPropertyOp15
 70
     0
102
RTVSPropertyOp16
 70
     0
102
RTVSPropertyOp17
 70
     0
102
RTVSPropertyOp18
 70
     0
102
RTVSPropertyOp19
 70
     0
102
RTVSPropertyOp20
 70
     0
102
RTVSPropertyOp21
 70
     0
102
RTVSPropertyOp22
 70
     0
102
RTVSPropertyOp23
 70
     0
102
RTVSPropertyOp24
 70
     0
102
RTVSPropertyOp25
 70
     0
102
RTVSPropertyOp26
 70
     0
102
RTVSPropertyOp27
 70
     0
102
RTVSPropertyOp28
 70
     0
102
RTVSPropertyOp29
 70
     0
102
RTVSPropertyOp30
 70
     0
102
RTVSPropertyOp31
 70
     0
102
RTVSPropertyOp32
 70
     0
102
RTVSPropertyOp33
 70
     0
102
RTVSPropertyOp34
 70
     0
102
RTVSPropertyOp35
 70
     0
102
RTVSPropertyOp36
 70
     0
102
RTVSPropertyOp37
 70
     0
102
RTVSPropertyOp38
 70
     0
102
RTVSPropertyOp39
 70
     0
102
RTVSPropertyOp40
 70
     0
102
RTVSPropertyOp41
 70
     0
102
RTVSPropertyOp42
 70
     0
102
RTVSPropertyOp43
 70
     0
102
RTVSPropertyOp44
 70
     0
102
RTVSPropertyOp45
 70
     0
102
RTVSPropertyOp46
 70
     0
102
RTVSPropertyOp47
 70
     0
102
RTVSPropertyOp48
 70
     0
102
RTVSPropertyOp49
 70
     0
102
RTVSPropertyOp50
 70
     0
102
RTVSPropertyOp51
 70
     0
102
RTVSPropertyOp52
 70
     0
102
RTVSPropertyOp53
 70
     0
102
RTVSPropertyOp54
 70
     0
102
RTVSPropertyOp55
 70
     0
102
RTVSPropertyOp56
 70
     0
102
RTVSPropertyOp57
 70
     0
102
RTVSPropertyOp58
 70
     1
102
RTVSPropertyOp59
 70
     1
102
RTVSPropertyOp60
 70
     1
102
RTVSPropertyOp61
 70
     1
102
RTVSPropertyOp62
 70
     1
  0
XRECORD
  5
65F
102
{ACAD_REACTORS
330
65E
102
}
330
65E
100
AcDbXrecord
280
     1
102
RTVSPost2010Prop28
280
     0
102
RTVSPost2010PropOp28
 70
     1
102
RTVSPost2010Prop29
280
     1
102
RTVSPost2010PropOp29
 70
     1
102
RTVSPost2010Prop30
280
     1
102
RTVSPost2010PropOp30
 70
     1
102
RTVSPost2010Prop31
280
     0
102
RTVSPost2010PropOp31
 70
     1
102
RTVSPost2010Prop32
280
     0
102
RTVSPost2010PropOp32
 70
     1
102
RTVSPost2010Prop33
280
     0
102
RTVSPost2010PropOp33
 70
     1
102
RTVSPost2010Prop34
280
     0
102
RTVSPost2010PropOp34
 70
     1
102
RTVSPost2010Prop35
280
     0
102
RTVSPost2010PropOp35
 70
     1
102
RTVSPost2010Prop36
280
     0
102
RTVSPost2010PropOp36
 70
     1
102
RTVSPost2010Prop37
 90
       50
102
RTVSPost2010PropOp37
 70
     1
102
RTVSPost2010Prop38
140
0.0
102
RTVSPost2010PropOp38
 70
     1
102
RTVSPost2010Prop39
140
1.0
102
RTVSPost2010PropOp39
 70
     1
102
RTVSPost2010Prop40
 90
        0
102
RTVSPost2010PropOp40
 70
     1
102
RTVSPost2010Prop41ColorIndex
 90
       18
102
RTVSPost2010Prop41ColorRGB
 90
        0
102
RTVSPost2010PropOp41
 70
     1
102
RTVSPost2010Prop42
 90
       50
102
RTVSPost2010PropOp42
 70
     1
102
RTVSPost2010Prop43
 90
        3
102
RTVSPost2010PropOp43
 70
     1
102
RTVSPost2010Prop44ColorIndex
 90
        5
102
RTVSPost2010Prop44ColorRGB
 90
      255
102
RTVSPost2010PropOp44
 70
     1
102
RTVSPost2010Prop45
280
     0
102
RTVSPost2010PropOp45
 70
     1
102
RTVSPost2010Prop46
 90
       50
102
RTVSPost2010PropOp46
 70
     1
102
RTVSPost2010Prop47
 90
       50
102
RTVSPost2010PropOp47
 70
     1
102
RTVSPost2010Prop48
 90
       50
102
RTVSPost2010PropOp48
 70
     1
102
RTVSPost2010Prop49
280
     0
102
RTVSPost2010PropOp49
 70
     1
102
RTVSPost2010Prop50
 90
       50
102
RTVSPost2010PropOp50
 70
     1
102
RTVSPost2010Prop51ColorIndex
 90
      256
102
RTVSPost2010Prop51ColorRGB
 90
-16777216
102
RTVSPost2010PropOp51
 70
     0
102
RTVSPost2010Prop52
140
1.0
102
RTVSPost2010PropOp52
 70
     0
102
RTVSPost2010Prop53
 90
        2
102
RTVSPost2010PropOp53
 70
     1
102
RTVSPost2010Prop54
  1
strokes_ogs.tif
102
RTVSPost2010PropOp54
 70
     1
102
RTVSPost2010Prop55
280
     0
102
RTVSPost2010PropOp55
 70
     1
102
RTVSPost2010Prop56
140
1.0
102
RTVSPost2010PropOp56
 70
     1
102
RTVSPost2010Prop57
140
1.0
102
RTVSPost2010PropOp57
 70
     1
102
RTVSPropertyOp0
 70
     1
102
RTVSPropertyOp1
 70
     1
102
RTVSPropertyOp2
 70
     1
102
RTVSPropertyOp3
 70
     1
102
RTVSPropertyOp4
 70
     1
102
RTVSPropertyOp5
 70
     1
102
RTVSPropertyOp6
 70
     1
102
RTVSPropertyOp7
 70
     1
102
RTVSPropertyOp8
 70
     1
102
RTVSPropertyOp9
 70
     1
102
RTVSPropertyOp10
 70
     1
102
RTVSPropertyOp11
 70
     1
102
RTVSPropertyOp12
 70
     1
102
RTVSPropertyOp13
 70
     1
102
RTVSPropertyOp14
 70
     1
102
RTVSPropertyOp15
 70
     1
102
RTVSPropertyOp16
 70
     1
102
RTVSPropertyOp17
 70
     1
102
RTVSPropertyOp18
 70
     1
102
RTVSPropertyOp19
 70
     1
102
RTVSPropertyOp20
 70
     1
102
RTVSPropertyOp21
 70
     1
102
RTVSPropertyOp22
 70
     1
102
RTVSPropertyOp23
 70
     1
102
RTVSPropertyOp24
 70
     1
102
RTVSPropertyOp25
 70
     1
102
RTVSPropertyOp26
 70
     1
102
RTVSPropertyOp27
 70
     1
102
RTVSPropertyOp28
 70
     1
102
RTVSPropertyOp29
 70
     1
102
RTVSPropertyOp30
 70
     1
102
RTVSPropertyOp31
 70
     1
102
RTVSPropertyOp32
 70
     1
102
RTVSPropertyOp33
 70
     1
102
RTVSPropertyOp34
 70
     1
102
RTVSPropertyOp35
 70
     1
102
RTVSPropertyOp36
 70
     1
102
RTVSPropertyOp37
 70
     1
102
RTVSPropertyOp38
 70
     1
102
RTVSPropertyOp39
 70
     1
102
RTVSPropertyOp40
 70
     1
102
RTVSPropertyOp41
 70
     1
102
RTVSPropertyOp42
 70
     1
102
RTVSPropertyOp43
 70
     1
102
RTVSPropertyOp44
 70
     1
102
RTVSPropertyOp45
 70
     1
102
RTVSPropertyOp46
 70
     1
102
RTVSPropertyOp47
 70
     1
102
RTVSPropertyOp48
 70
     1
102
RTVSPropertyOp49
 70
     1
102
RTVSPropertyOp50
 70
     1
102
RTVSPropertyOp51
 70
     0
102
RTVSPropertyOp52
 70
     0
102
RTVSPropertyOp53
 70
     1
102
RTVSPropertyOp54
 70
     1
102
RTVSPropertyOp55
 70
     1
102
RTVSPropertyOp56
 70
     1
102
RTVSPropertyOp57
 70
     1
102
RTVSPropertyOp58
 70
     1
102
RTVSPropertyOp59
 70
     1
102
RTVSPropertyOp60
 70
     1
102
RTVSPropertyOp61
 70
     1
102
RTVSPropertyOp62
 70
     1
  0
XRECORD
  5
667
102
{ACAD_REACTORS
330
666
102
}
330
666
100
AcDbXrecord
280
     1
102
RTVSPost2010Prop28
280
     0
102
RTVSPost2010PropOp28
 70
     0
102
RTVSPost2010Prop29
280
     1
102
RTVSPost2010PropOp29
 70
     0
102
RTVSPost2010Prop30
280
     1
102
RTVSPost2010PropOp30
 70
     0
102
RTVSPost2010Prop31
280
     0
102
RTVSPost2010PropOp31
 70
     0
102
RTVSPost2010Prop32
280
     0
102
RTVSPost2010PropOp32
 70
     0
102
RTVSPost2010Prop33
280
     0
102
RTVSPost2010PropOp33
 70
     0
102
RTVSPost2010Prop34
280
     0
102
RTVSPost2010PropOp34
 70
     0
102
RTVSPost2010Prop35
280
     0
102
RTVSPost2010PropOp35
 70
     0
102
RTVSPost2010Prop36
280
     0
102
RTVSPost2010PropOp36
 70
     0
102
RTVSPost2010Prop37
 90
       50
102
RTVSPost2010PropOp37
 70
     0
102
RTVSPost2010Prop38
140
0.0
102
RTVSPost2010PropOp38
 70
     0
102
RTVSPost2010Prop39
140
1.0
102
RTVSPost2010PropOp39
 70
     0
102
RTVSPost2010Prop40
 90
        0
102
RTVSPost2010PropOp40
 70
     0
102
RTVSPost2010Prop41ColorIndex
 90
       18
102
RTVSPost2010Prop41ColorRGB
 90
        0
102
RTVSPost2010PropOp41
 70
     0
102
RTVSPost2010Prop42
 90
       50
102
RTVSPost2010PropOp42
 70
     0
102
RTVSPost2010Prop43
 90
        3
102
RTVSPost2010PropOp43
 70
     0
102
RTVSPost2010Prop44ColorIndex
 90
        5
102
RTVSPost2010Prop44ColorRGB
 90
      255
102
RTVSPost2010PropOp44
 70
     0
102
RTVSPost2010Prop45
280
     0
102
RTVSPost2010PropOp45
 70
     0
102
RTVSPost2010Prop46
 90
       50
102
RTVSPost2010PropOp46
 70
     0
102
RTVSPost2010Prop47
 90
       50
102
RTVSPost2010PropOp47
 70
     0
102
RTVSPost2010Prop48
 90
       50
102
RTVSPost2010PropOp48
 70
     0
102
RTVSPost2010Prop49
280
     0
102
RTVSPost2010PropOp49
 70
     0
102
RTVSPost2010Prop50
 90
       50
102
RTVSPost2010PropOp50
 70
     0
102
RTVSPost2010Prop51ColorIndex
 90
      256
102
RTVSPost2010Prop51ColorRGB
 90
-16777216
102
RTVSPost2010PropOp51
 70
     0
102
RTVSPost2010Prop52
140
1.0
102
RTVSPost2010PropOp52
 70
     0
102
RTVSPost2010Prop53
 90
        2
102
RTVSPost2010PropOp53
 70
     0
102
RTVSPost2010Prop54
  1
strokes_ogs.tif
102
RTVSPost2010PropOp54
 70
     0
102
RTVSPost2010Prop55
280
     0
102
RTVSPost2010PropOp55
 70
     0
102
RTVSPost2010Prop56
140
1.0
102
RTVSPost2010PropOp56
 70
     0
102
RTVSPost2010Prop57
140
1.0
102
RTVSPost2010PropOp57
 70
     0
102
RTVSPropertyOp0
 70
     0
102
RTVSPropertyOp1
 70
     0
102
RTVSPropertyOp2
 70
     0
102
RTVSPropertyOp3
 70
     0
102
RTVSPropertyOp4
 70
     0
102
RTVSPropertyOp5
 70
     0
102
RTVSPropertyOp6
 70
     0
102
RTVSPropertyOp7
 70
     0
102
RTVSPropertyOp8
 70
     0
102
RTVSPropertyOp9
 70
     0
102
RTVSPropertyOp10
 70
     0
102
RTVSPropertyOp11
 70
     0
102
RTVSPropertyOp12
 70
     0
102
RTVSPropertyOp13
 70
     0
102
RTVSPropertyOp14
 70
     2
102
RTVSPropertyOp15
 70
     0
102
RTVSPropertyOp16
 70
     0
102
RTVSPropertyOp17
 70
     0
102
RTVSPropertyOp18
 70
     0
102
RTVSPropertyOp19
 70
     0
102
RTVSPropertyOp20
 70
     0
102
RTVSPropertyOp21
 70
     0
102
RTVSPropertyOp22
 70
     0
102
RTVSPropertyOp23
 70
     0
102
RTVSPropertyOp24
 70
     0
102
RTVSPropertyOp25
 70
     0
102
RTVSPropertyOp26
 70
     0
102
RTVSPropertyOp27
 70
     0
102
RTVSPropertyOp28
 70
     0
102
RTVSPropertyOp29
 70
     0
102
RTVSPropertyOp30
 70
     0
102
RTVSPropertyOp31
 70
     0
102
RTVSPropertyOp32
 70
     0
102
RTVSPropertyOp33
 70
     0
102
RTVSPropertyOp34
 70
     0
102
RTVSPropertyOp35
 70
     0
102
RTVSPropertyOp36
 70
     0
102
RTVSPropertyOp37
 70
     0
102
RTVSPropertyOp38
 70
     0
102
RTVSPropertyOp39
 70
     0
102
RTVSPropertyOp40
 70
     0
102
RTVSPropertyOp41
 70
     0
102
RTVSPropertyOp42
 70
     0
102
RTVSPropertyOp43
 70
     0
102
RTVSPropertyOp44
 70
     0
102
RTVSPropertyOp45
 70
     0
102
RTVSPropertyOp46
 70
     0
102
RTVSPropertyOp47
 70
     0
102
RTVSPropertyOp48
 70
     0
102
RTVSPropertyOp49
 70
     0
102
RTVSPropertyOp50
 70
     0
102
RTVSPropertyOp51
 70
     0
102
RTVSPropertyOp52
 70
     0
102
RTVSPropertyOp53
 70
     0
102
RTVSPropertyOp54
 70
     0
102
RTVSPropertyOp55
 70
     0
102
RTVSPropertyOp56
 70
     0
102
RTVSPropertyOp57
 70
     0
102
RTVSPropertyOp58
 70
     1
102
RTVSPropertyOp59
 70
     1
102
RTVSPropertyOp60
 70
     1
102
RTVSPropertyOp61
 70
     1
102
RTVSPropertyOp62
 70
     1
  0
XRECORD
  5
655
102
{ACAD_REACTORS
330
654
102
}
330
654
100
AcDbXrecord
280
     1
102
RTVSPost2010Prop28
280
     0
102
RTVSPost2010PropOp28
 70
     1
102
RTVSPost2010Prop29
280
     1
102
RTVSPost2010PropOp29
 70
     1
102
RTVSPost2010Prop30
280
     1
102
RTVSPost2010PropOp30
 70
     1
102
RTVSPost2010Prop31
280
     0
102
RTVSPost2010PropOp31
 70
     1
102
RTVSPost2010Prop32
280
     0
102
RTVSPost2010PropOp32
 70
     1
102
RTVSPost2010Prop33
280
     0
102
RTVSPost2010PropOp33
 70
     1
102
RTVSPost2010Prop34
280
     0
102
RTVSPost2010PropOp34
 70
     1
102
RTVSPost2010Prop35
280
     0
102
RTVSPost2010PropOp35
 70
     1
102
RTVSPost2010Prop36
280
     0
102
RTVSPost2010PropOp36
 70
     1
102
RTVSPost2010Prop37
 90
       50
102
RTVSPost2010PropOp37
 70
     1
102
RTVSPost2010Prop38
140
0.0
102
RTVSPost2010PropOp38
 70
     1
102
RTVSPost2010Prop39
140
1.0
102
RTVSPost2010PropOp39
 70
     1
102
RTVSPost2010Prop40
 90
        0
102
RTVSPost2010PropOp40
 70
     1
102
RTVSPost2010Prop41ColorIndex
 90
       18
102
RTVSPost2010Prop41ColorRGB
 90
        0
102
RTVSPost2010PropOp41
 70
     1
102
RTVSPost2010Prop42
 90
       50
102
RTVSPost2010PropOp42
 70
     1
102
RTVSPost2010Prop43
 90
        3
102
RTVSPost2010PropOp43
 70
     1
102
RTVSPost2010Prop44ColorIndex
 90
        5
102
RTVSPost2010Prop44ColorRGB
 90
      255
102
RTVSPost2010PropOp44
 70
     1
102
RTVSPost2010Prop45
280
     0
102
RTVSPost2010PropOp45
 70
     1
102
RTVSPost2010Prop46
 90
       50
102
RTVSPost2010PropOp46
 70
     1
102
RTVSPost2010Prop47
 90
       50
102
RTVSPost2010PropOp47
 70
     1
102
RTVSPost2010Prop48
 90
       50
102
RTVSPost2010PropOp48
 70
     1
102
RTVSPost2010Prop49
280
     0
102
RTVSPost2010PropOp49
 70
     1
102
RTVSPost2010Prop50
 90
       50
102
RTVSPost2010PropOp50
 70
     1
102
RTVSPost2010Prop51ColorIndex
 90
      256
102
RTVSPost2010Prop51ColorRGB
 90
-16777216
102
RTVSPost2010PropOp51
 70
     0
102
RTVSPost2010Prop52
140
1.0
102
RTVSPost2010PropOp52
 70
     0
102
RTVSPost2010Prop53
 90
        2
102
RTVSPost2010PropOp53
 70
     1
102
RTVSPost2010Prop54
  1
strokes_ogs.tif
102
RTVSPost2010PropOp54
 70
     1
102
RTVSPost2010Prop55
280
     0
102
RTVSPost2010PropOp55
 70
     1
102
RTVSPost2010Prop56
140
1.0
102
RTVSPost2010PropOp56
 70
     1
102
RTVSPost2010Prop57
140
1.0
102
RTVSPost2010PropOp57
 70
     1
102
RTVSPropertyOp0
 70
     1
102
RTVSPropertyOp1
 70
     1
102
RTVSPropertyOp2
 70
     1
102
RTVSPropertyOp3
 70
     1
102
RTVSPropertyOp4
 70
     1
102
RTVSPropertyOp5
 70
     1
102
RTVSPropertyOp6
 70
     1
102
RTVSPropertyOp7
 70
     1
102
RTVSPropertyOp8
 70
     1
102
RTVSPropertyOp9
 70
     1
102
RTVSPropertyOp10
 70
     1
102
RTVSPropertyOp11
 70
     1
102
RTVSPropertyOp12
 70
     1
102
RTVSPropertyOp13
 70
     1
102
RTVSPropertyOp14
 70
     1
102
RTVSPropertyOp15
 70
     1
102
RTVSPropertyOp16
 70
     1
102
RTVSPropertyOp17
 70
     1
102
RTVSPropertyOp18
 70
     1
102
RTVSPropertyOp19
 70
     1
102
RTVSPropertyOp20
 70
     1
102
RTVSPropertyOp21
 70
     1
102
RTVSPropertyOp22
 70
     1
102
RTVSPropertyOp23
 70
     1
102
RTVSPropertyOp24
 70
     1
102
RTVSPropertyOp25
 70
     1
102
RTVSPropertyOp26
 70
     1
102
RTVSPropertyOp27
 70
     1
102
RTVSPropertyOp28
 70
     1
102
RTVSPropertyOp29
 70
     1
102
RTVSPropertyOp30
 70
     1
102
RTVSPropertyOp31
 70
     1
102
RTVSPropertyOp32
 70
     1
102
RTVSPropertyOp33
 70
     1
102
RTVSPropertyOp34
 70
     1
102
RTVSPropertyOp35
 70
     1
102
RTVSPropertyOp36
 70
     1
102
RTVSPropertyOp37
 70
     1
102
RTVSPropertyOp38
 70
     1
102
RTVSPropertyOp39
 70
     1
102
RTVSPropertyOp40
 70
     1
102
RTVSPropertyOp41
 70
     1
102
RTVSPropertyOp42
 70
     1
102
RTVSPropertyOp43
 70
     1
102
RTVSPropertyOp44
 70
     1
102
RTVSPropertyOp45
 70
     1
102
RTVSPropertyOp46
 70
     1
102
RTVSPropertyOp47
 70
     1
102
RTVSPropertyOp48
 70
     1
102
RTVSPropertyOp49
 70
     1
102
RTVSPropertyOp50
 70
     1
102
RTVSPropertyOp51
 70
     0
102
RTVSPropertyOp52
 70
     0
102
RTVSPropertyOp53
 70
     1
102
RTVSPropertyOp54
 70
     1
102
RTVSPropertyOp55
 70
     1
102
RTVSPropertyOp56
 70
     1
102
RTVSPropertyOp57
 70
     1
102
RTVSPropertyOp58
 70
     1
102
RTVSPropertyOp59
 70
     1
102
RTVSPropertyOp60
 70
     1
102
RTVSPropertyOp61
 70
     1
102
RTVSPropertyOp62
 70
     1
  0
XRECORD
  5
673
102
{ACAD_REACTORS
330
672
102
}
330
672
100
AcDbXrecord
280
     1
102
RTVSPost2010Prop28
280
     0
102
RTVSPost2010PropOp28
 70
     1
102
RTVSPost2010Prop29
280
     1
102
RTVSPost2010PropOp29
 70
     1
102
RTVSPost2010Prop30
280
     1
102
RTVSPost2010PropOp30
 70
     1
102
RTVSPost2010Prop31
280
     0
102
RTVSPost2010PropOp31
 70
     1
102
RTVSPost2010Prop32
280
     0
102
RTVSPost2010PropOp32
 70
     1
102
RTVSPost2010Prop33
280
     0
102
RTVSPost2010PropOp33
 70
     1
102
RTVSPost2010Prop34
280
     0
102
RTVSPost2010PropOp34
 70
     1
102
RTVSPost2010Prop35
280
     0
102
RTVSPost2010PropOp35
 70
     1
102
RTVSPost2010Prop36
280
     0
102
RTVSPost2010PropOp36
 70
     1
102
RTVSPost2010Prop37
 90
       50
102
RTVSPost2010PropOp37
 70
     1
102
RTVSPost2010Prop38
140
0.0
102
RTVSPost2010PropOp38
 70
     1
102
RTVSPost2010Prop39
140
1.0
102
RTVSPost2010PropOp39
 70
     1
102
RTVSPost2010Prop40
 90
        0
102
RTVSPost2010PropOp40
 70
     1
102
RTVSPost2010Prop41ColorIndex
 90
       18
102
RTVSPost2010Prop41ColorRGB
 90
        0
102
RTVSPost2010PropOp41
 70
     1
102
RTVSPost2010Prop42
 90
       50
102
RTVSPost2010PropOp42
 70
     1
102
RTVSPost2010Prop43
 90
        3
102
RTVSPost2010PropOp43
 70
     1
102
RTVSPost2010Prop44ColorIndex
 90
        5
102
RTVSPost2010Prop44ColorRGB
 90
      255
102
RTVSPost2010PropOp44
 70
     1
102
RTVSPost2010Prop45
280
     0
102
RTVSPost2010PropOp45
 70
     1
102
RTVSPost2010Prop46
 90
       50
102
RTVSPost2010PropOp46
 70
     1
102
RTVSPost2010Prop47
 90
       50
102
RTVSPost2010PropOp47
 70
     1
102
RTVSPost2010Prop48
 90
       50
102
RTVSPost2010PropOp48
 70
     1
102
RTVSPost2010Prop49
280
     0
102
RTVSPost2010PropOp49
 70
     1
102
RTVSPost2010Prop50
 90
       50
102
RTVSPost2010PropOp50
 70
     1
102
RTVSPost2010Prop51ColorIndex
 90
      256
102
RTVSPost2010Prop51ColorRGB
 90
-16777216
102
RTVSPost2010PropOp51
 70
     0
102
RTVSPost2010Prop52
140
1.0
102
RTVSPost2010PropOp52
 70
     0
102
RTVSPost2010Prop53
 90
        2
102
RTVSPost2010PropOp53
 70
     1
102
RTVSPost2010Prop54
  1
strokes_ogs.tif
102
RTVSPost2010PropOp54
 70
     1
102
RTVSPost2010Prop55
280
     0
102
RTVSPost2010PropOp55
 70
     1
102
RTVSPost2010Prop56
140
1.0
102
RTVSPost2010PropOp56
 70
     1
102
RTVSPost2010Prop57
140
1.0
102
RTVSPost2010PropOp57
 70
     1
102
RTVSPropertyOp0
 70
     1
102
RTVSPropertyOp1
 70
     1
102
RTVSPropertyOp2
 70
     1
102
RTVSPropertyOp3
 70
     1
102
RTVSPropertyOp4
 70
     1
102
RTVSPropertyOp5
 70
     1
102
RTVSPropertyOp6
 70
     1
102
RTVSPropertyOp7
 70
     1
102
RTVSPropertyOp8
 70
     1
102
RTVSPropertyOp9
 70
     1
102
RTVSPropertyOp10
 70
     1
102
RTVSPropertyOp11
 70
     1
102
RTVSPropertyOp12
 70
     1
102
RTVSPropertyOp13
 70
     1
102
RTVSPropertyOp14
 70
     1
102
RTVSPropertyOp15
 70
     1
102
RTVSPropertyOp16
 70
     1
102
RTVSPropertyOp17
 70
     1
102
RTVSPropertyOp18
 70
     1
102
RTVSPropertyOp19
 70
     1
102
RTVSPropertyOp20
 70
     1
102
RTVSPropertyOp21
 70
     1
102
RTVSPropertyOp22
 70
     1
102
RTVSPropertyOp23
 70
     1
102
RTVSPropertyOp24
 70
     1
102
RTVSPropertyOp25
 70
     1
102
RTVSPropertyOp26
 70
     1
102
RTVSPropertyOp27
 70
     1
102
RTVSPropertyOp28
 70
     1
102
RTVSPropertyOp29
 70
     1
102
RTVSPropertyOp30
 70
     1
102
RTVSPropertyOp31
 70
     1
102
RTVSPropertyOp32
 70
     1
102
RTVSPropertyOp33
 70
     1
102
RTVSPropertyOp34
 70
     1
102
RTVSPropertyOp35
 70
     1
102
RTVSPropertyOp36
 70
     1
102
RTVSPropertyOp37
 70
     1
102
RTVSPropertyOp38
 70
     1
102
RTVSPropertyOp39
 70
     1
102
RTVSPropertyOp40
 70
     1
102
RTVSPropertyOp41
 70
     1
102
RTVSPropertyOp42
 70
     1
102
RTVSPropertyOp43
 70
     1
102
RTVSPropertyOp44
 70
     1
102
RTVSPropertyOp45
 70
     1
102
RTVSPropertyOp46
 70
     1
102
RTVSPropertyOp47
 70
     1
102
RTVSPropertyOp48
 70
     1
102
RTVSPropertyOp49
 70
     1
102
RTVSPropertyOp50
 70
     1
102
RTVSPropertyOp51
 70
     0
102
RTVSPropertyOp52
 70
     0
102
RTVSPropertyOp53
 70
     1
102
RTVSPropertyOp54
 70
     1
102
RTVSPropertyOp55
 70
     1
102
RTVSPropertyOp56
 70
     1
102
RTVSPropertyOp57
 70
     1
102
RTVSPropertyOp58
 70
     1
102
RTVSPropertyOp59
 70
     1
102
RTVSPropertyOp60
 70
     1
102
RTVSPropertyOp61
 70
     1
102
RTVSPropertyOp62
 70
     1
  0
XRECORD
  5
671
102
{ACAD_REACTORS
330
670
102
}
330
670
100
AcDbXrecord
280
     1
102
RTVSPost2010Prop28
280
     0
102
RTVSPost2010PropOp28
 70
     1
102
RTVSPost2010Prop29
280
     1
102
RTVSPost2010PropOp29
 70
     1
102
RTVSPost2010Prop30
280
     1
102
RTVSPost2010PropOp30
 70
     1
102
RTVSPost2010Prop31
280
     0
102
RTVSPost2010PropOp31
 70
     1
102
RTVSPost2010Prop32
280
     0
102
RTVSPost2010PropOp32
 70
     1
102
RTVSPost2010Prop33
280
     0
102
RTVSPost2010PropOp33
 70
     1
102
RTVSPost2010Prop34
280
     0
102
RTVSPost2010PropOp34
 70
     1
102
RTVSPost2010Prop35
280
     0
102
RTVSPost2010PropOp35
 70
     1
102
RTVSPost2010Prop36
280
     0
102
RTVSPost2010PropOp36
 70
     1
102
RTVSPost2010Prop37
 90
       50
102
RTVSPost2010PropOp37
 70
     1
102
RTVSPost2010Prop38
140
0.0
102
RTVSPost2010PropOp38
 70
     1
102
RTVSPost2010Prop39
140
1.0
102
RTVSPost2010PropOp39
 70
     1
102
RTVSPost2010Prop40
 90
        0
102
RTVSPost2010PropOp40
 70
     1
102
RTVSPost2010Prop41ColorIndex
 90
       18
102
RTVSPost2010Prop41ColorRGB
 90
        0
102
RTVSPost2010PropOp41
 70
     1
102
RTVSPost2010Prop42
 90
       50
102
RTVSPost2010PropOp42
 70
     1
102
RTVSPost2010Prop43
 90
        3
102
RTVSPost2010PropOp43
 70
     1
102
RTVSPost2010Prop44ColorIndex
 90
        5
102
RTVSPost2010Prop44ColorRGB
 90
      255
102
RTVSPost2010PropOp44
 70
     1
102
RTVSPost2010Prop45
280
     0
102
RTVSPost2010PropOp45
 70
     1
102
RTVSPost2010Prop46
 90
       50
102
RTVSPost2010PropOp46
 70
     1
102
RTVSPost2010Prop47
 90
       50
102
RTVSPost2010PropOp47
 70
     1
102
RTVSPost2010Prop48
 90
       50
102
RTVSPost2010PropOp48
 70
     1
102
RTVSPost2010Prop49
280
     0
102
RTVSPost2010PropOp49
 70
     1
102
RTVSPost2010Prop50
 90
       50
102
RTVSPost2010PropOp50
 70
     1
102
RTVSPost2010Prop51ColorIndex
 90
      256
102
RTVSPost2010Prop51ColorRGB
 90
-16777216
102
RTVSPost2010PropOp51
 70
     0
102
RTVSPost2010Prop52
140
1.0
102
RTVSPost2010PropOp52
 70
     0
102
RTVSPost2010Prop53
 90
        2
102
RTVSPost2010PropOp53
 70
     1
102
RTVSPost2010Prop54
  1
strokes_ogs.tif
102
RTVSPost2010PropOp54
 70
     1
102
RTVSPost2010Prop55
280
     0
102
RTVSPost2010PropOp55
 70
     1
102
RTVSPost2010Prop56
140
1.0
102
RTVSPost2010PropOp56
 70
     1
102
RTVSPost2010Prop57
140
1.0
102
RTVSPost2010PropOp57
 70
     1
102
RTVSPropertyOp0
 70
     1
102
RTVSPropertyOp1
 70
     1
102
RTVSPropertyOp2
 70
     1
102
RTVSPropertyOp3
 70
     1
102
RTVSPropertyOp4
 70
     1
102
RTVSPropertyOp5
 70
     1
102
RTVSPropertyOp6
 70
     1
102
RTVSPropertyOp7
 70
     1
102
RTVSPropertyOp8
 70
     1
102
RTVSPropertyOp9
 70
     1
102
RTVSPropertyOp10
 70
     1
102
RTVSPropertyOp11
 70
     1
102
RTVSPropertyOp12
 70
     1
102
RTVSPropertyOp13
 70
     1
102
RTVSPropertyOp14
 70
     1
102
RTVSPropertyOp15
 70
     1
102
RTVSPropertyOp16
 70
     1
102
RTVSPropertyOp17
 70
     1
102
RTVSPropertyOp18
 70
     1
102
RTVSPropertyOp19
 70
     1
102
RTVSPropertyOp20
 70
     1
102
RTVSPropertyOp21
 70
     1
102
RTVSPropertyOp22
 70
     1
102
RTVSPropertyOp23
 70
     1
102
RTVSPropertyOp24
 70
     1
102
RTVSPropertyOp25
 70
     1
102
RTVSPropertyOp26
 70
     1
102
RTVSPropertyOp27
 70
     1
102
RTVSPropertyOp28
 70
     1
102
RTVSPropertyOp29
 70
     1
102
RTVSPropertyOp30
 70
     1
102
RTVSPropertyOp31
 70
     1
102
RTVSPropertyOp32
 70
     1
102
RTVSPropertyOp33
 70
     1
102
RTVSPropertyOp34
 70
     1
102
RTVSPropertyOp35
 70
     1
102
RTVSPropertyOp36
 70
     1
102
RTVSPropertyOp37
 70
     1
102
RTVSPropertyOp38
 70
     1
102
RTVSPropertyOp39
 70
     1
102
RTVSPropertyOp40
 70
     1
102
RTVSPropertyOp41
 70
     1
102
RTVSPropertyOp42
 70
     1
102
RTVSPropertyOp43
 70
     1
102
RTVSPropertyOp44
 70
     1
102
RTVSPropertyOp45
 70
     1
102
RTVSPropertyOp46
 70
     1
102
RTVSPropertyOp47
 70
     1
102
RTVSPropertyOp48
 70
     1
102
RTVSPropertyOp49
 70
     1
102
RTVSPropertyOp50
 70
     1
102
RTVSPropertyOp51
 70
     0
102
RTVSPropertyOp52
 70
     0
102
RTVSPropertyOp53
 70
     1
102
RTVSPropertyOp54
 70
     1
102
RTVSPropertyOp55
 70
     1
102
RTVSPropertyOp56
 70
     1
102
RTVSPropertyOp57
 70
     1
102
RTVSPropertyOp58
 70
     1
102
RTVSPropertyOp59
 70
     1
102
RTVSPropertyOp60
 70
     1
102
RTVSPropertyOp61
 70
     1
102
RTVSPropertyOp62
 70
     1
  0
XRECORD
  5
66B
102
{ACAD_REACTORS
330
66A
102
}
330
66A
100
AcDbXrecord
280
     1
102
RTVSPost2010Prop28
280
     0
102
RTVSPost2010PropOp28
 70
     1
102
RTVSPost2010Prop29
280
     1
102
RTVSPost2010PropOp29
 70
     1
102
RTVSPost2010Prop30
280
     1
102
RTVSPost2010PropOp30
 70
     1
102
RTVSPost2010Prop31
280
     0
102
RTVSPost2010PropOp31
 70
     1
102
RTVSPost2010Prop32
280
     0
102
RTVSPost2010PropOp32
 70
     1
102
RTVSPost2010Prop33
280
     0
102
RTVSPost2010PropOp33
 70
     1
102
RTVSPost2010Prop34
280
     0
102
RTVSPost2010PropOp34
 70
     1
102
RTVSPost2010Prop35
280
     0
102
RTVSPost2010PropOp35
 70
     1
102
RTVSPost2010Prop36
280
     0
102
RTVSPost2010PropOp36
 70
     1
102
RTVSPost2010Prop37
 90
       50
102
RTVSPost2010PropOp37
 70
     1
102
RTVSPost2010Prop38
140
0.0
102
RTVSPost2010PropOp38
 70
     1
102
RTVSPost2010Prop39
140
1.0
102
RTVSPost2010PropOp39
 70
     1
102
RTVSPost2010Prop40
 90
        0
102
RTVSPost2010PropOp40
 70
     1
102
RTVSPost2010Prop41ColorIndex
 90
       18
102
RTVSPost2010Prop41ColorRGB
 90
        0
102
RTVSPost2010PropOp41
 70
     1
102
RTVSPost2010Prop42
 90
       50
102
RTVSPost2010PropOp42
 70
     1
102
RTVSPost2010Prop43
 90
        3
102
RTVSPost2010PropOp43
 70
     1
102
RTVSPost2010Prop44ColorIndex
 90
        5
102
RTVSPost2010Prop44ColorRGB
 90
      255
102
RTVSPost2010PropOp44
 70
     1
102
RTVSPost2010Prop45
280
     0
102
RTVSPost2010PropOp45
 70
     1
102
RTVSPost2010Prop46
 90
       50
102
RTVSPost2010PropOp46
 70
     1
102
RTVSPost2010Prop47
 90
       50
102
RTVSPost2010PropOp47
 70
     1
102
RTVSPost2010Prop48
 90
       50
102
RTVSPost2010PropOp48
 70
     1
102
RTVSPost2010Prop49
280
     0
102
RTVSPost2010PropOp49
 70
     1
102
RTVSPost2010Prop50
 90
       50
102
RTVSPost2010PropOp50
 70
     1
102
RTVSPost2010Prop51ColorIndex
 90
      256
102
RTVSPost2010Prop51ColorRGB
 90
-16777216
102
RTVSPost2010PropOp51
 70
     0
102
RTVSPost2010Prop52
140
1.0
102
RTVSPost2010PropOp52
 70
     0
102
RTVSPost2010Prop53
 90
        2
102
RTVSPost2010PropOp53
 70
     1
102
RTVSPost2010Prop54
  1
strokes_ogs.tif
102
RTVSPost2010PropOp54
 70
     1
102
RTVSPost2010Prop55
280
     0
102
RTVSPost2010PropOp55
 70
     1
102
RTVSPost2010Prop56
140
1.0
102
RTVSPost2010PropOp56
 70
     1
102
RTVSPost2010Prop57
140
1.0
102
RTVSPost2010PropOp57
 70
     1
102
RTVSPropertyOp0
 70
     1
102
RTVSPropertyOp1
 70
     1
102
RTVSPropertyOp2
 70
     1
102
RTVSPropertyOp3
 70
     1
102
RTVSPropertyOp4
 70
     1
102
RTVSPropertyOp5
 70
     1
102
RTVSPropertyOp6
 70
     1
102
RTVSPropertyOp7
 70
     1
102
RTVSPropertyOp8
 70
     1
102
RTVSPropertyOp9
 70
     1
102
RTVSPropertyOp10
 70
     1
102
RTVSPropertyOp11
 70
     1
102
RTVSPropertyOp12
 70
     1
102
RTVSPropertyOp13
 70
     1
102
RTVSPropertyOp14
 70
     1
102
RTVSPropertyOp15
 70
     1
102
RTVSPropertyOp16
 70
     1
102
RTVSPropertyOp17
 70
     1
102
RTVSPropertyOp18
 70
     1
102
RTVSPropertyOp19
 70
     1
102
RTVSPropertyOp20
 70
     1
102
RTVSPropertyOp21
 70
     1
102
RTVSPropertyOp22
 70
     1
102
RTVSPropertyOp23
 70
     1
102
RTVSPropertyOp24
 70
     1
102
RTVSPropertyOp25
 70
     1
102
RTVSPropertyOp26
 70
     1
102
RTVSPropertyOp27
 70
     1
102
RTVSPropertyOp28
 70
     1
102
RTVSPropertyOp29
 70
     1
102
RTVSPropertyOp30
 70
     1
102
RTVSPropertyOp31
 70
     1
102
RTVSPropertyOp32
 70
     1
102
RTVSPropertyOp33
 70
     1
102
RTVSPropertyOp34
 70
     1
102
RTVSPropertyOp35
 70
     1
102
RTVSPropertyOp36
 70
     1
102
RTVSPropertyOp37
 70
     1
102
RTVSPropertyOp38
 70
     1
102
RTVSPropertyOp39
 70
     1
102
RTVSPropertyOp40
 70
     1
102
RTVSPropertyOp41
 70
     1
102
RTVSPropertyOp42
 70
     1
102
RTVSPropertyOp43
 70
     1
102
RTVSPropertyOp44
 70
     1
102
RTVSPropertyOp45
 70
     1
102
RTVSPropertyOp46
 70
     1
102
RTVSPropertyOp47
 70
     1
102
RTVSPropertyOp48
 70
     1
102
RTVSPropertyOp49
 70
     1
102
RTVSPropertyOp50
 70
     1
102
RTVSPropertyOp51
 70
     0
102
RTVSPropertyOp52
 70
     0
102
RTVSPropertyOp53
 70
     1
102
RTVSPropertyOp54
 70
     1
102
RTVSPropertyOp55
 70
     1
102
RTVSPropertyOp56
 70
     1
102
RTVSPropertyOp57
 70
     1
102
RTVSPropertyOp58
 70
     1
102
RTVSPropertyOp59
 70
     1
102
RTVSPropertyOp60
 70
     1
102
RTVSPropertyOp61
 70
     1
102
RTVSPropertyOp62
 70
     1
  0
XRECORD
  5
66D
102
{ACAD_REACTORS
330
66C
102
}
330
66C
100
AcDbXrecord
280
     1
102
RTVSPost2010Prop28
280
     0
102
RTVSPost2010PropOp28
 70
     1
102
RTVSPost2010Prop29
280
     1
102
RTVSPost2010PropOp29
 70
     1
102
RTVSPost2010Prop30
280
     1
102
RTVSPost2010PropOp30
 70
     1
102
RTVSPost2010Prop31
280
     0
102
RTVSPost2010PropOp31
 70
     1
102
RTVSPost2010Prop32
280
     0
102
RTVSPost2010PropOp32
 70
     1
102
RTVSPost2010Prop33
280
     0
102
RTVSPost2010PropOp33
 70
     1
102
RTVSPost2010Prop34
280
     0
102
RTVSPost2010PropOp34
 70
     1
102
RTVSPost2010Prop35
280
     0
102
RTVSPost2010PropOp35
 70
     1
102
RTVSPost2010Prop36
280
     0
102
RTVSPost2010PropOp36
 70
     1
102
RTVSPost2010Prop37
 90
       50
102
RTVSPost2010PropOp37
 70
     1
102
RTVSPost2010Prop38
140
0.0
102
RTVSPost2010PropOp38
 70
     1
102
RTVSPost2010Prop39
140
1.0
102
RTVSPost2010PropOp39
 70
     1
102
RTVSPost2010Prop40
 90
        0
102
RTVSPost2010PropOp40
 70
     1
102
RTVSPost2010Prop41ColorIndex
 90
       18
102
RTVSPost2010Prop41ColorRGB
 90
        0
102
RTVSPost2010PropOp41
 70
     1
102
RTVSPost2010Prop42
 90
       50
102
RTVSPost2010PropOp42
 70
     1
102
RTVSPost2010Prop43
 90
        3
102
RTVSPost2010PropOp43
 70
     1
102
RTVSPost2010Prop44ColorIndex
 90
        5
102
RTVSPost2010Prop44ColorRGB
 90
      255
102
RTVSPost2010PropOp44
 70
     1
102
RTVSPost2010Prop45
280
     0
102
RTVSPost2010PropOp45
 70
     1
102
RTVSPost2010Prop46
 90
       50
102
RTVSPost2010PropOp46
 70
     1
102
RTVSPost2010Prop47
 90
       50
102
RTVSPost2010PropOp47
 70
     1
102
RTVSPost2010Prop48
 90
       50
102
RTVSPost2010PropOp48
 70
     1
102
RTVSPost2010Prop49
280
     0
102
RTVSPost2010PropOp49
 70
     1
102
RTVSPost2010Prop50
 90
       50
102
RTVSPost2010PropOp50
 70
     1
102
RTVSPost2010Prop51ColorIndex
 90
      256
102
RTVSPost2010Prop51ColorRGB
 90
-16777216
102
RTVSPost2010PropOp51
 70
     0
102
RTVSPost2010Prop52
140
1.0
102
RTVSPost2010PropOp52
 70
     0
102
RTVSPost2010Prop53
 90
        2
102
RTVSPost2010PropOp53
 70
     1
102
RTVSPost2010Prop54
  1
strokes_ogs.tif
102
RTVSPost2010PropOp54
 70
     1
102
RTVSPost2010Prop55
280
     0
102
RTVSPost2010PropOp55
 70
     1
102
RTVSPost2010Prop56
140
1.0
102
RTVSPost2010PropOp56
 70
     1
102
RTVSPost2010Prop57
140
1.0
102
RTVSPost2010PropOp57
 70
     1
102
RTVSPropertyOp0
 70
     1
102
RTVSPropertyOp1
 70
     1
102
RTVSPropertyOp2
 70
     1
102
RTVSPropertyOp3
 70
     1
102
RTVSPropertyOp4
 70
     1
102
RTVSPropertyOp5
 70
     1
102
RTVSPropertyOp6
 70
     1
102
RTVSPropertyOp7
 70
     1
102
RTVSPropertyOp8
 70
     1
102
RTVSPropertyOp9
 70
     1
102
RTVSPropertyOp10
 70
     1
102
RTVSPropertyOp11
 70
     1
102
RTVSPropertyOp12
 70
     1
102
RTVSPropertyOp13
 70
     1
102
RTVSPropertyOp14
 70
     1
102
RTVSPropertyOp15
 70
     1
102
RTVSPropertyOp16
 70
     1
102
RTVSPropertyOp17
 70
     1
102
RTVSPropertyOp18
 70
     1
102
RTVSPropertyOp19
 70
     1
102
RTVSPropertyOp20
 70
     1
102
RTVSPropertyOp21
 70
     1
102
RTVSPropertyOp22
 70
     1
102
RTVSPropertyOp23
 70
     1
102
RTVSPropertyOp24
 70
     1
102
RTVSPropertyOp25
 70
     1
102
RTVSPropertyOp26
 70
     1
102
RTVSPropertyOp27
 70
     1
102
RTVSPropertyOp28
 70
     1
102
RTVSPropertyOp29
 70
     1
102
RTVSPropertyOp30
 70
     1
102
RTVSPropertyOp31
 70
     1
102
RTVSPropertyOp32
 70
     1
102
RTVSPropertyOp33
 70
     1
102
RTVSPropertyOp34
 70
     1
102
RTVSPropertyOp35
 70
     1
102
RTVSPropertyOp36
 70
     1
102
RTVSPropertyOp37
 70
     1
102
RTVSPropertyOp38
 70
     1
102
RTVSPropertyOp39
 70
     1
102
RTVSPropertyOp40
 70
     1
102
RTVSPropertyOp41
 70
     1
102
RTVSPropertyOp42
 70
     1
102
RTVSPropertyOp43
 70
     1
102
RTVSPropertyOp44
 70
     1
102
RTVSPropertyOp45
 70
     1
102
RTVSPropertyOp46
 70
     1
102
RTVSPropertyOp47
 70
     1
102
RTVSPropertyOp48
 70
     1
102
RTVSPropertyOp49
 70
     1
102
RTVSPropertyOp50
 70
     1
102
RTVSPropertyOp51
 70
     0
102
RTVSPropertyOp52
 70
     0
102
RTVSPropertyOp53
 70
     1
102
RTVSPropertyOp54
 70
     1
102
RTVSPropertyOp55
 70
     1
102
RTVSPropertyOp56
 70
     1
102
RTVSPropertyOp57
 70
     1
102
RTVSPropertyOp58
 70
     1
102
RTVSPropertyOp59
 70
     1
102
RTVSPropertyOp60
 70
     1
102
RTVSPropertyOp61
 70
     1
102
RTVSPropertyOp62
 70
     1
  0
XRECORD
  5
65D
102
{ACAD_REACTORS
330
65C
102
}
330
65C
100
AcDbXrecord
280
     1
102
RTVSPost2010Prop28
280
     0
102
RTVSPost2010PropOp28
 70
     1
102
RTVSPost2010Prop29
280
     1
102
RTVSPost2010PropOp29
 70
     1
102
RTVSPost2010Prop30
280
     1
102
RTVSPost2010PropOp30
 70
     1
102
RTVSPost2010Prop31
280
     0
102
RTVSPost2010PropOp31
 70
     1
102
RTVSPost2010Prop32
280
     0
102
RTVSPost2010PropOp32
 70
     1
102
RTVSPost2010Prop33
280
     0
102
RTVSPost2010PropOp33
 70
     1
102
RTVSPost2010Prop34
280
     0
102
RTVSPost2010PropOp34
 70
     1
102
RTVSPost2010Prop35
280
     0
102
RTVSPost2010PropOp35
 70
     1
102
RTVSPost2010Prop36
280
     0
102
RTVSPost2010PropOp36
 70
     1
102
RTVSPost2010Prop37
 90
       50
102
RTVSPost2010PropOp37
 70
     1
102
RTVSPost2010Prop38
140
0.0
102
RTVSPost2010PropOp38
 70
     1
102
RTVSPost2010Prop39
140
1.0
102
RTVSPost2010PropOp39
 70
     1
102
RTVSPost2010Prop40
 90
        0
102
RTVSPost2010PropOp40
 70
     1
102
RTVSPost2010Prop41ColorIndex
 90
       18
102
RTVSPost2010Prop41ColorRGB
 90
        0
102
RTVSPost2010PropOp41
 70
     1
102
RTVSPost2010Prop42
 90
       50
102
RTVSPost2010PropOp42
 70
     1
102
RTVSPost2010Prop43
 90
        3
102
RTVSPost2010PropOp43
 70
     1
102
RTVSPost2010Prop44ColorIndex
 90
        5
102
RTVSPost2010Prop44ColorRGB
 90
      255
102
RTVSPost2010PropOp44
 70
     1
102
RTVSPost2010Prop45
280
     0
102
RTVSPost2010PropOp45
 70
     1
102
RTVSPost2010Prop46
 90
       50
102
RTVSPost2010PropOp46
 70
     1
102
RTVSPost2010Prop47
 90
       50
102
RTVSPost2010PropOp47
 70
     1
102
RTVSPost2010Prop48
 90
       50
102
RTVSPost2010PropOp48
 70
     1
102
RTVSPost2010Prop49
280
     0
102
RTVSPost2010PropOp49
 70
     1
102
RTVSPost2010Prop50
 90
       50
102
RTVSPost2010PropOp50
 70
     1
102
RTVSPost2010Prop51ColorIndex
 90
      256
102
RTVSPost2010Prop51ColorRGB
 90
-16777216
102
RTVSPost2010PropOp51
 70
     0
102
RTVSPost2010Prop52
140
1.0
102
RTVSPost2010PropOp52
 70
     0
102
RTVSPost2010Prop53
 90
        2
102
RTVSPost2010PropOp53
 70
     1
102
RTVSPost2010Prop54
  1
strokes_ogs.tif
102
RTVSPost2010PropOp54
 70
     1
102
RTVSPost2010Prop55
280
     0
102
RTVSPost2010PropOp55
 70
     1
102
RTVSPost2010Prop56
140
1.0
102
RTVSPost2010PropOp56
 70
     1
102
RTVSPost2010Prop57
140
1.0
102
RTVSPost2010PropOp57
 70
     1
102
RTVSPropertyOp0
 70
     1
102
RTVSPropertyOp1
 70
     1
102
RTVSPropertyOp2
 70
     1
102
RTVSPropertyOp3
 70
     1
102
RTVSPropertyOp4
 70
     1
102
RTVSPropertyOp5
 70
     1
102
RTVSPropertyOp6
 70
     1
102
RTVSPropertyOp7
 70
     1
102
RTVSPropertyOp8
 70
     1
102
RTVSPropertyOp9
 70
     1
102
RTVSPropertyOp10
 70
     1
102
RTVSPropertyOp11
 70
     1
102
RTVSPropertyOp12
 70
     1
102
RTVSPropertyOp13
 70
     1
102
RTVSPropertyOp14
 70
     1
102
RTVSPropertyOp15
 70
     1
102
RTVSPropertyOp16
 70
     1
102
RTVSPropertyOp17
 70
     1
102
RTVSPropertyOp18
 70
     1
102
RTVSPropertyOp19
 70
     1
102
RTVSPropertyOp20
 70
     1
102
RTVSPropertyOp21
 70
     1
102
RTVSPropertyOp22
 70
     1
102
RTVSPropertyOp23
 70
     1
102
RTVSPropertyOp24
 70
     1
102
RTVSPropertyOp25
 70
     1
102
RTVSPropertyOp26
 70
     1
102
RTVSPropertyOp27
 70
     1
102
RTVSPropertyOp28
 70
     1
102
RTVSPropertyOp29
 70
     1
102
RTVSPropertyOp30
 70
     1
102
RTVSPropertyOp31
 70
     1
102
RTVSPropertyOp32
 70
     1
102
RTVSPropertyOp33
 70
     1
102
RTVSPropertyOp34
 70
     1
102
RTVSPropertyOp35
 70
     1
102
RTVSPropertyOp36
 70
     1
102
RTVSPropertyOp37
 70
     1
102
RTVSPropertyOp38
 70
     1
102
RTVSPropertyOp39
 70
     1
102
RTVSPropertyOp40
 70
     1
102
RTVSPropertyOp41
 70
     1
102
RTVSPropertyOp42
 70
     1
102
RTVSPropertyOp43
 70
     1
102
RTVSPropertyOp44
 70
     1
102
RTVSPropertyOp45
 70
     1
102
RTVSPropertyOp46
 70
     1
102
RTVSPropertyOp47
 70
     1
102
RTVSPropertyOp48
 70
     1
102
RTVSPropertyOp49
 70
     1
102
RTVSPropertyOp50
 70
     1
102
RTVSPropertyOp51
 70
     0
102
RTVSPropertyOp52
 70
     0
102
RTVSPropertyOp53
 70
     1
102
RTVSPropertyOp54
 70
     1
102
RTVSPropertyOp55
 70
     1
102
RTVSPropertyOp56
 70
     1
102
RTVSPropertyOp57
 70
     1
102
RTVSPropertyOp58
 70
     1
102
RTVSPropertyOp59
 70
     1
102
RTVSPropertyOp60
 70
     1
102
RTVSPropertyOp61
 70
     1
102
RTVSPropertyOp62
 70
     1
  0
XRECORD
  5
64F
102
{ACAD_REACTORS
330
64E
102
}
330
64E
100
AcDbXrecord
280
     1
102
RTVSPost2010Prop28
280
     0
102
RTVSPost2010PropOp28
 70
     1
102
RTVSPost2010Prop29
280
     1
102
RTVSPost2010PropOp29
 70
     1
102
RTVSPost2010Prop30
280
     1
102
RTVSPost2010PropOp30
 70
     1
102
RTVSPost2010Prop31
280
     0
102
RTVSPost2010PropOp31
 70
     1
102
RTVSPost2010Prop32
280
     0
102
RTVSPost2010PropOp32
 70
     1
102
RTVSPost2010Prop33
280
     0
102
RTVSPost2010PropOp33
 70
     1
102
RTVSPost2010Prop34
280
     0
102
RTVSPost2010PropOp34
 70
     1
102
RTVSPost2010Prop35
280
     0
102
RTVSPost2010PropOp35
 70
     1
102
RTVSPost2010Prop36
280
     0
102
RTVSPost2010PropOp36
 70
     1
102
RTVSPost2010Prop37
 90
       50
102
RTVSPost2010PropOp37
 70
     1
102
RTVSPost2010Prop38
140
0.0
102
RTVSPost2010PropOp38
 70
     1
102
RTVSPost2010Prop39
140
1.0
102
RTVSPost2010PropOp39
 70
     1
102
RTVSPost2010Prop40
 90
        0
102
RTVSPost2010PropOp40
 70
     1
102
RTVSPost2010Prop41ColorIndex
 90
       18
102
RTVSPost2010Prop41ColorRGB
 90
        0
102
RTVSPost2010PropOp41
 70
     1
102
RTVSPost2010Prop42
 90
       50
102
RTVSPost2010PropOp42
 70
     1
102
RTVSPost2010Prop43
 90
        3
102
RTVSPost2010PropOp43
 70
     1
102
RTVSPost2010Prop44ColorIndex
 90
        5
102
RTVSPost2010Prop44ColorRGB
 90
      255
102
RTVSPost2010PropOp44
 70
     1
102
RTVSPost2010Prop45
280
     0
102
RTVSPost2010PropOp45
 70
     1
102
RTVSPost2010Prop46
 90
       50
102
RTVSPost2010PropOp46
 70
     1
102
RTVSPost2010Prop47
 90
       50
102
RTVSPost2010PropOp47
 70
     1
102
RTVSPost2010Prop48
 90
       50
102
RTVSPost2010PropOp48
 70
     1
102
RTVSPost2010Prop49
280
     0
102
RTVSPost2010PropOp49
 70
     1
102
RTVSPost2010Prop50
 90
       50
102
RTVSPost2010PropOp50
 70
     1
102
RTVSPost2010Prop51ColorIndex
 90
      256
102
RTVSPost2010Prop51ColorRGB
 90
-16777216
102
RTVSPost2010PropOp51
 70
     0
102
RTVSPost2010Prop52
140
1.0
102
RTVSPost2010PropOp52
 70
     0
102
RTVSPost2010Prop53
 90
        2
102
RTVSPost2010PropOp53
 70
     1
102
RTVSPost2010Prop54
  1
strokes_ogs.tif
102
RTVSPost2010PropOp54
 70
     1
102
RTVSPost2010Prop55
280
     0
102
RTVSPost2010PropOp55
 70
     1
102
RTVSPost2010Prop56
140
1.0
102
RTVSPost2010PropOp56
 70
     1
102
RTVSPost2010Prop57
140
1.0
102
RTVSPost2010PropOp57
 70
     1
102
RTVSPropertyOp0
 70
     1
102
RTVSPropertyOp1
 70
     1
102
RTVSPropertyOp2
 70
     1
102
RTVSPropertyOp3
 70
     1
102
RTVSPropertyOp4
 70
     1
102
RTVSPropertyOp5
 70
     1
102
RTVSPropertyOp6
 70
     1
102
RTVSPropertyOp7
 70
     1
102
RTVSPropertyOp8
 70
     1
102
RTVSPropertyOp9
 70
     1
102
RTVSPropertyOp10
 70
     1
102
RTVSPropertyOp11
 70
     1
102
RTVSPropertyOp12
 70
     1
102
RTVSPropertyOp13
 70
     1
102
RTVSPropertyOp14
 70
     1
102
RTVSPropertyOp15
 70
     1
102
RTVSPropertyOp16
 70
     1
102
RTVSPropertyOp17
 70
     1
102
RTVSPropertyOp18
 70
     1
102
RTVSPropertyOp19
 70
     1
102
RTVSPropertyOp20
 70
     1
102
RTVSPropertyOp21
 70
     1
102
RTVSPropertyOp22
 70
     1
102
RTVSPropertyOp23
 70
     1
102
RTVSPropertyOp24
 70
     1
102
RTVSPropertyOp25
 70
     1
102
RTVSPropertyOp26
 70
     1
102
RTVSPropertyOp27
 70
     1
102
RTVSPropertyOp28
 70
     1
102
RTVSPropertyOp29
 70
     1
102
RTVSPropertyOp30
 70
     1
102
RTVSPropertyOp31
 70
     1
102
RTVSPropertyOp32
 70
     1
102
RTVSPropertyOp33
 70
     1
102
RTVSPropertyOp34
 70
     1
102
RTVSPropertyOp35
 70
     1
102
RTVSPropertyOp36
 70
     1
102
RTVSPropertyOp37
 70
     1
102
RTVSPropertyOp38
 70
     1
102
RTVSPropertyOp39
 70
     1
102
RTVSPropertyOp40
 70
     1
102
RTVSPropertyOp41
 70
     1
102
RTVSPropertyOp42
 70
     1
102
RTVSPropertyOp43
 70
     1
102
RTVSPropertyOp44
 70
     1
102
RTVSPropertyOp45
 70
     1
102
RTVSPropertyOp46
 70
     1
102
RTVSPropertyOp47
 70
     1
102
RTVSPropertyOp48
 70
     1
102
RTVSPropertyOp49
 70
     1
102
RTVSPropertyOp50
 70
     1
102
RTVSPropertyOp51
 70
     0
102
RTVSPropertyOp52
 70
     0
102
RTVSPropertyOp53
 70
     1
102
RTVSPropertyOp54
 70
     1
102
RTVSPropertyOp55
 70
     1
102
RTVSPropertyOp56
 70
     1
102
RTVSPropertyOp57
 70
     1
102
RTVSPropertyOp58
 70
     1
102
RTVSPropertyOp59
 70
     1
102
RTVSPropertyOp60
 70
     1
102
RTVSPropertyOp61
 70
     1
102
RTVSPropertyOp62
 70
     1
  0
XRECORD
  5
66F
102
{ACAD_REACTORS
330
66E
102
}
330
66E
100
AcDbXrecord
280
     1
102
RTVSPost2010Prop28
280
     0
102
RTVSPost2010PropOp28
 70
     1
102
RTVSPost2010Prop29
280
     1
102
RTVSPost2010PropOp29
 70
     1
102
RTVSPost2010Prop30
280
     1
102
RTVSPost2010PropOp30
 70
     1
102
RTVSPost2010Prop31
280
     0
102
RTVSPost2010PropOp31
 70
     1
102
RTVSPost2010Prop32
280
     0
102
RTVSPost2010PropOp32
 70
     1
102
RTVSPost2010Prop33
280
     0
102
RTVSPost2010PropOp33
 70
     1
102
RTVSPost2010Prop34
280
     0
102
RTVSPost2010PropOp34
 70
     1
102
RTVSPost2010Prop35
280
     0
102
RTVSPost2010PropOp35
 70
     1
102
RTVSPost2010Prop36
280
     0
102
RTVSPost2010PropOp36
 70
     1
102
RTVSPost2010Prop37
 90
       50
102
RTVSPost2010PropOp37
 70
     1
102
RTVSPost2010Prop38
140
0.0
102
RTVSPost2010PropOp38
 70
     1
102
RTVSPost2010Prop39
140
1.0
102
RTVSPost2010PropOp39
 70
     1
102
RTVSPost2010Prop40
 90
        0
102
RTVSPost2010PropOp40
 70
     1
102
RTVSPost2010Prop41ColorIndex
 90
       18
102
RTVSPost2010Prop41ColorRGB
 90
        0
102
RTVSPost2010PropOp41
 70
     1
102
RTVSPost2010Prop42
 90
       50
102
RTVSPost2010PropOp42
 70
     1
102
RTVSPost2010Prop43
 90
        3
102
RTVSPost2010PropOp43
 70
     1
102
RTVSPost2010Prop44ColorIndex
 90
        5
102
RTVSPost2010Prop44ColorRGB
 90
      255
102
RTVSPost2010PropOp44
 70
     1
102
RTVSPost2010Prop45
280
     0
102
RTVSPost2010PropOp45
 70
     1
102
RTVSPost2010Prop46
 90
       50
102
RTVSPost2010PropOp46
 70
     1
102
RTVSPost2010Prop47
 90
       50
102
RTVSPost2010PropOp47
 70
     1
102
RTVSPost2010Prop48
 90
       50
102
RTVSPost2010PropOp48
 70
     1
102
RTVSPost2010Prop49
280
     0
102
RTVSPost2010PropOp49
 70
     1
102
RTVSPost2010Prop50
 90
       50
102
RTVSPost2010PropOp50
 70
     1
102
RTVSPost2010Prop51ColorIndex
 90
      256
102
RTVSPost2010Prop51ColorRGB
 90
-16777216
102
RTVSPost2010PropOp51
 70
     0
102
RTVSPost2010Prop52
140
1.0
102
RTVSPost2010PropOp52
 70
     0
102
RTVSPost2010Prop53
 90
        2
102
RTVSPost2010PropOp53
 70
     1
102
RTVSPost2010Prop54
  1
strokes_ogs.tif
102
RTVSPost2010PropOp54
 70
     1
102
RTVSPost2010Prop55
280
     0
102
RTVSPost2010PropOp55
 70
     1
102
RTVSPost2010Prop56
140
1.0
102
RTVSPost2010PropOp56
 70
     1
102
RTVSPost2010Prop57
140
1.0
102
RTVSPost2010PropOp57
 70
     1
102
RTVSPropertyOp0
 70
     1
102
RTVSPropertyOp1
 70
     1
102
RTVSPropertyOp2
 70
     1
102
RTVSPropertyOp3
 70
     1
102
RTVSPropertyOp4
 70
     1
102
RTVSPropertyOp5
 70
     1
102
RTVSPropertyOp6
 70
     1
102
RTVSPropertyOp7
 70
     1
102
RTVSPropertyOp8
 70
     1
102
RTVSPropertyOp9
 70
     1
102
RTVSPropertyOp10
 70
     1
102
RTVSPropertyOp11
 70
     1
102
RTVSPropertyOp12
 70
     1
102
RTVSPropertyOp13
 70
     1
102
RTVSPropertyOp14
 70
     1
102
RTVSPropertyOp15
 70
     1
102
RTVSPropertyOp16
 70
     1
102
RTVSPropertyOp17
 70
     1
102
RTVSPropertyOp18
 70
     1
102
RTVSPropertyOp19
 70
     1
102
RTVSPropertyOp20
 70
     1
102
RTVSPropertyOp21
 70
     1
102
RTVSPropertyOp22
 70
     1
102
RTVSPropertyOp23
 70
     1
102
RTVSPropertyOp24
 70
     1
102
RTVSPropertyOp25
 70
     1
102
RTVSPropertyOp26
 70
     1
102
RTVSPropertyOp27
 70
     1
102
RTVSPropertyOp28
 70
     1
102
RTVSPropertyOp29
 70
     1
102
RTVSPropertyOp30
 70
     1
102
RTVSPropertyOp31
 70
     1
102
RTVSPropertyOp32
 70
     1
102
RTVSPropertyOp33
 70
     1
102
RTVSPropertyOp34
 70
     1
102
RTVSPropertyOp35
 70
     1
102
RTVSPropertyOp36
 70
     1
102
RTVSPropertyOp37
 70
     1
102
RTVSPropertyOp38
 70
     1
102
RTVSPropertyOp39
 70
     1
102
RTVSPropertyOp40
 70
     1
102
RTVSPropertyOp41
 70
     1
102
RTVSPropertyOp42
 70
     1
102
RTVSPropertyOp43
 70
     1
102
RTVSPropertyOp44
 70
     1
102
RTVSPropertyOp45
 70
     1
102
RTVSPropertyOp46
 70
     1
102
RTVSPropertyOp47
 70
     1
102
RTVSPropertyOp48
 70
     1
102
RTVSPropertyOp49
 70
     1
102
RTVSPropertyOp50
 70
     1
102
RTVSPropertyOp51
 70
     0
102
RTVSPropertyOp52
 70
     0
102
RTVSPropertyOp53
 70
     1
102
RTVSPropertyOp54
 70
     1
102
RTVSPropertyOp55
 70
     1
102
RTVSPropertyOp56
 70
     1
102
RTVSPropertyOp57
 70
     1
102
RTVSPropertyOp58
 70
     1
102
RTVSPropertyOp59
 70
     1
102
RTVSPropertyOp60
 70
     1
102
RTVSPropertyOp61
 70
     1
102
RTVSPropertyOp62
 70
     1
  0
ENDSEC
  0
EOF
