  0
SECTION
  2
HEADER
  9
$ACADVER
  1
AC1015
  9
$ACADMAINTVER
 70
    20
  9
$DWGCODEPAGE
  3
ANSI_932
  9
$INSBASE
 10
0.0
 20
0.0
 30
0.0
  9
$EXTMIN
 10
24.83736693753696
 20
-3.384129637216005
 30
0.0
  9
$EXTMAX
 10
1938.957023770895
 20
1520.988351278725
 30
0.0
  9
$LIMMIN
 10
-459.5044555663959
 20
-450.8733978271382
  9
$LIMMAX
 10
1286.283020019531
 20
936.5928192138573
  9
$ORTHOMODE
 70
     0
  9
$REGENMODE
 70
     1
  9
$FILLMODE
 70
     1
  9
$QTEXTMODE
 70
     0
  9
$MIRRTEXT
 70
     1
  9
$LTSCALE
 40
0.2304207689180149
  9
$ATTMODE
 70
     1
  9
$TEXTSIZE
 40
2.5
  9
$TRACEWID
 40
1.0
  9
$TEXTSTYLE
  7
Standard
  9
$CLAYER
  8
0
  9
$CELTYPE
  6
ByLayer
  9
$CECOLOR
 62
   256
  9
$CELTSCALE
 40
1.0
  9
$DISPSILH
 70
     0
  9
$DIMSCALE
 40
1.0
  9
$DIMASZ
 40
2.5
  9
$DIMEXO
 40
0.625
  9
$DIMDLI
 40
3.75
  9
$DIMRND
 40
0.0
  9
$DIMDLE
 40
0.0
  9
$DIMEXE
 40
1.25
  9
$DIMTP
 40
0.0
  9
$DIMTM
 40
0.0
  9
$DIMTXT
 40
2.5
  9
$DIMCEN
 40
2.5
  9
$DIMTSZ
 40
0.0
  9
$DIMTOL
 70
     0
  9
$DIMLIM
 70
     0
  9
$DIMTIH
 70
     0
  9
$DIMTOH
 70
     0
  9
$DIMSE1
 70
     0
  9
$DIMSE2
 70
     0
  9
$DIMTAD
 70
     1
  9
$DIMZIN
 70
     0
  9
$DIMBLK
  1

  9
$DIMASO
 70
     1
  9
$DIMSHO
 70
     1
  9
$DIMPOST
  1

  9
$DIMAPOST
  1

  9
$DIMALT
 70
     0
  9
$DIMALTD
 70
     3
  9
$DIMALTF
 40
0.03937007874016
  9
$DIMLFAC
 40
1.0
  9
$DIMTOFL
 70
     1
  9
$DIMTVP
 40
0.0
  9
$DIMTIX
 70
     0
  9
$DIMSOXD
 70
     0
  9
$DIMSAH
 70
     0
  9
$DIMBLK1
  1

  9
$DIMBLK2
  1

  9
$DIMSTYLE
  2
Standard
  9
$DIMCLRD
 70
     0
  9
$DIMCLRE
 70
     0
  9
$DIMCLRT
 70
     0
  9
$DIMTFAC
 40
0.75
  9
$DIMGAP
 40
0.625
  9
$DIMJUST
 70
     0
  9
$DIMSD1
 70
     0
  9
$DIMSD2
 70
     0
  9
$DIMTOLJ
 70
     0
  9
$DIMTZIN
 70
     8
  9
$DIMALTZ
 70
     0
  9
$DIMALTTZ
 70
     0
  9
$DIMUPT
 70
     0
  9
$DIMDEC
 70
     2
  9
$DIMTDEC
 70
     2
  9
$DIMALTU
 70
     2
  9
$DIMALTTD
 70
     3
  9
$DIMTXSTY
  7
Standard
  9
$DIMAUNIT
 70
     0
  9
$DIMADEC
 70
     0
  9
$DIMALTRND
 40
0.0
  9
$DIMAZIN
 70
     0
  9
$DIMDSEP
 70
    46
  9
$DIMATFIT
 70
     3
  9
$DIMFRAC
 70
     0
  9
$DIMLDRBLK
  1

  9
$DIMLUNIT
 70
     2
  9
$DIMLWD
 70
    -2
  9
$DIMLWE
 70
    -2
  9
$DIMTMOVE
 70
     0
  9
$LUNITS
 70
     2
  9
$LUPREC
 70
     4
  9
$SKETCHINC
 40
1.0
  9
$FILLETRAD
 40
0.0
  9
$AUNITS
 70
     0
  9
$AUPREC
 70
     0
  9
$MENU
  1
.
  9
$ELEVATION
 40
0.0
  9
$PELEVATION
 40
0.0
  9
$THICKNESS
 40
0.0
  9
$LIMCHECK
 70
     0
  9
$CHAMFERA
 40
10.0
  9
$CHAMFERB
 40
10.0
  9
$CHAMFERC
 40
20.0
  9
$CHAMFERD
 40
0.0
  9
$SKPOLY
 70
     0
  9
$TDCREATE
 40
2455188.750000000
  9
$TDUCREATE
 40
2455188.375000000
  9
$TDUPDATE
 40
2459753.664978715
  9
$TDUUPDATE
 40
2459753.289978715
  9
$TDINDWG
 40
0.0053898611
  9
$TDUSRTIMER
 40
0.0053897106
  9
$USRTIMER
 70
     1
  9
$ANGBASE
 50
0.0
  9
$ANGDIR
 70
     0
  9
$PDMODE
 70
     0
  9
$PDSIZE
 40
0.0
  9
$PLINEWID
 40
0.0
  9
$SPLFRAME
 70
     0
  9
$SPLINETYPE
 70
     6
  9
$SPLINESEGS
 70
     8
  9
$HANDSEED
  5
575
  9
$SURFTAB1
 70
     6
  9
$SURFTAB2
 70
     6
  9
$SURFTYPE
 70
     6
  9
$SURFU
 70
     6
  9
$SURFV
 70
     6
  9
$UCSBASE
  2

  9
$UCSNAME
  2

  9
$UCSORG
 10
0.0
 20
0.0
 30
0.0
  9
$UCSXDIR
 10
1.0
 20
0.0
 30
0.0
  9
$UCSYDIR
 10
0.0
 20
1.0
 30
0.0
  9
$UCSORTHOREF
  2

  9
$UCSORTHOVIEW
 70
     0
  9
$UCSORGTOP
 10
0.0
 20
0.0
 30
0.0
  9
$UCSORGBOTTOM
 10
0.0
 20
0.0
 30
0.0
  9
$UCSORGLEFT
 10
0.0
 20
0.0
 30
0.0
  9
$UCSORGRIGHT
 10
0.0
 20
0.0
 30
0.0
  9
$UCSORGFRONT
 10
0.0
 20
0.0
 30
0.0
  9
$UCSORGBACK
 10
0.0
 20
0.0
 30
0.0
  9
$PUCSBASE
  2

  9
$PUCSNAME
  2

  9
$PUCSORG
 10
0.0
 20
0.0
 30
0.0
  9
$PUCSXDIR
 10
1.0
 20
0.0
 30
0.0
  9
$PUCSYDIR
 10
0.0
 20
1.0
 30
0.0
  9
$PUCSORTHOREF
  2

  9
$PUCSORTHOVIEW
 70
     0
  9
$PUCSORGTOP
 10
0.0
 20
0.0
 30
0.0
  9
$PUCSORGBOTTOM
 10
0.0
 20
0.0
 30
0.0
  9
$PUCSORGLEFT
 10
0.0
 20
0.0
 30
0.0
  9
$PUCSORGRIGHT
 10
0.0
 20
0.0
 30
0.0
  9
$PUCSORGFRONT
 10
0.0
 20
0.0
 30
0.0
  9
$PUCSORGBACK
 10
0.0
 20
0.0
 30
0.0
  9
$USERI1
 70
     0
  9
$USERI2
 70
     0
  9
$USERI3
 70
     0
  9
$USERI4
 70
     0
  9
$USERI5
 70
     0
  9
$USERR1
 40
0.0
  9
$USERR2
 40
0.0
  9
$USERR3
 40
0.0
  9
$USERR4
 40
0.0
  9
$USERR5
 40
0.0
  9
$WORLDVIEW
 70
     1
  9
$SHADEDGE
 70
     3
  9
$SHADEDIF
 70
    70
  9
$TILEMODE
 70
     1
  9
$MAXACTVP
 70
    64
  9
$PINSBASE
 10
0.0
 20
0.0
 30
0.0
  9
$PLIMCHECK
 70
     0
  9
$PEXTMIN
 10
1.000000000000000E+20
 20
1.000000000000000E+20
 30
1.000000000000000E+20
  9
$PEXTMAX
 10
-1.000000000000000E+20
 20
-1.000000000000000E+20
 30
-1.000000000000000E+20
  9
$PLIMMIN
 10
0.0
 20
0.0
  9
$PLIMMAX
 10
420.0
 20
297.0
  9
$UNITMODE
 70
     0
  9
$VISRETAIN
 70
     1
  9
$PLINEGEN
 70
     0
  9
$PSLTSCALE
 70
     1
  9
$TREEDEPTH
 70
  3020
  9
$CMLSTYLE
  2
Standard
  9
$CMLJUST
 70
     0
  9
$CMLSCALE
 40
20.0
  9
$PROXYGRAPHICS
 70
     1
  9
$MEASUREMENT
 70
     1
  9
$CELWEIGHT
370
    -1
  9
$ENDCAPS
280
     0
  9
$JOINSTYLE
280
     0
  9
$LWDISPLAY
290
     0
  9
$INSUNITS
 70
     4
  9
$HYPERLINKBASE
  1

  9
$STYLESHEET
  1

  9
$XEDIT
290
     1
  9
$CEPSNTYPE
380
     0
  9
$PSTYLEMODE
290
     1
  9
$FINGERPRINTGUID
  2
{11D9EEDF-0FE2-4829-B7DC-B41DF47CEEF2}
  9
$VERSIONGUID
  2
{BBAF7784-5ABB-4E64-881D-811FBEC2DF95}
  9
$EXTNAMES
290
     1
  9
$PSVPSCALE
 40
0.0
  9
$OLESTARTUP
290
     0
  0
ENDSEC
  0
SECTION
  2
CLASSES
  0
CLASS
  1
ACDBDICTIONARYWDFLT
  2
AcDbDictionaryWithDefault
  3
ObjectDBX Classes
 90
        0
280
     0
281
     0
  0
CLASS
  1
VISUALSTYLE
  2
AcDbVisualStyle
  3
ObjectDBX Classes
 90
     4095
280
     0
281
     0
  0
CLASS
  1
MATERIAL
  2
AcDbMaterial
  3
ObjectDBX Classes
 90
     1153
280
     0
281
     0
  0
CLASS
  1
SCALE
  2
AcDbScale
  3
ObjectDBX Classes
 90
     1153
280
     0
281
     0
  0
CLASS
  1
TABLESTYLE
  2
AcDbTableStyle
  3
ObjectDBX Classes
 90
     4095
280
     0
281
     0
  0
CLASS
  1
MLEADERSTYLE
  2
AcDbMLeaderStyle
  3
ACDB_MLEADERSTYLE_CLASS
 90
     4095
280
     0
281
     0
  0
CLASS
  1
SUN
  2
AcDbSun
  3
SCENEOE
 90
    33921
280
     0
281
     0
  0
CLASS
  1
DICTIONARYVAR
  2
AcDbDictionaryVar
  3
ObjectDBX Classes
 90
        0
280
     0
281
     0
  0
CLASS
  1
ACDBSECTIONVIEWSTYLE
  2
AcDbSectionViewStyle
  3
ObjectDBX Classes
 90
     1025
280
     0
281
     0
  0
CLASS
  1
ACDBDETAILVIEWSTYLE
  2
AcDbDetailViewStyle
  3
ObjectDBX Classes
 90
     1025
280
     0
281
     0
  0
CLASS
  1
SORTENTSTABLE
  2
AcDbSortentsTable
  3
ObjectDBX Classes
 90
        0
280
     0
281
     0
  0
CLASS
  1
CELLSTYLEMAP
  2
AcDbCellStyleMap
  3
ObjectDBX Classes
 90
     1152
280
     0
281
     0
  0
CLASS
  1
ACDBPLACEHOLDER
  2
AcDbPlaceHolder
  3
ObjectDBX Classes
 90
        0
280
     0
281
     0
  0
CLASS
  1
LAYOUT
  2
AcDbLayout
  3
ObjectDBX Classes
 90
        0
280
     0
281
     0
  0
ENDSEC
  0
SECTION
  2
TABLES
  0
TABLE
  2
VPORT
  5
8
330
0
100
AcDbSymbolTable
 70
     1
  0
VPORT
  5
29
330
8
100
AcDbSymbolTableRecord
100
AcDbViewportTableRecord
  2
*Active
 70
     0
 10
0.0
 20
0.0
 11
1.0
 21
1.0
 12
1353.279587166184
 22
397.8467783428969
 13
0.0
 23
0.0
 14
10.0
 24
10.0
 15
10.0
 25
10.0
 16
0.0
 26
0.0
 36
1.0
 17
0.0
 27
0.0
 37
0.0
 40
1639.566439057848
 41
2.204301075268817
 42
50.0
 43
0.0
 44
0.0
 50
0.0
 51
0.0
 71
     0
 72
 20000
 73
     1
 74
     3
 75
     0
 76
     0
 77
     0
 78
     0
281
     0
 65
     1
110
0.0
120
0.0
130
0.0
111
1.0
121
0.0
131
0.0
112
0.0
122
1.0
132
0.0
 79
     0
146
0.0
1001
ACAD_NAV_VCDISPLAY
1070
     3
  0
ENDTAB
  0
TABLE
  2
LTYPE
  5
5
330
0
100
AcDbSymbolTable
 70
     2
  0
LTYPE
  5
14
330
5
100
AcDbSymbolTableRecord
100
AcDbLinetypeTableRecord
  2
ByBlock
 70
     0
  3

 72
    65
 73
     0
 40
0.0
  0
LTYPE
  5
15
330
5
100
AcDbSymbolTableRecord
100
AcDbLinetypeTableRecord
  2
ByLayer
 70
     0
  3

 72
    65
 73
     0
 40
0.0
  0
LTYPE
  5
16
330
5
100
AcDbSymbolTableRecord
100
AcDbLinetypeTableRecord
  2
Continuous
 70
     0
  3
Solid line
 72
    65
 73
     0
 40
0.0
  0
LTYPE
  5
39D
330
5
100
AcDbSymbolTableRecord
100
AcDbLinetypeTableRecord
  2
CENTER2
 70
     0
  3
Center (.5x) ___ _ ___ _ ___ _ ___ _ ___ _ ___
 72
    65
 73
     4
 40
28.575
 49
19.05
 74
     0
 49
-3.174999999999998
 74
     0
 49
3.174999999999998
 74
     0
 49
-3.174999999999998
 74
     0
  0
ENDTAB
  0
TABLE
  2
LAYER
  5
2
102
{ACAD_XDICTIONARY
360
3A3
102
}
330
0
100
AcDbSymbolTable
 70
     4
  0
LAYER
  5
10
102
{ACAD_XDICTIONARY
360
4A2
102
}
330
2
100
AcDbSymbolTableRecord
100
AcDbLayerTableRecord
  2
0
 70
     0
 62
     7
  6
Continuous
370
    -3
390
F
  0
LAYER
  5
66
330
2
100
AcDbSymbolTableRecord
100
AcDbLayerTableRecord
  2
Defpoints
 70
     0
 62
     7
  6
Continuous
290
     0
370
    -3
390
F
  0
LAYER
  5
39E
102
{ACAD_XDICTIONARY
360
39F
102
}
330
2
100
AcDbSymbolTableRecord
100
AcDbLayerTableRecord
  2
中心線
 70
     0
 62
     3
  6
CENTER2
370
    -3
390
F
  0
LAYER
  5
3A0
102
{ACAD_XDICTIONARY
360
3A1
102
}
330
2
100
AcDbSymbolTableRecord
100
AcDbLayerTableRecord
  2
実線
 70
     0
 62
     7
  6
Continuous
370
    -3
390
F
  0
ENDTAB
  0
TABLE
  2
STYLE
  5
3
330
0
100
AcDbSymbolTable
 70
     1
  0
STYLE
  5
11
330
3
100
AcDbSymbolTableRecord
100
AcDbTextStyleTableRecord
  2
Standard
 70
     0
 40
0.0
 41
1.0
 50
0.0
 71
     0
 42
2.5
  3
txt
  4
extfont2
  0
ENDTAB
  0
TABLE
  2
VIEW
  5
6
330
0
100
AcDbSymbolTable
 70
     0
  0
ENDTAB
  0
TABLE
  2
UCS
  5
7
330
0
100
AcDbSymbolTable
 70
     0
  0
ENDTAB
  0
TABLE
  2
APPID
  5
9
330
0
100
AcDbSymbolTable
 70
     4
  0
APPID
  5
12
330
9
100
AcDbSymbolTableRecord
100
AcDbRegAppTableRecord
  2
ACAD
 70
     0
  0
APPID
  5
228
330
9
100
AcDbSymbolTableRecord
100
AcDbRegAppTableRecord
  2
ACAD_MLEADERVER
 70
     0
  0
APPID
  5
3A2
330
9
100
AcDbSymbolTableRecord
100
AcDbRegAppTableRecord
  2
ACAD_NAV_VCDISPLAY
 70
     0
  0
APPID
  5
48F
330
9
100
AcDbSymbolTableRecord
100
AcDbRegAppTableRecord
  2
ACAD_EXEMPT_FROM_CAD_STANDARDS
 70
     0
  0
ENDTAB
  0
TABLE
  2
DIMSTYLE
  5
A
330
0
100
AcDbSymbolTable
 70
     1
100
AcDbDimStyleTable
 71
     1
340
27
  0
DIMSTYLE
105
27
330
A
100
AcDbSymbolTableRecord
100
AcDbDimStyleTableRecord
  2
Standard
 70
     0
 41
2.5
 42
0.625
 43
3.75
 44
1.25
 73
     0
 74
     0
 77
     1
140
2.5
141
2.5
143
0.03937007874016
146
0.75
147
0.625
171
     3
172
     1
271
     2
272
     2
274
     3
283
     0
284
     8
340
11
  0
ENDTAB
  0
TABLE
  2
BLOCK_RECORD
  5
1
330
0
100
AcDbSymbolTable
 70
     1
  0
BLOCK_RECORD
  5
1F
102
{ACAD_XDICTIONARY
360
25B
102
}
330
1
100
AcDbSymbolTableRecord
100
AcDbBlockTableRecord
  2
*Model_Space
340
22
  0
BLOCK_RECORD
  5
1B
330
1
100
AcDbSymbolTableRecord
100
AcDbBlockTableRecord
  2
*Paper_Space
340
1E
  0
BLOCK_RECORD
  5
23
330
1
100
AcDbSymbolTableRecord
100
AcDbBlockTableRecord
  2
*Paper_Space0
340
232
  0
ENDTAB
  0
ENDSEC
  0
SECTION
  2
BLOCKS
  0
BLOCK
  5
20
330
1F
100
AcDbEntity
  8
0
100
AcDbBlockBegin
  2
*Model_Space
 70
     0
 10
0.0
 20
0.0
 30
0.0
  3
*Model_Space
  1

  0
ENDBLK
  5
21
330
1F
100
AcDbEntity
  8
0
100
AcDbBlockEnd
  0
BLOCK
  5
1C
330
1B
100
AcDbEntity
 67
     1
  8
0
100
AcDbBlockBegin
  2
*Paper_Space
 70
     0
 10
0.0
 20
0.0
 30
0.0
  3
*Paper_Space
  1

  0
ENDBLK
  5
1D
330
1B
100
AcDbEntity
 67
     1
  8
0
100
AcDbBlockEnd
  0
BLOCK
  5
24
330
23
100
AcDbEntity
 67
     1
  8
0
100
AcDbBlockBegin
  2
*Paper_Space0
 70
     0
 10
0.0
 20
0.0
 30
0.0
  3
*Paper_Space0
  1

  0
ENDBLK
  5
25
330
23
100
AcDbEntity
 67
     1
  8
0
100
AcDbBlockEnd
  0
ENDSEC
  0
SECTION
  2
ENTITIES
  0
ARC
  5
238
102
{ACAD_REACTORS
330
49E
102
}
330
1F
100
AcDbEntity
  8
実線
100
AcDbCircle
 10
395.6170561153758
 20
964.7970198613482
 30
0.0
 40
9.999999999999976
100
AcDbArc
 50
325.0000000000026
 51
43.49585801794513
  0
ARC
  5
239
102
{ACAD_REACTORS
330
49E
102
}
330
1F
100
AcDbEntity
  8
実線
100
AcDbCircle
 10
344.837366937537
 20
916.6158703627932
 30
0.0
 40
79.99999999999984
100
AcDbArc
 50
43.49585801794513
 51
46.50414198205487
  0
LINE
  5
23A
102
{ACAD_REACTORS
330
49E
102
}
330
1F
100
AcDbEntity
  8
実線
100
AcDbLine
 10
387.1454636377646
 20
975.490949586554
 30
0.0
 11
387.2827520725812
 21
975.5870799835221
 31
0.0
  0
ARC
  5
23B
102
{ACAD_REACTORS
330
49E
102
}
330
1F
100
AcDbEntity
  8
実線
100
AcDbCircle
 10
393.0185164360915
 20
967.395559540632
 30
0.0
 40
9.999999999999991
100
AcDbArc
 50
46.50414198205487
 51
124.9999999999974
  0
ARC
  5
23C
102
{ACAD_REACTORS
330
49E
102
}
330
1F
100
AcDbEntity
  8
実線
100
AcDbCircle
 10
294.0576777596982
 20
868.4347208642382
 30
0.0
 40
9.999999999999591
100
AcDbArc
 50
145.0000000000026
 51
223.4958580179451
  0
LINE
  5
23D
102
{ACAD_REACTORS
330
49E
102
}
330
1F
100
AcDbEntity
  8
実線
100
AcDbLine
 10
403.8085765582657
 20
959.061255497837
 30
0.0
 11
403.7124461612981
 21
958.9239670630211
 31
0.0
  0
LINE
  5
23E
102
{ACAD_REACTORS
330
49E
102
}
330
1F
100
AcDbEntity
  8
実線
100
AcDbLine
 10
285.8661573168086
 20
874.1704852277491
 30
0.0
 11
285.9622877137759
 21
874.307773662565
 31
0.0
  0
LINE
  5
23F
102
{ACAD_REACTORS
330
49E
102
}
330
1F
100
AcDbEntity
  8
実線
100
AcDbLine
 10
302.3919818024926
 20
975.5870799835221
 30
0.0
 11
302.5292702373091
 21
975.490949586554
 31
0.0
  0
ARC
  5
240
102
{ACAD_REACTORS
330
49E
102
}
330
1F
100
AcDbEntity
  8
実線
100
AcDbCircle
 10
344.8373669375373
 20
916.6158703627829
 30
0.0
 40
79.99999999999268
100
AcDbArc
 50
223.4958580179359
 51
226.5041419820549
  0
ARC
  5
241
102
{ACAD_REACTORS
330
49E
102
}
330
1F
100
AcDbEntity
  8
実線
100
AcDbCircle
 10
296.6562174389821
 20
865.8361811849543
 30
0.0
 40
9.999999999999982
100
AcDbArc
 50
226.5041419820549
 51
304.9999999999974
  0
LINE
  5
242
102
{ACAD_REACTORS
330
49E
102
}
330
1F
100
AcDbEntity
  8
実線
100
AcDbLine
 10
302.5292702373091
 20
857.7407911390311
 30
0.0
 11
302.3919818024926
 21
857.6446607420642
 31
0.0
  0
LINE
  5
243
102
{ACAD_REACTORS
330
49E
102
}
330
1F
100
AcDbEntity
  8
実線
100
AcDbLine
 10
387.282752072581
 20
857.6446607420642
 30
0.0
 11
387.1454636377646
 21
857.7407911390311
 31
0.0
  0
ARC
  5
244
102
{ACAD_REACTORS
330
49E
102
}
330
1F
100
AcDbEntity
  8
実線
100
AcDbCircle
 10
393.0185164360915
 20
865.8361811849543
 30
0.0
 40
10.00000000000038
100
AcDbArc
 50
235.0000000000026
 51
313.4958580179451
  0
ARC
  5
245
102
{ACAD_REACTORS
330
49E
102
}
330
1F
100
AcDbEntity
  8
実線
100
AcDbCircle
 10
344.8373669375365
 20
916.6158703627829
 30
0.0
 40
79.99999999999343
100
AcDbArc
 50
313.4958580179451
 51
316.5041419820641
  0
ARC
  5
246
102
{ACAD_REACTORS
330
49E
102
}
330
1F
100
AcDbEntity
  8
実線
100
AcDbCircle
 10
395.6170561153758
 20
868.4347208642382
 30
0.0
 40
10.0
100
AcDbArc
 50
316.5041419820549
 51
34.99999999999737
  0
LINE
  5
247
102
{ACAD_REACTORS
330
49E
102
}
330
1F
100
AcDbEntity
  8
実線
100
AcDbLine
 10
403.7124461612981
 20
874.307773662565
 30
0.0
 11
403.8085765582657
 21
874.1704852277491
 31
0.0
  0
ARC
  5
248
102
{ACAD_REACTORS
330
49E
102
}
330
1F
100
AcDbEntity
  8
実線
100
AcDbCircle
 10
296.6562174389821
 20
967.395559540632
 30
0.0
 40
10.00000000000002
100
AcDbArc
 50
55.00000000000264
 51
133.4958580179451
  0
ARC
  5
249
102
{ACAD_REACTORS
330
49E
102
}
330
1F
100
AcDbEntity
  8
実線
100
AcDbCircle
 10
344.8373669375368
 20
916.6158703627932
 30
0.0
 40
79.9999999999998
100
AcDbArc
 50
133.4958580179451
 51
136.5041419820548
  0
ARC
  5
24A
102
{ACAD_REACTORS
330
49E
102
}
330
1F
100
AcDbEntity
  8
実線
100
AcDbCircle
 10
294.0576777596982
 20
964.7970198613482
 30
0.0
 40
9.999999999999996
100
AcDbArc
 50
136.5041419820548
 51
214.9999999999974
  0
LINE
  5
24B
102
{ACAD_REACTORS
330
49E
102
}
330
1F
100
AcDbEntity
  8
実線
100
AcDbLine
 10
285.9622877137756
 20
958.9239670630211
 30
0.0
 11
285.8661573168082
 21
959.061255497837
 31
0.0
  0
CIRCLE
  5
24C
102
{ACAD_REACTORS
330
49E
102
}
330
1F
100
AcDbEntity
  8
実線
100
AcDbCircle
 10
344.837366937537
 20
916.6158703627932
 30
0.0
 40
43.3
  0
CIRCLE
  5
24D
102
{ACAD_REACTORS
330
49E
102
}
330
1F
100
AcDbEntity
  8
実線
100
AcDbCircle
 10
344.8373669375369
 20
916.6158703627932
 30
0.0
 40
44.0
  0
LINE
  5
24E
102
{ACAD_REACTORS
330
49E
102
}
330
1F
100
AcDbEntity
  8
実線
100
AcDbLine
 10
246.4373669375377
 20
884.8658703628032
 30
0.0
 11
279.659245608362
 21
884.8658703628032
 31
0.0
  0
LINE
  5
24F
102
{ACAD_REACTORS
330
49E
102
}
330
1F
100
AcDbEntity
  8
実線
100
AcDbLine
 10
279.659245608372
 20
948.3658703628032
 30
0.0
 11
246.4373669375377
 21
948.3658703628032
 31
0.0
  0
LINE
  5
250
102
{ACAD_REACTORS
330
49E
102
}
330
1F
100
AcDbEntity
  8
実線
100
AcDbLine
 10
239.8373669375377
 20
877.8658703628032
 30
0.0
 11
243.3373669375375
 21
877.8658703628032
 31
0.0
  0
LINE
  5
251
102
{ACAD_REACTORS
330
49E
102
}
330
1F
100
AcDbEntity
  8
実線
100
AcDbLine
 10
243.3373669375375
 20
955.3658703628032
 30
0.0
 11
239.8373669375377
 21
955.3658703628032
 31
0.0
  0
LINE
  5
252
102
{ACAD_REACTORS
330
49E
102
}
330
1F
100
AcDbEntity
  8
実線
100
AcDbLine
 10
239.8373669375377
 20
955.3658703628032
 30
0.0
 11
239.8373669375377
 21
877.8658703628032
 31
0.0
  0
LINE
  5
253
102
{ACAD_REACTORS
330
49E
102
}
330
1F
100
AcDbEntity
  8
実線
100
AcDbLine
 10
246.4373669375377
 20
948.3658703628032
 30
0.0
 11
243.3373669375375
 21
955.3658703628032
 31
0.0
  0
LINE
  5
254
102
{ACAD_REACTORS
330
49E
102
}
330
1F
100
AcDbEntity
  8
実線
100
AcDbLine
 10
243.3373669375375
 20
877.8658703628032
 30
0.0
 11
246.4373669375377
 21
884.8658703628032
 31
0.0
  0
LINE
  5
255
102
{ACAD_REACTORS
330
49E
102
}
330
1F
100
AcDbEntity
  8
実線
100
AcDbLine
 10
243.3373669375375
 20
955.3658703628032
 30
0.0
 11
243.3373669375375
 21
877.8658703628032
 31
0.0
  0
LINE
  5
256
102
{ACAD_REACTORS
330
49E
102
}
330
1F
100
AcDbEntity
  8
実線
100
AcDbLine
 10
246.4373669375377
 20
948.3658703628032
 30
0.0
 11
246.4373669375377
 21
884.8658703628032
 31
0.0
  0
CIRCLE
  5
257
102
{ACAD_REACTORS
330
49E
102
}
330
1F
100
AcDbEntity
  8
実線
100
AcDbCircle
 10
344.8373669375369
 20
916.6158703627932
 30
0.0
 40
46.0
  0
CIRCLE
  5
258
102
{ACAD_REACTORS
330
49E
102
}
330
1F
100
AcDbEntity
  8
実線
100
AcDbCircle
 10
344.837366937537
 20
916.6158703627932
 30
0.0
 40
42.5
  0
CIRCLE
  5
259
102
{ACAD_REACTORS
330
49E
102
}
330
1F
100
AcDbEntity
  8
実線
100
AcDbCircle
 10
344.837366937537
 20
916.6158703627932
 30
0.0
 40
16.5
  0
CIRCLE
  5
25A
102
{ACAD_REACTORS
330
49E
102
}
330
1F
100
AcDbEntity
  8
実線
100
AcDbCircle
 10
344.8373669375369
 20
916.6158703627932
 30
0.0
 40
72.5
  0
ARC
  5
25D
102
{ACAD_REACTORS
330
4A1
102
}
330
1F
100
AcDbEntity
  8
実線
100
AcDbCircle
 10
344.837366937537
 20
76.61587036279377
 30
0.0
 40
72.5
100
AcDbArc
 50
54.29867758537279
 51
125.7013224146272
  0
ARC
  5
25E
102
{ACAD_REACTORS
330
4A1
102
}
330
1F
100
AcDbEntity
  8
実線
100
AcDbCircle
 10
344.837366937537
 20
76.61587036279377
 30
0.0
 40
72.5
100
AcDbArc
 50
144.2986775853705
 51
154.0280526648894
  0
ARC
  5
25F
102
{ACAD_REACTORS
330
4A1
102
}
330
1F
100
AcDbEntity
  8
実線
100
AcDbCircle
 10
344.837366937537
 20
76.61587036279377
 30
0.0
 40
72.5
100
AcDbArc
 50
205.9719473351266
 51
215.7013224146295
  0
ARC
  5
260
102
{ACAD_REACTORS
330
4A1
102
}
330
1F
100
AcDbEntity
  8
実線
100
AcDbCircle
 10
344.837366937537
 20
76.61587036279377
 30
0.0
 40
72.5
100
AcDbArc
 50
234.2986775853728
 51
305.7013224146272
  0
ARC
  5
261
102
{ACAD_REACTORS
330
4A1
102
}
330
1F
100
AcDbEntity
  8
実線
100
AcDbCircle
 10
344.837366937537
 20
76.61587036279377
 30
0.0
 40
72.5
100
AcDbArc
 50
324.2986775853705
 51
35.70132241462948
  0
ARC
  5
262
102
{ACAD_REACTORS
330
4A1
102
}
330
1F
100
AcDbEntity
  8
実線
100
AcDbCircle
 10
344.837366937537
 20
76.61587036279377
 30
0.0
 40
67.5
100
AcDbArc
 50
55.79182291694149
 51
124.2081770830585
  0
ARC
  5
263
102
{ACAD_REACTORS
330
4A1
102
}
330
1F
100
AcDbEntity
  8
実線
100
AcDbCircle
 10
344.837366937537
 20
76.61587036279377
 30
0.0
 40
67.5
100
AcDbArc
 50
145.7918229169356
 51
151.9416592389783
  0
ARC
  5
264
102
{ACAD_REACTORS
330
4A1
102
}
330
1F
100
AcDbEntity
  8
実線
100
AcDbCircle
 10
344.837366937537
 20
76.61587036279377
 30
0.0
 40
67.5
100
AcDbArc
 50
208.058340761042
 51
214.2081770830585
  0
ARC
  5
265
102
{ACAD_REACTORS
330
4A1
102
}
330
1F
100
AcDbEntity
  8
実線
100
AcDbCircle
 10
344.837366937537
 20
76.61587036279377
 30
0.0
 40
67.5
100
AcDbArc
 50
235.7918229169415
 51
304.2081770830586
  0
ARC
  5
266
102
{ACAD_REACTORS
330
4A1
102
}
330
1F
100
AcDbEntity
  8
実線
100
AcDbCircle
 10
344.837366937537
 20
76.61587036279377
 30
0.0
 40
67.5
100
AcDbArc
 50
325.7918229169415
 51
34.20817708305852
  0
CIRCLE
  5
267
102
{ACAD_REACTORS
330
4A1
102
}
330
1F
100
AcDbEntity
  8
実線
100
AcDbCircle
 10
344.8373669375378
 20
76.61587036278354
 30
0.0
 40
38.75
  0
LINE
  5
268
102
{ACAD_REACTORS
330
4A1
102
}
330
1F
100
AcDbEntity
  8
実線
100
AcDbLine
 10
246.4373669375378
 20
44.86587036278365
 30
0.0
 11
299.9270396174212
 21
44.86587036278365
 31
0.0
  0
LINE
  5
269
102
{ACAD_REACTORS
330
4A1
102
}
330
1F
100
AcDbEntity
  8
実線
100
AcDbLine
 10
299.9270396174212
 20
108.3658703627836
 30
0.0
 11
246.4373669375378
 21
108.3658703627836
 31
0.0
  0
LINE
  5
26A
102
{ACAD_REACTORS
330
4A1
102
}
330
1F
100
AcDbEntity
  8
実線
100
AcDbLine
 10
246.4373669375378
 20
44.86587036278365
 30
0.0
 11
246.4373669375378
 21
108.3658703627836
 31
0.0
  0
LINE
  5
26B
102
{ACAD_REACTORS
330
4A1
102
}
330
1F
100
AcDbEntity
  8
実線
100
AcDbLine
 10
246.4373669375378
 20
108.3658703627836
 30
0.0
 11
243.3373669375376
 21
115.3658703627836
 31
0.0
  0
LINE
  5
26C
102
{ACAD_REACTORS
330
4A1
102
}
330
1F
100
AcDbEntity
  8
実線
100
AcDbLine
 10
243.3373669375376
 20
37.86587036278366
 30
0.0
 11
246.4373669375378
 21
44.86587036278365
 31
0.0
  0
LINE
  5
26D
102
{ACAD_REACTORS
330
4A1
102
}
330
1F
100
AcDbEntity
  8
実線
100
AcDbLine
 10
239.8373669375378
 20
37.86587036278366
 30
0.0
 11
239.8373669375378
 21
115.3658703627836
 31
0.0
  0
LINE
  5
26E
102
{ACAD_REACTORS
330
4A1
102
}
330
1F
100
AcDbEntity
  8
実線
100
AcDbLine
 10
243.3373669375376
 20
37.86587036278366
 30
0.0
 11
243.3373669375376
 21
115.3658703627836
 31
0.0
  0
LINE
  5
26F
102
{ACAD_REACTORS
330
4A1
102
}
330
1F
100
AcDbEntity
  8
実線
100
AcDbLine
 10
239.8373669375378
 20
37.86587036278366
 30
0.0
 11
243.3373669375376
 21
37.86587036278366
 31
0.0
  0
LINE
  5
270
102
{ACAD_REACTORS
330
4A1
102
}
330
1F
100
AcDbEntity
  8
実線
100
AcDbLine
 10
243.3373669375376
 20
115.3658703627836
 30
0.0
 11
239.8373669375378
 21
115.3658703627836
 31
0.0
  0
LINE
  5
271
102
{ACAD_REACTORS
330
4A1
102
}
330
1F
100
AcDbEntity
  8
実線
100
AcDbLine
 10
398.1548124877507
 20
90.11587036279378
 30
0.0
 11
407.1373669375368
 21
90.11587036279378
 31
0.0
  0
LINE
  5
272
102
{ACAD_REACTORS
330
4A1
102
}
330
1F
100
AcDbEntity
  8
実線
100
AcDbLine
 10
398.1548124877507
 20
63.11587036279377
 30
0.0
 11
407.1373669375368
 21
63.11587036279377
 31
0.0
  0
LINE
  5
273
102
{ACAD_REACTORS
330
4A1
102
}
330
1F
100
AcDbEntity
  8
実線
100
AcDbLine
 10
407.1373669375368
 20
63.11587036279377
 30
0.0
 11
407.1373669375368
 21
90.11587036279378
 31
0.0
  0
ARC
  5
274
102
{ACAD_REACTORS
330
4A1
102
}
330
1F
100
AcDbEntity
  8
実線
100
AcDbCircle
 10
344.8373669375373
 20
76.61587036278342
 30
0.0
 40
79.9999999999998
100
AcDbArc
 50
223.4958580179406
 51
226.5041419820549
  0
ARC
  5
275
102
{ACAD_REACTORS
330
4A1
102
}
330
1F
100
AcDbEntity
  8
実線
100
AcDbCircle
 10
296.6562174389828
 20
25.83618118494485
 30
0.0
 40
10.00000000000002
100
AcDbArc
 50
226.5041419820549
 51
304.9999999999974
  0
LINE
  5
276
102
{ACAD_REACTORS
330
4A1
102
}
330
1F
100
AcDbEntity
  8
実線
100
AcDbLine
 10
302.3919818024934
 20
17.64466074205484
 30
0.0
 11
318.0273947875966
 21
28.59269477724593
 31
0.0
  0
LINE
  5
277
102
{ACAD_REACTORS
330
4A1
102
}
330
1F
100
AcDbEntity
  8
実線
100
AcDbLine
 10
293.355146612423
 20
44.86587036278365
 30
0.0
 11
285.8661573168088
 21
34.17048522773939
 31
0.0
  0
ARC
  5
278
102
{ACAD_REACTORS
330
4A1
102
}
330
1F
100
AcDbEntity
  8
実線
100
AcDbCircle
 10
294.0576777596988
 20
28.4347208642289
 30
0.0
 40
9.999999999999996
100
AcDbArc
 50
145.0000000000026
 51
223.4958580179406
  0
ARC
  5
279
102
{ACAD_REACTORS
330
4A1
102
}
330
1F
100
AcDbEntity
  8
実線
100
AcDbCircle
 10
395.6170561153767
 20
124.7970198613383
 30
0.0
 40
10.0
100
AcDbArc
 50
325.0000000000026
 51
43.49585801794053
  0
ARC
  5
27A
102
{ACAD_REACTORS
330
4A1
102
}
330
1F
100
AcDbEntity
  8
実線
100
AcDbCircle
 10
344.8373669375371
 20
76.61587036279377
 30
0.0
 40
79.99999999999343
100
AcDbArc
 50
43.49585801793593
 51
46.50414198205487
  0
ARC
  5
27B
102
{ACAD_REACTORS
330
4A1
102
}
330
1F
100
AcDbEntity
  8
実線
100
AcDbCircle
 10
393.0185164360923
 20
127.3955595406224
 30
0.0
 40
10.00000000000038
100
AcDbArc
 50
46.50414198205487
 51
124.9999999999974
  0
LINE
  5
27C
102
{ACAD_REACTORS
330
4A1
102
}
330
1F
100
AcDbEntity
  8
実線
100
AcDbLine
 10
387.2827520725818
 20
135.5870799835126
 30
0.0
 11
371.647339087479
 21
124.6390459483212
 31
0.0
  0
LINE
  5
27D
102
{ACAD_REACTORS
330
4A1
102
}
330
1F
100
AcDbEntity
  8
実線
100
AcDbLine
 10
392.8605425230752
 20
103.4258425127248
 30
0.0
 11
403.8085765582665
 21
119.0612554978278
 31
0.0
  0
LINE
  5
27E
102
{ACAD_REACTORS
330
4A1
102
}
330
1F
100
AcDbEntity
  8
実線
100
AcDbLine
 10
403.8085765582663
 20
34.17048522773939
 30
0.0
 11
392.8605425230752
 21
49.80589821284235
 31
0.0
  0
LINE
  5
27F
102
{ACAD_REACTORS
330
4A1
102
}
330
1F
100
AcDbEntity
  8
実線
100
AcDbLine
 10
371.647339087479
 20
28.59269477724593
 30
0.0
 11
387.2827520725818
 21
17.64466074205472
 31
0.0
  0
ARC
  5
280
102
{ACAD_REACTORS
330
4A1
102
}
330
1F
100
AcDbEntity
  8
実線
100
AcDbCircle
 10
393.0185164360923
 20
25.83618118494474
 30
0.0
 40
9.999999999999991
100
AcDbArc
 50
235.0000000000026
 51
313.4958580179451
  0
ARC
  5
281
102
{ACAD_REACTORS
330
4A1
102
}
330
1F
100
AcDbEntity
  8
実線
100
AcDbCircle
 10
344.8373669375378
 20
76.61587036278342
 30
0.0
 40
79.99999999999984
100
AcDbArc
 50
313.4958580179451
 51
316.5041419820549
  0
ARC
  5
282
102
{ACAD_REACTORS
330
4A1
102
}
330
1F
100
AcDbEntity
  8
実線
100
AcDbCircle
 10
395.6170561153767
 20
28.4347208642289
 30
0.0
 40
9.999999999999976
100
AcDbArc
 50
316.5041419820549
 51
34.99999999999737
  0
LINE
  5
283
102
{ACAD_REACTORS
330
4A1
102
}
330
1F
100
AcDbEntity
  8
実線
100
AcDbLine
 10
285.8661573168092
 20
119.061255497828
 30
0.0
 11
293.3551466124232
 21
108.3658703627836
 31
0.0
  0
LINE
  5
284
102
{ACAD_REACTORS
330
4A1
102
}
330
1F
100
AcDbEntity
  8
実線
100
AcDbLine
 10
318.0273947875964
 20
124.6390459483212
 30
0.0
 11
302.3919818024934
 21
135.5870799835123
 31
0.0
  0
ARC
  5
285
102
{ACAD_REACTORS
330
4A1
102
}
330
1F
100
AcDbEntity
  8
実線
100
AcDbCircle
 10
296.6562174389831
 20
127.3955595406224
 30
0.0
 40
9.999999999999982
100
AcDbArc
 50
55.00000000000264
 51
133.4958580179451
  0
ARC
  5
286
102
{ACAD_REACTORS
330
4A1
102
}
330
1F
100
AcDbEntity
  8
実線
100
AcDbCircle
 10
344.8373669375378
 20
76.61587036279377
 30
0.0
 40
79.99999999999268
100
AcDbArc
 50
133.4958580179451
 51
136.504141982064
  0
ARC
  5
287
102
{ACAD_REACTORS
330
4A1
102
}
330
1F
100
AcDbEntity
  8
実線
100
AcDbCircle
 10
294.0576777596989
 20
124.7970198613383
 30
0.0
 40
9.999999999999591
100
AcDbArc
 50
136.5041419820594
 51
214.9999999999974
  0
ARC
  5
288
102
{ACAD_REACTORS
330
4A1
102
}
330
1F
100
AcDbEntity
  8
実線
100
AcDbCircle
 10
344.8373669375378
 20
76.61587036278354
 30
0.0
 40
55.0
100
AcDbArc
 50
206.6374901381771
 51
153.3625098618228
  0
LINE
  5
289
102
{ACAD_REACTORS
330
49C
102
}
330
1F
100
AcDbEntity
  8
実線
100
AcDbLine
 10
764.0576777596977
 20
370.6158703627942
 30
0.0
 11
885.6170561153758
 21
370.6158703627942
 31
0.0
  0
LINE
  5
28A
102
{ACAD_REACTORS
330
49C
102
}
330
1F
100
AcDbEntity
  8
実線
100
AcDbLine
 10
764.0576777596977
 20
357.1158703627943
 30
0.0
 11
885.6170561153758
 21
357.1158703627943
 31
0.0
  0
LINE
  5
28B
102
{ACAD_REACTORS
330
49C
102
}
330
1F
100
AcDbEntity
  8
実線
100
AcDbLine
 10
885.6170561153758
 20
357.1158703627943
 30
0.0
 11
885.6170561153758
 21
370.6158703627942
 31
0.0
  0
LINE
  5
28C
102
{ACAD_REACTORS
330
49C
102
}
330
1F
100
AcDbEntity
  8
実線
100
AcDbLine
 10
764.0576777596977
 20
370.6158703627942
 30
0.0
 11
764.0576777596977
 21
357.1158703627943
 31
0.0
  0
LINE
  5
28D
102
{ACAD_REACTORS
330
49C
102
}
330
1F
100
AcDbEntity
  8
実線
100
AcDbLine
 10
851.6473390874777
 20
357.1158703627943
 30
0.0
 11
851.6473390874777
 21
370.6158703627942
 31
0.0
  0
LINE
  5
28E
102
{ACAD_REACTORS
330
49C
102
}
330
1F
100
AcDbEntity
  8
実線
100
AcDbLine
 10
798.0273947875948
 20
357.1158703627943
 30
0.0
 11
798.0273947875948
 21
370.6158703627942
 31
0.0
  0
LINE
  5
28F
102
{ACAD_REACTORS
330
49C
102
}
330
1F
100
AcDbEntity
  8
実線
100
AcDbLine
 10
752.3373669375367
 20
576.6158703627943
 30
0.0
 11
897.3373669375366
 21
576.6158703627943
 31
0.0
  0
LINE
  5
290
102
{ACAD_REACTORS
330
49C
102
}
330
1F
100
AcDbEntity
  8
実線
100
AcDbLine
 10
897.3373669375366
 20
475.6158703627942
 30
0.0
 11
897.3373669375366
 21
576.6158703627943
 31
0.0
  0
LINE
  5
291
102
{ACAD_REACTORS
330
49C
102
}
330
1F
100
AcDbEntity
  8
実線
100
AcDbLine
 10
752.3373669375367
 20
576.6158703627943
 30
0.0
 11
752.3373669375367
 21
475.6158703627942
 31
0.0
  0
LINE
  5
292
102
{ACAD_REACTORS
330
49C
102
}
330
1F
100
AcDbEntity
  8
実線
100
AcDbLine
 10
897.3373669375366
 20
475.6158703627942
 30
0.0
 11
752.3373669375367
 21
475.6158703627942
 31
0.0
  0
LINE
  5
293
102
{ACAD_REACTORS
330
49C
102
}
330
1F
100
AcDbEntity
  8
実線
100
AcDbLine
 10
892.3373669375367
 20
473.6158703627943
 30
0.0
 11
892.3373669375367
 21
475.6158703627942
 31
0.0
  0
LINE
  5
294
102
{ACAD_REACTORS
330
49C
102
}
330
1F
100
AcDbEntity
  8
実線
100
AcDbLine
 10
757.3373669375366
 20
475.6158703627942
 30
0.0
 11
757.3373669375366
 21
473.6158703627943
 31
0.0
  0
LINE
  5
295
102
{ACAD_REACTORS
330
49C
102
}
330
1F
100
AcDbEntity
  8
実線
100
AcDbLine
 10
892.3373669375367
 20
473.6158703627943
 30
0.0
 11
757.3373669375366
 21
473.6158703627943
 31
0.0
  0
LINE
  5
296
102
{ACAD_REACTORS
330
49C
102
}
330
1F
100
AcDbEntity
  8
実線
100
AcDbLine
 10
832.8373669375366
 20
370.6599669113924
 30
0.0
 11
832.8373669375366
 21
408.6158703627942
 31
0.0
  0
LINE
  5
297
102
{ACAD_REACTORS
330
49C
102
}
330
1F
100
AcDbEntity
  8
実線
100
AcDbLine
 10
816.8373669375366
 20
408.6158703627942
 30
0.0
 11
816.8373669375366
 21
370.6599669113924
 31
0.0
  0
LINE
  5
298
102
{ACAD_REACTORS
330
49C
102
}
330
1F
100
AcDbEntity
  8
実線
100
AcDbLine
 10
781.5373669375367
 20
639.3158703627944
 30
0.0
 11
868.1373669375368
 21
639.3158703627944
 31
0.0
  0
LINE
  5
299
102
{ACAD_REACTORS
330
49C
102
}
330
1F
100
AcDbEntity
  8
実線
100
AcDbLine
 10
868.1373669375368
 20
603.3158703627942
 30
0.0
 11
868.1373669375368
 21
639.3158703627944
 31
0.0
  0
LINE
  5
29A
102
{ACAD_REACTORS
330
49C
102
}
330
1F
100
AcDbEntity
  8
実線
100
AcDbLine
 10
781.5373669375367
 20
639.3158703627944
 30
0.0
 11
781.5373669375367
 21
603.3158703627942
 31
0.0
  0
LINE
  5
29B
102
{ACAD_REACTORS
330
49C
102
}
330
1F
100
AcDbEntity
  8
実線
100
AcDbLine
 10
781.5373669375367
 20
603.315870362794
 30
0.0
 11
868.1373669375368
 21
603.315870362794
 31
0.0
  0
LINE
  5
29C
102
{ACAD_REACTORS
330
49C
102
}
330
1F
100
AcDbEntity
  8
実線
100
AcDbLine
 10
781.5373669375367
 20
603.315870362794
 30
0.0
 11
780.8373669375367
 21
599.6158703627941
 31
0.0
  0
LINE
  5
29D
102
{ACAD_REACTORS
330
49C
102
}
330
1F
100
AcDbEntity
  8
実線
100
AcDbLine
 10
868.8373669375366
 20
599.6158703627941
 30
0.0
 11
868.1373669375368
 21
603.3158703627942
 31
0.0
  0
LINE
  5
29E
102
{ACAD_REACTORS
330
49C
102
}
330
1F
100
AcDbEntity
  8
実線
100
AcDbLine
 10
780.8373669375367
 20
599.6158703627941
 30
0.0
 11
868.8373669375366
 21
599.6158703627941
 31
0.0
  0
LINE
  5
29F
102
{ACAD_REACTORS
330
49C
102
}
330
1F
100
AcDbEntity
  8
実線
100
AcDbLine
 10
856.5873669375354
 20
274.2158703627944
 30
0.0
 11
856.5873669375354
 21
280.6158703627943
 31
0.0
  0
LINE
  5
2A0
102
{ACAD_REACTORS
330
49C
102
}
330
1F
100
AcDbEntity
  8
実線
100
AcDbLine
 10
793.0873669375355
 20
280.6158703627943
 30
0.0
 11
793.0873669375355
 21
274.2158703627944
 31
0.0
  0
LINE
  5
2A1
102
{ACAD_REACTORS
330
49C
102
}
330
1F
100
AcDbEntity
  8
実線
100
AcDbLine
 10
786.0873669375355
 20
267.6158703627942
 30
0.0
 11
863.5873669375355
 21
267.6158703627942
 31
0.0
  0
LINE
  5
2A2
102
{ACAD_REACTORS
330
49C
102
}
330
1F
100
AcDbEntity
  8
実線
100
AcDbLine
 10
863.5873669375355
 20
267.6158703627942
 30
0.0
 11
863.5873669375355
 21
271.1158703627942
 31
0.0
  0
LINE
  5
2A3
102
{ACAD_REACTORS
330
49C
102
}
330
1F
100
AcDbEntity
  8
実線
100
AcDbLine
 10
786.0873669375355
 20
271.1158703627942
 30
0.0
 11
786.0873669375355
 21
267.6158703627942
 31
0.0
  0
LINE
  5
2A4
102
{ACAD_REACTORS
330
49C
102
}
330
1F
100
AcDbEntity
  8
実線
100
AcDbLine
 10
786.0873669375355
 20
271.1158703627942
 30
0.0
 11
863.5873669375355
 21
271.1158703627942
 31
0.0
  0
LINE
  5
2A5
102
{ACAD_REACTORS
330
49C
102
}
330
1F
100
AcDbEntity
  8
実線
100
AcDbLine
 10
793.0873669375355
 20
274.2158703627944
 30
0.0
 11
856.5873669375354
 21
274.2158703627944
 31
0.0
  0
LINE
  5
2A6
102
{ACAD_REACTORS
330
49C
102
}
330
1F
100
AcDbEntity
  8
実線
100
AcDbLine
 10
793.0873669375355
 20
274.2158703627944
 30
0.0
 11
786.0873669375355
 21
271.1158703627942
 31
0.0
  0
LINE
  5
2A7
102
{ACAD_REACTORS
330
49C
102
}
330
1F
100
AcDbEntity
  8
実線
100
AcDbLine
 10
863.5873669375355
 20
271.1158703627942
 30
0.0
 11
856.5873669375354
 21
274.2158703627944
 31
0.0
  0
LINE
  5
2A8
102
{ACAD_REACTORS
330
49C
102
}
330
1F
100
AcDbEntity
  8
実線
100
AcDbLine
 10
923.2373669375355
 20
348.3658703627942
 30
0.0
 11
885.6170561153749
 21
348.3658703627942
 31
0.0
  0
LINE
  5
2A9
102
{ACAD_REACTORS
330
49C
102
}
330
1F
100
AcDbEntity
  8
実線
100
AcDbLine
 10
874.6972702520229
 20
284.8658703627942
 30
0.0
 11
923.2373669375355
 21
284.8658703627942
 31
0.0
  0
LINE
  5
2AA
102
{ACAD_REACTORS
330
49C
102
}
330
1F
100
AcDbEntity
  8
実線
100
AcDbLine
 10
923.2373669375355
 20
284.8658703627942
 30
0.0
 11
923.2373669375355
 21
348.3658703627942
 31
0.0
  0
LINE
  5
2AB
102
{ACAD_REACTORS
330
49C
102
}
330
1F
100
AcDbEntity
  8
実線
100
AcDbLine
 10
923.2373669375355
 20
284.8658703627942
 30
0.0
 11
926.3373669375354
 21
277.8658703627942
 31
0.0
  0
LINE
  5
2AC
102
{ACAD_REACTORS
330
49C
102
}
330
1F
100
AcDbEntity
  8
実線
100
AcDbLine
 10
926.3373669375354
 20
355.3658703627942
 30
0.0
 11
923.2373669375355
 21
348.3658703627942
 31
0.0
  0
LINE
  5
2AD
102
{ACAD_REACTORS
330
49C
102
}
330
1F
100
AcDbEntity
  8
実線
100
AcDbLine
 10
929.8373669375354
 20
277.8658703627942
 30
0.0
 11
929.8373669375354
 21
355.3658703627942
 31
0.0
  0
LINE
  5
2AE
102
{ACAD_REACTORS
330
49C
102
}
330
1F
100
AcDbEntity
  8
実線
100
AcDbLine
 10
926.3373669375354
 20
277.8658703627942
 30
0.0
 11
926.3373669375354
 21
355.3658703627942
 31
0.0
  0
LINE
  5
2AF
102
{ACAD_REACTORS
330
49C
102
}
330
1F
100
AcDbEntity
  8
実線
100
AcDbLine
 10
929.8373669375354
 20
355.3658703627942
 30
0.0
 11
926.3373669375354
 21
355.3658703627942
 31
0.0
  0
LINE
  5
2B0
102
{ACAD_REACTORS
330
49C
102
}
330
1F
100
AcDbEntity
  8
実線
100
AcDbLine
 10
926.3373669375354
 20
277.8658703627942
 30
0.0
 11
929.8373669375354
 21
277.8658703627942
 31
0.0
  0
LINE
  5
2B1
102
{ACAD_REACTORS
330
49C
102
}
330
1F
100
AcDbEntity
  8
実線
100
AcDbLine
 10
778.8373669375366
 20
592.6158703627943
 30
0.0
 11
870.8373669375367
 21
592.6158703627943
 31
0.0
  0
LINE
  5
2B2
102
{ACAD_REACTORS
330
49C
102
}
330
1F
100
AcDbEntity
  8
実線
100
AcDbLine
 10
870.8373669375367
 20
581.6158703627942
 30
0.0
 11
870.8373669375367
 21
592.6158703627943
 31
0.0
  0
LINE
  5
2B3
102
{ACAD_REACTORS
330
49C
102
}
330
1F
100
AcDbEntity
  8
実線
100
AcDbLine
 10
778.8373669375366
 20
592.6158703627943
 30
0.0
 11
778.8373669375366
 21
581.6158703627942
 31
0.0
  0
LINE
  5
2B4
102
{ACAD_REACTORS
330
49C
102
}
330
1F
100
AcDbEntity
  8
実線
100
AcDbLine
 10
841.8373669375366
 20
592.6158703627943
 30
0.0
 11
841.8373669375366
 21
599.6158703627941
 31
0.0
  0
LINE
  5
2B5
102
{ACAD_REACTORS
330
49C
102
}
330
1F
100
AcDbEntity
  8
実線
100
AcDbLine
 10
807.8373669375366
 20
599.6158703627943
 30
0.0
 11
807.8373669375366
 21
592.6158703627943
 31
0.0
  0
LINE
  5
2B6
102
{ACAD_REACTORS
330
49C
102
}
330
1F
100
AcDbEntity
  8
実線
100
AcDbLine
 10
867.3373669375354
 20
639.3158703627944
 30
0.0
 11
867.3373669375354
 21
716.3158703627945
 31
0.0
  0
LINE
  5
2B7
102
{ACAD_REACTORS
330
49C
102
}
330
1F
100
AcDbEntity
  8
実線
100
AcDbLine
 10
782.3373669375366
 20
716.3158703627945
 30
0.0
 11
782.3373669375366
 21
639.3158703627944
 31
0.0
  0
LINE
  5
2B8
102
{ACAD_REACTORS
330
49C
102
}
330
1F
100
AcDbEntity
  8
実線
100
AcDbLine
 10
808.3373669375367
 20
725.5158703627942
 30
0.0
 11
841.3373669375367
 21
725.5158703627942
 31
0.0
  0
LINE
  5
2B9
102
{ACAD_REACTORS
330
49C
102
}
330
1F
100
AcDbEntity
  8
実線
100
AcDbLine
 10
808.3373669375367
 20
725.5158703627942
 30
0.0
 11
782.3373669375355
 21
716.3158703627945
 31
0.0
  0
LINE
  5
2BA
102
{ACAD_REACTORS
330
49C
102
}
330
1F
100
AcDbEntity
  8
実線
100
AcDbLine
 10
867.3373669375354
 20
716.3158703627945
 30
0.0
 11
841.3373669375367
 21
725.5158703627942
 31
0.0
  0
LINE
  5
2BB
102
{ACAD_REACTORS
330
49C
102
}
330
1F
100
AcDbEntity
  8
実線
100
AcDbLine
 10
782.3373669375355
 20
716.3158703627945
 30
0.0
 11
867.3373669375354
 21
716.3158703627945
 31
0.0
  0
ARC
  5
2BC
102
{ACAD_REACTORS
330
49C
102
}
330
1F
100
AcDbEntity
  8
実線
100
AcDbCircle
 10
829.5373669375367
 20
422.1158703627946
 30
0.0
 40
53.0
100
AcDbArc
 50
194.7568156063301
 51
256.3360910030543
  0
ARC
  5
2BD
102
{ACAD_REACTORS
330
49C
102
}
330
1F
100
AcDbEntity
  8
実線
100
AcDbCircle
 10
829.5373669375367
 20
422.1158703627942
 30
0.0
 40
66.99999999999993
100
AcDbArc
 50
180.0
 51
230.2334159308347
  0
LINE
  5
2BE
102
{ACAD_REACTORS
330
49C
102
}
330
1F
100
AcDbEntity
  8
実線
100
AcDbLine
 10
762.5373669375358
 20
473.6158703627943
 30
0.0
 11
762.5373669375367
 21
422.1158703627942
 31
0.0
  0
ARC
  5
2BF
102
{ACAD_REACTORS
330
49C
102
}
330
1F
100
AcDbEntity
  8
実線
100
AcDbCircle
 10
820.1373669375367
 20
422.1158703627946
 30
0.0
 40
53.0
100
AcDbArc
 50
283.6639089969457
 51
345.2431843936698
  0
ARC
  5
2C0
102
{ACAD_REACTORS
330
49C
102
}
330
1F
100
AcDbEntity
  8
実線
100
AcDbCircle
 10
820.1373669375367
 20
422.1158703627942
 30
0.0
 40
66.99999999999993
100
AcDbArc
 50
309.7665840691653
 51
0.0
  0
LINE
  5
2C1
102
{ACAD_REACTORS
330
49C
102
}
330
1F
100
AcDbEntity
  8
実線
100
AcDbLine
 10
887.1373669375355
 20
473.6158703627943
 30
0.0
 11
887.1373669375355
 21
422.1158703627942
 31
0.0
  0
LINE
  5
2C2
102
{ACAD_REACTORS
330
49C
102
}
330
1F
100
AcDbEntity
  8
実線
100
AcDbLine
 10
776.6943508292786
 20
408.6158703627942
 30
0.0
 11
776.6943508292786
 21
473.6158703627943
 31
0.0
  0
LINE
  5
2C3
102
{ACAD_REACTORS
330
49C
102
}
330
1F
100
AcDbEntity
  8
実線
100
AcDbLine
 10
776.6943508292786
 20
408.6158703627942
 30
0.0
 11
872.9803830457948
 21
408.6158703627942
 31
0.0
  0
LINE
  5
2C4
102
{ACAD_REACTORS
330
49C
102
}
330
1F
100
AcDbEntity
  8
実線
100
AcDbLine
 10
872.9803830457948
 20
473.6158703627943
 30
0.0
 11
872.9803830457948
 21
408.6158703627942
 31
0.0
  0
LINE
  5
2C5
102
{ACAD_REACTORS
330
49C
102
}
330
1F
100
AcDbEntity
  8
実線
100
AcDbLine
 10
755.3373669375367
 20
581.6158703627942
 30
0.0
 11
894.3373669375366
 21
581.6158703627942
 31
0.0
  0
ARC
  5
2C6
102
{ACAD_REACTORS
330
49C
102
}
330
1F
100
AcDbEntity
  8
実線
100
AcDbCircle
 10
894.3373669375366
 20
578.6158703627942
 30
0.0
 40
3.0
100
AcDbArc
 50
0.0
 51
90.0
  0
ARC
  5
2C7
102
{ACAD_REACTORS
330
49C
102
}
330
1F
100
AcDbEntity
  8
実線
100
AcDbCircle
 10
755.3373669375367
 20
578.6158703627942
 30
0.0
 40
3.0
100
AcDbArc
 50
90.0
 51
180.0
  0
LINE
  5
2C8
102
{ACAD_REACTORS
330
49C
102
}
330
1F
100
AcDbEntity
  8
実線
100
AcDbLine
 10
897.3373669375366
 20
576.6158703627943
 30
0.0
 11
897.3373669375366
 21
578.6158703627942
 31
0.0
  0
LINE
  5
2C9
102
{ACAD_REACTORS
330
49C
102
}
330
1F
100
AcDbEntity
  8
実線
100
AcDbLine
 10
752.3373669375367
 20
578.6158703627942
 30
0.0
 11
752.3373669375367
 21
576.6158703627943
 31
0.0
  0
LINE
  5
2CA
102
{ACAD_REACTORS
330
49C
102
}
330
1F
100
AcDbEntity
  8
実線
100
AcDbLine
 10
863.8373669375354
 20
280.6158703627943
 30
0.0
 11
785.8373669378138
 21
280.6158703627943
 31
0.0
  0
ARC
  5
2CB
102
{ACAD_REACTORS
330
49C
102
}
330
1F
100
AcDbEntity
  8
実線
100
AcDbCircle
 10
785.8373669375355
 20
296.6158703627942
 30
0.0
 40
16.0
100
AcDbArc
 50
180.0
 51
270.0
  0
ARC
  5
2CC
102
{ACAD_REACTORS
330
49C
102
}
330
1F
100
AcDbEntity
  8
実線
100
AcDbCircle
 10
863.8373669375354
 20
296.6158703627942
 30
0.0
 40
16.0
100
AcDbArc
 50
270.0
 51
312.7455692246515
  0
LINE
  5
2CD
102
{ACAD_REACTORS
330
49C
102
}
330
1F
100
AcDbEntity
  8
実線
100
AcDbLine
 10
769.8373669375357
 20
342.1158703627942
 30
0.0
 11
769.8373669375357
 21
296.6158703627942
 31
0.0
  0
LINE
  5
2CE
102
{ACAD_REACTORS
330
49C
102
}
330
1F
100
AcDbEntity
  8
実線
100
AcDbLine
 10
885.6170561153749
 20
342.1158703627942
 30
0.0
 11
885.6170561153749
 21
357.1158703627943
 31
0.0
  0
LINE
  5
2CF
102
{ACAD_REACTORS
330
49C
102
}
330
1F
100
AcDbEntity
  8
実線
100
AcDbLine
 10
885.6170561153749
 20
342.1158703627942
 30
0.0
 11
851.6473390874766
 21
342.1158703627942
 31
0.0
  0
LINE
  5
2D0
102
{ACAD_REACTORS
330
49C
102
}
330
1F
100
AcDbEntity
  8
実線
100
AcDbLine
 10
764.0576777596968
 20
342.1158703627942
 30
0.0
 11
798.0273947875948
 21
342.1158703627942
 31
0.0
  0
LINE
  5
2D1
102
{ACAD_REACTORS
330
49C
102
}
330
1F
100
AcDbEntity
  8
実線
100
AcDbLine
 10
764.0576777596968
 20
357.1158703627943
 30
0.0
 11
764.0576777596968
 21
342.1158703627942
 31
0.0
  0
LINE
  5
2D2
102
{ACAD_REACTORS
330
49C
102
}
330
1F
100
AcDbEntity
  8
実線
100
AcDbLine
 10
851.6473390874766
 20
342.1158703627942
 30
0.0
 11
851.6473390874766
 21
357.1158703627943
 31
0.0
  0
LINE
  5
2D3
102
{ACAD_REACTORS
330
49C
102
}
330
1F
100
AcDbEntity
  8
実線
100
AcDbLine
 10
798.0273947875948
 20
342.1158703627942
 30
0.0
 11
798.0273947875948
 21
357.1158703627943
 31
0.0
  0
LINE
  5
2D4
102
{ACAD_REACTORS
330
49D
102
}
330
1F
100
AcDbEntity
  8
実線
100
AcDbLine
 10
524.0576777596982
 20
357.1158703627941
 30
0.0
 11
645.617056115376
 21
357.1158703627941
 31
0.0
  0
LINE
  5
2D5
102
{ACAD_REACTORS
330
49D
102
}
330
1F
100
AcDbEntity
  8
実線
100
AcDbLine
 10
524.0576777596982
 20
370.615870362794
 30
0.0
 11
645.617056115376
 21
370.615870362794
 31
0.0
  0
LINE
  5
2D6
102
{ACAD_REACTORS
330
49D
102
}
330
1F
100
AcDbEntity
  8
実線
100
AcDbLine
 10
645.617056115376
 20
357.1158703627941
 30
0.0
 11
645.617056115376
 21
370.615870362794
 31
0.0
  0
LINE
  5
2D7
102
{ACAD_REACTORS
330
49D
102
}
330
1F
100
AcDbEntity
  8
実線
100
AcDbLine
 10
524.0576777596982
 20
370.615870362794
 30
0.0
 11
524.0576777596982
 21
357.1158703627941
 31
0.0
  0
LINE
  5
2D8
102
{ACAD_REACTORS
330
49D
102
}
330
1F
100
AcDbEntity
  8
実線
100
AcDbLine
 10
611.6473390874782
 20
357.1158703627941
 30
0.0
 11
611.6473390874782
 21
370.615870362794
 31
0.0
  0
LINE
  5
2D9
102
{ACAD_REACTORS
330
49D
102
}
330
1F
100
AcDbEntity
  8
実線
100
AcDbLine
 10
558.0273947875962
 20
357.1158703627941
 30
0.0
 11
558.0273947875962
 21
370.615870362794
 31
0.0
  0
LINE
  5
2DA
102
{ACAD_REACTORS
330
49D
102
}
330
1F
100
AcDbEntity
  8
実線
100
AcDbLine
 10
512.3373669375371
 20
475.615870362794
 30
0.0
 11
657.3373669375371
 21
475.615870362794
 31
0.0
  0
LINE
  5
2DB
102
{ACAD_REACTORS
330
49D
102
}
330
1F
100
AcDbEntity
  8
実線
100
AcDbLine
 10
657.3373669375371
 20
475.615870362794
 30
0.0
 11
657.3373669375371
 21
576.6158703627941
 31
0.0
  0
LINE
  5
2DC
102
{ACAD_REACTORS
330
49D
102
}
330
1F
100
AcDbEntity
  8
実線
100
AcDbLine
 10
512.3373669375371
 20
576.6158703627941
 30
0.0
 11
512.3373669375371
 21
475.615870362794
 31
0.0
  0
LINE
  5
2DD
102
{ACAD_REACTORS
330
49D
102
}
330
1F
100
AcDbEntity
  8
実線
100
AcDbLine
 10
517.3373669375371
 20
473.6158703627941
 30
0.0
 11
652.3373669375371
 21
473.6158703627941
 31
0.0
  0
LINE
  5
2DE
102
{ACAD_REACTORS
330
49D
102
}
330
1F
100
AcDbEntity
  8
実線
100
AcDbLine
 10
652.3373669375371
 20
473.6158703627941
 30
0.0
 11
652.3373669375371
 21
475.615870362794
 31
0.0
  0
LINE
  5
2DF
102
{ACAD_REACTORS
330
49D
102
}
330
1F
100
AcDbEntity
  8
実線
100
AcDbLine
 10
517.3373669375371
 20
475.615870362794
 30
0.0
 11
517.3373669375371
 21
473.6158703627941
 31
0.0
  0
LINE
  5
2E0
102
{ACAD_REACTORS
330
49D
102
}
330
1F
100
AcDbEntity
  8
実線
100
AcDbLine
 10
628.1373669375373
 20
639.3158703627943
 30
0.0
 11
541.5373669375371
 21
639.3158703627943
 31
0.0
  0
LINE
  5
2E1
102
{ACAD_REACTORS
330
49D
102
}
330
1F
100
AcDbEntity
  8
実線
100
AcDbLine
 10
628.1373669375373
 20
603.315870362794
 30
0.0
 11
628.1373669375373
 21
639.3158703627943
 31
0.0
  0
LINE
  5
2E2
102
{ACAD_REACTORS
330
49D
102
}
330
1F
100
AcDbEntity
  8
実線
100
AcDbLine
 10
541.5373669375371
 20
639.3158703627943
 30
0.0
 11
541.5373669375371
 21
603.315870362794
 31
0.0
  0
LINE
  5
2E3
102
{ACAD_REACTORS
330
49D
102
}
330
1F
100
AcDbEntity
  8
実線
100
AcDbLine
 10
540.8373669375371
 20
599.6158703627939
 30
0.0
 11
628.8373669375371
 21
599.6158703627939
 31
0.0
  0
LINE
  5
2E4
102
{ACAD_REACTORS
330
49D
102
}
330
1F
100
AcDbEntity
  8
実線
100
AcDbLine
 10
628.1373669375373
 20
603.3158703627938
 30
0.0
 11
541.5373669375371
 21
603.3158703627938
 31
0.0
  0
LINE
  5
2E5
102
{ACAD_REACTORS
330
49D
102
}
330
1F
100
AcDbEntity
  8
実線
100
AcDbLine
 10
541.5373669375371
 20
603.3158703627938
 30
0.0
 11
540.8373669375371
 21
599.6158703627939
 31
0.0
  0
LINE
  5
2E6
102
{ACAD_REACTORS
330
49D
102
}
330
1F
100
AcDbEntity
  8
実線
100
AcDbLine
 10
628.8373669375371
 20
599.6158703627939
 30
0.0
 11
628.1373669375373
 21
603.315870362794
 31
0.0
  0
LINE
  5
2E7
102
{ACAD_REACTORS
330
49D
102
}
330
1F
100
AcDbEntity
  8
実線
100
AcDbLine
 10
616.5873669375471
 20
274.2158703627942
 30
0.0
 11
616.5873669375471
 21
280.615870362794
 31
0.0
  0
LINE
  5
2E8
102
{ACAD_REACTORS
330
49D
102
}
330
1F
100
AcDbEntity
  8
実線
100
AcDbLine
 10
553.0873669375471
 20
280.615870362794
 30
0.0
 11
553.0873669375471
 21
274.2158703627942
 31
0.0
  0
LINE
  5
2E9
102
{ACAD_REACTORS
330
49D
102
}
330
1F
100
AcDbEntity
  8
実線
100
AcDbLine
 10
623.5873669375471
 20
267.615870362794
 30
0.0
 11
546.0873669375471
 21
267.615870362794
 31
0.0
  0
LINE
  5
2EA
102
{ACAD_REACTORS
330
49D
102
}
330
1F
100
AcDbEntity
  8
実線
100
AcDbLine
 10
623.5873669375471
 20
267.615870362794
 30
0.0
 11
623.5873669375471
 21
271.115870362794
 31
0.0
  0
LINE
  5
2EB
102
{ACAD_REACTORS
330
49D
102
}
330
1F
100
AcDbEntity
  8
実線
100
AcDbLine
 10
546.0873669375471
 20
271.115870362794
 30
0.0
 11
546.0873669375471
 21
267.615870362794
 31
0.0
  0
LINE
  5
2EC
102
{ACAD_REACTORS
330
49D
102
}
330
1F
100
AcDbEntity
  8
実線
100
AcDbLine
 10
623.5873669375471
 20
271.115870362794
 30
0.0
 11
546.0873669375471
 21
271.115870362794
 31
0.0
  0
LINE
  5
2ED
102
{ACAD_REACTORS
330
49D
102
}
330
1F
100
AcDbEntity
  8
実線
100
AcDbLine
 10
616.5873669375471
 20
274.2158703627942
 30
0.0
 11
553.0873669375471
 21
274.2158703627942
 31
0.0
  0
LINE
  5
2EE
102
{ACAD_REACTORS
330
49D
102
}
330
1F
100
AcDbEntity
  8
実線
100
AcDbLine
 10
553.0873669375471
 20
274.2158703627942
 30
0.0
 11
546.0873669375471
 21
271.115870362794
 31
0.0
  0
LINE
  5
2EF
102
{ACAD_REACTORS
330
49D
102
}
330
1F
100
AcDbEntity
  8
実線
100
AcDbLine
 10
623.5873669375471
 20
271.115870362794
 30
0.0
 11
616.5873669375471
 21
274.2158703627942
 31
0.0
  0
LINE
  5
2F0
102
{ACAD_REACTORS
330
49D
102
}
330
1F
100
AcDbEntity
  8
実線
100
AcDbLine
 10
630.8373669375371
 20
592.615870362794
 30
0.0
 11
538.8373669375371
 21
592.615870362794
 31
0.0
  0
LINE
  5
2F1
102
{ACAD_REACTORS
330
49D
102
}
330
1F
100
AcDbEntity
  8
実線
100
AcDbLine
 10
630.8373669375371
 20
581.615870362794
 30
0.0
 11
630.8373669375371
 21
592.615870362794
 31
0.0
  0
LINE
  5
2F2
102
{ACAD_REACTORS
330
49D
102
}
330
1F
100
AcDbEntity
  8
実線
100
AcDbLine
 10
538.8373669375371
 20
592.615870362794
 30
0.0
 11
538.8373669375371
 21
581.615870362794
 31
0.0
  0
LINE
  5
2F3
102
{ACAD_REACTORS
330
49D
102
}
330
1F
100
AcDbEntity
  8
実線
100
AcDbLine
 10
601.8373669375371
 20
592.615870362794
 30
0.0
 11
601.8373669375371
 21
599.6158703627939
 31
0.0
  0
LINE
  5
2F4
102
{ACAD_REACTORS
330
49D
102
}
330
1F
100
AcDbEntity
  8
実線
100
AcDbLine
 10
567.8373669375371
 20
599.6158703627941
 30
0.0
 11
567.8373669375371
 21
592.615870362794
 31
0.0
  0
LINE
  5
2F5
102
{ACAD_REACTORS
330
49D
102
}
330
1F
100
AcDbEntity
  8
実線
100
AcDbLine
 10
627.3373669375371
 20
639.3158703627943
 30
0.0
 11
627.3373669375371
 21
716.3158703627942
 31
0.0
  0
LINE
  5
2F6
102
{ACAD_REACTORS
330
49D
102
}
330
1F
100
AcDbEntity
  8
実線
100
AcDbLine
 10
542.3373669375371
 20
716.3158703627942
 30
0.0
 11
542.3373669375371
 21
639.3158703627943
 31
0.0
  0
LINE
  5
2F7
102
{ACAD_REACTORS
330
49D
102
}
330
1F
100
AcDbEntity
  8
実線
100
AcDbLine
 10
542.3373669375371
 20
716.3158703627942
 30
0.0
 11
627.3373669375371
 21
716.3158703627942
 31
0.0
  0
LINE
  5
2F8
102
{ACAD_REACTORS
330
49D
102
}
330
1F
100
AcDbEntity
  8
実線
100
AcDbLine
 10
601.3373669375371
 20
725.5158703627939
 30
0.0
 11
568.3373669375371
 21
725.5158703627939
 31
0.0
  0
LINE
  5
2F9
102
{ACAD_REACTORS
330
49D
102
}
330
1F
100
AcDbEntity
  8
実線
100
AcDbLine
 10
568.3373669375371
 20
725.5158703627939
 30
0.0
 11
542.3373669375371
 21
716.3158703627942
 31
0.0
  0
LINE
  5
2FA
102
{ACAD_REACTORS
330
49D
102
}
330
1F
100
AcDbEntity
  8
実線
100
AcDbLine
 10
627.3373669375371
 20
716.3158703627942
 30
0.0
 11
601.3373669375371
 21
725.5158703627939
 31
0.0
  0
LINE
  5
2FB
102
{ACAD_REACTORS
330
49D
102
}
330
1F
100
AcDbEntity
  8
実線
100
AcDbLine
 10
598.3373669375371
 20
408.615870362794
 30
0.0
 11
634.8373669375371
 21
408.615870362794
 31
0.0
  0
LINE
  5
2FC
102
{ACAD_REACTORS
330
49D
102
}
330
1F
100
AcDbEntity
  8
実線
100
AcDbLine
 10
634.8373669375371
 20
408.615870362794
 30
0.0
 11
634.8373669375371
 21
473.6158703627941
 31
0.0
  0
LINE
  5
2FD
102
{ACAD_REACTORS
330
49D
102
}
330
1F
100
AcDbEntity
  8
実線
100
AcDbLine
 10
534.8373669375371
 20
473.6158703627941
 30
0.0
 11
534.8373669375371
 21
408.615870362794
 31
0.0
  0
LINE
  5
2FE
102
{ACAD_REACTORS
330
49D
102
}
330
1F
100
AcDbEntity
  8
実線
100
AcDbLine
 10
534.8373669375371
 20
408.615870362794
 30
0.0
 11
571.337366937537
 21
408.615870362794
 31
0.0
  0
LINE
  5
2FF
102
{ACAD_REACTORS
330
49D
102
}
330
1F
100
AcDbEntity
  8
実線
100
AcDbLine
 10
571.337366937537
 20
370.6158703627941
 30
0.0
 11
571.337366937537
 21
473.6158703627941
 31
0.0
  0
LINE
  5
300
102
{ACAD_REACTORS
330
49D
102
}
330
1F
100
AcDbEntity
  8
実線
100
AcDbLine
 10
598.3373669375371
 20
370.6158703627941
 30
0.0
 11
598.3373669375371
 21
473.6158703627941
 31
0.0
  0
LINE
  5
301
102
{ACAD_REACTORS
330
49D
102
}
330
1F
100
AcDbEntity
  8
実線
100
AcDbLine
 10
654.3373669375371
 20
581.615870362794
 30
0.0
 11
515.3373669375371
 21
581.615870362794
 31
0.0
  0
ARC
  5
302
102
{ACAD_REACTORS
330
49D
102
}
330
1F
100
AcDbEntity
  8
実線
100
AcDbCircle
 10
654.3373669375371
 20
578.615870362794
 30
0.0
 40
3.0
100
AcDbArc
 50
0.0
 51
90.0
  0
ARC
  5
303
102
{ACAD_REACTORS
330
49D
102
}
330
1F
100
AcDbEntity
  8
実線
100
AcDbCircle
 10
515.3373669375371
 20
578.615870362794
 30
0.0
 40
3.0
100
AcDbArc
 50
90.0
 51
180.0
  0
LINE
  5
304
102
{ACAD_REACTORS
330
49D
102
}
330
1F
100
AcDbEntity
  8
実線
100
AcDbLine
 10
657.3373669375371
 20
576.6158703627941
 30
0.0
 11
512.3373669375371
 21
576.6158703627941
 31
0.0
  0
LINE
  5
305
102
{ACAD_REACTORS
330
49D
102
}
330
1F
100
AcDbEntity
  8
実線
100
AcDbLine
 10
657.3373669375371
 20
576.6158703627941
 30
0.0
 11
657.3373669375371
 21
578.615870362794
 31
0.0
  0
LINE
  5
306
102
{ACAD_REACTORS
330
49D
102
}
330
1F
100
AcDbEntity
  8
実線
100
AcDbLine
 10
512.3373669375371
 20
578.615870362794
 30
0.0
 11
512.3373669375371
 21
576.6158703627941
 31
0.0
  0
LINE
  5
307
102
{ACAD_REACTORS
330
49D
102
}
330
1F
100
AcDbEntity
  8
実線
100
AcDbLine
 10
639.8373669375471
 20
296.615870362794
 30
0.0
 11
639.8373669375471
 21
342.115870362794
 31
0.0
  0
LINE
  5
308
102
{ACAD_REACTORS
330
49D
102
}
330
1F
100
AcDbEntity
  8
実線
100
AcDbLine
 10
529.8373669375471
 20
342.115870362794
 30
0.0
 11
529.8373669375471
 21
296.615870362794
 31
0.0
  0
LINE
  5
309
102
{ACAD_REACTORS
330
49D
102
}
330
1F
100
AcDbEntity
  8
実線
100
AcDbLine
 10
623.8373669375471
 20
280.615870362794
 30
0.0
 11
545.8373669375471
 21
280.615870362794
 31
0.0
  0
ARC
  5
30A
102
{ACAD_REACTORS
330
49D
102
}
330
1F
100
AcDbEntity
  8
実線
100
AcDbCircle
 10
545.8373669375471
 20
296.615870362794
 30
0.0
 40
16.0
100
AcDbArc
 50
180.0
 51
270.0
  0
ARC
  5
30B
102
{ACAD_REACTORS
330
49D
102
}
330
1F
100
AcDbEntity
  8
実線
100
AcDbCircle
 10
623.8373669375471
 20
296.615870362794
 30
0.0
 40
16.0
100
AcDbArc
 50
270.0
 51
0.0
  0
LINE
  5
30C
102
{ACAD_REACTORS
330
49D
102
}
330
1F
100
AcDbEntity
  8
実線
100
AcDbLine
 10
645.6170561153863
 20
342.115870362794
 30
0.0
 11
645.6170561153863
 21
357.1158703627941
 31
0.0
  0
LINE
  5
30D
102
{ACAD_REACTORS
330
49D
102
}
330
1F
100
AcDbEntity
  8
実線
100
AcDbLine
 10
645.6170561153863
 20
342.115870362794
 30
0.0
 11
611.647339087488
 21
342.115870362794
 31
0.0
  0
LINE
  5
30E
102
{ACAD_REACTORS
330
49D
102
}
330
1F
100
AcDbEntity
  8
実線
100
AcDbLine
 10
524.0576777597079
 20
342.115870362794
 30
0.0
 11
558.0273947876062
 21
342.115870362794
 31
0.0
  0
LINE
  5
30F
102
{ACAD_REACTORS
330
49D
102
}
330
1F
100
AcDbEntity
  8
実線
100
AcDbLine
 10
524.0576777597079
 20
357.1158703627941
 30
0.0
 11
524.0576777597079
 21
342.115870362794
 31
0.0
  0
LINE
  5
310
102
{ACAD_REACTORS
330
49D
102
}
330
1F
100
AcDbEntity
  8
実線
100
AcDbLine
 10
611.647339087488
 20
342.115870362794
 30
0.0
 11
611.647339087488
 21
357.1158703627941
 31
0.0
  0
LINE
  5
311
102
{ACAD_REACTORS
330
49D
102
}
330
1F
100
AcDbEntity
  8
実線
100
AcDbLine
 10
558.0273947876062
 20
342.115870362794
 30
0.0
 11
558.0273947876062
 21
357.1158703627941
 31
0.0
  0
LINE
  5
312
102
{ACAD_REACTORS
330
4A0
102
}
330
1F
100
AcDbEntity
  8
実線
100
AcDbLine
 10
44.05767775970827
 20
370.6158703627937
 30
0.0
 11
165.6170561153858
 21
370.6158703627937
 31
0.0
  0
LINE
  5
313
102
{ACAD_REACTORS
330
4A0
102
}
330
1F
100
AcDbEntity
  8
実線
100
AcDbLine
 10
165.6170561153858
 20
357.1158703627938
 30
0.0
 11
165.6170561153858
 21
370.6158703627937
 31
0.0
  0
LINE
  5
314
102
{ACAD_REACTORS
330
4A0
102
}
330
1F
100
AcDbEntity
  8
実線
100
AcDbLine
 10
44.05767775970827
 20
370.6158703627937
 30
0.0
 11
44.05767775970827
 21
357.1158703627938
 31
0.0
  0
LINE
  5
315
102
{ACAD_REACTORS
330
4A0
102
}
330
1F
100
AcDbEntity
  8
実線
100
AcDbLine
 10
131.6473390874882
 20
357.1158703627938
 30
0.0
 11
131.6473390874882
 21
370.6158703627937
 31
0.0
  0
LINE
  5
316
102
{ACAD_REACTORS
330
4A0
102
}
330
1F
100
AcDbEntity
  8
実線
100
AcDbLine
 10
78.02739478760589
 20
357.1158703627938
 30
0.0
 11
78.02739478760589
 21
370.6158703627937
 31
0.0
  0
LINE
  5
317
102
{ACAD_REACTORS
330
4A0
102
}
330
1F
100
AcDbEntity
  8
実線
100
AcDbLine
 10
177.3373669375471
 20
475.6158703627936
 30
0.0
 11
177.3373669375471
 21
576.6158703627938
 31
0.0
  0
LINE
  5
318
102
{ACAD_REACTORS
330
4A0
102
}
330
1F
100
AcDbEntity
  8
実線
100
AcDbLine
 10
32.33736693754702
 20
576.6158703627938
 30
0.0
 11
32.33736693754702
 21
475.6158703627936
 31
0.0
  0
LINE
  5
319
102
{ACAD_REACTORS
330
4A0
102
}
330
1F
100
AcDbEntity
  8
実線
100
AcDbLine
 10
177.3373669375471
 20
576.6158703627938
 30
0.0
 11
32.33736693754702
 21
576.6158703627938
 31
0.0
  0
LINE
  5
31A
102
{ACAD_REACTORS
330
4A0
102
}
330
1F
100
AcDbEntity
  8
実線
100
AcDbLine
 10
177.3373669375471
 20
475.6158703627936
 30
0.0
 11
32.33736693754702
 21
475.6158703627936
 31
0.0
  0
LINE
  5
31B
102
{ACAD_REACTORS
330
4A0
102
}
330
1F
100
AcDbEntity
  8
実線
100
AcDbLine
 10
172.3373669375471
 20
473.6158703627937
 30
0.0
 11
172.3373669375471
 21
475.6158703627936
 31
0.0
  0
LINE
  5
31C
102
{ACAD_REACTORS
330
4A0
102
}
330
1F
100
AcDbEntity
  8
実線
100
AcDbLine
 10
37.33736693754702
 20
475.6158703627936
 30
0.0
 11
37.33736693754702
 21
473.6158703627937
 31
0.0
  0
LINE
  5
31D
102
{ACAD_REACTORS
330
4A0
102
}
330
1F
100
AcDbEntity
  8
実線
100
AcDbLine
 10
172.3373669375471
 20
473.6158703627937
 30
0.0
 11
37.33736693754702
 21
473.6158703627937
 31
0.0
  0
LINE
  5
31E
102
{ACAD_REACTORS
330
4A0
102
}
330
1F
100
AcDbEntity
  8
実線
100
AcDbLine
 10
148.1373669375471
 20
603.3158703627937
 30
0.0
 11
148.1373669375471
 21
639.3158703627939
 31
0.0
  0
LINE
  5
31F
102
{ACAD_REACTORS
330
4A0
102
}
330
1F
100
AcDbEntity
  8
実線
100
AcDbLine
 10
61.53736693754706
 20
639.3158703627939
 30
0.0
 11
61.53736693754706
 21
603.3158703627937
 31
0.0
  0
LINE
  5
320
102
{ACAD_REACTORS
330
4A0
102
}
330
1F
100
AcDbEntity
  8
実線
100
AcDbLine
 10
148.1373669375471
 20
639.3158703627939
 30
0.0
 11
61.53736693754706
 21
639.3158703627939
 31
0.0
  0
LINE
  5
321
102
{ACAD_REACTORS
330
4A0
102
}
330
1F
100
AcDbEntity
  8
実線
100
AcDbLine
 10
61.53736693754706
 20
603.3158703627934
 30
0.0
 11
60.83736693754701
 21
599.6158703627935
 31
0.0
  0
LINE
  5
322
102
{ACAD_REACTORS
330
4A0
102
}
330
1F
100
AcDbEntity
  8
実線
100
AcDbLine
 10
148.8373669375469
 20
599.6158703627935
 30
0.0
 11
148.1373669375471
 21
603.3158703627937
 31
0.0
  0
LINE
  5
323
102
{ACAD_REACTORS
330
4A0
102
}
330
1F
100
AcDbEntity
  8
実線
100
AcDbLine
 10
60.83736693754701
 20
599.6158703627935
 30
0.0
 11
148.8373669375469
 21
599.6158703627935
 31
0.0
  0
LINE
  5
324
102
{ACAD_REACTORS
330
4A0
102
}
330
1F
100
AcDbEntity
  8
実線
100
AcDbLine
 10
148.1373669375471
 20
603.3158703627934
 30
0.0
 11
61.53736693754706
 21
603.3158703627934
 31
0.0
  0
LINE
  5
325
102
{ACAD_REACTORS
330
4A0
102
}
330
1F
100
AcDbEntity
  8
実線
100
AcDbLine
 10
136.5873669375369
 20
274.2158703627938
 30
0.0
 11
136.5873669375369
 21
280.6158703627937
 31
0.0
  0
LINE
  5
326
102
{ACAD_REACTORS
330
4A0
102
}
330
1F
100
AcDbEntity
  8
実線
100
AcDbLine
 10
73.08736693753695
 20
280.6158703627937
 30
0.0
 11
73.08736693753695
 21
274.2158703627938
 31
0.0
  0
LINE
  5
327
102
{ACAD_REACTORS
330
4A0
102
}
330
1F
100
AcDbEntity
  8
実線
100
AcDbLine
 10
143.5873669375369
 20
267.6158703627937
 30
0.0
 11
143.5873669375369
 21
271.1158703627936
 31
0.0
  0
LINE
  5
328
102
{ACAD_REACTORS
330
4A0
102
}
330
1F
100
AcDbEntity
  8
実線
100
AcDbLine
 10
66.08736693753695
 20
271.1158703627936
 30
0.0
 11
66.08736693753695
 21
267.6158703627937
 31
0.0
  0
LINE
  5
329
102
{ACAD_REACTORS
330
4A0
102
}
330
1F
100
AcDbEntity
  8
実線
100
AcDbLine
 10
66.08736693753695
 20
267.6158703627937
 30
0.0
 11
143.5873669375369
 21
267.6158703627937
 31
0.0
  0
LINE
  5
32A
102
{ACAD_REACTORS
330
4A0
102
}
330
1F
100
AcDbEntity
  8
実線
100
AcDbLine
 10
73.08736693753695
 20
274.2158703627938
 30
0.0
 11
66.08736693753695
 21
271.1158703627936
 31
0.0
  0
LINE
  5
32B
102
{ACAD_REACTORS
330
4A0
102
}
330
1F
100
AcDbEntity
  8
実線
100
AcDbLine
 10
143.5873669375369
 20
271.1158703627936
 30
0.0
 11
136.5873669375369
 21
274.2158703627938
 31
0.0
  0
LINE
  5
32C
102
{ACAD_REACTORS
330
4A0
102
}
330
1F
100
AcDbEntity
  8
実線
100
AcDbLine
 10
66.08736693753695
 20
271.1158703627936
 30
0.0
 11
143.5873669375369
 21
271.1158703627936
 31
0.0
  0
LINE
  5
32D
102
{ACAD_REACTORS
330
4A0
102
}
330
1F
100
AcDbEntity
  8
実線
100
AcDbLine
 10
73.08736693753695
 20
274.2158703627938
 30
0.0
 11
136.5873669375369
 21
274.2158703627938
 31
0.0
  0
CIRCLE
  5
32E
102
{ACAD_REACTORS
330
4A0
102
}
330
1F
100
AcDbEntity
  8
実線
100
AcDbCircle
 10
104.8373669375369
 20
316.6158703627937
 30
0.0
 40
38.75
  0
LINE
  5
32F
102
{ACAD_REACTORS
330
4A0
102
}
330
1F
100
AcDbEntity
  8
実線
100
AcDbLine
 10
150.8373669375469
 20
581.6158703627936
 30
0.0
 11
150.8373669375469
 21
592.6158703627938
 31
0.0
  0
LINE
  5
330
102
{ACAD_REACTORS
330
4A0
102
}
330
1F
100
AcDbEntity
  8
実線
100
AcDbLine
 10
58.8373669375469
 20
592.6158703627938
 30
0.0
 11
58.8373669375469
 21
581.6158703627936
 31
0.0
  0
LINE
  5
331
102
{ACAD_REACTORS
330
4A0
102
}
330
1F
100
AcDbEntity
  8
実線
100
AcDbLine
 10
150.8373669375469
 20
592.6158703627938
 30
0.0
 11
58.8373669375469
 21
592.6158703627938
 31
0.0
  0
LINE
  5
332
102
{ACAD_REACTORS
330
4A0
102
}
330
1F
100
AcDbEntity
  8
実線
100
AcDbLine
 10
121.8373669375471
 20
592.6158703627938
 30
0.0
 11
121.8373669375471
 21
599.6158703627935
 31
0.0
  0
LINE
  5
333
102
{ACAD_REACTORS
330
4A0
102
}
330
1F
100
AcDbEntity
  8
実線
100
AcDbLine
 10
87.83736693754702
 20
599.6158703627937
 30
0.0
 11
87.83736693754702
 21
592.6158703627938
 31
0.0
  0
LINE
  5
334
102
{ACAD_REACTORS
330
4A0
102
}
330
1F
100
AcDbEntity
  8
実線
100
AcDbLine
 10
147.3373669375471
 20
639.3158703627939
 30
0.0
 11
147.3373669375471
 21
716.3158703627939
 31
0.0
  0
LINE
  5
335
102
{ACAD_REACTORS
330
4A0
102
}
330
1F
100
AcDbEntity
  8
実線
100
AcDbLine
 10
62.33736693754702
 20
716.3158703627939
 30
0.0
 11
62.33736693754702
 21
639.3158703627939
 31
0.0
  0
LINE
  5
336
102
{ACAD_REACTORS
330
4A0
102
}
330
1F
100
AcDbEntity
  8
実線
100
AcDbLine
 10
88.33736693754691
 20
725.5158703627936
 30
0.0
 11
62.33736693754702
 21
716.3158703627939
 31
0.0
  0
LINE
  5
337
102
{ACAD_REACTORS
330
4A0
102
}
330
1F
100
AcDbEntity
  8
実線
100
AcDbLine
 10
147.3373669375471
 20
716.3158703627939
 30
0.0
 11
121.3373669375469
 21
725.5158703627936
 31
0.0
  0
LINE
  5
338
102
{ACAD_REACTORS
330
4A0
102
}
330
1F
100
AcDbEntity
  8
実線
100
AcDbLine
 10
62.33736693754702
 20
716.3158703627939
 30
0.0
 11
147.3373669375471
 21
716.3158703627939
 31
0.0
  0
LINE
  5
339
102
{ACAD_REACTORS
330
4A0
102
}
330
1F
100
AcDbEntity
  8
実線
100
AcDbLine
 10
121.3373669375469
 20
725.5158703627936
 30
0.0
 11
88.33736693754691
 21
725.5158703627936
 31
0.0
  0
LINE
  5
33A
102
{ACAD_REACTORS
330
4A0
102
}
330
1F
100
AcDbEntity
  8
実線
100
AcDbLine
 10
54.83736693754702
 20
473.6158703627937
 30
0.0
 11
54.83736693754702
 21
408.6158703627936
 31
0.0
  0
LINE
  5
33B
102
{ACAD_REACTORS
330
4A0
102
}
330
1F
100
AcDbEntity
  8
実線
100
AcDbLine
 10
54.83736693754702
 20
408.6158703627936
 30
0.0
 11
91.33736693754702
 21
408.6158703627936
 31
0.0
  0
LINE
  5
33C
102
{ACAD_REACTORS
330
4A0
102
}
330
1F
100
AcDbEntity
  8
実線
100
AcDbLine
 10
118.3373669375471
 20
408.6158703627936
 30
0.0
 11
154.8373669375471
 21
408.6158703627936
 31
0.0
  0
LINE
  5
33D
102
{ACAD_REACTORS
330
4A0
102
}
330
1F
100
AcDbEntity
  8
実線
100
AcDbLine
 10
154.8373669375471
 20
408.6158703627936
 30
0.0
 11
154.8373669375471
 21
473.6158703627937
 31
0.0
  0
LINE
  5
33E
102
{ACAD_REACTORS
330
4A0
102
}
330
1F
100
AcDbEntity
  8
実線
100
AcDbLine
 10
118.3373669375471
 20
370.6158703627938
 30
0.0
 11
118.3373669375471
 21
473.6158703627937
 31
0.0
  0
LINE
  5
33F
102
{ACAD_REACTORS
330
4A0
102
}
330
1F
100
AcDbEntity
  8
実線
100
AcDbLine
 10
91.33736693754702
 20
370.6158703627938
 30
0.0
 11
91.33736693754702
 21
473.6158703627937
 31
0.0
  0
LINE
  5
340
102
{ACAD_REACTORS
330
4A0
102
}
330
1F
100
AcDbEntity
  8
実線
100
AcDbLine
 10
35.33736693754702
 20
581.6158703627936
 30
0.0
 11
174.3373669375471
 21
581.6158703627936
 31
0.0
  0
ARC
  5
341
102
{ACAD_REACTORS
330
4A0
102
}
330
1F
100
AcDbEntity
  8
実線
100
AcDbCircle
 10
174.3373669375471
 20
578.6158703627936
 30
0.0
 40
3.0
100
AcDbArc
 50
0.0
 51
90.0
  0
ARC
  5
342
102
{ACAD_REACTORS
330
4A0
102
}
330
1F
100
AcDbEntity
  8
実線
100
AcDbCircle
 10
35.33736693754702
 20
578.6158703627936
 30
0.0
 40
3.0
100
AcDbArc
 50
90.0
 51
180.0
  0
LINE
  5
343
102
{ACAD_REACTORS
330
4A0
102
}
330
1F
100
AcDbEntity
  8
実線
100
AcDbLine
 10
177.3373669375471
 20
576.6158703627938
 30
0.0
 11
177.3373669375471
 21
578.6158703627936
 31
0.0
  0
LINE
  5
344
102
{ACAD_REACTORS
330
4A0
102
}
330
1F
100
AcDbEntity
  8
実線
100
AcDbLine
 10
32.33736693754702
 20
578.6158703627936
 30
0.0
 11
32.33736693754702
 21
576.6158703627938
 31
0.0
  0
LINE
  5
345
102
{ACAD_REACTORS
330
4A0
102
}
330
1F
100
AcDbEntity
  8
実線
100
AcDbLine
 10
90.49991597859735
 20
280.6158703627937
 30
0.0
 11
65.83736693753696
 21
280.6158703627937
 31
0.0
  0
LINE
  5
346
102
{ACAD_REACTORS
330
4A0
102
}
330
1F
100
AcDbEntity
  8
実線
100
AcDbLine
 10
143.8373669375369
 20
280.6158703627937
 30
0.0
 11
119.1748178964767
 21
280.6158703627937
 31
0.0
  0
ARC
  5
347
102
{ACAD_REACTORS
330
4A0
102
}
330
1F
100
AcDbEntity
  8
実線
100
AcDbCircle
 10
65.83736693753696
 20
296.6158703627936
 30
0.0
 40
16.0
100
AcDbArc
 50
180.0
 51
270.0
  0
ARC
  5
348
102
{ACAD_REACTORS
330
4A0
102
}
330
1F
100
AcDbEntity
  8
実線
100
AcDbCircle
 10
143.8373669375369
 20
296.6158703627936
 30
0.0
 40
16.0
100
AcDbArc
 50
270.0
 51
0.0
  0
LINE
  5
349
102
{ACAD_REACTORS
330
4A0
102
}
330
1F
100
AcDbEntity
  8
実線
100
AcDbLine
 10
44.05767775969809
 20
357.1158703627938
 30
0.0
 11
165.6170561153758
 21
357.1158703627938
 31
0.0
  0
LINE
  5
34A
102
{ACAD_REACTORS
330
4A0
102
}
330
1F
100
AcDbEntity
  8
実線
100
AcDbLine
 10
159.8373669375369
 20
296.6158703627936
 30
0.0
 11
159.8373669375369
 21
342.1158703627936
 31
0.0
  0
LINE
  5
34B
102
{ACAD_REACTORS
330
4A0
102
}
330
1F
100
AcDbEntity
  8
実線
100
AcDbLine
 10
49.83736693753695
 20
342.1158703627936
 30
0.0
 11
49.83736693753695
 21
296.6158703627936
 31
0.0
  0
LINE
  5
34C
102
{ACAD_REACTORS
330
4A0
102
}
330
1F
100
AcDbEntity
  8
実線
100
AcDbLine
 10
165.6170561153758
 20
342.1158703627936
 30
0.0
 11
165.6170561153758
 21
357.1158703627938
 31
0.0
  0
LINE
  5
34D
102
{ACAD_REACTORS
330
4A0
102
}
330
1F
100
AcDbEntity
  8
実線
100
AcDbLine
 10
165.6170561153758
 20
342.1158703627936
 30
0.0
 11
134.0146269185565
 21
342.1158703627936
 31
0.0
  0
LINE
  5
34E
102
{ACAD_REACTORS
330
4A0
102
}
330
1F
100
AcDbEntity
  8
実線
100
AcDbLine
 10
44.05767775969809
 20
342.1158703627936
 30
0.0
 11
75.66010695651744
 21
342.1158703627936
 31
0.0
  0
LINE
  5
34F
102
{ACAD_REACTORS
330
4A0
102
}
330
1F
100
AcDbEntity
  8
実線
100
AcDbLine
 10
44.05767775969809
 20
357.1158703627938
 30
0.0
 11
44.05767775969809
 21
342.1158703627936
 31
0.0
  0
LINE
  5
350
102
{ACAD_REACTORS
330
4A0
102
}
330
1F
100
AcDbEntity
  8
実線
100
AcDbLine
 10
131.6473390874781
 20
344.5942172281712
 30
0.0
 11
131.6473390874781
 21
357.1158703627938
 31
0.0
  0
LINE
  5
351
102
{ACAD_REACTORS
330
4A0
102
}
330
1F
100
AcDbEntity
  8
実線
100
AcDbLine
 10
78.02739478759576
 20
344.5942172281712
 30
0.0
 11
78.02739478759576
 21
357.1158703627938
 31
0.0
  0
LINE
  5
352
102
{ACAD_REACTORS
330
49F
102
}
330
1F
100
AcDbEntity
  8
実線
100
AcDbLine
 10
405.6170561153757
 20
357.1158703627939
 30
0.0
 11
284.0576777596987
 21
357.1158703627939
 31
0.0
  0
LINE
  5
353
102
{ACAD_REACTORS
330
49F
102
}
330
1F
100
AcDbEntity
  8
実線
100
AcDbLine
 10
405.6170561153757
 20
370.6158703627938
 30
0.0
 11
284.0576777596987
 21
370.6158703627938
 31
0.0
  0
LINE
  5
354
102
{ACAD_REACTORS
330
49F
102
}
330
1F
100
AcDbEntity
  8
実線
100
AcDbLine
 10
284.0576777596987
 20
370.6158703627938
 30
0.0
 11
284.0576777596987
 21
357.1158703627939
 31
0.0
  0
LINE
  5
355
102
{ACAD_REACTORS
330
49F
102
}
330
1F
100
AcDbEntity
  8
実線
100
AcDbLine
 10
405.6170561153757
 20
357.1158703627939
 30
0.0
 11
405.6170561153757
 21
370.6158703627938
 31
0.0
  0
LINE
  5
356
102
{ACAD_REACTORS
330
49F
102
}
330
1F
100
AcDbEntity
  8
実線
100
AcDbLine
 10
318.0273947875956
 20
357.1158703627939
 30
0.0
 11
318.0273947875956
 21
370.6158703627938
 31
0.0
  0
LINE
  5
357
102
{ACAD_REACTORS
330
49F
102
}
330
1F
100
AcDbEntity
  8
実線
100
AcDbLine
 10
371.6473390874782
 20
357.1158703627939
 30
0.0
 11
371.6473390874782
 21
370.6158703627938
 31
0.0
  0
LINE
  5
358
102
{ACAD_REACTORS
330
49F
102
}
330
1F
100
AcDbEntity
  8
実線
100
AcDbLine
 10
417.3373669375369
 20
475.6158703627938
 30
0.0
 11
272.337366937537
 21
475.6158703627938
 31
0.0
  0
LINE
  5
359
102
{ACAD_REACTORS
330
49F
102
}
330
1F
100
AcDbEntity
  8
実線
100
AcDbLine
 10
417.3373669375369
 20
475.6158703627938
 30
0.0
 11
417.3373669375369
 21
576.6158703627938
 31
0.0
  0
LINE
  5
35A
102
{ACAD_REACTORS
330
49F
102
}
330
1F
100
AcDbEntity
  8
実線
100
AcDbLine
 10
272.337366937537
 20
576.6158703627938
 30
0.0
 11
272.337366937537
 21
475.6158703627938
 31
0.0
  0
LINE
  5
35B
102
{ACAD_REACTORS
330
49F
102
}
330
1F
100
AcDbEntity
  8
実線
100
AcDbLine
 10
417.3373669375369
 20
576.6158703627938
 30
0.0
 11
272.337366937537
 21
576.6158703627938
 31
0.0
  0
LINE
  5
35C
102
{ACAD_REACTORS
330
49F
102
}
330
1F
100
AcDbEntity
  8
実線
100
AcDbLine
 10
412.3373669375369
 20
473.6158703627938
 30
0.0
 11
277.337366937537
 21
473.6158703627938
 31
0.0
  0
LINE
  5
35D
102
{ACAD_REACTORS
330
49F
102
}
330
1F
100
AcDbEntity
  8
実線
100
AcDbLine
 10
412.3373669375369
 20
473.6158703627938
 30
0.0
 11
412.3373669375369
 21
475.6158703627938
 31
0.0
  0
LINE
  5
35E
102
{ACAD_REACTORS
330
49F
102
}
330
1F
100
AcDbEntity
  8
実線
100
AcDbLine
 10
277.3373669375369
 20
475.6158703627938
 30
0.0
 11
277.3373669375369
 21
473.6158703627938
 31
0.0
  0
LINE
  5
35F
102
{ACAD_REACTORS
330
49F
102
}
330
1F
100
AcDbEntity
  8
実線
100
AcDbLine
 10
352.8373669375369
 20
370.659966911392
 30
0.0
 11
352.8373669375369
 21
408.6158703627937
 31
0.0
  0
LINE
  5
360
102
{ACAD_REACTORS
330
49F
102
}
330
1F
100
AcDbEntity
  8
実線
100
AcDbLine
 10
336.8373669375369
 20
408.6158703627937
 30
0.0
 11
336.8373669375369
 21
370.659966911392
 31
0.0
  0
LINE
  5
361
102
{ACAD_REACTORS
330
49F
102
}
330
1F
100
AcDbEntity
  8
実線
100
AcDbLine
 10
388.1373669375371
 20
603.3158703627938
 30
0.0
 11
388.1373669375371
 21
639.315870362794
 31
0.0
  0
LINE
  5
362
102
{ACAD_REACTORS
330
49F
102
}
330
1F
100
AcDbEntity
  8
実線
100
AcDbLine
 10
301.537366937537
 20
639.315870362794
 30
0.0
 11
301.537366937537
 21
603.3158703627938
 31
0.0
  0
LINE
  5
363
102
{ACAD_REACTORS
330
49F
102
}
330
1F
100
AcDbEntity
  8
実線
100
AcDbLine
 10
388.1373669375371
 20
639.315870362794
 30
0.0
 11
301.537366937537
 21
639.315870362794
 31
0.0
  0
LINE
  5
364
102
{ACAD_REACTORS
330
49F
102
}
330
1F
100
AcDbEntity
  8
実線
100
AcDbLine
 10
388.8373669375369
 20
599.6158703627936
 30
0.0
 11
300.837366937537
 21
599.6158703627936
 31
0.0
  0
LINE
  5
365
102
{ACAD_REACTORS
330
49F
102
}
330
1F
100
AcDbEntity
  8
実線
100
AcDbLine
 10
301.537366937537
 20
603.3158703627935
 30
0.0
 11
300.837366937537
 21
599.6158703627936
 31
0.0
  0
LINE
  5
366
102
{ACAD_REACTORS
330
49F
102
}
330
1F
100
AcDbEntity
  8
実線
100
AcDbLine
 10
388.8373669375369
 20
599.6158703627936
 30
0.0
 11
388.1373669375368
 21
603.3158703627938
 31
0.0
  0
LINE
  5
367
102
{ACAD_REACTORS
330
49F
102
}
330
1F
100
AcDbEntity
  8
実線
100
AcDbLine
 10
388.1373669375371
 20
603.3158703627935
 30
0.0
 11
301.537366937537
 21
603.3158703627935
 31
0.0
  0
LINE
  5
368
102
{ACAD_REACTORS
330
49F
102
}
330
1F
100
AcDbEntity
  8
実線
100
AcDbLine
 10
376.5873669375377
 20
274.2158703627939
 30
0.0
 11
376.5873669375377
 21
280.6158703627938
 31
0.0
  0
LINE
  5
369
102
{ACAD_REACTORS
330
49F
102
}
330
1F
100
AcDbEntity
  8
実線
100
AcDbLine
 10
313.0873669375377
 20
280.6158703627938
 30
0.0
 11
313.0873669375377
 21
274.2158703627939
 31
0.0
  0
LINE
  5
36A
102
{ACAD_REACTORS
330
49F
102
}
330
1F
100
AcDbEntity
  8
実線
100
AcDbLine
 10
313.0873669375377
 20
274.2158703627939
 30
0.0
 11
306.0873669375377
 21
271.1158703627938
 31
0.0
  0
LINE
  5
36B
102
{ACAD_REACTORS
330
49F
102
}
330
1F
100
AcDbEntity
  8
実線
100
AcDbLine
 10
383.5873669375377
 20
271.1158703627938
 30
0.0
 11
376.5873669375377
 21
274.2158703627939
 31
0.0
  0
LINE
  5
36C
102
{ACAD_REACTORS
330
49F
102
}
330
1F
100
AcDbEntity
  8
実線
100
AcDbLine
 10
313.0873669375377
 20
274.2158703627939
 30
0.0
 11
376.5873669375377
 21
274.2158703627939
 31
0.0
  0
LINE
  5
36D
102
{ACAD_REACTORS
330
49F
102
}
330
1F
100
AcDbEntity
  8
実線
100
AcDbLine
 10
383.5873669375377
 20
267.6158703627938
 30
0.0
 11
383.5873669375377
 21
271.1158703627938
 31
0.0
  0
LINE
  5
36E
102
{ACAD_REACTORS
330
49F
102
}
330
1F
100
AcDbEntity
  8
実線
100
AcDbLine
 10
306.0873669375377
 20
271.1158703627938
 30
0.0
 11
306.0873669375377
 21
267.6158703627938
 31
0.0
  0
LINE
  5
36F
102
{ACAD_REACTORS
330
49F
102
}
330
1F
100
AcDbEntity
  8
実線
100
AcDbLine
 10
383.5873669375377
 20
267.6158703627938
 30
0.0
 11
306.0873669375377
 21
267.6158703627938
 31
0.0
  0
LINE
  5
370
102
{ACAD_REACTORS
330
49F
102
}
330
1F
100
AcDbEntity
  8
実線
100
AcDbLine
 10
383.5873669375377
 20
271.1158703627938
 30
0.0
 11
306.0873669375377
 21
271.1158703627938
 31
0.0
  0
LINE
  5
371
102
{ACAD_REACTORS
330
49F
102
}
330
1F
100
AcDbEntity
  8
実線
100
AcDbLine
 10
246.4373669375377
 20
284.8658703627938
 30
0.0
 11
294.9774636230509
 21
284.8658703627938
 31
0.0
  0
LINE
  5
372
102
{ACAD_REACTORS
330
49F
102
}
330
1F
100
AcDbEntity
  8
実線
100
AcDbLine
 10
284.0576777596987
 20
348.3658703627938
 30
0.0
 11
246.4373669375377
 21
348.3658703627938
 31
0.0
  0
LINE
  5
373
102
{ACAD_REACTORS
330
49F
102
}
330
1F
100
AcDbEntity
  8
実線
100
AcDbLine
 10
246.4373669375377
 20
348.3658703627938
 30
0.0
 11
243.3373669375375
 21
355.3658703627938
 31
0.0
  0
LINE
  5
374
102
{ACAD_REACTORS
330
49F
102
}
330
1F
100
AcDbEntity
  8
実線
100
AcDbLine
 10
243.3373669375375
 20
277.8658703627938
 30
0.0
 11
246.4373669375377
 21
284.8658703627938
 31
0.0
  0
LINE
  5
375
102
{ACAD_REACTORS
330
49F
102
}
330
1F
100
AcDbEntity
  8
実線
100
AcDbLine
 10
246.4373669375377
 20
348.3658703627938
 30
0.0
 11
246.4373669375377
 21
284.8658703627938
 31
0.0
  0
LINE
  5
376
102
{ACAD_REACTORS
330
49F
102
}
330
1F
100
AcDbEntity
  8
実線
100
AcDbLine
 10
239.8373669375377
 20
277.8658703627938
 30
0.0
 11
243.3373669375375
 21
277.8658703627938
 31
0.0
  0
LINE
  5
377
102
{ACAD_REACTORS
330
49F
102
}
330
1F
100
AcDbEntity
  8
実線
100
AcDbLine
 10
243.3373669375375
 20
355.3658703627938
 30
0.0
 11
239.8373669375377
 21
355.3658703627938
 31
0.0
  0
LINE
  5
378
102
{ACAD_REACTORS
330
49F
102
}
330
1F
100
AcDbEntity
  8
実線
100
AcDbLine
 10
239.8373669375377
 20
277.8658703627938
 30
0.0
 11
239.8373669375377
 21
355.3658703627938
 31
0.0
  0
LINE
  5
379
102
{ACAD_REACTORS
330
49F
102
}
330
1F
100
AcDbEntity
  8
実線
100
AcDbLine
 10
243.3373669375375
 20
277.8658703627938
 30
0.0
 11
243.3373669375375
 21
355.3658703627938
 31
0.0
  0
LINE
  5
37A
102
{ACAD_REACTORS
330
49F
102
}
330
1F
100
AcDbEntity
  8
実線
100
AcDbLine
 10
390.8373669375369
 20
581.6158703627937
 30
0.0
 11
390.8373669375369
 21
592.6158703627939
 31
0.0
  0
LINE
  5
37B
102
{ACAD_REACTORS
330
49F
102
}
330
1F
100
AcDbEntity
  8
実線
100
AcDbLine
 10
298.837366937537
 20
592.6158703627939
 30
0.0
 11
298.837366937537
 21
581.6158703627937
 31
0.0
  0
LINE
  5
37C
102
{ACAD_REACTORS
330
49F
102
}
330
1F
100
AcDbEntity
  8
実線
100
AcDbLine
 10
390.8373669375369
 20
592.6158703627939
 30
0.0
 11
298.837366937537
 21
592.6158703627939
 31
0.0
  0
LINE
  5
37D
102
{ACAD_REACTORS
330
49F
102
}
330
1F
100
AcDbEntity
  8
実線
100
AcDbLine
 10
361.8373669375369
 20
592.6158703627939
 30
0.0
 11
361.8373669375369
 21
599.6158703627936
 31
0.0
  0
LINE
  5
37E
102
{ACAD_REACTORS
330
49F
102
}
330
1F
100
AcDbEntity
  8
実線
100
AcDbLine
 10
327.8373669375369
 20
599.6158703627939
 30
0.0
 11
327.8373669375369
 21
592.6158703627939
 31
0.0
  0
LINE
  5
37F
102
{ACAD_REACTORS
330
49F
102
}
330
1F
100
AcDbEntity
  8
実線
100
AcDbLine
 10
387.337366937537
 20
639.315870362794
 30
0.0
 11
387.337366937537
 21
716.315870362794
 31
0.0
  0
LINE
  5
380
102
{ACAD_REACTORS
330
49F
102
}
330
1F
100
AcDbEntity
  8
実線
100
AcDbLine
 10
302.337366937537
 20
716.315870362794
 30
0.0
 11
302.337366937537
 21
639.315870362794
 31
0.0
  0
LINE
  5
381
102
{ACAD_REACTORS
330
49F
102
}
330
1F
100
AcDbEntity
  8
実線
100
AcDbLine
 10
387.337366937537
 20
716.315870362794
 30
0.0
 11
302.3373669375369
 21
716.315870362794
 31
0.0
  0
LINE
  5
382
102
{ACAD_REACTORS
330
49F
102
}
330
1F
100
AcDbEntity
  8
実線
100
AcDbLine
 10
328.337366937537
 20
725.5158703627937
 30
0.0
 11
302.3373669375369
 21
716.315870362794
 31
0.0
  0
LINE
  5
383
102
{ACAD_REACTORS
330
49F
102
}
330
1F
100
AcDbEntity
  8
実線
100
AcDbLine
 10
387.337366937537
 20
716.315870362794
 30
0.0
 11
361.337366937537
 21
725.5158703627937
 31
0.0
  0
LINE
  5
384
102
{ACAD_REACTORS
330
49F
102
}
330
1F
100
AcDbEntity
  8
実線
100
AcDbLine
 10
361.337366937537
 20
725.5158703627937
 30
0.0
 11
328.337366937537
 21
725.5158703627937
 31
0.0
  0
LINE
  5
385
102
{ACAD_REACTORS
330
49F
102
}
330
1F
100
AcDbEntity
  8
実線
100
AcDbLine
 10
282.537366937537
 20
473.6158703627938
 30
0.0
 11
282.537366937537
 21
422.1158703627938
 31
0.0
  0
ARC
  5
386
102
{ACAD_REACTORS
330
49F
102
}
330
1F
100
AcDbEntity
  8
実線
100
AcDbCircle
 10
349.537366937537
 20
422.1158703627938
 30
0.0
 40
66.99999999999993
100
AcDbArc
 50
180.0
 51
230.2334159308347
  0
ARC
  5
387
102
{ACAD_REACTORS
330
49F
102
}
330
1F
100
AcDbEntity
  8
実線
100
AcDbCircle
 10
349.537366937537
 20
422.115870362794
 30
0.0
 40
53.0
100
AcDbArc
 50
194.7568156063301
 51
256.3360910030543
  0
ARC
  5
388
102
{ACAD_REACTORS
330
49F
102
}
330
1F
100
AcDbEntity
  8
実線
100
AcDbCircle
 10
340.1373669375368
 20
422.115870362794
 30
0.0
 40
53.0
100
AcDbArc
 50
283.6639089969457
 51
345.2431843936698
  0
ARC
  5
389
102
{ACAD_REACTORS
330
49F
102
}
330
1F
100
AcDbEntity
  8
実線
100
AcDbCircle
 10
340.1373669375372
 20
422.1158703627938
 30
0.0
 40
66.99999999999993
100
AcDbArc
 50
309.7665840691653
 51
0.0
  0
LINE
  5
38A
102
{ACAD_REACTORS
330
49F
102
}
330
1F
100
AcDbEntity
  8
実線
100
AcDbLine
 10
407.1373669375372
 20
473.6158703627938
 30
0.0
 11
407.1373669375367
 21
422.1158703627938
 31
0.0
  0
LINE
  5
38B
102
{ACAD_REACTORS
330
49F
102
}
330
1F
100
AcDbEntity
  8
実線
100
AcDbLine
 10
296.6943508292787
 20
408.6158703627937
 30
0.0
 11
392.9803830457951
 21
408.6158703627937
 31
0.0
  0
LINE
  5
38C
102
{ACAD_REACTORS
330
49F
102
}
330
1F
100
AcDbEntity
  8
実線
100
AcDbLine
 10
392.9803830457951
 20
408.6158703627937
 30
0.0
 11
392.9803830457951
 21
473.6158703627938
 31
0.0
  0
LINE
  5
38D
102
{ACAD_REACTORS
330
49F
102
}
330
1F
100
AcDbEntity
  8
実線
100
AcDbLine
 10
296.6943508292787
 20
473.6158703627938
 30
0.0
 11
296.6943508292787
 21
408.6158703627937
 31
0.0
  0
LINE
  5
38E
102
{ACAD_REACTORS
330
49F
102
}
330
1F
100
AcDbEntity
  8
実線
100
AcDbLine
 10
275.3373669386898
 20
581.6158703627937
 30
0.0
 11
414.3373669375367
 21
581.6158703627937
 31
0.0
  0
ARC
  5
38F
102
{ACAD_REACTORS
330
49F
102
}
330
1F
100
AcDbEntity
  8
実線
100
AcDbCircle
 10
414.3373669375367
 20
578.6158703627937
 30
0.0
 40
3.0
100
AcDbArc
 50
0.0
 51
90.0
  0
ARC
  5
390
102
{ACAD_REACTORS
330
49F
102
}
330
1F
100
AcDbEntity
  8
実線
100
AcDbCircle
 10
275.337366937537
 20
578.6158703627937
 30
0.0
 40
3.0
100
AcDbArc
 50
90.0
 51
180.0
  0
LINE
  5
391
102
{ACAD_REACTORS
330
49F
102
}
330
1F
100
AcDbEntity
  8
実線
100
AcDbLine
 10
417.3373669375369
 20
576.6158703627938
 30
0.0
 11
417.3373669375369
 21
578.6158703627937
 31
0.0
  0
LINE
  5
392
102
{ACAD_REACTORS
330
49F
102
}
330
1F
100
AcDbEntity
  8
実線
100
AcDbLine
 10
272.337366937537
 20
578.6158703627937
 30
0.0
 11
272.337366937537
 21
576.6158703627938
 31
0.0
  0
LINE
  5
393
102
{ACAD_REACTORS
330
49F
102
}
330
1F
100
AcDbEntity
  8
実線
100
AcDbLine
 10
399.8373669375377
 20
296.6158703627938
 30
0.0
 11
399.8373669375377
 21
342.1158703627938
 31
0.0
  0
LINE
  5
394
102
{ACAD_REACTORS
330
49F
102
}
330
1F
100
AcDbEntity
  8
実線
100
AcDbLine
 10
305.8373669375375
 20
280.6158703627938
 30
0.0
 11
383.8373669375377
 21
280.6158703627938
 31
0.0
  0
ARC
  5
395
102
{ACAD_REACTORS
330
49F
102
}
330
1F
100
AcDbEntity
  8
実線
100
AcDbCircle
 10
305.8373669375375
 20
296.6158703627938
 30
0.0
 40
16.0
100
AcDbArc
 50
227.2544307753404
 51
270.0
  0
ARC
  5
396
102
{ACAD_REACTORS
330
49F
102
}
330
1F
100
AcDbEntity
  8
実線
100
AcDbCircle
 10
383.8373669375377
 20
296.6158703627938
 30
0.0
 40
16.0
100
AcDbArc
 50
270.0
 51
0.0
  0
LINE
  5
397
102
{ACAD_REACTORS
330
49F
102
}
330
1F
100
AcDbEntity
  8
実線
100
AcDbLine
 10
284.0576777596991
 20
342.1158703627938
 30
0.0
 11
318.0273947875962
 21
342.1158703627938
 31
0.0
  0
LINE
  5
398
102
{ACAD_REACTORS
330
49F
102
}
330
1F
100
AcDbEntity
  8
実線
100
AcDbLine
 10
284.0576777596991
 20
357.1158703627939
 30
0.0
 11
284.0576777596991
 21
342.1158703627938
 31
0.0
  0
LINE
  5
399
102
{ACAD_REACTORS
330
49F
102
}
330
1F
100
AcDbEntity
  8
実線
100
AcDbLine
 10
405.6170561153765
 20
342.1158703627938
 30
0.0
 11
405.6170561153765
 21
357.1158703627939
 31
0.0
  0
LINE
  5
39A
102
{ACAD_REACTORS
330
49F
102
}
330
1F
100
AcDbEntity
  8
実線
100
AcDbLine
 10
405.6170561153765
 20
342.1158703627938
 30
0.0
 11
371.6473390874788
 21
342.1158703627938
 31
0.0
  0
LINE
  5
39B
102
{ACAD_REACTORS
330
49F
102
}
330
1F
100
AcDbEntity
  8
実線
100
AcDbLine
 10
318.0273947875962
 20
342.1158703627938
 30
0.0
 11
318.0273947875962
 21
357.1158703627939
 31
0.0
  0
LINE
  5
39C
102
{ACAD_REACTORS
330
49F
102
}
330
1F
100
AcDbEntity
  8
実線
100
AcDbLine
 10
371.6473390874788
 20
342.1158703627938
 30
0.0
 11
371.6473390874788
 21
357.1158703627939
 31
0.0
  0
LINE
  5
489
102
{ACAD_REACTORS
330
4A1
102
}
330
1F
100
AcDbEntity
  8
中心線
100
AcDbLine
 10
237.8373669375372
 20
76.61587036278354
 30
0.0
 11
451.8373669375372
 21
76.61587036278354
 31
0.0
  0
LINE
  5
48A
102
{ACAD_REACTORS
330
4A1
102
}
330
1F
100
AcDbEntity
  8
中心線
100
AcDbLine
 10
344.8373669375378
 20
-3.384129637216005
 30
0.0
 11
344.8373669375378
 21
156.615870362784
 31
0.0
  0
LINE
  5
48B
102
{ACAD_REACTORS
330
49E
102
}
330
1F
100
AcDbEntity
  8
中心線
100
AcDbLine
 10
237.8373669375372
 20
916.6158703627933
 30
0.0
 11
451.8373669375372
 21
916.615870362793
 31
0.0
  0
LINE
  5
48C
102
{ACAD_REACTORS
330
49E
102
}
330
1F
100
AcDbEntity
  8
中心線
100
AcDbLine
 10
344.8373669375373
 20
836.6158703627936
 30
0.0
 11
344.8373669375373
 21
996.6158703627936
 31
0.0
  0
LINE
  5
48D
102
{ACAD_REACTORS
330
49C
102
}
330
1F
100
AcDbEntity
  8
中心線
100
AcDbLine
 10
717.8373669375369
 20
316.6158703627942
 30
0.0
 11
931.8373669375368
 21
316.6158703627942
 31
0.0
  0
LINE
  5
48E
102
{ACAD_REACTORS
330
49C
102
}
330
1F
100
AcDbEntity
  8
中心線
100
AcDbLine
 10
824.8373669375366
 20
236.6158703627939
 30
0.0
 11
824.8373669375368
 21
734.081154442266
 31
0.0
  0
LINE
  5
496
102
{ACAD_REACTORS
330
49D
102
}
330
1F
100
AcDbEntity
  8
中心線
100
AcDbLine
 10
504.8373669375371
 20
316.615870362794
 30
0.0
 11
664.8373669375371
 21
316.615870362794
 31
0.0
  0
LINE
  5
497
102
{ACAD_REACTORS
330
49D
102
}
330
1F
100
AcDbEntity
  8
中心線
100
AcDbLine
 10
584.8373669375371
 20
236.6158703627937
 30
0.0
 11
584.8373669375372
 21
734.081154442266
 31
0.0
  0
LINE
  5
498
102
{ACAD_REACTORS
330
49F
102
}
330
1F
100
AcDbEntity
  8
中心線
100
AcDbLine
 10
237.8373669375372
 20
316.6158703627938
 30
0.0
 11
451.8373669375372
 21
316.6158703627938
 31
0.0
  0
LINE
  5
499
102
{ACAD_REACTORS
330
49F
102
}
330
1F
100
AcDbEntity
  8
中心線
100
AcDbLine
 10
344.8373669375373
 20
236.6158703627938
 30
0.0
 11
344.8373669375373
 21
734.0811544422657
 31
0.0
  0
LINE
  5
49A
102
{ACAD_REACTORS
330
4A0
102
}
330
1F
100
AcDbEntity
  8
中心線
100
AcDbLine
 10
24.83736693753696
 20
316.6158703627937
 30
0.0
 11
184.8373669375369
 21
316.6158703627937
 31
0.0
  0
LINE
  5
49B
102
{ACAD_REACTORS
330
4A0
102
}
330
1F
100
AcDbEntity
  8
中心線
100
AcDbLine
 10
104.8373669375369
 20
236.6158703627937
 30
0.0
 11
104.8373669375369
 21
734.0811544422657
 31
0.0
  0
ENDSEC
  0
SECTION
  2
OBJECTS
  0
DICTIONARY
  5
C
330
0
100
AcDbDictionary
281
     1
  3
ACAD_CIP_PREVIOUS_PRODUCT_INFO
350
237
  3
ACAD_COLOR
350
22D
  3
ACAD_DETAILVIEWSTYLE
350
230
  3
ACAD_GROUP
350
D
  3
ACAD_LAYOUT
350
1A
  3
ACAD_MATERIAL
350
43
  3
ACAD_MLEADERSTYLE
350
5B
  3
ACAD_MLINESTYLE
350
17
  3
ACAD_PLOTSETTINGS
350
19
  3
ACAD_PLOTSTYLENAME
350
E
  3
ACAD_SCALELIST
350
47
  3
ACAD_SECTIONVIEWSTYLE
350
22E
  3
ACAD_TABLESTYLE
350
59
  3
ACAD_VISUALSTYLE
350
2A
  3
ACDB_RECOMPOSE_DATA
350
538
  3
AcDbVariableDictionary
350
1E2
  3
DWGPROPS
350
539
  0
DICTIONARY
  5
3A3
330
2
100
AcDbDictionary
280
     1
281
     1
  3
ACAD_LAYERSTATES
360
3A4
  0
DICTIONARY
  5
4A2
330
10
100
AcDbDictionary
280
     1
281
     1
  3
ADSK_XREC_LAYER_RECONCILED
360
4A3
  0
DICTIONARY
  5
39F
330
39E
100
AcDbDictionary
280
     1
281
     1
  3
ADSK_XREC_LAYER_RECONCILED
360
4A4
  0
DICTIONARY
  5
3A1
330
3A0
100
AcDbDictionary
280
     1
281
     1
  3
ADSK_XREC_LAYER_RECONCILED
360
4A5
  0
DICTIONARY
  5
25B
330
1F
100
AcDbDictionary
280
     1
281
     1
  3
ACAD_SORTENTS
360
25C
  0
XRECORD
  5
237
102
{ACAD_REACTORS
330
C
102
}
330
C
100
AcDbXrecord
280
     1
300
ACDLT
300
2016
300
ACDLT_F_S
  0
DICTIONARY
  5
22D
102
{ACAD_REACTORS
330
C
102
}
330
C
100
AcDbDictionary
281
     1
  0
DICTIONARY
  5
230
102
{ACAD_REACTORS
330
C
102
}
330
C
100
AcDbDictionary
281
     1
  3
Metric50
350
231
  0
DICTIONARY
  5
D
102
{ACAD_REACTORS
330
C
102
}
330
C
100
AcDbDictionary
281
     1
  3
*A1
350
49C
  3
*A2
350
49D
  3
*A3
350
49E
  3
*A4
350
49F
  3
*A5
350
4A0
  3
*A6
350
4A1
  0
DICTIONARY
  5
1A
102
{ACAD_REACTORS
330
C
102
}
330
C
100
AcDbDictionary
281
     1
  3
Layout1
350
1E
  3
Model
350
22
  3
レイアウト1
350
232
  0
DICTIONARY
  5
43
102
{ACAD_REACTORS
330
C
102
}
330
C
100
AcDbDictionary
281
     1
  3
ByBlock
350
45
  3
ByLayer
350
44
  3
Global
350
46
  0
DICTIONARY
  5
5B
102
{ACAD_REACTORS
330
C
102
}
330
C
100
AcDbDictionary
281
     1
  3
Standard
350
5C
  0
DICTIONARY
  5
17
102
{ACAD_REACTORS
330
C
102
}
330
C
100
AcDbDictionary
281
     1
  3
Standard
350
18
  0
DICTIONARY
  5
19
102
{ACAD_REACTORS
330
C
102
}
330
C
100
AcDbDictionary
281
     1
  0
ACDBDICTIONARYWDFLT
  5
E
102
{ACAD_REACTORS
330
C
102
}
330
C
100
AcDbDictionary
281
     1
  3
Normal
350
F
100
AcDbDictionaryWithDefault
340
F
  0
DICTIONARY
  5
47
102
{ACAD_REACTORS
330
C
102
}
330
C
100
AcDbDictionary
281
     1
  3
A0
350
48
  3
A1
350
49
  3
A2
350
4A
  3
A3
350
4B
  3
A4
350
4C
  3
A5
350
4D
  3
A6
350
4E
  3
A7
350
4F
  3
A8
350
50
  3
A9
350
51
  3
B0
350
52
  3
B1
350
53
  3
B2
350
54
  3
B3
350
55
  3
B4
350
56
  3
B5
350
57
  3
B6
350
58
  0
DICTIONARY
  5
22E
102
{ACAD_REACTORS
330
C
102
}
330
C
100
AcDbDictionary
281
     1
  3
Metric50
350
22F
  0
DICTIONARY
  5
59
102
{ACAD_REACTORS
330
C
102
}
330
C
100
AcDbDictionary
281
     1
  3
Standard
350
5A
  0
DICTIONARY
  5
2A
102
{ACAD_REACTORS
330
C
102
}
330
C
100
AcDbDictionary
281
     1
  3
2dWireframe
350
2F
  3
Basic
350
32
  3
Brighten
350
36
  3
ColorChange
350
3A
  3
Conceptual
350
34
  3
Dim
350
35
  3
EdgeColorOff
350
3D
  3
Facepattern
350
39
  3
Flat
350
2B
  3
FlatWithEdges
350
2C
  3
Gouraud
350
2D
  3
GouraudWithEdges
350
2E
  3
Hidden
350
31
  3
JitterOff
350
3B
  3
Linepattern
350
38
  3
OverhangOff
350
3C
  3
Realistic
350
33
  3
Shaded
350
42
  3
Shaded with edges
350
41
  3
Shades of Gray
350
3E
  3
Sketchy
350
3F
  3
Thicken
350
37
  3
Wireframe
350
30
  3
X-Ray
350
40
  0
XRECORD
  5
538
102
{ACAD_REACTORS
330
C
102
}
330
C
100
AcDbXrecord
280
     1
 90
        1
330
5A
  0
DICTIONARY
  5
1E2
102
{ACAD_REACTORS
330
C
102
}
330
C
100
AcDbDictionary
281
     1
  3
CANNOSCALE
350
1F0
  3
CENTEREXE
350
1E9
  3
CENTERLTYPEFILE
350
1EA
  3
CMLEADERSTYLE
350
1E4
  3
CTABLESTYLE
350
1E3
  3
CVIEWDETAILSTYLE
350
4A6
  3
CVIEWSECTIONSTYLE
350
4A7
  3
DIMASSOC
350
1EB
  3
HIDETEXT
350
1EC
  3
INDEXCTL
350
4F2
  3
LAYEREVAL
350
4A9
  3
LAYERNOTIFY
350
4AA
  3
LIGHTINGUNITS
350
4A8
  3
LOFTANG1
350
4F5
  3
LOFTANG2
350
4F6
  3
LONGITUDE
350
4F7
  3
MSLTSCALE
350
1F1
  3
PSOLHEIGHT
350
4F4
  3
PSOLWIDTH
350
4F3
  3
SORTENTS
350
4F1
  3
XCLIPFRAME
350
4F8
  0
XRECORD
  5
539
102
{ACAD_REACTORS
330
C
102
}
330
C
100
AcDbXrecord
280
     1
  1
DWGPROPS COOKIE
  2

  3

  4

  6
File was created by TR2_DExp
  7

  8
fujino
  9

300
=
301
=
302
=
303
=
304
=
305
=
306
=
307
=
308
=
309
=
 40
0.0053890740740741
 41
2455188.75
 42
2459753.664978715
  1

 90
        0
  0
DICTIONARY
  5
3A4
102
{ACAD_REACTORS
330
3A3
102
}
330
3A3
100
AcDbDictionary
281
     1
  0
XRECORD
  5
4A3
102
{ACAD_REACTORS
330
4A2
102
}
330
4A2
100
AcDbXrecord
280
     1
290
     1
  0
XRECORD
  5
4A4
102
{ACAD_REACTORS
330
39F
102
}
330
39F
100
AcDbXrecord
280
     1
290
     1
  0
XRECORD
  5
4A5
102
{ACAD_REACTORS
330
3A1
102
}
330
3A1
100
AcDbXrecord
280
     1
290
     1
  0
SORTENTSTABLE
  5
25C
102
{ACAD_REACTORS
330
25B
102
}
330
25B
100
AcDbSortentsTable
330
1F
331
36F
  5
255
331
32C
  5
29F
331
36B
  5
251
331
328
  5
29B
331
367
  5
24D
331
363
  5
249
331
2ED
  5
2DE
331
246
  5
388
331
27F
  5
370
331
48B
  5
48B
331
2E9
  5
2DA
331
242
  5
384
331
27B
  5
36C
331
277
  5
368
331
2B6
  5
330
331
2E5
  5
2D6
331
324
  5
297
331
320
  5
293
331
273
  5
364
331
2B2
  5
32C
331
2E1
  5
2D2
331
35F
  5
245
331
35B
  5
241
331
396
  5
27E
331
357
  5
23D
331
353
  5
239
331
392
  5
27A
331
23E
  5
380
331
23A
  5
37C
331
2DD
  5
2CE
331
31C
  5
28F
331
26F
  5
360
331
2AE
  5
328
331
49A
  5
49A
331
2AA
  5
324
331
2D9
  5
2CA
331
318
  5
28B
331
26B
  5
35C
331
267
  5
358
331
2A6
  5
320
331
2D5
  5
2C6
331
314
  5
287
331
310
  5
301
331
263
  5
354
331
2A2
  5
31C
331
2D1
  5
34B
331
34F
  5
2C2
331
38E
  5
276
331
34B
  5
2BE
331
38A
  5
272
331
386
  5
26E
331
347
  5
2BA
331
343
  5
2B6
331
382
  5
26A
331
39B
  5
283
331
2CD
  5
347
331
30C
  5
2FD
331
257
  5
399
331
29E
  5
318
331
29A
  5
314
331
2C9
  5
343
331
308
  5
2F9
331
253
  5
395
331
296
  5
310
331
2C5
  5
33F
331
304
  5
2F5
331
24F
  5
391
331
300
  5
2F1
331
24B
  5
38D
331
292
  5
30C
331
2C1
  5
33B
331
33F
  5
2B2
331
37E
  5
266
331
33B
  5
2AE
331
37A
  5
262
331
376
  5
25E
331
337
  5
2AA
331
372
  5
258
331
333
  5
2A6
331
25E
  5
34F
331
25A
  5
39C
331
2BD
  5
337
331
2FC
  5
2ED
331
28E
  5
308
331
2B9
  5
333
331
2F8
  5
2E9
331
28A
  5
304
331
286
  5
377
331
2F4
  5
2E5
331
2F0
  5
2E1
331
282
  5
373
331
32F
  5
2A2
331
36E
  5
254
331
32B
  5
29E
331
36A
  5
250
331
366
  5
24C
331
362
  5
248
331
48E
  5
48E
331
2EC
  5
2DD
331
245
  5
387
331
27E
  5
36F
331
48A
  5
48A
331
241
  5
383
331
2E8
  5
2D9
331
327
  5
29A
331
27A
  5
36B
331
323
  5
296
331
276
  5
367
331
2B5
  5
32F
331
2E4
  5
2D5
331
272
  5
363
331
2B1
  5
32B
331
2E0
  5
2D1
331
35E
  5
244
331
35A
  5
240
331
395
  5
27D
331
356
  5
23C
331
352
  5
238
331
391
  5
279
331
23D
  5
37F
331
239
  5
37B
331
31F
  5
292
331
2DC
  5
2CD
331
31B
  5
28E
331
26E
  5
35F
331
2AD
  5
327
331
499
  5
499
331
2A9
  5
323
331
2D8
  5
2C9
331
317
  5
28A
331
26A
  5
35B
331
266
  5
357
331
2A5
  5
31F
331
2D4
  5
2C5
331
313
  5
286
331
262
  5
353
331
2A1
  5
31B
331
2D0
  5
34A
331
34E
  5
2C1
331
38D
  5
275
331
34A
  5
2BD
331
389
  5
271
331
385
  5
26D
331
346
  5
2B9
331
342
  5
2B5
331
381
  5
269
331
30F
  5
300
331
39A
  5
282
331
2CC
  5
346
331
30B
  5
2FC
331
256
  5
398
331
29D
  5
317
331
299
  5
313
331
2C8
  5
342
331
307
  5
2F8
331
252
  5
394
331
24E
  5
390
331
295
  5
30F
331
2C4
  5
33E
331
303
  5
2F4
331
24A
  5
38C
331
291
  5
30B
331
2C0
  5
33A
331
33E
  5
2B1
331
37D
  5
265
331
33A
  5
2AD
331
379
  5
261
331
375
  5
25D
331
336
  5
2A9
331
332
  5
2A5
331
371
  5
257
331
25D
  5
34E
331
2FF
  5
2F0
331
259
  5
39B
331
2BC
  5
336
331
2FB
  5
2EC
331
28D
  5
307
331
289
  5
303
331
2B8
  5
332
331
2F7
  5
2E8
331
285
  5
376
331
2F3
  5
2E4
331
281
  5
372
331
32E
  5
2A1
331
36D
  5
253
331
32A
  5
29D
331
369
  5
24F
331
365
  5
24B
331
361
  5
247
331
2EF
  5
2E0
331
48D
  5
48D
331
2EB
  5
2DC
331
244
  5
386
331
27D
  5
36E
331
489
  5
489
331
240
  5
382
331
2E7
  5
2D8
331
326
  5
299
331
279
  5
36A
331
322
  5
295
331
275
  5
366
331
2B4
  5
32E
331
2E3
  5
2D4
331
271
  5
362
331
2B0
  5
32A
331
35D
  5
243
331
359
  5
23F
331
394
  5
27C
331
355
  5
23B
331
351
  5
2C4
331
390
  5
278
331
23C
  5
37E
331
238
  5
37A
331
2DF
  5
2D0
331
31E
  5
291
331
2DB
  5
2CC
331
31A
  5
28D
331
26D
  5
35E
331
2AC
  5
326
331
498
  5
498
331
2A8
  5
322
331
2D7
  5
2C8
331
316
  5
289
331
269
  5
35A
331
312
  5
285
331
265
  5
356
331
2A4
  5
31E
331
2D3
  5
34D
331
261
  5
352
331
2A0
  5
31A
331
34D
  5
2C0
331
38C
  5
274
331
349
  5
2BC
331
388
  5
270
331
384
  5
26C
331
345
  5
2B8
331
341
  5
2B4
331
380
  5
268
331
30E
  5
2FF
331
399
  5
281
331
2CF
  5
349
331
2CB
  5
345
331
30A
  5
2FB
331
255
  5
397
331
29C
  5
316
331
298
  5
312
331
2C7
  5
341
331
306
  5
2F7
331
251
  5
393
331
24D
  5
38F
331
294
  5
30E
331
2C3
  5
33D
331
302
  5
2F3
331
249
  5
38B
331
290
  5
30A
331
33D
  5
2B0
331
37C
  5
264
331
339
  5
2AC
331
378
  5
260
331
374
  5
25A
331
335
  5
2A8
331
331
  5
2A4
331
370
  5
256
331
497
  5
497
331
2FE
  5
2EF
331
2BF
  5
339
331
258
  5
39A
331
2BB
  5
335
331
2FA
  5
2EB
331
28C
  5
306
331
288
  5
379
331
2F6
  5
2E7
331
284
  5
375
331
2F2
  5
2E3
331
280
  5
371
331
32D
  5
2A0
331
36C
  5
252
331
329
  5
29C
331
368
  5
24E
331
364
  5
24A
331
360
  5
246
331
2EE
  5
2DF
331
247
  5
389
331
48C
  5
48C
331
2EA
  5
2DB
331
243
  5
385
331
27C
  5
36D
331
278
  5
369
331
2B7
  5
331
331
2E6
  5
2D7
331
325
  5
298
331
321
  5
294
331
274
  5
365
331
2B3
  5
32D
331
2E2
  5
2D3
331
270
  5
361
331
35C
  5
242
331
397
  5
27F
331
358
  5
23E
331
354
  5
23A
331
393
  5
27B
331
350
  5
2C3
331
23F
  5
381
331
23B
  5
37D
331
2DE
  5
2CF
331
31D
  5
290
331
2AF
  5
329
331
49B
  5
49B
331
2AB
  5
325
331
2DA
  5
2CB
331
319
  5
28C
331
26C
  5
35D
331
2A7
  5
321
331
2D6
  5
2C7
331
315
  5
288
331
268
  5
359
331
311
  5
302
331
264
  5
355
331
2A3
  5
31D
331
2D2
  5
34C
331
260
  5
351
331
38F
  5
277
331
34C
  5
2BF
331
38B
  5
273
331
387
  5
26F
331
348
  5
2BB
331
383
  5
26B
331
344
  5
2B7
331
340
  5
2B3
331
39C
  5
284
331
2CE
  5
348
331
30D
  5
2FE
331
29F
  5
319
331
398
  5
280
331
2CA
  5
344
331
309
  5
2FA
331
254
  5
396
331
29B
  5
315
331
297
  5
311
331
2C6
  5
340
331
305
  5
2F6
331
250
  5
392
331
301
  5
2F2
331
24C
  5
38E
331
293
  5
30D
331
2C2
  5
33C
331
248
  5
38A
331
37F
  5
267
331
33C
  5
2AF
331
37B
  5
263
331
338
  5
2AB
331
377
  5
25F
331
373
  5
259
331
334
  5
2A7
331
330
  5
2A3
331
25F
  5
350
331
496
  5
496
331
2FD
  5
2EE
331
28F
  5
309
331
2BE
  5
338
331
2BA
  5
334
331
2F9
  5
2EA
331
28B
  5
305
331
287
  5
378
331
2F5
  5
2E6
331
283
  5
374
331
2F1
  5
2E2
  0
ACDBDETAILVIEWSTYLE
  5
231
102
{ACAD_XDICTIONARY
360
571
102
}
102
{ACAD_REACTORS
330
230
102
}
330
230
100
AcDbModelDocViewStyle
 70
     0
  3
Metric50
290
     0
100
AcDbDetailViewStyle
 70
     0
 71
     0
 90
        3
 71
     1
340
11
 40
5.0
340
0
 40
5.0
300

 40
0.0
280
     1
 71
     2
340
16
 90
       25
 71
     3
340
11
 40
5.0
 90
        0
 40
15.0
 90
        1
300
%<\AcVar ViewDetailId>% (%<\AcVar ViewScale \f "%sn">%)
 71
     4
340
16
 90
       25
340
16
 90
       25
280
     0
  0
GROUP
  5
49C
102
{ACAD_REACTORS
330
D
102
}
330
D
100
AcDbGroup
300

 70
     1
 71
     1
340
48E
340
48D
340
2D3
340
2D2
340
2D1
340
2D0
340
2CF
340
2CE
340
2CD
340
2CC
340
2CB
340
2CA
340
2C9
340
2C8
340
2C7
340
2C6
340
2C5
340
2C4
340
2C3
340
2C2
340
2C1
340
2C0
340
2BF
340
2BE
340
2BD
340
2BC
340
2BB
340
2BA
340
2B9
340
2B8
340
2B7
340
2B6
340
2B5
340
2B4
340
2B3
340
2B2
340
2B1
340
2B0
340
2AF
340
2AE
340
2AD
340
2AC
340
2AB
340
2AA
340
2A9
340
2A8
340
2A7
340
2A6
340
2A5
340
2A4
340
2A3
340
2A2
340
2A1
340
2A0
340
29F
340
29E
340
29D
340
29C
340
29B
340
29A
340
299
340
298
340
297
340
296
340
295
340
294
340
293
340
292
340
291
340
290
340
28F
340
28E
340
28D
340
28C
340
28B
340
28A
340
289
  0
GROUP
  5
49D
102
{ACAD_REACTORS
330
D
102
}
330
D
100
AcDbGroup
300

 70
     1
 71
     1
340
497
340
496
340
311
340
310
340
30F
340
30E
340
30D
340
30C
340
30B
340
30A
340
309
340
308
340
307
340
306
340
305
340
304
340
303
340
302
340
301
340
300
340
2FF
340
2FE
340
2FD
340
2FC
340
2FB
340
2FA
340
2F9
340
2F8
340
2F7
340
2F6
340
2F5
340
2F4
340
2F3
340
2F2
340
2F1
340
2F0
340
2EF
340
2EE
340
2ED
340
2EC
340
2EB
340
2EA
340
2E9
340
2E8
340
2E7
340
2E6
340
2E5
340
2E4
340
2E3
340
2E2
340
2E1
340
2E0
340
2DF
340
2DE
340
2DD
340
2DC
340
2DB
340
2DA
340
2D9
340
2D8
340
2D7
340
2D6
340
2D5
340
2D4
  0
GROUP
  5
49E
102
{ACAD_REACTORS
330
D
102
}
330
D
100
AcDbGroup
300

 70
     1
 71
     1
340
48C
340
48B
340
25A
340
259
340
258
340
257
340
256
340
255
340
254
340
253
340
252
340
251
340
250
340
24F
340
24E
340
24D
340
24C
340
24B
340
24A
340
249
340
248
340
247
340
246
340
245
340
244
340
243
340
242
340
241
340
240
340
23F
340
23E
340
23D
340
23C
340
23B
340
23A
340
239
340
238
  0
GROUP
  5
49F
102
{ACAD_REACTORS
330
D
102
}
330
D
100
AcDbGroup
300

 70
     1
 71
     1
340
499
340
498
340
39C
340
39B
340
39A
340
399
340
398
340
397
340
396
340
395
340
394
340
393
340
392
340
391
340
390
340
38F
340
38E
340
38D
340
38C
340
38B
340
38A
340
389
340
388
340
387
340
386
340
385
340
384
340
383
340
382
340
381
340
380
340
37F
340
37E
340
37D
340
37C
340
37B
340
37A
340
379
340
378
340
377
340
376
340
375
340
374
340
373
340
372
340
371
340
370
340
36F
340
36E
340
36D
340
36C
340
36B
340
36A
340
369
340
368
340
367
340
366
340
365
340
364
340
363
340
362
340
361
340
360
340
35F
340
35E
340
35D
340
35C
340
35B
340
35A
340
359
340
358
340
357
340
356
340
355
340
354
340
353
340
352
  0
GROUP
  5
4A0
102
{ACAD_REACTORS
330
D
102
}
330
D
100
AcDbGroup
300

 70
     1
 71
     1
340
49B
340
49A
340
351
340
350
340
34F
340
34E
340
34D
340
34C
340
34B
340
34A
340
349
340
348
340
347
340
346
340
345
340
344
340
343
340
342
340
341
340
340
340
33F
340
33E
340
33D
340
33C
340
33B
340
33A
340
339
340
338
340
337
340
336
340
335
340
334
340
333
340
332
340
331
340
330
340
32F
340
32E
340
32D
340
32C
340
32B
340
32A
340
329
340
328
340
327
340
326
340
325
340
324
340
323
340
322
340
321
340
320
340
31F
340
31E
340
31D
340
31C
340
31B
340
31A
340
319
340
318
340
317
340
316
340
315
340
314
340
313
340
312
  0
GROUP
  5
4A1
102
{ACAD_REACTORS
330
D
102
}
330
D
100
AcDbGroup
300

 70
     1
 71
     1
340
48A
340
489
340
288
340
287
340
286
340
285
340
284
340
283
340
282
340
281
340
280
340
27F
340
27E
340
27D
340
27C
340
27B
340
27A
340
279
340
278
340
277
340
276
340
275
340
274
340
273
340
272
340
271
340
270
340
26F
340
26E
340
26D
340
26C
340
26B
340
26A
340
269
340
268
340
267
340
266
340
265
340
264
340
263
340
262
340
261
340
260
340
25F
340
25E
340
25D
  0
LAYOUT
  5
1E
102
{ACAD_XDICTIONARY
360
53A
102
}
102
{ACAD_REACTORS
330
1A
102
}
330
1A
100
AcDbPlotSettings
  1

  2
none_device
  4

  6

 40
0.0
 41
0.0
 42
0.0
 43
0.0
 44
0.0
 45
0.0
 46
0.0
 47
0.0
 48
0.0
 49
0.0
140
0.0
141
0.0
142
1.0
143
1.0
 70
   688
 72
     1
 73
     0
 74
     5
  7

 75
    16
147
1.0
148
0.0
149
0.0
100
AcDbLayout
  1
Layout1
 70
     1
 71
     1
 10
0.0
 20
0.0
 11
420.0
 21
297.0
 12
0.0
 22
0.0
 32
0.0
 14
1.000000000000000E+20
 24
1.000000000000000E+20
 34
1.000000000000000E+20
 15
-1.000000000000000E+20
 25
-1.000000000000000E+20
 35
-1.000000000000000E+20
146
0.0
 13
0.0
 23
0.0
 33
0.0
 16
1.0
 26
0.0
 36
0.0
 17
0.0
 27
1.0
 37
0.0
 76
     0
330
1B
  0
LAYOUT
  5
22
102
{ACAD_XDICTIONARY
360
53C
102
}
102
{ACAD_REACTORS
330
1A
102
}
330
1A
100
AcDbPlotSettings
  1

  2
none_device
  4
Letter_(8.50_x_11.00_Inches)
  6

 40
6.349999999999998
 41
6.349999999999998
 42
6.350005079999998
 43
6.350005079999998
 44
215.9
 45
279.4
 46
0.0
 47
0.0
 48
0.0
 49
0.0
140
0.0
141
0.0
142
1.0
143
1.0
 70
  1712
 72
     1
 73
     0
 74
     0
  7

 75
     0
147
1.0
148
0.0
149
0.0
100
AcDbLayout
  1
Model
 70
     1
 71
     0
 10
-459.5044555663959
 20
-450.8733978271382
 11
1286.283020019531
 21
936.5928192138573
 12
0.0
 22
0.0
 32
0.0
 14
-459.5044555663959
 24
-450.8733978271382
 34
0.0
 15
1286.283020019531
 25
936.5928192138573
 35
0.0
146
0.0
 13
0.0
 23
0.0
 33
0.0
 16
1.0
 26
0.0
 36
0.0
 17
0.0
 27
1.0
 37
0.0
 76
     0
330
1F
331
29
  0
LAYOUT
  5
232
102
{ACAD_XDICTIONARY
360
573
102
}
102
{ACAD_REACTORS
330
1A
102
}
330
1A
100
AcDbPlotSettings
  1

  2
青梅 FX DocuCentre-V C2275 T2
  4

  6

 40
0.0
 41
0.0
 42
0.0
 43
0.0
 44
0.0
 45
0.0
 46
0.0
 47
0.0
 48
0.0
 49
0.0
140
0.0
141
0.0
142
1.0
143
1.0
 70
   688
 72
     0
 73
     0
 74
     5
  7
AutoCAD_PEN.ctb
 75
    16
147
1.0
148
0.0
149
0.0
100
AcDbLayout
  1
レイアウト1
 70
     1
 71
     2
 10
0.0
 20
0.0
 11
12.0
 21
9.0
 12
0.0
 22
0.0
 32
0.0
 14
0.0
 24
0.0
 34
0.0
 15
0.0
 25
0.0
 35
0.0
146
0.0
 13
0.0
 23
0.0
 33
0.0
 16
1.0
 26
0.0
 36
0.0
 17
0.0
 27
1.0
 37
0.0
 76
     0
330
23
  0
MATERIAL
  5
45
102
{ACAD_XDICTIONARY
360
224
102
}
102
{ACAD_REACTORS
330
43
102
}
330
43
100
AcDbMaterial
  1
ByBlock
  0
MATERIAL
  5
44
102
{ACAD_XDICTIONARY
360
222
102
}
102
{ACAD_REACTORS
330
43
102
}
330
43
100
AcDbMaterial
  1
ByLayer
  0
MATERIAL
  5
46
102
{ACAD_XDICTIONARY
360
226
102
}
102
{ACAD_REACTORS
330
43
102
}
330
43
100
AcDbMaterial
  1
Global
  0
MLEADERSTYLE
  5
5C
102
{ACAD_REACTORS
330
5B
102
}
330
5B
100
AcDbMLeaderStyle
170
     2
171
     1
172
     0
 90
        2
 40
0.0
 41
0.0
173
     1
 91
-1056964608
340
14
 92
       -2
290
     1
 42
2.0
291
     1
 43
8.0
  3
Standard
 44
4.0
300

342
11
174
     1
178
     6
175
     1
176
     0
 93
-1056964608
 45
4.0
292
     0
297
     0
 46
4.0
 94
-1056964608
 47
1.0
 49
1.0
140
1.0
293
     1
141
0.0
294
     1
177
     0
142
1.0
295
     0
296
     0
143
3.75
1001
ACAD_MLEADERVER
1070
     2
  0
MLINESTYLE
  5
18
102
{ACAD_REACTORS
330
17
102
}
330
17
100
AcDbMlineStyle
  2
STANDARD
 70
     0
  3

 62
   256
 51
90.0
 52
90.0
 71
     2
 49
0.5
 62
   256
  6
BYLAYER
 49
-0.5
 62
   256
  6
BYLAYER
  0
ACDBPLACEHOLDER
  5
F
102
{ACAD_REACTORS
330
E
102
}
330
E
  0
SCALE
  5
48
102
{ACAD_REACTORS
330
47
102
}
330
47
100
AcDbScale
 70
     0
300
1:1
140
1.0
141
1.0
290
     1
  0
SCALE
  5
49
102
{ACAD_REACTORS
330
47
102
}
330
47
100
AcDbScale
 70
     0
300
1:2
140
1.0
141
2.0
290
     0
  0
SCALE
  5
4A
102
{ACAD_REACTORS
330
47
102
}
330
47
100
AcDbScale
 70
     0
300
1:4
140
1.0
141
4.0
290
     0
  0
SCALE
  5
4B
102
{ACAD_REACTORS
330
47
102
}
330
47
100
AcDbScale
 70
     0
300
1:5
140
1.0
141
5.0
290
     0
  0
SCALE
  5
4C
102
{ACAD_REACTORS
330
47
102
}
330
47
100
AcDbScale
 70
     0
300
1:8
140
1.0
141
8.0
290
     0
  0
SCALE
  5
4D
102
{ACAD_REACTORS
330
47
102
}
330
47
100
AcDbScale
 70
     0
300
1:10
140
1.0
141
10.0
290
     0
  0
SCALE
  5
4E
102
{ACAD_REACTORS
330
47
102
}
330
47
100
AcDbScale
 70
     0
300
1:16
140
1.0
141
16.0
290
     0
  0
SCALE
  5
4F
102
{ACAD_REACTORS
330
47
102
}
330
47
100
AcDbScale
 70
     0
300
1:20
140
1.0
141
20.0
290
     0
  0
SCALE
  5
50
102
{ACAD_REACTORS
330
47
102
}
330
47
100
AcDbScale
 70
     0
300
1:30
140
1.0
141
30.0
290
     0
  0
SCALE
  5
51
102
{ACAD_REACTORS
330
47
102
}
330
47
100
AcDbScale
 70
     0
300
1:40
140
1.0
141
40.0
290
     0
  0
SCALE
  5
52
102
{ACAD_REACTORS
330
47
102
}
330
47
100
AcDbScale
 70
     0
300
1:50
140
1.0
141
50.0
290
     0
  0
SCALE
  5
53
102
{ACAD_REACTORS
330
47
102
}
330
47
100
AcDbScale
 70
     0
300
1:100
140
1.0
141
100.0
290
     0
  0
SCALE
  5
54
102
{ACAD_REACTORS
330
47
102
}
330
47
100
AcDbScale
 70
     0
300
2:1
140
2.0
141
1.0
290
     0
  0
SCALE
  5
55
102
{ACAD_REACTORS
330
47
102
}
330
47
100
AcDbScale
 70
     0
300
4:1
140
4.0
141
1.0
290
     0
  0
SCALE
  5
56
102
{ACAD_REACTORS
330
47
102
}
330
47
100
AcDbScale
 70
     0
300
8:1
140
8.0
141
1.0
290
     0
  0
SCALE
  5
57
102
{ACAD_REACTORS
330
47
102
}
330
47
100
AcDbScale
 70
     0
300
10:1
140
10.0
141
1.0
290
     0
  0
SCALE
  5
58
102
{ACAD_REACTORS
330
47
102
}
330
47
100
AcDbScale
 70
     0
300
100:1
140
100.0
141
1.0
290
     0
  0
ACDBSECTIONVIEWSTYLE
  5
22F
102
{ACAD_XDICTIONARY
360
56F
102
}
102
{ACAD_REACTORS
330
22E
102
}
330
22E
100
AcDbModelDocViewStyle
 70
     0
  3
Metric50
290
     0
100
AcDbSectionViewStyle
 70
     0
 71
     0
 90
      102
 71
     1
340
11
 40
5.0
340
0
340
0
 40
5.0
300
I, O, Q, S, X, Z
 40
10.0
 90
        0
 40
2.5
 90
        0
 71
     2
340
16
 90
       25
340
16
 90
       50
 40
5.0
 40
2.5
 40
5.0
 71
     3
340
11
 40
5.0
 90
        0
 40
15.0
 90
        1
300
%<\AcVar ViewSectionStartId>%-%<\AcVar ViewSectionEndId>% (%<\AcVar ViewScale \f "%sn">%)
 71
     4
300
ANSI31
 40
1.0
 90
        0
290
     0
290
     0
 90
        6
 40
0.0
 40
1.570796326794896
 40
0.2617993877991494
 40
1.308996938995747
 40
-0.2617993877991494
 40
1.832595714594045
  0
TABLESTYLE
  5
5A
102
{ACAD_XDICTIONARY
360
4AB
102
}
102
{ACAD_REACTORS
330
59
102
}
330
59
100
AcDbTableStyle
  3
Standard
 70
     0
 71
     0
 40
1.5
 41
1.5
280
     0
281
     0
  7
Standard
140
4.5
170
     2
 62
     0
 63
     7
283
     0
274
    -2
284
     1
 64
     0
275
    -2
285
     1
 65
     0
276
    -2
286
     1
 66
     0
277
    -2
287
     1
 67
     0
278
    -2
288
     1
 68
     0
279
    -2
289
     1
 69
     0
  7
Standard
140
6.0
170
     5
 62
     0
 63
     7
283
     0
274
    -2
284
     1
 64
     0
275
    -2
285
     1
 65
     0
276
    -2
286
     1
 66
     0
277
    -2
287
     1
 67
     0
278
    -2
288
     1
 68
     0
279
    -2
289
     1
 69
     0
  7
Standard
140
4.5
170
     5
 62
     0
 63
     7
283
     0
274
    -2
284
     1
 64
     0
275
    -2
285
     1
 65
     0
276
    -2
286
     1
 66
     0
277
    -2
287
     1
 67
     0
278
    -2
288
     1
 68
     0
279
    -2
289
     1
 69
     0
  0
VISUALSTYLE
  5
2F
102
{ACAD_XDICTIONARY
360
546
102
}
102
{ACAD_REACTORS
330
2A
102
}
330
2A
100
AcDbVisualStyle
  2

 70
     4
 71
     0
 72
     2
 73
     0
 90
        0
 40
-0.6
 41
-30.0
 62
     5
 63
     7
 74
     1
 91
        4
 64
     7
 65
   257
 75
     1
175
     1
 42
1.0
 92
        0
 66
   257
 43
1.0
 76
     1
 77
     6
 78
     2
 67
     7
 79
     5
170
     0
171
     0
290
     0
174
     0
 93
        1
 44
0.0
173
     0
291
     0
 45
0.0
1001
ACAD
1000
AcDbSavedByObjectVersion
1070
     0
  0
VISUALSTYLE
  5
32
102
{ACAD_XDICTIONARY
360
54C
102
}
102
{ACAD_REACTORS
330
2A
102
}
330
2A
100
AcDbVisualStyle
  2

 70
     7
 71
     1
 72
     0
 73
     1
 90
        0
 40
-0.6
 41
-30.0
 62
     5
 63
     7
 74
     0
 91
        4
 64
     7
 65
   257
 75
     1
175
     1
 42
1.0
 92
        8
 66
     7
 43
1.0
 76
     1
 77
     6
 78
     2
 67
     7
 79
     5
170
     0
171
     0
290
     0
174
     0
 93
        1
 44
0.0
173
     0
291
     1
 45
0.0
1001
ACAD
1000
AcDbSavedByObjectVersion
1070
     0
  0
VISUALSTYLE
  5
36
102
{ACAD_XDICTIONARY
360
554
102
}
102
{ACAD_REACTORS
330
2A
102
}
330
2A
100
AcDbVisualStyle
  2

 70
    12
 71
     2
 72
     2
 73
     0
 90
        0
 40
-0.6
 41
-30.0
 62
     5
 63
     7
 74
     1
 91
        4
 64
     7
 65
   257
 75
     1
175
     1
 42
1.0
 92
        8
 66
     7
 43
1.0
 76
     1
 77
     6
 78
     2
 67
     7
 79
     5
170
     0
171
     0
290
     0
174
     0
 93
        1
 44
50.0
173
     0
291
     1
 45
0.0
1001
ACAD
1000
AcDbSavedByObjectVersion
1070
     0
  0
VISUALSTYLE
  5
3A
102
{ACAD_XDICTIONARY
360
55C
102
}
102
{ACAD_REACTORS
330
2A
102
}
330
2A
100
AcDbVisualStyle
  2

 70
    16
 71
     2
 72
     2
 73
     3
 90
        0
 40
-0.6
 41
-30.0
 62
     5
 63
     8
 74
     1
 91
        4
 64
     7
 65
   257
 75
     1
175
     1
 42
1.0
 92
        8
 66
     8
 43
1.0
 76
     1
 77
     6
 78
     2
 67
     7
 79
     5
170
     0
171
     0
290
     0
174
     0
 93
        1
 44
0.0
173
     0
291
     1
 45
0.0
1001
ACAD
1000
AcDbSavedByObjectVersion
1070
     0
  0
VISUALSTYLE
  5
34
102
{ACAD_XDICTIONARY
360
550
102
}
102
{ACAD_REACTORS
330
2A
102
}
330
2A
100
AcDbVisualStyle
  2

 70
     9
 71
     3
 72
     2
 73
     0
 90
        0
 40
-0.6
 41
-30.0
 62
     5
 63
     7
 74
     2
 91
        2
 64
     7
 65
   257
 75
     1
175
     1
 42
179.0
 92
        8
 66
     7
 43
1.0
 76
     1
 77
     6
 78
     2
 67
     7
 79
     3
170
     0
171
     0
290
     0
174
     0
 93
        1
 44
0.0
173
     0
291
     0
 45
0.0
1001
ACAD
1000
AcDbSavedByObjectVersion
1070
     0
  0
VISUALSTYLE
  5
35
102
{ACAD_XDICTIONARY
360
552
102
}
102
{ACAD_REACTORS
330
2A
102
}
330
2A
100
AcDbVisualStyle
  2

 70
    11
 71
     2
 72
     2
 73
     0
 90
        0
 40
-0.6
 41
-30.0
 62
     5
 63
     7
 74
     1
 91
        4
 64
     7
 65
   257
 75
     1
175
     1
 42
1.0
 92
        8
 66
     7
 43
1.0
 76
     1
 77
     6
 78
     2
 67
     7
 79
     5
170
     0
171
     0
290
     0
174
     0
 93
        1
 44
-50.0
173
     0
291
     1
 45
0.0
1001
ACAD
1000
AcDbSavedByObjectVersion
1070
     0
  0
VISUALSTYLE
  5
3D
102
{ACAD_XDICTIONARY
360
562
102
}
102
{ACAD_REACTORS
330
2A
102
}
330
2A
100
AcDbVisualStyle
  2

 70
    22
 71
     2
 72
     2
 73
     0
 90
        0
 40
-0.6
 41
-30.0
 62
     5
 63
     7
 74
     1
 91
        4
 64
     7
 65
   257
 75
     1
175
     1
 42
1.0
 92
        8
 66
     7
 43
1.0
 76
     1
 77
     6
 78
     2
 67
     7
 79
     5
170
     0
171
     0
290
     0
174
     0
 93
        1
 44
0.0
173
     0
291
     1
 45
0.0
1001
ACAD
1000
AcDbSavedByObjectVersion
1070
     0
  0
VISUALSTYLE
  5
39
102
{ACAD_XDICTIONARY
360
55A
102
}
102
{ACAD_REACTORS
330
2A
102
}
330
2A
100
AcDbVisualStyle
  2

 70
    15
 71
     2
 72
     2
 73
     0
 90
        0
 40
-0.6
 41
-30.0
 62
     5
 63
     7
 74
     1
 91
        4
 64
     7
 65
   257
 75
     1
175
     1
 42
1.0
 92
        8
 66
     7
 43
1.0
 76
     1
 77
     6
 78
     2
 67
     7
 79
     5
170
     0
171
     0
290
     0
174
     0
 93
        1
 44
0.0
173
     0
291
     1
 45
0.0
1001
ACAD
1000
AcDbSavedByObjectVersion
1070
     0
  0
VISUALSTYLE
  5
2B
102
{ACAD_XDICTIONARY
360
53E
102
}
102
{ACAD_REACTORS
330
2A
102
}
330
2A
100
AcDbVisualStyle
  2

 70
     0
 71
     2
 72
     1
 73
     1
 90
        2
 40
-0.6
 41
30.0
 62
     5
 63
     7
 74
     0
 91
        0
 64
     7
 65
   257
 75
     1
175
     1
 42
1.0
 92
        8
 66
     7
 43
1.0
 76
     1
 77
     6
 78
     2
 67
     7
 79
     5
170
     0
171
     0
290
     0
174
     0
 93
       13
 44
0.0
173
     0
291
     1
 45
0.0
1001
ACAD
1000
AcDbSavedByObjectVersion
1070
     0
  0
VISUALSTYLE
  5
2C
102
{ACAD_XDICTIONARY
360
540
102
}
102
{ACAD_REACTORS
330
2A
102
}
330
2A
100
AcDbVisualStyle
  2

 70
     1
 71
     2
 72
     1
 73
     1
 90
        2
 40
-0.6
 41
30.0
 62
     5
 63
     7
 74
     1
 91
        0
 64
     7
 65
   257
 75
     1
175
     1
 42
1.0
 92
        0
 66
   257
 43
1.0
 76
     1
 77
     6
 78
     2
 67
     7
 79
     5
170
     0
171
     0
290
     0
174
     0
 93
       13
 44
0.0
173
     0
291
     1
 45
0.0
1001
ACAD
1000
AcDbSavedByObjectVersion
1070
     0
  0
VISUALSTYLE
  5
2D
102
{ACAD_XDICTIONARY
360
542
102
}
102
{ACAD_REACTORS
330
2A
102
}
330
2A
100
AcDbVisualStyle
  2

 70
     2
 71
     2
 72
     2
 73
     1
 90
        2
 40
-0.6
 41
30.0
 62
     5
 63
     7
 74
     0
 91
        0
 64
     7
 65
   257
 75
     1
175
     1
 42
1.0
 92
        0
 66
     7
 43
1.0
 76
     1
 77
     6
 78
     2
 67
     7
 79
     5
170
     0
171
     0
290
     0
174
     0
 93
       13
 44
0.0
173
     0
291
     1
 45
0.0
1001
ACAD
1000
AcDbSavedByObjectVersion
1070
     0
  0
VISUALSTYLE
  5
2E
102
{ACAD_XDICTIONARY
360
544
102
}
102
{ACAD_REACTORS
330
2A
102
}
330
2A
100
AcDbVisualStyle
  2

 70
     3
 71
     2
 72
     2
 73
     1
 90
        2
 40
-0.6
 41
30.0
 62
     5
 63
     7
 74
     1
 91
        0
 64
     7
 65
   257
 75
     1
175
     1
 42
1.0
 92
        0
 66
   257
 43
1.0
 76
     1
 77
     6
 78
     2
 67
     7
 79
     5
170
     0
171
     0
290
     0
174
     0
 93
       13
 44
0.0
173
     0
291
     1
 45
0.0
1001
ACAD
1000
AcDbSavedByObjectVersion
1070
     0
  0
VISUALSTYLE
  5
31
102
{ACAD_XDICTIONARY
360
54A
102
}
102
{ACAD_REACTORS
330
2A
102
}
330
2A
100
AcDbVisualStyle
  2

 70
     6
 71
     1
 72
     2
 73
     2
 90
        0
 40
-0.6
 41
-30.0
 62
     5
 63
     7
 74
     2
 91
        2
 64
     7
 65
   257
 75
     2
175
     1
 42
40.0
 92
        0
 66
   257
 43
1.0
 76
     1
 77
     6
 78
     2
 67
     7
 79
     3
170
     0
171
     0
290
     0
174
     0
 93
        1
 44
0.0
173
     0
291
     0
 45
0.0
1001
ACAD
1000
AcDbSavedByObjectVersion
1070
     0
  0
VISUALSTYLE
  5
3B
102
{ACAD_XDICTIONARY
360
55E
102
}
102
{ACAD_REACTORS
330
2A
102
}
330
2A
100
AcDbVisualStyle
  2

 70
    20
 71
     2
 72
     2
 73
     0
 90
        0
 40
-0.6
 41
-30.0
 62
     5
 63
     7
 74
     1
 91
        4
 64
     7
 65
   257
 75
     1
175
     1
 42
1.0
 92
       10
 66
     7
 43
1.0
 76
     1
 77
     6
 78
     2
 67
     7
 79
     5
170
     0
171
     0
290
     0
174
     0
 93
        1
 44
0.0
173
     0
291
     1
 45
0.0
1001
ACAD
1000
AcDbSavedByObjectVersion
1070
     0
  0
VISUALSTYLE
  5
38
102
{ACAD_XDICTIONARY
360
558
102
}
102
{ACAD_REACTORS
330
2A
102
}
330
2A
100
AcDbVisualStyle
  2

 70
    14
 71
     2
 72
     2
 73
     0
 90
        0
 40
-0.6
 41
-30.0
 62
     5
 63
     7
 74
     1
 91
        4
 64
     7
 65
   257
 75
     7
175
     7
 42
1.0
 92
        8
 66
     7
 43
1.0
 76
     1
 77
     6
 78
     2
 67
     7
 79
     5
170
     0
171
     0
290
     0
174
     0
 93
        1
 44
0.0
173
     0
291
     1
 45
0.0
1001
ACAD
1000
AcDbSavedByObjectVersion
1070
     0
  0
VISUALSTYLE
  5
3C
102
{ACAD_XDICTIONARY
360
560
102
}
102
{ACAD_REACTORS
330
2A
102
}
330
2A
100
AcDbVisualStyle
  2

 70
    21
 71
     2
 72
     2
 73
     0
 90
        0
 40
-0.6
 41
-30.0
 62
     5
 63
     7
 74
     1
 91
        4
 64
     7
 65
   257
 75
     1
175
     1
 42
1.0
 92
        9
 66
     7
 43
1.0
 76
     1
 77
     6
 78
     2
 67
     7
 79
     5
170
     0
171
     0
290
     0
174
     0
 93
        1
 44
0.0
173
     0
291
     1
 45
0.0
1001
ACAD
1000
AcDbSavedByObjectVersion
1070
     0
  0
VISUALSTYLE
  5
33
102
{ACAD_XDICTIONARY
360
54E
102
}
102
{ACAD_REACTORS
330
2A
102
}
330
2A
100
AcDbVisualStyle
  2

 70
     8
 71
     2
 72
     3
 73
     0
 90
        2
 40
-0.6
 41
30.0
 62
     5
 63
     7
 74
     0
 91
        0
 64
     7
 65
   257
 75
     1
175
     1
 42
1.0
 92
        8
 66
   257
 43
1.0
 76
     1
 77
     6
 78
     2
 67
     7
 79
     3
170
     0
171
     0
290
     0
174
     0
 93
       13
 44
0.0
173
     0
291
     0
 45
0.0
1001
ACAD
1000
AcDbSavedByObjectVersion
1070
     0
  0
VISUALSTYLE
  5
42
102
{ACAD_XDICTIONARY
360
56C
102
}
102
{ACAD_REACTORS
330
2A
102
}
330
2A
100
AcDbVisualStyle
  2

 70
    27
 71
     2
 72
     2
 73
     1
 90
        2
 40
-0.6
 41
30.0
 62
     5
 63
     7
 74
     0
 91
        4
 64
     7
 65
   257
 75
     1
175
     1
 42
1.0
 92
        8
 66
   257
 43
1.0
 76
     1
 77
     6
 78
     2
 67
     8
 79
     3
170
     0
171
     0
290
     0
174
     0
 93
        5
 44
0.0
173
     0
291
     0
 45
0.0
1001
ACAD
1000
AcDbSavedByObjectVersion
1070
     0
  0
VISUALSTYLE
  5
41
102
{ACAD_XDICTIONARY
360
56A
102
}
102
{ACAD_REACTORS
330
2A
102
}
330
2A
100
AcDbVisualStyle
  2

 70
    26
 71
     2
 72
     2
 73
     1
 90
        2
 40
-0.6
 41
30.0
 62
     5
 63
     7
 74
     1
 91
       10
 64
     7
 65
   257
 75
     2
175
     1
 42
1.0
 92
        8
 66
   257
 43
1.0
 76
     1
 77
     6
 78
     2
 67
     7
 79
     3
170
     0
171
     0
290
     0
174
     0
 93
        5
 44
0.0
173
     0
291
     0
 45
0.0
1001
ACAD
1000
AcDbSavedByObjectVersion
1070
     0
  0
VISUALSTYLE
  5
3E
102
{ACAD_XDICTIONARY
360
564
102
}
102
{ACAD_REACTORS
330
2A
102
}
330
2A
100
AcDbVisualStyle
  2

 70
    23
 71
     2
 72
     2
 73
     3
 90
        0
 40
-0.6
 41
-30.0
 62
     5
 63
     7
 74
     2
 91
        2
 64
     7
 65
     7
 75
     1
175
     1
 42
40.0
 92
        8
 66
     7
 43
1.0
 76
     1
 77
     6
 78
     2
 67
     7
 79
     3
170
     0
171
     0
290
     0
174
     0
 93
        1
 44
0.0
173
     0
291
     0
 45
0.0
1001
ACAD
1000
AcDbSavedByObjectVersion
1070
     0
  0
VISUALSTYLE
  5
3F
102
{ACAD_XDICTIONARY
360
566
102
}
102
{ACAD_REACTORS
330
2A
102
}
330
2A
100
AcDbVisualStyle
  2

 70
    24
 71
     1
 72
     2
 73
     2
 90
        0
 40
-0.6
 41
-30.0
 62
     5
 63
     7
 74
     2
 91
        2
 64
     7
 65
     7
 75
     1
175
     1
 42
40.0
 92
       11
 66
     7
 43
1.0
 76
     1
 77
     6
 78
     2
 67
     7
 79
     6
170
     0
171
     0
290
     0
174
     0
 93
        1
 44
0.0
173
     0
291
     0
 45
0.0
1001
ACAD
1000
AcDbSavedByObjectVersion
1070
     0
  0
VISUALSTYLE
  5
37
102
{ACAD_XDICTIONARY
360
556
102
}
102
{ACAD_REACTORS
330
2A
102
}
330
2A
100
AcDbVisualStyle
  2

 70
    13
 71
     2
 72
     2
 73
     0
 90
        0
 40
-0.6
 41
-30.0
 62
     5
 63
     7
 74
     1
 91
        4
 64
     7
 65
   257
 75
     1
175
     1
 42
1.0
 92
       12
 66
     7
 43
1.0
 76
     1
 77
     6
 78
     2
 67
     7
 79
     5
170
     0
171
     0
290
     0
174
     0
 93
        1
 44
0.0
173
     0
291
     1
 45
0.0
1001
ACAD
1000
AcDbSavedByObjectVersion
1070
     0
  0
VISUALSTYLE
  5
30
102
{ACAD_XDICTIONARY
360
548
102
}
102
{ACAD_REACTORS
330
2A
102
}
330
2A
100
AcDbVisualStyle
  2

 70
     5
 71
     0
 72
     2
 73
     0
 90
        0
 40
-0.6
 41
-30.0
 62
     5
 63
     7
 74
     1
 91
        4
 64
     7
 65
   257
 75
     1
175
     1
 42
1.0
 92
        0
 66
   257
 43
1.0
 76
     1
 77
     6
 78
     2
 67
     7
 79
     3
170
     0
171
     0
290
     0
174
     0
 93
        1
 44
0.0
173
     0
291
     0
 45
0.0
1001
ACAD
1000
AcDbSavedByObjectVersion
1070
     0
  0
VISUALSTYLE
  5
40
102
{ACAD_XDICTIONARY
360
568
102
}
102
{ACAD_REACTORS
330
2A
102
}
330
2A
100
AcDbVisualStyle
  2

 70
    25
 71
     2
 72
     2
 73
     1
 90
        1
 40
0.5
 41
-30.0
 62
     5
 63
     7
 74
     1
 91
        0
 64
     7
 65
   257
 75
     1
175
     1
 42
1.0
 92
        8
 66
     7
 43
1.0
 76
     1
 77
     6
 78
     2
 67
     7
 79
     3
170
     0
171
     0
290
     0
174
     0
 93
       13
 44
0.0
173
     0
291
     0
 45
0.0
1001
ACAD
1000
AcDbSavedByObjectVersion
1070
     0
  0
DICTIONARYVAR
  5
1F0
102
{ACAD_REACTORS
330
1E2
102
}
330
1E2
100
DictionaryVariables
280
     0
  1
1:1
  0
DICTIONARYVAR
  5
1E9
102
{ACAD_REACTORS
330
1E2
102
}
330
1E2
100
DictionaryVariables
280
     0
  1
3.500000
  0
DICTIONARYVAR
  5
1EA
102
{ACAD_REACTORS
330
1E2
102
}
330
1E2
100
DictionaryVariables
280
     0
  1
acadiso.lin
  0
DICTIONARYVAR
  5
1E4
102
{ACAD_REACTORS
330
1E2
102
}
330
1E2
100
DictionaryVariables
280
     0
  1
STANDARD
  0
DICTIONARYVAR
  5
1E3
102
{ACAD_REACTORS
330
1E2
102
}
330
1E2
100
DictionaryVariables
280
     0
  1
STANDARD
  0
DICTIONARYVAR
  5
4A6
102
{ACAD_REACTORS
330
1E2
102
}
330
1E2
100
DictionaryVariables
280
     0
  1
Metric50
  0
DICTIONARYVAR
  5
4A7
102
{ACAD_REACTORS
330
1E2
102
}
330
1E2
100
DictionaryVariables
280
     0
  1
Metric50
  0
DICTIONARYVAR
  5
1EB
102
{ACAD_REACTORS
330
1E2
102
}
330
1E2
100
DictionaryVariables
280
     0
  1
2
  0
DICTIONARYVAR
  5
1EC
102
{ACAD_REACTORS
330
1E2
102
}
330
1E2
100
DictionaryVariables
280
     0
  1
1
  0
DICTIONARYVAR
  5
4F2
102
{ACAD_REACTORS
330
1E2
102
}
330
1E2
100
DictionaryVariables
280
     0
  1
0
  0
DICTIONARYVAR
  5
4A9
102
{ACAD_REACTORS
330
1E2
102
}
330
1E2
100
DictionaryVariables
280
     0
  1
1
  0
DICTIONARYVAR
  5
4AA
102
{ACAD_REACTORS
330
1E2
102
}
330
1E2
100
DictionaryVariables
280
     0
  1
15
  0
DICTIONARYVAR
  5
4A8
102
{ACAD_REACTORS
330
1E2
102
}
330
1E2
100
DictionaryVariables
280
     0
  1
0
  0
DICTIONARYVAR
  5
4F5
102
{ACAD_REACTORS
330
1E2
102
}
330
1E2
100
DictionaryVariables
280
     0
  1
1.570796
  0
DICTIONARYVAR
  5
4F6
102
{ACAD_REACTORS
330
1E2
102
}
330
1E2
100
DictionaryVariables
280
     0
  1
1.570796
  0
DICTIONARYVAR
  5
4F7
102
{ACAD_REACTORS
330
1E2
102
}
330
1E2
100
DictionaryVariables
280
     0
  1
-122.394000
  0
DICTIONARYVAR
  5
1F1
102
{ACAD_REACTORS
330
1E2
102
}
330
1E2
100
DictionaryVariables
280
     0
  1
1
  0
DICTIONARYVAR
  5
4F4
102
{ACAD_REACTORS
330
1E2
102
}
330
1E2
100
DictionaryVariables
280
     0
  1
80.000000
  0
DICTIONARYVAR
  5
4F3
102
{ACAD_REACTORS
330
1E2
102
}
330
1E2
100
DictionaryVariables
280
     0
  1
5.000000
  0
DICTIONARYVAR
  5
4F1
102
{ACAD_REACTORS
330
1E2
102
}
330
1E2
100
DictionaryVariables
280
     0
  1
127
  0
DICTIONARYVAR
  5
4F8
102
{ACAD_REACTORS
330
1E2
102
}
330
1E2
100
DictionaryVariables
280
     0
  1
2
  0
DICTIONARY
  5
571
330
231
100
AcDbDictionary
280
     1
281
     1
  3
ACAD_XREC_ROUNDTRIP
360
572
  0
DICTIONARY
  5
53A
330
1E
100
AcDbDictionary
280
     1
281
     1
  3
ACAD_XREC_ROUNDTRIP
360
53B
  0
DICTIONARY
  5
53C
330
22
100
AcDbDictionary
280
     1
281
     1
  3
ACAD_XREC_ROUNDTRIP
360
53D
  0
DICTIONARY
  5
573
330
232
100
AcDbDictionary
280
     1
281
     1
  3
ACAD_XREC_ROUNDTRIP
360
574
  0
DICTIONARY
  5
224
330
45
100
AcDbDictionary
280
     1
281
     1
  3
ACAD_XREC_ROUNDTRIP
360
225
  0
DICTIONARY
  5
222
330
44
100
AcDbDictionary
280
     1
281
     1
  3
ACAD_XREC_ROUNDTRIP
360
223
  0
DICTIONARY
  5
226
330
46
100
AcDbDictionary
280
     1
281
     1
  3
ACAD_XREC_ROUNDTRIP
360
227
  0
DICTIONARY
  5
56F
330
22F
100
AcDbDictionary
280
     1
281
     1
  3
ACAD_XREC_ROUNDTRIP
360
570
  0
DICTIONARY
  5
4AB
330
5A
100
AcDbDictionary
280
     1
281
     1
  3
ACAD_ROUNDTRIP_2008_TABLESTYLE_CELLSTYLEMAP
360
537
  3
ACAD_XREC_ROUNDTRIP
360
56E
  0
DICTIONARY
  5
546
330
2F
100
AcDbDictionary
280
     1
281
     1
  3
ACAD_XREC_ROUNDTRIP
360
547
  0
DICTIONARY
  5
54C
330
32
100
AcDbDictionary
280
     1
281
     1
  3
ACAD_XREC_ROUNDTRIP
360
54D
  0
DICTIONARY
  5
554
330
36
100
AcDbDictionary
280
     1
281
     1
  3
ACAD_XREC_ROUNDTRIP
360
555
  0
DICTIONARY
  5
55C
330
3A
100
AcDbDictionary
280
     1
281
     1
  3
ACAD_XREC_ROUNDTRIP
360
55D
  0
DICTIONARY
  5
550
330
34
100
AcDbDictionary
280
     1
281
     1
  3
ACAD_XREC_ROUNDTRIP
360
551
  0
DICTIONARY
  5
552
330
35
100
AcDbDictionary
280
     1
281
     1
  3
ACAD_XREC_ROUNDTRIP
360
553
  0
DICTIONARY
  5
562
330
3D
100
AcDbDictionary
280
     1
281
     1
  3
ACAD_XREC_ROUNDTRIP
360
563
  0
DICTIONARY
  5
55A
330
39
100
AcDbDictionary
280
     1
281
     1
  3
ACAD_XREC_ROUNDTRIP
360
55B
  0
DICTIONARY
  5
53E
330
2B
100
AcDbDictionary
280
     1
281
     1
  3
ACAD_XREC_ROUNDTRIP
360
53F
  0
DICTIONARY
  5
540
330
2C
100
AcDbDictionary
280
     1
281
     1
  3
ACAD_XREC_ROUNDTRIP
360
541
  0
DICTIONARY
  5
542
330
2D
100
AcDbDictionary
280
     1
281
     1
  3
ACAD_XREC_ROUNDTRIP
360
543
  0
DICTIONARY
  5
544
330
2E
100
AcDbDictionary
280
     1
281
     1
  3
ACAD_XREC_ROUNDTRIP
360
545
  0
DICTIONARY
  5
54A
330
31
100
AcDbDictionary
280
     1
281
     1
  3
ACAD_XREC_ROUNDTRIP
360
54B
  0
DICTIONARY
  5
55E
330
3B
100
AcDbDictionary
280
     1
281
     1
  3
ACAD_XREC_ROUNDTRIP
360
55F
  0
DICTIONARY
  5
558
330
38
100
AcDbDictionary
280
     1
281
     1
  3
ACAD_XREC_ROUNDTRIP
360
559
  0
DICTIONARY
  5
560
330
3C
100
AcDbDictionary
280
     1
281
     1
  3
ACAD_XREC_ROUNDTRIP
360
561
  0
DICTIONARY
  5
54E
330
33
100
AcDbDictionary
280
     1
281
     1
  3
ACAD_XREC_ROUNDTRIP
360
54F
  0
DICTIONARY
  5
56C
330
42
100
AcDbDictionary
280
     1
281
     1
  3
ACAD_XREC_ROUNDTRIP
360
56D
  0
DICTIONARY
  5
56A
330
41
100
AcDbDictionary
280
     1
281
     1
  3
ACAD_XREC_ROUNDTRIP
360
56B
  0
DICTIONARY
  5
564
330
3E
100
AcDbDictionary
280
     1
281
     1
  3
ACAD_XREC_ROUNDTRIP
360
565
  0
DICTIONARY
  5
566
330
3F
100
AcDbDictionary
280
     1
281
     1
  3
ACAD_XREC_ROUNDTRIP
360
567
  0
DICTIONARY
  5
556
330
37
100
AcDbDictionary
280
     1
281
     1
  3
ACAD_XREC_ROUNDTRIP
360
557
  0
DICTIONARY
  5
548
330
30
100
AcDbDictionary
280
     1
281
     1
  3
ACAD_XREC_ROUNDTRIP
360
549
  0
DICTIONARY
  5
568
330
40
100
AcDbDictionary
280
     1
281
     1
  3
ACAD_XREC_ROUNDTRIP
360
569
  0
XRECORD
  5
572
102
{ACAD_REACTORS
330
571
102
}
330
571
100
AcDbXrecord
280
     1
102
DISPLAYNAME
  1
Metric50
102
FLAGS
 90
        0
  0
XRECORD
  5
53B
102
{ACAD_REACTORS
330
53A
102
}
330
53A
100
AcDbXrecord
280
     1
102
SHADEPLOT
 70
     0
102
SHADEPLOTRESLEVEL
 70
     2
102
SHADEPLOTCUSTOMDPI
 70
   300
  0
XRECORD
  5
53D
102
{ACAD_REACTORS
330
53C
102
}
330
53C
100
AcDbXrecord
280
     1
102
SHADEPLOT
 70
     0
102
SHADEPLOTRESLEVEL
 70
     2
102
SHADEPLOTCUSTOMDPI
 70
   300
  0
XRECORD
  5
574
102
{ACAD_REACTORS
330
573
102
}
330
573
100
AcDbXrecord
280
     1
102
SHADEPLOT
 70
     0
102
SHADEPLOTRESLEVEL
 70
     2
102
SHADEPLOTCUSTOMDPI
 70
   300
  0
XRECORD
  5
225
102
{ACAD_REACTORS
330
224
102
}
330
224
100
AcDbXrecord
280
     1
102
MATERIAL
148
0.0
149
0.0
149
0.0
 93
        0
 94
      127
282
     0
 72
     1
 77
     1
171
     1
175
     1
179
     1
273
     0
  0
XRECORD
  5
223
102
{ACAD_REACTORS
330
222
102
}
330
222
100
AcDbXrecord
280
     1
102
MATERIAL
148
0.0
149
0.0
149
0.0
 93
        0
 94
      127
282
     0
 72
     1
 77
     1
171
     1
175
     1
179
     1
273
     0
  0
XRECORD
  5
227
102
{ACAD_REACTORS
330
226
102
}
330
226
100
AcDbXrecord
280
     1
102
MATERIAL
148
0.0
149
0.0
149
0.0
 93
        0
 94
      127
282
     0
 72
     1
 77
     1
171
     1
175
     1
179
     1
273
     0
  0
XRECORD
  5
570
102
{ACAD_REACTORS
330
56F
102
}
330
56F
100
AcDbXrecord
280
     1
102
DISPLAYNAME
  1
Metric50
102
FLAGS
 90
        0
  0
CELLSTYLEMAP
  5
537
102
{ACAD_REACTORS
330
4AB
102
}
330
4AB
100
AcDbCellStyleMap
 90
        3
300
CELLSTYLE
  1
TABLEFORMAT_BEGIN
 90
        5
170
     1
 91
        0
 92
    32768
 62
   257
 93
        1
300
CONTENTFORMAT
  1
CONTENTFORMAT_BEGIN
 90
        0
 91
        0
 92
        4
 93
        0
300

 40
0.0
140
1.0
 94
        5
 62
     0
340
11
144
6.0
309
CONTENTFORMAT_END
171
     1
301
MARGIN
  1
CELLMARGIN_BEGIN
 40
1.5
 40
1.5
 40
1.5
 40
1.5
 40
0.18
 40
0.18
309
CELLMARGIN_END
 94
        6
 95
        1
302
GRIDFORMAT
  1
GRIDFORMAT_BEGIN
 90
        0
 91
        1
 62
     0
 92
       -2
340
0
 93
        0
 40
0.045
309
GRIDFORMAT_END
 95
        2
302
GRIDFORMAT
  1
GRIDFORMAT_BEGIN
 90
        0
 91
        1
 62
     0
 92
       -2
340
0
 93
        0
 40
0.045
309
GRIDFORMAT_END
 95
        4
302
GRIDFORMAT
  1
GRIDFORMAT_BEGIN
 90
        0
 91
        1
 62
     0
 92
       -2
340
0
 93
        0
 40
0.045
309
GRIDFORMAT_END
 95
        8
302
GRIDFORMAT
  1
GRIDFORMAT_BEGIN
 90
        0
 91
        1
 62
     0
 92
       -2
340
0
 93
        0
 40
0.045
309
GRIDFORMAT_END
 95
       16
302
GRIDFORMAT
  1
GRIDFORMAT_BEGIN
 90
        0
 91
        1
 62
     0
 92
       -2
340
0
 93
        0
 40
0.045
309
GRIDFORMAT_END
 95
       32
302
GRIDFORMAT
  1
GRIDFORMAT_BEGIN
 90
        0
 91
        1
 62
     0
 92
       -2
340
0
 93
        0
 40
0.045
309
GRIDFORMAT_END
309
TABLEFORMAT_END
  1
CELLSTYLE_BEGIN
 90
        1
 91
        1
300
_TITLE
309
CELLSTYLE_END
300
CELLSTYLE
  1
TABLEFORMAT_BEGIN
 90
        5
170
     1
 91
        0
 92
        0
 62
   257
 93
        1
300
CONTENTFORMAT
  1
CONTENTFORMAT_BEGIN
 90
        0
 91
        0
 92
        4
 93
        0
300

 40
0.0
140
1.0
 94
        5
 62
     0
340
11
144
4.5
309
CONTENTFORMAT_END
171
     1
301
MARGIN
  1
CELLMARGIN_BEGIN
 40
1.5
 40
1.5
 40
1.5
 40
1.5
 40
0.18
 40
0.18
309
CELLMARGIN_END
 94
        6
 95
        1
302
GRIDFORMAT
  1
GRIDFORMAT_BEGIN
 90
        0
 91
        1
 62
     0
 92
       -2
340
0
 93
        0
 40
0.045
309
GRIDFORMAT_END
 95
        2
302
GRIDFORMAT
  1
GRIDFORMAT_BEGIN
 90
        0
 91
        1
 62
     0
 92
       -2
340
0
 93
        0
 40
0.045
309
GRIDFORMAT_END
 95
        4
302
GRIDFORMAT
  1
GRIDFORMAT_BEGIN
 90
        0
 91
        1
 62
     0
 92
       -2
340
0
 93
        0
 40
0.045
309
GRIDFORMAT_END
 95
        8
302
GRIDFORMAT
  1
GRIDFORMAT_BEGIN
 90
        0
 91
        1
 62
     0
 92
       -2
340
0
 93
        0
 40
0.045
309
GRIDFORMAT_END
 95
       16
302
GRIDFORMAT
  1
GRIDFORMAT_BEGIN
 90
        0
 91
        1
 62
     0
 92
       -2
340
0
 93
        0
 40
0.045
309
GRIDFORMAT_END
 95
       32
302
GRIDFORMAT
  1
GRIDFORMAT_BEGIN
 90
        0
 91
        1
 62
     0
 92
       -2
340
0
 93
        0
 40
0.045
309
GRIDFORMAT_END
309
TABLEFORMAT_END
  1
CELLSTYLE_BEGIN
 90
        2
 91
        1
300
_HEADER
309
CELLSTYLE_END
300
CELLSTYLE
  1
TABLEFORMAT_BEGIN
 90
        5
170
     1
 91
        0
 92
        0
 62
   257
 93
        1
300
CONTENTFORMAT
  1
CONTENTFORMAT_BEGIN
 90
        0
 91
        0
 92
        4
 93
        0
300

 40
0.0
140
1.0
 94
        2
 62
     0
340
11
144
4.5
309
CONTENTFORMAT_END
171
     1
301
MARGIN
  1
CELLMARGIN_BEGIN
 40
1.5
 40
1.5
 40
1.5
 40
1.5
 40
0.18
 40
0.18
309
CELLMARGIN_END
 94
        6
 95
        1
302
GRIDFORMAT
  1
GRIDFORMAT_BEGIN
 90
        0
 91
        1
 62
     0
 92
       -2
340
0
 93
        0
 40
0.045
309
GRIDFORMAT_END
 95
        2
302
GRIDFORMAT
  1
GRIDFORMAT_BEGIN
 90
        0
 91
        1
 62
     0
 92
       -2
340
0
 93
        0
 40
0.045
309
GRIDFORMAT_END
 95
        4
302
GRIDFORMAT
  1
GRIDFORMAT_BEGIN
 90
        0
 91
        1
 62
     0
 92
       -2
340
0
 93
        0
 40
0.045
309
GRIDFORMAT_END
 95
        8
302
GRIDFORMAT
  1
GRIDFORMAT_BEGIN
 90
        0
 91
        1
 62
     0
 92
       -2
340
0
 93
        0
 40
0.045
309
GRIDFORMAT_END
 95
       16
302
GRIDFORMAT
  1
GRIDFORMAT_BEGIN
 90
        0
 91
        1
 62
     0
 92
       -2
340
0
 93
        0
 40
0.045
309
GRIDFORMAT_END
 95
       32
302
GRIDFORMAT
  1
GRIDFORMAT_BEGIN
 90
        0
 91
        1
 62
     0
 92
       -2
340
0
 93
        0
 40
0.045
309
GRIDFORMAT_END
309
TABLEFORMAT_END
  1
CELLSTYLE_BEGIN
 90
        3
 91
        2
300
_DATA
309
CELLSTYLE_END
  0
XRECORD
  5
56E
102
{ACAD_REACTORS
330
4AB
102
}
330
4AB
100
AcDbXrecord
280
     1
102
ACAD_ROUNDTRIP_PRE2007_TABLESTYLE
 90
        4
 91
        0
  1

 92
        4
 93
        0
  2

 94
        4
 95
        0
  3

  0
XRECORD
  5
547
102
{ACAD_REACTORS
330
546
102
}
330
546
100
AcDbXrecord
280
     1
102
RTVSPost2010Prop28
280
     1
102
RTVSPost2010PropOp28
 70
     1
102
RTVSPost2010Prop29
280
     1
102
RTVSPost2010PropOp29
 70
     1
102
RTVSPost2010Prop30
280
     0
102
RTVSPost2010PropOp30
 70
     1
102
RTVSPost2010Prop31
280
     0
102
RTVSPost2010PropOp31
 70
     1
102
RTVSPost2010Prop32
280
     0
102
RTVSPost2010PropOp32
 70
     1
102
RTVSPost2010Prop33
280
     0
102
RTVSPost2010PropOp33
 70
     1
102
RTVSPost2010Prop34
280
     0
102
RTVSPost2010PropOp34
 70
     1
102
RTVSPost2010Prop35
280
     0
102
RTVSPost2010PropOp35
 70
     1
102
RTVSPost2010Prop36
280
     0
102
RTVSPost2010PropOp36
 70
     1
102
RTVSPost2010Prop37
 90
       50
102
RTVSPost2010PropOp37
 70
     1
102
RTVSPost2010Prop38
140
0.0
102
RTVSPost2010PropOp38
 70
     1
102
RTVSPost2010Prop39
140
1.0
102
RTVSPost2010PropOp39
 70
     1
102
RTVSPost2010Prop40
 90
        0
102
RTVSPost2010PropOp40
 70
     1
102
RTVSPost2010Prop41ColorIndex
 90
       18
102
RTVSPost2010Prop41ColorRGB
 90
        0
102
RTVSPost2010PropOp41
 70
     1
102
RTVSPost2010Prop42
 90
       50
102
RTVSPost2010PropOp42
 70
     1
102
RTVSPost2010Prop43
 90
        3
102
RTVSPost2010PropOp43
 70
     1
102
RTVSPost2010Prop44ColorIndex
 90
        5
102
RTVSPost2010Prop44ColorRGB
 90
      255
102
RTVSPost2010PropOp44
 70
     1
102
RTVSPost2010Prop45
280
     0
102
RTVSPost2010PropOp45
 70
     1
102
RTVSPost2010Prop46
 90
       50
102
RTVSPost2010PropOp46
 70
     1
102
RTVSPost2010Prop47
 90
       50
102
RTVSPost2010PropOp47
 70
     1
102
RTVSPost2010Prop48
 90
       50
102
RTVSPost2010PropOp48
 70
     1
102
RTVSPost2010Prop49
280
     0
102
RTVSPost2010PropOp49
 70
     1
102
RTVSPost2010Prop50
 90
       50
102
RTVSPost2010PropOp50
 70
     1
102
RTVSPost2010Prop51ColorIndex
 90
      256
102
RTVSPost2010Prop51ColorRGB
 90
-16777216
102
RTVSPost2010PropOp51
 70
     0
102
RTVSPost2010Prop52
140
1.0
102
RTVSPost2010PropOp52
 70
     0
102
RTVSPost2010Prop53
 90
        2
102
RTVSPost2010PropOp53
 70
     1
102
RTVSPost2010Prop54
  1
strokes_ogs.tif
102
RTVSPost2010PropOp54
 70
     1
102
RTVSPost2010Prop55
280
     0
102
RTVSPost2010PropOp55
 70
     1
102
RTVSPost2010Prop56
140
1.0
102
RTVSPost2010PropOp56
 70
     1
102
RTVSPost2010Prop57
140
1.0
102
RTVSPost2010PropOp57
 70
     1
102
RTVSPropertyOp0
 70
     1
102
RTVSPropertyOp1
 70
     1
102
RTVSPropertyOp2
 70
     1
102
RTVSPropertyOp3
 70
     1
102
RTVSPropertyOp4
 70
     1
102
RTVSPropertyOp5
 70
     1
102
RTVSPropertyOp6
 70
     1
102
RTVSPropertyOp7
 70
     1
102
RTVSPropertyOp8
 70
     1
102
RTVSPropertyOp9
 70
     1
102
RTVSPropertyOp10
 70
     1
102
RTVSPropertyOp11
 70
     1
102
RTVSPropertyOp12
 70
     1
102
RTVSPropertyOp13
 70
     1
102
RTVSPropertyOp14
 70
     1
102
RTVSPropertyOp15
 70
     1
102
RTVSPropertyOp16
 70
     1
102
RTVSPropertyOp17
 70
     1
102
RTVSPropertyOp18
 70
     1
102
RTVSPropertyOp19
 70
     1
102
RTVSPropertyOp20
 70
     1
102
RTVSPropertyOp21
 70
     1
102
RTVSPropertyOp22
 70
     1
102
RTVSPropertyOp23
 70
     1
102
RTVSPropertyOp24
 70
     1
102
RTVSPropertyOp25
 70
     1
102
RTVSPropertyOp26
 70
     1
102
RTVSPropertyOp27
 70
     1
102
RTVSPropertyOp28
 70
     1
102
RTVSPropertyOp29
 70
     1
102
RTVSPropertyOp30
 70
     1
102
RTVSPropertyOp31
 70
     1
102
RTVSPropertyOp32
 70
     1
102
RTVSPropertyOp33
 70
     1
102
RTVSPropertyOp34
 70
     1
102
RTVSPropertyOp35
 70
     1
102
RTVSPropertyOp36
 70
     1
102
RTVSPropertyOp37
 70
     1
102
RTVSPropertyOp38
 70
     1
102
RTVSPropertyOp39
 70
     1
102
RTVSPropertyOp40
 70
     1
102
RTVSPropertyOp41
 70
     1
102
RTVSPropertyOp42
 70
     1
102
RTVSPropertyOp43
 70
     1
102
RTVSPropertyOp44
 70
     1
102
RTVSPropertyOp45
 70
     1
102
RTVSPropertyOp46
 70
     1
102
RTVSPropertyOp47
 70
     1
102
RTVSPropertyOp48
 70
     1
102
RTVSPropertyOp49
 70
     1
102
RTVSPropertyOp50
 70
     1
102
RTVSPropertyOp51
 70
     0
102
RTVSPropertyOp52
 70
     0
102
RTVSPropertyOp53
 70
     1
102
RTVSPropertyOp54
 70
     1
102
RTVSPropertyOp55
 70
     1
102
RTVSPropertyOp56
 70
     1
102
RTVSPropertyOp57
 70
     1
102
RTVSPropertyOp58
 70
     1
102
RTVSPropertyOp59
 70
     1
102
RTVSPropertyOp60
 70
     1
102
RTVSPropertyOp61
 70
     1
102
RTVSPropertyOp62
 70
     1
  0
XRECORD
  5
54D
102
{ACAD_REACTORS
330
54C
102
}
330
54C
100
AcDbXrecord
280
     1
102
RTVSPost2010Prop28
280
     0
102
RTVSPost2010PropOp28
 70
     1
102
RTVSPost2010Prop29
280
     1
102
RTVSPost2010PropOp29
 70
     1
102
RTVSPost2010Prop30
280
     1
102
RTVSPost2010PropOp30
 70
     1
102
RTVSPost2010Prop31
280
     0
102
RTVSPost2010PropOp31
 70
     1
102
RTVSPost2010Prop32
280
     0
102
RTVSPost2010PropOp32
 70
     1
102
RTVSPost2010Prop33
280
     0
102
RTVSPost2010PropOp33
 70
     1
102
RTVSPost2010Prop34
280
     0
102
RTVSPost2010PropOp34
 70
     1
102
RTVSPost2010Prop35
280
     0
102
RTVSPost2010PropOp35
 70
     1
102
RTVSPost2010Prop36
280
     0
102
RTVSPost2010PropOp36
 70
     1
102
RTVSPost2010Prop37
 90
       50
102
RTVSPost2010PropOp37
 70
     1
102
RTVSPost2010Prop38
140
0.0
102
RTVSPost2010PropOp38
 70
     1
102
RTVSPost2010Prop39
140
1.0
102
RTVSPost2010PropOp39
 70
     1
102
RTVSPost2010Prop40
 90
        0
102
RTVSPost2010PropOp40
 70
     1
102
RTVSPost2010Prop41ColorIndex
 90
       18
102
RTVSPost2010Prop41ColorRGB
 90
        0
102
RTVSPost2010PropOp41
 70
     1
102
RTVSPost2010Prop42
 90
       50
102
RTVSPost2010PropOp42
 70
     1
102
RTVSPost2010Prop43
 90
        3
102
RTVSPost2010PropOp43
 70
     1
102
RTVSPost2010Prop44ColorIndex
 90
        5
102
RTVSPost2010Prop44ColorRGB
 90
      255
102
RTVSPost2010PropOp44
 70
     1
102
RTVSPost2010Prop45
280
     0
102
RTVSPost2010PropOp45
 70
     1
102
RTVSPost2010Prop46
 90
       50
102
RTVSPost2010PropOp46
 70
     1
102
RTVSPost2010Prop47
 90
       50
102
RTVSPost2010PropOp47
 70
     1
102
RTVSPost2010Prop48
 90
       50
102
RTVSPost2010PropOp48
 70
     1
102
RTVSPost2010Prop49
280
     0
102
RTVSPost2010PropOp49
 70
     1
102
RTVSPost2010Prop50
 90
       50
102
RTVSPost2010PropOp50
 70
     1
102
RTVSPost2010Prop51ColorIndex
 90
      256
102
RTVSPost2010Prop51ColorRGB
 90
-16777216
102
RTVSPost2010PropOp51
 70
     0
102
RTVSPost2010Prop52
140
1.0
102
RTVSPost2010PropOp52
 70
     0
102
RTVSPost2010Prop53
 90
        2
102
RTVSPost2010PropOp53
 70
     1
102
RTVSPost2010Prop54
  1
strokes_ogs.tif
102
RTVSPost2010PropOp54
 70
     1
102
RTVSPost2010Prop55
280
     0
102
RTVSPost2010PropOp55
 70
     1
102
RTVSPost2010Prop56
140
1.0
102
RTVSPost2010PropOp56
 70
     1
102
RTVSPost2010Prop57
140
1.0
102
RTVSPost2010PropOp57
 70
     1
102
RTVSPropertyOp0
 70
     1
102
RTVSPropertyOp1
 70
     1
102
RTVSPropertyOp2
 70
     1
102
RTVSPropertyOp3
 70
     1
102
RTVSPropertyOp4
 70
     1
102
RTVSPropertyOp5
 70
     1
102
RTVSPropertyOp6
 70
     1
102
RTVSPropertyOp7
 70
     1
102
RTVSPropertyOp8
 70
     1
102
RTVSPropertyOp9
 70
     1
102
RTVSPropertyOp10
 70
     1
102
RTVSPropertyOp11
 70
     1
102
RTVSPropertyOp12
 70
     1
102
RTVSPropertyOp13
 70
     1
102
RTVSPropertyOp14
 70
     1
102
RTVSPropertyOp15
 70
     1
102
RTVSPropertyOp16
 70
     1
102
RTVSPropertyOp17
 70
     1
102
RTVSPropertyOp18
 70
     1
102
RTVSPropertyOp19
 70
     1
102
RTVSPropertyOp20
 70
     1
102
RTVSPropertyOp21
 70
     1
102
RTVSPropertyOp22
 70
     1
102
RTVSPropertyOp23
 70
     1
102
RTVSPropertyOp24
 70
     1
102
RTVSPropertyOp25
 70
     1
102
RTVSPropertyOp26
 70
     1
102
RTVSPropertyOp27
 70
     1
102
RTVSPropertyOp28
 70
     1
102
RTVSPropertyOp29
 70
     1
102
RTVSPropertyOp30
 70
     1
102
RTVSPropertyOp31
 70
     1
102
RTVSPropertyOp32
 70
     1
102
RTVSPropertyOp33
 70
     1
102
RTVSPropertyOp34
 70
     1
102
RTVSPropertyOp35
 70
     1
102
RTVSPropertyOp36
 70
     1
102
RTVSPropertyOp37
 70
     1
102
RTVSPropertyOp38
 70
     1
102
RTVSPropertyOp39
 70
     1
102
RTVSPropertyOp40
 70
     1
102
RTVSPropertyOp41
 70
     1
102
RTVSPropertyOp42
 70
     1
102
RTVSPropertyOp43
 70
     1
102
RTVSPropertyOp44
 70
     1
102
RTVSPropertyOp45
 70
     1
102
RTVSPropertyOp46
 70
     1
102
RTVSPropertyOp47
 70
     1
102
RTVSPropertyOp48
 70
     1
102
RTVSPropertyOp49
 70
     1
102
RTVSPropertyOp50
 70
     1
102
RTVSPropertyOp51
 70
     0
102
RTVSPropertyOp52
 70
     0
102
RTVSPropertyOp53
 70
     1
102
RTVSPropertyOp54
 70
     1
102
RTVSPropertyOp55
 70
     1
102
RTVSPropertyOp56
 70
     1
102
RTVSPropertyOp57
 70
     1
102
RTVSPropertyOp58
 70
     1
102
RTVSPropertyOp59
 70
     1
102
RTVSPropertyOp60
 70
     1
102
RTVSPropertyOp61
 70
     1
102
RTVSPropertyOp62
 70
     1
  0
XRECORD
  5
555
102
{ACAD_REACTORS
330
554
102
}
330
554
100
AcDbXrecord
280
     1
102
RTVSPost2010Prop28
280
     0
102
RTVSPost2010PropOp28
 70
     1
102
RTVSPost2010Prop29
280
     1
102
RTVSPost2010PropOp29
 70
     1
102
RTVSPost2010Prop30
280
     1
102
RTVSPost2010PropOp30
 70
     1
102
RTVSPost2010Prop31
280
     0
102
RTVSPost2010PropOp31
 70
     1
102
RTVSPost2010Prop32
280
     0
102
RTVSPost2010PropOp32
 70
     1
102
RTVSPost2010Prop33
280
     0
102
RTVSPost2010PropOp33
 70
     1
102
RTVSPost2010Prop34
280
     0
102
RTVSPost2010PropOp34
 70
     1
102
RTVSPost2010Prop35
280
     0
102
RTVSPost2010PropOp35
 70
     1
102
RTVSPost2010Prop36
280
     0
102
RTVSPost2010PropOp36
 70
     1
102
RTVSPost2010Prop37
 90
       50
102
RTVSPost2010PropOp37
 70
     1
102
RTVSPost2010Prop38
140
0.0
102
RTVSPost2010PropOp38
 70
     1
102
RTVSPost2010Prop39
140
1.0
102
RTVSPost2010PropOp39
 70
     1
102
RTVSPost2010Prop40
 90
        0
102
RTVSPost2010PropOp40
 70
     1
102
RTVSPost2010Prop41ColorIndex
 90
       18
102
RTVSPost2010Prop41ColorRGB
 90
        0
102
RTVSPost2010PropOp41
 70
     1
102
RTVSPost2010Prop42
 90
       50
102
RTVSPost2010PropOp42
 70
     1
102
RTVSPost2010Prop43
 90
        3
102
RTVSPost2010PropOp43
 70
     1
102
RTVSPost2010Prop44ColorIndex
 90
        5
102
RTVSPost2010Prop44ColorRGB
 90
      255
102
RTVSPost2010PropOp44
 70
     1
102
RTVSPost2010Prop45
280
     0
102
RTVSPost2010PropOp45
 70
     1
102
RTVSPost2010Prop46
 90
       50
102
RTVSPost2010PropOp46
 70
     1
102
RTVSPost2010Prop47
 90
       50
102
RTVSPost2010PropOp47
 70
     1
102
RTVSPost2010Prop48
 90
       50
102
RTVSPost2010PropOp48
 70
     1
102
RTVSPost2010Prop49
280
     0
102
RTVSPost2010PropOp49
 70
     1
102
RTVSPost2010Prop50
 90
       50
102
RTVSPost2010PropOp50
 70
     1
102
RTVSPost2010Prop51ColorIndex
 90
      256
102
RTVSPost2010Prop51ColorRGB
 90
-16777216
102
RTVSPost2010PropOp51
 70
     0
102
RTVSPost2010Prop52
140
1.0
102
RTVSPost2010PropOp52
 70
     0
102
RTVSPost2010Prop53
 90
        2
102
RTVSPost2010PropOp53
 70
     1
102
RTVSPost2010Prop54
  1
strokes_ogs.tif
102
RTVSPost2010PropOp54
 70
     1
102
RTVSPost2010Prop55
280
     0
102
RTVSPost2010PropOp55
 70
     1
102
RTVSPost2010Prop56
140
1.0
102
RTVSPost2010PropOp56
 70
     1
102
RTVSPost2010Prop57
140
1.0
102
RTVSPost2010PropOp57
 70
     1
102
RTVSPropertyOp0
 70
     1
102
RTVSPropertyOp1
 70
     1
102
RTVSPropertyOp2
 70
     1
102
RTVSPropertyOp3
 70
     1
102
RTVSPropertyOp4
 70
     1
102
RTVSPropertyOp5
 70
     1
102
RTVSPropertyOp6
 70
     1
102
RTVSPropertyOp7
 70
     1
102
RTVSPropertyOp8
 70
     1
102
RTVSPropertyOp9
 70
     1
102
RTVSPropertyOp10
 70
     1
102
RTVSPropertyOp11
 70
     1
102
RTVSPropertyOp12
 70
     1
102
RTVSPropertyOp13
 70
     1
102
RTVSPropertyOp14
 70
     1
102
RTVSPropertyOp15
 70
     1
102
RTVSPropertyOp16
 70
     1
102
RTVSPropertyOp17
 70
     1
102
RTVSPropertyOp18
 70
     1
102
RTVSPropertyOp19
 70
     1
102
RTVSPropertyOp20
 70
     1
102
RTVSPropertyOp21
 70
     1
102
RTVSPropertyOp22
 70
     1
102
RTVSPropertyOp23
 70
     1
102
RTVSPropertyOp24
 70
     1
102
RTVSPropertyOp25
 70
     1
102
RTVSPropertyOp26
 70
     1
102
RTVSPropertyOp27
 70
     1
102
RTVSPropertyOp28
 70
     1
102
RTVSPropertyOp29
 70
     1
102
RTVSPropertyOp30
 70
     1
102
RTVSPropertyOp31
 70
     1
102
RTVSPropertyOp32
 70
     1
102
RTVSPropertyOp33
 70
     1
102
RTVSPropertyOp34
 70
     1
102
RTVSPropertyOp35
 70
     1
102
RTVSPropertyOp36
 70
     1
102
RTVSPropertyOp37
 70
     1
102
RTVSPropertyOp38
 70
     1
102
RTVSPropertyOp39
 70
     1
102
RTVSPropertyOp40
 70
     1
102
RTVSPropertyOp41
 70
     1
102
RTVSPropertyOp42
 70
     1
102
RTVSPropertyOp43
 70
     1
102
RTVSPropertyOp44
 70
     1
102
RTVSPropertyOp45
 70
     1
102
RTVSPropertyOp46
 70
     1
102
RTVSPropertyOp47
 70
     1
102
RTVSPropertyOp48
 70
     1
102
RTVSPropertyOp49
 70
     1
102
RTVSPropertyOp50
 70
     1
102
RTVSPropertyOp51
 70
     0
102
RTVSPropertyOp52
 70
     0
102
RTVSPropertyOp53
 70
     1
102
RTVSPropertyOp54
 70
     1
102
RTVSPropertyOp55
 70
     1
102
RTVSPropertyOp56
 70
     1
102
RTVSPropertyOp57
 70
     1
102
RTVSPropertyOp58
 70
     1
102
RTVSPropertyOp59
 70
     1
102
RTVSPropertyOp60
 70
     1
102
RTVSPropertyOp61
 70
     1
102
RTVSPropertyOp62
 70
     1
  0
XRECORD
  5
55D
102
{ACAD_REACTORS
330
55C
102
}
330
55C
100
AcDbXrecord
280
     1
102
RTVSPost2010Prop28
280
     0
102
RTVSPost2010PropOp28
 70
     1
102
RTVSPost2010Prop29
280
     1
102
RTVSPost2010PropOp29
 70
     1
102
RTVSPost2010Prop30
280
     1
102
RTVSPost2010PropOp30
 70
     1
102
RTVSPost2010Prop31
280
     0
102
RTVSPost2010PropOp31
 70
     1
102
RTVSPost2010Prop32
280
     0
102
RTVSPost2010PropOp32
 70
     1
102
RTVSPost2010Prop33
280
     0
102
RTVSPost2010PropOp33
 70
     1
102
RTVSPost2010Prop34
280
     0
102
RTVSPost2010PropOp34
 70
     1
102
RTVSPost2010Prop35
280
     0
102
RTVSPost2010PropOp35
 70
     1
102
RTVSPost2010Prop36
280
     0
102
RTVSPost2010PropOp36
 70
     1
102
RTVSPost2010Prop37
 90
       50
102
RTVSPost2010PropOp37
 70
     1
102
RTVSPost2010Prop38
140
0.0
102
RTVSPost2010PropOp38
 70
     1
102
RTVSPost2010Prop39
140
1.0
102
RTVSPost2010PropOp39
 70
     1
102
RTVSPost2010Prop40
 90
        0
102
RTVSPost2010PropOp40
 70
     1
102
RTVSPost2010Prop41ColorIndex
 90
       18
102
RTVSPost2010Prop41ColorRGB
 90
        0
102
RTVSPost2010PropOp41
 70
     1
102
RTVSPost2010Prop42
 90
       50
102
RTVSPost2010PropOp42
 70
     1
102
RTVSPost2010Prop43
 90
        3
102
RTVSPost2010PropOp43
 70
     1
102
RTVSPost2010Prop44ColorIndex
 90
        5
102
RTVSPost2010Prop44ColorRGB
 90
      255
102
RTVSPost2010PropOp44
 70
     1
102
RTVSPost2010Prop45
280
     0
102
RTVSPost2010PropOp45
 70
     1
102
RTVSPost2010Prop46
 90
       50
102
RTVSPost2010PropOp46
 70
     1
102
RTVSPost2010Prop47
 90
       50
102
RTVSPost2010PropOp47
 70
     1
102
RTVSPost2010Prop48
 90
       50
102
RTVSPost2010PropOp48
 70
     1
102
RTVSPost2010Prop49
280
     0
102
RTVSPost2010PropOp49
 70
     1
102
RTVSPost2010Prop50
 90
       50
102
RTVSPost2010PropOp50
 70
     1
102
RTVSPost2010Prop51ColorIndex
 90
      256
102
RTVSPost2010Prop51ColorRGB
 90
-16777216
102
RTVSPost2010PropOp51
 70
     0
102
RTVSPost2010Prop52
140
1.0
102
RTVSPost2010PropOp52
 70
     0
102
RTVSPost2010Prop53
 90
        2
102
RTVSPost2010PropOp53
 70
     1
102
RTVSPost2010Prop54
  1
strokes_ogs.tif
102
RTVSPost2010PropOp54
 70
     1
102
RTVSPost2010Prop55
280
     0
102
RTVSPost2010PropOp55
 70
     1
102
RTVSPost2010Prop56
140
1.0
102
RTVSPost2010PropOp56
 70
     1
102
RTVSPost2010Prop57
140
1.0
102
RTVSPost2010PropOp57
 70
     1
102
RTVSPropertyOp0
 70
     1
102
RTVSPropertyOp1
 70
     1
102
RTVSPropertyOp2
 70
     1
102
RTVSPropertyOp3
 70
     1
102
RTVSPropertyOp4
 70
     1
102
RTVSPropertyOp5
 70
     1
102
RTVSPropertyOp6
 70
     1
102
RTVSPropertyOp7
 70
     1
102
RTVSPropertyOp8
 70
     1
102
RTVSPropertyOp9
 70
     1
102
RTVSPropertyOp10
 70
     1
102
RTVSPropertyOp11
 70
     1
102
RTVSPropertyOp12
 70
     1
102
RTVSPropertyOp13
 70
     1
102
RTVSPropertyOp14
 70
     1
102
RTVSPropertyOp15
 70
     1
102
RTVSPropertyOp16
 70
     1
102
RTVSPropertyOp17
 70
     1
102
RTVSPropertyOp18
 70
     1
102
RTVSPropertyOp19
 70
     1
102
RTVSPropertyOp20
 70
     1
102
RTVSPropertyOp21
 70
     1
102
RTVSPropertyOp22
 70
     1
102
RTVSPropertyOp23
 70
     1
102
RTVSPropertyOp24
 70
     1
102
RTVSPropertyOp25
 70
     1
102
RTVSPropertyOp26
 70
     1
102
RTVSPropertyOp27
 70
     1
102
RTVSPropertyOp28
 70
     1
102
RTVSPropertyOp29
 70
     1
102
RTVSPropertyOp30
 70
     1
102
RTVSPropertyOp31
 70
     1
102
RTVSPropertyOp32
 70
     1
102
RTVSPropertyOp33
 70
     1
102
RTVSPropertyOp34
 70
     1
102
RTVSPropertyOp35
 70
     1
102
RTVSPropertyOp36
 70
     1
102
RTVSPropertyOp37
 70
     1
102
RTVSPropertyOp38
 70
     1
102
RTVSPropertyOp39
 70
     1
102
RTVSPropertyOp40
 70
     1
102
RTVSPropertyOp41
 70
     1
102
RTVSPropertyOp42
 70
     1
102
RTVSPropertyOp43
 70
     1
102
RTVSPropertyOp44
 70
     1
102
RTVSPropertyOp45
 70
     1
102
RTVSPropertyOp46
 70
     1
102
RTVSPropertyOp47
 70
     1
102
RTVSPropertyOp48
 70
     1
102
RTVSPropertyOp49
 70
     1
102
RTVSPropertyOp50
 70
     1
102
RTVSPropertyOp51
 70
     0
102
RTVSPropertyOp52
 70
     0
102
RTVSPropertyOp53
 70
     1
102
RTVSPropertyOp54
 70
     1
102
RTVSPropertyOp55
 70
     1
102
RTVSPropertyOp56
 70
     1
102
RTVSPropertyOp57
 70
     1
102
RTVSPropertyOp58
 70
     1
102
RTVSPropertyOp59
 70
     1
102
RTVSPropertyOp60
 70
     1
102
RTVSPropertyOp61
 70
     1
102
RTVSPropertyOp62
 70
     1
  0
XRECORD
  5
551
102
{ACAD_REACTORS
330
550
102
}
330
550
100
AcDbXrecord
280
     1
102
RTVSPost2010Prop28
280
     0
102
RTVSPost2010PropOp28
 70
     1
102
RTVSPost2010Prop29
280
     1
102
RTVSPost2010PropOp29
 70
     1
102
RTVSPost2010Prop30
280
     1
102
RTVSPost2010PropOp30
 70
     1
102
RTVSPost2010Prop31
280
     0
102
RTVSPost2010PropOp31
 70
     1
102
RTVSPost2010Prop32
280
     0
102
RTVSPost2010PropOp32
 70
     1
102
RTVSPost2010Prop33
280
     0
102
RTVSPost2010PropOp33
 70
     1
102
RTVSPost2010Prop34
280
     0
102
RTVSPost2010PropOp34
 70
     1
102
RTVSPost2010Prop35
280
     0
102
RTVSPost2010PropOp35
 70
     1
102
RTVSPost2010Prop36
280
     0
102
RTVSPost2010PropOp36
 70
     1
102
RTVSPost2010Prop37
 90
       50
102
RTVSPost2010PropOp37
 70
     1
102
RTVSPost2010Prop38
140
0.0
102
RTVSPost2010PropOp38
 70
     1
102
RTVSPost2010Prop39
140
1.0
102
RTVSPost2010PropOp39
 70
     1
102
RTVSPost2010Prop40
 90
        0
102
RTVSPost2010PropOp40
 70
     1
102
RTVSPost2010Prop41ColorIndex
 90
       18
102
RTVSPost2010Prop41ColorRGB
 90
        0
102
RTVSPost2010PropOp41
 70
     1
102
RTVSPost2010Prop42
 90
       50
102
RTVSPost2010PropOp42
 70
     1
102
RTVSPost2010Prop43
 90
        3
102
RTVSPost2010PropOp43
 70
     1
102
RTVSPost2010Prop44ColorIndex
 90
        5
102
RTVSPost2010Prop44ColorRGB
 90
      255
102
RTVSPost2010PropOp44
 70
     1
102
RTVSPost2010Prop45
280
     0
102
RTVSPost2010PropOp45
 70
     1
102
RTVSPost2010Prop46
 90
       50
102
RTVSPost2010PropOp46
 70
     1
102
RTVSPost2010Prop47
 90
       50
102
RTVSPost2010PropOp47
 70
     1
102
RTVSPost2010Prop48
 90
       50
102
RTVSPost2010PropOp48
 70
     1
102
RTVSPost2010Prop49
280
     0
102
RTVSPost2010PropOp49
 70
     1
102
RTVSPost2010Prop50
 90
       50
102
RTVSPost2010PropOp50
 70
     1
102
RTVSPost2010Prop51ColorIndex
 90
      256
102
RTVSPost2010Prop51ColorRGB
 90
-16777216
102
RTVSPost2010PropOp51
 70
     0
102
RTVSPost2010Prop52
140
1.0
102
RTVSPost2010PropOp52
 70
     0
102
RTVSPost2010Prop53
 90
        2
102
RTVSPost2010PropOp53
 70
     1
102
RTVSPost2010Prop54
  1
strokes_ogs.tif
102
RTVSPost2010PropOp54
 70
     1
102
RTVSPost2010Prop55
280
     0
102
RTVSPost2010PropOp55
 70
     1
102
RTVSPost2010Prop56
140
1.0
102
RTVSPost2010PropOp56
 70
     1
102
RTVSPost2010Prop57
140
1.0
102
RTVSPost2010PropOp57
 70
     1
102
RTVSPropertyOp0
 70
     1
102
RTVSPropertyOp1
 70
     1
102
RTVSPropertyOp2
 70
     1
102
RTVSPropertyOp3
 70
     1
102
RTVSPropertyOp4
 70
     1
102
RTVSPropertyOp5
 70
     1
102
RTVSPropertyOp6
 70
     1
102
RTVSPropertyOp7
 70
     1
102
RTVSPropertyOp8
 70
     1
102
RTVSPropertyOp9
 70
     1
102
RTVSPropertyOp10
 70
     1
102
RTVSPropertyOp11
 70
     1
102
RTVSPropertyOp12
 70
     1
102
RTVSPropertyOp13
 70
     1
102
RTVSPropertyOp14
 70
     1
102
RTVSPropertyOp15
 70
     1
102
RTVSPropertyOp16
 70
     1
102
RTVSPropertyOp17
 70
     1
102
RTVSPropertyOp18
 70
     1
102
RTVSPropertyOp19
 70
     1
102
RTVSPropertyOp20
 70
     1
102
RTVSPropertyOp21
 70
     1
102
RTVSPropertyOp22
 70
     1
102
RTVSPropertyOp23
 70
     1
102
RTVSPropertyOp24
 70
     1
102
RTVSPropertyOp25
 70
     1
102
RTVSPropertyOp26
 70
     1
102
RTVSPropertyOp27
 70
     1
102
RTVSPropertyOp28
 70
     1
102
RTVSPropertyOp29
 70
     1
102
RTVSPropertyOp30
 70
     1
102
RTVSPropertyOp31
 70
     1
102
RTVSPropertyOp32
 70
     1
102
RTVSPropertyOp33
 70
     1
102
RTVSPropertyOp34
 70
     1
102
RTVSPropertyOp35
 70
     1
102
RTVSPropertyOp36
 70
     1
102
RTVSPropertyOp37
 70
     1
102
RTVSPropertyOp38
 70
     1
102
RTVSPropertyOp39
 70
     1
102
RTVSPropertyOp40
 70
     1
102
RTVSPropertyOp41
 70
     1
102
RTVSPropertyOp42
 70
     1
102
RTVSPropertyOp43
 70
     1
102
RTVSPropertyOp44
 70
     1
102
RTVSPropertyOp45
 70
     1
102
RTVSPropertyOp46
 70
     1
102
RTVSPropertyOp47
 70
     1
102
RTVSPropertyOp48
 70
     1
102
RTVSPropertyOp49
 70
     1
102
RTVSPropertyOp50
 70
     1
102
RTVSPropertyOp51
 70
     0
102
RTVSPropertyOp52
 70
     0
102
RTVSPropertyOp53
 70
     1
102
RTVSPropertyOp54
 70
     1
102
RTVSPropertyOp55
 70
     1
102
RTVSPropertyOp56
 70
     1
102
RTVSPropertyOp57
 70
     1
102
RTVSPropertyOp58
 70
     1
102
RTVSPropertyOp59
 70
     1
102
RTVSPropertyOp60
 70
     1
102
RTVSPropertyOp61
 70
     1
102
RTVSPropertyOp62
 70
     1
  0
XRECORD
  5
553
102
{ACAD_REACTORS
330
552
102
}
330
552
100
AcDbXrecord
280
     1
102
RTVSPost2010Prop28
280
     0
102
RTVSPost2010PropOp28
 70
     1
102
RTVSPost2010Prop29
280
     1
102
RTVSPost2010PropOp29
 70
     1
102
RTVSPost2010Prop30
280
     1
102
RTVSPost2010PropOp30
 70
     1
102
RTVSPost2010Prop31
280
     0
102
RTVSPost2010PropOp31
 70
     1
102
RTVSPost2010Prop32
280
     0
102
RTVSPost2010PropOp32
 70
     1
102
RTVSPost2010Prop33
280
     0
102
RTVSPost2010PropOp33
 70
     1
102
RTVSPost2010Prop34
280
     0
102
RTVSPost2010PropOp34
 70
     1
102
RTVSPost2010Prop35
280
     0
102
RTVSPost2010PropOp35
 70
     1
102
RTVSPost2010Prop36
280
     0
102
RTVSPost2010PropOp36
 70
     1
102
RTVSPost2010Prop37
 90
       50
102
RTVSPost2010PropOp37
 70
     1
102
RTVSPost2010Prop38
140
0.0
102
RTVSPost2010PropOp38
 70
     1
102
RTVSPost2010Prop39
140
1.0
102
RTVSPost2010PropOp39
 70
     1
102
RTVSPost2010Prop40
 90
        0
102
RTVSPost2010PropOp40
 70
     1
102
RTVSPost2010Prop41ColorIndex
 90
       18
102
RTVSPost2010Prop41ColorRGB
 90
        0
102
RTVSPost2010PropOp41
 70
     1
102
RTVSPost2010Prop42
 90
       50
102
RTVSPost2010PropOp42
 70
     1
102
RTVSPost2010Prop43
 90
        3
102
RTVSPost2010PropOp43
 70
     1
102
RTVSPost2010Prop44ColorIndex
 90
        5
102
RTVSPost2010Prop44ColorRGB
 90
      255
102
RTVSPost2010PropOp44
 70
     1
102
RTVSPost2010Prop45
280
     0
102
RTVSPost2010PropOp45
 70
     1
102
RTVSPost2010Prop46
 90
       50
102
RTVSPost2010PropOp46
 70
     1
102
RTVSPost2010Prop47
 90
       50
102
RTVSPost2010PropOp47
 70
     1
102
RTVSPost2010Prop48
 90
       50
102
RTVSPost2010PropOp48
 70
     1
102
RTVSPost2010Prop49
280
     0
102
RTVSPost2010PropOp49
 70
     1
102
RTVSPost2010Prop50
 90
       50
102
RTVSPost2010PropOp50
 70
     1
102
RTVSPost2010Prop51ColorIndex
 90
      256
102
RTVSPost2010Prop51ColorRGB
 90
-16777216
102
RTVSPost2010PropOp51
 70
     0
102
RTVSPost2010Prop52
140
1.0
102
RTVSPost2010PropOp52
 70
     0
102
RTVSPost2010Prop53
 90
        2
102
RTVSPost2010PropOp53
 70
     1
102
RTVSPost2010Prop54
  1
strokes_ogs.tif
102
RTVSPost2010PropOp54
 70
     1
102
RTVSPost2010Prop55
280
     0
102
RTVSPost2010PropOp55
 70
     1
102
RTVSPost2010Prop56
140
1.0
102
RTVSPost2010PropOp56
 70
     1
102
RTVSPost2010Prop57
140
1.0
102
RTVSPost2010PropOp57
 70
     1
102
RTVSPropertyOp0
 70
     1
102
RTVSPropertyOp1
 70
     1
102
RTVSPropertyOp2
 70
     1
102
RTVSPropertyOp3
 70
     1
102
RTVSPropertyOp4
 70
     1
102
RTVSPropertyOp5
 70
     1
102
RTVSPropertyOp6
 70
     1
102
RTVSPropertyOp7
 70
     1
102
RTVSPropertyOp8
 70
     1
102
RTVSPropertyOp9
 70
     1
102
RTVSPropertyOp10
 70
     1
102
RTVSPropertyOp11
 70
     1
102
RTVSPropertyOp12
 70
     1
102
RTVSPropertyOp13
 70
     1
102
RTVSPropertyOp14
 70
     1
102
RTVSPropertyOp15
 70
     1
102
RTVSPropertyOp16
 70
     1
102
RTVSPropertyOp17
 70
     1
102
RTVSPropertyOp18
 70
     1
102
RTVSPropertyOp19
 70
     1
102
RTVSPropertyOp20
 70
     1
102
RTVSPropertyOp21
 70
     1
102
RTVSPropertyOp22
 70
     1
102
RTVSPropertyOp23
 70
     1
102
RTVSPropertyOp24
 70
     1
102
RTVSPropertyOp25
 70
     1
102
RTVSPropertyOp26
 70
     1
102
RTVSPropertyOp27
 70
     1
102
RTVSPropertyOp28
 70
     1
102
RTVSPropertyOp29
 70
     1
102
RTVSPropertyOp30
 70
     1
102
RTVSPropertyOp31
 70
     1
102
RTVSPropertyOp32
 70
     1
102
RTVSPropertyOp33
 70
     1
102
RTVSPropertyOp34
 70
     1
102
RTVSPropertyOp35
 70
     1
102
RTVSPropertyOp36
 70
     1
102
RTVSPropertyOp37
 70
     1
102
RTVSPropertyOp38
 70
     1
102
RTVSPropertyOp39
 70
     1
102
RTVSPropertyOp40
 70
     1
102
RTVSPropertyOp41
 70
     1
102
RTVSPropertyOp42
 70
     1
102
RTVSPropertyOp43
 70
     1
102
RTVSPropertyOp44
 70
     1
102
RTVSPropertyOp45
 70
     1
102
RTVSPropertyOp46
 70
     1
102
RTVSPropertyOp47
 70
     1
102
RTVSPropertyOp48
 70
     1
102
RTVSPropertyOp49
 70
     1
102
RTVSPropertyOp50
 70
     1
102
RTVSPropertyOp51
 70
     0
102
RTVSPropertyOp52
 70
     0
102
RTVSPropertyOp53
 70
     1
102
RTVSPropertyOp54
 70
     1
102
RTVSPropertyOp55
 70
     1
102
RTVSPropertyOp56
 70
     1
102
RTVSPropertyOp57
 70
     1
102
RTVSPropertyOp58
 70
     1
102
RTVSPropertyOp59
 70
     1
102
RTVSPropertyOp60
 70
     1
102
RTVSPropertyOp61
 70
     1
102
RTVSPropertyOp62
 70
     1
  0
XRECORD
  5
563
102
{ACAD_REACTORS
330
562
102
}
330
562
100
AcDbXrecord
280
     1
102
RTVSPost2010Prop28
280
     0
102
RTVSPost2010PropOp28
 70
     0
102
RTVSPost2010Prop29
280
     1
102
RTVSPost2010PropOp29
 70
     0
102
RTVSPost2010Prop30
280
     1
102
RTVSPost2010PropOp30
 70
     0
102
RTVSPost2010Prop31
280
     0
102
RTVSPost2010PropOp31
 70
     0
102
RTVSPost2010Prop32
280
     0
102
RTVSPost2010PropOp32
 70
     0
102
RTVSPost2010Prop33
280
     0
102
RTVSPost2010PropOp33
 70
     0
102
RTVSPost2010Prop34
280
     0
102
RTVSPost2010PropOp34
 70
     0
102
RTVSPost2010Prop35
280
     0
102
RTVSPost2010PropOp35
 70
     0
102
RTVSPost2010Prop36
280
     0
102
RTVSPost2010PropOp36
 70
     0
102
RTVSPost2010Prop37
 90
       50
102
RTVSPost2010PropOp37
 70
     0
102
RTVSPost2010Prop38
140
0.0
102
RTVSPost2010PropOp38
 70
     0
102
RTVSPost2010Prop39
140
1.0
102
RTVSPost2010PropOp39
 70
     0
102
RTVSPost2010Prop40
 90
        0
102
RTVSPost2010PropOp40
 70
     0
102
RTVSPost2010Prop41ColorIndex
 90
       18
102
RTVSPost2010Prop41ColorRGB
 90
        0
102
RTVSPost2010PropOp41
 70
     0
102
RTVSPost2010Prop42
 90
       50
102
RTVSPost2010PropOp42
 70
     0
102
RTVSPost2010Prop43
 90
        3
102
RTVSPost2010PropOp43
 70
     0
102
RTVSPost2010Prop44ColorIndex
 90
        5
102
RTVSPost2010Prop44ColorRGB
 90
      255
102
RTVSPost2010PropOp44
 70
     0
102
RTVSPost2010Prop45
280
     0
102
RTVSPost2010PropOp45
 70
     0
102
RTVSPost2010Prop46
 90
       50
102
RTVSPost2010PropOp46
 70
     0
102
RTVSPost2010Prop47
 90
       50
102
RTVSPost2010PropOp47
 70
     0
102
RTVSPost2010Prop48
 90
       50
102
RTVSPost2010PropOp48
 70
     0
102
RTVSPost2010Prop49
280
     0
102
RTVSPost2010PropOp49
 70
     0
102
RTVSPost2010Prop50
 90
       50
102
RTVSPost2010PropOp50
 70
     0
102
RTVSPost2010Prop51ColorIndex
 90
      256
102
RTVSPost2010Prop51ColorRGB
 90
-16777216
102
RTVSPost2010PropOp51
 70
     0
102
RTVSPost2010Prop52
140
1.0
102
RTVSPost2010PropOp52
 70
     0
102
RTVSPost2010Prop53
 90
        2
102
RTVSPost2010PropOp53
 70
     0
102
RTVSPost2010Prop54
  1
strokes_ogs.tif
102
RTVSPost2010PropOp54
 70
     0
102
RTVSPost2010Prop55
280
     0
102
RTVSPost2010PropOp55
 70
     0
102
RTVSPost2010Prop56
140
1.0
102
RTVSPost2010PropOp56
 70
     0
102
RTVSPost2010Prop57
140
1.0
102
RTVSPost2010PropOp57
 70
     0
102
RTVSPropertyOp0
 70
     0
102
RTVSPropertyOp1
 70
     0
102
RTVSPropertyOp2
 70
     0
102
RTVSPropertyOp3
 70
     0
102
RTVSPropertyOp4
 70
     0
102
RTVSPropertyOp5
 70
     0
102
RTVSPropertyOp6
 70
     0
102
RTVSPropertyOp7
 70
     0
102
RTVSPropertyOp8
 70
     0
102
RTVSPropertyOp9
 70
     0
102
RTVSPropertyOp10
 70
     0
102
RTVSPropertyOp11
 70
     0
102
RTVSPropertyOp12
 70
     0
102
RTVSPropertyOp13
 70
     0
102
RTVSPropertyOp14
 70
     2
102
RTVSPropertyOp15
 70
     0
102
RTVSPropertyOp16
 70
     0
102
RTVSPropertyOp17
 70
     0
102
RTVSPropertyOp18
 70
     0
102
RTVSPropertyOp19
 70
     0
102
RTVSPropertyOp20
 70
     0
102
RTVSPropertyOp21
 70
     0
102
RTVSPropertyOp22
 70
     0
102
RTVSPropertyOp23
 70
     0
102
RTVSPropertyOp24
 70
     0
102
RTVSPropertyOp25
 70
     0
102
RTVSPropertyOp26
 70
     0
102
RTVSPropertyOp27
 70
     0
102
RTVSPropertyOp28
 70
     0
102
RTVSPropertyOp29
 70
     0
102
RTVSPropertyOp30
 70
     0
102
RTVSPropertyOp31
 70
     0
102
RTVSPropertyOp32
 70
     0
102
RTVSPropertyOp33
 70
     0
102
RTVSPropertyOp34
 70
     0
102
RTVSPropertyOp35
 70
     0
102
RTVSPropertyOp36
 70
     0
102
RTVSPropertyOp37
 70
     0
102
RTVSPropertyOp38
 70
     0
102
RTVSPropertyOp39
 70
     0
102
RTVSPropertyOp40
 70
     0
102
RTVSPropertyOp41
 70
     0
102
RTVSPropertyOp42
 70
     0
102
RTVSPropertyOp43
 70
     0
102
RTVSPropertyOp44
 70
     0
102
RTVSPropertyOp45
 70
     0
102
RTVSPropertyOp46
 70
     0
102
RTVSPropertyOp47
 70
     0
102
RTVSPropertyOp48
 70
     0
102
RTVSPropertyOp49
 70
     0
102
RTVSPropertyOp50
 70
     0
102
RTVSPropertyOp51
 70
     0
102
RTVSPropertyOp52
 70
     0
102
RTVSPropertyOp53
 70
     0
102
RTVSPropertyOp54
 70
     0
102
RTVSPropertyOp55
 70
     0
102
RTVSPropertyOp56
 70
     0
102
RTVSPropertyOp57
 70
     0
102
RTVSPropertyOp58
 70
     1
102
RTVSPropertyOp59
 70
     1
102
RTVSPropertyOp60
 70
     1
102
RTVSPropertyOp61
 70
     1
102
RTVSPropertyOp62
 70
     1
  0
XRECORD
  5
55B
102
{ACAD_REACTORS
330
55A
102
}
330
55A
100
AcDbXrecord
280
     1
102
RTVSPost2010Prop28
280
     0
102
RTVSPost2010PropOp28
 70
     1
102
RTVSPost2010Prop29
280
     1
102
RTVSPost2010PropOp29
 70
     1
102
RTVSPost2010Prop30
280
     1
102
RTVSPost2010PropOp30
 70
     1
102
RTVSPost2010Prop31
280
     0
102
RTVSPost2010PropOp31
 70
     1
102
RTVSPost2010Prop32
280
     0
102
RTVSPost2010PropOp32
 70
     1
102
RTVSPost2010Prop33
280
     0
102
RTVSPost2010PropOp33
 70
     1
102
RTVSPost2010Prop34
280
     0
102
RTVSPost2010PropOp34
 70
     1
102
RTVSPost2010Prop35
280
     0
102
RTVSPost2010PropOp35
 70
     1
102
RTVSPost2010Prop36
280
     0
102
RTVSPost2010PropOp36
 70
     1
102
RTVSPost2010Prop37
 90
       50
102
RTVSPost2010PropOp37
 70
     1
102
RTVSPost2010Prop38
140
0.0
102
RTVSPost2010PropOp38
 70
     1
102
RTVSPost2010Prop39
140
1.0
102
RTVSPost2010PropOp39
 70
     1
102
RTVSPost2010Prop40
 90
        0
102
RTVSPost2010PropOp40
 70
     1
102
RTVSPost2010Prop41ColorIndex
 90
       18
102
RTVSPost2010Prop41ColorRGB
 90
        0
102
RTVSPost2010PropOp41
 70
     1
102
RTVSPost2010Prop42
 90
       50
102
RTVSPost2010PropOp42
 70
     1
102
RTVSPost2010Prop43
 90
        3
102
RTVSPost2010PropOp43
 70
     1
102
RTVSPost2010Prop44ColorIndex
 90
        5
102
RTVSPost2010Prop44ColorRGB
 90
      255
102
RTVSPost2010PropOp44
 70
     1
102
RTVSPost2010Prop45
280
     0
102
RTVSPost2010PropOp45
 70
     1
102
RTVSPost2010Prop46
 90
       50
102
RTVSPost2010PropOp46
 70
     1
102
RTVSPost2010Prop47
 90
       50
102
RTVSPost2010PropOp47
 70
     1
102
RTVSPost2010Prop48
 90
       50
102
RTVSPost2010PropOp48
 70
     1
102
RTVSPost2010Prop49
280
     0
102
RTVSPost2010PropOp49
 70
     1
102
RTVSPost2010Prop50
 90
       50
102
RTVSPost2010PropOp50
 70
     1
102
RTVSPost2010Prop51ColorIndex
 90
      256
102
RTVSPost2010Prop51ColorRGB
 90
-16777216
102
RTVSPost2010PropOp51
 70
     0
102
RTVSPost2010Prop52
140
1.0
102
RTVSPost2010PropOp52
 70
     0
102
RTVSPost2010Prop53
 90
        2
102
RTVSPost2010PropOp53
 70
     1
102
RTVSPost2010Prop54
  1
strokes_ogs.tif
102
RTVSPost2010PropOp54
 70
     1
102
RTVSPost2010Prop55
280
     0
102
RTVSPost2010PropOp55
 70
     1
102
RTVSPost2010Prop56
140
1.0
102
RTVSPost2010PropOp56
 70
     1
102
RTVSPost2010Prop57
140
1.0
102
RTVSPost2010PropOp57
 70
     1
102
RTVSPropertyOp0
 70
     1
102
RTVSPropertyOp1
 70
     1
102
RTVSPropertyOp2
 70
     1
102
RTVSPropertyOp3
 70
     1
102
RTVSPropertyOp4
 70
     1
102
RTVSPropertyOp5
 70
     1
102
RTVSPropertyOp6
 70
     1
102
RTVSPropertyOp7
 70
     1
102
RTVSPropertyOp8
 70
     1
102
RTVSPropertyOp9
 70
     1
102
RTVSPropertyOp10
 70
     1
102
RTVSPropertyOp11
 70
     1
102
RTVSPropertyOp12
 70
     1
102
RTVSPropertyOp13
 70
     1
102
RTVSPropertyOp14
 70
     1
102
RTVSPropertyOp15
 70
     1
102
RTVSPropertyOp16
 70
     1
102
RTVSPropertyOp17
 70
     1
102
RTVSPropertyOp18
 70
     1
102
RTVSPropertyOp19
 70
     1
102
RTVSPropertyOp20
 70
     1
102
RTVSPropertyOp21
 70
     1
102
RTVSPropertyOp22
 70
     1
102
RTVSPropertyOp23
 70
     1
102
RTVSPropertyOp24
 70
     1
102
RTVSPropertyOp25
 70
     1
102
RTVSPropertyOp26
 70
     1
102
RTVSPropertyOp27
 70
     1
102
RTVSPropertyOp28
 70
     1
102
RTVSPropertyOp29
 70
     1
102
RTVSPropertyOp30
 70
     1
102
RTVSPropertyOp31
 70
     1
102
RTVSPropertyOp32
 70
     1
102
RTVSPropertyOp33
 70
     1
102
RTVSPropertyOp34
 70
     1
102
RTVSPropertyOp35
 70
     1
102
RTVSPropertyOp36
 70
     1
102
RTVSPropertyOp37
 70
     1
102
RTVSPropertyOp38
 70
     1
102
RTVSPropertyOp39
 70
     1
102
RTVSPropertyOp40
 70
     1
102
RTVSPropertyOp41
 70
     1
102
RTVSPropertyOp42
 70
     1
102
RTVSPropertyOp43
 70
     1
102
RTVSPropertyOp44
 70
     1
102
RTVSPropertyOp45
 70
     1
102
RTVSPropertyOp46
 70
     1
102
RTVSPropertyOp47
 70
     1
102
RTVSPropertyOp48
 70
     1
102
RTVSPropertyOp49
 70
     1
102
RTVSPropertyOp50
 70
     1
102
RTVSPropertyOp51
 70
     0
102
RTVSPropertyOp52
 70
     0
102
RTVSPropertyOp53
 70
     1
102
RTVSPropertyOp54
 70
     1
102
RTVSPropertyOp55
 70
     1
102
RTVSPropertyOp56
 70
     1
102
RTVSPropertyOp57
 70
     1
102
RTVSPropertyOp58
 70
     1
102
RTVSPropertyOp59
 70
     1
102
RTVSPropertyOp60
 70
     1
102
RTVSPropertyOp61
 70
     1
102
RTVSPropertyOp62
 70
     1
  0
XRECORD
  5
53F
102
{ACAD_REACTORS
330
53E
102
}
330
53E
100
AcDbXrecord
280
     1
102
RTVSPost2010Prop28
280
     0
102
RTVSPost2010PropOp28
 70
     1
102
RTVSPost2010Prop29
280
     1
102
RTVSPost2010PropOp29
 70
     1
102
RTVSPost2010Prop30
280
     1
102
RTVSPost2010PropOp30
 70
     1
102
RTVSPost2010Prop31
280
     0
102
RTVSPost2010PropOp31
 70
     1
102
RTVSPost2010Prop32
280
     0
102
RTVSPost2010PropOp32
 70
     1
102
RTVSPost2010Prop33
280
     0
102
RTVSPost2010PropOp33
 70
     1
102
RTVSPost2010Prop34
280
     0
102
RTVSPost2010PropOp34
 70
     1
102
RTVSPost2010Prop35
280
     0
102
RTVSPost2010PropOp35
 70
     1
102
RTVSPost2010Prop36
280
     0
102
RTVSPost2010PropOp36
 70
     1
102
RTVSPost2010Prop37
 90
       50
102
RTVSPost2010PropOp37
 70
     1
102
RTVSPost2010Prop38
140
0.0
102
RTVSPost2010PropOp38
 70
     1
102
RTVSPost2010Prop39
140
1.0
102
RTVSPost2010PropOp39
 70
     1
102
RTVSPost2010Prop40
 90
        0
102
RTVSPost2010PropOp40
 70
     1
102
RTVSPost2010Prop41ColorIndex
 90
       18
102
RTVSPost2010Prop41ColorRGB
 90
        0
102
RTVSPost2010PropOp41
 70
     1
102
RTVSPost2010Prop42
 90
       50
102
RTVSPost2010PropOp42
 70
     1
102
RTVSPost2010Prop43
 90
        3
102
RTVSPost2010PropOp43
 70
     1
102
RTVSPost2010Prop44ColorIndex
 90
        5
102
RTVSPost2010Prop44ColorRGB
 90
      255
102
RTVSPost2010PropOp44
 70
     1
102
RTVSPost2010Prop45
280
     0
102
RTVSPost2010PropOp45
 70
     1
102
RTVSPost2010Prop46
 90
       50
102
RTVSPost2010PropOp46
 70
     1
102
RTVSPost2010Prop47
 90
       50
102
RTVSPost2010PropOp47
 70
     1
102
RTVSPost2010Prop48
 90
       50
102
RTVSPost2010PropOp48
 70
     1
102
RTVSPost2010Prop49
280
     0
102
RTVSPost2010PropOp49
 70
     1
102
RTVSPost2010Prop50
 90
       50
102
RTVSPost2010PropOp50
 70
     1
102
RTVSPost2010Prop51ColorIndex
 90
      256
102
RTVSPost2010Prop51ColorRGB
 90
-16777216
102
RTVSPost2010PropOp51
 70
     0
102
RTVSPost2010Prop52
140
1.0
102
RTVSPost2010PropOp52
 70
     0
102
RTVSPost2010Prop53
 90
        2
102
RTVSPost2010PropOp53
 70
     1
102
RTVSPost2010Prop54
  1
strokes_ogs.tif
102
RTVSPost2010PropOp54
 70
     1
102
RTVSPost2010Prop55
280
     0
102
RTVSPost2010PropOp55
 70
     1
102
RTVSPost2010Prop56
140
1.0
102
RTVSPost2010PropOp56
 70
     1
102
RTVSPost2010Prop57
140
1.0
102
RTVSPost2010PropOp57
 70
     1
102
RTVSPropertyOp0
 70
     1
102
RTVSPropertyOp1
 70
     1
102
RTVSPropertyOp2
 70
     1
102
RTVSPropertyOp3
 70
     1
102
RTVSPropertyOp4
 70
     1
102
RTVSPropertyOp5
 70
     1
102
RTVSPropertyOp6
 70
     1
102
RTVSPropertyOp7
 70
     1
102
RTVSPropertyOp8
 70
     1
102
RTVSPropertyOp9
 70
     1
102
RTVSPropertyOp10
 70
     1
102
RTVSPropertyOp11
 70
     1
102
RTVSPropertyOp12
 70
     1
102
RTVSPropertyOp13
 70
     1
102
RTVSPropertyOp14
 70
     1
102
RTVSPropertyOp15
 70
     1
102
RTVSPropertyOp16
 70
     1
102
RTVSPropertyOp17
 70
     1
102
RTVSPropertyOp18
 70
     1
102
RTVSPropertyOp19
 70
     1
102
RTVSPropertyOp20
 70
     1
102
RTVSPropertyOp21
 70
     1
102
RTVSPropertyOp22
 70
     1
102
RTVSPropertyOp23
 70
     1
102
RTVSPropertyOp24
 70
     1
102
RTVSPropertyOp25
 70
     1
102
RTVSPropertyOp26
 70
     1
102
RTVSPropertyOp27
 70
     1
102
RTVSPropertyOp28
 70
     1
102
RTVSPropertyOp29
 70
     1
102
RTVSPropertyOp30
 70
     1
102
RTVSPropertyOp31
 70
     1
102
RTVSPropertyOp32
 70
     1
102
RTVSPropertyOp33
 70
     1
102
RTVSPropertyOp34
 70
     1
102
RTVSPropertyOp35
 70
     1
102
RTVSPropertyOp36
 70
     1
102
RTVSPropertyOp37
 70
     1
102
RTVSPropertyOp38
 70
     1
102
RTVSPropertyOp39
 70
     1
102
RTVSPropertyOp40
 70
     1
102
RTVSPropertyOp41
 70
     1
102
RTVSPropertyOp42
 70
     1
102
RTVSPropertyOp43
 70
     1
102
RTVSPropertyOp44
 70
     1
102
RTVSPropertyOp45
 70
     1
102
RTVSPropertyOp46
 70
     1
102
RTVSPropertyOp47
 70
     1
102
RTVSPropertyOp48
 70
     1
102
RTVSPropertyOp49
 70
     1
102
RTVSPropertyOp50
 70
     1
102
RTVSPropertyOp51
 70
     0
102
RTVSPropertyOp52
 70
     0
102
RTVSPropertyOp53
 70
     1
102
RTVSPropertyOp54
 70
     1
102
RTVSPropertyOp55
 70
     1
102
RTVSPropertyOp56
 70
     1
102
RTVSPropertyOp57
 70
     1
102
RTVSPropertyOp58
 70
     1
102
RTVSPropertyOp59
 70
     1
102
RTVSPropertyOp60
 70
     1
102
RTVSPropertyOp61
 70
     1
102
RTVSPropertyOp62
 70
     1
  0
XRECORD
  5
541
102
{ACAD_REACTORS
330
540
102
}
330
540
100
AcDbXrecord
280
     1
102
RTVSPost2010Prop28
280
     0
102
RTVSPost2010PropOp28
 70
     1
102
RTVSPost2010Prop29
280
     1
102
RTVSPost2010PropOp29
 70
     1
102
RTVSPost2010Prop30
280
     1
102
RTVSPost2010PropOp30
 70
     1
102
RTVSPost2010Prop31
280
     0
102
RTVSPost2010PropOp31
 70
     1
102
RTVSPost2010Prop32
280
     0
102
RTVSPost2010PropOp32
 70
     1
102
RTVSPost2010Prop33
280
     0
102
RTVSPost2010PropOp33
 70
     1
102
RTVSPost2010Prop34
280
     0
102
RTVSPost2010PropOp34
 70
     1
102
RTVSPost2010Prop35
280
     0
102
RTVSPost2010PropOp35
 70
     1
102
RTVSPost2010Prop36
280
     0
102
RTVSPost2010PropOp36
 70
     1
102
RTVSPost2010Prop37
 90
       50
102
RTVSPost2010PropOp37
 70
     1
102
RTVSPost2010Prop38
140
0.0
102
RTVSPost2010PropOp38
 70
     1
102
RTVSPost2010Prop39
140
1.0
102
RTVSPost2010PropOp39
 70
     1
102
RTVSPost2010Prop40
 90
        0
102
RTVSPost2010PropOp40
 70
     1
102
RTVSPost2010Prop41ColorIndex
 90
       18
102
RTVSPost2010Prop41ColorRGB
 90
        0
102
RTVSPost2010PropOp41
 70
     1
102
RTVSPost2010Prop42
 90
       50
102
RTVSPost2010PropOp42
 70
     1
102
RTVSPost2010Prop43
 90
        3
102
RTVSPost2010PropOp43
 70
     1
102
RTVSPost2010Prop44ColorIndex
 90
        5
102
RTVSPost2010Prop44ColorRGB
 90
      255
102
RTVSPost2010PropOp44
 70
     1
102
RTVSPost2010Prop45
280
     0
102
RTVSPost2010PropOp45
 70
     1
102
RTVSPost2010Prop46
 90
       50
102
RTVSPost2010PropOp46
 70
     1
102
RTVSPost2010Prop47
 90
       50
102
RTVSPost2010PropOp47
 70
     1
102
RTVSPost2010Prop48
 90
       50
102
RTVSPost2010PropOp48
 70
     1
102
RTVSPost2010Prop49
280
     0
102
RTVSPost2010PropOp49
 70
     1
102
RTVSPost2010Prop50
 90
       50
102
RTVSPost2010PropOp50
 70
     1
102
RTVSPost2010Prop51ColorIndex
 90
      256
102
RTVSPost2010Prop51ColorRGB
 90
-16777216
102
RTVSPost2010PropOp51
 70
     0
102
RTVSPost2010Prop52
140
1.0
102
RTVSPost2010PropOp52
 70
     0
102
RTVSPost2010Prop53
 90
        2
102
RTVSPost2010PropOp53
 70
     1
102
RTVSPost2010Prop54
  1
strokes_ogs.tif
102
RTVSPost2010PropOp54
 70
     1
102
RTVSPost2010Prop55
280
     0
102
RTVSPost2010PropOp55
 70
     1
102
RTVSPost2010Prop56
140
1.0
102
RTVSPost2010PropOp56
 70
     1
102
RTVSPost2010Prop57
140
1.0
102
RTVSPost2010PropOp57
 70
     1
102
RTVSPropertyOp0
 70
     1
102
RTVSPropertyOp1
 70
     1
102
RTVSPropertyOp2
 70
     1
102
RTVSPropertyOp3
 70
     1
102
RTVSPropertyOp4
 70
     1
102
RTVSPropertyOp5
 70
     1
102
RTVSPropertyOp6
 70
     1
102
RTVSPropertyOp7
 70
     1
102
RTVSPropertyOp8
 70
     1
102
RTVSPropertyOp9
 70
     1
102
RTVSPropertyOp10
 70
     1
102
RTVSPropertyOp11
 70
     1
102
RTVSPropertyOp12
 70
     1
102
RTVSPropertyOp13
 70
     1
102
RTVSPropertyOp14
 70
     1
102
RTVSPropertyOp15
 70
     1
102
RTVSPropertyOp16
 70
     1
102
RTVSPropertyOp17
 70
     1
102
RTVSPropertyOp18
 70
     1
102
RTVSPropertyOp19
 70
     1
102
RTVSPropertyOp20
 70
     1
102
RTVSPropertyOp21
 70
     1
102
RTVSPropertyOp22
 70
     1
102
RTVSPropertyOp23
 70
     1
102
RTVSPropertyOp24
 70
     1
102
RTVSPropertyOp25
 70
     1
102
RTVSPropertyOp26
 70
     1
102
RTVSPropertyOp27
 70
     1
102
RTVSPropertyOp28
 70
     1
102
RTVSPropertyOp29
 70
     1
102
RTVSPropertyOp30
 70
     1
102
RTVSPropertyOp31
 70
     1
102
RTVSPropertyOp32
 70
     1
102
RTVSPropertyOp33
 70
     1
102
RTVSPropertyOp34
 70
     1
102
RTVSPropertyOp35
 70
     1
102
RTVSPropertyOp36
 70
     1
102
RTVSPropertyOp37
 70
     1
102
RTVSPropertyOp38
 70
     1
102
RTVSPropertyOp39
 70
     1
102
RTVSPropertyOp40
 70
     1
102
RTVSPropertyOp41
 70
     1
102
RTVSPropertyOp42
 70
     1
102
RTVSPropertyOp43
 70
     1
102
RTVSPropertyOp44
 70
     1
102
RTVSPropertyOp45
 70
     1
102
RTVSPropertyOp46
 70
     1
102
RTVSPropertyOp47
 70
     1
102
RTVSPropertyOp48
 70
     1
102
RTVSPropertyOp49
 70
     1
102
RTVSPropertyOp50
 70
     1
102
RTVSPropertyOp51
 70
     0
102
RTVSPropertyOp52
 70
     0
102
RTVSPropertyOp53
 70
     1
102
RTVSPropertyOp54
 70
     1
102
RTVSPropertyOp55
 70
     1
102
RTVSPropertyOp56
 70
     1
102
RTVSPropertyOp57
 70
     1
102
RTVSPropertyOp58
 70
     1
102
RTVSPropertyOp59
 70
     1
102
RTVSPropertyOp60
 70
     1
102
RTVSPropertyOp61
 70
     1
102
RTVSPropertyOp62
 70
     1
  0
XRECORD
  5
543
102
{ACAD_REACTORS
330
542
102
}
330
542
100
AcDbXrecord
280
     1
102
RTVSPost2010Prop28
280
     0
102
RTVSPost2010PropOp28
 70
     1
102
RTVSPost2010Prop29
280
     1
102
RTVSPost2010PropOp29
 70
     1
102
RTVSPost2010Prop30
280
     1
102
RTVSPost2010PropOp30
 70
     1
102
RTVSPost2010Prop31
280
     0
102
RTVSPost2010PropOp31
 70
     1
102
RTVSPost2010Prop32
280
     0
102
RTVSPost2010PropOp32
 70
     1
102
RTVSPost2010Prop33
280
     0
102
RTVSPost2010PropOp33
 70
     1
102
RTVSPost2010Prop34
280
     0
102
RTVSPost2010PropOp34
 70
     1
102
RTVSPost2010Prop35
280
     0
102
RTVSPost2010PropOp35
 70
     1
102
RTVSPost2010Prop36
280
     0
102
RTVSPost2010PropOp36
 70
     1
102
RTVSPost2010Prop37
 90
       50
102
RTVSPost2010PropOp37
 70
     1
102
RTVSPost2010Prop38
140
0.0
102
RTVSPost2010PropOp38
 70
     1
102
RTVSPost2010Prop39
140
1.0
102
RTVSPost2010PropOp39
 70
     1
102
RTVSPost2010Prop40
 90
        0
102
RTVSPost2010PropOp40
 70
     1
102
RTVSPost2010Prop41ColorIndex
 90
       18
102
RTVSPost2010Prop41ColorRGB
 90
        0
102
RTVSPost2010PropOp41
 70
     1
102
RTVSPost2010Prop42
 90
       50
102
RTVSPost2010PropOp42
 70
     1
102
RTVSPost2010Prop43
 90
        3
102
RTVSPost2010PropOp43
 70
     1
102
RTVSPost2010Prop44ColorIndex
 90
        5
102
RTVSPost2010Prop44ColorRGB
 90
      255
102
RTVSPost2010PropOp44
 70
     1
102
RTVSPost2010Prop45
280
     0
102
RTVSPost2010PropOp45
 70
     1
102
RTVSPost2010Prop46
 90
       50
102
RTVSPost2010PropOp46
 70
     1
102
RTVSPost2010Prop47
 90
       50
102
RTVSPost2010PropOp47
 70
     1
102
RTVSPost2010Prop48
 90
       50
102
RTVSPost2010PropOp48
 70
     1
102
RTVSPost2010Prop49
280
     0
102
RTVSPost2010PropOp49
 70
     1
102
RTVSPost2010Prop50
 90
       50
102
RTVSPost2010PropOp50
 70
     1
102
RTVSPost2010Prop51ColorIndex
 90
      256
102
RTVSPost2010Prop51ColorRGB
 90
-16777216
102
RTVSPost2010PropOp51
 70
     0
102
RTVSPost2010Prop52
140
1.0
102
RTVSPost2010PropOp52
 70
     0
102
RTVSPost2010Prop53
 90
        2
102
RTVSPost2010PropOp53
 70
     1
102
RTVSPost2010Prop54
  1
strokes_ogs.tif
102
RTVSPost2010PropOp54
 70
     1
102
RTVSPost2010Prop55
280
     0
102
RTVSPost2010PropOp55
 70
     1
102
RTVSPost2010Prop56
140
1.0
102
RTVSPost2010PropOp56
 70
     1
102
RTVSPost2010Prop57
140
1.0
102
RTVSPost2010PropOp57
 70
     1
102
RTVSPropertyOp0
 70
     1
102
RTVSPropertyOp1
 70
     1
102
RTVSPropertyOp2
 70
     1
102
RTVSPropertyOp3
 70
     1
102
RTVSPropertyOp4
 70
     1
102
RTVSPropertyOp5
 70
     1
102
RTVSPropertyOp6
 70
     1
102
RTVSPropertyOp7
 70
     1
102
RTVSPropertyOp8
 70
     1
102
RTVSPropertyOp9
 70
     1
102
RTVSPropertyOp10
 70
     1
102
RTVSPropertyOp11
 70
     1
102
RTVSPropertyOp12
 70
     1
102
RTVSPropertyOp13
 70
     1
102
RTVSPropertyOp14
 70
     1
102
RTVSPropertyOp15
 70
     1
102
RTVSPropertyOp16
 70
     1
102
RTVSPropertyOp17
 70
     1
102
RTVSPropertyOp18
 70
     1
102
RTVSPropertyOp19
 70
     1
102
RTVSPropertyOp20
 70
     1
102
RTVSPropertyOp21
 70
     1
102
RTVSPropertyOp22
 70
     1
102
RTVSPropertyOp23
 70
     1
102
RTVSPropertyOp24
 70
     1
102
RTVSPropertyOp25
 70
     1
102
RTVSPropertyOp26
 70
     1
102
RTVSPropertyOp27
 70
     1
102
RTVSPropertyOp28
 70
     1
102
RTVSPropertyOp29
 70
     1
102
RTVSPropertyOp30
 70
     1
102
RTVSPropertyOp31
 70
     1
102
RTVSPropertyOp32
 70
     1
102
RTVSPropertyOp33
 70
     1
102
RTVSPropertyOp34
 70
     1
102
RTVSPropertyOp35
 70
     1
102
RTVSPropertyOp36
 70
     1
102
RTVSPropertyOp37
 70
     1
102
RTVSPropertyOp38
 70
     1
102
RTVSPropertyOp39
 70
     1
102
RTVSPropertyOp40
 70
     1
102
RTVSPropertyOp41
 70
     1
102
RTVSPropertyOp42
 70
     1
102
RTVSPropertyOp43
 70
     1
102
RTVSPropertyOp44
 70
     1
102
RTVSPropertyOp45
 70
     1
102
RTVSPropertyOp46
 70
     1
102
RTVSPropertyOp47
 70
     1
102
RTVSPropertyOp48
 70
     1
102
RTVSPropertyOp49
 70
     1
102
RTVSPropertyOp50
 70
     1
102
RTVSPropertyOp51
 70
     0
102
RTVSPropertyOp52
 70
     0
102
RTVSPropertyOp53
 70
     1
102
RTVSPropertyOp54
 70
     1
102
RTVSPropertyOp55
 70
     1
102
RTVSPropertyOp56
 70
     1
102
RTVSPropertyOp57
 70
     1
102
RTVSPropertyOp58
 70
     1
102
RTVSPropertyOp59
 70
     1
102
RTVSPropertyOp60
 70
     1
102
RTVSPropertyOp61
 70
     1
102
RTVSPropertyOp62
 70
     1
  0
XRECORD
  5
545
102
{ACAD_REACTORS
330
544
102
}
330
544
100
AcDbXrecord
280
     1
102
RTVSPost2010Prop28
280
     0
102
RTVSPost2010PropOp28
 70
     1
102
RTVSPost2010Prop29
280
     1
102
RTVSPost2010PropOp29
 70
     1
102
RTVSPost2010Prop30
280
     1
102
RTVSPost2010PropOp30
 70
     1
102
RTVSPost2010Prop31
280
     0
102
RTVSPost2010PropOp31
 70
     1
102
RTVSPost2010Prop32
280
     0
102
RTVSPost2010PropOp32
 70
     1
102
RTVSPost2010Prop33
280
     0
102
RTVSPost2010PropOp33
 70
     1
102
RTVSPost2010Prop34
280
     0
102
RTVSPost2010PropOp34
 70
     1
102
RTVSPost2010Prop35
280
     0
102
RTVSPost2010PropOp35
 70
     1
102
RTVSPost2010Prop36
280
     0
102
RTVSPost2010PropOp36
 70
     1
102
RTVSPost2010Prop37
 90
       50
102
RTVSPost2010PropOp37
 70
     1
102
RTVSPost2010Prop38
140
0.0
102
RTVSPost2010PropOp38
 70
     1
102
RTVSPost2010Prop39
140
1.0
102
RTVSPost2010PropOp39
 70
     1
102
RTVSPost2010Prop40
 90
        0
102
RTVSPost2010PropOp40
 70
     1
102
RTVSPost2010Prop41ColorIndex
 90
       18
102
RTVSPost2010Prop41ColorRGB
 90
        0
102
RTVSPost2010PropOp41
 70
     1
102
RTVSPost2010Prop42
 90
       50
102
RTVSPost2010PropOp42
 70
     1
102
RTVSPost2010Prop43
 90
        3
102
RTVSPost2010PropOp43
 70
     1
102
RTVSPost2010Prop44ColorIndex
 90
        5
102
RTVSPost2010Prop44ColorRGB
 90
      255
102
RTVSPost2010PropOp44
 70
     1
102
RTVSPost2010Prop45
280
     0
102
RTVSPost2010PropOp45
 70
     1
102
RTVSPost2010Prop46
 90
       50
102
RTVSPost2010PropOp46
 70
     1
102
RTVSPost2010Prop47
 90
       50
102
RTVSPost2010PropOp47
 70
     1
102
RTVSPost2010Prop48
 90
       50
102
RTVSPost2010PropOp48
 70
     1
102
RTVSPost2010Prop49
280
     0
102
RTVSPost2010PropOp49
 70
     1
102
RTVSPost2010Prop50
 90
       50
102
RTVSPost2010PropOp50
 70
     1
102
RTVSPost2010Prop51ColorIndex
 90
      256
102
RTVSPost2010Prop51ColorRGB
 90
-16777216
102
RTVSPost2010PropOp51
 70
     0
102
RTVSPost2010Prop52
140
1.0
102
RTVSPost2010PropOp52
 70
     0
102
RTVSPost2010Prop53
 90
        2
102
RTVSPost2010PropOp53
 70
     1
102
RTVSPost2010Prop54
  1
strokes_ogs.tif
102
RTVSPost2010PropOp54
 70
     1
102
RTVSPost2010Prop55
280
     0
102
RTVSPost2010PropOp55
 70
     1
102
RTVSPost2010Prop56
140
1.0
102
RTVSPost2010PropOp56
 70
     1
102
RTVSPost2010Prop57
140
1.0
102
RTVSPost2010PropOp57
 70
     1
102
RTVSPropertyOp0
 70
     1
102
RTVSPropertyOp1
 70
     1
102
RTVSPropertyOp2
 70
     1
102
RTVSPropertyOp3
 70
     1
102
RTVSPropertyOp4
 70
     1
102
RTVSPropertyOp5
 70
     1
102
RTVSPropertyOp6
 70
     1
102
RTVSPropertyOp7
 70
     1
102
RTVSPropertyOp8
 70
     1
102
RTVSPropertyOp9
 70
     1
102
RTVSPropertyOp10
 70
     1
102
RTVSPropertyOp11
 70
     1
102
RTVSPropertyOp12
 70
     1
102
RTVSPropertyOp13
 70
     1
102
RTVSPropertyOp14
 70
     1
102
RTVSPropertyOp15
 70
     1
102
RTVSPropertyOp16
 70
     1
102
RTVSPropertyOp17
 70
     1
102
RTVSPropertyOp18
 70
     1
102
RTVSPropertyOp19
 70
     1
102
RTVSPropertyOp20
 70
     1
102
RTVSPropertyOp21
 70
     1
102
RTVSPropertyOp22
 70
     1
102
RTVSPropertyOp23
 70
     1
102
RTVSPropertyOp24
 70
     1
102
RTVSPropertyOp25
 70
     1
102
RTVSPropertyOp26
 70
     1
102
RTVSPropertyOp27
 70
     1
102
RTVSPropertyOp28
 70
     1
102
RTVSPropertyOp29
 70
     1
102
RTVSPropertyOp30
 70
     1
102
RTVSPropertyOp31
 70
     1
102
RTVSPropertyOp32
 70
     1
102
RTVSPropertyOp33
 70
     1
102
RTVSPropertyOp34
 70
     1
102
RTVSPropertyOp35
 70
     1
102
RTVSPropertyOp36
 70
     1
102
RTVSPropertyOp37
 70
     1
102
RTVSPropertyOp38
 70
     1
102
RTVSPropertyOp39
 70
     1
102
RTVSPropertyOp40
 70
     1
102
RTVSPropertyOp41
 70
     1
102
RTVSPropertyOp42
 70
     1
102
RTVSPropertyOp43
 70
     1
102
RTVSPropertyOp44
 70
     1
102
RTVSPropertyOp45
 70
     1
102
RTVSPropertyOp46
 70
     1
102
RTVSPropertyOp47
 70
     1
102
RTVSPropertyOp48
 70
     1
102
RTVSPropertyOp49
 70
     1
102
RTVSPropertyOp50
 70
     1
102
RTVSPropertyOp51
 70
     0
102
RTVSPropertyOp52
 70
     0
102
RTVSPropertyOp53
 70
     1
102
RTVSPropertyOp54
 70
     1
102
RTVSPropertyOp55
 70
     1
102
RTVSPropertyOp56
 70
     1
102
RTVSPropertyOp57
 70
     1
102
RTVSPropertyOp58
 70
     1
102
RTVSPropertyOp59
 70
     1
102
RTVSPropertyOp60
 70
     1
102
RTVSPropertyOp61
 70
     1
102
RTVSPropertyOp62
 70
     1
  0
XRECORD
  5
54B
102
{ACAD_REACTORS
330
54A
102
}
330
54A
100
AcDbXrecord
280
     1
102
RTVSPost2010Prop28
280
     0
102
RTVSPost2010PropOp28
 70
     1
102
RTVSPost2010Prop29
280
     1
102
RTVSPost2010PropOp29
 70
     1
102
RTVSPost2010Prop30
280
     1
102
RTVSPost2010PropOp30
 70
     1
102
RTVSPost2010Prop31
280
     0
102
RTVSPost2010PropOp31
 70
     1
102
RTVSPost2010Prop32
280
     0
102
RTVSPost2010PropOp32
 70
     1
102
RTVSPost2010Prop33
280
     0
102
RTVSPost2010PropOp33
 70
     1
102
RTVSPost2010Prop34
280
     0
102
RTVSPost2010PropOp34
 70
     1
102
RTVSPost2010Prop35
280
     0
102
RTVSPost2010PropOp35
 70
     1
102
RTVSPost2010Prop36
280
     0
102
RTVSPost2010PropOp36
 70
     1
102
RTVSPost2010Prop37
 90
       50
102
RTVSPost2010PropOp37
 70
     1
102
RTVSPost2010Prop38
140
0.0
102
RTVSPost2010PropOp38
 70
     1
102
RTVSPost2010Prop39
140
1.0
102
RTVSPost2010PropOp39
 70
     1
102
RTVSPost2010Prop40
 90
        0
102
RTVSPost2010PropOp40
 70
     1
102
RTVSPost2010Prop41ColorIndex
 90
       18
102
RTVSPost2010Prop41ColorRGB
 90
        0
102
RTVSPost2010PropOp41
 70
     1
102
RTVSPost2010Prop42
 90
       50
102
RTVSPost2010PropOp42
 70
     1
102
RTVSPost2010Prop43
 90
        3
102
RTVSPost2010PropOp43
 70
     1
102
RTVSPost2010Prop44ColorIndex
 90
        5
102
RTVSPost2010Prop44ColorRGB
 90
      255
102
RTVSPost2010PropOp44
 70
     1
102
RTVSPost2010Prop45
280
     0
102
RTVSPost2010PropOp45
 70
     1
102
RTVSPost2010Prop46
 90
       50
102
RTVSPost2010PropOp46
 70
     1
102
RTVSPost2010Prop47
 90
       50
102
RTVSPost2010PropOp47
 70
     1
102
RTVSPost2010Prop48
 90
       50
102
RTVSPost2010PropOp48
 70
     1
102
RTVSPost2010Prop49
280
     0
102
RTVSPost2010PropOp49
 70
     1
102
RTVSPost2010Prop50
 90
       50
102
RTVSPost2010PropOp50
 70
     1
102
RTVSPost2010Prop51ColorIndex
 90
      256
102
RTVSPost2010Prop51ColorRGB
 90
-16777216
102
RTVSPost2010PropOp51
 70
     0
102
RTVSPost2010Prop52
140
1.0
102
RTVSPost2010PropOp52
 70
     0
102
RTVSPost2010Prop53
 90
        2
102
RTVSPost2010PropOp53
 70
     1
102
RTVSPost2010Prop54
  1
strokes_ogs.tif
102
RTVSPost2010PropOp54
 70
     1
102
RTVSPost2010Prop55
280
     0
102
RTVSPost2010PropOp55
 70
     1
102
RTVSPost2010Prop56
140
1.0
102
RTVSPost2010PropOp56
 70
     1
102
RTVSPost2010Prop57
140
1.0
102
RTVSPost2010PropOp57
 70
     1
102
RTVSPropertyOp0
 70
     1
102
RTVSPropertyOp1
 70
     1
102
RTVSPropertyOp2
 70
     1
102
RTVSPropertyOp3
 70
     1
102
RTVSPropertyOp4
 70
     1
102
RTVSPropertyOp5
 70
     1
102
RTVSPropertyOp6
 70
     1
102
RTVSPropertyOp7
 70
     1
102
RTVSPropertyOp8
 70
     1
102
RTVSPropertyOp9
 70
     1
102
RTVSPropertyOp10
 70
     1
102
RTVSPropertyOp11
 70
     1
102
RTVSPropertyOp12
 70
     1
102
RTVSPropertyOp13
 70
     1
102
RTVSPropertyOp14
 70
     1
102
RTVSPropertyOp15
 70
     1
102
RTVSPropertyOp16
 70
     1
102
RTVSPropertyOp17
 70
     1
102
RTVSPropertyOp18
 70
     1
102
RTVSPropertyOp19
 70
     1
102
RTVSPropertyOp20
 70
     1
102
RTVSPropertyOp21
 70
     1
102
RTVSPropertyOp22
 70
     1
102
RTVSPropertyOp23
 70
     1
102
RTVSPropertyOp24
 70
     1
102
RTVSPropertyOp25
 70
     1
102
RTVSPropertyOp26
 70
     1
102
RTVSPropertyOp27
 70
     1
102
RTVSPropertyOp28
 70
     1
102
RTVSPropertyOp29
 70
     1
102
RTVSPropertyOp30
 70
     1
102
RTVSPropertyOp31
 70
     1
102
RTVSPropertyOp32
 70
     1
102
RTVSPropertyOp33
 70
     1
102
RTVSPropertyOp34
 70
     1
102
RTVSPropertyOp35
 70
     1
102
RTVSPropertyOp36
 70
     1
102
RTVSPropertyOp37
 70
     1
102
RTVSPropertyOp38
 70
     1
102
RTVSPropertyOp39
 70
     1
102
RTVSPropertyOp40
 70
     1
102
RTVSPropertyOp41
 70
     1
102
RTVSPropertyOp42
 70
     1
102
RTVSPropertyOp43
 70
     1
102
RTVSPropertyOp44
 70
     1
102
RTVSPropertyOp45
 70
     1
102
RTVSPropertyOp46
 70
     1
102
RTVSPropertyOp47
 70
     1
102
RTVSPropertyOp48
 70
     1
102
RTVSPropertyOp49
 70
     1
102
RTVSPropertyOp50
 70
     1
102
RTVSPropertyOp51
 70
     0
102
RTVSPropertyOp52
 70
     0
102
RTVSPropertyOp53
 70
     1
102
RTVSPropertyOp54
 70
     1
102
RTVSPropertyOp55
 70
     1
102
RTVSPropertyOp56
 70
     1
102
RTVSPropertyOp57
 70
     1
102
RTVSPropertyOp58
 70
     1
102
RTVSPropertyOp59
 70
     1
102
RTVSPropertyOp60
 70
     1
102
RTVSPropertyOp61
 70
     1
102
RTVSPropertyOp62
 70
     1
  0
XRECORD
  5
55F
102
{ACAD_REACTORS
330
55E
102
}
330
55E
100
AcDbXrecord
280
     1
102
RTVSPost2010Prop28
280
     0
102
RTVSPost2010PropOp28
 70
     0
102
RTVSPost2010Prop29
280
     1
102
RTVSPost2010PropOp29
 70
     0
102
RTVSPost2010Prop30
280
     1
102
RTVSPost2010PropOp30
 70
     0
102
RTVSPost2010Prop31
280
     0
102
RTVSPost2010PropOp31
 70
     0
102
RTVSPost2010Prop32
280
     0
102
RTVSPost2010PropOp32
 70
     0
102
RTVSPost2010Prop33
280
     0
102
RTVSPost2010PropOp33
 70
     0
102
RTVSPost2010Prop34
280
     0
102
RTVSPost2010PropOp34
 70
     0
102
RTVSPost2010Prop35
280
     0
102
RTVSPost2010PropOp35
 70
     0
102
RTVSPost2010Prop36
280
     0
102
RTVSPost2010PropOp36
 70
     0
102
RTVSPost2010Prop37
 90
       50
102
RTVSPost2010PropOp37
 70
     0
102
RTVSPost2010Prop38
140
0.0
102
RTVSPost2010PropOp38
 70
     0
102
RTVSPost2010Prop39
140
1.0
102
RTVSPost2010PropOp39
 70
     0
102
RTVSPost2010Prop40
 90
        0
102
RTVSPost2010PropOp40
 70
     0
102
RTVSPost2010Prop41ColorIndex
 90
       18
102
RTVSPost2010Prop41ColorRGB
 90
        0
102
RTVSPost2010PropOp41
 70
     0
102
RTVSPost2010Prop42
 90
       50
102
RTVSPost2010PropOp42
 70
     0
102
RTVSPost2010Prop43
 90
        3
102
RTVSPost2010PropOp43
 70
     0
102
RTVSPost2010Prop44ColorIndex
 90
        5
102
RTVSPost2010Prop44ColorRGB
 90
      255
102
RTVSPost2010PropOp44
 70
     0
102
RTVSPost2010Prop45
280
     0
102
RTVSPost2010PropOp45
 70
     0
102
RTVSPost2010Prop46
 90
       50
102
RTVSPost2010PropOp46
 70
     0
102
RTVSPost2010Prop47
 90
       50
102
RTVSPost2010PropOp47
 70
     0
102
RTVSPost2010Prop48
 90
       50
102
RTVSPost2010PropOp48
 70
     0
102
RTVSPost2010Prop49
280
     0
102
RTVSPost2010PropOp49
 70
     0
102
RTVSPost2010Prop50
 90
       50
102
RTVSPost2010PropOp50
 70
     0
102
RTVSPost2010Prop51ColorIndex
 90
      256
102
RTVSPost2010Prop51ColorRGB
 90
-16777216
102
RTVSPost2010PropOp51
 70
     0
102
RTVSPost2010Prop52
140
1.0
102
RTVSPost2010PropOp52
 70
     0
102
RTVSPost2010Prop53
 90
        2
102
RTVSPost2010PropOp53
 70
     0
102
RTVSPost2010Prop54
  1
strokes_ogs.tif
102
RTVSPost2010PropOp54
 70
     0
102
RTVSPost2010Prop55
280
     0
102
RTVSPost2010PropOp55
 70
     0
102
RTVSPost2010Prop56
140
1.0
102
RTVSPost2010PropOp56
 70
     0
102
RTVSPost2010Prop57
140
1.0
102
RTVSPost2010PropOp57
 70
     0
102
RTVSPropertyOp0
 70
     0
102
RTVSPropertyOp1
 70
     0
102
RTVSPropertyOp2
 70
     0
102
RTVSPropertyOp3
 70
     0
102
RTVSPropertyOp4
 70
     0
102
RTVSPropertyOp5
 70
     0
102
RTVSPropertyOp6
 70
     0
102
RTVSPropertyOp7
 70
     0
102
RTVSPropertyOp8
 70
     0
102
RTVSPropertyOp9
 70
     0
102
RTVSPropertyOp10
 70
     0
102
RTVSPropertyOp11
 70
     0
102
RTVSPropertyOp12
 70
     0
102
RTVSPropertyOp13
 70
     0
102
RTVSPropertyOp14
 70
     2
102
RTVSPropertyOp15
 70
     0
102
RTVSPropertyOp16
 70
     0
102
RTVSPropertyOp17
 70
     0
102
RTVSPropertyOp18
 70
     0
102
RTVSPropertyOp19
 70
     0
102
RTVSPropertyOp20
 70
     0
102
RTVSPropertyOp21
 70
     0
102
RTVSPropertyOp22
 70
     0
102
RTVSPropertyOp23
 70
     0
102
RTVSPropertyOp24
 70
     0
102
RTVSPropertyOp25
 70
     0
102
RTVSPropertyOp26
 70
     0
102
RTVSPropertyOp27
 70
     0
102
RTVSPropertyOp28
 70
     0
102
RTVSPropertyOp29
 70
     0
102
RTVSPropertyOp30
 70
     0
102
RTVSPropertyOp31
 70
     0
102
RTVSPropertyOp32
 70
     0
102
RTVSPropertyOp33
 70
     0
102
RTVSPropertyOp34
 70
     0
102
RTVSPropertyOp35
 70
     0
102
RTVSPropertyOp36
 70
     0
102
RTVSPropertyOp37
 70
     0
102
RTVSPropertyOp38
 70
     0
102
RTVSPropertyOp39
 70
     0
102
RTVSPropertyOp40
 70
     0
102
RTVSPropertyOp41
 70
     0
102
RTVSPropertyOp42
 70
     0
102
RTVSPropertyOp43
 70
     0
102
RTVSPropertyOp44
 70
     0
102
RTVSPropertyOp45
 70
     0
102
RTVSPropertyOp46
 70
     0
102
RTVSPropertyOp47
 70
     0
102
RTVSPropertyOp48
 70
     0
102
RTVSPropertyOp49
 70
     0
102
RTVSPropertyOp50
 70
     0
102
RTVSPropertyOp51
 70
     0
102
RTVSPropertyOp52
 70
     0
102
RTVSPropertyOp53
 70
     0
102
RTVSPropertyOp54
 70
     0
102
RTVSPropertyOp55
 70
     0
102
RTVSPropertyOp56
 70
     0
102
RTVSPropertyOp57
 70
     0
102
RTVSPropertyOp58
 70
     1
102
RTVSPropertyOp59
 70
     1
102
RTVSPropertyOp60
 70
     1
102
RTVSPropertyOp61
 70
     1
102
RTVSPropertyOp62
 70
     1
  0
XRECORD
  5
559
102
{ACAD_REACTORS
330
558
102
}
330
558
100
AcDbXrecord
280
     1
102
RTVSPost2010Prop28
280
     0
102
RTVSPost2010PropOp28
 70
     1
102
RTVSPost2010Prop29
280
     1
102
RTVSPost2010PropOp29
 70
     1
102
RTVSPost2010Prop30
280
     1
102
RTVSPost2010PropOp30
 70
     1
102
RTVSPost2010Prop31
280
     0
102
RTVSPost2010PropOp31
 70
     1
102
RTVSPost2010Prop32
280
     0
102
RTVSPost2010PropOp32
 70
     1
102
RTVSPost2010Prop33
280
     0
102
RTVSPost2010PropOp33
 70
     1
102
RTVSPost2010Prop34
280
     0
102
RTVSPost2010PropOp34
 70
     1
102
RTVSPost2010Prop35
280
     0
102
RTVSPost2010PropOp35
 70
     1
102
RTVSPost2010Prop36
280
     0
102
RTVSPost2010PropOp36
 70
     1
102
RTVSPost2010Prop37
 90
       50
102
RTVSPost2010PropOp37
 70
     1
102
RTVSPost2010Prop38
140
0.0
102
RTVSPost2010PropOp38
 70
     1
102
RTVSPost2010Prop39
140
1.0
102
RTVSPost2010PropOp39
 70
     1
102
RTVSPost2010Prop40
 90
        0
102
RTVSPost2010PropOp40
 70
     1
102
RTVSPost2010Prop41ColorIndex
 90
       18
102
RTVSPost2010Prop41ColorRGB
 90
        0
102
RTVSPost2010PropOp41
 70
     1
102
RTVSPost2010Prop42
 90
       50
102
RTVSPost2010PropOp42
 70
     1
102
RTVSPost2010Prop43
 90
        3
102
RTVSPost2010PropOp43
 70
     1
102
RTVSPost2010Prop44ColorIndex
 90
        5
102
RTVSPost2010Prop44ColorRGB
 90
      255
102
RTVSPost2010PropOp44
 70
     1
102
RTVSPost2010Prop45
280
     0
102
RTVSPost2010PropOp45
 70
     1
102
RTVSPost2010Prop46
 90
       50
102
RTVSPost2010PropOp46
 70
     1
102
RTVSPost2010Prop47
 90
       50
102
RTVSPost2010PropOp47
 70
     1
102
RTVSPost2010Prop48
 90
       50
102
RTVSPost2010PropOp48
 70
     1
102
RTVSPost2010Prop49
280
     0
102
RTVSPost2010PropOp49
 70
     1
102
RTVSPost2010Prop50
 90
       50
102
RTVSPost2010PropOp50
 70
     1
102
RTVSPost2010Prop51ColorIndex
 90
      256
102
RTVSPost2010Prop51ColorRGB
 90
-16777216
102
RTVSPost2010PropOp51
 70
     0
102
RTVSPost2010Prop52
140
1.0
102
RTVSPost2010PropOp52
 70
     0
102
RTVSPost2010Prop53
 90
        2
102
RTVSPost2010PropOp53
 70
     1
102
RTVSPost2010Prop54
  1
strokes_ogs.tif
102
RTVSPost2010PropOp54
 70
     1
102
RTVSPost2010Prop55
280
     0
102
RTVSPost2010PropOp55
 70
     1
102
RTVSPost2010Prop56
140
1.0
102
RTVSPost2010PropOp56
 70
     1
102
RTVSPost2010Prop57
140
1.0
102
RTVSPost2010PropOp57
 70
     1
102
RTVSPropertyOp0
 70
     1
102
RTVSPropertyOp1
 70
     1
102
RTVSPropertyOp2
 70
     1
102
RTVSPropertyOp3
 70
     1
102
RTVSPropertyOp4
 70
     1
102
RTVSPropertyOp5
 70
     1
102
RTVSPropertyOp6
 70
     1
102
RTVSPropertyOp7
 70
     1
102
RTVSPropertyOp8
 70
     1
102
RTVSPropertyOp9
 70
     1
102
RTVSPropertyOp10
 70
     1
102
RTVSPropertyOp11
 70
     1
102
RTVSPropertyOp12
 70
     1
102
RTVSPropertyOp13
 70
     1
102
RTVSPropertyOp14
 70
     1
102
RTVSPropertyOp15
 70
     1
102
RTVSPropertyOp16
 70
     1
102
RTVSPropertyOp17
 70
     1
102
RTVSPropertyOp18
 70
     1
102
RTVSPropertyOp19
 70
     1
102
RTVSPropertyOp20
 70
     1
102
RTVSPropertyOp21
 70
     1
102
RTVSPropertyOp22
 70
     1
102
RTVSPropertyOp23
 70
     1
102
RTVSPropertyOp24
 70
     1
102
RTVSPropertyOp25
 70
     1
102
RTVSPropertyOp26
 70
     1
102
RTVSPropertyOp27
 70
     1
102
RTVSPropertyOp28
 70
     1
102
RTVSPropertyOp29
 70
     1
102
RTVSPropertyOp30
 70
     1
102
RTVSPropertyOp31
 70
     1
102
RTVSPropertyOp32
 70
     1
102
RTVSPropertyOp33
 70
     1
102
RTVSPropertyOp34
 70
     1
102
RTVSPropertyOp35
 70
     1
102
RTVSPropertyOp36
 70
     1
102
RTVSPropertyOp37
 70
     1
102
RTVSPropertyOp38
 70
     1
102
RTVSPropertyOp39
 70
     1
102
RTVSPropertyOp40
 70
     1
102
RTVSPropertyOp41
 70
     1
102
RTVSPropertyOp42
 70
     1
102
RTVSPropertyOp43
 70
     1
102
RTVSPropertyOp44
 70
     1
102
RTVSPropertyOp45
 70
     1
102
RTVSPropertyOp46
 70
     1
102
RTVSPropertyOp47
 70
     1
102
RTVSPropertyOp48
 70
     1
102
RTVSPropertyOp49
 70
     1
102
RTVSPropertyOp50
 70
     1
102
RTVSPropertyOp51
 70
     0
102
RTVSPropertyOp52
 70
     0
102
RTVSPropertyOp53
 70
     1
102
RTVSPropertyOp54
 70
     1
102
RTVSPropertyOp55
 70
     1
102
RTVSPropertyOp56
 70
     1
102
RTVSPropertyOp57
 70
     1
102
RTVSPropertyOp58
 70
     1
102
RTVSPropertyOp59
 70
     1
102
RTVSPropertyOp60
 70
     1
102
RTVSPropertyOp61
 70
     1
102
RTVSPropertyOp62
 70
     1
  0
XRECORD
  5
561
102
{ACAD_REACTORS
330
560
102
}
330
560
100
AcDbXrecord
280
     1
102
RTVSPost2010Prop28
280
     0
102
RTVSPost2010PropOp28
 70
     0
102
RTVSPost2010Prop29
280
     1
102
RTVSPost2010PropOp29
 70
     0
102
RTVSPost2010Prop30
280
     1
102
RTVSPost2010PropOp30
 70
     0
102
RTVSPost2010Prop31
280
     0
102
RTVSPost2010PropOp31
 70
     0
102
RTVSPost2010Prop32
280
     0
102
RTVSPost2010PropOp32
 70
     0
102
RTVSPost2010Prop33
280
     0
102
RTVSPost2010PropOp33
 70
     0
102
RTVSPost2010Prop34
280
     0
102
RTVSPost2010PropOp34
 70
     0
102
RTVSPost2010Prop35
280
     0
102
RTVSPost2010PropOp35
 70
     0
102
RTVSPost2010Prop36
280
     0
102
RTVSPost2010PropOp36
 70
     0
102
RTVSPost2010Prop37
 90
       50
102
RTVSPost2010PropOp37
 70
     0
102
RTVSPost2010Prop38
140
0.0
102
RTVSPost2010PropOp38
 70
     0
102
RTVSPost2010Prop39
140
1.0
102
RTVSPost2010PropOp39
 70
     0
102
RTVSPost2010Prop40
 90
        0
102
RTVSPost2010PropOp40
 70
     0
102
RTVSPost2010Prop41ColorIndex
 90
       18
102
RTVSPost2010Prop41ColorRGB
 90
        0
102
RTVSPost2010PropOp41
 70
     0
102
RTVSPost2010Prop42
 90
       50
102
RTVSPost2010PropOp42
 70
     0
102
RTVSPost2010Prop43
 90
        3
102
RTVSPost2010PropOp43
 70
     0
102
RTVSPost2010Prop44ColorIndex
 90
        5
102
RTVSPost2010Prop44ColorRGB
 90
      255
102
RTVSPost2010PropOp44
 70
     0
102
RTVSPost2010Prop45
280
     0
102
RTVSPost2010PropOp45
 70
     0
102
RTVSPost2010Prop46
 90
       50
102
RTVSPost2010PropOp46
 70
     0
102
RTVSPost2010Prop47
 90
       50
102
RTVSPost2010PropOp47
 70
     0
102
RTVSPost2010Prop48
 90
       50
102
RTVSPost2010PropOp48
 70
     0
102
RTVSPost2010Prop49
280
     0
102
RTVSPost2010PropOp49
 70
     0
102
RTVSPost2010Prop50
 90
       50
102
RTVSPost2010PropOp50
 70
     0
102
RTVSPost2010Prop51ColorIndex
 90
      256
102
RTVSPost2010Prop51ColorRGB
 90
-16777216
102
RTVSPost2010PropOp51
 70
     0
102
RTVSPost2010Prop52
140
1.0
102
RTVSPost2010PropOp52
 70
     0
102
RTVSPost2010Prop53
 90
        2
102
RTVSPost2010PropOp53
 70
     0
102
RTVSPost2010Prop54
  1
strokes_ogs.tif
102
RTVSPost2010PropOp54
 70
     0
102
RTVSPost2010Prop55
280
     0
102
RTVSPost2010PropOp55
 70
     0
102
RTVSPost2010Prop56
140
1.0
102
RTVSPost2010PropOp56
 70
     0
102
RTVSPost2010Prop57
140
1.0
102
RTVSPost2010PropOp57
 70
     0
102
RTVSPropertyOp0
 70
     0
102
RTVSPropertyOp1
 70
     0
102
RTVSPropertyOp2
 70
     0
102
RTVSPropertyOp3
 70
     0
102
RTVSPropertyOp4
 70
     0
102
RTVSPropertyOp5
 70
     0
102
RTVSPropertyOp6
 70
     0
102
RTVSPropertyOp7
 70
     0
102
RTVSPropertyOp8
 70
     0
102
RTVSPropertyOp9
 70
     0
102
RTVSPropertyOp10
 70
     0
102
RTVSPropertyOp11
 70
     0
102
RTVSPropertyOp12
 70
     0
102
RTVSPropertyOp13
 70
     0
102
RTVSPropertyOp14
 70
     2
102
RTVSPropertyOp15
 70
     0
102
RTVSPropertyOp16
 70
     0
102
RTVSPropertyOp17
 70
     0
102
RTVSPropertyOp18
 70
     0
102
RTVSPropertyOp19
 70
     0
102
RTVSPropertyOp20
 70
     0
102
RTVSPropertyOp21
 70
     0
102
RTVSPropertyOp22
 70
     0
102
RTVSPropertyOp23
 70
     0
102
RTVSPropertyOp24
 70
     0
102
RTVSPropertyOp25
 70
     0
102
RTVSPropertyOp26
 70
     0
102
RTVSPropertyOp27
 70
     0
102
RTVSPropertyOp28
 70
     0
102
RTVSPropertyOp29
 70
     0
102
RTVSPropertyOp30
 70
     0
102
RTVSPropertyOp31
 70
     0
102
RTVSPropertyOp32
 70
     0
102
RTVSPropertyOp33
 70
     0
102
RTVSPropertyOp34
 70
     0
102
RTVSPropertyOp35
 70
     0
102
RTVSPropertyOp36
 70
     0
102
RTVSPropertyOp37
 70
     0
102
RTVSPropertyOp38
 70
     0
102
RTVSPropertyOp39
 70
     0
102
RTVSPropertyOp40
 70
     0
102
RTVSPropertyOp41
 70
     0
102
RTVSPropertyOp42
 70
     0
102
RTVSPropertyOp43
 70
     0
102
RTVSPropertyOp44
 70
     0
102
RTVSPropertyOp45
 70
     0
102
RTVSPropertyOp46
 70
     0
102
RTVSPropertyOp47
 70
     0
102
RTVSPropertyOp48
 70
     0
102
RTVSPropertyOp49
 70
     0
102
RTVSPropertyOp50
 70
     0
102
RTVSPropertyOp51
 70
     0
102
RTVSPropertyOp52
 70
     0
102
RTVSPropertyOp53
 70
     0
102
RTVSPropertyOp54
 70
     0
102
RTVSPropertyOp55
 70
     0
102
RTVSPropertyOp56
 70
     0
102
RTVSPropertyOp57
 70
     0
102
RTVSPropertyOp58
 70
     1
102
RTVSPropertyOp59
 70
     1
102
RTVSPropertyOp60
 70
     1
102
RTVSPropertyOp61
 70
     1
102
RTVSPropertyOp62
 70
     1
  0
XRECORD
  5
54F
102
{ACAD_REACTORS
330
54E
102
}
330
54E
100
AcDbXrecord
280
     1
102
RTVSPost2010Prop28
280
     0
102
RTVSPost2010PropOp28
 70
     1
102
RTVSPost2010Prop29
280
     1
102
RTVSPost2010PropOp29
 70
     1
102
RTVSPost2010Prop30
280
     1
102
RTVSPost2010PropOp30
 70
     1
102
RTVSPost2010Prop31
280
     0
102
RTVSPost2010PropOp31
 70
     1
102
RTVSPost2010Prop32
280
     0
102
RTVSPost2010PropOp32
 70
     1
102
RTVSPost2010Prop33
280
     0
102
RTVSPost2010PropOp33
 70
     1
102
RTVSPost2010Prop34
280
     0
102
RTVSPost2010PropOp34
 70
     1
102
RTVSPost2010Prop35
280
     0
102
RTVSPost2010PropOp35
 70
     1
102
RTVSPost2010Prop36
280
     0
102
RTVSPost2010PropOp36
 70
     1
102
RTVSPost2010Prop37
 90
       50
102
RTVSPost2010PropOp37
 70
     1
102
RTVSPost2010Prop38
140
0.0
102
RTVSPost2010PropOp38
 70
     1
102
RTVSPost2010Prop39
140
1.0
102
RTVSPost2010PropOp39
 70
     1
102
RTVSPost2010Prop40
 90
        0
102
RTVSPost2010PropOp40
 70
     1
102
RTVSPost2010Prop41ColorIndex
 90
       18
102
RTVSPost2010Prop41ColorRGB
 90
        0
102
RTVSPost2010PropOp41
 70
     1
102
RTVSPost2010Prop42
 90
       50
102
RTVSPost2010PropOp42
 70
     1
102
RTVSPost2010Prop43
 90
        3
102
RTVSPost2010PropOp43
 70
     1
102
RTVSPost2010Prop44ColorIndex
 90
        5
102
RTVSPost2010Prop44ColorRGB
 90
      255
102
RTVSPost2010PropOp44
 70
     1
102
RTVSPost2010Prop45
280
     0
102
RTVSPost2010PropOp45
 70
     1
102
RTVSPost2010Prop46
 90
       50
102
RTVSPost2010PropOp46
 70
     1
102
RTVSPost2010Prop47
 90
       50
102
RTVSPost2010PropOp47
 70
     1
102
RTVSPost2010Prop48
 90
       50
102
RTVSPost2010PropOp48
 70
     1
102
RTVSPost2010Prop49
280
     0
102
RTVSPost2010PropOp49
 70
     1
102
RTVSPost2010Prop50
 90
       50
102
RTVSPost2010PropOp50
 70
     1
102
RTVSPost2010Prop51ColorIndex
 90
      256
102
RTVSPost2010Prop51ColorRGB
 90
-16777216
102
RTVSPost2010PropOp51
 70
     0
102
RTVSPost2010Prop52
140
1.0
102
RTVSPost2010PropOp52
 70
     0
102
RTVSPost2010Prop53
 90
        2
102
RTVSPost2010PropOp53
 70
     1
102
RTVSPost2010Prop54
  1
strokes_ogs.tif
102
RTVSPost2010PropOp54
 70
     1
102
RTVSPost2010Prop55
280
     0
102
RTVSPost2010PropOp55
 70
     1
102
RTVSPost2010Prop56
140
1.0
102
RTVSPost2010PropOp56
 70
     1
102
RTVSPost2010Prop57
140
1.0
102
RTVSPost2010PropOp57
 70
     1
102
RTVSPropertyOp0
 70
     1
102
RTVSPropertyOp1
 70
     1
102
RTVSPropertyOp2
 70
     1
102
RTVSPropertyOp3
 70
     1
102
RTVSPropertyOp4
 70
     1
102
RTVSPropertyOp5
 70
     1
102
RTVSPropertyOp6
 70
     1
102
RTVSPropertyOp7
 70
     1
102
RTVSPropertyOp8
 70
     1
102
RTVSPropertyOp9
 70
     1
102
RTVSPropertyOp10
 70
     1
102
RTVSPropertyOp11
 70
     1
102
RTVSPropertyOp12
 70
     1
102
RTVSPropertyOp13
 70
     1
102
RTVSPropertyOp14
 70
     1
102
RTVSPropertyOp15
 70
     1
102
RTVSPropertyOp16
 70
     1
102
RTVSPropertyOp17
 70
     1
102
RTVSPropertyOp18
 70
     1
102
RTVSPropertyOp19
 70
     1
102
RTVSPropertyOp20
 70
     1
102
RTVSPropertyOp21
 70
     1
102
RTVSPropertyOp22
 70
     1
102
RTVSPropertyOp23
 70
     1
102
RTVSPropertyOp24
 70
     1
102
RTVSPropertyOp25
 70
     1
102
RTVSPropertyOp26
 70
     1
102
RTVSPropertyOp27
 70
     1
102
RTVSPropertyOp28
 70
     1
102
RTVSPropertyOp29
 70
     1
102
RTVSPropertyOp30
 70
     1
102
RTVSPropertyOp31
 70
     1
102
RTVSPropertyOp32
 70
     1
102
RTVSPropertyOp33
 70
     1
102
RTVSPropertyOp34
 70
     1
102
RTVSPropertyOp35
 70
     1
102
RTVSPropertyOp36
 70
     1
102
RTVSPropertyOp37
 70
     1
102
RTVSPropertyOp38
 70
     1
102
RTVSPropertyOp39
 70
     1
102
RTVSPropertyOp40
 70
     1
102
RTVSPropertyOp41
 70
     1
102
RTVSPropertyOp42
 70
     1
102
RTVSPropertyOp43
 70
     1
102
RTVSPropertyOp44
 70
     1
102
RTVSPropertyOp45
 70
     1
102
RTVSPropertyOp46
 70
     1
102
RTVSPropertyOp47
 70
     1
102
RTVSPropertyOp48
 70
     1
102
RTVSPropertyOp49
 70
     1
102
RTVSPropertyOp50
 70
     1
102
RTVSPropertyOp51
 70
     0
102
RTVSPropertyOp52
 70
     0
102
RTVSPropertyOp53
 70
     1
102
RTVSPropertyOp54
 70
     1
102
RTVSPropertyOp55
 70
     1
102
RTVSPropertyOp56
 70
     1
102
RTVSPropertyOp57
 70
     1
102
RTVSPropertyOp58
 70
     1
102
RTVSPropertyOp59
 70
     1
102
RTVSPropertyOp60
 70
     1
102
RTVSPropertyOp61
 70
     1
102
RTVSPropertyOp62
 70
     1
  0
XRECORD
  5
56D
102
{ACAD_REACTORS
330
56C
102
}
330
56C
100
AcDbXrecord
280
     1
102
RTVSPost2010Prop28
280
     0
102
RTVSPost2010PropOp28
 70
     1
102
RTVSPost2010Prop29
280
     1
102
RTVSPost2010PropOp29
 70
     1
102
RTVSPost2010Prop30
280
     1
102
RTVSPost2010PropOp30
 70
     1
102
RTVSPost2010Prop31
280
     0
102
RTVSPost2010PropOp31
 70
     1
102
RTVSPost2010Prop32
280
     0
102
RTVSPost2010PropOp32
 70
     1
102
RTVSPost2010Prop33
280
     0
102
RTVSPost2010PropOp33
 70
     1
102
RTVSPost2010Prop34
280
     0
102
RTVSPost2010PropOp34
 70
     1
102
RTVSPost2010Prop35
280
     0
102
RTVSPost2010PropOp35
 70
     1
102
RTVSPost2010Prop36
280
     0
102
RTVSPost2010PropOp36
 70
     1
102
RTVSPost2010Prop37
 90
       50
102
RTVSPost2010PropOp37
 70
     1
102
RTVSPost2010Prop38
140
0.0
102
RTVSPost2010PropOp38
 70
     1
102
RTVSPost2010Prop39
140
1.0
102
RTVSPost2010PropOp39
 70
     1
102
RTVSPost2010Prop40
 90
        0
102
RTVSPost2010PropOp40
 70
     1
102
RTVSPost2010Prop41ColorIndex
 90
       18
102
RTVSPost2010Prop41ColorRGB
 90
        0
102
RTVSPost2010PropOp41
 70
     1
102
RTVSPost2010Prop42
 90
       50
102
RTVSPost2010PropOp42
 70
     1
102
RTVSPost2010Prop43
 90
        3
102
RTVSPost2010PropOp43
 70
     1
102
RTVSPost2010Prop44ColorIndex
 90
        5
102
RTVSPost2010Prop44ColorRGB
 90
      255
102
RTVSPost2010PropOp44
 70
     1
102
RTVSPost2010Prop45
280
     0
102
RTVSPost2010PropOp45
 70
     1
102
RTVSPost2010Prop46
 90
       50
102
RTVSPost2010PropOp46
 70
     1
102
RTVSPost2010Prop47
 90
       50
102
RTVSPost2010PropOp47
 70
     1
102
RTVSPost2010Prop48
 90
       50
102
RTVSPost2010PropOp48
 70
     1
102
RTVSPost2010Prop49
280
     0
102
RTVSPost2010PropOp49
 70
     1
102
RTVSPost2010Prop50
 90
       50
102
RTVSPost2010PropOp50
 70
     1
102
RTVSPost2010Prop51ColorIndex
 90
      256
102
RTVSPost2010Prop51ColorRGB
 90
-16777216
102
RTVSPost2010PropOp51
 70
     0
102
RTVSPost2010Prop52
140
1.0
102
RTVSPost2010PropOp52
 70
     0
102
RTVSPost2010Prop53
 90
        2
102
RTVSPost2010PropOp53
 70
     1
102
RTVSPost2010Prop54
  1
strokes_ogs.tif
102
RTVSPost2010PropOp54
 70
     1
102
RTVSPost2010Prop55
280
     0
102
RTVSPost2010PropOp55
 70
     1
102
RTVSPost2010Prop56
140
1.0
102
RTVSPost2010PropOp56
 70
     1
102
RTVSPost2010Prop57
140
1.0
102
RTVSPost2010PropOp57
 70
     1
102
RTVSPropertyOp0
 70
     1
102
RTVSPropertyOp1
 70
     1
102
RTVSPropertyOp2
 70
     1
102
RTVSPropertyOp3
 70
     1
102
RTVSPropertyOp4
 70
     1
102
RTVSPropertyOp5
 70
     1
102
RTVSPropertyOp6
 70
     1
102
RTVSPropertyOp7
 70
     1
102
RTVSPropertyOp8
 70
     1
102
RTVSPropertyOp9
 70
     1
102
RTVSPropertyOp10
 70
     1
102
RTVSPropertyOp11
 70
     1
102
RTVSPropertyOp12
 70
     1
102
RTVSPropertyOp13
 70
     1
102
RTVSPropertyOp14
 70
     1
102
RTVSPropertyOp15
 70
     1
102
RTVSPropertyOp16
 70
     1
102
RTVSPropertyOp17
 70
     1
102
RTVSPropertyOp18
 70
     1
102
RTVSPropertyOp19
 70
     1
102
RTVSPropertyOp20
 70
     1
102
RTVSPropertyOp21
 70
     1
102
RTVSPropertyOp22
 70
     1
102
RTVSPropertyOp23
 70
     1
102
RTVSPropertyOp24
 70
     1
102
RTVSPropertyOp25
 70
     1
102
RTVSPropertyOp26
 70
     1
102
RTVSPropertyOp27
 70
     1
102
RTVSPropertyOp28
 70
     1
102
RTVSPropertyOp29
 70
     1
102
RTVSPropertyOp30
 70
     1
102
RTVSPropertyOp31
 70
     1
102
RTVSPropertyOp32
 70
     1
102
RTVSPropertyOp33
 70
     1
102
RTVSPropertyOp34
 70
     1
102
RTVSPropertyOp35
 70
     1
102
RTVSPropertyOp36
 70
     1
102
RTVSPropertyOp37
 70
     1
102
RTVSPropertyOp38
 70
     1
102
RTVSPropertyOp39
 70
     1
102
RTVSPropertyOp40
 70
     1
102
RTVSPropertyOp41
 70
     1
102
RTVSPropertyOp42
 70
     1
102
RTVSPropertyOp43
 70
     1
102
RTVSPropertyOp44
 70
     1
102
RTVSPropertyOp45
 70
     1
102
RTVSPropertyOp46
 70
     1
102
RTVSPropertyOp47
 70
     1
102
RTVSPropertyOp48
 70
     1
102
RTVSPropertyOp49
 70
     1
102
RTVSPropertyOp50
 70
     1
102
RTVSPropertyOp51
 70
     0
102
RTVSPropertyOp52
 70
     0
102
RTVSPropertyOp53
 70
     1
102
RTVSPropertyOp54
 70
     1
102
RTVSPropertyOp55
 70
     1
102
RTVSPropertyOp56
 70
     1
102
RTVSPropertyOp57
 70
     1
102
RTVSPropertyOp58
 70
     1
102
RTVSPropertyOp59
 70
     1
102
RTVSPropertyOp60
 70
     1
102
RTVSPropertyOp61
 70
     1
102
RTVSPropertyOp62
 70
     1
  0
XRECORD
  5
56B
102
{ACAD_REACTORS
330
56A
102
}
330
56A
100
AcDbXrecord
280
     1
102
RTVSPost2010Prop28
280
     0
102
RTVSPost2010PropOp28
 70
     1
102
RTVSPost2010Prop29
280
     1
102
RTVSPost2010PropOp29
 70
     1
102
RTVSPost2010Prop30
280
     1
102
RTVSPost2010PropOp30
 70
     1
102
RTVSPost2010Prop31
280
     0
102
RTVSPost2010PropOp31
 70
     1
102
RTVSPost2010Prop32
280
     0
102
RTVSPost2010PropOp32
 70
     1
102
RTVSPost2010Prop33
280
     0
102
RTVSPost2010PropOp33
 70
     1
102
RTVSPost2010Prop34
280
     0
102
RTVSPost2010PropOp34
 70
     1
102
RTVSPost2010Prop35
280
     0
102
RTVSPost2010PropOp35
 70
     1
102
RTVSPost2010Prop36
280
     0
102
RTVSPost2010PropOp36
 70
     1
102
RTVSPost2010Prop37
 90
       50
102
RTVSPost2010PropOp37
 70
     1
102
RTVSPost2010Prop38
140
0.0
102
RTVSPost2010PropOp38
 70
     1
102
RTVSPost2010Prop39
140
1.0
102
RTVSPost2010PropOp39
 70
     1
102
RTVSPost2010Prop40
 90
        0
102
RTVSPost2010PropOp40
 70
     1
102
RTVSPost2010Prop41ColorIndex
 90
       18
102
RTVSPost2010Prop41ColorRGB
 90
        0
102
RTVSPost2010PropOp41
 70
     1
102
RTVSPost2010Prop42
 90
       50
102
RTVSPost2010PropOp42
 70
     1
102
RTVSPost2010Prop43
 90
        3
102
RTVSPost2010PropOp43
 70
     1
102
RTVSPost2010Prop44ColorIndex
 90
        5
102
RTVSPost2010Prop44ColorRGB
 90
      255
102
RTVSPost2010PropOp44
 70
     1
102
RTVSPost2010Prop45
280
     0
102
RTVSPost2010PropOp45
 70
     1
102
RTVSPost2010Prop46
 90
       50
102
RTVSPost2010PropOp46
 70
     1
102
RTVSPost2010Prop47
 90
       50
102
RTVSPost2010PropOp47
 70
     1
102
RTVSPost2010Prop48
 90
       50
102
RTVSPost2010PropOp48
 70
     1
102
RTVSPost2010Prop49
280
     0
102
RTVSPost2010PropOp49
 70
     1
102
RTVSPost2010Prop50
 90
       50
102
RTVSPost2010PropOp50
 70
     1
102
RTVSPost2010Prop51ColorIndex
 90
      256
102
RTVSPost2010Prop51ColorRGB
 90
-16777216
102
RTVSPost2010PropOp51
 70
     0
102
RTVSPost2010Prop52
140
1.0
102
RTVSPost2010PropOp52
 70
     0
102
RTVSPost2010Prop53
 90
        2
102
RTVSPost2010PropOp53
 70
     1
102
RTVSPost2010Prop54
  1
strokes_ogs.tif
102
RTVSPost2010PropOp54
 70
     1
102
RTVSPost2010Prop55
280
     0
102
RTVSPost2010PropOp55
 70
     1
102
RTVSPost2010Prop56
140
1.0
102
RTVSPost2010PropOp56
 70
     1
102
RTVSPost2010Prop57
140
1.0
102
RTVSPost2010PropOp57
 70
     1
102
RTVSPropertyOp0
 70
     1
102
RTVSPropertyOp1
 70
     1
102
RTVSPropertyOp2
 70
     1
102
RTVSPropertyOp3
 70
     1
102
RTVSPropertyOp4
 70
     1
102
RTVSPropertyOp5
 70
     1
102
RTVSPropertyOp6
 70
     1
102
RTVSPropertyOp7
 70
     1
102
RTVSPropertyOp8
 70
     1
102
RTVSPropertyOp9
 70
     1
102
RTVSPropertyOp10
 70
     1
102
RTVSPropertyOp11
 70
     1
102
RTVSPropertyOp12
 70
     1
102
RTVSPropertyOp13
 70
     1
102
RTVSPropertyOp14
 70
     1
102
RTVSPropertyOp15
 70
     1
102
RTVSPropertyOp16
 70
     1
102
RTVSPropertyOp17
 70
     1
102
RTVSPropertyOp18
 70
     1
102
RTVSPropertyOp19
 70
     1
102
RTVSPropertyOp20
 70
     1
102
RTVSPropertyOp21
 70
     1
102
RTVSPropertyOp22
 70
     1
102
RTVSPropertyOp23
 70
     1
102
RTVSPropertyOp24
 70
     1
102
RTVSPropertyOp25
 70
     1
102
RTVSPropertyOp26
 70
     1
102
RTVSPropertyOp27
 70
     1
102
RTVSPropertyOp28
 70
     1
102
RTVSPropertyOp29
 70
     1
102
RTVSPropertyOp30
 70
     1
102
RTVSPropertyOp31
 70
     1
102
RTVSPropertyOp32
 70
     1
102
RTVSPropertyOp33
 70
     1
102
RTVSPropertyOp34
 70
     1
102
RTVSPropertyOp35
 70
     1
102
RTVSPropertyOp36
 70
     1
102
RTVSPropertyOp37
 70
     1
102
RTVSPropertyOp38
 70
     1
102
RTVSPropertyOp39
 70
     1
102
RTVSPropertyOp40
 70
     1
102
RTVSPropertyOp41
 70
     1
102
RTVSPropertyOp42
 70
     1
102
RTVSPropertyOp43
 70
     1
102
RTVSPropertyOp44
 70
     1
102
RTVSPropertyOp45
 70
     1
102
RTVSPropertyOp46
 70
     1
102
RTVSPropertyOp47
 70
     1
102
RTVSPropertyOp48
 70
     1
102
RTVSPropertyOp49
 70
     1
102
RTVSPropertyOp50
 70
     1
102
RTVSPropertyOp51
 70
     0
102
RTVSPropertyOp52
 70
     0
102
RTVSPropertyOp53
 70
     1
102
RTVSPropertyOp54
 70
     1
102
RTVSPropertyOp55
 70
     1
102
RTVSPropertyOp56
 70
     1
102
RTVSPropertyOp57
 70
     1
102
RTVSPropertyOp58
 70
     1
102
RTVSPropertyOp59
 70
     1
102
RTVSPropertyOp60
 70
     1
102
RTVSPropertyOp61
 70
     1
102
RTVSPropertyOp62
 70
     1
  0
XRECORD
  5
565
102
{ACAD_REACTORS
330
564
102
}
330
564
100
AcDbXrecord
280
     1
102
RTVSPost2010Prop28
280
     0
102
RTVSPost2010PropOp28
 70
     1
102
RTVSPost2010Prop29
280
     1
102
RTVSPost2010PropOp29
 70
     1
102
RTVSPost2010Prop30
280
     1
102
RTVSPost2010PropOp30
 70
     1
102
RTVSPost2010Prop31
280
     0
102
RTVSPost2010PropOp31
 70
     1
102
RTVSPost2010Prop32
280
     0
102
RTVSPost2010PropOp32
 70
     1
102
RTVSPost2010Prop33
280
     0
102
RTVSPost2010PropOp33
 70
     1
102
RTVSPost2010Prop34
280
     0
102
RTVSPost2010PropOp34
 70
     1
102
RTVSPost2010Prop35
280
     0
102
RTVSPost2010PropOp35
 70
     1
102
RTVSPost2010Prop36
280
     0
102
RTVSPost2010PropOp36
 70
     1
102
RTVSPost2010Prop37
 90
       50
102
RTVSPost2010PropOp37
 70
     1
102
RTVSPost2010Prop38
140
0.0
102
RTVSPost2010PropOp38
 70
     1
102
RTVSPost2010Prop39
140
1.0
102
RTVSPost2010PropOp39
 70
     1
102
RTVSPost2010Prop40
 90
        0
102
RTVSPost2010PropOp40
 70
     1
102
RTVSPost2010Prop41ColorIndex
 90
       18
102
RTVSPost2010Prop41ColorRGB
 90
        0
102
RTVSPost2010PropOp41
 70
     1
102
RTVSPost2010Prop42
 90
       50
102
RTVSPost2010PropOp42
 70
     1
102
RTVSPost2010Prop43
 90
        3
102
RTVSPost2010PropOp43
 70
     1
102
RTVSPost2010Prop44ColorIndex
 90
        5
102
RTVSPost2010Prop44ColorRGB
 90
      255
102
RTVSPost2010PropOp44
 70
     1
102
RTVSPost2010Prop45
280
     0
102
RTVSPost2010PropOp45
 70
     1
102
RTVSPost2010Prop46
 90
       50
102
RTVSPost2010PropOp46
 70
     1
102
RTVSPost2010Prop47
 90
       50
102
RTVSPost2010PropOp47
 70
     1
102
RTVSPost2010Prop48
 90
       50
102
RTVSPost2010PropOp48
 70
     1
102
RTVSPost2010Prop49
280
     0
102
RTVSPost2010PropOp49
 70
     1
102
RTVSPost2010Prop50
 90
       50
102
RTVSPost2010PropOp50
 70
     1
102
RTVSPost2010Prop51ColorIndex
 90
      256
102
RTVSPost2010Prop51ColorRGB
 90
-16777216
102
RTVSPost2010PropOp51
 70
     0
102
RTVSPost2010Prop52
140
1.0
102
RTVSPost2010PropOp52
 70
     0
102
RTVSPost2010Prop53
 90
        2
102
RTVSPost2010PropOp53
 70
     1
102
RTVSPost2010Prop54
  1
strokes_ogs.tif
102
RTVSPost2010PropOp54
 70
     1
102
RTVSPost2010Prop55
280
     0
102
RTVSPost2010PropOp55
 70
     1
102
RTVSPost2010Prop56
140
1.0
102
RTVSPost2010PropOp56
 70
     1
102
RTVSPost2010Prop57
140
1.0
102
RTVSPost2010PropOp57
 70
     1
102
RTVSPropertyOp0
 70
     1
102
RTVSPropertyOp1
 70
     1
102
RTVSPropertyOp2
 70
     1
102
RTVSPropertyOp3
 70
     1
102
RTVSPropertyOp4
 70
     1
102
RTVSPropertyOp5
 70
     1
102
RTVSPropertyOp6
 70
     1
102
RTVSPropertyOp7
 70
     1
102
RTVSPropertyOp8
 70
     1
102
RTVSPropertyOp9
 70
     1
102
RTVSPropertyOp10
 70
     1
102
RTVSPropertyOp11
 70
     1
102
RTVSPropertyOp12
 70
     1
102
RTVSPropertyOp13
 70
     1
102
RTVSPropertyOp14
 70
     1
102
RTVSPropertyOp15
 70
     1
102
RTVSPropertyOp16
 70
     1
102
RTVSPropertyOp17
 70
     1
102
RTVSPropertyOp18
 70
     1
102
RTVSPropertyOp19
 70
     1
102
RTVSPropertyOp20
 70
     1
102
RTVSPropertyOp21
 70
     1
102
RTVSPropertyOp22
 70
     1
102
RTVSPropertyOp23
 70
     1
102
RTVSPropertyOp24
 70
     1
102
RTVSPropertyOp25
 70
     1
102
RTVSPropertyOp26
 70
     1
102
RTVSPropertyOp27
 70
     1
102
RTVSPropertyOp28
 70
     1
102
RTVSPropertyOp29
 70
     1
102
RTVSPropertyOp30
 70
     1
102
RTVSPropertyOp31
 70
     1
102
RTVSPropertyOp32
 70
     1
102
RTVSPropertyOp33
 70
     1
102
RTVSPropertyOp34
 70
     1
102
RTVSPropertyOp35
 70
     1
102
RTVSPropertyOp36
 70
     1
102
RTVSPropertyOp37
 70
     1
102
RTVSPropertyOp38
 70
     1
102
RTVSPropertyOp39
 70
     1
102
RTVSPropertyOp40
 70
     1
102
RTVSPropertyOp41
 70
     1
102
RTVSPropertyOp42
 70
     1
102
RTVSPropertyOp43
 70
     1
102
RTVSPropertyOp44
 70
     1
102
RTVSPropertyOp45
 70
     1
102
RTVSPropertyOp46
 70
     1
102
RTVSPropertyOp47
 70
     1
102
RTVSPropertyOp48
 70
     1
102
RTVSPropertyOp49
 70
     1
102
RTVSPropertyOp50
 70
     1
102
RTVSPropertyOp51
 70
     0
102
RTVSPropertyOp52
 70
     0
102
RTVSPropertyOp53
 70
     1
102
RTVSPropertyOp54
 70
     1
102
RTVSPropertyOp55
 70
     1
102
RTVSPropertyOp56
 70
     1
102
RTVSPropertyOp57
 70
     1
102
RTVSPropertyOp58
 70
     1
102
RTVSPropertyOp59
 70
     1
102
RTVSPropertyOp60
 70
     1
102
RTVSPropertyOp61
 70
     1
102
RTVSPropertyOp62
 70
     1
  0
XRECORD
  5
567
102
{ACAD_REACTORS
330
566
102
}
330
566
100
AcDbXrecord
280
     1
102
RTVSPost2010Prop28
280
     0
102
RTVSPost2010PropOp28
 70
     1
102
RTVSPost2010Prop29
280
     1
102
RTVSPost2010PropOp29
 70
     1
102
RTVSPost2010Prop30
280
     1
102
RTVSPost2010PropOp30
 70
     1
102
RTVSPost2010Prop31
280
     0
102
RTVSPost2010PropOp31
 70
     1
102
RTVSPost2010Prop32
280
     0
102
RTVSPost2010PropOp32
 70
     1
102
RTVSPost2010Prop33
280
     0
102
RTVSPost2010PropOp33
 70
     1
102
RTVSPost2010Prop34
280
     0
102
RTVSPost2010PropOp34
 70
     1
102
RTVSPost2010Prop35
280
     0
102
RTVSPost2010PropOp35
 70
     1
102
RTVSPost2010Prop36
280
     0
102
RTVSPost2010PropOp36
 70
     1
102
RTVSPost2010Prop37
 90
       50
102
RTVSPost2010PropOp37
 70
     1
102
RTVSPost2010Prop38
140
0.0
102
RTVSPost2010PropOp38
 70
     1
102
RTVSPost2010Prop39
140
1.0
102
RTVSPost2010PropOp39
 70
     1
102
RTVSPost2010Prop40
 90
        0
102
RTVSPost2010PropOp40
 70
     1
102
RTVSPost2010Prop41ColorIndex
 90
       18
102
RTVSPost2010Prop41ColorRGB
 90
        0
102
RTVSPost2010PropOp41
 70
     1
102
RTVSPost2010Prop42
 90
       50
102
RTVSPost2010PropOp42
 70
     1
102
RTVSPost2010Prop43
 90
        3
102
RTVSPost2010PropOp43
 70
     1
102
RTVSPost2010Prop44ColorIndex
 90
        5
102
RTVSPost2010Prop44ColorRGB
 90
      255
102
RTVSPost2010PropOp44
 70
     1
102
RTVSPost2010Prop45
280
     0
102
RTVSPost2010PropOp45
 70
     1
102
RTVSPost2010Prop46
 90
       50
102
RTVSPost2010PropOp46
 70
     1
102
RTVSPost2010Prop47
 90
       50
102
RTVSPost2010PropOp47
 70
     1
102
RTVSPost2010Prop48
 90
       50
102
RTVSPost2010PropOp48
 70
     1
102
RTVSPost2010Prop49
280
     0
102
RTVSPost2010PropOp49
 70
     1
102
RTVSPost2010Prop50
 90
       50
102
RTVSPost2010PropOp50
 70
     1
102
RTVSPost2010Prop51ColorIndex
 90
      256
102
RTVSPost2010Prop51ColorRGB
 90
-16777216
102
RTVSPost2010PropOp51
 70
     0
102
RTVSPost2010Prop52
140
1.0
102
RTVSPost2010PropOp52
 70
     0
102
RTVSPost2010Prop53
 90
        2
102
RTVSPost2010PropOp53
 70
     1
102
RTVSPost2010Prop54
  1
strokes_ogs.tif
102
RTVSPost2010PropOp54
 70
     1
102
RTVSPost2010Prop55
280
     0
102
RTVSPost2010PropOp55
 70
     1
102
RTVSPost2010Prop56
140
1.0
102
RTVSPost2010PropOp56
 70
     1
102
RTVSPost2010Prop57
140
1.0
102
RTVSPost2010PropOp57
 70
     1
102
RTVSPropertyOp0
 70
     1
102
RTVSPropertyOp1
 70
     1
102
RTVSPropertyOp2
 70
     1
102
RTVSPropertyOp3
 70
     1
102
RTVSPropertyOp4
 70
     1
102
RTVSPropertyOp5
 70
     1
102
RTVSPropertyOp6
 70
     1
102
RTVSPropertyOp7
 70
     1
102
RTVSPropertyOp8
 70
     1
102
RTVSPropertyOp9
 70
     1
102
RTVSPropertyOp10
 70
     1
102
RTVSPropertyOp11
 70
     1
102
RTVSPropertyOp12
 70
     1
102
RTVSPropertyOp13
 70
     1
102
RTVSPropertyOp14
 70
     1
102
RTVSPropertyOp15
 70
     1
102
RTVSPropertyOp16
 70
     1
102
RTVSPropertyOp17
 70
     1
102
RTVSPropertyOp18
 70
     1
102
RTVSPropertyOp19
 70
     1
102
RTVSPropertyOp20
 70
     1
102
RTVSPropertyOp21
 70
     1
102
RTVSPropertyOp22
 70
     1
102
RTVSPropertyOp23
 70
     1
102
RTVSPropertyOp24
 70
     1
102
RTVSPropertyOp25
 70
     1
102
RTVSPropertyOp26
 70
     1
102
RTVSPropertyOp27
 70
     1
102
RTVSPropertyOp28
 70
     1
102
RTVSPropertyOp29
 70
     1
102
RTVSPropertyOp30
 70
     1
102
RTVSPropertyOp31
 70
     1
102
RTVSPropertyOp32
 70
     1
102
RTVSPropertyOp33
 70
     1
102
RTVSPropertyOp34
 70
     1
102
RTVSPropertyOp35
 70
     1
102
RTVSPropertyOp36
 70
     1
102
RTVSPropertyOp37
 70
     1
102
RTVSPropertyOp38
 70
     1
102
RTVSPropertyOp39
 70
     1
102
RTVSPropertyOp40
 70
     1
102
RTVSPropertyOp41
 70
     1
102
RTVSPropertyOp42
 70
     1
102
RTVSPropertyOp43
 70
     1
102
RTVSPropertyOp44
 70
     1
102
RTVSPropertyOp45
 70
     1
102
RTVSPropertyOp46
 70
     1
102
RTVSPropertyOp47
 70
     1
102
RTVSPropertyOp48
 70
     1
102
RTVSPropertyOp49
 70
     1
102
RTVSPropertyOp50
 70
     1
102
RTVSPropertyOp51
 70
     0
102
RTVSPropertyOp52
 70
     0
102
RTVSPropertyOp53
 70
     1
102
RTVSPropertyOp54
 70
     1
102
RTVSPropertyOp55
 70
     1
102
RTVSPropertyOp56
 70
     1
102
RTVSPropertyOp57
 70
     1
102
RTVSPropertyOp58
 70
     1
102
RTVSPropertyOp59
 70
     1
102
RTVSPropertyOp60
 70
     1
102
RTVSPropertyOp61
 70
     1
102
RTVSPropertyOp62
 70
     1
  0
XRECORD
  5
557
102
{ACAD_REACTORS
330
556
102
}
330
556
100
AcDbXrecord
280
     1
102
RTVSPost2010Prop28
280
     0
102
RTVSPost2010PropOp28
 70
     1
102
RTVSPost2010Prop29
280
     1
102
RTVSPost2010PropOp29
 70
     1
102
RTVSPost2010Prop30
280
     1
102
RTVSPost2010PropOp30
 70
     1
102
RTVSPost2010Prop31
280
     0
102
RTVSPost2010PropOp31
 70
     1
102
RTVSPost2010Prop32
280
     0
102
RTVSPost2010PropOp32
 70
     1
102
RTVSPost2010Prop33
280
     0
102
RTVSPost2010PropOp33
 70
     1
102
RTVSPost2010Prop34
280
     0
102
RTVSPost2010PropOp34
 70
     1
102
RTVSPost2010Prop35
280
     0
102
RTVSPost2010PropOp35
 70
     1
102
RTVSPost2010Prop36
280
     0
102
RTVSPost2010PropOp36
 70
     1
102
RTVSPost2010Prop37
 90
       50
102
RTVSPost2010PropOp37
 70
     1
102
RTVSPost2010Prop38
140
0.0
102
RTVSPost2010PropOp38
 70
     1
102
RTVSPost2010Prop39
140
1.0
102
RTVSPost2010PropOp39
 70
     1
102
RTVSPost2010Prop40
 90
        0
102
RTVSPost2010PropOp40
 70
     1
102
RTVSPost2010Prop41ColorIndex
 90
       18
102
RTVSPost2010Prop41ColorRGB
 90
        0
102
RTVSPost2010PropOp41
 70
     1
102
RTVSPost2010Prop42
 90
       50
102
RTVSPost2010PropOp42
 70
     1
102
RTVSPost2010Prop43
 90
        3
102
RTVSPost2010PropOp43
 70
     1
102
RTVSPost2010Prop44ColorIndex
 90
        5
102
RTVSPost2010Prop44ColorRGB
 90
      255
102
RTVSPost2010PropOp44
 70
     1
102
RTVSPost2010Prop45
280
     0
102
RTVSPost2010PropOp45
 70
     1
102
RTVSPost2010Prop46
 90
       50
102
RTVSPost2010PropOp46
 70
     1
102
RTVSPost2010Prop47
 90
       50
102
RTVSPost2010PropOp47
 70
     1
102
RTVSPost2010Prop48
 90
       50
102
RTVSPost2010PropOp48
 70
     1
102
RTVSPost2010Prop49
280
     0
102
RTVSPost2010PropOp49
 70
     1
102
RTVSPost2010Prop50
 90
       50
102
RTVSPost2010PropOp50
 70
     1
102
RTVSPost2010Prop51ColorIndex
 90
      256
102
RTVSPost2010Prop51ColorRGB
 90
-16777216
102
RTVSPost2010PropOp51
 70
     0
102
RTVSPost2010Prop52
140
1.0
102
RTVSPost2010PropOp52
 70
     0
102
RTVSPost2010Prop53
 90
        2
102
RTVSPost2010PropOp53
 70
     1
102
RTVSPost2010Prop54
  1
strokes_ogs.tif
102
RTVSPost2010PropOp54
 70
     1
102
RTVSPost2010Prop55
280
     0
102
RTVSPost2010PropOp55
 70
     1
102
RTVSPost2010Prop56
140
1.0
102
RTVSPost2010PropOp56
 70
     1
102
RTVSPost2010Prop57
140
1.0
102
RTVSPost2010PropOp57
 70
     1
102
RTVSPropertyOp0
 70
     1
102
RTVSPropertyOp1
 70
     1
102
RTVSPropertyOp2
 70
     1
102
RTVSPropertyOp3
 70
     1
102
RTVSPropertyOp4
 70
     1
102
RTVSPropertyOp5
 70
     1
102
RTVSPropertyOp6
 70
     1
102
RTVSPropertyOp7
 70
     1
102
RTVSPropertyOp8
 70
     1
102
RTVSPropertyOp9
 70
     1
102
RTVSPropertyOp10
 70
     1
102
RTVSPropertyOp11
 70
     1
102
RTVSPropertyOp12
 70
     1
102
RTVSPropertyOp13
 70
     1
102
RTVSPropertyOp14
 70
     1
102
RTVSPropertyOp15
 70
     1
102
RTVSPropertyOp16
 70
     1
102
RTVSPropertyOp17
 70
     1
102
RTVSPropertyOp18
 70
     1
102
RTVSPropertyOp19
 70
     1
102
RTVSPropertyOp20
 70
     1
102
RTVSPropertyOp21
 70
     1
102
RTVSPropertyOp22
 70
     1
102
RTVSPropertyOp23
 70
     1
102
RTVSPropertyOp24
 70
     1
102
RTVSPropertyOp25
 70
     1
102
RTVSPropertyOp26
 70
     1
102
RTVSPropertyOp27
 70
     1
102
RTVSPropertyOp28
 70
     1
102
RTVSPropertyOp29
 70
     1
102
RTVSPropertyOp30
 70
     1
102
RTVSPropertyOp31
 70
     1
102
RTVSPropertyOp32
 70
     1
102
RTVSPropertyOp33
 70
     1
102
RTVSPropertyOp34
 70
     1
102
RTVSPropertyOp35
 70
     1
102
RTVSPropertyOp36
 70
     1
102
RTVSPropertyOp37
 70
     1
102
RTVSPropertyOp38
 70
     1
102
RTVSPropertyOp39
 70
     1
102
RTVSPropertyOp40
 70
     1
102
RTVSPropertyOp41
 70
     1
102
RTVSPropertyOp42
 70
     1
102
RTVSPropertyOp43
 70
     1
102
RTVSPropertyOp44
 70
     1
102
RTVSPropertyOp45
 70
     1
102
RTVSPropertyOp46
 70
     1
102
RTVSPropertyOp47
 70
     1
102
RTVSPropertyOp48
 70
     1
102
RTVSPropertyOp49
 70
     1
102
RTVSPropertyOp50
 70
     1
102
RTVSPropertyOp51
 70
     0
102
RTVSPropertyOp52
 70
     0
102
RTVSPropertyOp53
 70
     1
102
RTVSPropertyOp54
 70
     1
102
RTVSPropertyOp55
 70
     1
102
RTVSPropertyOp56
 70
     1
102
RTVSPropertyOp57
 70
     1
102
RTVSPropertyOp58
 70
     1
102
RTVSPropertyOp59
 70
     1
102
RTVSPropertyOp60
 70
     1
102
RTVSPropertyOp61
 70
     1
102
RTVSPropertyOp62
 70
     1
  0
XRECORD
  5
549
102
{ACAD_REACTORS
330
548
102
}
330
548
100
AcDbXrecord
280
     1
102
RTVSPost2010Prop28
280
     0
102
RTVSPost2010PropOp28
 70
     1
102
RTVSPost2010Prop29
280
     1
102
RTVSPost2010PropOp29
 70
     1
102
RTVSPost2010Prop30
280
     1
102
RTVSPost2010PropOp30
 70
     1
102
RTVSPost2010Prop31
280
     0
102
RTVSPost2010PropOp31
 70
     1
102
RTVSPost2010Prop32
280
     0
102
RTVSPost2010PropOp32
 70
     1
102
RTVSPost2010Prop33
280
     0
102
RTVSPost2010PropOp33
 70
     1
102
RTVSPost2010Prop34
280
     0
102
RTVSPost2010PropOp34
 70
     1
102
RTVSPost2010Prop35
280
     0
102
RTVSPost2010PropOp35
 70
     1
102
RTVSPost2010Prop36
280
     0
102
RTVSPost2010PropOp36
 70
     1
102
RTVSPost2010Prop37
 90
       50
102
RTVSPost2010PropOp37
 70
     1
102
RTVSPost2010Prop38
140
0.0
102
RTVSPost2010PropOp38
 70
     1
102
RTVSPost2010Prop39
140
1.0
102
RTVSPost2010PropOp39
 70
     1
102
RTVSPost2010Prop40
 90
        0
102
RTVSPost2010PropOp40
 70
     1
102
RTVSPost2010Prop41ColorIndex
 90
       18
102
RTVSPost2010Prop41ColorRGB
 90
        0
102
RTVSPost2010PropOp41
 70
     1
102
RTVSPost2010Prop42
 90
       50
102
RTVSPost2010PropOp42
 70
     1
102
RTVSPost2010Prop43
 90
        3
102
RTVSPost2010PropOp43
 70
     1
102
RTVSPost2010Prop44ColorIndex
 90
        5
102
RTVSPost2010Prop44ColorRGB
 90
      255
102
RTVSPost2010PropOp44
 70
     1
102
RTVSPost2010Prop45
280
     0
102
RTVSPost2010PropOp45
 70
     1
102
RTVSPost2010Prop46
 90
       50
102
RTVSPost2010PropOp46
 70
     1
102
RTVSPost2010Prop47
 90
       50
102
RTVSPost2010PropOp47
 70
     1
102
RTVSPost2010Prop48
 90
       50
102
RTVSPost2010PropOp48
 70
     1
102
RTVSPost2010Prop49
280
     0
102
RTVSPost2010PropOp49
 70
     1
102
RTVSPost2010Prop50
 90
       50
102
RTVSPost2010PropOp50
 70
     1
102
RTVSPost2010Prop51ColorIndex
 90
      256
102
RTVSPost2010Prop51ColorRGB
 90
-16777216
102
RTVSPost2010PropOp51
 70
     0
102
RTVSPost2010Prop52
140
1.0
102
RTVSPost2010PropOp52
 70
     0
102
RTVSPost2010Prop53
 90
        2
102
RTVSPost2010PropOp53
 70
     1
102
RTVSPost2010Prop54
  1
strokes_ogs.tif
102
RTVSPost2010PropOp54
 70
     1
102
RTVSPost2010Prop55
280
     0
102
RTVSPost2010PropOp55
 70
     1
102
RTVSPost2010Prop56
140
1.0
102
RTVSPost2010PropOp56
 70
     1
102
RTVSPost2010Prop57
140
1.0
102
RTVSPost2010PropOp57
 70
     1
102
RTVSPropertyOp0
 70
     1
102
RTVSPropertyOp1
 70
     1
102
RTVSPropertyOp2
 70
     1
102
RTVSPropertyOp3
 70
     1
102
RTVSPropertyOp4
 70
     1
102
RTVSPropertyOp5
 70
     1
102
RTVSPropertyOp6
 70
     1
102
RTVSPropertyOp7
 70
     1
102
RTVSPropertyOp8
 70
     1
102
RTVSPropertyOp9
 70
     1
102
RTVSPropertyOp10
 70
     1
102
RTVSPropertyOp11
 70
     1
102
RTVSPropertyOp12
 70
     1
102
RTVSPropertyOp13
 70
     1
102
RTVSPropertyOp14
 70
     1
102
RTVSPropertyOp15
 70
     1
102
RTVSPropertyOp16
 70
     1
102
RTVSPropertyOp17
 70
     1
102
RTVSPropertyOp18
 70
     1
102
RTVSPropertyOp19
 70
     1
102
RTVSPropertyOp20
 70
     1
102
RTVSPropertyOp21
 70
     1
102
RTVSPropertyOp22
 70
     1
102
RTVSPropertyOp23
 70
     1
102
RTVSPropertyOp24
 70
     1
102
RTVSPropertyOp25
 70
     1
102
RTVSPropertyOp26
 70
     1
102
RTVSPropertyOp27
 70
     1
102
RTVSPropertyOp28
 70
     1
102
RTVSPropertyOp29
 70
     1
102
RTVSPropertyOp30
 70
     1
102
RTVSPropertyOp31
 70
     1
102
RTVSPropertyOp32
 70
     1
102
RTVSPropertyOp33
 70
     1
102
RTVSPropertyOp34
 70
     1
102
RTVSPropertyOp35
 70
     1
102
RTVSPropertyOp36
 70
     1
102
RTVSPropertyOp37
 70
     1
102
RTVSPropertyOp38
 70
     1
102
RTVSPropertyOp39
 70
     1
102
RTVSPropertyOp40
 70
     1
102
RTVSPropertyOp41
 70
     1
102
RTVSPropertyOp42
 70
     1
102
RTVSPropertyOp43
 70
     1
102
RTVSPropertyOp44
 70
     1
102
RTVSPropertyOp45
 70
     1
102
RTVSPropertyOp46
 70
     1
102
RTVSPropertyOp47
 70
     1
102
RTVSPropertyOp48
 70
     1
102
RTVSPropertyOp49
 70
     1
102
RTVSPropertyOp50
 70
     1
102
RTVSPropertyOp51
 70
     0
102
RTVSPropertyOp52
 70
     0
102
RTVSPropertyOp53
 70
     1
102
RTVSPropertyOp54
 70
     1
102
RTVSPropertyOp55
 70
     1
102
RTVSPropertyOp56
 70
     1
102
RTVSPropertyOp57
 70
     1
102
RTVSPropertyOp58
 70
     1
102
RTVSPropertyOp59
 70
     1
102
RTVSPropertyOp60
 70
     1
102
RTVSPropertyOp61
 70
     1
102
RTVSPropertyOp62
 70
     1
  0
XRECORD
  5
569
102
{ACAD_REACTORS
330
568
102
}
330
568
100
AcDbXrecord
280
     1
102
RTVSPost2010Prop28
280
     0
102
RTVSPost2010PropOp28
 70
     1
102
RTVSPost2010Prop29
280
     1
102
RTVSPost2010PropOp29
 70
     1
102
RTVSPost2010Prop30
280
     1
102
RTVSPost2010PropOp30
 70
     1
102
RTVSPost2010Prop31
280
     0
102
RTVSPost2010PropOp31
 70
     1
102
RTVSPost2010Prop32
280
     0
102
RTVSPost2010PropOp32
 70
     1
102
RTVSPost2010Prop33
280
     0
102
RTVSPost2010PropOp33
 70
     1
102
RTVSPost2010Prop34
280
     0
102
RTVSPost2010PropOp34
 70
     1
102
RTVSPost2010Prop35
280
     0
102
RTVSPost2010PropOp35
 70
     1
102
RTVSPost2010Prop36
280
     0
102
RTVSPost2010PropOp36
 70
     1
102
RTVSPost2010Prop37
 90
       50
102
RTVSPost2010PropOp37
 70
     1
102
RTVSPost2010Prop38
140
0.0
102
RTVSPost2010PropOp38
 70
     1
102
RTVSPost2010Prop39
140
1.0
102
RTVSPost2010PropOp39
 70
     1
102
RTVSPost2010Prop40
 90
        0
102
RTVSPost2010PropOp40
 70
     1
102
RTVSPost2010Prop41ColorIndex
 90
       18
102
RTVSPost2010Prop41ColorRGB
 90
        0
102
RTVSPost2010PropOp41
 70
     1
102
RTVSPost2010Prop42
 90
       50
102
RTVSPost2010PropOp42
 70
     1
102
RTVSPost2010Prop43
 90
        3
102
RTVSPost2010PropOp43
 70
     1
102
RTVSPost2010Prop44ColorIndex
 90
        5
102
RTVSPost2010Prop44ColorRGB
 90
      255
102
RTVSPost2010PropOp44
 70
     1
102
RTVSPost2010Prop45
280
     0
102
RTVSPost2010PropOp45
 70
     1
102
RTVSPost2010Prop46
 90
       50
102
RTVSPost2010PropOp46
 70
     1
102
RTVSPost2010Prop47
 90
       50
102
RTVSPost2010PropOp47
 70
     1
102
RTVSPost2010Prop48
 90
       50
102
RTVSPost2010PropOp48
 70
     1
102
RTVSPost2010Prop49
280
     0
102
RTVSPost2010PropOp49
 70
     1
102
RTVSPost2010Prop50
 90
       50
102
RTVSPost2010PropOp50
 70
     1
102
RTVSPost2010Prop51ColorIndex
 90
      256
102
RTVSPost2010Prop51ColorRGB
 90
-16777216
102
RTVSPost2010PropOp51
 70
     0
102
RTVSPost2010Prop52
140
1.0
102
RTVSPost2010PropOp52
 70
     0
102
RTVSPost2010Prop53
 90
        2
102
RTVSPost2010PropOp53
 70
     1
102
RTVSPost2010Prop54
  1
strokes_ogs.tif
102
RTVSPost2010PropOp54
 70
     1
102
RTVSPost2010Prop55
280
     0
102
RTVSPost2010PropOp55
 70
     1
102
RTVSPost2010Prop56
140
1.0
102
RTVSPost2010PropOp56
 70
     1
102
RTVSPost2010Prop57
140
1.0
102
RTVSPost2010PropOp57
 70
     1
102
RTVSPropertyOp0
 70
     1
102
RTVSPropertyOp1
 70
     1
102
RTVSPropertyOp2
 70
     1
102
RTVSPropertyOp3
 70
     1
102
RTVSPropertyOp4
 70
     1
102
RTVSPropertyOp5
 70
     1
102
RTVSPropertyOp6
 70
     1
102
RTVSPropertyOp7
 70
     1
102
RTVSPropertyOp8
 70
     1
102
RTVSPropertyOp9
 70
     1
102
RTVSPropertyOp10
 70
     1
102
RTVSPropertyOp11
 70
     1
102
RTVSPropertyOp12
 70
     1
102
RTVSPropertyOp13
 70
     1
102
RTVSPropertyOp14
 70
     1
102
RTVSPropertyOp15
 70
     1
102
RTVSPropertyOp16
 70
     1
102
RTVSPropertyOp17
 70
     1
102
RTVSPropertyOp18
 70
     1
102
RTVSPropertyOp19
 70
     1
102
RTVSPropertyOp20
 70
     1
102
RTVSPropertyOp21
 70
     1
102
RTVSPropertyOp22
 70
     1
102
RTVSPropertyOp23
 70
     1
102
RTVSPropertyOp24
 70
     1
102
RTVSPropertyOp25
 70
     1
102
RTVSPropertyOp26
 70
     1
102
RTVSPropertyOp27
 70
     1
102
RTVSPropertyOp28
 70
     1
102
RTVSPropertyOp29
 70
     1
102
RTVSPropertyOp30
 70
     1
102
RTVSPropertyOp31
 70
     1
102
RTVSPropertyOp32
 70
     1
102
RTVSPropertyOp33
 70
     1
102
RTVSPropertyOp34
 70
     1
102
RTVSPropertyOp35
 70
     1
102
RTVSPropertyOp36
 70
     1
102
RTVSPropertyOp37
 70
     1
102
RTVSPropertyOp38
 70
     1
102
RTVSPropertyOp39
 70
     1
102
RTVSPropertyOp40
 70
     1
102
RTVSPropertyOp41
 70
     1
102
RTVSPropertyOp42
 70
     1
102
RTVSPropertyOp43
 70
     1
102
RTVSPropertyOp44
 70
     1
102
RTVSPropertyOp45
 70
     1
102
RTVSPropertyOp46
 70
     1
102
RTVSPropertyOp47
 70
     1
102
RTVSPropertyOp48
 70
     1
102
RTVSPropertyOp49
 70
     1
102
RTVSPropertyOp50
 70
     1
102
RTVSPropertyOp51
 70
     0
102
RTVSPropertyOp52
 70
     0
102
RTVSPropertyOp53
 70
     1
102
RTVSPropertyOp54
 70
     1
102
RTVSPropertyOp55
 70
     1
102
RTVSPropertyOp56
 70
     1
102
RTVSPropertyOp57
 70
     1
102
RTVSPropertyOp58
 70
     1
102
RTVSPropertyOp59
 70
     1
102
RTVSPropertyOp60
 70
     1
102
RTVSPropertyOp61
 70
     1
102
RTVSPropertyOp62
 70
     1
  0
ENDSEC
  0
EOF
