  0
SECTION
  2
HEADER
  9
$ACADVER
  1
AC1015
  9
$ACADMAINTVER
 70
    20
  9
$DWGCODEPAGE
  3
ANSI_932
  9
$INSBASE
 10
0.0
 20
0.0
 30
0.0
  9
$EXTMIN
 10
46.85792142865103
 20
14.06636167964655
 30
0.0
  9
$EXTMAX
 10
1597.059931600679
 20
1378.608841272257
 30
0.0
  9
$LIMMIN
 10
-345.3118362426758
 20
-459.6613540649413
  9
$LIMMAX
 10
911.7224426269531
 20
713.0842590332031
  9
$ORTHOMODE
 70
     1
  9
$REGENMODE
 70
     1
  9
$FILLMODE
 70
     1
  9
$QTEXTMODE
 70
     0
  9
$MIRRTEXT
 70
     1
  9
$LTSCALE
 40
0.1683880062553826
  9
$ATTMODE
 70
     1
  9
$TEXTSIZE
 40
2.5
  9
$TRACEWID
 40
1.0
  9
$TEXTSTYLE
  7
Standard
  9
$CLAYER
  8
0
  9
$CELTYPE
  6
ByLayer
  9
$CECOLOR
 62
   256
  9
$CELTSCALE
 40
1.0
  9
$DISPSILH
 70
     0
  9
$DIMSCALE
 40
1.0
  9
$DIMASZ
 40
2.5
  9
$DIMEXO
 40
0.625
  9
$DIMDLI
 40
3.75
  9
$DIMRND
 40
0.0
  9
$DIMDLE
 40
0.0
  9
$DIMEXE
 40
1.25
  9
$DIMTP
 40
0.0
  9
$DIMTM
 40
0.0
  9
$DIMTXT
 40
2.5
  9
$DIMCEN
 40
2.5
  9
$DIMTSZ
 40
0.0
  9
$DIMTOL
 70
     0
  9
$DIMLIM
 70
     0
  9
$DIMTIH
 70
     0
  9
$DIMTOH
 70
     0
  9
$DIMSE1
 70
     0
  9
$DIMSE2
 70
     0
  9
$DIMTAD
 70
     1
  9
$DIMZIN
 70
     0
  9
$DIMBLK
  1

  9
$DIMASO
 70
     1
  9
$DIMSHO
 70
     1
  9
$DIMPOST
  1

  9
$DIMAPOST
  1

  9
$DIMALT
 70
     0
  9
$DIMALTD
 70
     3
  9
$DIMALTF
 40
0.03937007874016
  9
$DIMLFAC
 40
1.0
  9
$DIMTOFL
 70
     1
  9
$DIMTVP
 40
0.0
  9
$DIMTIX
 70
     0
  9
$DIMSOXD
 70
     0
  9
$DIMSAH
 70
     0
  9
$DIMBLK1
  1

  9
$DIMBLK2
  1

  9
$DIMSTYLE
  2
Standard
  9
$DIMCLRD
 70
     0
  9
$DIMCLRE
 70
     0
  9
$DIMCLRT
 70
     0
  9
$DIMTFAC
 40
0.75
  9
$DIMGAP
 40
0.625
  9
$DIMJUST
 70
     0
  9
$DIMSD1
 70
     0
  9
$DIMSD2
 70
     0
  9
$DIMTOLJ
 70
     0
  9
$DIMTZIN
 70
     8
  9
$DIMALTZ
 70
     0
  9
$DIMALTTZ
 70
     0
  9
$DIMUPT
 70
     0
  9
$DIMDEC
 70
     2
  9
$DIMTDEC
 70
     2
  9
$DIMALTU
 70
     2
  9
$DIMALTTD
 70
     3
  9
$DIMTXSTY
  7
Standard
  9
$DIMAUNIT
 70
     0
  9
$DIMADEC
 70
     0
  9
$DIMALTRND
 40
0.0
  9
$DIMAZIN
 70
     0
  9
$DIMDSEP
 70
    46
  9
$DIMATFIT
 70
     3
  9
$DIMFRAC
 70
     0
  9
$DIMLDRBLK
  1

  9
$DIMLUNIT
 70
     2
  9
$DIMLWD
 70
    -2
  9
$DIMLWE
 70
    -2
  9
$DIMTMOVE
 70
     0
  9
$LUNITS
 70
     2
  9
$LUPREC
 70
     4
  9
$SKETCHINC
 40
1.0
  9
$FILLETRAD
 40
0.0
  9
$AUNITS
 70
     0
  9
$AUPREC
 70
     0
  9
$MENU
  1
.
  9
$ELEVATION
 40
0.0
  9
$PELEVATION
 40
0.0
  9
$THICKNESS
 40
0.0
  9
$LIMCHECK
 70
     0
  9
$CHAMFERA
 40
10.0
  9
$CHAMFERB
 40
10.0
  9
$CHAMFERC
 40
20.0
  9
$CHAMFERD
 40
0.0
  9
$SKPOLY
 70
     0
  9
$TDCREATE
 40
2455188.750000000
  9
$TDUCREATE
 40
2455188.375000000
  9
$TDUPDATE
 40
2459758.580786586
  9
$TDUUPDATE
 40
2459758.205786586
  9
$TDINDWG
 40
0.0077550116
  9
$TDUSRTIMER
 40
0.0077547801
  9
$USRTIMER
 70
     1
  9
$ANGBASE
 50
0.0
  9
$ANGDIR
 70
     0
  9
$PDMODE
 70
     0
  9
$PDSIZE
 40
0.0
  9
$PLINEWID
 40
0.0
  9
$SPLFRAME
 70
     0
  9
$SPLINETYPE
 70
     6
  9
$SPLINESEGS
 70
     8
  9
$HANDSEED
  5
74B
  9
$SURFTAB1
 70
     6
  9
$SURFTAB2
 70
     6
  9
$SURFTYPE
 70
     6
  9
$SURFU
 70
     6
  9
$SURFV
 70
     6
  9
$UCSBASE
  2

  9
$UCSNAME
  2

  9
$UCSORG
 10
0.0
 20
0.0
 30
0.0
  9
$UCSXDIR
 10
1.0
 20
0.0
 30
0.0
  9
$UCSYDIR
 10
0.0
 20
1.0
 30
0.0
  9
$UCSORTHOREF
  2

  9
$UCSORTHOVIEW
 70
     0
  9
$UCSORGTOP
 10
0.0
 20
0.0
 30
0.0
  9
$UCSORGBOTTOM
 10
0.0
 20
0.0
 30
0.0
  9
$UCSORGLEFT
 10
0.0
 20
0.0
 30
0.0
  9
$UCSORGRIGHT
 10
0.0
 20
0.0
 30
0.0
  9
$UCSORGFRONT
 10
0.0
 20
0.0
 30
0.0
  9
$UCSORGBACK
 10
0.0
 20
0.0
 30
0.0
  9
$PUCSBASE
  2

  9
$PUCSNAME
  2

  9
$PUCSORG
 10
0.0
 20
0.0
 30
0.0
  9
$PUCSXDIR
 10
1.0
 20
0.0
 30
0.0
  9
$PUCSYDIR
 10
0.0
 20
1.0
 30
0.0
  9
$PUCSORTHOREF
  2

  9
$PUCSORTHOVIEW
 70
     0
  9
$PUCSORGTOP
 10
0.0
 20
0.0
 30
0.0
  9
$PUCSORGBOTTOM
 10
0.0
 20
0.0
 30
0.0
  9
$PUCSORGLEFT
 10
0.0
 20
0.0
 30
0.0
  9
$PUCSORGRIGHT
 10
0.0
 20
0.0
 30
0.0
  9
$PUCSORGFRONT
 10
0.0
 20
0.0
 30
0.0
  9
$PUCSORGBACK
 10
0.0
 20
0.0
 30
0.0
  9
$USERI1
 70
     0
  9
$USERI2
 70
     0
  9
$USERI3
 70
     0
  9
$USERI4
 70
     0
  9
$USERI5
 70
     0
  9
$USERR1
 40
0.0
  9
$USERR2
 40
0.0
  9
$USERR3
 40
0.0
  9
$USERR4
 40
0.0
  9
$USERR5
 40
0.0
  9
$WORLDVIEW
 70
     1
  9
$SHADEDGE
 70
     3
  9
$SHADEDIF
 70
    70
  9
$TILEMODE
 70
     1
  9
$MAXACTVP
 70
    64
  9
$PINSBASE
 10
0.0
 20
0.0
 30
0.0
  9
$PLIMCHECK
 70
     0
  9
$PEXTMIN
 10
1.000000000000000E+20
 20
1.000000000000000E+20
 30
1.000000000000000E+20
  9
$PEXTMAX
 10
-1.000000000000000E+20
 20
-1.000000000000000E+20
 30
-1.000000000000000E+20
  9
$PLIMMIN
 10
0.0
 20
0.0
  9
$PLIMMAX
 10
420.0
 20
297.0
  9
$UNITMODE
 70
     0
  9
$VISRETAIN
 70
     1
  9
$PLINEGEN
 70
     0
  9
$PSLTSCALE
 70
     1
  9
$TREEDEPTH
 70
  3020
  9
$CMLSTYLE
  2
Standard
  9
$CMLJUST
 70
     0
  9
$CMLSCALE
 40
20.0
  9
$PROXYGRAPHICS
 70
     1
  9
$MEASUREMENT
 70
     1
  9
$CELWEIGHT
370
    -1
  9
$ENDCAPS
280
     0
  9
$JOINSTYLE
280
     0
  9
$LWDISPLAY
290
     0
  9
$INSUNITS
 70
     4
  9
$HYPERLINKBASE
  1

  9
$STYLESHEET
  1

  9
$XEDIT
290
     1
  9
$CEPSNTYPE
380
     0
  9
$PSTYLEMODE
290
     1
  9
$FINGERPRINTGUID
  2
{05E05171-5914-4817-A0E1-042E7FA18BFA}
  9
$VERSIONGUID
  2
{AB9D7E84-FBEA-4CEF-9A75-A2C950A6597F}
  9
$EXTNAMES
290
     1
  9
$PSVPSCALE
 40
0.0
  9
$OLESTARTUP
290
     0
  0
ENDSEC
  0
SECTION
  2
CLASSES
  0
CLASS
  1
ACDBDICTIONARYWDFLT
  2
AcDbDictionaryWithDefault
  3
ObjectDBX Classes
 90
        0
280
     0
281
     0
  0
CLASS
  1
VISUALSTYLE
  2
AcDbVisualStyle
  3
ObjectDBX Classes
 90
     4095
280
     0
281
     0
  0
CLASS
  1
MATERIAL
  2
AcDbMaterial
  3
ObjectDBX Classes
 90
     1153
280
     0
281
     0
  0
CLASS
  1
SCALE
  2
AcDbScale
  3
ObjectDBX Classes
 90
     1153
280
     0
281
     0
  0
CLASS
  1
TABLESTYLE
  2
AcDbTableStyle
  3
ObjectDBX Classes
 90
     4095
280
     0
281
     0
  0
CLASS
  1
MLEADERSTYLE
  2
AcDbMLeaderStyle
  3
ACDB_MLEADERSTYLE_CLASS
 90
     4095
280
     0
281
     0
  0
CLASS
  1
SUN
  2
AcDbSun
  3
SCENEOE
 90
    33921
280
     0
281
     0
  0
CLASS
  1
DICTIONARYVAR
  2
AcDbDictionaryVar
  3
ObjectDBX Classes
 90
        0
280
     0
281
     0
  0
CLASS
  1
ACDBSECTIONVIEWSTYLE
  2
AcDbSectionViewStyle
  3
ObjectDBX Classes
 90
     1025
280
     0
281
     0
  0
CLASS
  1
ACDBDETAILVIEWSTYLE
  2
AcDbDetailViewStyle
  3
ObjectDBX Classes
 90
     1025
280
     0
281
     0
  0
CLASS
  1
SORTENTSTABLE
  2
AcDbSortentsTable
  3
ObjectDBX Classes
 90
        0
280
     0
281
     0
  0
CLASS
  1
CELLSTYLEMAP
  2
AcDbCellStyleMap
  3
ObjectDBX Classes
 90
     1152
280
     0
281
     0
  0
CLASS
  1
ACDBPLACEHOLDER
  2
AcDbPlaceHolder
  3
ObjectDBX Classes
 90
        0
280
     0
281
     0
  0
CLASS
  1
LAYOUT
  2
AcDbLayout
  3
ObjectDBX Classes
 90
        0
280
     0
281
     0
  0
ENDSEC
  0
SECTION
  2
TABLES
  0
TABLE
  2
VPORT
  5
8
330
0
100
AcDbSymbolTable
 70
     1
  0
VPORT
  5
29
330
8
100
AcDbSymbolTableRecord
100
AcDbViewportTableRecord
  2
*Active
 70
     0
 10
0.0
 20
0.0
 11
1.0
 21
1.0
 12
659.9992436550157
 22
253.4032361191425
 13
0.0
 23
0.0
 14
10.0
 24
10.0
 15
10.0
 25
10.0
 16
0.0
 26
0.0
 36
1.0
 17
0.0
 27
0.0
 37
0.0
 40
770.1210234303044
 41
2.204301075268817
 42
50.0
 43
0.0
 44
0.0
 50
0.0
 51
0.0
 71
     0
 72
 20000
 73
     1
 74
     3
 75
     0
 76
     0
 77
     0
 78
     0
281
     0
 65
     1
110
0.0
120
0.0
130
0.0
111
1.0
121
0.0
131
0.0
112
0.0
122
1.0
132
0.0
 79
     0
146
0.0
1001
ACAD_NAV_VCDISPLAY
1070
     3
  0
ENDTAB
  0
TABLE
  2
LTYPE
  5
5
330
0
100
AcDbSymbolTable
 70
     2
  0
LTYPE
  5
14
330
5
100
AcDbSymbolTableRecord
100
AcDbLinetypeTableRecord
  2
ByBlock
 70
     0
  3

 72
    65
 73
     0
 40
0.0
  0
LTYPE
  5
15
330
5
100
AcDbSymbolTableRecord
100
AcDbLinetypeTableRecord
  2
ByLayer
 70
     0
  3

 72
    65
 73
     0
 40
0.0
  0
LTYPE
  5
16
330
5
100
AcDbSymbolTableRecord
100
AcDbLinetypeTableRecord
  2
Continuous
 70
     0
  3
Solid line
 72
    65
 73
     0
 40
0.0
  0
LTYPE
  5
2D8
330
5
100
AcDbSymbolTableRecord
100
AcDbLinetypeTableRecord
  2
CENTER2
 70
     0
  3
Center (.5x) ___ _ ___ _ ___ _ ___ _ ___ _ ___
 72
    65
 73
     4
 40
28.575
 49
19.05
 74
     0
 49
-3.174999999999998
 74
     0
 49
3.174999999999998
 74
     0
 49
-3.174999999999998
 74
     0
  0
ENDTAB
  0
TABLE
  2
LAYER
  5
2
102
{ACAD_XDICTIONARY
360
2DE
102
}
330
0
100
AcDbSymbolTable
 70
     4
  0
LAYER
  5
10
102
{ACAD_XDICTIONARY
360
639
102
}
330
2
100
AcDbSymbolTableRecord
100
AcDbLayerTableRecord
  2
0
 70
     0
 62
     7
  6
Continuous
370
    -3
390
F
  0
LAYER
  5
66
330
2
100
AcDbSymbolTableRecord
100
AcDbLayerTableRecord
  2
Defpoints
 70
     0
 62
     7
  6
Continuous
290
     0
370
    -3
390
F
  0
LAYER
  5
2D9
102
{ACAD_XDICTIONARY
360
2DA
102
}
330
2
100
AcDbSymbolTableRecord
100
AcDbLayerTableRecord
  2
中心線
 70
     0
 62
     3
  6
CENTER2
370
    -3
390
F
  0
LAYER
  5
2DB
102
{ACAD_XDICTIONARY
360
2DC
102
}
330
2
100
AcDbSymbolTableRecord
100
AcDbLayerTableRecord
  2
実線
 70
     0
 62
     7
  6
Continuous
370
    -3
390
F
  0
ENDTAB
  0
TABLE
  2
STYLE
  5
3
330
0
100
AcDbSymbolTable
 70
     1
  0
STYLE
  5
11
330
3
100
AcDbSymbolTableRecord
100
AcDbTextStyleTableRecord
  2
Standard
 70
     0
 40
0.0
 41
1.0
 50
0.0
 71
     0
 42
2.5
  3
txt
  4
extfont2
  0
ENDTAB
  0
TABLE
  2
VIEW
  5
6
330
0
100
AcDbSymbolTable
 70
     0
  0
ENDTAB
  0
TABLE
  2
UCS
  5
7
330
0
100
AcDbSymbolTable
 70
     0
  0
ENDTAB
  0
TABLE
  2
APPID
  5
9
330
0
100
AcDbSymbolTable
 70
     3
  0
APPID
  5
12
330
9
100
AcDbSymbolTableRecord
100
AcDbRegAppTableRecord
  2
ACAD
 70
     0
  0
APPID
  5
2C8
330
9
100
AcDbSymbolTableRecord
100
AcDbRegAppTableRecord
  2
ACAD_MLEADERVER
 70
     0
  0
APPID
  5
2DD
330
9
100
AcDbSymbolTableRecord
100
AcDbRegAppTableRecord
  2
ACAD_NAV_VCDISPLAY
 70
     0
  0
ENDTAB
  0
TABLE
  2
DIMSTYLE
  5
A
330
0
100
AcDbSymbolTable
 70
     1
100
AcDbDimStyleTable
 71
     0
  0
DIMSTYLE
105
27
330
A
100
AcDbSymbolTableRecord
100
AcDbDimStyleTableRecord
  2
Standard
 70
     0
 41
2.5
 42
0.625
 43
3.75
 44
1.25
 73
     0
 74
     0
 77
     1
140
2.5
141
2.5
143
0.03937007874016
146
0.75
147
0.625
171
     3
172
     1
271
     2
272
     2
274
     3
283
     0
284
     8
340
11
  0
ENDTAB
  0
TABLE
  2
BLOCK_RECORD
  5
1
330
0
100
AcDbSymbolTable
 70
     1
  0
BLOCK_RECORD
  5
1F
102
{ACAD_XDICTIONARY
360
468
102
}
330
1
100
AcDbSymbolTableRecord
100
AcDbBlockTableRecord
  2
*Model_Space
340
22
  0
BLOCK_RECORD
  5
1B
330
1
100
AcDbSymbolTableRecord
100
AcDbBlockTableRecord
  2
*Paper_Space
340
1E
  0
BLOCK_RECORD
  5
23
330
1
100
AcDbSymbolTableRecord
100
AcDbBlockTableRecord
  2
*Paper_Space0
340
2D2
  0
ENDTAB
  0
ENDSEC
  0
SECTION
  2
BLOCKS
  0
BLOCK
  5
20
330
1F
100
AcDbEntity
  8
0
100
AcDbBlockBegin
  2
*Model_Space
 70
     0
 10
0.0
 20
0.0
 30
0.0
  3
*Model_Space
  1

  0
ENDBLK
  5
21
330
1F
100
AcDbEntity
  8
0
100
AcDbBlockEnd
  0
BLOCK
  5
1C
330
1B
100
AcDbEntity
 67
     1
  8
0
100
AcDbBlockBegin
  2
*Paper_Space
 70
     0
 10
0.0
 20
0.0
 30
0.0
  3
*Paper_Space
  1

  0
ENDBLK
  5
1D
330
1B
100
AcDbEntity
 67
     1
  8
0
100
AcDbBlockEnd
  0
BLOCK
  5
24
330
23
100
AcDbEntity
 67
     1
  8
0
100
AcDbBlockBegin
  2
*Paper_Space0
 70
     0
 10
0.0
 20
0.0
 30
0.0
  3
*Paper_Space0
  1

  0
ENDBLK
  5
25
330
23
100
AcDbEntity
 67
     1
  8
0
100
AcDbBlockEnd
  0
ENDSEC
  0
SECTION
  2
ENTITIES
  0
CIRCLE
  5
41E
102
{ACAD_REACTORS
330
638
102
}
330
1F
100
AcDbEntity
  8
実線
100
AcDbCircle
 10
370.857921428652
 20
818.0663616796463
 30
0.0
 40
46.0
  0
LINE
  5
41F
102
{ACAD_REACTORS
330
638
102
}
330
1F
100
AcDbEntity
  8
実線
100
AcDbLine
 10
294.1579214286519
 20
792.6663616796465
 30
0.0
 11
313.75196727324
 21
792.6663616796465
 31
0.0
  0
LINE
  5
420
102
{ACAD_REACTORS
330
638
102
}
330
1F
100
AcDbEntity
  8
実線
100
AcDbLine
 10
313.7519672732403
 20
843.4663616796473
 30
0.0
 11
294.1579214286519
 21
843.4663616796473
 31
0.0
  0
LINE
  5
421
102
{ACAD_REACTORS
330
638
102
}
330
1F
100
AcDbEntity
  8
実線
100
AcDbLine
 10
294.1579214286519
 20
792.6663616796465
 30
0.0
 11
294.1579214286519
 21
843.4663616796473
 31
0.0
  0
LINE
  5
422
102
{ACAD_REACTORS
330
638
102
}
330
1F
100
AcDbEntity
  8
実線
100
AcDbLine
 10
294.1579214286519
 20
843.4663616796473
 30
0.0
 11
291.7579214286518
 21
850.0663616796463
 31
0.0
  0
LINE
  5
423
102
{ACAD_REACTORS
330
638
102
}
330
1F
100
AcDbEntity
  8
実線
100
AcDbLine
 10
291.7579214286518
 20
786.0663616796464
 30
0.0
 11
294.1579214286519
 21
792.6663616796465
 31
0.0
  0
LINE
  5
424
102
{ACAD_REACTORS
330
638
102
}
330
1F
100
AcDbEntity
  8
実線
100
AcDbLine
 10
288.8579214286518
 20
786.0663616796464
 30
0.0
 11
288.8579214286518
 21
850.0663616796463
 31
0.0
  0
LINE
  5
425
102
{ACAD_REACTORS
330
638
102
}
330
1F
100
AcDbEntity
  8
実線
100
AcDbLine
 10
291.7579214286518
 20
786.0663616796464
 30
0.0
 11
291.7579214286518
 21
850.0663616796463
 31
0.0
  0
LINE
  5
426
102
{ACAD_REACTORS
330
638
102
}
330
1F
100
AcDbEntity
  8
実線
100
AcDbLine
 10
288.8579214286518
 20
786.0663616796464
 30
0.0
 11
291.7579214286518
 21
786.0663616796464
 31
0.0
  0
LINE
  5
427
102
{ACAD_REACTORS
330
638
102
}
330
1F
100
AcDbEntity
  8
実線
100
AcDbLine
 10
291.7579214286518
 20
850.0663616796463
 30
0.0
 11
288.8579214286518
 21
850.0663616796463
 31
0.0
  0
LINE
  5
428
102
{ACAD_REACTORS
330
638
102
}
330
1F
100
AcDbEntity
  8
実線
100
AcDbLine
 10
447.5579214286519
 20
843.4663616796473
 30
0.0
 11
427.9638755840636
 21
843.4663616796473
 31
0.0
  0
LINE
  5
429
102
{ACAD_REACTORS
330
638
102
}
330
1F
100
AcDbEntity
  8
実線
100
AcDbLine
 10
427.9638755840639
 20
792.6663616796465
 30
0.0
 11
447.5579214286519
 21
792.6663616796465
 31
0.0
  0
LINE
  5
42A
102
{ACAD_REACTORS
330
638
102
}
330
1F
100
AcDbEntity
  8
実線
100
AcDbLine
 10
447.5579214286519
 20
843.4663616796473
 30
0.0
 11
447.5579214286519
 21
792.6663616796465
 31
0.0
  0
LINE
  5
42B
102
{ACAD_REACTORS
330
638
102
}
330
1F
100
AcDbEntity
  8
実線
100
AcDbLine
 10
447.5579214286519
 20
792.6663616796465
 30
0.0
 11
449.9579214286518
 21
786.0663616796464
 31
0.0
  0
LINE
  5
42C
102
{ACAD_REACTORS
330
638
102
}
330
1F
100
AcDbEntity
  8
実線
100
AcDbLine
 10
449.9579214286518
 20
850.0663616796463
 30
0.0
 11
447.5579214286519
 21
843.4663616796473
 31
0.0
  0
LINE
  5
42D
102
{ACAD_REACTORS
330
638
102
}
330
1F
100
AcDbEntity
  8
実線
100
AcDbLine
 10
452.8579214286517
 20
850.0663616796463
 30
0.0
 11
452.8579214286517
 21
786.0663616796464
 31
0.0
  0
LINE
  5
42E
102
{ACAD_REACTORS
330
638
102
}
330
1F
100
AcDbEntity
  8
実線
100
AcDbLine
 10
449.9579214286518
 20
850.0663616796463
 30
0.0
 11
449.9579214286518
 21
786.0663616796464
 31
0.0
  0
LINE
  5
42F
102
{ACAD_REACTORS
330
638
102
}
330
1F
100
AcDbEntity
  8
実線
100
AcDbLine
 10
452.8579214286517
 20
850.0663616796463
 30
0.0
 11
449.9579214286518
 21
850.0663616796463
 31
0.0
  0
LINE
  5
430
102
{ACAD_REACTORS
330
638
102
}
330
1F
100
AcDbEntity
  8
実線
100
AcDbLine
 10
449.9579214286518
 20
786.0663616796464
 30
0.0
 11
452.8579214286517
 21
786.0663616796464
 31
0.0
  0
ARC
  5
431
102
{ACAD_REACTORS
330
638
102
}
330
1F
100
AcDbEntity
  8
実線
100
AcDbCircle
 10
417.3610870207077
 20
862.0374384224085
 30
0.0
 40
10.00000000000002
100
AcDbArc
 50
325.0000000000028
 51
43.39689020481819
  0
ARC
  5
432
102
{ACAD_REACTORS
330
638
102
}
330
1F
100
AcDbEntity
  8
実線
100
AcDbCircle
 10
326.8868446858903
 20
864.5695272717025
 30
0.0
 40
10.0
100
AcDbArc
 50
55.00000000000254
 51
133.3968902048145
  0
LINE
  5
433
102
{ACAD_REACTORS
330
638
102
}
330
1F
100
AcDbEntity
  8
実線
100
AcDbLine
 10
425.5526074635977
 20
779.8310493003955
 30
0.0
 11
422.9556468289654
 21
783.5398934543336
 31
0.0
  0
ARC
  5
434
102
{ACAD_REACTORS
330
638
102
}
330
1F
100
AcDbEntity
  8
実線
100
AcDbCircle
 10
370.857921428652
 20
818.0663616796463
 30
0.0
 40
74.00000000000019
100
AcDbArc
 50
133.3968902048145
 51
136.6031097951818
  0
LINE
  5
435
102
{ACAD_REACTORS
330
638
102
}
330
1F
100
AcDbEntity
  8
実線
100
AcDbLine
 10
336.3314532033391
 20
870.1640870799595
 30
0.0
 11
332.6226090494006
 21
872.7610477145924
 31
0.0
  0
LINE
  5
436
102
{ACAD_REACTORS
330
638
102
}
330
1F
100
AcDbEntity
  8
実線
100
AcDbLine
 10
422.9556468289654
 20
852.5928299049594
 30
0.0
 11
425.5526074635977
 21
856.3016740588976
 31
0.0
  0
ARC
  5
437
102
{ACAD_REACTORS
330
638
102
}
330
1F
100
AcDbEntity
  8
実線
100
AcDbCircle
 10
370.857921428652
 20
818.0663616796463
 30
0.0
 40
73.99999999999997
100
AcDbArc
 50
223.3968902048182
 51
226.6031097951855
  0
ARC
  5
438
102
{ACAD_REACTORS
330
638
102
}
330
1F
100
AcDbEntity
  8
実線
100
AcDbCircle
 10
326.8868446858903
 20
771.5631960875905
 30
0.0
 40
10.00000000000001
100
AcDbArc
 50
226.6031097951855
 51
304.9999999999974
  0
ARC
  5
439
102
{ACAD_REACTORS
330
638
102
}
330
1F
100
AcDbEntity
  8
実線
100
AcDbCircle
 10
370.857921428652
 20
818.0663616796463
 30
0.0
 40
74.00000000000003
100
AcDbArc
 50
43.39689020481819
 51
46.60310979518548
  0
ARC
  5
43A
102
{ACAD_REACTORS
330
638
102
}
330
1F
100
AcDbEntity
  8
実線
100
AcDbCircle
 10
414.8289981714136
 20
864.5695272717025
 30
0.0
 40
10.00000000000001
100
AcDbArc
 50
46.60310979518548
 51
124.9999999999974
  0
LINE
  5
43B
102
{ACAD_REACTORS
330
638
102
}
330
1F
100
AcDbEntity
  8
実線
100
AcDbLine
 10
409.0932338079029
 20
872.7610477145924
 30
0.0
 11
405.3843896539648
 21
870.1640870799595
 31
0.0
  0
ARC
  5
43C
102
{ACAD_REACTORS
330
638
102
}
330
1F
100
AcDbEntity
  8
実線
100
AcDbCircle
 10
370.857921428652
 20
818.0663616796463
 30
0.0
 40
73.99999999999984
100
AcDbArc
 50
313.3968902048145
 51
316.6031097951818
  0
ARC
  5
43D
102
{ACAD_REACTORS
330
638
102
}
330
1F
100
AcDbEntity
  8
実線
100
AcDbCircle
 10
417.3610870207077
 20
774.0952849368855
 30
0.0
 40
9.999999999999976
100
AcDbArc
 50
316.6031097951818
 51
34.99999999999719
  0
ARC
  5
43E
102
{ACAD_REACTORS
330
638
102
}
330
1F
100
AcDbEntity
  8
実線
100
AcDbCircle
 10
324.3547558365961
 20
862.0374384224085
 30
0.0
 40
10.00000000000001
100
AcDbArc
 50
136.6031097951818
 51
214.9999999999972
  0
LINE
  5
43F
102
{ACAD_REACTORS
330
638
102
}
330
1F
100
AcDbEntity
  8
実線
100
AcDbLine
 10
316.1632353937061
 20
856.3016740588976
 30
0.0
 11
318.7601960283384
 21
852.5928299049594
 31
0.0
  0
LINE
  5
440
102
{ACAD_REACTORS
330
638
102
}
330
1F
100
AcDbEntity
  8
実線
100
AcDbLine
 10
318.7601960283384
 20
783.5398934543336
 30
0.0
 11
316.1632353937061
 21
779.8310493003955
 31
0.0
  0
ARC
  5
441
102
{ACAD_REACTORS
330
638
102
}
330
1F
100
AcDbEntity
  8
実線
100
AcDbCircle
 10
324.3547558365961
 20
774.0952849368855
 30
0.0
 40
10.00000000000001
100
AcDbArc
 50
145.0000000000028
 51
223.3968902048182
  0
LINE
  5
442
102
{ACAD_REACTORS
330
638
102
}
330
1F
100
AcDbEntity
  8
実線
100
AcDbLine
 10
332.6226090494006
 20
763.3716756447015
 30
0.0
 11
336.3314532033391
 21
765.9686362793336
 31
0.0
  0
LINE
  5
443
102
{ACAD_REACTORS
330
638
102
}
330
1F
100
AcDbEntity
  8
実線
100
AcDbLine
 10
405.3843896539648
 20
765.9686362793336
 30
0.0
 11
409.0932338079029
 21
763.3716756447006
 31
0.0
  0
ARC
  5
444
102
{ACAD_REACTORS
330
638
102
}
330
1F
100
AcDbEntity
  8
実線
100
AcDbCircle
 10
414.8289981714136
 20
771.5631960875905
 30
0.0
 40
10.00000000000003
100
AcDbArc
 50
235.0000000000025
 51
313.3968902048145
  0
CIRCLE
  5
445
102
{ACAD_REACTORS
330
638
102
}
330
1F
100
AcDbEntity
  8
実線
100
AcDbCircle
 10
370.857921428652
 20
818.0663616796463
 30
0.0
 40
7.5
  0
CIRCLE
  5
446
102
{ACAD_REACTORS
330
638
102
}
330
1F
100
AcDbEntity
  8
実線
100
AcDbCircle
 10
370.857921428652
 20
818.0663616796463
 30
0.0
 40
12.5
  0
LINE
  5
447
102
{ACAD_REACTORS
330
638
102
}
330
1F
100
AcDbEntity
  8
実線
100
AcDbLine
 10
365.857921428652
 20
804.9663616796465
 30
0.0
 11
365.857921428652
 21
797.0663616796473
 31
0.0
  0
LINE
  5
448
102
{ACAD_REACTORS
330
638
102
}
330
1F
100
AcDbEntity
  8
実線
100
AcDbLine
 10
385.8579214286521
 20
797.0663616796464
 30
0.0
 11
390.857921428652
 21
797.0663616796464
 31
0.0
  0
LINE
  5
449
102
{ACAD_REACTORS
330
638
102
}
330
1F
100
AcDbEntity
  8
実線
100
AcDbLine
 10
390.857921428652
 20
797.0663616796464
 30
0.0
 11
390.857921428652
 21
804.9663616796465
 31
0.0
  0
LINE
  5
44A
102
{ACAD_REACTORS
330
638
102
}
330
1F
100
AcDbEntity
  8
実線
100
AcDbLine
 10
365.857921428652
 20
804.9663616796465
 30
0.0
 11
390.857921428652
 21
804.9663616796465
 31
0.0
  0
LINE
  5
44B
102
{ACAD_REACTORS
330
638
102
}
330
1F
100
AcDbEntity
  8
実線
100
AcDbLine
 10
397.357921428652
 20
799.5163616796465
 30
0.0
 11
397.357921428652
 21
802.5163616796465
 31
0.0
  0
LINE
  5
44C
102
{ACAD_REACTORS
330
638
102
}
330
1F
100
AcDbEntity
  8
実線
100
AcDbLine
 10
390.857921428652
 20
799.5163616796465
 30
0.0
 11
397.357921428652
 21
799.5163616796465
 31
0.0
  0
LINE
  5
44D
102
{ACAD_REACTORS
330
638
102
}
330
1F
100
AcDbEntity
  8
実線
100
AcDbLine
 10
397.357921428652
 20
802.5163616796465
 30
0.0
 11
390.857921428652
 21
802.5163616796465
 31
0.0
  0
ARC
  5
44E
102
{ACAD_REACTORS
330
638
102
}
330
1F
100
AcDbEntity
  8
実線
100
AcDbCircle
 10
370.857921428652
 20
818.0663616796463
 30
0.0
 40
25.0
100
AcDbArc
 50
233.1301023541532
 51
293.0739180656354
  0
CIRCLE
  5
44F
102
{ACAD_REACTORS
330
638
102
}
330
1F
100
AcDbEntity
  8
実線
100
AcDbCircle
 10
370.857921428652
 20
818.0663616796463
 30
0.0
 40
62.5
  0
LINE
  5
450
102
{ACAD_REACTORS
330
638
102
}
330
1F
100
AcDbEntity
  8
実線
100
AcDbLine
 10
396.2579214286517
 20
875.1723158350584
 30
0.0
 11
396.2579214286517
 21
894.7663616796464
 31
0.0
  0
LINE
  5
451
102
{ACAD_REACTORS
330
638
102
}
330
1F
100
AcDbEntity
  8
実線
100
AcDbLine
 10
396.2579214286517
 20
741.3663616796475
 30
0.0
 11
396.2579214286517
 21
760.9604075242345
 31
0.0
  0
LINE
  5
452
102
{ACAD_REACTORS
330
638
102
}
330
1F
100
AcDbEntity
  8
実線
100
AcDbLine
 10
345.4579214286519
 20
760.9604075242355
 30
0.0
 11
345.4579214286519
 21
741.3663616796475
 31
0.0
  0
LINE
  5
453
102
{ACAD_REACTORS
330
638
102
}
330
1F
100
AcDbEntity
  8
実線
100
AcDbLine
 10
345.4579214286519
 20
894.7663616796464
 30
0.0
 11
345.4579214286519
 21
875.1723158350584
 31
0.0
  0
LINE
  5
454
102
{ACAD_REACTORS
330
638
102
}
330
1F
100
AcDbEntity
  8
実線
100
AcDbLine
 10
396.2579214286517
 20
741.3663616796475
 30
0.0
 11
345.4579214286519
 21
741.3663616796475
 31
0.0
  0
LINE
  5
455
102
{ACAD_REACTORS
330
638
102
}
330
1F
100
AcDbEntity
  8
実線
100
AcDbLine
 10
345.4579214286519
 20
741.3663616796475
 30
0.0
 11
338.8579214286517
 21
738.9663616796474
 31
0.0
  0
LINE
  5
456
102
{ACAD_REACTORS
330
638
102
}
330
1F
100
AcDbEntity
  8
実線
100
AcDbLine
 10
402.857921428652
 20
738.9663616796474
 30
0.0
 11
396.2579214286517
 21
741.3663616796466
 31
0.0
  0
LINE
  5
457
102
{ACAD_REACTORS
330
638
102
}
330
1F
100
AcDbEntity
  8
実線
100
AcDbLine
 10
402.857921428652
 20
736.0663616796473
 30
0.0
 11
338.8579214286517
 21
736.0663616796473
 31
0.0
  0
LINE
  5
458
102
{ACAD_REACTORS
330
638
102
}
330
1F
100
AcDbEntity
  8
実線
100
AcDbLine
 10
402.857921428652
 20
738.9663616796474
 30
0.0
 11
338.8579214286517
 21
738.9663616796474
 31
0.0
  0
LINE
  5
459
102
{ACAD_REACTORS
330
638
102
}
330
1F
100
AcDbEntity
  8
実線
100
AcDbLine
 10
402.857921428652
 20
736.0663616796473
 30
0.0
 11
402.857921428652
 21
738.9663616796474
 31
0.0
  0
LINE
  5
45A
102
{ACAD_REACTORS
330
638
102
}
330
1F
100
AcDbEntity
  8
実線
100
AcDbLine
 10
338.8579214286517
 20
738.9663616796474
 30
0.0
 11
338.8579214286517
 21
736.0663616796473
 31
0.0
  0
LINE
  5
45B
102
{ACAD_REACTORS
330
638
102
}
330
1F
100
AcDbEntity
  8
実線
100
AcDbLine
 10
345.4579214286519
 20
894.7663616796464
 30
0.0
 11
396.2579214286517
 21
894.7663616796464
 31
0.0
  0
LINE
  5
45C
102
{ACAD_REACTORS
330
638
102
}
330
1F
100
AcDbEntity
  8
実線
100
AcDbLine
 10
396.2579214286517
 20
894.7663616796464
 30
0.0
 11
402.857921428652
 21
897.1663616796465
 31
0.0
  0
LINE
  5
45D
102
{ACAD_REACTORS
330
638
102
}
330
1F
100
AcDbEntity
  8
実線
100
AcDbLine
 10
338.8579214286517
 20
897.1663616796465
 30
0.0
 11
345.4579214286519
 21
894.7663616796464
 31
0.0
  0
LINE
  5
45E
102
{ACAD_REACTORS
330
638
102
}
330
1F
100
AcDbEntity
  8
実線
100
AcDbLine
 10
338.8579214286517
 20
900.0663616796463
 30
0.0
 11
402.857921428652
 21
900.0663616796463
 31
0.0
  0
LINE
  5
45F
102
{ACAD_REACTORS
330
638
102
}
330
1F
100
AcDbEntity
  8
実線
100
AcDbLine
 10
338.8579214286517
 20
897.1663616796465
 30
0.0
 11
402.857921428652
 21
897.1663616796465
 31
0.0
  0
LINE
  5
460
102
{ACAD_REACTORS
330
638
102
}
330
1F
100
AcDbEntity
  8
実線
100
AcDbLine
 10
338.8579214286517
 20
900.0663616796463
 30
0.0
 11
338.8579214286517
 21
897.1663616796465
 31
0.0
  0
LINE
  5
461
102
{ACAD_REACTORS
330
638
102
}
330
1F
100
AcDbEntity
  8
実線
100
AcDbLine
 10
402.857921428652
 20
897.1663616796465
 30
0.0
 11
402.857921428652
 21
900.0663616796463
 31
0.0
  0
ARC
  5
462
102
{ACAD_REACTORS
330
638
102
}
330
1F
100
AcDbEntity
  8
実線
100
AcDbCircle
 10
370.857921428652
 20
818.0663616796463
 30
0.0
 40
25.0
100
AcDbArc
 50
323.1301023541539
 51
233.1301023541532
  0
LINE
  5
463
102
{ACAD_REACTORS
330
638
102
}
330
1F
100
AcDbEntity
  8
実線
100
AcDbLine
 10
355.857921428652
 20
798.0663616796464
 30
0.0
 11
365.857921428652
 21
798.0663616796464
 31
0.0
  0
LINE
  5
464
102
{ACAD_REACTORS
330
638
102
}
330
1F
100
AcDbEntity
  8
実線
100
AcDbLine
 10
385.8579214286521
 20
797.0663616796464
 30
0.0
 11
385.8579214286521
 21
795.0663616796464
 31
0.0
  0
LINE
  5
465
102
{ACAD_REACTORS
330
638
102
}
330
1F
100
AcDbEntity
  8
実線
100
AcDbLine
 10
365.857921428652
 20
797.0663616796464
 30
0.0
 11
385.8579214286521
 21
797.0663616796464
 31
0.0
  0
LINE
  5
466
102
{ACAD_REACTORS
330
638
102
}
330
1F
100
AcDbEntity
  8
実線
100
AcDbLine
 10
365.857921428652
 20
795.0663616796464
 30
0.0
 11
365.857921428652
 21
797.0663616796464
 31
0.0
  0
LINE
  5
467
102
{ACAD_REACTORS
330
638
102
}
330
1F
100
AcDbEntity
  8
実線
100
AcDbLine
 10
385.8579214286521
 20
795.0663616796464
 30
0.0
 11
365.857921428652
 21
795.0663616796464
 31
0.0
  0
ARC
  5
46A
102
{ACAD_REACTORS
330
633
102
}
330
1F
100
AcDbEntity
  8
実線
100
AcDbCircle
 10
370.8579214286525
 20
98.06636167964672
 30
0.0
 40
62.5
100
AcDbArc
 50
113.978888137753
 51
123.533434005287
  0
ARC
  5
46B
102
{ACAD_REACTORS
330
633
102
}
330
1F
100
AcDbEntity
  8
実線
100
AcDbCircle
 10
370.8579214286525
 20
98.06636167964672
 30
0.0
 40
62.5
100
AcDbArc
 50
146.4665659947128
 51
156.0211118622466
  0
ARC
  5
46C
102
{ACAD_REACTORS
330
633
102
}
330
1F
100
AcDbEntity
  8
実線
100
AcDbCircle
 10
370.8579214286525
 20
98.06636167964672
 30
0.0
 40
62.5
100
AcDbArc
 50
203.9788881377534
 51
213.5334340052872
  0
ARC
  5
46D
102
{ACAD_REACTORS
330
633
102
}
330
1F
100
AcDbEntity
  8
実線
100
AcDbCircle
 10
370.8579214286525
 20
98.06636167964672
 30
0.0
 40
62.5
100
AcDbArc
 50
236.4665659947131
 51
246.021111862247
  0
ARC
  5
46E
102
{ACAD_REACTORS
330
633
102
}
330
1F
100
AcDbEntity
  8
実線
100
AcDbCircle
 10
370.8579214286525
 20
98.06636167964672
 30
0.0
 40
62.5
100
AcDbArc
 50
293.978888137753
 51
303.533434005287
  0
ARC
  5
46F
102
{ACAD_REACTORS
330
633
102
}
330
1F
100
AcDbEntity
  8
実線
100
AcDbCircle
 10
370.8579214286525
 20
98.06636167964672
 30
0.0
 40
62.5
100
AcDbArc
 50
326.4665659947128
 51
336.0211118622432
  0
ARC
  5
470
102
{ACAD_REACTORS
330
633
102
}
330
1F
100
AcDbEntity
  8
実線
100
AcDbCircle
 10
370.8579214286525
 20
98.06636167964672
 30
0.0
 40
62.5
100
AcDbArc
 50
23.97888813775336
 51
33.53343400528718
  0
ARC
  5
471
102
{ACAD_REACTORS
330
633
102
}
330
1F
100
AcDbEntity
  8
実線
100
AcDbCircle
 10
370.8579214286525
 20
98.06636167964672
 30
0.0
 40
62.5
100
AcDbArc
 50
56.46656599471303
 51
66.02111186224694
  0
LINE
  5
472
102
{ACAD_REACTORS
330
633
102
}
330
1F
100
AcDbEntity
  8
実線
100
AcDbLine
 10
294.1579214286523
 20
72.66636167964662
 30
0.0
 11
328.9551768884674
 21
72.66636167964662
 31
0.0
  0
LINE
  5
473
102
{ACAD_REACTORS
330
633
102
}
330
1F
100
AcDbEntity
  8
実線
100
AcDbLine
 10
328.9551768884674
 20
123.4663616796466
 30
0.0
 11
294.1579214286523
 21
123.4663616796466
 31
0.0
  0
LINE
  5
474
102
{ACAD_REACTORS
330
633
102
}
330
1F
100
AcDbEntity
  8
実線
100
AcDbLine
 10
288.8579214286523
 20
66.06636167964666
 30
0.0
 11
291.7579214286523
 21
66.06636167964666
 31
0.0
  0
LINE
  5
475
102
{ACAD_REACTORS
330
633
102
}
330
1F
100
AcDbEntity
  8
実線
100
AcDbLine
 10
291.7579214286523
 20
130.0663616796466
 30
0.0
 11
288.8579214286523
 21
130.0663616796466
 31
0.0
  0
LINE
  5
476
102
{ACAD_REACTORS
330
633
102
}
330
1F
100
AcDbEntity
  8
実線
100
AcDbLine
 10
288.8579214286523
 20
130.0663616796466
 30
0.0
 11
288.8579214286523
 21
66.06636167964666
 31
0.0
  0
LINE
  5
477
102
{ACAD_REACTORS
330
633
102
}
330
1F
100
AcDbEntity
  8
実線
100
AcDbLine
 10
294.1579214286523
 20
123.4663616796466
 30
0.0
 11
291.7579214286523
 21
130.0663616796466
 31
0.0
  0
LINE
  5
478
102
{ACAD_REACTORS
330
633
102
}
330
1F
100
AcDbEntity
  8
実線
100
AcDbLine
 10
291.7579214286523
 20
66.06636167964666
 30
0.0
 11
294.1579214286523
 21
72.66636167964662
 31
0.0
  0
LINE
  5
479
102
{ACAD_REACTORS
330
633
102
}
330
1F
100
AcDbEntity
  8
実線
100
AcDbLine
 10
291.7579214286523
 20
130.0663616796466
 30
0.0
 11
291.7579214286523
 21
66.06636167964666
 31
0.0
  0
LINE
  5
47A
102
{ACAD_REACTORS
330
633
102
}
330
1F
100
AcDbEntity
  8
実線
100
AcDbLine
 10
294.1579214286523
 20
123.4663616796466
 30
0.0
 11
294.1579214286523
 21
72.66636167964662
 31
0.0
  0
LINE
  5
47B
102
{ACAD_REACTORS
330
633
102
}
330
1F
100
AcDbEntity
  8
実線
100
AcDbLine
 10
447.5579214286524
 20
123.4663616796466
 30
0.0
 11
412.7606659688374
 21
123.4663616796466
 31
0.0
  0
LINE
  5
47C
102
{ACAD_REACTORS
330
633
102
}
330
1F
100
AcDbEntity
  8
実線
100
AcDbLine
 10
412.7606659688374
 20
72.66636167964662
 30
0.0
 11
447.5579214286524
 21
72.66636167964662
 31
0.0
  0
LINE
  5
47D
102
{ACAD_REACTORS
330
633
102
}
330
1F
100
AcDbEntity
  8
実線
100
AcDbLine
 10
447.5579214286524
 20
72.66636167964662
 30
0.0
 11
449.9579214286523
 21
66.06636167964666
 31
0.0
  0
LINE
  5
47E
102
{ACAD_REACTORS
330
633
102
}
330
1F
100
AcDbEntity
  8
実線
100
AcDbLine
 10
449.9579214286523
 20
130.0663616796465
 30
0.0
 11
447.5579214286524
 21
123.4663616796466
 31
0.0
  0
LINE
  5
47F
102
{ACAD_REACTORS
330
633
102
}
330
1F
100
AcDbEntity
  8
実線
100
AcDbLine
 10
447.5579214286524
 20
72.66636167964662
 30
0.0
 11
447.5579214286524
 21
123.4663616796466
 31
0.0
  0
LINE
  5
480
102
{ACAD_REACTORS
330
633
102
}
330
1F
100
AcDbEntity
  8
実線
100
AcDbLine
 10
452.8579214286522
 20
130.0663616796466
 30
0.0
 11
449.9579214286523
 21
130.0663616796466
 31
0.0
  0
LINE
  5
481
102
{ACAD_REACTORS
330
633
102
}
330
1F
100
AcDbEntity
  8
実線
100
AcDbLine
 10
449.9579214286523
 20
66.06636167964666
 30
0.0
 11
452.8579214286522
 21
66.06636167964666
 31
0.0
  0
LINE
  5
482
102
{ACAD_REACTORS
330
633
102
}
330
1F
100
AcDbEntity
  8
実線
100
AcDbLine
 10
452.8579214286522
 20
66.06636167964666
 30
0.0
 11
452.8579214286522
 21
130.0663616796466
 31
0.0
  0
LINE
  5
483
102
{ACAD_REACTORS
330
633
102
}
330
1F
100
AcDbEntity
  8
実線
100
AcDbLine
 10
449.9579214286523
 20
66.06636167964666
 30
0.0
 11
449.9579214286523
 21
130.0663616796466
 31
0.0
  0
ARC
  5
484
102
{ACAD_REACTORS
330
633
102
}
330
1F
100
AcDbEntity
  8
実線
100
AcDbCircle
 10
326.8868446858907
 20
144.5695272717023
 30
0.0
 40
10.00000000000001
100
AcDbArc
 50
55.00000000000254
 51
133.3968902048145
  0
LINE
  5
485
102
{ACAD_REACTORS
330
633
102
}
330
1F
100
AcDbEntity
  8
実線
100
AcDbLine
 10
332.6226090494011
 20
152.7610477145924
 30
0.0
 11
345.4579214286524
 21
143.7736652313643
 31
0.0
  0
LINE
  5
486
102
{ACAD_REACTORS
330
633
102
}
330
1F
100
AcDbEntity
  8
実線
100
AcDbLine
 10
325.1506178769348
 20
123.4663616796466
 30
0.0
 11
316.1632353937066
 21
136.3016740588978
 31
0.0
  0
ARC
  5
487
102
{ACAD_REACTORS
330
633
102
}
330
1F
100
AcDbEntity
  8
実線
100
AcDbCircle
 10
370.8579214286525
 20
98.06636167964672
 30
0.0
 40
73.99999999999997
100
AcDbArc
 50
133.3968902048145
 51
136.6031097951818
  0
ARC
  5
488
102
{ACAD_REACTORS
330
633
102
}
330
1F
100
AcDbEntity
  8
実線
100
AcDbCircle
 10
324.3547558365965
 20
142.0374384224081
 30
0.0
 40
10.00000000000001
100
AcDbArc
 50
136.6031097951818
 51
214.9999999999972
  0
LINE
  5
489
102
{ACAD_REACTORS
330
633
102
}
330
1F
100
AcDbEntity
  8
実線
100
AcDbLine
 10
396.2579214286521
 20
143.7736652313643
 30
0.0
 11
409.0932338079032
 21
152.7610477145924
 31
0.0
  0
ARC
  5
48A
102
{ACAD_REACTORS
330
633
102
}
330
1F
100
AcDbEntity
  8
実線
100
AcDbCircle
 10
414.828998171414
 20
144.5695272717025
 30
0.0
 40
10.00000000000003
100
AcDbArc
 50
46.60310979518548
 51
124.9999999999974
  0
ARC
  5
48B
102
{ACAD_REACTORS
330
633
102
}
330
1F
100
AcDbEntity
  8
実線
100
AcDbCircle
 10
370.8579214286525
 20
98.06636167964672
 30
0.0
 40
73.99999999999984
100
AcDbArc
 50
43.39689020481819
 51
46.60310979518548
  0
ARC
  5
48C
102
{ACAD_REACTORS
330
633
102
}
330
1F
100
AcDbEntity
  8
実線
100
AcDbCircle
 10
417.3610870207083
 20
142.0374384224081
 30
0.0
 40
9.999999999999976
100
AcDbArc
 50
325.0000000000028
 51
43.39689020481819
  0
LINE
  5
48D
102
{ACAD_REACTORS
330
633
102
}
330
1F
100
AcDbEntity
  8
実線
100
AcDbLine
 10
425.5526074635981
 20
136.3016740588978
 30
0.0
 11
416.56522498037
 21
123.4663616796466
 31
0.0
  0
LINE
  5
48E
102
{ACAD_REACTORS
330
633
102
}
330
1F
100
AcDbEntity
  8
実線
100
AcDbLine
 10
416.56522498037
 20
72.66636167964662
 30
0.0
 11
425.5526074635981
 21
59.83104930039553
 31
0.0
  0
LINE
  5
48F
102
{ACAD_REACTORS
330
633
102
}
330
1F
100
AcDbEntity
  8
実線
100
AcDbLine
 10
409.0932338079033
 20
43.37167564470087
 30
0.0
 11
396.2579214286521
 21
52.3590581279289
 31
0.0
  0
ARC
  5
490
102
{ACAD_REACTORS
330
633
102
}
330
1F
100
AcDbEntity
  8
実線
100
AcDbCircle
 10
414.828998171414
 20
51.56319608759088
 30
0.0
 40
10.00000000000001
100
AcDbArc
 50
235.0000000000025
 51
313.3968902048145
  0
ARC
  5
491
102
{ACAD_REACTORS
330
633
102
}
330
1F
100
AcDbEntity
  8
実線
100
AcDbCircle
 10
370.8579214286525
 20
98.06636167964672
 30
0.0
 40
74.00000000000003
100
AcDbArc
 50
313.3968902048145
 51
316.6031097951818
  0
ARC
  5
492
102
{ACAD_REACTORS
330
633
102
}
330
1F
100
AcDbEntity
  8
実線
100
AcDbCircle
 10
417.3610870207083
 20
54.09528493688504
 30
0.0
 40
10.00000000000002
100
AcDbArc
 50
316.6031097951818
 51
34.99999999999719
  0
LINE
  5
493
102
{ACAD_REACTORS
330
633
102
}
330
1F
100
AcDbEntity
  8
実線
100
AcDbLine
 10
345.4579214286524
 20
52.35905812792885
 30
0.0
 11
332.6226090494011
 21
43.37167564470087
 31
0.0
  0
LINE
  5
494
102
{ACAD_REACTORS
330
633
102
}
330
1F
100
AcDbEntity
  8
実線
100
AcDbLine
 10
316.1632353937066
 20
59.83104930039553
 30
0.0
 11
325.1506178769348
 21
72.66636167964662
 31
0.0
  0
ARC
  5
495
102
{ACAD_REACTORS
330
633
102
}
330
1F
100
AcDbEntity
  8
実線
100
AcDbCircle
 10
324.3547558365965
 20
54.09528493688504
 30
0.0
 40
10.00000000000001
100
AcDbArc
 50
145.0000000000028
 51
223.3968902048182
  0
ARC
  5
496
102
{ACAD_REACTORS
330
633
102
}
330
1F
100
AcDbEntity
  8
実線
100
AcDbCircle
 10
370.8579214286525
 20
98.06636167964672
 30
0.0
 40
74.00000000000019
100
AcDbArc
 50
223.3968902048182
 51
226.6031097951855
  0
ARC
  5
497
102
{ACAD_REACTORS
330
633
102
}
330
1F
100
AcDbEntity
  8
実線
100
AcDbCircle
 10
326.8868446858907
 20
51.56319608759088
 30
0.0
 40
10.0
100
AcDbArc
 50
226.6031097951855
 51
304.9999999999974
  0
ARC
  5
498
102
{ACAD_REACTORS
330
633
102
}
330
1F
100
AcDbEntity
  8
実線
100
AcDbCircle
 10
370.8579214286525
 20
98.06636167964661
 30
0.0
 40
49.0
100
AcDbArc
 50
201.1065388689075
 51
238.7772000566965
  0
ARC
  5
499
102
{ACAD_REACTORS
330
633
102
}
330
1F
100
AcDbEntity
  8
実線
100
AcDbCircle
 10
370.8579214286525
 20
98.06636167964661
 30
0.0
 40
49.0
100
AcDbArc
 50
301.2227999433035
 51
338.8934611310925
  0
ARC
  5
49A
102
{ACAD_REACTORS
330
633
102
}
330
1F
100
AcDbEntity
  8
実線
100
AcDbCircle
 10
370.8579214286525
 20
98.06636167964661
 30
0.0
 40
49.0
100
AcDbArc
 50
21.10653886890747
 51
58.77720005669643
  0
ARC
  5
49B
102
{ACAD_REACTORS
330
633
102
}
330
1F
100
AcDbEntity
  8
実線
100
AcDbCircle
 10
370.8579214286525
 20
98.06636167964661
 30
0.0
 40
49.0
100
AcDbArc
 50
121.2227999433035
 51
158.8934611310925
  0
LINE
  5
49C
102
{ACAD_REACTORS
330
633
102
}
330
1F
100
AcDbEntity
  8
実線
100
AcDbLine
 10
399.2579214286522
 20
123.0663616796466
 30
0.0
 11
408.2579214286521
 21
123.0663616796466
 31
0.0
  0
LINE
  5
49D
102
{ACAD_REACTORS
330
633
102
}
330
1F
100
AcDbEntity
  8
実線
100
AcDbLine
 10
394.2579214286525
 20
78.06636167964666
 30
0.0
 11
394.2579214286525
 21
118.0663616796466
 31
0.0
  0
ARC
  5
49E
102
{ACAD_REACTORS
330
633
102
}
330
1F
100
AcDbEntity
  8
実線
100
AcDbCircle
 10
399.2579214286522
 20
78.06636167964666
 30
0.0
 40
5.0
100
AcDbArc
 50
180.0
 51
270.0
  0
LINE
  5
49F
102
{ACAD_REACTORS
330
633
102
}
330
1F
100
AcDbEntity
  8
実線
100
AcDbLine
 10
408.2579214286521
 20
73.06636167964666
 30
0.0
 11
399.2579214286522
 21
73.06636167964666
 31
0.0
  0
ARC
  5
4A0
102
{ACAD_REACTORS
330
633
102
}
330
1F
100
AcDbEntity
  8
実線
100
AcDbCircle
 10
408.2579214286521
 20
78.06636167964666
 30
0.0
 40
5.0
100
AcDbArc
 50
270.0
 51
0.0
  0
LINE
  5
4A1
102
{ACAD_REACTORS
330
633
102
}
330
1F
100
AcDbEntity
  8
実線
100
AcDbLine
 10
413.2579214286521
 20
118.0663616796466
 30
0.0
 11
413.2579214286521
 21
78.06636167964666
 31
0.0
  0
ARC
  5
4A2
102
{ACAD_REACTORS
330
633
102
}
330
1F
100
AcDbEntity
  8
実線
100
AcDbCircle
 10
408.2579214286521
 20
118.0663616796466
 30
0.0
 40
5.0
100
AcDbArc
 50
0.0
 51
90.0
  0
ARC
  5
4A3
102
{ACAD_REACTORS
330
633
102
}
330
1F
100
AcDbEntity
  8
実線
100
AcDbCircle
 10
399.2579214286522
 20
118.0663616796466
 30
0.0
 40
5.0
100
AcDbArc
 50
90.0
 51
180.0
  0
ARC
  5
4A4
102
{ACAD_REACTORS
330
633
102
}
330
1F
100
AcDbEntity
  8
実線
100
AcDbCircle
 10
342.4579214286524
 20
118.0663616796466
 30
0.0
 40
5.0
100
AcDbArc
 50
0.0
 51
90.0
  0
LINE
  5
4A5
102
{ACAD_REACTORS
330
633
102
}
330
1F
100
AcDbEntity
  8
実線
100
AcDbLine
 10
333.4579214286524
 20
123.0663616796466
 30
0.0
 11
342.4579214286524
 21
123.0663616796466
 31
0.0
  0
LINE
  5
4A6
102
{ACAD_REACTORS
330
633
102
}
330
1F
100
AcDbEntity
  8
実線
100
AcDbLine
 10
328.4579214286524
 20
78.06636167964666
 30
0.0
 11
328.4579214286524
 21
118.0663616796466
 31
0.0
  0
LINE
  5
4A7
102
{ACAD_REACTORS
330
633
102
}
330
1F
100
AcDbEntity
  8
実線
100
AcDbLine
 10
342.4579214286524
 20
73.06636167964666
 30
0.0
 11
333.4579214286524
 21
73.06636167964666
 31
0.0
  0
LINE
  5
4A8
102
{ACAD_REACTORS
330
633
102
}
330
1F
100
AcDbEntity
  8
実線
100
AcDbLine
 10
347.4579214286524
 20
118.0663616796466
 30
0.0
 11
347.4579214286524
 21
78.06636167964666
 31
0.0
  0
ARC
  5
4A9
102
{ACAD_REACTORS
330
633
102
}
330
1F
100
AcDbEntity
  8
実線
100
AcDbCircle
 10
333.4579214286524
 20
118.0663616796466
 30
0.0
 40
5.0
100
AcDbArc
 50
90.0
 51
180.0
  0
ARC
  5
4AA
102
{ACAD_REACTORS
330
633
102
}
330
1F
100
AcDbEntity
  8
実線
100
AcDbCircle
 10
333.4579214286524
 20
78.06636167964666
 30
0.0
 40
5.0
100
AcDbArc
 50
180.0
 51
270.0
  0
ARC
  5
4AB
102
{ACAD_REACTORS
330
633
102
}
330
1F
100
AcDbEntity
  8
実線
100
AcDbCircle
 10
342.4579214286524
 20
78.06636167964666
 30
0.0
 40
5.0
100
AcDbArc
 50
270.0
 51
0.0
  0
LINE
  5
4AC
102
{ACAD_REACTORS
330
633
102
}
330
1F
100
AcDbEntity
  8
実線
100
AcDbLine
 10
345.4579214286524
 20
74.06636167964666
 30
0.0
 11
345.4579214286524
 21
21.36636167964661
 31
0.0
  0
LINE
  5
4AD
102
{ACAD_REACTORS
330
633
102
}
330
1F
100
AcDbEntity
  8
実線
100
AcDbLine
 10
345.4579214286524
 20
174.7663616796467
 30
0.0
 11
345.4579214286524
 21
122.0663616796466
 31
0.0
  0
LINE
  5
4AE
102
{ACAD_REACTORS
330
633
102
}
330
1F
100
AcDbEntity
  8
実線
100
AcDbLine
 10
396.2579214286521
 20
122.0663616796466
 30
0.0
 11
396.2579214286521
 21
174.7663616796467
 31
0.0
  0
LINE
  5
4AF
102
{ACAD_REACTORS
330
633
102
}
330
1F
100
AcDbEntity
  8
実線
100
AcDbLine
 10
396.2579214286521
 20
21.36636167964661
 30
0.0
 11
396.2579214286521
 21
74.06636167964666
 31
0.0
  0
LINE
  5
4B0
102
{ACAD_REACTORS
330
633
102
}
330
1F
100
AcDbEntity
  8
実線
100
AcDbLine
 10
402.8579214286525
 20
16.06636167964666
 30
0.0
 11
402.8579214286525
 21
18.96636167964664
 31
0.0
  0
LINE
  5
4B1
102
{ACAD_REACTORS
330
633
102
}
330
1F
100
AcDbEntity
  8
実線
100
AcDbLine
 10
338.8579214286522
 20
18.96636167964652
 30
0.0
 11
338.8579214286522
 21
16.06636167964666
 31
0.0
  0
LINE
  5
4B2
102
{ACAD_REACTORS
330
633
102
}
330
1F
100
AcDbEntity
  8
実線
100
AcDbLine
 10
338.8579214286522
 20
16.06636167964666
 30
0.0
 11
402.8579214286525
 21
16.06636167964666
 31
0.0
  0
LINE
  5
4B3
102
{ACAD_REACTORS
330
633
102
}
330
1F
100
AcDbEntity
  8
実線
100
AcDbLine
 10
345.4579214286524
 20
21.36636167964661
 30
0.0
 11
338.8579214286522
 21
18.96636167964652
 31
0.0
  0
LINE
  5
4B4
102
{ACAD_REACTORS
330
633
102
}
330
1F
100
AcDbEntity
  8
実線
100
AcDbLine
 10
402.8579214286525
 20
18.96636167964652
 30
0.0
 11
396.2579214286521
 21
21.36636167964661
 31
0.0
  0
LINE
  5
4B5
102
{ACAD_REACTORS
330
633
102
}
330
1F
100
AcDbEntity
  8
実線
100
AcDbLine
 10
338.8579214286522
 20
18.96636167964652
 30
0.0
 11
402.8579214286525
 21
18.96636167964652
 31
0.0
  0
LINE
  5
4B6
102
{ACAD_REACTORS
330
633
102
}
330
1F
100
AcDbEntity
  8
実線
100
AcDbLine
 10
345.4579214286524
 20
21.36636167964661
 30
0.0
 11
396.2579214286521
 21
21.36636167964661
 31
0.0
  0
LINE
  5
4B7
102
{ACAD_REACTORS
330
633
102
}
330
1F
100
AcDbEntity
  8
実線
100
AcDbLine
 10
338.8579214286522
 20
180.0663616796466
 30
0.0
 11
338.8579214286522
 21
177.1663616796466
 31
0.0
  0
LINE
  5
4B8
102
{ACAD_REACTORS
330
633
102
}
330
1F
100
AcDbEntity
  8
実線
100
AcDbLine
 10
402.8579214286525
 20
177.1663616796466
 30
0.0
 11
402.8579214286525
 21
180.0663616796466
 31
0.0
  0
LINE
  5
4B9
102
{ACAD_REACTORS
330
633
102
}
330
1F
100
AcDbEntity
  8
実線
100
AcDbLine
 10
402.8579214286525
 20
180.0663616796466
 30
0.0
 11
338.8579214286522
 21
180.0663616796466
 31
0.0
  0
LINE
  5
4BA
102
{ACAD_REACTORS
330
633
102
}
330
1F
100
AcDbEntity
  8
実線
100
AcDbLine
 10
396.2579214286521
 20
174.7663616796467
 30
0.0
 11
402.8579214286525
 21
177.1663616796466
 31
0.0
  0
LINE
  5
4BB
102
{ACAD_REACTORS
330
633
102
}
330
1F
100
AcDbEntity
  8
実線
100
AcDbLine
 10
338.8579214286522
 20
177.1663616796466
 30
0.0
 11
345.4579214286524
 21
174.7663616796467
 31
0.0
  0
LINE
  5
4BC
102
{ACAD_REACTORS
330
633
102
}
330
1F
100
AcDbEntity
  8
実線
100
AcDbLine
 10
402.8579214286525
 20
177.1663616796466
 30
0.0
 11
338.8579214286522
 21
177.1663616796466
 31
0.0
  0
LINE
  5
4BD
102
{ACAD_REACTORS
330
633
102
}
330
1F
100
AcDbEntity
  8
実線
100
AcDbLine
 10
396.2579214286521
 20
174.7663616796467
 30
0.0
 11
345.4579214286524
 21
174.7663616796467
 31
0.0
  0
LINE
  5
4BE
102
{ACAD_REACTORS
330
634
102
}
330
1F
100
AcDbEntity
  8
実線
100
AcDbLine
 10
858.8579214286516
 20
586.4663616796462
 30
0.0
 11
858.8579214286516
 21
616.9663616796466
 31
0.0
  0
LINE
  5
4BF
102
{ACAD_REACTORS
330
634
102
}
330
1F
100
AcDbEntity
  8
実線
100
AcDbLine
 10
842.8579214286525
 20
616.9663616796466
 30
0.0
 11
842.8579214286525
 21
586.4663616796462
 31
0.0
  0
LINE
  5
4C0
102
{ACAD_REACTORS
330
634
102
}
330
1F
100
AcDbEntity
  8
実線
100
AcDbLine
 10
804.8579214286526
 20
579.4663616796464
 30
0.0
 11
896.8579214286526
 21
579.4663616796464
 31
0.0
  0
LINE
  5
4C1
102
{ACAD_REACTORS
330
634
102
}
330
1F
100
AcDbEntity
  8
実線
100
AcDbLine
 10
896.8579214286526
 20
568.9663616796464
 30
0.0
 11
896.8579214286526
 21
579.4663616796464
 31
0.0
  0
LINE
  5
4C2
102
{ACAD_REACTORS
330
634
102
}
330
1F
100
AcDbEntity
  8
実線
100
AcDbLine
 10
804.8579214286526
 20
579.4663616796464
 30
0.0
 11
804.8579214286526
 21
568.9663616796464
 31
0.0
  0
LINE
  5
4C3
102
{ACAD_REACTORS
330
634
102
}
330
1F
100
AcDbEntity
  8
実線
100
AcDbLine
 10
858.8579214286516
 20
386.5663616796465
 30
0.0
 11
858.8579214286516
 21
419.0663616796461
 31
0.0
  0
LINE
  5
4C4
102
{ACAD_REACTORS
330
634
102
}
330
1F
100
AcDbEntity
  8
実線
100
AcDbLine
 10
842.8579214286525
 20
419.0663616796467
 30
0.0
 11
842.8579214286525
 21
386.5663616796465
 31
0.0
  0
LINE
  5
4C5
102
{ACAD_REACTORS
330
634
102
}
330
1F
100
AcDbEntity
  8
実線
100
AcDbLine
 10
788.3579214286517
 20
564.4663616796464
 30
0.0
 11
913.3579214286525
 21
564.4663616796464
 31
0.0
  0
LINE
  5
4C6
102
{ACAD_REACTORS
330
634
102
}
330
1F
100
AcDbEntity
  8
実線
100
AcDbLine
 10
913.3579214286525
 20
472.4663616796461
 30
0.0
 11
913.3579214286525
 21
564.4663616796464
 31
0.0
  0
LINE
  5
4C7
102
{ACAD_REACTORS
330
634
102
}
330
1F
100
AcDbEntity
  8
実線
100
AcDbLine
 10
788.3579214286517
 20
564.4663616796464
 30
0.0
 11
788.3579214286517
 21
472.4663616796461
 31
0.0
  0
LINE
  5
4C8
102
{ACAD_REACTORS
330
634
102
}
330
1F
100
AcDbEntity
  8
実線
100
AcDbLine
 10
913.3579214286525
 20
472.4663616796461
 30
0.0
 11
788.3579214286517
 21
472.4663616796461
 31
0.0
  0
LINE
  5
4C9
102
{ACAD_REACTORS
330
634
102
}
330
1F
100
AcDbEntity
  8
実線
100
AcDbLine
 10
927.5579214286526
 20
363.4663616796462
 30
0.0
 11
907.3610870207087
 21
363.4663616796462
 31
0.0
  0
LINE
  5
4CA
102
{ACAD_REACTORS
330
634
102
}
330
1F
100
AcDbEntity
  8
実線
100
AcDbLine
 10
898.0552881656308
 20
312.6663616796465
 30
0.0
 11
927.5579214286526
 21
312.6663616796465
 31
0.0
  0
LINE
  5
4CB
102
{ACAD_REACTORS
330
634
102
}
330
1F
100
AcDbEntity
  8
実線
100
AcDbLine
 10
927.5579214286526
 20
312.6663616796465
 30
0.0
 11
929.9579214286527
 21
306.0663616796462
 31
0.0
  0
LINE
  5
4CC
102
{ACAD_REACTORS
330
634
102
}
330
1F
100
AcDbEntity
  8
実線
100
AcDbLine
 10
929.9579214286527
 20
370.0663616796465
 30
0.0
 11
927.5579214286526
 21
363.4663616796462
 31
0.0
  0
LINE
  5
4CD
102
{ACAD_REACTORS
330
634
102
}
330
1F
100
AcDbEntity
  8
実線
100
AcDbLine
 10
927.5579214286526
 20
312.6663616796465
 30
0.0
 11
927.5579214286526
 21
363.4663616796462
 31
0.0
  0
LINE
  5
4CE
102
{ACAD_REACTORS
330
634
102
}
330
1F
100
AcDbEntity
  8
実線
100
AcDbLine
 10
932.8579214286525
 20
370.0663616796465
 30
0.0
 11
929.9579214286527
 21
370.0663616796465
 31
0.0
  0
LINE
  5
4CF
102
{ACAD_REACTORS
330
634
102
}
330
1F
100
AcDbEntity
  8
実線
100
AcDbLine
 10
929.9579214286527
 20
306.0663616796462
 30
0.0
 11
932.8579214286525
 21
306.0663616796462
 31
0.0
  0
LINE
  5
4D0
102
{ACAD_REACTORS
330
634
102
}
330
1F
100
AcDbEntity
  8
実線
100
AcDbLine
 10
932.8579214286525
 20
370.0663616796465
 30
0.0
 11
932.8579214286525
 21
306.0663616796462
 31
0.0
  0
LINE
  5
4D1
102
{ACAD_REACTORS
330
634
102
}
330
1F
100
AcDbEntity
  8
実線
100
AcDbLine
 10
929.9579214286527
 20
370.0663616796465
 30
0.0
 11
929.9579214286527
 21
306.0663616796462
 31
0.0
  0
LINE
  5
4D2
102
{ACAD_REACTORS
330
634
102
}
330
1F
100
AcDbEntity
  8
実線
100
AcDbLine
 10
774.1579214286526
 20
312.6663616796465
 30
0.0
 11
803.6605546916748
 21
312.6663616796465
 31
0.0
  0
LINE
  5
4D3
102
{ACAD_REACTORS
330
634
102
}
330
1F
100
AcDbEntity
  8
実線
100
AcDbLine
 10
794.3547558365967
 20
363.4663616796462
 30
0.0
 11
774.1579214286526
 21
363.4663616796462
 31
0.0
  0
LINE
  5
4D4
102
{ACAD_REACTORS
330
634
102
}
330
1F
100
AcDbEntity
  8
実線
100
AcDbLine
 10
774.1579214286526
 20
363.4663616796462
 30
0.0
 11
774.1579214286526
 21
312.6663616796465
 31
0.0
  0
LINE
  5
4D5
102
{ACAD_REACTORS
330
634
102
}
330
1F
100
AcDbEntity
  8
実線
100
AcDbLine
 10
774.1579214286526
 20
363.4663616796462
 30
0.0
 11
771.7579214286526
 21
370.0663616796462
 31
0.0
  0
LINE
  5
4D6
102
{ACAD_REACTORS
330
634
102
}
330
1F
100
AcDbEntity
  8
実線
100
AcDbLine
 10
771.7579214286526
 20
306.0663616796465
 30
0.0
 11
774.1579214286526
 21
312.6663616796465
 31
0.0
  0
LINE
  5
4D7
102
{ACAD_REACTORS
330
634
102
}
330
1F
100
AcDbEntity
  8
実線
100
AcDbLine
 10
768.8579214286526
 20
370.0663616796465
 30
0.0
 11
768.8579214286526
 21
306.0663616796462
 31
0.0
  0
LINE
  5
4D8
102
{ACAD_REACTORS
330
634
102
}
330
1F
100
AcDbEntity
  8
実線
100
AcDbLine
 10
771.7579214286526
 20
370.0663616796465
 30
0.0
 11
771.7579214286526
 21
306.0663616796462
 31
0.0
  0
LINE
  5
4D9
102
{ACAD_REACTORS
330
634
102
}
330
1F
100
AcDbEntity
  8
実線
100
AcDbLine
 10
768.8579214286526
 20
306.0663616796462
 30
0.0
 11
771.7579214286526
 21
306.0663616796462
 31
0.0
  0
LINE
  5
4DA
102
{ACAD_REACTORS
330
634
102
}
330
1F
100
AcDbEntity
  8
実線
100
AcDbLine
 10
771.7579214286526
 20
370.0663616796465
 30
0.0
 11
768.8579214286526
 21
370.0663616796465
 31
0.0
  0
LINE
  5
4DB
102
{ACAD_REACTORS
330
634
102
}
330
1F
100
AcDbEntity
  8
実線
100
AcDbLine
 10
794.3547558365967
 20
386.5663616796465
 30
0.0
 11
907.3610870207078
 21
386.5663616796465
 31
0.0
  0
LINE
  5
4DC
102
{ACAD_REACTORS
330
634
102
}
330
1F
100
AcDbEntity
  8
実線
100
AcDbLine
 10
794.3547558365967
 20
373.0663616796462
 30
0.0
 11
907.3610870207078
 21
373.0663616796462
 31
0.0
  0
LINE
  5
4DD
102
{ACAD_REACTORS
330
634
102
}
330
1F
100
AcDbEntity
  8
実線
100
AcDbLine
 10
907.3610870207078
 20
373.0663616796462
 30
0.0
 11
907.3610870207078
 21
386.5663616796465
 31
0.0
  0
LINE
  5
4DE
102
{ACAD_REACTORS
330
634
102
}
330
1F
100
AcDbEntity
  8
実線
100
AcDbLine
 10
794.3547558365967
 20
386.5663616796465
 30
0.0
 11
794.3547558365967
 21
373.0663616796462
 31
0.0
  0
LINE
  5
4DF
102
{ACAD_REACTORS
330
634
102
}
330
1F
100
AcDbEntity
  8
実線
100
AcDbLine
 10
828.4796781415098
 20
386.5663616796465
 30
0.0
 11
828.4796781415098
 21
373.0663616796462
 31
0.0
  0
LINE
  5
4E0
102
{ACAD_REACTORS
330
634
102
}
330
1F
100
AcDbEntity
  8
実線
100
AcDbLine
 10
873.2361647157956
 20
386.5663616796465
 30
0.0
 11
873.2361647157956
 21
373.0663616796462
 31
0.0
  0
LINE
  5
4E1
102
{ACAD_REACTORS
330
634
102
}
330
1F
100
AcDbEntity
  8
実線
100
AcDbLine
 10
843.3579214286526
 20
627.2663616796466
 30
0.0
 11
858.3579214286526
 21
627.2663616796466
 31
0.0
  0
LINE
  5
4E2
102
{ACAD_REACTORS
330
634
102
}
330
1F
100
AcDbEntity
  8
実線
100
AcDbLine
 10
858.3579214286526
 20
621.9663616796463
 30
0.0
 11
858.3579214286526
 21
627.2663616796466
 31
0.0
  0
LINE
  5
4E3
102
{ACAD_REACTORS
330
634
102
}
330
1F
100
AcDbEntity
  8
実線
100
AcDbLine
 10
843.3579214286526
 20
627.2663616796466
 30
0.0
 11
843.3579214286526
 21
621.9663616796463
 31
0.0
  0
LINE
  5
4E4
102
{ACAD_REACTORS
330
634
102
}
330
1F
100
AcDbEntity
  8
実線
100
AcDbLine
 10
838.3579214286525
 20
621.9663616796463
 30
0.0
 11
863.3579214286525
 21
621.9663616796463
 31
0.0
  0
LINE
  5
4E5
102
{ACAD_REACTORS
330
634
102
}
330
1F
100
AcDbEntity
  8
実線
100
AcDbLine
 10
863.3579214286525
 20
616.9663616796466
 30
0.0
 11
863.3579214286525
 21
621.9663616796463
 31
0.0
  0
LINE
  5
4E6
102
{ACAD_REACTORS
330
634
102
}
330
1F
100
AcDbEntity
  8
実線
100
AcDbLine
 10
838.3579214286525
 20
621.9663616796463
 30
0.0
 11
838.3579214286525
 21
616.9663616796466
 31
0.0
  0
LINE
  5
4E7
102
{ACAD_REACTORS
330
634
102
}
330
1F
100
AcDbEntity
  8
実線
100
AcDbLine
 10
863.3579214286525
 20
616.9663616796466
 30
0.0
 11
838.3579214286525
 21
616.9663616796466
 31
0.0
  0
LINE
  5
4E8
102
{ACAD_REACTORS
330
634
102
}
330
1F
100
AcDbEntity
  8
実線
100
AcDbLine
 10
843.3579214286526
 20
623.4163616796463
 30
0.0
 11
830.8579214286526
 21
623.4163616796463
 31
0.0
  0
LINE
  5
4E9
102
{ACAD_REACTORS
330
634
102
}
330
1F
100
AcDbEntity
  8
実線
100
AcDbLine
 10
830.8579214286526
 20
623.4163616796463
 30
0.0
 11
830.8579214286526
 21
615.5163616796466
 31
0.0
  0
LINE
  5
4EA
102
{ACAD_REACTORS
330
634
102
}
330
1F
100
AcDbEntity
  8
実線
100
AcDbLine
 10
842.8579214286525
 20
615.5163616796466
 30
0.0
 11
830.8579214286526
 21
615.5163616796466
 31
0.0
  0
LINE
  5
4EB
102
{ACAD_REACTORS
330
634
102
}
330
1F
100
AcDbEntity
  8
実線
100
AcDbLine
 10
830.8579214286526
 20
604.9663616796461
 30
0.0
 11
824.3579214286526
 21
604.9663616796461
 31
0.0
  0
LINE
  5
4EC
102
{ACAD_REACTORS
330
634
102
}
330
1F
100
AcDbEntity
  8
実線
100
AcDbLine
 10
824.3579214286526
 20
601.9663616796466
 30
0.0
 11
830.8579214286526
 21
601.9663616796466
 31
0.0
  0
LINE
  5
4ED
102
{ACAD_REACTORS
330
634
102
}
330
1F
100
AcDbEntity
  8
実線
100
AcDbLine
 10
824.3579214286526
 20
604.9663616796461
 30
0.0
 11
824.3579214286526
 21
601.9663616796466
 31
0.0
  0
LINE
  5
4EE
102
{ACAD_REACTORS
330
634
102
}
330
1F
100
AcDbEntity
  8
実線
100
AcDbLine
 10
842.8579214286525
 20
599.5163616796466
 30
0.0
 11
830.8579214286526
 21
599.5163616796466
 31
0.0
  0
LINE
  5
4EF
102
{ACAD_REACTORS
330
634
102
}
330
1F
100
AcDbEntity
  8
実線
100
AcDbLine
 10
842.8579214286525
 20
607.4163616796465
 30
0.0
 11
830.8579214286526
 21
607.4163616796465
 31
0.0
  0
LINE
  5
4F0
102
{ACAD_REACTORS
330
634
102
}
330
1F
100
AcDbEntity
  8
実線
100
AcDbLine
 10
830.8579214286526
 20
607.4163616796465
 30
0.0
 11
830.8579214286526
 21
599.5163616796466
 31
0.0
  0
LINE
  5
4F1
102
{ACAD_REACTORS
330
634
102
}
330
1F
100
AcDbEntity
  8
実線
100
AcDbLine
 10
830.8579214286526
 20
620.9663616796461
 30
0.0
 11
824.3579214286526
 21
620.9663616796461
 31
0.0
  0
LINE
  5
4F2
102
{ACAD_REACTORS
330
634
102
}
330
1F
100
AcDbEntity
  8
実線
100
AcDbLine
 10
824.3579214286526
 20
617.9663616796466
 30
0.0
 11
830.8579214286526
 21
617.9663616796466
 31
0.0
  0
LINE
  5
4F3
102
{ACAD_REACTORS
330
634
102
}
330
1F
100
AcDbEntity
  8
実線
100
AcDbLine
 10
824.3579214286526
 20
620.9663616796461
 30
0.0
 11
824.3579214286526
 21
617.9663616796466
 31
0.0
  0
LINE
  5
4F4
102
{ACAD_REACTORS
330
634
102
}
330
1F
100
AcDbEntity
  8
実線
100
AcDbLine
 10
825.8579214286525
 20
584.4663616796463
 30
0.0
 11
875.8579214286525
 21
584.4663616796463
 31
0.0
  0
LINE
  5
4F5
102
{ACAD_REACTORS
330
634
102
}
330
1F
100
AcDbEntity
  8
実線
100
AcDbLine
 10
875.8579214286525
 20
579.4663616796464
 30
0.0
 11
875.8579214286525
 21
584.4663616796463
 31
0.0
  0
LINE
  5
4F6
102
{ACAD_REACTORS
330
634
102
}
330
1F
100
AcDbEntity
  8
実線
100
AcDbLine
 10
825.8579214286525
 20
584.4663616796463
 30
0.0
 11
825.8579214286525
 21
579.4663616796464
 31
0.0
  0
LINE
  5
4F7
102
{ACAD_REACTORS
330
634
102
}
330
1F
100
AcDbEntity
  8
実線
100
AcDbLine
 10
893.2579214286526
 20
305.6405848351485
 30
0.0
 11
897.1452020929877
 21
311.1921969675655
 31
0.0
  0
LINE
  5
4F8
102
{ACAD_REACTORS
330
634
102
}
330
1F
100
AcDbEntity
  8
実線
100
AcDbLine
 10
804.5706407643177
 20
311.1921969675655
 30
0.0
 11
808.4579214286527
 21
305.6405848351482
 31
0.0
  0
ARC
  5
4F9
102
{ACAD_REACTORS
330
634
102
}
330
1F
100
AcDbEntity
  8
実線
100
AcDbCircle
 10
884.8579214286527
 20
319.7958435128312
 30
0.0
 40
15.0
100
AcDbArc
 50
325.0000000000027
 51
331.6211940769605
  0
ARC
  5
4FA
102
{ACAD_REACTORS
330
634
102
}
330
1F
100
AcDbEntity
  8
実線
100
AcDbCircle
 10
816.8579214286525
 20
319.7958435128312
 30
0.0
 40
15.0
100
AcDbArc
 50
208.3788059230395
 51
214.9999999999973
  0
LINE
  5
4FB
102
{ACAD_REACTORS
330
634
102
}
330
1F
100
AcDbEntity
  8
実線
100
AcDbLine
 10
907.3610870207087
 20
358.0663616796464
 30
0.0
 11
873.2361647157956
 21
358.0663616796464
 31
0.0
  0
LINE
  5
4FC
102
{ACAD_REACTORS
330
634
102
}
330
1F
100
AcDbEntity
  8
実線
100
AcDbLine
 10
907.3610870207087
 20
358.0663616796464
 30
0.0
 11
907.3610870207087
 21
373.0663616796462
 31
0.0
  0
LINE
  5
4FD
102
{ACAD_REACTORS
330
634
102
}
330
1F
100
AcDbEntity
  8
実線
100
AcDbLine
 10
794.3547558365967
 20
373.0663616796462
 30
0.0
 11
794.3547558365967
 21
358.0663616796464
 31
0.0
  0
LINE
  5
4FE
102
{ACAD_REACTORS
330
634
102
}
330
1F
100
AcDbEntity
  8
実線
100
AcDbLine
 10
794.3547558365967
 20
358.0663616796464
 30
0.0
 11
828.4796781415098
 21
358.0663616796464
 31
0.0
  0
LINE
  5
4FF
102
{ACAD_REACTORS
330
634
102
}
330
1F
100
AcDbEntity
  8
実線
100
AcDbLine
 10
828.4796781415098
 20
373.0663616796462
 30
0.0
 11
828.4796781415098
 21
358.0663616796464
 31
0.0
  0
LINE
  5
500
102
{ACAD_REACTORS
330
634
102
}
330
1F
100
AcDbEntity
  8
実線
100
AcDbLine
 10
873.2361647157956
 20
373.0663616796462
 30
0.0
 11
873.2361647157956
 21
358.0663616796464
 31
0.0
  0
LINE
  5
501
102
{ACAD_REACTORS
330
634
102
}
330
1F
100
AcDbEntity
  8
実線
100
AcDbLine
 10
808.4579214286527
 20
261.6663616796462
 30
0.0
 11
827.4579214286527
 21
261.6663616796462
 31
0.0
  0
LINE
  5
502
102
{ACAD_REACTORS
330
634
102
}
330
1F
100
AcDbEntity
  8
実線
100
AcDbLine
 10
827.4579214286527
 20
266.2388560960942
 30
0.0
 11
827.4579214286527
 21
261.6663616796462
 31
0.0
  0
LINE
  5
503
102
{ACAD_REACTORS
330
634
102
}
330
1F
100
AcDbEntity
  8
実線
100
AcDbLine
 10
808.4579214286527
 20
261.6663616796462
 30
0.0
 11
808.4579214286527
 21
312.1082843098829
 31
0.0
  0
LINE
  5
504
102
{ACAD_REACTORS
330
634
102
}
330
1F
100
AcDbEntity
  8
実線
100
AcDbLine
 10
913.3579214286525
 20
564.4663616796464
 30
0.0
 11
913.3579214286525
 21
565.9663616796462
 31
0.0
  0
LINE
  5
505
102
{ACAD_REACTORS
330
634
102
}
330
1F
100
AcDbEntity
  8
実線
100
AcDbLine
 10
788.3579214286517
 20
565.9663616796462
 30
0.0
 11
788.3579214286517
 21
564.4663616796464
 31
0.0
  0
LINE
  5
506
102
{ACAD_REACTORS
330
634
102
}
330
1F
100
AcDbEntity
  8
実線
100
AcDbLine
 10
791.3579214286526
 20
568.9663616796464
 30
0.0
 11
910.3579214285586
 21
568.9663616796464
 31
0.0
  0
ARC
  5
507
102
{ACAD_REACTORS
330
634
102
}
330
1F
100
AcDbEntity
  8
実線
100
AcDbCircle
 10
910.3579214286526
 20
565.9663616796462
 30
0.0
 40
3.0
100
AcDbArc
 50
0.0
 51
90.0
  0
ARC
  5
508
102
{ACAD_REACTORS
330
634
102
}
330
1F
100
AcDbEntity
  8
実線
100
AcDbCircle
 10
791.3579214286526
 20
565.9663616796462
 30
0.0
 40
3.0
100
AcDbArc
 50
90.0
 51
180.0
  0
LINE
  5
509
102
{ACAD_REACTORS
330
634
102
}
330
1F
100
AcDbEntity
  8
実線
100
AcDbLine
 10
874.2579214286527
 20
261.6663616796462
 30
0.0
 11
893.2579214286526
 21
261.6663616796462
 31
0.0
  0
LINE
  5
50A
102
{ACAD_REACTORS
330
634
102
}
330
1F
100
AcDbEntity
  8
実線
100
AcDbLine
 10
893.2579214286526
 20
312.1082843098829
 30
0.0
 11
893.2579214286526
 21
261.6663616796462
 31
0.0
  0
LINE
  5
50B
102
{ACAD_REACTORS
330
634
102
}
330
1F
100
AcDbEntity
  8
実線
100
AcDbLine
 10
874.2579214286527
 20
261.6663616796462
 30
0.0
 11
874.2579214286527
 21
266.2388560960942
 31
0.0
  0
LINE
  5
50C
102
{ACAD_REACTORS
330
634
102
}
330
1F
100
AcDbEntity
  8
実線
100
AcDbLine
 10
908.1579214286525
 20
472.4663616796461
 30
0.0
 11
908.1579214286525
 21
432.5663616796464
 31
0.0
  0
ARC
  5
50D
102
{ACAD_REACTORS
330
634
102
}
330
1F
100
AcDbEntity
  8
実線
100
AcDbCircle
 10
846.1579214286526
 20
432.5663616796464
 30
0.0
 40
47.99999999999999
100
AcDbArc
 50
286.5978421358639
 51
343.6651772193139
  0
ARC
  5
50E
102
{ACAD_REACTORS
330
634
102
}
330
1F
100
AcDbEntity
  8
実線
100
AcDbCircle
 10
848.1579214286526
 20
432.5663616796464
 30
0.0
 40
60.00000000000005
100
AcDbArc
 50
309.9445051898158
 51
0.0
  0
ARC
  5
50F
102
{ACAD_REACTORS
330
634
102
}
330
1F
100
AcDbEntity
  8
実線
100
AcDbCircle
 10
853.5579214286526
 20
432.5663616796464
 30
0.0
 40
60.00000000000005
100
AcDbArc
 50
180.0
 51
230.0554948101842
  0
ARC
  5
510
102
{ACAD_REACTORS
330
634
102
}
330
1F
100
AcDbEntity
  8
実線
100
AcDbCircle
 10
855.5579214286517
 20
432.5663616796464
 30
0.0
 40
47.99999999999999
100
AcDbArc
 50
196.3348227806861
 51
253.4021578641361
  0
LINE
  5
511
102
{ACAD_REACTORS
330
634
102
}
330
1F
100
AcDbEntity
  8
実線
100
AcDbLine
 10
793.5579214286526
 20
472.4663616796461
 30
0.0
 11
793.5579214286526
 21
432.5663616796464
 31
0.0
  0
LINE
  5
512
102
{ACAD_REACTORS
330
634
102
}
330
1F
100
AcDbEntity
  8
実線
100
AcDbLine
 10
802.7149053203951
 20
419.0663616796461
 30
0.0
 11
899.0009375369107
 21
419.0663616796461
 31
0.0
  0
LINE
  5
513
102
{ACAD_REACTORS
330
634
102
}
330
1F
100
AcDbEntity
  8
実線
100
AcDbLine
 10
802.7149053203951
 20
419.0663616796461
 30
0.0
 11
802.7149053203951
 21
472.4663616796461
 31
0.0
  0
LINE
  5
514
102
{ACAD_REACTORS
330
634
102
}
330
1F
100
AcDbEntity
  8
実線
100
AcDbLine
 10
899.0009375369107
 20
419.0663616796461
 30
0.0
 11
899.0009375369107
 21
472.4663616796461
 31
0.0
  0
CIRCLE
  5
515
102
{ACAD_REACTORS
330
634
102
}
330
1F
100
AcDbEntity
  8
実線
100
AcDbCircle
 10
850.8579214286516
 20
288.0663616796464
 30
0.0
 40
32.0
  0
LINE
  5
516
102
{ACAD_REACTORS
330
634
102
}
330
1F
100
AcDbEntity
  8
実線
100
AcDbLine
 10
835.8579214286526
 20
623.4163616796463
 30
0.0
 11
835.8579214286526
 21
624.4663616796466
 31
0.0
  0
LINE
  5
517
102
{ACAD_REACTORS
330
634
102
}
330
1F
100
AcDbEntity
  8
実線
100
AcDbLine
 10
835.8579214286526
 20
607.4163616796465
 30
0.0
 11
835.8579214286526
 21
615.5163616796466
 31
0.0
  0
LINE
  5
518
102
{ACAD_REACTORS
330
634
102
}
330
1F
100
AcDbEntity
  8
実線
100
AcDbLine
 10
835.8579214286526
 20
586.466361679599
 30
0.0
 11
835.8579214286526
 21
599.5163616796466
 31
0.0
  0
LINE
  5
519
102
{ACAD_REACTORS
330
634
102
}
330
1F
100
AcDbEntity
  8
実線
100
AcDbLine
 10
843.3579214286526
 20
624.4663616796466
 30
0.0
 11
835.8579214286526
 21
624.4663616796466
 31
0.0
  0
LINE
  5
51A
102
{ACAD_REACTORS
330
634
102
}
330
1F
100
AcDbEntity
  8
実線
100
AcDbLine
 10
875.8579214286525
 20
584.4663616796463
 30
0.0
 11
875.8579214286525
 21
586.4663616796462
 31
0.0
  0
LINE
  5
51B
102
{ACAD_REACTORS
330
634
102
}
330
1F
100
AcDbEntity
  8
実線
100
AcDbLine
 10
825.8579214286525
 20
586.4663616796462
 30
0.0
 11
825.8579214286525
 21
584.4663616796463
 31
0.0
  0
LINE
  5
51C
102
{ACAD_REACTORS
330
634
102
}
330
1F
100
AcDbEntity
  8
実線
100
AcDbLine
 10
875.8579214286525
 20
586.4663616796462
 30
0.0
 11
825.8579214286525
 21
586.4663616796462
 31
0.0
  0
LINE
  5
51D
102
{ACAD_REACTORS
330
635
102
}
330
1F
100
AcDbEntity
  8
実線
100
AcDbLine
 10
618.8579214286525
 20
586.4663616796462
 30
0.0
 11
618.8579214286525
 21
616.9663616796466
 31
0.0
  0
LINE
  5
51E
102
{ACAD_REACTORS
330
635
102
}
330
1F
100
AcDbEntity
  8
実線
100
AcDbLine
 10
602.8579214286525
 20
616.9663616796466
 30
0.0
 11
602.8579214286525
 21
586.4663616796462
 31
0.0
  0
LINE
  5
51F
102
{ACAD_REACTORS
330
635
102
}
330
1F
100
AcDbEntity
  8
実線
100
AcDbLine
 10
656.8579214286524
 20
579.4663616796464
 30
0.0
 11
564.8579214286525
 21
579.4663616796464
 31
0.0
  0
LINE
  5
520
102
{ACAD_REACTORS
330
635
102
}
330
1F
100
AcDbEntity
  8
実線
100
AcDbLine
 10
656.8579214286524
 20
568.9663616796464
 30
0.0
 11
656.8579214286524
 21
579.4663616796464
 31
0.0
  0
LINE
  5
521
102
{ACAD_REACTORS
330
635
102
}
330
1F
100
AcDbEntity
  8
実線
100
AcDbLine
 10
564.8579214286525
 20
579.4663616796464
 30
0.0
 11
564.8579214286525
 21
568.9663616796464
 31
0.0
  0
LINE
  5
522
102
{ACAD_REACTORS
330
635
102
}
330
1F
100
AcDbEntity
  8
実線
100
AcDbLine
 10
673.3579214286524
 20
564.4663616796464
 30
0.0
 11
548.3579214286525
 21
564.4663616796464
 31
0.0
  0
LINE
  5
523
102
{ACAD_REACTORS
330
635
102
}
330
1F
100
AcDbEntity
  8
実線
100
AcDbLine
 10
548.3579214286525
 20
472.4663616796461
 30
0.0
 11
673.3579214286524
 21
472.4663616796461
 31
0.0
  0
LINE
  5
524
102
{ACAD_REACTORS
330
635
102
}
330
1F
100
AcDbEntity
  8
実線
100
AcDbLine
 10
673.3579214286524
 20
472.4663616796461
 30
0.0
 11
673.3579214286524
 21
564.4663616796464
 31
0.0
  0
LINE
  5
525
102
{ACAD_REACTORS
330
635
102
}
330
1F
100
AcDbEntity
  8
実線
100
AcDbLine
 10
548.3579214286525
 20
564.4663616796464
 30
0.0
 11
548.3579214286525
 21
472.4663616796461
 31
0.0
  0
CIRCLE
  5
526
102
{ACAD_REACTORS
330
635
102
}
330
1F
100
AcDbEntity
  8
実線
100
AcDbCircle
 10
610.8579214286536
 20
338.0663616796464
 30
0.0
 40
32.0
  0
LINE
  5
527
102
{ACAD_REACTORS
330
635
102
}
330
1F
100
AcDbEntity
  8
実線
100
AcDbLine
 10
667.3610870207085
 20
386.5663616796465
 30
0.0
 11
554.3547558365977
 21
386.5663616796465
 31
0.0
  0
LINE
  5
528
102
{ACAD_REACTORS
330
635
102
}
330
1F
100
AcDbEntity
  8
実線
100
AcDbLine
 10
667.3610870207085
 20
373.0663616796462
 30
0.0
 11
554.3547558365977
 21
373.0663616796462
 31
0.0
  0
LINE
  5
529
102
{ACAD_REACTORS
330
635
102
}
330
1F
100
AcDbEntity
  8
実線
100
AcDbLine
 10
554.3547558365977
 20
386.5663616796465
 30
0.0
 11
554.3547558365977
 21
373.0663616796462
 31
0.0
  0
LINE
  5
52A
102
{ACAD_REACTORS
330
635
102
}
330
1F
100
AcDbEntity
  8
実線
100
AcDbLine
 10
667.3610870207085
 20
373.0663616796462
 30
0.0
 11
667.3610870207085
 21
386.5663616796465
 31
0.0
  0
LINE
  5
52B
102
{ACAD_REACTORS
330
635
102
}
330
1F
100
AcDbEntity
  8
実線
100
AcDbLine
 10
633.2361647157965
 20
386.5663616796465
 30
0.0
 11
633.2361647157965
 21
373.0663616796462
 31
0.0
  0
LINE
  5
52C
102
{ACAD_REACTORS
330
635
102
}
330
1F
100
AcDbEntity
  8
実線
100
AcDbLine
 10
588.4796781415096
 20
386.5663616796465
 30
0.0
 11
588.4796781415096
 21
373.0663616796462
 31
0.0
  0
LINE
  5
52D
102
{ACAD_REACTORS
330
635
102
}
330
1F
100
AcDbEntity
  8
実線
100
AcDbLine
 10
618.3579214286525
 20
627.2663616796466
 30
0.0
 11
603.3579214286524
 21
627.2663616796466
 31
0.0
  0
LINE
  5
52E
102
{ACAD_REACTORS
330
635
102
}
330
1F
100
AcDbEntity
  8
実線
100
AcDbLine
 10
618.3579214286525
 20
621.9663616796463
 30
0.0
 11
618.3579214286525
 21
627.2663616796466
 31
0.0
  0
LINE
  5
52F
102
{ACAD_REACTORS
330
635
102
}
330
1F
100
AcDbEntity
  8
実線
100
AcDbLine
 10
603.3579214286524
 20
627.2663616796466
 30
0.0
 11
603.3579214286524
 21
621.9663616796463
 31
0.0
  0
LINE
  5
530
102
{ACAD_REACTORS
330
635
102
}
330
1F
100
AcDbEntity
  8
実線
100
AcDbLine
 10
623.3579214286525
 20
621.9663616796463
 30
0.0
 11
598.3579214286525
 21
621.9663616796463
 31
0.0
  0
LINE
  5
531
102
{ACAD_REACTORS
330
635
102
}
330
1F
100
AcDbEntity
  8
実線
100
AcDbLine
 10
598.3579214286525
 20
616.9663616796466
 30
0.0
 11
623.3579214286525
 21
616.9663616796466
 31
0.0
  0
LINE
  5
532
102
{ACAD_REACTORS
330
635
102
}
330
1F
100
AcDbEntity
  8
実線
100
AcDbLine
 10
623.3579214286525
 20
616.9663616796466
 30
0.0
 11
623.3579214286525
 21
621.9663616796463
 31
0.0
  0
LINE
  5
533
102
{ACAD_REACTORS
330
635
102
}
330
1F
100
AcDbEntity
  8
実線
100
AcDbLine
 10
598.3579214286525
 20
621.9663616796463
 30
0.0
 11
598.3579214286525
 21
616.9663616796466
 31
0.0
  0
LINE
  5
534
102
{ACAD_REACTORS
330
635
102
}
330
1F
100
AcDbEntity
  8
実線
100
AcDbLine
 10
597.7579214286525
 20
615.5163616796466
 30
0.0
 11
589.8579214286525
 21
615.5163616796466
 31
0.0
  0
LINE
  5
535
102
{ACAD_REACTORS
330
635
102
}
330
1F
100
AcDbEntity
  8
実線
100
AcDbLine
 10
589.8579214286525
 20
623.4163616796463
 30
0.0
 11
597.7579214286525
 21
623.4163616796463
 31
0.0
  0
LINE
  5
536
102
{ACAD_REACTORS
330
635
102
}
330
1F
100
AcDbEntity
  8
実線
100
AcDbLine
 10
597.7579214286525
 20
623.4163616796463
 30
0.0
 11
597.7579214286525
 21
615.5163616796466
 31
0.0
  0
LINE
  5
537
102
{ACAD_REACTORS
330
635
102
}
330
1F
100
AcDbEntity
  8
実線
100
AcDbLine
 10
589.8579214286525
 20
615.5163616796466
 30
0.0
 11
589.8579214286525
 21
623.4163616796466
 31
0.0
  0
CIRCLE
  5
538
102
{ACAD_REACTORS
330
635
102
}
330
1F
100
AcDbEntity
  8
実線
100
AcDbCircle
 10
593.8079214286525
 20
603.4663616796462
 30
0.0
 40
1.5
  0
LINE
  5
539
102
{ACAD_REACTORS
330
635
102
}
330
1F
100
AcDbEntity
  8
実線
100
AcDbLine
 10
597.7579214286525
 20
599.5163616796466
 30
0.0
 11
589.8579214286525
 21
599.5163616796466
 31
0.0
  0
LINE
  5
53A
102
{ACAD_REACTORS
330
635
102
}
330
1F
100
AcDbEntity
  8
実線
100
AcDbLine
 10
597.7579214286525
 20
607.4163616796465
 30
0.0
 11
597.7579214286525
 21
599.5163616796466
 31
0.0
  0
LINE
  5
53B
102
{ACAD_REACTORS
330
635
102
}
330
1F
100
AcDbEntity
  8
実線
100
AcDbLine
 10
589.8579214286525
 20
607.4163616796465
 30
0.0
 11
597.7579214286525
 21
607.4163616796465
 31
0.0
  0
LINE
  5
53C
102
{ACAD_REACTORS
330
635
102
}
330
1F
100
AcDbEntity
  8
実線
100
AcDbLine
 10
589.8579214286525
 20
599.5163616796466
 30
0.0
 11
589.8579214286525
 21
607.4163616796465
 31
0.0
  0
CIRCLE
  5
53D
102
{ACAD_REACTORS
330
635
102
}
330
1F
100
AcDbEntity
  8
実線
100
AcDbCircle
 10
593.8079214286525
 20
619.4663616796463
 30
0.0
 40
1.5
  0
LINE
  5
53E
102
{ACAD_REACTORS
330
635
102
}
330
1F
100
AcDbEntity
  8
実線
100
AcDbLine
 10
587.8579214286524
 20
584.4663616796463
 30
0.0
 11
585.8579214286525
 21
584.4663616796463
 31
0.0
  0
LINE
  5
53F
102
{ACAD_REACTORS
330
635
102
}
330
1F
100
AcDbEntity
  8
実線
100
AcDbLine
 10
635.8579214286525
 20
579.4663616796464
 30
0.0
 11
635.8579214286525
 21
584.4663616796463
 31
0.0
  0
LINE
  5
540
102
{ACAD_REACTORS
330
635
102
}
330
1F
100
AcDbEntity
  8
実線
100
AcDbLine
 10
585.8579214286525
 20
584.4663616796463
 30
0.0
 11
585.8579214286525
 21
579.4663616796464
 31
0.0
  0
LINE
  5
541
102
{ACAD_REACTORS
330
635
102
}
330
1F
100
AcDbEntity
  8
実線
100
AcDbLine
 10
561.8579214286536
 20
358.0663616796464
 30
0.0
 11
561.8579214286536
 21
319.7958435128312
 31
0.0
  0
LINE
  5
542
102
{ACAD_REACTORS
330
635
102
}
330
1F
100
AcDbEntity
  8
実線
100
AcDbLine
 10
659.8579214286537
 20
319.7958435128312
 30
0.0
 11
659.8579214286537
 21
358.0663616796464
 31
0.0
  0
ARC
  5
543
102
{ACAD_REACTORS
330
635
102
}
330
1F
100
AcDbEntity
  8
実線
100
AcDbCircle
 10
644.8579214286537
 20
319.7958435128312
 30
0.0
 40
15.0
100
AcDbArc
 50
335.0412627633446
 51
0.0
  0
ARC
  5
544
102
{ACAD_REACTORS
330
635
102
}
330
1F
100
AcDbEntity
  8
実線
100
AcDbCircle
 10
576.8579214286536
 20
319.7958435128312
 30
0.0
 40
15.0
100
AcDbArc
 50
180.0
 51
204.9587372366555
  0
LINE
  5
545
102
{ACAD_REACTORS
330
635
102
}
330
1F
100
AcDbEntity
  8
実線
100
AcDbLine
 10
554.3547558365977
 20
373.0663616796462
 30
0.0
 11
554.3547558365977
 21
358.0663616796464
 31
0.0
  0
LINE
  5
546
102
{ACAD_REACTORS
330
635
102
}
330
1F
100
AcDbEntity
  8
実線
100
AcDbLine
 10
554.3547558365977
 20
358.0663616796464
 30
0.0
 11
585.8779294350596
 21
358.0663616796464
 31
0.0
  0
LINE
  5
547
102
{ACAD_REACTORS
330
635
102
}
330
1F
100
AcDbEntity
  8
実線
100
AcDbLine
 10
667.3610870207085
 20
358.0663616796464
 30
0.0
 11
635.8379134222465
 21
358.0663616796464
 31
0.0
  0
LINE
  5
548
102
{ACAD_REACTORS
330
635
102
}
330
1F
100
AcDbEntity
  8
実線
100
AcDbLine
 10
667.3610870207085
 20
358.0663616796464
 30
0.0
 11
667.3610870207085
 21
373.0663616796462
 31
0.0
  0
LINE
  5
549
102
{ACAD_REACTORS
330
635
102
}
330
1F
100
AcDbEntity
  8
実線
100
AcDbLine
 10
633.2361647157965
 20
373.0663616796462
 30
0.0
 11
633.2361647157965
 21
360.940238206843
 31
0.0
  0
LINE
  5
54A
102
{ACAD_REACTORS
330
635
102
}
330
1F
100
AcDbEntity
  8
実線
100
AcDbLine
 10
588.4796781415096
 20
373.0663616796462
 30
0.0
 11
588.4796781415096
 21
360.940238206843
 31
0.0
  0
LINE
  5
54B
102
{ACAD_REACTORS
330
635
102
}
330
1F
100
AcDbEntity
  8
実線
100
AcDbLine
 10
585.8579214286536
 20
261.6663616796462
 30
0.0
 11
635.8579214286536
 21
261.6663616796462
 31
0.0
  0
LINE
  5
54C
102
{ACAD_REACTORS
330
635
102
}
330
1F
100
AcDbEntity
  8
実線
100
AcDbLine
 10
585.8579214286536
 20
261.6663616796462
 30
0.0
 11
585.8579214286536
 21
309.3340899336482
 31
0.0
  0
LINE
  5
54D
102
{ACAD_REACTORS
330
635
102
}
330
1F
100
AcDbEntity
  8
実線
100
AcDbLine
 10
635.8579214286536
 20
309.3340899336482
 30
0.0
 11
635.8579214286536
 21
261.6663616796462
 31
0.0
  0
LINE
  5
54E
102
{ACAD_REACTORS
330
635
102
}
330
1F
100
AcDbEntity
  8
実線
100
AcDbLine
 10
670.3579214286524
 20
568.9663616796464
 30
0.0
 11
551.3579214286525
 21
568.9663616796464
 31
0.0
  0
ARC
  5
54F
102
{ACAD_REACTORS
330
635
102
}
330
1F
100
AcDbEntity
  8
実線
100
AcDbCircle
 10
670.3579214286524
 20
565.9663616796462
 30
0.0
 40
3.0
100
AcDbArc
 50
0.0
 51
90.0
  0
ARC
  5
550
102
{ACAD_REACTORS
330
635
102
}
330
1F
100
AcDbEntity
  8
実線
100
AcDbCircle
 10
551.3579214286525
 20
565.9663616796462
 30
0.0
 40
3.0
100
AcDbArc
 50
90.0
 51
180.0
  0
LINE
  5
551
102
{ACAD_REACTORS
330
635
102
}
330
1F
100
AcDbEntity
  8
実線
100
AcDbLine
 10
673.3579214286524
 20
564.4663616796464
 30
0.0
 11
673.3579214286524
 21
565.9663616796462
 31
0.0
  0
LINE
  5
552
102
{ACAD_REACTORS
330
635
102
}
330
1F
100
AcDbEntity
  8
実線
100
AcDbLine
 10
548.3579214286525
 20
565.9663616796462
 30
0.0
 11
548.3579214286525
 21
564.4663616796464
 31
0.0
  0
LINE
  5
553
102
{ACAD_REACTORS
330
635
102
}
330
1F
100
AcDbEntity
  8
実線
100
AcDbLine
 10
560.8579214286525
 20
472.4663616796461
 30
0.0
 11
560.8579214286525
 21
419.0663616796461
 31
0.0
  0
LINE
  5
554
102
{ACAD_REACTORS
330
635
102
}
330
1F
100
AcDbEntity
  8
実線
100
AcDbLine
 10
597.3579214286525
 20
419.0663616796461
 30
0.0
 11
560.8579214286525
 21
419.0663616796461
 31
0.0
  0
LINE
  5
555
102
{ACAD_REACTORS
330
635
102
}
330
1F
100
AcDbEntity
  8
実線
100
AcDbLine
 10
624.3579214286524
 20
419.0663616796461
 30
0.0
 11
660.8579214286524
 21
419.0663616796461
 31
0.0
  0
LINE
  5
556
102
{ACAD_REACTORS
330
635
102
}
330
1F
100
AcDbEntity
  8
実線
100
AcDbLine
 10
660.8579214286524
 20
419.0663616796461
 30
0.0
 11
660.8579214286524
 21
472.4663616796461
 31
0.0
  0
LINE
  5
557
102
{ACAD_REACTORS
330
635
102
}
330
1F
100
AcDbEntity
  8
実線
100
AcDbLine
 10
597.3579214286525
 20
386.5663616796465
 30
0.0
 11
597.3579214286525
 21
472.4663616796461
 31
0.0
  0
LINE
  5
558
102
{ACAD_REACTORS
330
635
102
}
330
1F
100
AcDbEntity
  8
実線
100
AcDbLine
 10
624.3579214286524
 20
386.5663616796465
 30
0.0
 11
624.3579214286524
 21
472.4663616796461
 31
0.0
  0
LINE
  5
559
102
{ACAD_REACTORS
330
635
102
}
330
1F
100
AcDbEntity
  8
実線
100
AcDbLine
 10
635.8579214286536
 20
262.6663616796465
 30
0.0
 11
687.5579214286536
 21
262.6663616796465
 31
0.0
  0
LINE
  5
55A
102
{ACAD_REACTORS
330
635
102
}
330
1F
100
AcDbEntity
  8
実線
100
AcDbLine
 10
534.1579214286536
 20
262.6663616796465
 30
0.0
 11
585.8579214286536
 21
262.6663616796465
 31
0.0
  0
LINE
  5
55B
102
{ACAD_REACTORS
330
635
102
}
330
1F
100
AcDbEntity
  8
実線
100
AcDbLine
 10
563.2587427871546
 20
313.4663616796462
 30
0.0
 11
534.1579214286536
 21
313.4663616796462
 31
0.0
  0
LINE
  5
55C
102
{ACAD_REACTORS
330
635
102
}
330
1F
100
AcDbEntity
  8
実線
100
AcDbLine
 10
687.5579214286536
 20
313.4663616796462
 30
0.0
 11
658.4571000701516
 21
313.4663616796462
 31
0.0
  0
LINE
  5
55D
102
{ACAD_REACTORS
330
635
102
}
330
1F
100
AcDbEntity
  8
実線
100
AcDbLine
 10
528.8579214286536
 20
320.0663616796465
 30
0.0
 11
528.8579214286536
 21
256.0663616796462
 31
0.0
  0
LINE
  5
55E
102
{ACAD_REACTORS
330
635
102
}
330
1F
100
AcDbEntity
  8
実線
100
AcDbLine
 10
528.8579214286536
 20
256.0663616796462
 30
0.0
 11
531.7579214286537
 21
256.0663616796462
 31
0.0
  0
LINE
  5
55F
102
{ACAD_REACTORS
330
635
102
}
330
1F
100
AcDbEntity
  8
実線
100
AcDbLine
 10
531.7579214286537
 20
320.0663616796465
 30
0.0
 11
528.8579214286536
 21
320.0663616796465
 31
0.0
  0
LINE
  5
560
102
{ACAD_REACTORS
330
635
102
}
330
1F
100
AcDbEntity
  8
実線
100
AcDbLine
 10
687.5579214286536
 20
262.6663616796465
 30
0.0
 11
689.9579214286537
 21
256.0663616796462
 31
0.0
  0
LINE
  5
561
102
{ACAD_REACTORS
330
635
102
}
330
1F
100
AcDbEntity
  8
実線
100
AcDbLine
 10
689.9579214286537
 20
320.0663616796465
 30
0.0
 11
687.5579214286536
 21
313.4663616796462
 31
0.0
  0
LINE
  5
562
102
{ACAD_REACTORS
330
635
102
}
330
1F
100
AcDbEntity
  8
実線
100
AcDbLine
 10
687.5579214286536
 20
262.6663616796465
 30
0.0
 11
687.5579214286536
 21
313.4663616796462
 31
0.0
  0
LINE
  5
563
102
{ACAD_REACTORS
330
635
102
}
330
1F
100
AcDbEntity
  8
実線
100
AcDbLine
 10
692.8579214286537
 20
320.0663616796465
 30
0.0
 11
689.9579214286537
 21
320.0663616796465
 31
0.0
  0
LINE
  5
564
102
{ACAD_REACTORS
330
635
102
}
330
1F
100
AcDbEntity
  8
実線
100
AcDbLine
 10
689.9579214286537
 20
256.0663616796462
 30
0.0
 11
692.8579214286537
 21
256.0663616796462
 31
0.0
  0
LINE
  5
565
102
{ACAD_REACTORS
330
635
102
}
330
1F
100
AcDbEntity
  8
実線
100
AcDbLine
 10
692.8579214286537
 20
256.0663616796462
 30
0.0
 11
692.8579214286537
 21
320.0663616796465
 31
0.0
  0
LINE
  5
566
102
{ACAD_REACTORS
330
635
102
}
330
1F
100
AcDbEntity
  8
実線
100
AcDbLine
 10
689.9579214286537
 20
256.0663616796462
 30
0.0
 11
689.9579214286537
 21
320.0663616796465
 31
0.0
  0
LINE
  5
567
102
{ACAD_REACTORS
330
635
102
}
330
1F
100
AcDbEntity
  8
実線
100
AcDbLine
 10
531.7579214286537
 20
320.0663616796465
 30
0.0
 11
531.7579214286537
 21
256.0663616796462
 31
0.0
  0
LINE
  5
568
102
{ACAD_REACTORS
330
635
102
}
330
1F
100
AcDbEntity
  8
実線
100
AcDbLine
 10
534.1579214286536
 20
313.4663616796462
 30
0.0
 11
534.1579214286536
 21
262.6663616796465
 31
0.0
  0
LINE
  5
569
102
{ACAD_REACTORS
330
635
102
}
330
1F
100
AcDbEntity
  8
実線
100
AcDbLine
 10
534.1579214286536
 20
313.4663616796462
 30
0.0
 11
531.7579214286537
 21
320.0663616796465
 31
0.0
  0
LINE
  5
56A
102
{ACAD_REACTORS
330
635
102
}
330
1F
100
AcDbEntity
  8
実線
100
AcDbLine
 10
531.7579214286537
 20
256.0663616796462
 30
0.0
 11
534.1579214286536
 21
262.6663616796465
 31
0.0
  0
LINE
  5
56B
102
{ACAD_REACTORS
330
635
102
}
330
1F
100
AcDbEntity
  8
実線
100
AcDbLine
 10
587.8579214286524
 20
584.4663616796463
 30
0.0
 11
635.8579214286525
 21
584.4663616796463
 31
0.0
  0
LINE
  5
56C
102
{ACAD_REACTORS
330
635
102
}
330
1F
100
AcDbEntity
  8
実線
100
AcDbLine
 10
589.8579214286525
 20
586.466361679599
 30
0.0
 11
635.8579214286525
 21
586.466361679599
 31
0.0
  0
LINE
  5
56D
102
{ACAD_REACTORS
330
635
102
}
330
1F
100
AcDbEntity
  8
実線
100
AcDbLine
 10
589.8579214286525
 20
623.4163616796463
 30
0.0
 11
589.8579214286525
 21
624.4663616796466
 31
0.0
  0
LINE
  5
56E
102
{ACAD_REACTORS
330
635
102
}
330
1F
100
AcDbEntity
  8
実線
100
AcDbLine
 10
589.8579214286525
 20
607.4163616796465
 30
0.0
 11
589.8579214286525
 21
615.5163616796466
 31
0.0
  0
LINE
  5
56F
102
{ACAD_REACTORS
330
635
102
}
330
1F
100
AcDbEntity
  8
実線
100
AcDbLine
 10
589.8579214286525
 20
586.466361679599
 30
0.0
 11
589.8579214286525
 21
599.5163616796466
 31
0.0
  0
LINE
  5
570
102
{ACAD_REACTORS
330
635
102
}
330
1F
100
AcDbEntity
  8
実線
100
AcDbLine
 10
589.8579214286525
 20
624.4663616796466
 30
0.0
 11
587.8579214286524
 21
624.4663616796466
 31
0.0
  0
LINE
  5
571
102
{ACAD_REACTORS
330
635
102
}
330
1F
100
AcDbEntity
  8
実線
100
AcDbLine
 10
587.8579214286524
 20
584.4663616796463
 30
0.0
 11
587.8579214286524
 21
624.4663616796466
 31
0.0
  0
LINE
  5
572
102
{ACAD_REACTORS
330
635
102
}
330
1F
100
AcDbEntity
  8
実線
100
AcDbLine
 10
590.8579214286715
 20
584.4663616796463
 30
0.0
 11
590.8579214286715
 21
586.466361679599
 31
0.0
  0
LINE
  5
573
102
{ACAD_REACTORS
330
635
102
}
330
1F
100
AcDbEntity
  8
実線
100
AcDbLine
 10
635.8579214286525
 20
584.4663616796463
 30
0.0
 11
635.8579214286525
 21
586.4663616796462
 31
0.0
  0
LINE
  5
574
102
{ACAD_REACTORS
330
637
102
}
330
1F
100
AcDbEntity
  8
実線
100
AcDbLine
 10
138.8579214286527
 20
586.4663616796462
 30
0.0
 11
138.8579214286527
 21
616.9663616796466
 31
0.0
  0
LINE
  5
575
102
{ACAD_REACTORS
330
637
102
}
330
1F
100
AcDbEntity
  8
実線
100
AcDbLine
 10
122.8579214286527
 20
616.9663616796466
 30
0.0
 11
122.8579214286527
 21
586.4663616796462
 31
0.0
  0
LINE
  5
576
102
{ACAD_REACTORS
330
637
102
}
330
1F
100
AcDbEntity
  8
実線
100
AcDbLine
 10
176.8579214286527
 20
568.9663616796464
 30
0.0
 11
176.8579214286527
 21
579.4663616796464
 31
0.0
  0
LINE
  5
577
102
{ACAD_REACTORS
330
637
102
}
330
1F
100
AcDbEntity
  8
実線
100
AcDbLine
 10
84.85792142865278
 20
579.4663616796464
 30
0.0
 11
84.85792142865278
 21
568.9663616796464
 31
0.0
  0
LINE
  5
578
102
{ACAD_REACTORS
330
637
102
}
330
1F
100
AcDbEntity
  8
実線
100
AcDbLine
 10
176.8579214286527
 20
579.4663616796464
 30
0.0
 11
84.85792142865278
 21
579.4663616796464
 31
0.0
  0
LINE
  5
579
102
{ACAD_REACTORS
330
637
102
}
330
1F
100
AcDbEntity
  8
実線
100
AcDbLine
 10
193.3579214286527
 20
472.4663616796461
 30
0.0
 11
193.3579214286527
 21
564.4663616796464
 31
0.0
  0
LINE
  5
57A
102
{ACAD_REACTORS
330
637
102
}
330
1F
100
AcDbEntity
  8
実線
100
AcDbLine
 10
68.35792142865273
 20
564.4663616796464
 30
0.0
 11
68.35792142865273
 21
472.4663616796461
 31
0.0
  0
LINE
  5
57B
102
{ACAD_REACTORS
330
637
102
}
330
1F
100
AcDbEntity
  8
実線
100
AcDbLine
 10
193.3579214286527
 20
564.4663616796464
 30
0.0
 11
68.35792142865273
 21
564.4663616796464
 31
0.0
  0
LINE
  5
57C
102
{ACAD_REACTORS
330
637
102
}
330
1F
100
AcDbEntity
  8
実線
100
AcDbLine
 10
193.3579214286527
 20
472.4663616796461
 30
0.0
 11
68.35792142865273
 21
472.4663616796461
 31
0.0
  0
CIRCLE
  5
57D
102
{ACAD_REACTORS
330
637
102
}
330
1F
100
AcDbEntity
  8
実線
100
AcDbCircle
 10
130.8579214286525
 20
338.0663616796464
 30
0.0
 40
32.0
  0
LINE
  5
57E
102
{ACAD_REACTORS
330
637
102
}
330
1F
100
AcDbEntity
  8
実線
100
AcDbLine
 10
187.3610870207084
 20
386.5663616796465
 30
0.0
 11
74.35475583659678
 21
386.5663616796465
 31
0.0
  0
LINE
  5
57F
102
{ACAD_REACTORS
330
637
102
}
330
1F
100
AcDbEntity
  8
実線
100
AcDbLine
 10
74.35475583659678
 20
386.5663616796465
 30
0.0
 11
74.35475583659678
 21
373.0663616796462
 31
0.0
  0
LINE
  5
580
102
{ACAD_REACTORS
330
637
102
}
330
1F
100
AcDbEntity
  8
実線
100
AcDbLine
 10
187.3610870207084
 20
373.0663616796462
 30
0.0
 11
187.3610870207084
 21
386.5663616796465
 31
0.0
  0
LINE
  5
581
102
{ACAD_REACTORS
330
637
102
}
330
1F
100
AcDbEntity
  8
実線
100
AcDbLine
 10
108.4796781415096
 20
386.5663616796465
 30
0.0
 11
108.4796781415096
 21
373.0663616796462
 31
0.0
  0
LINE
  5
582
102
{ACAD_REACTORS
330
637
102
}
330
1F
100
AcDbEntity
  8
実線
100
AcDbLine
 10
153.2361647157956
 20
386.5663616796465
 30
0.0
 11
153.2361647157956
 21
373.0663616796462
 31
0.0
  0
LINE
  5
583
102
{ACAD_REACTORS
330
637
102
}
330
1F
100
AcDbEntity
  8
実線
100
AcDbLine
 10
138.3579214286527
 20
621.9663616796463
 30
0.0
 11
138.3579214286527
 21
627.2663616796466
 31
0.0
  0
LINE
  5
584
102
{ACAD_REACTORS
330
637
102
}
330
1F
100
AcDbEntity
  8
実線
100
AcDbLine
 10
123.3579214286525
 20
627.2663616796466
 30
0.0
 11
123.3579214286525
 21
621.9663616796463
 31
0.0
  0
LINE
  5
585
102
{ACAD_REACTORS
330
637
102
}
330
1F
100
AcDbEntity
  8
実線
100
AcDbLine
 10
138.3579214286527
 20
627.2663616796466
 30
0.0
 11
123.3579214286525
 21
627.2663616796466
 31
0.0
  0
LINE
  5
586
102
{ACAD_REACTORS
330
637
102
}
330
1F
100
AcDbEntity
  8
実線
100
AcDbLine
 10
143.3579214286527
 20
616.9663616796466
 30
0.0
 11
143.3579214286527
 21
621.9663616796463
 31
0.0
  0
LINE
  5
587
102
{ACAD_REACTORS
330
637
102
}
330
1F
100
AcDbEntity
  8
実線
100
AcDbLine
 10
118.3579214286527
 20
621.9663616796463
 30
0.0
 11
118.3579214286527
 21
616.9663616796466
 31
0.0
  0
LINE
  5
588
102
{ACAD_REACTORS
330
637
102
}
330
1F
100
AcDbEntity
  8
実線
100
AcDbLine
 10
143.3579214286527
 20
621.9663616796463
 30
0.0
 11
118.3579214286527
 21
621.9663616796463
 31
0.0
  0
LINE
  5
589
102
{ACAD_REACTORS
330
637
102
}
330
1F
100
AcDbEntity
  8
実線
100
AcDbLine
 10
118.3579214286527
 20
616.9663616796466
 30
0.0
 11
143.3579214286527
 21
616.9663616796466
 31
0.0
  0
LINE
  5
58A
102
{ACAD_REACTORS
330
637
102
}
330
1F
100
AcDbEntity
  8
実線
100
AcDbLine
 10
143.9579214286525
 20
615.5163616796466
 30
0.0
 11
143.9579214286525
 21
623.4163616796466
 31
0.0
  0
LINE
  5
58B
102
{ACAD_REACTORS
330
637
102
}
330
1F
100
AcDbEntity
  8
実線
100
AcDbLine
 10
143.9579214286525
 20
623.4163616796463
 30
0.0
 11
151.8579214286527
 21
623.4163616796463
 31
0.0
  0
LINE
  5
58C
102
{ACAD_REACTORS
330
637
102
}
330
1F
100
AcDbEntity
  8
実線
100
AcDbLine
 10
151.8579214286527
 20
615.5163616796466
 30
0.0
 11
143.9579214286525
 21
615.5163616796466
 31
0.0
  0
LINE
  5
58D
102
{ACAD_REACTORS
330
637
102
}
330
1F
100
AcDbEntity
  8
実線
100
AcDbLine
 10
143.9579214286525
 20
607.4163616796465
 30
0.0
 11
151.8579214286527
 21
607.4163616796465
 31
0.0
  0
LINE
  5
58E
102
{ACAD_REACTORS
330
637
102
}
330
1F
100
AcDbEntity
  8
実線
100
AcDbLine
 10
143.9579214286525
 20
599.5163616796466
 30
0.0
 11
143.9579214286525
 21
607.4163616796465
 31
0.0
  0
LINE
  5
58F
102
{ACAD_REACTORS
330
637
102
}
330
1F
100
AcDbEntity
  8
実線
100
AcDbLine
 10
151.8579214286527
 20
599.5163616796466
 30
0.0
 11
143.9579214286525
 21
599.5163616796466
 31
0.0
  0
LINE
  5
590
102
{ACAD_REACTORS
330
637
102
}
330
1F
100
AcDbEntity
  8
実線
100
AcDbLine
 10
155.8579214286527
 20
579.4663616796464
 30
0.0
 11
155.8579214286527
 21
584.4663616796463
 31
0.0
  0
LINE
  5
591
102
{ACAD_REACTORS
330
637
102
}
330
1F
100
AcDbEntity
  8
実線
100
AcDbLine
 10
105.8579214286527
 20
584.4663616796463
 30
0.0
 11
105.8579214286527
 21
579.4663616796464
 31
0.0
  0
LINE
  5
592
102
{ACAD_REACTORS
330
637
102
}
330
1F
100
AcDbEntity
  8
実線
100
AcDbLine
 10
105.8579214286527
 20
584.4663616796463
 30
0.0
 11
155.8579214286527
 21
584.4663616796463
 31
0.0
  0
ARC
  5
593
102
{ACAD_REACTORS
330
637
102
}
330
1F
100
AcDbEntity
  8
実線
100
AcDbCircle
 10
164.8579214286525
 20
319.7958435128312
 30
0.0
 40
15.0
100
AcDbArc
 50
335.0412627633445
 51
0.0
  0
ARC
  5
594
102
{ACAD_REACTORS
330
637
102
}
330
1F
100
AcDbEntity
  8
実線
100
AcDbCircle
 10
96.85792142865251
 20
319.7958435128312
 30
0.0
 40
15.0
100
AcDbArc
 50
180.0
 51
204.9587372366555
  0
LINE
  5
595
102
{ACAD_REACTORS
330
637
102
}
330
1F
100
AcDbEntity
  8
実線
100
AcDbLine
 10
187.3610870207084
 20
373.0663616796462
 30
0.0
 11
74.35475583659678
 21
373.0663616796462
 31
0.0
  0
LINE
  5
596
102
{ACAD_REACTORS
330
637
102
}
330
1F
100
AcDbEntity
  8
実線
100
AcDbLine
 10
81.85792142865251
 20
358.0663616796464
 30
0.0
 11
81.85792142865251
 21
319.7958435128312
 31
0.0
  0
LINE
  5
597
102
{ACAD_REACTORS
330
637
102
}
330
1F
100
AcDbEntity
  8
実線
100
AcDbLine
 10
179.8579214286525
 20
319.7958435128312
 30
0.0
 11
179.8579214286525
 21
358.0663616796464
 31
0.0
  0
LINE
  5
598
102
{ACAD_REACTORS
330
637
102
}
330
1F
100
AcDbEntity
  8
実線
100
AcDbLine
 10
74.35475583659678
 20
373.0663616796462
 30
0.0
 11
74.35475583659678
 21
358.0663616796464
 31
0.0
  0
LINE
  5
599
102
{ACAD_REACTORS
330
637
102
}
330
1F
100
AcDbEntity
  8
実線
100
AcDbLine
 10
74.35475583659678
 20
358.0663616796464
 30
0.0
 11
105.8779294350589
 21
358.0663616796464
 31
0.0
  0
LINE
  5
59A
102
{ACAD_REACTORS
330
637
102
}
330
1F
100
AcDbEntity
  8
実線
100
AcDbLine
 10
187.3610870207084
 20
358.0663616796464
 30
0.0
 11
155.8379134222461
 21
358.0663616796464
 31
0.0
  0
LINE
  5
59B
102
{ACAD_REACTORS
330
637
102
}
330
1F
100
AcDbEntity
  8
実線
100
AcDbLine
 10
187.3610870207084
 20
358.0663616796464
 30
0.0
 11
187.3610870207084
 21
373.0663616796462
 31
0.0
  0
LINE
  5
59C
102
{ACAD_REACTORS
330
637
102
}
330
1F
100
AcDbEntity
  8
実線
100
AcDbLine
 10
108.4796781415094
 20
373.0663616796462
 30
0.0
 11
108.4796781415094
 21
360.940238206843
 31
0.0
  0
LINE
  5
59D
102
{ACAD_REACTORS
330
637
102
}
330
1F
100
AcDbEntity
  8
実線
100
AcDbLine
 10
153.2361647157956
 20
373.0663616796462
 30
0.0
 11
153.2361647157956
 21
360.940238206843
 31
0.0
  0
LINE
  5
59E
102
{ACAD_REACTORS
330
637
102
}
330
1F
100
AcDbEntity
  8
実線
100
AcDbLine
 10
71.35792142865273
 20
568.9663616796464
 30
0.0
 11
190.3579214286527
 21
568.9663616796464
 31
0.0
  0
ARC
  5
59F
102
{ACAD_REACTORS
330
637
102
}
330
1F
100
AcDbEntity
  8
実線
100
AcDbCircle
 10
190.3579214286527
 20
565.9663616796462
 30
0.0
 40
3.0
100
AcDbArc
 50
0.0
 51
90.0
  0
ARC
  5
5A0
102
{ACAD_REACTORS
330
637
102
}
330
1F
100
AcDbEntity
  8
実線
100
AcDbCircle
 10
71.35792142865273
 20
565.9663616796462
 30
0.0
 40
3.0
100
AcDbArc
 50
90.0
 51
180.0
  0
LINE
  5
5A1
102
{ACAD_REACTORS
330
637
102
}
330
1F
100
AcDbEntity
  8
実線
100
AcDbLine
 10
193.3579214286527
 20
564.4663616796464
 30
0.0
 11
193.3579214286527
 21
565.9663616796462
 31
0.0
  0
LINE
  5
5A2
102
{ACAD_REACTORS
330
637
102
}
330
1F
100
AcDbEntity
  8
実線
100
AcDbLine
 10
68.35792142865273
 20
565.9663616796462
 30
0.0
 11
68.35792142865273
 21
564.4663616796464
 31
0.0
  0
LINE
  5
5A3
102
{ACAD_REACTORS
330
637
102
}
330
1F
100
AcDbEntity
  8
実線
100
AcDbLine
 10
105.8579214286525
 20
261.6663616796462
 30
0.0
 11
155.8579214286525
 21
261.6663616796462
 31
0.0
  0
LINE
  5
5A4
102
{ACAD_REACTORS
330
637
102
}
330
1F
100
AcDbEntity
  8
実線
100
AcDbLine
 10
105.8579214286525
 20
261.6663616796462
 30
0.0
 11
105.8579214286525
 21
309.3340899336482
 31
0.0
  0
LINE
  5
5A5
102
{ACAD_REACTORS
330
637
102
}
330
1F
100
AcDbEntity
  8
実線
100
AcDbLine
 10
155.8579214286525
 20
309.3340899336482
 30
0.0
 11
155.8579214286525
 21
261.6663616796462
 31
0.0
  0
LINE
  5
5A6
102
{ACAD_REACTORS
330
637
102
}
330
1F
100
AcDbEntity
  8
実線
100
AcDbLine
 10
144.3579214286525
 20
419.0663616796461
 30
0.0
 11
180.8579214286527
 21
419.0663616796461
 31
0.0
  0
LINE
  5
5A7
102
{ACAD_REACTORS
330
637
102
}
330
1F
100
AcDbEntity
  8
実線
100
AcDbLine
 10
180.8579214286527
 20
419.0663616796461
 30
0.0
 11
180.8579214286527
 21
472.4663616796461
 31
0.0
  0
LINE
  5
5A8
102
{ACAD_REACTORS
330
637
102
}
330
1F
100
AcDbEntity
  8
実線
100
AcDbLine
 10
80.85792142865273
 20
472.4663616796461
 30
0.0
 11
80.85792142865273
 21
419.0663616796461
 31
0.0
  0
LINE
  5
5A9
102
{ACAD_REACTORS
330
637
102
}
330
1F
100
AcDbEntity
  8
実線
100
AcDbLine
 10
80.85792142865273
 20
419.0663616796461
 30
0.0
 11
117.3579214286527
 21
419.0663616796461
 31
0.0
  0
LINE
  5
5AA
102
{ACAD_REACTORS
330
637
102
}
330
1F
100
AcDbEntity
  8
実線
100
AcDbLine
 10
144.3579214286525
 20
386.5663616796465
 30
0.0
 11
144.3579214286525
 21
472.4663616796461
 31
0.0
  0
LINE
  5
5AB
102
{ACAD_REACTORS
330
637
102
}
330
1F
100
AcDbEntity
  8
実線
100
AcDbLine
 10
117.3579214286527
 20
386.5663616796465
 30
0.0
 11
117.3579214286527
 21
472.4663616796461
 31
0.0
  0
LINE
  5
5AC
102
{ACAD_REACTORS
330
637
102
}
330
1F
100
AcDbEntity
  8
実線
100
AcDbLine
 10
83.25874278715422
 20
313.4663616796462
 30
0.0
 11
54.1579214286524
 21
313.4663616796462
 31
0.0
  0
LINE
  5
5AD
102
{ACAD_REACTORS
330
637
102
}
330
1F
100
AcDbEntity
  8
実線
100
AcDbLine
 10
207.5579214286524
 20
313.4663616796462
 30
0.0
 11
178.4571000701508
 21
313.4663616796462
 31
0.0
  0
LINE
  5
5AE
102
{ACAD_REACTORS
330
637
102
}
330
1F
100
AcDbEntity
  8
実線
100
AcDbLine
 10
155.8579214286525
 20
262.6663616796465
 30
0.0
 11
207.5579214286524
 21
262.6663616796465
 31
0.0
  0
LINE
  5
5AF
102
{ACAD_REACTORS
330
637
102
}
330
1F
100
AcDbEntity
  8
実線
100
AcDbLine
 10
54.1579214286524
 20
262.6663616796465
 30
0.0
 11
105.8579214286525
 21
262.6663616796465
 31
0.0
  0
LINE
  5
5B0
102
{ACAD_REACTORS
330
637
102
}
330
1F
100
AcDbEntity
  8
実線
100
AcDbLine
 10
54.1579214286524
 20
313.4663616796462
 30
0.0
 11
54.1579214286524
 21
262.6663616796465
 31
0.0
  0
LINE
  5
5B1
102
{ACAD_REACTORS
330
637
102
}
330
1F
100
AcDbEntity
  8
実線
100
AcDbLine
 10
54.1579214286524
 20
313.4663616796462
 30
0.0
 11
51.75792142865248
 21
320.0663616796465
 31
0.0
  0
LINE
  5
5B2
102
{ACAD_REACTORS
330
637
102
}
330
1F
100
AcDbEntity
  8
実線
100
AcDbLine
 10
51.75792142865248
 20
256.0663616796462
 30
0.0
 11
54.1579214286524
 21
262.6663616796465
 31
0.0
  0
LINE
  5
5B3
102
{ACAD_REACTORS
330
637
102
}
330
1F
100
AcDbEntity
  8
実線
100
AcDbLine
 10
48.85792142865245
 20
320.0663616796465
 30
0.0
 11
48.85792142865245
 21
256.0663616796462
 31
0.0
  0
LINE
  5
5B4
102
{ACAD_REACTORS
330
637
102
}
330
1F
100
AcDbEntity
  8
実線
100
AcDbLine
 10
51.75792142865248
 20
320.0663616796465
 30
0.0
 11
51.75792142865248
 21
256.0663616796462
 31
0.0
  0
LINE
  5
5B5
102
{ACAD_REACTORS
330
637
102
}
330
1F
100
AcDbEntity
  8
実線
100
AcDbLine
 10
48.85792142865245
 20
256.0663616796462
 30
0.0
 11
51.75792142865248
 21
256.0663616796462
 31
0.0
  0
LINE
  5
5B6
102
{ACAD_REACTORS
330
637
102
}
330
1F
100
AcDbEntity
  8
実線
100
AcDbLine
 10
51.75792142865248
 20
320.0663616796465
 30
0.0
 11
48.85792142865245
 21
320.0663616796465
 31
0.0
  0
LINE
  5
5B7
102
{ACAD_REACTORS
330
637
102
}
330
1F
100
AcDbEntity
  8
実線
100
AcDbLine
 10
207.5579214286524
 20
262.6663616796465
 30
0.0
 11
209.9579214286524
 21
256.0663616796462
 31
0.0
  0
LINE
  5
5B8
102
{ACAD_REACTORS
330
637
102
}
330
1F
100
AcDbEntity
  8
実線
100
AcDbLine
 10
209.9579214286524
 20
320.0663616796465
 30
0.0
 11
207.5579214286524
 21
313.4663616796462
 31
0.0
  0
LINE
  5
5B9
102
{ACAD_REACTORS
330
637
102
}
330
1F
100
AcDbEntity
  8
実線
100
AcDbLine
 10
207.5579214286524
 20
262.6663616796465
 30
0.0
 11
207.5579214286524
 21
313.4663616796462
 31
0.0
  0
LINE
  5
5BA
102
{ACAD_REACTORS
330
637
102
}
330
1F
100
AcDbEntity
  8
実線
100
AcDbLine
 10
212.8579214286525
 20
320.0663616796465
 30
0.0
 11
209.9579214286524
 21
320.0663616796465
 31
0.0
  0
LINE
  5
5BB
102
{ACAD_REACTORS
330
637
102
}
330
1F
100
AcDbEntity
  8
実線
100
AcDbLine
 10
209.9579214286524
 20
256.0663616796462
 30
0.0
 11
212.8579214286525
 21
256.0663616796462
 31
0.0
  0
LINE
  5
5BC
102
{ACAD_REACTORS
330
637
102
}
330
1F
100
AcDbEntity
  8
実線
100
AcDbLine
 10
212.8579214286525
 20
256.0663616796462
 30
0.0
 11
212.8579214286525
 21
320.0663616796465
 31
0.0
  0
LINE
  5
5BD
102
{ACAD_REACTORS
330
637
102
}
330
1F
100
AcDbEntity
  8
実線
100
AcDbLine
 10
209.9579214286524
 20
256.0663616796462
 30
0.0
 11
209.9579214286524
 21
320.0663616796465
 31
0.0
  0
LINE
  5
5BE
102
{ACAD_REACTORS
330
637
102
}
330
1F
100
AcDbEntity
  8
実線
100
AcDbLine
 10
151.8579214286527
 20
586.466361679599
 30
0.0
 11
105.8579214286527
 21
586.466361679599
 31
0.0
  0
LINE
  5
5BF
102
{ACAD_REACTORS
330
637
102
}
330
1F
100
AcDbEntity
  8
実線
100
AcDbLine
 10
153.8579214286527
 20
584.4663616796463
 30
0.0
 11
153.8579214286527
 21
624.4663616796466
 31
0.0
  0
LINE
  5
5C0
102
{ACAD_REACTORS
330
637
102
}
330
1F
100
AcDbEntity
  8
実線
100
AcDbLine
 10
151.8579214286527
 20
624.4663616796466
 30
0.0
 11
151.8579214286527
 21
586.466361679599
 31
0.0
  0
LINE
  5
5C1
102
{ACAD_REACTORS
330
637
102
}
330
1F
100
AcDbEntity
  8
実線
100
AcDbLine
 10
153.8579214286527
 20
624.4663616796466
 30
0.0
 11
151.8579214286527
 21
624.4663616796466
 31
0.0
  0
LINE
  5
5C2
102
{ACAD_REACTORS
330
637
102
}
330
1F
100
AcDbEntity
  8
実線
100
AcDbLine
 10
150.8579214286527
 20
586.4663616796462
 30
0.0
 11
150.8579214286527
 21
584.4663616796463
 31
0.0
  0
LINE
  5
5C3
102
{ACAD_REACTORS
330
637
102
}
330
1F
100
AcDbEntity
  8
実線
100
AcDbLine
 10
105.8579214286527
 20
586.4663616796462
 30
0.0
 11
105.8579214286527
 21
584.4663616796463
 31
0.0
  0
LINE
  5
5C4
102
{ACAD_REACTORS
330
636
102
}
330
1F
100
AcDbEntity
  8
実線
100
AcDbLine
 10
362.8579214286525
 20
616.9663616796466
 30
0.0
 11
362.8579214286525
 21
586.4663616796462
 31
0.0
  0
LINE
  5
5C5
102
{ACAD_REACTORS
330
636
102
}
330
1F
100
AcDbEntity
  8
実線
100
AcDbLine
 10
416.8579214286524
 20
568.9663616796464
 30
0.0
 11
416.8579214286524
 21
579.4663616796464
 31
0.0
  0
LINE
  5
5C6
102
{ACAD_REACTORS
330
636
102
}
330
1F
100
AcDbEntity
  8
実線
100
AcDbLine
 10
324.8579214286525
 20
579.4663616796464
 30
0.0
 11
324.8579214286525
 21
568.9663616796464
 31
0.0
  0
LINE
  5
5C7
102
{ACAD_REACTORS
330
636
102
}
330
1F
100
AcDbEntity
  8
実線
100
AcDbLine
 10
416.8579214286524
 20
579.4663616796464
 30
0.0
 11
324.8579214286525
 21
579.4663616796464
 31
0.0
  0
LINE
  5
5C8
102
{ACAD_REACTORS
330
636
102
}
330
1F
100
AcDbEntity
  8
実線
100
AcDbLine
 10
378.8579214286525
 20
386.5663616796465
 30
0.0
 11
378.8579214286525
 21
419.0663616796461
 31
0.0
  0
LINE
  5
5C9
102
{ACAD_REACTORS
330
636
102
}
330
1F
100
AcDbEntity
  8
実線
100
AcDbLine
 10
362.8579214286525
 20
419.0663616796467
 30
0.0
 11
362.8579214286525
 21
386.5663616796465
 31
0.0
  0
LINE
  5
5CA
102
{ACAD_REACTORS
330
636
102
}
330
1F
100
AcDbEntity
  8
実線
100
AcDbLine
 10
433.3579214286524
 20
472.4663616796461
 30
0.0
 11
308.3579214286525
 21
472.4663616796461
 31
0.0
  0
LINE
  5
5CB
102
{ACAD_REACTORS
330
636
102
}
330
1F
100
AcDbEntity
  8
実線
100
AcDbLine
 10
433.3579214286524
 20
472.4663616796461
 30
0.0
 11
433.3579214286524
 21
564.4663616796464
 31
0.0
  0
LINE
  5
5CC
102
{ACAD_REACTORS
330
636
102
}
330
1F
100
AcDbEntity
  8
実線
100
AcDbLine
 10
308.3579214286525
 20
564.4663616796464
 30
0.0
 11
308.3579214286525
 21
472.4663616796461
 31
0.0
  0
LINE
  5
5CD
102
{ACAD_REACTORS
330
636
102
}
330
1F
100
AcDbEntity
  8
実線
100
AcDbLine
 10
433.3579214286524
 20
564.4663616796464
 30
0.0
 11
308.3579214286525
 21
564.4663616796464
 31
0.0
  0
LINE
  5
5CE
102
{ACAD_REACTORS
330
636
102
}
330
1F
100
AcDbEntity
  8
実線
100
AcDbLine
 10
294.1579214286523
 20
312.6663616796465
 30
0.0
 11
323.6605546916746
 21
312.6663616796465
 31
0.0
  0
LINE
  5
5CF
102
{ACAD_REACTORS
330
636
102
}
330
1F
100
AcDbEntity
  8
実線
100
AcDbLine
 10
314.3547558365965
 20
363.4663616796462
 30
0.0
 11
294.1579214286523
 21
363.4663616796462
 31
0.0
  0
LINE
  5
5D0
102
{ACAD_REACTORS
330
636
102
}
330
1F
100
AcDbEntity
  8
実線
100
AcDbLine
 10
288.8579214286523
 20
370.0663616796465
 30
0.0
 11
288.8579214286523
 21
306.0663616796462
 31
0.0
  0
LINE
  5
5D1
102
{ACAD_REACTORS
330
636
102
}
330
1F
100
AcDbEntity
  8
実線
100
AcDbLine
 10
288.8579214286523
 20
306.0663616796462
 30
0.0
 11
291.7579214286523
 21
306.0663616796462
 31
0.0
  0
LINE
  5
5D2
102
{ACAD_REACTORS
330
636
102
}
330
1F
100
AcDbEntity
  8
実線
100
AcDbLine
 10
291.7579214286523
 20
370.0663616796465
 30
0.0
 11
288.8579214286523
 21
370.0663616796465
 31
0.0
  0
LINE
  5
5D3
102
{ACAD_REACTORS
330
636
102
}
330
1F
100
AcDbEntity
  8
実線
100
AcDbLine
 10
291.7579214286523
 20
370.0663616796465
 30
0.0
 11
291.7579214286523
 21
306.0663616796462
 31
0.0
  0
LINE
  5
5D4
102
{ACAD_REACTORS
330
636
102
}
330
1F
100
AcDbEntity
  8
実線
100
AcDbLine
 10
294.1579214286523
 20
363.4663616796462
 30
0.0
 11
294.1579214286523
 21
312.6663616796465
 31
0.0
  0
LINE
  5
5D5
102
{ACAD_REACTORS
330
636
102
}
330
1F
100
AcDbEntity
  8
実線
100
AcDbLine
 10
294.1579214286523
 20
363.4663616796462
 30
0.0
 11
291.7579214286523
 21
370.0663616796465
 31
0.0
  0
LINE
  5
5D6
102
{ACAD_REACTORS
330
636
102
}
330
1F
100
AcDbEntity
  8
実線
100
AcDbLine
 10
291.7579214286523
 20
306.0663616796462
 30
0.0
 11
294.1579214286523
 21
312.6663616796465
 31
0.0
  0
LINE
  5
5D7
102
{ACAD_REACTORS
330
636
102
}
330
1F
100
AcDbEntity
  8
実線
100
AcDbLine
 10
447.5579214286524
 20
363.4663616796462
 30
0.0
 11
427.3610870207082
 21
363.4663616796462
 31
0.0
  0
LINE
  5
5D8
102
{ACAD_REACTORS
330
636
102
}
330
1F
100
AcDbEntity
  8
実線
100
AcDbLine
 10
418.0552881656301
 20
312.6663616796465
 30
0.0
 11
447.5579214286524
 21
312.6663616796465
 31
0.0
  0
LINE
  5
5D9
102
{ACAD_REACTORS
330
636
102
}
330
1F
100
AcDbEntity
  8
実線
100
AcDbLine
 10
452.8579214286522
 20
370.0663616796465
 30
0.0
 11
449.9579214286523
 21
370.0663616796465
 31
0.0
  0
LINE
  5
5DA
102
{ACAD_REACTORS
330
636
102
}
330
1F
100
AcDbEntity
  8
実線
100
AcDbLine
 10
449.9579214286523
 20
306.0663616796462
 30
0.0
 11
452.8579214286522
 21
306.0663616796462
 31
0.0
  0
LINE
  5
5DB
102
{ACAD_REACTORS
330
636
102
}
330
1F
100
AcDbEntity
  8
実線
100
AcDbLine
 10
452.8579214286522
 20
370.0663616796465
 30
0.0
 11
452.8579214286522
 21
306.0663616796462
 31
0.0
  0
LINE
  5
5DC
102
{ACAD_REACTORS
330
636
102
}
330
1F
100
AcDbEntity
  8
実線
100
AcDbLine
 10
447.5579214286524
 20
312.6663616796465
 30
0.0
 11
449.9579214286523
 21
306.0663616796465
 31
0.0
  0
LINE
  5
5DD
102
{ACAD_REACTORS
330
636
102
}
330
1F
100
AcDbEntity
  8
実線
100
AcDbLine
 10
449.9579214286523
 20
370.0663616796462
 30
0.0
 11
447.5579214286524
 21
363.4663616796462
 31
0.0
  0
LINE
  5
5DE
102
{ACAD_REACTORS
330
636
102
}
330
1F
100
AcDbEntity
  8
実線
100
AcDbLine
 10
449.9579214286523
 20
306.0663616796465
 30
0.0
 11
449.9579214286523
 21
370.0663616796465
 31
0.0
  0
LINE
  5
5DF
102
{ACAD_REACTORS
330
636
102
}
330
1F
100
AcDbEntity
  8
実線
100
AcDbLine
 10
447.5579214286524
 20
312.6663616796465
 30
0.0
 11
447.5579214286524
 21
363.4663616796462
 31
0.0
  0
LINE
  5
5E0
102
{ACAD_REACTORS
330
636
102
}
330
1F
100
AcDbEntity
  8
実線
100
AcDbLine
 10
427.3610870207083
 20
386.5663616796465
 30
0.0
 11
314.3547558365966
 21
386.5663616796465
 31
0.0
  0
LINE
  5
5E1
102
{ACAD_REACTORS
330
636
102
}
330
1F
100
AcDbEntity
  8
実線
100
AcDbLine
 10
427.3610870207083
 20
373.0663616796462
 30
0.0
 11
314.3547558365966
 21
373.0663616796462
 31
0.0
  0
LINE
  5
5E2
102
{ACAD_REACTORS
330
636
102
}
330
1F
100
AcDbEntity
  8
実線
100
AcDbLine
 10
314.3547558365966
 20
386.5663616796465
 30
0.0
 11
314.3547558365966
 21
373.0663616796462
 31
0.0
  0
LINE
  5
5E3
102
{ACAD_REACTORS
330
636
102
}
330
1F
100
AcDbEntity
  8
実線
100
AcDbLine
 10
427.3610870207083
 20
373.0663616796462
 30
0.0
 11
427.3610870207083
 21
386.5663616796465
 31
0.0
  0
LINE
  5
5E4
102
{ACAD_REACTORS
330
636
102
}
330
1F
100
AcDbEntity
  8
実線
100
AcDbLine
 10
348.4796781415093
 20
386.5663616796465
 30
0.0
 11
348.4796781415093
 21
373.0663616796462
 31
0.0
  0
LINE
  5
5E5
102
{ACAD_REACTORS
330
636
102
}
330
1F
100
AcDbEntity
  8
実線
100
AcDbLine
 10
393.2361647157954
 20
386.5663616796465
 30
0.0
 11
393.2361647157954
 21
373.0663616796462
 31
0.0
  0
LINE
  5
5E6
102
{ACAD_REACTORS
330
636
102
}
330
1F
100
AcDbEntity
  8
実線
100
AcDbLine
 10
378.3579214286525
 20
624.4663616796466
 30
0.0
 11
378.3579214286525
 21
627.2663616796466
 31
0.0
  0
LINE
  5
5E7
102
{ACAD_REACTORS
330
636
102
}
330
1F
100
AcDbEntity
  8
実線
100
AcDbLine
 10
363.3579214286525
 20
627.2663616796466
 30
0.0
 11
363.3579214286525
 21
621.9663616796463
 31
0.0
  0
LINE
  5
5E8
102
{ACAD_REACTORS
330
636
102
}
330
1F
100
AcDbEntity
  8
実線
100
AcDbLine
 10
378.3579214286525
 20
627.2663616796466
 30
0.0
 11
363.3579214286525
 21
627.2663616796466
 31
0.0
  0
LINE
  5
5E9
102
{ACAD_REACTORS
330
636
102
}
330
1F
100
AcDbEntity
  8
実線
100
AcDbLine
 10
358.3579214286525
 20
621.9663616796463
 30
0.0
 11
358.3579214286525
 21
616.9663616796466
 31
0.0
  0
LINE
  5
5EA
102
{ACAD_REACTORS
330
636
102
}
330
1F
100
AcDbEntity
  8
実線
100
AcDbLine
 10
365.8579214286525
 20
621.9663616796463
 30
0.0
 11
358.3579214286525
 21
621.9663616796463
 31
0.0
  0
LINE
  5
5EB
102
{ACAD_REACTORS
330
636
102
}
330
1F
100
AcDbEntity
  8
実線
100
AcDbLine
 10
365.8579214286525
 20
616.9663616796466
 30
0.0
 11
358.3579214286525
 21
616.9663616796466
 31
0.0
  0
LINE
  5
5EC
102
{ACAD_REACTORS
330
636
102
}
330
1F
100
AcDbEntity
  8
実線
100
AcDbLine
 10
385.8579214286525
 20
615.5163616796466
 30
0.0
 11
390.8579214286525
 21
615.5163616796466
 31
0.0
  0
LINE
  5
5ED
102
{ACAD_REACTORS
330
636
102
}
330
1F
100
AcDbEntity
  8
実線
100
AcDbLine
 10
390.8579214286525
 20
615.5163616796466
 30
0.0
 11
390.8579214286525
 21
623.4163616796466
 31
0.0
  0
LINE
  5
5EE
102
{ACAD_REACTORS
330
636
102
}
330
1F
100
AcDbEntity
  8
実線
100
AcDbLine
 10
385.8579214286525
 20
623.4163616796463
 30
0.0
 11
390.8579214286525
 21
623.4163616796463
 31
0.0
  0
LINE
  5
5EF
102
{ACAD_REACTORS
330
636
102
}
330
1F
100
AcDbEntity
  8
実線
100
AcDbLine
 10
397.3579214286525
 20
604.9663616796461
 30
0.0
 11
397.3579214286525
 21
601.9663616796466
 31
0.0
  0
LINE
  5
5F0
102
{ACAD_REACTORS
330
636
102
}
330
1F
100
AcDbEntity
  8
実線
100
AcDbLine
 10
390.8579214286525
 20
601.9663616796466
 30
0.0
 11
397.3579214286525
 21
601.9663616796466
 31
0.0
  0
LINE
  5
5F1
102
{ACAD_REACTORS
330
636
102
}
330
1F
100
AcDbEntity
  8
実線
100
AcDbLine
 10
397.3579214286525
 20
604.9663616796461
 30
0.0
 11
390.8579214286525
 21
604.9663616796461
 31
0.0
  0
LINE
  5
5F2
102
{ACAD_REACTORS
330
636
102
}
330
1F
100
AcDbEntity
  8
実線
100
AcDbLine
 10
390.8579214286525
 20
599.5163616796466
 30
0.0
 11
390.8579214286525
 21
607.4163616796465
 31
0.0
  0
LINE
  5
5F3
102
{ACAD_REACTORS
330
636
102
}
330
1F
100
AcDbEntity
  8
実線
100
AcDbLine
 10
385.8579214286525
 20
599.5163616796466
 30
0.0
 11
390.8579214286525
 21
599.5163616796466
 31
0.0
  0
LINE
  5
5F4
102
{ACAD_REACTORS
330
636
102
}
330
1F
100
AcDbEntity
  8
実線
100
AcDbLine
 10
385.8579214286525
 20
607.4163616796465
 30
0.0
 11
390.8579214286525
 21
607.4163616796465
 31
0.0
  0
LINE
  5
5F5
102
{ACAD_REACTORS
330
636
102
}
330
1F
100
AcDbEntity
  8
実線
100
AcDbLine
 10
397.3579214286525
 20
620.9663616796461
 30
0.0
 11
397.3579214286525
 21
617.9663616796466
 31
0.0
  0
LINE
  5
5F6
102
{ACAD_REACTORS
330
636
102
}
330
1F
100
AcDbEntity
  8
実線
100
AcDbLine
 10
390.8579214286525
 20
617.9663616796466
 30
0.0
 11
397.3579214286525
 21
617.9663616796466
 31
0.0
  0
LINE
  5
5F7
102
{ACAD_REACTORS
330
636
102
}
330
1F
100
AcDbEntity
  8
実線
100
AcDbLine
 10
397.3579214286525
 20
620.9663616796461
 30
0.0
 11
390.8579214286525
 21
620.9663616796461
 31
0.0
  0
LINE
  5
5F8
102
{ACAD_REACTORS
330
636
102
}
330
1F
100
AcDbEntity
  8
実線
100
AcDbLine
 10
395.8579214286525
 20
579.4663616796464
 30
0.0
 11
395.8579214286525
 21
584.4663616796463
 31
0.0
  0
LINE
  5
5F9
102
{ACAD_REACTORS
330
636
102
}
330
1F
100
AcDbEntity
  8
実線
100
AcDbLine
 10
345.8579214286525
 20
584.4663616796463
 30
0.0
 11
345.8579214286525
 21
579.4663616796464
 31
0.0
  0
LINE
  5
5FA
102
{ACAD_REACTORS
330
636
102
}
330
1F
100
AcDbEntity
  8
実線
100
AcDbLine
 10
345.8579214286525
 20
584.4663616796463
 30
0.0
 11
380.6558803997851
 21
584.4663616796463
 31
0.0
  0
LINE
  5
5FB
102
{ACAD_REACTORS
330
636
102
}
330
1F
100
AcDbEntity
  8
実線
100
AcDbLine
 10
413.2579214286521
 20
305.6405848351482
 30
0.0
 11
417.1452020929873
 21
311.1921969675655
 31
0.0
  0
LINE
  5
5FC
102
{ACAD_REACTORS
330
636
102
}
330
1F
100
AcDbEntity
  8
実線
100
AcDbLine
 10
324.5706407643174
 20
311.1921969675655
 30
0.0
 11
328.4579214286524
 21
305.6405848351485
 31
0.0
  0
ARC
  5
5FD
102
{ACAD_REACTORS
330
636
102
}
330
1F
100
AcDbEntity
  8
実線
100
AcDbCircle
 10
404.8579214286524
 20
319.7958435128312
 30
0.0
 40
15.0
100
AcDbArc
 50
325.0000000000027
 51
331.6211940769605
  0
ARC
  5
5FE
102
{ACAD_REACTORS
330
636
102
}
330
1F
100
AcDbEntity
  8
実線
100
AcDbCircle
 10
336.8579214286525
 20
319.7958435128312
 30
0.0
 40
15.0
100
AcDbArc
 50
208.3788059230395
 51
214.9999999999972
  0
LINE
  5
5FF
102
{ACAD_REACTORS
330
636
102
}
330
1F
100
AcDbEntity
  8
実線
100
AcDbLine
 10
314.3547558365965
 20
373.0663616796462
 30
0.0
 11
314.3547558365965
 21
358.0663616796464
 31
0.0
  0
LINE
  5
600
102
{ACAD_REACTORS
330
636
102
}
330
1F
100
AcDbEntity
  8
実線
100
AcDbLine
 10
314.3547558365965
 20
358.0663616796464
 30
0.0
 11
348.4796781415093
 21
358.0663616796464
 31
0.0
  0
LINE
  5
601
102
{ACAD_REACTORS
330
636
102
}
330
1F
100
AcDbEntity
  8
実線
100
AcDbLine
 10
427.3610870207082
 20
358.0663616796464
 30
0.0
 11
393.2361647157954
 21
358.0663616796464
 31
0.0
  0
LINE
  5
602
102
{ACAD_REACTORS
330
636
102
}
330
1F
100
AcDbEntity
  8
実線
100
AcDbLine
 10
427.3610870207082
 20
358.0663616796464
 30
0.0
 11
427.3610870207082
 21
373.0663616796462
 31
0.0
  0
LINE
  5
603
102
{ACAD_REACTORS
330
636
102
}
330
1F
100
AcDbEntity
  8
実線
100
AcDbLine
 10
348.4796781415093
 20
373.0663616796462
 30
0.0
 11
348.4796781415093
 21
358.0663616796464
 31
0.0
  0
LINE
  5
604
102
{ACAD_REACTORS
330
636
102
}
330
1F
100
AcDbEntity
  8
実線
100
AcDbLine
 10
393.2361647157954
 20
373.0663616796462
 30
0.0
 11
393.2361647157954
 21
358.0663616796464
 31
0.0
  0
LINE
  5
605
102
{ACAD_REACTORS
330
636
102
}
330
1F
100
AcDbEntity
  8
実線
100
AcDbLine
 10
413.2579214286521
 20
261.6663616796462
 30
0.0
 11
394.2579214286525
 21
261.6663616796462
 31
0.0
  0
LINE
  5
606
102
{ACAD_REACTORS
330
636
102
}
330
1F
100
AcDbEntity
  8
実線
100
AcDbLine
 10
394.2579214286525
 20
261.6663616796462
 30
0.0
 11
394.2579214286525
 21
266.2388560960942
 31
0.0
  0
LINE
  5
607
102
{ACAD_REACTORS
330
636
102
}
330
1F
100
AcDbEntity
  8
実線
100
AcDbLine
 10
413.2579214286521
 20
312.1082843098829
 30
0.0
 11
413.2579214286521
 21
261.6663616796462
 31
0.0
  0
LINE
  5
608
102
{ACAD_REACTORS
330
636
102
}
330
1F
100
AcDbEntity
  8
実線
100
AcDbLine
 10
433.3579214286524
 20
564.4663616796464
 30
0.0
 11
433.3579214286524
 21
565.9663616796462
 31
0.0
  0
LINE
  5
609
102
{ACAD_REACTORS
330
636
102
}
330
1F
100
AcDbEntity
  8
実線
100
AcDbLine
 10
308.3579214286525
 20
565.9663616796462
 30
0.0
 11
308.3579214286525
 21
564.4663616796464
 31
0.0
  0
LINE
  5
60A
102
{ACAD_REACTORS
330
636
102
}
330
1F
100
AcDbEntity
  8
実線
100
AcDbLine
 10
430.3579214286525
 20
568.9663616796464
 30
0.0
 11
311.3579214286525
 21
568.9663616796464
 31
0.0
  0
ARC
  5
60B
102
{ACAD_REACTORS
330
636
102
}
330
1F
100
AcDbEntity
  8
実線
100
AcDbCircle
 10
430.3579214286525
 20
565.9663616796462
 30
0.0
 40
3.0
100
AcDbArc
 50
0.0
 51
90.0
  0
ARC
  5
60C
102
{ACAD_REACTORS
330
636
102
}
330
1F
100
AcDbEntity
  8
実線
100
AcDbCircle
 10
311.3579214286525
 20
565.9663616796462
 30
0.0
 40
3.0
100
AcDbArc
 50
90.0
 51
180.0
  0
LINE
  5
60D
102
{ACAD_REACTORS
330
636
102
}
330
1F
100
AcDbEntity
  8
実線
100
AcDbLine
 10
328.4579214286524
 20
261.6663616796462
 30
0.0
 11
347.4579214286524
 21
261.6663616796462
 31
0.0
  0
LINE
  5
60E
102
{ACAD_REACTORS
330
636
102
}
330
1F
100
AcDbEntity
  8
実線
100
AcDbLine
 10
328.4579214286524
 20
261.6663616796462
 30
0.0
 11
328.4579214286524
 21
312.1082843098829
 31
0.0
  0
LINE
  5
60F
102
{ACAD_REACTORS
330
636
102
}
330
1F
100
AcDbEntity
  8
実線
100
AcDbLine
 10
347.4579214286524
 20
266.2388560960942
 30
0.0
 11
347.4579214286524
 21
261.6663616796462
 31
0.0
  0
LINE
  5
610
102
{ACAD_REACTORS
330
636
102
}
330
1F
100
AcDbEntity
  8
実線
100
AcDbLine
 10
313.5579214286524
 20
472.4663616796461
 30
0.0
 11
313.5579214286524
 21
432.5663616796464
 31
0.0
  0
ARC
  5
611
102
{ACAD_REACTORS
330
636
102
}
330
1F
100
AcDbEntity
  8
実線
100
AcDbCircle
 10
373.5579214286527
 20
432.5663616796464
 30
0.0
 40
60.00000000000005
100
AcDbArc
 50
180.0
 51
230.0554948101841
  0
ARC
  5
612
102
{ACAD_REACTORS
330
636
102
}
330
1F
100
AcDbEntity
  8
実線
100
AcDbCircle
 10
375.5579214286524
 20
432.5663616796464
 30
0.0
 40
47.99999999999999
100
AcDbArc
 50
196.334822780686
 51
253.4021578641361
  0
ARC
  5
613
102
{ACAD_REACTORS
330
636
102
}
330
1F
100
AcDbEntity
  8
実線
100
AcDbCircle
 10
366.1579214286525
 20
432.5663616796464
 30
0.0
 40
47.99999999999999
100
AcDbArc
 50
286.5978421358639
 51
343.6651772193139
  0
ARC
  5
614
102
{ACAD_REACTORS
330
636
102
}
330
1F
100
AcDbEntity
  8
実線
100
AcDbCircle
 10
368.1579214286525
 20
432.5663616796464
 30
0.0
 40
60.00000000000005
100
AcDbArc
 50
309.9445051898158
 51
0.0
  0
LINE
  5
615
102
{ACAD_REACTORS
330
636
102
}
330
1F
100
AcDbEntity
  8
実線
100
AcDbLine
 10
428.1579214286524
 20
472.4663616796461
 30
0.0
 11
428.1579214286523
 21
432.5663616796464
 31
0.0
  0
LINE
  5
616
102
{ACAD_REACTORS
330
636
102
}
330
1F
100
AcDbEntity
  8
実線
100
AcDbLine
 10
322.7149053203945
 20
419.0663616796461
 30
0.0
 11
419.0009375369105
 21
419.0663616796461
 31
0.0
  0
LINE
  5
617
102
{ACAD_REACTORS
330
636
102
}
330
1F
100
AcDbEntity
  8
実線
100
AcDbLine
 10
419.0009375369105
 20
419.0663616796461
 30
0.0
 11
419.0009375369105
 21
472.4663616796461
 31
0.0
  0
LINE
  5
618
102
{ACAD_REACTORS
330
636
102
}
330
1F
100
AcDbEntity
  8
実線
100
AcDbLine
 10
322.7149053203945
 20
419.0663616796461
 30
0.0
 11
322.7149053203945
 21
472.4663616796461
 31
0.0
  0
CIRCLE
  5
619
102
{ACAD_REACTORS
330
636
102
}
330
1F
100
AcDbEntity
  8
実線
100
AcDbCircle
 10
370.8579214286525
 20
288.0663616796464
 30
0.0
 40
32.0
  0
LINE
  5
61A
102
{ACAD_REACTORS
330
636
102
}
330
1F
100
AcDbEntity
  8
実線
100
AcDbLine
 10
395.8579214286525
 20
584.4663616796463
 30
0.0
 11
380.6558803997853
 21
584.4663616796463
 31
0.0
  0
LINE
  5
61B
102
{ACAD_REACTORS
330
636
102
}
330
1F
100
AcDbEntity
  8
実線
100
AcDbLine
 10
345.8579214286525
 20
586.4663616796462
 30
0.0
 11
365.8579214286525
 21
586.4663616796462
 31
0.0
  0
LINE
  5
61C
102
{ACAD_REACTORS
330
636
102
}
330
1F
100
AcDbEntity
  8
実線
100
AcDbLine
 10
395.8579214286525
 20
584.4663616796463
 30
0.0
 11
395.8579214286525
 21
586.4663616796462
 31
0.0
  0
LINE
  5
61D
102
{ACAD_REACTORS
330
636
102
}
330
1F
100
AcDbEntity
  8
実線
100
AcDbLine
 10
345.8579214286525
 20
586.4663616796462
 30
0.0
 11
345.8579214286525
 21
584.4663616796463
 31
0.0
  0
LINE
  5
61E
102
{ACAD_REACTORS
330
636
102
}
330
1F
100
AcDbEntity
  8
実線
100
AcDbLine
 10
395.8579214286525
 20
586.4663616796462
 30
0.0
 11
385.8579214286525
 21
586.466361679599
 31
0.0
  0
LINE
  5
61F
102
{ACAD_REACTORS
330
636
102
}
330
1F
100
AcDbEntity
  8
実線
100
AcDbLine
 10
355.8579214286525
 20
586.4663616796462
 30
0.0
 11
355.8579214286525
 21
584.4663616796463
 31
0.0
  0
LINE
  5
620
102
{ACAD_REACTORS
330
636
102
}
330
1F
100
AcDbEntity
  8
実線
100
AcDbLine
 10
385.8579214286525
 20
584.4663616796463
 30
0.0
 11
385.8579214286525
 21
624.4663616796466
 31
0.0
  0
LINE
  5
621
102
{ACAD_REACTORS
330
636
102
}
330
1F
100
AcDbEntity
  8
実線
100
AcDbLine
 10
385.8579214286525
 20
624.4663616796466
 30
0.0
 11
365.8579214286525
 21
624.4663616796466
 31
0.0
  0
LINE
  5
622
102
{ACAD_REACTORS
330
636
102
}
330
1F
100
AcDbEntity
  8
実線
100
AcDbLine
 10
365.8579214286525
 20
584.4663616796463
 30
0.0
 11
365.8579214286525
 21
624.4663616796466
 31
0.0
  0
LINE
  5
623
102
{ACAD_REACTORS
330
633
102
}
330
1F
100
AcDbEntity
  8
中心線
100
AcDbLine
 10
286.8579214286516
 20
98.06636167964638
 30
0.0
 11
454.8579214286515
 21
98.06636167964649
 31
0.0
  0
LINE
  5
624
102
{ACAD_REACTORS
330
633
102
}
330
1F
100
AcDbEntity
  8
中心線
100
AcDbLine
 10
370.857921428652
 20
14.06636167964655
 30
0.0
 11
370.857921428652
 21
182.0663616796465
 31
0.0
  0
LINE
  5
625
102
{ACAD_REACTORS
330
638
102
}
330
1F
100
AcDbEntity
  8
中心線
100
AcDbLine
 10
286.8579214286516
 20
818.0663616796463
 30
0.0
 11
454.8579214286515
 21
818.0663616796463
 31
0.0
  0
LINE
  5
626
102
{ACAD_REACTORS
330
638
102
}
330
1F
100
AcDbEntity
  8
中心線
100
AcDbLine
 10
370.8579214286516
 20
734.0663616796464
 30
0.0
 11
370.8579214286516
 21
902.0663616796465
 31
0.0
  0
LINE
  5
627
102
{ACAD_REACTORS
330
634
102
}
330
1F
100
AcDbEntity
  8
中心線
100
AcDbLine
 10
850.8579214286516
 20
254.0663616796464
 30
0.0
 11
850.8579214286516
 21
636.2454382309624
 31
0.0
  0
LINE
  5
628
102
{ACAD_REACTORS
330
634
102
}
330
1F
100
AcDbEntity
  8
中心線
100
AcDbLine
 10
766.8579214286515
 20
338.0663616796464
 30
0.0
 11
934.8579214286514
 21
338.0663616796464
 31
0.0
  0
LINE
  5
629
102
{ACAD_REACTORS
330
634
102
}
330
1F
100
AcDbEntity
  8
中心線
100
AcDbLine
 10
780.8579214286524
 20
288.0663616796464
 30
0.0
 11
920.8579214286524
 21
288.0663616796464
 31
0.0
  0
LINE
  5
62A
102
{ACAD_REACTORS
330
635
102
}
330
1F
100
AcDbEntity
  8
中心線
100
AcDbLine
 10
610.8579214286522
 20
254.0663616796464
 30
0.0
 11
610.8579214286524
 21
636.2454382309624
 31
0.0
  0
LINE
  5
62B
102
{ACAD_REACTORS
330
635
102
}
330
1F
100
AcDbEntity
  8
中心線
100
AcDbLine
 10
540.8579344156288
 20
338.0663616796466
 30
0.0
 11
680.8579084416788
 21
338.0663616796464
 31
0.0
  0
LINE
  5
62C
102
{ACAD_REACTORS
330
635
102
}
330
1F
100
AcDbEntity
  8
中心線
100
AcDbLine
 10
526.8579214286522
 20
288.0663616796464
 30
0.0
 11
694.8579214286524
 21
288.0663616796464
 31
0.0
  0
LINE
  5
62D
102
{ACAD_REACTORS
330
636
102
}
330
1F
100
AcDbEntity
  8
中心線
100
AcDbLine
 10
370.8579214286525
 20
254.0663616796464
 30
0.0
 11
370.8579214286525
 21
636.2454382309624
 31
0.0
  0
LINE
  5
62E
102
{ACAD_REACTORS
330
636
102
}
330
1F
100
AcDbEntity
  8
中心線
100
AcDbLine
 10
286.8579214286516
 20
338.0663616796464
 30
0.0
 11
454.8579214286515
 21
338.0663616796464
 31
0.0
  0
LINE
  5
62F
102
{ACAD_REACTORS
330
636
102
}
330
1F
100
AcDbEntity
  8
中心線
100
AcDbLine
 10
300.8579214286525
 20
288.0663616796464
 30
0.0
 11
440.8579214286524
 21
288.0663616796464
 31
0.0
  0
LINE
  5
630
102
{ACAD_REACTORS
330
637
102
}
330
1F
100
AcDbEntity
  8
中心線
100
AcDbLine
 10
130.8579214286525
 20
254.0663616796464
 30
0.0
 11
130.8579214286525
 21
636.2454382309624
 31
0.0
  0
LINE
  5
631
102
{ACAD_REACTORS
330
637
102
}
330
1F
100
AcDbEntity
  8
中心線
100
AcDbLine
 10
60.85793441562754
 20
338.0663616796464
 30
0.0
 11
200.8579084416774
 21
338.0663616796464
 31
0.0
  0
LINE
  5
632
102
{ACAD_REACTORS
330
637
102
}
330
1F
100
AcDbEntity
  8
中心線
100
AcDbLine
 10
46.85792142865103
 20
288.0663616796464
 30
0.0
 11
214.857921428651
 21
288.0663616796464
 31
0.0
  0
ENDSEC
  0
SECTION
  2
OBJECTS
  0
DICTIONARY
  5
C
330
0
100
AcDbDictionary
281
     1
  3
ACAD_CIP_PREVIOUS_PRODUCT_INFO
350
2D7
  3
ACAD_COLOR
350
2CD
  3
ACAD_DETAILVIEWSTYLE
350
2D0
  3
ACAD_GROUP
350
D
  3
ACAD_LAYOUT
350
1A
  3
ACAD_MATERIAL
350
43
  3
ACAD_MLEADERSTYLE
350
5B
  3
ACAD_MLINESTYLE
350
17
  3
ACAD_PLOTSETTINGS
350
19
  3
ACAD_PLOTSTYLENAME
350
E
  3
ACAD_SCALELIST
350
47
  3
ACAD_SECTIONVIEWSTYLE
350
2CE
  3
ACAD_TABLESTYLE
350
59
  3
ACAD_VISUALSTYLE
350
2A
  3
ACDB_RECOMPOSE_DATA
350
70E
  3
AcDbVariableDictionary
350
282
  3
DWGPROPS
350
70F
  0
DICTIONARY
  5
2DE
330
2
100
AcDbDictionary
280
     1
281
     1
  3
ACAD_LAYERSTATES
360
2DF
  0
DICTIONARY
  5
639
330
10
100
AcDbDictionary
280
     1
281
     1
  3
ADSK_XREC_LAYER_RECONCILED
360
63A
  0
DICTIONARY
  5
2DA
330
2D9
100
AcDbDictionary
280
     1
281
     1
  3
ADSK_XREC_LAYER_RECONCILED
360
63D
  0
DICTIONARY
  5
2DC
330
2DB
100
AcDbDictionary
280
     1
281
     1
  3
ADSK_XREC_LAYER_RECONCILED
360
63E
  0
DICTIONARY
  5
468
330
1F
100
AcDbDictionary
280
     1
281
     1
  3
ACAD_SORTENTS
360
469
  0
XRECORD
  5
2D7
102
{ACAD_REACTORS
330
C
102
}
330
C
100
AcDbXrecord
280
     1
300
ACDLT
300
2016
300
ACDLT_F_S
  0
DICTIONARY
  5
2CD
102
{ACAD_REACTORS
330
C
102
}
330
C
100
AcDbDictionary
281
     1
  0
DICTIONARY
  5
2D0
102
{ACAD_REACTORS
330
C
102
}
330
C
100
AcDbDictionary
281
     1
  3
Metric50
350
2D1
  0
DICTIONARY
  5
D
102
{ACAD_REACTORS
330
C
102
}
330
C
100
AcDbDictionary
281
     1
  3
*A1
350
633
  3
*A2
350
634
  3
*A3
350
635
  3
*A4
350
636
  3
*A5
350
637
  3
*A6
350
638
  0
DICTIONARY
  5
1A
102
{ACAD_REACTORS
330
C
102
}
330
C
100
AcDbDictionary
281
     1
  3
Layout1
350
1E
  3
Model
350
22
  3
レイアウト1
350
2D2
  0
DICTIONARY
  5
43
102
{ACAD_REACTORS
330
C
102
}
330
C
100
AcDbDictionary
281
     1
  3
ByBlock
350
45
  3
ByLayer
350
44
  3
Global
350
46
  0
DICTIONARY
  5
5B
102
{ACAD_REACTORS
330
C
102
}
330
C
100
AcDbDictionary
281
     1
  3
Standard
350
5C
  0
DICTIONARY
  5
17
102
{ACAD_REACTORS
330
C
102
}
330
C
100
AcDbDictionary
281
     1
  3
Standard
350
18
  0
DICTIONARY
  5
19
102
{ACAD_REACTORS
330
C
102
}
330
C
100
AcDbDictionary
281
     1
  0
ACDBDICTIONARYWDFLT
  5
E
102
{ACAD_REACTORS
330
C
102
}
330
C
100
AcDbDictionary
281
     1
  3
Normal
350
F
100
AcDbDictionaryWithDefault
340
F
  0
DICTIONARY
  5
47
102
{ACAD_REACTORS
330
C
102
}
330
C
100
AcDbDictionary
281
     1
  3
A0
350
48
  3
A1
350
49
  3
A2
350
4A
  3
A3
350
4B
  3
A4
350
4C
  3
A5
350
4D
  3
A6
350
4E
  3
A7
350
4F
  3
A8
350
50
  3
A9
350
51
  3
B0
350
52
  3
B1
350
53
  3
B2
350
54
  3
B3
350
55
  3
B4
350
56
  3
B5
350
57
  3
B6
350
58
  0
DICTIONARY
  5
2CE
102
{ACAD_REACTORS
330
C
102
}
330
C
100
AcDbDictionary
281
     1
  3
Metric50
350
2CF
  0
DICTIONARY
  5
59
102
{ACAD_REACTORS
330
C
102
}
330
C
100
AcDbDictionary
281
     1
  3
Standard
350
5A
  0
DICTIONARY
  5
2A
102
{ACAD_REACTORS
330
C
102
}
330
C
100
AcDbDictionary
281
     1
  3
2dWireframe
350
2F
  3
Basic
350
32
  3
Brighten
350
36
  3
ColorChange
350
3A
  3
Conceptual
350
34
  3
Dim
350
35
  3
EdgeColorOff
350
3D
  3
Facepattern
350
39
  3
Flat
350
2B
  3
FlatWithEdges
350
2C
  3
Gouraud
350
2D
  3
GouraudWithEdges
350
2E
  3
Hidden
350
31
  3
JitterOff
350
3B
  3
Linepattern
350
38
  3
OverhangOff
350
3C
  3
Realistic
350
33
  3
Shaded
350
42
  3
Shaded with edges
350
41
  3
Shades of Gray
350
3E
  3
Sketchy
350
3F
  3
Thicken
350
37
  3
Wireframe
350
30
  3
X-Ray
350
40
  0
XRECORD
  5
70E
102
{ACAD_REACTORS
330
C
102
}
330
C
100
AcDbXrecord
280
     1
 90
        1
330
5A
  0
DICTIONARY
  5
282
102
{ACAD_REACTORS
330
C
102
}
330
C
100
AcDbDictionary
281
     1
  3
CANNOSCALE
350
290
  3
CENTEREXE
350
289
  3
CENTERLTYPEFILE
350
28A
  3
CMLEADERSTYLE
350
284
  3
CTABLESTYLE
350
283
  3
CVIEWDETAILSTYLE
350
63F
  3
CVIEWSECTIONSTYLE
350
640
  3
DIMASSOC
350
28B
  3
HIDETEXT
350
28C
  3
INDEXCTL
350
6C8
  3
LAYEREVAL
350
642
  3
LAYERNOTIFY
350
643
  3
LIGHTINGUNITS
350
641
  3
LOFTANG1
350
6CB
  3
LOFTANG2
350
6CC
  3
LONGITUDE
350
6CD
  3
MSLTSCALE
350
291
  3
PSOLHEIGHT
350
6CA
  3
PSOLWIDTH
350
6C9
  3
SORTENTS
350
6C7
  3
XCLIPFRAME
350
6CE
  0
XRECORD
  5
70F
102
{ACAD_REACTORS
330
C
102
}
330
C
100
AcDbXrecord
280
     1
  1
DWGPROPS COOKIE
  2

  3

  4

  6
File was created by TR2_DExp
  7

  8
fujino
  9

300
=
301
=
302
=
303
=
304
=
305
=
306
=
307
=
308
=
309
=
 40
0.0077541782407407
 41
2455188.75
 42
2459758.580786586
  1

 90
        0
  0
DICTIONARY
  5
2DF
102
{ACAD_REACTORS
330
2DE
102
}
330
2DE
100
AcDbDictionary
281
     1
  0
XRECORD
  5
63A
102
{ACAD_REACTORS
330
639
102
}
330
639
100
AcDbXrecord
280
     1
290
     1
  0
XRECORD
  5
63D
102
{ACAD_REACTORS
330
2DA
102
}
330
2DA
100
AcDbXrecord
280
     1
290
     1
  0
XRECORD
  5
63E
102
{ACAD_REACTORS
330
2DC
102
}
330
2DC
100
AcDbXrecord
280
     1
290
     1
  0
SORTENTSTABLE
  5
469
102
{ACAD_REACTORS
330
468
102
}
330
468
100
AcDbSortentsTable
330
1F
331
5D4
  5
392
331
595
  5
402
331
591
  5
3FE
331
5D0
  5
38E
331
58D
  5
3FA
331
5CC
  5
38A
331
60D
  5
3CB
331
609
  5
3C7
331
589
  5
3F6
331
5C8
  5
386
331
605
  5
3C3
331
601
  5
3BF
331
55E
  5
474
331
51F
  5
433
331
51B
  5
4E7
331
55A
  5
470
331
556
  5
46C
331
4EC
  5
4B8
331
47E
  5
4FD
331
4AD
  5
52C
331
552
  5
466
331
4E8
  5
4B4
331
47A
  5
4F9
331
4A9
  5
528
331
4E4
  5
4B0
331
476
  5
4F5
331
472
  5
4F1
331
4E0
  5
4AC
331
5C4
  5
382
331
5C0
  5
42D
331
5FF
  5
3BD
331
5BC
  5
429
331
46E
  5
4ED
331
5FB
  5
3B9
331
5B8
  5
425
331
46A
  5
4E9
331
43D
  5
55C
331
439
  5
558
331
54E
  5
462
331
54A
  5
45E
331
546
  5
45A
331
585
  5
3F2
331
581
  5
3EE
331
542
  5
456
331
4DC
  5
4A8
331
632
  5
632
331
4D8
  5
4A4
331
517
  5
4E3
331
4A5
  5
524
331
4D4
  5
4A0
331
513
  5
4DF
331
466
  5
585
331
462
  5
581
331
4A1
  5
520
331
4D0
  5
49C
331
5F7
  5
3B5
331
5B4
  5
421
331
5F3
  5
3B1
331
5B0
  5
41D
331
5EF
  5
3AD
331
62C
  5
62C
331
5AC
  5
419
331
5EB
  5
3A9
331
435
  5
554
331
628
  5
628
331
431
  5
550
331
5A8
  5
415
331
624
  5
624
331
42D
  5
54C
331
429
  5
548
331
620
  5
3DE
331
53E
  5
452
331
57D
  5
3EA
331
53A
  5
44E
331
579
  5
3E6
331
536
  5
44A
331
575
  5
3E2
331
50F
  5
4DB
331
571
  5
487
331
50B
  5
4D7
331
532
  5
446
331
45E
  5
57D
331
49D
  5
51C
331
4CC
  5
498
331
4C8
  5
494
331
507
  5
4D3
331
45A
  5
579
331
499
  5
518
331
495
  5
514
331
4C4
  5
490
331
503
  5
4CF
331
456
  5
575
331
452
  5
571
331
491
  5
510
331
4C0
  5
48C
331
5E7
  5
3A5
331
5E3
  5
3A1
331
5A4
  5
411
331
5A0
  5
40D
331
5DF
  5
39D
331
61C
  5
3DA
331
59C
  5
409
331
5DB
  5
399
331
425
  5
544
331
421
  5
540
331
618
  5
3D6
331
598
  5
405
331
614
  5
3D2
331
610
  5
3CE
331
52E
  5
442
331
56D
  5
483
331
52A
  5
43E
331
569
  5
47F
331
526
  5
43A
331
565
  5
47B
331
4FF
  5
4CB
331
561
  5
477
331
4FB
  5
4C7
331
522
  5
436
331
44E
  5
56D
331
48D
  5
50C
331
4BC
  5
53B
331
4B8
  5
537
331
4F7
  5
4C3
331
44A
  5
569
331
489
  5
508
331
485
  5
504
331
4B4
  5
533
331
4F3
  5
4BF
331
446
  5
565
331
481
  5
500
331
4B0
  5
52F
331
442
  5
561
331
5D7
  5
395
331
5D3
  5
391
331
594
  5
401
331
590
  5
3FD
331
5CF
  5
38D
331
60C
  5
3CA
331
58C
  5
3F9
331
5CB
  5
389
331
608
  5
3C6
331
588
  5
3F5
331
604
  5
3C2
331
600
  5
3BE
331
51E
  5
432
331
55D
  5
473
331
51A
  5
4E6
331
559
  5
46F
331
555
  5
46B
331
4EF
  5
4BB
331
551
  5
465
331
4EB
  5
4B7
331
47D
  5
4FC
331
4AC
  5
52B
331
4A8
  5
527
331
4E7
  5
4B3
331
479
  5
4F8
331
4E3
  5
4AF
331
475
  5
4F4
331
471
  5
4F0
331
5C7
  5
385
331
5C3
  5
430
331
5BF
  5
42C
331
5FE
  5
3BC
331
5BB
  5
428
331
46D
  5
4EC
331
5FA
  5
3B8
331
43C
  5
55B
331
438
  5
557
331
54D
  5
461
331
549
  5
45D
331
584
  5
3F1
331
545
  5
459
331
4DF
  5
4AB
331
580
  5
3ED
331
4DB
  5
4A7
331
541
  5
455
331
631
  5
631
331
4D7
  5
4A3
331
516
  5
4E2
331
4A4
  5
523
331
4D3
  5
49F
331
512
  5
4DE
331
465
  5
584
331
461
  5
580
331
4A0
  5
51F
331
5F6
  5
3B4
331
5B7
  5
424
331
5B3
  5
420
331
5F2
  5
3B0
331
62F
  5
62F
331
5AF
  5
41C
331
5EE
  5
3AC
331
62B
  5
62B
331
5AB
  5
418
331
5EA
  5
3A8
331
434
  5
553
331
627
  5
627
331
430
  5
54F
331
623
  5
623
331
42C
  5
54B
331
428
  5
547
331
53D
  5
451
331
57C
  5
3E9
331
539
  5
44D
331
578
  5
3E5
331
50E
  5
4DA
331
535
  5
449
331
4CF
  5
49B
331
574
  5
3E1
331
570
  5
486
331
50A
  5
4D6
331
531
  5
445
331
45D
  5
57C
331
49C
  5
51B
331
4CB
  5
497
331
4C7
  5
493
331
506
  5
4D2
331
459
  5
578
331
498
  5
517
331
494
  5
513
331
4C3
  5
48F
331
502
  5
4CE
331
455
  5
574
331
451
  5
570
331
490
  5
50F
331
5E6
  5
3A4
331
5A7
  5
414
331
5A3
  5
410
331
5E2
  5
3A0
331
59F
  5
40C
331
5DE
  5
39C
331
61F
  5
3DD
331
61B
  5
3D9
331
59B
  5
408
331
5DA
  5
398
331
424
  5
543
331
420
  5
53F
331
617
  5
3D5
331
613
  5
3D1
331
52D
  5
441
331
56C
  5
482
331
529
  5
43D
331
568
  5
47E
331
525
  5
439
331
564
  5
47A
331
4BF
  5
48B
331
4FE
  5
4CA
331
560
  5
476
331
4FA
  5
4C6
331
521
  5
435
331
44D
  5
56C
331
48C
  5
50B
331
4BB
  5
53A
331
4B7
  5
536
331
4F6
  5
4C2
331
449
  5
568
331
488
  5
507
331
484
  5
503
331
4B3
  5
532
331
4F2
  5
4BE
331
445
  5
564
331
441
  5
560
331
480
  5
4FF
331
5D6
  5
394
331
597
  5
404
331
5D2
  5
390
331
593
  5
400
331
58F
  5
3FC
331
5CE
  5
38C
331
60F
  5
3CD
331
60B
  5
3C9
331
58B
  5
3F8
331
5CA
  5
388
331
607
  5
3C5
331
603
  5
3C1
331
51D
  5
431
331
55C
  5
472
331
519
  5
4E5
331
558
  5
46E
331
554
  5
46A
331
4AF
  5
52E
331
4EE
  5
4BA
331
550
  5
464
331
4EA
  5
4B6
331
47C
  5
4FB
331
4AB
  5
52A
331
4E6
  5
4B2
331
478
  5
4F7
331
474
  5
4F3
331
4E2
  5
4AE
331
470
  5
4EF
331
5C6
  5
384
331
5C2
  5
42F
331
5BE
  5
42B
331
5FD
  5
3BB
331
5BA
  5
427
331
46C
  5
4EB
331
5F9
  5
3B7
331
43F
  5
55E
331
43B
  5
55A
331
54C
  5
460
331
548
  5
45C
331
587
  5
3F4
331
583
  5
3F0
331
544
  5
458
331
4DE
  5
4AA
331
540
  5
454
331
4DA
  5
4A6
331
630
  5
630
331
4A7
  5
526
331
4D6
  5
4A2
331
515
  5
4E1
331
4A3
  5
522
331
4D2
  5
49E
331
511
  5
4DD
331
464
  5
583
331
460
  5
57F
331
5F5
  5
3B3
331
5B6
  5
423
331
5B2
  5
41F
331
5F1
  5
3AF
331
62E
  5
62E
331
5AE
  5
41B
331
5ED
  5
3AB
331
437
  5
556
331
62A
  5
62A
331
5AA
  5
417
331
5E9
  5
3A7
331
433
  5
552
331
626
  5
626
331
42F
  5
54E
331
42B
  5
54A
331
622
  5
3E0
331
57F
  5
3EC
331
53C
  5
450
331
57B
  5
3E8
331
538
  5
44C
331
577
  5
3E4
331
573
  5
489
331
50D
  5
4D9
331
534
  5
448
331
49F
  5
51E
331
4CE
  5
49A
331
4CA
  5
496
331
509
  5
4D5
331
45C
  5
57B
331
49B
  5
51A
331
530
  5
444
331
4C6
  5
492
331
505
  5
4D1
331
458
  5
577
331
497
  5
516
331
493
  5
512
331
4C2
  5
48E
331
501
  5
4CD
331
454
  5
573
331
450
  5
56F
331
5E5
  5
3A3
331
5A6
  5
413
331
5A2
  5
40F
331
5E1
  5
39F
331
59E
  5
40B
331
5DD
  5
39B
331
427
  5
546
331
61E
  5
3DC
331
61A
  5
3D8
331
59A
  5
407
331
5D9
  5
397
331
423
  5
542
331
41F
  5
53E
331
616
  5
3D4
331
612
  5
3D0
331
56F
  5
485
331
52C
  5
440
331
56B
  5
481
331
528
  5
43C
331
567
  5
47D
331
4FD
  5
4C9
331
524
  5
438
331
48F
  5
50E
331
4BE
  5
48A
331
563
  5
479
331
4F9
  5
4C5
331
520
  5
434
331
44C
  5
56B
331
48B
  5
50A
331
4BA
  5
539
331
4B6
  5
535
331
4F5
  5
4C1
331
448
  5
567
331
487
  5
506
331
483
  5
502
331
4B2
  5
531
331
4F1
  5
4BD
331
444
  5
563
331
440
  5
55F
331
5D5
  5
393
331
596
  5
403
331
592
  5
3FF
331
5D1
  5
38F
331
58E
  5
3FB
331
5CD
  5
38B
331
60E
  5
3CC
331
60A
  5
3C8
331
58A
  5
3F7
331
5C9
  5
387
331
606
  5
3C4
331
602
  5
3C0
331
55F
  5
475
331
51C
  5
4E8
331
55B
  5
471
331
518
  5
4E4
331
557
  5
46D
331
553
  5
467
331
47F
  5
4FE
331
4AE
  5
52D
331
4ED
  5
4B9
331
4E9
  5
4B5
331
47B
  5
4FA
331
4AA
  5
529
331
4E5
  5
4B1
331
477
  5
4F6
331
473
  5
4F2
331
4E1
  5
4AD
331
5C5
  5
383
331
5C1
  5
42E
331
5BD
  5
42A
331
46F
  5
4EE
331
5FC
  5
3BA
331
5F8
  5
3B6
331
5B9
  5
426
331
46B
  5
4EA
331
43E
  5
55D
331
43A
  5
559
331
54F
  5
463
331
54B
  5
45F
331
547
  5
45B
331
586
  5
3F3
331
582
  5
3EF
331
543
  5
457
331
4DD
  5
4A9
331
4D9
  5
4A5
331
4A6
  5
525
331
4D5
  5
4A1
331
514
  5
4E0
331
467
  5
586
331
463
  5
582
331
4A2
  5
521
331
4D1
  5
49D
331
510
  5
4DC
331
5F4
  5
3B2
331
5B5
  5
422
331
5B1
  5
41E
331
5F0
  5
3AE
331
62D
  5
62D
331
5AD
  5
41A
331
5EC
  5
3AA
331
436
  5
555
331
629
  5
629
331
432
  5
551
331
5A9
  5
416
331
5E8
  5
3A6
331
625
  5
625
331
42E
  5
54D
331
42A
  5
549
331
621
  5
3DF
331
53F
  5
453
331
57E
  5
3EB
331
53B
  5
44F
331
57A
  5
3E7
331
537
  5
44B
331
576
  5
3E3
331
572
  5
488
331
50C
  5
4D8
331
533
  5
447
331
45F
  5
57E
331
49E
  5
51D
331
4CD
  5
499
331
4C9
  5
495
331
508
  5
4D4
331
45B
  5
57A
331
49A
  5
519
331
496
  5
515
331
4C5
  5
491
331
504
  5
4D0
331
457
  5
576
331
492
  5
511
331
4C1
  5
48D
331
500
  5
4CC
331
453
  5
572
331
5E4
  5
3A2
331
5A5
  5
412
331
5A1
  5
40E
331
5E0
  5
39E
331
61D
  5
3DB
331
59D
  5
40A
331
5DC
  5
39A
331
426
  5
545
331
619
  5
3D7
331
599
  5
406
331
5D8
  5
396
331
422
  5
541
331
41E
  5
53D
331
615
  5
3D3
331
611
  5
3CF
331
52F
  5
443
331
56E
  5
484
331
52B
  5
43F
331
56A
  5
480
331
527
  5
43B
331
566
  5
47C
331
562
  5
478
331
4FC
  5
4C8
331
523
  5
437
331
44F
  5
56E
331
48E
  5
50D
331
4BD
  5
53C
331
4B9
  5
538
331
4F8
  5
4C4
331
44B
  5
56A
331
48A
  5
509
331
4B5
  5
534
331
4F4
  5
4C0
331
447
  5
566
331
486
  5
505
331
482
  5
501
331
4B1
  5
530
331
4F0
  5
4BC
331
443
  5
562
  0
ACDBDETAILVIEWSTYLE
  5
2D1
102
{ACAD_XDICTIONARY
360
747
102
}
102
{ACAD_REACTORS
330
2D0
102
}
330
2D0
100
AcDbModelDocViewStyle
 70
     0
  3
Metric50
290
     0
100
AcDbDetailViewStyle
 70
     0
 71
     0
 90
        3
 71
     1
340
11
 40
5.0
340
0
 40
5.0
300

 40
0.0
280
     1
 71
     2
340
16
 90
       25
 71
     3
340
11
 40
5.0
 90
        0
 40
15.0
 90
        1
300
%<\AcVar ViewDetailId>% (%<\AcVar ViewScale \f "%sn">%)
 71
     4
340
16
 90
       25
340
16
 90
       25
280
     0
  0
GROUP
  5
633
102
{ACAD_REACTORS
330
D
102
}
330
D
100
AcDbGroup
300

 70
     1
 71
     1
340
624
340
623
340
4BD
340
4BC
340
4BB
340
4BA
340
4B9
340
4B8
340
4B7
340
4B6
340
4B5
340
4B4
340
4B3
340
4B2
340
4B1
340
4B0
340
4AF
340
4AE
340
4AD
340
4AC
340
4AB
340
4AA
340
4A9
340
4A8
340
4A7
340
4A6
340
4A5
340
4A4
340
4A3
340
4A2
340
4A1
340
4A0
340
49F
340
49E
340
49D
340
49C
340
49B
340
49A
340
499
340
498
340
497
340
496
340
495
340
494
340
493
340
492
340
491
340
490
340
48F
340
48E
340
48D
340
48C
340
48B
340
48A
340
489
340
488
340
487
340
486
340
485
340
484
340
483
340
482
340
481
340
480
340
47F
340
47E
340
47D
340
47C
340
47B
340
47A
340
479
340
478
340
477
340
476
340
475
340
474
340
473
340
472
340
471
340
470
340
46F
340
46E
340
46D
340
46C
340
46B
340
46A
  0
GROUP
  5
634
102
{ACAD_REACTORS
330
D
102
}
330
D
100
AcDbGroup
300

 70
     1
 71
     1
340
629
340
628
340
627
340
51C
340
51B
340
51A
340
519
340
518
340
517
340
516
340
515
340
514
340
513
340
512
340
511
340
510
340
50F
340
50E
340
50D
340
50C
340
50B
340
50A
340
509
340
508
340
507
340
506
340
505
340
504
340
503
340
502
340
501
340
500
340
4FF
340
4FE
340
4FD
340
4FC
340
4FB
340
4FA
340
4F9
340
4F8
340
4F7
340
4F6
340
4F5
340
4F4
340
4F3
340
4F2
340
4F1
340
4F0
340
4EF
340
4EE
340
4ED
340
4EC
340
4EB
340
4EA
340
4E9
340
4E8
340
4E7
340
4E6
340
4E5
340
4E4
340
4E3
340
4E2
340
4E1
340
4E0
340
4DF
340
4DE
340
4DD
340
4DC
340
4DB
340
4DA
340
4D9
340
4D8
340
4D7
340
4D6
340
4D5
340
4D4
340
4D3
340
4D2
340
4D1
340
4D0
340
4CF
340
4CE
340
4CD
340
4CC
340
4CB
340
4CA
340
4C9
340
4C8
340
4C7
340
4C6
340
4C5
340
4C4
340
4C3
340
4C2
340
4C1
340
4C0
340
4BF
340
4BE
  0
GROUP
  5
635
102
{ACAD_REACTORS
330
D
102
}
330
D
100
AcDbGroup
300

 70
     1
 71
     1
340
62C
340
62B
340
62A
340
573
340
572
340
571
340
570
340
56F
340
56E
340
56D
340
56C
340
56B
340
56A
340
569
340
568
340
567
340
566
340
565
340
564
340
563
340
562
340
561
340
560
340
55F
340
55E
340
55D
340
55C
340
55B
340
55A
340
559
340
558
340
557
340
556
340
555
340
554
340
553
340
552
340
551
340
550
340
54F
340
54E
340
54D
340
54C
340
54B
340
54A
340
549
340
548
340
547
340
546
340
545
340
544
340
543
340
542
340
541
340
540
340
53F
340
53E
340
53D
340
53C
340
53B
340
53A
340
539
340
538
340
537
340
536
340
535
340
534
340
533
340
532
340
531
340
530
340
52F
340
52E
340
52D
340
52C
340
52B
340
52A
340
529
340
528
340
527
340
526
340
525
340
524
340
523
340
522
340
521
340
520
340
51F
340
51E
340
51D
  0
GROUP
  5
636
102
{ACAD_REACTORS
330
D
102
}
330
D
100
AcDbGroup
300

 70
     1
 71
     1
340
62F
340
62E
340
62D
340
622
340
621
340
620
340
61F
340
61E
340
61D
340
61C
340
61B
340
61A
340
619
340
618
340
617
340
616
340
615
340
614
340
613
340
612
340
611
340
610
340
60F
340
60E
340
60D
340
60C
340
60B
340
60A
340
609
340
608
340
607
340
606
340
605
340
604
340
603
340
602
340
601
340
600
340
5FF
340
5FE
340
5FD
340
5FC
340
5FB
340
5FA
340
5F9
340
5F8
340
5F7
340
5F6
340
5F5
340
5F4
340
5F3
340
5F2
340
5F1
340
5F0
340
5EF
340
5EE
340
5ED
340
5EC
340
5EB
340
5EA
340
5E9
340
5E8
340
5E7
340
5E6
340
5E5
340
5E4
340
5E3
340
5E2
340
5E1
340
5E0
340
5DF
340
5DE
340
5DD
340
5DC
340
5DB
340
5DA
340
5D9
340
5D8
340
5D7
340
5D6
340
5D5
340
5D4
340
5D3
340
5D2
340
5D1
340
5D0
340
5CF
340
5CE
340
5CD
340
5CC
340
5CB
340
5CA
340
5C9
340
5C8
340
5C7
340
5C6
340
5C5
340
5C4
  0
GROUP
  5
637
102
{ACAD_REACTORS
330
D
102
}
330
D
100
AcDbGroup
300

 70
     1
 71
     1
340
632
340
631
340
630
340
5C3
340
5C2
340
5C1
340
5C0
340
5BF
340
5BE
340
5BD
340
5BC
340
5BB
340
5BA
340
5B9
340
5B8
340
5B7
340
5B6
340
5B5
340
5B4
340
5B3
340
5B2
340
5B1
340
5B0
340
5AF
340
5AE
340
5AD
340
5AC
340
5AB
340
5AA
340
5A9
340
5A8
340
5A7
340
5A6
340
5A5
340
5A4
340
5A3
340
5A2
340
5A1
340
5A0
340
59F
340
59E
340
59D
340
59C
340
59B
340
59A
340
599
340
598
340
597
340
596
340
595
340
594
340
593
340
592
340
591
340
590
340
58F
340
58E
340
58D
340
58C
340
58B
340
58A
340
589
340
588
340
587
340
586
340
585
340
584
340
583
340
582
340
581
340
580
340
57F
340
57E
340
57D
340
57C
340
57B
340
57A
340
579
340
578
340
577
340
576
340
575
340
574
  0
GROUP
  5
638
102
{ACAD_REACTORS
330
D
102
}
330
D
100
AcDbGroup
300

 70
     1
 71
     1
340
626
340
625
340
467
340
466
340
465
340
464
340
463
340
462
340
461
340
460
340
45F
340
45E
340
45D
340
45C
340
45B
340
45A
340
459
340
458
340
457
340
456
340
455
340
454
340
453
340
452
340
451
340
450
340
44F
340
44E
340
44D
340
44C
340
44B
340
44A
340
449
340
448
340
447
340
446
340
445
340
444
340
443
340
442
340
441
340
440
340
43F
340
43E
340
43D
340
43C
340
43B
340
43A
340
439
340
438
340
437
340
436
340
435
340
434
340
433
340
432
340
431
340
430
340
42F
340
42E
340
42D
340
42C
340
42B
340
42A
340
429
340
428
340
427
340
426
340
425
340
424
340
423
340
422
340
421
340
420
340
41F
340
41E
  0
LAYOUT
  5
1E
102
{ACAD_XDICTIONARY
360
710
102
}
102
{ACAD_REACTORS
330
1A
102
}
330
1A
100
AcDbPlotSettings
  1

  2
none_device
  4

  6

 40
0.0
 41
0.0
 42
0.0
 43
0.0
 44
0.0
 45
0.0
 46
0.0
 47
0.0
 48
0.0
 49
0.0
140
0.0
141
0.0
142
1.0
143
1.0
 70
   688
 72
     1
 73
     0
 74
     5
  7

 75
    16
147
1.0
148
0.0
149
0.0
100
AcDbLayout
  1
Layout1
 70
     1
 71
     1
 10
0.0
 20
0.0
 11
420.0
 21
297.0
 12
0.0
 22
0.0
 32
0.0
 14
1.000000000000000E+20
 24
1.000000000000000E+20
 34
1.000000000000000E+20
 15
-1.000000000000000E+20
 25
-1.000000000000000E+20
 35
-1.000000000000000E+20
146
0.0
 13
0.0
 23
0.0
 33
0.0
 16
1.0
 26
0.0
 36
0.0
 17
0.0
 27
1.0
 37
0.0
 76
     0
330
1B
  0
LAYOUT
  5
22
102
{ACAD_XDICTIONARY
360
712
102
}
102
{ACAD_REACTORS
330
1A
102
}
330
1A
100
AcDbPlotSettings
  1

  2
none_device
  4
Letter_(8.50_x_11.00_Inches)
  6

 40
6.349999999999997
 41
6.349999999999997
 42
6.350005079999997
 43
6.350005079999997
 44
215.9
 45
279.4
 46
0.0
 47
0.0
 48
0.0
 49
0.0
140
0.0
141
0.0
142
1.0
143
1.0
 70
  1712
 72
     1
 73
     0
 74
     0
  7

 75
     0
147
1.0
148
0.0
149
0.0
100
AcDbLayout
  1
Model
 70
     1
 71
     0
 10
-345.3118362426758
 20
-459.6613540649413
 11
911.7224426269531
 21
713.0842590332031
 12
0.0
 22
0.0
 32
0.0
 14
-345.3118362426758
 24
-459.6613540649413
 34
0.0
 15
911.7224426269531
 25
713.0842590332031
 35
0.0
146
0.0
 13
0.0
 23
0.0
 33
0.0
 16
1.0
 26
0.0
 36
0.0
 17
0.0
 27
1.0
 37
0.0
 76
     0
330
1F
331
29
  0
LAYOUT
  5
2D2
102
{ACAD_XDICTIONARY
360
749
102
}
102
{ACAD_REACTORS
330
1A
102
}
330
1A
100
AcDbPlotSettings
  1

  2
青梅 FX DocuCentre-V C2275 T2
  4

  6

 40
0.0
 41
0.0
 42
0.0
 43
0.0
 44
0.0
 45
0.0
 46
0.0
 47
0.0
 48
0.0
 49
0.0
140
0.0
141
0.0
142
1.0
143
1.0
 70
   688
 72
     0
 73
     0
 74
     5
  7
AutoCAD_PEN.ctb
 75
    16
147
1.0
148
0.0
149
0.0
100
AcDbLayout
  1
レイアウト1
 70
     1
 71
     2
 10
0.0
 20
0.0
 11
12.0
 21
9.0
 12
0.0
 22
0.0
 32
0.0
 14
0.0
 24
0.0
 34
0.0
 15
0.0
 25
0.0
 35
0.0
146
0.0
 13
0.0
 23
0.0
 33
0.0
 16
1.0
 26
0.0
 36
0.0
 17
0.0
 27
1.0
 37
0.0
 76
     0
330
23
  0
MATERIAL
  5
45
102
{ACAD_XDICTIONARY
360
2C4
102
}
102
{ACAD_REACTORS
330
43
102
}
330
43
100
AcDbMaterial
  1
ByBlock
  0
MATERIAL
  5
44
102
{ACAD_XDICTIONARY
360
2C2
102
}
102
{ACAD_REACTORS
330
43
102
}
330
43
100
AcDbMaterial
  1
ByLayer
  0
MATERIAL
  5
46
102
{ACAD_XDICTIONARY
360
2C6
102
}
102
{ACAD_REACTORS
330
43
102
}
330
43
100
AcDbMaterial
  1
Global
  0
MLEADERSTYLE
  5
5C
102
{ACAD_REACTORS
330
5B
102
}
330
5B
100
AcDbMLeaderStyle
170
     2
171
     1
172
     0
 90
        2
 40
0.0
 41
0.0
173
     1
 91
-1056964608
340
14
 92
       -2
290
     1
 42
2.0
291
     1
 43
8.0
  3
Standard
 44
4.0
300

342
11
174
     1
178
     6
175
     1
176
     0
 93
-1056964608
 45
4.0
292
     0
297
     0
 46
4.0
 94
-1056964608
 47
1.0
 49
1.0
140
1.0
293
     1
141
0.0
294
     1
177
     0
142
1.0
295
     0
296
     0
143
3.75
1001
ACAD_MLEADERVER
1070
     2
  0
MLINESTYLE
  5
18
102
{ACAD_REACTORS
330
17
102
}
330
17
100
AcDbMlineStyle
  2
STANDARD
 70
     0
  3

 62
   256
 51
90.0
 52
90.0
 71
     2
 49
0.5
 62
   256
  6
BYLAYER
 49
-0.5
 62
   256
  6
BYLAYER
  0
ACDBPLACEHOLDER
  5
F
102
{ACAD_REACTORS
330
E
102
}
330
E
  0
SCALE
  5
48
102
{ACAD_REACTORS
330
47
102
}
330
47
100
AcDbScale
 70
     0
300
1:1
140
1.0
141
1.0
290
     1
  0
SCALE
  5
49
102
{ACAD_REACTORS
330
47
102
}
330
47
100
AcDbScale
 70
     0
300
1:2
140
1.0
141
2.0
290
     0
  0
SCALE
  5
4A
102
{ACAD_REACTORS
330
47
102
}
330
47
100
AcDbScale
 70
     0
300
1:4
140
1.0
141
4.0
290
     0
  0
SCALE
  5
4B
102
{ACAD_REACTORS
330
47
102
}
330
47
100
AcDbScale
 70
     0
300
1:5
140
1.0
141
5.0
290
     0
  0
SCALE
  5
4C
102
{ACAD_REACTORS
330
47
102
}
330
47
100
AcDbScale
 70
     0
300
1:8
140
1.0
141
8.0
290
     0
  0
SCALE
  5
4D
102
{ACAD_REACTORS
330
47
102
}
330
47
100
AcDbScale
 70
     0
300
1:10
140
1.0
141
10.0
290
     0
  0
SCALE
  5
4E
102
{ACAD_REACTORS
330
47
102
}
330
47
100
AcDbScale
 70
     0
300
1:16
140
1.0
141
16.0
290
     0
  0
SCALE
  5
4F
102
{ACAD_REACTORS
330
47
102
}
330
47
100
AcDbScale
 70
     0
300
1:20
140
1.0
141
20.0
290
     0
  0
SCALE
  5
50
102
{ACAD_REACTORS
330
47
102
}
330
47
100
AcDbScale
 70
     0
300
1:30
140
1.0
141
30.0
290
     0
  0
SCALE
  5
51
102
{ACAD_REACTORS
330
47
102
}
330
47
100
AcDbScale
 70
     0
300
1:40
140
1.0
141
40.0
290
     0
  0
SCALE
  5
52
102
{ACAD_REACTORS
330
47
102
}
330
47
100
AcDbScale
 70
     0
300
1:50
140
1.0
141
50.0
290
     0
  0
SCALE
  5
53
102
{ACAD_REACTORS
330
47
102
}
330
47
100
AcDbScale
 70
     0
300
1:100
140
1.0
141
100.0
290
     0
  0
SCALE
  5
54
102
{ACAD_REACTORS
330
47
102
}
330
47
100
AcDbScale
 70
     0
300
2:1
140
2.0
141
1.0
290
     0
  0
SCALE
  5
55
102
{ACAD_REACTORS
330
47
102
}
330
47
100
AcDbScale
 70
     0
300
4:1
140
4.0
141
1.0
290
     0
  0
SCALE
  5
56
102
{ACAD_REACTORS
330
47
102
}
330
47
100
AcDbScale
 70
     0
300
8:1
140
8.0
141
1.0
290
     0
  0
SCALE
  5
57
102
{ACAD_REACTORS
330
47
102
}
330
47
100
AcDbScale
 70
     0
300
10:1
140
10.0
141
1.0
290
     0
  0
SCALE
  5
58
102
{ACAD_REACTORS
330
47
102
}
330
47
100
AcDbScale
 70
     0
300
100:1
140
100.0
141
1.0
290
     0
  0
ACDBSECTIONVIEWSTYLE
  5
2CF
102
{ACAD_XDICTIONARY
360
745
102
}
102
{ACAD_REACTORS
330
2CE
102
}
330
2CE
100
AcDbModelDocViewStyle
 70
     0
  3
Metric50
290
     0
100
AcDbSectionViewStyle
 70
     0
 71
     0
 90
      102
 71
     1
340
11
 40
5.0
340
0
340
0
 40
5.0
300
I, O, Q, S, X, Z
 40
10.0
 90
        0
 40
2.5
 90
        0
 71
     2
340
16
 90
       25
340
16
 90
       50
 40
5.0
 40
2.5
 40
5.0
 71
     3
340
11
 40
5.0
 90
        0
 40
15.0
 90
        1
300
%<\AcVar ViewSectionStartId>%-%<\AcVar ViewSectionEndId>% (%<\AcVar ViewScale \f "%sn">%)
 71
     4
300
ANSI31
 40
1.0
 90
        0
290
     0
290
     0
 90
        6
 40
0.0
 40
1.570796326794896
 40
0.2617993877991494
 40
1.308996938995747
 40
-0.2617993877991494
 40
1.832595714594044
  0
TABLESTYLE
  5
5A
102
{ACAD_XDICTIONARY
360
644
102
}
102
{ACAD_REACTORS
330
59
102
}
330
59
100
AcDbTableStyle
  3
Standard
 70
     0
 71
     0
 40
1.5
 41
1.5
280
     0
281
     0
  7
Standard
140
4.5
170
     2
 62
     0
 63
     7
283
     0
274
    -2
284
     1
 64
     0
275
    -2
285
     1
 65
     0
276
    -2
286
     1
 66
     0
277
    -2
287
     1
 67
     0
278
    -2
288
     1
 68
     0
279
    -2
289
     1
 69
     0
  7
Standard
140
6.0
170
     5
 62
     0
 63
     7
283
     0
274
    -2
284
     1
 64
     0
275
    -2
285
     1
 65
     0
276
    -2
286
     1
 66
     0
277
    -2
287
     1
 67
     0
278
    -2
288
     1
 68
     0
279
    -2
289
     1
 69
     0
  7
Standard
140
4.5
170
     5
 62
     0
 63
     7
283
     0
274
    -2
284
     1
 64
     0
275
    -2
285
     1
 65
     0
276
    -2
286
     1
 66
     0
277
    -2
287
     1
 67
     0
278
    -2
288
     1
 68
     0
279
    -2
289
     1
 69
     0
  0
VISUALSTYLE
  5
2F
102
{ACAD_XDICTIONARY
360
71C
102
}
102
{ACAD_REACTORS
330
2A
102
}
330
2A
100
AcDbVisualStyle
  2

 70
     4
 71
     0
 72
     2
 73
     0
 90
        0
 40
-0.6
 41
-30.0
 62
     5
 63
     7
 74
     1
 91
        4
 64
     7
 65
   257
 75
     1
175
     1
 42
1.0
 92
        0
 66
   257
 43
1.0
 76
     1
 77
     6
 78
     2
 67
     7
 79
     5
170
     0
171
     0
290
     0
174
     0
 93
        1
 44
0.0
173
     0
291
     0
 45
0.0
1001
ACAD
1000
AcDbSavedByObjectVersion
1070
     0
  0
VISUALSTYLE
  5
32
102
{ACAD_XDICTIONARY
360
722
102
}
102
{ACAD_REACTORS
330
2A
102
}
330
2A
100
AcDbVisualStyle
  2

 70
     7
 71
     1
 72
     0
 73
     1
 90
        0
 40
-0.6
 41
-30.0
 62
     5
 63
     7
 74
     0
 91
        4
 64
     7
 65
   257
 75
     1
175
     1
 42
1.0
 92
        8
 66
     7
 43
1.0
 76
     1
 77
     6
 78
     2
 67
     7
 79
     5
170
     0
171
     0
290
     0
174
     0
 93
        1
 44
0.0
173
     0
291
     1
 45
0.0
1001
ACAD
1000
AcDbSavedByObjectVersion
1070
     0
  0
VISUALSTYLE
  5
36
102
{ACAD_XDICTIONARY
360
72A
102
}
102
{ACAD_REACTORS
330
2A
102
}
330
2A
100
AcDbVisualStyle
  2

 70
    12
 71
     2
 72
     2
 73
     0
 90
        0
 40
-0.6
 41
-30.0
 62
     5
 63
     7
 74
     1
 91
        4
 64
     7
 65
   257
 75
     1
175
     1
 42
1.0
 92
        8
 66
     7
 43
1.0
 76
     1
 77
     6
 78
     2
 67
     7
 79
     5
170
     0
171
     0
290
     0
174
     0
 93
        1
 44
50.0
173
     0
291
     1
 45
0.0
1001
ACAD
1000
AcDbSavedByObjectVersion
1070
     0
  0
VISUALSTYLE
  5
3A
102
{ACAD_XDICTIONARY
360
732
102
}
102
{ACAD_REACTORS
330
2A
102
}
330
2A
100
AcDbVisualStyle
  2

 70
    16
 71
     2
 72
     2
 73
     3
 90
        0
 40
-0.6
 41
-30.0
 62
     5
 63
     8
 74
     1
 91
        4
 64
     7
 65
   257
 75
     1
175
     1
 42
1.0
 92
        8
 66
     8
 43
1.0
 76
     1
 77
     6
 78
     2
 67
     7
 79
     5
170
     0
171
     0
290
     0
174
     0
 93
        1
 44
0.0
173
     0
291
     1
 45
0.0
1001
ACAD
1000
AcDbSavedByObjectVersion
1070
     0
  0
VISUALSTYLE
  5
34
102
{ACAD_XDICTIONARY
360
726
102
}
102
{ACAD_REACTORS
330
2A
102
}
330
2A
100
AcDbVisualStyle
  2

 70
     9
 71
     3
 72
     2
 73
     0
 90
        0
 40
-0.6
 41
-30.0
 62
     5
 63
     7
 74
     2
 91
        2
 64
     7
 65
   257
 75
     1
175
     1
 42
179.0
 92
        8
 66
     7
 43
1.0
 76
     1
 77
     6
 78
     2
 67
     7
 79
     3
170
     0
171
     0
290
     0
174
     0
 93
        1
 44
0.0
173
     0
291
     0
 45
0.0
1001
ACAD
1000
AcDbSavedByObjectVersion
1070
     0
  0
VISUALSTYLE
  5
35
102
{ACAD_XDICTIONARY
360
728
102
}
102
{ACAD_REACTORS
330
2A
102
}
330
2A
100
AcDbVisualStyle
  2

 70
    11
 71
     2
 72
     2
 73
     0
 90
        0
 40
-0.6
 41
-30.0
 62
     5
 63
     7
 74
     1
 91
        4
 64
     7
 65
   257
 75
     1
175
     1
 42
1.0
 92
        8
 66
     7
 43
1.0
 76
     1
 77
     6
 78
     2
 67
     7
 79
     5
170
     0
171
     0
290
     0
174
     0
 93
        1
 44
-50.0
173
     0
291
     1
 45
0.0
1001
ACAD
1000
AcDbSavedByObjectVersion
1070
     0
  0
VISUALSTYLE
  5
3D
102
{ACAD_XDICTIONARY
360
738
102
}
102
{ACAD_REACTORS
330
2A
102
}
330
2A
100
AcDbVisualStyle
  2

 70
    22
 71
     2
 72
     2
 73
     0
 90
        0
 40
-0.6
 41
-30.0
 62
     5
 63
     7
 74
     1
 91
        4
 64
     7
 65
   257
 75
     1
175
     1
 42
1.0
 92
        8
 66
     7
 43
1.0
 76
     1
 77
     6
 78
     2
 67
     7
 79
     5
170
     0
171
     0
290
     0
174
     0
 93
        1
 44
0.0
173
     0
291
     1
 45
0.0
1001
ACAD
1000
AcDbSavedByObjectVersion
1070
     0
  0
VISUALSTYLE
  5
39
102
{ACAD_XDICTIONARY
360
730
102
}
102
{ACAD_REACTORS
330
2A
102
}
330
2A
100
AcDbVisualStyle
  2

 70
    15
 71
     2
 72
     2
 73
     0
 90
        0
 40
-0.6
 41
-30.0
 62
     5
 63
     7
 74
     1
 91
        4
 64
     7
 65
   257
 75
     1
175
     1
 42
1.0
 92
        8
 66
     7
 43
1.0
 76
     1
 77
     6
 78
     2
 67
     7
 79
     5
170
     0
171
     0
290
     0
174
     0
 93
        1
 44
0.0
173
     0
291
     1
 45
0.0
1001
ACAD
1000
AcDbSavedByObjectVersion
1070
     0
  0
VISUALSTYLE
  5
2B
102
{ACAD_XDICTIONARY
360
714
102
}
102
{ACAD_REACTORS
330
2A
102
}
330
2A
100
AcDbVisualStyle
  2

 70
     0
 71
     2
 72
     1
 73
     1
 90
        2
 40
-0.6
 41
30.0
 62
     5
 63
     7
 74
     0
 91
        0
 64
     7
 65
   257
 75
     1
175
     1
 42
1.0
 92
        8
 66
     7
 43
1.0
 76
     1
 77
     6
 78
     2
 67
     7
 79
     5
170
     0
171
     0
290
     0
174
     0
 93
       13
 44
0.0
173
     0
291
     1
 45
0.0
1001
ACAD
1000
AcDbSavedByObjectVersion
1070
     0
  0
VISUALSTYLE
  5
2C
102
{ACAD_XDICTIONARY
360
716
102
}
102
{ACAD_REACTORS
330
2A
102
}
330
2A
100
AcDbVisualStyle
  2

 70
     1
 71
     2
 72
     1
 73
     1
 90
        2
 40
-0.6
 41
30.0
 62
     5
 63
     7
 74
     1
 91
        0
 64
     7
 65
   257
 75
     1
175
     1
 42
1.0
 92
        0
 66
   257
 43
1.0
 76
     1
 77
     6
 78
     2
 67
     7
 79
     5
170
     0
171
     0
290
     0
174
     0
 93
       13
 44
0.0
173
     0
291
     1
 45
0.0
1001
ACAD
1000
AcDbSavedByObjectVersion
1070
     0
  0
VISUALSTYLE
  5
2D
102
{ACAD_XDICTIONARY
360
718
102
}
102
{ACAD_REACTORS
330
2A
102
}
330
2A
100
AcDbVisualStyle
  2

 70
     2
 71
     2
 72
     2
 73
     1
 90
        2
 40
-0.6
 41
30.0
 62
     5
 63
     7
 74
     0
 91
        0
 64
     7
 65
   257
 75
     1
175
     1
 42
1.0
 92
        0
 66
     7
 43
1.0
 76
     1
 77
     6
 78
     2
 67
     7
 79
     5
170
     0
171
     0
290
     0
174
     0
 93
       13
 44
0.0
173
     0
291
     1
 45
0.0
1001
ACAD
1000
AcDbSavedByObjectVersion
1070
     0
  0
VISUALSTYLE
  5
2E
102
{ACAD_XDICTIONARY
360
71A
102
}
102
{ACAD_REACTORS
330
2A
102
}
330
2A
100
AcDbVisualStyle
  2

 70
     3
 71
     2
 72
     2
 73
     1
 90
        2
 40
-0.6
 41
30.0
 62
     5
 63
     7
 74
     1
 91
        0
 64
     7
 65
   257
 75
     1
175
     1
 42
1.0
 92
        0
 66
   257
 43
1.0
 76
     1
 77
     6
 78
     2
 67
     7
 79
     5
170
     0
171
     0
290
     0
174
     0
 93
       13
 44
0.0
173
     0
291
     1
 45
0.0
1001
ACAD
1000
AcDbSavedByObjectVersion
1070
     0
  0
VISUALSTYLE
  5
31
102
{ACAD_XDICTIONARY
360
720
102
}
102
{ACAD_REACTORS
330
2A
102
}
330
2A
100
AcDbVisualStyle
  2

 70
     6
 71
     1
 72
     2
 73
     2
 90
        0
 40
-0.6
 41
-30.0
 62
     5
 63
     7
 74
     2
 91
        2
 64
     7
 65
   257
 75
     2
175
     1
 42
40.0
 92
        0
 66
   257
 43
1.0
 76
     1
 77
     6
 78
     2
 67
     7
 79
     3
170
     0
171
     0
290
     0
174
     0
 93
        1
 44
0.0
173
     0
291
     0
 45
0.0
1001
ACAD
1000
AcDbSavedByObjectVersion
1070
     0
  0
VISUALSTYLE
  5
3B
102
{ACAD_XDICTIONARY
360
734
102
}
102
{ACAD_REACTORS
330
2A
102
}
330
2A
100
AcDbVisualStyle
  2

 70
    20
 71
     2
 72
     2
 73
     0
 90
        0
 40
-0.6
 41
-30.0
 62
     5
 63
     7
 74
     1
 91
        4
 64
     7
 65
   257
 75
     1
175
     1
 42
1.0
 92
       10
 66
     7
 43
1.0
 76
     1
 77
     6
 78
     2
 67
     7
 79
     5
170
     0
171
     0
290
     0
174
     0
 93
        1
 44
0.0
173
     0
291
     1
 45
0.0
1001
ACAD
1000
AcDbSavedByObjectVersion
1070
     0
  0
VISUALSTYLE
  5
38
102
{ACAD_XDICTIONARY
360
72E
102
}
102
{ACAD_REACTORS
330
2A
102
}
330
2A
100
AcDbVisualStyle
  2

 70
    14
 71
     2
 72
     2
 73
     0
 90
        0
 40
-0.6
 41
-30.0
 62
     5
 63
     7
 74
     1
 91
        4
 64
     7
 65
   257
 75
     7
175
     7
 42
1.0
 92
        8
 66
     7
 43
1.0
 76
     1
 77
     6
 78
     2
 67
     7
 79
     5
170
     0
171
     0
290
     0
174
     0
 93
        1
 44
0.0
173
     0
291
     1
 45
0.0
1001
ACAD
1000
AcDbSavedByObjectVersion
1070
     0
  0
VISUALSTYLE
  5
3C
102
{ACAD_XDICTIONARY
360
736
102
}
102
{ACAD_REACTORS
330
2A
102
}
330
2A
100
AcDbVisualStyle
  2

 70
    21
 71
     2
 72
     2
 73
     0
 90
        0
 40
-0.6
 41
-30.0
 62
     5
 63
     7
 74
     1
 91
        4
 64
     7
 65
   257
 75
     1
175
     1
 42
1.0
 92
        9
 66
     7
 43
1.0
 76
     1
 77
     6
 78
     2
 67
     7
 79
     5
170
     0
171
     0
290
     0
174
     0
 93
        1
 44
0.0
173
     0
291
     1
 45
0.0
1001
ACAD
1000
AcDbSavedByObjectVersion
1070
     0
  0
VISUALSTYLE
  5
33
102
{ACAD_XDICTIONARY
360
724
102
}
102
{ACAD_REACTORS
330
2A
102
}
330
2A
100
AcDbVisualStyle
  2

 70
     8
 71
     2
 72
     3
 73
     0
 90
        2
 40
-0.6
 41
30.0
 62
     5
 63
     7
 74
     0
 91
        0
 64
     7
 65
   257
 75
     1
175
     1
 42
1.0
 92
        8
 66
   257
 43
1.0
 76
     1
 77
     6
 78
     2
 67
     7
 79
     3
170
     0
171
     0
290
     0
174
     0
 93
       13
 44
0.0
173
     0
291
     0
 45
0.0
1001
ACAD
1000
AcDbSavedByObjectVersion
1070
     0
  0
VISUALSTYLE
  5
42
102
{ACAD_XDICTIONARY
360
742
102
}
102
{ACAD_REACTORS
330
2A
102
}
330
2A
100
AcDbVisualStyle
  2

 70
    27
 71
     2
 72
     2
 73
     1
 90
        2
 40
-0.6
 41
30.0
 62
     5
 63
     7
 74
     0
 91
        4
 64
     7
 65
   257
 75
     1
175
     1
 42
1.0
 92
        8
 66
   257
 43
1.0
 76
     1
 77
     6
 78
     2
 67
     8
 79
     3
170
     0
171
     0
290
     0
174
     0
 93
        5
 44
0.0
173
     0
291
     0
 45
0.0
1001
ACAD
1000
AcDbSavedByObjectVersion
1070
     0
  0
VISUALSTYLE
  5
41
102
{ACAD_XDICTIONARY
360
740
102
}
102
{ACAD_REACTORS
330
2A
102
}
330
2A
100
AcDbVisualStyle
  2

 70
    26
 71
     2
 72
     2
 73
     1
 90
        2
 40
-0.6
 41
30.0
 62
     5
 63
     7
 74
     1
 91
       10
 64
     7
 65
   257
 75
     2
175
     1
 42
1.0
 92
        8
 66
   257
 43
1.0
 76
     1
 77
     6
 78
     2
 67
     7
 79
     3
170
     0
171
     0
290
     0
174
     0
 93
        5
 44
0.0
173
     0
291
     0
 45
0.0
1001
ACAD
1000
AcDbSavedByObjectVersion
1070
     0
  0
VISUALSTYLE
  5
3E
102
{ACAD_XDICTIONARY
360
73A
102
}
102
{ACAD_REACTORS
330
2A
102
}
330
2A
100
AcDbVisualStyle
  2

 70
    23
 71
     2
 72
     2
 73
     3
 90
        0
 40
-0.6
 41
-30.0
 62
     5
 63
     7
 74
     2
 91
        2
 64
     7
 65
     7
 75
     1
175
     1
 42
40.0
 92
        8
 66
     7
 43
1.0
 76
     1
 77
     6
 78
     2
 67
     7
 79
     3
170
     0
171
     0
290
     0
174
     0
 93
        1
 44
0.0
173
     0
291
     0
 45
0.0
1001
ACAD
1000
AcDbSavedByObjectVersion
1070
     0
  0
VISUALSTYLE
  5
3F
102
{ACAD_XDICTIONARY
360
73C
102
}
102
{ACAD_REACTORS
330
2A
102
}
330
2A
100
AcDbVisualStyle
  2

 70
    24
 71
     1
 72
     2
 73
     2
 90
        0
 40
-0.6
 41
-30.0
 62
     5
 63
     7
 74
     2
 91
        2
 64
     7
 65
     7
 75
     1
175
     1
 42
40.0
 92
       11
 66
     7
 43
1.0
 76
     1
 77
     6
 78
     2
 67
     7
 79
     6
170
     0
171
     0
290
     0
174
     0
 93
        1
 44
0.0
173
     0
291
     0
 45
0.0
1001
ACAD
1000
AcDbSavedByObjectVersion
1070
     0
  0
VISUALSTYLE
  5
37
102
{ACAD_XDICTIONARY
360
72C
102
}
102
{ACAD_REACTORS
330
2A
102
}
330
2A
100
AcDbVisualStyle
  2

 70
    13
 71
     2
 72
     2
 73
     0
 90
        0
 40
-0.6
 41
-30.0
 62
     5
 63
     7
 74
     1
 91
        4
 64
     7
 65
   257
 75
     1
175
     1
 42
1.0
 92
       12
 66
     7
 43
1.0
 76
     1
 77
     6
 78
     2
 67
     7
 79
     5
170
     0
171
     0
290
     0
174
     0
 93
        1
 44
0.0
173
     0
291
     1
 45
0.0
1001
ACAD
1000
AcDbSavedByObjectVersion
1070
     0
  0
VISUALSTYLE
  5
30
102
{ACAD_XDICTIONARY
360
71E
102
}
102
{ACAD_REACTORS
330
2A
102
}
330
2A
100
AcDbVisualStyle
  2

 70
     5
 71
     0
 72
     2
 73
     0
 90
        0
 40
-0.6
 41
-30.0
 62
     5
 63
     7
 74
     1
 91
        4
 64
     7
 65
   257
 75
     1
175
     1
 42
1.0
 92
        0
 66
   257
 43
1.0
 76
     1
 77
     6
 78
     2
 67
     7
 79
     3
170
     0
171
     0
290
     0
174
     0
 93
        1
 44
0.0
173
     0
291
     0
 45
0.0
1001
ACAD
1000
AcDbSavedByObjectVersion
1070
     0
  0
VISUALSTYLE
  5
40
102
{ACAD_XDICTIONARY
360
73E
102
}
102
{ACAD_REACTORS
330
2A
102
}
330
2A
100
AcDbVisualStyle
  2

 70
    25
 71
     2
 72
     2
 73
     1
 90
        1
 40
0.5
 41
-30.0
 62
     5
 63
     7
 74
     1
 91
        0
 64
     7
 65
   257
 75
     1
175
     1
 42
1.0
 92
        8
 66
     7
 43
1.0
 76
     1
 77
     6
 78
     2
 67
     7
 79
     3
170
     0
171
     0
290
     0
174
     0
 93
       13
 44
0.0
173
     0
291
     0
 45
0.0
1001
ACAD
1000
AcDbSavedByObjectVersion
1070
     0
  0
DICTIONARYVAR
  5
290
102
{ACAD_REACTORS
330
282
102
}
330
282
100
DictionaryVariables
280
     0
  1
1:1
  0
DICTIONARYVAR
  5
289
102
{ACAD_REACTORS
330
282
102
}
330
282
100
DictionaryVariables
280
     0
  1
3.500000
  0
DICTIONARYVAR
  5
28A
102
{ACAD_REACTORS
330
282
102
}
330
282
100
DictionaryVariables
280
     0
  1
acadiso.lin
  0
DICTIONARYVAR
  5
284
102
{ACAD_REACTORS
330
282
102
}
330
282
100
DictionaryVariables
280
     0
  1
STANDARD
  0
DICTIONARYVAR
  5
283
102
{ACAD_REACTORS
330
282
102
}
330
282
100
DictionaryVariables
280
     0
  1
STANDARD
  0
DICTIONARYVAR
  5
63F
102
{ACAD_REACTORS
330
282
102
}
330
282
100
DictionaryVariables
280
     0
  1
Metric50
  0
DICTIONARYVAR
  5
640
102
{ACAD_REACTORS
330
282
102
}
330
282
100
DictionaryVariables
280
     0
  1
Metric50
  0
DICTIONARYVAR
  5
28B
102
{ACAD_REACTORS
330
282
102
}
330
282
100
DictionaryVariables
280
     0
  1
2
  0
DICTIONARYVAR
  5
28C
102
{ACAD_REACTORS
330
282
102
}
330
282
100
DictionaryVariables
280
     0
  1
1
  0
DICTIONARYVAR
  5
6C8
102
{ACAD_REACTORS
330
282
102
}
330
282
100
DictionaryVariables
280
     0
  1
0
  0
DICTIONARYVAR
  5
642
102
{ACAD_REACTORS
330
282
102
}
330
282
100
DictionaryVariables
280
     0
  1
1
  0
DICTIONARYVAR
  5
643
102
{ACAD_REACTORS
330
282
102
}
330
282
100
DictionaryVariables
280
     0
  1
15
  0
DICTIONARYVAR
  5
641
102
{ACAD_REACTORS
330
282
102
}
330
282
100
DictionaryVariables
280
     0
  1
0
  0
DICTIONARYVAR
  5
6CB
102
{ACAD_REACTORS
330
282
102
}
330
282
100
DictionaryVariables
280
     0
  1
1.570796
  0
DICTIONARYVAR
  5
6CC
102
{ACAD_REACTORS
330
282
102
}
330
282
100
DictionaryVariables
280
     0
  1
1.570796
  0
DICTIONARYVAR
  5
6CD
102
{ACAD_REACTORS
330
282
102
}
330
282
100
DictionaryVariables
280
     0
  1
-122.394000
  0
DICTIONARYVAR
  5
291
102
{ACAD_REACTORS
330
282
102
}
330
282
100
DictionaryVariables
280
     0
  1
1
  0
DICTIONARYVAR
  5
6CA
102
{ACAD_REACTORS
330
282
102
}
330
282
100
DictionaryVariables
280
     0
  1
80.000000
  0
DICTIONARYVAR
  5
6C9
102
{ACAD_REACTORS
330
282
102
}
330
282
100
DictionaryVariables
280
     0
  1
5.000000
  0
DICTIONARYVAR
  5
6C7
102
{ACAD_REACTORS
330
282
102
}
330
282
100
DictionaryVariables
280
     0
  1
127
  0
DICTIONARYVAR
  5
6CE
102
{ACAD_REACTORS
330
282
102
}
330
282
100
DictionaryVariables
280
     0
  1
2
  0
DICTIONARY
  5
747
330
2D1
100
AcDbDictionary
280
     1
281
     1
  3
ACAD_XREC_ROUNDTRIP
360
748
  0
DICTIONARY
  5
710
330
1E
100
AcDbDictionary
280
     1
281
     1
  3
ACAD_XREC_ROUNDTRIP
360
711
  0
DICTIONARY
  5
712
330
22
100
AcDbDictionary
280
     1
281
     1
  3
ACAD_XREC_ROUNDTRIP
360
713
  0
DICTIONARY
  5
749
330
2D2
100
AcDbDictionary
280
     1
281
     1
  3
ACAD_XREC_ROUNDTRIP
360
74A
  0
DICTIONARY
  5
2C4
330
45
100
AcDbDictionary
280
     1
281
     1
  3
ACAD_XREC_ROUNDTRIP
360
2C5
  0
DICTIONARY
  5
2C2
330
44
100
AcDbDictionary
280
     1
281
     1
  3
ACAD_XREC_ROUNDTRIP
360
2C3
  0
DICTIONARY
  5
2C6
330
46
100
AcDbDictionary
280
     1
281
     1
  3
ACAD_XREC_ROUNDTRIP
360
2C7
  0
DICTIONARY
  5
745
330
2CF
100
AcDbDictionary
280
     1
281
     1
  3
ACAD_XREC_ROUNDTRIP
360
746
  0
DICTIONARY
  5
644
330
5A
100
AcDbDictionary
280
     1
281
     1
  3
ACAD_ROUNDTRIP_2008_TABLESTYLE_CELLSTYLEMAP
360
70D
  3
ACAD_XREC_ROUNDTRIP
360
744
  0
DICTIONARY
  5
71C
330
2F
100
AcDbDictionary
280
     1
281
     1
  3
ACAD_XREC_ROUNDTRIP
360
71D
  0
DICTIONARY
  5
722
330
32
100
AcDbDictionary
280
     1
281
     1
  3
ACAD_XREC_ROUNDTRIP
360
723
  0
DICTIONARY
  5
72A
330
36
100
AcDbDictionary
280
     1
281
     1
  3
ACAD_XREC_ROUNDTRIP
360
72B
  0
DICTIONARY
  5
732
330
3A
100
AcDbDictionary
280
     1
281
     1
  3
ACAD_XREC_ROUNDTRIP
360
733
  0
DICTIONARY
  5
726
330
34
100
AcDbDictionary
280
     1
281
     1
  3
ACAD_XREC_ROUNDTRIP
360
727
  0
DICTIONARY
  5
728
330
35
100
AcDbDictionary
280
     1
281
     1
  3
ACAD_XREC_ROUNDTRIP
360
729
  0
DICTIONARY
  5
738
330
3D
100
AcDbDictionary
280
     1
281
     1
  3
ACAD_XREC_ROUNDTRIP
360
739
  0
DICTIONARY
  5
730
330
39
100
AcDbDictionary
280
     1
281
     1
  3
ACAD_XREC_ROUNDTRIP
360
731
  0
DICTIONARY
  5
714
330
2B
100
AcDbDictionary
280
     1
281
     1
  3
ACAD_XREC_ROUNDTRIP
360
715
  0
DICTIONARY
  5
716
330
2C
100
AcDbDictionary
280
     1
281
     1
  3
ACAD_XREC_ROUNDTRIP
360
717
  0
DICTIONARY
  5
718
330
2D
100
AcDbDictionary
280
     1
281
     1
  3
ACAD_XREC_ROUNDTRIP
360
719
  0
DICTIONARY
  5
71A
330
2E
100
AcDbDictionary
280
     1
281
     1
  3
ACAD_XREC_ROUNDTRIP
360
71B
  0
DICTIONARY
  5
720
330
31
100
AcDbDictionary
280
     1
281
     1
  3
ACAD_XREC_ROUNDTRIP
360
721
  0
DICTIONARY
  5
734
330
3B
100
AcDbDictionary
280
     1
281
     1
  3
ACAD_XREC_ROUNDTRIP
360
735
  0
DICTIONARY
  5
72E
330
38
100
AcDbDictionary
280
     1
281
     1
  3
ACAD_XREC_ROUNDTRIP
360
72F
  0
DICTIONARY
  5
736
330
3C
100
AcDbDictionary
280
     1
281
     1
  3
ACAD_XREC_ROUNDTRIP
360
737
  0
DICTIONARY
  5
724
330
33
100
AcDbDictionary
280
     1
281
     1
  3
ACAD_XREC_ROUNDTRIP
360
725
  0
DICTIONARY
  5
742
330
42
100
AcDbDictionary
280
     1
281
     1
  3
ACAD_XREC_ROUNDTRIP
360
743
  0
DICTIONARY
  5
740
330
41
100
AcDbDictionary
280
     1
281
     1
  3
ACAD_XREC_ROUNDTRIP
360
741
  0
DICTIONARY
  5
73A
330
3E
100
AcDbDictionary
280
     1
281
     1
  3
ACAD_XREC_ROUNDTRIP
360
73B
  0
DICTIONARY
  5
73C
330
3F
100
AcDbDictionary
280
     1
281
     1
  3
ACAD_XREC_ROUNDTRIP
360
73D
  0
DICTIONARY
  5
72C
330
37
100
AcDbDictionary
280
     1
281
     1
  3
ACAD_XREC_ROUNDTRIP
360
72D
  0
DICTIONARY
  5
71E
330
30
100
AcDbDictionary
280
     1
281
     1
  3
ACAD_XREC_ROUNDTRIP
360
71F
  0
DICTIONARY
  5
73E
330
40
100
AcDbDictionary
280
     1
281
     1
  3
ACAD_XREC_ROUNDTRIP
360
73F
  0
XRECORD
  5
748
102
{ACAD_REACTORS
330
747
102
}
330
747
100
AcDbXrecord
280
     1
102
DISPLAYNAME
  1
Metric50
102
FLAGS
 90
        0
  0
XRECORD
  5
711
102
{ACAD_REACTORS
330
710
102
}
330
710
100
AcDbXrecord
280
     1
102
SHADEPLOT
 70
     0
102
SHADEPLOTRESLEVEL
 70
     2
102
SHADEPLOTCUSTOMDPI
 70
   300
  0
XRECORD
  5
713
102
{ACAD_REACTORS
330
712
102
}
330
712
100
AcDbXrecord
280
     1
102
SHADEPLOT
 70
     0
102
SHADEPLOTRESLEVEL
 70
     2
102
SHADEPLOTCUSTOMDPI
 70
   300
  0
XRECORD
  5
74A
102
{ACAD_REACTORS
330
749
102
}
330
749
100
AcDbXrecord
280
     1
102
SHADEPLOT
 70
     0
102
SHADEPLOTRESLEVEL
 70
     2
102
SHADEPLOTCUSTOMDPI
 70
   300
  0
XRECORD
  5
2C5
102
{ACAD_REACTORS
330
2C4
102
}
330
2C4
100
AcDbXrecord
280
     1
102
MATERIAL
148
0.0
149
0.0
149
0.0
 93
        0
 94
      127
282
     0
 72
     1
 77
     1
171
     1
175
     1
179
     1
273
     0
  0
XRECORD
  5
2C3
102
{ACAD_REACTORS
330
2C2
102
}
330
2C2
100
AcDbXrecord
280
     1
102
MATERIAL
148
0.0
149
0.0
149
0.0
 93
        0
 94
      127
282
     0
 72
     1
 77
     1
171
     1
175
     1
179
     1
273
     0
  0
XRECORD
  5
2C7
102
{ACAD_REACTORS
330
2C6
102
}
330
2C6
100
AcDbXrecord
280
     1
102
MATERIAL
148
0.0
149
0.0
149
0.0
 93
        0
 94
      127
282
     0
 72
     1
 77
     1
171
     1
175
     1
179
     1
273
     0
  0
XRECORD
  5
746
102
{ACAD_REACTORS
330
745
102
}
330
745
100
AcDbXrecord
280
     1
102
DISPLAYNAME
  1
Metric50
102
FLAGS
 90
        0
  0
CELLSTYLEMAP
  5
70D
102
{ACAD_REACTORS
330
644
102
}
330
644
100
AcDbCellStyleMap
 90
        3
300
CELLSTYLE
  1
TABLEFORMAT_BEGIN
 90
        5
170
     1
 91
        0
 92
    32768
 62
   257
 93
        1
300
CONTENTFORMAT
  1
CONTENTFORMAT_BEGIN
 90
        0
 91
        0
 92
        4
 93
        0
300

 40
0.0
140
1.0
 94
        5
 62
     0
340
11
144
6.0
309
CONTENTFORMAT_END
171
     1
301
MARGIN
  1
CELLMARGIN_BEGIN
 40
1.5
 40
1.5
 40
1.5
 40
1.5
 40
0.18
 40
0.18
309
CELLMARGIN_END
 94
        6
 95
        1
302
GRIDFORMAT
  1
GRIDFORMAT_BEGIN
 90
        0
 91
        1
 62
     0
 92
       -2
340
0
 93
        0
 40
0.045
309
GRIDFORMAT_END
 95
        2
302
GRIDFORMAT
  1
GRIDFORMAT_BEGIN
 90
        0
 91
        1
 62
     0
 92
       -2
340
0
 93
        0
 40
0.045
309
GRIDFORMAT_END
 95
        4
302
GRIDFORMAT
  1
GRIDFORMAT_BEGIN
 90
        0
 91
        1
 62
     0
 92
       -2
340
0
 93
        0
 40
0.045
309
GRIDFORMAT_END
 95
        8
302
GRIDFORMAT
  1
GRIDFORMAT_BEGIN
 90
        0
 91
        1
 62
     0
 92
       -2
340
0
 93
        0
 40
0.045
309
GRIDFORMAT_END
 95
       16
302
GRIDFORMAT
  1
GRIDFORMAT_BEGIN
 90
        0
 91
        1
 62
     0
 92
       -2
340
0
 93
        0
 40
0.045
309
GRIDFORMAT_END
 95
       32
302
GRIDFORMAT
  1
GRIDFORMAT_BEGIN
 90
        0
 91
        1
 62
     0
 92
       -2
340
0
 93
        0
 40
0.045
309
GRIDFORMAT_END
309
TABLEFORMAT_END
  1
CELLSTYLE_BEGIN
 90
        1
 91
        1
300
_TITLE
309
CELLSTYLE_END
300
CELLSTYLE
  1
TABLEFORMAT_BEGIN
 90
        5
170
     1
 91
        0
 92
        0
 62
   257
 93
        1
300
CONTENTFORMAT
  1
CONTENTFORMAT_BEGIN
 90
        0
 91
        0
 92
        4
 93
        0
300

 40
0.0
140
1.0
 94
        5
 62
     0
340
11
144
4.5
309
CONTENTFORMAT_END
171
     1
301
MARGIN
  1
CELLMARGIN_BEGIN
 40
1.5
 40
1.5
 40
1.5
 40
1.5
 40
0.18
 40
0.18
309
CELLMARGIN_END
 94
        6
 95
        1
302
GRIDFORMAT
  1
GRIDFORMAT_BEGIN
 90
        0
 91
        1
 62
     0
 92
       -2
340
0
 93
        0
 40
0.045
309
GRIDFORMAT_END
 95
        2
302
GRIDFORMAT
  1
GRIDFORMAT_BEGIN
 90
        0
 91
        1
 62
     0
 92
       -2
340
0
 93
        0
 40
0.045
309
GRIDFORMAT_END
 95
        4
302
GRIDFORMAT
  1
GRIDFORMAT_BEGIN
 90
        0
 91
        1
 62
     0
 92
       -2
340
0
 93
        0
 40
0.045
309
GRIDFORMAT_END
 95
        8
302
GRIDFORMAT
  1
GRIDFORMAT_BEGIN
 90
        0
 91
        1
 62
     0
 92
       -2
340
0
 93
        0
 40
0.045
309
GRIDFORMAT_END
 95
       16
302
GRIDFORMAT
  1
GRIDFORMAT_BEGIN
 90
        0
 91
        1
 62
     0
 92
       -2
340
0
 93
        0
 40
0.045
309
GRIDFORMAT_END
 95
       32
302
GRIDFORMAT
  1
GRIDFORMAT_BEGIN
 90
        0
 91
        1
 62
     0
 92
       -2
340
0
 93
        0
 40
0.045
309
GRIDFORMAT_END
309
TABLEFORMAT_END
  1
CELLSTYLE_BEGIN
 90
        2
 91
        1
300
_HEADER
309
CELLSTYLE_END
300
CELLSTYLE
  1
TABLEFORMAT_BEGIN
 90
        5
170
     1
 91
        0
 92
        0
 62
   257
 93
        1
300
CONTENTFORMAT
  1
CONTENTFORMAT_BEGIN
 90
        0
 91
        0
 92
        4
 93
        0
300

 40
0.0
140
1.0
 94
        2
 62
     0
340
11
144
4.5
309
CONTENTFORMAT_END
171
     1
301
MARGIN
  1
CELLMARGIN_BEGIN
 40
1.5
 40
1.5
 40
1.5
 40
1.5
 40
0.18
 40
0.18
309
CELLMARGIN_END
 94
        6
 95
        1
302
GRIDFORMAT
  1
GRIDFORMAT_BEGIN
 90
        0
 91
        1
 62
     0
 92
       -2
340
0
 93
        0
 40
0.045
309
GRIDFORMAT_END
 95
        2
302
GRIDFORMAT
  1
GRIDFORMAT_BEGIN
 90
        0
 91
        1
 62
     0
 92
       -2
340
0
 93
        0
 40
0.045
309
GRIDFORMAT_END
 95
        4
302
GRIDFORMAT
  1
GRIDFORMAT_BEGIN
 90
        0
 91
        1
 62
     0
 92
       -2
340
0
 93
        0
 40
0.045
309
GRIDFORMAT_END
 95
        8
302
GRIDFORMAT
  1
GRIDFORMAT_BEGIN
 90
        0
 91
        1
 62
     0
 92
       -2
340
0
 93
        0
 40
0.045
309
GRIDFORMAT_END
 95
       16
302
GRIDFORMAT
  1
GRIDFORMAT_BEGIN
 90
        0
 91
        1
 62
     0
 92
       -2
340
0
 93
        0
 40
0.045
309
GRIDFORMAT_END
 95
       32
302
GRIDFORMAT
  1
GRIDFORMAT_BEGIN
 90
        0
 91
        1
 62
     0
 92
       -2
340
0
 93
        0
 40
0.045
309
GRIDFORMAT_END
309
TABLEFORMAT_END
  1
CELLSTYLE_BEGIN
 90
        3
 91
        2
300
_DATA
309
CELLSTYLE_END
  0
XRECORD
  5
744
102
{ACAD_REACTORS
330
644
102
}
330
644
100
AcDbXrecord
280
     1
102
ACAD_ROUNDTRIP_PRE2007_TABLESTYLE
 90
        4
 91
        0
  1

 92
        4
 93
        0
  2

 94
        4
 95
        0
  3

  0
XRECORD
  5
71D
102
{ACAD_REACTORS
330
71C
102
}
330
71C
100
AcDbXrecord
280
     1
102
RTVSPost2010Prop28
280
     1
102
RTVSPost2010PropOp28
 70
     1
102
RTVSPost2010Prop29
280
     1
102
RTVSPost2010PropOp29
 70
     1
102
RTVSPost2010Prop30
280
     0
102
RTVSPost2010PropOp30
 70
     1
102
RTVSPost2010Prop31
280
     0
102
RTVSPost2010PropOp31
 70
     1
102
RTVSPost2010Prop32
280
     0
102
RTVSPost2010PropOp32
 70
     1
102
RTVSPost2010Prop33
280
     0
102
RTVSPost2010PropOp33
 70
     1
102
RTVSPost2010Prop34
280
     0
102
RTVSPost2010PropOp34
 70
     1
102
RTVSPost2010Prop35
280
     0
102
RTVSPost2010PropOp35
 70
     1
102
RTVSPost2010Prop36
280
     0
102
RTVSPost2010PropOp36
 70
     1
102
RTVSPost2010Prop37
 90
       50
102
RTVSPost2010PropOp37
 70
     1
102
RTVSPost2010Prop38
140
0.0
102
RTVSPost2010PropOp38
 70
     1
102
RTVSPost2010Prop39
140
1.0
102
RTVSPost2010PropOp39
 70
     1
102
RTVSPost2010Prop40
 90
        0
102
RTVSPost2010PropOp40
 70
     1
102
RTVSPost2010Prop41ColorIndex
 90
       18
102
RTVSPost2010Prop41ColorRGB
 90
        0
102
RTVSPost2010PropOp41
 70
     1
102
RTVSPost2010Prop42
 90
       50
102
RTVSPost2010PropOp42
 70
     1
102
RTVSPost2010Prop43
 90
        3
102
RTVSPost2010PropOp43
 70
     1
102
RTVSPost2010Prop44ColorIndex
 90
        5
102
RTVSPost2010Prop44ColorRGB
 90
      255
102
RTVSPost2010PropOp44
 70
     1
102
RTVSPost2010Prop45
280
     0
102
RTVSPost2010PropOp45
 70
     1
102
RTVSPost2010Prop46
 90
       50
102
RTVSPost2010PropOp46
 70
     1
102
RTVSPost2010Prop47
 90
       50
102
RTVSPost2010PropOp47
 70
     1
102
RTVSPost2010Prop48
 90
       50
102
RTVSPost2010PropOp48
 70
     1
102
RTVSPost2010Prop49
280
     0
102
RTVSPost2010PropOp49
 70
     1
102
RTVSPost2010Prop50
 90
       50
102
RTVSPost2010PropOp50
 70
     1
102
RTVSPost2010Prop51ColorIndex
 90
      256
102
RTVSPost2010Prop51ColorRGB
 90
-16777216
102
RTVSPost2010PropOp51
 70
     0
102
RTVSPost2010Prop52
140
1.0
102
RTVSPost2010PropOp52
 70
     0
102
RTVSPost2010Prop53
 90
        2
102
RTVSPost2010PropOp53
 70
     1
102
RTVSPost2010Prop54
  1
strokes_ogs.tif
102
RTVSPost2010PropOp54
 70
     1
102
RTVSPost2010Prop55
280
     0
102
RTVSPost2010PropOp55
 70
     1
102
RTVSPost2010Prop56
140
1.0
102
RTVSPost2010PropOp56
 70
     1
102
RTVSPost2010Prop57
140
1.0
102
RTVSPost2010PropOp57
 70
     1
102
RTVSPropertyOp0
 70
     1
102
RTVSPropertyOp1
 70
     1
102
RTVSPropertyOp2
 70
     1
102
RTVSPropertyOp3
 70
     1
102
RTVSPropertyOp4
 70
     1
102
RTVSPropertyOp5
 70
     1
102
RTVSPropertyOp6
 70
     1
102
RTVSPropertyOp7
 70
     1
102
RTVSPropertyOp8
 70
     1
102
RTVSPropertyOp9
 70
     1
102
RTVSPropertyOp10
 70
     1
102
RTVSPropertyOp11
 70
     1
102
RTVSPropertyOp12
 70
     1
102
RTVSPropertyOp13
 70
     1
102
RTVSPropertyOp14
 70
     1
102
RTVSPropertyOp15
 70
     1
102
RTVSPropertyOp16
 70
     1
102
RTVSPropertyOp17
 70
     1
102
RTVSPropertyOp18
 70
     1
102
RTVSPropertyOp19
 70
     1
102
RTVSPropertyOp20
 70
     1
102
RTVSPropertyOp21
 70
     1
102
RTVSPropertyOp22
 70
     1
102
RTVSPropertyOp23
 70
     1
102
RTVSPropertyOp24
 70
     1
102
RTVSPropertyOp25
 70
     1
102
RTVSPropertyOp26
 70
     1
102
RTVSPropertyOp27
 70
     1
102
RTVSPropertyOp28
 70
     1
102
RTVSPropertyOp29
 70
     1
102
RTVSPropertyOp30
 70
     1
102
RTVSPropertyOp31
 70
     1
102
RTVSPropertyOp32
 70
     1
102
RTVSPropertyOp33
 70
     1
102
RTVSPropertyOp34
 70
     1
102
RTVSPropertyOp35
 70
     1
102
RTVSPropertyOp36
 70
     1
102
RTVSPropertyOp37
 70
     1
102
RTVSPropertyOp38
 70
     1
102
RTVSPropertyOp39
 70
     1
102
RTVSPropertyOp40
 70
     1
102
RTVSPropertyOp41
 70
     1
102
RTVSPropertyOp42
 70
     1
102
RTVSPropertyOp43
 70
     1
102
RTVSPropertyOp44
 70
     1
102
RTVSPropertyOp45
 70
     1
102
RTVSPropertyOp46
 70
     1
102
RTVSPropertyOp47
 70
     1
102
RTVSPropertyOp48
 70
     1
102
RTVSPropertyOp49
 70
     1
102
RTVSPropertyOp50
 70
     1
102
RTVSPropertyOp51
 70
     0
102
RTVSPropertyOp52
 70
     0
102
RTVSPropertyOp53
 70
     1
102
RTVSPropertyOp54
 70
     1
102
RTVSPropertyOp55
 70
     1
102
RTVSPropertyOp56
 70
     1
102
RTVSPropertyOp57
 70
     1
102
RTVSPropertyOp58
 70
     1
102
RTVSPropertyOp59
 70
     1
102
RTVSPropertyOp60
 70
     1
102
RTVSPropertyOp61
 70
     1
102
RTVSPropertyOp62
 70
     1
  0
XRECORD
  5
723
102
{ACAD_REACTORS
330
722
102
}
330
722
100
AcDbXrecord
280
     1
102
RTVSPost2010Prop28
280
     0
102
RTVSPost2010PropOp28
 70
     1
102
RTVSPost2010Prop29
280
     1
102
RTVSPost2010PropOp29
 70
     1
102
RTVSPost2010Prop30
280
     1
102
RTVSPost2010PropOp30
 70
     1
102
RTVSPost2010Prop31
280
     0
102
RTVSPost2010PropOp31
 70
     1
102
RTVSPost2010Prop32
280
     0
102
RTVSPost2010PropOp32
 70
     1
102
RTVSPost2010Prop33
280
     0
102
RTVSPost2010PropOp33
 70
     1
102
RTVSPost2010Prop34
280
     0
102
RTVSPost2010PropOp34
 70
     1
102
RTVSPost2010Prop35
280
     0
102
RTVSPost2010PropOp35
 70
     1
102
RTVSPost2010Prop36
280
     0
102
RTVSPost2010PropOp36
 70
     1
102
RTVSPost2010Prop37
 90
       50
102
RTVSPost2010PropOp37
 70
     1
102
RTVSPost2010Prop38
140
0.0
102
RTVSPost2010PropOp38
 70
     1
102
RTVSPost2010Prop39
140
1.0
102
RTVSPost2010PropOp39
 70
     1
102
RTVSPost2010Prop40
 90
        0
102
RTVSPost2010PropOp40
 70
     1
102
RTVSPost2010Prop41ColorIndex
 90
       18
102
RTVSPost2010Prop41ColorRGB
 90
        0
102
RTVSPost2010PropOp41
 70
     1
102
RTVSPost2010Prop42
 90
       50
102
RTVSPost2010PropOp42
 70
     1
102
RTVSPost2010Prop43
 90
        3
102
RTVSPost2010PropOp43
 70
     1
102
RTVSPost2010Prop44ColorIndex
 90
        5
102
RTVSPost2010Prop44ColorRGB
 90
      255
102
RTVSPost2010PropOp44
 70
     1
102
RTVSPost2010Prop45
280
     0
102
RTVSPost2010PropOp45
 70
     1
102
RTVSPost2010Prop46
 90
       50
102
RTVSPost2010PropOp46
 70
     1
102
RTVSPost2010Prop47
 90
       50
102
RTVSPost2010PropOp47
 70
     1
102
RTVSPost2010Prop48
 90
       50
102
RTVSPost2010PropOp48
 70
     1
102
RTVSPost2010Prop49
280
     0
102
RTVSPost2010PropOp49
 70
     1
102
RTVSPost2010Prop50
 90
       50
102
RTVSPost2010PropOp50
 70
     1
102
RTVSPost2010Prop51ColorIndex
 90
      256
102
RTVSPost2010Prop51ColorRGB
 90
-16777216
102
RTVSPost2010PropOp51
 70
     0
102
RTVSPost2010Prop52
140
1.0
102
RTVSPost2010PropOp52
 70
     0
102
RTVSPost2010Prop53
 90
        2
102
RTVSPost2010PropOp53
 70
     1
102
RTVSPost2010Prop54
  1
strokes_ogs.tif
102
RTVSPost2010PropOp54
 70
     1
102
RTVSPost2010Prop55
280
     0
102
RTVSPost2010PropOp55
 70
     1
102
RTVSPost2010Prop56
140
1.0
102
RTVSPost2010PropOp56
 70
     1
102
RTVSPost2010Prop57
140
1.0
102
RTVSPost2010PropOp57
 70
     1
102
RTVSPropertyOp0
 70
     1
102
RTVSPropertyOp1
 70
     1
102
RTVSPropertyOp2
 70
     1
102
RTVSPropertyOp3
 70
     1
102
RTVSPropertyOp4
 70
     1
102
RTVSPropertyOp5
 70
     1
102
RTVSPropertyOp6
 70
     1
102
RTVSPropertyOp7
 70
     1
102
RTVSPropertyOp8
 70
     1
102
RTVSPropertyOp9
 70
     1
102
RTVSPropertyOp10
 70
     1
102
RTVSPropertyOp11
 70
     1
102
RTVSPropertyOp12
 70
     1
102
RTVSPropertyOp13
 70
     1
102
RTVSPropertyOp14
 70
     1
102
RTVSPropertyOp15
 70
     1
102
RTVSPropertyOp16
 70
     1
102
RTVSPropertyOp17
 70
     1
102
RTVSPropertyOp18
 70
     1
102
RTVSPropertyOp19
 70
     1
102
RTVSPropertyOp20
 70
     1
102
RTVSPropertyOp21
 70
     1
102
RTVSPropertyOp22
 70
     1
102
RTVSPropertyOp23
 70
     1
102
RTVSPropertyOp24
 70
     1
102
RTVSPropertyOp25
 70
     1
102
RTVSPropertyOp26
 70
     1
102
RTVSPropertyOp27
 70
     1
102
RTVSPropertyOp28
 70
     1
102
RTVSPropertyOp29
 70
     1
102
RTVSPropertyOp30
 70
     1
102
RTVSPropertyOp31
 70
     1
102
RTVSPropertyOp32
 70
     1
102
RTVSPropertyOp33
 70
     1
102
RTVSPropertyOp34
 70
     1
102
RTVSPropertyOp35
 70
     1
102
RTVSPropertyOp36
 70
     1
102
RTVSPropertyOp37
 70
     1
102
RTVSPropertyOp38
 70
     1
102
RTVSPropertyOp39
 70
     1
102
RTVSPropertyOp40
 70
     1
102
RTVSPropertyOp41
 70
     1
102
RTVSPropertyOp42
 70
     1
102
RTVSPropertyOp43
 70
     1
102
RTVSPropertyOp44
 70
     1
102
RTVSPropertyOp45
 70
     1
102
RTVSPropertyOp46
 70
     1
102
RTVSPropertyOp47
 70
     1
102
RTVSPropertyOp48
 70
     1
102
RTVSPropertyOp49
 70
     1
102
RTVSPropertyOp50
 70
     1
102
RTVSPropertyOp51
 70
     0
102
RTVSPropertyOp52
 70
     0
102
RTVSPropertyOp53
 70
     1
102
RTVSPropertyOp54
 70
     1
102
RTVSPropertyOp55
 70
     1
102
RTVSPropertyOp56
 70
     1
102
RTVSPropertyOp57
 70
     1
102
RTVSPropertyOp58
 70
     1
102
RTVSPropertyOp59
 70
     1
102
RTVSPropertyOp60
 70
     1
102
RTVSPropertyOp61
 70
     1
102
RTVSPropertyOp62
 70
     1
  0
XRECORD
  5
72B
102
{ACAD_REACTORS
330
72A
102
}
330
72A
100
AcDbXrecord
280
     1
102
RTVSPost2010Prop28
280
     0
102
RTVSPost2010PropOp28
 70
     1
102
RTVSPost2010Prop29
280
     1
102
RTVSPost2010PropOp29
 70
     1
102
RTVSPost2010Prop30
280
     1
102
RTVSPost2010PropOp30
 70
     1
102
RTVSPost2010Prop31
280
     0
102
RTVSPost2010PropOp31
 70
     1
102
RTVSPost2010Prop32
280
     0
102
RTVSPost2010PropOp32
 70
     1
102
RTVSPost2010Prop33
280
     0
102
RTVSPost2010PropOp33
 70
     1
102
RTVSPost2010Prop34
280
     0
102
RTVSPost2010PropOp34
 70
     1
102
RTVSPost2010Prop35
280
     0
102
RTVSPost2010PropOp35
 70
     1
102
RTVSPost2010Prop36
280
     0
102
RTVSPost2010PropOp36
 70
     1
102
RTVSPost2010Prop37
 90
       50
102
RTVSPost2010PropOp37
 70
     1
102
RTVSPost2010Prop38
140
0.0
102
RTVSPost2010PropOp38
 70
     1
102
RTVSPost2010Prop39
140
1.0
102
RTVSPost2010PropOp39
 70
     1
102
RTVSPost2010Prop40
 90
        0
102
RTVSPost2010PropOp40
 70
     1
102
RTVSPost2010Prop41ColorIndex
 90
       18
102
RTVSPost2010Prop41ColorRGB
 90
        0
102
RTVSPost2010PropOp41
 70
     1
102
RTVSPost2010Prop42
 90
       50
102
RTVSPost2010PropOp42
 70
     1
102
RTVSPost2010Prop43
 90
        3
102
RTVSPost2010PropOp43
 70
     1
102
RTVSPost2010Prop44ColorIndex
 90
        5
102
RTVSPost2010Prop44ColorRGB
 90
      255
102
RTVSPost2010PropOp44
 70
     1
102
RTVSPost2010Prop45
280
     0
102
RTVSPost2010PropOp45
 70
     1
102
RTVSPost2010Prop46
 90
       50
102
RTVSPost2010PropOp46
 70
     1
102
RTVSPost2010Prop47
 90
       50
102
RTVSPost2010PropOp47
 70
     1
102
RTVSPost2010Prop48
 90
       50
102
RTVSPost2010PropOp48
 70
     1
102
RTVSPost2010Prop49
280
     0
102
RTVSPost2010PropOp49
 70
     1
102
RTVSPost2010Prop50
 90
       50
102
RTVSPost2010PropOp50
 70
     1
102
RTVSPost2010Prop51ColorIndex
 90
      256
102
RTVSPost2010Prop51ColorRGB
 90
-16777216
102
RTVSPost2010PropOp51
 70
     0
102
RTVSPost2010Prop52
140
1.0
102
RTVSPost2010PropOp52
 70
     0
102
RTVSPost2010Prop53
 90
        2
102
RTVSPost2010PropOp53
 70
     1
102
RTVSPost2010Prop54
  1
strokes_ogs.tif
102
RTVSPost2010PropOp54
 70
     1
102
RTVSPost2010Prop55
280
     0
102
RTVSPost2010PropOp55
 70
     1
102
RTVSPost2010Prop56
140
1.0
102
RTVSPost2010PropOp56
 70
     1
102
RTVSPost2010Prop57
140
1.0
102
RTVSPost2010PropOp57
 70
     1
102
RTVSPropertyOp0
 70
     1
102
RTVSPropertyOp1
 70
     1
102
RTVSPropertyOp2
 70
     1
102
RTVSPropertyOp3
 70
     1
102
RTVSPropertyOp4
 70
     1
102
RTVSPropertyOp5
 70
     1
102
RTVSPropertyOp6
 70
     1
102
RTVSPropertyOp7
 70
     1
102
RTVSPropertyOp8
 70
     1
102
RTVSPropertyOp9
 70
     1
102
RTVSPropertyOp10
 70
     1
102
RTVSPropertyOp11
 70
     1
102
RTVSPropertyOp12
 70
     1
102
RTVSPropertyOp13
 70
     1
102
RTVSPropertyOp14
 70
     1
102
RTVSPropertyOp15
 70
     1
102
RTVSPropertyOp16
 70
     1
102
RTVSPropertyOp17
 70
     1
102
RTVSPropertyOp18
 70
     1
102
RTVSPropertyOp19
 70
     1
102
RTVSPropertyOp20
 70
     1
102
RTVSPropertyOp21
 70
     1
102
RTVSPropertyOp22
 70
     1
102
RTVSPropertyOp23
 70
     1
102
RTVSPropertyOp24
 70
     1
102
RTVSPropertyOp25
 70
     1
102
RTVSPropertyOp26
 70
     1
102
RTVSPropertyOp27
 70
     1
102
RTVSPropertyOp28
 70
     1
102
RTVSPropertyOp29
 70
     1
102
RTVSPropertyOp30
 70
     1
102
RTVSPropertyOp31
 70
     1
102
RTVSPropertyOp32
 70
     1
102
RTVSPropertyOp33
 70
     1
102
RTVSPropertyOp34
 70
     1
102
RTVSPropertyOp35
 70
     1
102
RTVSPropertyOp36
 70
     1
102
RTVSPropertyOp37
 70
     1
102
RTVSPropertyOp38
 70
     1
102
RTVSPropertyOp39
 70
     1
102
RTVSPropertyOp40
 70
     1
102
RTVSPropertyOp41
 70
     1
102
RTVSPropertyOp42
 70
     1
102
RTVSPropertyOp43
 70
     1
102
RTVSPropertyOp44
 70
     1
102
RTVSPropertyOp45
 70
     1
102
RTVSPropertyOp46
 70
     1
102
RTVSPropertyOp47
 70
     1
102
RTVSPropertyOp48
 70
     1
102
RTVSPropertyOp49
 70
     1
102
RTVSPropertyOp50
 70
     1
102
RTVSPropertyOp51
 70
     0
102
RTVSPropertyOp52
 70
     0
102
RTVSPropertyOp53
 70
     1
102
RTVSPropertyOp54
 70
     1
102
RTVSPropertyOp55
 70
     1
102
RTVSPropertyOp56
 70
     1
102
RTVSPropertyOp57
 70
     1
102
RTVSPropertyOp58
 70
     1
102
RTVSPropertyOp59
 70
     1
102
RTVSPropertyOp60
 70
     1
102
RTVSPropertyOp61
 70
     1
102
RTVSPropertyOp62
 70
     1
  0
XRECORD
  5
733
102
{ACAD_REACTORS
330
732
102
}
330
732
100
AcDbXrecord
280
     1
102
RTVSPost2010Prop28
280
     0
102
RTVSPost2010PropOp28
 70
     1
102
RTVSPost2010Prop29
280
     1
102
RTVSPost2010PropOp29
 70
     1
102
RTVSPost2010Prop30
280
     1
102
RTVSPost2010PropOp30
 70
     1
102
RTVSPost2010Prop31
280
     0
102
RTVSPost2010PropOp31
 70
     1
102
RTVSPost2010Prop32
280
     0
102
RTVSPost2010PropOp32
 70
     1
102
RTVSPost2010Prop33
280
     0
102
RTVSPost2010PropOp33
 70
     1
102
RTVSPost2010Prop34
280
     0
102
RTVSPost2010PropOp34
 70
     1
102
RTVSPost2010Prop35
280
     0
102
RTVSPost2010PropOp35
 70
     1
102
RTVSPost2010Prop36
280
     0
102
RTVSPost2010PropOp36
 70
     1
102
RTVSPost2010Prop37
 90
       50
102
RTVSPost2010PropOp37
 70
     1
102
RTVSPost2010Prop38
140
0.0
102
RTVSPost2010PropOp38
 70
     1
102
RTVSPost2010Prop39
140
1.0
102
RTVSPost2010PropOp39
 70
     1
102
RTVSPost2010Prop40
 90
        0
102
RTVSPost2010PropOp40
 70
     1
102
RTVSPost2010Prop41ColorIndex
 90
       18
102
RTVSPost2010Prop41ColorRGB
 90
        0
102
RTVSPost2010PropOp41
 70
     1
102
RTVSPost2010Prop42
 90
       50
102
RTVSPost2010PropOp42
 70
     1
102
RTVSPost2010Prop43
 90
        3
102
RTVSPost2010PropOp43
 70
     1
102
RTVSPost2010Prop44ColorIndex
 90
        5
102
RTVSPost2010Prop44ColorRGB
 90
      255
102
RTVSPost2010PropOp44
 70
     1
102
RTVSPost2010Prop45
280
     0
102
RTVSPost2010PropOp45
 70
     1
102
RTVSPost2010Prop46
 90
       50
102
RTVSPost2010PropOp46
 70
     1
102
RTVSPost2010Prop47
 90
       50
102
RTVSPost2010PropOp47
 70
     1
102
RTVSPost2010Prop48
 90
       50
102
RTVSPost2010PropOp48
 70
     1
102
RTVSPost2010Prop49
280
     0
102
RTVSPost2010PropOp49
 70
     1
102
RTVSPost2010Prop50
 90
       50
102
RTVSPost2010PropOp50
 70
     1
102
RTVSPost2010Prop51ColorIndex
 90
      256
102
RTVSPost2010Prop51ColorRGB
 90
-16777216
102
RTVSPost2010PropOp51
 70
     0
102
RTVSPost2010Prop52
140
1.0
102
RTVSPost2010PropOp52
 70
     0
102
RTVSPost2010Prop53
 90
        2
102
RTVSPost2010PropOp53
 70
     1
102
RTVSPost2010Prop54
  1
strokes_ogs.tif
102
RTVSPost2010PropOp54
 70
     1
102
RTVSPost2010Prop55
280
     0
102
RTVSPost2010PropOp55
 70
     1
102
RTVSPost2010Prop56
140
1.0
102
RTVSPost2010PropOp56
 70
     1
102
RTVSPost2010Prop57
140
1.0
102
RTVSPost2010PropOp57
 70
     1
102
RTVSPropertyOp0
 70
     1
102
RTVSPropertyOp1
 70
     1
102
RTVSPropertyOp2
 70
     1
102
RTVSPropertyOp3
 70
     1
102
RTVSPropertyOp4
 70
     1
102
RTVSPropertyOp5
 70
     1
102
RTVSPropertyOp6
 70
     1
102
RTVSPropertyOp7
 70
     1
102
RTVSPropertyOp8
 70
     1
102
RTVSPropertyOp9
 70
     1
102
RTVSPropertyOp10
 70
     1
102
RTVSPropertyOp11
 70
     1
102
RTVSPropertyOp12
 70
     1
102
RTVSPropertyOp13
 70
     1
102
RTVSPropertyOp14
 70
     1
102
RTVSPropertyOp15
 70
     1
102
RTVSPropertyOp16
 70
     1
102
RTVSPropertyOp17
 70
     1
102
RTVSPropertyOp18
 70
     1
102
RTVSPropertyOp19
 70
     1
102
RTVSPropertyOp20
 70
     1
102
RTVSPropertyOp21
 70
     1
102
RTVSPropertyOp22
 70
     1
102
RTVSPropertyOp23
 70
     1
102
RTVSPropertyOp24
 70
     1
102
RTVSPropertyOp25
 70
     1
102
RTVSPropertyOp26
 70
     1
102
RTVSPropertyOp27
 70
     1
102
RTVSPropertyOp28
 70
     1
102
RTVSPropertyOp29
 70
     1
102
RTVSPropertyOp30
 70
     1
102
RTVSPropertyOp31
 70
     1
102
RTVSPropertyOp32
 70
     1
102
RTVSPropertyOp33
 70
     1
102
RTVSPropertyOp34
 70
     1
102
RTVSPropertyOp35
 70
     1
102
RTVSPropertyOp36
 70
     1
102
RTVSPropertyOp37
 70
     1
102
RTVSPropertyOp38
 70
     1
102
RTVSPropertyOp39
 70
     1
102
RTVSPropertyOp40
 70
     1
102
RTVSPropertyOp41
 70
     1
102
RTVSPropertyOp42
 70
     1
102
RTVSPropertyOp43
 70
     1
102
RTVSPropertyOp44
 70
     1
102
RTVSPropertyOp45
 70
     1
102
RTVSPropertyOp46
 70
     1
102
RTVSPropertyOp47
 70
     1
102
RTVSPropertyOp48
 70
     1
102
RTVSPropertyOp49
 70
     1
102
RTVSPropertyOp50
 70
     1
102
RTVSPropertyOp51
 70
     0
102
RTVSPropertyOp52
 70
     0
102
RTVSPropertyOp53
 70
     1
102
RTVSPropertyOp54
 70
     1
102
RTVSPropertyOp55
 70
     1
102
RTVSPropertyOp56
 70
     1
102
RTVSPropertyOp57
 70
     1
102
RTVSPropertyOp58
 70
     1
102
RTVSPropertyOp59
 70
     1
102
RTVSPropertyOp60
 70
     1
102
RTVSPropertyOp61
 70
     1
102
RTVSPropertyOp62
 70
     1
  0
XRECORD
  5
727
102
{ACAD_REACTORS
330
726
102
}
330
726
100
AcDbXrecord
280
     1
102
RTVSPost2010Prop28
280
     0
102
RTVSPost2010PropOp28
 70
     1
102
RTVSPost2010Prop29
280
     1
102
RTVSPost2010PropOp29
 70
     1
102
RTVSPost2010Prop30
280
     1
102
RTVSPost2010PropOp30
 70
     1
102
RTVSPost2010Prop31
280
     0
102
RTVSPost2010PropOp31
 70
     1
102
RTVSPost2010Prop32
280
     0
102
RTVSPost2010PropOp32
 70
     1
102
RTVSPost2010Prop33
280
     0
102
RTVSPost2010PropOp33
 70
     1
102
RTVSPost2010Prop34
280
     0
102
RTVSPost2010PropOp34
 70
     1
102
RTVSPost2010Prop35
280
     0
102
RTVSPost2010PropOp35
 70
     1
102
RTVSPost2010Prop36
280
     0
102
RTVSPost2010PropOp36
 70
     1
102
RTVSPost2010Prop37
 90
       50
102
RTVSPost2010PropOp37
 70
     1
102
RTVSPost2010Prop38
140
0.0
102
RTVSPost2010PropOp38
 70
     1
102
RTVSPost2010Prop39
140
1.0
102
RTVSPost2010PropOp39
 70
     1
102
RTVSPost2010Prop40
 90
        0
102
RTVSPost2010PropOp40
 70
     1
102
RTVSPost2010Prop41ColorIndex
 90
       18
102
RTVSPost2010Prop41ColorRGB
 90
        0
102
RTVSPost2010PropOp41
 70
     1
102
RTVSPost2010Prop42
 90
       50
102
RTVSPost2010PropOp42
 70
     1
102
RTVSPost2010Prop43
 90
        3
102
RTVSPost2010PropOp43
 70
     1
102
RTVSPost2010Prop44ColorIndex
 90
        5
102
RTVSPost2010Prop44ColorRGB
 90
      255
102
RTVSPost2010PropOp44
 70
     1
102
RTVSPost2010Prop45
280
     0
102
RTVSPost2010PropOp45
 70
     1
102
RTVSPost2010Prop46
 90
       50
102
RTVSPost2010PropOp46
 70
     1
102
RTVSPost2010Prop47
 90
       50
102
RTVSPost2010PropOp47
 70
     1
102
RTVSPost2010Prop48
 90
       50
102
RTVSPost2010PropOp48
 70
     1
102
RTVSPost2010Prop49
280
     0
102
RTVSPost2010PropOp49
 70
     1
102
RTVSPost2010Prop50
 90
       50
102
RTVSPost2010PropOp50
 70
     1
102
RTVSPost2010Prop51ColorIndex
 90
      256
102
RTVSPost2010Prop51ColorRGB
 90
-16777216
102
RTVSPost2010PropOp51
 70
     0
102
RTVSPost2010Prop52
140
1.0
102
RTVSPost2010PropOp52
 70
     0
102
RTVSPost2010Prop53
 90
        2
102
RTVSPost2010PropOp53
 70
     1
102
RTVSPost2010Prop54
  1
strokes_ogs.tif
102
RTVSPost2010PropOp54
 70
     1
102
RTVSPost2010Prop55
280
     0
102
RTVSPost2010PropOp55
 70
     1
102
RTVSPost2010Prop56
140
1.0
102
RTVSPost2010PropOp56
 70
     1
102
RTVSPost2010Prop57
140
1.0
102
RTVSPost2010PropOp57
 70
     1
102
RTVSPropertyOp0
 70
     1
102
RTVSPropertyOp1
 70
     1
102
RTVSPropertyOp2
 70
     1
102
RTVSPropertyOp3
 70
     1
102
RTVSPropertyOp4
 70
     1
102
RTVSPropertyOp5
 70
     1
102
RTVSPropertyOp6
 70
     1
102
RTVSPropertyOp7
 70
     1
102
RTVSPropertyOp8
 70
     1
102
RTVSPropertyOp9
 70
     1
102
RTVSPropertyOp10
 70
     1
102
RTVSPropertyOp11
 70
     1
102
RTVSPropertyOp12
 70
     1
102
RTVSPropertyOp13
 70
     1
102
RTVSPropertyOp14
 70
     1
102
RTVSPropertyOp15
 70
     1
102
RTVSPropertyOp16
 70
     1
102
RTVSPropertyOp17
 70
     1
102
RTVSPropertyOp18
 70
     1
102
RTVSPropertyOp19
 70
     1
102
RTVSPropertyOp20
 70
     1
102
RTVSPropertyOp21
 70
     1
102
RTVSPropertyOp22
 70
     1
102
RTVSPropertyOp23
 70
     1
102
RTVSPropertyOp24
 70
     1
102
RTVSPropertyOp25
 70
     1
102
RTVSPropertyOp26
 70
     1
102
RTVSPropertyOp27
 70
     1
102
RTVSPropertyOp28
 70
     1
102
RTVSPropertyOp29
 70
     1
102
RTVSPropertyOp30
 70
     1
102
RTVSPropertyOp31
 70
     1
102
RTVSPropertyOp32
 70
     1
102
RTVSPropertyOp33
 70
     1
102
RTVSPropertyOp34
 70
     1
102
RTVSPropertyOp35
 70
     1
102
RTVSPropertyOp36
 70
     1
102
RTVSPropertyOp37
 70
     1
102
RTVSPropertyOp38
 70
     1
102
RTVSPropertyOp39
 70
     1
102
RTVSPropertyOp40
 70
     1
102
RTVSPropertyOp41
 70
     1
102
RTVSPropertyOp42
 70
     1
102
RTVSPropertyOp43
 70
     1
102
RTVSPropertyOp44
 70
     1
102
RTVSPropertyOp45
 70
     1
102
RTVSPropertyOp46
 70
     1
102
RTVSPropertyOp47
 70
     1
102
RTVSPropertyOp48
 70
     1
102
RTVSPropertyOp49
 70
     1
102
RTVSPropertyOp50
 70
     1
102
RTVSPropertyOp51
 70
     0
102
RTVSPropertyOp52
 70
     0
102
RTVSPropertyOp53
 70
     1
102
RTVSPropertyOp54
 70
     1
102
RTVSPropertyOp55
 70
     1
102
RTVSPropertyOp56
 70
     1
102
RTVSPropertyOp57
 70
     1
102
RTVSPropertyOp58
 70
     1
102
RTVSPropertyOp59
 70
     1
102
RTVSPropertyOp60
 70
     1
102
RTVSPropertyOp61
 70
     1
102
RTVSPropertyOp62
 70
     1
  0
XRECORD
  5
729
102
{ACAD_REACTORS
330
728
102
}
330
728
100
AcDbXrecord
280
     1
102
RTVSPost2010Prop28
280
     0
102
RTVSPost2010PropOp28
 70
     1
102
RTVSPost2010Prop29
280
     1
102
RTVSPost2010PropOp29
 70
     1
102
RTVSPost2010Prop30
280
     1
102
RTVSPost2010PropOp30
 70
     1
102
RTVSPost2010Prop31
280
     0
102
RTVSPost2010PropOp31
 70
     1
102
RTVSPost2010Prop32
280
     0
102
RTVSPost2010PropOp32
 70
     1
102
RTVSPost2010Prop33
280
     0
102
RTVSPost2010PropOp33
 70
     1
102
RTVSPost2010Prop34
280
     0
102
RTVSPost2010PropOp34
 70
     1
102
RTVSPost2010Prop35
280
     0
102
RTVSPost2010PropOp35
 70
     1
102
RTVSPost2010Prop36
280
     0
102
RTVSPost2010PropOp36
 70
     1
102
RTVSPost2010Prop37
 90
       50
102
RTVSPost2010PropOp37
 70
     1
102
RTVSPost2010Prop38
140
0.0
102
RTVSPost2010PropOp38
 70
     1
102
RTVSPost2010Prop39
140
1.0
102
RTVSPost2010PropOp39
 70
     1
102
RTVSPost2010Prop40
 90
        0
102
RTVSPost2010PropOp40
 70
     1
102
RTVSPost2010Prop41ColorIndex
 90
       18
102
RTVSPost2010Prop41ColorRGB
 90
        0
102
RTVSPost2010PropOp41
 70
     1
102
RTVSPost2010Prop42
 90
       50
102
RTVSPost2010PropOp42
 70
     1
102
RTVSPost2010Prop43
 90
        3
102
RTVSPost2010PropOp43
 70
     1
102
RTVSPost2010Prop44ColorIndex
 90
        5
102
RTVSPost2010Prop44ColorRGB
 90
      255
102
RTVSPost2010PropOp44
 70
     1
102
RTVSPost2010Prop45
280
     0
102
RTVSPost2010PropOp45
 70
     1
102
RTVSPost2010Prop46
 90
       50
102
RTVSPost2010PropOp46
 70
     1
102
RTVSPost2010Prop47
 90
       50
102
RTVSPost2010PropOp47
 70
     1
102
RTVSPost2010Prop48
 90
       50
102
RTVSPost2010PropOp48
 70
     1
102
RTVSPost2010Prop49
280
     0
102
RTVSPost2010PropOp49
 70
     1
102
RTVSPost2010Prop50
 90
       50
102
RTVSPost2010PropOp50
 70
     1
102
RTVSPost2010Prop51ColorIndex
 90
      256
102
RTVSPost2010Prop51ColorRGB
 90
-16777216
102
RTVSPost2010PropOp51
 70
     0
102
RTVSPost2010Prop52
140
1.0
102
RTVSPost2010PropOp52
 70
     0
102
RTVSPost2010Prop53
 90
        2
102
RTVSPost2010PropOp53
 70
     1
102
RTVSPost2010Prop54
  1
strokes_ogs.tif
102
RTVSPost2010PropOp54
 70
     1
102
RTVSPost2010Prop55
280
     0
102
RTVSPost2010PropOp55
 70
     1
102
RTVSPost2010Prop56
140
1.0
102
RTVSPost2010PropOp56
 70
     1
102
RTVSPost2010Prop57
140
1.0
102
RTVSPost2010PropOp57
 70
     1
102
RTVSPropertyOp0
 70
     1
102
RTVSPropertyOp1
 70
     1
102
RTVSPropertyOp2
 70
     1
102
RTVSPropertyOp3
 70
     1
102
RTVSPropertyOp4
 70
     1
102
RTVSPropertyOp5
 70
     1
102
RTVSPropertyOp6
 70
     1
102
RTVSPropertyOp7
 70
     1
102
RTVSPropertyOp8
 70
     1
102
RTVSPropertyOp9
 70
     1
102
RTVSPropertyOp10
 70
     1
102
RTVSPropertyOp11
 70
     1
102
RTVSPropertyOp12
 70
     1
102
RTVSPropertyOp13
 70
     1
102
RTVSPropertyOp14
 70
     1
102
RTVSPropertyOp15
 70
     1
102
RTVSPropertyOp16
 70
     1
102
RTVSPropertyOp17
 70
     1
102
RTVSPropertyOp18
 70
     1
102
RTVSPropertyOp19
 70
     1
102
RTVSPropertyOp20
 70
     1
102
RTVSPropertyOp21
 70
     1
102
RTVSPropertyOp22
 70
     1
102
RTVSPropertyOp23
 70
     1
102
RTVSPropertyOp24
 70
     1
102
RTVSPropertyOp25
 70
     1
102
RTVSPropertyOp26
 70
     1
102
RTVSPropertyOp27
 70
     1
102
RTVSPropertyOp28
 70
     1
102
RTVSPropertyOp29
 70
     1
102
RTVSPropertyOp30
 70
     1
102
RTVSPropertyOp31
 70
     1
102
RTVSPropertyOp32
 70
     1
102
RTVSPropertyOp33
 70
     1
102
RTVSPropertyOp34
 70
     1
102
RTVSPropertyOp35
 70
     1
102
RTVSPropertyOp36
 70
     1
102
RTVSPropertyOp37
 70
     1
102
RTVSPropertyOp38
 70
     1
102
RTVSPropertyOp39
 70
     1
102
RTVSPropertyOp40
 70
     1
102
RTVSPropertyOp41
 70
     1
102
RTVSPropertyOp42
 70
     1
102
RTVSPropertyOp43
 70
     1
102
RTVSPropertyOp44
 70
     1
102
RTVSPropertyOp45
 70
     1
102
RTVSPropertyOp46
 70
     1
102
RTVSPropertyOp47
 70
     1
102
RTVSPropertyOp48
 70
     1
102
RTVSPropertyOp49
 70
     1
102
RTVSPropertyOp50
 70
     1
102
RTVSPropertyOp51
 70
     0
102
RTVSPropertyOp52
 70
     0
102
RTVSPropertyOp53
 70
     1
102
RTVSPropertyOp54
 70
     1
102
RTVSPropertyOp55
 70
     1
102
RTVSPropertyOp56
 70
     1
102
RTVSPropertyOp57
 70
     1
102
RTVSPropertyOp58
 70
     1
102
RTVSPropertyOp59
 70
     1
102
RTVSPropertyOp60
 70
     1
102
RTVSPropertyOp61
 70
     1
102
RTVSPropertyOp62
 70
     1
  0
XRECORD
  5
739
102
{ACAD_REACTORS
330
738
102
}
330
738
100
AcDbXrecord
280
     1
102
RTVSPost2010Prop28
280
     0
102
RTVSPost2010PropOp28
 70
     0
102
RTVSPost2010Prop29
280
     1
102
RTVSPost2010PropOp29
 70
     0
102
RTVSPost2010Prop30
280
     1
102
RTVSPost2010PropOp30
 70
     0
102
RTVSPost2010Prop31
280
     0
102
RTVSPost2010PropOp31
 70
     0
102
RTVSPost2010Prop32
280
     0
102
RTVSPost2010PropOp32
 70
     0
102
RTVSPost2010Prop33
280
     0
102
RTVSPost2010PropOp33
 70
     0
102
RTVSPost2010Prop34
280
     0
102
RTVSPost2010PropOp34
 70
     0
102
RTVSPost2010Prop35
280
     0
102
RTVSPost2010PropOp35
 70
     0
102
RTVSPost2010Prop36
280
     0
102
RTVSPost2010PropOp36
 70
     0
102
RTVSPost2010Prop37
 90
       50
102
RTVSPost2010PropOp37
 70
     0
102
RTVSPost2010Prop38
140
0.0
102
RTVSPost2010PropOp38
 70
     0
102
RTVSPost2010Prop39
140
1.0
102
RTVSPost2010PropOp39
 70
     0
102
RTVSPost2010Prop40
 90
        0
102
RTVSPost2010PropOp40
 70
     0
102
RTVSPost2010Prop41ColorIndex
 90
       18
102
RTVSPost2010Prop41ColorRGB
 90
        0
102
RTVSPost2010PropOp41
 70
     0
102
RTVSPost2010Prop42
 90
       50
102
RTVSPost2010PropOp42
 70
     0
102
RTVSPost2010Prop43
 90
        3
102
RTVSPost2010PropOp43
 70
     0
102
RTVSPost2010Prop44ColorIndex
 90
        5
102
RTVSPost2010Prop44ColorRGB
 90
      255
102
RTVSPost2010PropOp44
 70
     0
102
RTVSPost2010Prop45
280
     0
102
RTVSPost2010PropOp45
 70
     0
102
RTVSPost2010Prop46
 90
       50
102
RTVSPost2010PropOp46
 70
     0
102
RTVSPost2010Prop47
 90
       50
102
RTVSPost2010PropOp47
 70
     0
102
RTVSPost2010Prop48
 90
       50
102
RTVSPost2010PropOp48
 70
     0
102
RTVSPost2010Prop49
280
     0
102
RTVSPost2010PropOp49
 70
     0
102
RTVSPost2010Prop50
 90
       50
102
RTVSPost2010PropOp50
 70
     0
102
RTVSPost2010Prop51ColorIndex
 90
      256
102
RTVSPost2010Prop51ColorRGB
 90
-16777216
102
RTVSPost2010PropOp51
 70
     0
102
RTVSPost2010Prop52
140
1.0
102
RTVSPost2010PropOp52
 70
     0
102
RTVSPost2010Prop53
 90
        2
102
RTVSPost2010PropOp53
 70
     0
102
RTVSPost2010Prop54
  1
strokes_ogs.tif
102
RTVSPost2010PropOp54
 70
     0
102
RTVSPost2010Prop55
280
     0
102
RTVSPost2010PropOp55
 70
     0
102
RTVSPost2010Prop56
140
1.0
102
RTVSPost2010PropOp56
 70
     0
102
RTVSPost2010Prop57
140
1.0
102
RTVSPost2010PropOp57
 70
     0
102
RTVSPropertyOp0
 70
     0
102
RTVSPropertyOp1
 70
     0
102
RTVSPropertyOp2
 70
     0
102
RTVSPropertyOp3
 70
     0
102
RTVSPropertyOp4
 70
     0
102
RTVSPropertyOp5
 70
     0
102
RTVSPropertyOp6
 70
     0
102
RTVSPropertyOp7
 70
     0
102
RTVSPropertyOp8
 70
     0
102
RTVSPropertyOp9
 70
     0
102
RTVSPropertyOp10
 70
     0
102
RTVSPropertyOp11
 70
     0
102
RTVSPropertyOp12
 70
     0
102
RTVSPropertyOp13
 70
     0
102
RTVSPropertyOp14
 70
     2
102
RTVSPropertyOp15
 70
     0
102
RTVSPropertyOp16
 70
     0
102
RTVSPropertyOp17
 70
     0
102
RTVSPropertyOp18
 70
     0
102
RTVSPropertyOp19
 70
     0
102
RTVSPropertyOp20
 70
     0
102
RTVSPropertyOp21
 70
     0
102
RTVSPropertyOp22
 70
     0
102
RTVSPropertyOp23
 70
     0
102
RTVSPropertyOp24
 70
     0
102
RTVSPropertyOp25
 70
     0
102
RTVSPropertyOp26
 70
     0
102
RTVSPropertyOp27
 70
     0
102
RTVSPropertyOp28
 70
     0
102
RTVSPropertyOp29
 70
     0
102
RTVSPropertyOp30
 70
     0
102
RTVSPropertyOp31
 70
     0
102
RTVSPropertyOp32
 70
     0
102
RTVSPropertyOp33
 70
     0
102
RTVSPropertyOp34
 70
     0
102
RTVSPropertyOp35
 70
     0
102
RTVSPropertyOp36
 70
     0
102
RTVSPropertyOp37
 70
     0
102
RTVSPropertyOp38
 70
     0
102
RTVSPropertyOp39
 70
     0
102
RTVSPropertyOp40
 70
     0
102
RTVSPropertyOp41
 70
     0
102
RTVSPropertyOp42
 70
     0
102
RTVSPropertyOp43
 70
     0
102
RTVSPropertyOp44
 70
     0
102
RTVSPropertyOp45
 70
     0
102
RTVSPropertyOp46
 70
     0
102
RTVSPropertyOp47
 70
     0
102
RTVSPropertyOp48
 70
     0
102
RTVSPropertyOp49
 70
     0
102
RTVSPropertyOp50
 70
     0
102
RTVSPropertyOp51
 70
     0
102
RTVSPropertyOp52
 70
     0
102
RTVSPropertyOp53
 70
     0
102
RTVSPropertyOp54
 70
     0
102
RTVSPropertyOp55
 70
     0
102
RTVSPropertyOp56
 70
     0
102
RTVSPropertyOp57
 70
     0
102
RTVSPropertyOp58
 70
     1
102
RTVSPropertyOp59
 70
     1
102
RTVSPropertyOp60
 70
     1
102
RTVSPropertyOp61
 70
     1
102
RTVSPropertyOp62
 70
     1
  0
XRECORD
  5
731
102
{ACAD_REACTORS
330
730
102
}
330
730
100
AcDbXrecord
280
     1
102
RTVSPost2010Prop28
280
     0
102
RTVSPost2010PropOp28
 70
     1
102
RTVSPost2010Prop29
280
     1
102
RTVSPost2010PropOp29
 70
     1
102
RTVSPost2010Prop30
280
     1
102
RTVSPost2010PropOp30
 70
     1
102
RTVSPost2010Prop31
280
     0
102
RTVSPost2010PropOp31
 70
     1
102
RTVSPost2010Prop32
280
     0
102
RTVSPost2010PropOp32
 70
     1
102
RTVSPost2010Prop33
280
     0
102
RTVSPost2010PropOp33
 70
     1
102
RTVSPost2010Prop34
280
     0
102
RTVSPost2010PropOp34
 70
     1
102
RTVSPost2010Prop35
280
     0
102
RTVSPost2010PropOp35
 70
     1
102
RTVSPost2010Prop36
280
     0
102
RTVSPost2010PropOp36
 70
     1
102
RTVSPost2010Prop37
 90
       50
102
RTVSPost2010PropOp37
 70
     1
102
RTVSPost2010Prop38
140
0.0
102
RTVSPost2010PropOp38
 70
     1
102
RTVSPost2010Prop39
140
1.0
102
RTVSPost2010PropOp39
 70
     1
102
RTVSPost2010Prop40
 90
        0
102
RTVSPost2010PropOp40
 70
     1
102
RTVSPost2010Prop41ColorIndex
 90
       18
102
RTVSPost2010Prop41ColorRGB
 90
        0
102
RTVSPost2010PropOp41
 70
     1
102
RTVSPost2010Prop42
 90
       50
102
RTVSPost2010PropOp42
 70
     1
102
RTVSPost2010Prop43
 90
        3
102
RTVSPost2010PropOp43
 70
     1
102
RTVSPost2010Prop44ColorIndex
 90
        5
102
RTVSPost2010Prop44ColorRGB
 90
      255
102
RTVSPost2010PropOp44
 70
     1
102
RTVSPost2010Prop45
280
     0
102
RTVSPost2010PropOp45
 70
     1
102
RTVSPost2010Prop46
 90
       50
102
RTVSPost2010PropOp46
 70
     1
102
RTVSPost2010Prop47
 90
       50
102
RTVSPost2010PropOp47
 70
     1
102
RTVSPost2010Prop48
 90
       50
102
RTVSPost2010PropOp48
 70
     1
102
RTVSPost2010Prop49
280
     0
102
RTVSPost2010PropOp49
 70
     1
102
RTVSPost2010Prop50
 90
       50
102
RTVSPost2010PropOp50
 70
     1
102
RTVSPost2010Prop51ColorIndex
 90
      256
102
RTVSPost2010Prop51ColorRGB
 90
-16777216
102
RTVSPost2010PropOp51
 70
     0
102
RTVSPost2010Prop52
140
1.0
102
RTVSPost2010PropOp52
 70
     0
102
RTVSPost2010Prop53
 90
        2
102
RTVSPost2010PropOp53
 70
     1
102
RTVSPost2010Prop54
  1
strokes_ogs.tif
102
RTVSPost2010PropOp54
 70
     1
102
RTVSPost2010Prop55
280
     0
102
RTVSPost2010PropOp55
 70
     1
102
RTVSPost2010Prop56
140
1.0
102
RTVSPost2010PropOp56
 70
     1
102
RTVSPost2010Prop57
140
1.0
102
RTVSPost2010PropOp57
 70
     1
102
RTVSPropertyOp0
 70
     1
102
RTVSPropertyOp1
 70
     1
102
RTVSPropertyOp2
 70
     1
102
RTVSPropertyOp3
 70
     1
102
RTVSPropertyOp4
 70
     1
102
RTVSPropertyOp5
 70
     1
102
RTVSPropertyOp6
 70
     1
102
RTVSPropertyOp7
 70
     1
102
RTVSPropertyOp8
 70
     1
102
RTVSPropertyOp9
 70
     1
102
RTVSPropertyOp10
 70
     1
102
RTVSPropertyOp11
 70
     1
102
RTVSPropertyOp12
 70
     1
102
RTVSPropertyOp13
 70
     1
102
RTVSPropertyOp14
 70
     1
102
RTVSPropertyOp15
 70
     1
102
RTVSPropertyOp16
 70
     1
102
RTVSPropertyOp17
 70
     1
102
RTVSPropertyOp18
 70
     1
102
RTVSPropertyOp19
 70
     1
102
RTVSPropertyOp20
 70
     1
102
RTVSPropertyOp21
 70
     1
102
RTVSPropertyOp22
 70
     1
102
RTVSPropertyOp23
 70
     1
102
RTVSPropertyOp24
 70
     1
102
RTVSPropertyOp25
 70
     1
102
RTVSPropertyOp26
 70
     1
102
RTVSPropertyOp27
 70
     1
102
RTVSPropertyOp28
 70
     1
102
RTVSPropertyOp29
 70
     1
102
RTVSPropertyOp30
 70
     1
102
RTVSPropertyOp31
 70
     1
102
RTVSPropertyOp32
 70
     1
102
RTVSPropertyOp33
 70
     1
102
RTVSPropertyOp34
 70
     1
102
RTVSPropertyOp35
 70
     1
102
RTVSPropertyOp36
 70
     1
102
RTVSPropertyOp37
 70
     1
102
RTVSPropertyOp38
 70
     1
102
RTVSPropertyOp39
 70
     1
102
RTVSPropertyOp40
 70
     1
102
RTVSPropertyOp41
 70
     1
102
RTVSPropertyOp42
 70
     1
102
RTVSPropertyOp43
 70
     1
102
RTVSPropertyOp44
 70
     1
102
RTVSPropertyOp45
 70
     1
102
RTVSPropertyOp46
 70
     1
102
RTVSPropertyOp47
 70
     1
102
RTVSPropertyOp48
 70
     1
102
RTVSPropertyOp49
 70
     1
102
RTVSPropertyOp50
 70
     1
102
RTVSPropertyOp51
 70
     0
102
RTVSPropertyOp52
 70
     0
102
RTVSPropertyOp53
 70
     1
102
RTVSPropertyOp54
 70
     1
102
RTVSPropertyOp55
 70
     1
102
RTVSPropertyOp56
 70
     1
102
RTVSPropertyOp57
 70
     1
102
RTVSPropertyOp58
 70
     1
102
RTVSPropertyOp59
 70
     1
102
RTVSPropertyOp60
 70
     1
102
RTVSPropertyOp61
 70
     1
102
RTVSPropertyOp62
 70
     1
  0
XRECORD
  5
715
102
{ACAD_REACTORS
330
714
102
}
330
714
100
AcDbXrecord
280
     1
102
RTVSPost2010Prop28
280
     0
102
RTVSPost2010PropOp28
 70
     1
102
RTVSPost2010Prop29
280
     1
102
RTVSPost2010PropOp29
 70
     1
102
RTVSPost2010Prop30
280
     1
102
RTVSPost2010PropOp30
 70
     1
102
RTVSPost2010Prop31
280
     0
102
RTVSPost2010PropOp31
 70
     1
102
RTVSPost2010Prop32
280
     0
102
RTVSPost2010PropOp32
 70
     1
102
RTVSPost2010Prop33
280
     0
102
RTVSPost2010PropOp33
 70
     1
102
RTVSPost2010Prop34
280
     0
102
RTVSPost2010PropOp34
 70
     1
102
RTVSPost2010Prop35
280
     0
102
RTVSPost2010PropOp35
 70
     1
102
RTVSPost2010Prop36
280
     0
102
RTVSPost2010PropOp36
 70
     1
102
RTVSPost2010Prop37
 90
       50
102
RTVSPost2010PropOp37
 70
     1
102
RTVSPost2010Prop38
140
0.0
102
RTVSPost2010PropOp38
 70
     1
102
RTVSPost2010Prop39
140
1.0
102
RTVSPost2010PropOp39
 70
     1
102
RTVSPost2010Prop40
 90
        0
102
RTVSPost2010PropOp40
 70
     1
102
RTVSPost2010Prop41ColorIndex
 90
       18
102
RTVSPost2010Prop41ColorRGB
 90
        0
102
RTVSPost2010PropOp41
 70
     1
102
RTVSPost2010Prop42
 90
       50
102
RTVSPost2010PropOp42
 70
     1
102
RTVSPost2010Prop43
 90
        3
102
RTVSPost2010PropOp43
 70
     1
102
RTVSPost2010Prop44ColorIndex
 90
        5
102
RTVSPost2010Prop44ColorRGB
 90
      255
102
RTVSPost2010PropOp44
 70
     1
102
RTVSPost2010Prop45
280
     0
102
RTVSPost2010PropOp45
 70
     1
102
RTVSPost2010Prop46
 90
       50
102
RTVSPost2010PropOp46
 70
     1
102
RTVSPost2010Prop47
 90
       50
102
RTVSPost2010PropOp47
 70
     1
102
RTVSPost2010Prop48
 90
       50
102
RTVSPost2010PropOp48
 70
     1
102
RTVSPost2010Prop49
280
     0
102
RTVSPost2010PropOp49
 70
     1
102
RTVSPost2010Prop50
 90
       50
102
RTVSPost2010PropOp50
 70
     1
102
RTVSPost2010Prop51ColorIndex
 90
      256
102
RTVSPost2010Prop51ColorRGB
 90
-16777216
102
RTVSPost2010PropOp51
 70
     0
102
RTVSPost2010Prop52
140
1.0
102
RTVSPost2010PropOp52
 70
     0
102
RTVSPost2010Prop53
 90
        2
102
RTVSPost2010PropOp53
 70
     1
102
RTVSPost2010Prop54
  1
strokes_ogs.tif
102
RTVSPost2010PropOp54
 70
     1
102
RTVSPost2010Prop55
280
     0
102
RTVSPost2010PropOp55
 70
     1
102
RTVSPost2010Prop56
140
1.0
102
RTVSPost2010PropOp56
 70
     1
102
RTVSPost2010Prop57
140
1.0
102
RTVSPost2010PropOp57
 70
     1
102
RTVSPropertyOp0
 70
     1
102
RTVSPropertyOp1
 70
     1
102
RTVSPropertyOp2
 70
     1
102
RTVSPropertyOp3
 70
     1
102
RTVSPropertyOp4
 70
     1
102
RTVSPropertyOp5
 70
     1
102
RTVSPropertyOp6
 70
     1
102
RTVSPropertyOp7
 70
     1
102
RTVSPropertyOp8
 70
     1
102
RTVSPropertyOp9
 70
     1
102
RTVSPropertyOp10
 70
     1
102
RTVSPropertyOp11
 70
     1
102
RTVSPropertyOp12
 70
     1
102
RTVSPropertyOp13
 70
     1
102
RTVSPropertyOp14
 70
     1
102
RTVSPropertyOp15
 70
     1
102
RTVSPropertyOp16
 70
     1
102
RTVSPropertyOp17
 70
     1
102
RTVSPropertyOp18
 70
     1
102
RTVSPropertyOp19
 70
     1
102
RTVSPropertyOp20
 70
     1
102
RTVSPropertyOp21
 70
     1
102
RTVSPropertyOp22
 70
     1
102
RTVSPropertyOp23
 70
     1
102
RTVSPropertyOp24
 70
     1
102
RTVSPropertyOp25
 70
     1
102
RTVSPropertyOp26
 70
     1
102
RTVSPropertyOp27
 70
     1
102
RTVSPropertyOp28
 70
     1
102
RTVSPropertyOp29
 70
     1
102
RTVSPropertyOp30
 70
     1
102
RTVSPropertyOp31
 70
     1
102
RTVSPropertyOp32
 70
     1
102
RTVSPropertyOp33
 70
     1
102
RTVSPropertyOp34
 70
     1
102
RTVSPropertyOp35
 70
     1
102
RTVSPropertyOp36
 70
     1
102
RTVSPropertyOp37
 70
     1
102
RTVSPropertyOp38
 70
     1
102
RTVSPropertyOp39
 70
     1
102
RTVSPropertyOp40
 70
     1
102
RTVSPropertyOp41
 70
     1
102
RTVSPropertyOp42
 70
     1
102
RTVSPropertyOp43
 70
     1
102
RTVSPropertyOp44
 70
     1
102
RTVSPropertyOp45
 70
     1
102
RTVSPropertyOp46
 70
     1
102
RTVSPropertyOp47
 70
     1
102
RTVSPropertyOp48
 70
     1
102
RTVSPropertyOp49
 70
     1
102
RTVSPropertyOp50
 70
     1
102
RTVSPropertyOp51
 70
     0
102
RTVSPropertyOp52
 70
     0
102
RTVSPropertyOp53
 70
     1
102
RTVSPropertyOp54
 70
     1
102
RTVSPropertyOp55
 70
     1
102
RTVSPropertyOp56
 70
     1
102
RTVSPropertyOp57
 70
     1
102
RTVSPropertyOp58
 70
     1
102
RTVSPropertyOp59
 70
     1
102
RTVSPropertyOp60
 70
     1
102
RTVSPropertyOp61
 70
     1
102
RTVSPropertyOp62
 70
     1
  0
XRECORD
  5
717
102
{ACAD_REACTORS
330
716
102
}
330
716
100
AcDbXrecord
280
     1
102
RTVSPost2010Prop28
280
     0
102
RTVSPost2010PropOp28
 70
     1
102
RTVSPost2010Prop29
280
     1
102
RTVSPost2010PropOp29
 70
     1
102
RTVSPost2010Prop30
280
     1
102
RTVSPost2010PropOp30
 70
     1
102
RTVSPost2010Prop31
280
     0
102
RTVSPost2010PropOp31
 70
     1
102
RTVSPost2010Prop32
280
     0
102
RTVSPost2010PropOp32
 70
     1
102
RTVSPost2010Prop33
280
     0
102
RTVSPost2010PropOp33
 70
     1
102
RTVSPost2010Prop34
280
     0
102
RTVSPost2010PropOp34
 70
     1
102
RTVSPost2010Prop35
280
     0
102
RTVSPost2010PropOp35
 70
     1
102
RTVSPost2010Prop36
280
     0
102
RTVSPost2010PropOp36
 70
     1
102
RTVSPost2010Prop37
 90
       50
102
RTVSPost2010PropOp37
 70
     1
102
RTVSPost2010Prop38
140
0.0
102
RTVSPost2010PropOp38
 70
     1
102
RTVSPost2010Prop39
140
1.0
102
RTVSPost2010PropOp39
 70
     1
102
RTVSPost2010Prop40
 90
        0
102
RTVSPost2010PropOp40
 70
     1
102
RTVSPost2010Prop41ColorIndex
 90
       18
102
RTVSPost2010Prop41ColorRGB
 90
        0
102
RTVSPost2010PropOp41
 70
     1
102
RTVSPost2010Prop42
 90
       50
102
RTVSPost2010PropOp42
 70
     1
102
RTVSPost2010Prop43
 90
        3
102
RTVSPost2010PropOp43
 70
     1
102
RTVSPost2010Prop44ColorIndex
 90
        5
102
RTVSPost2010Prop44ColorRGB
 90
      255
102
RTVSPost2010PropOp44
 70
     1
102
RTVSPost2010Prop45
280
     0
102
RTVSPost2010PropOp45
 70
     1
102
RTVSPost2010Prop46
 90
       50
102
RTVSPost2010PropOp46
 70
     1
102
RTVSPost2010Prop47
 90
       50
102
RTVSPost2010PropOp47
 70
     1
102
RTVSPost2010Prop48
 90
       50
102
RTVSPost2010PropOp48
 70
     1
102
RTVSPost2010Prop49
280
     0
102
RTVSPost2010PropOp49
 70
     1
102
RTVSPost2010Prop50
 90
       50
102
RTVSPost2010PropOp50
 70
     1
102
RTVSPost2010Prop51ColorIndex
 90
      256
102
RTVSPost2010Prop51ColorRGB
 90
-16777216
102
RTVSPost2010PropOp51
 70
     0
102
RTVSPost2010Prop52
140
1.0
102
RTVSPost2010PropOp52
 70
     0
102
RTVSPost2010Prop53
 90
        2
102
RTVSPost2010PropOp53
 70
     1
102
RTVSPost2010Prop54
  1
strokes_ogs.tif
102
RTVSPost2010PropOp54
 70
     1
102
RTVSPost2010Prop55
280
     0
102
RTVSPost2010PropOp55
 70
     1
102
RTVSPost2010Prop56
140
1.0
102
RTVSPost2010PropOp56
 70
     1
102
RTVSPost2010Prop57
140
1.0
102
RTVSPost2010PropOp57
 70
     1
102
RTVSPropertyOp0
 70
     1
102
RTVSPropertyOp1
 70
     1
102
RTVSPropertyOp2
 70
     1
102
RTVSPropertyOp3
 70
     1
102
RTVSPropertyOp4
 70
     1
102
RTVSPropertyOp5
 70
     1
102
RTVSPropertyOp6
 70
     1
102
RTVSPropertyOp7
 70
     1
102
RTVSPropertyOp8
 70
     1
102
RTVSPropertyOp9
 70
     1
102
RTVSPropertyOp10
 70
     1
102
RTVSPropertyOp11
 70
     1
102
RTVSPropertyOp12
 70
     1
102
RTVSPropertyOp13
 70
     1
102
RTVSPropertyOp14
 70
     1
102
RTVSPropertyOp15
 70
     1
102
RTVSPropertyOp16
 70
     1
102
RTVSPropertyOp17
 70
     1
102
RTVSPropertyOp18
 70
     1
102
RTVSPropertyOp19
 70
     1
102
RTVSPropertyOp20
 70
     1
102
RTVSPropertyOp21
 70
     1
102
RTVSPropertyOp22
 70
     1
102
RTVSPropertyOp23
 70
     1
102
RTVSPropertyOp24
 70
     1
102
RTVSPropertyOp25
 70
     1
102
RTVSPropertyOp26
 70
     1
102
RTVSPropertyOp27
 70
     1
102
RTVSPropertyOp28
 70
     1
102
RTVSPropertyOp29
 70
     1
102
RTVSPropertyOp30
 70
     1
102
RTVSPropertyOp31
 70
     1
102
RTVSPropertyOp32
 70
     1
102
RTVSPropertyOp33
 70
     1
102
RTVSPropertyOp34
 70
     1
102
RTVSPropertyOp35
 70
     1
102
RTVSPropertyOp36
 70
     1
102
RTVSPropertyOp37
 70
     1
102
RTVSPropertyOp38
 70
     1
102
RTVSPropertyOp39
 70
     1
102
RTVSPropertyOp40
 70
     1
102
RTVSPropertyOp41
 70
     1
102
RTVSPropertyOp42
 70
     1
102
RTVSPropertyOp43
 70
     1
102
RTVSPropertyOp44
 70
     1
102
RTVSPropertyOp45
 70
     1
102
RTVSPropertyOp46
 70
     1
102
RTVSPropertyOp47
 70
     1
102
RTVSPropertyOp48
 70
     1
102
RTVSPropertyOp49
 70
     1
102
RTVSPropertyOp50
 70
     1
102
RTVSPropertyOp51
 70
     0
102
RTVSPropertyOp52
 70
     0
102
RTVSPropertyOp53
 70
     1
102
RTVSPropertyOp54
 70
     1
102
RTVSPropertyOp55
 70
     1
102
RTVSPropertyOp56
 70
     1
102
RTVSPropertyOp57
 70
     1
102
RTVSPropertyOp58
 70
     1
102
RTVSPropertyOp59
 70
     1
102
RTVSPropertyOp60
 70
     1
102
RTVSPropertyOp61
 70
     1
102
RTVSPropertyOp62
 70
     1
  0
XRECORD
  5
719
102
{ACAD_REACTORS
330
718
102
}
330
718
100
AcDbXrecord
280
     1
102
RTVSPost2010Prop28
280
     0
102
RTVSPost2010PropOp28
 70
     1
102
RTVSPost2010Prop29
280
     1
102
RTVSPost2010PropOp29
 70
     1
102
RTVSPost2010Prop30
280
     1
102
RTVSPost2010PropOp30
 70
     1
102
RTVSPost2010Prop31
280
     0
102
RTVSPost2010PropOp31
 70
     1
102
RTVSPost2010Prop32
280
     0
102
RTVSPost2010PropOp32
 70
     1
102
RTVSPost2010Prop33
280
     0
102
RTVSPost2010PropOp33
 70
     1
102
RTVSPost2010Prop34
280
     0
102
RTVSPost2010PropOp34
 70
     1
102
RTVSPost2010Prop35
280
     0
102
RTVSPost2010PropOp35
 70
     1
102
RTVSPost2010Prop36
280
     0
102
RTVSPost2010PropOp36
 70
     1
102
RTVSPost2010Prop37
 90
       50
102
RTVSPost2010PropOp37
 70
     1
102
RTVSPost2010Prop38
140
0.0
102
RTVSPost2010PropOp38
 70
     1
102
RTVSPost2010Prop39
140
1.0
102
RTVSPost2010PropOp39
 70
     1
102
RTVSPost2010Prop40
 90
        0
102
RTVSPost2010PropOp40
 70
     1
102
RTVSPost2010Prop41ColorIndex
 90
       18
102
RTVSPost2010Prop41ColorRGB
 90
        0
102
RTVSPost2010PropOp41
 70
     1
102
RTVSPost2010Prop42
 90
       50
102
RTVSPost2010PropOp42
 70
     1
102
RTVSPost2010Prop43
 90
        3
102
RTVSPost2010PropOp43
 70
     1
102
RTVSPost2010Prop44ColorIndex
 90
        5
102
RTVSPost2010Prop44ColorRGB
 90
      255
102
RTVSPost2010PropOp44
 70
     1
102
RTVSPost2010Prop45
280
     0
102
RTVSPost2010PropOp45
 70
     1
102
RTVSPost2010Prop46
 90
       50
102
RTVSPost2010PropOp46
 70
     1
102
RTVSPost2010Prop47
 90
       50
102
RTVSPost2010PropOp47
 70
     1
102
RTVSPost2010Prop48
 90
       50
102
RTVSPost2010PropOp48
 70
     1
102
RTVSPost2010Prop49
280
     0
102
RTVSPost2010PropOp49
 70
     1
102
RTVSPost2010Prop50
 90
       50
102
RTVSPost2010PropOp50
 70
     1
102
RTVSPost2010Prop51ColorIndex
 90
      256
102
RTVSPost2010Prop51ColorRGB
 90
-16777216
102
RTVSPost2010PropOp51
 70
     0
102
RTVSPost2010Prop52
140
1.0
102
RTVSPost2010PropOp52
 70
     0
102
RTVSPost2010Prop53
 90
        2
102
RTVSPost2010PropOp53
 70
     1
102
RTVSPost2010Prop54
  1
strokes_ogs.tif
102
RTVSPost2010PropOp54
 70
     1
102
RTVSPost2010Prop55
280
     0
102
RTVSPost2010PropOp55
 70
     1
102
RTVSPost2010Prop56
140
1.0
102
RTVSPost2010PropOp56
 70
     1
102
RTVSPost2010Prop57
140
1.0
102
RTVSPost2010PropOp57
 70
     1
102
RTVSPropertyOp0
 70
     1
102
RTVSPropertyOp1
 70
     1
102
RTVSPropertyOp2
 70
     1
102
RTVSPropertyOp3
 70
     1
102
RTVSPropertyOp4
 70
     1
102
RTVSPropertyOp5
 70
     1
102
RTVSPropertyOp6
 70
     1
102
RTVSPropertyOp7
 70
     1
102
RTVSPropertyOp8
 70
     1
102
RTVSPropertyOp9
 70
     1
102
RTVSPropertyOp10
 70
     1
102
RTVSPropertyOp11
 70
     1
102
RTVSPropertyOp12
 70
     1
102
RTVSPropertyOp13
 70
     1
102
RTVSPropertyOp14
 70
     1
102
RTVSPropertyOp15
 70
     1
102
RTVSPropertyOp16
 70
     1
102
RTVSPropertyOp17
 70
     1
102
RTVSPropertyOp18
 70
     1
102
RTVSPropertyOp19
 70
     1
102
RTVSPropertyOp20
 70
     1
102
RTVSPropertyOp21
 70
     1
102
RTVSPropertyOp22
 70
     1
102
RTVSPropertyOp23
 70
     1
102
RTVSPropertyOp24
 70
     1
102
RTVSPropertyOp25
 70
     1
102
RTVSPropertyOp26
 70
     1
102
RTVSPropertyOp27
 70
     1
102
RTVSPropertyOp28
 70
     1
102
RTVSPropertyOp29
 70
     1
102
RTVSPropertyOp30
 70
     1
102
RTVSPropertyOp31
 70
     1
102
RTVSPropertyOp32
 70
     1
102
RTVSPropertyOp33
 70
     1
102
RTVSPropertyOp34
 70
     1
102
RTVSPropertyOp35
 70
     1
102
RTVSPropertyOp36
 70
     1
102
RTVSPropertyOp37
 70
     1
102
RTVSPropertyOp38
 70
     1
102
RTVSPropertyOp39
 70
     1
102
RTVSPropertyOp40
 70
     1
102
RTVSPropertyOp41
 70
     1
102
RTVSPropertyOp42
 70
     1
102
RTVSPropertyOp43
 70
     1
102
RTVSPropertyOp44
 70
     1
102
RTVSPropertyOp45
 70
     1
102
RTVSPropertyOp46
 70
     1
102
RTVSPropertyOp47
 70
     1
102
RTVSPropertyOp48
 70
     1
102
RTVSPropertyOp49
 70
     1
102
RTVSPropertyOp50
 70
     1
102
RTVSPropertyOp51
 70
     0
102
RTVSPropertyOp52
 70
     0
102
RTVSPropertyOp53
 70
     1
102
RTVSPropertyOp54
 70
     1
102
RTVSPropertyOp55
 70
     1
102
RTVSPropertyOp56
 70
     1
102
RTVSPropertyOp57
 70
     1
102
RTVSPropertyOp58
 70
     1
102
RTVSPropertyOp59
 70
     1
102
RTVSPropertyOp60
 70
     1
102
RTVSPropertyOp61
 70
     1
102
RTVSPropertyOp62
 70
     1
  0
XRECORD
  5
71B
102
{ACAD_REACTORS
330
71A
102
}
330
71A
100
AcDbXrecord
280
     1
102
RTVSPost2010Prop28
280
     0
102
RTVSPost2010PropOp28
 70
     1
102
RTVSPost2010Prop29
280
     1
102
RTVSPost2010PropOp29
 70
     1
102
RTVSPost2010Prop30
280
     1
102
RTVSPost2010PropOp30
 70
     1
102
RTVSPost2010Prop31
280
     0
102
RTVSPost2010PropOp31
 70
     1
102
RTVSPost2010Prop32
280
     0
102
RTVSPost2010PropOp32
 70
     1
102
RTVSPost2010Prop33
280
     0
102
RTVSPost2010PropOp33
 70
     1
102
RTVSPost2010Prop34
280
     0
102
RTVSPost2010PropOp34
 70
     1
102
RTVSPost2010Prop35
280
     0
102
RTVSPost2010PropOp35
 70
     1
102
RTVSPost2010Prop36
280
     0
102
RTVSPost2010PropOp36
 70
     1
102
RTVSPost2010Prop37
 90
       50
102
RTVSPost2010PropOp37
 70
     1
102
RTVSPost2010Prop38
140
0.0
102
RTVSPost2010PropOp38
 70
     1
102
RTVSPost2010Prop39
140
1.0
102
RTVSPost2010PropOp39
 70
     1
102
RTVSPost2010Prop40
 90
        0
102
RTVSPost2010PropOp40
 70
     1
102
RTVSPost2010Prop41ColorIndex
 90
       18
102
RTVSPost2010Prop41ColorRGB
 90
        0
102
RTVSPost2010PropOp41
 70
     1
102
RTVSPost2010Prop42
 90
       50
102
RTVSPost2010PropOp42
 70
     1
102
RTVSPost2010Prop43
 90
        3
102
RTVSPost2010PropOp43
 70
     1
102
RTVSPost2010Prop44ColorIndex
 90
        5
102
RTVSPost2010Prop44ColorRGB
 90
      255
102
RTVSPost2010PropOp44
 70
     1
102
RTVSPost2010Prop45
280
     0
102
RTVSPost2010PropOp45
 70
     1
102
RTVSPost2010Prop46
 90
       50
102
RTVSPost2010PropOp46
 70
     1
102
RTVSPost2010Prop47
 90
       50
102
RTVSPost2010PropOp47
 70
     1
102
RTVSPost2010Prop48
 90
       50
102
RTVSPost2010PropOp48
 70
     1
102
RTVSPost2010Prop49
280
     0
102
RTVSPost2010PropOp49
 70
     1
102
RTVSPost2010Prop50
 90
       50
102
RTVSPost2010PropOp50
 70
     1
102
RTVSPost2010Prop51ColorIndex
 90
      256
102
RTVSPost2010Prop51ColorRGB
 90
-16777216
102
RTVSPost2010PropOp51
 70
     0
102
RTVSPost2010Prop52
140
1.0
102
RTVSPost2010PropOp52
 70
     0
102
RTVSPost2010Prop53
 90
        2
102
RTVSPost2010PropOp53
 70
     1
102
RTVSPost2010Prop54
  1
strokes_ogs.tif
102
RTVSPost2010PropOp54
 70
     1
102
RTVSPost2010Prop55
280
     0
102
RTVSPost2010PropOp55
 70
     1
102
RTVSPost2010Prop56
140
1.0
102
RTVSPost2010PropOp56
 70
     1
102
RTVSPost2010Prop57
140
1.0
102
RTVSPost2010PropOp57
 70
     1
102
RTVSPropertyOp0
 70
     1
102
RTVSPropertyOp1
 70
     1
102
RTVSPropertyOp2
 70
     1
102
RTVSPropertyOp3
 70
     1
102
RTVSPropertyOp4
 70
     1
102
RTVSPropertyOp5
 70
     1
102
RTVSPropertyOp6
 70
     1
102
RTVSPropertyOp7
 70
     1
102
RTVSPropertyOp8
 70
     1
102
RTVSPropertyOp9
 70
     1
102
RTVSPropertyOp10
 70
     1
102
RTVSPropertyOp11
 70
     1
102
RTVSPropertyOp12
 70
     1
102
RTVSPropertyOp13
 70
     1
102
RTVSPropertyOp14
 70
     1
102
RTVSPropertyOp15
 70
     1
102
RTVSPropertyOp16
 70
     1
102
RTVSPropertyOp17
 70
     1
102
RTVSPropertyOp18
 70
     1
102
RTVSPropertyOp19
 70
     1
102
RTVSPropertyOp20
 70
     1
102
RTVSPropertyOp21
 70
     1
102
RTVSPropertyOp22
 70
     1
102
RTVSPropertyOp23
 70
     1
102
RTVSPropertyOp24
 70
     1
102
RTVSPropertyOp25
 70
     1
102
RTVSPropertyOp26
 70
     1
102
RTVSPropertyOp27
 70
     1
102
RTVSPropertyOp28
 70
     1
102
RTVSPropertyOp29
 70
     1
102
RTVSPropertyOp30
 70
     1
102
RTVSPropertyOp31
 70
     1
102
RTVSPropertyOp32
 70
     1
102
RTVSPropertyOp33
 70
     1
102
RTVSPropertyOp34
 70
     1
102
RTVSPropertyOp35
 70
     1
102
RTVSPropertyOp36
 70
     1
102
RTVSPropertyOp37
 70
     1
102
RTVSPropertyOp38
 70
     1
102
RTVSPropertyOp39
 70
     1
102
RTVSPropertyOp40
 70
     1
102
RTVSPropertyOp41
 70
     1
102
RTVSPropertyOp42
 70
     1
102
RTVSPropertyOp43
 70
     1
102
RTVSPropertyOp44
 70
     1
102
RTVSPropertyOp45
 70
     1
102
RTVSPropertyOp46
 70
     1
102
RTVSPropertyOp47
 70
     1
102
RTVSPropertyOp48
 70
     1
102
RTVSPropertyOp49
 70
     1
102
RTVSPropertyOp50
 70
     1
102
RTVSPropertyOp51
 70
     0
102
RTVSPropertyOp52
 70
     0
102
RTVSPropertyOp53
 70
     1
102
RTVSPropertyOp54
 70
     1
102
RTVSPropertyOp55
 70
     1
102
RTVSPropertyOp56
 70
     1
102
RTVSPropertyOp57
 70
     1
102
RTVSPropertyOp58
 70
     1
102
RTVSPropertyOp59
 70
     1
102
RTVSPropertyOp60
 70
     1
102
RTVSPropertyOp61
 70
     1
102
RTVSPropertyOp62
 70
     1
  0
XRECORD
  5
721
102
{ACAD_REACTORS
330
720
102
}
330
720
100
AcDbXrecord
280
     1
102
RTVSPost2010Prop28
280
     0
102
RTVSPost2010PropOp28
 70
     1
102
RTVSPost2010Prop29
280
     1
102
RTVSPost2010PropOp29
 70
     1
102
RTVSPost2010Prop30
280
     1
102
RTVSPost2010PropOp30
 70
     1
102
RTVSPost2010Prop31
280
     0
102
RTVSPost2010PropOp31
 70
     1
102
RTVSPost2010Prop32
280
     0
102
RTVSPost2010PropOp32
 70
     1
102
RTVSPost2010Prop33
280
     0
102
RTVSPost2010PropOp33
 70
     1
102
RTVSPost2010Prop34
280
     0
102
RTVSPost2010PropOp34
 70
     1
102
RTVSPost2010Prop35
280
     0
102
RTVSPost2010PropOp35
 70
     1
102
RTVSPost2010Prop36
280
     0
102
RTVSPost2010PropOp36
 70
     1
102
RTVSPost2010Prop37
 90
       50
102
RTVSPost2010PropOp37
 70
     1
102
RTVSPost2010Prop38
140
0.0
102
RTVSPost2010PropOp38
 70
     1
102
RTVSPost2010Prop39
140
1.0
102
RTVSPost2010PropOp39
 70
     1
102
RTVSPost2010Prop40
 90
        0
102
RTVSPost2010PropOp40
 70
     1
102
RTVSPost2010Prop41ColorIndex
 90
       18
102
RTVSPost2010Prop41ColorRGB
 90
        0
102
RTVSPost2010PropOp41
 70
     1
102
RTVSPost2010Prop42
 90
       50
102
RTVSPost2010PropOp42
 70
     1
102
RTVSPost2010Prop43
 90
        3
102
RTVSPost2010PropOp43
 70
     1
102
RTVSPost2010Prop44ColorIndex
 90
        5
102
RTVSPost2010Prop44ColorRGB
 90
      255
102
RTVSPost2010PropOp44
 70
     1
102
RTVSPost2010Prop45
280
     0
102
RTVSPost2010PropOp45
 70
     1
102
RTVSPost2010Prop46
 90
       50
102
RTVSPost2010PropOp46
 70
     1
102
RTVSPost2010Prop47
 90
       50
102
RTVSPost2010PropOp47
 70
     1
102
RTVSPost2010Prop48
 90
       50
102
RTVSPost2010PropOp48
 70
     1
102
RTVSPost2010Prop49
280
     0
102
RTVSPost2010PropOp49
 70
     1
102
RTVSPost2010Prop50
 90
       50
102
RTVSPost2010PropOp50
 70
     1
102
RTVSPost2010Prop51ColorIndex
 90
      256
102
RTVSPost2010Prop51ColorRGB
 90
-16777216
102
RTVSPost2010PropOp51
 70
     0
102
RTVSPost2010Prop52
140
1.0
102
RTVSPost2010PropOp52
 70
     0
102
RTVSPost2010Prop53
 90
        2
102
RTVSPost2010PropOp53
 70
     1
102
RTVSPost2010Prop54
  1
strokes_ogs.tif
102
RTVSPost2010PropOp54
 70
     1
102
RTVSPost2010Prop55
280
     0
102
RTVSPost2010PropOp55
 70
     1
102
RTVSPost2010Prop56
140
1.0
102
RTVSPost2010PropOp56
 70
     1
102
RTVSPost2010Prop57
140
1.0
102
RTVSPost2010PropOp57
 70
     1
102
RTVSPropertyOp0
 70
     1
102
RTVSPropertyOp1
 70
     1
102
RTVSPropertyOp2
 70
     1
102
RTVSPropertyOp3
 70
     1
102
RTVSPropertyOp4
 70
     1
102
RTVSPropertyOp5
 70
     1
102
RTVSPropertyOp6
 70
     1
102
RTVSPropertyOp7
 70
     1
102
RTVSPropertyOp8
 70
     1
102
RTVSPropertyOp9
 70
     1
102
RTVSPropertyOp10
 70
     1
102
RTVSPropertyOp11
 70
     1
102
RTVSPropertyOp12
 70
     1
102
RTVSPropertyOp13
 70
     1
102
RTVSPropertyOp14
 70
     1
102
RTVSPropertyOp15
 70
     1
102
RTVSPropertyOp16
 70
     1
102
RTVSPropertyOp17
 70
     1
102
RTVSPropertyOp18
 70
     1
102
RTVSPropertyOp19
 70
     1
102
RTVSPropertyOp20
 70
     1
102
RTVSPropertyOp21
 70
     1
102
RTVSPropertyOp22
 70
     1
102
RTVSPropertyOp23
 70
     1
102
RTVSPropertyOp24
 70
     1
102
RTVSPropertyOp25
 70
     1
102
RTVSPropertyOp26
 70
     1
102
RTVSPropertyOp27
 70
     1
102
RTVSPropertyOp28
 70
     1
102
RTVSPropertyOp29
 70
     1
102
RTVSPropertyOp30
 70
     1
102
RTVSPropertyOp31
 70
     1
102
RTVSPropertyOp32
 70
     1
102
RTVSPropertyOp33
 70
     1
102
RTVSPropertyOp34
 70
     1
102
RTVSPropertyOp35
 70
     1
102
RTVSPropertyOp36
 70
     1
102
RTVSPropertyOp37
 70
     1
102
RTVSPropertyOp38
 70
     1
102
RTVSPropertyOp39
 70
     1
102
RTVSPropertyOp40
 70
     1
102
RTVSPropertyOp41
 70
     1
102
RTVSPropertyOp42
 70
     1
102
RTVSPropertyOp43
 70
     1
102
RTVSPropertyOp44
 70
     1
102
RTVSPropertyOp45
 70
     1
102
RTVSPropertyOp46
 70
     1
102
RTVSPropertyOp47
 70
     1
102
RTVSPropertyOp48
 70
     1
102
RTVSPropertyOp49
 70
     1
102
RTVSPropertyOp50
 70
     1
102
RTVSPropertyOp51
 70
     0
102
RTVSPropertyOp52
 70
     0
102
RTVSPropertyOp53
 70
     1
102
RTVSPropertyOp54
 70
     1
102
RTVSPropertyOp55
 70
     1
102
RTVSPropertyOp56
 70
     1
102
RTVSPropertyOp57
 70
     1
102
RTVSPropertyOp58
 70
     1
102
RTVSPropertyOp59
 70
     1
102
RTVSPropertyOp60
 70
     1
102
RTVSPropertyOp61
 70
     1
102
RTVSPropertyOp62
 70
     1
  0
XRECORD
  5
735
102
{ACAD_REACTORS
330
734
102
}
330
734
100
AcDbXrecord
280
     1
102
RTVSPost2010Prop28
280
     0
102
RTVSPost2010PropOp28
 70
     0
102
RTVSPost2010Prop29
280
     1
102
RTVSPost2010PropOp29
 70
     0
102
RTVSPost2010Prop30
280
     1
102
RTVSPost2010PropOp30
 70
     0
102
RTVSPost2010Prop31
280
     0
102
RTVSPost2010PropOp31
 70
     0
102
RTVSPost2010Prop32
280
     0
102
RTVSPost2010PropOp32
 70
     0
102
RTVSPost2010Prop33
280
     0
102
RTVSPost2010PropOp33
 70
     0
102
RTVSPost2010Prop34
280
     0
102
RTVSPost2010PropOp34
 70
     0
102
RTVSPost2010Prop35
280
     0
102
RTVSPost2010PropOp35
 70
     0
102
RTVSPost2010Prop36
280
     0
102
RTVSPost2010PropOp36
 70
     0
102
RTVSPost2010Prop37
 90
       50
102
RTVSPost2010PropOp37
 70
     0
102
RTVSPost2010Prop38
140
0.0
102
RTVSPost2010PropOp38
 70
     0
102
RTVSPost2010Prop39
140
1.0
102
RTVSPost2010PropOp39
 70
     0
102
RTVSPost2010Prop40
 90
        0
102
RTVSPost2010PropOp40
 70
     0
102
RTVSPost2010Prop41ColorIndex
 90
       18
102
RTVSPost2010Prop41ColorRGB
 90
        0
102
RTVSPost2010PropOp41
 70
     0
102
RTVSPost2010Prop42
 90
       50
102
RTVSPost2010PropOp42
 70
     0
102
RTVSPost2010Prop43
 90
        3
102
RTVSPost2010PropOp43
 70
     0
102
RTVSPost2010Prop44ColorIndex
 90
        5
102
RTVSPost2010Prop44ColorRGB
 90
      255
102
RTVSPost2010PropOp44
 70
     0
102
RTVSPost2010Prop45
280
     0
102
RTVSPost2010PropOp45
 70
     0
102
RTVSPost2010Prop46
 90
       50
102
RTVSPost2010PropOp46
 70
     0
102
RTVSPost2010Prop47
 90
       50
102
RTVSPost2010PropOp47
 70
     0
102
RTVSPost2010Prop48
 90
       50
102
RTVSPost2010PropOp48
 70
     0
102
RTVSPost2010Prop49
280
     0
102
RTVSPost2010PropOp49
 70
     0
102
RTVSPost2010Prop50
 90
       50
102
RTVSPost2010PropOp50
 70
     0
102
RTVSPost2010Prop51ColorIndex
 90
      256
102
RTVSPost2010Prop51ColorRGB
 90
-16777216
102
RTVSPost2010PropOp51
 70
     0
102
RTVSPost2010Prop52
140
1.0
102
RTVSPost2010PropOp52
 70
     0
102
RTVSPost2010Prop53
 90
        2
102
RTVSPost2010PropOp53
 70
     0
102
RTVSPost2010Prop54
  1
strokes_ogs.tif
102
RTVSPost2010PropOp54
 70
     0
102
RTVSPost2010Prop55
280
     0
102
RTVSPost2010PropOp55
 70
     0
102
RTVSPost2010Prop56
140
1.0
102
RTVSPost2010PropOp56
 70
     0
102
RTVSPost2010Prop57
140
1.0
102
RTVSPost2010PropOp57
 70
     0
102
RTVSPropertyOp0
 70
     0
102
RTVSPropertyOp1
 70
     0
102
RTVSPropertyOp2
 70
     0
102
RTVSPropertyOp3
 70
     0
102
RTVSPropertyOp4
 70
     0
102
RTVSPropertyOp5
 70
     0
102
RTVSPropertyOp6
 70
     0
102
RTVSPropertyOp7
 70
     0
102
RTVSPropertyOp8
 70
     0
102
RTVSPropertyOp9
 70
     0
102
RTVSPropertyOp10
 70
     0
102
RTVSPropertyOp11
 70
     0
102
RTVSPropertyOp12
 70
     0
102
RTVSPropertyOp13
 70
     0
102
RTVSPropertyOp14
 70
     2
102
RTVSPropertyOp15
 70
     0
102
RTVSPropertyOp16
 70
     0
102
RTVSPropertyOp17
 70
     0
102
RTVSPropertyOp18
 70
     0
102
RTVSPropertyOp19
 70
     0
102
RTVSPropertyOp20
 70
     0
102
RTVSPropertyOp21
 70
     0
102
RTVSPropertyOp22
 70
     0
102
RTVSPropertyOp23
 70
     0
102
RTVSPropertyOp24
 70
     0
102
RTVSPropertyOp25
 70
     0
102
RTVSPropertyOp26
 70
     0
102
RTVSPropertyOp27
 70
     0
102
RTVSPropertyOp28
 70
     0
102
RTVSPropertyOp29
 70
     0
102
RTVSPropertyOp30
 70
     0
102
RTVSPropertyOp31
 70
     0
102
RTVSPropertyOp32
 70
     0
102
RTVSPropertyOp33
 70
     0
102
RTVSPropertyOp34
 70
     0
102
RTVSPropertyOp35
 70
     0
102
RTVSPropertyOp36
 70
     0
102
RTVSPropertyOp37
 70
     0
102
RTVSPropertyOp38
 70
     0
102
RTVSPropertyOp39
 70
     0
102
RTVSPropertyOp40
 70
     0
102
RTVSPropertyOp41
 70
     0
102
RTVSPropertyOp42
 70
     0
102
RTVSPropertyOp43
 70
     0
102
RTVSPropertyOp44
 70
     0
102
RTVSPropertyOp45
 70
     0
102
RTVSPropertyOp46
 70
     0
102
RTVSPropertyOp47
 70
     0
102
RTVSPropertyOp48
 70
     0
102
RTVSPropertyOp49
 70
     0
102
RTVSPropertyOp50
 70
     0
102
RTVSPropertyOp51
 70
     0
102
RTVSPropertyOp52
 70
     0
102
RTVSPropertyOp53
 70
     0
102
RTVSPropertyOp54
 70
     0
102
RTVSPropertyOp55
 70
     0
102
RTVSPropertyOp56
 70
     0
102
RTVSPropertyOp57
 70
     0
102
RTVSPropertyOp58
 70
     1
102
RTVSPropertyOp59
 70
     1
102
RTVSPropertyOp60
 70
     1
102
RTVSPropertyOp61
 70
     1
102
RTVSPropertyOp62
 70
     1
  0
XRECORD
  5
72F
102
{ACAD_REACTORS
330
72E
102
}
330
72E
100
AcDbXrecord
280
     1
102
RTVSPost2010Prop28
280
     0
102
RTVSPost2010PropOp28
 70
     1
102
RTVSPost2010Prop29
280
     1
102
RTVSPost2010PropOp29
 70
     1
102
RTVSPost2010Prop30
280
     1
102
RTVSPost2010PropOp30
 70
     1
102
RTVSPost2010Prop31
280
     0
102
RTVSPost2010PropOp31
 70
     1
102
RTVSPost2010Prop32
280
     0
102
RTVSPost2010PropOp32
 70
     1
102
RTVSPost2010Prop33
280
     0
102
RTVSPost2010PropOp33
 70
     1
102
RTVSPost2010Prop34
280
     0
102
RTVSPost2010PropOp34
 70
     1
102
RTVSPost2010Prop35
280
     0
102
RTVSPost2010PropOp35
 70
     1
102
RTVSPost2010Prop36
280
     0
102
RTVSPost2010PropOp36
 70
     1
102
RTVSPost2010Prop37
 90
       50
102
RTVSPost2010PropOp37
 70
     1
102
RTVSPost2010Prop38
140
0.0
102
RTVSPost2010PropOp38
 70
     1
102
RTVSPost2010Prop39
140
1.0
102
RTVSPost2010PropOp39
 70
     1
102
RTVSPost2010Prop40
 90
        0
102
RTVSPost2010PropOp40
 70
     1
102
RTVSPost2010Prop41ColorIndex
 90
       18
102
RTVSPost2010Prop41ColorRGB
 90
        0
102
RTVSPost2010PropOp41
 70
     1
102
RTVSPost2010Prop42
 90
       50
102
RTVSPost2010PropOp42
 70
     1
102
RTVSPost2010Prop43
 90
        3
102
RTVSPost2010PropOp43
 70
     1
102
RTVSPost2010Prop44ColorIndex
 90
        5
102
RTVSPost2010Prop44ColorRGB
 90
      255
102
RTVSPost2010PropOp44
 70
     1
102
RTVSPost2010Prop45
280
     0
102
RTVSPost2010PropOp45
 70
     1
102
RTVSPost2010Prop46
 90
       50
102
RTVSPost2010PropOp46
 70
     1
102
RTVSPost2010Prop47
 90
       50
102
RTVSPost2010PropOp47
 70
     1
102
RTVSPost2010Prop48
 90
       50
102
RTVSPost2010PropOp48
 70
     1
102
RTVSPost2010Prop49
280
     0
102
RTVSPost2010PropOp49
 70
     1
102
RTVSPost2010Prop50
 90
       50
102
RTVSPost2010PropOp50
 70
     1
102
RTVSPost2010Prop51ColorIndex
 90
      256
102
RTVSPost2010Prop51ColorRGB
 90
-16777216
102
RTVSPost2010PropOp51
 70
     0
102
RTVSPost2010Prop52
140
1.0
102
RTVSPost2010PropOp52
 70
     0
102
RTVSPost2010Prop53
 90
        2
102
RTVSPost2010PropOp53
 70
     1
102
RTVSPost2010Prop54
  1
strokes_ogs.tif
102
RTVSPost2010PropOp54
 70
     1
102
RTVSPost2010Prop55
280
     0
102
RTVSPost2010PropOp55
 70
     1
102
RTVSPost2010Prop56
140
1.0
102
RTVSPost2010PropOp56
 70
     1
102
RTVSPost2010Prop57
140
1.0
102
RTVSPost2010PropOp57
 70
     1
102
RTVSPropertyOp0
 70
     1
102
RTVSPropertyOp1
 70
     1
102
RTVSPropertyOp2
 70
     1
102
RTVSPropertyOp3
 70
     1
102
RTVSPropertyOp4
 70
     1
102
RTVSPropertyOp5
 70
     1
102
RTVSPropertyOp6
 70
     1
102
RTVSPropertyOp7
 70
     1
102
RTVSPropertyOp8
 70
     1
102
RTVSPropertyOp9
 70
     1
102
RTVSPropertyOp10
 70
     1
102
RTVSPropertyOp11
 70
     1
102
RTVSPropertyOp12
 70
     1
102
RTVSPropertyOp13
 70
     1
102
RTVSPropertyOp14
 70
     1
102
RTVSPropertyOp15
 70
     1
102
RTVSPropertyOp16
 70
     1
102
RTVSPropertyOp17
 70
     1
102
RTVSPropertyOp18
 70
     1
102
RTVSPropertyOp19
 70
     1
102
RTVSPropertyOp20
 70
     1
102
RTVSPropertyOp21
 70
     1
102
RTVSPropertyOp22
 70
     1
102
RTVSPropertyOp23
 70
     1
102
RTVSPropertyOp24
 70
     1
102
RTVSPropertyOp25
 70
     1
102
RTVSPropertyOp26
 70
     1
102
RTVSPropertyOp27
 70
     1
102
RTVSPropertyOp28
 70
     1
102
RTVSPropertyOp29
 70
     1
102
RTVSPropertyOp30
 70
     1
102
RTVSPropertyOp31
 70
     1
102
RTVSPropertyOp32
 70
     1
102
RTVSPropertyOp33
 70
     1
102
RTVSPropertyOp34
 70
     1
102
RTVSPropertyOp35
 70
     1
102
RTVSPropertyOp36
 70
     1
102
RTVSPropertyOp37
 70
     1
102
RTVSPropertyOp38
 70
     1
102
RTVSPropertyOp39
 70
     1
102
RTVSPropertyOp40
 70
     1
102
RTVSPropertyOp41
 70
     1
102
RTVSPropertyOp42
 70
     1
102
RTVSPropertyOp43
 70
     1
102
RTVSPropertyOp44
 70
     1
102
RTVSPropertyOp45
 70
     1
102
RTVSPropertyOp46
 70
     1
102
RTVSPropertyOp47
 70
     1
102
RTVSPropertyOp48
 70
     1
102
RTVSPropertyOp49
 70
     1
102
RTVSPropertyOp50
 70
     1
102
RTVSPropertyOp51
 70
     0
102
RTVSPropertyOp52
 70
     0
102
RTVSPropertyOp53
 70
     1
102
RTVSPropertyOp54
 70
     1
102
RTVSPropertyOp55
 70
     1
102
RTVSPropertyOp56
 70
     1
102
RTVSPropertyOp57
 70
     1
102
RTVSPropertyOp58
 70
     1
102
RTVSPropertyOp59
 70
     1
102
RTVSPropertyOp60
 70
     1
102
RTVSPropertyOp61
 70
     1
102
RTVSPropertyOp62
 70
     1
  0
XRECORD
  5
737
102
{ACAD_REACTORS
330
736
102
}
330
736
100
AcDbXrecord
280
     1
102
RTVSPost2010Prop28
280
     0
102
RTVSPost2010PropOp28
 70
     0
102
RTVSPost2010Prop29
280
     1
102
RTVSPost2010PropOp29
 70
     0
102
RTVSPost2010Prop30
280
     1
102
RTVSPost2010PropOp30
 70
     0
102
RTVSPost2010Prop31
280
     0
102
RTVSPost2010PropOp31
 70
     0
102
RTVSPost2010Prop32
280
     0
102
RTVSPost2010PropOp32
 70
     0
102
RTVSPost2010Prop33
280
     0
102
RTVSPost2010PropOp33
 70
     0
102
RTVSPost2010Prop34
280
     0
102
RTVSPost2010PropOp34
 70
     0
102
RTVSPost2010Prop35
280
     0
102
RTVSPost2010PropOp35
 70
     0
102
RTVSPost2010Prop36
280
     0
102
RTVSPost2010PropOp36
 70
     0
102
RTVSPost2010Prop37
 90
       50
102
RTVSPost2010PropOp37
 70
     0
102
RTVSPost2010Prop38
140
0.0
102
RTVSPost2010PropOp38
 70
     0
102
RTVSPost2010Prop39
140
1.0
102
RTVSPost2010PropOp39
 70
     0
102
RTVSPost2010Prop40
 90
        0
102
RTVSPost2010PropOp40
 70
     0
102
RTVSPost2010Prop41ColorIndex
 90
       18
102
RTVSPost2010Prop41ColorRGB
 90
        0
102
RTVSPost2010PropOp41
 70
     0
102
RTVSPost2010Prop42
 90
       50
102
RTVSPost2010PropOp42
 70
     0
102
RTVSPost2010Prop43
 90
        3
102
RTVSPost2010PropOp43
 70
     0
102
RTVSPost2010Prop44ColorIndex
 90
        5
102
RTVSPost2010Prop44ColorRGB
 90
      255
102
RTVSPost2010PropOp44
 70
     0
102
RTVSPost2010Prop45
280
     0
102
RTVSPost2010PropOp45
 70
     0
102
RTVSPost2010Prop46
 90
       50
102
RTVSPost2010PropOp46
 70
     0
102
RTVSPost2010Prop47
 90
       50
102
RTVSPost2010PropOp47
 70
     0
102
RTVSPost2010Prop48
 90
       50
102
RTVSPost2010PropOp48
 70
     0
102
RTVSPost2010Prop49
280
     0
102
RTVSPost2010PropOp49
 70
     0
102
RTVSPost2010Prop50
 90
       50
102
RTVSPost2010PropOp50
 70
     0
102
RTVSPost2010Prop51ColorIndex
 90
      256
102
RTVSPost2010Prop51ColorRGB
 90
-16777216
102
RTVSPost2010PropOp51
 70
     0
102
RTVSPost2010Prop52
140
1.0
102
RTVSPost2010PropOp52
 70
     0
102
RTVSPost2010Prop53
 90
        2
102
RTVSPost2010PropOp53
 70
     0
102
RTVSPost2010Prop54
  1
strokes_ogs.tif
102
RTVSPost2010PropOp54
 70
     0
102
RTVSPost2010Prop55
280
     0
102
RTVSPost2010PropOp55
 70
     0
102
RTVSPost2010Prop56
140
1.0
102
RTVSPost2010PropOp56
 70
     0
102
RTVSPost2010Prop57
140
1.0
102
RTVSPost2010PropOp57
 70
     0
102
RTVSPropertyOp0
 70
     0
102
RTVSPropertyOp1
 70
     0
102
RTVSPropertyOp2
 70
     0
102
RTVSPropertyOp3
 70
     0
102
RTVSPropertyOp4
 70
     0
102
RTVSPropertyOp5
 70
     0
102
RTVSPropertyOp6
 70
     0
102
RTVSPropertyOp7
 70
     0
102
RTVSPropertyOp8
 70
     0
102
RTVSPropertyOp9
 70
     0
102
RTVSPropertyOp10
 70
     0
102
RTVSPropertyOp11
 70
     0
102
RTVSPropertyOp12
 70
     0
102
RTVSPropertyOp13
 70
     0
102
RTVSPropertyOp14
 70
     2
102
RTVSPropertyOp15
 70
     0
102
RTVSPropertyOp16
 70
     0
102
RTVSPropertyOp17
 70
     0
102
RTVSPropertyOp18
 70
     0
102
RTVSPropertyOp19
 70
     0
102
RTVSPropertyOp20
 70
     0
102
RTVSPropertyOp21
 70
     0
102
RTVSPropertyOp22
 70
     0
102
RTVSPropertyOp23
 70
     0
102
RTVSPropertyOp24
 70
     0
102
RTVSPropertyOp25
 70
     0
102
RTVSPropertyOp26
 70
     0
102
RTVSPropertyOp27
 70
     0
102
RTVSPropertyOp28
 70
     0
102
RTVSPropertyOp29
 70
     0
102
RTVSPropertyOp30
 70
     0
102
RTVSPropertyOp31
 70
     0
102
RTVSPropertyOp32
 70
     0
102
RTVSPropertyOp33
 70
     0
102
RTVSPropertyOp34
 70
     0
102
RTVSPropertyOp35
 70
     0
102
RTVSPropertyOp36
 70
     0
102
RTVSPropertyOp37
 70
     0
102
RTVSPropertyOp38
 70
     0
102
RTVSPropertyOp39
 70
     0
102
RTVSPropertyOp40
 70
     0
102
RTVSPropertyOp41
 70
     0
102
RTVSPropertyOp42
 70
     0
102
RTVSPropertyOp43
 70
     0
102
RTVSPropertyOp44
 70
     0
102
RTVSPropertyOp45
 70
     0
102
RTVSPropertyOp46
 70
     0
102
RTVSPropertyOp47
 70
     0
102
RTVSPropertyOp48
 70
     0
102
RTVSPropertyOp49
 70
     0
102
RTVSPropertyOp50
 70
     0
102
RTVSPropertyOp51
 70
     0
102
RTVSPropertyOp52
 70
     0
102
RTVSPropertyOp53
 70
     0
102
RTVSPropertyOp54
 70
     0
102
RTVSPropertyOp55
 70
     0
102
RTVSPropertyOp56
 70
     0
102
RTVSPropertyOp57
 70
     0
102
RTVSPropertyOp58
 70
     1
102
RTVSPropertyOp59
 70
     1
102
RTVSPropertyOp60
 70
     1
102
RTVSPropertyOp61
 70
     1
102
RTVSPropertyOp62
 70
     1
  0
XRECORD
  5
725
102
{ACAD_REACTORS
330
724
102
}
330
724
100
AcDbXrecord
280
     1
102
RTVSPost2010Prop28
280
     0
102
RTVSPost2010PropOp28
 70
     1
102
RTVSPost2010Prop29
280
     1
102
RTVSPost2010PropOp29
 70
     1
102
RTVSPost2010Prop30
280
     1
102
RTVSPost2010PropOp30
 70
     1
102
RTVSPost2010Prop31
280
     0
102
RTVSPost2010PropOp31
 70
     1
102
RTVSPost2010Prop32
280
     0
102
RTVSPost2010PropOp32
 70
     1
102
RTVSPost2010Prop33
280
     0
102
RTVSPost2010PropOp33
 70
     1
102
RTVSPost2010Prop34
280
     0
102
RTVSPost2010PropOp34
 70
     1
102
RTVSPost2010Prop35
280
     0
102
RTVSPost2010PropOp35
 70
     1
102
RTVSPost2010Prop36
280
     0
102
RTVSPost2010PropOp36
 70
     1
102
RTVSPost2010Prop37
 90
       50
102
RTVSPost2010PropOp37
 70
     1
102
RTVSPost2010Prop38
140
0.0
102
RTVSPost2010PropOp38
 70
     1
102
RTVSPost2010Prop39
140
1.0
102
RTVSPost2010PropOp39
 70
     1
102
RTVSPost2010Prop40
 90
        0
102
RTVSPost2010PropOp40
 70
     1
102
RTVSPost2010Prop41ColorIndex
 90
       18
102
RTVSPost2010Prop41ColorRGB
 90
        0
102
RTVSPost2010PropOp41
 70
     1
102
RTVSPost2010Prop42
 90
       50
102
RTVSPost2010PropOp42
 70
     1
102
RTVSPost2010Prop43
 90
        3
102
RTVSPost2010PropOp43
 70
     1
102
RTVSPost2010Prop44ColorIndex
 90
        5
102
RTVSPost2010Prop44ColorRGB
 90
      255
102
RTVSPost2010PropOp44
 70
     1
102
RTVSPost2010Prop45
280
     0
102
RTVSPost2010PropOp45
 70
     1
102
RTVSPost2010Prop46
 90
       50
102
RTVSPost2010PropOp46
 70
     1
102
RTVSPost2010Prop47
 90
       50
102
RTVSPost2010PropOp47
 70
     1
102
RTVSPost2010Prop48
 90
       50
102
RTVSPost2010PropOp48
 70
     1
102
RTVSPost2010Prop49
280
     0
102
RTVSPost2010PropOp49
 70
     1
102
RTVSPost2010Prop50
 90
       50
102
RTVSPost2010PropOp50
 70
     1
102
RTVSPost2010Prop51ColorIndex
 90
      256
102
RTVSPost2010Prop51ColorRGB
 90
-16777216
102
RTVSPost2010PropOp51
 70
     0
102
RTVSPost2010Prop52
140
1.0
102
RTVSPost2010PropOp52
 70
     0
102
RTVSPost2010Prop53
 90
        2
102
RTVSPost2010PropOp53
 70
     1
102
RTVSPost2010Prop54
  1
strokes_ogs.tif
102
RTVSPost2010PropOp54
 70
     1
102
RTVSPost2010Prop55
280
     0
102
RTVSPost2010PropOp55
 70
     1
102
RTVSPost2010Prop56
140
1.0
102
RTVSPost2010PropOp56
 70
     1
102
RTVSPost2010Prop57
140
1.0
102
RTVSPost2010PropOp57
 70
     1
102
RTVSPropertyOp0
 70
     1
102
RTVSPropertyOp1
 70
     1
102
RTVSPropertyOp2
 70
     1
102
RTVSPropertyOp3
 70
     1
102
RTVSPropertyOp4
 70
     1
102
RTVSPropertyOp5
 70
     1
102
RTVSPropertyOp6
 70
     1
102
RTVSPropertyOp7
 70
     1
102
RTVSPropertyOp8
 70
     1
102
RTVSPropertyOp9
 70
     1
102
RTVSPropertyOp10
 70
     1
102
RTVSPropertyOp11
 70
     1
102
RTVSPropertyOp12
 70
     1
102
RTVSPropertyOp13
 70
     1
102
RTVSPropertyOp14
 70
     1
102
RTVSPropertyOp15
 70
     1
102
RTVSPropertyOp16
 70
     1
102
RTVSPropertyOp17
 70
     1
102
RTVSPropertyOp18
 70
     1
102
RTVSPropertyOp19
 70
     1
102
RTVSPropertyOp20
 70
     1
102
RTVSPropertyOp21
 70
     1
102
RTVSPropertyOp22
 70
     1
102
RTVSPropertyOp23
 70
     1
102
RTVSPropertyOp24
 70
     1
102
RTVSPropertyOp25
 70
     1
102
RTVSPropertyOp26
 70
     1
102
RTVSPropertyOp27
 70
     1
102
RTVSPropertyOp28
 70
     1
102
RTVSPropertyOp29
 70
     1
102
RTVSPropertyOp30
 70
     1
102
RTVSPropertyOp31
 70
     1
102
RTVSPropertyOp32
 70
     1
102
RTVSPropertyOp33
 70
     1
102
RTVSPropertyOp34
 70
     1
102
RTVSPropertyOp35
 70
     1
102
RTVSPropertyOp36
 70
     1
102
RTVSPropertyOp37
 70
     1
102
RTVSPropertyOp38
 70
     1
102
RTVSPropertyOp39
 70
     1
102
RTVSPropertyOp40
 70
     1
102
RTVSPropertyOp41
 70
     1
102
RTVSPropertyOp42
 70
     1
102
RTVSPropertyOp43
 70
     1
102
RTVSPropertyOp44
 70
     1
102
RTVSPropertyOp45
 70
     1
102
RTVSPropertyOp46
 70
     1
102
RTVSPropertyOp47
 70
     1
102
RTVSPropertyOp48
 70
     1
102
RTVSPropertyOp49
 70
     1
102
RTVSPropertyOp50
 70
     1
102
RTVSPropertyOp51
 70
     0
102
RTVSPropertyOp52
 70
     0
102
RTVSPropertyOp53
 70
     1
102
RTVSPropertyOp54
 70
     1
102
RTVSPropertyOp55
 70
     1
102
RTVSPropertyOp56
 70
     1
102
RTVSPropertyOp57
 70
     1
102
RTVSPropertyOp58
 70
     1
102
RTVSPropertyOp59
 70
     1
102
RTVSPropertyOp60
 70
     1
102
RTVSPropertyOp61
 70
     1
102
RTVSPropertyOp62
 70
     1
  0
XRECORD
  5
743
102
{ACAD_REACTORS
330
742
102
}
330
742
100
AcDbXrecord
280
     1
102
RTVSPost2010Prop28
280
     0
102
RTVSPost2010PropOp28
 70
     1
102
RTVSPost2010Prop29
280
     1
102
RTVSPost2010PropOp29
 70
     1
102
RTVSPost2010Prop30
280
     1
102
RTVSPost2010PropOp30
 70
     1
102
RTVSPost2010Prop31
280
     0
102
RTVSPost2010PropOp31
 70
     1
102
RTVSPost2010Prop32
280
     0
102
RTVSPost2010PropOp32
 70
     1
102
RTVSPost2010Prop33
280
     0
102
RTVSPost2010PropOp33
 70
     1
102
RTVSPost2010Prop34
280
     0
102
RTVSPost2010PropOp34
 70
     1
102
RTVSPost2010Prop35
280
     0
102
RTVSPost2010PropOp35
 70
     1
102
RTVSPost2010Prop36
280
     0
102
RTVSPost2010PropOp36
 70
     1
102
RTVSPost2010Prop37
 90
       50
102
RTVSPost2010PropOp37
 70
     1
102
RTVSPost2010Prop38
140
0.0
102
RTVSPost2010PropOp38
 70
     1
102
RTVSPost2010Prop39
140
1.0
102
RTVSPost2010PropOp39
 70
     1
102
RTVSPost2010Prop40
 90
        0
102
RTVSPost2010PropOp40
 70
     1
102
RTVSPost2010Prop41ColorIndex
 90
       18
102
RTVSPost2010Prop41ColorRGB
 90
        0
102
RTVSPost2010PropOp41
 70
     1
102
RTVSPost2010Prop42
 90
       50
102
RTVSPost2010PropOp42
 70
     1
102
RTVSPost2010Prop43
 90
        3
102
RTVSPost2010PropOp43
 70
     1
102
RTVSPost2010Prop44ColorIndex
 90
        5
102
RTVSPost2010Prop44ColorRGB
 90
      255
102
RTVSPost2010PropOp44
 70
     1
102
RTVSPost2010Prop45
280
     0
102
RTVSPost2010PropOp45
 70
     1
102
RTVSPost2010Prop46
 90
       50
102
RTVSPost2010PropOp46
 70
     1
102
RTVSPost2010Prop47
 90
       50
102
RTVSPost2010PropOp47
 70
     1
102
RTVSPost2010Prop48
 90
       50
102
RTVSPost2010PropOp48
 70
     1
102
RTVSPost2010Prop49
280
     0
102
RTVSPost2010PropOp49
 70
     1
102
RTVSPost2010Prop50
 90
       50
102
RTVSPost2010PropOp50
 70
     1
102
RTVSPost2010Prop51ColorIndex
 90
      256
102
RTVSPost2010Prop51ColorRGB
 90
-16777216
102
RTVSPost2010PropOp51
 70
     0
102
RTVSPost2010Prop52
140
1.0
102
RTVSPost2010PropOp52
 70
     0
102
RTVSPost2010Prop53
 90
        2
102
RTVSPost2010PropOp53
 70
     1
102
RTVSPost2010Prop54
  1
strokes_ogs.tif
102
RTVSPost2010PropOp54
 70
     1
102
RTVSPost2010Prop55
280
     0
102
RTVSPost2010PropOp55
 70
     1
102
RTVSPost2010Prop56
140
1.0
102
RTVSPost2010PropOp56
 70
     1
102
RTVSPost2010Prop57
140
1.0
102
RTVSPost2010PropOp57
 70
     1
102
RTVSPropertyOp0
 70
     1
102
RTVSPropertyOp1
 70
     1
102
RTVSPropertyOp2
 70
     1
102
RTVSPropertyOp3
 70
     1
102
RTVSPropertyOp4
 70
     1
102
RTVSPropertyOp5
 70
     1
102
RTVSPropertyOp6
 70
     1
102
RTVSPropertyOp7
 70
     1
102
RTVSPropertyOp8
 70
     1
102
RTVSPropertyOp9
 70
     1
102
RTVSPropertyOp10
 70
     1
102
RTVSPropertyOp11
 70
     1
102
RTVSPropertyOp12
 70
     1
102
RTVSPropertyOp13
 70
     1
102
RTVSPropertyOp14
 70
     1
102
RTVSPropertyOp15
 70
     1
102
RTVSPropertyOp16
 70
     1
102
RTVSPropertyOp17
 70
     1
102
RTVSPropertyOp18
 70
     1
102
RTVSPropertyOp19
 70
     1
102
RTVSPropertyOp20
 70
     1
102
RTVSPropertyOp21
 70
     1
102
RTVSPropertyOp22
 70
     1
102
RTVSPropertyOp23
 70
     1
102
RTVSPropertyOp24
 70
     1
102
RTVSPropertyOp25
 70
     1
102
RTVSPropertyOp26
 70
     1
102
RTVSPropertyOp27
 70
     1
102
RTVSPropertyOp28
 70
     1
102
RTVSPropertyOp29
 70
     1
102
RTVSPropertyOp30
 70
     1
102
RTVSPropertyOp31
 70
     1
102
RTVSPropertyOp32
 70
     1
102
RTVSPropertyOp33
 70
     1
102
RTVSPropertyOp34
 70
     1
102
RTVSPropertyOp35
 70
     1
102
RTVSPropertyOp36
 70
     1
102
RTVSPropertyOp37
 70
     1
102
RTVSPropertyOp38
 70
     1
102
RTVSPropertyOp39
 70
     1
102
RTVSPropertyOp40
 70
     1
102
RTVSPropertyOp41
 70
     1
102
RTVSPropertyOp42
 70
     1
102
RTVSPropertyOp43
 70
     1
102
RTVSPropertyOp44
 70
     1
102
RTVSPropertyOp45
 70
     1
102
RTVSPropertyOp46
 70
     1
102
RTVSPropertyOp47
 70
     1
102
RTVSPropertyOp48
 70
     1
102
RTVSPropertyOp49
 70
     1
102
RTVSPropertyOp50
 70
     1
102
RTVSPropertyOp51
 70
     0
102
RTVSPropertyOp52
 70
     0
102
RTVSPropertyOp53
 70
     1
102
RTVSPropertyOp54
 70
     1
102
RTVSPropertyOp55
 70
     1
102
RTVSPropertyOp56
 70
     1
102
RTVSPropertyOp57
 70
     1
102
RTVSPropertyOp58
 70
     1
102
RTVSPropertyOp59
 70
     1
102
RTVSPropertyOp60
 70
     1
102
RTVSPropertyOp61
 70
     1
102
RTVSPropertyOp62
 70
     1
  0
XRECORD
  5
741
102
{ACAD_REACTORS
330
740
102
}
330
740
100
AcDbXrecord
280
     1
102
RTVSPost2010Prop28
280
     0
102
RTVSPost2010PropOp28
 70
     1
102
RTVSPost2010Prop29
280
     1
102
RTVSPost2010PropOp29
 70
     1
102
RTVSPost2010Prop30
280
     1
102
RTVSPost2010PropOp30
 70
     1
102
RTVSPost2010Prop31
280
     0
102
RTVSPost2010PropOp31
 70
     1
102
RTVSPost2010Prop32
280
     0
102
RTVSPost2010PropOp32
 70
     1
102
RTVSPost2010Prop33
280
     0
102
RTVSPost2010PropOp33
 70
     1
102
RTVSPost2010Prop34
280
     0
102
RTVSPost2010PropOp34
 70
     1
102
RTVSPost2010Prop35
280
     0
102
RTVSPost2010PropOp35
 70
     1
102
RTVSPost2010Prop36
280
     0
102
RTVSPost2010PropOp36
 70
     1
102
RTVSPost2010Prop37
 90
       50
102
RTVSPost2010PropOp37
 70
     1
102
RTVSPost2010Prop38
140
0.0
102
RTVSPost2010PropOp38
 70
     1
102
RTVSPost2010Prop39
140
1.0
102
RTVSPost2010PropOp39
 70
     1
102
RTVSPost2010Prop40
 90
        0
102
RTVSPost2010PropOp40
 70
     1
102
RTVSPost2010Prop41ColorIndex
 90
       18
102
RTVSPost2010Prop41ColorRGB
 90
        0
102
RTVSPost2010PropOp41
 70
     1
102
RTVSPost2010Prop42
 90
       50
102
RTVSPost2010PropOp42
 70
     1
102
RTVSPost2010Prop43
 90
        3
102
RTVSPost2010PropOp43
 70
     1
102
RTVSPost2010Prop44ColorIndex
 90
        5
102
RTVSPost2010Prop44ColorRGB
 90
      255
102
RTVSPost2010PropOp44
 70
     1
102
RTVSPost2010Prop45
280
     0
102
RTVSPost2010PropOp45
 70
     1
102
RTVSPost2010Prop46
 90
       50
102
RTVSPost2010PropOp46
 70
     1
102
RTVSPost2010Prop47
 90
       50
102
RTVSPost2010PropOp47
 70
     1
102
RTVSPost2010Prop48
 90
       50
102
RTVSPost2010PropOp48
 70
     1
102
RTVSPost2010Prop49
280
     0
102
RTVSPost2010PropOp49
 70
     1
102
RTVSPost2010Prop50
 90
       50
102
RTVSPost2010PropOp50
 70
     1
102
RTVSPost2010Prop51ColorIndex
 90
      256
102
RTVSPost2010Prop51ColorRGB
 90
-16777216
102
RTVSPost2010PropOp51
 70
     0
102
RTVSPost2010Prop52
140
1.0
102
RTVSPost2010PropOp52
 70
     0
102
RTVSPost2010Prop53
 90
        2
102
RTVSPost2010PropOp53
 70
     1
102
RTVSPost2010Prop54
  1
strokes_ogs.tif
102
RTVSPost2010PropOp54
 70
     1
102
RTVSPost2010Prop55
280
     0
102
RTVSPost2010PropOp55
 70
     1
102
RTVSPost2010Prop56
140
1.0
102
RTVSPost2010PropOp56
 70
     1
102
RTVSPost2010Prop57
140
1.0
102
RTVSPost2010PropOp57
 70
     1
102
RTVSPropertyOp0
 70
     1
102
RTVSPropertyOp1
 70
     1
102
RTVSPropertyOp2
 70
     1
102
RTVSPropertyOp3
 70
     1
102
RTVSPropertyOp4
 70
     1
102
RTVSPropertyOp5
 70
     1
102
RTVSPropertyOp6
 70
     1
102
RTVSPropertyOp7
 70
     1
102
RTVSPropertyOp8
 70
     1
102
RTVSPropertyOp9
 70
     1
102
RTVSPropertyOp10
 70
     1
102
RTVSPropertyOp11
 70
     1
102
RTVSPropertyOp12
 70
     1
102
RTVSPropertyOp13
 70
     1
102
RTVSPropertyOp14
 70
     1
102
RTVSPropertyOp15
 70
     1
102
RTVSPropertyOp16
 70
     1
102
RTVSPropertyOp17
 70
     1
102
RTVSPropertyOp18
 70
     1
102
RTVSPropertyOp19
 70
     1
102
RTVSPropertyOp20
 70
     1
102
RTVSPropertyOp21
 70
     1
102
RTVSPropertyOp22
 70
     1
102
RTVSPropertyOp23
 70
     1
102
RTVSPropertyOp24
 70
     1
102
RTVSPropertyOp25
 70
     1
102
RTVSPropertyOp26
 70
     1
102
RTVSPropertyOp27
 70
     1
102
RTVSPropertyOp28
 70
     1
102
RTVSPropertyOp29
 70
     1
102
RTVSPropertyOp30
 70
     1
102
RTVSPropertyOp31
 70
     1
102
RTVSPropertyOp32
 70
     1
102
RTVSPropertyOp33
 70
     1
102
RTVSPropertyOp34
 70
     1
102
RTVSPropertyOp35
 70
     1
102
RTVSPropertyOp36
 70
     1
102
RTVSPropertyOp37
 70
     1
102
RTVSPropertyOp38
 70
     1
102
RTVSPropertyOp39
 70
     1
102
RTVSPropertyOp40
 70
     1
102
RTVSPropertyOp41
 70
     1
102
RTVSPropertyOp42
 70
     1
102
RTVSPropertyOp43
 70
     1
102
RTVSPropertyOp44
 70
     1
102
RTVSPropertyOp45
 70
     1
102
RTVSPropertyOp46
 70
     1
102
RTVSPropertyOp47
 70
     1
102
RTVSPropertyOp48
 70
     1
102
RTVSPropertyOp49
 70
     1
102
RTVSPropertyOp50
 70
     1
102
RTVSPropertyOp51
 70
     0
102
RTVSPropertyOp52
 70
     0
102
RTVSPropertyOp53
 70
     1
102
RTVSPropertyOp54
 70
     1
102
RTVSPropertyOp55
 70
     1
102
RTVSPropertyOp56
 70
     1
102
RTVSPropertyOp57
 70
     1
102
RTVSPropertyOp58
 70
     1
102
RTVSPropertyOp59
 70
     1
102
RTVSPropertyOp60
 70
     1
102
RTVSPropertyOp61
 70
     1
102
RTVSPropertyOp62
 70
     1
  0
XRECORD
  5
73B
102
{ACAD_REACTORS
330
73A
102
}
330
73A
100
AcDbXrecord
280
     1
102
RTVSPost2010Prop28
280
     0
102
RTVSPost2010PropOp28
 70
     1
102
RTVSPost2010Prop29
280
     1
102
RTVSPost2010PropOp29
 70
     1
102
RTVSPost2010Prop30
280
     1
102
RTVSPost2010PropOp30
 70
     1
102
RTVSPost2010Prop31
280
     0
102
RTVSPost2010PropOp31
 70
     1
102
RTVSPost2010Prop32
280
     0
102
RTVSPost2010PropOp32
 70
     1
102
RTVSPost2010Prop33
280
     0
102
RTVSPost2010PropOp33
 70
     1
102
RTVSPost2010Prop34
280
     0
102
RTVSPost2010PropOp34
 70
     1
102
RTVSPost2010Prop35
280
     0
102
RTVSPost2010PropOp35
 70
     1
102
RTVSPost2010Prop36
280
     0
102
RTVSPost2010PropOp36
 70
     1
102
RTVSPost2010Prop37
 90
       50
102
RTVSPost2010PropOp37
 70
     1
102
RTVSPost2010Prop38
140
0.0
102
RTVSPost2010PropOp38
 70
     1
102
RTVSPost2010Prop39
140
1.0
102
RTVSPost2010PropOp39
 70
     1
102
RTVSPost2010Prop40
 90
        0
102
RTVSPost2010PropOp40
 70
     1
102
RTVSPost2010Prop41ColorIndex
 90
       18
102
RTVSPost2010Prop41ColorRGB
 90
        0
102
RTVSPost2010PropOp41
 70
     1
102
RTVSPost2010Prop42
 90
       50
102
RTVSPost2010PropOp42
 70
     1
102
RTVSPost2010Prop43
 90
        3
102
RTVSPost2010PropOp43
 70
     1
102
RTVSPost2010Prop44ColorIndex
 90
        5
102
RTVSPost2010Prop44ColorRGB
 90
      255
102
RTVSPost2010PropOp44
 70
     1
102
RTVSPost2010Prop45
280
     0
102
RTVSPost2010PropOp45
 70
     1
102
RTVSPost2010Prop46
 90
       50
102
RTVSPost2010PropOp46
 70
     1
102
RTVSPost2010Prop47
 90
       50
102
RTVSPost2010PropOp47
 70
     1
102
RTVSPost2010Prop48
 90
       50
102
RTVSPost2010PropOp48
 70
     1
102
RTVSPost2010Prop49
280
     0
102
RTVSPost2010PropOp49
 70
     1
102
RTVSPost2010Prop50
 90
       50
102
RTVSPost2010PropOp50
 70
     1
102
RTVSPost2010Prop51ColorIndex
 90
      256
102
RTVSPost2010Prop51ColorRGB
 90
-16777216
102
RTVSPost2010PropOp51
 70
     0
102
RTVSPost2010Prop52
140
1.0
102
RTVSPost2010PropOp52
 70
     0
102
RTVSPost2010Prop53
 90
        2
102
RTVSPost2010PropOp53
 70
     1
102
RTVSPost2010Prop54
  1
strokes_ogs.tif
102
RTVSPost2010PropOp54
 70
     1
102
RTVSPost2010Prop55
280
     0
102
RTVSPost2010PropOp55
 70
     1
102
RTVSPost2010Prop56
140
1.0
102
RTVSPost2010PropOp56
 70
     1
102
RTVSPost2010Prop57
140
1.0
102
RTVSPost2010PropOp57
 70
     1
102
RTVSPropertyOp0
 70
     1
102
RTVSPropertyOp1
 70
     1
102
RTVSPropertyOp2
 70
     1
102
RTVSPropertyOp3
 70
     1
102
RTVSPropertyOp4
 70
     1
102
RTVSPropertyOp5
 70
     1
102
RTVSPropertyOp6
 70
     1
102
RTVSPropertyOp7
 70
     1
102
RTVSPropertyOp8
 70
     1
102
RTVSPropertyOp9
 70
     1
102
RTVSPropertyOp10
 70
     1
102
RTVSPropertyOp11
 70
     1
102
RTVSPropertyOp12
 70
     1
102
RTVSPropertyOp13
 70
     1
102
RTVSPropertyOp14
 70
     1
102
RTVSPropertyOp15
 70
     1
102
RTVSPropertyOp16
 70
     1
102
RTVSPropertyOp17
 70
     1
102
RTVSPropertyOp18
 70
     1
102
RTVSPropertyOp19
 70
     1
102
RTVSPropertyOp20
 70
     1
102
RTVSPropertyOp21
 70
     1
102
RTVSPropertyOp22
 70
     1
102
RTVSPropertyOp23
 70
     1
102
RTVSPropertyOp24
 70
     1
102
RTVSPropertyOp25
 70
     1
102
RTVSPropertyOp26
 70
     1
102
RTVSPropertyOp27
 70
     1
102
RTVSPropertyOp28
 70
     1
102
RTVSPropertyOp29
 70
     1
102
RTVSPropertyOp30
 70
     1
102
RTVSPropertyOp31
 70
     1
102
RTVSPropertyOp32
 70
     1
102
RTVSPropertyOp33
 70
     1
102
RTVSPropertyOp34
 70
     1
102
RTVSPropertyOp35
 70
     1
102
RTVSPropertyOp36
 70
     1
102
RTVSPropertyOp37
 70
     1
102
RTVSPropertyOp38
 70
     1
102
RTVSPropertyOp39
 70
     1
102
RTVSPropertyOp40
 70
     1
102
RTVSPropertyOp41
 70
     1
102
RTVSPropertyOp42
 70
     1
102
RTVSPropertyOp43
 70
     1
102
RTVSPropertyOp44
 70
     1
102
RTVSPropertyOp45
 70
     1
102
RTVSPropertyOp46
 70
     1
102
RTVSPropertyOp47
 70
     1
102
RTVSPropertyOp48
 70
     1
102
RTVSPropertyOp49
 70
     1
102
RTVSPropertyOp50
 70
     1
102
RTVSPropertyOp51
 70
     0
102
RTVSPropertyOp52
 70
     0
102
RTVSPropertyOp53
 70
     1
102
RTVSPropertyOp54
 70
     1
102
RTVSPropertyOp55
 70
     1
102
RTVSPropertyOp56
 70
     1
102
RTVSPropertyOp57
 70
     1
102
RTVSPropertyOp58
 70
     1
102
RTVSPropertyOp59
 70
     1
102
RTVSPropertyOp60
 70
     1
102
RTVSPropertyOp61
 70
     1
102
RTVSPropertyOp62
 70
     1
  0
XRECORD
  5
73D
102
{ACAD_REACTORS
330
73C
102
}
330
73C
100
AcDbXrecord
280
     1
102
RTVSPost2010Prop28
280
     0
102
RTVSPost2010PropOp28
 70
     1
102
RTVSPost2010Prop29
280
     1
102
RTVSPost2010PropOp29
 70
     1
102
RTVSPost2010Prop30
280
     1
102
RTVSPost2010PropOp30
 70
     1
102
RTVSPost2010Prop31
280
     0
102
RTVSPost2010PropOp31
 70
     1
102
RTVSPost2010Prop32
280
     0
102
RTVSPost2010PropOp32
 70
     1
102
RTVSPost2010Prop33
280
     0
102
RTVSPost2010PropOp33
 70
     1
102
RTVSPost2010Prop34
280
     0
102
RTVSPost2010PropOp34
 70
     1
102
RTVSPost2010Prop35
280
     0
102
RTVSPost2010PropOp35
 70
     1
102
RTVSPost2010Prop36
280
     0
102
RTVSPost2010PropOp36
 70
     1
102
RTVSPost2010Prop37
 90
       50
102
RTVSPost2010PropOp37
 70
     1
102
RTVSPost2010Prop38
140
0.0
102
RTVSPost2010PropOp38
 70
     1
102
RTVSPost2010Prop39
140
1.0
102
RTVSPost2010PropOp39
 70
     1
102
RTVSPost2010Prop40
 90
        0
102
RTVSPost2010PropOp40
 70
     1
102
RTVSPost2010Prop41ColorIndex
 90
       18
102
RTVSPost2010Prop41ColorRGB
 90
        0
102
RTVSPost2010PropOp41
 70
     1
102
RTVSPost2010Prop42
 90
       50
102
RTVSPost2010PropOp42
 70
     1
102
RTVSPost2010Prop43
 90
        3
102
RTVSPost2010PropOp43
 70
     1
102
RTVSPost2010Prop44ColorIndex
 90
        5
102
RTVSPost2010Prop44ColorRGB
 90
      255
102
RTVSPost2010PropOp44
 70
     1
102
RTVSPost2010Prop45
280
     0
102
RTVSPost2010PropOp45
 70
     1
102
RTVSPost2010Prop46
 90
       50
102
RTVSPost2010PropOp46
 70
     1
102
RTVSPost2010Prop47
 90
       50
102
RTVSPost2010PropOp47
 70
     1
102
RTVSPost2010Prop48
 90
       50
102
RTVSPost2010PropOp48
 70
     1
102
RTVSPost2010Prop49
280
     0
102
RTVSPost2010PropOp49
 70
     1
102
RTVSPost2010Prop50
 90
       50
102
RTVSPost2010PropOp50
 70
     1
102
RTVSPost2010Prop51ColorIndex
 90
      256
102
RTVSPost2010Prop51ColorRGB
 90
-16777216
102
RTVSPost2010PropOp51
 70
     0
102
RTVSPost2010Prop52
140
1.0
102
RTVSPost2010PropOp52
 70
     0
102
RTVSPost2010Prop53
 90
        2
102
RTVSPost2010PropOp53
 70
     1
102
RTVSPost2010Prop54
  1
strokes_ogs.tif
102
RTVSPost2010PropOp54
 70
     1
102
RTVSPost2010Prop55
280
     0
102
RTVSPost2010PropOp55
 70
     1
102
RTVSPost2010Prop56
140
1.0
102
RTVSPost2010PropOp56
 70
     1
102
RTVSPost2010Prop57
140
1.0
102
RTVSPost2010PropOp57
 70
     1
102
RTVSPropertyOp0
 70
     1
102
RTVSPropertyOp1
 70
     1
102
RTVSPropertyOp2
 70
     1
102
RTVSPropertyOp3
 70
     1
102
RTVSPropertyOp4
 70
     1
102
RTVSPropertyOp5
 70
     1
102
RTVSPropertyOp6
 70
     1
102
RTVSPropertyOp7
 70
     1
102
RTVSPropertyOp8
 70
     1
102
RTVSPropertyOp9
 70
     1
102
RTVSPropertyOp10
 70
     1
102
RTVSPropertyOp11
 70
     1
102
RTVSPropertyOp12
 70
     1
102
RTVSPropertyOp13
 70
     1
102
RTVSPropertyOp14
 70
     1
102
RTVSPropertyOp15
 70
     1
102
RTVSPropertyOp16
 70
     1
102
RTVSPropertyOp17
 70
     1
102
RTVSPropertyOp18
 70
     1
102
RTVSPropertyOp19
 70
     1
102
RTVSPropertyOp20
 70
     1
102
RTVSPropertyOp21
 70
     1
102
RTVSPropertyOp22
 70
     1
102
RTVSPropertyOp23
 70
     1
102
RTVSPropertyOp24
 70
     1
102
RTVSPropertyOp25
 70
     1
102
RTVSPropertyOp26
 70
     1
102
RTVSPropertyOp27
 70
     1
102
RTVSPropertyOp28
 70
     1
102
RTVSPropertyOp29
 70
     1
102
RTVSPropertyOp30
 70
     1
102
RTVSPropertyOp31
 70
     1
102
RTVSPropertyOp32
 70
     1
102
RTVSPropertyOp33
 70
     1
102
RTVSPropertyOp34
 70
     1
102
RTVSPropertyOp35
 70
     1
102
RTVSPropertyOp36
 70
     1
102
RTVSPropertyOp37
 70
     1
102
RTVSPropertyOp38
 70
     1
102
RTVSPropertyOp39
 70
     1
102
RTVSPropertyOp40
 70
     1
102
RTVSPropertyOp41
 70
     1
102
RTVSPropertyOp42
 70
     1
102
RTVSPropertyOp43
 70
     1
102
RTVSPropertyOp44
 70
     1
102
RTVSPropertyOp45
 70
     1
102
RTVSPropertyOp46
 70
     1
102
RTVSPropertyOp47
 70
     1
102
RTVSPropertyOp48
 70
     1
102
RTVSPropertyOp49
 70
     1
102
RTVSPropertyOp50
 70
     1
102
RTVSPropertyOp51
 70
     0
102
RTVSPropertyOp52
 70
     0
102
RTVSPropertyOp53
 70
     1
102
RTVSPropertyOp54
 70
     1
102
RTVSPropertyOp55
 70
     1
102
RTVSPropertyOp56
 70
     1
102
RTVSPropertyOp57
 70
     1
102
RTVSPropertyOp58
 70
     1
102
RTVSPropertyOp59
 70
     1
102
RTVSPropertyOp60
 70
     1
102
RTVSPropertyOp61
 70
     1
102
RTVSPropertyOp62
 70
     1
  0
XRECORD
  5
72D
102
{ACAD_REACTORS
330
72C
102
}
330
72C
100
AcDbXrecord
280
     1
102
RTVSPost2010Prop28
280
     0
102
RTVSPost2010PropOp28
 70
     1
102
RTVSPost2010Prop29
280
     1
102
RTVSPost2010PropOp29
 70
     1
102
RTVSPost2010Prop30
280
     1
102
RTVSPost2010PropOp30
 70
     1
102
RTVSPost2010Prop31
280
     0
102
RTVSPost2010PropOp31
 70
     1
102
RTVSPost2010Prop32
280
     0
102
RTVSPost2010PropOp32
 70
     1
102
RTVSPost2010Prop33
280
     0
102
RTVSPost2010PropOp33
 70
     1
102
RTVSPost2010Prop34
280
     0
102
RTVSPost2010PropOp34
 70
     1
102
RTVSPost2010Prop35
280
     0
102
RTVSPost2010PropOp35
 70
     1
102
RTVSPost2010Prop36
280
     0
102
RTVSPost2010PropOp36
 70
     1
102
RTVSPost2010Prop37
 90
       50
102
RTVSPost2010PropOp37
 70
     1
102
RTVSPost2010Prop38
140
0.0
102
RTVSPost2010PropOp38
 70
     1
102
RTVSPost2010Prop39
140
1.0
102
RTVSPost2010PropOp39
 70
     1
102
RTVSPost2010Prop40
 90
        0
102
RTVSPost2010PropOp40
 70
     1
102
RTVSPost2010Prop41ColorIndex
 90
       18
102
RTVSPost2010Prop41ColorRGB
 90
        0
102
RTVSPost2010PropOp41
 70
     1
102
RTVSPost2010Prop42
 90
       50
102
RTVSPost2010PropOp42
 70
     1
102
RTVSPost2010Prop43
 90
        3
102
RTVSPost2010PropOp43
 70
     1
102
RTVSPost2010Prop44ColorIndex
 90
        5
102
RTVSPost2010Prop44ColorRGB
 90
      255
102
RTVSPost2010PropOp44
 70
     1
102
RTVSPost2010Prop45
280
     0
102
RTVSPost2010PropOp45
 70
     1
102
RTVSPost2010Prop46
 90
       50
102
RTVSPost2010PropOp46
 70
     1
102
RTVSPost2010Prop47
 90
       50
102
RTVSPost2010PropOp47
 70
     1
102
RTVSPost2010Prop48
 90
       50
102
RTVSPost2010PropOp48
 70
     1
102
RTVSPost2010Prop49
280
     0
102
RTVSPost2010PropOp49
 70
     1
102
RTVSPost2010Prop50
 90
       50
102
RTVSPost2010PropOp50
 70
     1
102
RTVSPost2010Prop51ColorIndex
 90
      256
102
RTVSPost2010Prop51ColorRGB
 90
-16777216
102
RTVSPost2010PropOp51
 70
     0
102
RTVSPost2010Prop52
140
1.0
102
RTVSPost2010PropOp52
 70
     0
102
RTVSPost2010Prop53
 90
        2
102
RTVSPost2010PropOp53
 70
     1
102
RTVSPost2010Prop54
  1
strokes_ogs.tif
102
RTVSPost2010PropOp54
 70
     1
102
RTVSPost2010Prop55
280
     0
102
RTVSPost2010PropOp55
 70
     1
102
RTVSPost2010Prop56
140
1.0
102
RTVSPost2010PropOp56
 70
     1
102
RTVSPost2010Prop57
140
1.0
102
RTVSPost2010PropOp57
 70
     1
102
RTVSPropertyOp0
 70
     1
102
RTVSPropertyOp1
 70
     1
102
RTVSPropertyOp2
 70
     1
102
RTVSPropertyOp3
 70
     1
102
RTVSPropertyOp4
 70
     1
102
RTVSPropertyOp5
 70
     1
102
RTVSPropertyOp6
 70
     1
102
RTVSPropertyOp7
 70
     1
102
RTVSPropertyOp8
 70
     1
102
RTVSPropertyOp9
 70
     1
102
RTVSPropertyOp10
 70
     1
102
RTVSPropertyOp11
 70
     1
102
RTVSPropertyOp12
 70
     1
102
RTVSPropertyOp13
 70
     1
102
RTVSPropertyOp14
 70
     1
102
RTVSPropertyOp15
 70
     1
102
RTVSPropertyOp16
 70
     1
102
RTVSPropertyOp17
 70
     1
102
RTVSPropertyOp18
 70
     1
102
RTVSPropertyOp19
 70
     1
102
RTVSPropertyOp20
 70
     1
102
RTVSPropertyOp21
 70
     1
102
RTVSPropertyOp22
 70
     1
102
RTVSPropertyOp23
 70
     1
102
RTVSPropertyOp24
 70
     1
102
RTVSPropertyOp25
 70
     1
102
RTVSPropertyOp26
 70
     1
102
RTVSPropertyOp27
 70
     1
102
RTVSPropertyOp28
 70
     1
102
RTVSPropertyOp29
 70
     1
102
RTVSPropertyOp30
 70
     1
102
RTVSPropertyOp31
 70
     1
102
RTVSPropertyOp32
 70
     1
102
RTVSPropertyOp33
 70
     1
102
RTVSPropertyOp34
 70
     1
102
RTVSPropertyOp35
 70
     1
102
RTVSPropertyOp36
 70
     1
102
RTVSPropertyOp37
 70
     1
102
RTVSPropertyOp38
 70
     1
102
RTVSPropertyOp39
 70
     1
102
RTVSPropertyOp40
 70
     1
102
RTVSPropertyOp41
 70
     1
102
RTVSPropertyOp42
 70
     1
102
RTVSPropertyOp43
 70
     1
102
RTVSPropertyOp44
 70
     1
102
RTVSPropertyOp45
 70
     1
102
RTVSPropertyOp46
 70
     1
102
RTVSPropertyOp47
 70
     1
102
RTVSPropertyOp48
 70
     1
102
RTVSPropertyOp49
 70
     1
102
RTVSPropertyOp50
 70
     1
102
RTVSPropertyOp51
 70
     0
102
RTVSPropertyOp52
 70
     0
102
RTVSPropertyOp53
 70
     1
102
RTVSPropertyOp54
 70
     1
102
RTVSPropertyOp55
 70
     1
102
RTVSPropertyOp56
 70
     1
102
RTVSPropertyOp57
 70
     1
102
RTVSPropertyOp58
 70
     1
102
RTVSPropertyOp59
 70
     1
102
RTVSPropertyOp60
 70
     1
102
RTVSPropertyOp61
 70
     1
102
RTVSPropertyOp62
 70
     1
  0
XRECORD
  5
71F
102
{ACAD_REACTORS
330
71E
102
}
330
71E
100
AcDbXrecord
280
     1
102
RTVSPost2010Prop28
280
     0
102
RTVSPost2010PropOp28
 70
     1
102
RTVSPost2010Prop29
280
     1
102
RTVSPost2010PropOp29
 70
     1
102
RTVSPost2010Prop30
280
     1
102
RTVSPost2010PropOp30
 70
     1
102
RTVSPost2010Prop31
280
     0
102
RTVSPost2010PropOp31
 70
     1
102
RTVSPost2010Prop32
280
     0
102
RTVSPost2010PropOp32
 70
     1
102
RTVSPost2010Prop33
280
     0
102
RTVSPost2010PropOp33
 70
     1
102
RTVSPost2010Prop34
280
     0
102
RTVSPost2010PropOp34
 70
     1
102
RTVSPost2010Prop35
280
     0
102
RTVSPost2010PropOp35
 70
     1
102
RTVSPost2010Prop36
280
     0
102
RTVSPost2010PropOp36
 70
     1
102
RTVSPost2010Prop37
 90
       50
102
RTVSPost2010PropOp37
 70
     1
102
RTVSPost2010Prop38
140
0.0
102
RTVSPost2010PropOp38
 70
     1
102
RTVSPost2010Prop39
140
1.0
102
RTVSPost2010PropOp39
 70
     1
102
RTVSPost2010Prop40
 90
        0
102
RTVSPost2010PropOp40
 70
     1
102
RTVSPost2010Prop41ColorIndex
 90
       18
102
RTVSPost2010Prop41ColorRGB
 90
        0
102
RTVSPost2010PropOp41
 70
     1
102
RTVSPost2010Prop42
 90
       50
102
RTVSPost2010PropOp42
 70
     1
102
RTVSPost2010Prop43
 90
        3
102
RTVSPost2010PropOp43
 70
     1
102
RTVSPost2010Prop44ColorIndex
 90
        5
102
RTVSPost2010Prop44ColorRGB
 90
      255
102
RTVSPost2010PropOp44
 70
     1
102
RTVSPost2010Prop45
280
     0
102
RTVSPost2010PropOp45
 70
     1
102
RTVSPost2010Prop46
 90
       50
102
RTVSPost2010PropOp46
 70
     1
102
RTVSPost2010Prop47
 90
       50
102
RTVSPost2010PropOp47
 70
     1
102
RTVSPost2010Prop48
 90
       50
102
RTVSPost2010PropOp48
 70
     1
102
RTVSPost2010Prop49
280
     0
102
RTVSPost2010PropOp49
 70
     1
102
RTVSPost2010Prop50
 90
       50
102
RTVSPost2010PropOp50
 70
     1
102
RTVSPost2010Prop51ColorIndex
 90
      256
102
RTVSPost2010Prop51ColorRGB
 90
-16777216
102
RTVSPost2010PropOp51
 70
     0
102
RTVSPost2010Prop52
140
1.0
102
RTVSPost2010PropOp52
 70
     0
102
RTVSPost2010Prop53
 90
        2
102
RTVSPost2010PropOp53
 70
     1
102
RTVSPost2010Prop54
  1
strokes_ogs.tif
102
RTVSPost2010PropOp54
 70
     1
102
RTVSPost2010Prop55
280
     0
102
RTVSPost2010PropOp55
 70
     1
102
RTVSPost2010Prop56
140
1.0
102
RTVSPost2010PropOp56
 70
     1
102
RTVSPost2010Prop57
140
1.0
102
RTVSPost2010PropOp57
 70
     1
102
RTVSPropertyOp0
 70
     1
102
RTVSPropertyOp1
 70
     1
102
RTVSPropertyOp2
 70
     1
102
RTVSPropertyOp3
 70
     1
102
RTVSPropertyOp4
 70
     1
102
RTVSPropertyOp5
 70
     1
102
RTVSPropertyOp6
 70
     1
102
RTVSPropertyOp7
 70
     1
102
RTVSPropertyOp8
 70
     1
102
RTVSPropertyOp9
 70
     1
102
RTVSPropertyOp10
 70
     1
102
RTVSPropertyOp11
 70
     1
102
RTVSPropertyOp12
 70
     1
102
RTVSPropertyOp13
 70
     1
102
RTVSPropertyOp14
 70
     1
102
RTVSPropertyOp15
 70
     1
102
RTVSPropertyOp16
 70
     1
102
RTVSPropertyOp17
 70
     1
102
RTVSPropertyOp18
 70
     1
102
RTVSPropertyOp19
 70
     1
102
RTVSPropertyOp20
 70
     1
102
RTVSPropertyOp21
 70
     1
102
RTVSPropertyOp22
 70
     1
102
RTVSPropertyOp23
 70
     1
102
RTVSPropertyOp24
 70
     1
102
RTVSPropertyOp25
 70
     1
102
RTVSPropertyOp26
 70
     1
102
RTVSPropertyOp27
 70
     1
102
RTVSPropertyOp28
 70
     1
102
RTVSPropertyOp29
 70
     1
102
RTVSPropertyOp30
 70
     1
102
RTVSPropertyOp31
 70
     1
102
RTVSPropertyOp32
 70
     1
102
RTVSPropertyOp33
 70
     1
102
RTVSPropertyOp34
 70
     1
102
RTVSPropertyOp35
 70
     1
102
RTVSPropertyOp36
 70
     1
102
RTVSPropertyOp37
 70
     1
102
RTVSPropertyOp38
 70
     1
102
RTVSPropertyOp39
 70
     1
102
RTVSPropertyOp40
 70
     1
102
RTVSPropertyOp41
 70
     1
102
RTVSPropertyOp42
 70
     1
102
RTVSPropertyOp43
 70
     1
102
RTVSPropertyOp44
 70
     1
102
RTVSPropertyOp45
 70
     1
102
RTVSPropertyOp46
 70
     1
102
RTVSPropertyOp47
 70
     1
102
RTVSPropertyOp48
 70
     1
102
RTVSPropertyOp49
 70
     1
102
RTVSPropertyOp50
 70
     1
102
RTVSPropertyOp51
 70
     0
102
RTVSPropertyOp52
 70
     0
102
RTVSPropertyOp53
 70
     1
102
RTVSPropertyOp54
 70
     1
102
RTVSPropertyOp55
 70
     1
102
RTVSPropertyOp56
 70
     1
102
RTVSPropertyOp57
 70
     1
102
RTVSPropertyOp58
 70
     1
102
RTVSPropertyOp59
 70
     1
102
RTVSPropertyOp60
 70
     1
102
RTVSPropertyOp61
 70
     1
102
RTVSPropertyOp62
 70
     1
  0
XRECORD
  5
73F
102
{ACAD_REACTORS
330
73E
102
}
330
73E
100
AcDbXrecord
280
     1
102
RTVSPost2010Prop28
280
     0
102
RTVSPost2010PropOp28
 70
     1
102
RTVSPost2010Prop29
280
     1
102
RTVSPost2010PropOp29
 70
     1
102
RTVSPost2010Prop30
280
     1
102
RTVSPost2010PropOp30
 70
     1
102
RTVSPost2010Prop31
280
     0
102
RTVSPost2010PropOp31
 70
     1
102
RTVSPost2010Prop32
280
     0
102
RTVSPost2010PropOp32
 70
     1
102
RTVSPost2010Prop33
280
     0
102
RTVSPost2010PropOp33
 70
     1
102
RTVSPost2010Prop34
280
     0
102
RTVSPost2010PropOp34
 70
     1
102
RTVSPost2010Prop35
280
     0
102
RTVSPost2010PropOp35
 70
     1
102
RTVSPost2010Prop36
280
     0
102
RTVSPost2010PropOp36
 70
     1
102
RTVSPost2010Prop37
 90
       50
102
RTVSPost2010PropOp37
 70
     1
102
RTVSPost2010Prop38
140
0.0
102
RTVSPost2010PropOp38
 70
     1
102
RTVSPost2010Prop39
140
1.0
102
RTVSPost2010PropOp39
 70
     1
102
RTVSPost2010Prop40
 90
        0
102
RTVSPost2010PropOp40
 70
     1
102
RTVSPost2010Prop41ColorIndex
 90
       18
102
RTVSPost2010Prop41ColorRGB
 90
        0
102
RTVSPost2010PropOp41
 70
     1
102
RTVSPost2010Prop42
 90
       50
102
RTVSPost2010PropOp42
 70
     1
102
RTVSPost2010Prop43
 90
        3
102
RTVSPost2010PropOp43
 70
     1
102
RTVSPost2010Prop44ColorIndex
 90
        5
102
RTVSPost2010Prop44ColorRGB
 90
      255
102
RTVSPost2010PropOp44
 70
     1
102
RTVSPost2010Prop45
280
     0
102
RTVSPost2010PropOp45
 70
     1
102
RTVSPost2010Prop46
 90
       50
102
RTVSPost2010PropOp46
 70
     1
102
RTVSPost2010Prop47
 90
       50
102
RTVSPost2010PropOp47
 70
     1
102
RTVSPost2010Prop48
 90
       50
102
RTVSPost2010PropOp48
 70
     1
102
RTVSPost2010Prop49
280
     0
102
RTVSPost2010PropOp49
 70
     1
102
RTVSPost2010Prop50
 90
       50
102
RTVSPost2010PropOp50
 70
     1
102
RTVSPost2010Prop51ColorIndex
 90
      256
102
RTVSPost2010Prop51ColorRGB
 90
-16777216
102
RTVSPost2010PropOp51
 70
     0
102
RTVSPost2010Prop52
140
1.0
102
RTVSPost2010PropOp52
 70
     0
102
RTVSPost2010Prop53
 90
        2
102
RTVSPost2010PropOp53
 70
     1
102
RTVSPost2010Prop54
  1
strokes_ogs.tif
102
RTVSPost2010PropOp54
 70
     1
102
RTVSPost2010Prop55
280
     0
102
RTVSPost2010PropOp55
 70
     1
102
RTVSPost2010Prop56
140
1.0
102
RTVSPost2010PropOp56
 70
     1
102
RTVSPost2010Prop57
140
1.0
102
RTVSPost2010PropOp57
 70
     1
102
RTVSPropertyOp0
 70
     1
102
RTVSPropertyOp1
 70
     1
102
RTVSPropertyOp2
 70
     1
102
RTVSPropertyOp3
 70
     1
102
RTVSPropertyOp4
 70
     1
102
RTVSPropertyOp5
 70
     1
102
RTVSPropertyOp6
 70
     1
102
RTVSPropertyOp7
 70
     1
102
RTVSPropertyOp8
 70
     1
102
RTVSPropertyOp9
 70
     1
102
RTVSPropertyOp10
 70
     1
102
RTVSPropertyOp11
 70
     1
102
RTVSPropertyOp12
 70
     1
102
RTVSPropertyOp13
 70
     1
102
RTVSPropertyOp14
 70
     1
102
RTVSPropertyOp15
 70
     1
102
RTVSPropertyOp16
 70
     1
102
RTVSPropertyOp17
 70
     1
102
RTVSPropertyOp18
 70
     1
102
RTVSPropertyOp19
 70
     1
102
RTVSPropertyOp20
 70
     1
102
RTVSPropertyOp21
 70
     1
102
RTVSPropertyOp22
 70
     1
102
RTVSPropertyOp23
 70
     1
102
RTVSPropertyOp24
 70
     1
102
RTVSPropertyOp25
 70
     1
102
RTVSPropertyOp26
 70
     1
102
RTVSPropertyOp27
 70
     1
102
RTVSPropertyOp28
 70
     1
102
RTVSPropertyOp29
 70
     1
102
RTVSPropertyOp30
 70
     1
102
RTVSPropertyOp31
 70
     1
102
RTVSPropertyOp32
 70
     1
102
RTVSPropertyOp33
 70
     1
102
RTVSPropertyOp34
 70
     1
102
RTVSPropertyOp35
 70
     1
102
RTVSPropertyOp36
 70
     1
102
RTVSPropertyOp37
 70
     1
102
RTVSPropertyOp38
 70
     1
102
RTVSPropertyOp39
 70
     1
102
RTVSPropertyOp40
 70
     1
102
RTVSPropertyOp41
 70
     1
102
RTVSPropertyOp42
 70
     1
102
RTVSPropertyOp43
 70
     1
102
RTVSPropertyOp44
 70
     1
102
RTVSPropertyOp45
 70
     1
102
RTVSPropertyOp46
 70
     1
102
RTVSPropertyOp47
 70
     1
102
RTVSPropertyOp48
 70
     1
102
RTVSPropertyOp49
 70
     1
102
RTVSPropertyOp50
 70
     1
102
RTVSPropertyOp51
 70
     0
102
RTVSPropertyOp52
 70
     0
102
RTVSPropertyOp53
 70
     1
102
RTVSPropertyOp54
 70
     1
102
RTVSPropertyOp55
 70
     1
102
RTVSPropertyOp56
 70
     1
102
RTVSPropertyOp57
 70
     1
102
RTVSPropertyOp58
 70
     1
102
RTVSPropertyOp59
 70
     1
102
RTVSPropertyOp60
 70
     1
102
RTVSPropertyOp61
 70
     1
102
RTVSPropertyOp62
 70
     1
  0
ENDSEC
  0
EOF
