  0
SECTION
  2
HEADER
  9
$ACADVER
  1
AC1015
  9
$ACADMAINTVER
 70
    20
  9
$DWGCODEPAGE
  3
ANSI_932
  9
$INSBASE
 10
0.0
 20
0.0
 30
0.0
  9
$EXTMIN
 10
22.01959005225297
 20
-22.96557025743476
 30
0.0
  9
$EXTMAX
 10
1553.796467666199
 20
1243.388706507947
 30
0.0
  9
$LIMMIN
 10
-347.4573097229002
 20
-464.6163482666014
  9
$LIMMAX
 10
1034.663269042969
 20
774.0772094726559
  9
$ORTHOMODE
 70
     1
  9
$REGENMODE
 70
     1
  9
$FILLMODE
 70
     1
  9
$QTEXTMODE
 70
     0
  9
$MIRRTEXT
 70
     1
  9
$LTSCALE
 40
0.1167164239357775
  9
$ATTMODE
 70
     1
  9
$TEXTSIZE
 40
2.5
  9
$TRACEWID
 40
1.0
  9
$TEXTSTYLE
  7
Standard
  9
$CLAYER
  8
0
  9
$CELTYPE
  6
ByLayer
  9
$CECOLOR
 62
   256
  9
$CELTSCALE
 40
1.0
  9
$DISPSILH
 70
     0
  9
$DIMSCALE
 40
1.0
  9
$DIMASZ
 40
2.5
  9
$DIMEXO
 40
0.625
  9
$DIMDLI
 40
3.75
  9
$DIMRND
 40
0.0
  9
$DIMDLE
 40
0.0
  9
$DIMEXE
 40
1.25
  9
$DIMTP
 40
0.0
  9
$DIMTM
 40
0.0
  9
$DIMTXT
 40
2.5
  9
$DIMCEN
 40
2.5
  9
$DIMTSZ
 40
0.0
  9
$DIMTOL
 70
     0
  9
$DIMLIM
 70
     0
  9
$DIMTIH
 70
     0
  9
$DIMTOH
 70
     0
  9
$DIMSE1
 70
     0
  9
$DIMSE2
 70
     0
  9
$DIMTAD
 70
     1
  9
$DIMZIN
 70
     0
  9
$DIMBLK
  1

  9
$DIMASO
 70
     1
  9
$DIMSHO
 70
     1
  9
$DIMPOST
  1

  9
$DIMAPOST
  1

  9
$DIMALT
 70
     0
  9
$DIMALTD
 70
     3
  9
$DIMALTF
 40
0.03937007874016
  9
$DIMLFAC
 40
1.0
  9
$DIMTOFL
 70
     1
  9
$DIMTVP
 40
0.0
  9
$DIMTIX
 70
     0
  9
$DIMSOXD
 70
     0
  9
$DIMSAH
 70
     0
  9
$DIMBLK1
  1

  9
$DIMBLK2
  1

  9
$DIMSTYLE
  2
Standard
  9
$DIMCLRD
 70
     0
  9
$DIMCLRE
 70
     0
  9
$DIMCLRT
 70
     0
  9
$DIMTFAC
 40
0.75
  9
$DIMGAP
 40
0.625
  9
$DIMJUST
 70
     0
  9
$DIMSD1
 70
     0
  9
$DIMSD2
 70
     0
  9
$DIMTOLJ
 70
     0
  9
$DIMTZIN
 70
     8
  9
$DIMALTZ
 70
     0
  9
$DIMALTTZ
 70
     0
  9
$DIMUPT
 70
     0
  9
$DIMDEC
 70
     2
  9
$DIMTDEC
 70
     2
  9
$DIMALTU
 70
     2
  9
$DIMALTTD
 70
     3
  9
$DIMTXSTY
  7
Standard
  9
$DIMAUNIT
 70
     0
  9
$DIMADEC
 70
     0
  9
$DIMALTRND
 40
0.0
  9
$DIMAZIN
 70
     0
  9
$DIMDSEP
 70
    46
  9
$DIMATFIT
 70
     3
  9
$DIMFRAC
 70
     0
  9
$DIMLDRBLK
  1

  9
$DIMLUNIT
 70
     2
  9
$DIMLWD
 70
    -2
  9
$DIMLWE
 70
    -2
  9
$DIMTMOVE
 70
     0
  9
$LUNITS
 70
     2
  9
$LUPREC
 70
     4
  9
$SKETCHINC
 40
1.0
  9
$FILLETRAD
 40
0.0
  9
$AUNITS
 70
     0
  9
$AUPREC
 70
     0
  9
$MENU
  1
.
  9
$ELEVATION
 40
0.0
  9
$PELEVATION
 40
0.0
  9
$THICKNESS
 40
0.0
  9
$LIMCHECK
 70
     0
  9
$CHAMFERA
 40
10.0
  9
$CHAMFERB
 40
10.0
  9
$CHAMFERC
 40
20.0
  9
$CHAMFERD
 40
0.0
  9
$SKPOLY
 70
     0
  9
$TDCREATE
 40
2455188.750000000
  9
$TDUCREATE
 40
2455188.375000000
  9
$TDUPDATE
 40
2459758.596486968
  9
$TDUUPDATE
 40
2459758.221486968
  9
$TDINDWG
 40
0.0180551620
  9
$TDUSRTIMER
 40
0.0180548958
  9
$USRTIMER
 70
     1
  9
$ANGBASE
 50
0.0
  9
$ANGDIR
 70
     0
  9
$PDMODE
 70
     0
  9
$PDSIZE
 40
0.0
  9
$PLINEWID
 40
0.0
  9
$SPLFRAME
 70
     0
  9
$SPLINETYPE
 70
     6
  9
$SPLINESEGS
 70
     8
  9
$HANDSEED
  5
6D6
  9
$SURFTAB1
 70
     6
  9
$SURFTAB2
 70
     6
  9
$SURFTYPE
 70
     6
  9
$SURFU
 70
     6
  9
$SURFV
 70
     6
  9
$UCSBASE
  2

  9
$UCSNAME
  2

  9
$UCSORG
 10
0.0
 20
0.0
 30
0.0
  9
$UCSXDIR
 10
1.0
 20
0.0
 30
0.0
  9
$UCSYDIR
 10
0.0
 20
1.0
 30
0.0
  9
$UCSORTHOREF
  2

  9
$UCSORTHOVIEW
 70
     0
  9
$UCSORGTOP
 10
0.0
 20
0.0
 30
0.0
  9
$UCSORGBOTTOM
 10
0.0
 20
0.0
 30
0.0
  9
$UCSORGLEFT
 10
0.0
 20
0.0
 30
0.0
  9
$UCSORGRIGHT
 10
0.0
 20
0.0
 30
0.0
  9
$UCSORGFRONT
 10
0.0
 20
0.0
 30
0.0
  9
$UCSORGBACK
 10
0.0
 20
0.0
 30
0.0
  9
$PUCSBASE
  2

  9
$PUCSNAME
  2

  9
$PUCSORG
 10
0.0
 20
0.0
 30
0.0
  9
$PUCSXDIR
 10
1.0
 20
0.0
 30
0.0
  9
$PUCSYDIR
 10
0.0
 20
1.0
 30
0.0
  9
$PUCSORTHOREF
  2

  9
$PUCSORTHOVIEW
 70
     0
  9
$PUCSORGTOP
 10
0.0
 20
0.0
 30
0.0
  9
$PUCSORGBOTTOM
 10
0.0
 20
0.0
 30
0.0
  9
$PUCSORGLEFT
 10
0.0
 20
0.0
 30
0.0
  9
$PUCSORGRIGHT
 10
0.0
 20
0.0
 30
0.0
  9
$PUCSORGFRONT
 10
0.0
 20
0.0
 30
0.0
  9
$PUCSORGBACK
 10
0.0
 20
0.0
 30
0.0
  9
$USERI1
 70
     0
  9
$USERI2
 70
     0
  9
$USERI3
 70
     0
  9
$USERI4
 70
     0
  9
$USERI5
 70
     0
  9
$USERR1
 40
0.0
  9
$USERR2
 40
0.0
  9
$USERR3
 40
0.0
  9
$USERR4
 40
0.0
  9
$USERR5
 40
0.0
  9
$WORLDVIEW
 70
     1
  9
$SHADEDGE
 70
     3
  9
$SHADEDIF
 70
    70
  9
$TILEMODE
 70
     1
  9
$MAXACTVP
 70
    64
  9
$PINSBASE
 10
0.0
 20
0.0
 30
0.0
  9
$PLIMCHECK
 70
     0
  9
$PEXTMIN
 10
1.000000000000000E+20
 20
1.000000000000000E+20
 30
1.000000000000000E+20
  9
$PEXTMAX
 10
-1.000000000000000E+20
 20
-1.000000000000000E+20
 30
-1.000000000000000E+20
  9
$PLIMMIN
 10
0.0
 20
0.0
  9
$PLIMMAX
 10
420.0
 20
297.0
  9
$UNITMODE
 70
     0
  9
$VISRETAIN
 70
     1
  9
$PLINEGEN
 70
     0
  9
$PSLTSCALE
 70
     1
  9
$TREEDEPTH
 70
  3020
  9
$CMLSTYLE
  2
Standard
  9
$CMLJUST
 70
     0
  9
$CMLSCALE
 40
20.0
  9
$PROXYGRAPHICS
 70
     1
  9
$MEASUREMENT
 70
     1
  9
$CELWEIGHT
370
    -1
  9
$ENDCAPS
280
     0
  9
$JOINSTYLE
280
     0
  9
$LWDISPLAY
290
     0
  9
$INSUNITS
 70
     4
  9
$HYPERLINKBASE
  1

  9
$STYLESHEET
  1

  9
$XEDIT
290
     1
  9
$CEPSNTYPE
380
     0
  9
$PSTYLEMODE
290
     1
  9
$FINGERPRINTGUID
  2
{6C25E80F-2569-45D8-A999-8252E7CA461E}
  9
$VERSIONGUID
  2
{A78493B0-8824-41E2-BC10-BFA5EDB5195B}
  9
$EXTNAMES
290
     1
  9
$PSVPSCALE
 40
0.0
  9
$OLESTARTUP
290
     0
  0
ENDSEC
  0
SECTION
  2
CLASSES
  0
CLASS
  1
ACDBDICTIONARYWDFLT
  2
AcDbDictionaryWithDefault
  3
ObjectDBX Classes
 90
        0
280
     0
281
     0
  0
CLASS
  1
VISUALSTYLE
  2
AcDbVisualStyle
  3
ObjectDBX Classes
 90
     4095
280
     0
281
     0
  0
CLASS
  1
MATERIAL
  2
AcDbMaterial
  3
ObjectDBX Classes
 90
     1153
280
     0
281
     0
  0
CLASS
  1
SCALE
  2
AcDbScale
  3
ObjectDBX Classes
 90
     1153
280
     0
281
     0
  0
CLASS
  1
TABLESTYLE
  2
AcDbTableStyle
  3
ObjectDBX Classes
 90
     4095
280
     0
281
     0
  0
CLASS
  1
MLEADERSTYLE
  2
AcDbMLeaderStyle
  3
ACDB_MLEADERSTYLE_CLASS
 90
     4095
280
     0
281
     0
  0
CLASS
  1
SUN
  2
AcDbSun
  3
SCENEOE
 90
    33921
280
     0
281
     0
  0
CLASS
  1
DICTIONARYVAR
  2
AcDbDictionaryVar
  3
ObjectDBX Classes
 90
        0
280
     0
281
     0
  0
CLASS
  1
ACDBSECTIONVIEWSTYLE
  2
AcDbSectionViewStyle
  3
ObjectDBX Classes
 90
     1025
280
     0
281
     0
  0
CLASS
  1
ACDBDETAILVIEWSTYLE
  2
AcDbDetailViewStyle
  3
ObjectDBX Classes
 90
     1025
280
     0
281
     0
  0
CLASS
  1
SORTENTSTABLE
  2
AcDbSortentsTable
  3
ObjectDBX Classes
 90
        0
280
     0
281
     0
  0
CLASS
  1
CELLSTYLEMAP
  2
AcDbCellStyleMap
  3
ObjectDBX Classes
 90
     1152
280
     0
281
     0
  0
CLASS
  1
ACDBPLACEHOLDER
  2
AcDbPlaceHolder
  3
ObjectDBX Classes
 90
        0
280
     0
281
     0
  0
CLASS
  1
LAYOUT
  2
AcDbLayout
  3
ObjectDBX Classes
 90
        0
280
     0
281
     0
  0
ENDSEC
  0
SECTION
  2
TABLES
  0
TABLE
  2
VPORT
  5
8
330
0
100
AcDbSymbolTable
 70
     1
  0
VPORT
  5
29
330
8
100
AcDbSymbolTableRecord
100
AcDbViewportTableRecord
  2
*Active
 70
     0
 10
0.0
 20
0.0
 11
1.0
 21
1.0
 12
1555.772129412769
 22
432.8781020290262
 13
0.0
 23
0.0
 14
10.0
 24
10.0
 15
10.0
 25
10.0
 16
0.0
 26
0.0
 36
1.0
 17
0.0
 27
0.0
 37
0.0
 40
1542.140485549156
 41
2.204301075268817
 42
50.0
 43
0.0
 44
0.0
 50
0.0
 51
0.0
 71
     0
 72
 20000
 73
     1
 74
     3
 75
     0
 76
     0
 77
     0
 78
     0
281
     0
 65
     1
110
0.0
120
0.0
130
0.0
111
1.0
121
0.0
131
0.0
112
0.0
122
1.0
132
0.0
 79
     0
146
0.0
1001
ACAD_NAV_VCDISPLAY
1070
     3
  0
ENDTAB
  0
TABLE
  2
LTYPE
  5
5
330
0
100
AcDbSymbolTable
 70
     2
  0
LTYPE
  5
14
330
5
100
AcDbSymbolTableRecord
100
AcDbLinetypeTableRecord
  2
ByBlock
 70
     0
  3

 72
    65
 73
     0
 40
0.0
  0
LTYPE
  5
15
330
5
100
AcDbSymbolTableRecord
100
AcDbLinetypeTableRecord
  2
ByLayer
 70
     0
  3

 72
    65
 73
     0
 40
0.0
  0
LTYPE
  5
16
330
5
100
AcDbSymbolTableRecord
100
AcDbLinetypeTableRecord
  2
Continuous
 70
     0
  3
Solid line
 72
    65
 73
     0
 40
0.0
  0
LTYPE
  5
293
330
5
100
AcDbSymbolTableRecord
100
AcDbLinetypeTableRecord
  2
CENTER2
 70
     0
  3
Center (.5x) ___ _ ___ _ ___ _ ___ _ ___ _ ___
 72
    65
 73
     4
 40
28.575
 49
19.05
 74
     0
 49
-3.174999999999998
 74
     0
 49
3.174999999999998
 74
     0
 49
-3.174999999999998
 74
     0
  0
ENDTAB
  0
TABLE
  2
LAYER
  5
2
102
{ACAD_XDICTIONARY
360
299
102
}
330
0
100
AcDbSymbolTable
 70
     4
  0
LAYER
  5
10
102
{ACAD_XDICTIONARY
360
5B9
102
}
330
2
100
AcDbSymbolTableRecord
100
AcDbLayerTableRecord
  2
0
 70
     0
 62
     7
  6
Continuous
370
    -3
390
F
  0
LAYER
  5
66
330
2
100
AcDbSymbolTableRecord
100
AcDbLayerTableRecord
  2
Defpoints
 70
     0
 62
     7
  6
Continuous
290
     0
370
    -3
390
F
  0
LAYER
  5
294
102
{ACAD_XDICTIONARY
360
295
102
}
330
2
100
AcDbSymbolTableRecord
100
AcDbLayerTableRecord
  2
中心線
 70
     0
 62
     3
  6
CENTER2
370
    -3
390
F
  0
LAYER
  5
296
102
{ACAD_XDICTIONARY
360
297
102
}
330
2
100
AcDbSymbolTableRecord
100
AcDbLayerTableRecord
  2
実線
 70
     0
 62
     7
  6
Continuous
370
    -3
390
F
  0
ENDTAB
  0
TABLE
  2
STYLE
  5
3
330
0
100
AcDbSymbolTable
 70
     1
  0
STYLE
  5
11
330
3
100
AcDbSymbolTableRecord
100
AcDbTextStyleTableRecord
  2
Standard
 70
     0
 40
0.0
 41
1.0
 50
0.0
 71
     0
 42
2.5
  3
txt
  4
extfont2
  0
ENDTAB
  0
TABLE
  2
VIEW
  5
6
330
0
100
AcDbSymbolTable
 70
     0
  0
ENDTAB
  0
TABLE
  2
UCS
  5
7
330
0
100
AcDbSymbolTable
 70
     0
  0
ENDTAB
  0
TABLE
  2
APPID
  5
9
330
0
100
AcDbSymbolTable
 70
     4
  0
APPID
  5
12
330
9
100
AcDbSymbolTableRecord
100
AcDbRegAppTableRecord
  2
ACAD
 70
     0
  0
APPID
  5
283
330
9
100
AcDbSymbolTableRecord
100
AcDbRegAppTableRecord
  2
ACAD_MLEADERVER
 70
     0
  0
APPID
  5
298
330
9
100
AcDbSymbolTableRecord
100
AcDbRegAppTableRecord
  2
ACAD_NAV_VCDISPLAY
 70
     0
  0
APPID
  5
5A9
330
9
100
AcDbSymbolTableRecord
100
AcDbRegAppTableRecord
  2
ACAD_EXEMPT_FROM_CAD_STANDARDS
 70
     0
  0
ENDTAB
  0
TABLE
  2
DIMSTYLE
  5
A
330
0
100
AcDbSymbolTable
 70
     1
100
AcDbDimStyleTable
 71
     1
340
27
  0
DIMSTYLE
105
27
330
A
100
AcDbSymbolTableRecord
100
AcDbDimStyleTableRecord
  2
Standard
 70
     0
 41
2.5
 42
0.625
 43
3.75
 44
1.25
 73
     0
 74
     0
 77
     1
140
2.5
141
2.5
143
0.03937007874016
146
0.75
147
0.625
171
     3
172
     1
271
     2
272
     2
274
     3
283
     0
284
     8
340
11
  0
ENDTAB
  0
TABLE
  2
BLOCK_RECORD
  5
1
330
0
100
AcDbSymbolTable
 70
     1
  0
BLOCK_RECORD
  5
1F
102
{ACAD_XDICTIONARY
360
417
102
}
330
1
100
AcDbSymbolTableRecord
100
AcDbBlockTableRecord
  2
*Model_Space
340
22
  0
BLOCK_RECORD
  5
1B
330
1
100
AcDbSymbolTableRecord
100
AcDbBlockTableRecord
  2
*Paper_Space
340
1E
  0
BLOCK_RECORD
  5
23
330
1
100
AcDbSymbolTableRecord
100
AcDbBlockTableRecord
  2
*Paper_Space0
340
28D
  0
ENDTAB
  0
ENDSEC
  0
SECTION
  2
BLOCKS
  0
BLOCK
  5
20
330
1F
100
AcDbEntity
  8
0
100
AcDbBlockBegin
  2
*Model_Space
 70
     0
 10
0.0
 20
0.0
 30
0.0
  3
*Model_Space
  1

  0
ENDBLK
  5
21
330
1F
100
AcDbEntity
  8
0
100
AcDbBlockEnd
  0
BLOCK
  5
1C
330
1B
100
AcDbEntity
 67
     1
  8
0
100
AcDbBlockBegin
  2
*Paper_Space
 70
     0
 10
0.0
 20
0.0
 30
0.0
  3
*Paper_Space
  1

  0
ENDBLK
  5
1D
330
1B
100
AcDbEntity
 67
     1
  8
0
100
AcDbBlockEnd
  0
BLOCK
  5
24
330
23
100
AcDbEntity
 67
     1
  8
0
100
AcDbBlockBegin
  2
*Paper_Space0
 70
     0
 10
0.0
 20
0.0
 30
0.0
  3
*Paper_Space0
  1

  0
ENDBLK
  5
25
330
23
100
AcDbEntity
 67
     1
  8
0
100
AcDbBlockEnd
  0
ENDSEC
  0
SECTION
  2
ENTITIES
  0
CIRCLE
  5
3D9
102
{ACAD_REACTORS
330
5B7
102
}
330
1F
100
AcDbEntity
  8
実線
100
AcDbCircle
 10
346.0195900522521
 20
936.7468410884301
 30
0.0
 40
43.3
  0
CIRCLE
  5
3DA
102
{ACAD_REACTORS
330
5B7
102
}
330
1F
100
AcDbEntity
  8
実線
100
AcDbCircle
 10
346.0195900522521
 20
936.7468410884301
 30
0.0
 40
42.5
  0
CIRCLE
  5
3DB
102
{ACAD_REACTORS
330
5B7
102
}
330
1F
100
AcDbEntity
  8
実線
100
AcDbCircle
 10
346.0195900522521
 20
936.7468410884301
 30
0.0
 40
16.5
  0
CIRCLE
  5
3DC
102
{ACAD_REACTORS
330
5B7
102
}
330
1F
100
AcDbEntity
  8
実線
100
AcDbCircle
 10
346.0195900522521
 20
936.7468410884301
 30
0.0
 40
44.0
  0
LINE
  5
3DD
102
{ACAD_REACTORS
330
5B7
102
}
330
1F
100
AcDbEntity
  8
実線
100
AcDbLine
 10
269.3195900522519
 20
911.3468410884301
 30
0.0
 11
288.9136358968401
 21
911.3468410884301
 31
0.0
  0
LINE
  5
3DE
102
{ACAD_REACTORS
330
5B7
102
}
330
1F
100
AcDbEntity
  8
実線
100
AcDbLine
 10
288.9136358968402
 20
962.1468410884302
 30
0.0
 11
269.3195900522519
 21
962.1468410884302
 31
0.0
  0
LINE
  5
3DF
102
{ACAD_REACTORS
330
5B7
102
}
330
1F
100
AcDbEntity
  8
実線
100
AcDbLine
 10
269.3195900522519
 20
911.3468410884301
 30
0.0
 11
269.3195900522519
 21
962.1468410884302
 31
0.0
  0
LINE
  5
3E0
102
{ACAD_REACTORS
330
5B7
102
}
330
1F
100
AcDbEntity
  8
実線
100
AcDbLine
 10
269.3195900522519
 20
962.1468410884302
 30
0.0
 11
266.9195900522519
 21
968.7468410884301
 31
0.0
  0
LINE
  5
3E1
102
{ACAD_REACTORS
330
5B7
102
}
330
1F
100
AcDbEntity
  8
実線
100
AcDbLine
 10
266.9195900522519
 20
904.7468410884301
 30
0.0
 11
269.3195900522519
 21
911.3468410884301
 31
0.0
  0
LINE
  5
3E2
102
{ACAD_REACTORS
330
5B7
102
}
330
1F
100
AcDbEntity
  8
実線
100
AcDbLine
 10
264.0195900522519
 20
904.7468410884301
 30
0.0
 11
264.0195900522519
 21
968.7468410884301
 31
0.0
  0
LINE
  5
3E3
102
{ACAD_REACTORS
330
5B7
102
}
330
1F
100
AcDbEntity
  8
実線
100
AcDbLine
 10
266.9195900522519
 20
904.7468410884301
 30
0.0
 11
266.9195900522519
 21
968.7468410884301
 31
0.0
  0
LINE
  5
3E4
102
{ACAD_REACTORS
330
5B7
102
}
330
1F
100
AcDbEntity
  8
実線
100
AcDbLine
 10
264.0195900522519
 20
904.7468410884301
 30
0.0
 11
266.9195900522519
 21
904.7468410884301
 31
0.0
  0
LINE
  5
3E5
102
{ACAD_REACTORS
330
5B7
102
}
330
1F
100
AcDbEntity
  8
実線
100
AcDbLine
 10
266.9195900522519
 20
968.7468410884301
 30
0.0
 11
264.0195900522519
 21
968.7468410884301
 31
0.0
  0
LINE
  5
3E6
102
{ACAD_REACTORS
330
5B7
102
}
330
1F
100
AcDbEntity
  8
実線
100
AcDbLine
 10
422.7195900522518
 20
962.1468410884292
 30
0.0
 11
403.1255442076638
 21
962.1468410884292
 31
0.0
  0
LINE
  5
3E7
102
{ACAD_REACTORS
330
5B7
102
}
330
1F
100
AcDbEntity
  8
実線
100
AcDbLine
 10
403.1255442076638
 20
911.3468410884301
 30
0.0
 11
422.7195900522518
 21
911.3468410884301
 31
0.0
  0
LINE
  5
3E8
102
{ACAD_REACTORS
330
5B7
102
}
330
1F
100
AcDbEntity
  8
実線
100
AcDbLine
 10
422.7195900522518
 20
962.1468410884292
 30
0.0
 11
422.7195900522518
 21
911.3468410884301
 31
0.0
  0
LINE
  5
3E9
102
{ACAD_REACTORS
330
5B7
102
}
330
1F
100
AcDbEntity
  8
実線
100
AcDbLine
 10
422.7195900522518
 20
911.3468410884301
 30
0.0
 11
425.1195900522518
 21
904.7468410884301
 31
0.0
  0
LINE
  5
3EA
102
{ACAD_REACTORS
330
5B7
102
}
330
1F
100
AcDbEntity
  8
実線
100
AcDbLine
 10
425.1195900522518
 20
968.7468410884301
 30
0.0
 11
422.7195900522518
 21
962.1468410884292
 31
0.0
  0
LINE
  5
3EB
102
{ACAD_REACTORS
330
5B7
102
}
330
1F
100
AcDbEntity
  8
実線
100
AcDbLine
 10
428.0195900522518
 20
968.7468410884301
 30
0.0
 11
428.0195900522518
 21
904.7468410884301
 31
0.0
  0
LINE
  5
3EC
102
{ACAD_REACTORS
330
5B7
102
}
330
1F
100
AcDbEntity
  8
実線
100
AcDbLine
 10
425.1195900522518
 20
968.7468410884301
 30
0.0
 11
425.1195900522518
 21
904.7468410884301
 31
0.0
  0
LINE
  5
3ED
102
{ACAD_REACTORS
330
5B7
102
}
330
1F
100
AcDbEntity
  8
実線
100
AcDbLine
 10
428.0195900522518
 20
968.7468410884301
 30
0.0
 11
425.1195900522518
 21
968.7468410884301
 31
0.0
  0
LINE
  5
3EE
102
{ACAD_REACTORS
330
5B7
102
}
330
1F
100
AcDbEntity
  8
実線
100
AcDbLine
 10
425.1195900522518
 20
904.7468410884301
 30
0.0
 11
428.0195900522518
 21
904.7468410884301
 31
0.0
  0
ARC
  5
3EF
102
{ACAD_REACTORS
330
5B7
102
}
330
1F
100
AcDbEntity
  8
実線
100
AcDbCircle
 10
299.5164244601959
 20
892.7757643456683
 30
0.0
 40
10.00000000000001
100
AcDbArc
 50
145.0000000000028
 51
223.3968902048142
  0
LINE
  5
3F0
102
{ACAD_REACTORS
330
5B7
102
}
330
1F
100
AcDbEntity
  8
実線
100
AcDbLine
 10
293.9218646519385
 20
902.220372863117
 30
0.0
 11
291.324904017306
 21
898.511528709178
 31
0.0
  0
LINE
  5
3F1
102
{ACAD_REACTORS
330
5B7
102
}
330
1F
100
AcDbEntity
  8
実線
100
AcDbLine
 10
311.493121826939
 20
988.8445664887431
 30
0.0
 11
307.7842776730007
 21
991.441527123376
 31
0.0
  0
ARC
  5
3F2
102
{ACAD_REACTORS
330
5B7
102
}
330
1F
100
AcDbEntity
  8
実線
100
AcDbCircle
 10
302.0485133094904
 20
983.2500066804861
 30
0.0
 40
10.0
100
AcDbArc
 50
55.00000000000067
 51
133.3968902048186
  0
LINE
  5
3F3
102
{ACAD_REACTORS
330
5B7
102
}
330
1F
100
AcDbEntity
  8
実線
100
AcDbLine
 10
398.1173154525653
 20
971.2733093137433
 30
0.0
 11
400.7142760871978
 21
974.9821534676812
 31
0.0
  0
ARC
  5
3F4
102
{ACAD_REACTORS
330
5B7
102
}
330
1F
100
AcDbEntity
  8
実線
100
AcDbCircle
 10
392.5227556443078
 20
980.7179178311912
 30
0.0
 40
10.00000000000002
100
AcDbArc
 50
325.0000000000028
 51
43.39689020481422
  0
ARC
  5
3F5
102
{ACAD_REACTORS
330
5B7
102
}
330
1F
100
AcDbEntity
  8
実線
100
AcDbCircle
 10
346.0195900522522
 20
936.7468410884292
 30
0.0
 40
74.00000000000003
100
AcDbArc
 50
43.39689020481422
 51
46.60310979518138
  0
ARC
  5
3F6
102
{ACAD_REACTORS
330
5B7
102
}
330
1F
100
AcDbEntity
  8
実線
100
AcDbCircle
 10
389.9906667950134
 20
983.2500066804861
 30
0.0
 40
10.00000000000001
100
AcDbArc
 50
46.60310979518138
 51
124.9999999999993
  0
LINE
  5
3F7
102
{ACAD_REACTORS
330
5B7
102
}
330
1F
100
AcDbEntity
  8
実線
100
AcDbLine
 10
384.2549024315031
 20
991.441527123376
 30
0.0
 11
380.5460582775651
 21
988.8445664887431
 31
0.0
  0
ARC
  5
3F8
102
{ACAD_REACTORS
330
5B7
102
}
330
1F
100
AcDbEntity
  8
実線
100
AcDbCircle
 10
346.0195900522522
 20
936.7468410884292
 30
0.0
 40
74.00000000000019
100
AcDbArc
 50
133.3968902048186
 51
136.6031097951857
  0
ARC
  5
3F9
102
{ACAD_REACTORS
330
5B7
102
}
330
1F
100
AcDbEntity
  8
実線
100
AcDbCircle
 10
299.5164244601959
 20
980.7179178311912
 30
0.0
 40
10.00000000000001
100
AcDbArc
 50
136.6031097951857
 51
214.9999999999972
  0
LINE
  5
3FA
102
{ACAD_REACTORS
330
5B7
102
}
330
1F
100
AcDbEntity
  8
実線
100
AcDbLine
 10
291.3249040173063
 20
974.9821534676812
 30
0.0
 11
293.9218646519385
 21
971.2733093137433
 31
0.0
  0
ARC
  5
3FB
102
{ACAD_REACTORS
330
5B7
102
}
330
1F
100
AcDbEntity
  8
実線
100
AcDbCircle
 10
346.0195900522522
 20
936.7468410884292
 30
0.0
 40
73.99999999999997
100
AcDbArc
 50
223.3968902048142
 51
226.6031097951814
  0
ARC
  5
3FC
102
{ACAD_REACTORS
330
5B7
102
}
330
1F
100
AcDbEntity
  8
実線
100
AcDbCircle
 10
302.0485133094904
 20
890.2436754963742
 30
0.0
 40
10.00000000000001
100
AcDbArc
 50
226.6031097951814
 51
304.9999999999993
  0
LINE
  5
3FD
102
{ACAD_REACTORS
330
5B7
102
}
330
1F
100
AcDbEntity
  8
実線
100
AcDbLine
 10
307.7842776730007
 20
882.052155053484
 30
0.0
 11
311.493121826939
 21
884.649115688116
 31
0.0
  0
LINE
  5
3FE
102
{ACAD_REACTORS
330
5B7
102
}
330
1F
100
AcDbEntity
  8
実線
100
AcDbLine
 10
380.5460582775651
 20
884.649115688116
 30
0.0
 11
384.2549024315031
 21
882.052155053484
 31
0.0
  0
ARC
  5
3FF
102
{ACAD_REACTORS
330
5B7
102
}
330
1F
100
AcDbEntity
  8
実線
100
AcDbCircle
 10
389.9906667950134
 20
890.2436754963742
 30
0.0
 40
10.00000000000003
100
AcDbArc
 50
235.0000000000007
 51
313.3968902048186
  0
ARC
  5
400
102
{ACAD_REACTORS
330
5B7
102
}
330
1F
100
AcDbEntity
  8
実線
100
AcDbCircle
 10
346.0195900522521
 20
936.7468410884292
 30
0.0
 40
73.99999999999984
100
AcDbArc
 50
313.3968902048186
 51
316.6031097951857
  0
ARC
  5
401
102
{ACAD_REACTORS
330
5B7
102
}
330
1F
100
AcDbEntity
  8
実線
100
AcDbCircle
 10
392.5227556443078
 20
892.7757643456683
 30
0.0
 40
9.999999999999976
100
AcDbArc
 50
316.6031097951857
 51
34.99999999999719
  0
LINE
  5
402
102
{ACAD_REACTORS
330
5B7
102
}
330
1F
100
AcDbEntity
  8
実線
100
AcDbLine
 10
400.7142760871978
 20
898.511528709178
 30
0.0
 11
398.1173154525653
 21
902.220372863117
 31
0.0
  0
CIRCLE
  5
403
102
{ACAD_REACTORS
330
5B7
102
}
330
1F
100
AcDbEntity
  8
実線
100
AcDbCircle
 10
346.0195900522521
 20
936.7468410884301
 30
0.0
 40
46.0
  0
LINE
  5
404
102
{ACAD_REACTORS
330
5B7
102
}
330
1F
100
AcDbEntity
  8
実線
100
AcDbLine
 10
371.4195900522518
 20
993.8527952438422
 30
0.0
 11
371.4195900522518
 21
1013.44684108843
 31
0.0
  0
LINE
  5
405
102
{ACAD_REACTORS
330
5B7
102
}
330
1F
100
AcDbEntity
  8
実線
100
AcDbLine
 10
371.4195900522518
 20
860.04684108843
 30
0.0
 11
371.4195900522518
 21
879.640886933018
 31
0.0
  0
LINE
  5
406
102
{ACAD_REACTORS
330
5B7
102
}
330
1F
100
AcDbEntity
  8
実線
100
AcDbLine
 10
320.619590052252
 20
879.640886933018
 30
0.0
 11
320.619590052252
 21
860.04684108843
 31
0.0
  0
LINE
  5
407
102
{ACAD_REACTORS
330
5B7
102
}
330
1F
100
AcDbEntity
  8
実線
100
AcDbLine
 10
320.619590052252
 20
1013.44684108843
 30
0.0
 11
320.619590052252
 21
993.8527952438422
 31
0.0
  0
LINE
  5
408
102
{ACAD_REACTORS
330
5B7
102
}
330
1F
100
AcDbEntity
  8
実線
100
AcDbLine
 10
371.4195900522518
 20
860.04684108843
 30
0.0
 11
320.619590052252
 21
860.04684108843
 31
0.0
  0
LINE
  5
409
102
{ACAD_REACTORS
330
5B7
102
}
330
1F
100
AcDbEntity
  8
実線
100
AcDbLine
 10
320.619590052252
 20
860.04684108843
 30
0.0
 11
314.0195900522519
 21
857.6468410884301
 31
0.0
  0
LINE
  5
40A
102
{ACAD_REACTORS
330
5B7
102
}
330
1F
100
AcDbEntity
  8
実線
100
AcDbLine
 10
378.0195900522518
 20
857.6468410884301
 30
0.0
 11
371.4195900522518
 21
860.04684108843
 31
0.0
  0
LINE
  5
40B
102
{ACAD_REACTORS
330
5B7
102
}
330
1F
100
AcDbEntity
  8
実線
100
AcDbLine
 10
378.0195900522518
 20
854.7468410884301
 30
0.0
 11
314.0195900522519
 21
854.7468410884301
 31
0.0
  0
LINE
  5
40C
102
{ACAD_REACTORS
330
5B7
102
}
330
1F
100
AcDbEntity
  8
実線
100
AcDbLine
 10
378.0195900522518
 20
857.6468410884301
 30
0.0
 11
314.0195900522519
 21
857.6468410884301
 31
0.0
  0
LINE
  5
40D
102
{ACAD_REACTORS
330
5B7
102
}
330
1F
100
AcDbEntity
  8
実線
100
AcDbLine
 10
378.0195900522518
 20
854.7468410884301
 30
0.0
 11
378.0195900522518
 21
857.6468410884301
 31
0.0
  0
LINE
  5
40E
102
{ACAD_REACTORS
330
5B7
102
}
330
1F
100
AcDbEntity
  8
実線
100
AcDbLine
 10
314.0195900522519
 20
857.6468410884301
 30
0.0
 11
314.0195900522519
 21
854.7468410884301
 31
0.0
  0
LINE
  5
40F
102
{ACAD_REACTORS
330
5B7
102
}
330
1F
100
AcDbEntity
  8
実線
100
AcDbLine
 10
320.619590052252
 20
1013.44684108843
 30
0.0
 11
371.4195900522518
 21
1013.44684108843
 31
0.0
  0
LINE
  5
410
102
{ACAD_REACTORS
330
5B7
102
}
330
1F
100
AcDbEntity
  8
実線
100
AcDbLine
 10
371.4195900522518
 20
1013.44684108843
 30
0.0
 11
378.0195900522518
 21
1015.84684108843
 31
0.0
  0
LINE
  5
411
102
{ACAD_REACTORS
330
5B7
102
}
330
1F
100
AcDbEntity
  8
実線
100
AcDbLine
 10
314.0195900522519
 20
1015.84684108843
 30
0.0
 11
320.619590052252
 21
1013.44684108843
 31
0.0
  0
LINE
  5
412
102
{ACAD_REACTORS
330
5B7
102
}
330
1F
100
AcDbEntity
  8
実線
100
AcDbLine
 10
314.0195900522519
 20
1018.74684108843
 30
0.0
 11
378.0195900522518
 21
1018.74684108843
 31
0.0
  0
LINE
  5
413
102
{ACAD_REACTORS
330
5B7
102
}
330
1F
100
AcDbEntity
  8
実線
100
AcDbLine
 10
314.0195900522519
 20
1015.84684108843
 30
0.0
 11
378.0195900522518
 21
1015.84684108843
 31
0.0
  0
LINE
  5
414
102
{ACAD_REACTORS
330
5B7
102
}
330
1F
100
AcDbEntity
  8
実線
100
AcDbLine
 10
314.0195900522519
 20
1018.74684108843
 30
0.0
 11
314.0195900522519
 21
1015.84684108843
 31
0.0
  0
LINE
  5
415
102
{ACAD_REACTORS
330
5B7
102
}
330
1F
100
AcDbEntity
  8
実線
100
AcDbLine
 10
378.0195900522518
 20
1015.84684108843
 30
0.0
 11
378.0195900522518
 21
1018.74684108843
 31
0.0
  0
CIRCLE
  5
416
102
{ACAD_REACTORS
330
5B7
102
}
330
1F
100
AcDbEntity
  8
実線
100
AcDbCircle
 10
346.0195900522521
 20
936.7468410884301
 30
0.0
 40
62.5
  0
LINE
  5
419
102
{ACAD_REACTORS
330
5B8
102
}
330
1F
100
AcDbEntity
  8
実線
100
AcDbLine
 10
269.3195900522521
 20
71.34684108842993
 30
0.0
 11
304.1168455120673
 21
71.34684108842993
 31
0.0
  0
LINE
  5
41A
102
{ACAD_REACTORS
330
5B8
102
}
330
1F
100
AcDbEntity
  8
実線
100
AcDbLine
 10
304.1168455120671
 20
122.14684108843
 30
0.0
 11
269.3195900522521
 21
122.14684108843
 31
0.0
  0
LINE
  5
41B
102
{ACAD_REACTORS
330
5B8
102
}
330
1F
100
AcDbEntity
  8
実線
100
AcDbLine
 10
264.0195900522522
 20
64.74684108842996
 30
0.0
 11
266.9195900522522
 21
64.74684108842996
 31
0.0
  0
LINE
  5
41C
102
{ACAD_REACTORS
330
5B8
102
}
330
1F
100
AcDbEntity
  8
実線
100
AcDbLine
 10
266.9195900522522
 20
128.7468410884299
 30
0.0
 11
264.0195900522522
 21
128.7468410884299
 31
0.0
  0
LINE
  5
41D
102
{ACAD_REACTORS
330
5B8
102
}
330
1F
100
AcDbEntity
  8
実線
100
AcDbLine
 10
264.0195900522522
 20
128.7468410884299
 30
0.0
 11
264.0195900522522
 21
64.74684108842996
 31
0.0
  0
LINE
  5
41E
102
{ACAD_REACTORS
330
5B8
102
}
330
1F
100
AcDbEntity
  8
実線
100
AcDbLine
 10
269.3195900522521
 20
122.14684108843
 30
0.0
 11
266.9195900522522
 21
128.7468410884299
 31
0.0
  0
LINE
  5
41F
102
{ACAD_REACTORS
330
5B8
102
}
330
1F
100
AcDbEntity
  8
実線
100
AcDbLine
 10
266.9195900522522
 20
64.74684108842996
 30
0.0
 11
269.3195900522521
 21
71.34684108842993
 31
0.0
  0
LINE
  5
420
102
{ACAD_REACTORS
330
5B8
102
}
330
1F
100
AcDbEntity
  8
実線
100
AcDbLine
 10
266.9195900522522
 20
128.7468410884299
 30
0.0
 11
266.9195900522522
 21
64.74684108842996
 31
0.0
  0
LINE
  5
421
102
{ACAD_REACTORS
330
5B8
102
}
330
1F
100
AcDbEntity
  8
実線
100
AcDbLine
 10
269.3195900522521
 20
122.14684108843
 30
0.0
 11
269.3195900522521
 21
71.34684108842993
 31
0.0
  0
LINE
  5
422
102
{ACAD_REACTORS
330
5B8
102
}
330
1F
100
AcDbEntity
  8
実線
100
AcDbLine
 10
422.7195900522521
 20
122.1468410884301
 30
0.0
 11
387.9223345924371
 21
122.1468410884301
 31
0.0
  0
LINE
  5
423
102
{ACAD_REACTORS
330
5B8
102
}
330
1F
100
AcDbEntity
  8
実線
100
AcDbLine
 10
387.9223345924371
 20
71.3468410884301
 30
0.0
 11
422.7195900522521
 21
71.3468410884301
 31
0.0
  0
LINE
  5
424
102
{ACAD_REACTORS
330
5B8
102
}
330
1F
100
AcDbEntity
  8
実線
100
AcDbLine
 10
422.7195900522521
 20
71.3468410884301
 30
0.0
 11
425.119590052252
 21
64.74684108843018
 31
0.0
  0
LINE
  5
425
102
{ACAD_REACTORS
330
5B8
102
}
330
1F
100
AcDbEntity
  8
実線
100
AcDbLine
 10
425.119590052252
 20
128.7468410884301
 30
0.0
 11
422.7195900522521
 21
122.1468410884301
 31
0.0
  0
LINE
  5
426
102
{ACAD_REACTORS
330
5B8
102
}
330
1F
100
AcDbEntity
  8
実線
100
AcDbLine
 10
422.7195900522521
 20
71.3468410884301
 30
0.0
 11
422.7195900522521
 21
122.1468410884301
 31
0.0
  0
LINE
  5
427
102
{ACAD_REACTORS
330
5B8
102
}
330
1F
100
AcDbEntity
  8
実線
100
AcDbLine
 10
428.019590052252
 20
128.7468410884302
 30
0.0
 11
425.119590052252
 21
128.7468410884302
 31
0.0
  0
LINE
  5
428
102
{ACAD_REACTORS
330
5B8
102
}
330
1F
100
AcDbEntity
  8
実線
100
AcDbLine
 10
425.119590052252
 20
64.74684108843013
 30
0.0
 11
428.019590052252
 21
64.74684108843013
 31
0.0
  0
LINE
  5
429
102
{ACAD_REACTORS
330
5B8
102
}
330
1F
100
AcDbEntity
  8
実線
100
AcDbLine
 10
428.019590052252
 20
64.74684108843013
 30
0.0
 11
428.019590052252
 21
128.7468410884302
 31
0.0
  0
LINE
  5
42A
102
{ACAD_REACTORS
330
5B8
102
}
330
1F
100
AcDbEntity
  8
実線
100
AcDbLine
 10
425.119590052252
 20
64.74684108843013
 30
0.0
 11
425.119590052252
 21
128.7468410884302
 31
0.0
  0
ARC
  5
42B
102
{ACAD_REACTORS
330
5B8
102
}
330
1F
100
AcDbEntity
  8
実線
100
AcDbCircle
 10
346.0195900522523
 20
96.74684108843013
 30
0.0
 40
62.5
100
AcDbArc
 50
113.9788881377569
 51
123.5334340052838
  0
ARC
  5
42C
102
{ACAD_REACTORS
330
5B8
102
}
330
1F
100
AcDbEntity
  8
実線
100
AcDbCircle
 10
346.0195900522523
 20
96.74684108843013
 30
0.0
 40
62.5
100
AcDbArc
 50
146.4665659947161
 51
156.021111862243
  0
ARC
  5
42D
102
{ACAD_REACTORS
330
5B8
102
}
330
1F
100
AcDbEntity
  8
実線
100
AcDbCircle
 10
346.0195900522523
 20
96.74684108843013
 30
0.0
 40
62.5
100
AcDbArc
 50
203.978888137757
 51
213.5334340052838
  0
ARC
  5
42E
102
{ACAD_REACTORS
330
5B8
102
}
330
1F
100
AcDbEntity
  8
実線
100
AcDbCircle
 10
346.0195900522523
 20
96.74684108843013
 30
0.0
 40
62.5
100
AcDbArc
 50
236.4665659947161
 51
246.021111862243
  0
ARC
  5
42F
102
{ACAD_REACTORS
330
5B8
102
}
330
1F
100
AcDbEntity
  8
実線
100
AcDbCircle
 10
346.0195900522523
 20
96.74684108843013
 30
0.0
 40
62.5
100
AcDbArc
 50
293.9788881377569
 51
303.5334340052839
  0
ARC
  5
430
102
{ACAD_REACTORS
330
5B8
102
}
330
1F
100
AcDbEntity
  8
実線
100
AcDbCircle
 10
346.0195900522523
 20
96.74684108843013
 30
0.0
 40
62.5
100
AcDbArc
 50
326.4665659947161
 51
336.021111862243
  0
ARC
  5
431
102
{ACAD_REACTORS
330
5B8
102
}
330
1F
100
AcDbEntity
  8
実線
100
AcDbCircle
 10
346.0195900522523
 20
96.74684108843013
 30
0.0
 40
62.5
100
AcDbArc
 50
23.97888813775703
 51
33.53343400528385
  0
ARC
  5
432
102
{ACAD_REACTORS
330
5B8
102
}
330
1F
100
AcDbEntity
  8
実線
100
AcDbCircle
 10
346.0195900522523
 20
96.74684108843013
 30
0.0
 40
62.5
100
AcDbArc
 50
56.46656599471613
 51
66.02111186224302
  0
LINE
  5
433
102
{ACAD_REACTORS
330
5B8
102
}
330
1F
100
AcDbEntity
  8
実線
100
AcDbLine
 10
320.6195900522522
 20
72.74684108843013
 30
0.0
 11
320.6195900522522
 21
20.04684108843014
 31
0.0
  0
LINE
  5
434
102
{ACAD_REACTORS
330
5B8
102
}
330
1F
100
AcDbEntity
  8
実線
100
AcDbLine
 10
320.6195900522522
 20
173.4468410884302
 30
0.0
 11
320.6195900522522
 21
120.7468410884302
 31
0.0
  0
LINE
  5
435
102
{ACAD_REACTORS
330
5B8
102
}
330
1F
100
AcDbEntity
  8
実線
100
AcDbLine
 10
371.419590052252
 20
120.7468410884302
 30
0.0
 11
371.419590052252
 21
173.4468410884302
 31
0.0
  0
LINE
  5
436
102
{ACAD_REACTORS
330
5B8
102
}
330
1F
100
AcDbEntity
  8
実線
100
AcDbLine
 10
371.419590052252
 20
20.04684108843014
 30
0.0
 11
371.419590052252
 21
72.74684108843013
 31
0.0
  0
LINE
  5
437
102
{ACAD_REACTORS
330
5B8
102
}
330
1F
100
AcDbEntity
  8
実線
100
AcDbLine
 10
320.6195900522522
 20
20.04684108843014
 30
0.0
 11
314.0195900522522
 21
17.64684108843011
 31
0.0
  0
LINE
  5
438
102
{ACAD_REACTORS
330
5B8
102
}
330
1F
100
AcDbEntity
  8
実線
100
AcDbLine
 10
378.019590052252
 20
17.64684108843011
 30
0.0
 11
371.419590052252
 21
20.04684108843014
 31
0.0
  0
LINE
  5
439
102
{ACAD_REACTORS
330
5B8
102
}
330
1F
100
AcDbEntity
  8
実線
100
AcDbLine
 10
320.6195900522522
 20
20.04684108843014
 30
0.0
 11
371.419590052252
 21
20.04684108843014
 31
0.0
  0
LINE
  5
43A
102
{ACAD_REACTORS
330
5B8
102
}
330
1F
100
AcDbEntity
  8
実線
100
AcDbLine
 10
378.019590052252
 20
14.74684108843013
 30
0.0
 11
378.019590052252
 21
17.64684108843011
 31
0.0
  0
LINE
  5
43B
102
{ACAD_REACTORS
330
5B8
102
}
330
1F
100
AcDbEntity
  8
実線
100
AcDbLine
 10
314.0195900522522
 20
17.64684108843011
 30
0.0
 11
314.0195900522522
 21
14.74684108843013
 31
0.0
  0
LINE
  5
43C
102
{ACAD_REACTORS
330
5B8
102
}
330
1F
100
AcDbEntity
  8
実線
100
AcDbLine
 10
314.0195900522522
 20
14.74684108843013
 30
0.0
 11
378.019590052252
 21
14.74684108843013
 31
0.0
  0
LINE
  5
43D
102
{ACAD_REACTORS
330
5B8
102
}
330
1F
100
AcDbEntity
  8
実線
100
AcDbLine
 10
314.0195900522522
 20
17.64684108843011
 30
0.0
 11
378.019590052252
 21
17.64684108843011
 31
0.0
  0
LINE
  5
43E
102
{ACAD_REACTORS
330
5B8
102
}
330
1F
100
AcDbEntity
  8
実線
100
AcDbLine
 10
371.419590052252
 20
173.4468410884302
 30
0.0
 11
378.019590052252
 21
175.8468410884301
 31
0.0
  0
LINE
  5
43F
102
{ACAD_REACTORS
330
5B8
102
}
330
1F
100
AcDbEntity
  8
実線
100
AcDbLine
 10
314.0195900522522
 20
175.8468410884301
 30
0.0
 11
320.6195900522522
 21
173.4468410884302
 31
0.0
  0
LINE
  5
440
102
{ACAD_REACTORS
330
5B8
102
}
330
1F
100
AcDbEntity
  8
実線
100
AcDbLine
 10
371.419590052252
 20
173.4468410884302
 30
0.0
 11
320.6195900522522
 21
173.4468410884302
 31
0.0
  0
LINE
  5
441
102
{ACAD_REACTORS
330
5B8
102
}
330
1F
100
AcDbEntity
  8
実線
100
AcDbLine
 10
314.0195900522522
 20
178.7468410884301
 30
0.0
 11
314.0195900522522
 21
175.8468410884301
 31
0.0
  0
LINE
  5
442
102
{ACAD_REACTORS
330
5B8
102
}
330
1F
100
AcDbEntity
  8
実線
100
AcDbLine
 10
378.019590052252
 20
175.8468410884301
 30
0.0
 11
378.019590052252
 21
178.7468410884301
 31
0.0
  0
LINE
  5
443
102
{ACAD_REACTORS
330
5B8
102
}
330
1F
100
AcDbEntity
  8
実線
100
AcDbLine
 10
378.019590052252
 20
178.7468410884301
 30
0.0
 11
314.0195900522522
 21
178.7468410884301
 31
0.0
  0
LINE
  5
444
102
{ACAD_REACTORS
330
5B8
102
}
330
1F
100
AcDbEntity
  8
実線
100
AcDbLine
 10
378.019590052252
 20
175.8468410884301
 30
0.0
 11
314.0195900522522
 21
175.8468410884301
 31
0.0
  0
ARC
  5
445
102
{ACAD_REACTORS
330
5B8
102
}
330
1F
100
AcDbEntity
  8
実線
100
AcDbCircle
 10
389.9906667950137
 20
143.2500066804859
 30
0.0
 40
10.00000000000003
100
AcDbArc
 50
46.60310979518604
 51
125.0000000000008
  0
ARC
  5
446
102
{ACAD_REACTORS
330
5B8
102
}
330
1F
100
AcDbEntity
  8
実線
100
AcDbCircle
 10
346.0195900522523
 20
96.74684108843031
 30
0.0
 40
73.99999999999984
100
AcDbArc
 50
43.39689020481422
 51
46.60310979518604
  0
ARC
  5
447
102
{ACAD_REACTORS
330
5B8
102
}
330
1F
100
AcDbEntity
  8
実線
100
AcDbCircle
 10
392.5227556443081
 20
140.7179178311917
 30
0.0
 40
9.999999999999976
100
AcDbArc
 50
325.0
 51
43.39689020481422
  0
LINE
  5
448
102
{ACAD_REACTORS
330
5B8
102
}
330
1F
100
AcDbEntity
  8
実線
100
AcDbLine
 10
400.714276087198
 20
134.9821534676814
 30
0.0
 11
391.7268936039701
 21
122.1468410884301
 31
0.0
  0
LINE
  5
449
102
{ACAD_REACTORS
330
5B8
102
}
330
1F
100
AcDbEntity
  8
実線
100
AcDbLine
 10
371.419590052252
 20
142.4541446401479
 30
0.0
 11
384.2549024315033
 21
151.4415271233759
 31
0.0
  0
LINE
  5
44A
102
{ACAD_REACTORS
330
5B8
102
}
330
1F
100
AcDbEntity
  8
実線
100
AcDbLine
 10
391.7268936039701
 20
71.3468410884301
 30
0.0
 11
400.714276087198
 21
58.511528709179
 31
0.0
  0
ARC
  5
44B
102
{ACAD_REACTORS
330
5B8
102
}
330
1F
100
AcDbEntity
  8
実線
100
AcDbCircle
 10
392.5227556443081
 20
52.7757643456685
 30
0.0
 40
10.00000000000002
100
AcDbArc
 50
316.6031097951857
 51
35.0
  0
ARC
  5
44C
102
{ACAD_REACTORS
330
5B8
102
}
330
1F
100
AcDbEntity
  8
実線
100
AcDbCircle
 10
346.0195900522524
 20
96.74684108843031
 30
0.0
 40
74.00000000000003
100
AcDbArc
 50
313.3968902048139
 51
316.6031097951857
  0
ARC
  5
44D
102
{ACAD_REACTORS
330
5B8
102
}
330
1F
100
AcDbEntity
  8
実線
100
AcDbCircle
 10
389.9906667950137
 20
50.24367549637429
 30
0.0
 40
10.00000000000001
100
AcDbArc
 50
234.9999999999992
 51
313.3968902048139
  0
LINE
  5
44E
102
{ACAD_REACTORS
330
5B8
102
}
330
1F
100
AcDbEntity
  8
実線
100
AcDbLine
 10
384.2549024315033
 20
42.05215505348434
 30
0.0
 11
371.419590052252
 21
51.03953753671243
 31
0.0
  0
ARC
  5
44F
102
{ACAD_REACTORS
330
5B8
102
}
330
1F
100
AcDbEntity
  8
実線
100
AcDbCircle
 10
299.5164244601962
 20
140.7179178311917
 30
0.0
 40
10.00000000000001
100
AcDbArc
 50
136.6031097951857
 51
214.999999999999
  0
ARC
  5
450
102
{ACAD_REACTORS
330
5B8
102
}
330
1F
100
AcDbEntity
  8
実線
100
AcDbCircle
 10
346.0195900522524
 20
96.74684108843031
 30
0.0
 40
73.99999999999997
100
AcDbArc
 50
133.396890204814
 51
136.6031097951857
  0
LINE
  5
451
102
{ACAD_REACTORS
330
5B8
102
}
330
1F
100
AcDbEntity
  8
実線
100
AcDbLine
 10
300.3122865005346
 20
122.14684108843
 30
0.0
 11
291.3249040173063
 21
134.9821534676814
 31
0.0
  0
LINE
  5
452
102
{ACAD_REACTORS
330
5B8
102
}
330
1F
100
AcDbEntity
  8
実線
100
AcDbLine
 10
307.7842776730009
 20
151.4415271233759
 30
0.0
 11
320.6195900522522
 21
142.4541446401479
 31
0.0
  0
ARC
  5
453
102
{ACAD_REACTORS
330
5B8
102
}
330
1F
100
AcDbEntity
  8
実線
100
AcDbCircle
 10
302.0485133094904
 20
143.2500066804859
 30
0.0
 40
10.00000000000001
100
AcDbArc
 50
54.9999999999992
 51
133.396890204814
  0
LINE
  5
454
102
{ACAD_REACTORS
330
5B8
102
}
330
1F
100
AcDbEntity
  8
実線
100
AcDbLine
 10
291.3249040173063
 20
58.511528709179
 30
0.0
 11
300.3122865005344
 21
71.34684108842993
 31
0.0
  0
LINE
  5
455
102
{ACAD_REACTORS
330
5B8
102
}
330
1F
100
AcDbEntity
  8
実線
100
AcDbLine
 10
320.6195900522522
 20
51.03953753671238
 30
0.0
 11
307.7842776730009
 21
42.05215505348434
 31
0.0
  0
ARC
  5
456
102
{ACAD_REACTORS
330
5B8
102
}
330
1F
100
AcDbEntity
  8
実線
100
AcDbCircle
 10
299.5164244601962
 20
52.7757643456685
 30
0.0
 40
10.00000000000001
100
AcDbArc
 50
145.0
 51
223.3968902048142
  0
ARC
  5
457
102
{ACAD_REACTORS
330
5B8
102
}
330
1F
100
AcDbEntity
  8
実線
100
AcDbCircle
 10
346.0195900522524
 20
96.74684108843031
 30
0.0
 40
74.00000000000019
100
AcDbArc
 50
223.3968902048142
 51
226.603109795186
  0
ARC
  5
458
102
{ACAD_REACTORS
330
5B8
102
}
330
1F
100
AcDbEntity
  8
実線
100
AcDbCircle
 10
302.0485133094906
 20
50.24367549637429
 30
0.0
 40
10.0
100
AcDbArc
 50
226.603109795186
 51
305.0000000000008
  0
ARC
  5
459
102
{ACAD_REACTORS
330
5B8
102
}
330
1F
100
AcDbEntity
  8
実線
100
AcDbCircle
 10
346.0195900522521
 20
96.74684108843013
 30
0.0
 40
49.0
100
AcDbArc
 50
201.1065388689041
 51
238.7772000567007
  0
ARC
  5
45A
102
{ACAD_REACTORS
330
5B8
102
}
330
1F
100
AcDbEntity
  8
実線
100
AcDbCircle
 10
346.0195900522521
 20
96.74684108843013
 30
0.0
 40
49.0
100
AcDbArc
 50
301.2227999432993
 51
338.8934611310959
  0
ARC
  5
45B
102
{ACAD_REACTORS
330
5B8
102
}
330
1F
100
AcDbEntity
  8
実線
100
AcDbCircle
 10
346.0195900522521
 20
96.74684108843013
 30
0.0
 40
49.0
100
AcDbArc
 50
21.10653886890414
 51
58.77720005670072
  0
ARC
  5
45C
102
{ACAD_REACTORS
330
5B8
102
}
330
1F
100
AcDbEntity
  8
実線
100
AcDbCircle
 10
346.0195900522521
 20
96.74684108843013
 30
0.0
 40
49.0
100
AcDbArc
 50
121.2227999432992
 51
158.8934611310958
  0
LINE
  5
45D
102
{ACAD_REACTORS
330
5B8
102
}
330
1F
100
AcDbEntity
  8
実線
100
AcDbLine
 10
303.6195900522522
 20
76.74684108843013
 30
0.0
 11
303.6195900522522
 21
116.7468410884302
 31
0.0
  0
LINE
  5
45E
102
{ACAD_REACTORS
330
5B8
102
}
330
1F
100
AcDbEntity
  8
実線
100
AcDbLine
 10
308.6195900522522
 20
121.7468410884302
 30
0.0
 11
317.6195900522523
 21
121.7468410884302
 31
0.0
  0
ARC
  5
45F
102
{ACAD_REACTORS
330
5B8
102
}
330
1F
100
AcDbEntity
  8
実線
100
AcDbCircle
 10
308.6195900522522
 20
76.74684108843013
 30
0.0
 40
5.0
100
AcDbArc
 50
180.0
 51
270.0
  0
LINE
  5
460
102
{ACAD_REACTORS
330
5B8
102
}
330
1F
100
AcDbEntity
  8
実線
100
AcDbLine
 10
317.6195900522523
 20
71.74684108843013
 30
0.0
 11
308.6195900522522
 21
71.74684108843013
 31
0.0
  0
LINE
  5
461
102
{ACAD_REACTORS
330
5B8
102
}
330
1F
100
AcDbEntity
  8
実線
100
AcDbLine
 10
322.6195900522523
 20
116.7468410884302
 30
0.0
 11
322.6195900522523
 21
76.74684108843013
 31
0.0
  0
ARC
  5
462
102
{ACAD_REACTORS
330
5B8
102
}
330
1F
100
AcDbEntity
  8
実線
100
AcDbCircle
 10
317.6195900522523
 20
116.7468410884302
 30
0.0
 40
5.0
100
AcDbArc
 50
0.0
 51
90.0
  0
ARC
  5
463
102
{ACAD_REACTORS
330
5B8
102
}
330
1F
100
AcDbEntity
  8
実線
100
AcDbCircle
 10
308.6195900522522
 20
116.7468410884302
 30
0.0
 40
5.0
100
AcDbArc
 50
90.0
 51
180.0
  0
ARC
  5
464
102
{ACAD_REACTORS
330
5B8
102
}
330
1F
100
AcDbEntity
  8
実線
100
AcDbCircle
 10
317.6195900522523
 20
76.74684108843013
 30
0.0
 40
5.0
100
AcDbArc
 50
270.0
 51
0.0
  0
LINE
  5
465
102
{ACAD_REACTORS
330
5B8
102
}
330
1F
100
AcDbEntity
  8
実線
100
AcDbLine
 10
383.419590052252
 20
71.74684108843013
 30
0.0
 11
374.419590052252
 21
71.74684108843013
 31
0.0
  0
LINE
  5
466
102
{ACAD_REACTORS
330
5B8
102
}
330
1F
100
AcDbEntity
  8
実線
100
AcDbLine
 10
388.419590052252
 20
116.7468410884302
 30
0.0
 11
388.419590052252
 21
76.74684108843013
 31
0.0
  0
LINE
  5
467
102
{ACAD_REACTORS
330
5B8
102
}
330
1F
100
AcDbEntity
  8
実線
100
AcDbLine
 10
374.419590052252
 20
121.7468410884302
 30
0.0
 11
383.419590052252
 21
121.7468410884302
 31
0.0
  0
LINE
  5
468
102
{ACAD_REACTORS
330
5B8
102
}
330
1F
100
AcDbEntity
  8
実線
100
AcDbLine
 10
369.419590052252
 20
76.74684108843013
 30
0.0
 11
369.419590052252
 21
116.7468410884302
 31
0.0
  0
ARC
  5
469
102
{ACAD_REACTORS
330
5B8
102
}
330
1F
100
AcDbEntity
  8
実線
100
AcDbCircle
 10
374.419590052252
 20
76.74684108843013
 30
0.0
 40
5.0
100
AcDbArc
 50
180.0
 51
270.0
  0
ARC
  5
46A
102
{ACAD_REACTORS
330
5B8
102
}
330
1F
100
AcDbEntity
  8
実線
100
AcDbCircle
 10
383.419590052252
 20
76.74684108843013
 30
0.0
 40
5.0
100
AcDbArc
 50
270.0
 51
0.0
  0
ARC
  5
46B
102
{ACAD_REACTORS
330
5B8
102
}
330
1F
100
AcDbEntity
  8
実線
100
AcDbCircle
 10
383.419590052252
 20
116.7468410884302
 30
0.0
 40
5.0
100
AcDbArc
 50
0.0
 51
90.0
  0
ARC
  5
46C
102
{ACAD_REACTORS
330
5B8
102
}
330
1F
100
AcDbEntity
  8
実線
100
AcDbCircle
 10
374.419590052252
 20
116.7468410884302
 30
0.0
 40
5.0
100
AcDbArc
 50
90.0
 51
180.0
  0
LINE
  5
46D
102
{ACAD_REACTORS
330
5B3
102
}
330
1F
100
AcDbEntity
  8
実線
100
AcDbLine
 10
841.519590052251
 20
579.1468410884302
 30
0.0
 11
841.519590052251
 21
586.1468410884302
 31
0.0
  0
LINE
  5
46E
102
{ACAD_REACTORS
330
5B3
102
}
330
1F
100
AcDbEntity
  8
実線
100
AcDbLine
 10
810.519590052251
 20
586.1468410884302
 30
0.0
 11
810.519590052251
 21
579.1468410884302
 31
0.0
  0
LINE
  5
46F
102
{ACAD_REACTORS
330
5B3
102
}
330
1F
100
AcDbEntity
  8
実線
100
AcDbLine
 10
782.7195900522511
 20
625.8468410884301
 30
0.0
 11
869.3195900522521
 21
625.8468410884301
 31
0.0
  0
LINE
  5
470
102
{ACAD_REACTORS
330
5B3
102
}
330
1F
100
AcDbEntity
  8
実線
100
AcDbLine
 10
869.3195900522521
 20
589.8468410884301
 30
0.0
 11
869.3195900522521
 21
625.8468410884301
 31
0.0
  0
LINE
  5
471
102
{ACAD_REACTORS
330
5B3
102
}
330
1F
100
AcDbEntity
  8
実線
100
AcDbLine
 10
782.7195900522511
 20
625.8468410884301
 30
0.0
 11
782.7195900522511
 21
589.8468410884301
 31
0.0
  0
LINE
  5
472
102
{ACAD_REACTORS
330
5B3
102
}
330
1F
100
AcDbEntity
  8
実線
100
AcDbLine
 10
869.3195900522521
 20
589.8468410884301
 30
0.0
 11
782.7195900522511
 21
589.8468410884301
 31
0.0
  0
LINE
  5
473
102
{ACAD_REACTORS
330
5B3
102
}
330
1F
100
AcDbEntity
  8
実線
100
AcDbLine
 10
868.519590052251
 20
625.8468410884301
 30
0.0
 11
868.519590052251
 21
702.84684108843
 31
0.0
  0
LINE
  5
474
102
{ACAD_REACTORS
330
5B3
102
}
330
1F
100
AcDbEntity
  8
実線
100
AcDbLine
 10
783.519590052251
 20
702.84684108843
 30
0.0
 11
783.519590052251
 21
625.8468410884301
 31
0.0
  0
LINE
  5
475
102
{ACAD_REACTORS
330
5B3
102
}
330
1F
100
AcDbEntity
  8
実線
100
AcDbLine
 10
809.519590052251
 20
712.0468410884305
 30
0.0
 11
842.519590052251
 21
712.0468410884305
 31
0.0
  0
LINE
  5
476
102
{ACAD_REACTORS
330
5B3
102
}
330
1F
100
AcDbEntity
  8
実線
100
AcDbLine
 10
809.519590052251
 20
712.0468410884305
 30
0.0
 11
783.519590052251
 21
702.84684108843
 31
0.0
  0
LINE
  5
477
102
{ACAD_REACTORS
330
5B3
102
}
330
1F
100
AcDbEntity
  8
実線
100
AcDbLine
 10
868.519590052251
 20
702.84684108843
 30
0.0
 11
842.519590052251
 21
712.0468410884305
 31
0.0
  0
LINE
  5
478
102
{ACAD_REACTORS
330
5B3
102
}
330
1F
100
AcDbEntity
  8
実線
100
AcDbLine
 10
783.519590052251
 20
702.84684108843
 30
0.0
 11
868.519590052251
 21
702.84684108843
 31
0.0
  0
LINE
  5
479
102
{ACAD_REACTORS
330
5B3
102
}
330
1F
100
AcDbEntity
  8
実線
100
AcDbLine
 10
782.7195900522511
 20
589.8468410884301
 30
0.0
 11
782.019590052251
 21
586.1468410884302
 31
0.0
  0
LINE
  5
47A
102
{ACAD_REACTORS
330
5B3
102
}
330
1F
100
AcDbEntity
  8
実線
100
AcDbLine
 10
870.019590052251
 20
586.1468410884302
 30
0.0
 11
869.3195900522521
 21
589.8468410884301
 31
0.0
  0
LINE
  5
47B
102
{ACAD_REACTORS
330
5B3
102
}
330
1F
100
AcDbEntity
  8
実線
100
AcDbLine
 10
782.019590052251
 20
586.1468410884302
 30
0.0
 11
870.019590052251
 21
586.1468410884302
 31
0.0
  0
LINE
  5
47C
102
{ACAD_REACTORS
330
5B3
102
}
330
1F
100
AcDbEntity
  8
実線
100
AcDbLine
 10
902.719590052251
 20
362.1468410884303
 30
0.0
 11
882.522755644306
 21
362.1468410884303
 31
0.0
  0
LINE
  5
47D
102
{ACAD_REACTORS
330
5B3
102
}
330
1F
100
AcDbEntity
  8
実線
100
AcDbLine
 10
873.2169567892292
 20
311.3468410884302
 30
0.0
 11
902.719590052251
 21
311.3468410884302
 31
0.0
  0
LINE
  5
47E
102
{ACAD_REACTORS
330
5B3
102
}
330
1F
100
AcDbEntity
  8
実線
100
AcDbLine
 10
902.719590052251
 20
311.3468410884302
 30
0.0
 11
905.1195900522509
 21
304.7468410884302
 31
0.0
  0
LINE
  5
47F
102
{ACAD_REACTORS
330
5B3
102
}
330
1F
100
AcDbEntity
  8
実線
100
AcDbLine
 10
905.1195900522509
 20
368.7468410884302
 30
0.0
 11
902.719590052251
 21
362.1468410884303
 31
0.0
  0
LINE
  5
480
102
{ACAD_REACTORS
330
5B3
102
}
330
1F
100
AcDbEntity
  8
実線
100
AcDbLine
 10
902.719590052251
 20
311.3468410884302
 30
0.0
 11
902.719590052251
 21
362.1468410884303
 31
0.0
  0
LINE
  5
481
102
{ACAD_REACTORS
330
5B3
102
}
330
1F
100
AcDbEntity
  8
実線
100
AcDbLine
 10
908.0195900522509
 20
368.7468410884302
 30
0.0
 11
905.1195900522509
 21
368.7468410884302
 31
0.0
  0
LINE
  5
482
102
{ACAD_REACTORS
330
5B3
102
}
330
1F
100
AcDbEntity
  8
実線
100
AcDbLine
 10
905.1195900522509
 20
304.7468410884302
 30
0.0
 11
908.0195900522509
 21
304.7468410884302
 31
0.0
  0
LINE
  5
483
102
{ACAD_REACTORS
330
5B3
102
}
330
1F
100
AcDbEntity
  8
実線
100
AcDbLine
 10
908.0195900522509
 20
368.7468410884302
 30
0.0
 11
908.0195900522509
 21
304.7468410884302
 31
0.0
  0
LINE
  5
484
102
{ACAD_REACTORS
330
5B3
102
}
330
1F
100
AcDbEntity
  8
実線
100
AcDbLine
 10
905.1195900522509
 20
368.7468410884302
 30
0.0
 11
905.1195900522509
 21
304.7468410884302
 31
0.0
  0
LINE
  5
485
102
{ACAD_REACTORS
330
5B3
102
}
330
1F
100
AcDbEntity
  8
実線
100
AcDbLine
 10
749.3195900522509
 20
311.3468410884302
 30
0.0
 11
778.8222233152731
 21
311.3468410884302
 31
0.0
  0
LINE
  5
486
102
{ACAD_REACTORS
330
5B3
102
}
330
1F
100
AcDbEntity
  8
実線
100
AcDbLine
 10
769.5164244601961
 20
362.1468410884303
 30
0.0
 11
749.3195900522509
 21
362.1468410884303
 31
0.0
  0
LINE
  5
487
102
{ACAD_REACTORS
330
5B3
102
}
330
1F
100
AcDbEntity
  8
実線
100
AcDbLine
 10
744.0195900522521
 20
368.7468410884302
 30
0.0
 11
744.0195900522521
 21
304.7468410884302
 31
0.0
  0
LINE
  5
488
102
{ACAD_REACTORS
330
5B3
102
}
330
1F
100
AcDbEntity
  8
実線
100
AcDbLine
 10
744.0195900522521
 20
304.7468410884302
 30
0.0
 11
746.9195900522509
 21
304.7468410884302
 31
0.0
  0
LINE
  5
489
102
{ACAD_REACTORS
330
5B3
102
}
330
1F
100
AcDbEntity
  8
実線
100
AcDbLine
 10
746.9195900522509
 20
368.7468410884302
 30
0.0
 11
744.0195900522521
 21
368.7468410884302
 31
0.0
  0
LINE
  5
48A
102
{ACAD_REACTORS
330
5B3
102
}
330
1F
100
AcDbEntity
  8
実線
100
AcDbLine
 10
746.9195900522509
 20
368.7468410884302
 30
0.0
 11
746.9195900522509
 21
304.7468410884302
 31
0.0
  0
LINE
  5
48B
102
{ACAD_REACTORS
330
5B3
102
}
330
1F
100
AcDbEntity
  8
実線
100
AcDbLine
 10
749.3195900522509
 20
362.1468410884303
 30
0.0
 11
749.3195900522509
 21
311.3468410884302
 31
0.0
  0
LINE
  5
48C
102
{ACAD_REACTORS
330
5B3
102
}
330
1F
100
AcDbEntity
  8
実線
100
AcDbLine
 10
749.3195900522509
 20
362.1468410884303
 30
0.0
 11
746.9195900522509
 21
368.7468410884302
 31
0.0
  0
LINE
  5
48D
102
{ACAD_REACTORS
330
5B3
102
}
330
1F
100
AcDbEntity
  8
実線
100
AcDbLine
 10
746.9195900522509
 20
304.7468410884302
 30
0.0
 11
749.3195900522509
 21
311.3468410884302
 31
0.0
  0
LINE
  5
48E
102
{ACAD_REACTORS
330
5B3
102
}
330
1F
100
AcDbEntity
  8
実線
100
AcDbLine
 10
769.5164244601961
 20
371.7468410884302
 30
0.0
 11
882.522755644306
 21
371.7468410884302
 31
0.0
  0
LINE
  5
48F
102
{ACAD_REACTORS
330
5B3
102
}
330
1F
100
AcDbEntity
  8
実線
100
AcDbLine
 10
769.5164244601961
 20
385.2468410884302
 30
0.0
 11
882.522755644306
 21
385.2468410884302
 31
0.0
  0
LINE
  5
490
102
{ACAD_REACTORS
330
5B3
102
}
330
1F
100
AcDbEntity
  8
実線
100
AcDbLine
 10
882.522755644306
 20
371.7468410884302
 30
0.0
 11
882.522755644306
 21
385.2468410884302
 31
0.0
  0
LINE
  5
491
102
{ACAD_REACTORS
330
5B3
102
}
330
1F
100
AcDbEntity
  8
実線
100
AcDbLine
 10
769.5164244601961
 20
385.2468410884302
 30
0.0
 11
769.5164244601961
 21
371.7468410884302
 31
0.0
  0
LINE
  5
492
102
{ACAD_REACTORS
330
5B3
102
}
330
1F
100
AcDbEntity
  8
実線
100
AcDbLine
 10
803.641346765108
 20
385.2468410884302
 30
0.0
 11
803.641346765108
 21
371.7468410884302
 31
0.0
  0
LINE
  5
493
102
{ACAD_REACTORS
330
5B3
102
}
330
1F
100
AcDbEntity
  8
実線
100
AcDbLine
 10
848.3978333393944
 20
385.2468410884302
 30
0.0
 11
848.3978333393944
 21
371.7468410884302
 31
0.0
  0
LINE
  5
494
102
{ACAD_REACTORS
330
5B3
102
}
330
1F
100
AcDbEntity
  8
実線
100
AcDbLine
 10
763.5195900522521
 20
563.1468410884301
 30
0.0
 11
888.5195900522521
 21
563.1468410884301
 31
0.0
  0
LINE
  5
495
102
{ACAD_REACTORS
330
5B3
102
}
330
1F
100
AcDbEntity
  8
実線
100
AcDbLine
 10
888.5195900522521
 20
471.1468410884302
 30
0.0
 11
888.5195900522521
 21
563.1468410884301
 31
0.0
  0
LINE
  5
496
102
{ACAD_REACTORS
330
5B3
102
}
330
1F
100
AcDbEntity
  8
実線
100
AcDbLine
 10
763.5195900522521
 20
563.1468410884301
 30
0.0
 11
763.5195900522521
 21
471.1468410884302
 31
0.0
  0
LINE
  5
497
102
{ACAD_REACTORS
330
5B3
102
}
330
1F
100
AcDbEntity
  8
実線
100
AcDbLine
 10
888.5195900522521
 20
471.1468410884302
 30
0.0
 11
763.5195900522521
 21
471.1468410884302
 31
0.0
  0
LINE
  5
498
102
{ACAD_REACTORS
330
5B3
102
}
330
1F
100
AcDbEntity
  8
実線
100
AcDbLine
 10
834.0195900522521
 20
385.2468410884302
 30
0.0
 11
834.0195900522521
 21
417.7468410884302
 31
0.0
  0
LINE
  5
499
102
{ACAD_REACTORS
330
5B3
102
}
330
1F
100
AcDbEntity
  8
実線
100
AcDbLine
 10
818.0195900522521
 20
417.7468410884304
 30
0.0
 11
818.0195900522521
 21
385.2468410884302
 31
0.0
  0
LINE
  5
49A
102
{ACAD_REACTORS
330
5B3
102
}
330
1F
100
AcDbEntity
  8
実線
100
AcDbLine
 10
780.019590052251
 20
579.1468410884302
 30
0.0
 11
872.019590052251
 21
579.1468410884302
 31
0.0
  0
LINE
  5
49B
102
{ACAD_REACTORS
330
5B3
102
}
330
1F
100
AcDbEntity
  8
実線
100
AcDbLine
 10
872.019590052251
 20
567.6468410884301
 30
0.0
 11
872.019590052251
 21
579.1468410884302
 31
0.0
  0
LINE
  5
49C
102
{ACAD_REACTORS
330
5B3
102
}
330
1F
100
AcDbEntity
  8
実線
100
AcDbLine
 10
780.019590052251
 20
579.1468410884302
 30
0.0
 11
780.019590052251
 21
567.6468410884301
 31
0.0
  0
CIRCLE
  5
49D
102
{ACAD_REACTORS
330
5B3
102
}
330
1F
100
AcDbEntity
  8
実線
100
AcDbCircle
 10
826.0195900522521
 20
286.7468410884301
 30
0.0
 40
32.0
  0
LINE
  5
49E
102
{ACAD_REACTORS
330
5B3
102
}
330
1F
100
AcDbEntity
  8
実線
100
AcDbLine
 10
768.719590052251
 20
471.1468410884302
 30
0.0
 11
768.719590052251
 21
431.2468410884303
 31
0.0
  0
ARC
  5
49F
102
{ACAD_REACTORS
330
5B3
102
}
330
1F
100
AcDbEntity
  8
実線
100
AcDbCircle
 10
828.719590052251
 20
431.2468410884303
 30
0.0
 40
60.00000000000005
100
AcDbArc
 50
180.0
 51
230.0554948101847
  0
ARC
  5
4A0
102
{ACAD_REACTORS
330
5B3
102
}
330
1F
100
AcDbEntity
  8
実線
100
AcDbCircle
 10
830.7195900522511
 20
431.2468410884303
 30
0.0
 40
47.99999999999999
100
AcDbArc
 50
196.3348227806868
 51
253.4021578641356
  0
ARC
  5
4A1
102
{ACAD_REACTORS
330
5B3
102
}
330
1F
100
AcDbEntity
  8
実線
100
AcDbCircle
 10
821.319590052251
 20
431.2468410884303
 30
0.0
 40
47.99999999999999
100
AcDbArc
 50
286.5978421358644
 51
343.6651772193132
  0
ARC
  5
4A2
102
{ACAD_REACTORS
330
5B3
102
}
330
1F
100
AcDbEntity
  8
実線
100
AcDbCircle
 10
823.319590052251
 20
431.2468410884303
 30
0.0
 40
60.00000000000005
100
AcDbArc
 50
309.9445051898152
 51
0.0
  0
LINE
  5
4A3
102
{ACAD_REACTORS
330
5B3
102
}
330
1F
100
AcDbEntity
  8
実線
100
AcDbLine
 10
883.3195900522509
 20
471.1468410884302
 30
0.0
 11
883.3195900522509
 21
431.2468410884303
 31
0.0
  0
LINE
  5
4A4
102
{ACAD_REACTORS
330
5B3
102
}
330
1F
100
AcDbEntity
  8
実線
100
AcDbLine
 10
777.8765739439932
 20
417.7468410884302
 30
0.0
 11
777.8765739439932
 21
471.1468410884302
 31
0.0
  0
LINE
  5
4A5
102
{ACAD_REACTORS
330
5B3
102
}
330
1F
100
AcDbEntity
  8
実線
100
AcDbLine
 10
777.8765739439932
 20
417.7468410884302
 30
0.0
 11
874.1626061605099
 21
417.7468410884302
 31
0.0
  0
LINE
  5
4A6
102
{ACAD_REACTORS
330
5B3
102
}
330
1F
100
AcDbEntity
  8
実線
100
AcDbLine
 10
874.1626061605099
 20
417.7468410884302
 30
0.0
 11
874.1626061605099
 21
471.1468410884302
 31
0.0
  0
LINE
  5
4A7
102
{ACAD_REACTORS
330
5B3
102
}
330
1F
100
AcDbEntity
  8
実線
100
AcDbLine
 10
868.41959005225
 20
304.3210642439321
 30
0.0
 11
872.3068707165859
 21
309.8726763763492
 31
0.0
  0
LINE
  5
4A8
102
{ACAD_REACTORS
330
5B3
102
}
330
1F
100
AcDbEntity
  8
実線
100
AcDbLine
 10
779.7323093879172
 20
309.8726763763492
 30
0.0
 11
783.6195900522509
 21
304.3210642439321
 31
0.0
  0
ARC
  5
4A9
102
{ACAD_REACTORS
330
5B3
102
}
330
1F
100
AcDbEntity
  8
実線
100
AcDbCircle
 10
860.0195900522511
 20
318.4763229216149
 30
0.0
 40
15.0
100
AcDbArc
 50
325.000000000001
 51
331.6211940769613
  0
ARC
  5
4AA
102
{ACAD_REACTORS
330
5B3
102
}
330
1F
100
AcDbEntity
  8
実線
100
AcDbCircle
 10
792.0195900522521
 20
318.4763229216149
 30
0.0
 40
15.0
100
AcDbArc
 50
208.3788059230387
 51
214.999999999999
  0
LINE
  5
4AB
102
{ACAD_REACTORS
330
5B3
102
}
330
1F
100
AcDbEntity
  8
実線
100
AcDbLine
 10
882.522755644306
 20
356.7468410884302
 30
0.0
 11
848.3978333393944
 21
356.7468410884302
 31
0.0
  0
LINE
  5
4AC
102
{ACAD_REACTORS
330
5B3
102
}
330
1F
100
AcDbEntity
  8
実線
100
AcDbLine
 10
882.522755644306
 20
356.7468410884302
 30
0.0
 11
882.522755644306
 21
371.7468410884302
 31
0.0
  0
LINE
  5
4AD
102
{ACAD_REACTORS
330
5B3
102
}
330
1F
100
AcDbEntity
  8
実線
100
AcDbLine
 10
769.5164244601961
 20
371.7468410884302
 30
0.0
 11
769.5164244601961
 21
356.7468410884302
 31
0.0
  0
LINE
  5
4AE
102
{ACAD_REACTORS
330
5B3
102
}
330
1F
100
AcDbEntity
  8
実線
100
AcDbLine
 10
769.5164244601961
 20
356.7468410884302
 30
0.0
 11
803.641346765108
 21
356.7468410884302
 31
0.0
  0
LINE
  5
4AF
102
{ACAD_REACTORS
330
5B3
102
}
330
1F
100
AcDbEntity
  8
実線
100
AcDbLine
 10
803.641346765108
 20
371.7468410884302
 30
0.0
 11
803.641346765108
 21
356.7468410884302
 31
0.0
  0
LINE
  5
4B0
102
{ACAD_REACTORS
330
5B3
102
}
330
1F
100
AcDbEntity
  8
実線
100
AcDbLine
 10
848.3978333393944
 20
371.7468410884302
 30
0.0
 11
848.3978333393944
 21
356.7468410884302
 31
0.0
  0
LINE
  5
4B1
102
{ACAD_REACTORS
330
5B3
102
}
330
1F
100
AcDbEntity
  8
実線
100
AcDbLine
 10
766.519590052251
 20
567.6468410884301
 30
0.0
 11
885.5195900521582
 21
567.6468410884301
 31
0.0
  0
ARC
  5
4B2
102
{ACAD_REACTORS
330
5B3
102
}
330
1F
100
AcDbEntity
  8
実線
100
AcDbCircle
 10
885.519590052251
 20
564.6468410884302
 30
0.0
 40
3.0
100
AcDbArc
 50
0.0
 51
90.0
  0
ARC
  5
4B3
102
{ACAD_REACTORS
330
5B3
102
}
330
1F
100
AcDbEntity
  8
実線
100
AcDbCircle
 10
766.519590052251
 20
564.6468410884302
 30
0.0
 40
3.0
100
AcDbArc
 50
90.0
 51
180.0
  0
LINE
  5
4B4
102
{ACAD_REACTORS
330
5B3
102
}
330
1F
100
AcDbEntity
  8
実線
100
AcDbLine
 10
888.5195900522521
 20
563.1468410884301
 30
0.0
 11
888.5195900522521
 21
564.6468410884302
 31
0.0
  0
LINE
  5
4B5
102
{ACAD_REACTORS
330
5B3
102
}
330
1F
100
AcDbEntity
  8
実線
100
AcDbLine
 10
763.5195900522521
 20
564.6468410884302
 30
0.0
 11
763.5195900522521
 21
563.1468410884301
 31
0.0
  0
LINE
  5
4B6
102
{ACAD_REACTORS
330
5B3
102
}
330
1F
100
AcDbEntity
  8
実線
100
AcDbLine
 10
849.4195900522509
 20
260.3468410884302
 30
0.0
 11
868.41959005225
 21
260.3468410884302
 31
0.0
  0
LINE
  5
4B7
102
{ACAD_REACTORS
330
5B3
102
}
330
1F
100
AcDbEntity
  8
実線
100
AcDbLine
 10
849.4195900522509
 20
260.3468410884302
 30
0.0
 11
849.4195900522509
 21
264.919335504878
 31
0.0
  0
LINE
  5
4B8
102
{ACAD_REACTORS
330
5B3
102
}
330
1F
100
AcDbEntity
  8
実線
100
AcDbLine
 10
868.41959005225
 20
310.7887637186667
 30
0.0
 11
868.41959005225
 21
260.3468410884302
 31
0.0
  0
LINE
  5
4B9
102
{ACAD_REACTORS
330
5B3
102
}
330
1F
100
AcDbEntity
  8
実線
100
AcDbLine
 10
783.6195900522509
 20
260.3468410884302
 30
0.0
 11
802.6195900522509
 21
260.3468410884302
 31
0.0
  0
LINE
  5
4BA
102
{ACAD_REACTORS
330
5B3
102
}
330
1F
100
AcDbEntity
  8
実線
100
AcDbLine
 10
783.6195900522509
 20
260.3468410884302
 30
0.0
 11
783.6195900522509
 21
310.7887637186667
 31
0.0
  0
LINE
  5
4BB
102
{ACAD_REACTORS
330
5B3
102
}
330
1F
100
AcDbEntity
  8
実線
100
AcDbLine
 10
802.6195900522509
 20
264.919335504878
 30
0.0
 11
802.6195900522509
 21
260.3468410884302
 31
0.0
  0
LINE
  5
4BC
102
{ACAD_REACTORS
330
5B4
102
}
330
1F
100
AcDbEntity
  8
実線
100
AcDbLine
 10
601.5195900522522
 20
579.1468410884302
 30
0.0
 11
601.5195900522522
 21
586.1468410884302
 31
0.0
  0
LINE
  5
4BD
102
{ACAD_REACTORS
330
5B4
102
}
330
1F
100
AcDbEntity
  8
実線
100
AcDbLine
 10
570.519590052253
 20
586.1468410884302
 30
0.0
 11
570.519590052253
 21
579.1468410884302
 31
0.0
  0
LINE
  5
4BE
102
{ACAD_REACTORS
330
5B4
102
}
330
1F
100
AcDbEntity
  8
実線
100
AcDbLine
 10
629.3195900522522
 20
625.8468410884301
 30
0.0
 11
542.7195900522528
 21
625.8468410884301
 31
0.0
  0
LINE
  5
4BF
102
{ACAD_REACTORS
330
5B4
102
}
330
1F
100
AcDbEntity
  8
実線
100
AcDbLine
 10
629.3195900522522
 20
589.8468410884301
 30
0.0
 11
629.3195900522522
 21
625.8468410884301
 31
0.0
  0
LINE
  5
4C0
102
{ACAD_REACTORS
330
5B4
102
}
330
1F
100
AcDbEntity
  8
実線
100
AcDbLine
 10
542.7195900522528
 20
625.8468410884301
 30
0.0
 11
542.7195900522528
 21
589.8468410884301
 31
0.0
  0
LINE
  5
4C1
102
{ACAD_REACTORS
330
5B4
102
}
330
1F
100
AcDbEntity
  8
実線
100
AcDbLine
 10
628.5195900522534
 20
625.8468410884301
 30
0.0
 11
628.5195900522534
 21
702.84684108843
 31
0.0
  0
LINE
  5
4C2
102
{ACAD_REACTORS
330
5B4
102
}
330
1F
100
AcDbEntity
  8
実線
100
AcDbLine
 10
543.5195900522529
 20
702.84684108843
 30
0.0
 11
543.5195900522529
 21
625.8468410884301
 31
0.0
  0
LINE
  5
4C3
102
{ACAD_REACTORS
330
5B4
102
}
330
1F
100
AcDbEntity
  8
実線
100
AcDbLine
 10
543.5195900522529
 20
702.84684108843
 30
0.0
 11
628.5195900522534
 21
702.84684108843
 31
0.0
  0
LINE
  5
4C4
102
{ACAD_REACTORS
330
5B4
102
}
330
1F
100
AcDbEntity
  8
実線
100
AcDbLine
 10
602.5195900522533
 20
712.0468410884305
 30
0.0
 11
569.5195900522529
 21
712.0468410884305
 31
0.0
  0
LINE
  5
4C5
102
{ACAD_REACTORS
330
5B4
102
}
330
1F
100
AcDbEntity
  8
実線
100
AcDbLine
 10
569.5195900522529
 20
712.0468410884305
 30
0.0
 11
543.5195900522529
 21
702.84684108843
 31
0.0
  0
LINE
  5
4C6
102
{ACAD_REACTORS
330
5B4
102
}
330
1F
100
AcDbEntity
  8
実線
100
AcDbLine
 10
628.5195900522534
 20
702.84684108843
 30
0.0
 11
602.5195900522533
 21
712.0468410884305
 31
0.0
  0
LINE
  5
4C7
102
{ACAD_REACTORS
330
5B4
102
}
330
1F
100
AcDbEntity
  8
実線
100
AcDbLine
 10
542.0195900522529
 20
586.1468410884302
 30
0.0
 11
630.0195900522534
 21
586.1468410884302
 31
0.0
  0
LINE
  5
4C8
102
{ACAD_REACTORS
330
5B4
102
}
330
1F
100
AcDbEntity
  8
実線
100
AcDbLine
 10
629.3195900522522
 20
589.8468410884301
 30
0.0
 11
542.7195900522528
 21
589.8468410884301
 31
0.0
  0
LINE
  5
4C9
102
{ACAD_REACTORS
330
5B4
102
}
330
1F
100
AcDbEntity
  8
実線
100
AcDbLine
 10
542.7195900522528
 20
589.8468410884301
 30
0.0
 11
542.0195900522529
 21
586.1468410884302
 31
0.0
  0
LINE
  5
4CA
102
{ACAD_REACTORS
330
5B4
102
}
330
1F
100
AcDbEntity
  8
実線
100
AcDbLine
 10
630.0195900522534
 20
586.1468410884302
 30
0.0
 11
629.3195900522522
 21
589.8468410884301
 31
0.0
  0
CIRCLE
  5
4CB
102
{ACAD_REACTORS
330
5B4
102
}
330
1F
100
AcDbEntity
  8
実線
100
AcDbCircle
 10
586.0195900522523
 20
336.7468410884301
 30
0.0
 40
32.0
  0
LINE
  5
4CC
102
{ACAD_REACTORS
330
5B4
102
}
330
1F
100
AcDbEntity
  8
実線
100
AcDbLine
 10
642.5227556443084
 20
385.2468410884302
 30
0.0
 11
529.5164244601969
 21
385.2468410884302
 31
0.0
  0
LINE
  5
4CD
102
{ACAD_REACTORS
330
5B4
102
}
330
1F
100
AcDbEntity
  8
実線
100
AcDbLine
 10
529.5164244601969
 20
385.2468410884302
 30
0.0
 11
529.5164244601969
 21
371.7468410884302
 31
0.0
  0
LINE
  5
4CE
102
{ACAD_REACTORS
330
5B4
102
}
330
1F
100
AcDbEntity
  8
実線
100
AcDbLine
 10
642.5227556443084
 20
371.7468410884302
 30
0.0
 11
642.5227556443084
 21
385.2468410884302
 31
0.0
  0
LINE
  5
4CF
102
{ACAD_REACTORS
330
5B4
102
}
330
1F
100
AcDbEntity
  8
実線
100
AcDbLine
 10
608.3978333393962
 20
385.2468410884302
 30
0.0
 11
608.3978333393962
 21
371.7468410884302
 31
0.0
  0
LINE
  5
4D0
102
{ACAD_REACTORS
330
5B4
102
}
330
1F
100
AcDbEntity
  8
実線
100
AcDbLine
 10
563.64134676511
 20
385.2468410884302
 30
0.0
 11
563.64134676511
 21
371.7468410884302
 31
0.0
  0
LINE
  5
4D1
102
{ACAD_REACTORS
330
5B4
102
}
330
1F
100
AcDbEntity
  8
実線
100
AcDbLine
 10
648.5195900522523
 20
563.1468410884301
 30
0.0
 11
523.5195900522529
 21
563.1468410884301
 31
0.0
  0
LINE
  5
4D2
102
{ACAD_REACTORS
330
5B4
102
}
330
1F
100
AcDbEntity
  8
実線
100
AcDbLine
 10
523.5195900522529
 20
471.1468410884302
 30
0.0
 11
648.5195900522523
 21
471.1468410884302
 31
0.0
  0
LINE
  5
4D3
102
{ACAD_REACTORS
330
5B4
102
}
330
1F
100
AcDbEntity
  8
実線
100
AcDbLine
 10
648.5195900522523
 20
471.1468410884302
 30
0.0
 11
648.5195900522523
 21
563.1468410884301
 31
0.0
  0
LINE
  5
4D4
102
{ACAD_REACTORS
330
5B4
102
}
330
1F
100
AcDbEntity
  8
実線
100
AcDbLine
 10
523.5195900522529
 20
563.1468410884301
 30
0.0
 11
523.5195900522529
 21
471.1468410884302
 31
0.0
  0
LINE
  5
4D5
102
{ACAD_REACTORS
330
5B4
102
}
330
1F
100
AcDbEntity
  8
実線
100
AcDbLine
 10
632.0195900522523
 20
579.1468410884302
 30
0.0
 11
540.0195900522529
 21
579.1468410884302
 31
0.0
  0
LINE
  5
4D6
102
{ACAD_REACTORS
330
5B4
102
}
330
1F
100
AcDbEntity
  8
実線
100
AcDbLine
 10
632.0195900522523
 20
567.6468410884301
 30
0.0
 11
632.0195900522523
 21
579.1468410884302
 31
0.0
  0
LINE
  5
4D7
102
{ACAD_REACTORS
330
5B4
102
}
330
1F
100
AcDbEntity
  8
実線
100
AcDbLine
 10
540.0195900522529
 20
579.1468410884302
 30
0.0
 11
540.0195900522529
 21
567.6468410884301
 31
0.0
  0
LINE
  5
4D8
102
{ACAD_REACTORS
330
5B4
102
}
330
1F
100
AcDbEntity
  8
実線
100
AcDbLine
 10
611.0195900522523
 20
261.3468410884303
 30
0.0
 11
662.7195900522535
 21
261.3468410884303
 31
0.0
  0
LINE
  5
4D9
102
{ACAD_REACTORS
330
5B4
102
}
330
1F
100
AcDbEntity
  8
実線
100
AcDbLine
 10
509.3195900522529
 20
261.3468410884303
 30
0.0
 11
561.0195900522529
 21
261.3468410884303
 31
0.0
  0
LINE
  5
4DA
102
{ACAD_REACTORS
330
5B4
102
}
330
1F
100
AcDbEntity
  8
実線
100
AcDbLine
 10
538.4204114107546
 20
312.1468410884303
 30
0.0
 11
509.3195900522529
 21
312.1468410884303
 31
0.0
  0
LINE
  5
4DB
102
{ACAD_REACTORS
330
5B4
102
}
330
1F
100
AcDbEntity
  8
実線
100
AcDbLine
 10
662.7195900522535
 20
312.1468410884303
 30
0.0
 11
633.6187686937513
 21
312.1468410884303
 31
0.0
  0
LINE
  5
4DC
102
{ACAD_REACTORS
330
5B4
102
}
330
1F
100
AcDbEntity
  8
実線
100
AcDbLine
 10
509.3195900522529
 20
312.1468410884303
 30
0.0
 11
509.3195900522529
 21
261.3468410884303
 31
0.0
  0
LINE
  5
4DD
102
{ACAD_REACTORS
330
5B4
102
}
330
1F
100
AcDbEntity
  8
実線
100
AcDbLine
 10
509.3195900522529
 20
312.1468410884303
 30
0.0
 11
506.9195900522529
 21
318.7468410884302
 31
0.0
  0
LINE
  5
4DE
102
{ACAD_REACTORS
330
5B4
102
}
330
1F
100
AcDbEntity
  8
実線
100
AcDbLine
 10
506.9195900522529
 20
254.7468410884302
 30
0.0
 11
509.3195900522529
 21
261.3468410884303
 31
0.0
  0
LINE
  5
4DF
102
{ACAD_REACTORS
330
5B4
102
}
330
1F
100
AcDbEntity
  8
実線
100
AcDbLine
 10
662.7195900522535
 20
261.3468410884303
 30
0.0
 11
665.1195900522524
 21
254.7468410884302
 31
0.0
  0
LINE
  5
4E0
102
{ACAD_REACTORS
330
5B4
102
}
330
1F
100
AcDbEntity
  8
実線
100
AcDbLine
 10
665.1195900522524
 20
318.7468410884302
 30
0.0
 11
662.7195900522535
 21
312.1468410884303
 31
0.0
  0
LINE
  5
4E1
102
{ACAD_REACTORS
330
5B4
102
}
330
1F
100
AcDbEntity
  8
実線
100
AcDbLine
 10
662.7195900522535
 20
261.3468410884303
 30
0.0
 11
662.7195900522535
 21
312.1468410884303
 31
0.0
  0
LINE
  5
4E2
102
{ACAD_REACTORS
330
5B4
102
}
330
1F
100
AcDbEntity
  8
実線
100
AcDbLine
 10
668.0195900522522
 20
318.7468410884302
 30
0.0
 11
665.1195900522524
 21
318.7468410884302
 31
0.0
  0
LINE
  5
4E3
102
{ACAD_REACTORS
330
5B4
102
}
330
1F
100
AcDbEntity
  8
実線
100
AcDbLine
 10
665.1195900522524
 20
254.7468410884302
 30
0.0
 11
668.0195900522522
 21
254.7468410884302
 31
0.0
  0
LINE
  5
4E4
102
{ACAD_REACTORS
330
5B4
102
}
330
1F
100
AcDbEntity
  8
実線
100
AcDbLine
 10
668.0195900522522
 20
254.7468410884302
 30
0.0
 11
668.0195900522522
 21
318.7468410884302
 31
0.0
  0
LINE
  5
4E5
102
{ACAD_REACTORS
330
5B4
102
}
330
1F
100
AcDbEntity
  8
実線
100
AcDbLine
 10
665.1195900522524
 20
254.7468410884302
 30
0.0
 11
665.1195900522524
 21
318.7468410884302
 31
0.0
  0
LINE
  5
4E6
102
{ACAD_REACTORS
330
5B4
102
}
330
1F
100
AcDbEntity
  8
実線
100
AcDbLine
 10
504.019590052253
 20
318.7468410884302
 30
0.0
 11
504.019590052253
 21
254.7468410884302
 31
0.0
  0
LINE
  5
4E7
102
{ACAD_REACTORS
330
5B4
102
}
330
1F
100
AcDbEntity
  8
実線
100
AcDbLine
 10
506.9195900522529
 20
318.7468410884302
 30
0.0
 11
506.9195900522529
 21
254.7468410884302
 31
0.0
  0
LINE
  5
4E8
102
{ACAD_REACTORS
330
5B4
102
}
330
1F
100
AcDbEntity
  8
実線
100
AcDbLine
 10
504.019590052253
 20
254.7468410884302
 30
0.0
 11
506.9195900522529
 21
254.7468410884302
 31
0.0
  0
LINE
  5
4E9
102
{ACAD_REACTORS
330
5B4
102
}
330
1F
100
AcDbEntity
  8
実線
100
AcDbLine
 10
506.9195900522529
 20
318.7468410884302
 30
0.0
 11
504.019590052253
 21
318.7468410884302
 31
0.0
  0
LINE
  5
4EA
102
{ACAD_REACTORS
330
5B4
102
}
330
1F
100
AcDbEntity
  8
実線
100
AcDbLine
 10
536.0195900522529
 20
471.1468410884302
 30
0.0
 11
536.0195900522529
 21
417.7468410884302
 31
0.0
  0
LINE
  5
4EB
102
{ACAD_REACTORS
330
5B4
102
}
330
1F
100
AcDbEntity
  8
実線
100
AcDbLine
 10
572.5195900522529
 20
417.7468410884302
 30
0.0
 11
536.0195900522529
 21
417.7468410884302
 31
0.0
  0
LINE
  5
4EC
102
{ACAD_REACTORS
330
5B4
102
}
330
1F
100
AcDbEntity
  8
実線
100
AcDbLine
 10
599.5195900522523
 20
417.7468410884302
 30
0.0
 11
636.0195900522523
 21
417.7468410884302
 31
0.0
  0
LINE
  5
4ED
102
{ACAD_REACTORS
330
5B4
102
}
330
1F
100
AcDbEntity
  8
実線
100
AcDbLine
 10
636.0195900522523
 20
417.7468410884302
 30
0.0
 11
636.0195900522523
 21
471.1468410884302
 31
0.0
  0
LINE
  5
4EE
102
{ACAD_REACTORS
330
5B4
102
}
330
1F
100
AcDbEntity
  8
実線
100
AcDbLine
 10
572.5195900522529
 20
385.2468410884302
 30
0.0
 11
572.5195900522529
 21
471.1468410884302
 31
0.0
  0
LINE
  5
4EF
102
{ACAD_REACTORS
330
5B4
102
}
330
1F
100
AcDbEntity
  8
実線
100
AcDbLine
 10
599.5195900522523
 20
385.2468410884302
 30
0.0
 11
599.5195900522523
 21
471.1468410884302
 31
0.0
  0
LINE
  5
4F0
102
{ACAD_REACTORS
330
5B4
102
}
330
1F
100
AcDbEntity
  8
実線
100
AcDbLine
 10
642.5227556443084
 20
371.7468410884302
 30
0.0
 11
529.5164244601969
 21
371.7468410884302
 31
0.0
  0
LINE
  5
4F1
102
{ACAD_REACTORS
330
5B4
102
}
330
1F
100
AcDbEntity
  8
実線
100
AcDbLine
 10
537.019590052253
 20
356.7468410884302
 30
0.0
 11
537.019590052253
 21
318.4763229216149
 31
0.0
  0
LINE
  5
4F2
102
{ACAD_REACTORS
330
5B4
102
}
330
1F
100
AcDbEntity
  8
実線
100
AcDbLine
 10
635.0195900522522
 20
318.4763229216149
 30
0.0
 11
635.0195900522522
 21
356.7468410884302
 31
0.0
  0
ARC
  5
4F3
102
{ACAD_REACTORS
330
5B4
102
}
330
1F
100
AcDbEntity
  8
実線
100
AcDbCircle
 10
620.0195900522523
 20
318.4763229216149
 30
0.0
 40
15.0
100
AcDbArc
 50
335.0412627633446
 51
0.0
  0
ARC
  5
4F4
102
{ACAD_REACTORS
330
5B4
102
}
330
1F
100
AcDbEntity
  8
実線
100
AcDbCircle
 10
552.0195900522529
 20
318.4763229216149
 30
0.0
 40
15.0
100
AcDbArc
 50
180.0
 51
204.9587372366553
  0
LINE
  5
4F5
102
{ACAD_REACTORS
330
5B4
102
}
330
1F
100
AcDbEntity
  8
実線
100
AcDbLine
 10
529.5164244601969
 20
371.7468410884302
 30
0.0
 11
529.5164244601969
 21
356.7468410884302
 31
0.0
  0
LINE
  5
4F6
102
{ACAD_REACTORS
330
5B4
102
}
330
1F
100
AcDbEntity
  8
実線
100
AcDbLine
 10
529.5164244601969
 20
356.7468410884302
 30
0.0
 11
561.0395980586592
 21
356.7468410884302
 31
0.0
  0
LINE
  5
4F7
102
{ACAD_REACTORS
330
5B4
102
}
330
1F
100
AcDbEntity
  8
実線
100
AcDbLine
 10
642.5227556443084
 20
356.7468410884302
 30
0.0
 11
610.9995820458463
 21
356.7468410884302
 31
0.0
  0
LINE
  5
4F8
102
{ACAD_REACTORS
330
5B4
102
}
330
1F
100
AcDbEntity
  8
実線
100
AcDbLine
 10
642.5227556443084
 20
356.7468410884302
 30
0.0
 11
642.5227556443084
 21
371.7468410884302
 31
0.0
  0
LINE
  5
4F9
102
{ACAD_REACTORS
330
5B4
102
}
330
1F
100
AcDbEntity
  8
実線
100
AcDbLine
 10
608.3978333393962
 20
371.7468410884302
 30
0.0
 11
608.3978333393962
 21
359.6207176156269
 31
0.0
  0
LINE
  5
4FA
102
{ACAD_REACTORS
330
5B4
102
}
330
1F
100
AcDbEntity
  8
実線
100
AcDbLine
 10
563.64134676511
 20
371.7468410884302
 30
0.0
 11
563.64134676511
 21
359.6207176156269
 31
0.0
  0
LINE
  5
4FB
102
{ACAD_REACTORS
330
5B4
102
}
330
1F
100
AcDbEntity
  8
実線
100
AcDbLine
 10
648.5195900522523
 20
563.1468410884301
 30
0.0
 11
648.5195900522523
 21
564.6468410884302
 31
0.0
  0
LINE
  5
4FC
102
{ACAD_REACTORS
330
5B4
102
}
330
1F
100
AcDbEntity
  8
実線
100
AcDbLine
 10
523.5195900522529
 20
564.6468410884302
 30
0.0
 11
523.5195900522529
 21
563.1468410884301
 31
0.0
  0
LINE
  5
4FD
102
{ACAD_REACTORS
330
5B4
102
}
330
1F
100
AcDbEntity
  8
実線
100
AcDbLine
 10
645.5195900522523
 20
567.6468410884301
 30
0.0
 11
526.5195900522529
 21
567.6468410884301
 31
0.0
  0
ARC
  5
4FE
102
{ACAD_REACTORS
330
5B4
102
}
330
1F
100
AcDbEntity
  8
実線
100
AcDbCircle
 10
645.5195900522523
 20
564.6468410884302
 30
0.0
 40
3.0
100
AcDbArc
 50
0.0
 51
90.0
  0
ARC
  5
4FF
102
{ACAD_REACTORS
330
5B4
102
}
330
1F
100
AcDbEntity
  8
実線
100
AcDbCircle
 10
526.5195900522529
 20
564.6468410884302
 30
0.0
 40
3.0
100
AcDbArc
 50
90.0
 51
180.0
  0
LINE
  5
500
102
{ACAD_REACTORS
330
5B4
102
}
330
1F
100
AcDbEntity
  8
実線
100
AcDbLine
 10
561.0195900522529
 20
260.3468410884302
 30
0.0
 11
611.0195900522523
 21
260.3468410884302
 31
0.0
  0
LINE
  5
501
102
{ACAD_REACTORS
330
5B4
102
}
330
1F
100
AcDbEntity
  8
実線
100
AcDbLine
 10
611.0195900522523
 20
308.0145693424321
 30
0.0
 11
611.0195900522523
 21
260.3468410884302
 31
0.0
  0
LINE
  5
502
102
{ACAD_REACTORS
330
5B4
102
}
330
1F
100
AcDbEntity
  8
実線
100
AcDbLine
 10
561.0195900522529
 20
260.3468410884302
 30
0.0
 11
561.0195900522529
 21
308.0145693424321
 31
0.0
  0
LINE
  5
503
102
{ACAD_REACTORS
330
5B6
102
}
330
1F
100
AcDbEntity
  8
実線
100
AcDbLine
 10
121.5195900522529
 20
579.1468410884302
 30
0.0
 11
121.5195900522529
 21
586.1468410884302
 31
0.0
  0
LINE
  5
504
102
{ACAD_REACTORS
330
5B6
102
}
330
1F
100
AcDbEntity
  8
実線
100
AcDbLine
 10
90.51959005225297
 20
586.1468410884302
 30
0.0
 11
90.51959005225297
 21
579.1468410884302
 31
0.0
  0
LINE
  5
505
102
{ACAD_REACTORS
330
5B6
102
}
330
1F
100
AcDbEntity
  8
実線
100
AcDbLine
 10
149.3195900522529
 20
589.8468410884301
 30
0.0
 11
149.3195900522529
 21
625.8468410884301
 31
0.0
  0
LINE
  5
506
102
{ACAD_REACTORS
330
5B6
102
}
330
1F
100
AcDbEntity
  8
実線
100
AcDbLine
 10
62.7195900522529
 20
625.8468410884301
 30
0.0
 11
62.7195900522529
 21
589.8468410884301
 31
0.0
  0
LINE
  5
507
102
{ACAD_REACTORS
330
5B6
102
}
330
1F
100
AcDbEntity
  8
実線
100
AcDbLine
 10
149.3195900522529
 20
625.8468410884301
 30
0.0
 11
62.7195900522529
 21
625.8468410884301
 31
0.0
  0
LINE
  5
508
102
{ACAD_REACTORS
330
5B6
102
}
330
1F
100
AcDbEntity
  8
実線
100
AcDbLine
 10
148.5195900522529
 20
625.8468410884301
 30
0.0
 11
148.5195900522529
 21
702.84684108843
 31
0.0
  0
LINE
  5
509
102
{ACAD_REACTORS
330
5B6
102
}
330
1F
100
AcDbEntity
  8
実線
100
AcDbLine
 10
63.51959005225291
 20
702.84684108843
 30
0.0
 11
63.51959005225291
 21
625.8468410884301
 31
0.0
  0
LINE
  5
50A
102
{ACAD_REACTORS
330
5B6
102
}
330
1F
100
AcDbEntity
  8
実線
100
AcDbLine
 10
89.5195900522529
 20
712.0468410884305
 30
0.0
 11
63.51959005225291
 21
702.84684108843
 31
0.0
  0
LINE
  5
50B
102
{ACAD_REACTORS
330
5B6
102
}
330
1F
100
AcDbEntity
  8
実線
100
AcDbLine
 10
148.5195900522531
 20
702.84684108843
 30
0.0
 11
122.5195900522529
 21
712.0468410884305
 31
0.0
  0
LINE
  5
50C
102
{ACAD_REACTORS
330
5B6
102
}
330
1F
100
AcDbEntity
  8
実線
100
AcDbLine
 10
63.51959005225291
 20
702.84684108843
 30
0.0
 11
148.5195900522529
 21
702.84684108843
 31
0.0
  0
LINE
  5
50D
102
{ACAD_REACTORS
330
5B6
102
}
330
1F
100
AcDbEntity
  8
実線
100
AcDbLine
 10
122.5195900522528
 20
712.0468410884305
 30
0.0
 11
89.5195900522529
 21
712.0468410884305
 31
0.0
  0
LINE
  5
50E
102
{ACAD_REACTORS
330
5B6
102
}
330
1F
100
AcDbEntity
  8
実線
100
AcDbLine
 10
62.7195900522529
 20
589.8468410884301
 30
0.0
 11
62.0195900522529
 21
586.1468410884302
 31
0.0
  0
LINE
  5
50F
102
{ACAD_REACTORS
330
5B6
102
}
330
1F
100
AcDbEntity
  8
実線
100
AcDbLine
 10
150.0195900522529
 20
586.1468410884302
 30
0.0
 11
149.3195900522529
 21
589.8468410884301
 31
0.0
  0
LINE
  5
510
102
{ACAD_REACTORS
330
5B6
102
}
330
1F
100
AcDbEntity
  8
実線
100
AcDbLine
 10
62.0195900522529
 20
586.1468410884302
 30
0.0
 11
150.0195900522529
 21
586.1468410884302
 31
0.0
  0
LINE
  5
511
102
{ACAD_REACTORS
330
5B6
102
}
330
1F
100
AcDbEntity
  8
実線
100
AcDbLine
 10
149.3195900522529
 20
589.8468410884301
 30
0.0
 11
62.7195900522529
 21
589.8468410884301
 31
0.0
  0
CIRCLE
  5
512
102
{ACAD_REACTORS
330
5B6
102
}
330
1F
100
AcDbEntity
  8
実線
100
AcDbCircle
 10
106.0195900522528
 20
336.7468410884301
 30
0.0
 40
32.0
  0
LINE
  5
513
102
{ACAD_REACTORS
330
5B6
102
}
330
1F
100
AcDbEntity
  8
実線
100
AcDbLine
 10
162.5227556443087
 20
385.2468410884302
 30
0.0
 11
49.51642446019713
 21
385.2468410884302
 31
0.0
  0
LINE
  5
514
102
{ACAD_REACTORS
330
5B6
102
}
330
1F
100
AcDbEntity
  8
実線
100
AcDbLine
 10
162.5227556443087
 20
371.7468410884302
 30
0.0
 11
49.51642446019713
 21
371.7468410884302
 31
0.0
  0
LINE
  5
515
102
{ACAD_REACTORS
330
5B6
102
}
330
1F
100
AcDbEntity
  8
実線
100
AcDbLine
 10
49.51642446019713
 20
385.2468410884302
 30
0.0
 11
49.51642446019713
 21
371.7468410884302
 31
0.0
  0
LINE
  5
516
102
{ACAD_REACTORS
330
5B6
102
}
330
1F
100
AcDbEntity
  8
実線
100
AcDbLine
 10
162.5227556443087
 20
371.7468410884302
 30
0.0
 11
162.5227556443087
 21
385.2468410884302
 31
0.0
  0
LINE
  5
517
102
{ACAD_REACTORS
330
5B6
102
}
330
1F
100
AcDbEntity
  8
実線
100
AcDbLine
 10
83.64134676510991
 20
385.2468410884302
 30
0.0
 11
83.64134676510991
 21
371.7468410884302
 31
0.0
  0
LINE
  5
518
102
{ACAD_REACTORS
330
5B6
102
}
330
1F
100
AcDbEntity
  8
実線
100
AcDbLine
 10
128.397833339396
 20
385.2468410884302
 30
0.0
 11
128.397833339396
 21
371.7468410884302
 31
0.0
  0
LINE
  5
519
102
{ACAD_REACTORS
330
5B6
102
}
330
1F
100
AcDbEntity
  8
実線
100
AcDbLine
 10
168.5195900522529
 20
471.1468410884302
 30
0.0
 11
168.5195900522529
 21
563.1468410884301
 31
0.0
  0
LINE
  5
51A
102
{ACAD_REACTORS
330
5B6
102
}
330
1F
100
AcDbEntity
  8
実線
100
AcDbLine
 10
43.51959005225291
 20
563.1468410884301
 30
0.0
 11
43.51959005225291
 21
471.1468410884302
 31
0.0
  0
LINE
  5
51B
102
{ACAD_REACTORS
330
5B6
102
}
330
1F
100
AcDbEntity
  8
実線
100
AcDbLine
 10
168.5195900522529
 20
563.1468410884301
 30
0.0
 11
43.51959005225291
 21
563.1468410884301
 31
0.0
  0
LINE
  5
51C
102
{ACAD_REACTORS
330
5B6
102
}
330
1F
100
AcDbEntity
  8
実線
100
AcDbLine
 10
168.5195900522529
 20
471.1468410884302
 30
0.0
 11
43.51959005225291
 21
471.1468410884302
 31
0.0
  0
LINE
  5
51D
102
{ACAD_REACTORS
330
5B6
102
}
330
1F
100
AcDbEntity
  8
実線
100
AcDbLine
 10
152.0195900522529
 20
567.6468410884301
 30
0.0
 11
152.0195900522529
 21
579.1468410884302
 31
0.0
  0
LINE
  5
51E
102
{ACAD_REACTORS
330
5B6
102
}
330
1F
100
AcDbEntity
  8
実線
100
AcDbLine
 10
60.01959005225291
 20
579.1468410884302
 30
0.0
 11
60.01959005225291
 21
567.6468410884301
 31
0.0
  0
LINE
  5
51F
102
{ACAD_REACTORS
330
5B6
102
}
330
1F
100
AcDbEntity
  8
実線
100
AcDbLine
 10
152.0195900522529
 20
579.1468410884302
 30
0.0
 11
60.01959005225291
 21
579.1468410884302
 31
0.0
  0
LINE
  5
520
102
{ACAD_REACTORS
330
5B6
102
}
330
1F
100
AcDbEntity
  8
実線
100
AcDbLine
 10
58.42041141075458
 20
312.1468410884303
 30
0.0
 11
29.31959005225292
 21
312.1468410884303
 31
0.0
  0
LINE
  5
521
102
{ACAD_REACTORS
330
5B6
102
}
330
1F
100
AcDbEntity
  8
実線
100
AcDbLine
 10
182.7195900522529
 20
312.1468410884303
 30
0.0
 11
153.6187686937513
 21
312.1468410884303
 31
0.0
  0
LINE
  5
522
102
{ACAD_REACTORS
330
5B6
102
}
330
1F
100
AcDbEntity
  8
実線
100
AcDbLine
 10
131.0195900522529
 20
261.3468410884303
 30
0.0
 11
182.7195900522529
 21
261.3468410884303
 31
0.0
  0
LINE
  5
523
102
{ACAD_REACTORS
330
5B6
102
}
330
1F
100
AcDbEntity
  8
実線
100
AcDbLine
 10
29.31959005225292
 20
261.3468410884303
 30
0.0
 11
81.01959005225291
 21
261.3468410884303
 31
0.0
  0
LINE
  5
524
102
{ACAD_REACTORS
330
5B6
102
}
330
1F
100
AcDbEntity
  8
実線
100
AcDbLine
 10
182.7195900522529
 20
261.3468410884303
 30
0.0
 11
185.119590052253
 21
254.7468410884302
 31
0.0
  0
LINE
  5
525
102
{ACAD_REACTORS
330
5B6
102
}
330
1F
100
AcDbEntity
  8
実線
100
AcDbLine
 10
185.119590052253
 20
318.7468410884302
 30
0.0
 11
182.7195900522529
 21
312.1468410884303
 31
0.0
  0
LINE
  5
526
102
{ACAD_REACTORS
330
5B6
102
}
330
1F
100
AcDbEntity
  8
実線
100
AcDbLine
 10
182.7195900522529
 20
261.3468410884303
 30
0.0
 11
182.7195900522529
 21
312.1468410884303
 31
0.0
  0
LINE
  5
527
102
{ACAD_REACTORS
330
5B6
102
}
330
1F
100
AcDbEntity
  8
実線
100
AcDbLine
 10
188.0195900522529
 20
318.7468410884302
 30
0.0
 11
185.119590052253
 21
318.7468410884302
 31
0.0
  0
LINE
  5
528
102
{ACAD_REACTORS
330
5B6
102
}
330
1F
100
AcDbEntity
  8
実線
100
AcDbLine
 10
185.119590052253
 20
254.7468410884302
 30
0.0
 11
188.0195900522529
 21
254.7468410884302
 31
0.0
  0
LINE
  5
529
102
{ACAD_REACTORS
330
5B6
102
}
330
1F
100
AcDbEntity
  8
実線
100
AcDbLine
 10
188.0195900522529
 20
254.7468410884302
 30
0.0
 11
188.0195900522529
 21
318.7468410884302
 31
0.0
  0
LINE
  5
52A
102
{ACAD_REACTORS
330
5B6
102
}
330
1F
100
AcDbEntity
  8
実線
100
AcDbLine
 10
185.119590052253
 20
254.7468410884302
 30
0.0
 11
185.119590052253
 21
318.7468410884302
 31
0.0
  0
LINE
  5
52B
102
{ACAD_REACTORS
330
5B6
102
}
330
1F
100
AcDbEntity
  8
実線
100
AcDbLine
 10
24.01959005225291
 20
318.7468410884302
 30
0.0
 11
24.01959005225291
 21
254.7468410884302
 31
0.0
  0
LINE
  5
52C
102
{ACAD_REACTORS
330
5B6
102
}
330
1F
100
AcDbEntity
  8
実線
100
AcDbLine
 10
24.01959005225291
 20
254.7468410884302
 30
0.0
 11
26.91959005225289
 21
254.7468410884302
 31
0.0
  0
LINE
  5
52D
102
{ACAD_REACTORS
330
5B6
102
}
330
1F
100
AcDbEntity
  8
実線
100
AcDbLine
 10
26.91959005225289
 20
318.7468410884302
 30
0.0
 11
24.01959005225291
 21
318.7468410884302
 31
0.0
  0
LINE
  5
52E
102
{ACAD_REACTORS
330
5B6
102
}
330
1F
100
AcDbEntity
  8
実線
100
AcDbLine
 10
26.91959005225289
 20
318.7468410884302
 30
0.0
 11
26.91959005225289
 21
254.7468410884302
 31
0.0
  0
LINE
  5
52F
102
{ACAD_REACTORS
330
5B6
102
}
330
1F
100
AcDbEntity
  8
実線
100
AcDbLine
 10
29.31959005225292
 20
312.1468410884303
 30
0.0
 11
29.31959005225292
 21
261.3468410884303
 31
0.0
  0
LINE
  5
530
102
{ACAD_REACTORS
330
5B6
102
}
330
1F
100
AcDbEntity
  8
実線
100
AcDbLine
 10
29.31959005225292
 20
312.1468410884303
 30
0.0
 11
26.91959005225289
 21
318.7468410884302
 31
0.0
  0
LINE
  5
531
102
{ACAD_REACTORS
330
5B6
102
}
330
1F
100
AcDbEntity
  8
実線
100
AcDbLine
 10
26.91959005225289
 20
254.7468410884302
 30
0.0
 11
29.31959005225292
 21
261.3468410884303
 31
0.0
  0
LINE
  5
532
102
{ACAD_REACTORS
330
5B6
102
}
330
1F
100
AcDbEntity
  8
実線
100
AcDbLine
 10
119.5195900522529
 20
417.7468410884302
 30
0.0
 11
156.0195900522529
 21
417.7468410884302
 31
0.0
  0
LINE
  5
533
102
{ACAD_REACTORS
330
5B6
102
}
330
1F
100
AcDbEntity
  8
実線
100
AcDbLine
 10
156.0195900522529
 20
417.7468410884302
 30
0.0
 11
156.0195900522529
 21
471.1468410884302
 31
0.0
  0
LINE
  5
534
102
{ACAD_REACTORS
330
5B6
102
}
330
1F
100
AcDbEntity
  8
実線
100
AcDbLine
 10
56.01959005225291
 20
471.1468410884302
 30
0.0
 11
56.01959005225291
 21
417.7468410884302
 31
0.0
  0
LINE
  5
535
102
{ACAD_REACTORS
330
5B6
102
}
330
1F
100
AcDbEntity
  8
実線
100
AcDbLine
 10
56.01959005225291
 20
417.7468410884302
 30
0.0
 11
92.51959005225296
 21
417.7468410884302
 31
0.0
  0
LINE
  5
536
102
{ACAD_REACTORS
330
5B6
102
}
330
1F
100
AcDbEntity
  8
実線
100
AcDbLine
 10
92.51959005225296
 20
385.2468410884302
 30
0.0
 11
92.51959005225296
 21
471.1468410884302
 31
0.0
  0
LINE
  5
537
102
{ACAD_REACTORS
330
5B6
102
}
330
1F
100
AcDbEntity
  8
実線
100
AcDbLine
 10
119.5195900522529
 20
385.2468410884302
 30
0.0
 11
119.5195900522529
 21
471.1468410884302
 31
0.0
  0
ARC
  5
538
102
{ACAD_REACTORS
330
5B6
102
}
330
1F
100
AcDbEntity
  8
実線
100
AcDbCircle
 10
140.0195900522529
 20
318.4763229216149
 30
0.0
 40
15.0
100
AcDbArc
 50
335.0412627633446
 51
0.0
  0
ARC
  5
539
102
{ACAD_REACTORS
330
5B6
102
}
330
1F
100
AcDbEntity
  8
実線
100
AcDbCircle
 10
72.0195900522529
 20
318.4763229216149
 30
0.0
 40
15.0
100
AcDbArc
 50
180.0
 51
204.9587372366554
  0
LINE
  5
53A
102
{ACAD_REACTORS
330
5B6
102
}
330
1F
100
AcDbEntity
  8
実線
100
AcDbLine
 10
57.0195900522529
 20
356.7468410884302
 30
0.0
 11
57.0195900522529
 21
318.4763229216149
 31
0.0
  0
LINE
  5
53B
102
{ACAD_REACTORS
330
5B6
102
}
330
1F
100
AcDbEntity
  8
実線
100
AcDbLine
 10
155.0195900522529
 20
318.4763229216149
 30
0.0
 11
155.0195900522529
 21
356.7468410884302
 31
0.0
  0
LINE
  5
53C
102
{ACAD_REACTORS
330
5B6
102
}
330
1F
100
AcDbEntity
  8
実線
100
AcDbLine
 10
49.51642446019713
 20
371.7468410884302
 30
0.0
 11
49.51642446019713
 21
356.7468410884302
 31
0.0
  0
LINE
  5
53D
102
{ACAD_REACTORS
330
5B6
102
}
330
1F
100
AcDbEntity
  8
実線
100
AcDbLine
 10
49.51642446019713
 20
356.7468410884302
 30
0.0
 11
81.03959805865907
 21
356.7468410884302
 31
0.0
  0
LINE
  5
53E
102
{ACAD_REACTORS
330
5B6
102
}
330
1F
100
AcDbEntity
  8
実線
100
AcDbLine
 10
162.5227556443087
 20
356.7468410884302
 30
0.0
 11
130.9995820458464
 21
356.7468410884302
 31
0.0
  0
LINE
  5
53F
102
{ACAD_REACTORS
330
5B6
102
}
330
1F
100
AcDbEntity
  8
実線
100
AcDbLine
 10
162.5227556443087
 20
356.7468410884302
 30
0.0
 11
162.5227556443087
 21
371.7468410884302
 31
0.0
  0
LINE
  5
540
102
{ACAD_REACTORS
330
5B6
102
}
330
1F
100
AcDbEntity
  8
実線
100
AcDbLine
 10
83.64134676510991
 20
371.7468410884302
 30
0.0
 11
83.64134676510991
 21
359.6207176156271
 31
0.0
  0
LINE
  5
541
102
{ACAD_REACTORS
330
5B6
102
}
330
1F
100
AcDbEntity
  8
実線
100
AcDbLine
 10
128.397833339396
 20
371.7468410884302
 30
0.0
 11
128.397833339396
 21
359.6207176156266
 31
0.0
  0
LINE
  5
542
102
{ACAD_REACTORS
330
5B6
102
}
330
1F
100
AcDbEntity
  8
実線
100
AcDbLine
 10
168.5195900522529
 20
563.1468410884301
 30
0.0
 11
168.5195900522529
 21
564.6468410884302
 31
0.0
  0
LINE
  5
543
102
{ACAD_REACTORS
330
5B6
102
}
330
1F
100
AcDbEntity
  8
実線
100
AcDbLine
 10
43.51959005225291
 20
564.6468410884302
 30
0.0
 11
43.51959005225291
 21
563.1468410884301
 31
0.0
  0
LINE
  5
544
102
{ACAD_REACTORS
330
5B6
102
}
330
1F
100
AcDbEntity
  8
実線
100
AcDbLine
 10
46.51959005225291
 20
567.6468410884301
 30
0.0
 11
165.5195900522529
 21
567.6468410884301
 31
0.0
  0
ARC
  5
545
102
{ACAD_REACTORS
330
5B6
102
}
330
1F
100
AcDbEntity
  8
実線
100
AcDbCircle
 10
165.5195900522529
 20
564.6468410884302
 30
0.0
 40
3.0
100
AcDbArc
 50
0.0
 51
90.0
  0
ARC
  5
546
102
{ACAD_REACTORS
330
5B6
102
}
330
1F
100
AcDbEntity
  8
実線
100
AcDbCircle
 10
46.51959005225291
 20
564.6468410884302
 30
0.0
 40
3.0
100
AcDbArc
 50
90.0
 51
180.0
  0
LINE
  5
547
102
{ACAD_REACTORS
330
5B6
102
}
330
1F
100
AcDbEntity
  8
実線
100
AcDbLine
 10
81.01959005225291
 20
260.3468410884302
 30
0.0
 11
131.0195900522529
 21
260.3468410884302
 31
0.0
  0
LINE
  5
548
102
{ACAD_REACTORS
330
5B6
102
}
330
1F
100
AcDbEntity
  8
実線
100
AcDbLine
 10
131.0195900522529
 20
308.0145693424321
 30
0.0
 11
131.0195900522529
 21
260.3468410884302
 31
0.0
  0
LINE
  5
549
102
{ACAD_REACTORS
330
5B6
102
}
330
1F
100
AcDbEntity
  8
実線
100
AcDbLine
 10
81.01959005225291
 20
260.3468410884302
 30
0.0
 11
81.01959005225291
 21
308.0145693424321
 31
0.0
  0
LINE
  5
54A
102
{ACAD_REACTORS
330
5B5
102
}
330
1F
100
AcDbEntity
  8
実線
100
AcDbLine
 10
361.519590052252
 20
579.1468410884302
 30
0.0
 11
361.519590052252
 21
586.1468410884302
 31
0.0
  0
LINE
  5
54B
102
{ACAD_REACTORS
330
5B5
102
}
330
1F
100
AcDbEntity
  8
実線
100
AcDbLine
 10
330.5195900522523
 20
586.1468410884302
 30
0.0
 11
330.5195900522523
 21
579.1468410884302
 31
0.0
  0
LINE
  5
54C
102
{ACAD_REACTORS
330
5B5
102
}
330
1F
100
AcDbEntity
  8
実線
100
AcDbLine
 10
389.3195900522521
 20
589.8468410884301
 30
0.0
 11
302.719590052252
 21
589.8468410884301
 31
0.0
  0
LINE
  5
54D
102
{ACAD_REACTORS
330
5B5
102
}
330
1F
100
AcDbEntity
  8
実線
100
AcDbLine
 10
389.3195900522521
 20
589.8468410884301
 30
0.0
 11
389.3195900522521
 21
625.8468410884301
 31
0.0
  0
LINE
  5
54E
102
{ACAD_REACTORS
330
5B5
102
}
330
1F
100
AcDbEntity
  8
実線
100
AcDbLine
 10
302.719590052252
 20
625.8468410884301
 30
0.0
 11
302.719590052252
 21
589.8468410884301
 31
0.0
  0
LINE
  5
54F
102
{ACAD_REACTORS
330
5B5
102
}
330
1F
100
AcDbEntity
  8
実線
100
AcDbLine
 10
389.3195900522521
 20
625.8468410884301
 30
0.0
 11
302.719590052252
 21
625.8468410884301
 31
0.0
  0
LINE
  5
550
102
{ACAD_REACTORS
330
5B5
102
}
330
1F
100
AcDbEntity
  8
実線
100
AcDbLine
 10
388.5195900522523
 20
625.8468410884301
 30
0.0
 11
388.5195900522523
 21
702.84684108843
 31
0.0
  0
LINE
  5
551
102
{ACAD_REACTORS
330
5B5
102
}
330
1F
100
AcDbEntity
  8
実線
100
AcDbLine
 10
303.5195900522522
 20
702.84684108843
 30
0.0
 11
303.5195900522522
 21
625.8468410884301
 31
0.0
  0
LINE
  5
552
102
{ACAD_REACTORS
330
5B5
102
}
330
1F
100
AcDbEntity
  8
実線
100
AcDbLine
 10
388.5195900522523
 20
702.84684108843
 30
0.0
 11
303.5195900522522
 21
702.84684108843
 31
0.0
  0
LINE
  5
553
102
{ACAD_REACTORS
330
5B5
102
}
330
1F
100
AcDbEntity
  8
実線
100
AcDbLine
 10
329.5195900522523
 20
712.0468410884305
 30
0.0
 11
303.5195900522522
 21
702.84684108843
 31
0.0
  0
LINE
  5
554
102
{ACAD_REACTORS
330
5B5
102
}
330
1F
100
AcDbEntity
  8
実線
100
AcDbLine
 10
388.5195900522523
 20
702.84684108843
 30
0.0
 11
362.5195900522523
 21
712.0468410884305
 31
0.0
  0
LINE
  5
555
102
{ACAD_REACTORS
330
5B5
102
}
330
1F
100
AcDbEntity
  8
実線
100
AcDbLine
 10
362.5195900522523
 20
712.0468410884305
 30
0.0
 11
329.5195900522523
 21
712.0468410884305
 31
0.0
  0
LINE
  5
556
102
{ACAD_REACTORS
330
5B5
102
}
330
1F
100
AcDbEntity
  8
実線
100
AcDbLine
 10
390.019590052252
 20
586.1468410884302
 30
0.0
 11
302.0195900522522
 21
586.1468410884302
 31
0.0
  0
LINE
  5
557
102
{ACAD_REACTORS
330
5B5
102
}
330
1F
100
AcDbEntity
  8
実線
100
AcDbLine
 10
302.719590052252
 20
589.8468410884301
 30
0.0
 11
302.0195900522522
 21
586.1468410884302
 31
0.0
  0
LINE
  5
558
102
{ACAD_REACTORS
330
5B5
102
}
330
1F
100
AcDbEntity
  8
実線
100
AcDbLine
 10
390.019590052252
 20
586.1468410884302
 30
0.0
 11
389.3195900522521
 21
589.8468410884301
 31
0.0
  0
LINE
  5
559
102
{ACAD_REACTORS
330
5B5
102
}
330
1F
100
AcDbEntity
  8
実線
100
AcDbLine
 10
269.3195900522521
 20
311.3468410884302
 30
0.0
 11
298.8222233152744
 21
311.3468410884302
 31
0.0
  0
LINE
  5
55A
102
{ACAD_REACTORS
330
5B5
102
}
330
1F
100
AcDbEntity
  8
実線
100
AcDbLine
 10
289.5164244601964
 20
362.1468410884303
 30
0.0
 11
269.3195900522521
 21
362.1468410884303
 31
0.0
  0
LINE
  5
55B
102
{ACAD_REACTORS
330
5B5
102
}
330
1F
100
AcDbEntity
  8
実線
100
AcDbLine
 10
264.0195900522522
 20
368.7468410884302
 30
0.0
 11
264.0195900522522
 21
304.7468410884302
 31
0.0
  0
LINE
  5
55C
102
{ACAD_REACTORS
330
5B5
102
}
330
1F
100
AcDbEntity
  8
実線
100
AcDbLine
 10
264.0195900522522
 20
304.7468410884302
 30
0.0
 11
266.9195900522522
 21
304.7468410884302
 31
0.0
  0
LINE
  5
55D
102
{ACAD_REACTORS
330
5B5
102
}
330
1F
100
AcDbEntity
  8
実線
100
AcDbLine
 10
266.9195900522522
 20
368.7468410884302
 30
0.0
 11
264.0195900522522
 21
368.7468410884302
 31
0.0
  0
LINE
  5
55E
102
{ACAD_REACTORS
330
5B5
102
}
330
1F
100
AcDbEntity
  8
実線
100
AcDbLine
 10
266.9195900522522
 20
368.7468410884302
 30
0.0
 11
266.9195900522522
 21
304.7468410884302
 31
0.0
  0
LINE
  5
55F
102
{ACAD_REACTORS
330
5B5
102
}
330
1F
100
AcDbEntity
  8
実線
100
AcDbLine
 10
269.3195900522521
 20
362.1468410884303
 30
0.0
 11
269.3195900522521
 21
311.3468410884302
 31
0.0
  0
LINE
  5
560
102
{ACAD_REACTORS
330
5B5
102
}
330
1F
100
AcDbEntity
  8
実線
100
AcDbLine
 10
269.3195900522521
 20
362.1468410884303
 30
0.0
 11
266.9195900522522
 21
368.7468410884302
 31
0.0
  0
LINE
  5
561
102
{ACAD_REACTORS
330
5B5
102
}
330
1F
100
AcDbEntity
  8
実線
100
AcDbLine
 10
266.9195900522522
 20
304.7468410884302
 30
0.0
 11
269.3195900522521
 21
311.3468410884302
 31
0.0
  0
LINE
  5
562
102
{ACAD_REACTORS
330
5B5
102
}
330
1F
100
AcDbEntity
  8
実線
100
AcDbLine
 10
422.7195900522521
 20
362.1468410884303
 30
0.0
 11
402.5227556443081
 21
362.1468410884303
 31
0.0
  0
LINE
  5
563
102
{ACAD_REACTORS
330
5B5
102
}
330
1F
100
AcDbEntity
  8
実線
100
AcDbLine
 10
393.21695678923
 20
311.3468410884302
 30
0.0
 11
422.7195900522521
 21
311.3468410884302
 31
0.0
  0
LINE
  5
564
102
{ACAD_REACTORS
330
5B5
102
}
330
1F
100
AcDbEntity
  8
実線
100
AcDbLine
 10
428.019590052252
 20
368.7468410884302
 30
0.0
 11
425.119590052252
 21
368.7468410884302
 31
0.0
  0
LINE
  5
565
102
{ACAD_REACTORS
330
5B5
102
}
330
1F
100
AcDbEntity
  8
実線
100
AcDbLine
 10
425.119590052252
 20
304.7468410884302
 30
0.0
 11
428.019590052252
 21
304.7468410884302
 31
0.0
  0
LINE
  5
566
102
{ACAD_REACTORS
330
5B5
102
}
330
1F
100
AcDbEntity
  8
実線
100
AcDbLine
 10
428.019590052252
 20
368.7468410884302
 30
0.0
 11
428.019590052252
 21
304.7468410884302
 31
0.0
  0
LINE
  5
567
102
{ACAD_REACTORS
330
5B5
102
}
330
1F
100
AcDbEntity
  8
実線
100
AcDbLine
 10
422.7195900522521
 20
311.3468410884302
 30
0.0
 11
425.119590052252
 21
304.7468410884302
 31
0.0
  0
LINE
  5
568
102
{ACAD_REACTORS
330
5B5
102
}
330
1F
100
AcDbEntity
  8
実線
100
AcDbLine
 10
425.119590052252
 20
368.7468410884302
 30
0.0
 11
422.7195900522521
 21
362.1468410884303
 31
0.0
  0
LINE
  5
569
102
{ACAD_REACTORS
330
5B5
102
}
330
1F
100
AcDbEntity
  8
実線
100
AcDbLine
 10
425.119590052252
 20
304.7468410884302
 30
0.0
 11
425.119590052252
 21
368.7468410884302
 31
0.0
  0
LINE
  5
56A
102
{ACAD_REACTORS
330
5B5
102
}
330
1F
100
AcDbEntity
  8
実線
100
AcDbLine
 10
422.7195900522521
 20
311.3468410884302
 30
0.0
 11
422.7195900522521
 21
362.1468410884303
 31
0.0
  0
LINE
  5
56B
102
{ACAD_REACTORS
330
5B5
102
}
330
1F
100
AcDbEntity
  8
実線
100
AcDbLine
 10
402.5227556443081
 20
371.7468410884302
 30
0.0
 11
289.5164244601964
 21
371.7468410884302
 31
0.0
  0
LINE
  5
56C
102
{ACAD_REACTORS
330
5B5
102
}
330
1F
100
AcDbEntity
  8
実線
100
AcDbLine
 10
402.5227556443081
 20
385.2468410884302
 30
0.0
 11
289.5164244601964
 21
385.2468410884302
 31
0.0
  0
LINE
  5
56D
102
{ACAD_REACTORS
330
5B5
102
}
330
1F
100
AcDbEntity
  8
実線
100
AcDbLine
 10
289.5164244601964
 20
385.2468410884302
 30
0.0
 11
289.5164244601964
 21
371.7468410884302
 31
0.0
  0
LINE
  5
56E
102
{ACAD_REACTORS
330
5B5
102
}
330
1F
100
AcDbEntity
  8
実線
100
AcDbLine
 10
402.5227556443081
 20
371.7468410884302
 30
0.0
 11
402.5227556443081
 21
385.2468410884302
 31
0.0
  0
LINE
  5
56F
102
{ACAD_REACTORS
330
5B5
102
}
330
1F
100
AcDbEntity
  8
実線
100
AcDbLine
 10
323.641346765109
 20
385.2468410884302
 30
0.0
 11
323.641346765109
 21
371.7468410884302
 31
0.0
  0
LINE
  5
570
102
{ACAD_REACTORS
330
5B5
102
}
330
1F
100
AcDbEntity
  8
実線
100
AcDbLine
 10
368.3978333393952
 20
385.2468410884302
 30
0.0
 11
368.3978333393952
 21
371.7468410884302
 31
0.0
  0
LINE
  5
571
102
{ACAD_REACTORS
330
5B5
102
}
330
1F
100
AcDbEntity
  8
実線
100
AcDbLine
 10
408.5195900522522
 20
471.1468410884302
 30
0.0
 11
283.5195900522523
 21
471.1468410884302
 31
0.0
  0
LINE
  5
572
102
{ACAD_REACTORS
330
5B5
102
}
330
1F
100
AcDbEntity
  8
実線
100
AcDbLine
 10
408.5195900522522
 20
471.1468410884302
 30
0.0
 11
408.5195900522522
 21
563.1468410884301
 31
0.0
  0
LINE
  5
573
102
{ACAD_REACTORS
330
5B5
102
}
330
1F
100
AcDbEntity
  8
実線
100
AcDbLine
 10
283.5195900522523
 20
563.1468410884301
 30
0.0
 11
283.5195900522523
 21
471.1468410884302
 31
0.0
  0
LINE
  5
574
102
{ACAD_REACTORS
330
5B5
102
}
330
1F
100
AcDbEntity
  8
実線
100
AcDbLine
 10
408.5195900522522
 20
563.1468410884301
 30
0.0
 11
283.5195900522523
 21
563.1468410884301
 31
0.0
  0
LINE
  5
575
102
{ACAD_REACTORS
330
5B5
102
}
330
1F
100
AcDbEntity
  8
実線
100
AcDbLine
 10
354.0195900522521
 20
385.2468410884302
 30
0.0
 11
354.0195900522521
 21
417.7468410884302
 31
0.0
  0
LINE
  5
576
102
{ACAD_REACTORS
330
5B5
102
}
330
1F
100
AcDbEntity
  8
実線
100
AcDbLine
 10
338.0195900522523
 20
417.7468410884304
 30
0.0
 11
338.0195900522523
 21
385.2468410884302
 31
0.0
  0
LINE
  5
577
102
{ACAD_REACTORS
330
5B5
102
}
330
1F
100
AcDbEntity
  8
実線
100
AcDbLine
 10
392.0195900522523
 20
567.6468410884301
 30
0.0
 11
392.0195900522523
 21
579.1468410884302
 31
0.0
  0
LINE
  5
578
102
{ACAD_REACTORS
330
5B5
102
}
330
1F
100
AcDbEntity
  8
実線
100
AcDbLine
 10
300.0195900522522
 20
579.1468410884302
 30
0.0
 11
300.0195900522522
 21
567.6468410884301
 31
0.0
  0
LINE
  5
579
102
{ACAD_REACTORS
330
5B5
102
}
330
1F
100
AcDbEntity
  8
実線
100
AcDbLine
 10
392.0195900522523
 20
579.1468410884302
 30
0.0
 11
300.0195900522522
 21
579.1468410884302
 31
0.0
  0
CIRCLE
  5
57A
102
{ACAD_REACTORS
330
5B5
102
}
330
1F
100
AcDbEntity
  8
実線
100
AcDbCircle
 10
346.0195900522523
 20
286.7468410884301
 30
0.0
 40
32.0
  0
ARC
  5
57B
102
{ACAD_REACTORS
330
5B5
102
}
330
1F
100
AcDbEntity
  8
実線
100
AcDbCircle
 10
348.7195900522523
 20
431.2468410884303
 30
0.0
 40
60.00000000000005
100
AcDbArc
 50
180.0
 51
230.0554948101847
  0
ARC
  5
57C
102
{ACAD_REACTORS
330
5B5
102
}
330
1F
100
AcDbEntity
  8
実線
100
AcDbCircle
 10
350.7195900522521
 20
431.2468410884303
 30
0.0
 40
47.99999999999999
100
AcDbArc
 50
196.334822780686
 51
253.4021578641322
  0
LINE
  5
57D
102
{ACAD_REACTORS
330
5B5
102
}
330
1F
100
AcDbEntity
  8
実線
100
AcDbLine
 10
288.7195900522521
 20
471.1468410884302
 30
0.0
 11
288.7195900522521
 21
431.2468410884303
 31
0.0
  0
ARC
  5
57E
102
{ACAD_REACTORS
330
5B5
102
}
330
1F
100
AcDbEntity
  8
実線
100
AcDbCircle
 10
343.3195900522521
 20
431.2468410884303
 30
0.0
 40
60.00000000000005
100
AcDbArc
 50
309.9445051898153
 51
0.0
  0
ARC
  5
57F
102
{ACAD_REACTORS
330
5B5
102
}
330
1F
100
AcDbEntity
  8
実線
100
AcDbCircle
 10
341.3195900522521
 20
431.2468410884303
 30
0.0
 40
47.99999999999999
100
AcDbArc
 50
286.5978421358677
 51
343.665177219314
  0
LINE
  5
580
102
{ACAD_REACTORS
330
5B5
102
}
330
1F
100
AcDbEntity
  8
実線
100
AcDbLine
 10
403.3195900522521
 20
471.1468410884302
 30
0.0
 11
403.3195900522521
 21
431.2468410884303
 31
0.0
  0
LINE
  5
581
102
{ACAD_REACTORS
330
5B5
102
}
330
1F
100
AcDbEntity
  8
実線
100
AcDbLine
 10
297.8765739439939
 20
417.7468410884302
 30
0.0
 11
394.1626061605104
 21
417.7468410884302
 31
0.0
  0
LINE
  5
582
102
{ACAD_REACTORS
330
5B5
102
}
330
1F
100
AcDbEntity
  8
実線
100
AcDbLine
 10
394.1626061605104
 20
417.7468410884302
 30
0.0
 11
394.1626061605104
 21
471.1468410884302
 31
0.0
  0
LINE
  5
583
102
{ACAD_REACTORS
330
5B5
102
}
330
1F
100
AcDbEntity
  8
実線
100
AcDbLine
 10
297.8765739439939
 20
417.7468410884302
 30
0.0
 11
297.8765739439939
 21
471.1468410884302
 31
0.0
  0
LINE
  5
584
102
{ACAD_REACTORS
330
5B5
102
}
330
1F
100
AcDbEntity
  8
実線
100
AcDbLine
 10
388.419590052252
 20
304.3210642439321
 30
0.0
 11
392.3068707165871
 21
309.8726763763492
 31
0.0
  0
LINE
  5
585
102
{ACAD_REACTORS
330
5B5
102
}
330
1F
100
AcDbEntity
  8
実線
100
AcDbLine
 10
299.7323093879172
 20
309.8726763763492
 30
0.0
 11
303.6195900522522
 21
304.3210642439321
 31
0.0
  0
ARC
  5
586
102
{ACAD_REACTORS
330
5B5
102
}
330
1F
100
AcDbEntity
  8
実線
100
AcDbCircle
 10
380.019590052252
 20
318.4763229216149
 30
0.0
 40
15.0
100
AcDbArc
 50
324.9999999999999
 51
331.6211940769558
  0
ARC
  5
587
102
{ACAD_REACTORS
330
5B5
102
}
330
1F
100
AcDbEntity
  8
実線
100
AcDbCircle
 10
312.0195900522522
 20
318.4763229216149
 30
0.0
 40
15.0
100
AcDbArc
 50
208.3788059230442
 51
215.0000000000001
  0
LINE
  5
588
102
{ACAD_REACTORS
330
5B5
102
}
330
1F
100
AcDbEntity
  8
実線
100
AcDbLine
 10
402.5227556443081
 20
356.7468410884302
 30
0.0
 11
368.3978333393952
 21
356.7468410884302
 31
0.0
  0
LINE
  5
589
102
{ACAD_REACTORS
330
5B5
102
}
330
1F
100
AcDbEntity
  8
実線
100
AcDbLine
 10
402.5227556443081
 20
356.7468410884302
 30
0.0
 11
402.5227556443081
 21
371.7468410884302
 31
0.0
  0
LINE
  5
58A
102
{ACAD_REACTORS
330
5B5
102
}
330
1F
100
AcDbEntity
  8
実線
100
AcDbLine
 10
289.5164244601964
 20
371.7468410884302
 30
0.0
 11
289.5164244601964
 21
356.7468410884302
 31
0.0
  0
LINE
  5
58B
102
{ACAD_REACTORS
330
5B5
102
}
330
1F
100
AcDbEntity
  8
実線
100
AcDbLine
 10
289.5164244601964
 20
356.7468410884302
 30
0.0
 11
323.641346765109
 21
356.7468410884302
 31
0.0
  0
LINE
  5
58C
102
{ACAD_REACTORS
330
5B5
102
}
330
1F
100
AcDbEntity
  8
実線
100
AcDbLine
 10
323.641346765109
 20
371.7468410884302
 30
0.0
 11
323.641346765109
 21
356.7468410884302
 31
0.0
  0
LINE
  5
58D
102
{ACAD_REACTORS
330
5B5
102
}
330
1F
100
AcDbEntity
  8
実線
100
AcDbLine
 10
368.3978333393952
 20
371.7468410884302
 30
0.0
 11
368.3978333393952
 21
356.7468410884302
 31
0.0
  0
LINE
  5
58E
102
{ACAD_REACTORS
330
5B5
102
}
330
1F
100
AcDbEntity
  8
実線
100
AcDbLine
 10
405.5195900522522
 20
567.6468410884301
 30
0.0
 11
286.5195900522522
 21
567.6468410884301
 31
0.0
  0
ARC
  5
58F
102
{ACAD_REACTORS
330
5B5
102
}
330
1F
100
AcDbEntity
  8
実線
100
AcDbCircle
 10
405.5195900522522
 20
564.6468410884302
 30
0.0
 40
3.0
100
AcDbArc
 50
0.0
 51
90.0
  0
ARC
  5
590
102
{ACAD_REACTORS
330
5B5
102
}
330
1F
100
AcDbEntity
  8
実線
100
AcDbCircle
 10
286.5195900522522
 20
564.6468410884302
 30
0.0
 40
3.0
100
AcDbArc
 50
90.0
 51
180.0
  0
LINE
  5
591
102
{ACAD_REACTORS
330
5B5
102
}
330
1F
100
AcDbEntity
  8
実線
100
AcDbLine
 10
408.5195900522522
 20
563.1468410884301
 30
0.0
 11
408.5195900522522
 21
564.6468410884302
 31
0.0
  0
LINE
  5
592
102
{ACAD_REACTORS
330
5B5
102
}
330
1F
100
AcDbEntity
  8
実線
100
AcDbLine
 10
283.5195900522523
 20
564.6468410884302
 30
0.0
 11
283.5195900522523
 21
563.1468410884301
 31
0.0
  0
LINE
  5
593
102
{ACAD_REACTORS
330
5B5
102
}
330
1F
100
AcDbEntity
  8
実線
100
AcDbLine
 10
322.6195900522523
 20
260.3468410884302
 30
0.0
 11
303.6195900522522
 21
260.3468410884302
 31
0.0
  0
LINE
  5
594
102
{ACAD_REACTORS
330
5B5
102
}
330
1F
100
AcDbEntity
  8
実線
100
AcDbLine
 10
322.6195900522523
 20
264.919335504878
 30
0.0
 11
322.6195900522523
 21
260.3468410884302
 31
0.0
  0
LINE
  5
595
102
{ACAD_REACTORS
330
5B5
102
}
330
1F
100
AcDbEntity
  8
実線
100
AcDbLine
 10
303.6195900522522
 20
260.3468410884302
 30
0.0
 11
303.6195900522522
 21
310.7887637186667
 31
0.0
  0
LINE
  5
596
102
{ACAD_REACTORS
330
5B5
102
}
330
1F
100
AcDbEntity
  8
実線
100
AcDbLine
 10
369.419590052252
 20
260.3468410884302
 30
0.0
 11
388.419590052252
 21
260.3468410884302
 31
0.0
  0
LINE
  5
597
102
{ACAD_REACTORS
330
5B5
102
}
330
1F
100
AcDbEntity
  8
実線
100
AcDbLine
 10
369.419590052252
 20
260.3468410884302
 30
0.0
 11
369.419590052252
 21
264.919335504878
 31
0.0
  0
LINE
  5
598
102
{ACAD_REACTORS
330
5B5
102
}
330
1F
100
AcDbEntity
  8
実線
100
AcDbLine
 10
388.419590052252
 20
310.7887637186667
 30
0.0
 11
388.419590052252
 21
260.3468410884302
 31
0.0
  0
LINE
  5
599
102
{ACAD_REACTORS
330
5B8
102
}
330
1F
100
AcDbEntity
  8
中心線
100
AcDbLine
 10
262.0195900522521
 20
96.74684108843017
 30
0.0
 11
430.019590052252
 21
96.74684108843013
 31
0.0
  0
LINE
  5
59A
102
{ACAD_REACTORS
330
5B8
102
}
330
1F
100
AcDbEntity
  8
中心線
100
AcDbLine
 10
346.0195900522521
 20
12.74684108843007
 30
0.0
 11
346.0195900522521
 21
180.7468410884301
 31
0.0
  0
LINE
  5
59B
102
{ACAD_REACTORS
330
5B7
102
}
330
1F
100
AcDbEntity
  8
中心線
100
AcDbLine
 10
262.0195900522521
 20
936.7468410884301
 30
0.0
 11
430.019590052252
 21
936.7468410884301
 31
0.0
  0
LINE
  5
59C
102
{ACAD_REACTORS
330
5B7
102
}
330
1F
100
AcDbEntity
  8
中心線
100
AcDbLine
 10
346.0195900522518
 20
852.7468410884301
 30
0.0
 11
346.0195900522518
 21
1020.74684108843
 31
0.0
  0
LINE
  5
59D
102
{ACAD_REACTORS
330
5B3
102
}
330
1F
100
AcDbEntity
  8
中心線
100
AcDbLine
 10
826.0195900522521
 20
252.7468410884304
 30
0.0
 11
826.019590052252
 21
722.8859002851804
 31
0.0
  0
LINE
  5
59E
102
{ACAD_REACTORS
330
5B3
102
}
330
1F
100
AcDbEntity
  8
中心線
100
AcDbLine
 10
742.0195900522521
 20
336.7468410884302
 30
0.0
 11
910.0195900522521
 21
336.7468410884301
 31
0.0
  0
LINE
  5
59F
102
{ACAD_REACTORS
330
5B3
102
}
330
1F
100
AcDbEntity
  8
中心線
100
AcDbLine
 10
756.0195900522521
 20
286.7468410884301
 30
0.0
 11
896.0195900522521
 21
286.7468410884301
 31
0.0
  0
LINE
  5
5A1
102
{ACAD_REACTORS
330
5B4
102
}
330
1F
100
AcDbEntity
  8
中心線
100
AcDbLine
 10
516.0195900522522
 20
336.7468410884301
 30
0.0
 11
656.0195900522521
 21
336.7468410884301
 31
0.0
  0
LINE
  5
5A2
102
{ACAD_REACTORS
330
5B4
102
}
330
1F
100
AcDbEntity
  8
中心線
100
AcDbLine
 10
502.0195900522524
 20
286.7468410884301
 30
0.0
 11
670.0195900522524
 21
286.7468410884301
 31
0.0
  0
LINE
  5
5A4
102
{ACAD_REACTORS
330
5B5
102
}
330
1F
100
AcDbEntity
  8
中心線
100
AcDbLine
 10
262.1736360042778
 20
336.7468410884301
 30
0.0
 11
430.1736360042777
 21
336.7468410884301
 31
0.0
  0
LINE
  5
5A5
102
{ACAD_REACTORS
330
5B5
102
}
330
1F
100
AcDbEntity
  8
中心線
100
AcDbLine
 10
276.1736360042778
 20
286.7468410884301
 30
0.0
 11
416.1736360042778
 21
286.7468410884301
 31
0.0
  0
LINE
  5
5A7
102
{ACAD_REACTORS
330
5B6
102
}
330
1F
100
AcDbEntity
  8
中心線
100
AcDbLine
 10
36.01959005225274
 20
336.7468410884301
 30
0.0
 11
176.0195900522527
 21
336.7468410884301
 31
0.0
  0
LINE
  5
5A8
102
{ACAD_REACTORS
330
5B6
102
}
330
1F
100
AcDbEntity
  8
中心線
100
AcDbLine
 10
22.01959005225297
 20
286.7468410884301
 30
0.0
 11
190.0195900522529
 21
286.7468410884302
 31
0.0
  0
LINE
  5
5B0
102
{ACAD_REACTORS
330
5B4
102
}
330
1F
100
AcDbEntity
  8
中心線
100
AcDbLine
 10
586.0195900522524
 20
252.7468410884305
 30
0.0
 11
586.0195900522523
 21
722.8859002851804
 31
0.0
  0
LINE
  5
5B1
102
{ACAD_REACTORS
330
5B5
102
}
330
1F
100
AcDbEntity
  8
中心線
100
AcDbLine
 10
346.0195900522523
 20
252.7469823394735
 30
0.0
 11
346.0195900522523
 21
722.8859002851804
 31
0.0
  0
LINE
  5
5B2
102
{ACAD_REACTORS
330
5B6
102
}
330
1F
100
AcDbEntity
  8
中心線
100
AcDbLine
 10
106.0195900522529
 20
252.7468410884305
 30
0.0
 11
106.0195900522529
 21
722.8859002851804
 31
0.0
  0
ENDSEC
  0
SECTION
  2
OBJECTS
  0
DICTIONARY
  5
C
330
0
100
AcDbDictionary
281
     1
  3
ACAD_CIP_PREVIOUS_PRODUCT_INFO
350
292
  3
ACAD_COLOR
350
288
  3
ACAD_DETAILVIEWSTYLE
350
28B
  3
ACAD_GROUP
350
D
  3
ACAD_LAYOUT
350
1A
  3
ACAD_MATERIAL
350
43
  3
ACAD_MLEADERSTYLE
350
5B
  3
ACAD_MLINESTYLE
350
17
  3
ACAD_PLOTSETTINGS
350
19
  3
ACAD_PLOTSTYLENAME
350
E
  3
ACAD_SCALELIST
350
47
  3
ACAD_SECTIONVIEWSTYLE
350
289
  3
ACAD_TABLESTYLE
350
59
  3
ACAD_VISUALSTYLE
350
2A
  3
ACDB_RECOMPOSE_DATA
350
699
  3
AcDbVariableDictionary
350
23D
  3
DWGPROPS
350
69A
  0
DICTIONARY
  5
299
330
2
100
AcDbDictionary
280
     1
281
     1
  3
ACAD_LAYERSTATES
360
29A
  0
DICTIONARY
  5
5B9
330
10
100
AcDbDictionary
280
     1
281
     1
  3
ADSK_XREC_LAYER_RECONCILED
360
5BA
  0
DICTIONARY
  5
295
330
294
100
AcDbDictionary
280
     1
281
     1
  3
ADSK_XREC_LAYER_RECONCILED
360
5BD
  0
DICTIONARY
  5
297
330
296
100
AcDbDictionary
280
     1
281
     1
  3
ADSK_XREC_LAYER_RECONCILED
360
5BE
  0
DICTIONARY
  5
417
330
1F
100
AcDbDictionary
280
     1
281
     1
  3
ACAD_SORTENTS
360
418
  0
XRECORD
  5
292
102
{ACAD_REACTORS
330
C
102
}
330
C
100
AcDbXrecord
280
     1
300
ACDLT
300
2016
300
ACDLT_F_S
  0
DICTIONARY
  5
288
102
{ACAD_REACTORS
330
C
102
}
330
C
100
AcDbDictionary
281
     1
  0
DICTIONARY
  5
28B
102
{ACAD_REACTORS
330
C
102
}
330
C
100
AcDbDictionary
281
     1
  3
Metric50
350
28C
  0
DICTIONARY
  5
D
102
{ACAD_REACTORS
330
C
102
}
330
C
100
AcDbDictionary
281
     1
  3
*A1
350
5B3
  3
*A2
350
5B4
  3
*A3
350
5B5
  3
*A4
350
5B6
  3
*A5
350
5B7
  3
*A6
350
5B8
  0
DICTIONARY
  5
1A
102
{ACAD_REACTORS
330
C
102
}
330
C
100
AcDbDictionary
281
     1
  3
Layout1
350
1E
  3
Model
350
22
  3
レイアウト1
350
28D
  0
DICTIONARY
  5
43
102
{ACAD_REACTORS
330
C
102
}
330
C
100
AcDbDictionary
281
     1
  3
ByBlock
350
45
  3
ByLayer
350
44
  3
Global
350
46
  0
DICTIONARY
  5
5B
102
{ACAD_REACTORS
330
C
102
}
330
C
100
AcDbDictionary
281
     1
  3
Standard
350
5C
  0
DICTIONARY
  5
17
102
{ACAD_REACTORS
330
C
102
}
330
C
100
AcDbDictionary
281
     1
  3
Standard
350
18
  0
DICTIONARY
  5
19
102
{ACAD_REACTORS
330
C
102
}
330
C
100
AcDbDictionary
281
     1
  0
ACDBDICTIONARYWDFLT
  5
E
102
{ACAD_REACTORS
330
C
102
}
330
C
100
AcDbDictionary
281
     1
  3
Normal
350
F
100
AcDbDictionaryWithDefault
340
F
  0
DICTIONARY
  5
47
102
{ACAD_REACTORS
330
C
102
}
330
C
100
AcDbDictionary
281
     1
  3
A0
350
48
  3
A1
350
49
  3
A2
350
4A
  3
A3
350
4B
  3
A4
350
4C
  3
A5
350
4D
  3
A6
350
4E
  3
A7
350
4F
  3
A8
350
50
  3
A9
350
51
  3
B0
350
52
  3
B1
350
53
  3
B2
350
54
  3
B3
350
55
  3
B4
350
56
  3
B5
350
57
  3
B6
350
58
  0
DICTIONARY
  5
289
102
{ACAD_REACTORS
330
C
102
}
330
C
100
AcDbDictionary
281
     1
  3
Metric50
350
28A
  0
DICTIONARY
  5
59
102
{ACAD_REACTORS
330
C
102
}
330
C
100
AcDbDictionary
281
     1
  3
Standard
350
5A
  0
DICTIONARY
  5
2A
102
{ACAD_REACTORS
330
C
102
}
330
C
100
AcDbDictionary
281
     1
  3
2dWireframe
350
2F
  3
Basic
350
32
  3
Brighten
350
36
  3
ColorChange
350
3A
  3
Conceptual
350
34
  3
Dim
350
35
  3
EdgeColorOff
350
3D
  3
Facepattern
350
39
  3
Flat
350
2B
  3
FlatWithEdges
350
2C
  3
Gouraud
350
2D
  3
GouraudWithEdges
350
2E
  3
Hidden
350
31
  3
JitterOff
350
3B
  3
Linepattern
350
38
  3
OverhangOff
350
3C
  3
Realistic
350
33
  3
Shaded
350
42
  3
Shaded with edges
350
41
  3
Shades of Gray
350
3E
  3
Sketchy
350
3F
  3
Thicken
350
37
  3
Wireframe
350
30
  3
X-Ray
350
40
  0
XRECORD
  5
699
102
{ACAD_REACTORS
330
C
102
}
330
C
100
AcDbXrecord
280
     1
 90
        1
330
5A
  0
DICTIONARY
  5
23D
102
{ACAD_REACTORS
330
C
102
}
330
C
100
AcDbDictionary
281
     1
  3
CANNOSCALE
350
24B
  3
CENTEREXE
350
244
  3
CENTERLTYPEFILE
350
245
  3
CMLEADERSTYLE
350
23F
  3
CTABLESTYLE
350
23E
  3
CVIEWDETAILSTYLE
350
5BF
  3
CVIEWSECTIONSTYLE
350
5C0
  3
DIMASSOC
350
246
  3
HIDETEXT
350
247
  3
INDEXCTL
350
691
  3
LAYEREVAL
350
5C2
  3
LAYERNOTIFY
350
5C3
  3
LIGHTINGUNITS
350
5C1
  3
LOFTANG1
350
694
  3
LOFTANG2
350
695
  3
LONGITUDE
350
696
  3
MSLTSCALE
350
24C
  3
PSOLHEIGHT
350
693
  3
PSOLWIDTH
350
692
  3
SORTENTS
350
690
  3
XCLIPFRAME
350
697
  0
XRECORD
  5
69A
102
{ACAD_REACTORS
330
C
102
}
330
C
100
AcDbXrecord
280
     1
  1
DWGPROPS COOKIE
  2

  3

  4

  6
File was created by TR2_DExp
  7

  8
fujino
  9

300
=
301
=
302
=
303
=
304
=
305
=
306
=
307
=
308
=
309
=
 40
0.0180543055555556
 41
2455188.75
 42
2459758.596486968
  1

 90
        0
  0
DICTIONARY
  5
29A
102
{ACAD_REACTORS
330
299
102
}
330
299
100
AcDbDictionary
281
     1
  0
XRECORD
  5
5BA
102
{ACAD_REACTORS
330
5B9
102
}
330
5B9
100
AcDbXrecord
280
     1
290
     1
  0
XRECORD
  5
5BD
102
{ACAD_REACTORS
330
295
102
}
330
295
100
AcDbXrecord
280
     1
290
     1
  0
XRECORD
  5
5BE
102
{ACAD_REACTORS
330
297
102
}
330
297
100
AcDbXrecord
280
     1
290
     1
  0
SORTENTSTABLE
  5
418
102
{ACAD_REACTORS
330
417
102
}
330
417
100
AcDbSortentsTable
330
1F
331
584
  5
377
331
416
  5
4FC
331
545
  5
3CE
331
541
  5
3CA
331
580
  5
373
331
42C
  5
47E
331
412
  5
4F8
331
53D
  5
3C6
331
50C
  5
395
331
428
  5
47A
331
57C
  5
36F
331
4CD
  5
3E4
331
539
  5
3C2
331
4C9
  5
3E0
331
508
  5
391
331
424
  5
476
331
578
  5
36B
331
504
  5
38D
331
420
  5
472
331
500
  5
419
331
45D
  5
4AF
331
49C
  5
44B
331
498
  5
447
331
459
  5
4AB
331
494
  5
443
331
490
  5
43F
331
574
  5
367
331
41C
  5
46E
331
570
  5
363
331
3E5
  5
4CB
331
56C
  5
35F
331
4FC
  5
413
331
457
  5
4A9
331
3E1
  5
4C7
331
568
  5
35B
331
40C
  5
4F2
331
4F8
  5
40F
331
537
  5
3C0
331
453
  5
4A5
331
408
  5
4EE
331
4F4
  5
40B
331
533
  5
3BC
331
4F0
  5
407
331
48C
  5
43B
331
488
  5
437
331
4C7
  5
3DE
331
484
  5
433
331
4C3
  5
3DA
331
480
  5
42F
331
5A7
  5
5A7
331
564
  5
357
331
44F
  5
4A1
331
3DD
  5
4C3
331
59F
  5
59F
331
560
  5
353
331
404
  5
4EA
331
52F
  5
3B8
331
44B
  5
49D
331
3D9
  5
4BF
331
59B
  5
59B
331
55C
  5
34F
331
400
  5
4E6
331
4EC
  5
403
331
52B
  5
3B4
331
447
  5
499
331
5B1
  5
5B1
331
558
  5
34B
331
3FC
  5
4E2
331
4E8
  5
3FF
331
527
  5
3B0
331
443
  5
495
331
3F8
  5
4DE
331
4E4
  5
3FB
331
523
  5
3AC
331
4E0
  5
3F7
331
4BF
  5
3D6
331
4BB
  5
46A
331
47C
  5
42B
331
4B7
  5
466
331
478
  5
427
331
474
  5
423
331
4B3
  5
462
331
470
  5
41F
331
597
  5
38A
331
593
  5
386
331
43F
  5
491
331
554
  5
347
331
550
  5
343
331
3F4
  5
4DA
331
51F
  5
3A8
331
43B
  5
48D
331
58F
  5
382
331
54C
  5
33F
331
3F0
  5
4D6
331
4DC
  5
3F3
331
51B
  5
3A4
331
437
  5
489
331
58B
  5
37E
331
548
  5
3D1
331
3EC
  5
4D2
331
4D8
  5
3EF
331
517
  5
3A0
331
433
  5
485
331
3E8
  5
4CE
331
4D4
  5
3EB
331
513
  5
39C
331
4D0
  5
3E7
331
4AF
  5
45E
331
46C
  5
4BE
331
4AB
  5
45A
331
4A7
  5
456
331
468
  5
4BA
331
464
  5
4B6
331
4A3
  5
452
331
460
  5
4B2
331
587
  5
37A
331
583
  5
376
331
42F
  5
481
331
415
  5
4FB
331
544
  5
3CD
331
540
  5
3C9
331
57F
  5
372
331
50F
  5
398
331
42B
  5
47D
331
411
  5
4F7
331
53C
  5
3C5
331
4CC
  5
3E3
331
50B
  5
394
331
427
  5
479
331
57B
  5
36E
331
538
  5
3C1
331
4C8
  5
3DF
331
507
  5
390
331
423
  5
475
331
503
  5
38C
331
49F
  5
44E
331
45C
  5
4AE
331
49B
  5
44A
331
497
  5
446
331
458
  5
4AA
331
493
  5
442
331
577
  5
36A
331
573
  5
366
331
41F
  5
471
331
4FF
  5
416
331
41B
  5
46D
331
56F
  5
362
331
3E4
  5
4CA
331
56B
  5
35E
331
4FB
  5
412
331
40F
  5
4F5
331
456
  5
4A8
331
3E0
  5
4C6
331
40B
  5
4F1
331
4F7
  5
40E
331
536
  5
3BF
331
452
  5
4A4
331
532
  5
3BB
331
4F3
  5
40A
331
48F
  5
43E
331
48B
  5
43A
331
487
  5
436
331
4C6
  5
3DD
331
483
  5
432
331
4C2
  5
3D9
331
567
  5
35A
331
5A2
  5
5A2
331
563
  5
356
331
44E
  5
4A0
331
3DC
  5
4C2
331
407
  5
4ED
331
59E
  5
59E
331
55F
  5
352
331
403
  5
4E9
331
52E
  5
3B7
331
44A
  5
49C
331
4EF
  5
406
331
59A
  5
59A
331
55B
  5
34E
331
3FF
  5
4E5
331
4EB
  5
402
331
52A
  5
3B3
331
446
  5
498
331
5B0
  5
5B0
331
3FB
  5
4E1
331
4E7
  5
3FE
331
526
  5
3AF
331
442
  5
494
331
4E3
  5
3FA
331
522
  5
3AB
331
47F
  5
42E
331
4BE
  5
3D5
331
4BA
  5
469
331
47B
  5
42A
331
477
  5
426
331
4B6
  5
465
331
473
  5
422
331
4B2
  5
461
331
596
  5
389
331
557
  5
34A
331
553
  5
346
331
43E
  5
490
331
592
  5
385
331
3F7
  5
4DD
331
54F
  5
342
331
3F3
  5
4D9
331
51E
  5
3A7
331
43A
  5
48C
331
58E
  5
381
331
4DF
  5
3F6
331
54B
  5
33E
331
3EF
  5
4D5
331
4DB
  5
3F2
331
51A
  5
3A3
331
436
  5
488
331
58A
  5
37D
331
3EB
  5
4D1
331
4D7
  5
3EE
331
516
  5
39F
331
432
  5
484
331
4D3
  5
3EA
331
512
  5
39B
331
46F
  5
41E
331
4AE
  5
45D
331
4AA
  5
459
331
46B
  5
4BD
331
4A6
  5
455
331
467
  5
4B9
331
463
  5
4B5
331
4A2
  5
451
331
586
  5
379
331
547
  5
3D0
331
582
  5
375
331
42E
  5
480
331
414
  5
4FA
331
543
  5
3CC
331
53F
  5
3C8
331
57E
  5
371
331
50E
  5
397
331
42A
  5
47C
331
4CF
  5
3E6
331
410
  5
4F6
331
53B
  5
3C4
331
4CB
  5
3E2
331
50A
  5
393
331
426
  5
478
331
57A
  5
36D
331
506
  5
38F
331
422
  5
474
331
502
  5
41B
331
45F
  5
4B1
331
49E
  5
44D
331
45B
  5
4AD
331
49A
  5
449
331
496
  5
445
331
492
  5
441
331
576
  5
369
331
41E
  5
470
331
572
  5
365
331
3E7
  5
4CD
331
4FE
  5
415
331
41A
  5
46C
331
56E
  5
361
331
3E3
  5
4C9
331
56A
  5
35D
331
4FA
  5
411
331
40E
  5
4F4
331
455
  5
4A7
331
5A8
  5
5A8
331
451
  5
4A3
331
40A
  5
4F0
331
4F6
  5
40D
331
535
  5
3BE
331
531
  5
3BA
331
4F2
  5
409
331
48E
  5
43D
331
48A
  5
439
331
486
  5
435
331
4C5
  5
3DC
331
482
  5
431
331
4C1
  5
3D8
331
5A5
  5
5A5
331
3DF
  5
4C5
331
566
  5
359
331
5A1
  5
5A1
331
562
  5
355
331
44D
  5
49F
331
3DB
  5
4C1
331
406
  5
4EC
331
59D
  5
59D
331
55E
  5
351
331
402
  5
4E8
331
4EE
  5
405
331
52D
  5
3B6
331
449
  5
49B
331
599
  5
599
331
55A
  5
34D
331
3FE
  5
4E4
331
4EA
  5
401
331
529
  5
3B2
331
445
  5
497
331
3FA
  5
4E0
331
4E6
  5
3FD
331
525
  5
3AE
331
441
  5
493
331
521
  5
3AA
331
4E2
  5
3F9
331
47E
  5
42D
331
4BD
  5
3D4
331
4B9
  5
468
331
47A
  5
429
331
476
  5
425
331
4B5
  5
464
331
472
  5
421
331
4B1
  5
460
331
595
  5
388
331
556
  5
349
331
552
  5
345
331
43D
  5
48F
331
591
  5
384
331
3F6
  5
4DC
331
54E
  5
341
331
3F2
  5
4D8
331
51D
  5
3A6
331
439
  5
48B
331
58D
  5
380
331
4DE
  5
3F5
331
54A
  5
33D
331
3EE
  5
4D4
331
4DA
  5
3F1
331
519
  5
3A2
331
435
  5
487
331
589
  5
37C
331
3EA
  5
4D0
331
4D6
  5
3ED
331
515
  5
39E
331
431
  5
483
331
4D2
  5
3E9
331
511
  5
39A
331
46E
  5
41D
331
4AD
  5
45C
331
4A9
  5
458
331
46A
  5
4BC
331
466
  5
4B8
331
4A5
  5
454
331
462
  5
4B4
331
4A1
  5
450
331
585
  5
378
331
546
  5
3CF
331
542
  5
3CB
331
581
  5
374
331
42D
  5
47F
331
413
  5
4F9
331
53E
  5
3C7
331
50D
  5
396
331
429
  5
47B
331
57D
  5
370
331
4CE
  5
3E5
331
53A
  5
3C3
331
4CA
  5
3E1
331
509
  5
392
331
425
  5
477
331
579
  5
36C
331
505
  5
38E
331
421
  5
473
331
501
  5
41A
331
45E
  5
4B0
331
49D
  5
44C
331
499
  5
448
331
45A
  5
4AC
331
495
  5
444
331
491
  5
440
331
575
  5
368
331
41D
  5
46F
331
571
  5
364
331
3E6
  5
4CC
331
4FD
  5
414
331
419
  5
46B
331
56D
  5
360
331
3E2
  5
4C8
331
569
  5
35C
331
4F9
  5
410
331
40D
  5
4F3
331
454
  5
4A6
331
450
  5
4A2
331
409
  5
4EF
331
4F5
  5
40C
331
534
  5
3BD
331
530
  5
3B9
331
4F1
  5
408
331
48D
  5
43C
331
489
  5
438
331
485
  5
434
331
4C4
  5
3DB
331
481
  5
430
331
4C0
  5
3D7
331
5A4
  5
5A4
331
3DE
  5
4C4
331
565
  5
358
331
561
  5
354
331
405
  5
4EB
331
44C
  5
49E
331
3DA
  5
4C0
331
59C
  5
59C
331
55D
  5
350
331
401
  5
4E7
331
4ED
  5
404
331
52C
  5
3B5
331
448
  5
49A
331
5B2
  5
5B2
331
559
  5
34C
331
3FD
  5
4E3
331
4E9
  5
400
331
528
  5
3B1
331
444
  5
496
331
598
  5
38B
331
440
  5
492
331
3F9
  5
4DF
331
4E5
  5
3FC
331
524
  5
3AD
331
520
  5
3A9
331
4E1
  5
3F8
331
47D
  5
42C
331
4BC
  5
3D3
331
4B8
  5
467
331
479
  5
428
331
475
  5
424
331
4B4
  5
463
331
471
  5
420
331
4B0
  5
45F
331
594
  5
387
331
555
  5
348
331
551
  5
344
331
43C
  5
48E
331
590
  5
383
331
3F5
  5
4DB
331
54D
  5
340
331
3F1
  5
4D7
331
4DD
  5
3F4
331
51C
  5
3A5
331
438
  5
48A
331
58C
  5
37F
331
549
  5
3D2
331
3ED
  5
4D3
331
4D9
  5
3F0
331
518
  5
3A1
331
434
  5
486
331
588
  5
37B
331
3E9
  5
4CF
331
4D5
  5
3EC
331
514
  5
39D
331
430
  5
482
331
510
  5
399
331
4D1
  5
3E8
331
46D
  5
41C
331
4AC
  5
45B
331
4A8
  5
457
331
469
  5
4BB
331
465
  5
4B7
331
4A4
  5
453
331
461
  5
4B3
331
4A0
  5
44F
  0
ACDBDETAILVIEWSTYLE
  5
28C
102
{ACAD_XDICTIONARY
360
6D2
102
}
102
{ACAD_REACTORS
330
28B
102
}
330
28B
100
AcDbModelDocViewStyle
 70
     0
  3
Metric50
290
     0
100
AcDbDetailViewStyle
 70
     0
 71
     0
 90
        3
 71
     1
340
11
 40
5.0
340
0
 40
5.0
300

 40
0.0
280
     1
 71
     2
340
16
 90
       25
 71
     3
340
11
 40
5.0
 90
        0
 40
15.0
 90
        1
300
%<\AcVar ViewDetailId>% (%<\AcVar ViewScale \f "%sn">%)
 71
     4
340
16
 90
       25
340
16
 90
       25
280
     0
  0
GROUP
  5
5B3
102
{ACAD_REACTORS
330
D
102
}
330
D
100
AcDbGroup
300

 70
     1
 71
     1
340
59F
340
59E
340
59D
340
4BB
340
4BA
340
4B9
340
4B8
340
4B7
340
4B6
340
4B5
340
4B4
340
4B3
340
4B2
340
4B1
340
4B0
340
4AF
340
4AE
340
4AD
340
4AC
340
4AB
340
4AA
340
4A9
340
4A8
340
4A7
340
4A6
340
4A5
340
4A4
340
4A3
340
4A2
340
4A1
340
4A0
340
49F
340
49E
340
49D
340
49C
340
49B
340
49A
340
499
340
498
340
497
340
496
340
495
340
494
340
493
340
492
340
491
340
490
340
48F
340
48E
340
48D
340
48C
340
48B
340
48A
340
489
340
488
340
487
340
486
340
485
340
484
340
483
340
482
340
481
340
480
340
47F
340
47E
340
47D
340
47C
340
47B
340
47A
340
479
340
478
340
477
340
476
340
475
340
474
340
473
340
472
340
471
340
470
340
46F
340
46E
340
46D
  0
GROUP
  5
5B4
102
{ACAD_REACTORS
330
D
102
}
330
D
100
AcDbGroup
300

 70
     1
 71
     1
340
5B0
340
5A2
340
5A1
340
502
340
501
340
500
340
4FF
340
4FE
340
4FD
340
4FC
340
4FB
340
4FA
340
4F9
340
4F8
340
4F7
340
4F6
340
4F5
340
4F4
340
4F3
340
4F2
340
4F1
340
4F0
340
4EF
340
4EE
340
4ED
340
4EC
340
4EB
340
4EA
340
4E9
340
4E8
340
4E7
340
4E6
340
4E5
340
4E4
340
4E3
340
4E2
340
4E1
340
4E0
340
4DF
340
4DE
340
4DD
340
4DC
340
4DB
340
4DA
340
4D9
340
4D8
340
4D7
340
4D6
340
4D5
340
4D4
340
4D3
340
4D2
340
4D1
340
4D0
340
4CF
340
4CE
340
4CD
340
4CC
340
4CB
340
4CA
340
4C9
340
4C8
340
4C7
340
4C6
340
4C5
340
4C4
340
4C3
340
4C2
340
4C1
340
4C0
340
4BF
340
4BE
340
4BD
340
4BC
  0
GROUP
  5
5B5
102
{ACAD_REACTORS
330
D
102
}
330
D
100
AcDbGroup
300

 70
     1
 71
     1
340
5B1
340
5A5
340
5A4
340
598
340
597
340
596
340
595
340
594
340
593
340
592
340
591
340
590
340
58F
340
58E
340
58D
340
58C
340
58B
340
58A
340
589
340
588
340
587
340
586
340
585
340
584
340
583
340
582
340
581
340
580
340
57F
340
57E
340
57D
340
57C
340
57B
340
57A
340
579
340
578
340
577
340
576
340
575
340
574
340
573
340
572
340
571
340
570
340
56F
340
56E
340
56D
340
56C
340
56B
340
56A
340
569
340
568
340
567
340
566
340
565
340
564
340
563
340
562
340
561
340
560
340
55F
340
55E
340
55D
340
55C
340
55B
340
55A
340
559
340
558
340
557
340
556
340
555
340
554
340
553
340
552
340
551
340
550
340
54F
340
54E
340
54D
340
54C
340
54B
340
54A
  0
GROUP
  5
5B6
102
{ACAD_REACTORS
330
D
102
}
330
D
100
AcDbGroup
300

 70
     1
 71
     1
340
5B2
340
5A8
340
5A7
340
549
340
548
340
547
340
546
340
545
340
544
340
543
340
542
340
541
340
540
340
53F
340
53E
340
53D
340
53C
340
53B
340
53A
340
539
340
538
340
537
340
536
340
535
340
534
340
533
340
532
340
531
340
530
340
52F
340
52E
340
52D
340
52C
340
52B
340
52A
340
529
340
528
340
527
340
526
340
525
340
524
340
523
340
522
340
521
340
520
340
51F
340
51E
340
51D
340
51C
340
51B
340
51A
340
519
340
518
340
517
340
516
340
515
340
514
340
513
340
512
340
511
340
510
340
50F
340
50E
340
50D
340
50C
340
50B
340
50A
340
509
340
508
340
507
340
506
340
505
340
504
340
503
  0
GROUP
  5
5B7
102
{ACAD_REACTORS
330
D
102
}
330
D
100
AcDbGroup
300

 70
     1
 71
     1
340
59C
340
59B
340
416
340
415
340
414
340
413
340
412
340
411
340
410
340
40F
340
40E
340
40D
340
40C
340
40B
340
40A
340
409
340
408
340
407
340
406
340
405
340
404
340
403
340
402
340
401
340
400
340
3FF
340
3FE
340
3FD
340
3FC
340
3FB
340
3FA
340
3F9
340
3F8
340
3F7
340
3F6
340
3F5
340
3F4
340
3F3
340
3F2
340
3F1
340
3F0
340
3EF
340
3EA
340
3E9
340
3E8
340
3E7
340
3E6
340
3E5
340
3E4
340
3E3
340
3E2
340
3E1
340
3E0
340
3DF
340
3DE
340
3DD
340
3DC
340
3DB
340
3DA
340
3D9
340
3EE
340
3ED
340
3EC
340
3EB
  0
GROUP
  5
5B8
102
{ACAD_REACTORS
330
D
102
}
330
D
100
AcDbGroup
300

 70
     1
 71
     1
340
59A
340
599
340
46C
340
46B
340
46A
340
469
340
468
340
467
340
466
340
465
340
464
340
463
340
462
340
461
340
460
340
45F
340
45E
340
45D
340
45C
340
45B
340
45A
340
459
340
458
340
457
340
456
340
455
340
454
340
453
340
452
340
451
340
450
340
44F
340
44E
340
44D
340
44C
340
44B
340
44A
340
449
340
448
340
447
340
446
340
445
340
444
340
443
340
442
340
441
340
440
340
43F
340
43E
340
43D
340
43C
340
43B
340
43A
340
439
340
438
340
437
340
436
340
435
340
434
340
433
340
432
340
431
340
430
340
42F
340
42E
340
42D
340
42C
340
42B
340
42A
340
429
340
428
340
427
340
426
340
425
340
424
340
423
340
422
340
421
340
420
340
41F
340
41E
340
41D
340
41C
340
41B
340
41A
340
419
  0
LAYOUT
  5
1E
102
{ACAD_XDICTIONARY
360
69B
102
}
102
{ACAD_REACTORS
330
1A
102
}
330
1A
100
AcDbPlotSettings
  1

  2
none_device
  4

  6

 40
0.0
 41
0.0
 42
0.0
 43
0.0
 44
0.0
 45
0.0
 46
0.0
 47
0.0
 48
0.0
 49
0.0
140
0.0
141
0.0
142
1.0
143
1.0
 70
   688
 72
     1
 73
     0
 74
     5
  7

 75
    16
147
1.0
148
0.0
149
0.0
100
AcDbLayout
  1
Layout1
 70
     1
 71
     1
 10
0.0
 20
0.0
 11
420.0
 21
297.0
 12
0.0
 22
0.0
 32
0.0
 14
1.000000000000000E+20
 24
1.000000000000000E+20
 34
1.000000000000000E+20
 15
-1.000000000000000E+20
 25
-1.000000000000000E+20
 35
-1.000000000000000E+20
146
0.0
 13
0.0
 23
0.0
 33
0.0
 16
1.0
 26
0.0
 36
0.0
 17
0.0
 27
1.0
 37
0.0
 76
     0
330
1B
  0
LAYOUT
  5
22
102
{ACAD_XDICTIONARY
360
69D
102
}
102
{ACAD_REACTORS
330
1A
102
}
330
1A
100
AcDbPlotSettings
  1

  2
none_device
  4
Letter_(8.50_x_11.00_Inches)
  6

 40
6.349999999999997
 41
6.349999999999997
 42
6.350005079999997
 43
6.350005079999997
 44
215.9
 45
279.4
 46
0.0
 47
0.0
 48
0.0
 49
0.0
140
0.0
141
0.0
142
1.0
143
1.0
 70
  1712
 72
     1
 73
     0
 74
     0
  7

 75
     0
147
1.0
148
0.0
149
0.0
100
AcDbLayout
  1
Model
 70
     1
 71
     0
 10
-347.4573097229002
 20
-464.6163482666014
 11
1034.663269042969
 21
774.0772094726559
 12
0.0
 22
0.0
 32
0.0
 14
-347.4573097229002
 24
-464.6163482666014
 34
0.0
 15
1034.663269042969
 25
774.0772094726559
 35
0.0
146
0.0
 13
0.0
 23
0.0
 33
0.0
 16
1.0
 26
0.0
 36
0.0
 17
0.0
 27
1.0
 37
0.0
 76
     0
330
1F
331
29
  0
LAYOUT
  5
28D
102
{ACAD_XDICTIONARY
360
6D4
102
}
102
{ACAD_REACTORS
330
1A
102
}
330
1A
100
AcDbPlotSettings
  1

  2
青梅 FX DocuCentre-V C2275 T2
  4

  6

 40
0.0
 41
0.0
 42
0.0
 43
0.0
 44
0.0
 45
0.0
 46
0.0
 47
0.0
 48
0.0
 49
0.0
140
0.0
141
0.0
142
1.0
143
1.0
 70
   688
 72
     0
 73
     0
 74
     5
  7
AutoCAD_PEN.ctb
 75
    16
147
1.0
148
0.0
149
0.0
100
AcDbLayout
  1
レイアウト1
 70
     1
 71
     2
 10
0.0
 20
0.0
 11
12.0
 21
9.0
 12
0.0
 22
0.0
 32
0.0
 14
0.0
 24
0.0
 34
0.0
 15
0.0
 25
0.0
 35
0.0
146
0.0
 13
0.0
 23
0.0
 33
0.0
 16
1.0
 26
0.0
 36
0.0
 17
0.0
 27
1.0
 37
0.0
 76
     0
330
23
  0
MATERIAL
  5
45
102
{ACAD_XDICTIONARY
360
27F
102
}
102
{ACAD_REACTORS
330
43
102
}
330
43
100
AcDbMaterial
  1
ByBlock
  0
MATERIAL
  5
44
102
{ACAD_XDICTIONARY
360
27D
102
}
102
{ACAD_REACTORS
330
43
102
}
330
43
100
AcDbMaterial
  1
ByLayer
  0
MATERIAL
  5
46
102
{ACAD_XDICTIONARY
360
281
102
}
102
{ACAD_REACTORS
330
43
102
}
330
43
100
AcDbMaterial
  1
Global
  0
MLEADERSTYLE
  5
5C
102
{ACAD_REACTORS
330
5B
102
}
330
5B
100
AcDbMLeaderStyle
170
     2
171
     1
172
     0
 90
        2
 40
0.0
 41
0.0
173
     1
 91
-1056964608
340
14
 92
       -2
290
     1
 42
2.0
291
     1
 43
8.0
  3
Standard
 44
4.0
300

342
11
174
     1
178
     6
175
     1
176
     0
 93
-1056964608
 45
4.0
292
     0
297
     0
 46
4.0
 94
-1056964608
 47
1.0
 49
1.0
140
1.0
293
     1
141
0.0
294
     1
177
     0
142
1.0
295
     0
296
     0
143
3.75
1001
ACAD_MLEADERVER
1070
     2
  0
MLINESTYLE
  5
18
102
{ACAD_REACTORS
330
17
102
}
330
17
100
AcDbMlineStyle
  2
STANDARD
 70
     0
  3

 62
   256
 51
90.0
 52
90.0
 71
     2
 49
0.5
 62
   256
  6
BYLAYER
 49
-0.5
 62
   256
  6
BYLAYER
  0
ACDBPLACEHOLDER
  5
F
102
{ACAD_REACTORS
330
E
102
}
330
E
  0
SCALE
  5
48
102
{ACAD_REACTORS
330
47
102
}
330
47
100
AcDbScale
 70
     0
300
1:1
140
1.0
141
1.0
290
     1
  0
SCALE
  5
49
102
{ACAD_REACTORS
330
47
102
}
330
47
100
AcDbScale
 70
     0
300
1:2
140
1.0
141
2.0
290
     0
  0
SCALE
  5
4A
102
{ACAD_REACTORS
330
47
102
}
330
47
100
AcDbScale
 70
     0
300
1:4
140
1.0
141
4.0
290
     0
  0
SCALE
  5
4B
102
{ACAD_REACTORS
330
47
102
}
330
47
100
AcDbScale
 70
     0
300
1:5
140
1.0
141
5.0
290
     0
  0
SCALE
  5
4C
102
{ACAD_REACTORS
330
47
102
}
330
47
100
AcDbScale
 70
     0
300
1:8
140
1.0
141
8.0
290
     0
  0
SCALE
  5
4D
102
{ACAD_REACTORS
330
47
102
}
330
47
100
AcDbScale
 70
     0
300
1:10
140
1.0
141
10.0
290
     0
  0
SCALE
  5
4E
102
{ACAD_REACTORS
330
47
102
}
330
47
100
AcDbScale
 70
     0
300
1:16
140
1.0
141
16.0
290
     0
  0
SCALE
  5
4F
102
{ACAD_REACTORS
330
47
102
}
330
47
100
AcDbScale
 70
     0
300
1:20
140
1.0
141
20.0
290
     0
  0
SCALE
  5
50
102
{ACAD_REACTORS
330
47
102
}
330
47
100
AcDbScale
 70
     0
300
1:30
140
1.0
141
30.0
290
     0
  0
SCALE
  5
51
102
{ACAD_REACTORS
330
47
102
}
330
47
100
AcDbScale
 70
     0
300
1:40
140
1.0
141
40.0
290
     0
  0
SCALE
  5
52
102
{ACAD_REACTORS
330
47
102
}
330
47
100
AcDbScale
 70
     0
300
1:50
140
1.0
141
50.0
290
     0
  0
SCALE
  5
53
102
{ACAD_REACTORS
330
47
102
}
330
47
100
AcDbScale
 70
     0
300
1:100
140
1.0
141
100.0
290
     0
  0
SCALE
  5
54
102
{ACAD_REACTORS
330
47
102
}
330
47
100
AcDbScale
 70
     0
300
2:1
140
2.0
141
1.0
290
     0
  0
SCALE
  5
55
102
{ACAD_REACTORS
330
47
102
}
330
47
100
AcDbScale
 70
     0
300
4:1
140
4.0
141
1.0
290
     0
  0
SCALE
  5
56
102
{ACAD_REACTORS
330
47
102
}
330
47
100
AcDbScale
 70
     0
300
8:1
140
8.0
141
1.0
290
     0
  0
SCALE
  5
57
102
{ACAD_REACTORS
330
47
102
}
330
47
100
AcDbScale
 70
     0
300
10:1
140
10.0
141
1.0
290
     0
  0
SCALE
  5
58
102
{ACAD_REACTORS
330
47
102
}
330
47
100
AcDbScale
 70
     0
300
100:1
140
100.0
141
1.0
290
     0
  0
ACDBSECTIONVIEWSTYLE
  5
28A
102
{ACAD_XDICTIONARY
360
6D0
102
}
102
{ACAD_REACTORS
330
289
102
}
330
289
100
AcDbModelDocViewStyle
 70
     0
  3
Metric50
290
     0
100
AcDbSectionViewStyle
 70
     0
 71
     0
 90
      102
 71
     1
340
11
 40
5.0
340
0
340
0
 40
5.0
300
I, O, Q, S, X, Z
 40
10.0
 90
        0
 40
2.5
 90
        0
 71
     2
340
16
 90
       25
340
16
 90
       50
 40
5.0
 40
2.5
 40
5.0
 71
     3
340
11
 40
5.0
 90
        0
 40
15.0
 90
        1
300
%<\AcVar ViewSectionStartId>%-%<\AcVar ViewSectionEndId>% (%<\AcVar ViewScale \f "%sn">%)
 71
     4
300
ANSI31
 40
1.0
 90
        0
290
     0
290
     0
 90
        6
 40
0.0
 40
1.570796326794896
 40
0.2617993877991494
 40
1.308996938995747
 40
-0.2617993877991494
 40
1.832595714594044
  0
TABLESTYLE
  5
5A
102
{ACAD_XDICTIONARY
360
602
102
}
102
{ACAD_REACTORS
330
59
102
}
330
59
100
AcDbTableStyle
  3
Standard
 70
     0
 71
     0
 40
1.5
 41
1.5
280
     0
281
     0
  7
Standard
140
4.5
170
     2
 62
     0
 63
     7
283
     0
274
    -2
284
     1
 64
     0
275
    -2
285
     1
 65
     0
276
    -2
286
     1
 66
     0
277
    -2
287
     1
 67
     0
278
    -2
288
     1
 68
     0
279
    -2
289
     1
 69
     0
  7
Standard
140
6.0
170
     5
 62
     0
 63
     7
283
     0
274
    -2
284
     1
 64
     0
275
    -2
285
     1
 65
     0
276
    -2
286
     1
 66
     0
277
    -2
287
     1
 67
     0
278
    -2
288
     1
 68
     0
279
    -2
289
     1
 69
     0
  7
Standard
140
4.5
170
     5
 62
     0
 63
     7
283
     0
274
    -2
284
     1
 64
     0
275
    -2
285
     1
 65
     0
276
    -2
286
     1
 66
     0
277
    -2
287
     1
 67
     0
278
    -2
288
     1
 68
     0
279
    -2
289
     1
 69
     0
  0
VISUALSTYLE
  5
2F
102
{ACAD_XDICTIONARY
360
6A7
102
}
102
{ACAD_REACTORS
330
2A
102
}
330
2A
100
AcDbVisualStyle
  2

 70
     4
 71
     0
 72
     2
 73
     0
 90
        0
 40
-0.6
 41
-30.0
 62
     5
 63
     7
 74
     1
 91
        4
 64
     7
 65
   257
 75
     1
175
     1
 42
1.0
 92
        0
 66
   257
 43
1.0
 76
     1
 77
     6
 78
     2
 67
     7
 79
     5
170
     0
171
     0
290
     0
174
     0
 93
        1
 44
0.0
173
     0
291
     0
 45
0.0
1001
ACAD
1000
AcDbSavedByObjectVersion
1070
     0
  0
VISUALSTYLE
  5
32
102
{ACAD_XDICTIONARY
360
6AD
102
}
102
{ACAD_REACTORS
330
2A
102
}
330
2A
100
AcDbVisualStyle
  2

 70
     7
 71
     1
 72
     0
 73
     1
 90
        0
 40
-0.6
 41
-30.0
 62
     5
 63
     7
 74
     0
 91
        4
 64
     7
 65
   257
 75
     1
175
     1
 42
1.0
 92
        8
 66
     7
 43
1.0
 76
     1
 77
     6
 78
     2
 67
     7
 79
     5
170
     0
171
     0
290
     0
174
     0
 93
        1
 44
0.0
173
     0
291
     1
 45
0.0
1001
ACAD
1000
AcDbSavedByObjectVersion
1070
     0
  0
VISUALSTYLE
  5
36
102
{ACAD_XDICTIONARY
360
6B5
102
}
102
{ACAD_REACTORS
330
2A
102
}
330
2A
100
AcDbVisualStyle
  2

 70
    12
 71
     2
 72
     2
 73
     0
 90
        0
 40
-0.6
 41
-30.0
 62
     5
 63
     7
 74
     1
 91
        4
 64
     7
 65
   257
 75
     1
175
     1
 42
1.0
 92
        8
 66
     7
 43
1.0
 76
     1
 77
     6
 78
     2
 67
     7
 79
     5
170
     0
171
     0
290
     0
174
     0
 93
        1
 44
50.0
173
     0
291
     1
 45
0.0
1001
ACAD
1000
AcDbSavedByObjectVersion
1070
     0
  0
VISUALSTYLE
  5
3A
102
{ACAD_XDICTIONARY
360
6BD
102
}
102
{ACAD_REACTORS
330
2A
102
}
330
2A
100
AcDbVisualStyle
  2

 70
    16
 71
     2
 72
     2
 73
     3
 90
        0
 40
-0.6
 41
-30.0
 62
     5
 63
     8
 74
     1
 91
        4
 64
     7
 65
   257
 75
     1
175
     1
 42
1.0
 92
        8
 66
     8
 43
1.0
 76
     1
 77
     6
 78
     2
 67
     7
 79
     5
170
     0
171
     0
290
     0
174
     0
 93
        1
 44
0.0
173
     0
291
     1
 45
0.0
1001
ACAD
1000
AcDbSavedByObjectVersion
1070
     0
  0
VISUALSTYLE
  5
34
102
{ACAD_XDICTIONARY
360
6B1
102
}
102
{ACAD_REACTORS
330
2A
102
}
330
2A
100
AcDbVisualStyle
  2

 70
     9
 71
     3
 72
     2
 73
     0
 90
        0
 40
-0.6
 41
-30.0
 62
     5
 63
     7
 74
     2
 91
        2
 64
     7
 65
   257
 75
     1
175
     1
 42
179.0
 92
        8
 66
     7
 43
1.0
 76
     1
 77
     6
 78
     2
 67
     7
 79
     3
170
     0
171
     0
290
     0
174
     0
 93
        1
 44
0.0
173
     0
291
     0
 45
0.0
1001
ACAD
1000
AcDbSavedByObjectVersion
1070
     0
  0
VISUALSTYLE
  5
35
102
{ACAD_XDICTIONARY
360
6B3
102
}
102
{ACAD_REACTORS
330
2A
102
}
330
2A
100
AcDbVisualStyle
  2

 70
    11
 71
     2
 72
     2
 73
     0
 90
        0
 40
-0.6
 41
-30.0
 62
     5
 63
     7
 74
     1
 91
        4
 64
     7
 65
   257
 75
     1
175
     1
 42
1.0
 92
        8
 66
     7
 43
1.0
 76
     1
 77
     6
 78
     2
 67
     7
 79
     5
170
     0
171
     0
290
     0
174
     0
 93
        1
 44
-50.0
173
     0
291
     1
 45
0.0
1001
ACAD
1000
AcDbSavedByObjectVersion
1070
     0
  0
VISUALSTYLE
  5
3D
102
{ACAD_XDICTIONARY
360
6C3
102
}
102
{ACAD_REACTORS
330
2A
102
}
330
2A
100
AcDbVisualStyle
  2

 70
    22
 71
     2
 72
     2
 73
     0
 90
        0
 40
-0.6
 41
-30.0
 62
     5
 63
     7
 74
     1
 91
        4
 64
     7
 65
   257
 75
     1
175
     1
 42
1.0
 92
        8
 66
     7
 43
1.0
 76
     1
 77
     6
 78
     2
 67
     7
 79
     5
170
     0
171
     0
290
     0
174
     0
 93
        1
 44
0.0
173
     0
291
     1
 45
0.0
1001
ACAD
1000
AcDbSavedByObjectVersion
1070
     0
  0
VISUALSTYLE
  5
39
102
{ACAD_XDICTIONARY
360
6BB
102
}
102
{ACAD_REACTORS
330
2A
102
}
330
2A
100
AcDbVisualStyle
  2

 70
    15
 71
     2
 72
     2
 73
     0
 90
        0
 40
-0.6
 41
-30.0
 62
     5
 63
     7
 74
     1
 91
        4
 64
     7
 65
   257
 75
     1
175
     1
 42
1.0
 92
        8
 66
     7
 43
1.0
 76
     1
 77
     6
 78
     2
 67
     7
 79
     5
170
     0
171
     0
290
     0
174
     0
 93
        1
 44
0.0
173
     0
291
     1
 45
0.0
1001
ACAD
1000
AcDbSavedByObjectVersion
1070
     0
  0
VISUALSTYLE
  5
2B
102
{ACAD_XDICTIONARY
360
69F
102
}
102
{ACAD_REACTORS
330
2A
102
}
330
2A
100
AcDbVisualStyle
  2

 70
     0
 71
     2
 72
     1
 73
     1
 90
        2
 40
-0.6
 41
30.0
 62
     5
 63
     7
 74
     0
 91
        0
 64
     7
 65
   257
 75
     1
175
     1
 42
1.0
 92
        8
 66
     7
 43
1.0
 76
     1
 77
     6
 78
     2
 67
     7
 79
     5
170
     0
171
     0
290
     0
174
     0
 93
       13
 44
0.0
173
     0
291
     1
 45
0.0
1001
ACAD
1000
AcDbSavedByObjectVersion
1070
     0
  0
VISUALSTYLE
  5
2C
102
{ACAD_XDICTIONARY
360
6A1
102
}
102
{ACAD_REACTORS
330
2A
102
}
330
2A
100
AcDbVisualStyle
  2

 70
     1
 71
     2
 72
     1
 73
     1
 90
        2
 40
-0.6
 41
30.0
 62
     5
 63
     7
 74
     1
 91
        0
 64
     7
 65
   257
 75
     1
175
     1
 42
1.0
 92
        0
 66
   257
 43
1.0
 76
     1
 77
     6
 78
     2
 67
     7
 79
     5
170
     0
171
     0
290
     0
174
     0
 93
       13
 44
0.0
173
     0
291
     1
 45
0.0
1001
ACAD
1000
AcDbSavedByObjectVersion
1070
     0
  0
VISUALSTYLE
  5
2D
102
{ACAD_XDICTIONARY
360
6A3
102
}
102
{ACAD_REACTORS
330
2A
102
}
330
2A
100
AcDbVisualStyle
  2

 70
     2
 71
     2
 72
     2
 73
     1
 90
        2
 40
-0.6
 41
30.0
 62
     5
 63
     7
 74
     0
 91
        0
 64
     7
 65
   257
 75
     1
175
     1
 42
1.0
 92
        0
 66
     7
 43
1.0
 76
     1
 77
     6
 78
     2
 67
     7
 79
     5
170
     0
171
     0
290
     0
174
     0
 93
       13
 44
0.0
173
     0
291
     1
 45
0.0
1001
ACAD
1000
AcDbSavedByObjectVersion
1070
     0
  0
VISUALSTYLE
  5
2E
102
{ACAD_XDICTIONARY
360
6A5
102
}
102
{ACAD_REACTORS
330
2A
102
}
330
2A
100
AcDbVisualStyle
  2

 70
     3
 71
     2
 72
     2
 73
     1
 90
        2
 40
-0.6
 41
30.0
 62
     5
 63
     7
 74
     1
 91
        0
 64
     7
 65
   257
 75
     1
175
     1
 42
1.0
 92
        0
 66
   257
 43
1.0
 76
     1
 77
     6
 78
     2
 67
     7
 79
     5
170
     0
171
     0
290
     0
174
     0
 93
       13
 44
0.0
173
     0
291
     1
 45
0.0
1001
ACAD
1000
AcDbSavedByObjectVersion
1070
     0
  0
VISUALSTYLE
  5
31
102
{ACAD_XDICTIONARY
360
6AB
102
}
102
{ACAD_REACTORS
330
2A
102
}
330
2A
100
AcDbVisualStyle
  2

 70
     6
 71
     1
 72
     2
 73
     2
 90
        0
 40
-0.6
 41
-30.0
 62
     5
 63
     7
 74
     2
 91
        2
 64
     7
 65
   257
 75
     2
175
     1
 42
40.0
 92
        0
 66
   257
 43
1.0
 76
     1
 77
     6
 78
     2
 67
     7
 79
     3
170
     0
171
     0
290
     0
174
     0
 93
        1
 44
0.0
173
     0
291
     0
 45
0.0
1001
ACAD
1000
AcDbSavedByObjectVersion
1070
     0
  0
VISUALSTYLE
  5
3B
102
{ACAD_XDICTIONARY
360
6BF
102
}
102
{ACAD_REACTORS
330
2A
102
}
330
2A
100
AcDbVisualStyle
  2

 70
    20
 71
     2
 72
     2
 73
     0
 90
        0
 40
-0.6
 41
-30.0
 62
     5
 63
     7
 74
     1
 91
        4
 64
     7
 65
   257
 75
     1
175
     1
 42
1.0
 92
       10
 66
     7
 43
1.0
 76
     1
 77
     6
 78
     2
 67
     7
 79
     5
170
     0
171
     0
290
     0
174
     0
 93
        1
 44
0.0
173
     0
291
     1
 45
0.0
1001
ACAD
1000
AcDbSavedByObjectVersion
1070
     0
  0
VISUALSTYLE
  5
38
102
{ACAD_XDICTIONARY
360
6B9
102
}
102
{ACAD_REACTORS
330
2A
102
}
330
2A
100
AcDbVisualStyle
  2

 70
    14
 71
     2
 72
     2
 73
     0
 90
        0
 40
-0.6
 41
-30.0
 62
     5
 63
     7
 74
     1
 91
        4
 64
     7
 65
   257
 75
     7
175
     7
 42
1.0
 92
        8
 66
     7
 43
1.0
 76
     1
 77
     6
 78
     2
 67
     7
 79
     5
170
     0
171
     0
290
     0
174
     0
 93
        1
 44
0.0
173
     0
291
     1
 45
0.0
1001
ACAD
1000
AcDbSavedByObjectVersion
1070
     0
  0
VISUALSTYLE
  5
3C
102
{ACAD_XDICTIONARY
360
6C1
102
}
102
{ACAD_REACTORS
330
2A
102
}
330
2A
100
AcDbVisualStyle
  2

 70
    21
 71
     2
 72
     2
 73
     0
 90
        0
 40
-0.6
 41
-30.0
 62
     5
 63
     7
 74
     1
 91
        4
 64
     7
 65
   257
 75
     1
175
     1
 42
1.0
 92
        9
 66
     7
 43
1.0
 76
     1
 77
     6
 78
     2
 67
     7
 79
     5
170
     0
171
     0
290
     0
174
     0
 93
        1
 44
0.0
173
     0
291
     1
 45
0.0
1001
ACAD
1000
AcDbSavedByObjectVersion
1070
     0
  0
VISUALSTYLE
  5
33
102
{ACAD_XDICTIONARY
360
6AF
102
}
102
{ACAD_REACTORS
330
2A
102
}
330
2A
100
AcDbVisualStyle
  2

 70
     8
 71
     2
 72
     3
 73
     0
 90
        2
 40
-0.6
 41
30.0
 62
     5
 63
     7
 74
     0
 91
        0
 64
     7
 65
   257
 75
     1
175
     1
 42
1.0
 92
        8
 66
   257
 43
1.0
 76
     1
 77
     6
 78
     2
 67
     7
 79
     3
170
     0
171
     0
290
     0
174
     0
 93
       13
 44
0.0
173
     0
291
     0
 45
0.0
1001
ACAD
1000
AcDbSavedByObjectVersion
1070
     0
  0
VISUALSTYLE
  5
42
102
{ACAD_XDICTIONARY
360
6CD
102
}
102
{ACAD_REACTORS
330
2A
102
}
330
2A
100
AcDbVisualStyle
  2

 70
    27
 71
     2
 72
     2
 73
     1
 90
        2
 40
-0.6
 41
30.0
 62
     5
 63
     7
 74
     0
 91
        4
 64
     7
 65
   257
 75
     1
175
     1
 42
1.0
 92
        8
 66
   257
 43
1.0
 76
     1
 77
     6
 78
     2
 67
     8
 79
     3
170
     0
171
     0
290
     0
174
     0
 93
        5
 44
0.0
173
     0
291
     0
 45
0.0
1001
ACAD
1000
AcDbSavedByObjectVersion
1070
     0
  0
VISUALSTYLE
  5
41
102
{ACAD_XDICTIONARY
360
6CB
102
}
102
{ACAD_REACTORS
330
2A
102
}
330
2A
100
AcDbVisualStyle
  2

 70
    26
 71
     2
 72
     2
 73
     1
 90
        2
 40
-0.6
 41
30.0
 62
     5
 63
     7
 74
     1
 91
       10
 64
     7
 65
   257
 75
     2
175
     1
 42
1.0
 92
        8
 66
   257
 43
1.0
 76
     1
 77
     6
 78
     2
 67
     7
 79
     3
170
     0
171
     0
290
     0
174
     0
 93
        5
 44
0.0
173
     0
291
     0
 45
0.0
1001
ACAD
1000
AcDbSavedByObjectVersion
1070
     0
  0
VISUALSTYLE
  5
3E
102
{ACAD_XDICTIONARY
360
6C5
102
}
102
{ACAD_REACTORS
330
2A
102
}
330
2A
100
AcDbVisualStyle
  2

 70
    23
 71
     2
 72
     2
 73
     3
 90
        0
 40
-0.6
 41
-30.0
 62
     5
 63
     7
 74
     2
 91
        2
 64
     7
 65
     7
 75
     1
175
     1
 42
40.0
 92
        8
 66
     7
 43
1.0
 76
     1
 77
     6
 78
     2
 67
     7
 79
     3
170
     0
171
     0
290
     0
174
     0
 93
        1
 44
0.0
173
     0
291
     0
 45
0.0
1001
ACAD
1000
AcDbSavedByObjectVersion
1070
     0
  0
VISUALSTYLE
  5
3F
102
{ACAD_XDICTIONARY
360
6C7
102
}
102
{ACAD_REACTORS
330
2A
102
}
330
2A
100
AcDbVisualStyle
  2

 70
    24
 71
     1
 72
     2
 73
     2
 90
        0
 40
-0.6
 41
-30.0
 62
     5
 63
     7
 74
     2
 91
        2
 64
     7
 65
     7
 75
     1
175
     1
 42
40.0
 92
       11
 66
     7
 43
1.0
 76
     1
 77
     6
 78
     2
 67
     7
 79
     6
170
     0
171
     0
290
     0
174
     0
 93
        1
 44
0.0
173
     0
291
     0
 45
0.0
1001
ACAD
1000
AcDbSavedByObjectVersion
1070
     0
  0
VISUALSTYLE
  5
37
102
{ACAD_XDICTIONARY
360
6B7
102
}
102
{ACAD_REACTORS
330
2A
102
}
330
2A
100
AcDbVisualStyle
  2

 70
    13
 71
     2
 72
     2
 73
     0
 90
        0
 40
-0.6
 41
-30.0
 62
     5
 63
     7
 74
     1
 91
        4
 64
     7
 65
   257
 75
     1
175
     1
 42
1.0
 92
       12
 66
     7
 43
1.0
 76
     1
 77
     6
 78
     2
 67
     7
 79
     5
170
     0
171
     0
290
     0
174
     0
 93
        1
 44
0.0
173
     0
291
     1
 45
0.0
1001
ACAD
1000
AcDbSavedByObjectVersion
1070
     0
  0
VISUALSTYLE
  5
30
102
{ACAD_XDICTIONARY
360
6A9
102
}
102
{ACAD_REACTORS
330
2A
102
}
330
2A
100
AcDbVisualStyle
  2

 70
     5
 71
     0
 72
     2
 73
     0
 90
        0
 40
-0.6
 41
-30.0
 62
     5
 63
     7
 74
     1
 91
        4
 64
     7
 65
   257
 75
     1
175
     1
 42
1.0
 92
        0
 66
   257
 43
1.0
 76
     1
 77
     6
 78
     2
 67
     7
 79
     3
170
     0
171
     0
290
     0
174
     0
 93
        1
 44
0.0
173
     0
291
     0
 45
0.0
1001
ACAD
1000
AcDbSavedByObjectVersion
1070
     0
  0
VISUALSTYLE
  5
40
102
{ACAD_XDICTIONARY
360
6C9
102
}
102
{ACAD_REACTORS
330
2A
102
}
330
2A
100
AcDbVisualStyle
  2

 70
    25
 71
     2
 72
     2
 73
     1
 90
        1
 40
0.5
 41
-30.0
 62
     5
 63
     7
 74
     1
 91
        0
 64
     7
 65
   257
 75
     1
175
     1
 42
1.0
 92
        8
 66
     7
 43
1.0
 76
     1
 77
     6
 78
     2
 67
     7
 79
     3
170
     0
171
     0
290
     0
174
     0
 93
       13
 44
0.0
173
     0
291
     0
 45
0.0
1001
ACAD
1000
AcDbSavedByObjectVersion
1070
     0
  0
DICTIONARYVAR
  5
24B
102
{ACAD_REACTORS
330
23D
102
}
330
23D
100
DictionaryVariables
280
     0
  1
1:1
  0
DICTIONARYVAR
  5
244
102
{ACAD_REACTORS
330
23D
102
}
330
23D
100
DictionaryVariables
280
     0
  1
3.500000
  0
DICTIONARYVAR
  5
245
102
{ACAD_REACTORS
330
23D
102
}
330
23D
100
DictionaryVariables
280
     0
  1
acadiso.lin
  0
DICTIONARYVAR
  5
23F
102
{ACAD_REACTORS
330
23D
102
}
330
23D
100
DictionaryVariables
280
     0
  1
STANDARD
  0
DICTIONARYVAR
  5
23E
102
{ACAD_REACTORS
330
23D
102
}
330
23D
100
DictionaryVariables
280
     0
  1
STANDARD
  0
DICTIONARYVAR
  5
5BF
102
{ACAD_REACTORS
330
23D
102
}
330
23D
100
DictionaryVariables
280
     0
  1
Metric50
  0
DICTIONARYVAR
  5
5C0
102
{ACAD_REACTORS
330
23D
102
}
330
23D
100
DictionaryVariables
280
     0
  1
Metric50
  0
DICTIONARYVAR
  5
246
102
{ACAD_REACTORS
330
23D
102
}
330
23D
100
DictionaryVariables
280
     0
  1
2
  0
DICTIONARYVAR
  5
247
102
{ACAD_REACTORS
330
23D
102
}
330
23D
100
DictionaryVariables
280
     0
  1
1
  0
DICTIONARYVAR
  5
691
102
{ACAD_REACTORS
330
23D
102
}
330
23D
100
DictionaryVariables
280
     0
  1
0
  0
DICTIONARYVAR
  5
5C2
102
{ACAD_REACTORS
330
23D
102
}
330
23D
100
DictionaryVariables
280
     0
  1
1
  0
DICTIONARYVAR
  5
5C3
102
{ACAD_REACTORS
330
23D
102
}
330
23D
100
DictionaryVariables
280
     0
  1
15
  0
DICTIONARYVAR
  5
5C1
102
{ACAD_REACTORS
330
23D
102
}
330
23D
100
DictionaryVariables
280
     0
  1
0
  0
DICTIONARYVAR
  5
694
102
{ACAD_REACTORS
330
23D
102
}
330
23D
100
DictionaryVariables
280
     0
  1
1.570796
  0
DICTIONARYVAR
  5
695
102
{ACAD_REACTORS
330
23D
102
}
330
23D
100
DictionaryVariables
280
     0
  1
1.570796
  0
DICTIONARYVAR
  5
696
102
{ACAD_REACTORS
330
23D
102
}
330
23D
100
DictionaryVariables
280
     0
  1
-122.394000
  0
DICTIONARYVAR
  5
24C
102
{ACAD_REACTORS
330
23D
102
}
330
23D
100
DictionaryVariables
280
     0
  1
1
  0
DICTIONARYVAR
  5
693
102
{ACAD_REACTORS
330
23D
102
}
330
23D
100
DictionaryVariables
280
     0
  1
80.000000
  0
DICTIONARYVAR
  5
692
102
{ACAD_REACTORS
330
23D
102
}
330
23D
100
DictionaryVariables
280
     0
  1
5.000000
  0
DICTIONARYVAR
  5
690
102
{ACAD_REACTORS
330
23D
102
}
330
23D
100
DictionaryVariables
280
     0
  1
127
  0
DICTIONARYVAR
  5
697
102
{ACAD_REACTORS
330
23D
102
}
330
23D
100
DictionaryVariables
280
     0
  1
2
  0
DICTIONARY
  5
6D2
330
28C
100
AcDbDictionary
280
     1
281
     1
  3
ACAD_XREC_ROUNDTRIP
360
6D3
  0
DICTIONARY
  5
69B
330
1E
100
AcDbDictionary
280
     1
281
     1
  3
ACAD_XREC_ROUNDTRIP
360
69C
  0
DICTIONARY
  5
69D
330
22
100
AcDbDictionary
280
     1
281
     1
  3
ACAD_XREC_ROUNDTRIP
360
69E
  0
DICTIONARY
  5
6D4
330
28D
100
AcDbDictionary
280
     1
281
     1
  3
ACAD_XREC_ROUNDTRIP
360
6D5
  0
DICTIONARY
  5
27F
330
45
100
AcDbDictionary
280
     1
281
     1
  3
ACAD_XREC_ROUNDTRIP
360
280
  0
DICTIONARY
  5
27D
330
44
100
AcDbDictionary
280
     1
281
     1
  3
ACAD_XREC_ROUNDTRIP
360
27E
  0
DICTIONARY
  5
281
330
46
100
AcDbDictionary
280
     1
281
     1
  3
ACAD_XREC_ROUNDTRIP
360
282
  0
DICTIONARY
  5
6D0
330
28A
100
AcDbDictionary
280
     1
281
     1
  3
ACAD_XREC_ROUNDTRIP
360
6D1
  0
DICTIONARY
  5
602
330
5A
100
AcDbDictionary
280
     1
281
     1
  3
ACAD_ROUNDTRIP_2008_TABLESTYLE_CELLSTYLEMAP
360
698
  3
ACAD_XREC_ROUNDTRIP
360
6CF
  0
DICTIONARY
  5
6A7
330
2F
100
AcDbDictionary
280
     1
281
     1
  3
ACAD_XREC_ROUNDTRIP
360
6A8
  0
DICTIONARY
  5
6AD
330
32
100
AcDbDictionary
280
     1
281
     1
  3
ACAD_XREC_ROUNDTRIP
360
6AE
  0
DICTIONARY
  5
6B5
330
36
100
AcDbDictionary
280
     1
281
     1
  3
ACAD_XREC_ROUNDTRIP
360
6B6
  0
DICTIONARY
  5
6BD
330
3A
100
AcDbDictionary
280
     1
281
     1
  3
ACAD_XREC_ROUNDTRIP
360
6BE
  0
DICTIONARY
  5
6B1
330
34
100
AcDbDictionary
280
     1
281
     1
  3
ACAD_XREC_ROUNDTRIP
360
6B2
  0
DICTIONARY
  5
6B3
330
35
100
AcDbDictionary
280
     1
281
     1
  3
ACAD_XREC_ROUNDTRIP
360
6B4
  0
DICTIONARY
  5
6C3
330
3D
100
AcDbDictionary
280
     1
281
     1
  3
ACAD_XREC_ROUNDTRIP
360
6C4
  0
DICTIONARY
  5
6BB
330
39
100
AcDbDictionary
280
     1
281
     1
  3
ACAD_XREC_ROUNDTRIP
360
6BC
  0
DICTIONARY
  5
69F
330
2B
100
AcDbDictionary
280
     1
281
     1
  3
ACAD_XREC_ROUNDTRIP
360
6A0
  0
DICTIONARY
  5
6A1
330
2C
100
AcDbDictionary
280
     1
281
     1
  3
ACAD_XREC_ROUNDTRIP
360
6A2
  0
DICTIONARY
  5
6A3
330
2D
100
AcDbDictionary
280
     1
281
     1
  3
ACAD_XREC_ROUNDTRIP
360
6A4
  0
DICTIONARY
  5
6A5
330
2E
100
AcDbDictionary
280
     1
281
     1
  3
ACAD_XREC_ROUNDTRIP
360
6A6
  0
DICTIONARY
  5
6AB
330
31
100
AcDbDictionary
280
     1
281
     1
  3
ACAD_XREC_ROUNDTRIP
360
6AC
  0
DICTIONARY
  5
6BF
330
3B
100
AcDbDictionary
280
     1
281
     1
  3
ACAD_XREC_ROUNDTRIP
360
6C0
  0
DICTIONARY
  5
6B9
330
38
100
AcDbDictionary
280
     1
281
     1
  3
ACAD_XREC_ROUNDTRIP
360
6BA
  0
DICTIONARY
  5
6C1
330
3C
100
AcDbDictionary
280
     1
281
     1
  3
ACAD_XREC_ROUNDTRIP
360
6C2
  0
DICTIONARY
  5
6AF
330
33
100
AcDbDictionary
280
     1
281
     1
  3
ACAD_XREC_ROUNDTRIP
360
6B0
  0
DICTIONARY
  5
6CD
330
42
100
AcDbDictionary
280
     1
281
     1
  3
ACAD_XREC_ROUNDTRIP
360
6CE
  0
DICTIONARY
  5
6CB
330
41
100
AcDbDictionary
280
     1
281
     1
  3
ACAD_XREC_ROUNDTRIP
360
6CC
  0
DICTIONARY
  5
6C5
330
3E
100
AcDbDictionary
280
     1
281
     1
  3
ACAD_XREC_ROUNDTRIP
360
6C6
  0
DICTIONARY
  5
6C7
330
3F
100
AcDbDictionary
280
     1
281
     1
  3
ACAD_XREC_ROUNDTRIP
360
6C8
  0
DICTIONARY
  5
6B7
330
37
100
AcDbDictionary
280
     1
281
     1
  3
ACAD_XREC_ROUNDTRIP
360
6B8
  0
DICTIONARY
  5
6A9
330
30
100
AcDbDictionary
280
     1
281
     1
  3
ACAD_XREC_ROUNDTRIP
360
6AA
  0
DICTIONARY
  5
6C9
330
40
100
AcDbDictionary
280
     1
281
     1
  3
ACAD_XREC_ROUNDTRIP
360
6CA
  0
XRECORD
  5
6D3
102
{ACAD_REACTORS
330
6D2
102
}
330
6D2
100
AcDbXrecord
280
     1
102
DISPLAYNAME
  1
Metric50
102
FLAGS
 90
        0
  0
XRECORD
  5
69C
102
{ACAD_REACTORS
330
69B
102
}
330
69B
100
AcDbXrecord
280
     1
102
SHADEPLOT
 70
     0
102
SHADEPLOTRESLEVEL
 70
     2
102
SHADEPLOTCUSTOMDPI
 70
   300
  0
XRECORD
  5
69E
102
{ACAD_REACTORS
330
69D
102
}
330
69D
100
AcDbXrecord
280
     1
102
SHADEPLOT
 70
     0
102
SHADEPLOTRESLEVEL
 70
     2
102
SHADEPLOTCUSTOMDPI
 70
   300
  0
XRECORD
  5
6D5
102
{ACAD_REACTORS
330
6D4
102
}
330
6D4
100
AcDbXrecord
280
     1
102
SHADEPLOT
 70
     0
102
SHADEPLOTRESLEVEL
 70
     2
102
SHADEPLOTCUSTOMDPI
 70
   300
  0
XRECORD
  5
280
102
{ACAD_REACTORS
330
27F
102
}
330
27F
100
AcDbXrecord
280
     1
102
MATERIAL
148
0.0
149
0.0
149
0.0
 93
        0
 94
      127
282
     0
 72
     1
 77
     1
171
     1
175
     1
179
     1
273
     0
  0
XRECORD
  5
27E
102
{ACAD_REACTORS
330
27D
102
}
330
27D
100
AcDbXrecord
280
     1
102
MATERIAL
148
0.0
149
0.0
149
0.0
 93
        0
 94
      127
282
     0
 72
     1
 77
     1
171
     1
175
     1
179
     1
273
     0
  0
XRECORD
  5
282
102
{ACAD_REACTORS
330
281
102
}
330
281
100
AcDbXrecord
280
     1
102
MATERIAL
148
0.0
149
0.0
149
0.0
 93
        0
 94
      127
282
     0
 72
     1
 77
     1
171
     1
175
     1
179
     1
273
     0
  0
XRECORD
  5
6D1
102
{ACAD_REACTORS
330
6D0
102
}
330
6D0
100
AcDbXrecord
280
     1
102
DISPLAYNAME
  1
Metric50
102
FLAGS
 90
        0
  0
CELLSTYLEMAP
  5
698
102
{ACAD_REACTORS
330
602
102
}
330
602
100
AcDbCellStyleMap
 90
        3
300
CELLSTYLE
  1
TABLEFORMAT_BEGIN
 90
        5
170
     1
 91
        0
 92
    32768
 62
   257
 93
        1
300
CONTENTFORMAT
  1
CONTENTFORMAT_BEGIN
 90
        0
 91
        0
 92
        4
 93
        0
300

 40
0.0
140
1.0
 94
        5
 62
     0
340
11
144
6.0
309
CONTENTFORMAT_END
171
     1
301
MARGIN
  1
CELLMARGIN_BEGIN
 40
1.5
 40
1.5
 40
1.5
 40
1.5
 40
0.18
 40
0.18
309
CELLMARGIN_END
 94
        6
 95
        1
302
GRIDFORMAT
  1
GRIDFORMAT_BEGIN
 90
        0
 91
        1
 62
     0
 92
       -2
340
0
 93
        0
 40
0.045
309
GRIDFORMAT_END
 95
        2
302
GRIDFORMAT
  1
GRIDFORMAT_BEGIN
 90
        0
 91
        1
 62
     0
 92
       -2
340
0
 93
        0
 40
0.045
309
GRIDFORMAT_END
 95
        4
302
GRIDFORMAT
  1
GRIDFORMAT_BEGIN
 90
        0
 91
        1
 62
     0
 92
       -2
340
0
 93
        0
 40
0.045
309
GRIDFORMAT_END
 95
        8
302
GRIDFORMAT
  1
GRIDFORMAT_BEGIN
 90
        0
 91
        1
 62
     0
 92
       -2
340
0
 93
        0
 40
0.045
309
GRIDFORMAT_END
 95
       16
302
GRIDFORMAT
  1
GRIDFORMAT_BEGIN
 90
        0
 91
        1
 62
     0
 92
       -2
340
0
 93
        0
 40
0.045
309
GRIDFORMAT_END
 95
       32
302
GRIDFORMAT
  1
GRIDFORMAT_BEGIN
 90
        0
 91
        1
 62
     0
 92
       -2
340
0
 93
        0
 40
0.045
309
GRIDFORMAT_END
309
TABLEFORMAT_END
  1
CELLSTYLE_BEGIN
 90
        1
 91
        1
300
_TITLE
309
CELLSTYLE_END
300
CELLSTYLE
  1
TABLEFORMAT_BEGIN
 90
        5
170
     1
 91
        0
 92
        0
 62
   257
 93
        1
300
CONTENTFORMAT
  1
CONTENTFORMAT_BEGIN
 90
        0
 91
        0
 92
        4
 93
        0
300

 40
0.0
140
1.0
 94
        5
 62
     0
340
11
144
4.5
309
CONTENTFORMAT_END
171
     1
301
MARGIN
  1
CELLMARGIN_BEGIN
 40
1.5
 40
1.5
 40
1.5
 40
1.5
 40
0.18
 40
0.18
309
CELLMARGIN_END
 94
        6
 95
        1
302
GRIDFORMAT
  1
GRIDFORMAT_BEGIN
 90
        0
 91
        1
 62
     0
 92
       -2
340
0
 93
        0
 40
0.045
309
GRIDFORMAT_END
 95
        2
302
GRIDFORMAT
  1
GRIDFORMAT_BEGIN
 90
        0
 91
        1
 62
     0
 92
       -2
340
0
 93
        0
 40
0.045
309
GRIDFORMAT_END
 95
        4
302
GRIDFORMAT
  1
GRIDFORMAT_BEGIN
 90
        0
 91
        1
 62
     0
 92
       -2
340
0
 93
        0
 40
0.045
309
GRIDFORMAT_END
 95
        8
302
GRIDFORMAT
  1
GRIDFORMAT_BEGIN
 90
        0
 91
        1
 62
     0
 92
       -2
340
0
 93
        0
 40
0.045
309
GRIDFORMAT_END
 95
       16
302
GRIDFORMAT
  1
GRIDFORMAT_BEGIN
 90
        0
 91
        1
 62
     0
 92
       -2
340
0
 93
        0
 40
0.045
309
GRIDFORMAT_END
 95
       32
302
GRIDFORMAT
  1
GRIDFORMAT_BEGIN
 90
        0
 91
        1
 62
     0
 92
       -2
340
0
 93
        0
 40
0.045
309
GRIDFORMAT_END
309
TABLEFORMAT_END
  1
CELLSTYLE_BEGIN
 90
        2
 91
        1
300
_HEADER
309
CELLSTYLE_END
300
CELLSTYLE
  1
TABLEFORMAT_BEGIN
 90
        5
170
     1
 91
        0
 92
        0
 62
   257
 93
        1
300
CONTENTFORMAT
  1
CONTENTFORMAT_BEGIN
 90
        0
 91
        0
 92
        4
 93
        0
300

 40
0.0
140
1.0
 94
        2
 62
     0
340
11
144
4.5
309
CONTENTFORMAT_END
171
     1
301
MARGIN
  1
CELLMARGIN_BEGIN
 40
1.5
 40
1.5
 40
1.5
 40
1.5
 40
0.18
 40
0.18
309
CELLMARGIN_END
 94
        6
 95
        1
302
GRIDFORMAT
  1
GRIDFORMAT_BEGIN
 90
        0
 91
        1
 62
     0
 92
       -2
340
0
 93
        0
 40
0.045
309
GRIDFORMAT_END
 95
        2
302
GRIDFORMAT
  1
GRIDFORMAT_BEGIN
 90
        0
 91
        1
 62
     0
 92
       -2
340
0
 93
        0
 40
0.045
309
GRIDFORMAT_END
 95
        4
302
GRIDFORMAT
  1
GRIDFORMAT_BEGIN
 90
        0
 91
        1
 62
     0
 92
       -2
340
0
 93
        0
 40
0.045
309
GRIDFORMAT_END
 95
        8
302
GRIDFORMAT
  1
GRIDFORMAT_BEGIN
 90
        0
 91
        1
 62
     0
 92
       -2
340
0
 93
        0
 40
0.045
309
GRIDFORMAT_END
 95
       16
302
GRIDFORMAT
  1
GRIDFORMAT_BEGIN
 90
        0
 91
        1
 62
     0
 92
       -2
340
0
 93
        0
 40
0.045
309
GRIDFORMAT_END
 95
       32
302
GRIDFORMAT
  1
GRIDFORMAT_BEGIN
 90
        0
 91
        1
 62
     0
 92
       -2
340
0
 93
        0
 40
0.045
309
GRIDFORMAT_END
309
TABLEFORMAT_END
  1
CELLSTYLE_BEGIN
 90
        3
 91
        2
300
_DATA
309
CELLSTYLE_END
  0
XRECORD
  5
6CF
102
{ACAD_REACTORS
330
602
102
}
330
602
100
AcDbXrecord
280
     1
102
ACAD_ROUNDTRIP_PRE2007_TABLESTYLE
 90
        4
 91
        0
  1

 92
        4
 93
        0
  2

 94
        4
 95
        0
  3

  0
XRECORD
  5
6A8
102
{ACAD_REACTORS
330
6A7
102
}
330
6A7
100
AcDbXrecord
280
     1
102
RTVSPost2010Prop28
280
     1
102
RTVSPost2010PropOp28
 70
     1
102
RTVSPost2010Prop29
280
     1
102
RTVSPost2010PropOp29
 70
     1
102
RTVSPost2010Prop30
280
     0
102
RTVSPost2010PropOp30
 70
     1
102
RTVSPost2010Prop31
280
     0
102
RTVSPost2010PropOp31
 70
     1
102
RTVSPost2010Prop32
280
     0
102
RTVSPost2010PropOp32
 70
     1
102
RTVSPost2010Prop33
280
     0
102
RTVSPost2010PropOp33
 70
     1
102
RTVSPost2010Prop34
280
     0
102
RTVSPost2010PropOp34
 70
     1
102
RTVSPost2010Prop35
280
     0
102
RTVSPost2010PropOp35
 70
     1
102
RTVSPost2010Prop36
280
     0
102
RTVSPost2010PropOp36
 70
     1
102
RTVSPost2010Prop37
 90
       50
102
RTVSPost2010PropOp37
 70
     1
102
RTVSPost2010Prop38
140
0.0
102
RTVSPost2010PropOp38
 70
     1
102
RTVSPost2010Prop39
140
1.0
102
RTVSPost2010PropOp39
 70
     1
102
RTVSPost2010Prop40
 90
        0
102
RTVSPost2010PropOp40
 70
     1
102
RTVSPost2010Prop41ColorIndex
 90
       18
102
RTVSPost2010Prop41ColorRGB
 90
        0
102
RTVSPost2010PropOp41
 70
     1
102
RTVSPost2010Prop42
 90
       50
102
RTVSPost2010PropOp42
 70
     1
102
RTVSPost2010Prop43
 90
        3
102
RTVSPost2010PropOp43
 70
     1
102
RTVSPost2010Prop44ColorIndex
 90
        5
102
RTVSPost2010Prop44ColorRGB
 90
      255
102
RTVSPost2010PropOp44
 70
     1
102
RTVSPost2010Prop45
280
     0
102
RTVSPost2010PropOp45
 70
     1
102
RTVSPost2010Prop46
 90
       50
102
RTVSPost2010PropOp46
 70
     1
102
RTVSPost2010Prop47
 90
       50
102
RTVSPost2010PropOp47
 70
     1
102
RTVSPost2010Prop48
 90
       50
102
RTVSPost2010PropOp48
 70
     1
102
RTVSPost2010Prop49
280
     0
102
RTVSPost2010PropOp49
 70
     1
102
RTVSPost2010Prop50
 90
       50
102
RTVSPost2010PropOp50
 70
     1
102
RTVSPost2010Prop51ColorIndex
 90
      256
102
RTVSPost2010Prop51ColorRGB
 90
-16777216
102
RTVSPost2010PropOp51
 70
     0
102
RTVSPost2010Prop52
140
1.0
102
RTVSPost2010PropOp52
 70
     0
102
RTVSPost2010Prop53
 90
        2
102
RTVSPost2010PropOp53
 70
     1
102
RTVSPost2010Prop54
  1
strokes_ogs.tif
102
RTVSPost2010PropOp54
 70
     1
102
RTVSPost2010Prop55
280
     0
102
RTVSPost2010PropOp55
 70
     1
102
RTVSPost2010Prop56
140
1.0
102
RTVSPost2010PropOp56
 70
     1
102
RTVSPost2010Prop57
140
1.0
102
RTVSPost2010PropOp57
 70
     1
102
RTVSPropertyOp0
 70
     1
102
RTVSPropertyOp1
 70
     1
102
RTVSPropertyOp2
 70
     1
102
RTVSPropertyOp3
 70
     1
102
RTVSPropertyOp4
 70
     1
102
RTVSPropertyOp5
 70
     1
102
RTVSPropertyOp6
 70
     1
102
RTVSPropertyOp7
 70
     1
102
RTVSPropertyOp8
 70
     1
102
RTVSPropertyOp9
 70
     1
102
RTVSPropertyOp10
 70
     1
102
RTVSPropertyOp11
 70
     1
102
RTVSPropertyOp12
 70
     1
102
RTVSPropertyOp13
 70
     1
102
RTVSPropertyOp14
 70
     1
102
RTVSPropertyOp15
 70
     1
102
RTVSPropertyOp16
 70
     1
102
RTVSPropertyOp17
 70
     1
102
RTVSPropertyOp18
 70
     1
102
RTVSPropertyOp19
 70
     1
102
RTVSPropertyOp20
 70
     1
102
RTVSPropertyOp21
 70
     1
102
RTVSPropertyOp22
 70
     1
102
RTVSPropertyOp23
 70
     1
102
RTVSPropertyOp24
 70
     1
102
RTVSPropertyOp25
 70
     1
102
RTVSPropertyOp26
 70
     1
102
RTVSPropertyOp27
 70
     1
102
RTVSPropertyOp28
 70
     1
102
RTVSPropertyOp29
 70
     1
102
RTVSPropertyOp30
 70
     1
102
RTVSPropertyOp31
 70
     1
102
RTVSPropertyOp32
 70
     1
102
RTVSPropertyOp33
 70
     1
102
RTVSPropertyOp34
 70
     1
102
RTVSPropertyOp35
 70
     1
102
RTVSPropertyOp36
 70
     1
102
RTVSPropertyOp37
 70
     1
102
RTVSPropertyOp38
 70
     1
102
RTVSPropertyOp39
 70
     1
102
RTVSPropertyOp40
 70
     1
102
RTVSPropertyOp41
 70
     1
102
RTVSPropertyOp42
 70
     1
102
RTVSPropertyOp43
 70
     1
102
RTVSPropertyOp44
 70
     1
102
RTVSPropertyOp45
 70
     1
102
RTVSPropertyOp46
 70
     1
102
RTVSPropertyOp47
 70
     1
102
RTVSPropertyOp48
 70
     1
102
RTVSPropertyOp49
 70
     1
102
RTVSPropertyOp50
 70
     1
102
RTVSPropertyOp51
 70
     0
102
RTVSPropertyOp52
 70
     0
102
RTVSPropertyOp53
 70
     1
102
RTVSPropertyOp54
 70
     1
102
RTVSPropertyOp55
 70
     1
102
RTVSPropertyOp56
 70
     1
102
RTVSPropertyOp57
 70
     1
102
RTVSPropertyOp58
 70
     1
102
RTVSPropertyOp59
 70
     1
102
RTVSPropertyOp60
 70
     1
102
RTVSPropertyOp61
 70
     1
102
RTVSPropertyOp62
 70
     1
  0
XRECORD
  5
6AE
102
{ACAD_REACTORS
330
6AD
102
}
330
6AD
100
AcDbXrecord
280
     1
102
RTVSPost2010Prop28
280
     0
102
RTVSPost2010PropOp28
 70
     1
102
RTVSPost2010Prop29
280
     1
102
RTVSPost2010PropOp29
 70
     1
102
RTVSPost2010Prop30
280
     1
102
RTVSPost2010PropOp30
 70
     1
102
RTVSPost2010Prop31
280
     0
102
RTVSPost2010PropOp31
 70
     1
102
RTVSPost2010Prop32
280
     0
102
RTVSPost2010PropOp32
 70
     1
102
RTVSPost2010Prop33
280
     0
102
RTVSPost2010PropOp33
 70
     1
102
RTVSPost2010Prop34
280
     0
102
RTVSPost2010PropOp34
 70
     1
102
RTVSPost2010Prop35
280
     0
102
RTVSPost2010PropOp35
 70
     1
102
RTVSPost2010Prop36
280
     0
102
RTVSPost2010PropOp36
 70
     1
102
RTVSPost2010Prop37
 90
       50
102
RTVSPost2010PropOp37
 70
     1
102
RTVSPost2010Prop38
140
0.0
102
RTVSPost2010PropOp38
 70
     1
102
RTVSPost2010Prop39
140
1.0
102
RTVSPost2010PropOp39
 70
     1
102
RTVSPost2010Prop40
 90
        0
102
RTVSPost2010PropOp40
 70
     1
102
RTVSPost2010Prop41ColorIndex
 90
       18
102
RTVSPost2010Prop41ColorRGB
 90
        0
102
RTVSPost2010PropOp41
 70
     1
102
RTVSPost2010Prop42
 90
       50
102
RTVSPost2010PropOp42
 70
     1
102
RTVSPost2010Prop43
 90
        3
102
RTVSPost2010PropOp43
 70
     1
102
RTVSPost2010Prop44ColorIndex
 90
        5
102
RTVSPost2010Prop44ColorRGB
 90
      255
102
RTVSPost2010PropOp44
 70
     1
102
RTVSPost2010Prop45
280
     0
102
RTVSPost2010PropOp45
 70
     1
102
RTVSPost2010Prop46
 90
       50
102
RTVSPost2010PropOp46
 70
     1
102
RTVSPost2010Prop47
 90
       50
102
RTVSPost2010PropOp47
 70
     1
102
RTVSPost2010Prop48
 90
       50
102
RTVSPost2010PropOp48
 70
     1
102
RTVSPost2010Prop49
280
     0
102
RTVSPost2010PropOp49
 70
     1
102
RTVSPost2010Prop50
 90
       50
102
RTVSPost2010PropOp50
 70
     1
102
RTVSPost2010Prop51ColorIndex
 90
      256
102
RTVSPost2010Prop51ColorRGB
 90
-16777216
102
RTVSPost2010PropOp51
 70
     0
102
RTVSPost2010Prop52
140
1.0
102
RTVSPost2010PropOp52
 70
     0
102
RTVSPost2010Prop53
 90
        2
102
RTVSPost2010PropOp53
 70
     1
102
RTVSPost2010Prop54
  1
strokes_ogs.tif
102
RTVSPost2010PropOp54
 70
     1
102
RTVSPost2010Prop55
280
     0
102
RTVSPost2010PropOp55
 70
     1
102
RTVSPost2010Prop56
140
1.0
102
RTVSPost2010PropOp56
 70
     1
102
RTVSPost2010Prop57
140
1.0
102
RTVSPost2010PropOp57
 70
     1
102
RTVSPropertyOp0
 70
     1
102
RTVSPropertyOp1
 70
     1
102
RTVSPropertyOp2
 70
     1
102
RTVSPropertyOp3
 70
     1
102
RTVSPropertyOp4
 70
     1
102
RTVSPropertyOp5
 70
     1
102
RTVSPropertyOp6
 70
     1
102
RTVSPropertyOp7
 70
     1
102
RTVSPropertyOp8
 70
     1
102
RTVSPropertyOp9
 70
     1
102
RTVSPropertyOp10
 70
     1
102
RTVSPropertyOp11
 70
     1
102
RTVSPropertyOp12
 70
     1
102
RTVSPropertyOp13
 70
     1
102
RTVSPropertyOp14
 70
     1
102
RTVSPropertyOp15
 70
     1
102
RTVSPropertyOp16
 70
     1
102
RTVSPropertyOp17
 70
     1
102
RTVSPropertyOp18
 70
     1
102
RTVSPropertyOp19
 70
     1
102
RTVSPropertyOp20
 70
     1
102
RTVSPropertyOp21
 70
     1
102
RTVSPropertyOp22
 70
     1
102
RTVSPropertyOp23
 70
     1
102
RTVSPropertyOp24
 70
     1
102
RTVSPropertyOp25
 70
     1
102
RTVSPropertyOp26
 70
     1
102
RTVSPropertyOp27
 70
     1
102
RTVSPropertyOp28
 70
     1
102
RTVSPropertyOp29
 70
     1
102
RTVSPropertyOp30
 70
     1
102
RTVSPropertyOp31
 70
     1
102
RTVSPropertyOp32
 70
     1
102
RTVSPropertyOp33
 70
     1
102
RTVSPropertyOp34
 70
     1
102
RTVSPropertyOp35
 70
     1
102
RTVSPropertyOp36
 70
     1
102
RTVSPropertyOp37
 70
     1
102
RTVSPropertyOp38
 70
     1
102
RTVSPropertyOp39
 70
     1
102
RTVSPropertyOp40
 70
     1
102
RTVSPropertyOp41
 70
     1
102
RTVSPropertyOp42
 70
     1
102
RTVSPropertyOp43
 70
     1
102
RTVSPropertyOp44
 70
     1
102
RTVSPropertyOp45
 70
     1
102
RTVSPropertyOp46
 70
     1
102
RTVSPropertyOp47
 70
     1
102
RTVSPropertyOp48
 70
     1
102
RTVSPropertyOp49
 70
     1
102
RTVSPropertyOp50
 70
     1
102
RTVSPropertyOp51
 70
     0
102
RTVSPropertyOp52
 70
     0
102
RTVSPropertyOp53
 70
     1
102
RTVSPropertyOp54
 70
     1
102
RTVSPropertyOp55
 70
     1
102
RTVSPropertyOp56
 70
     1
102
RTVSPropertyOp57
 70
     1
102
RTVSPropertyOp58
 70
     1
102
RTVSPropertyOp59
 70
     1
102
RTVSPropertyOp60
 70
     1
102
RTVSPropertyOp61
 70
     1
102
RTVSPropertyOp62
 70
     1
  0
XRECORD
  5
6B6
102
{ACAD_REACTORS
330
6B5
102
}
330
6B5
100
AcDbXrecord
280
     1
102
RTVSPost2010Prop28
280
     0
102
RTVSPost2010PropOp28
 70
     1
102
RTVSPost2010Prop29
280
     1
102
RTVSPost2010PropOp29
 70
     1
102
RTVSPost2010Prop30
280
     1
102
RTVSPost2010PropOp30
 70
     1
102
RTVSPost2010Prop31
280
     0
102
RTVSPost2010PropOp31
 70
     1
102
RTVSPost2010Prop32
280
     0
102
RTVSPost2010PropOp32
 70
     1
102
RTVSPost2010Prop33
280
     0
102
RTVSPost2010PropOp33
 70
     1
102
RTVSPost2010Prop34
280
     0
102
RTVSPost2010PropOp34
 70
     1
102
RTVSPost2010Prop35
280
     0
102
RTVSPost2010PropOp35
 70
     1
102
RTVSPost2010Prop36
280
     0
102
RTVSPost2010PropOp36
 70
     1
102
RTVSPost2010Prop37
 90
       50
102
RTVSPost2010PropOp37
 70
     1
102
RTVSPost2010Prop38
140
0.0
102
RTVSPost2010PropOp38
 70
     1
102
RTVSPost2010Prop39
140
1.0
102
RTVSPost2010PropOp39
 70
     1
102
RTVSPost2010Prop40
 90
        0
102
RTVSPost2010PropOp40
 70
     1
102
RTVSPost2010Prop41ColorIndex
 90
       18
102
RTVSPost2010Prop41ColorRGB
 90
        0
102
RTVSPost2010PropOp41
 70
     1
102
RTVSPost2010Prop42
 90
       50
102
RTVSPost2010PropOp42
 70
     1
102
RTVSPost2010Prop43
 90
        3
102
RTVSPost2010PropOp43
 70
     1
102
RTVSPost2010Prop44ColorIndex
 90
        5
102
RTVSPost2010Prop44ColorRGB
 90
      255
102
RTVSPost2010PropOp44
 70
     1
102
RTVSPost2010Prop45
280
     0
102
RTVSPost2010PropOp45
 70
     1
102
RTVSPost2010Prop46
 90
       50
102
RTVSPost2010PropOp46
 70
     1
102
RTVSPost2010Prop47
 90
       50
102
RTVSPost2010PropOp47
 70
     1
102
RTVSPost2010Prop48
 90
       50
102
RTVSPost2010PropOp48
 70
     1
102
RTVSPost2010Prop49
280
     0
102
RTVSPost2010PropOp49
 70
     1
102
RTVSPost2010Prop50
 90
       50
102
RTVSPost2010PropOp50
 70
     1
102
RTVSPost2010Prop51ColorIndex
 90
      256
102
RTVSPost2010Prop51ColorRGB
 90
-16777216
102
RTVSPost2010PropOp51
 70
     0
102
RTVSPost2010Prop52
140
1.0
102
RTVSPost2010PropOp52
 70
     0
102
RTVSPost2010Prop53
 90
        2
102
RTVSPost2010PropOp53
 70
     1
102
RTVSPost2010Prop54
  1
strokes_ogs.tif
102
RTVSPost2010PropOp54
 70
     1
102
RTVSPost2010Prop55
280
     0
102
RTVSPost2010PropOp55
 70
     1
102
RTVSPost2010Prop56
140
1.0
102
RTVSPost2010PropOp56
 70
     1
102
RTVSPost2010Prop57
140
1.0
102
RTVSPost2010PropOp57
 70
     1
102
RTVSPropertyOp0
 70
     1
102
RTVSPropertyOp1
 70
     1
102
RTVSPropertyOp2
 70
     1
102
RTVSPropertyOp3
 70
     1
102
RTVSPropertyOp4
 70
     1
102
RTVSPropertyOp5
 70
     1
102
RTVSPropertyOp6
 70
     1
102
RTVSPropertyOp7
 70
     1
102
RTVSPropertyOp8
 70
     1
102
RTVSPropertyOp9
 70
     1
102
RTVSPropertyOp10
 70
     1
102
RTVSPropertyOp11
 70
     1
102
RTVSPropertyOp12
 70
     1
102
RTVSPropertyOp13
 70
     1
102
RTVSPropertyOp14
 70
     1
102
RTVSPropertyOp15
 70
     1
102
RTVSPropertyOp16
 70
     1
102
RTVSPropertyOp17
 70
     1
102
RTVSPropertyOp18
 70
     1
102
RTVSPropertyOp19
 70
     1
102
RTVSPropertyOp20
 70
     1
102
RTVSPropertyOp21
 70
     1
102
RTVSPropertyOp22
 70
     1
102
RTVSPropertyOp23
 70
     1
102
RTVSPropertyOp24
 70
     1
102
RTVSPropertyOp25
 70
     1
102
RTVSPropertyOp26
 70
     1
102
RTVSPropertyOp27
 70
     1
102
RTVSPropertyOp28
 70
     1
102
RTVSPropertyOp29
 70
     1
102
RTVSPropertyOp30
 70
     1
102
RTVSPropertyOp31
 70
     1
102
RTVSPropertyOp32
 70
     1
102
RTVSPropertyOp33
 70
     1
102
RTVSPropertyOp34
 70
     1
102
RTVSPropertyOp35
 70
     1
102
RTVSPropertyOp36
 70
     1
102
RTVSPropertyOp37
 70
     1
102
RTVSPropertyOp38
 70
     1
102
RTVSPropertyOp39
 70
     1
102
RTVSPropertyOp40
 70
     1
102
RTVSPropertyOp41
 70
     1
102
RTVSPropertyOp42
 70
     1
102
RTVSPropertyOp43
 70
     1
102
RTVSPropertyOp44
 70
     1
102
RTVSPropertyOp45
 70
     1
102
RTVSPropertyOp46
 70
     1
102
RTVSPropertyOp47
 70
     1
102
RTVSPropertyOp48
 70
     1
102
RTVSPropertyOp49
 70
     1
102
RTVSPropertyOp50
 70
     1
102
RTVSPropertyOp51
 70
     0
102
RTVSPropertyOp52
 70
     0
102
RTVSPropertyOp53
 70
     1
102
RTVSPropertyOp54
 70
     1
102
RTVSPropertyOp55
 70
     1
102
RTVSPropertyOp56
 70
     1
102
RTVSPropertyOp57
 70
     1
102
RTVSPropertyOp58
 70
     1
102
RTVSPropertyOp59
 70
     1
102
RTVSPropertyOp60
 70
     1
102
RTVSPropertyOp61
 70
     1
102
RTVSPropertyOp62
 70
     1
  0
XRECORD
  5
6BE
102
{ACAD_REACTORS
330
6BD
102
}
330
6BD
100
AcDbXrecord
280
     1
102
RTVSPost2010Prop28
280
     0
102
RTVSPost2010PropOp28
 70
     1
102
RTVSPost2010Prop29
280
     1
102
RTVSPost2010PropOp29
 70
     1
102
RTVSPost2010Prop30
280
     1
102
RTVSPost2010PropOp30
 70
     1
102
RTVSPost2010Prop31
280
     0
102
RTVSPost2010PropOp31
 70
     1
102
RTVSPost2010Prop32
280
     0
102
RTVSPost2010PropOp32
 70
     1
102
RTVSPost2010Prop33
280
     0
102
RTVSPost2010PropOp33
 70
     1
102
RTVSPost2010Prop34
280
     0
102
RTVSPost2010PropOp34
 70
     1
102
RTVSPost2010Prop35
280
     0
102
RTVSPost2010PropOp35
 70
     1
102
RTVSPost2010Prop36
280
     0
102
RTVSPost2010PropOp36
 70
     1
102
RTVSPost2010Prop37
 90
       50
102
RTVSPost2010PropOp37
 70
     1
102
RTVSPost2010Prop38
140
0.0
102
RTVSPost2010PropOp38
 70
     1
102
RTVSPost2010Prop39
140
1.0
102
RTVSPost2010PropOp39
 70
     1
102
RTVSPost2010Prop40
 90
        0
102
RTVSPost2010PropOp40
 70
     1
102
RTVSPost2010Prop41ColorIndex
 90
       18
102
RTVSPost2010Prop41ColorRGB
 90
        0
102
RTVSPost2010PropOp41
 70
     1
102
RTVSPost2010Prop42
 90
       50
102
RTVSPost2010PropOp42
 70
     1
102
RTVSPost2010Prop43
 90
        3
102
RTVSPost2010PropOp43
 70
     1
102
RTVSPost2010Prop44ColorIndex
 90
        5
102
RTVSPost2010Prop44ColorRGB
 90
      255
102
RTVSPost2010PropOp44
 70
     1
102
RTVSPost2010Prop45
280
     0
102
RTVSPost2010PropOp45
 70
     1
102
RTVSPost2010Prop46
 90
       50
102
RTVSPost2010PropOp46
 70
     1
102
RTVSPost2010Prop47
 90
       50
102
RTVSPost2010PropOp47
 70
     1
102
RTVSPost2010Prop48
 90
       50
102
RTVSPost2010PropOp48
 70
     1
102
RTVSPost2010Prop49
280
     0
102
RTVSPost2010PropOp49
 70
     1
102
RTVSPost2010Prop50
 90
       50
102
RTVSPost2010PropOp50
 70
     1
102
RTVSPost2010Prop51ColorIndex
 90
      256
102
RTVSPost2010Prop51ColorRGB
 90
-16777216
102
RTVSPost2010PropOp51
 70
     0
102
RTVSPost2010Prop52
140
1.0
102
RTVSPost2010PropOp52
 70
     0
102
RTVSPost2010Prop53
 90
        2
102
RTVSPost2010PropOp53
 70
     1
102
RTVSPost2010Prop54
  1
strokes_ogs.tif
102
RTVSPost2010PropOp54
 70
     1
102
RTVSPost2010Prop55
280
     0
102
RTVSPost2010PropOp55
 70
     1
102
RTVSPost2010Prop56
140
1.0
102
RTVSPost2010PropOp56
 70
     1
102
RTVSPost2010Prop57
140
1.0
102
RTVSPost2010PropOp57
 70
     1
102
RTVSPropertyOp0
 70
     1
102
RTVSPropertyOp1
 70
     1
102
RTVSPropertyOp2
 70
     1
102
RTVSPropertyOp3
 70
     1
102
RTVSPropertyOp4
 70
     1
102
RTVSPropertyOp5
 70
     1
102
RTVSPropertyOp6
 70
     1
102
RTVSPropertyOp7
 70
     1
102
RTVSPropertyOp8
 70
     1
102
RTVSPropertyOp9
 70
     1
102
RTVSPropertyOp10
 70
     1
102
RTVSPropertyOp11
 70
     1
102
RTVSPropertyOp12
 70
     1
102
RTVSPropertyOp13
 70
     1
102
RTVSPropertyOp14
 70
     1
102
RTVSPropertyOp15
 70
     1
102
RTVSPropertyOp16
 70
     1
102
RTVSPropertyOp17
 70
     1
102
RTVSPropertyOp18
 70
     1
102
RTVSPropertyOp19
 70
     1
102
RTVSPropertyOp20
 70
     1
102
RTVSPropertyOp21
 70
     1
102
RTVSPropertyOp22
 70
     1
102
RTVSPropertyOp23
 70
     1
102
RTVSPropertyOp24
 70
     1
102
RTVSPropertyOp25
 70
     1
102
RTVSPropertyOp26
 70
     1
102
RTVSPropertyOp27
 70
     1
102
RTVSPropertyOp28
 70
     1
102
RTVSPropertyOp29
 70
     1
102
RTVSPropertyOp30
 70
     1
102
RTVSPropertyOp31
 70
     1
102
RTVSPropertyOp32
 70
     1
102
RTVSPropertyOp33
 70
     1
102
RTVSPropertyOp34
 70
     1
102
RTVSPropertyOp35
 70
     1
102
RTVSPropertyOp36
 70
     1
102
RTVSPropertyOp37
 70
     1
102
RTVSPropertyOp38
 70
     1
102
RTVSPropertyOp39
 70
     1
102
RTVSPropertyOp40
 70
     1
102
RTVSPropertyOp41
 70
     1
102
RTVSPropertyOp42
 70
     1
102
RTVSPropertyOp43
 70
     1
102
RTVSPropertyOp44
 70
     1
102
RTVSPropertyOp45
 70
     1
102
RTVSPropertyOp46
 70
     1
102
RTVSPropertyOp47
 70
     1
102
RTVSPropertyOp48
 70
     1
102
RTVSPropertyOp49
 70
     1
102
RTVSPropertyOp50
 70
     1
102
RTVSPropertyOp51
 70
     0
102
RTVSPropertyOp52
 70
     0
102
RTVSPropertyOp53
 70
     1
102
RTVSPropertyOp54
 70
     1
102
RTVSPropertyOp55
 70
     1
102
RTVSPropertyOp56
 70
     1
102
RTVSPropertyOp57
 70
     1
102
RTVSPropertyOp58
 70
     1
102
RTVSPropertyOp59
 70
     1
102
RTVSPropertyOp60
 70
     1
102
RTVSPropertyOp61
 70
     1
102
RTVSPropertyOp62
 70
     1
  0
XRECORD
  5
6B2
102
{ACAD_REACTORS
330
6B1
102
}
330
6B1
100
AcDbXrecord
280
     1
102
RTVSPost2010Prop28
280
     0
102
RTVSPost2010PropOp28
 70
     1
102
RTVSPost2010Prop29
280
     1
102
RTVSPost2010PropOp29
 70
     1
102
RTVSPost2010Prop30
280
     1
102
RTVSPost2010PropOp30
 70
     1
102
RTVSPost2010Prop31
280
     0
102
RTVSPost2010PropOp31
 70
     1
102
RTVSPost2010Prop32
280
     0
102
RTVSPost2010PropOp32
 70
     1
102
RTVSPost2010Prop33
280
     0
102
RTVSPost2010PropOp33
 70
     1
102
RTVSPost2010Prop34
280
     0
102
RTVSPost2010PropOp34
 70
     1
102
RTVSPost2010Prop35
280
     0
102
RTVSPost2010PropOp35
 70
     1
102
RTVSPost2010Prop36
280
     0
102
RTVSPost2010PropOp36
 70
     1
102
RTVSPost2010Prop37
 90
       50
102
RTVSPost2010PropOp37
 70
     1
102
RTVSPost2010Prop38
140
0.0
102
RTVSPost2010PropOp38
 70
     1
102
RTVSPost2010Prop39
140
1.0
102
RTVSPost2010PropOp39
 70
     1
102
RTVSPost2010Prop40
 90
        0
102
RTVSPost2010PropOp40
 70
     1
102
RTVSPost2010Prop41ColorIndex
 90
       18
102
RTVSPost2010Prop41ColorRGB
 90
        0
102
RTVSPost2010PropOp41
 70
     1
102
RTVSPost2010Prop42
 90
       50
102
RTVSPost2010PropOp42
 70
     1
102
RTVSPost2010Prop43
 90
        3
102
RTVSPost2010PropOp43
 70
     1
102
RTVSPost2010Prop44ColorIndex
 90
        5
102
RTVSPost2010Prop44ColorRGB
 90
      255
102
RTVSPost2010PropOp44
 70
     1
102
RTVSPost2010Prop45
280
     0
102
RTVSPost2010PropOp45
 70
     1
102
RTVSPost2010Prop46
 90
       50
102
RTVSPost2010PropOp46
 70
     1
102
RTVSPost2010Prop47
 90
       50
102
RTVSPost2010PropOp47
 70
     1
102
RTVSPost2010Prop48
 90
       50
102
RTVSPost2010PropOp48
 70
     1
102
RTVSPost2010Prop49
280
     0
102
RTVSPost2010PropOp49
 70
     1
102
RTVSPost2010Prop50
 90
       50
102
RTVSPost2010PropOp50
 70
     1
102
RTVSPost2010Prop51ColorIndex
 90
      256
102
RTVSPost2010Prop51ColorRGB
 90
-16777216
102
RTVSPost2010PropOp51
 70
     0
102
RTVSPost2010Prop52
140
1.0
102
RTVSPost2010PropOp52
 70
     0
102
RTVSPost2010Prop53
 90
        2
102
RTVSPost2010PropOp53
 70
     1
102
RTVSPost2010Prop54
  1
strokes_ogs.tif
102
RTVSPost2010PropOp54
 70
     1
102
RTVSPost2010Prop55
280
     0
102
RTVSPost2010PropOp55
 70
     1
102
RTVSPost2010Prop56
140
1.0
102
RTVSPost2010PropOp56
 70
     1
102
RTVSPost2010Prop57
140
1.0
102
RTVSPost2010PropOp57
 70
     1
102
RTVSPropertyOp0
 70
     1
102
RTVSPropertyOp1
 70
     1
102
RTVSPropertyOp2
 70
     1
102
RTVSPropertyOp3
 70
     1
102
RTVSPropertyOp4
 70
     1
102
RTVSPropertyOp5
 70
     1
102
RTVSPropertyOp6
 70
     1
102
RTVSPropertyOp7
 70
     1
102
RTVSPropertyOp8
 70
     1
102
RTVSPropertyOp9
 70
     1
102
RTVSPropertyOp10
 70
     1
102
RTVSPropertyOp11
 70
     1
102
RTVSPropertyOp12
 70
     1
102
RTVSPropertyOp13
 70
     1
102
RTVSPropertyOp14
 70
     1
102
RTVSPropertyOp15
 70
     1
102
RTVSPropertyOp16
 70
     1
102
RTVSPropertyOp17
 70
     1
102
RTVSPropertyOp18
 70
     1
102
RTVSPropertyOp19
 70
     1
102
RTVSPropertyOp20
 70
     1
102
RTVSPropertyOp21
 70
     1
102
RTVSPropertyOp22
 70
     1
102
RTVSPropertyOp23
 70
     1
102
RTVSPropertyOp24
 70
     1
102
RTVSPropertyOp25
 70
     1
102
RTVSPropertyOp26
 70
     1
102
RTVSPropertyOp27
 70
     1
102
RTVSPropertyOp28
 70
     1
102
RTVSPropertyOp29
 70
     1
102
RTVSPropertyOp30
 70
     1
102
RTVSPropertyOp31
 70
     1
102
RTVSPropertyOp32
 70
     1
102
RTVSPropertyOp33
 70
     1
102
RTVSPropertyOp34
 70
     1
102
RTVSPropertyOp35
 70
     1
102
RTVSPropertyOp36
 70
     1
102
RTVSPropertyOp37
 70
     1
102
RTVSPropertyOp38
 70
     1
102
RTVSPropertyOp39
 70
     1
102
RTVSPropertyOp40
 70
     1
102
RTVSPropertyOp41
 70
     1
102
RTVSPropertyOp42
 70
     1
102
RTVSPropertyOp43
 70
     1
102
RTVSPropertyOp44
 70
     1
102
RTVSPropertyOp45
 70
     1
102
RTVSPropertyOp46
 70
     1
102
RTVSPropertyOp47
 70
     1
102
RTVSPropertyOp48
 70
     1
102
RTVSPropertyOp49
 70
     1
102
RTVSPropertyOp50
 70
     1
102
RTVSPropertyOp51
 70
     0
102
RTVSPropertyOp52
 70
     0
102
RTVSPropertyOp53
 70
     1
102
RTVSPropertyOp54
 70
     1
102
RTVSPropertyOp55
 70
     1
102
RTVSPropertyOp56
 70
     1
102
RTVSPropertyOp57
 70
     1
102
RTVSPropertyOp58
 70
     1
102
RTVSPropertyOp59
 70
     1
102
RTVSPropertyOp60
 70
     1
102
RTVSPropertyOp61
 70
     1
102
RTVSPropertyOp62
 70
     1
  0
XRECORD
  5
6B4
102
{ACAD_REACTORS
330
6B3
102
}
330
6B3
100
AcDbXrecord
280
     1
102
RTVSPost2010Prop28
280
     0
102
RTVSPost2010PropOp28
 70
     1
102
RTVSPost2010Prop29
280
     1
102
RTVSPost2010PropOp29
 70
     1
102
RTVSPost2010Prop30
280
     1
102
RTVSPost2010PropOp30
 70
     1
102
RTVSPost2010Prop31
280
     0
102
RTVSPost2010PropOp31
 70
     1
102
RTVSPost2010Prop32
280
     0
102
RTVSPost2010PropOp32
 70
     1
102
RTVSPost2010Prop33
280
     0
102
RTVSPost2010PropOp33
 70
     1
102
RTVSPost2010Prop34
280
     0
102
RTVSPost2010PropOp34
 70
     1
102
RTVSPost2010Prop35
280
     0
102
RTVSPost2010PropOp35
 70
     1
102
RTVSPost2010Prop36
280
     0
102
RTVSPost2010PropOp36
 70
     1
102
RTVSPost2010Prop37
 90
       50
102
RTVSPost2010PropOp37
 70
     1
102
RTVSPost2010Prop38
140
0.0
102
RTVSPost2010PropOp38
 70
     1
102
RTVSPost2010Prop39
140
1.0
102
RTVSPost2010PropOp39
 70
     1
102
RTVSPost2010Prop40
 90
        0
102
RTVSPost2010PropOp40
 70
     1
102
RTVSPost2010Prop41ColorIndex
 90
       18
102
RTVSPost2010Prop41ColorRGB
 90
        0
102
RTVSPost2010PropOp41
 70
     1
102
RTVSPost2010Prop42
 90
       50
102
RTVSPost2010PropOp42
 70
     1
102
RTVSPost2010Prop43
 90
        3
102
RTVSPost2010PropOp43
 70
     1
102
RTVSPost2010Prop44ColorIndex
 90
        5
102
RTVSPost2010Prop44ColorRGB
 90
      255
102
RTVSPost2010PropOp44
 70
     1
102
RTVSPost2010Prop45
280
     0
102
RTVSPost2010PropOp45
 70
     1
102
RTVSPost2010Prop46
 90
       50
102
RTVSPost2010PropOp46
 70
     1
102
RTVSPost2010Prop47
 90
       50
102
RTVSPost2010PropOp47
 70
     1
102
RTVSPost2010Prop48
 90
       50
102
RTVSPost2010PropOp48
 70
     1
102
RTVSPost2010Prop49
280
     0
102
RTVSPost2010PropOp49
 70
     1
102
RTVSPost2010Prop50
 90
       50
102
RTVSPost2010PropOp50
 70
     1
102
RTVSPost2010Prop51ColorIndex
 90
      256
102
RTVSPost2010Prop51ColorRGB
 90
-16777216
102
RTVSPost2010PropOp51
 70
     0
102
RTVSPost2010Prop52
140
1.0
102
RTVSPost2010PropOp52
 70
     0
102
RTVSPost2010Prop53
 90
        2
102
RTVSPost2010PropOp53
 70
     1
102
RTVSPost2010Prop54
  1
strokes_ogs.tif
102
RTVSPost2010PropOp54
 70
     1
102
RTVSPost2010Prop55
280
     0
102
RTVSPost2010PropOp55
 70
     1
102
RTVSPost2010Prop56
140
1.0
102
RTVSPost2010PropOp56
 70
     1
102
RTVSPost2010Prop57
140
1.0
102
RTVSPost2010PropOp57
 70
     1
102
RTVSPropertyOp0
 70
     1
102
RTVSPropertyOp1
 70
     1
102
RTVSPropertyOp2
 70
     1
102
RTVSPropertyOp3
 70
     1
102
RTVSPropertyOp4
 70
     1
102
RTVSPropertyOp5
 70
     1
102
RTVSPropertyOp6
 70
     1
102
RTVSPropertyOp7
 70
     1
102
RTVSPropertyOp8
 70
     1
102
RTVSPropertyOp9
 70
     1
102
RTVSPropertyOp10
 70
     1
102
RTVSPropertyOp11
 70
     1
102
RTVSPropertyOp12
 70
     1
102
RTVSPropertyOp13
 70
     1
102
RTVSPropertyOp14
 70
     1
102
RTVSPropertyOp15
 70
     1
102
RTVSPropertyOp16
 70
     1
102
RTVSPropertyOp17
 70
     1
102
RTVSPropertyOp18
 70
     1
102
RTVSPropertyOp19
 70
     1
102
RTVSPropertyOp20
 70
     1
102
RTVSPropertyOp21
 70
     1
102
RTVSPropertyOp22
 70
     1
102
RTVSPropertyOp23
 70
     1
102
RTVSPropertyOp24
 70
     1
102
RTVSPropertyOp25
 70
     1
102
RTVSPropertyOp26
 70
     1
102
RTVSPropertyOp27
 70
     1
102
RTVSPropertyOp28
 70
     1
102
RTVSPropertyOp29
 70
     1
102
RTVSPropertyOp30
 70
     1
102
RTVSPropertyOp31
 70
     1
102
RTVSPropertyOp32
 70
     1
102
RTVSPropertyOp33
 70
     1
102
RTVSPropertyOp34
 70
     1
102
RTVSPropertyOp35
 70
     1
102
RTVSPropertyOp36
 70
     1
102
RTVSPropertyOp37
 70
     1
102
RTVSPropertyOp38
 70
     1
102
RTVSPropertyOp39
 70
     1
102
RTVSPropertyOp40
 70
     1
102
RTVSPropertyOp41
 70
     1
102
RTVSPropertyOp42
 70
     1
102
RTVSPropertyOp43
 70
     1
102
RTVSPropertyOp44
 70
     1
102
RTVSPropertyOp45
 70
     1
102
RTVSPropertyOp46
 70
     1
102
RTVSPropertyOp47
 70
     1
102
RTVSPropertyOp48
 70
     1
102
RTVSPropertyOp49
 70
     1
102
RTVSPropertyOp50
 70
     1
102
RTVSPropertyOp51
 70
     0
102
RTVSPropertyOp52
 70
     0
102
RTVSPropertyOp53
 70
     1
102
RTVSPropertyOp54
 70
     1
102
RTVSPropertyOp55
 70
     1
102
RTVSPropertyOp56
 70
     1
102
RTVSPropertyOp57
 70
     1
102
RTVSPropertyOp58
 70
     1
102
RTVSPropertyOp59
 70
     1
102
RTVSPropertyOp60
 70
     1
102
RTVSPropertyOp61
 70
     1
102
RTVSPropertyOp62
 70
     1
  0
XRECORD
  5
6C4
102
{ACAD_REACTORS
330
6C3
102
}
330
6C3
100
AcDbXrecord
280
     1
102
RTVSPost2010Prop28
280
     0
102
RTVSPost2010PropOp28
 70
     0
102
RTVSPost2010Prop29
280
     1
102
RTVSPost2010PropOp29
 70
     0
102
RTVSPost2010Prop30
280
     1
102
RTVSPost2010PropOp30
 70
     0
102
RTVSPost2010Prop31
280
     0
102
RTVSPost2010PropOp31
 70
     0
102
RTVSPost2010Prop32
280
     0
102
RTVSPost2010PropOp32
 70
     0
102
RTVSPost2010Prop33
280
     0
102
RTVSPost2010PropOp33
 70
     0
102
RTVSPost2010Prop34
280
     0
102
RTVSPost2010PropOp34
 70
     0
102
RTVSPost2010Prop35
280
     0
102
RTVSPost2010PropOp35
 70
     0
102
RTVSPost2010Prop36
280
     0
102
RTVSPost2010PropOp36
 70
     0
102
RTVSPost2010Prop37
 90
       50
102
RTVSPost2010PropOp37
 70
     0
102
RTVSPost2010Prop38
140
0.0
102
RTVSPost2010PropOp38
 70
     0
102
RTVSPost2010Prop39
140
1.0
102
RTVSPost2010PropOp39
 70
     0
102
RTVSPost2010Prop40
 90
        0
102
RTVSPost2010PropOp40
 70
     0
102
RTVSPost2010Prop41ColorIndex
 90
       18
102
RTVSPost2010Prop41ColorRGB
 90
        0
102
RTVSPost2010PropOp41
 70
     0
102
RTVSPost2010Prop42
 90
       50
102
RTVSPost2010PropOp42
 70
     0
102
RTVSPost2010Prop43
 90
        3
102
RTVSPost2010PropOp43
 70
     0
102
RTVSPost2010Prop44ColorIndex
 90
        5
102
RTVSPost2010Prop44ColorRGB
 90
      255
102
RTVSPost2010PropOp44
 70
     0
102
RTVSPost2010Prop45
280
     0
102
RTVSPost2010PropOp45
 70
     0
102
RTVSPost2010Prop46
 90
       50
102
RTVSPost2010PropOp46
 70
     0
102
RTVSPost2010Prop47
 90
       50
102
RTVSPost2010PropOp47
 70
     0
102
RTVSPost2010Prop48
 90
       50
102
RTVSPost2010PropOp48
 70
     0
102
RTVSPost2010Prop49
280
     0
102
RTVSPost2010PropOp49
 70
     0
102
RTVSPost2010Prop50
 90
       50
102
RTVSPost2010PropOp50
 70
     0
102
RTVSPost2010Prop51ColorIndex
 90
      256
102
RTVSPost2010Prop51ColorRGB
 90
-16777216
102
RTVSPost2010PropOp51
 70
     0
102
RTVSPost2010Prop52
140
1.0
102
RTVSPost2010PropOp52
 70
     0
102
RTVSPost2010Prop53
 90
        2
102
RTVSPost2010PropOp53
 70
     0
102
RTVSPost2010Prop54
  1
strokes_ogs.tif
102
RTVSPost2010PropOp54
 70
     0
102
RTVSPost2010Prop55
280
     0
102
RTVSPost2010PropOp55
 70
     0
102
RTVSPost2010Prop56
140
1.0
102
RTVSPost2010PropOp56
 70
     0
102
RTVSPost2010Prop57
140
1.0
102
RTVSPost2010PropOp57
 70
     0
102
RTVSPropertyOp0
 70
     0
102
RTVSPropertyOp1
 70
     0
102
RTVSPropertyOp2
 70
     0
102
RTVSPropertyOp3
 70
     0
102
RTVSPropertyOp4
 70
     0
102
RTVSPropertyOp5
 70
     0
102
RTVSPropertyOp6
 70
     0
102
RTVSPropertyOp7
 70
     0
102
RTVSPropertyOp8
 70
     0
102
RTVSPropertyOp9
 70
     0
102
RTVSPropertyOp10
 70
     0
102
RTVSPropertyOp11
 70
     0
102
RTVSPropertyOp12
 70
     0
102
RTVSPropertyOp13
 70
     0
102
RTVSPropertyOp14
 70
     2
102
RTVSPropertyOp15
 70
     0
102
RTVSPropertyOp16
 70
     0
102
RTVSPropertyOp17
 70
     0
102
RTVSPropertyOp18
 70
     0
102
RTVSPropertyOp19
 70
     0
102
RTVSPropertyOp20
 70
     0
102
RTVSPropertyOp21
 70
     0
102
RTVSPropertyOp22
 70
     0
102
RTVSPropertyOp23
 70
     0
102
RTVSPropertyOp24
 70
     0
102
RTVSPropertyOp25
 70
     0
102
RTVSPropertyOp26
 70
     0
102
RTVSPropertyOp27
 70
     0
102
RTVSPropertyOp28
 70
     0
102
RTVSPropertyOp29
 70
     0
102
RTVSPropertyOp30
 70
     0
102
RTVSPropertyOp31
 70
     0
102
RTVSPropertyOp32
 70
     0
102
RTVSPropertyOp33
 70
     0
102
RTVSPropertyOp34
 70
     0
102
RTVSPropertyOp35
 70
     0
102
RTVSPropertyOp36
 70
     0
102
RTVSPropertyOp37
 70
     0
102
RTVSPropertyOp38
 70
     0
102
RTVSPropertyOp39
 70
     0
102
RTVSPropertyOp40
 70
     0
102
RTVSPropertyOp41
 70
     0
102
RTVSPropertyOp42
 70
     0
102
RTVSPropertyOp43
 70
     0
102
RTVSPropertyOp44
 70
     0
102
RTVSPropertyOp45
 70
     0
102
RTVSPropertyOp46
 70
     0
102
RTVSPropertyOp47
 70
     0
102
RTVSPropertyOp48
 70
     0
102
RTVSPropertyOp49
 70
     0
102
RTVSPropertyOp50
 70
     0
102
RTVSPropertyOp51
 70
     0
102
RTVSPropertyOp52
 70
     0
102
RTVSPropertyOp53
 70
     0
102
RTVSPropertyOp54
 70
     0
102
RTVSPropertyOp55
 70
     0
102
RTVSPropertyOp56
 70
     0
102
RTVSPropertyOp57
 70
     0
102
RTVSPropertyOp58
 70
     1
102
RTVSPropertyOp59
 70
     1
102
RTVSPropertyOp60
 70
     1
102
RTVSPropertyOp61
 70
     1
102
RTVSPropertyOp62
 70
     1
  0
XRECORD
  5
6BC
102
{ACAD_REACTORS
330
6BB
102
}
330
6BB
100
AcDbXrecord
280
     1
102
RTVSPost2010Prop28
280
     0
102
RTVSPost2010PropOp28
 70
     1
102
RTVSPost2010Prop29
280
     1
102
RTVSPost2010PropOp29
 70
     1
102
RTVSPost2010Prop30
280
     1
102
RTVSPost2010PropOp30
 70
     1
102
RTVSPost2010Prop31
280
     0
102
RTVSPost2010PropOp31
 70
     1
102
RTVSPost2010Prop32
280
     0
102
RTVSPost2010PropOp32
 70
     1
102
RTVSPost2010Prop33
280
     0
102
RTVSPost2010PropOp33
 70
     1
102
RTVSPost2010Prop34
280
     0
102
RTVSPost2010PropOp34
 70
     1
102
RTVSPost2010Prop35
280
     0
102
RTVSPost2010PropOp35
 70
     1
102
RTVSPost2010Prop36
280
     0
102
RTVSPost2010PropOp36
 70
     1
102
RTVSPost2010Prop37
 90
       50
102
RTVSPost2010PropOp37
 70
     1
102
RTVSPost2010Prop38
140
0.0
102
RTVSPost2010PropOp38
 70
     1
102
RTVSPost2010Prop39
140
1.0
102
RTVSPost2010PropOp39
 70
     1
102
RTVSPost2010Prop40
 90
        0
102
RTVSPost2010PropOp40
 70
     1
102
RTVSPost2010Prop41ColorIndex
 90
       18
102
RTVSPost2010Prop41ColorRGB
 90
        0
102
RTVSPost2010PropOp41
 70
     1
102
RTVSPost2010Prop42
 90
       50
102
RTVSPost2010PropOp42
 70
     1
102
RTVSPost2010Prop43
 90
        3
102
RTVSPost2010PropOp43
 70
     1
102
RTVSPost2010Prop44ColorIndex
 90
        5
102
RTVSPost2010Prop44ColorRGB
 90
      255
102
RTVSPost2010PropOp44
 70
     1
102
RTVSPost2010Prop45
280
     0
102
RTVSPost2010PropOp45
 70
     1
102
RTVSPost2010Prop46
 90
       50
102
RTVSPost2010PropOp46
 70
     1
102
RTVSPost2010Prop47
 90
       50
102
RTVSPost2010PropOp47
 70
     1
102
RTVSPost2010Prop48
 90
       50
102
RTVSPost2010PropOp48
 70
     1
102
RTVSPost2010Prop49
280
     0
102
RTVSPost2010PropOp49
 70
     1
102
RTVSPost2010Prop50
 90
       50
102
RTVSPost2010PropOp50
 70
     1
102
RTVSPost2010Prop51ColorIndex
 90
      256
102
RTVSPost2010Prop51ColorRGB
 90
-16777216
102
RTVSPost2010PropOp51
 70
     0
102
RTVSPost2010Prop52
140
1.0
102
RTVSPost2010PropOp52
 70
     0
102
RTVSPost2010Prop53
 90
        2
102
RTVSPost2010PropOp53
 70
     1
102
RTVSPost2010Prop54
  1
strokes_ogs.tif
102
RTVSPost2010PropOp54
 70
     1
102
RTVSPost2010Prop55
280
     0
102
RTVSPost2010PropOp55
 70
     1
102
RTVSPost2010Prop56
140
1.0
102
RTVSPost2010PropOp56
 70
     1
102
RTVSPost2010Prop57
140
1.0
102
RTVSPost2010PropOp57
 70
     1
102
RTVSPropertyOp0
 70
     1
102
RTVSPropertyOp1
 70
     1
102
RTVSPropertyOp2
 70
     1
102
RTVSPropertyOp3
 70
     1
102
RTVSPropertyOp4
 70
     1
102
RTVSPropertyOp5
 70
     1
102
RTVSPropertyOp6
 70
     1
102
RTVSPropertyOp7
 70
     1
102
RTVSPropertyOp8
 70
     1
102
RTVSPropertyOp9
 70
     1
102
RTVSPropertyOp10
 70
     1
102
RTVSPropertyOp11
 70
     1
102
RTVSPropertyOp12
 70
     1
102
RTVSPropertyOp13
 70
     1
102
RTVSPropertyOp14
 70
     1
102
RTVSPropertyOp15
 70
     1
102
RTVSPropertyOp16
 70
     1
102
RTVSPropertyOp17
 70
     1
102
RTVSPropertyOp18
 70
     1
102
RTVSPropertyOp19
 70
     1
102
RTVSPropertyOp20
 70
     1
102
RTVSPropertyOp21
 70
     1
102
RTVSPropertyOp22
 70
     1
102
RTVSPropertyOp23
 70
     1
102
RTVSPropertyOp24
 70
     1
102
RTVSPropertyOp25
 70
     1
102
RTVSPropertyOp26
 70
     1
102
RTVSPropertyOp27
 70
     1
102
RTVSPropertyOp28
 70
     1
102
RTVSPropertyOp29
 70
     1
102
RTVSPropertyOp30
 70
     1
102
RTVSPropertyOp31
 70
     1
102
RTVSPropertyOp32
 70
     1
102
RTVSPropertyOp33
 70
     1
102
RTVSPropertyOp34
 70
     1
102
RTVSPropertyOp35
 70
     1
102
RTVSPropertyOp36
 70
     1
102
RTVSPropertyOp37
 70
     1
102
RTVSPropertyOp38
 70
     1
102
RTVSPropertyOp39
 70
     1
102
RTVSPropertyOp40
 70
     1
102
RTVSPropertyOp41
 70
     1
102
RTVSPropertyOp42
 70
     1
102
RTVSPropertyOp43
 70
     1
102
RTVSPropertyOp44
 70
     1
102
RTVSPropertyOp45
 70
     1
102
RTVSPropertyOp46
 70
     1
102
RTVSPropertyOp47
 70
     1
102
RTVSPropertyOp48
 70
     1
102
RTVSPropertyOp49
 70
     1
102
RTVSPropertyOp50
 70
     1
102
RTVSPropertyOp51
 70
     0
102
RTVSPropertyOp52
 70
     0
102
RTVSPropertyOp53
 70
     1
102
RTVSPropertyOp54
 70
     1
102
RTVSPropertyOp55
 70
     1
102
RTVSPropertyOp56
 70
     1
102
RTVSPropertyOp57
 70
     1
102
RTVSPropertyOp58
 70
     1
102
RTVSPropertyOp59
 70
     1
102
RTVSPropertyOp60
 70
     1
102
RTVSPropertyOp61
 70
     1
102
RTVSPropertyOp62
 70
     1
  0
XRECORD
  5
6A0
102
{ACAD_REACTORS
330
69F
102
}
330
69F
100
AcDbXrecord
280
     1
102
RTVSPost2010Prop28
280
     0
102
RTVSPost2010PropOp28
 70
     1
102
RTVSPost2010Prop29
280
     1
102
RTVSPost2010PropOp29
 70
     1
102
RTVSPost2010Prop30
280
     1
102
RTVSPost2010PropOp30
 70
     1
102
RTVSPost2010Prop31
280
     0
102
RTVSPost2010PropOp31
 70
     1
102
RTVSPost2010Prop32
280
     0
102
RTVSPost2010PropOp32
 70
     1
102
RTVSPost2010Prop33
280
     0
102
RTVSPost2010PropOp33
 70
     1
102
RTVSPost2010Prop34
280
     0
102
RTVSPost2010PropOp34
 70
     1
102
RTVSPost2010Prop35
280
     0
102
RTVSPost2010PropOp35
 70
     1
102
RTVSPost2010Prop36
280
     0
102
RTVSPost2010PropOp36
 70
     1
102
RTVSPost2010Prop37
 90
       50
102
RTVSPost2010PropOp37
 70
     1
102
RTVSPost2010Prop38
140
0.0
102
RTVSPost2010PropOp38
 70
     1
102
RTVSPost2010Prop39
140
1.0
102
RTVSPost2010PropOp39
 70
     1
102
RTVSPost2010Prop40
 90
        0
102
RTVSPost2010PropOp40
 70
     1
102
RTVSPost2010Prop41ColorIndex
 90
       18
102
RTVSPost2010Prop41ColorRGB
 90
        0
102
RTVSPost2010PropOp41
 70
     1
102
RTVSPost2010Prop42
 90
       50
102
RTVSPost2010PropOp42
 70
     1
102
RTVSPost2010Prop43
 90
        3
102
RTVSPost2010PropOp43
 70
     1
102
RTVSPost2010Prop44ColorIndex
 90
        5
102
RTVSPost2010Prop44ColorRGB
 90
      255
102
RTVSPost2010PropOp44
 70
     1
102
RTVSPost2010Prop45
280
     0
102
RTVSPost2010PropOp45
 70
     1
102
RTVSPost2010Prop46
 90
       50
102
RTVSPost2010PropOp46
 70
     1
102
RTVSPost2010Prop47
 90
       50
102
RTVSPost2010PropOp47
 70
     1
102
RTVSPost2010Prop48
 90
       50
102
RTVSPost2010PropOp48
 70
     1
102
RTVSPost2010Prop49
280
     0
102
RTVSPost2010PropOp49
 70
     1
102
RTVSPost2010Prop50
 90
       50
102
RTVSPost2010PropOp50
 70
     1
102
RTVSPost2010Prop51ColorIndex
 90
      256
102
RTVSPost2010Prop51ColorRGB
 90
-16777216
102
RTVSPost2010PropOp51
 70
     0
102
RTVSPost2010Prop52
140
1.0
102
RTVSPost2010PropOp52
 70
     0
102
RTVSPost2010Prop53
 90
        2
102
RTVSPost2010PropOp53
 70
     1
102
RTVSPost2010Prop54
  1
strokes_ogs.tif
102
RTVSPost2010PropOp54
 70
     1
102
RTVSPost2010Prop55
280
     0
102
RTVSPost2010PropOp55
 70
     1
102
RTVSPost2010Prop56
140
1.0
102
RTVSPost2010PropOp56
 70
     1
102
RTVSPost2010Prop57
140
1.0
102
RTVSPost2010PropOp57
 70
     1
102
RTVSPropertyOp0
 70
     1
102
RTVSPropertyOp1
 70
     1
102
RTVSPropertyOp2
 70
     1
102
RTVSPropertyOp3
 70
     1
102
RTVSPropertyOp4
 70
     1
102
RTVSPropertyOp5
 70
     1
102
RTVSPropertyOp6
 70
     1
102
RTVSPropertyOp7
 70
     1
102
RTVSPropertyOp8
 70
     1
102
RTVSPropertyOp9
 70
     1
102
RTVSPropertyOp10
 70
     1
102
RTVSPropertyOp11
 70
     1
102
RTVSPropertyOp12
 70
     1
102
RTVSPropertyOp13
 70
     1
102
RTVSPropertyOp14
 70
     1
102
RTVSPropertyOp15
 70
     1
102
RTVSPropertyOp16
 70
     1
102
RTVSPropertyOp17
 70
     1
102
RTVSPropertyOp18
 70
     1
102
RTVSPropertyOp19
 70
     1
102
RTVSPropertyOp20
 70
     1
102
RTVSPropertyOp21
 70
     1
102
RTVSPropertyOp22
 70
     1
102
RTVSPropertyOp23
 70
     1
102
RTVSPropertyOp24
 70
     1
102
RTVSPropertyOp25
 70
     1
102
RTVSPropertyOp26
 70
     1
102
RTVSPropertyOp27
 70
     1
102
RTVSPropertyOp28
 70
     1
102
RTVSPropertyOp29
 70
     1
102
RTVSPropertyOp30
 70
     1
102
RTVSPropertyOp31
 70
     1
102
RTVSPropertyOp32
 70
     1
102
RTVSPropertyOp33
 70
     1
102
RTVSPropertyOp34
 70
     1
102
RTVSPropertyOp35
 70
     1
102
RTVSPropertyOp36
 70
     1
102
RTVSPropertyOp37
 70
     1
102
RTVSPropertyOp38
 70
     1
102
RTVSPropertyOp39
 70
     1
102
RTVSPropertyOp40
 70
     1
102
RTVSPropertyOp41
 70
     1
102
RTVSPropertyOp42
 70
     1
102
RTVSPropertyOp43
 70
     1
102
RTVSPropertyOp44
 70
     1
102
RTVSPropertyOp45
 70
     1
102
RTVSPropertyOp46
 70
     1
102
RTVSPropertyOp47
 70
     1
102
RTVSPropertyOp48
 70
     1
102
RTVSPropertyOp49
 70
     1
102
RTVSPropertyOp50
 70
     1
102
RTVSPropertyOp51
 70
     0
102
RTVSPropertyOp52
 70
     0
102
RTVSPropertyOp53
 70
     1
102
RTVSPropertyOp54
 70
     1
102
RTVSPropertyOp55
 70
     1
102
RTVSPropertyOp56
 70
     1
102
RTVSPropertyOp57
 70
     1
102
RTVSPropertyOp58
 70
     1
102
RTVSPropertyOp59
 70
     1
102
RTVSPropertyOp60
 70
     1
102
RTVSPropertyOp61
 70
     1
102
RTVSPropertyOp62
 70
     1
  0
XRECORD
  5
6A2
102
{ACAD_REACTORS
330
6A1
102
}
330
6A1
100
AcDbXrecord
280
     1
102
RTVSPost2010Prop28
280
     0
102
RTVSPost2010PropOp28
 70
     1
102
RTVSPost2010Prop29
280
     1
102
RTVSPost2010PropOp29
 70
     1
102
RTVSPost2010Prop30
280
     1
102
RTVSPost2010PropOp30
 70
     1
102
RTVSPost2010Prop31
280
     0
102
RTVSPost2010PropOp31
 70
     1
102
RTVSPost2010Prop32
280
     0
102
RTVSPost2010PropOp32
 70
     1
102
RTVSPost2010Prop33
280
     0
102
RTVSPost2010PropOp33
 70
     1
102
RTVSPost2010Prop34
280
     0
102
RTVSPost2010PropOp34
 70
     1
102
RTVSPost2010Prop35
280
     0
102
RTVSPost2010PropOp35
 70
     1
102
RTVSPost2010Prop36
280
     0
102
RTVSPost2010PropOp36
 70
     1
102
RTVSPost2010Prop37
 90
       50
102
RTVSPost2010PropOp37
 70
     1
102
RTVSPost2010Prop38
140
0.0
102
RTVSPost2010PropOp38
 70
     1
102
RTVSPost2010Prop39
140
1.0
102
RTVSPost2010PropOp39
 70
     1
102
RTVSPost2010Prop40
 90
        0
102
RTVSPost2010PropOp40
 70
     1
102
RTVSPost2010Prop41ColorIndex
 90
       18
102
RTVSPost2010Prop41ColorRGB
 90
        0
102
RTVSPost2010PropOp41
 70
     1
102
RTVSPost2010Prop42
 90
       50
102
RTVSPost2010PropOp42
 70
     1
102
RTVSPost2010Prop43
 90
        3
102
RTVSPost2010PropOp43
 70
     1
102
RTVSPost2010Prop44ColorIndex
 90
        5
102
RTVSPost2010Prop44ColorRGB
 90
      255
102
RTVSPost2010PropOp44
 70
     1
102
RTVSPost2010Prop45
280
     0
102
RTVSPost2010PropOp45
 70
     1
102
RTVSPost2010Prop46
 90
       50
102
RTVSPost2010PropOp46
 70
     1
102
RTVSPost2010Prop47
 90
       50
102
RTVSPost2010PropOp47
 70
     1
102
RTVSPost2010Prop48
 90
       50
102
RTVSPost2010PropOp48
 70
     1
102
RTVSPost2010Prop49
280
     0
102
RTVSPost2010PropOp49
 70
     1
102
RTVSPost2010Prop50
 90
       50
102
RTVSPost2010PropOp50
 70
     1
102
RTVSPost2010Prop51ColorIndex
 90
      256
102
RTVSPost2010Prop51ColorRGB
 90
-16777216
102
RTVSPost2010PropOp51
 70
     0
102
RTVSPost2010Prop52
140
1.0
102
RTVSPost2010PropOp52
 70
     0
102
RTVSPost2010Prop53
 90
        2
102
RTVSPost2010PropOp53
 70
     1
102
RTVSPost2010Prop54
  1
strokes_ogs.tif
102
RTVSPost2010PropOp54
 70
     1
102
RTVSPost2010Prop55
280
     0
102
RTVSPost2010PropOp55
 70
     1
102
RTVSPost2010Prop56
140
1.0
102
RTVSPost2010PropOp56
 70
     1
102
RTVSPost2010Prop57
140
1.0
102
RTVSPost2010PropOp57
 70
     1
102
RTVSPropertyOp0
 70
     1
102
RTVSPropertyOp1
 70
     1
102
RTVSPropertyOp2
 70
     1
102
RTVSPropertyOp3
 70
     1
102
RTVSPropertyOp4
 70
     1
102
RTVSPropertyOp5
 70
     1
102
RTVSPropertyOp6
 70
     1
102
RTVSPropertyOp7
 70
     1
102
RTVSPropertyOp8
 70
     1
102
RTVSPropertyOp9
 70
     1
102
RTVSPropertyOp10
 70
     1
102
RTVSPropertyOp11
 70
     1
102
RTVSPropertyOp12
 70
     1
102
RTVSPropertyOp13
 70
     1
102
RTVSPropertyOp14
 70
     1
102
RTVSPropertyOp15
 70
     1
102
RTVSPropertyOp16
 70
     1
102
RTVSPropertyOp17
 70
     1
102
RTVSPropertyOp18
 70
     1
102
RTVSPropertyOp19
 70
     1
102
RTVSPropertyOp20
 70
     1
102
RTVSPropertyOp21
 70
     1
102
RTVSPropertyOp22
 70
     1
102
RTVSPropertyOp23
 70
     1
102
RTVSPropertyOp24
 70
     1
102
RTVSPropertyOp25
 70
     1
102
RTVSPropertyOp26
 70
     1
102
RTVSPropertyOp27
 70
     1
102
RTVSPropertyOp28
 70
     1
102
RTVSPropertyOp29
 70
     1
102
RTVSPropertyOp30
 70
     1
102
RTVSPropertyOp31
 70
     1
102
RTVSPropertyOp32
 70
     1
102
RTVSPropertyOp33
 70
     1
102
RTVSPropertyOp34
 70
     1
102
RTVSPropertyOp35
 70
     1
102
RTVSPropertyOp36
 70
     1
102
RTVSPropertyOp37
 70
     1
102
RTVSPropertyOp38
 70
     1
102
RTVSPropertyOp39
 70
     1
102
RTVSPropertyOp40
 70
     1
102
RTVSPropertyOp41
 70
     1
102
RTVSPropertyOp42
 70
     1
102
RTVSPropertyOp43
 70
     1
102
RTVSPropertyOp44
 70
     1
102
RTVSPropertyOp45
 70
     1
102
RTVSPropertyOp46
 70
     1
102
RTVSPropertyOp47
 70
     1
102
RTVSPropertyOp48
 70
     1
102
RTVSPropertyOp49
 70
     1
102
RTVSPropertyOp50
 70
     1
102
RTVSPropertyOp51
 70
     0
102
RTVSPropertyOp52
 70
     0
102
RTVSPropertyOp53
 70
     1
102
RTVSPropertyOp54
 70
     1
102
RTVSPropertyOp55
 70
     1
102
RTVSPropertyOp56
 70
     1
102
RTVSPropertyOp57
 70
     1
102
RTVSPropertyOp58
 70
     1
102
RTVSPropertyOp59
 70
     1
102
RTVSPropertyOp60
 70
     1
102
RTVSPropertyOp61
 70
     1
102
RTVSPropertyOp62
 70
     1
  0
XRECORD
  5
6A4
102
{ACAD_REACTORS
330
6A3
102
}
330
6A3
100
AcDbXrecord
280
     1
102
RTVSPost2010Prop28
280
     0
102
RTVSPost2010PropOp28
 70
     1
102
RTVSPost2010Prop29
280
     1
102
RTVSPost2010PropOp29
 70
     1
102
RTVSPost2010Prop30
280
     1
102
RTVSPost2010PropOp30
 70
     1
102
RTVSPost2010Prop31
280
     0
102
RTVSPost2010PropOp31
 70
     1
102
RTVSPost2010Prop32
280
     0
102
RTVSPost2010PropOp32
 70
     1
102
RTVSPost2010Prop33
280
     0
102
RTVSPost2010PropOp33
 70
     1
102
RTVSPost2010Prop34
280
     0
102
RTVSPost2010PropOp34
 70
     1
102
RTVSPost2010Prop35
280
     0
102
RTVSPost2010PropOp35
 70
     1
102
RTVSPost2010Prop36
280
     0
102
RTVSPost2010PropOp36
 70
     1
102
RTVSPost2010Prop37
 90
       50
102
RTVSPost2010PropOp37
 70
     1
102
RTVSPost2010Prop38
140
0.0
102
RTVSPost2010PropOp38
 70
     1
102
RTVSPost2010Prop39
140
1.0
102
RTVSPost2010PropOp39
 70
     1
102
RTVSPost2010Prop40
 90
        0
102
RTVSPost2010PropOp40
 70
     1
102
RTVSPost2010Prop41ColorIndex
 90
       18
102
RTVSPost2010Prop41ColorRGB
 90
        0
102
RTVSPost2010PropOp41
 70
     1
102
RTVSPost2010Prop42
 90
       50
102
RTVSPost2010PropOp42
 70
     1
102
RTVSPost2010Prop43
 90
        3
102
RTVSPost2010PropOp43
 70
     1
102
RTVSPost2010Prop44ColorIndex
 90
        5
102
RTVSPost2010Prop44ColorRGB
 90
      255
102
RTVSPost2010PropOp44
 70
     1
102
RTVSPost2010Prop45
280
     0
102
RTVSPost2010PropOp45
 70
     1
102
RTVSPost2010Prop46
 90
       50
102
RTVSPost2010PropOp46
 70
     1
102
RTVSPost2010Prop47
 90
       50
102
RTVSPost2010PropOp47
 70
     1
102
RTVSPost2010Prop48
 90
       50
102
RTVSPost2010PropOp48
 70
     1
102
RTVSPost2010Prop49
280
     0
102
RTVSPost2010PropOp49
 70
     1
102
RTVSPost2010Prop50
 90
       50
102
RTVSPost2010PropOp50
 70
     1
102
RTVSPost2010Prop51ColorIndex
 90
      256
102
RTVSPost2010Prop51ColorRGB
 90
-16777216
102
RTVSPost2010PropOp51
 70
     0
102
RTVSPost2010Prop52
140
1.0
102
RTVSPost2010PropOp52
 70
     0
102
RTVSPost2010Prop53
 90
        2
102
RTVSPost2010PropOp53
 70
     1
102
RTVSPost2010Prop54
  1
strokes_ogs.tif
102
RTVSPost2010PropOp54
 70
     1
102
RTVSPost2010Prop55
280
     0
102
RTVSPost2010PropOp55
 70
     1
102
RTVSPost2010Prop56
140
1.0
102
RTVSPost2010PropOp56
 70
     1
102
RTVSPost2010Prop57
140
1.0
102
RTVSPost2010PropOp57
 70
     1
102
RTVSPropertyOp0
 70
     1
102
RTVSPropertyOp1
 70
     1
102
RTVSPropertyOp2
 70
     1
102
RTVSPropertyOp3
 70
     1
102
RTVSPropertyOp4
 70
     1
102
RTVSPropertyOp5
 70
     1
102
RTVSPropertyOp6
 70
     1
102
RTVSPropertyOp7
 70
     1
102
RTVSPropertyOp8
 70
     1
102
RTVSPropertyOp9
 70
     1
102
RTVSPropertyOp10
 70
     1
102
RTVSPropertyOp11
 70
     1
102
RTVSPropertyOp12
 70
     1
102
RTVSPropertyOp13
 70
     1
102
RTVSPropertyOp14
 70
     1
102
RTVSPropertyOp15
 70
     1
102
RTVSPropertyOp16
 70
     1
102
RTVSPropertyOp17
 70
     1
102
RTVSPropertyOp18
 70
     1
102
RTVSPropertyOp19
 70
     1
102
RTVSPropertyOp20
 70
     1
102
RTVSPropertyOp21
 70
     1
102
RTVSPropertyOp22
 70
     1
102
RTVSPropertyOp23
 70
     1
102
RTVSPropertyOp24
 70
     1
102
RTVSPropertyOp25
 70
     1
102
RTVSPropertyOp26
 70
     1
102
RTVSPropertyOp27
 70
     1
102
RTVSPropertyOp28
 70
     1
102
RTVSPropertyOp29
 70
     1
102
RTVSPropertyOp30
 70
     1
102
RTVSPropertyOp31
 70
     1
102
RTVSPropertyOp32
 70
     1
102
RTVSPropertyOp33
 70
     1
102
RTVSPropertyOp34
 70
     1
102
RTVSPropertyOp35
 70
     1
102
RTVSPropertyOp36
 70
     1
102
RTVSPropertyOp37
 70
     1
102
RTVSPropertyOp38
 70
     1
102
RTVSPropertyOp39
 70
     1
102
RTVSPropertyOp40
 70
     1
102
RTVSPropertyOp41
 70
     1
102
RTVSPropertyOp42
 70
     1
102
RTVSPropertyOp43
 70
     1
102
RTVSPropertyOp44
 70
     1
102
RTVSPropertyOp45
 70
     1
102
RTVSPropertyOp46
 70
     1
102
RTVSPropertyOp47
 70
     1
102
RTVSPropertyOp48
 70
     1
102
RTVSPropertyOp49
 70
     1
102
RTVSPropertyOp50
 70
     1
102
RTVSPropertyOp51
 70
     0
102
RTVSPropertyOp52
 70
     0
102
RTVSPropertyOp53
 70
     1
102
RTVSPropertyOp54
 70
     1
102
RTVSPropertyOp55
 70
     1
102
RTVSPropertyOp56
 70
     1
102
RTVSPropertyOp57
 70
     1
102
RTVSPropertyOp58
 70
     1
102
RTVSPropertyOp59
 70
     1
102
RTVSPropertyOp60
 70
     1
102
RTVSPropertyOp61
 70
     1
102
RTVSPropertyOp62
 70
     1
  0
XRECORD
  5
6A6
102
{ACAD_REACTORS
330
6A5
102
}
330
6A5
100
AcDbXrecord
280
     1
102
RTVSPost2010Prop28
280
     0
102
RTVSPost2010PropOp28
 70
     1
102
RTVSPost2010Prop29
280
     1
102
RTVSPost2010PropOp29
 70
     1
102
RTVSPost2010Prop30
280
     1
102
RTVSPost2010PropOp30
 70
     1
102
RTVSPost2010Prop31
280
     0
102
RTVSPost2010PropOp31
 70
     1
102
RTVSPost2010Prop32
280
     0
102
RTVSPost2010PropOp32
 70
     1
102
RTVSPost2010Prop33
280
     0
102
RTVSPost2010PropOp33
 70
     1
102
RTVSPost2010Prop34
280
     0
102
RTVSPost2010PropOp34
 70
     1
102
RTVSPost2010Prop35
280
     0
102
RTVSPost2010PropOp35
 70
     1
102
RTVSPost2010Prop36
280
     0
102
RTVSPost2010PropOp36
 70
     1
102
RTVSPost2010Prop37
 90
       50
102
RTVSPost2010PropOp37
 70
     1
102
RTVSPost2010Prop38
140
0.0
102
RTVSPost2010PropOp38
 70
     1
102
RTVSPost2010Prop39
140
1.0
102
RTVSPost2010PropOp39
 70
     1
102
RTVSPost2010Prop40
 90
        0
102
RTVSPost2010PropOp40
 70
     1
102
RTVSPost2010Prop41ColorIndex
 90
       18
102
RTVSPost2010Prop41ColorRGB
 90
        0
102
RTVSPost2010PropOp41
 70
     1
102
RTVSPost2010Prop42
 90
       50
102
RTVSPost2010PropOp42
 70
     1
102
RTVSPost2010Prop43
 90
        3
102
RTVSPost2010PropOp43
 70
     1
102
RTVSPost2010Prop44ColorIndex
 90
        5
102
RTVSPost2010Prop44ColorRGB
 90
      255
102
RTVSPost2010PropOp44
 70
     1
102
RTVSPost2010Prop45
280
     0
102
RTVSPost2010PropOp45
 70
     1
102
RTVSPost2010Prop46
 90
       50
102
RTVSPost2010PropOp46
 70
     1
102
RTVSPost2010Prop47
 90
       50
102
RTVSPost2010PropOp47
 70
     1
102
RTVSPost2010Prop48
 90
       50
102
RTVSPost2010PropOp48
 70
     1
102
RTVSPost2010Prop49
280
     0
102
RTVSPost2010PropOp49
 70
     1
102
RTVSPost2010Prop50
 90
       50
102
RTVSPost2010PropOp50
 70
     1
102
RTVSPost2010Prop51ColorIndex
 90
      256
102
RTVSPost2010Prop51ColorRGB
 90
-16777216
102
RTVSPost2010PropOp51
 70
     0
102
RTVSPost2010Prop52
140
1.0
102
RTVSPost2010PropOp52
 70
     0
102
RTVSPost2010Prop53
 90
        2
102
RTVSPost2010PropOp53
 70
     1
102
RTVSPost2010Prop54
  1
strokes_ogs.tif
102
RTVSPost2010PropOp54
 70
     1
102
RTVSPost2010Prop55
280
     0
102
RTVSPost2010PropOp55
 70
     1
102
RTVSPost2010Prop56
140
1.0
102
RTVSPost2010PropOp56
 70
     1
102
RTVSPost2010Prop57
140
1.0
102
RTVSPost2010PropOp57
 70
     1
102
RTVSPropertyOp0
 70
     1
102
RTVSPropertyOp1
 70
     1
102
RTVSPropertyOp2
 70
     1
102
RTVSPropertyOp3
 70
     1
102
RTVSPropertyOp4
 70
     1
102
RTVSPropertyOp5
 70
     1
102
RTVSPropertyOp6
 70
     1
102
RTVSPropertyOp7
 70
     1
102
RTVSPropertyOp8
 70
     1
102
RTVSPropertyOp9
 70
     1
102
RTVSPropertyOp10
 70
     1
102
RTVSPropertyOp11
 70
     1
102
RTVSPropertyOp12
 70
     1
102
RTVSPropertyOp13
 70
     1
102
RTVSPropertyOp14
 70
     1
102
RTVSPropertyOp15
 70
     1
102
RTVSPropertyOp16
 70
     1
102
RTVSPropertyOp17
 70
     1
102
RTVSPropertyOp18
 70
     1
102
RTVSPropertyOp19
 70
     1
102
RTVSPropertyOp20
 70
     1
102
RTVSPropertyOp21
 70
     1
102
RTVSPropertyOp22
 70
     1
102
RTVSPropertyOp23
 70
     1
102
RTVSPropertyOp24
 70
     1
102
RTVSPropertyOp25
 70
     1
102
RTVSPropertyOp26
 70
     1
102
RTVSPropertyOp27
 70
     1
102
RTVSPropertyOp28
 70
     1
102
RTVSPropertyOp29
 70
     1
102
RTVSPropertyOp30
 70
     1
102
RTVSPropertyOp31
 70
     1
102
RTVSPropertyOp32
 70
     1
102
RTVSPropertyOp33
 70
     1
102
RTVSPropertyOp34
 70
     1
102
RTVSPropertyOp35
 70
     1
102
RTVSPropertyOp36
 70
     1
102
RTVSPropertyOp37
 70
     1
102
RTVSPropertyOp38
 70
     1
102
RTVSPropertyOp39
 70
     1
102
RTVSPropertyOp40
 70
     1
102
RTVSPropertyOp41
 70
     1
102
RTVSPropertyOp42
 70
     1
102
RTVSPropertyOp43
 70
     1
102
RTVSPropertyOp44
 70
     1
102
RTVSPropertyOp45
 70
     1
102
RTVSPropertyOp46
 70
     1
102
RTVSPropertyOp47
 70
     1
102
RTVSPropertyOp48
 70
     1
102
RTVSPropertyOp49
 70
     1
102
RTVSPropertyOp50
 70
     1
102
RTVSPropertyOp51
 70
     0
102
RTVSPropertyOp52
 70
     0
102
RTVSPropertyOp53
 70
     1
102
RTVSPropertyOp54
 70
     1
102
RTVSPropertyOp55
 70
     1
102
RTVSPropertyOp56
 70
     1
102
RTVSPropertyOp57
 70
     1
102
RTVSPropertyOp58
 70
     1
102
RTVSPropertyOp59
 70
     1
102
RTVSPropertyOp60
 70
     1
102
RTVSPropertyOp61
 70
     1
102
RTVSPropertyOp62
 70
     1
  0
XRECORD
  5
6AC
102
{ACAD_REACTORS
330
6AB
102
}
330
6AB
100
AcDbXrecord
280
     1
102
RTVSPost2010Prop28
280
     0
102
RTVSPost2010PropOp28
 70
     1
102
RTVSPost2010Prop29
280
     1
102
RTVSPost2010PropOp29
 70
     1
102
RTVSPost2010Prop30
280
     1
102
RTVSPost2010PropOp30
 70
     1
102
RTVSPost2010Prop31
280
     0
102
RTVSPost2010PropOp31
 70
     1
102
RTVSPost2010Prop32
280
     0
102
RTVSPost2010PropOp32
 70
     1
102
RTVSPost2010Prop33
280
     0
102
RTVSPost2010PropOp33
 70
     1
102
RTVSPost2010Prop34
280
     0
102
RTVSPost2010PropOp34
 70
     1
102
RTVSPost2010Prop35
280
     0
102
RTVSPost2010PropOp35
 70
     1
102
RTVSPost2010Prop36
280
     0
102
RTVSPost2010PropOp36
 70
     1
102
RTVSPost2010Prop37
 90
       50
102
RTVSPost2010PropOp37
 70
     1
102
RTVSPost2010Prop38
140
0.0
102
RTVSPost2010PropOp38
 70
     1
102
RTVSPost2010Prop39
140
1.0
102
RTVSPost2010PropOp39
 70
     1
102
RTVSPost2010Prop40
 90
        0
102
RTVSPost2010PropOp40
 70
     1
102
RTVSPost2010Prop41ColorIndex
 90
       18
102
RTVSPost2010Prop41ColorRGB
 90
        0
102
RTVSPost2010PropOp41
 70
     1
102
RTVSPost2010Prop42
 90
       50
102
RTVSPost2010PropOp42
 70
     1
102
RTVSPost2010Prop43
 90
        3
102
RTVSPost2010PropOp43
 70
     1
102
RTVSPost2010Prop44ColorIndex
 90
        5
102
RTVSPost2010Prop44ColorRGB
 90
      255
102
RTVSPost2010PropOp44
 70
     1
102
RTVSPost2010Prop45
280
     0
102
RTVSPost2010PropOp45
 70
     1
102
RTVSPost2010Prop46
 90
       50
102
RTVSPost2010PropOp46
 70
     1
102
RTVSPost2010Prop47
 90
       50
102
RTVSPost2010PropOp47
 70
     1
102
RTVSPost2010Prop48
 90
       50
102
RTVSPost2010PropOp48
 70
     1
102
RTVSPost2010Prop49
280
     0
102
RTVSPost2010PropOp49
 70
     1
102
RTVSPost2010Prop50
 90
       50
102
RTVSPost2010PropOp50
 70
     1
102
RTVSPost2010Prop51ColorIndex
 90
      256
102
RTVSPost2010Prop51ColorRGB
 90
-16777216
102
RTVSPost2010PropOp51
 70
     0
102
RTVSPost2010Prop52
140
1.0
102
RTVSPost2010PropOp52
 70
     0
102
RTVSPost2010Prop53
 90
        2
102
RTVSPost2010PropOp53
 70
     1
102
RTVSPost2010Prop54
  1
strokes_ogs.tif
102
RTVSPost2010PropOp54
 70
     1
102
RTVSPost2010Prop55
280
     0
102
RTVSPost2010PropOp55
 70
     1
102
RTVSPost2010Prop56
140
1.0
102
RTVSPost2010PropOp56
 70
     1
102
RTVSPost2010Prop57
140
1.0
102
RTVSPost2010PropOp57
 70
     1
102
RTVSPropertyOp0
 70
     1
102
RTVSPropertyOp1
 70
     1
102
RTVSPropertyOp2
 70
     1
102
RTVSPropertyOp3
 70
     1
102
RTVSPropertyOp4
 70
     1
102
RTVSPropertyOp5
 70
     1
102
RTVSPropertyOp6
 70
     1
102
RTVSPropertyOp7
 70
     1
102
RTVSPropertyOp8
 70
     1
102
RTVSPropertyOp9
 70
     1
102
RTVSPropertyOp10
 70
     1
102
RTVSPropertyOp11
 70
     1
102
RTVSPropertyOp12
 70
     1
102
RTVSPropertyOp13
 70
     1
102
RTVSPropertyOp14
 70
     1
102
RTVSPropertyOp15
 70
     1
102
RTVSPropertyOp16
 70
     1
102
RTVSPropertyOp17
 70
     1
102
RTVSPropertyOp18
 70
     1
102
RTVSPropertyOp19
 70
     1
102
RTVSPropertyOp20
 70
     1
102
RTVSPropertyOp21
 70
     1
102
RTVSPropertyOp22
 70
     1
102
RTVSPropertyOp23
 70
     1
102
RTVSPropertyOp24
 70
     1
102
RTVSPropertyOp25
 70
     1
102
RTVSPropertyOp26
 70
     1
102
RTVSPropertyOp27
 70
     1
102
RTVSPropertyOp28
 70
     1
102
RTVSPropertyOp29
 70
     1
102
RTVSPropertyOp30
 70
     1
102
RTVSPropertyOp31
 70
     1
102
RTVSPropertyOp32
 70
     1
102
RTVSPropertyOp33
 70
     1
102
RTVSPropertyOp34
 70
     1
102
RTVSPropertyOp35
 70
     1
102
RTVSPropertyOp36
 70
     1
102
RTVSPropertyOp37
 70
     1
102
RTVSPropertyOp38
 70
     1
102
RTVSPropertyOp39
 70
     1
102
RTVSPropertyOp40
 70
     1
102
RTVSPropertyOp41
 70
     1
102
RTVSPropertyOp42
 70
     1
102
RTVSPropertyOp43
 70
     1
102
RTVSPropertyOp44
 70
     1
102
RTVSPropertyOp45
 70
     1
102
RTVSPropertyOp46
 70
     1
102
RTVSPropertyOp47
 70
     1
102
RTVSPropertyOp48
 70
     1
102
RTVSPropertyOp49
 70
     1
102
RTVSPropertyOp50
 70
     1
102
RTVSPropertyOp51
 70
     0
102
RTVSPropertyOp52
 70
     0
102
RTVSPropertyOp53
 70
     1
102
RTVSPropertyOp54
 70
     1
102
RTVSPropertyOp55
 70
     1
102
RTVSPropertyOp56
 70
     1
102
RTVSPropertyOp57
 70
     1
102
RTVSPropertyOp58
 70
     1
102
RTVSPropertyOp59
 70
     1
102
RTVSPropertyOp60
 70
     1
102
RTVSPropertyOp61
 70
     1
102
RTVSPropertyOp62
 70
     1
  0
XRECORD
  5
6C0
102
{ACAD_REACTORS
330
6BF
102
}
330
6BF
100
AcDbXrecord
280
     1
102
RTVSPost2010Prop28
280
     0
102
RTVSPost2010PropOp28
 70
     0
102
RTVSPost2010Prop29
280
     1
102
RTVSPost2010PropOp29
 70
     0
102
RTVSPost2010Prop30
280
     1
102
RTVSPost2010PropOp30
 70
     0
102
RTVSPost2010Prop31
280
     0
102
RTVSPost2010PropOp31
 70
     0
102
RTVSPost2010Prop32
280
     0
102
RTVSPost2010PropOp32
 70
     0
102
RTVSPost2010Prop33
280
     0
102
RTVSPost2010PropOp33
 70
     0
102
RTVSPost2010Prop34
280
     0
102
RTVSPost2010PropOp34
 70
     0
102
RTVSPost2010Prop35
280
     0
102
RTVSPost2010PropOp35
 70
     0
102
RTVSPost2010Prop36
280
     0
102
RTVSPost2010PropOp36
 70
     0
102
RTVSPost2010Prop37
 90
       50
102
RTVSPost2010PropOp37
 70
     0
102
RTVSPost2010Prop38
140
0.0
102
RTVSPost2010PropOp38
 70
     0
102
RTVSPost2010Prop39
140
1.0
102
RTVSPost2010PropOp39
 70
     0
102
RTVSPost2010Prop40
 90
        0
102
RTVSPost2010PropOp40
 70
     0
102
RTVSPost2010Prop41ColorIndex
 90
       18
102
RTVSPost2010Prop41ColorRGB
 90
        0
102
RTVSPost2010PropOp41
 70
     0
102
RTVSPost2010Prop42
 90
       50
102
RTVSPost2010PropOp42
 70
     0
102
RTVSPost2010Prop43
 90
        3
102
RTVSPost2010PropOp43
 70
     0
102
RTVSPost2010Prop44ColorIndex
 90
        5
102
RTVSPost2010Prop44ColorRGB
 90
      255
102
RTVSPost2010PropOp44
 70
     0
102
RTVSPost2010Prop45
280
     0
102
RTVSPost2010PropOp45
 70
     0
102
RTVSPost2010Prop46
 90
       50
102
RTVSPost2010PropOp46
 70
     0
102
RTVSPost2010Prop47
 90
       50
102
RTVSPost2010PropOp47
 70
     0
102
RTVSPost2010Prop48
 90
       50
102
RTVSPost2010PropOp48
 70
     0
102
RTVSPost2010Prop49
280
     0
102
RTVSPost2010PropOp49
 70
     0
102
RTVSPost2010Prop50
 90
       50
102
RTVSPost2010PropOp50
 70
     0
102
RTVSPost2010Prop51ColorIndex
 90
      256
102
RTVSPost2010Prop51ColorRGB
 90
-16777216
102
RTVSPost2010PropOp51
 70
     0
102
RTVSPost2010Prop52
140
1.0
102
RTVSPost2010PropOp52
 70
     0
102
RTVSPost2010Prop53
 90
        2
102
RTVSPost2010PropOp53
 70
     0
102
RTVSPost2010Prop54
  1
strokes_ogs.tif
102
RTVSPost2010PropOp54
 70
     0
102
RTVSPost2010Prop55
280
     0
102
RTVSPost2010PropOp55
 70
     0
102
RTVSPost2010Prop56
140
1.0
102
RTVSPost2010PropOp56
 70
     0
102
RTVSPost2010Prop57
140
1.0
102
RTVSPost2010PropOp57
 70
     0
102
RTVSPropertyOp0
 70
     0
102
RTVSPropertyOp1
 70
     0
102
RTVSPropertyOp2
 70
     0
102
RTVSPropertyOp3
 70
     0
102
RTVSPropertyOp4
 70
     0
102
RTVSPropertyOp5
 70
     0
102
RTVSPropertyOp6
 70
     0
102
RTVSPropertyOp7
 70
     0
102
RTVSPropertyOp8
 70
     0
102
RTVSPropertyOp9
 70
     0
102
RTVSPropertyOp10
 70
     0
102
RTVSPropertyOp11
 70
     0
102
RTVSPropertyOp12
 70
     0
102
RTVSPropertyOp13
 70
     0
102
RTVSPropertyOp14
 70
     2
102
RTVSPropertyOp15
 70
     0
102
RTVSPropertyOp16
 70
     0
102
RTVSPropertyOp17
 70
     0
102
RTVSPropertyOp18
 70
     0
102
RTVSPropertyOp19
 70
     0
102
RTVSPropertyOp20
 70
     0
102
RTVSPropertyOp21
 70
     0
102
RTVSPropertyOp22
 70
     0
102
RTVSPropertyOp23
 70
     0
102
RTVSPropertyOp24
 70
     0
102
RTVSPropertyOp25
 70
     0
102
RTVSPropertyOp26
 70
     0
102
RTVSPropertyOp27
 70
     0
102
RTVSPropertyOp28
 70
     0
102
RTVSPropertyOp29
 70
     0
102
RTVSPropertyOp30
 70
     0
102
RTVSPropertyOp31
 70
     0
102
RTVSPropertyOp32
 70
     0
102
RTVSPropertyOp33
 70
     0
102
RTVSPropertyOp34
 70
     0
102
RTVSPropertyOp35
 70
     0
102
RTVSPropertyOp36
 70
     0
102
RTVSPropertyOp37
 70
     0
102
RTVSPropertyOp38
 70
     0
102
RTVSPropertyOp39
 70
     0
102
RTVSPropertyOp40
 70
     0
102
RTVSPropertyOp41
 70
     0
102
RTVSPropertyOp42
 70
     0
102
RTVSPropertyOp43
 70
     0
102
RTVSPropertyOp44
 70
     0
102
RTVSPropertyOp45
 70
     0
102
RTVSPropertyOp46
 70
     0
102
RTVSPropertyOp47
 70
     0
102
RTVSPropertyOp48
 70
     0
102
RTVSPropertyOp49
 70
     0
102
RTVSPropertyOp50
 70
     0
102
RTVSPropertyOp51
 70
     0
102
RTVSPropertyOp52
 70
     0
102
RTVSPropertyOp53
 70
     0
102
RTVSPropertyOp54
 70
     0
102
RTVSPropertyOp55
 70
     0
102
RTVSPropertyOp56
 70
     0
102
RTVSPropertyOp57
 70
     0
102
RTVSPropertyOp58
 70
     1
102
RTVSPropertyOp59
 70
     1
102
RTVSPropertyOp60
 70
     1
102
RTVSPropertyOp61
 70
     1
102
RTVSPropertyOp62
 70
     1
  0
XRECORD
  5
6BA
102
{ACAD_REACTORS
330
6B9
102
}
330
6B9
100
AcDbXrecord
280
     1
102
RTVSPost2010Prop28
280
     0
102
RTVSPost2010PropOp28
 70
     1
102
RTVSPost2010Prop29
280
     1
102
RTVSPost2010PropOp29
 70
     1
102
RTVSPost2010Prop30
280
     1
102
RTVSPost2010PropOp30
 70
     1
102
RTVSPost2010Prop31
280
     0
102
RTVSPost2010PropOp31
 70
     1
102
RTVSPost2010Prop32
280
     0
102
RTVSPost2010PropOp32
 70
     1
102
RTVSPost2010Prop33
280
     0
102
RTVSPost2010PropOp33
 70
     1
102
RTVSPost2010Prop34
280
     0
102
RTVSPost2010PropOp34
 70
     1
102
RTVSPost2010Prop35
280
     0
102
RTVSPost2010PropOp35
 70
     1
102
RTVSPost2010Prop36
280
     0
102
RTVSPost2010PropOp36
 70
     1
102
RTVSPost2010Prop37
 90
       50
102
RTVSPost2010PropOp37
 70
     1
102
RTVSPost2010Prop38
140
0.0
102
RTVSPost2010PropOp38
 70
     1
102
RTVSPost2010Prop39
140
1.0
102
RTVSPost2010PropOp39
 70
     1
102
RTVSPost2010Prop40
 90
        0
102
RTVSPost2010PropOp40
 70
     1
102
RTVSPost2010Prop41ColorIndex
 90
       18
102
RTVSPost2010Prop41ColorRGB
 90
        0
102
RTVSPost2010PropOp41
 70
     1
102
RTVSPost2010Prop42
 90
       50
102
RTVSPost2010PropOp42
 70
     1
102
RTVSPost2010Prop43
 90
        3
102
RTVSPost2010PropOp43
 70
     1
102
RTVSPost2010Prop44ColorIndex
 90
        5
102
RTVSPost2010Prop44ColorRGB
 90
      255
102
RTVSPost2010PropOp44
 70
     1
102
RTVSPost2010Prop45
280
     0
102
RTVSPost2010PropOp45
 70
     1
102
RTVSPost2010Prop46
 90
       50
102
RTVSPost2010PropOp46
 70
     1
102
RTVSPost2010Prop47
 90
       50
102
RTVSPost2010PropOp47
 70
     1
102
RTVSPost2010Prop48
 90
       50
102
RTVSPost2010PropOp48
 70
     1
102
RTVSPost2010Prop49
280
     0
102
RTVSPost2010PropOp49
 70
     1
102
RTVSPost2010Prop50
 90
       50
102
RTVSPost2010PropOp50
 70
     1
102
RTVSPost2010Prop51ColorIndex
 90
      256
102
RTVSPost2010Prop51ColorRGB
 90
-16777216
102
RTVSPost2010PropOp51
 70
     0
102
RTVSPost2010Prop52
140
1.0
102
RTVSPost2010PropOp52
 70
     0
102
RTVSPost2010Prop53
 90
        2
102
RTVSPost2010PropOp53
 70
     1
102
RTVSPost2010Prop54
  1
strokes_ogs.tif
102
RTVSPost2010PropOp54
 70
     1
102
RTVSPost2010Prop55
280
     0
102
RTVSPost2010PropOp55
 70
     1
102
RTVSPost2010Prop56
140
1.0
102
RTVSPost2010PropOp56
 70
     1
102
RTVSPost2010Prop57
140
1.0
102
RTVSPost2010PropOp57
 70
     1
102
RTVSPropertyOp0
 70
     1
102
RTVSPropertyOp1
 70
     1
102
RTVSPropertyOp2
 70
     1
102
RTVSPropertyOp3
 70
     1
102
RTVSPropertyOp4
 70
     1
102
RTVSPropertyOp5
 70
     1
102
RTVSPropertyOp6
 70
     1
102
RTVSPropertyOp7
 70
     1
102
RTVSPropertyOp8
 70
     1
102
RTVSPropertyOp9
 70
     1
102
RTVSPropertyOp10
 70
     1
102
RTVSPropertyOp11
 70
     1
102
RTVSPropertyOp12
 70
     1
102
RTVSPropertyOp13
 70
     1
102
RTVSPropertyOp14
 70
     1
102
RTVSPropertyOp15
 70
     1
102
RTVSPropertyOp16
 70
     1
102
RTVSPropertyOp17
 70
     1
102
RTVSPropertyOp18
 70
     1
102
RTVSPropertyOp19
 70
     1
102
RTVSPropertyOp20
 70
     1
102
RTVSPropertyOp21
 70
     1
102
RTVSPropertyOp22
 70
     1
102
RTVSPropertyOp23
 70
     1
102
RTVSPropertyOp24
 70
     1
102
RTVSPropertyOp25
 70
     1
102
RTVSPropertyOp26
 70
     1
102
RTVSPropertyOp27
 70
     1
102
RTVSPropertyOp28
 70
     1
102
RTVSPropertyOp29
 70
     1
102
RTVSPropertyOp30
 70
     1
102
RTVSPropertyOp31
 70
     1
102
RTVSPropertyOp32
 70
     1
102
RTVSPropertyOp33
 70
     1
102
RTVSPropertyOp34
 70
     1
102
RTVSPropertyOp35
 70
     1
102
RTVSPropertyOp36
 70
     1
102
RTVSPropertyOp37
 70
     1
102
RTVSPropertyOp38
 70
     1
102
RTVSPropertyOp39
 70
     1
102
RTVSPropertyOp40
 70
     1
102
RTVSPropertyOp41
 70
     1
102
RTVSPropertyOp42
 70
     1
102
RTVSPropertyOp43
 70
     1
102
RTVSPropertyOp44
 70
     1
102
RTVSPropertyOp45
 70
     1
102
RTVSPropertyOp46
 70
     1
102
RTVSPropertyOp47
 70
     1
102
RTVSPropertyOp48
 70
     1
102
RTVSPropertyOp49
 70
     1
102
RTVSPropertyOp50
 70
     1
102
RTVSPropertyOp51
 70
     0
102
RTVSPropertyOp52
 70
     0
102
RTVSPropertyOp53
 70
     1
102
RTVSPropertyOp54
 70
     1
102
RTVSPropertyOp55
 70
     1
102
RTVSPropertyOp56
 70
     1
102
RTVSPropertyOp57
 70
     1
102
RTVSPropertyOp58
 70
     1
102
RTVSPropertyOp59
 70
     1
102
RTVSPropertyOp60
 70
     1
102
RTVSPropertyOp61
 70
     1
102
RTVSPropertyOp62
 70
     1
  0
XRECORD
  5
6C2
102
{ACAD_REACTORS
330
6C1
102
}
330
6C1
100
AcDbXrecord
280
     1
102
RTVSPost2010Prop28
280
     0
102
RTVSPost2010PropOp28
 70
     0
102
RTVSPost2010Prop29
280
     1
102
RTVSPost2010PropOp29
 70
     0
102
RTVSPost2010Prop30
280
     1
102
RTVSPost2010PropOp30
 70
     0
102
RTVSPost2010Prop31
280
     0
102
RTVSPost2010PropOp31
 70
     0
102
RTVSPost2010Prop32
280
     0
102
RTVSPost2010PropOp32
 70
     0
102
RTVSPost2010Prop33
280
     0
102
RTVSPost2010PropOp33
 70
     0
102
RTVSPost2010Prop34
280
     0
102
RTVSPost2010PropOp34
 70
     0
102
RTVSPost2010Prop35
280
     0
102
RTVSPost2010PropOp35
 70
     0
102
RTVSPost2010Prop36
280
     0
102
RTVSPost2010PropOp36
 70
     0
102
RTVSPost2010Prop37
 90
       50
102
RTVSPost2010PropOp37
 70
     0
102
RTVSPost2010Prop38
140
0.0
102
RTVSPost2010PropOp38
 70
     0
102
RTVSPost2010Prop39
140
1.0
102
RTVSPost2010PropOp39
 70
     0
102
RTVSPost2010Prop40
 90
        0
102
RTVSPost2010PropOp40
 70
     0
102
RTVSPost2010Prop41ColorIndex
 90
       18
102
RTVSPost2010Prop41ColorRGB
 90
        0
102
RTVSPost2010PropOp41
 70
     0
102
RTVSPost2010Prop42
 90
       50
102
RTVSPost2010PropOp42
 70
     0
102
RTVSPost2010Prop43
 90
        3
102
RTVSPost2010PropOp43
 70
     0
102
RTVSPost2010Prop44ColorIndex
 90
        5
102
RTVSPost2010Prop44ColorRGB
 90
      255
102
RTVSPost2010PropOp44
 70
     0
102
RTVSPost2010Prop45
280
     0
102
RTVSPost2010PropOp45
 70
     0
102
RTVSPost2010Prop46
 90
       50
102
RTVSPost2010PropOp46
 70
     0
102
RTVSPost2010Prop47
 90
       50
102
RTVSPost2010PropOp47
 70
     0
102
RTVSPost2010Prop48
 90
       50
102
RTVSPost2010PropOp48
 70
     0
102
RTVSPost2010Prop49
280
     0
102
RTVSPost2010PropOp49
 70
     0
102
RTVSPost2010Prop50
 90
       50
102
RTVSPost2010PropOp50
 70
     0
102
RTVSPost2010Prop51ColorIndex
 90
      256
102
RTVSPost2010Prop51ColorRGB
 90
-16777216
102
RTVSPost2010PropOp51
 70
     0
102
RTVSPost2010Prop52
140
1.0
102
RTVSPost2010PropOp52
 70
     0
102
RTVSPost2010Prop53
 90
        2
102
RTVSPost2010PropOp53
 70
     0
102
RTVSPost2010Prop54
  1
strokes_ogs.tif
102
RTVSPost2010PropOp54
 70
     0
102
RTVSPost2010Prop55
280
     0
102
RTVSPost2010PropOp55
 70
     0
102
RTVSPost2010Prop56
140
1.0
102
RTVSPost2010PropOp56
 70
     0
102
RTVSPost2010Prop57
140
1.0
102
RTVSPost2010PropOp57
 70
     0
102
RTVSPropertyOp0
 70
     0
102
RTVSPropertyOp1
 70
     0
102
RTVSPropertyOp2
 70
     0
102
RTVSPropertyOp3
 70
     0
102
RTVSPropertyOp4
 70
     0
102
RTVSPropertyOp5
 70
     0
102
RTVSPropertyOp6
 70
     0
102
RTVSPropertyOp7
 70
     0
102
RTVSPropertyOp8
 70
     0
102
RTVSPropertyOp9
 70
     0
102
RTVSPropertyOp10
 70
     0
102
RTVSPropertyOp11
 70
     0
102
RTVSPropertyOp12
 70
     0
102
RTVSPropertyOp13
 70
     0
102
RTVSPropertyOp14
 70
     2
102
RTVSPropertyOp15
 70
     0
102
RTVSPropertyOp16
 70
     0
102
RTVSPropertyOp17
 70
     0
102
RTVSPropertyOp18
 70
     0
102
RTVSPropertyOp19
 70
     0
102
RTVSPropertyOp20
 70
     0
102
RTVSPropertyOp21
 70
     0
102
RTVSPropertyOp22
 70
     0
102
RTVSPropertyOp23
 70
     0
102
RTVSPropertyOp24
 70
     0
102
RTVSPropertyOp25
 70
     0
102
RTVSPropertyOp26
 70
     0
102
RTVSPropertyOp27
 70
     0
102
RTVSPropertyOp28
 70
     0
102
RTVSPropertyOp29
 70
     0
102
RTVSPropertyOp30
 70
     0
102
RTVSPropertyOp31
 70
     0
102
RTVSPropertyOp32
 70
     0
102
RTVSPropertyOp33
 70
     0
102
RTVSPropertyOp34
 70
     0
102
RTVSPropertyOp35
 70
     0
102
RTVSPropertyOp36
 70
     0
102
RTVSPropertyOp37
 70
     0
102
RTVSPropertyOp38
 70
     0
102
RTVSPropertyOp39
 70
     0
102
RTVSPropertyOp40
 70
     0
102
RTVSPropertyOp41
 70
     0
102
RTVSPropertyOp42
 70
     0
102
RTVSPropertyOp43
 70
     0
102
RTVSPropertyOp44
 70
     0
102
RTVSPropertyOp45
 70
     0
102
RTVSPropertyOp46
 70
     0
102
RTVSPropertyOp47
 70
     0
102
RTVSPropertyOp48
 70
     0
102
RTVSPropertyOp49
 70
     0
102
RTVSPropertyOp50
 70
     0
102
RTVSPropertyOp51
 70
     0
102
RTVSPropertyOp52
 70
     0
102
RTVSPropertyOp53
 70
     0
102
RTVSPropertyOp54
 70
     0
102
RTVSPropertyOp55
 70
     0
102
RTVSPropertyOp56
 70
     0
102
RTVSPropertyOp57
 70
     0
102
RTVSPropertyOp58
 70
     1
102
RTVSPropertyOp59
 70
     1
102
RTVSPropertyOp60
 70
     1
102
RTVSPropertyOp61
 70
     1
102
RTVSPropertyOp62
 70
     1
  0
XRECORD
  5
6B0
102
{ACAD_REACTORS
330
6AF
102
}
330
6AF
100
AcDbXrecord
280
     1
102
RTVSPost2010Prop28
280
     0
102
RTVSPost2010PropOp28
 70
     1
102
RTVSPost2010Prop29
280
     1
102
RTVSPost2010PropOp29
 70
     1
102
RTVSPost2010Prop30
280
     1
102
RTVSPost2010PropOp30
 70
     1
102
RTVSPost2010Prop31
280
     0
102
RTVSPost2010PropOp31
 70
     1
102
RTVSPost2010Prop32
280
     0
102
RTVSPost2010PropOp32
 70
     1
102
RTVSPost2010Prop33
280
     0
102
RTVSPost2010PropOp33
 70
     1
102
RTVSPost2010Prop34
280
     0
102
RTVSPost2010PropOp34
 70
     1
102
RTVSPost2010Prop35
280
     0
102
RTVSPost2010PropOp35
 70
     1
102
RTVSPost2010Prop36
280
     0
102
RTVSPost2010PropOp36
 70
     1
102
RTVSPost2010Prop37
 90
       50
102
RTVSPost2010PropOp37
 70
     1
102
RTVSPost2010Prop38
140
0.0
102
RTVSPost2010PropOp38
 70
     1
102
RTVSPost2010Prop39
140
1.0
102
RTVSPost2010PropOp39
 70
     1
102
RTVSPost2010Prop40
 90
        0
102
RTVSPost2010PropOp40
 70
     1
102
RTVSPost2010Prop41ColorIndex
 90
       18
102
RTVSPost2010Prop41ColorRGB
 90
        0
102
RTVSPost2010PropOp41
 70
     1
102
RTVSPost2010Prop42
 90
       50
102
RTVSPost2010PropOp42
 70
     1
102
RTVSPost2010Prop43
 90
        3
102
RTVSPost2010PropOp43
 70
     1
102
RTVSPost2010Prop44ColorIndex
 90
        5
102
RTVSPost2010Prop44ColorRGB
 90
      255
102
RTVSPost2010PropOp44
 70
     1
102
RTVSPost2010Prop45
280
     0
102
RTVSPost2010PropOp45
 70
     1
102
RTVSPost2010Prop46
 90
       50
102
RTVSPost2010PropOp46
 70
     1
102
RTVSPost2010Prop47
 90
       50
102
RTVSPost2010PropOp47
 70
     1
102
RTVSPost2010Prop48
 90
       50
102
RTVSPost2010PropOp48
 70
     1
102
RTVSPost2010Prop49
280
     0
102
RTVSPost2010PropOp49
 70
     1
102
RTVSPost2010Prop50
 90
       50
102
RTVSPost2010PropOp50
 70
     1
102
RTVSPost2010Prop51ColorIndex
 90
      256
102
RTVSPost2010Prop51ColorRGB
 90
-16777216
102
RTVSPost2010PropOp51
 70
     0
102
RTVSPost2010Prop52
140
1.0
102
RTVSPost2010PropOp52
 70
     0
102
RTVSPost2010Prop53
 90
        2
102
RTVSPost2010PropOp53
 70
     1
102
RTVSPost2010Prop54
  1
strokes_ogs.tif
102
RTVSPost2010PropOp54
 70
     1
102
RTVSPost2010Prop55
280
     0
102
RTVSPost2010PropOp55
 70
     1
102
RTVSPost2010Prop56
140
1.0
102
RTVSPost2010PropOp56
 70
     1
102
RTVSPost2010Prop57
140
1.0
102
RTVSPost2010PropOp57
 70
     1
102
RTVSPropertyOp0
 70
     1
102
RTVSPropertyOp1
 70
     1
102
RTVSPropertyOp2
 70
     1
102
RTVSPropertyOp3
 70
     1
102
RTVSPropertyOp4
 70
     1
102
RTVSPropertyOp5
 70
     1
102
RTVSPropertyOp6
 70
     1
102
RTVSPropertyOp7
 70
     1
102
RTVSPropertyOp8
 70
     1
102
RTVSPropertyOp9
 70
     1
102
RTVSPropertyOp10
 70
     1
102
RTVSPropertyOp11
 70
     1
102
RTVSPropertyOp12
 70
     1
102
RTVSPropertyOp13
 70
     1
102
RTVSPropertyOp14
 70
     1
102
RTVSPropertyOp15
 70
     1
102
RTVSPropertyOp16
 70
     1
102
RTVSPropertyOp17
 70
     1
102
RTVSPropertyOp18
 70
     1
102
RTVSPropertyOp19
 70
     1
102
RTVSPropertyOp20
 70
     1
102
RTVSPropertyOp21
 70
     1
102
RTVSPropertyOp22
 70
     1
102
RTVSPropertyOp23
 70
     1
102
RTVSPropertyOp24
 70
     1
102
RTVSPropertyOp25
 70
     1
102
RTVSPropertyOp26
 70
     1
102
RTVSPropertyOp27
 70
     1
102
RTVSPropertyOp28
 70
     1
102
RTVSPropertyOp29
 70
     1
102
RTVSPropertyOp30
 70
     1
102
RTVSPropertyOp31
 70
     1
102
RTVSPropertyOp32
 70
     1
102
RTVSPropertyOp33
 70
     1
102
RTVSPropertyOp34
 70
     1
102
RTVSPropertyOp35
 70
     1
102
RTVSPropertyOp36
 70
     1
102
RTVSPropertyOp37
 70
     1
102
RTVSPropertyOp38
 70
     1
102
RTVSPropertyOp39
 70
     1
102
RTVSPropertyOp40
 70
     1
102
RTVSPropertyOp41
 70
     1
102
RTVSPropertyOp42
 70
     1
102
RTVSPropertyOp43
 70
     1
102
RTVSPropertyOp44
 70
     1
102
RTVSPropertyOp45
 70
     1
102
RTVSPropertyOp46
 70
     1
102
RTVSPropertyOp47
 70
     1
102
RTVSPropertyOp48
 70
     1
102
RTVSPropertyOp49
 70
     1
102
RTVSPropertyOp50
 70
     1
102
RTVSPropertyOp51
 70
     0
102
RTVSPropertyOp52
 70
     0
102
RTVSPropertyOp53
 70
     1
102
RTVSPropertyOp54
 70
     1
102
RTVSPropertyOp55
 70
     1
102
RTVSPropertyOp56
 70
     1
102
RTVSPropertyOp57
 70
     1
102
RTVSPropertyOp58
 70
     1
102
RTVSPropertyOp59
 70
     1
102
RTVSPropertyOp60
 70
     1
102
RTVSPropertyOp61
 70
     1
102
RTVSPropertyOp62
 70
     1
  0
XRECORD
  5
6CE
102
{ACAD_REACTORS
330
6CD
102
}
330
6CD
100
AcDbXrecord
280
     1
102
RTVSPost2010Prop28
280
     0
102
RTVSPost2010PropOp28
 70
     1
102
RTVSPost2010Prop29
280
     1
102
RTVSPost2010PropOp29
 70
     1
102
RTVSPost2010Prop30
280
     1
102
RTVSPost2010PropOp30
 70
     1
102
RTVSPost2010Prop31
280
     0
102
RTVSPost2010PropOp31
 70
     1
102
RTVSPost2010Prop32
280
     0
102
RTVSPost2010PropOp32
 70
     1
102
RTVSPost2010Prop33
280
     0
102
RTVSPost2010PropOp33
 70
     1
102
RTVSPost2010Prop34
280
     0
102
RTVSPost2010PropOp34
 70
     1
102
RTVSPost2010Prop35
280
     0
102
RTVSPost2010PropOp35
 70
     1
102
RTVSPost2010Prop36
280
     0
102
RTVSPost2010PropOp36
 70
     1
102
RTVSPost2010Prop37
 90
       50
102
RTVSPost2010PropOp37
 70
     1
102
RTVSPost2010Prop38
140
0.0
102
RTVSPost2010PropOp38
 70
     1
102
RTVSPost2010Prop39
140
1.0
102
RTVSPost2010PropOp39
 70
     1
102
RTVSPost2010Prop40
 90
        0
102
RTVSPost2010PropOp40
 70
     1
102
RTVSPost2010Prop41ColorIndex
 90
       18
102
RTVSPost2010Prop41ColorRGB
 90
        0
102
RTVSPost2010PropOp41
 70
     1
102
RTVSPost2010Prop42
 90
       50
102
RTVSPost2010PropOp42
 70
     1
102
RTVSPost2010Prop43
 90
        3
102
RTVSPost2010PropOp43
 70
     1
102
RTVSPost2010Prop44ColorIndex
 90
        5
102
RTVSPost2010Prop44ColorRGB
 90
      255
102
RTVSPost2010PropOp44
 70
     1
102
RTVSPost2010Prop45
280
     0
102
RTVSPost2010PropOp45
 70
     1
102
RTVSPost2010Prop46
 90
       50
102
RTVSPost2010PropOp46
 70
     1
102
RTVSPost2010Prop47
 90
       50
102
RTVSPost2010PropOp47
 70
     1
102
RTVSPost2010Prop48
 90
       50
102
RTVSPost2010PropOp48
 70
     1
102
RTVSPost2010Prop49
280
     0
102
RTVSPost2010PropOp49
 70
     1
102
RTVSPost2010Prop50
 90
       50
102
RTVSPost2010PropOp50
 70
     1
102
RTVSPost2010Prop51ColorIndex
 90
      256
102
RTVSPost2010Prop51ColorRGB
 90
-16777216
102
RTVSPost2010PropOp51
 70
     0
102
RTVSPost2010Prop52
140
1.0
102
RTVSPost2010PropOp52
 70
     0
102
RTVSPost2010Prop53
 90
        2
102
RTVSPost2010PropOp53
 70
     1
102
RTVSPost2010Prop54
  1
strokes_ogs.tif
102
RTVSPost2010PropOp54
 70
     1
102
RTVSPost2010Prop55
280
     0
102
RTVSPost2010PropOp55
 70
     1
102
RTVSPost2010Prop56
140
1.0
102
RTVSPost2010PropOp56
 70
     1
102
RTVSPost2010Prop57
140
1.0
102
RTVSPost2010PropOp57
 70
     1
102
RTVSPropertyOp0
 70
     1
102
RTVSPropertyOp1
 70
     1
102
RTVSPropertyOp2
 70
     1
102
RTVSPropertyOp3
 70
     1
102
RTVSPropertyOp4
 70
     1
102
RTVSPropertyOp5
 70
     1
102
RTVSPropertyOp6
 70
     1
102
RTVSPropertyOp7
 70
     1
102
RTVSPropertyOp8
 70
     1
102
RTVSPropertyOp9
 70
     1
102
RTVSPropertyOp10
 70
     1
102
RTVSPropertyOp11
 70
     1
102
RTVSPropertyOp12
 70
     1
102
RTVSPropertyOp13
 70
     1
102
RTVSPropertyOp14
 70
     1
102
RTVSPropertyOp15
 70
     1
102
RTVSPropertyOp16
 70
     1
102
RTVSPropertyOp17
 70
     1
102
RTVSPropertyOp18
 70
     1
102
RTVSPropertyOp19
 70
     1
102
RTVSPropertyOp20
 70
     1
102
RTVSPropertyOp21
 70
     1
102
RTVSPropertyOp22
 70
     1
102
RTVSPropertyOp23
 70
     1
102
RTVSPropertyOp24
 70
     1
102
RTVSPropertyOp25
 70
     1
102
RTVSPropertyOp26
 70
     1
102
RTVSPropertyOp27
 70
     1
102
RTVSPropertyOp28
 70
     1
102
RTVSPropertyOp29
 70
     1
102
RTVSPropertyOp30
 70
     1
102
RTVSPropertyOp31
 70
     1
102
RTVSPropertyOp32
 70
     1
102
RTVSPropertyOp33
 70
     1
102
RTVSPropertyOp34
 70
     1
102
RTVSPropertyOp35
 70
     1
102
RTVSPropertyOp36
 70
     1
102
RTVSPropertyOp37
 70
     1
102
RTVSPropertyOp38
 70
     1
102
RTVSPropertyOp39
 70
     1
102
RTVSPropertyOp40
 70
     1
102
RTVSPropertyOp41
 70
     1
102
RTVSPropertyOp42
 70
     1
102
RTVSPropertyOp43
 70
     1
102
RTVSPropertyOp44
 70
     1
102
RTVSPropertyOp45
 70
     1
102
RTVSPropertyOp46
 70
     1
102
RTVSPropertyOp47
 70
     1
102
RTVSPropertyOp48
 70
     1
102
RTVSPropertyOp49
 70
     1
102
RTVSPropertyOp50
 70
     1
102
RTVSPropertyOp51
 70
     0
102
RTVSPropertyOp52
 70
     0
102
RTVSPropertyOp53
 70
     1
102
RTVSPropertyOp54
 70
     1
102
RTVSPropertyOp55
 70
     1
102
RTVSPropertyOp56
 70
     1
102
RTVSPropertyOp57
 70
     1
102
RTVSPropertyOp58
 70
     1
102
RTVSPropertyOp59
 70
     1
102
RTVSPropertyOp60
 70
     1
102
RTVSPropertyOp61
 70
     1
102
RTVSPropertyOp62
 70
     1
  0
XRECORD
  5
6CC
102
{ACAD_REACTORS
330
6CB
102
}
330
6CB
100
AcDbXrecord
280
     1
102
RTVSPost2010Prop28
280
     0
102
RTVSPost2010PropOp28
 70
     1
102
RTVSPost2010Prop29
280
     1
102
RTVSPost2010PropOp29
 70
     1
102
RTVSPost2010Prop30
280
     1
102
RTVSPost2010PropOp30
 70
     1
102
RTVSPost2010Prop31
280
     0
102
RTVSPost2010PropOp31
 70
     1
102
RTVSPost2010Prop32
280
     0
102
RTVSPost2010PropOp32
 70
     1
102
RTVSPost2010Prop33
280
     0
102
RTVSPost2010PropOp33
 70
     1
102
RTVSPost2010Prop34
280
     0
102
RTVSPost2010PropOp34
 70
     1
102
RTVSPost2010Prop35
280
     0
102
RTVSPost2010PropOp35
 70
     1
102
RTVSPost2010Prop36
280
     0
102
RTVSPost2010PropOp36
 70
     1
102
RTVSPost2010Prop37
 90
       50
102
RTVSPost2010PropOp37
 70
     1
102
RTVSPost2010Prop38
140
0.0
102
RTVSPost2010PropOp38
 70
     1
102
RTVSPost2010Prop39
140
1.0
102
RTVSPost2010PropOp39
 70
     1
102
RTVSPost2010Prop40
 90
        0
102
RTVSPost2010PropOp40
 70
     1
102
RTVSPost2010Prop41ColorIndex
 90
       18
102
RTVSPost2010Prop41ColorRGB
 90
        0
102
RTVSPost2010PropOp41
 70
     1
102
RTVSPost2010Prop42
 90
       50
102
RTVSPost2010PropOp42
 70
     1
102
RTVSPost2010Prop43
 90
        3
102
RTVSPost2010PropOp43
 70
     1
102
RTVSPost2010Prop44ColorIndex
 90
        5
102
RTVSPost2010Prop44ColorRGB
 90
      255
102
RTVSPost2010PropOp44
 70
     1
102
RTVSPost2010Prop45
280
     0
102
RTVSPost2010PropOp45
 70
     1
102
RTVSPost2010Prop46
 90
       50
102
RTVSPost2010PropOp46
 70
     1
102
RTVSPost2010Prop47
 90
       50
102
RTVSPost2010PropOp47
 70
     1
102
RTVSPost2010Prop48
 90
       50
102
RTVSPost2010PropOp48
 70
     1
102
RTVSPost2010Prop49
280
     0
102
RTVSPost2010PropOp49
 70
     1
102
RTVSPost2010Prop50
 90
       50
102
RTVSPost2010PropOp50
 70
     1
102
RTVSPost2010Prop51ColorIndex
 90
      256
102
RTVSPost2010Prop51ColorRGB
 90
-16777216
102
RTVSPost2010PropOp51
 70
     0
102
RTVSPost2010Prop52
140
1.0
102
RTVSPost2010PropOp52
 70
     0
102
RTVSPost2010Prop53
 90
        2
102
RTVSPost2010PropOp53
 70
     1
102
RTVSPost2010Prop54
  1
strokes_ogs.tif
102
RTVSPost2010PropOp54
 70
     1
102
RTVSPost2010Prop55
280
     0
102
RTVSPost2010PropOp55
 70
     1
102
RTVSPost2010Prop56
140
1.0
102
RTVSPost2010PropOp56
 70
     1
102
RTVSPost2010Prop57
140
1.0
102
RTVSPost2010PropOp57
 70
     1
102
RTVSPropertyOp0
 70
     1
102
RTVSPropertyOp1
 70
     1
102
RTVSPropertyOp2
 70
     1
102
RTVSPropertyOp3
 70
     1
102
RTVSPropertyOp4
 70
     1
102
RTVSPropertyOp5
 70
     1
102
RTVSPropertyOp6
 70
     1
102
RTVSPropertyOp7
 70
     1
102
RTVSPropertyOp8
 70
     1
102
RTVSPropertyOp9
 70
     1
102
RTVSPropertyOp10
 70
     1
102
RTVSPropertyOp11
 70
     1
102
RTVSPropertyOp12
 70
     1
102
RTVSPropertyOp13
 70
     1
102
RTVSPropertyOp14
 70
     1
102
RTVSPropertyOp15
 70
     1
102
RTVSPropertyOp16
 70
     1
102
RTVSPropertyOp17
 70
     1
102
RTVSPropertyOp18
 70
     1
102
RTVSPropertyOp19
 70
     1
102
RTVSPropertyOp20
 70
     1
102
RTVSPropertyOp21
 70
     1
102
RTVSPropertyOp22
 70
     1
102
RTVSPropertyOp23
 70
     1
102
RTVSPropertyOp24
 70
     1
102
RTVSPropertyOp25
 70
     1
102
RTVSPropertyOp26
 70
     1
102
RTVSPropertyOp27
 70
     1
102
RTVSPropertyOp28
 70
     1
102
RTVSPropertyOp29
 70
     1
102
RTVSPropertyOp30
 70
     1
102
RTVSPropertyOp31
 70
     1
102
RTVSPropertyOp32
 70
     1
102
RTVSPropertyOp33
 70
     1
102
RTVSPropertyOp34
 70
     1
102
RTVSPropertyOp35
 70
     1
102
RTVSPropertyOp36
 70
     1
102
RTVSPropertyOp37
 70
     1
102
RTVSPropertyOp38
 70
     1
102
RTVSPropertyOp39
 70
     1
102
RTVSPropertyOp40
 70
     1
102
RTVSPropertyOp41
 70
     1
102
RTVSPropertyOp42
 70
     1
102
RTVSPropertyOp43
 70
     1
102
RTVSPropertyOp44
 70
     1
102
RTVSPropertyOp45
 70
     1
102
RTVSPropertyOp46
 70
     1
102
RTVSPropertyOp47
 70
     1
102
RTVSPropertyOp48
 70
     1
102
RTVSPropertyOp49
 70
     1
102
RTVSPropertyOp50
 70
     1
102
RTVSPropertyOp51
 70
     0
102
RTVSPropertyOp52
 70
     0
102
RTVSPropertyOp53
 70
     1
102
RTVSPropertyOp54
 70
     1
102
RTVSPropertyOp55
 70
     1
102
RTVSPropertyOp56
 70
     1
102
RTVSPropertyOp57
 70
     1
102
RTVSPropertyOp58
 70
     1
102
RTVSPropertyOp59
 70
     1
102
RTVSPropertyOp60
 70
     1
102
RTVSPropertyOp61
 70
     1
102
RTVSPropertyOp62
 70
     1
  0
XRECORD
  5
6C6
102
{ACAD_REACTORS
330
6C5
102
}
330
6C5
100
AcDbXrecord
280
     1
102
RTVSPost2010Prop28
280
     0
102
RTVSPost2010PropOp28
 70
     1
102
RTVSPost2010Prop29
280
     1
102
RTVSPost2010PropOp29
 70
     1
102
RTVSPost2010Prop30
280
     1
102
RTVSPost2010PropOp30
 70
     1
102
RTVSPost2010Prop31
280
     0
102
RTVSPost2010PropOp31
 70
     1
102
RTVSPost2010Prop32
280
     0
102
RTVSPost2010PropOp32
 70
     1
102
RTVSPost2010Prop33
280
     0
102
RTVSPost2010PropOp33
 70
     1
102
RTVSPost2010Prop34
280
     0
102
RTVSPost2010PropOp34
 70
     1
102
RTVSPost2010Prop35
280
     0
102
RTVSPost2010PropOp35
 70
     1
102
RTVSPost2010Prop36
280
     0
102
RTVSPost2010PropOp36
 70
     1
102
RTVSPost2010Prop37
 90
       50
102
RTVSPost2010PropOp37
 70
     1
102
RTVSPost2010Prop38
140
0.0
102
RTVSPost2010PropOp38
 70
     1
102
RTVSPost2010Prop39
140
1.0
102
RTVSPost2010PropOp39
 70
     1
102
RTVSPost2010Prop40
 90
        0
102
RTVSPost2010PropOp40
 70
     1
102
RTVSPost2010Prop41ColorIndex
 90
       18
102
RTVSPost2010Prop41ColorRGB
 90
        0
102
RTVSPost2010PropOp41
 70
     1
102
RTVSPost2010Prop42
 90
       50
102
RTVSPost2010PropOp42
 70
     1
102
RTVSPost2010Prop43
 90
        3
102
RTVSPost2010PropOp43
 70
     1
102
RTVSPost2010Prop44ColorIndex
 90
        5
102
RTVSPost2010Prop44ColorRGB
 90
      255
102
RTVSPost2010PropOp44
 70
     1
102
RTVSPost2010Prop45
280
     0
102
RTVSPost2010PropOp45
 70
     1
102
RTVSPost2010Prop46
 90
       50
102
RTVSPost2010PropOp46
 70
     1
102
RTVSPost2010Prop47
 90
       50
102
RTVSPost2010PropOp47
 70
     1
102
RTVSPost2010Prop48
 90
       50
102
RTVSPost2010PropOp48
 70
     1
102
RTVSPost2010Prop49
280
     0
102
RTVSPost2010PropOp49
 70
     1
102
RTVSPost2010Prop50
 90
       50
102
RTVSPost2010PropOp50
 70
     1
102
RTVSPost2010Prop51ColorIndex
 90
      256
102
RTVSPost2010Prop51ColorRGB
 90
-16777216
102
RTVSPost2010PropOp51
 70
     0
102
RTVSPost2010Prop52
140
1.0
102
RTVSPost2010PropOp52
 70
     0
102
RTVSPost2010Prop53
 90
        2
102
RTVSPost2010PropOp53
 70
     1
102
RTVSPost2010Prop54
  1
strokes_ogs.tif
102
RTVSPost2010PropOp54
 70
     1
102
RTVSPost2010Prop55
280
     0
102
RTVSPost2010PropOp55
 70
     1
102
RTVSPost2010Prop56
140
1.0
102
RTVSPost2010PropOp56
 70
     1
102
RTVSPost2010Prop57
140
1.0
102
RTVSPost2010PropOp57
 70
     1
102
RTVSPropertyOp0
 70
     1
102
RTVSPropertyOp1
 70
     1
102
RTVSPropertyOp2
 70
     1
102
RTVSPropertyOp3
 70
     1
102
RTVSPropertyOp4
 70
     1
102
RTVSPropertyOp5
 70
     1
102
RTVSPropertyOp6
 70
     1
102
RTVSPropertyOp7
 70
     1
102
RTVSPropertyOp8
 70
     1
102
RTVSPropertyOp9
 70
     1
102
RTVSPropertyOp10
 70
     1
102
RTVSPropertyOp11
 70
     1
102
RTVSPropertyOp12
 70
     1
102
RTVSPropertyOp13
 70
     1
102
RTVSPropertyOp14
 70
     1
102
RTVSPropertyOp15
 70
     1
102
RTVSPropertyOp16
 70
     1
102
RTVSPropertyOp17
 70
     1
102
RTVSPropertyOp18
 70
     1
102
RTVSPropertyOp19
 70
     1
102
RTVSPropertyOp20
 70
     1
102
RTVSPropertyOp21
 70
     1
102
RTVSPropertyOp22
 70
     1
102
RTVSPropertyOp23
 70
     1
102
RTVSPropertyOp24
 70
     1
102
RTVSPropertyOp25
 70
     1
102
RTVSPropertyOp26
 70
     1
102
RTVSPropertyOp27
 70
     1
102
RTVSPropertyOp28
 70
     1
102
RTVSPropertyOp29
 70
     1
102
RTVSPropertyOp30
 70
     1
102
RTVSPropertyOp31
 70
     1
102
RTVSPropertyOp32
 70
     1
102
RTVSPropertyOp33
 70
     1
102
RTVSPropertyOp34
 70
     1
102
RTVSPropertyOp35
 70
     1
102
RTVSPropertyOp36
 70
     1
102
RTVSPropertyOp37
 70
     1
102
RTVSPropertyOp38
 70
     1
102
RTVSPropertyOp39
 70
     1
102
RTVSPropertyOp40
 70
     1
102
RTVSPropertyOp41
 70
     1
102
RTVSPropertyOp42
 70
     1
102
RTVSPropertyOp43
 70
     1
102
RTVSPropertyOp44
 70
     1
102
RTVSPropertyOp45
 70
     1
102
RTVSPropertyOp46
 70
     1
102
RTVSPropertyOp47
 70
     1
102
RTVSPropertyOp48
 70
     1
102
RTVSPropertyOp49
 70
     1
102
RTVSPropertyOp50
 70
     1
102
RTVSPropertyOp51
 70
     0
102
RTVSPropertyOp52
 70
     0
102
RTVSPropertyOp53
 70
     1
102
RTVSPropertyOp54
 70
     1
102
RTVSPropertyOp55
 70
     1
102
RTVSPropertyOp56
 70
     1
102
RTVSPropertyOp57
 70
     1
102
RTVSPropertyOp58
 70
     1
102
RTVSPropertyOp59
 70
     1
102
RTVSPropertyOp60
 70
     1
102
RTVSPropertyOp61
 70
     1
102
RTVSPropertyOp62
 70
     1
  0
XRECORD
  5
6C8
102
{ACAD_REACTORS
330
6C7
102
}
330
6C7
100
AcDbXrecord
280
     1
102
RTVSPost2010Prop28
280
     0
102
RTVSPost2010PropOp28
 70
     1
102
RTVSPost2010Prop29
280
     1
102
RTVSPost2010PropOp29
 70
     1
102
RTVSPost2010Prop30
280
     1
102
RTVSPost2010PropOp30
 70
     1
102
RTVSPost2010Prop31
280
     0
102
RTVSPost2010PropOp31
 70
     1
102
RTVSPost2010Prop32
280
     0
102
RTVSPost2010PropOp32
 70
     1
102
RTVSPost2010Prop33
280
     0
102
RTVSPost2010PropOp33
 70
     1
102
RTVSPost2010Prop34
280
     0
102
RTVSPost2010PropOp34
 70
     1
102
RTVSPost2010Prop35
280
     0
102
RTVSPost2010PropOp35
 70
     1
102
RTVSPost2010Prop36
280
     0
102
RTVSPost2010PropOp36
 70
     1
102
RTVSPost2010Prop37
 90
       50
102
RTVSPost2010PropOp37
 70
     1
102
RTVSPost2010Prop38
140
0.0
102
RTVSPost2010PropOp38
 70
     1
102
RTVSPost2010Prop39
140
1.0
102
RTVSPost2010PropOp39
 70
     1
102
RTVSPost2010Prop40
 90
        0
102
RTVSPost2010PropOp40
 70
     1
102
RTVSPost2010Prop41ColorIndex
 90
       18
102
RTVSPost2010Prop41ColorRGB
 90
        0
102
RTVSPost2010PropOp41
 70
     1
102
RTVSPost2010Prop42
 90
       50
102
RTVSPost2010PropOp42
 70
     1
102
RTVSPost2010Prop43
 90
        3
102
RTVSPost2010PropOp43
 70
     1
102
RTVSPost2010Prop44ColorIndex
 90
        5
102
RTVSPost2010Prop44ColorRGB
 90
      255
102
RTVSPost2010PropOp44
 70
     1
102
RTVSPost2010Prop45
280
     0
102
RTVSPost2010PropOp45
 70
     1
102
RTVSPost2010Prop46
 90
       50
102
RTVSPost2010PropOp46
 70
     1
102
RTVSPost2010Prop47
 90
       50
102
RTVSPost2010PropOp47
 70
     1
102
RTVSPost2010Prop48
 90
       50
102
RTVSPost2010PropOp48
 70
     1
102
RTVSPost2010Prop49
280
     0
102
RTVSPost2010PropOp49
 70
     1
102
RTVSPost2010Prop50
 90
       50
102
RTVSPost2010PropOp50
 70
     1
102
RTVSPost2010Prop51ColorIndex
 90
      256
102
RTVSPost2010Prop51ColorRGB
 90
-16777216
102
RTVSPost2010PropOp51
 70
     0
102
RTVSPost2010Prop52
140
1.0
102
RTVSPost2010PropOp52
 70
     0
102
RTVSPost2010Prop53
 90
        2
102
RTVSPost2010PropOp53
 70
     1
102
RTVSPost2010Prop54
  1
strokes_ogs.tif
102
RTVSPost2010PropOp54
 70
     1
102
RTVSPost2010Prop55
280
     0
102
RTVSPost2010PropOp55
 70
     1
102
RTVSPost2010Prop56
140
1.0
102
RTVSPost2010PropOp56
 70
     1
102
RTVSPost2010Prop57
140
1.0
102
RTVSPost2010PropOp57
 70
     1
102
RTVSPropertyOp0
 70
     1
102
RTVSPropertyOp1
 70
     1
102
RTVSPropertyOp2
 70
     1
102
RTVSPropertyOp3
 70
     1
102
RTVSPropertyOp4
 70
     1
102
RTVSPropertyOp5
 70
     1
102
RTVSPropertyOp6
 70
     1
102
RTVSPropertyOp7
 70
     1
102
RTVSPropertyOp8
 70
     1
102
RTVSPropertyOp9
 70
     1
102
RTVSPropertyOp10
 70
     1
102
RTVSPropertyOp11
 70
     1
102
RTVSPropertyOp12
 70
     1
102
RTVSPropertyOp13
 70
     1
102
RTVSPropertyOp14
 70
     1
102
RTVSPropertyOp15
 70
     1
102
RTVSPropertyOp16
 70
     1
102
RTVSPropertyOp17
 70
     1
102
RTVSPropertyOp18
 70
     1
102
RTVSPropertyOp19
 70
     1
102
RTVSPropertyOp20
 70
     1
102
RTVSPropertyOp21
 70
     1
102
RTVSPropertyOp22
 70
     1
102
RTVSPropertyOp23
 70
     1
102
RTVSPropertyOp24
 70
     1
102
RTVSPropertyOp25
 70
     1
102
RTVSPropertyOp26
 70
     1
102
RTVSPropertyOp27
 70
     1
102
RTVSPropertyOp28
 70
     1
102
RTVSPropertyOp29
 70
     1
102
RTVSPropertyOp30
 70
     1
102
RTVSPropertyOp31
 70
     1
102
RTVSPropertyOp32
 70
     1
102
RTVSPropertyOp33
 70
     1
102
RTVSPropertyOp34
 70
     1
102
RTVSPropertyOp35
 70
     1
102
RTVSPropertyOp36
 70
     1
102
RTVSPropertyOp37
 70
     1
102
RTVSPropertyOp38
 70
     1
102
RTVSPropertyOp39
 70
     1
102
RTVSPropertyOp40
 70
     1
102
RTVSPropertyOp41
 70
     1
102
RTVSPropertyOp42
 70
     1
102
RTVSPropertyOp43
 70
     1
102
RTVSPropertyOp44
 70
     1
102
RTVSPropertyOp45
 70
     1
102
RTVSPropertyOp46
 70
     1
102
RTVSPropertyOp47
 70
     1
102
RTVSPropertyOp48
 70
     1
102
RTVSPropertyOp49
 70
     1
102
RTVSPropertyOp50
 70
     1
102
RTVSPropertyOp51
 70
     0
102
RTVSPropertyOp52
 70
     0
102
RTVSPropertyOp53
 70
     1
102
RTVSPropertyOp54
 70
     1
102
RTVSPropertyOp55
 70
     1
102
RTVSPropertyOp56
 70
     1
102
RTVSPropertyOp57
 70
     1
102
RTVSPropertyOp58
 70
     1
102
RTVSPropertyOp59
 70
     1
102
RTVSPropertyOp60
 70
     1
102
RTVSPropertyOp61
 70
     1
102
RTVSPropertyOp62
 70
     1
  0
XRECORD
  5
6B8
102
{ACAD_REACTORS
330
6B7
102
}
330
6B7
100
AcDbXrecord
280
     1
102
RTVSPost2010Prop28
280
     0
102
RTVSPost2010PropOp28
 70
     1
102
RTVSPost2010Prop29
280
     1
102
RTVSPost2010PropOp29
 70
     1
102
RTVSPost2010Prop30
280
     1
102
RTVSPost2010PropOp30
 70
     1
102
RTVSPost2010Prop31
280
     0
102
RTVSPost2010PropOp31
 70
     1
102
RTVSPost2010Prop32
280
     0
102
RTVSPost2010PropOp32
 70
     1
102
RTVSPost2010Prop33
280
     0
102
RTVSPost2010PropOp33
 70
     1
102
RTVSPost2010Prop34
280
     0
102
RTVSPost2010PropOp34
 70
     1
102
RTVSPost2010Prop35
280
     0
102
RTVSPost2010PropOp35
 70
     1
102
RTVSPost2010Prop36
280
     0
102
RTVSPost2010PropOp36
 70
     1
102
RTVSPost2010Prop37
 90
       50
102
RTVSPost2010PropOp37
 70
     1
102
RTVSPost2010Prop38
140
0.0
102
RTVSPost2010PropOp38
 70
     1
102
RTVSPost2010Prop39
140
1.0
102
RTVSPost2010PropOp39
 70
     1
102
RTVSPost2010Prop40
 90
        0
102
RTVSPost2010PropOp40
 70
     1
102
RTVSPost2010Prop41ColorIndex
 90
       18
102
RTVSPost2010Prop41ColorRGB
 90
        0
102
RTVSPost2010PropOp41
 70
     1
102
RTVSPost2010Prop42
 90
       50
102
RTVSPost2010PropOp42
 70
     1
102
RTVSPost2010Prop43
 90
        3
102
RTVSPost2010PropOp43
 70
     1
102
RTVSPost2010Prop44ColorIndex
 90
        5
102
RTVSPost2010Prop44ColorRGB
 90
      255
102
RTVSPost2010PropOp44
 70
     1
102
RTVSPost2010Prop45
280
     0
102
RTVSPost2010PropOp45
 70
     1
102
RTVSPost2010Prop46
 90
       50
102
RTVSPost2010PropOp46
 70
     1
102
RTVSPost2010Prop47
 90
       50
102
RTVSPost2010PropOp47
 70
     1
102
RTVSPost2010Prop48
 90
       50
102
RTVSPost2010PropOp48
 70
     1
102
RTVSPost2010Prop49
280
     0
102
RTVSPost2010PropOp49
 70
     1
102
RTVSPost2010Prop50
 90
       50
102
RTVSPost2010PropOp50
 70
     1
102
RTVSPost2010Prop51ColorIndex
 90
      256
102
RTVSPost2010Prop51ColorRGB
 90
-16777216
102
RTVSPost2010PropOp51
 70
     0
102
RTVSPost2010Prop52
140
1.0
102
RTVSPost2010PropOp52
 70
     0
102
RTVSPost2010Prop53
 90
        2
102
RTVSPost2010PropOp53
 70
     1
102
RTVSPost2010Prop54
  1
strokes_ogs.tif
102
RTVSPost2010PropOp54
 70
     1
102
RTVSPost2010Prop55
280
     0
102
RTVSPost2010PropOp55
 70
     1
102
RTVSPost2010Prop56
140
1.0
102
RTVSPost2010PropOp56
 70
     1
102
RTVSPost2010Prop57
140
1.0
102
RTVSPost2010PropOp57
 70
     1
102
RTVSPropertyOp0
 70
     1
102
RTVSPropertyOp1
 70
     1
102
RTVSPropertyOp2
 70
     1
102
RTVSPropertyOp3
 70
     1
102
RTVSPropertyOp4
 70
     1
102
RTVSPropertyOp5
 70
     1
102
RTVSPropertyOp6
 70
     1
102
RTVSPropertyOp7
 70
     1
102
RTVSPropertyOp8
 70
     1
102
RTVSPropertyOp9
 70
     1
102
RTVSPropertyOp10
 70
     1
102
RTVSPropertyOp11
 70
     1
102
RTVSPropertyOp12
 70
     1
102
RTVSPropertyOp13
 70
     1
102
RTVSPropertyOp14
 70
     1
102
RTVSPropertyOp15
 70
     1
102
RTVSPropertyOp16
 70
     1
102
RTVSPropertyOp17
 70
     1
102
RTVSPropertyOp18
 70
     1
102
RTVSPropertyOp19
 70
     1
102
RTVSPropertyOp20
 70
     1
102
RTVSPropertyOp21
 70
     1
102
RTVSPropertyOp22
 70
     1
102
RTVSPropertyOp23
 70
     1
102
RTVSPropertyOp24
 70
     1
102
RTVSPropertyOp25
 70
     1
102
RTVSPropertyOp26
 70
     1
102
RTVSPropertyOp27
 70
     1
102
RTVSPropertyOp28
 70
     1
102
RTVSPropertyOp29
 70
     1
102
RTVSPropertyOp30
 70
     1
102
RTVSPropertyOp31
 70
     1
102
RTVSPropertyOp32
 70
     1
102
RTVSPropertyOp33
 70
     1
102
RTVSPropertyOp34
 70
     1
102
RTVSPropertyOp35
 70
     1
102
RTVSPropertyOp36
 70
     1
102
RTVSPropertyOp37
 70
     1
102
RTVSPropertyOp38
 70
     1
102
RTVSPropertyOp39
 70
     1
102
RTVSPropertyOp40
 70
     1
102
RTVSPropertyOp41
 70
     1
102
RTVSPropertyOp42
 70
     1
102
RTVSPropertyOp43
 70
     1
102
RTVSPropertyOp44
 70
     1
102
RTVSPropertyOp45
 70
     1
102
RTVSPropertyOp46
 70
     1
102
RTVSPropertyOp47
 70
     1
102
RTVSPropertyOp48
 70
     1
102
RTVSPropertyOp49
 70
     1
102
RTVSPropertyOp50
 70
     1
102
RTVSPropertyOp51
 70
     0
102
RTVSPropertyOp52
 70
     0
102
RTVSPropertyOp53
 70
     1
102
RTVSPropertyOp54
 70
     1
102
RTVSPropertyOp55
 70
     1
102
RTVSPropertyOp56
 70
     1
102
RTVSPropertyOp57
 70
     1
102
RTVSPropertyOp58
 70
     1
102
RTVSPropertyOp59
 70
     1
102
RTVSPropertyOp60
 70
     1
102
RTVSPropertyOp61
 70
     1
102
RTVSPropertyOp62
 70
     1
  0
XRECORD
  5
6AA
102
{ACAD_REACTORS
330
6A9
102
}
330
6A9
100
AcDbXrecord
280
     1
102
RTVSPost2010Prop28
280
     0
102
RTVSPost2010PropOp28
 70
     1
102
RTVSPost2010Prop29
280
     1
102
RTVSPost2010PropOp29
 70
     1
102
RTVSPost2010Prop30
280
     1
102
RTVSPost2010PropOp30
 70
     1
102
RTVSPost2010Prop31
280
     0
102
RTVSPost2010PropOp31
 70
     1
102
RTVSPost2010Prop32
280
     0
102
RTVSPost2010PropOp32
 70
     1
102
RTVSPost2010Prop33
280
     0
102
RTVSPost2010PropOp33
 70
     1
102
RTVSPost2010Prop34
280
     0
102
RTVSPost2010PropOp34
 70
     1
102
RTVSPost2010Prop35
280
     0
102
RTVSPost2010PropOp35
 70
     1
102
RTVSPost2010Prop36
280
     0
102
RTVSPost2010PropOp36
 70
     1
102
RTVSPost2010Prop37
 90
       50
102
RTVSPost2010PropOp37
 70
     1
102
RTVSPost2010Prop38
140
0.0
102
RTVSPost2010PropOp38
 70
     1
102
RTVSPost2010Prop39
140
1.0
102
RTVSPost2010PropOp39
 70
     1
102
RTVSPost2010Prop40
 90
        0
102
RTVSPost2010PropOp40
 70
     1
102
RTVSPost2010Prop41ColorIndex
 90
       18
102
RTVSPost2010Prop41ColorRGB
 90
        0
102
RTVSPost2010PropOp41
 70
     1
102
RTVSPost2010Prop42
 90
       50
102
RTVSPost2010PropOp42
 70
     1
102
RTVSPost2010Prop43
 90
        3
102
RTVSPost2010PropOp43
 70
     1
102
RTVSPost2010Prop44ColorIndex
 90
        5
102
RTVSPost2010Prop44ColorRGB
 90
      255
102
RTVSPost2010PropOp44
 70
     1
102
RTVSPost2010Prop45
280
     0
102
RTVSPost2010PropOp45
 70
     1
102
RTVSPost2010Prop46
 90
       50
102
RTVSPost2010PropOp46
 70
     1
102
RTVSPost2010Prop47
 90
       50
102
RTVSPost2010PropOp47
 70
     1
102
RTVSPost2010Prop48
 90
       50
102
RTVSPost2010PropOp48
 70
     1
102
RTVSPost2010Prop49
280
     0
102
RTVSPost2010PropOp49
 70
     1
102
RTVSPost2010Prop50
 90
       50
102
RTVSPost2010PropOp50
 70
     1
102
RTVSPost2010Prop51ColorIndex
 90
      256
102
RTVSPost2010Prop51ColorRGB
 90
-16777216
102
RTVSPost2010PropOp51
 70
     0
102
RTVSPost2010Prop52
140
1.0
102
RTVSPost2010PropOp52
 70
     0
102
RTVSPost2010Prop53
 90
        2
102
RTVSPost2010PropOp53
 70
     1
102
RTVSPost2010Prop54
  1
strokes_ogs.tif
102
RTVSPost2010PropOp54
 70
     1
102
RTVSPost2010Prop55
280
     0
102
RTVSPost2010PropOp55
 70
     1
102
RTVSPost2010Prop56
140
1.0
102
RTVSPost2010PropOp56
 70
     1
102
RTVSPost2010Prop57
140
1.0
102
RTVSPost2010PropOp57
 70
     1
102
RTVSPropertyOp0
 70
     1
102
RTVSPropertyOp1
 70
     1
102
RTVSPropertyOp2
 70
     1
102
RTVSPropertyOp3
 70
     1
102
RTVSPropertyOp4
 70
     1
102
RTVSPropertyOp5
 70
     1
102
RTVSPropertyOp6
 70
     1
102
RTVSPropertyOp7
 70
     1
102
RTVSPropertyOp8
 70
     1
102
RTVSPropertyOp9
 70
     1
102
RTVSPropertyOp10
 70
     1
102
RTVSPropertyOp11
 70
     1
102
RTVSPropertyOp12
 70
     1
102
RTVSPropertyOp13
 70
     1
102
RTVSPropertyOp14
 70
     1
102
RTVSPropertyOp15
 70
     1
102
RTVSPropertyOp16
 70
     1
102
RTVSPropertyOp17
 70
     1
102
RTVSPropertyOp18
 70
     1
102
RTVSPropertyOp19
 70
     1
102
RTVSPropertyOp20
 70
     1
102
RTVSPropertyOp21
 70
     1
102
RTVSPropertyOp22
 70
     1
102
RTVSPropertyOp23
 70
     1
102
RTVSPropertyOp24
 70
     1
102
RTVSPropertyOp25
 70
     1
102
RTVSPropertyOp26
 70
     1
102
RTVSPropertyOp27
 70
     1
102
RTVSPropertyOp28
 70
     1
102
RTVSPropertyOp29
 70
     1
102
RTVSPropertyOp30
 70
     1
102
RTVSPropertyOp31
 70
     1
102
RTVSPropertyOp32
 70
     1
102
RTVSPropertyOp33
 70
     1
102
RTVSPropertyOp34
 70
     1
102
RTVSPropertyOp35
 70
     1
102
RTVSPropertyOp36
 70
     1
102
RTVSPropertyOp37
 70
     1
102
RTVSPropertyOp38
 70
     1
102
RTVSPropertyOp39
 70
     1
102
RTVSPropertyOp40
 70
     1
102
RTVSPropertyOp41
 70
     1
102
RTVSPropertyOp42
 70
     1
102
RTVSPropertyOp43
 70
     1
102
RTVSPropertyOp44
 70
     1
102
RTVSPropertyOp45
 70
     1
102
RTVSPropertyOp46
 70
     1
102
RTVSPropertyOp47
 70
     1
102
RTVSPropertyOp48
 70
     1
102
RTVSPropertyOp49
 70
     1
102
RTVSPropertyOp50
 70
     1
102
RTVSPropertyOp51
 70
     0
102
RTVSPropertyOp52
 70
     0
102
RTVSPropertyOp53
 70
     1
102
RTVSPropertyOp54
 70
     1
102
RTVSPropertyOp55
 70
     1
102
RTVSPropertyOp56
 70
     1
102
RTVSPropertyOp57
 70
     1
102
RTVSPropertyOp58
 70
     1
102
RTVSPropertyOp59
 70
     1
102
RTVSPropertyOp60
 70
     1
102
RTVSPropertyOp61
 70
     1
102
RTVSPropertyOp62
 70
     1
  0
XRECORD
  5
6CA
102
{ACAD_REACTORS
330
6C9
102
}
330
6C9
100
AcDbXrecord
280
     1
102
RTVSPost2010Prop28
280
     0
102
RTVSPost2010PropOp28
 70
     1
102
RTVSPost2010Prop29
280
     1
102
RTVSPost2010PropOp29
 70
     1
102
RTVSPost2010Prop30
280
     1
102
RTVSPost2010PropOp30
 70
     1
102
RTVSPost2010Prop31
280
     0
102
RTVSPost2010PropOp31
 70
     1
102
RTVSPost2010Prop32
280
     0
102
RTVSPost2010PropOp32
 70
     1
102
RTVSPost2010Prop33
280
     0
102
RTVSPost2010PropOp33
 70
     1
102
RTVSPost2010Prop34
280
     0
102
RTVSPost2010PropOp34
 70
     1
102
RTVSPost2010Prop35
280
     0
102
RTVSPost2010PropOp35
 70
     1
102
RTVSPost2010Prop36
280
     0
102
RTVSPost2010PropOp36
 70
     1
102
RTVSPost2010Prop37
 90
       50
102
RTVSPost2010PropOp37
 70
     1
102
RTVSPost2010Prop38
140
0.0
102
RTVSPost2010PropOp38
 70
     1
102
RTVSPost2010Prop39
140
1.0
102
RTVSPost2010PropOp39
 70
     1
102
RTVSPost2010Prop40
 90
        0
102
RTVSPost2010PropOp40
 70
     1
102
RTVSPost2010Prop41ColorIndex
 90
       18
102
RTVSPost2010Prop41ColorRGB
 90
        0
102
RTVSPost2010PropOp41
 70
     1
102
RTVSPost2010Prop42
 90
       50
102
RTVSPost2010PropOp42
 70
     1
102
RTVSPost2010Prop43
 90
        3
102
RTVSPost2010PropOp43
 70
     1
102
RTVSPost2010Prop44ColorIndex
 90
        5
102
RTVSPost2010Prop44ColorRGB
 90
      255
102
RTVSPost2010PropOp44
 70
     1
102
RTVSPost2010Prop45
280
     0
102
RTVSPost2010PropOp45
 70
     1
102
RTVSPost2010Prop46
 90
       50
102
RTVSPost2010PropOp46
 70
     1
102
RTVSPost2010Prop47
 90
       50
102
RTVSPost2010PropOp47
 70
     1
102
RTVSPost2010Prop48
 90
       50
102
RTVSPost2010PropOp48
 70
     1
102
RTVSPost2010Prop49
280
     0
102
RTVSPost2010PropOp49
 70
     1
102
RTVSPost2010Prop50
 90
       50
102
RTVSPost2010PropOp50
 70
     1
102
RTVSPost2010Prop51ColorIndex
 90
      256
102
RTVSPost2010Prop51ColorRGB
 90
-16777216
102
RTVSPost2010PropOp51
 70
     0
102
RTVSPost2010Prop52
140
1.0
102
RTVSPost2010PropOp52
 70
     0
102
RTVSPost2010Prop53
 90
        2
102
RTVSPost2010PropOp53
 70
     1
102
RTVSPost2010Prop54
  1
strokes_ogs.tif
102
RTVSPost2010PropOp54
 70
     1
102
RTVSPost2010Prop55
280
     0
102
RTVSPost2010PropOp55
 70
     1
102
RTVSPost2010Prop56
140
1.0
102
RTVSPost2010PropOp56
 70
     1
102
RTVSPost2010Prop57
140
1.0
102
RTVSPost2010PropOp57
 70
     1
102
RTVSPropertyOp0
 70
     1
102
RTVSPropertyOp1
 70
     1
102
RTVSPropertyOp2
 70
     1
102
RTVSPropertyOp3
 70
     1
102
RTVSPropertyOp4
 70
     1
102
RTVSPropertyOp5
 70
     1
102
RTVSPropertyOp6
 70
     1
102
RTVSPropertyOp7
 70
     1
102
RTVSPropertyOp8
 70
     1
102
RTVSPropertyOp9
 70
     1
102
RTVSPropertyOp10
 70
     1
102
RTVSPropertyOp11
 70
     1
102
RTVSPropertyOp12
 70
     1
102
RTVSPropertyOp13
 70
     1
102
RTVSPropertyOp14
 70
     1
102
RTVSPropertyOp15
 70
     1
102
RTVSPropertyOp16
 70
     1
102
RTVSPropertyOp17
 70
     1
102
RTVSPropertyOp18
 70
     1
102
RTVSPropertyOp19
 70
     1
102
RTVSPropertyOp20
 70
     1
102
RTVSPropertyOp21
 70
     1
102
RTVSPropertyOp22
 70
     1
102
RTVSPropertyOp23
 70
     1
102
RTVSPropertyOp24
 70
     1
102
RTVSPropertyOp25
 70
     1
102
RTVSPropertyOp26
 70
     1
102
RTVSPropertyOp27
 70
     1
102
RTVSPropertyOp28
 70
     1
102
RTVSPropertyOp29
 70
     1
102
RTVSPropertyOp30
 70
     1
102
RTVSPropertyOp31
 70
     1
102
RTVSPropertyOp32
 70
     1
102
RTVSPropertyOp33
 70
     1
102
RTVSPropertyOp34
 70
     1
102
RTVSPropertyOp35
 70
     1
102
RTVSPropertyOp36
 70
     1
102
RTVSPropertyOp37
 70
     1
102
RTVSPropertyOp38
 70
     1
102
RTVSPropertyOp39
 70
     1
102
RTVSPropertyOp40
 70
     1
102
RTVSPropertyOp41
 70
     1
102
RTVSPropertyOp42
 70
     1
102
RTVSPropertyOp43
 70
     1
102
RTVSPropertyOp44
 70
     1
102
RTVSPropertyOp45
 70
     1
102
RTVSPropertyOp46
 70
     1
102
RTVSPropertyOp47
 70
     1
102
RTVSPropertyOp48
 70
     1
102
RTVSPropertyOp49
 70
     1
102
RTVSPropertyOp50
 70
     1
102
RTVSPropertyOp51
 70
     0
102
RTVSPropertyOp52
 70
     0
102
RTVSPropertyOp53
 70
     1
102
RTVSPropertyOp54
 70
     1
102
RTVSPropertyOp55
 70
     1
102
RTVSPropertyOp56
 70
     1
102
RTVSPropertyOp57
 70
     1
102
RTVSPropertyOp58
 70
     1
102
RTVSPropertyOp59
 70
     1
102
RTVSPropertyOp60
 70
     1
102
RTVSPropertyOp61
 70
     1
102
RTVSPropertyOp62
 70
     1
  0
ENDSEC
  0
EOF
