  0
SECTION
  2
HEADER
  9
$ACADVER
  1
AC1015
  9
$ACADMAINTVER
 70
    20
  9
$DWGCODEPAGE
  3
ANSI_932
  9
$INSBASE
 10
0.0
 20
0.0
 30
0.0
  9
$EXTMIN
 10
27.4078315634622
 20
16.24136536129561
 30
0.0
  9
$EXTMAX
 10
1409.258334808557
 20
1219.192855871795
 30
0.0
  9
$LIMMIN
 10
-344.6694488525389
 20
-490.7445983886717
  9
$LIMMAX
 10
968.3167266845703
 20
645.5461730957027
  9
$ORTHOMODE
 70
     0
  9
$REGENMODE
 70
     1
  9
$FILLMODE
 70
     1
  9
$QTEXTMODE
 70
     0
  9
$MIRRTEXT
 70
     1
  9
$LTSCALE
 40
0.2355192289577694
  9
$ATTMODE
 70
     1
  9
$TEXTSIZE
 40
2.5
  9
$TRACEWID
 40
1.0
  9
$TEXTSTYLE
  7
Standard
  9
$CLAYER
  8
0
  9
$CELTYPE
  6
ByLayer
  9
$CECOLOR
 62
   256
  9
$CELTSCALE
 40
1.0
  9
$DISPSILH
 70
     0
  9
$DIMSCALE
 40
1.0
  9
$DIMASZ
 40
2.5
  9
$DIMEXO
 40
0.625
  9
$DIMDLI
 40
3.75
  9
$DIMRND
 40
0.0
  9
$DIMDLE
 40
0.0
  9
$DIMEXE
 40
1.25
  9
$DIMTP
 40
0.0
  9
$DIMTM
 40
0.0
  9
$DIMTXT
 40
2.5
  9
$DIMCEN
 40
2.5
  9
$DIMTSZ
 40
0.0
  9
$DIMTOL
 70
     0
  9
$DIMLIM
 70
     0
  9
$DIMTIH
 70
     0
  9
$DIMTOH
 70
     0
  9
$DIMSE1
 70
     0
  9
$DIMSE2
 70
     0
  9
$DIMTAD
 70
     1
  9
$DIMZIN
 70
     0
  9
$DIMBLK
  1

  9
$DIMASO
 70
     1
  9
$DIMSHO
 70
     1
  9
$DIMPOST
  1

  9
$DIMAPOST
  1

  9
$DIMALT
 70
     0
  9
$DIMALTD
 70
     3
  9
$DIMALTF
 40
0.03937007874016
  9
$DIMLFAC
 40
1.0
  9
$DIMTOFL
 70
     1
  9
$DIMTVP
 40
0.0
  9
$DIMTIX
 70
     0
  9
$DIMSOXD
 70
     0
  9
$DIMSAH
 70
     0
  9
$DIMBLK1
  1

  9
$DIMBLK2
  1

  9
$DIMSTYLE
  2
Standard
  9
$DIMCLRD
 70
     0
  9
$DIMCLRE
 70
     0
  9
$DIMCLRT
 70
     0
  9
$DIMTFAC
 40
0.75
  9
$DIMGAP
 40
0.625
  9
$DIMJUST
 70
     0
  9
$DIMSD1
 70
     0
  9
$DIMSD2
 70
     0
  9
$DIMTOLJ
 70
     0
  9
$DIMTZIN
 70
     8
  9
$DIMALTZ
 70
     0
  9
$DIMALTTZ
 70
     0
  9
$DIMUPT
 70
     0
  9
$DIMDEC
 70
     2
  9
$DIMTDEC
 70
     2
  9
$DIMALTU
 70
     2
  9
$DIMALTTD
 70
     3
  9
$DIMTXSTY
  7
Standard
  9
$DIMAUNIT
 70
     0
  9
$DIMADEC
 70
     0
  9
$DIMALTRND
 40
0.0
  9
$DIMAZIN
 70
     0
  9
$DIMDSEP
 70
    46
  9
$DIMATFIT
 70
     3
  9
$DIMFRAC
 70
     0
  9
$DIMLDRBLK
  1

  9
$DIMLUNIT
 70
     2
  9
$DIMLWD
 70
    -2
  9
$DIMLWE
 70
    -2
  9
$DIMTMOVE
 70
     0
  9
$LUNITS
 70
     2
  9
$LUPREC
 70
     4
  9
$SKETCHINC
 40
1.0
  9
$FILLETRAD
 40
0.0
  9
$AUNITS
 70
     0
  9
$AUPREC
 70
     0
  9
$MENU
  1
.
  9
$ELEVATION
 40
0.0
  9
$PELEVATION
 40
0.0
  9
$THICKNESS
 40
0.0
  9
$LIMCHECK
 70
     0
  9
$CHAMFERA
 40
10.0
  9
$CHAMFERB
 40
10.0
  9
$CHAMFERC
 40
20.0
  9
$CHAMFERD
 40
0.0
  9
$SKPOLY
 70
     0
  9
$TDCREATE
 40
2455188.750000000
  9
$TDUCREATE
 40
2455188.375000000
  9
$TDUPDATE
 40
2459758.726970035
  9
$TDUUPDATE
 40
2459758.351970035
  9
$TDINDWG
 40
0.0066676736
  9
$TDUSRTIMER
 40
0.0066675116
  9
$USRTIMER
 70
     1
  9
$ANGBASE
 50
0.0
  9
$ANGDIR
 70
     0
  9
$PDMODE
 70
     0
  9
$PDSIZE
 40
0.0
  9
$PLINEWID
 40
0.0
  9
$SPLFRAME
 70
     0
  9
$SPLINETYPE
 70
     6
  9
$SPLINESEGS
 70
     8
  9
$HANDSEED
  5
615
  9
$SURFTAB1
 70
     6
  9
$SURFTAB2
 70
     6
  9
$SURFTYPE
 70
     6
  9
$SURFU
 70
     6
  9
$SURFV
 70
     6
  9
$UCSBASE
  2

  9
$UCSNAME
  2

  9
$UCSORG
 10
0.0
 20
0.0
 30
0.0
  9
$UCSXDIR
 10
1.0
 20
0.0
 30
0.0
  9
$UCSYDIR
 10
0.0
 20
1.0
 30
0.0
  9
$UCSORTHOREF
  2

  9
$UCSORTHOVIEW
 70
     0
  9
$UCSORGTOP
 10
0.0
 20
0.0
 30
0.0
  9
$UCSORGBOTTOM
 10
0.0
 20
0.0
 30
0.0
  9
$UCSORGLEFT
 10
0.0
 20
0.0
 30
0.0
  9
$UCSORGRIGHT
 10
0.0
 20
0.0
 30
0.0
  9
$UCSORGFRONT
 10
0.0
 20
0.0
 30
0.0
  9
$UCSORGBACK
 10
0.0
 20
0.0
 30
0.0
  9
$PUCSBASE
  2

  9
$PUCSNAME
  2

  9
$PUCSORG
 10
0.0
 20
0.0
 30
0.0
  9
$PUCSXDIR
 10
1.0
 20
0.0
 30
0.0
  9
$PUCSYDIR
 10
0.0
 20
1.0
 30
0.0
  9
$PUCSORTHOREF
  2

  9
$PUCSORTHOVIEW
 70
     0
  9
$PUCSORGTOP
 10
0.0
 20
0.0
 30
0.0
  9
$PUCSORGBOTTOM
 10
0.0
 20
0.0
 30
0.0
  9
$PUCSORGLEFT
 10
0.0
 20
0.0
 30
0.0
  9
$PUCSORGRIGHT
 10
0.0
 20
0.0
 30
0.0
  9
$PUCSORGFRONT
 10
0.0
 20
0.0
 30
0.0
  9
$PUCSORGBACK
 10
0.0
 20
0.0
 30
0.0
  9
$USERI1
 70
     0
  9
$USERI2
 70
     0
  9
$USERI3
 70
     0
  9
$USERI4
 70
     0
  9
$USERI5
 70
     0
  9
$USERR1
 40
0.0
  9
$USERR2
 40
0.0
  9
$USERR3
 40
0.0
  9
$USERR4
 40
0.0
  9
$USERR5
 40
0.0
  9
$WORLDVIEW
 70
     1
  9
$SHADEDGE
 70
     3
  9
$SHADEDIF
 70
    70
  9
$TILEMODE
 70
     1
  9
$MAXACTVP
 70
    64
  9
$PINSBASE
 10
0.0
 20
0.0
 30
0.0
  9
$PLIMCHECK
 70
     0
  9
$PEXTMIN
 10
1.000000000000000E+20
 20
1.000000000000000E+20
 30
1.000000000000000E+20
  9
$PEXTMAX
 10
-1.000000000000000E+20
 20
-1.000000000000000E+20
 30
-1.000000000000000E+20
  9
$PLIMMIN
 10
0.0
 20
0.0
  9
$PLIMMAX
 10
420.0
 20
297.0
  9
$UNITMODE
 70
     0
  9
$VISRETAIN
 70
     1
  9
$PLINEGEN
 70
     0
  9
$PSLTSCALE
 70
     1
  9
$TREEDEPTH
 70
  3020
  9
$CMLSTYLE
  2
Standard
  9
$CMLJUST
 70
     0
  9
$CMLSCALE
 40
20.0
  9
$PROXYGRAPHICS
 70
     1
  9
$MEASUREMENT
 70
     1
  9
$CELWEIGHT
370
    -1
  9
$ENDCAPS
280
     0
  9
$JOINSTYLE
280
     0
  9
$LWDISPLAY
290
     0
  9
$INSUNITS
 70
     4
  9
$HYPERLINKBASE
  1

  9
$STYLESHEET
  1

  9
$XEDIT
290
     1
  9
$CEPSNTYPE
380
     0
  9
$PSTYLEMODE
290
     1
  9
$FINGERPRINTGUID
  2
{E83208FF-9C83-42AD-9976-9D28C07EF90B}
  9
$VERSIONGUID
  2
{9FDEA904-F09F-47B2-8015-65EB3D5447D7}
  9
$EXTNAMES
290
     1
  9
$PSVPSCALE
 40
0.0
  9
$OLESTARTUP
290
     0
  0
ENDSEC
  0
SECTION
  2
CLASSES
  0
CLASS
  1
ACDBDICTIONARYWDFLT
  2
AcDbDictionaryWithDefault
  3
ObjectDBX Classes
 90
        0
280
     0
281
     0
  0
CLASS
  1
VISUALSTYLE
  2
AcDbVisualStyle
  3
ObjectDBX Classes
 90
     4095
280
     0
281
     0
  0
CLASS
  1
MATERIAL
  2
AcDbMaterial
  3
ObjectDBX Classes
 90
     1153
280
     0
281
     0
  0
CLASS
  1
SCALE
  2
AcDbScale
  3
ObjectDBX Classes
 90
     1153
280
     0
281
     0
  0
CLASS
  1
TABLESTYLE
  2
AcDbTableStyle
  3
ObjectDBX Classes
 90
     4095
280
     0
281
     0
  0
CLASS
  1
MLEADERSTYLE
  2
AcDbMLeaderStyle
  3
ACDB_MLEADERSTYLE_CLASS
 90
     4095
280
     0
281
     0
  0
CLASS
  1
SUN
  2
AcDbSun
  3
SCENEOE
 90
    33921
280
     0
281
     0
  0
CLASS
  1
DICTIONARYVAR
  2
AcDbDictionaryVar
  3
ObjectDBX Classes
 90
        0
280
     0
281
     0
  0
CLASS
  1
ACDBSECTIONVIEWSTYLE
  2
AcDbSectionViewStyle
  3
ObjectDBX Classes
 90
     1025
280
     0
281
     0
  0
CLASS
  1
ACDBDETAILVIEWSTYLE
  2
AcDbDetailViewStyle
  3
ObjectDBX Classes
 90
     1025
280
     0
281
     0
  0
CLASS
  1
SORTENTSTABLE
  2
AcDbSortentsTable
  3
ObjectDBX Classes
 90
        0
280
     0
281
     0
  0
CLASS
  1
CELLSTYLEMAP
  2
AcDbCellStyleMap
  3
ObjectDBX Classes
 90
     1152
280
     0
281
     0
  0
CLASS
  1
ACDBPLACEHOLDER
  2
AcDbPlaceHolder
  3
ObjectDBX Classes
 90
        0
280
     0
281
     0
  0
CLASS
  1
LAYOUT
  2
AcDbLayout
  3
ObjectDBX Classes
 90
        0
280
     0
281
     0
  0
ENDSEC
  0
SECTION
  2
TABLES
  0
TABLE
  2
VPORT
  5
8
330
0
100
AcDbSymbolTable
 70
     1
  0
VPORT
  5
29
330
8
100
AcDbSymbolTableRecord
100
AcDbViewportTableRecord
  2
*Active
 70
     0
 10
0.0
 20
0.0
 11
1.0
 21
1.0
 12
1967.031224310876
 22
165.629127440191
 13
0.0
 23
0.0
 14
10.0
 24
10.0
 15
10.0
 25
10.0
 16
0.0
 26
0.0
 36
1.0
 17
0.0
 27
0.0
 37
0.0
 40
2516.751626806936
 41
2.204301075268817
 42
50.0
 43
0.0
 44
0.0
 50
0.0
 51
0.0
 71
     0
 72
 20000
 73
     1
 74
     3
 75
     0
 76
     0
 77
     0
 78
     0
281
     0
 65
     1
110
0.0
120
0.0
130
0.0
111
1.0
121
0.0
131
0.0
112
0.0
122
1.0
132
0.0
 79
     0
146
0.0
1001
ACAD_NAV_VCDISPLAY
1070
     3
  0
ENDTAB
  0
TABLE
  2
LTYPE
  5
5
330
0
100
AcDbSymbolTable
 70
     2
  0
LTYPE
  5
14
330
5
100
AcDbSymbolTableRecord
100
AcDbLinetypeTableRecord
  2
ByBlock
 70
     0
  3

 72
    65
 73
     0
 40
0.0
  0
LTYPE
  5
15
330
5
100
AcDbSymbolTableRecord
100
AcDbLinetypeTableRecord
  2
ByLayer
 70
     0
  3

 72
    65
 73
     0
 40
0.0
  0
LTYPE
  5
16
330
5
100
AcDbSymbolTableRecord
100
AcDbLinetypeTableRecord
  2
Continuous
 70
     0
  3
Solid line
 72
    65
 73
     0
 40
0.0
  0
LTYPE
  5
291
330
5
100
AcDbSymbolTableRecord
100
AcDbLinetypeTableRecord
  2
CENTER2
 70
     0
  3
Center (.5x) ___ _ ___ _ ___ _ ___ _ ___ _ ___
 72
    65
 73
     4
 40
28.575
 49
19.05
 74
     0
 49
-3.174999999999998
 74
     0
 49
3.174999999999998
 74
     0
 49
-3.174999999999998
 74
     0
  0
ENDTAB
  0
TABLE
  2
LAYER
  5
2
102
{ACAD_XDICTIONARY
360
297
102
}
330
0
100
AcDbSymbolTable
 70
     4
  0
LAYER
  5
10
102
{ACAD_XDICTIONARY
360
580
102
}
330
2
100
AcDbSymbolTableRecord
100
AcDbLayerTableRecord
  2
0
 70
     0
 62
     7
  6
Continuous
370
    -3
390
F
  0
LAYER
  5
66
330
2
100
AcDbSymbolTableRecord
100
AcDbLayerTableRecord
  2
Defpoints
 70
     0
 62
     7
  6
Continuous
290
     0
370
    -3
390
F
  0
LAYER
  5
292
102
{ACAD_XDICTIONARY
360
293
102
}
330
2
100
AcDbSymbolTableRecord
100
AcDbLayerTableRecord
  2
中心線
 70
     0
 62
     3
  6
CENTER2
370
    -3
390
F
  0
LAYER
  5
294
102
{ACAD_XDICTIONARY
360
295
102
}
330
2
100
AcDbSymbolTableRecord
100
AcDbLayerTableRecord
  2
実線
 70
     0
 62
     7
  6
Continuous
370
    -3
390
F
  0
ENDTAB
  0
TABLE
  2
STYLE
  5
3
330
0
100
AcDbSymbolTable
 70
     1
  0
STYLE
  5
11
330
3
100
AcDbSymbolTableRecord
100
AcDbTextStyleTableRecord
  2
Standard
 70
     0
 40
0.0
 41
1.0
 50
0.0
 71
     0
 42
2.5
  3
txt
  4
extfont2
  0
ENDTAB
  0
TABLE
  2
VIEW
  5
6
330
0
100
AcDbSymbolTable
 70
     0
  0
ENDTAB
  0
TABLE
  2
UCS
  5
7
330
0
100
AcDbSymbolTable
 70
     0
  0
ENDTAB
  0
TABLE
  2
APPID
  5
9
330
0
100
AcDbSymbolTable
 70
     4
  0
APPID
  5
12
330
9
100
AcDbSymbolTableRecord
100
AcDbRegAppTableRecord
  2
ACAD
 70
     0
  0
APPID
  5
281
330
9
100
AcDbSymbolTableRecord
100
AcDbRegAppTableRecord
  2
ACAD_MLEADERVER
 70
     0
  0
APPID
  5
296
330
9
100
AcDbSymbolTableRecord
100
AcDbRegAppTableRecord
  2
ACAD_NAV_VCDISPLAY
 70
     0
  0
APPID
  5
56D
330
9
100
AcDbSymbolTableRecord
100
AcDbRegAppTableRecord
  2
ACAD_EXEMPT_FROM_CAD_STANDARDS
 70
     0
  0
ENDTAB
  0
TABLE
  2
DIMSTYLE
  5
A
330
0
100
AcDbSymbolTable
 70
     1
100
AcDbDimStyleTable
 71
     1
340
27
  0
DIMSTYLE
105
27
330
A
100
AcDbSymbolTableRecord
100
AcDbDimStyleTableRecord
  2
Standard
 70
     0
 41
2.5
 42
0.625
 43
3.75
 44
1.25
 73
     0
 74
     0
 77
     1
140
2.5
141
2.5
143
0.03937007874016
146
0.75
147
0.625
171
     3
172
     1
271
     2
272
     2
274
     3
283
     0
284
     8
340
11
  0
ENDTAB
  0
TABLE
  2
BLOCK_RECORD
  5
1
330
0
100
AcDbSymbolTable
 70
     1
  0
BLOCK_RECORD
  5
1F
102
{ACAD_XDICTIONARY
360
3E1
102
}
330
1
100
AcDbSymbolTableRecord
100
AcDbBlockTableRecord
  2
*Model_Space
340
22
  0
BLOCK_RECORD
  5
1B
330
1
100
AcDbSymbolTableRecord
100
AcDbBlockTableRecord
  2
*Paper_Space
340
1E
  0
BLOCK_RECORD
  5
23
330
1
100
AcDbSymbolTableRecord
100
AcDbBlockTableRecord
  2
*Paper_Space0
340
28B
  0
ENDTAB
  0
ENDSEC
  0
SECTION
  2
BLOCKS
  0
BLOCK
  5
20
330
1F
100
AcDbEntity
  8
0
100
AcDbBlockBegin
  2
*Model_Space
 70
     0
 10
0.0
 20
0.0
 30
0.0
  3
*Model_Space
  1

  0
ENDBLK
  5
21
330
1F
100
AcDbEntity
  8
0
100
AcDbBlockEnd
  0
BLOCK
  5
1C
330
1B
100
AcDbEntity
 67
     1
  8
0
100
AcDbBlockBegin
  2
*Paper_Space
 70
     0
 10
0.0
 20
0.0
 30
0.0
  3
*Paper_Space
  1

  0
ENDBLK
  5
1D
330
1B
100
AcDbEntity
 67
     1
  8
0
100
AcDbBlockEnd
  0
BLOCK
  5
24
330
23
100
AcDbEntity
 67
     1
  8
0
100
AcDbBlockBegin
  2
*Paper_Space0
 70
     0
 10
0.0
 20
0.0
 30
0.0
  3
*Paper_Space0
  1

  0
ENDBLK
  5
25
330
23
100
AcDbEntity
 67
     1
  8
0
100
AcDbBlockEnd
  0
ENDSEC
  0
SECTION
  2
ENTITIES
  0
ARC
  5
3A9
102
{ACAD_REACTORS
330
57E
102
}
330
1F
100
AcDbEntity
  8
実線
100
AcDbCircle
 10
337.4078315634621
 20
814.3169207270002
 30
0.0
 40
25.0
100
AcDbArc
 50
233.1301023541523
 51
293.0739180656318
  0
CIRCLE
  5
3AA
102
{ACAD_REACTORS
330
57E
102
}
330
1F
100
AcDbEntity
  8
実線
100
AcDbCircle
 10
337.4078315634621
 20
814.3169207270002
 30
0.0
 40
46.0
  0
LINE
  5
3AB
102
{ACAD_REACTORS
330
57E
102
}
330
1F
100
AcDbEntity
  8
実線
100
AcDbLine
 10
260.7078315634622
 20
788.9169207270003
 30
0.0
 11
280.3018774080503
 21
788.9169207270003
 31
0.0
  0
LINE
  5
3AC
102
{ACAD_REACTORS
330
57E
102
}
330
1F
100
AcDbEntity
  8
実線
100
AcDbLine
 10
280.3018774080505
 20
839.7169207270012
 30
0.0
 11
260.7078315634622
 21
839.7169207270012
 31
0.0
  0
LINE
  5
3AD
102
{ACAD_REACTORS
330
57E
102
}
330
1F
100
AcDbEntity
  8
実線
100
AcDbLine
 10
260.7078315634622
 20
788.9169207270003
 30
0.0
 11
260.7078315634622
 21
839.7169207270012
 31
0.0
  0
LINE
  5
3AE
102
{ACAD_REACTORS
330
57E
102
}
330
1F
100
AcDbEntity
  8
実線
100
AcDbLine
 10
260.7078315634622
 20
839.7169207270012
 30
0.0
 11
258.3078315634622
 21
846.3169207270013
 31
0.0
  0
LINE
  5
3AF
102
{ACAD_REACTORS
330
57E
102
}
330
1F
100
AcDbEntity
  8
実線
100
AcDbLine
 10
258.3078315634622
 20
782.3169207270002
 30
0.0
 11
260.7078315634622
 21
788.9169207270003
 31
0.0
  0
LINE
  5
3B0
102
{ACAD_REACTORS
330
57E
102
}
330
1F
100
AcDbEntity
  8
実線
100
AcDbLine
 10
255.4078315634622
 20
782.3169207270002
 30
0.0
 11
255.4078315634622
 21
846.3169207270013
 31
0.0
  0
LINE
  5
3B1
102
{ACAD_REACTORS
330
57E
102
}
330
1F
100
AcDbEntity
  8
実線
100
AcDbLine
 10
258.3078315634622
 20
782.3169207270002
 30
0.0
 11
258.3078315634622
 21
846.3169207270013
 31
0.0
  0
LINE
  5
3B2
102
{ACAD_REACTORS
330
57E
102
}
330
1F
100
AcDbEntity
  8
実線
100
AcDbLine
 10
255.4078315634622
 20
782.3169207270002
 30
0.0
 11
258.3078315634622
 21
782.3169207270002
 31
0.0
  0
LINE
  5
3B3
102
{ACAD_REACTORS
330
57E
102
}
330
1F
100
AcDbEntity
  8
実線
100
AcDbLine
 10
258.3078315634622
 20
846.3169207270013
 30
0.0
 11
255.4078315634622
 21
846.3169207270013
 31
0.0
  0
LINE
  5
3B4
102
{ACAD_REACTORS
330
57E
102
}
330
1F
100
AcDbEntity
  8
実線
100
AcDbLine
 10
414.107831563462
 20
839.7169207270012
 30
0.0
 11
394.513785718874
 21
839.7169207270012
 31
0.0
  0
LINE
  5
3B5
102
{ACAD_REACTORS
330
57E
102
}
330
1F
100
AcDbEntity
  8
実線
100
AcDbLine
 10
394.5137857188742
 20
788.9169207270003
 30
0.0
 11
414.107831563462
 21
788.9169207270003
 31
0.0
  0
LINE
  5
3B6
102
{ACAD_REACTORS
330
57E
102
}
330
1F
100
AcDbEntity
  8
実線
100
AcDbLine
 10
414.107831563462
 20
839.7169207270012
 30
0.0
 11
414.107831563462
 21
788.9169207270003
 31
0.0
  0
LINE
  5
3B7
102
{ACAD_REACTORS
330
57E
102
}
330
1F
100
AcDbEntity
  8
実線
100
AcDbLine
 10
414.107831563462
 20
788.9169207270003
 30
0.0
 11
416.507831563462
 21
782.3169207270002
 31
0.0
  0
LINE
  5
3B8
102
{ACAD_REACTORS
330
57E
102
}
330
1F
100
AcDbEntity
  8
実線
100
AcDbLine
 10
416.507831563462
 20
846.3169207270013
 30
0.0
 11
414.107831563462
 21
839.7169207270012
 31
0.0
  0
LINE
  5
3B9
102
{ACAD_REACTORS
330
57E
102
}
330
1F
100
AcDbEntity
  8
実線
100
AcDbLine
 10
419.4078315634621
 20
846.3169207270013
 30
0.0
 11
419.4078315634621
 21
782.3169207270002
 31
0.0
  0
LINE
  5
3BA
102
{ACAD_REACTORS
330
57E
102
}
330
1F
100
AcDbEntity
  8
実線
100
AcDbLine
 10
416.507831563462
 20
846.3169207270013
 30
0.0
 11
416.507831563462
 21
782.3169207270002
 31
0.0
  0
LINE
  5
3BB
102
{ACAD_REACTORS
330
57E
102
}
330
1F
100
AcDbEntity
  8
実線
100
AcDbLine
 10
419.4078315634621
 20
846.3169207270013
 30
0.0
 11
416.507831563462
 21
846.3169207270013
 31
0.0
  0
LINE
  5
3BC
102
{ACAD_REACTORS
330
57E
102
}
330
1F
100
AcDbEntity
  8
実線
100
AcDbLine
 10
416.507831563462
 20
782.3169207270002
 30
0.0
 11
419.4078315634621
 21
782.3169207270002
 31
0.0
  0
ARC
  5
3BD
102
{ACAD_REACTORS
330
57E
102
}
330
1F
100
AcDbEntity
  8
実線
100
AcDbCircle
 10
337.4078315634623
 20
814.3169207270002
 30
0.0
 40
73.99999999999984
100
AcDbArc
 50
313.3968902048187
 51
316.6031097951858
  0
ARC
  5
3BE
102
{ACAD_REACTORS
330
57E
102
}
330
1F
100
AcDbEntity
  8
実線
100
AcDbCircle
 10
293.4367548207007
 20
860.820086319056
 30
0.0
 40
10.0
100
AcDbArc
 50
55.00000000000117
 51
133.3968902048186
  0
ARC
  5
3BF
102
{ACAD_REACTORS
330
57E
102
}
330
1F
100
AcDbEntity
  8
実線
100
AcDbCircle
 10
383.9109971555183
 20
770.3458439842393
 30
0.0
 40
9.999999999999976
100
AcDbArc
 50
316.6031097951858
 51
34.99999999999721
  0
ARC
  5
3C0
102
{ACAD_REACTORS
330
57E
102
}
330
1F
100
AcDbEntity
  8
実線
100
AcDbCircle
 10
290.9046659714065
 20
858.2879974697624
 30
0.0
 40
10.00000000000001
100
AcDbArc
 50
136.6031097951857
 51
214.9999999999972
  0
LINE
  5
3C1
102
{ACAD_REACTORS
330
57E
102
}
330
1F
100
AcDbEntity
  8
実線
100
AcDbLine
 10
282.7131455285165
 20
852.5522331062511
 30
0.0
 11
285.3101061631489
 21
848.8433889523133
 31
0.0
  0
ARC
  5
3C2
102
{ACAD_REACTORS
330
57E
102
}
330
1F
100
AcDbEntity
  8
実線
100
AcDbCircle
 10
337.4078315634624
 20
814.3169207270002
 30
0.0
 40
74.00000000000019
100
AcDbArc
 50
133.3968902048186
 51
136.6031097951857
  0
LINE
  5
3C3
102
{ACAD_REACTORS
330
57E
102
}
330
1F
100
AcDbEntity
  8
実線
100
AcDbLine
 10
389.5055569637757
 20
848.8433889523133
 30
0.0
 11
392.1025175984082
 21
852.5522331062511
 31
0.0
  0
ARC
  5
3C4
102
{ACAD_REACTORS
330
57E
102
}
330
1F
100
AcDbEntity
  8
実線
100
AcDbCircle
 10
383.9109971555182
 20
858.2879974697624
 30
0.0
 40
10.00000000000002
100
AcDbArc
 50
325.0000000000028
 51
43.39689020481422
  0
ARC
  5
3C5
102
{ACAD_REACTORS
330
57E
102
}
330
1F
100
AcDbEntity
  8
実線
100
AcDbCircle
 10
337.4078315634624
 20
814.3169207270002
 30
0.0
 40
74.00000000000003
100
AcDbArc
 50
43.39689020481422
 51
46.60310979518138
  0
ARC
  5
3C6
102
{ACAD_REACTORS
330
57E
102
}
330
1F
100
AcDbEntity
  8
実線
100
AcDbCircle
 10
381.3789083062239
 20
860.820086319056
 30
0.0
 40
10.00000000000001
100
AcDbArc
 50
46.60310979518138
 51
124.9999999999988
  0
LINE
  5
3C7
102
{ACAD_REACTORS
330
57E
102
}
330
1F
100
AcDbEntity
  8
実線
100
AcDbLine
 10
375.6431439427134
 20
869.0116067619463
 30
0.0
 11
371.9342997887753
 21
866.4146461273132
 31
0.0
  0
LINE
  5
3C8
102
{ACAD_REACTORS
330
57E
102
}
330
1F
100
AcDbEntity
  8
実線
100
AcDbLine
 10
302.8813633381493
 20
866.4146461273132
 30
0.0
 11
299.1725191842111
 21
869.0116067619463
 31
0.0
  0
ARC
  5
3C9
102
{ACAD_REACTORS
330
57E
102
}
330
1F
100
AcDbEntity
  8
実線
100
AcDbCircle
 10
381.3789083062239
 20
767.8137551349443
 30
0.0
 40
10.00000000000003
100
AcDbArc
 50
235.0000000000012
 51
313.3968902048187
  0
ARC
  5
3CA
102
{ACAD_REACTORS
330
57E
102
}
330
1F
100
AcDbEntity
  8
実線
100
AcDbCircle
 10
290.9046659714065
 20
770.3458439842393
 30
0.0
 40
10.00000000000001
100
AcDbArc
 50
145.0000000000028
 51
223.3968902048142
  0
ARC
  5
3CB
102
{ACAD_REACTORS
330
57E
102
}
330
1F
100
AcDbEntity
  8
実線
100
AcDbCircle
 10
337.4078315634624
 20
814.3169207270002
 30
0.0
 40
73.99999999999997
100
AcDbArc
 50
223.3968902048142
 51
226.6031097951814
  0
LINE
  5
3CC
102
{ACAD_REACTORS
330
57E
102
}
330
1F
100
AcDbEntity
  8
実線
100
AcDbLine
 10
392.1025175984082
 20
776.0816083477493
 30
0.0
 11
389.5055569637757
 21
779.7904525016872
 31
0.0
  0
LINE
  5
3CD
102
{ACAD_REACTORS
330
57E
102
}
330
1F
100
AcDbEntity
  8
実線
100
AcDbLine
 10
285.3101061631489
 20
779.7904525016872
 30
0.0
 11
282.7131455285165
 21
776.0816083477493
 31
0.0
  0
ARC
  5
3CE
102
{ACAD_REACTORS
330
57E
102
}
330
1F
100
AcDbEntity
  8
実線
100
AcDbCircle
 10
293.4367548207007
 20
767.8137551349443
 30
0.0
 40
10.00000000000001
100
AcDbArc
 50
226.6031097951814
 51
304.9999999999989
  0
LINE
  5
3CF
102
{ACAD_REACTORS
330
57E
102
}
330
1F
100
AcDbEntity
  8
実線
100
AcDbLine
 10
299.1725191842112
 20
759.6222346920551
 30
0.0
 11
302.8813633381492
 21
762.2191953266874
 31
0.0
  0
LINE
  5
3D0
102
{ACAD_REACTORS
330
57E
102
}
330
1F
100
AcDbEntity
  8
実線
100
AcDbLine
 10
371.9342997887753
 20
762.2191953266874
 30
0.0
 11
375.6431439427134
 21
759.6222346920542
 31
0.0
  0
CIRCLE
  5
3D1
102
{ACAD_REACTORS
330
57E
102
}
330
1F
100
AcDbEntity
  8
実線
100
AcDbCircle
 10
337.4078315634621
 20
814.3169207270002
 30
0.0
 40
7.5
  0
CIRCLE
  5
3D2
102
{ACAD_REACTORS
330
57E
102
}
330
1F
100
AcDbEntity
  8
実線
100
AcDbCircle
 10
337.4078315634621
 20
814.3169207270002
 30
0.0
 40
12.5
  0
LINE
  5
3D3
102
{ACAD_REACTORS
330
57E
102
}
330
1F
100
AcDbEntity
  8
実線
100
AcDbLine
 10
332.4078315634623
 20
801.2169207270003
 30
0.0
 11
332.4078315634623
 21
793.3169207270013
 31
0.0
  0
LINE
  5
3D4
102
{ACAD_REACTORS
330
57E
102
}
330
1F
100
AcDbEntity
  8
実線
100
AcDbLine
 10
352.4078315634623
 20
793.3169207270002
 30
0.0
 11
357.4078315634623
 21
793.3169207270002
 31
0.0
  0
LINE
  5
3D5
102
{ACAD_REACTORS
330
57E
102
}
330
1F
100
AcDbEntity
  8
実線
100
AcDbLine
 10
357.4078315634623
 20
793.3169207270002
 30
0.0
 11
357.4078315634623
 21
801.2169207270003
 31
0.0
  0
LINE
  5
3D6
102
{ACAD_REACTORS
330
57E
102
}
330
1F
100
AcDbEntity
  8
実線
100
AcDbLine
 10
332.4078315634623
 20
801.2169207270003
 30
0.0
 11
357.4078315634623
 21
801.2169207270003
 31
0.0
  0
LINE
  5
3D7
102
{ACAD_REACTORS
330
57E
102
}
330
1F
100
AcDbEntity
  8
実線
100
AcDbLine
 10
363.9078315634623
 20
795.7669207270003
 30
0.0
 11
363.9078315634623
 21
798.7669207270003
 31
0.0
  0
LINE
  5
3D8
102
{ACAD_REACTORS
330
57E
102
}
330
1F
100
AcDbEntity
  8
実線
100
AcDbLine
 10
357.4078315634623
 20
795.7669207270003
 30
0.0
 11
363.9078315634623
 21
795.7669207270003
 31
0.0
  0
LINE
  5
3D9
102
{ACAD_REACTORS
330
57E
102
}
330
1F
100
AcDbEntity
  8
実線
100
AcDbLine
 10
363.9078315634623
 20
798.7669207270003
 30
0.0
 11
357.4078315634623
 21
798.7669207270003
 31
0.0
  0
ARC
  5
3DA
102
{ACAD_REACTORS
330
57E
102
}
330
1F
100
AcDbEntity
  8
実線
100
AcDbCircle
 10
337.4078315634621
 20
814.3169207270002
 30
0.0
 40
25.0
100
AcDbArc
 50
323.1301023541546
 51
233.1301023541523
  0
LINE
  5
3DB
102
{ACAD_REACTORS
330
57E
102
}
330
1F
100
AcDbEntity
  8
実線
100
AcDbLine
 10
322.4078315634623
 20
794.3169207270003
 30
0.0
 11
332.4078315634623
 21
794.3169207270003
 31
0.0
  0
LINE
  5
3DC
102
{ACAD_REACTORS
330
57E
102
}
330
1F
100
AcDbEntity
  8
実線
100
AcDbLine
 10
332.4078315634623
 20
793.3169207270002
 30
0.0
 11
352.4078315634623
 21
793.3169207270002
 31
0.0
  0
LINE
  5
3DD
102
{ACAD_REACTORS
330
57E
102
}
330
1F
100
AcDbEntity
  8
実線
100
AcDbLine
 10
352.4078315634623
 20
793.3169207270002
 30
0.0
 11
352.4078315634623
 21
791.3169207270002
 31
0.0
  0
LINE
  5
3DE
102
{ACAD_REACTORS
330
57E
102
}
330
1F
100
AcDbEntity
  8
実線
100
AcDbLine
 10
352.4078315634623
 20
791.3169207270002
 30
0.0
 11
332.4078315634623
 21
791.3169207270002
 31
0.0
  0
LINE
  5
3DF
102
{ACAD_REACTORS
330
57E
102
}
330
1F
100
AcDbEntity
  8
実線
100
AcDbLine
 10
332.4078315634623
 20
791.3169207270002
 30
0.0
 11
332.4078315634623
 21
793.3169207270002
 31
0.0
  0
CIRCLE
  5
3E0
102
{ACAD_REACTORS
330
57E
102
}
330
1F
100
AcDbEntity
  8
実線
100
AcDbCircle
 10
337.4078315634621
 20
814.3169207270002
 30
0.0
 40
62.5
  0
ARC
  5
3E3
102
{ACAD_REACTORS
330
57F
102
}
330
1F
100
AcDbEntity
  8
実線
100
AcDbCircle
 10
337.4078315634621
 20
94.31692072700048
 30
0.0
 40
62.5
100
AcDbArc
 50
56.46656599471642
 51
123.5334340052836
  0
ARC
  5
3E4
102
{ACAD_REACTORS
330
57F
102
}
330
1F
100
AcDbEntity
  8
実線
100
AcDbCircle
 10
337.4078315634621
 20
94.31692072700048
 30
0.0
 40
62.5
100
AcDbArc
 50
146.4665659947124
 51
156.0211118622465
  0
ARC
  5
3E5
102
{ACAD_REACTORS
330
57F
102
}
330
1F
100
AcDbEntity
  8
実線
100
AcDbCircle
 10
337.4078315634621
 20
94.31692072700048
 30
0.0
 40
62.5
100
AcDbArc
 50
203.9788881377535
 51
213.5334340052876
  0
ARC
  5
3E6
102
{ACAD_REACTORS
330
57F
102
}
330
1F
100
AcDbEntity
  8
実線
100
AcDbCircle
 10
337.4078315634621
 20
94.31692072700048
 30
0.0
 40
62.5
100
AcDbArc
 50
236.4665659947164
 51
303.5334340052836
  0
ARC
  5
3E7
102
{ACAD_REACTORS
330
57F
102
}
330
1F
100
AcDbEntity
  8
実線
100
AcDbCircle
 10
337.4078315634621
 20
94.31692072700048
 30
0.0
 40
62.5
100
AcDbArc
 50
326.4665659947124
 51
336.0211118622448
  0
ARC
  5
3E8
102
{ACAD_REACTORS
330
57F
102
}
330
1F
100
AcDbEntity
  8
実線
100
AcDbCircle
 10
337.4078315634621
 20
94.31692072700048
 30
0.0
 40
62.5
100
AcDbArc
 50
23.97888813775347
 51
33.5334340052876
  0
CIRCLE
  5
3E9
102
{ACAD_REACTORS
330
57F
102
}
330
1F
100
AcDbEntity
  8
実線
100
AcDbCircle
 10
337.4078315634621
 20
94.31692072700025
 30
0.0
 40
32.0
  0
LINE
  5
3EA
102
{ACAD_REACTORS
330
57F
102
}
330
1F
100
AcDbEntity
  8
実線
100
AcDbLine
 10
260.7078315634622
 20
68.91692072700028
 30
0.0
 11
295.5050870232773
 21
68.91692072700028
 31
0.0
  0
LINE
  5
3EB
102
{ACAD_REACTORS
330
57F
102
}
330
1F
100
AcDbEntity
  8
実線
100
AcDbLine
 10
295.5050870232773
 20
119.7169207270002
 30
0.0
 11
260.7078315634622
 21
119.7169207270002
 31
0.0
  0
LINE
  5
3EC
102
{ACAD_REACTORS
330
57F
102
}
330
1F
100
AcDbEntity
  8
実線
100
AcDbLine
 10
260.7078315634622
 20
119.7169207270002
 30
0.0
 11
258.3078315634622
 21
126.3169207270002
 31
0.0
  0
LINE
  5
3ED
102
{ACAD_REACTORS
330
57F
102
}
330
1F
100
AcDbEntity
  8
実線
100
AcDbLine
 10
258.3078315634622
 20
62.31692072700031
 30
0.0
 11
260.7078315634622
 21
68.91692072700028
 31
0.0
  0
LINE
  5
3EE
102
{ACAD_REACTORS
330
57F
102
}
330
1F
100
AcDbEntity
  8
実線
100
AcDbLine
 10
260.7078315634622
 20
119.7169207270002
 30
0.0
 11
260.7078315634622
 21
68.91692072700028
 31
0.0
  0
LINE
  5
3EF
102
{ACAD_REACTORS
330
57F
102
}
330
1F
100
AcDbEntity
  8
実線
100
AcDbLine
 10
255.4078315634622
 20
62.31692072700031
 30
0.0
 11
258.3078315634622
 21
62.31692072700031
 31
0.0
  0
LINE
  5
3F0
102
{ACAD_REACTORS
330
57F
102
}
330
1F
100
AcDbEntity
  8
実線
100
AcDbLine
 10
258.3078315634622
 20
126.3169207270002
 30
0.0
 11
255.4078315634622
 21
126.3169207270002
 31
0.0
  0
LINE
  5
3F1
102
{ACAD_REACTORS
330
57F
102
}
330
1F
100
AcDbEntity
  8
実線
100
AcDbLine
 10
255.4078315634622
 20
126.3169207270002
 30
0.0
 11
255.4078315634622
 21
62.31692072700031
 31
0.0
  0
LINE
  5
3F2
102
{ACAD_REACTORS
330
57F
102
}
330
1F
100
AcDbEntity
  8
実線
100
AcDbLine
 10
258.3078315634622
 20
126.3169207270002
 30
0.0
 11
258.3078315634622
 21
62.31692072700031
 31
0.0
  0
LINE
  5
3F3
102
{ACAD_REACTORS
330
57F
102
}
330
1F
100
AcDbEntity
  8
実線
100
AcDbLine
 10
414.107831563462
 20
119.7169207270002
 30
0.0
 11
379.3105761036471
 21
119.7169207270002
 31
0.0
  0
LINE
  5
3F4
102
{ACAD_REACTORS
330
57F
102
}
330
1F
100
AcDbEntity
  8
実線
100
AcDbLine
 10
379.3105761036471
 20
68.91692072700028
 30
0.0
 11
414.107831563462
 21
68.91692072700028
 31
0.0
  0
LINE
  5
3F5
102
{ACAD_REACTORS
330
57F
102
}
330
1F
100
AcDbEntity
  8
実線
100
AcDbLine
 10
414.107831563462
 20
68.91692072700028
 30
0.0
 11
416.507831563462
 21
62.31692072700036
 31
0.0
  0
LINE
  5
3F6
102
{ACAD_REACTORS
330
57F
102
}
330
1F
100
AcDbEntity
  8
実線
100
AcDbLine
 10
416.507831563462
 20
126.3169207270002
 30
0.0
 11
414.107831563462
 21
119.7169207270002
 31
0.0
  0
LINE
  5
3F7
102
{ACAD_REACTORS
330
57F
102
}
330
1F
100
AcDbEntity
  8
実線
100
AcDbLine
 10
414.107831563462
 20
68.91692072700028
 30
0.0
 11
414.107831563462
 21
119.7169207270002
 31
0.0
  0
LINE
  5
3F8
102
{ACAD_REACTORS
330
57F
102
}
330
1F
100
AcDbEntity
  8
実線
100
AcDbLine
 10
419.4078315634621
 20
126.3169207270002
 30
0.0
 11
416.507831563462
 21
126.3169207270002
 31
0.0
  0
LINE
  5
3F9
102
{ACAD_REACTORS
330
57F
102
}
330
1F
100
AcDbEntity
  8
実線
100
AcDbLine
 10
416.507831563462
 20
62.31692072700031
 30
0.0
 11
419.4078315634621
 21
62.31692072700031
 31
0.0
  0
LINE
  5
3FA
102
{ACAD_REACTORS
330
57F
102
}
330
1F
100
AcDbEntity
  8
実線
100
AcDbLine
 10
419.4078315634621
 20
62.31692072700031
 30
0.0
 11
419.4078315634621
 21
126.3169207270002
 31
0.0
  0
LINE
  5
3FB
102
{ACAD_REACTORS
330
57F
102
}
330
1F
100
AcDbEntity
  8
実線
100
AcDbLine
 10
416.507831563462
 20
62.31692072700031
 30
0.0
 11
416.507831563462
 21
126.3169207270002
 31
0.0
  0
ARC
  5
3FC
102
{ACAD_REACTORS
330
57F
102
}
330
1F
100
AcDbEntity
  8
実線
100
AcDbCircle
 10
337.4078315634621
 20
94.31692072700048
 30
0.0
 40
50.0
100
AcDbArc
 50
242.2225404895772
 51
297.7774595104228
  0
ARC
  5
3FD
102
{ACAD_REACTORS
330
57F
102
}
330
1F
100
AcDbEntity
  8
実線
100
AcDbCircle
 10
337.4078315634621
 20
94.31692072700048
 30
0.0
 40
50.0
100
AcDbArc
 50
62.22254048957721
 51
117.7774595104228
  0
ARC
  5
3FE
102
{ACAD_REACTORS
330
57F
102
}
330
1F
100
AcDbEntity
  8
実線
100
AcDbCircle
 10
337.4078315634621
 20
94.31692072700048
 30
0.0
 40
73.99999999999984
100
AcDbArc
 50
43.39689020481422
 51
46.60310979518373
  0
ARC
  5
3FF
102
{ACAD_REACTORS
330
57F
102
}
330
1F
100
AcDbEntity
  8
実線
100
AcDbCircle
 10
383.9109971555182
 20
138.287997469762
 30
0.0
 40
9.999999999999976
100
AcDbArc
 50
325.0000000000028
 51
43.39689020481422
  0
LINE
  5
400
102
{ACAD_REACTORS
330
57F
102
}
330
1F
100
AcDbEntity
  8
実線
100
AcDbLine
 10
392.1025175984079
 20
132.5522331062515
 30
0.0
 11
383.1151351151799
 21
119.7169207270002
 31
0.0
  0
LINE
  5
401
102
{ACAD_REACTORS
330
57F
102
}
330
1F
100
AcDbEntity
  8
実線
100
AcDbLine
 10
359.7860748506054
 20
137.9083674497397
 30
0.0
 11
375.6431439427133
 21
149.011606761946
 31
0.0
  0
ARC
  5
402
102
{ACAD_REACTORS
330
57F
102
}
330
1F
100
AcDbEntity
  8
実線
100
AcDbCircle
 10
381.3789083062238
 20
140.8200863190561
 30
0.0
 40
10.00000000000003
100
AcDbArc
 50
46.60310979518373
 51
125.0000000000008
  0
LINE
  5
403
102
{ACAD_REACTORS
330
57F
102
}
330
1F
100
AcDbEntity
  8
実線
100
AcDbLine
 10
383.1151351151799
 20
68.91692072700028
 30
0.0
 11
392.1025175984079
 21
56.08160834774918
 31
0.0
  0
LINE
  5
404
102
{ACAD_REACTORS
330
57F
102
}
330
1F
100
AcDbEntity
  8
実線
100
AcDbLine
 10
375.6431439427134
 20
39.62223469205452
 30
0.0
 11
359.7860748506054
 21
50.72547400426083
 31
0.0
  0
ARC
  5
405
102
{ACAD_REACTORS
330
57F
102
}
330
1F
100
AcDbEntity
  8
実線
100
AcDbCircle
 10
381.3789083062238
 20
47.81375513494447
 30
0.0
 40
10.00000000000001
100
AcDbArc
 50
234.9999999999992
 51
313.3968902048163
  0
ARC
  5
406
102
{ACAD_REACTORS
330
57F
102
}
330
1F
100
AcDbEntity
  8
実線
100
AcDbCircle
 10
337.4078315634624
 20
94.31692072700048
 30
0.0
 40
74.00000000000003
100
AcDbArc
 50
313.3968902048163
 51
316.6031097951858
  0
ARC
  5
407
102
{ACAD_REACTORS
330
57F
102
}
330
1F
100
AcDbEntity
  8
実線
100
AcDbCircle
 10
383.9109971555182
 20
50.34584398423868
 30
0.0
 40
10.00000000000002
100
AcDbArc
 50
316.6031097951858
 51
34.99999999999721
  0
LINE
  5
408
102
{ACAD_REACTORS
330
57F
102
}
330
1F
100
AcDbEntity
  8
実線
100
AcDbLine
 10
315.0295882763192
 20
50.72547400426078
 30
0.0
 11
299.1725191842109
 21
39.62223469205452
 31
0.0
  0
LINE
  5
409
102
{ACAD_REACTORS
330
57F
102
}
330
1F
100
AcDbEntity
  8
実線
100
AcDbLine
 10
282.7131455285164
 20
56.08160834774913
 30
0.0
 11
291.7005280117444
 21
68.91692072700028
 31
0.0
  0
ARC
  5
40A
102
{ACAD_REACTORS
330
57F
102
}
330
1F
100
AcDbEntity
  8
実線
100
AcDbCircle
 10
290.9046659714064
 20
50.34584398423868
 30
0.0
 40
10.00000000000001
100
AcDbArc
 50
145.0000000000028
 51
223.3968902048142
  0
ARC
  5
40B
102
{ACAD_REACTORS
330
57F
102
}
330
1F
100
AcDbEntity
  8
実線
100
AcDbCircle
 10
337.4078315634623
 20
94.31692072700048
 30
0.0
 40
74.00000000000019
100
AcDbArc
 50
223.3968902048142
 51
226.6031097951837
  0
ARC
  5
40C
102
{ACAD_REACTORS
330
57F
102
}
330
1F
100
AcDbEntity
  8
実線
100
AcDbCircle
 10
293.4367548207006
 20
47.81375513494447
 30
0.0
 40
10.0
100
AcDbArc
 50
226.6031097951837
 51
305.0000000000008
  0
LINE
  5
40D
102
{ACAD_REACTORS
330
57F
102
}
330
1F
100
AcDbEntity
  8
実線
100
AcDbLine
 10
291.7005280117444
 20
119.7169207270002
 30
0.0
 11
282.7131455285164
 21
132.5522331062515
 31
0.0
  0
LINE
  5
40E
102
{ACAD_REACTORS
330
57F
102
}
330
1F
100
AcDbEntity
  8
実線
100
AcDbLine
 10
299.1725191842109
 20
149.011606761946
 30
0.0
 11
315.0295882763192
 21
137.9083674497397
 31
0.0
  0
ARC
  5
40F
102
{ACAD_REACTORS
330
57F
102
}
330
1F
100
AcDbEntity
  8
実線
100
AcDbCircle
 10
293.4367548207006
 20
140.8200863190561
 30
0.0
 40
10.00000000000001
100
AcDbArc
 50
54.9999999999992
 51
133.3968902048163
  0
ARC
  5
410
102
{ACAD_REACTORS
330
57F
102
}
330
1F
100
AcDbEntity
  8
実線
100
AcDbCircle
 10
337.4078315634623
 20
94.31692072700048
 30
0.0
 40
73.99999999999997
100
AcDbArc
 50
133.3968902048163
 51
136.6031097951857
  0
ARC
  5
411
102
{ACAD_REACTORS
330
57F
102
}
330
1F
100
AcDbEntity
  8
実線
100
AcDbCircle
 10
290.9046659714064
 20
138.287997469762
 30
0.0
 40
10.00000000000001
100
AcDbArc
 50
136.6031097951857
 51
214.9999999999972
  0
ARC
  5
412
102
{ACAD_REACTORS
330
57F
102
}
330
1F
100
AcDbEntity
  8
実線
100
AcDbCircle
 10
337.4078315634621
 20
94.31692072700025
 30
0.0
 40
49.0
100
AcDbArc
 50
207.5287869161062
 51
332.4712130838938
  0
ARC
  5
413
102
{ACAD_REACTORS
330
57F
102
}
330
1F
100
AcDbEntity
  8
実線
100
AcDbCircle
 10
337.4078315634621
 20
94.31692072700025
 30
0.0
 40
49.0
100
AcDbArc
 50
27.52878691610619
 51
152.4712130838938
  0
LINE
  5
414
102
{ACAD_REACTORS
330
57A
102
}
330
1F
100
AcDbEntity
  8
実線
100
AcDbLine
 10
792.4078315634618
 20
580.7169207270003
 30
0.0
 11
842.4078315634618
 21
580.7169207270003
 31
0.0
  0
LINE
  5
415
102
{ACAD_REACTORS
330
57A
102
}
330
1F
100
AcDbEntity
  8
実線
100
AcDbLine
 10
842.4078315634618
 20
575.7169207270003
 30
0.0
 11
842.4078315634618
 21
580.7169207270003
 31
0.0
  0
LINE
  5
416
102
{ACAD_REACTORS
330
57A
102
}
330
1F
100
AcDbEntity
  8
実線
100
AcDbLine
 10
792.4078315634618
 20
580.7169207270003
 30
0.0
 11
792.4078315634618
 21
575.7169207270003
 31
0.0
  0
LINE
  5
417
102
{ACAD_REACTORS
330
57A
102
}
330
1F
100
AcDbEntity
  8
実線
100
AcDbLine
 10
825.4078315634618
 20
582.7169207270002
 30
0.0
 11
825.4078315634618
 21
613.2169207270002
 31
0.0
  0
LINE
  5
418
102
{ACAD_REACTORS
330
57A
102
}
330
1F
100
AcDbEntity
  8
実線
100
AcDbLine
 10
809.4078315634618
 20
613.2169207270002
 30
0.0
 11
809.4078315634618
 21
582.7169207270002
 31
0.0
  0
LINE
  5
419
102
{ACAD_REACTORS
330
57A
102
}
330
1F
100
AcDbEntity
  8
実線
100
AcDbLine
 10
771.4078315634618
 20
575.7169207270003
 30
0.0
 11
863.4078315634619
 21
575.7169207270003
 31
0.0
  0
LINE
  5
41A
102
{ACAD_REACTORS
330
57A
102
}
330
1F
100
AcDbEntity
  8
実線
100
AcDbLine
 10
863.4078315634619
 20
565.2169207270002
 30
0.0
 11
863.4078315634619
 21
575.7169207270003
 31
0.0
  0
LINE
  5
41B
102
{ACAD_REACTORS
330
57A
102
}
330
1F
100
AcDbEntity
  8
実線
100
AcDbLine
 10
771.4078315634618
 20
575.7169207270003
 30
0.0
 11
771.4078315634618
 21
565.2169207270002
 31
0.0
  0
LINE
  5
41C
102
{ACAD_REACTORS
330
57A
102
}
330
1F
100
AcDbEntity
  8
実線
100
AcDbLine
 10
825.4078315634618
 20
382.8169207270004
 30
0.0
 11
825.4078315634618
 21
415.3169207270003
 31
0.0
  0
LINE
  5
41D
102
{ACAD_REACTORS
330
57A
102
}
330
1F
100
AcDbEntity
  8
実線
100
AcDbLine
 10
809.4078315634618
 20
415.3169207270004
 30
0.0
 11
809.4078315634618
 21
382.8169207270004
 31
0.0
  0
LINE
  5
41E
102
{ACAD_REACTORS
330
57A
102
}
330
1F
100
AcDbEntity
  8
実線
100
AcDbLine
 10
754.9078315634618
 20
560.7169207270002
 30
0.0
 11
879.907831563462
 21
560.7169207270002
 31
0.0
  0
LINE
  5
41F
102
{ACAD_REACTORS
330
57A
102
}
330
1F
100
AcDbEntity
  8
実線
100
AcDbLine
 10
879.907831563462
 20
468.7169207270003
 30
0.0
 11
879.907831563462
 21
560.7169207270002
 31
0.0
  0
LINE
  5
420
102
{ACAD_REACTORS
330
57A
102
}
330
1F
100
AcDbEntity
  8
実線
100
AcDbLine
 10
754.9078315634618
 20
560.7169207270002
 30
0.0
 11
754.9078315634618
 21
468.7169207270003
 31
0.0
  0
LINE
  5
421
102
{ACAD_REACTORS
330
57A
102
}
330
1F
100
AcDbEntity
  8
実線
100
AcDbLine
 10
879.907831563462
 20
468.7169207270003
 30
0.0
 11
754.9078315634618
 21
468.7169207270003
 31
0.0
  0
LINE
  5
422
102
{ACAD_REACTORS
330
57A
102
}
330
1F
100
AcDbEntity
  8
実線
100
AcDbLine
 10
842.8078315634618
 20
257.6169207270003
 30
0.0
 11
842.8078315634618
 21
305.8169207270002
 31
0.0
  0
LINE
  5
423
102
{ACAD_REACTORS
330
57A
102
}
330
1F
100
AcDbEntity
  8
実線
100
AcDbLine
 10
792.0078315634618
 20
305.8169207270002
 30
0.0
 11
792.0078315634618
 21
257.6169207270003
 31
0.0
  0
LINE
  5
424
102
{ACAD_REACTORS
330
57A
102
}
330
1F
100
AcDbEntity
  8
実線
100
AcDbLine
 10
792.0078315634618
 20
257.6169207270003
 30
0.0
 11
785.4078315634618
 21
255.2169207270003
 31
0.0
  0
LINE
  5
425
102
{ACAD_REACTORS
330
57A
102
}
330
1F
100
AcDbEntity
  8
実線
100
AcDbLine
 10
849.4078315634618
 20
255.2169207270003
 30
0.0
 11
842.8078315634618
 21
257.6169207270003
 31
0.0
  0
LINE
  5
426
102
{ACAD_REACTORS
330
57A
102
}
330
1F
100
AcDbEntity
  8
実線
100
AcDbLine
 10
792.0078315634618
 20
257.6169207270003
 30
0.0
 11
842.8078315634618
 21
257.6169207270003
 31
0.0
  0
LINE
  5
427
102
{ACAD_REACTORS
330
57A
102
}
330
1F
100
AcDbEntity
  8
実線
100
AcDbLine
 10
849.4078315634618
 20
252.3169207270003
 30
0.0
 11
849.4078315634618
 21
255.2169207270003
 31
0.0
  0
LINE
  5
428
102
{ACAD_REACTORS
330
57A
102
}
330
1F
100
AcDbEntity
  8
実線
100
AcDbLine
 10
785.4078315634618
 20
255.2169207270003
 30
0.0
 11
785.4078315634618
 21
252.3169207270003
 31
0.0
  0
LINE
  5
429
102
{ACAD_REACTORS
330
57A
102
}
330
1F
100
AcDbEntity
  8
実線
100
AcDbLine
 10
849.4078315634618
 20
252.3169207270003
 30
0.0
 11
785.4078315634618
 21
252.3169207270003
 31
0.0
  0
LINE
  5
42A
102
{ACAD_REACTORS
330
57A
102
}
330
1F
100
AcDbEntity
  8
実線
100
AcDbLine
 10
849.4078315634618
 20
255.2169207270003
 30
0.0
 11
785.4078315634618
 21
255.2169207270003
 31
0.0
  0
LINE
  5
42B
102
{ACAD_REACTORS
330
57A
102
}
330
1F
100
AcDbEntity
  8
実線
100
AcDbLine
 10
894.1078315634618
 20
359.7169207270003
 30
0.0
 11
873.910997155518
 21
359.7169207270003
 31
0.0
  0
LINE
  5
42C
102
{ACAD_REACTORS
330
57A
102
}
330
1F
100
AcDbEntity
  8
実線
100
AcDbLine
 10
859.1950681499561
 20
308.9169207270003
 30
0.0
 11
894.1078315634618
 21
308.9169207270003
 31
0.0
  0
LINE
  5
42D
102
{ACAD_REACTORS
330
57A
102
}
330
1F
100
AcDbEntity
  8
実線
100
AcDbLine
 10
894.1078315634618
 20
308.9169207270003
 30
0.0
 11
896.5078315634618
 21
302.3169207270003
 31
0.0
  0
LINE
  5
42E
102
{ACAD_REACTORS
330
57A
102
}
330
1F
100
AcDbEntity
  8
実線
100
AcDbLine
 10
896.5078315634618
 20
366.3169207270004
 30
0.0
 11
894.1078315634618
 21
359.7169207270003
 31
0.0
  0
LINE
  5
42F
102
{ACAD_REACTORS
330
57A
102
}
330
1F
100
AcDbEntity
  8
実線
100
AcDbLine
 10
894.1078315634618
 20
308.9169207270003
 30
0.0
 11
894.1078315634618
 21
359.7169207270003
 31
0.0
  0
LINE
  5
430
102
{ACAD_REACTORS
330
57A
102
}
330
1F
100
AcDbEntity
  8
実線
100
AcDbLine
 10
899.407831563462
 20
366.3169207270004
 30
0.0
 11
896.5078315634618
 21
366.3169207270004
 31
0.0
  0
LINE
  5
431
102
{ACAD_REACTORS
330
57A
102
}
330
1F
100
AcDbEntity
  8
実線
100
AcDbLine
 10
896.5078315634618
 20
302.3169207270003
 30
0.0
 11
899.407831563462
 21
302.3169207270003
 31
0.0
  0
LINE
  5
432
102
{ACAD_REACTORS
330
57A
102
}
330
1F
100
AcDbEntity
  8
実線
100
AcDbLine
 10
899.407831563462
 20
366.3169207270004
 30
0.0
 11
899.407831563462
 21
302.3169207270003
 31
0.0
  0
LINE
  5
433
102
{ACAD_REACTORS
330
57A
102
}
330
1F
100
AcDbEntity
  8
実線
100
AcDbLine
 10
896.5078315634618
 20
366.3169207270004
 30
0.0
 11
896.5078315634618
 21
302.3169207270003
 31
0.0
  0
LINE
  5
434
102
{ACAD_REACTORS
330
57A
102
}
330
1F
100
AcDbEntity
  8
実線
100
AcDbLine
 10
740.7078315634618
 20
308.9169207270003
 30
0.0
 11
775.6205949769677
 21
308.9169207270003
 31
0.0
  0
LINE
  5
435
102
{ACAD_REACTORS
330
57A
102
}
330
1F
100
AcDbEntity
  8
実線
100
AcDbLine
 10
760.9046659714057
 20
359.7169207270003
 30
0.0
 11
740.7078315634618
 21
359.7169207270003
 31
0.0
  0
LINE
  5
436
102
{ACAD_REACTORS
330
57A
102
}
330
1F
100
AcDbEntity
  8
実線
100
AcDbLine
 10
735.4078315634618
 20
366.3169207270004
 30
0.0
 11
735.4078315634618
 21
302.3169207270003
 31
0.0
  0
LINE
  5
437
102
{ACAD_REACTORS
330
57A
102
}
330
1F
100
AcDbEntity
  8
実線
100
AcDbLine
 10
735.4078315634618
 20
302.3169207270003
 30
0.0
 11
738.3078315634617
 21
302.3169207270003
 31
0.0
  0
LINE
  5
438
102
{ACAD_REACTORS
330
57A
102
}
330
1F
100
AcDbEntity
  8
実線
100
AcDbLine
 10
738.3078315634617
 20
366.3169207270004
 30
0.0
 11
735.4078315634618
 21
366.3169207270004
 31
0.0
  0
LINE
  5
439
102
{ACAD_REACTORS
330
57A
102
}
330
1F
100
AcDbEntity
  8
実線
100
AcDbLine
 10
738.3078315634617
 20
366.3169207270004
 30
0.0
 11
738.3078315634617
 21
302.3169207270005
 31
0.0
  0
LINE
  5
43A
102
{ACAD_REACTORS
330
57A
102
}
330
1F
100
AcDbEntity
  8
実線
100
AcDbLine
 10
740.7078315634618
 20
359.7169207270003
 30
0.0
 11
740.7078315634618
 21
308.9169207270003
 31
0.0
  0
LINE
  5
43B
102
{ACAD_REACTORS
330
57A
102
}
330
1F
100
AcDbEntity
  8
実線
100
AcDbLine
 10
740.7078315634618
 20
359.7169207270003
 30
0.0
 11
738.3078315634617
 21
366.3169207270002
 31
0.0
  0
LINE
  5
43C
102
{ACAD_REACTORS
330
57A
102
}
330
1F
100
AcDbEntity
  8
実線
100
AcDbLine
 10
738.3078315634617
 20
302.3169207270005
 30
0.0
 11
740.7078315634618
 21
308.9169207270003
 31
0.0
  0
LINE
  5
43D
102
{ACAD_REACTORS
330
57A
102
}
330
1F
100
AcDbEntity
  8
実線
100
AcDbLine
 10
760.9046659714057
 20
382.8169207270004
 30
0.0
 11
873.910997155518
 21
382.8169207270004
 31
0.0
  0
LINE
  5
43E
102
{ACAD_REACTORS
330
57A
102
}
330
1F
100
AcDbEntity
  8
実線
100
AcDbLine
 10
760.9046659714057
 20
369.3169207270003
 30
0.0
 11
873.910997155518
 21
369.3169207270003
 31
0.0
  0
LINE
  5
43F
102
{ACAD_REACTORS
330
57A
102
}
330
1F
100
AcDbEntity
  8
実線
100
AcDbLine
 10
873.910997155518
 20
369.3169207270003
 30
0.0
 11
873.910997155518
 21
382.8169207270004
 31
0.0
  0
LINE
  5
440
102
{ACAD_REACTORS
330
57A
102
}
330
1F
100
AcDbEntity
  8
実線
100
AcDbLine
 10
760.9046659714057
 20
382.8169207270004
 30
0.0
 11
760.9046659714057
 21
369.3169207270003
 31
0.0
  0
LINE
  5
441
102
{ACAD_REACTORS
330
57A
102
}
330
1F
100
AcDbEntity
  8
実線
100
AcDbLine
 10
795.0295882763188
 20
382.8169207270004
 30
0.0
 11
795.0295882763188
 21
369.3169207270003
 31
0.0
  0
LINE
  5
442
102
{ACAD_REACTORS
330
57A
102
}
330
1F
100
AcDbEntity
  8
実線
100
AcDbLine
 10
839.7860748506049
 20
382.8169207270004
 30
0.0
 11
839.7860748506049
 21
369.3169207270003
 31
0.0
  0
LINE
  5
443
102
{ACAD_REACTORS
330
57A
102
}
330
1F
100
AcDbEntity
  8
実線
100
AcDbLine
 10
809.9078315634619
 20
623.5169207270002
 30
0.0
 11
824.9078315634617
 21
623.5169207270002
 31
0.0
  0
LINE
  5
444
102
{ACAD_REACTORS
330
57A
102
}
330
1F
100
AcDbEntity
  8
実線
100
AcDbLine
 10
824.9078315634617
 20
618.2169207270003
 30
0.0
 11
824.9078315634617
 21
623.5169207270002
 31
0.0
  0
LINE
  5
445
102
{ACAD_REACTORS
330
57A
102
}
330
1F
100
AcDbEntity
  8
実線
100
AcDbLine
 10
809.9078315634619
 20
623.5169207270002
 30
0.0
 11
809.9078315634619
 21
618.2169207270003
 31
0.0
  0
LINE
  5
446
102
{ACAD_REACTORS
330
57A
102
}
330
1F
100
AcDbEntity
  8
実線
100
AcDbLine
 10
804.9078315634618
 20
618.2169207270003
 30
0.0
 11
829.9078315634618
 21
618.2169207270003
 31
0.0
  0
LINE
  5
447
102
{ACAD_REACTORS
330
57A
102
}
330
1F
100
AcDbEntity
  8
実線
100
AcDbLine
 10
829.9078315634618
 20
613.2169207270002
 30
0.0
 11
829.9078315634618
 21
618.2169207270003
 31
0.0
  0
LINE
  5
448
102
{ACAD_REACTORS
330
57A
102
}
330
1F
100
AcDbEntity
  8
実線
100
AcDbLine
 10
804.9078315634618
 20
618.2169207270003
 30
0.0
 11
804.9078315634618
 21
613.2169207270002
 31
0.0
  0
LINE
  5
449
102
{ACAD_REACTORS
330
57A
102
}
330
1F
100
AcDbEntity
  8
実線
100
AcDbLine
 10
829.9078315634618
 20
613.2169207270002
 30
0.0
 11
804.9078315634618
 21
613.2169207270002
 31
0.0
  0
LINE
  5
44A
102
{ACAD_REACTORS
330
57A
102
}
330
1F
100
AcDbEntity
  8
実線
100
AcDbLine
 10
809.9078315634619
 20
619.6669207270002
 30
0.0
 11
797.4078315634618
 21
619.6669207270002
 31
0.0
  0
LINE
  5
44B
102
{ACAD_REACTORS
330
57A
102
}
330
1F
100
AcDbEntity
  8
実線
100
AcDbLine
 10
797.4078315634618
 20
619.6669207270002
 30
0.0
 11
797.4078315634618
 21
611.7669207270004
 31
0.0
  0
LINE
  5
44C
102
{ACAD_REACTORS
330
57A
102
}
330
1F
100
AcDbEntity
  8
実線
100
AcDbLine
 10
809.4078315634618
 20
611.7669207270004
 30
0.0
 11
797.4078315634618
 21
611.7669207270004
 31
0.0
  0
LINE
  5
44D
102
{ACAD_REACTORS
330
57A
102
}
330
1F
100
AcDbEntity
  8
実線
100
AcDbLine
 10
797.4078315634618
 20
601.2169207270003
 30
0.0
 11
790.9078315634618
 21
601.2169207270003
 31
0.0
  0
LINE
  5
44E
102
{ACAD_REACTORS
330
57A
102
}
330
1F
100
AcDbEntity
  8
実線
100
AcDbLine
 10
790.9078315634618
 20
598.2169207270003
 30
0.0
 11
797.4078315634618
 21
598.2169207270003
 31
0.0
  0
LINE
  5
44F
102
{ACAD_REACTORS
330
57A
102
}
330
1F
100
AcDbEntity
  8
実線
100
AcDbLine
 10
790.9078315634618
 20
601.2169207270003
 30
0.0
 11
790.9078315634618
 21
598.2169207270003
 31
0.0
  0
LINE
  5
450
102
{ACAD_REACTORS
330
57A
102
}
330
1F
100
AcDbEntity
  8
実線
100
AcDbLine
 10
809.4078315634618
 20
603.6669207270001
 30
0.0
 11
797.4078315634618
 21
603.6669207270001
 31
0.0
  0
LINE
  5
451
102
{ACAD_REACTORS
330
57A
102
}
330
1F
100
AcDbEntity
  8
実線
100
AcDbLine
 10
809.4078315634618
 20
595.7669207270005
 30
0.0
 11
797.4078315634618
 21
595.7669207270005
 31
0.0
  0
LINE
  5
452
102
{ACAD_REACTORS
330
57A
102
}
330
1F
100
AcDbEntity
  8
実線
100
AcDbLine
 10
797.4078315634618
 20
603.6669207270001
 30
0.0
 11
797.4078315634618
 21
595.7669207270005
 31
0.0
  0
LINE
  5
453
102
{ACAD_REACTORS
330
57A
102
}
330
1F
100
AcDbEntity
  8
実線
100
AcDbLine
 10
797.4078315634618
 20
617.2169207270003
 30
0.0
 11
790.9078315634618
 21
617.2169207270003
 31
0.0
  0
LINE
  5
454
102
{ACAD_REACTORS
330
57A
102
}
330
1F
100
AcDbEntity
  8
実線
100
AcDbLine
 10
790.9078315634618
 20
614.2169207270002
 30
0.0
 11
797.4078315634618
 21
614.2169207270002
 31
0.0
  0
LINE
  5
455
102
{ACAD_REACTORS
330
57A
102
}
330
1F
100
AcDbEntity
  8
実線
100
AcDbLine
 10
790.9078315634618
 20
617.2169207270003
 30
0.0
 11
790.9078315634618
 21
614.2169207270002
 31
0.0
  0
ARC
  5
456
102
{ACAD_REACTORS
330
57A
102
}
330
1F
100
AcDbEntity
  8
実線
100
AcDbCircle
 10
812.7078315634618
 20
428.8169207270003
 30
0.0
 40
47.99999999999999
100
AcDbArc
 50
286.5978421358644
 51
343.6651772193139
  0
ARC
  5
457
102
{ACAD_REACTORS
330
57A
102
}
330
1F
100
AcDbEntity
  8
実線
100
AcDbCircle
 10
814.7078315634617
 20
428.8169207270003
 30
0.0
 40
60.00000000000005
100
AcDbArc
 50
309.9445051898158
 51
0.0
  0
LINE
  5
458
102
{ACAD_REACTORS
330
57A
102
}
330
1F
100
AcDbEntity
  8
実線
100
AcDbLine
 10
874.7078315634617
 20
468.7169207270003
 30
0.0
 11
874.7078315634617
 21
428.8169207270003
 31
0.0
  0
ARC
  5
459
102
{ACAD_REACTORS
330
57A
102
}
330
1F
100
AcDbEntity
  8
実線
100
AcDbCircle
 10
822.1078315634619
 20
428.8169207270003
 30
0.0
 40
47.99999999999999
100
AcDbArc
 50
196.334822780686
 51
253.4021578641356
  0
LINE
  5
45A
102
{ACAD_REACTORS
330
57A
102
}
330
1F
100
AcDbEntity
  8
実線
100
AcDbLine
 10
760.1078315634619
 20
468.7169207270003
 30
0.0
 11
760.1078315634619
 21
428.8169207270003
 31
0.0
  0
ARC
  5
45B
102
{ACAD_REACTORS
330
57A
102
}
330
1F
100
AcDbEntity
  8
実線
100
AcDbCircle
 10
820.1078315634619
 20
428.8169207270003
 30
0.0
 40
60.00000000000005
100
AcDbArc
 50
180.0
 51
230.0554948101841
  0
LINE
  5
45C
102
{ACAD_REACTORS
330
57A
102
}
330
1F
100
AcDbEntity
  8
実線
100
AcDbLine
 10
769.2648154552037
 20
415.3169207270003
 30
0.0
 11
769.2648154552037
 21
468.7169207270003
 31
0.0
  0
LINE
  5
45D
102
{ACAD_REACTORS
330
57A
102
}
330
1F
100
AcDbEntity
  8
実線
100
AcDbLine
 10
769.2648154552037
 20
415.3169207270003
 30
0.0
 11
865.55084767172
 21
415.3169207270003
 31
0.0
  0
LINE
  5
45E
102
{ACAD_REACTORS
330
57A
102
}
330
1F
100
AcDbEntity
  8
実線
100
AcDbLine
 10
865.55084767172
 20
415.3169207270003
 30
0.0
 11
865.55084767172
 21
468.7169207270003
 31
0.0
  0
LINE
  5
45F
102
{ACAD_REACTORS
330
57A
102
}
330
1F
100
AcDbEntity
  8
実線
100
AcDbLine
 10
802.4078315634618
 20
619.6669207270002
 30
0.0
 11
802.4078315634618
 21
620.7169207270003
 31
0.0
  0
LINE
  5
460
102
{ACAD_REACTORS
330
57A
102
}
330
1F
100
AcDbEntity
  8
実線
100
AcDbLine
 10
802.4078315634618
 20
603.6669207270001
 30
0.0
 11
802.4078315634618
 21
611.7669207270004
 31
0.0
  0
LINE
  5
461
102
{ACAD_REACTORS
330
57A
102
}
330
1F
100
AcDbEntity
  8
実線
100
AcDbLine
 10
802.4078315634618
 20
582.716920726953
 30
0.0
 11
802.4078315634618
 21
595.7669207270005
 31
0.0
  0
LINE
  5
462
102
{ACAD_REACTORS
330
57A
102
}
330
1F
100
AcDbEntity
  8
実線
100
AcDbLine
 10
809.9078315634619
 20
620.7169207270003
 30
0.0
 11
802.4078315634618
 21
620.7169207270003
 31
0.0
  0
LINE
  5
463
102
{ACAD_REACTORS
330
57A
102
}
330
1F
100
AcDbEntity
  8
実線
100
AcDbLine
 10
842.4078315634618
 20
580.7169207270003
 30
0.0
 11
842.4078315634618
 21
582.7169207270002
 31
0.0
  0
LINE
  5
464
102
{ACAD_REACTORS
330
57A
102
}
330
1F
100
AcDbEntity
  8
実線
100
AcDbLine
 10
792.4078315634618
 20
582.7169207270002
 30
0.0
 11
792.4078315634618
 21
580.7169207270003
 31
0.0
  0
LINE
  5
465
102
{ACAD_REACTORS
330
57A
102
}
330
1F
100
AcDbEntity
  8
実線
100
AcDbLine
 10
842.4078315634618
 20
582.7169207270002
 30
0.0
 11
792.4078315634618
 21
582.7169207270002
 31
0.0
  0
LINE
  5
466
102
{ACAD_REACTORS
330
57A
102
}
330
1F
100
AcDbEntity
  8
実線
100
AcDbLine
 10
879.907831563462
 20
560.7169207270002
 30
0.0
 11
879.907831563462
 21
562.2169207270003
 31
0.0
  0
LINE
  5
467
102
{ACAD_REACTORS
330
57A
102
}
330
1F
100
AcDbEntity
  8
実線
100
AcDbLine
 10
754.9078315634618
 20
562.2169207270003
 30
0.0
 11
754.9078315634618
 21
560.7169207270002
 31
0.0
  0
LINE
  5
468
102
{ACAD_REACTORS
330
57A
102
}
330
1F
100
AcDbEntity
  8
実線
100
AcDbLine
 10
757.9078315634618
 20
565.2169207270004
 30
0.0
 11
876.9078315633688
 21
565.2169207270004
 31
0.0
  0
ARC
  5
469
102
{ACAD_REACTORS
330
57A
102
}
330
1F
100
AcDbEntity
  8
実線
100
AcDbCircle
 10
876.9078315634619
 20
562.2169207270003
 30
0.0
 40
3.0
100
AcDbArc
 50
0.0
 51
90.0
  0
ARC
  5
46A
102
{ACAD_REACTORS
330
57A
102
}
330
1F
100
AcDbEntity
  8
実線
100
AcDbCircle
 10
757.9078315634618
 20
562.2169207270003
 30
0.0
 40
3.0
100
AcDbArc
 50
90.0
 51
180.0
  0
LINE
  5
46B
102
{ACAD_REACTORS
330
57A
102
}
330
1F
100
AcDbEntity
  8
実線
100
AcDbLine
 10
849.4078315634618
 20
305.8169207270002
 30
0.0
 11
785.4078315634618
 21
305.8169207270002
 31
0.0
  0
ARC
  5
46C
102
{ACAD_REACTORS
330
57A
102
}
330
1F
100
AcDbEntity
  8
実線
100
AcDbCircle
 10
785.4078315634618
 20
322.8169207270004
 30
0.0
 40
17.0
100
AcDbArc
 50
234.8499442294396
 51
270.0
  0
ARC
  5
46D
102
{ACAD_REACTORS
330
57A
102
}
330
1F
100
AcDbEntity
  8
実線
100
AcDbCircle
 10
849.4078315634618
 20
322.8169207270004
 30
0.0
 40
17.0
100
AcDbArc
 50
270.0
 51
305.1500557705605
  0
LINE
  5
46E
102
{ACAD_REACTORS
330
57A
102
}
330
1F
100
AcDbEntity
  8
実線
100
AcDbLine
 10
873.910997155518
 20
354.3169207270003
 30
0.0
 11
839.7860748506049
 21
354.3169207270003
 31
0.0
  0
LINE
  5
46F
102
{ACAD_REACTORS
330
57A
102
}
330
1F
100
AcDbEntity
  8
実線
100
AcDbLine
 10
873.910997155518
 20
354.3169207270003
 30
0.0
 11
873.910997155518
 21
369.3169207270003
 31
0.0
  0
LINE
  5
470
102
{ACAD_REACTORS
330
57A
102
}
330
1F
100
AcDbEntity
  8
実線
100
AcDbLine
 10
760.9046659714057
 20
369.3169207270003
 30
0.0
 11
760.9046659714057
 21
354.3169207270003
 31
0.0
  0
LINE
  5
471
102
{ACAD_REACTORS
330
57A
102
}
330
1F
100
AcDbEntity
  8
実線
100
AcDbLine
 10
760.9046659714057
 20
354.3169207270003
 30
0.0
 11
795.0295882763188
 21
354.3169207270003
 31
0.0
  0
LINE
  5
472
102
{ACAD_REACTORS
330
57A
102
}
330
1F
100
AcDbEntity
  8
実線
100
AcDbLine
 10
795.0295882763188
 20
369.3169207270003
 30
0.0
 11
795.0295882763188
 21
354.3169207270003
 31
0.0
  0
LINE
  5
473
102
{ACAD_REACTORS
330
57A
102
}
330
1F
100
AcDbEntity
  8
実線
100
AcDbLine
 10
839.7860748506049
 20
369.3169207270003
 30
0.0
 11
839.7860748506049
 21
354.3169207270003
 31
0.0
  0
LINE
  5
474
102
{ACAD_REACTORS
330
57B
102
}
330
1F
100
AcDbEntity
  8
実線
100
AcDbLine
 10
554.4078315634622
 20
580.7169207270002
 30
0.0
 11
552.407831563462
 21
580.7169207270002
 31
0.0
  0
LINE
  5
475
102
{ACAD_REACTORS
330
57B
102
}
330
1F
100
AcDbEntity
  8
実線
100
AcDbLine
 10
602.4078315634617
 20
575.7169207270002
 30
0.0
 11
602.4078315634617
 21
580.7169207270002
 31
0.0
  0
LINE
  5
476
102
{ACAD_REACTORS
330
57B
102
}
330
1F
100
AcDbEntity
  8
実線
100
AcDbLine
 10
552.407831563462
 20
580.7169207270002
 30
0.0
 11
552.407831563462
 21
575.7169207270002
 31
0.0
  0
LINE
  5
477
102
{ACAD_REACTORS
330
57B
102
}
330
1F
100
AcDbEntity
  8
実線
100
AcDbLine
 10
585.4078315634621
 20
582.7169207270001
 30
0.0
 11
585.4078315634621
 21
613.2169207270001
 31
0.0
  0
LINE
  5
478
102
{ACAD_REACTORS
330
57B
102
}
330
1F
100
AcDbEntity
  8
実線
100
AcDbLine
 10
569.4078315634621
 20
613.2169207270001
 30
0.0
 11
569.4078315634621
 21
582.7169207270001
 31
0.0
  0
LINE
  5
479
102
{ACAD_REACTORS
330
57B
102
}
330
1F
100
AcDbEntity
  8
実線
100
AcDbLine
 10
623.407831563462
 20
575.7169207270002
 30
0.0
 11
531.407831563462
 21
575.7169207270002
 31
0.0
  0
LINE
  5
47A
102
{ACAD_REACTORS
330
57B
102
}
330
1F
100
AcDbEntity
  8
実線
100
AcDbLine
 10
623.407831563462
 20
565.216920727
 30
0.0
 11
623.407831563462
 21
575.7169207270002
 31
0.0
  0
LINE
  5
47B
102
{ACAD_REACTORS
330
57B
102
}
330
1F
100
AcDbEntity
  8
実線
100
AcDbLine
 10
531.407831563462
 20
575.7169207270002
 30
0.0
 11
531.407831563462
 21
565.216920727
 31
0.0
  0
LINE
  5
47C
102
{ACAD_REACTORS
330
57B
102
}
330
1F
100
AcDbEntity
  8
実線
100
AcDbLine
 10
514.907831563462
 20
468.7169207270001
 30
0.0
 11
639.9078315634617
 21
468.7169207270001
 31
0.0
  0
LINE
  5
47D
102
{ACAD_REACTORS
330
57B
102
}
330
1F
100
AcDbEntity
  8
実線
100
AcDbLine
 10
639.9078315634617
 20
560.7169207270001
 30
0.0
 11
514.907831563462
 21
560.7169207270001
 31
0.0
  0
LINE
  5
47E
102
{ACAD_REACTORS
330
57B
102
}
330
1F
100
AcDbEntity
  8
実線
100
AcDbLine
 10
639.9078315634617
 20
468.7169207270001
 30
0.0
 11
639.9078315634617
 21
560.7169207270001
 31
0.0
  0
LINE
  5
47F
102
{ACAD_REACTORS
330
57B
102
}
330
1F
100
AcDbEntity
  8
実線
100
AcDbLine
 10
514.907831563462
 20
560.7169207270001
 30
0.0
 11
514.907831563462
 21
468.7169207270001
 31
0.0
  0
LINE
  5
480
102
{ACAD_REACTORS
330
57B
102
}
330
1F
100
AcDbEntity
  8
実線
100
AcDbLine
 10
602.8078315634622
 20
257.6169207270002
 30
0.0
 11
602.8078315634622
 21
305.8169207270002
 31
0.0
  0
LINE
  5
481
102
{ACAD_REACTORS
330
57B
102
}
330
1F
100
AcDbEntity
  8
実線
100
AcDbLine
 10
552.0078315634622
 20
305.8169207270002
 30
0.0
 11
552.0078315634622
 21
257.6169207270002
 31
0.0
  0
LINE
  5
482
102
{ACAD_REACTORS
330
57B
102
}
330
1F
100
AcDbEntity
  8
実線
100
AcDbLine
 10
609.4078315634622
 20
252.3169207270002
 30
0.0
 11
609.4078315634622
 21
255.2169207270002
 31
0.0
  0
LINE
  5
483
102
{ACAD_REACTORS
330
57B
102
}
330
1F
100
AcDbEntity
  8
実線
100
AcDbLine
 10
545.4078315634622
 20
255.2169207270002
 30
0.0
 11
545.4078315634622
 21
252.3169207270002
 31
0.0
  0
LINE
  5
484
102
{ACAD_REACTORS
330
57B
102
}
330
1F
100
AcDbEntity
  8
実線
100
AcDbLine
 10
545.4078315634622
 20
252.3169207270002
 30
0.0
 11
609.4078315634622
 21
252.3169207270002
 31
0.0
  0
LINE
  5
485
102
{ACAD_REACTORS
330
57B
102
}
330
1F
100
AcDbEntity
  8
実線
100
AcDbLine
 10
552.0078315634622
 20
257.6169207270002
 30
0.0
 11
545.4078315634622
 21
255.2169207270002
 31
0.0
  0
LINE
  5
486
102
{ACAD_REACTORS
330
57B
102
}
330
1F
100
AcDbEntity
  8
実線
100
AcDbLine
 10
609.4078315634622
 20
255.2169207270002
 30
0.0
 11
602.8078315634622
 21
257.6169207270002
 31
0.0
  0
LINE
  5
487
102
{ACAD_REACTORS
330
57B
102
}
330
1F
100
AcDbEntity
  8
実線
100
AcDbLine
 10
545.4078315634622
 20
255.2169207270002
 30
0.0
 11
609.4078315634622
 21
255.2169207270002
 31
0.0
  0
LINE
  5
488
102
{ACAD_REACTORS
330
57B
102
}
330
1F
100
AcDbEntity
  8
実線
100
AcDbLine
 10
552.0078315634622
 20
257.6169207270002
 30
0.0
 11
602.8078315634622
 21
257.6169207270002
 31
0.0
  0
CIRCLE
  5
489
102
{ACAD_REACTORS
330
57B
102
}
330
1F
100
AcDbEntity
  8
実線
100
AcDbCircle
 10
577.4078315634621
 20
334.3169207270002
 30
0.0
 40
32.0
  0
LINE
  5
48A
102
{ACAD_REACTORS
330
57B
102
}
330
1F
100
AcDbEntity
  8
実線
100
AcDbLine
 10
633.9109971555177
 20
382.8169207270002
 30
0.0
 11
520.9046659714061
 21
382.8169207270002
 31
0.0
  0
LINE
  5
48B
102
{ACAD_REACTORS
330
57B
102
}
330
1F
100
AcDbEntity
  8
実線
100
AcDbLine
 10
633.9109971555177
 20
369.3169207270003
 30
0.0
 11
520.9046659714061
 21
369.3169207270003
 31
0.0
  0
LINE
  5
48C
102
{ACAD_REACTORS
330
57B
102
}
330
1F
100
AcDbEntity
  8
実線
100
AcDbLine
 10
520.9046659714061
 20
382.8169207270002
 30
0.0
 11
520.9046659714061
 21
369.3169207270003
 31
0.0
  0
LINE
  5
48D
102
{ACAD_REACTORS
330
57B
102
}
330
1F
100
AcDbEntity
  8
実線
100
AcDbLine
 10
633.9109971555177
 20
369.3169207270003
 30
0.0
 11
633.9109971555177
 21
382.8169207270002
 31
0.0
  0
LINE
  5
48E
102
{ACAD_REACTORS
330
57B
102
}
330
1F
100
AcDbEntity
  8
実線
100
AcDbLine
 10
599.786074850605
 20
382.8169207270002
 30
0.0
 11
599.786074850605
 21
369.3169207270003
 31
0.0
  0
LINE
  5
48F
102
{ACAD_REACTORS
330
57B
102
}
330
1F
100
AcDbEntity
  8
実線
100
AcDbLine
 10
555.0295882763187
 20
382.8169207270002
 30
0.0
 11
555.0295882763187
 21
369.3169207270003
 31
0.0
  0
LINE
  5
490
102
{ACAD_REACTORS
330
57B
102
}
330
1F
100
AcDbEntity
  8
実線
100
AcDbLine
 10
584.907831563462
 20
623.5169207270002
 30
0.0
 11
569.9078315634619
 21
623.5169207270002
 31
0.0
  0
LINE
  5
491
102
{ACAD_REACTORS
330
57B
102
}
330
1F
100
AcDbEntity
  8
実線
100
AcDbLine
 10
584.907831563462
 20
618.2169207270002
 30
0.0
 11
584.907831563462
 21
623.5169207270002
 31
0.0
  0
LINE
  5
492
102
{ACAD_REACTORS
330
57B
102
}
330
1F
100
AcDbEntity
  8
実線
100
AcDbLine
 10
569.9078315634619
 20
623.5169207270002
 30
0.0
 11
569.9078315634619
 21
618.2169207270002
 31
0.0
  0
LINE
  5
493
102
{ACAD_REACTORS
330
57B
102
}
330
1F
100
AcDbEntity
  8
実線
100
AcDbLine
 10
589.9078315634621
 20
618.2169207270002
 30
0.0
 11
564.9078315634621
 21
618.2169207270002
 31
0.0
  0
LINE
  5
494
102
{ACAD_REACTORS
330
57B
102
}
330
1F
100
AcDbEntity
  8
実線
100
AcDbLine
 10
564.9078315634621
 20
613.2169207270001
 30
0.0
 11
589.9078315634621
 21
613.2169207270001
 31
0.0
  0
LINE
  5
495
102
{ACAD_REACTORS
330
57B
102
}
330
1F
100
AcDbEntity
  8
実線
100
AcDbLine
 10
589.9078315634621
 20
613.2169207270001
 30
0.0
 11
589.9078315634621
 21
618.2169207270002
 31
0.0
  0
LINE
  5
496
102
{ACAD_REACTORS
330
57B
102
}
330
1F
100
AcDbEntity
  8
実線
100
AcDbLine
 10
564.9078315634621
 20
618.2169207270002
 30
0.0
 11
564.9078315634621
 21
613.2169207270001
 31
0.0
  0
LINE
  5
497
102
{ACAD_REACTORS
330
57B
102
}
330
1F
100
AcDbEntity
  8
実線
100
AcDbLine
 10
564.3078315634621
 20
611.7669207270004
 30
0.0
 11
556.407831563462
 21
611.7669207270004
 31
0.0
  0
LINE
  5
498
102
{ACAD_REACTORS
330
57B
102
}
330
1F
100
AcDbEntity
  8
実線
100
AcDbLine
 10
556.407831563462
 20
611.7669207270004
 30
0.0
 11
556.407831563462
 21
619.6669207270003
 31
0.0
  0
LINE
  5
499
102
{ACAD_REACTORS
330
57B
102
}
330
1F
100
AcDbEntity
  8
実線
100
AcDbLine
 10
564.3078315634621
 20
619.6669207270002
 30
0.0
 11
564.3078315634621
 21
611.7669207270004
 31
0.0
  0
LINE
  5
49A
102
{ACAD_REACTORS
330
57B
102
}
330
1F
100
AcDbEntity
  8
実線
100
AcDbLine
 10
556.407831563462
 20
619.6669207270002
 30
0.0
 11
564.3078315634621
 21
619.6669207270002
 31
0.0
  0
CIRCLE
  5
49B
102
{ACAD_REACTORS
330
57B
102
}
330
1F
100
AcDbEntity
  8
実線
100
AcDbCircle
 10
560.3578315634622
 20
599.7169207270001
 30
0.0
 40
1.5
  0
LINE
  5
49C
102
{ACAD_REACTORS
330
57B
102
}
330
1F
100
AcDbEntity
  8
実線
100
AcDbLine
 10
556.407831563462
 20
603.6669207270001
 30
0.0
 11
564.3078315634621
 21
603.6669207270001
 31
0.0
  0
LINE
  5
49D
102
{ACAD_REACTORS
330
57B
102
}
330
1F
100
AcDbEntity
  8
実線
100
AcDbLine
 10
564.3078315634621
 20
603.6669207270001
 30
0.0
 11
564.3078315634621
 21
595.7669207270003
 31
0.0
  0
LINE
  5
49E
102
{ACAD_REACTORS
330
57B
102
}
330
1F
100
AcDbEntity
  8
実線
100
AcDbLine
 10
556.407831563462
 20
595.7669207270003
 30
0.0
 11
556.407831563462
 21
603.6669207270001
 31
0.0
  0
LINE
  5
49F
102
{ACAD_REACTORS
330
57B
102
}
330
1F
100
AcDbEntity
  8
実線
100
AcDbLine
 10
564.3078315634621
 20
595.7669207270003
 30
0.0
 11
556.407831563462
 21
595.7669207270003
 31
0.0
  0
CIRCLE
  5
4A0
102
{ACAD_REACTORS
330
57B
102
}
330
1F
100
AcDbEntity
  8
実線
100
AcDbCircle
 10
560.3578315634622
 20
615.7169207270001
 30
0.0
 40
1.5
  0
LINE
  5
4A1
102
{ACAD_REACTORS
330
57B
102
}
330
1F
100
AcDbEntity
  8
実線
100
AcDbLine
 10
527.407831563462
 20
468.7169207270001
 30
0.0
 11
527.407831563462
 21
415.3169207270002
 31
0.0
  0
LINE
  5
4A2
102
{ACAD_REACTORS
330
57B
102
}
330
1F
100
AcDbEntity
  8
実線
100
AcDbLine
 10
563.9078315634622
 20
415.3169207270002
 30
0.0
 11
527.407831563462
 21
415.3169207270002
 31
0.0
  0
LINE
  5
4A3
102
{ACAD_REACTORS
330
57B
102
}
330
1F
100
AcDbEntity
  8
実線
100
AcDbLine
 10
590.9078315634617
 20
415.3169207270002
 30
0.0
 11
627.4078315634617
 21
415.3169207270002
 31
0.0
  0
LINE
  5
4A4
102
{ACAD_REACTORS
330
57B
102
}
330
1F
100
AcDbEntity
  8
実線
100
AcDbLine
 10
627.4078315634617
 20
415.3169207270002
 30
0.0
 11
627.4078315634617
 21
468.7169207270001
 31
0.0
  0
LINE
  5
4A5
102
{ACAD_REACTORS
330
57B
102
}
330
1F
100
AcDbEntity
  8
実線
100
AcDbLine
 10
590.9078315634617
 20
382.8169207270002
 30
0.0
 11
590.9078315634617
 21
468.7169207270001
 31
0.0
  0
LINE
  5
4A6
102
{ACAD_REACTORS
330
57B
102
}
330
1F
100
AcDbEntity
  8
実線
100
AcDbLine
 10
563.9078315634622
 20
382.8169207270002
 30
0.0
 11
563.9078315634622
 21
468.7169207270001
 31
0.0
  0
LINE
  5
4A7
102
{ACAD_REACTORS
330
57B
102
}
330
1F
100
AcDbEntity
  8
実線
100
AcDbLine
 10
554.4078315634622
 20
580.7169207270002
 30
0.0
 11
602.4078315634617
 21
580.7169207270002
 31
0.0
  0
LINE
  5
4A8
102
{ACAD_REACTORS
330
57B
102
}
330
1F
100
AcDbEntity
  8
実線
100
AcDbLine
 10
556.407831563462
 20
582.7169207269529
 30
0.0
 11
602.4078315634617
 21
582.7169207269529
 31
0.0
  0
LINE
  5
4A9
102
{ACAD_REACTORS
330
57B
102
}
330
1F
100
AcDbEntity
  8
実線
100
AcDbLine
 10
556.407831563462
 20
619.6669207270002
 30
0.0
 11
556.407831563462
 21
620.7169207270002
 31
0.0
  0
LINE
  5
4AA
102
{ACAD_REACTORS
330
57B
102
}
330
1F
100
AcDbEntity
  8
実線
100
AcDbLine
 10
556.407831563462
 20
603.6669207270001
 30
0.0
 11
556.407831563462
 21
611.7669207270004
 31
0.0
  0
LINE
  5
4AB
102
{ACAD_REACTORS
330
57B
102
}
330
1F
100
AcDbEntity
  8
実線
100
AcDbLine
 10
556.407831563462
 20
582.7169207269529
 30
0.0
 11
556.407831563462
 21
595.7669207270003
 31
0.0
  0
LINE
  5
4AC
102
{ACAD_REACTORS
330
57B
102
}
330
1F
100
AcDbEntity
  8
実線
100
AcDbLine
 10
556.407831563462
 20
620.7169207270002
 30
0.0
 11
554.4078315634622
 21
620.7169207270002
 31
0.0
  0
LINE
  5
4AD
102
{ACAD_REACTORS
330
57B
102
}
330
1F
100
AcDbEntity
  8
実線
100
AcDbLine
 10
554.4078315634622
 20
580.7169207270002
 30
0.0
 11
554.4078315634622
 21
620.7169207270002
 31
0.0
  0
LINE
  5
4AE
102
{ACAD_REACTORS
330
57B
102
}
330
1F
100
AcDbEntity
  8
実線
100
AcDbLine
 10
557.4078315634802
 20
580.7169207270002
 30
0.0
 11
557.4078315634802
 21
582.7169207269529
 31
0.0
  0
LINE
  5
4AF
102
{ACAD_REACTORS
330
57B
102
}
330
1F
100
AcDbEntity
  8
実線
100
AcDbLine
 10
602.4078315634617
 20
580.7169207270002
 30
0.0
 11
602.4078315634617
 21
582.7169207270001
 31
0.0
  0
LINE
  5
4B0
102
{ACAD_REACTORS
330
57B
102
}
330
1F
100
AcDbEntity
  8
実線
100
AcDbLine
 10
636.9078315634619
 20
565.2169207270003
 30
0.0
 11
517.9078315634621
 21
565.2169207270003
 31
0.0
  0
ARC
  5
4B1
102
{ACAD_REACTORS
330
57B
102
}
330
1F
100
AcDbEntity
  8
実線
100
AcDbCircle
 10
636.9078315634619
 20
562.2169207270002
 30
0.0
 40
3.0
100
AcDbArc
 50
0.0
 51
90.0
  0
ARC
  5
4B2
102
{ACAD_REACTORS
330
57B
102
}
330
1F
100
AcDbEntity
  8
実線
100
AcDbCircle
 10
517.9078315634621
 20
562.2169207270002
 30
0.0
 40
3.0
100
AcDbArc
 50
90.0
 51
180.0
  0
LINE
  5
4B3
102
{ACAD_REACTORS
330
57B
102
}
330
1F
100
AcDbEntity
  8
実線
100
AcDbLine
 10
639.9078315634617
 20
560.7169207270001
 30
0.0
 11
639.9078315634617
 21
562.2169207270002
 31
0.0
  0
LINE
  5
4B4
102
{ACAD_REACTORS
330
57B
102
}
330
1F
100
AcDbEntity
  8
実線
100
AcDbLine
 10
514.907831563462
 20
562.2169207270002
 30
0.0
 11
514.907831563462
 21
560.7169207270001
 31
0.0
  0
LINE
  5
4B5
102
{ACAD_REACTORS
330
57B
102
}
330
1F
100
AcDbEntity
  8
実線
100
AcDbLine
 10
528.407831563462
 20
354.3169207270001
 30
0.0
 11
528.407831563462
 21
322.8169207270003
 31
0.0
  0
LINE
  5
4B6
102
{ACAD_REACTORS
330
57B
102
}
330
1F
100
AcDbEntity
  8
実線
100
AcDbLine
 10
626.4078315634622
 20
322.8169207270003
 30
0.0
 11
626.4078315634622
 21
354.3169207270001
 31
0.0
  0
LINE
  5
4B7
102
{ACAD_REACTORS
330
57B
102
}
330
1F
100
AcDbEntity
  8
実線
100
AcDbLine
 10
562.8561993526069
 20
305.8169207270002
 30
0.0
 11
545.4078315634622
 21
305.8169207270002
 31
0.0
  0
LINE
  5
4B8
102
{ACAD_REACTORS
330
57B
102
}
330
1F
100
AcDbEntity
  8
実線
100
AcDbLine
 10
609.4078315634622
 20
305.8169207270002
 30
0.0
 11
591.9594637743172
 21
305.8169207270002
 31
0.0
  0
ARC
  5
4B9
102
{ACAD_REACTORS
330
57B
102
}
330
1F
100
AcDbEntity
  8
実線
100
AcDbCircle
 10
545.4078315634622
 20
322.8169207270003
 30
0.0
 40
17.0
100
AcDbArc
 50
180.0
 51
270.0
  0
ARC
  5
4BA
102
{ACAD_REACTORS
330
57B
102
}
330
1F
100
AcDbEntity
  8
実線
100
AcDbCircle
 10
609.4078315634622
 20
322.8169207270003
 30
0.0
 40
17.0
100
AcDbArc
 50
270.0
 51
0.0
  0
LINE
  5
4BB
102
{ACAD_REACTORS
330
57B
102
}
330
1F
100
AcDbEntity
  8
実線
100
AcDbLine
 10
520.9046659714062
 20
369.3169207270003
 30
0.0
 11
520.9046659714062
 21
354.3169207270001
 31
0.0
  0
LINE
  5
4BC
102
{ACAD_REACTORS
330
57B
102
}
330
1F
100
AcDbEntity
  8
実線
100
AcDbLine
 10
520.9046659714062
 20
354.3169207270001
 30
0.0
 11
552.4278395698686
 21
354.3169207270001
 31
0.0
  0
LINE
  5
4BD
102
{ACAD_REACTORS
330
57B
102
}
330
1F
100
AcDbEntity
  8
実線
100
AcDbLine
 10
633.9109971555181
 20
354.3169207270001
 30
0.0
 11
602.3878235570556
 21
354.3169207270001
 31
0.0
  0
LINE
  5
4BE
102
{ACAD_REACTORS
330
57B
102
}
330
1F
100
AcDbEntity
  8
実線
100
AcDbLine
 10
633.9109971555181
 20
354.3169207270001
 30
0.0
 11
633.9109971555181
 21
369.3169207270003
 31
0.0
  0
LINE
  5
4BF
102
{ACAD_REACTORS
330
57B
102
}
330
1F
100
AcDbEntity
  8
実線
100
AcDbLine
 10
599.7860748506051
 20
369.3169207270003
 30
0.0
 11
599.7860748506051
 21
357.1907972541967
 31
0.0
  0
LINE
  5
4C0
102
{ACAD_REACTORS
330
57B
102
}
330
1F
100
AcDbEntity
  8
実線
100
AcDbLine
 10
555.0295882763192
 20
369.3169207270003
 30
0.0
 11
555.0295882763192
 21
357.1907972541967
 31
0.0
  0
LINE
  5
4C1
102
{ACAD_REACTORS
330
57D
102
}
330
1F
100
AcDbEntity
  8
実線
100
AcDbLine
 10
122.4078315634623
 20
575.7169207270002
 30
0.0
 11
122.4078315634623
 21
580.7169207270002
 31
0.0
  0
LINE
  5
4C2
102
{ACAD_REACTORS
330
57D
102
}
330
1F
100
AcDbEntity
  8
実線
100
AcDbLine
 10
72.40783156346236
 20
580.7169207270002
 30
0.0
 11
72.40783156346236
 21
575.7169207270002
 31
0.0
  0
LINE
  5
4C3
102
{ACAD_REACTORS
330
57D
102
}
330
1F
100
AcDbEntity
  8
実線
100
AcDbLine
 10
72.40783156346236
 20
580.7169207270002
 30
0.0
 11
122.4078315634623
 21
580.7169207270002
 31
0.0
  0
LINE
  5
4C4
102
{ACAD_REACTORS
330
57D
102
}
330
1F
100
AcDbEntity
  8
実線
100
AcDbLine
 10
105.4078315634623
 20
582.7169207270001
 30
0.0
 11
105.4078315634623
 21
613.2169207270001
 31
0.0
  0
LINE
  5
4C5
102
{ACAD_REACTORS
330
57D
102
}
330
1F
100
AcDbEntity
  8
実線
100
AcDbLine
 10
89.40783156346236
 20
613.2169207270001
 30
0.0
 11
89.40783156346236
 21
582.7169207270001
 31
0.0
  0
LINE
  5
4C6
102
{ACAD_REACTORS
330
57D
102
}
330
1F
100
AcDbEntity
  8
実線
100
AcDbLine
 10
143.4078315634623
 20
565.216920727
 30
0.0
 11
143.4078315634623
 21
575.7169207270002
 31
0.0
  0
LINE
  5
4C7
102
{ACAD_REACTORS
330
57D
102
}
330
1F
100
AcDbEntity
  8
実線
100
AcDbLine
 10
51.40783156346237
 20
575.7169207270002
 30
0.0
 11
51.40783156346237
 21
565.216920727
 31
0.0
  0
LINE
  5
4C8
102
{ACAD_REACTORS
330
57D
102
}
330
1F
100
AcDbEntity
  8
実線
100
AcDbLine
 10
143.4078315634623
 20
575.7169207270002
 30
0.0
 11
51.40783156346237
 21
575.7169207270002
 31
0.0
  0
LINE
  5
4C9
102
{ACAD_REACTORS
330
57D
102
}
330
1F
100
AcDbEntity
  8
実線
100
AcDbLine
 10
159.9078315634624
 20
468.7169207270001
 30
0.0
 11
159.9078315634624
 21
560.7169207270001
 31
0.0
  0
LINE
  5
4CA
102
{ACAD_REACTORS
330
57D
102
}
330
1F
100
AcDbEntity
  8
実線
100
AcDbLine
 10
34.90783156346237
 20
560.7169207270001
 30
0.0
 11
34.90783156346237
 21
468.7169207270001
 31
0.0
  0
LINE
  5
4CB
102
{ACAD_REACTORS
330
57D
102
}
330
1F
100
AcDbEntity
  8
実線
100
AcDbLine
 10
159.9078315634624
 20
560.7169207270001
 30
0.0
 11
34.90783156346237
 21
560.7169207270001
 31
0.0
  0
LINE
  5
4CC
102
{ACAD_REACTORS
330
57D
102
}
330
1F
100
AcDbEntity
  8
実線
100
AcDbLine
 10
159.9078315634624
 20
468.7169207270001
 30
0.0
 11
34.90783156346237
 21
468.7169207270001
 31
0.0
  0
LINE
  5
4CD
102
{ACAD_REACTORS
330
57D
102
}
330
1F
100
AcDbEntity
  8
実線
100
AcDbLine
 10
122.8078315634621
 20
257.6169207270002
 30
0.0
 11
122.8078315634621
 21
305.8169207270002
 31
0.0
  0
LINE
  5
4CE
102
{ACAD_REACTORS
330
57D
102
}
330
1F
100
AcDbEntity
  8
実線
100
AcDbLine
 10
72.00783156346216
 20
305.8169207270002
 30
0.0
 11
72.00783156346216
 21
257.6169207270002
 31
0.0
  0
LINE
  5
4CF
102
{ACAD_REACTORS
330
57D
102
}
330
1F
100
AcDbEntity
  8
実線
100
AcDbLine
 10
129.4078315634622
 20
252.3169207270002
 30
0.0
 11
65.40783156346217
 21
252.3169207270002
 31
0.0
  0
LINE
  5
4D0
102
{ACAD_REACTORS
330
57D
102
}
330
1F
100
AcDbEntity
  8
実線
100
AcDbLine
 10
129.4078315634622
 20
252.3169207270002
 30
0.0
 11
129.4078315634622
 21
255.2169207270002
 31
0.0
  0
LINE
  5
4D1
102
{ACAD_REACTORS
330
57D
102
}
330
1F
100
AcDbEntity
  8
実線
100
AcDbLine
 10
65.40783156346217
 20
255.2169207270002
 30
0.0
 11
65.40783156346217
 21
252.3169207270002
 31
0.0
  0
LINE
  5
4D2
102
{ACAD_REACTORS
330
57D
102
}
330
1F
100
AcDbEntity
  8
実線
100
AcDbLine
 10
129.4078315634622
 20
255.2169207270002
 30
0.0
 11
65.40783156346217
 21
255.2169207270002
 31
0.0
  0
LINE
  5
4D3
102
{ACAD_REACTORS
330
57D
102
}
330
1F
100
AcDbEntity
  8
実線
100
AcDbLine
 10
122.8078315634621
 20
257.6169207270002
 30
0.0
 11
72.00783156346216
 21
257.6169207270002
 31
0.0
  0
LINE
  5
4D4
102
{ACAD_REACTORS
330
57D
102
}
330
1F
100
AcDbEntity
  8
実線
100
AcDbLine
 10
72.00783156346216
 20
257.6169207270002
 30
0.0
 11
65.40783156346217
 21
255.2169207270002
 31
0.0
  0
LINE
  5
4D5
102
{ACAD_REACTORS
330
57D
102
}
330
1F
100
AcDbEntity
  8
実線
100
AcDbLine
 10
129.4078315634622
 20
255.2169207270002
 30
0.0
 11
122.8078315634621
 21
257.6169207270002
 31
0.0
  0
CIRCLE
  5
4D6
102
{ACAD_REACTORS
330
57D
102
}
330
1F
100
AcDbEntity
  8
実線
100
AcDbCircle
 10
97.40783156346219
 20
334.3169207270002
 30
0.0
 40
32.0
  0
LINE
  5
4D7
102
{ACAD_REACTORS
330
57D
102
}
330
1F
100
AcDbEntity
  8
実線
100
AcDbLine
 10
153.9109971555182
 20
369.3169207270003
 30
0.0
 11
40.90466597140653
 21
369.3169207270003
 31
0.0
  0
LINE
  5
4D8
102
{ACAD_REACTORS
330
57D
102
}
330
1F
100
AcDbEntity
  8
実線
100
AcDbLine
 10
153.9109971555182
 20
382.8169207270002
 30
0.0
 11
40.90466597140653
 21
382.8169207270002
 31
0.0
  0
LINE
  5
4D9
102
{ACAD_REACTORS
330
57D
102
}
330
1F
100
AcDbEntity
  8
実線
100
AcDbLine
 10
40.90466597140653
 20
382.8169207270002
 30
0.0
 11
40.90466597140653
 21
369.3169207270003
 31
0.0
  0
LINE
  5
4DA
102
{ACAD_REACTORS
330
57D
102
}
330
1F
100
AcDbEntity
  8
実線
100
AcDbLine
 10
153.9109971555182
 20
369.3169207270003
 30
0.0
 11
153.9109971555182
 21
382.8169207270002
 31
0.0
  0
LINE
  5
4DB
102
{ACAD_REACTORS
330
57D
102
}
330
1F
100
AcDbEntity
  8
実線
100
AcDbLine
 10
75.02958827631926
 20
382.8169207270002
 30
0.0
 11
75.02958827631926
 21
369.3169207270003
 31
0.0
  0
LINE
  5
4DC
102
{ACAD_REACTORS
330
57D
102
}
330
1F
100
AcDbEntity
  8
実線
100
AcDbLine
 10
119.7860748506053
 20
382.8169207270002
 30
0.0
 11
119.7860748506053
 21
369.3169207270003
 31
0.0
  0
LINE
  5
4DD
102
{ACAD_REACTORS
330
57D
102
}
330
1F
100
AcDbEntity
  8
実線
100
AcDbLine
 10
104.9078315634623
 20
618.2169207270002
 30
0.0
 11
104.9078315634623
 21
623.5169207270002
 31
0.0
  0
LINE
  5
4DE
102
{ACAD_REACTORS
330
57D
102
}
330
1F
100
AcDbEntity
  8
実線
100
AcDbLine
 10
89.90783156346237
 20
623.5169207270002
 30
0.0
 11
89.90783156346237
 21
618.2169207270002
 31
0.0
  0
LINE
  5
4DF
102
{ACAD_REACTORS
330
57D
102
}
330
1F
100
AcDbEntity
  8
実線
100
AcDbLine
 10
104.9078315634623
 20
623.5169207270002
 30
0.0
 11
89.90783156346237
 21
623.5169207270002
 31
0.0
  0
LINE
  5
4E0
102
{ACAD_REACTORS
330
57D
102
}
330
1F
100
AcDbEntity
  8
実線
100
AcDbLine
 10
109.9078315634623
 20
613.2169207270001
 30
0.0
 11
109.9078315634623
 21
618.2169207270002
 31
0.0
  0
LINE
  5
4E1
102
{ACAD_REACTORS
330
57D
102
}
330
1F
100
AcDbEntity
  8
実線
100
AcDbLine
 10
84.90783156346237
 20
618.2169207270002
 30
0.0
 11
84.90783156346237
 21
613.2169207270001
 31
0.0
  0
LINE
  5
4E2
102
{ACAD_REACTORS
330
57D
102
}
330
1F
100
AcDbEntity
  8
実線
100
AcDbLine
 10
109.9078315634623
 20
618.2169207270002
 30
0.0
 11
84.90783156346237
 21
618.2169207270002
 31
0.0
  0
LINE
  5
4E3
102
{ACAD_REACTORS
330
57D
102
}
330
1F
100
AcDbEntity
  8
実線
100
AcDbLine
 10
84.90783156346237
 20
613.2169207270001
 30
0.0
 11
109.9078315634623
 21
613.2169207270001
 31
0.0
  0
LINE
  5
4E4
102
{ACAD_REACTORS
330
57D
102
}
330
1F
100
AcDbEntity
  8
実線
100
AcDbLine
 10
118.4078315634623
 20
611.7669207270004
 30
0.0
 11
110.5078315634623
 21
611.7669207270004
 31
0.0
  0
LINE
  5
4E5
102
{ACAD_REACTORS
330
57D
102
}
330
1F
100
AcDbEntity
  8
実線
100
AcDbLine
 10
110.5078315634623
 20
611.7669207270004
 30
0.0
 11
110.5078315634623
 21
619.6669207270003
 31
0.0
  0
LINE
  5
4E6
102
{ACAD_REACTORS
330
57D
102
}
330
1F
100
AcDbEntity
  8
実線
100
AcDbLine
 10
110.5078315634623
 20
619.6669207270002
 30
0.0
 11
118.4078315634623
 21
619.6669207270002
 31
0.0
  0
LINE
  5
4E7
102
{ACAD_REACTORS
330
57D
102
}
330
1F
100
AcDbEntity
  8
実線
100
AcDbLine
 10
110.5078315634623
 20
603.6669207270001
 30
0.0
 11
118.4078315634623
 21
603.6669207270001
 31
0.0
  0
LINE
  5
4E8
102
{ACAD_REACTORS
330
57D
102
}
330
1F
100
AcDbEntity
  8
実線
100
AcDbLine
 10
110.5078315634623
 20
595.7669207270003
 30
0.0
 11
110.5078315634623
 21
603.6669207270001
 31
0.0
  0
LINE
  5
4E9
102
{ACAD_REACTORS
330
57D
102
}
330
1F
100
AcDbEntity
  8
実線
100
AcDbLine
 10
118.4078315634623
 20
595.7669207270003
 30
0.0
 11
110.5078315634623
 21
595.7669207270003
 31
0.0
  0
LINE
  5
4EA
102
{ACAD_REACTORS
330
57D
102
}
330
1F
100
AcDbEntity
  8
実線
100
AcDbLine
 10
110.9078315634624
 20
415.3169207270002
 30
0.0
 11
147.4078315634623
 21
415.3169207270002
 31
0.0
  0
LINE
  5
4EB
102
{ACAD_REACTORS
330
57D
102
}
330
1F
100
AcDbEntity
  8
実線
100
AcDbLine
 10
147.4078315634623
 20
415.3169207270002
 30
0.0
 11
147.4078315634623
 21
468.7169207270001
 31
0.0
  0
LINE
  5
4EC
102
{ACAD_REACTORS
330
57D
102
}
330
1F
100
AcDbEntity
  8
実線
100
AcDbLine
 10
47.40783156346236
 20
468.7169207270001
 30
0.0
 11
47.40783156346236
 21
415.3169207270002
 31
0.0
  0
LINE
  5
4ED
102
{ACAD_REACTORS
330
57D
102
}
330
1F
100
AcDbEntity
  8
実線
100
AcDbLine
 10
47.40783156346236
 20
415.3169207270002
 30
0.0
 11
83.90783156346236
 21
415.3169207270002
 31
0.0
  0
LINE
  5
4EE
102
{ACAD_REACTORS
330
57D
102
}
330
1F
100
AcDbEntity
  8
実線
100
AcDbLine
 10
110.9078315634624
 20
382.8169207270002
 30
0.0
 11
110.9078315634624
 21
468.7169207270001
 31
0.0
  0
LINE
  5
4EF
102
{ACAD_REACTORS
330
57D
102
}
330
1F
100
AcDbEntity
  8
実線
100
AcDbLine
 10
83.90783156346236
 20
382.8169207270002
 30
0.0
 11
83.90783156346236
 21
468.7169207270001
 31
0.0
  0
LINE
  5
4F0
102
{ACAD_REACTORS
330
57D
102
}
330
1F
100
AcDbEntity
  8
実線
100
AcDbLine
 10
118.4078315634623
 20
582.7169207269529
 30
0.0
 11
72.40783156346236
 21
582.7169207269529
 31
0.0
  0
LINE
  5
4F1
102
{ACAD_REACTORS
330
57D
102
}
330
1F
100
AcDbEntity
  8
実線
100
AcDbLine
 10
118.4078315634623
 20
620.7169207270002
 30
0.0
 11
118.4078315634623
 21
582.7169207269529
 31
0.0
  0
LINE
  5
4F2
102
{ACAD_REACTORS
330
57D
102
}
330
1F
100
AcDbEntity
  8
実線
100
AcDbLine
 10
120.4078315634623
 20
580.7169207270002
 30
0.0
 11
120.4078315634623
 21
620.7169207270002
 31
0.0
  0
LINE
  5
4F3
102
{ACAD_REACTORS
330
57D
102
}
330
1F
100
AcDbEntity
  8
実線
100
AcDbLine
 10
120.4078315634623
 20
620.7169207270002
 30
0.0
 11
118.4078315634623
 21
620.7169207270002
 31
0.0
  0
LINE
  5
4F4
102
{ACAD_REACTORS
330
57D
102
}
330
1F
100
AcDbEntity
  8
実線
100
AcDbLine
 10
117.4078315634623
 20
582.7169207270001
 30
0.0
 11
117.4078315634623
 21
580.7169207270002
 31
0.0
  0
LINE
  5
4F5
102
{ACAD_REACTORS
330
57D
102
}
330
1F
100
AcDbEntity
  8
実線
100
AcDbLine
 10
72.40783156346236
 20
582.7169207270001
 30
0.0
 11
72.40783156346236
 21
580.7169207270002
 31
0.0
  0
LINE
  5
4F6
102
{ACAD_REACTORS
330
57D
102
}
330
1F
100
AcDbEntity
  8
実線
100
AcDbLine
 10
159.9078315634624
 20
560.7169207270001
 30
0.0
 11
159.9078315634624
 21
562.2169207270002
 31
0.0
  0
LINE
  5
4F7
102
{ACAD_REACTORS
330
57D
102
}
330
1F
100
AcDbEntity
  8
実線
100
AcDbLine
 10
34.90783156346237
 20
562.2169207270002
 30
0.0
 11
34.90783156346237
 21
560.7169207270001
 31
0.0
  0
LINE
  5
4F8
102
{ACAD_REACTORS
330
57D
102
}
330
1F
100
AcDbEntity
  8
実線
100
AcDbLine
 10
37.90783156346237
 20
565.2169207270003
 30
0.0
 11
156.9078315634624
 21
565.2169207270003
 31
0.0
  0
ARC
  5
4F9
102
{ACAD_REACTORS
330
57D
102
}
330
1F
100
AcDbEntity
  8
実線
100
AcDbCircle
 10
156.9078315634624
 20
562.2169207270002
 30
0.0
 40
3.0
100
AcDbArc
 50
0.0
 51
90.0
  0
ARC
  5
4FA
102
{ACAD_REACTORS
330
57D
102
}
330
1F
100
AcDbEntity
  8
実線
100
AcDbCircle
 10
37.90783156346237
 20
562.2169207270002
 30
0.0
 40
3.0
100
AcDbArc
 50
90.0
 51
180.0
  0
LINE
  5
4FB
102
{ACAD_REACTORS
330
57D
102
}
330
1F
100
AcDbEntity
  8
実線
100
AcDbLine
 10
82.85619935260697
 20
305.8169207270002
 30
0.0
 11
65.40783156346217
 21
305.8169207270002
 31
0.0
  0
LINE
  5
4FC
102
{ACAD_REACTORS
330
57D
102
}
330
1F
100
AcDbEntity
  8
実線
100
AcDbLine
 10
129.4078315634622
 20
305.8169207270002
 30
0.0
 11
111.9594637743174
 21
305.8169207270002
 31
0.0
  0
ARC
  5
4FD
102
{ACAD_REACTORS
330
57D
102
}
330
1F
100
AcDbEntity
  8
実線
100
AcDbCircle
 10
65.40783156346217
 20
322.8169207270003
 30
0.0
 40
17.0
100
AcDbArc
 50
180.0
 51
270.0
  0
ARC
  5
4FE
102
{ACAD_REACTORS
330
57D
102
}
330
1F
100
AcDbEntity
  8
実線
100
AcDbCircle
 10
129.4078315634622
 20
322.8169207270003
 30
0.0
 40
17.0
100
AcDbArc
 50
270.0
 51
0.0
  0
LINE
  5
4FF
102
{ACAD_REACTORS
330
57D
102
}
330
1F
100
AcDbEntity
  8
実線
100
AcDbLine
 10
48.40783156346225
 20
354.3169207270001
 30
0.0
 11
48.40783156346225
 21
322.8169207270003
 31
0.0
  0
LINE
  5
500
102
{ACAD_REACTORS
330
57D
102
}
330
1F
100
AcDbEntity
  8
実線
100
AcDbLine
 10
146.4078315634622
 20
322.8169207270003
 30
0.0
 11
146.4078315634622
 21
354.3169207270001
 31
0.0
  0
LINE
  5
501
102
{ACAD_REACTORS
330
57D
102
}
330
1F
100
AcDbEntity
  8
実線
100
AcDbLine
 10
40.90466597140635
 20
369.3169207270003
 30
0.0
 11
40.90466597140635
 21
354.3169207270001
 31
0.0
  0
LINE
  5
502
102
{ACAD_REACTORS
330
57D
102
}
330
1F
100
AcDbEntity
  8
実線
100
AcDbLine
 10
40.90466597140635
 20
354.3169207270001
 30
0.0
 11
72.42783956986858
 21
354.3169207270001
 31
0.0
  0
LINE
  5
503
102
{ACAD_REACTORS
330
57D
102
}
330
1F
100
AcDbEntity
  8
実線
100
AcDbLine
 10
153.910997155518
 20
354.3169207270001
 30
0.0
 11
122.3878235570557
 21
354.3169207270001
 31
0.0
  0
LINE
  5
504
102
{ACAD_REACTORS
330
57D
102
}
330
1F
100
AcDbEntity
  8
実線
100
AcDbLine
 10
153.910997155518
 20
354.3169207270001
 30
0.0
 11
153.910997155518
 21
369.3169207270003
 31
0.0
  0
LINE
  5
505
102
{ACAD_REACTORS
330
57D
102
}
330
1F
100
AcDbEntity
  8
実線
100
AcDbLine
 10
75.02958827631906
 20
369.3169207270003
 30
0.0
 11
75.02958827631906
 21
357.1907972541967
 31
0.0
  0
LINE
  5
506
102
{ACAD_REACTORS
330
57D
102
}
330
1F
100
AcDbEntity
  8
実線
100
AcDbLine
 10
119.7860748506052
 20
369.3169207270003
 30
0.0
 11
119.7860748506052
 21
357.1907972541967
 31
0.0
  0
LINE
  5
507
102
{ACAD_REACTORS
330
57C
102
}
330
1F
100
AcDbEntity
  8
実線
100
AcDbLine
 10
362.4078315634622
 20
575.7169207270002
 30
0.0
 11
362.4078315634622
 21
580.7169207270002
 31
0.0
  0
LINE
  5
508
102
{ACAD_REACTORS
330
57C
102
}
330
1F
100
AcDbEntity
  8
実線
100
AcDbLine
 10
312.4078315634621
 20
580.7169207270002
 30
0.0
 11
312.4078315634621
 21
575.7169207270002
 31
0.0
  0
LINE
  5
509
102
{ACAD_REACTORS
330
57C
102
}
330
1F
100
AcDbEntity
  8
実線
100
AcDbLine
 10
312.4078315634621
 20
580.7169207270002
 30
0.0
 11
347.2057905345949
 21
580.7169207270002
 31
0.0
  0
LINE
  5
50A
102
{ACAD_REACTORS
330
57C
102
}
330
1F
100
AcDbEntity
  8
実線
100
AcDbLine
 10
329.4078315634621
 20
613.2169207270001
 30
0.0
 11
329.4078315634621
 21
582.7169207270001
 31
0.0
  0
LINE
  5
50B
102
{ACAD_REACTORS
330
57C
102
}
330
1F
100
AcDbEntity
  8
実線
100
AcDbLine
 10
383.4078315634622
 20
565.216920727
 30
0.0
 11
383.4078315634622
 21
575.7169207270002
 31
0.0
  0
LINE
  5
50C
102
{ACAD_REACTORS
330
57C
102
}
330
1F
100
AcDbEntity
  8
実線
100
AcDbLine
 10
291.4078315634622
 20
575.7169207270002
 30
0.0
 11
291.4078315634622
 21
565.216920727
 31
0.0
  0
LINE
  5
50D
102
{ACAD_REACTORS
330
57C
102
}
330
1F
100
AcDbEntity
  8
実線
100
AcDbLine
 10
383.4078315634622
 20
575.7169207270002
 30
0.0
 11
291.4078315634622
 21
575.7169207270002
 31
0.0
  0
LINE
  5
50E
102
{ACAD_REACTORS
330
57C
102
}
330
1F
100
AcDbEntity
  8
実線
100
AcDbLine
 10
345.4078315634622
 20
382.8169207270002
 30
0.0
 11
345.4078315634622
 21
415.3169207270002
 31
0.0
  0
LINE
  5
50F
102
{ACAD_REACTORS
330
57C
102
}
330
1F
100
AcDbEntity
  8
実線
100
AcDbLine
 10
329.4078315634621
 20
415.3169207270003
 30
0.0
 11
329.4078315634621
 21
382.8169207270002
 31
0.0
  0
LINE
  5
510
102
{ACAD_REACTORS
330
57C
102
}
330
1F
100
AcDbEntity
  8
実線
100
AcDbLine
 10
399.9078315634622
 20
468.7169207270001
 30
0.0
 11
274.9078315634621
 21
468.7169207270001
 31
0.0
  0
LINE
  5
511
102
{ACAD_REACTORS
330
57C
102
}
330
1F
100
AcDbEntity
  8
実線
100
AcDbLine
 10
399.9078315634622
 20
468.7169207270001
 30
0.0
 11
399.9078315634622
 21
560.7169207270001
 31
0.0
  0
LINE
  5
512
102
{ACAD_REACTORS
330
57C
102
}
330
1F
100
AcDbEntity
  8
実線
100
AcDbLine
 10
274.9078315634621
 20
560.7169207270001
 30
0.0
 11
274.9078315634621
 21
468.7169207270001
 31
0.0
  0
LINE
  5
513
102
{ACAD_REACTORS
330
57C
102
}
330
1F
100
AcDbEntity
  8
実線
100
AcDbLine
 10
399.9078315634622
 20
560.7169207270001
 30
0.0
 11
274.9078315634621
 21
560.7169207270001
 31
0.0
  0
LINE
  5
514
102
{ACAD_REACTORS
330
57C
102
}
330
1F
100
AcDbEntity
  8
実線
100
AcDbLine
 10
362.8078315634623
 20
257.6169207270002
 30
0.0
 11
362.8078315634623
 21
305.8169207270002
 31
0.0
  0
LINE
  5
515
102
{ACAD_REACTORS
330
57C
102
}
330
1F
100
AcDbEntity
  8
実線
100
AcDbLine
 10
312.0078315634622
 20
305.8169207270002
 30
0.0
 11
312.0078315634622
 21
257.6169207270002
 31
0.0
  0
LINE
  5
516
102
{ACAD_REACTORS
330
57C
102
}
330
1F
100
AcDbEntity
  8
実線
100
AcDbLine
 10
305.4078315634622
 20
252.3169207270002
 30
0.0
 11
369.4078315634622
 21
252.3169207270002
 31
0.0
  0
LINE
  5
517
102
{ACAD_REACTORS
330
57C
102
}
330
1F
100
AcDbEntity
  8
実線
100
AcDbLine
 10
369.4078315634622
 20
252.3169207270002
 30
0.0
 11
369.4078315634622
 21
255.2169207270002
 31
0.0
  0
LINE
  5
518
102
{ACAD_REACTORS
330
57C
102
}
330
1F
100
AcDbEntity
  8
実線
100
AcDbLine
 10
305.4078315634622
 20
255.2169207270002
 30
0.0
 11
305.4078315634622
 21
252.3169207270002
 31
0.0
  0
LINE
  5
519
102
{ACAD_REACTORS
330
57C
102
}
330
1F
100
AcDbEntity
  8
実線
100
AcDbLine
 10
305.4078315634622
 20
255.2169207270002
 30
0.0
 11
369.4078315634622
 21
255.2169207270002
 31
0.0
  0
LINE
  5
51A
102
{ACAD_REACTORS
330
57C
102
}
330
1F
100
AcDbEntity
  8
実線
100
AcDbLine
 10
312.0078315634622
 20
257.6169207270002
 30
0.0
 11
362.8078315634623
 21
257.6169207270002
 31
0.0
  0
LINE
  5
51B
102
{ACAD_REACTORS
330
57C
102
}
330
1F
100
AcDbEntity
  8
実線
100
AcDbLine
 10
312.0078315634622
 20
257.6169207270002
 30
0.0
 11
305.4078315634622
 21
255.2169207270002
 31
0.0
  0
LINE
  5
51C
102
{ACAD_REACTORS
330
57C
102
}
330
1F
100
AcDbEntity
  8
実線
100
AcDbLine
 10
369.4078315634622
 20
255.2169207270002
 30
0.0
 11
362.8078315634623
 21
257.6169207270002
 31
0.0
  0
LINE
  5
51D
102
{ACAD_REACTORS
330
57C
102
}
330
1F
100
AcDbEntity
  8
実線
100
AcDbLine
 10
260.7078315634622
 20
308.9169207270002
 30
0.0
 11
295.6205949769686
 21
308.9169207270002
 31
0.0
  0
LINE
  5
51E
102
{ACAD_REACTORS
330
57C
102
}
330
1F
100
AcDbEntity
  8
実線
100
AcDbLine
 10
280.9046659714064
 20
359.7169207270002
 30
0.0
 11
260.7078315634622
 21
359.7169207270002
 31
0.0
  0
LINE
  5
51F
102
{ACAD_REACTORS
330
57C
102
}
330
1F
100
AcDbEntity
  8
実線
100
AcDbLine
 10
255.4078315634622
 20
366.3169207270002
 30
0.0
 11
255.4078315634622
 21
302.3169207270003
 31
0.0
  0
LINE
  5
520
102
{ACAD_REACTORS
330
57C
102
}
330
1F
100
AcDbEntity
  8
実線
100
AcDbLine
 10
255.4078315634622
 20
302.3169207270003
 30
0.0
 11
258.3078315634622
 21
302.3169207270003
 31
0.0
  0
LINE
  5
521
102
{ACAD_REACTORS
330
57C
102
}
330
1F
100
AcDbEntity
  8
実線
100
AcDbLine
 10
258.3078315634622
 20
366.3169207270002
 30
0.0
 11
255.4078315634622
 21
366.3169207270002
 31
0.0
  0
LINE
  5
522
102
{ACAD_REACTORS
330
57C
102
}
330
1F
100
AcDbEntity
  8
実線
100
AcDbLine
 10
258.3078315634622
 20
366.3169207270002
 30
0.0
 11
258.3078315634622
 21
302.3169207270003
 31
0.0
  0
LINE
  5
523
102
{ACAD_REACTORS
330
57C
102
}
330
1F
100
AcDbEntity
  8
実線
100
AcDbLine
 10
260.7078315634622
 20
359.7169207270002
 30
0.0
 11
260.7078315634622
 21
308.9169207270002
 31
0.0
  0
LINE
  5
524
102
{ACAD_REACTORS
330
57C
102
}
330
1F
100
AcDbEntity
  8
実線
100
AcDbLine
 10
260.7078315634622
 20
359.7169207270002
 30
0.0
 11
258.3078315634622
 21
366.3169207270002
 31
0.0
  0
LINE
  5
525
102
{ACAD_REACTORS
330
57C
102
}
330
1F
100
AcDbEntity
  8
実線
100
AcDbLine
 10
258.3078315634622
 20
302.3169207270003
 30
0.0
 11
260.7078315634622
 21
308.9169207270002
 31
0.0
  0
LINE
  5
526
102
{ACAD_REACTORS
330
57C
102
}
330
1F
100
AcDbEntity
  8
実線
100
AcDbLine
 10
414.107831563462
 20
359.7169207270002
 30
0.0
 11
393.9109971555181
 21
359.7169207270002
 31
0.0
  0
LINE
  5
527
102
{ACAD_REACTORS
330
57C
102
}
330
1F
100
AcDbEntity
  8
実線
100
AcDbLine
 10
379.195068149956
 20
308.9169207270002
 30
0.0
 11
414.107831563462
 21
308.9169207270002
 31
0.0
  0
LINE
  5
528
102
{ACAD_REACTORS
330
57C
102
}
330
1F
100
AcDbEntity
  8
実線
100
AcDbLine
 10
419.4078315634621
 20
366.3169207270002
 30
0.0
 11
416.507831563462
 21
366.3169207270002
 31
0.0
  0
LINE
  5
529
102
{ACAD_REACTORS
330
57C
102
}
330
1F
100
AcDbEntity
  8
実線
100
AcDbLine
 10
416.507831563462
 20
302.3169207270003
 30
0.0
 11
419.4078315634621
 21
302.3169207270003
 31
0.0
  0
LINE
  5
52A
102
{ACAD_REACTORS
330
57C
102
}
330
1F
100
AcDbEntity
  8
実線
100
AcDbLine
 10
419.4078315634621
 20
366.3169207270002
 30
0.0
 11
419.4078315634621
 21
302.3169207270003
 31
0.0
  0
LINE
  5
52B
102
{ACAD_REACTORS
330
57C
102
}
330
1F
100
AcDbEntity
  8
実線
100
AcDbLine
 10
414.107831563462
 20
308.9169207270002
 30
0.0
 11
416.507831563462
 21
302.3169207270004
 31
0.0
  0
LINE
  5
52C
102
{ACAD_REACTORS
330
57C
102
}
330
1F
100
AcDbEntity
  8
実線
100
AcDbLine
 10
416.507831563462
 20
366.3169207270001
 30
0.0
 11
414.107831563462
 21
359.7169207270002
 31
0.0
  0
LINE
  5
52D
102
{ACAD_REACTORS
330
57C
102
}
330
1F
100
AcDbEntity
  8
実線
100
AcDbLine
 10
416.507831563462
 20
302.3169207270004
 30
0.0
 11
416.507831563462
 21
366.3169207270002
 31
0.0
  0
LINE
  5
52E
102
{ACAD_REACTORS
330
57C
102
}
330
1F
100
AcDbEntity
  8
実線
100
AcDbLine
 10
414.107831563462
 20
308.9169207270002
 30
0.0
 11
414.107831563462
 21
359.7169207270002
 31
0.0
  0
LINE
  5
52F
102
{ACAD_REACTORS
330
57C
102
}
330
1F
100
AcDbEntity
  8
実線
100
AcDbLine
 10
280.9046659714064
 20
382.8169207270002
 30
0.0
 11
393.9109971555183
 21
382.8169207270002
 31
0.0
  0
LINE
  5
530
102
{ACAD_REACTORS
330
57C
102
}
330
1F
100
AcDbEntity
  8
実線
100
AcDbLine
 10
280.9046659714064
 20
369.3169207270003
 30
0.0
 11
393.9109971555183
 21
369.3169207270003
 31
0.0
  0
LINE
  5
531
102
{ACAD_REACTORS
330
57C
102
}
330
1F
100
AcDbEntity
  8
実線
100
AcDbLine
 10
393.9109971555183
 20
369.3169207270003
 30
0.0
 11
393.9109971555183
 21
382.8169207270002
 31
0.0
  0
LINE
  5
532
102
{ACAD_REACTORS
330
57C
102
}
330
1F
100
AcDbEntity
  8
実線
100
AcDbLine
 10
280.9046659714064
 20
382.8169207270002
 30
0.0
 11
280.9046659714064
 21
369.3169207270003
 31
0.0
  0
LINE
  5
533
102
{ACAD_REACTORS
330
57C
102
}
330
1F
100
AcDbEntity
  8
実線
100
AcDbLine
 10
315.0295882763192
 20
382.8169207270002
 30
0.0
 11
315.0295882763192
 21
369.3169207270003
 31
0.0
  0
LINE
  5
534
102
{ACAD_REACTORS
330
57C
102
}
330
1F
100
AcDbEntity
  8
実線
100
AcDbLine
 10
359.7860748506054
 20
382.8169207270002
 30
0.0
 11
359.7860748506054
 21
369.3169207270003
 31
0.0
  0
LINE
  5
535
102
{ACAD_REACTORS
330
57C
102
}
330
1F
100
AcDbEntity
  8
実線
100
AcDbLine
 10
344.9078315634623
 20
620.7169207270002
 30
0.0
 11
344.9078315634623
 21
623.5169207270002
 31
0.0
  0
LINE
  5
536
102
{ACAD_REACTORS
330
57C
102
}
330
1F
100
AcDbEntity
  8
実線
100
AcDbLine
 10
329.9078315634623
 20
623.5169207270002
 30
0.0
 11
329.9078315634623
 21
618.2169207270002
 31
0.0
  0
LINE
  5
537
102
{ACAD_REACTORS
330
57C
102
}
330
1F
100
AcDbEntity
  8
実線
100
AcDbLine
 10
344.9078315634623
 20
623.5169207270002
 30
0.0
 11
329.9078315634623
 21
623.5169207270002
 31
0.0
  0
LINE
  5
538
102
{ACAD_REACTORS
330
57C
102
}
330
1F
100
AcDbEntity
  8
実線
100
AcDbLine
 10
324.9078315634621
 20
618.2169207270002
 30
0.0
 11
324.9078315634621
 21
613.2169207270001
 31
0.0
  0
LINE
  5
539
102
{ACAD_REACTORS
330
57C
102
}
330
1F
100
AcDbEntity
  8
実線
100
AcDbLine
 10
332.4078315634623
 20
618.2169207270002
 30
0.0
 11
324.9078315634621
 21
618.2169207270002
 31
0.0
  0
LINE
  5
53A
102
{ACAD_REACTORS
330
57C
102
}
330
1F
100
AcDbEntity
  8
実線
100
AcDbLine
 10
332.4078315634623
 20
613.2169207270001
 30
0.0
 11
324.9078315634621
 21
613.2169207270001
 31
0.0
  0
LINE
  5
53B
102
{ACAD_REACTORS
330
57C
102
}
330
1F
100
AcDbEntity
  8
実線
100
AcDbLine
 10
357.4078315634623
 20
611.7669207270004
 30
0.0
 11
357.4078315634623
 21
619.6669207270003
 31
0.0
  0
LINE
  5
53C
102
{ACAD_REACTORS
330
57C
102
}
330
1F
100
AcDbEntity
  8
実線
100
AcDbLine
 10
352.4078315634623
 20
619.6669207270002
 30
0.0
 11
357.4078315634623
 21
619.6669207270002
 31
0.0
  0
LINE
  5
53D
102
{ACAD_REACTORS
330
57C
102
}
330
1F
100
AcDbEntity
  8
実線
100
AcDbLine
 10
352.4078315634623
 20
611.7669207270004
 30
0.0
 11
357.4078315634623
 21
611.7669207270004
 31
0.0
  0
LINE
  5
53E
102
{ACAD_REACTORS
330
57C
102
}
330
1F
100
AcDbEntity
  8
実線
100
AcDbLine
 10
363.9078315634623
 20
601.2169207270002
 30
0.0
 11
363.9078315634623
 21
598.2169207270002
 31
0.0
  0
LINE
  5
53F
102
{ACAD_REACTORS
330
57C
102
}
330
1F
100
AcDbEntity
  8
実線
100
AcDbLine
 10
357.4078315634623
 20
598.2169207270002
 30
0.0
 11
363.9078315634623
 21
598.2169207270002
 31
0.0
  0
LINE
  5
540
102
{ACAD_REACTORS
330
57C
102
}
330
1F
100
AcDbEntity
  8
実線
100
AcDbLine
 10
363.9078315634623
 20
601.2169207270002
 30
0.0
 11
357.4078315634623
 21
601.2169207270002
 31
0.0
  0
LINE
  5
541
102
{ACAD_REACTORS
330
57C
102
}
330
1F
100
AcDbEntity
  8
実線
100
AcDbLine
 10
357.4078315634623
 20
595.7669207270003
 30
0.0
 11
357.4078315634623
 21
603.6669207270001
 31
0.0
  0
LINE
  5
542
102
{ACAD_REACTORS
330
57C
102
}
330
1F
100
AcDbEntity
  8
実線
100
AcDbLine
 10
352.4078315634623
 20
595.7669207270003
 30
0.0
 11
357.4078315634623
 21
595.7669207270003
 31
0.0
  0
LINE
  5
543
102
{ACAD_REACTORS
330
57C
102
}
330
1F
100
AcDbEntity
  8
実線
100
AcDbLine
 10
352.4078315634623
 20
603.6669207270001
 30
0.0
 11
357.4078315634623
 21
603.6669207270001
 31
0.0
  0
LINE
  5
544
102
{ACAD_REACTORS
330
57C
102
}
330
1F
100
AcDbEntity
  8
実線
100
AcDbLine
 10
363.9078315634623
 20
617.2169207270002
 30
0.0
 11
363.9078315634623
 21
614.2169207270001
 31
0.0
  0
LINE
  5
545
102
{ACAD_REACTORS
330
57C
102
}
330
1F
100
AcDbEntity
  8
実線
100
AcDbLine
 10
357.4078315634623
 20
614.2169207270001
 30
0.0
 11
363.9078315634623
 21
614.2169207270001
 31
0.0
  0
LINE
  5
546
102
{ACAD_REACTORS
330
57C
102
}
330
1F
100
AcDbEntity
  8
実線
100
AcDbLine
 10
363.9078315634623
 20
617.2169207270002
 30
0.0
 11
357.4078315634623
 21
617.2169207270002
 31
0.0
  0
ARC
  5
547
102
{ACAD_REACTORS
330
57C
102
}
330
1F
100
AcDbEntity
  8
実線
100
AcDbCircle
 10
334.7078315634622
 20
428.8169207270002
 30
0.0
 40
60.00000000000005
100
AcDbArc
 50
309.9445051898158
 51
0.0
  0
ARC
  5
548
102
{ACAD_REACTORS
330
57C
102
}
330
1F
100
AcDbEntity
  8
実線
100
AcDbCircle
 10
332.7078315634623
 20
428.8169207270002
 30
0.0
 40
47.99999999999999
100
AcDbArc
 50
286.5978421358678
 51
343.665177219314
  0
LINE
  5
549
102
{ACAD_REACTORS
330
57C
102
}
330
1F
100
AcDbEntity
  8
実線
100
AcDbLine
 10
394.7078315634625
 20
468.7169207270001
 30
0.0
 11
394.7078315634621
 21
428.8169207270002
 31
0.0
  0
ARC
  5
54A
102
{ACAD_REACTORS
330
57C
102
}
330
1F
100
AcDbEntity
  8
実線
100
AcDbCircle
 10
342.1078315634622
 20
428.8169207270002
 30
0.0
 40
47.99999999999999
100
AcDbArc
 50
196.334822780686
 51
253.4021578641321
  0
LINE
  5
54B
102
{ACAD_REACTORS
330
57C
102
}
330
1F
100
AcDbEntity
  8
実線
100
AcDbLine
 10
280.1078315634623
 20
468.7169207270001
 30
0.0
 11
280.1078315634623
 21
428.8169207270002
 31
0.0
  0
ARC
  5
54C
102
{ACAD_REACTORS
330
57C
102
}
330
1F
100
AcDbEntity
  8
実線
100
AcDbCircle
 10
340.1078315634623
 20
428.8169207270002
 30
0.0
 40
60.00000000000005
100
AcDbArc
 50
180.0
 51
230.0554948101841
  0
LINE
  5
54D
102
{ACAD_REACTORS
330
57C
102
}
330
1F
100
AcDbEntity
  8
実線
100
AcDbLine
 10
289.2648154552041
 20
415.3169207270002
 30
0.0
 11
385.5508476717205
 21
415.3169207270002
 31
0.0
  0
LINE
  5
54E
102
{ACAD_REACTORS
330
57C
102
}
330
1F
100
AcDbEntity
  8
実線
100
AcDbLine
 10
385.5508476717205
 20
415.3169207270002
 30
0.0
 11
385.5508476717205
 21
468.7169207270001
 31
0.0
  0
LINE
  5
54F
102
{ACAD_REACTORS
330
57C
102
}
330
1F
100
AcDbEntity
  8
実線
100
AcDbLine
 10
289.2648154552041
 20
415.3169207270002
 30
0.0
 11
289.2648154552041
 21
468.7169207270001
 31
0.0
  0
LINE
  5
550
102
{ACAD_REACTORS
330
57C
102
}
330
1F
100
AcDbEntity
  8
実線
100
AcDbLine
 10
362.4078315634622
 20
580.7169207270002
 30
0.0
 11
347.2057905345949
 21
580.7169207270002
 31
0.0
  0
LINE
  5
551
102
{ACAD_REACTORS
330
57C
102
}
330
1F
100
AcDbEntity
  8
実線
100
AcDbLine
 10
312.4078315634621
 20
582.7169207270001
 30
0.0
 11
332.4078315634623
 21
582.7169207270001
 31
0.0
  0
LINE
  5
552
102
{ACAD_REACTORS
330
57C
102
}
330
1F
100
AcDbEntity
  8
実線
100
AcDbLine
 10
362.4078315634622
 20
580.7169207270002
 30
0.0
 11
362.4078315634622
 21
582.7169207270001
 31
0.0
  0
LINE
  5
553
102
{ACAD_REACTORS
330
57C
102
}
330
1F
100
AcDbEntity
  8
実線
100
AcDbLine
 10
312.4078315634621
 20
582.7169207270001
 30
0.0
 11
312.4078315634621
 21
580.7169207270002
 31
0.0
  0
LINE
  5
554
102
{ACAD_REACTORS
330
57C
102
}
330
1F
100
AcDbEntity
  8
実線
100
AcDbLine
 10
362.4078315634622
 20
582.7169207270001
 30
0.0
 11
352.4078315634623
 21
582.7169207269529
 31
0.0
  0
LINE
  5
555
102
{ACAD_REACTORS
330
57C
102
}
330
1F
100
AcDbEntity
  8
実線
100
AcDbLine
 10
322.4078315634623
 20
582.7169207270001
 30
0.0
 11
322.4078315634623
 21
580.7169207270002
 31
0.0
  0
LINE
  5
556
102
{ACAD_REACTORS
330
57C
102
}
330
1F
100
AcDbEntity
  8
実線
100
AcDbLine
 10
332.4078315634623
 20
580.7169207270002
 30
0.0
 11
332.4078315634623
 21
620.7169207270002
 31
0.0
  0
LINE
  5
557
102
{ACAD_REACTORS
330
57C
102
}
330
1F
100
AcDbEntity
  8
実線
100
AcDbLine
 10
352.4078315634623
 20
580.7169207270002
 30
0.0
 11
352.4078315634623
 21
620.7169207270002
 31
0.0
  0
LINE
  5
558
102
{ACAD_REACTORS
330
57C
102
}
330
1F
100
AcDbEntity
  8
実線
100
AcDbLine
 10
352.4078315634623
 20
620.7169207270002
 30
0.0
 11
332.4078315634623
 21
620.7169207270002
 31
0.0
  0
LINE
  5
559
102
{ACAD_REACTORS
330
57C
102
}
330
1F
100
AcDbEntity
  8
実線
100
AcDbLine
 10
399.9078315634622
 20
560.7169207270001
 30
0.0
 11
399.9078315634622
 21
562.2169207270002
 31
0.0
  0
LINE
  5
55A
102
{ACAD_REACTORS
330
57C
102
}
330
1F
100
AcDbEntity
  8
実線
100
AcDbLine
 10
274.9078315634621
 20
562.2169207270002
 30
0.0
 11
274.9078315634621
 21
560.7169207270001
 31
0.0
  0
LINE
  5
55B
102
{ACAD_REACTORS
330
57C
102
}
330
1F
100
AcDbEntity
  8
実線
100
AcDbLine
 10
396.9078315634623
 20
565.2169207270003
 30
0.0
 11
277.9078315634623
 21
565.2169207270003
 31
0.0
  0
ARC
  5
55C
102
{ACAD_REACTORS
330
57C
102
}
330
1F
100
AcDbEntity
  8
実線
100
AcDbCircle
 10
396.9078315634623
 20
562.2169207270002
 30
0.0
 40
3.0
100
AcDbArc
 50
0.0
 51
90.0
  0
ARC
  5
55D
102
{ACAD_REACTORS
330
57C
102
}
330
1F
100
AcDbEntity
  8
実線
100
AcDbCircle
 10
277.9078315634623
 20
562.2169207270002
 30
0.0
 40
3.0
100
AcDbArc
 50
90.0
 51
180.0
  0
LINE
  5
55E
102
{ACAD_REACTORS
330
57C
102
}
330
1F
100
AcDbEntity
  8
実線
100
AcDbLine
 10
369.4078315633699
 20
305.8169207270002
 30
0.0
 11
305.4078315634622
 21
305.8169207270002
 31
0.0
  0
ARC
  5
55F
102
{ACAD_REACTORS
330
57C
102
}
330
1F
100
AcDbEntity
  8
実線
100
AcDbCircle
 10
305.4078315634622
 20
322.8169207270003
 30
0.0
 40
17.0
100
AcDbArc
 50
234.8499442294453
 51
270.0
  0
ARC
  5
560
102
{ACAD_REACTORS
330
57C
102
}
330
1F
100
AcDbEntity
  8
実線
100
AcDbCircle
 10
369.4078315634622
 20
322.8169207270003
 30
0.0
 40
17.0
100
AcDbArc
 50
270.0
 51
305.1500557705546
  0
LINE
  5
561
102
{ACAD_REACTORS
330
57C
102
}
330
1F
100
AcDbEntity
  8
実線
100
AcDbLine
 10
280.9046659714064
 20
369.3169207270003
 30
0.0
 11
280.9046659714064
 21
354.3169207270001
 31
0.0
  0
LINE
  5
562
102
{ACAD_REACTORS
330
57C
102
}
330
1F
100
AcDbEntity
  8
実線
100
AcDbLine
 10
280.9046659714064
 20
354.3169207270001
 30
0.0
 11
315.0295882763192
 21
354.3169207270001
 31
0.0
  0
LINE
  5
563
102
{ACAD_REACTORS
330
57C
102
}
330
1F
100
AcDbEntity
  8
実線
100
AcDbLine
 10
393.9109971555181
 20
354.3169207270001
 30
0.0
 11
359.7860748506051
 21
354.3169207270001
 31
0.0
  0
LINE
  5
564
102
{ACAD_REACTORS
330
57C
102
}
330
1F
100
AcDbEntity
  8
実線
100
AcDbLine
 10
393.9109971555181
 20
354.3169207270001
 30
0.0
 11
393.9109971555181
 21
369.3169207270003
 31
0.0
  0
LINE
  5
565
102
{ACAD_REACTORS
330
57C
102
}
330
1F
100
AcDbEntity
  8
実線
100
AcDbLine
 10
315.0295882763192
 20
369.3169207270003
 30
0.0
 11
315.0295882763192
 21
354.3169207270001
 31
0.0
  0
LINE
  5
566
102
{ACAD_REACTORS
330
57C
102
}
330
1F
100
AcDbEntity
  8
実線
100
AcDbLine
 10
359.7860748506054
 20
369.3169207270003
 30
0.0
 11
359.7860748506054
 21
354.3169207270001
 31
0.0
  0
LINE
  5
567
102
{ACAD_REACTORS
330
57F
102
}
330
1F
100
AcDbEntity
  8
中心線
100
AcDbLine
 10
253.4078315634623
 20
94.31692072700048
 30
0.0
 11
421.4078315634623
 21
94.31692072700048
 31
0.0
  0
LINE
  5
568
102
{ACAD_REACTORS
330
57F
102
}
330
1F
100
AcDbEntity
  8
中心線
100
AcDbLine
 10
337.4078315634621
 20
24.31692072700093
 30
0.0
 11
337.4078315634622
 21
164.3169207270009
 31
0.0
  0
LINE
  5
569
102
{ACAD_REACTORS
330
57E
102
}
330
1F
100
AcDbEntity
  8
中心線
100
AcDbLine
 10
253.4078315634622
 20
814.3169207270002
 30
0.0
 11
421.4078315634622
 21
814.3169207270002
 31
0.0
  0
LINE
  5
56A
102
{ACAD_REACTORS
330
57E
102
}
330
1F
100
AcDbEntity
  8
中心線
100
AcDbLine
 10
337.4078315634621
 20
744.3169207270007
 30
0.0
 11
337.4078315634621
 21
884.3169207270006
 31
0.0
  0
LINE
  5
56B
102
{ACAD_REACTORS
330
57A
102
}
330
1F
100
AcDbEntity
  8
中心線
100
AcDbLine
 10
817.407831563462
 20
250.3169207269999
 30
0.0
 11
817.407831563462
 21
631.7354107203746
 31
0.0
  0
LINE
  5
56C
102
{ACAD_REACTORS
330
57A
102
}
330
1F
100
AcDbEntity
  8
中心線
100
AcDbLine
 10
733.407831563462
 20
334.3169207270004
 30
0.0
 11
901.407831563462
 21
334.3169207270004
 31
0.0
  0
LINE
  5
574
102
{ACAD_REACTORS
330
57B
102
}
330
1F
100
AcDbEntity
  8
中心線
100
AcDbLine
 10
577.4078315634617
 20
250.3169207269998
 30
0.0
 11
577.4078315634617
 21
631.7354107203746
 31
0.0
  0
LINE
  5
575
102
{ACAD_REACTORS
330
57B
102
}
330
1F
100
AcDbEntity
  8
中心線
100
AcDbLine
 10
507.4078315634617
 20
334.3169207270002
 30
0.0
 11
647.4078315634617
 21
334.3169207270002
 31
0.0
  0
LINE
  5
576
102
{ACAD_REACTORS
330
57C
102
}
330
1F
100
AcDbEntity
  8
中心線
100
AcDbLine
 10
337.4078315634623
 20
250.3169207270005
 30
0.0
 11
337.4078315634624
 21
631.7354107203746
 31
0.0
  0
LINE
  5
577
102
{ACAD_REACTORS
330
57C
102
}
330
1F
100
AcDbEntity
  8
中心線
100
AcDbLine
 10
253.4078315634623
 20
334.3169207270002
 30
0.0
 11
421.4078315634623
 21
334.3169207270002
 31
0.0
  0
LINE
  5
578
102
{ACAD_REACTORS
330
57D
102
}
330
1F
100
AcDbEntity
  8
中心線
100
AcDbLine
 10
97.40783156346219
 20
250.3169207270005
 30
0.0
 11
97.40783156346219
 21
631.7354107203746
 31
0.0
  0
LINE
  5
579
102
{ACAD_REACTORS
330
57D
102
}
330
1F
100
AcDbEntity
  8
中心線
100
AcDbLine
 10
27.4078315634622
 20
334.3169207270004
 30
0.0
 11
167.4078315634622
 21
334.3169207270002
 31
0.0
  0
ENDSEC
  0
SECTION
  2
OBJECTS
  0
DICTIONARY
  5
C
330
0
100
AcDbDictionary
281
     1
  3
ACAD_CIP_PREVIOUS_PRODUCT_INFO
350
290
  3
ACAD_COLOR
350
286
  3
ACAD_DETAILVIEWSTYLE
350
289
  3
ACAD_GROUP
350
D
  3
ACAD_LAYOUT
350
1A
  3
ACAD_MATERIAL
350
43
  3
ACAD_MLEADERSTYLE
350
5B
  3
ACAD_MLINESTYLE
350
17
  3
ACAD_PLOTSETTINGS
350
19
  3
ACAD_PLOTSTYLENAME
350
E
  3
ACAD_SCALELIST
350
47
  3
ACAD_SECTIONVIEWSTYLE
350
287
  3
ACAD_TABLESTYLE
350
59
  3
ACAD_VISUALSTYLE
350
2A
  3
ACDB_RECOMPOSE_DATA
350
5D8
  3
AcDbVariableDictionary
350
23B
  3
DWGPROPS
350
5D9
  0
DICTIONARY
  5
297
330
2
100
AcDbDictionary
280
     1
281
     1
  3
ACAD_LAYERSTATES
360
298
  0
DICTIONARY
  5
580
330
10
100
AcDbDictionary
280
     1
281
     1
  3
ADSK_XREC_LAYER_RECONCILED
360
581
  0
DICTIONARY
  5
293
330
292
100
AcDbDictionary
280
     1
281
     1
  3
ADSK_XREC_LAYER_RECONCILED
360
582
  0
DICTIONARY
  5
295
330
294
100
AcDbDictionary
280
     1
281
     1
  3
ADSK_XREC_LAYER_RECONCILED
360
583
  0
DICTIONARY
  5
3E1
330
1F
100
AcDbDictionary
280
     1
281
     1
  3
ACAD_SORTENTS
360
3E2
  0
XRECORD
  5
290
102
{ACAD_REACTORS
330
C
102
}
330
C
100
AcDbXrecord
280
     1
300
ACDLT
300
2016
300
ACDLT_F_S
  0
DICTIONARY
  5
286
102
{ACAD_REACTORS
330
C
102
}
330
C
100
AcDbDictionary
281
     1
  0
DICTIONARY
  5
289
102
{ACAD_REACTORS
330
C
102
}
330
C
100
AcDbDictionary
281
     1
  3
Metric50
350
28A
  0
DICTIONARY
  5
D
102
{ACAD_REACTORS
330
C
102
}
330
C
100
AcDbDictionary
281
     1
  3
*A1
350
57A
  3
*A2
350
57B
  3
*A3
350
57C
  3
*A4
350
57D
  3
*A5
350
57E
  3
*A6
350
57F
  0
DICTIONARY
  5
1A
102
{ACAD_REACTORS
330
C
102
}
330
C
100
AcDbDictionary
281
     1
  3
Layout1
350
1E
  3
Model
350
22
  3
レイアウト1
350
28B
  0
DICTIONARY
  5
43
102
{ACAD_REACTORS
330
C
102
}
330
C
100
AcDbDictionary
281
     1
  3
ByBlock
350
45
  3
ByLayer
350
44
  3
Global
350
46
  0
DICTIONARY
  5
5B
102
{ACAD_REACTORS
330
C
102
}
330
C
100
AcDbDictionary
281
     1
  3
Standard
350
5C
  0
DICTIONARY
  5
17
102
{ACAD_REACTORS
330
C
102
}
330
C
100
AcDbDictionary
281
     1
  3
Standard
350
18
  0
DICTIONARY
  5
19
102
{ACAD_REACTORS
330
C
102
}
330
C
100
AcDbDictionary
281
     1
  0
ACDBDICTIONARYWDFLT
  5
E
102
{ACAD_REACTORS
330
C
102
}
330
C
100
AcDbDictionary
281
     1
  3
Normal
350
F
100
AcDbDictionaryWithDefault
340
F
  0
DICTIONARY
  5
47
102
{ACAD_REACTORS
330
C
102
}
330
C
100
AcDbDictionary
281
     1
  3
A0
350
48
  3
A1
350
49
  3
A2
350
4A
  3
A3
350
4B
  3
A4
350
4C
  3
A5
350
4D
  3
A6
350
4E
  3
A7
350
4F
  3
A8
350
50
  3
A9
350
51
  3
B0
350
52
  3
B1
350
53
  3
B2
350
54
  3
B3
350
55
  3
B4
350
56
  3
B5
350
57
  3
B6
350
58
  0
DICTIONARY
  5
287
102
{ACAD_REACTORS
330
C
102
}
330
C
100
AcDbDictionary
281
     1
  3
Metric50
350
288
  0
DICTIONARY
  5
59
102
{ACAD_REACTORS
330
C
102
}
330
C
100
AcDbDictionary
281
     1
  3
Standard
350
5A
  0
DICTIONARY
  5
2A
102
{ACAD_REACTORS
330
C
102
}
330
C
100
AcDbDictionary
281
     1
  3
2dWireframe
350
2F
  3
Basic
350
32
  3
Brighten
350
36
  3
ColorChange
350
3A
  3
Conceptual
350
34
  3
Dim
350
35
  3
EdgeColorOff
350
3D
  3
Facepattern
350
39
  3
Flat
350
2B
  3
FlatWithEdges
350
2C
  3
Gouraud
350
2D
  3
GouraudWithEdges
350
2E
  3
Hidden
350
31
  3
JitterOff
350
3B
  3
Linepattern
350
38
  3
OverhangOff
350
3C
  3
Realistic
350
33
  3
Shaded
350
42
  3
Shaded with edges
350
41
  3
Shades of Gray
350
3E
  3
Sketchy
350
3F
  3
Thicken
350
37
  3
Wireframe
350
30
  3
X-Ray
350
40
  0
XRECORD
  5
5D8
102
{ACAD_REACTORS
330
C
102
}
330
C
100
AcDbXrecord
280
     1
 90
        1
330
5A
  0
DICTIONARY
  5
23B
102
{ACAD_REACTORS
330
C
102
}
330
C
100
AcDbDictionary
281
     1
  3
CANNOSCALE
350
249
  3
CENTEREXE
350
242
  3
CENTERLTYPEFILE
350
243
  3
CMLEADERSTYLE
350
23D
  3
CTABLESTYLE
350
23C
  3
CVIEWDETAILSTYLE
350
584
  3
CVIEWSECTIONSTYLE
350
585
  3
DIMASSOC
350
244
  3
HIDETEXT
350
245
  3
INDEXCTL
350
5D0
  3
LAYEREVAL
350
587
  3
LAYERNOTIFY
350
588
  3
LIGHTINGUNITS
350
586
  3
LOFTANG1
350
5D3
  3
LOFTANG2
350
5D4
  3
LONGITUDE
350
5D5
  3
MSLTSCALE
350
24A
  3
PSOLHEIGHT
350
5D2
  3
PSOLWIDTH
350
5D1
  3
SORTENTS
350
5CF
  3
XCLIPFRAME
350
5D6
  0
XRECORD
  5
5D9
102
{ACAD_REACTORS
330
C
102
}
330
C
100
AcDbXrecord
280
     1
  1
DWGPROPS COOKIE
  2

  3

  4

  6
File was created by TR2_DExp
  7

  8
fujino
  9

300
=
301
=
302
=
303
=
304
=
305
=
306
=
307
=
308
=
309
=
 40
0.0066668518518519
 41
2455188.75
 42
2459758.726970035
  1

 90
        0
  0
DICTIONARY
  5
298
102
{ACAD_REACTORS
330
297
102
}
330
297
100
AcDbDictionary
281
     1
  0
XRECORD
  5
581
102
{ACAD_REACTORS
330
580
102
}
330
580
100
AcDbXrecord
280
     1
290
     1
  0
XRECORD
  5
582
102
{ACAD_REACTORS
330
293
102
}
330
293
100
AcDbXrecord
280
     1
290
     1
  0
XRECORD
  5
583
102
{ACAD_REACTORS
330
295
102
}
330
295
100
AcDbXrecord
280
     1
290
     1
  0
SORTENTSTABLE
  5
3E2
102
{ACAD_REACTORS
330
3E1
102
}
330
3E1
100
AcDbSortentsTable
330
1F
331
404
  5
49A
331
400
  5
496
331
4E4
  5
3A7
331
3FC
  5
492
331
4A5
  5
3FD
331
3E6
  5
47C
331
4A1
  5
3F9
331
4E0
  5
3A3
331
3F8
  5
48E
331
4DC
  5
39F
331
4D8
  5
39B
331
435
  5
43A
331
474
  5
3CA
331
470
  5
475
331
431
  5
436
331
46C
  5
471
331
51F
  5
33C
331
55E
  5
37B
331
468
  5
46D
331
51B
  5
338
331
55A
  5
377
331
517
  5
334
331
556
  5
373
331
552
  5
36F
331
513
  5
330
331
3F4
  5
48A
331
3F0
  5
486
331
42F
  5
434
331
4D4
  5
397
331
3EC
  5
482
331
42B
  5
430
331
3BD
  5
4BE
331
4D0
  5
393
331
50F
  5
32C
331
3E8
  5
47E
331
3B9
  5
4BA
331
4CC
  5
38F
331
50B
  5
328
331
4C8
  5
38B
331
464
  5
469
331
460
  5
465
331
49F
  5
3F7
331
45C
  5
461
331
49B
  5
3F3
331
54E
  5
36B
331
458
  5
45D
331
54A
  5
367
331
546
  5
363
331
542
  5
35F
331
427
  5
42C
331
3DC
  5
4DD
331
423
  5
428
331
3D8
  5
4D9
331
41F
  5
424
331
507
  5
324
331
3B5
  5
4B6
331
56A
  5
56A
331
3B1
  5
4B2
331
4C4
  5
387
331
503
  5
3C6
331
3D4
  5
4D5
331
41B
  5
420
331
3AD
  5
4AE
331
4C0
  5
418
331
4FF
  5
3C2
331
3D0
  5
4D1
331
3A9
  5
4AA
331
4BC
  5
414
331
4FB
  5
3BE
331
4B8
  5
410
331
497
  5
3EF
331
493
  5
3EB
331
454
  5
459
331
48F
  5
3E7
331
450
  5
455
331
44C
  5
451
331
48B
  5
3E3
331
53E
  5
35B
331
448
  5
44D
331
53A
  5
357
331
536
  5
353
331
532
  5
34F
331
417
  5
41C
331
413
  5
4A9
331
3CC
  5
4CD
331
4F7
  5
3BA
331
3C8
  5
4C9
331
40F
  5
4A5
331
579
  5
579
331
4B4
  5
40C
331
4F3
  5
3B6
331
3C4
  5
4C5
331
40B
  5
4A1
331
4B0
  5
408
331
4EF
  5
3B2
331
3C0
  5
4C1
331
4AC
  5
404
331
4EB
  5
3AE
331
4A8
  5
400
331
487
  5
3DD
331
444
  5
449
331
483
  5
3D9
331
47F
  5
3D5
331
440
  5
445
331
43C
  5
441
331
47B
  5
3D1
331
575
  5
575
331
52E
  5
34B
331
438
  5
43D
331
52A
  5
347
331
565
  5
382
331
526
  5
343
331
561
  5
37E
331
522
  5
33F
331
407
  5
49D
331
403
  5
499
331
4E7
  5
3AA
331
3FF
  5
495
331
4A4
  5
3FC
331
4E3
  5
3A6
331
3FB
  5
491
331
3E5
  5
47B
331
4A0
  5
3F8
331
4DF
  5
3A2
331
4DB
  5
39E
331
477
  5
3CD
331
434
  5
439
331
473
  5
478
331
46F
  5
474
331
430
  5
435
331
46B
  5
470
331
51E
  5
33B
331
55D
  5
37A
331
51A
  5
337
331
559
  5
376
331
516
  5
333
331
555
  5
372
331
551
  5
36E
331
512
  5
32F
331
3F7
  5
48D
331
3F3
  5
489
331
4D7
  5
39A
331
3EF
  5
485
331
42E
  5
433
331
4D3
  5
396
331
3EB
  5
481
331
42A
  5
42F
331
3BC
  5
4BD
331
4CF
  5
392
331
50E
  5
32B
331
50A
  5
327
331
3B8
  5
4B9
331
4CB
  5
38E
331
467
  5
46C
331
463
  5
468
331
45F
  5
464
331
49E
  5
3F6
331
45B
  5
460
331
49A
  5
3F2
331
54D
  5
36A
331
549
  5
366
331
545
  5
362
331
541
  5
35E
331
426
  5
42B
331
3DF
  5
4E0
331
3DB
  5
4DC
331
422
  5
427
331
3D7
  5
4D8
331
41E
  5
423
331
506
  5
3C9
331
3B4
  5
4B5
331
4C7
  5
38A
331
569
  5
569
331
3B0
  5
4B1
331
4C3
  5
386
331
502
  5
3C5
331
3D3
  5
4D4
331
41A
  5
41F
331
3AC
  5
4AD
331
4BF
  5
417
331
4FE
  5
3C1
331
4BB
  5
413
331
4FA
  5
3BD
331
457
  5
45C
331
496
  5
3EE
331
492
  5
3EA
331
453
  5
458
331
44F
  5
454
331
48E
  5
3E6
331
44B
  5
450
331
48A
  5
3E0
331
53D
  5
35A
331
539
  5
356
331
535
  5
352
331
531
  5
34E
331
416
  5
41B
331
3CF
  5
4D0
331
3CB
  5
4CC
331
412
  5
4A8
331
4F6
  5
3B9
331
3C7
  5
4C8
331
40E
  5
4A4
331
4B7
  5
40F
331
578
  5
578
331
4B3
  5
40B
331
4F2
  5
3B5
331
3C3
  5
4C4
331
40A
  5
4A0
331
4AF
  5
407
331
4EE
  5
3B1
331
4AB
  5
403
331
4EA
  5
3AD
331
447
  5
44C
331
486
  5
3DC
331
482
  5
3D8
331
443
  5
448
331
47E
  5
3D4
331
43F
  5
444
331
43B
  5
440
331
47A
  5
3D0
331
574
  5
574
331
52D
  5
34A
331
529
  5
346
331
564
  5
381
331
525
  5
342
331
521
  5
33E
331
560
  5
37D
331
406
  5
49C
331
402
  5
498
331
4E6
  5
3A9
331
3FE
  5
494
331
4A7
  5
3FF
331
4A3
  5
3FB
331
4E2
  5
3A5
331
3FA
  5
490
331
3E4
  5
47A
331
4DE
  5
3A1
331
3E0
  5
4E1
331
4DA
  5
39D
331
437
  5
43C
331
476
  5
3CC
331
433
  5
438
331
472
  5
477
331
46E
  5
473
331
46A
  5
46F
331
51D
  5
33A
331
55C
  5
379
331
519
  5
336
331
558
  5
375
331
554
  5
371
331
515
  5
332
331
550
  5
36D
331
511
  5
32E
331
3F6
  5
48C
331
3F2
  5
488
331
4D6
  5
399
331
3EE
  5
484
331
42D
  5
432
331
3BF
  5
4C0
331
4D2
  5
395
331
3EA
  5
480
331
429
  5
42E
331
3BB
  5
4BC
331
4CE
  5
391
331
50D
  5
32A
331
509
  5
326
331
4CA
  5
38D
331
466
  5
46B
331
462
  5
467
331
45E
  5
463
331
49D
  5
3F5
331
45A
  5
45F
331
499
  5
3F1
331
54C
  5
369
331
548
  5
365
331
544
  5
361
331
540
  5
35D
331
425
  5
42A
331
3DE
  5
4DF
331
3DA
  5
4DB
331
421
  5
426
331
3B7
  5
4B8
331
3D6
  5
4D7
331
41D
  5
422
331
56C
  5
56C
331
4C6
  5
389
331
505
  5
3C8
331
3B3
  5
4B4
331
568
  5
568
331
3AF
  5
4B0
331
4C2
  5
385
331
501
  5
3C4
331
3D2
  5
4D3
331
419
  5
41E
331
3AB
  5
4AC
331
4BE
  5
416
331
4FD
  5
3C0
331
4F9
  5
3BC
331
4BA
  5
412
331
456
  5
45B
331
495
  5
3ED
331
491
  5
3E9
331
452
  5
457
331
44E
  5
453
331
48D
  5
3E5
331
44A
  5
44F
331
489
  5
3DF
331
53C
  5
359
331
538
  5
355
331
534
  5
351
331
530
  5
34D
331
415
  5
41A
331
3CE
  5
4CF
331
3CA
  5
4CB
331
411
  5
4A7
331
4F5
  5
3B8
331
3C6
  5
4C7
331
40D
  5
4A3
331
4B6
  5
40E
331
4B2
  5
40A
331
4F1
  5
3B4
331
3C2
  5
4C3
331
409
  5
49F
331
4AE
  5
406
331
4ED
  5
3B0
331
4AA
  5
402
331
4E9
  5
3AC
331
446
  5
44B
331
485
  5
3DB
331
481
  5
3D7
331
442
  5
447
331
43E
  5
443
331
47D
  5
3D3
331
577
  5
577
331
43A
  5
43F
331
479
  5
3CF
331
52C
  5
349
331
567
  5
567
331
528
  5
345
331
563
  5
380
331
524
  5
341
331
520
  5
33D
331
405
  5
49B
331
401
  5
497
331
4E5
  5
3A8
331
3FD
  5
493
331
4A6
  5
3FE
331
3E7
  5
47D
331
4A2
  5
3FA
331
4E1
  5
3A4
331
3F9
  5
48F
331
3E3
  5
479
331
4DD
  5
3A0
331
4D9
  5
39C
331
436
  5
43B
331
475
  5
3CB
331
471
  5
476
331
432
  5
437
331
46D
  5
472
331
55F
  5
37C
331
469
  5
46E
331
51C
  5
339
331
55B
  5
378
331
518
  5
335
331
557
  5
374
331
553
  5
370
331
514
  5
331
331
510
  5
32D
331
3F5
  5
48B
331
3F1
  5
487
331
4D5
  5
398
331
3ED
  5
483
331
42C
  5
431
331
428
  5
42D
331
3BE
  5
4BF
331
4D1
  5
394
331
3E9
  5
47F
331
3BA
  5
4BB
331
4CD
  5
390
331
50C
  5
329
331
508
  5
325
331
4C9
  5
38C
331
465
  5
46A
331
461
  5
466
331
45D
  5
462
331
49C
  5
3F4
331
54F
  5
36C
331
459
  5
45E
331
498
  5
3F0
331
54B
  5
368
331
547
  5
364
331
543
  5
360
331
424
  5
429
331
3DD
  5
4DE
331
3D9
  5
4DA
331
420
  5
425
331
3B6
  5
4B7
331
3D5
  5
4D6
331
41C
  5
421
331
56B
  5
56B
331
4C5
  5
388
331
504
  5
3C7
331
3B2
  5
4B3
331
3AE
  5
4AF
331
4C1
  5
384
331
500
  5
3C3
331
3D1
  5
4D2
331
418
  5
41D
331
3AA
  5
4AB
331
4BD
  5
415
331
4FC
  5
3BF
331
4F8
  5
3BB
331
4B9
  5
411
331
455
  5
45A
331
494
  5
3EC
331
490
  5
3E8
331
451
  5
456
331
44D
  5
452
331
48C
  5
3E4
331
53F
  5
35C
331
449
  5
44E
331
488
  5
3DE
331
53B
  5
358
331
537
  5
354
331
533
  5
350
331
414
  5
419
331
3CD
  5
4CE
331
3C9
  5
4CA
331
410
  5
4A6
331
4B5
  5
40D
331
4F4
  5
3B7
331
3C5
  5
4C6
331
40C
  5
4A2
331
4B1
  5
409
331
4F0
  5
3B3
331
3C1
  5
4C2
331
408
  5
49E
331
4AD
  5
405
331
4EC
  5
3AF
331
4E8
  5
3AB
331
4A9
  5
401
331
445
  5
44A
331
484
  5
3DA
331
480
  5
3D6
331
441
  5
446
331
43D
  5
442
331
47C
  5
3D2
331
576
  5
576
331
52F
  5
34C
331
439
  5
43E
331
478
  5
3CE
331
52B
  5
348
331
527
  5
344
331
566
  5
383
331
562
  5
37F
331
523
  5
340
  0
ACDBDETAILVIEWSTYLE
  5
28A
102
{ACAD_XDICTIONARY
360
611
102
}
102
{ACAD_REACTORS
330
289
102
}
330
289
100
AcDbModelDocViewStyle
 70
     0
  3
Metric50
290
     0
100
AcDbDetailViewStyle
 70
     0
 71
     0
 90
        3
 71
     1
340
11
 40
5.0
340
0
 40
5.0
300

 40
0.0
280
     1
 71
     2
340
16
 90
       25
 71
     3
340
11
 40
5.0
 90
        0
 40
15.0
 90
        1
300
%<\AcVar ViewDetailId>% (%<\AcVar ViewScale \f "%sn">%)
 71
     4
340
16
 90
       25
340
16
 90
       25
280
     0
  0
GROUP
  5
57A
102
{ACAD_REACTORS
330
D
102
}
330
D
100
AcDbGroup
300

 70
     1
 71
     1
340
56C
340
56B
340
473
340
472
340
471
340
470
340
46F
340
46E
340
46D
340
46C
340
46B
340
46A
340
469
340
468
340
467
340
466
340
465
340
464
340
463
340
462
340
461
340
460
340
45F
340
45E
340
45D
340
45C
340
45B
340
45A
340
459
340
458
340
457
340
456
340
455
340
454
340
453
340
452
340
451
340
450
340
44F
340
44E
340
44D
340
44C
340
44B
340
44A
340
449
340
448
340
447
340
446
340
445
340
444
340
443
340
442
340
441
340
440
340
43F
340
43E
340
43D
340
43C
340
43B
340
43A
340
439
340
438
340
437
340
436
340
435
340
434
340
433
340
432
340
431
340
430
340
42F
340
42E
340
42D
340
42C
340
42B
340
42A
340
429
340
428
340
427
340
426
340
425
340
424
340
423
340
422
340
421
340
420
340
41F
340
41E
340
41D
340
41C
340
41B
340
41A
340
419
340
418
340
417
340
416
340
415
340
414
  0
GROUP
  5
57B
102
{ACAD_REACTORS
330
D
102
}
330
D
100
AcDbGroup
300

 70
     1
 71
     1
340
575
340
574
340
4C0
340
4BF
340
4BE
340
4BD
340
4BC
340
4BB
340
4BA
340
4B9
340
4B8
340
4B7
340
4B6
340
4B5
340
4B4
340
4B3
340
4B2
340
4B1
340
4B0
340
4AF
340
4AE
340
4AD
340
4AC
340
4AB
340
4AA
340
4A9
340
4A8
340
4A7
340
4A6
340
4A5
340
4A4
340
4A3
340
4A2
340
4A1
340
4A0
340
49F
340
49E
340
49D
340
49C
340
49B
340
49A
340
499
340
498
340
497
340
496
340
495
340
494
340
493
340
492
340
491
340
490
340
48F
340
48E
340
48D
340
48C
340
48B
340
48A
340
489
340
488
340
487
340
486
340
485
340
484
340
483
340
482
340
481
340
480
340
47F
340
47E
340
47D
340
47C
340
47B
340
47A
340
479
340
478
340
477
340
476
340
475
340
474
  0
GROUP
  5
57C
102
{ACAD_REACTORS
330
D
102
}
330
D
100
AcDbGroup
300

 70
     1
 71
     1
340
577
340
576
340
566
340
565
340
564
340
563
340
562
340
561
340
560
340
55F
340
55E
340
55D
340
55C
340
55B
340
55A
340
559
340
558
340
557
340
556
340
555
340
554
340
553
340
552
340
551
340
550
340
54F
340
54E
340
54D
340
54C
340
54B
340
54A
340
549
340
548
340
547
340
546
340
545
340
544
340
543
340
542
340
541
340
540
340
53F
340
53E
340
53D
340
53C
340
53B
340
53A
340
539
340
538
340
537
340
536
340
535
340
534
340
533
340
532
340
531
340
530
340
52F
340
52E
340
52D
340
52C
340
52B
340
52A
340
529
340
528
340
527
340
526
340
525
340
524
340
523
340
522
340
521
340
520
340
51F
340
51E
340
51D
340
51C
340
51B
340
51A
340
519
340
518
340
517
340
516
340
515
340
514
340
513
340
512
340
511
340
510
340
50F
340
50E
340
50D
340
50C
340
50B
340
50A
340
509
340
508
340
507
  0
GROUP
  5
57D
102
{ACAD_REACTORS
330
D
102
}
330
D
100
AcDbGroup
300

 70
     1
 71
     1
340
579
340
578
340
506
340
505
340
504
340
503
340
502
340
501
340
500
340
4FF
340
4FE
340
4FD
340
4FC
340
4FB
340
4FA
340
4F9
340
4F8
340
4F7
340
4F6
340
4F5
340
4F4
340
4F3
340
4F2
340
4F1
340
4F0
340
4EF
340
4EE
340
4ED
340
4EC
340
4EB
340
4EA
340
4E9
340
4E8
340
4E7
340
4E6
340
4E5
340
4E4
340
4E3
340
4E2
340
4E1
340
4E0
340
4DF
340
4DE
340
4DD
340
4DC
340
4DB
340
4DA
340
4D9
340
4D8
340
4D7
340
4D6
340
4D5
340
4D4
340
4D3
340
4D2
340
4D1
340
4D0
340
4CF
340
4CE
340
4CD
340
4CC
340
4CB
340
4CA
340
4C9
340
4C8
340
4C7
340
4C6
340
4C5
340
4C4
340
4C3
340
4C2
340
4C1
  0
GROUP
  5
57E
102
{ACAD_REACTORS
330
D
102
}
330
D
100
AcDbGroup
300

 70
     1
 71
     1
340
56A
340
569
340
3E0
340
3DF
340
3DE
340
3DD
340
3DC
340
3DB
340
3DA
340
3D9
340
3D8
340
3D7
340
3D6
340
3D5
340
3D4
340
3D3
340
3D2
340
3D1
340
3D0
340
3CF
340
3CE
340
3CD
340
3CC
340
3CB
340
3CA
340
3C9
340
3C8
340
3C7
340
3C6
340
3C5
340
3C4
340
3C3
340
3C2
340
3C1
340
3C0
340
3BF
340
3BE
340
3BD
340
3BC
340
3BB
340
3BA
340
3B9
340
3B8
340
3B7
340
3B6
340
3B5
340
3B4
340
3B3
340
3B2
340
3B1
340
3B0
340
3AF
340
3AE
340
3AD
340
3AC
340
3AB
340
3AA
340
3A9
  0
GROUP
  5
57F
102
{ACAD_REACTORS
330
D
102
}
330
D
100
AcDbGroup
300

 70
     1
 71
     1
340
568
340
567
340
413
340
412
340
411
340
410
340
40F
340
40E
340
40D
340
40C
340
40B
340
40A
340
409
340
408
340
407
340
406
340
405
340
404
340
403
340
402
340
401
340
400
340
3FF
340
3FE
340
3FD
340
3FC
340
3FB
340
3FA
340
3F9
340
3F8
340
3F7
340
3F6
340
3F5
340
3F4
340
3F3
340
3F2
340
3F1
340
3F0
340
3EF
340
3EE
340
3ED
340
3EC
340
3EB
340
3EA
340
3E9
340
3E8
340
3E7
340
3E6
340
3E5
340
3E4
340
3E3
  0
LAYOUT
  5
1E
102
{ACAD_XDICTIONARY
360
5DA
102
}
102
{ACAD_REACTORS
330
1A
102
}
330
1A
100
AcDbPlotSettings
  1

  2
none_device
  4

  6

 40
0.0
 41
0.0
 42
0.0
 43
0.0
 44
0.0
 45
0.0
 46
0.0
 47
0.0
 48
0.0
 49
0.0
140
0.0
141
0.0
142
1.0
143
1.0
 70
   688
 72
     1
 73
     0
 74
     5
  7

 75
    16
147
1.0
148
0.0
149
0.0
100
AcDbLayout
  1
Layout1
 70
     1
 71
     1
 10
0.0
 20
0.0
 11
420.0
 21
297.0
 12
0.0
 22
0.0
 32
0.0
 14
1.000000000000000E+20
 24
1.000000000000000E+20
 34
1.000000000000000E+20
 15
-1.000000000000000E+20
 25
-1.000000000000000E+20
 35
-1.000000000000000E+20
146
0.0
 13
0.0
 23
0.0
 33
0.0
 16
1.0
 26
0.0
 36
0.0
 17
0.0
 27
1.0
 37
0.0
 76
     0
330
1B
  0
LAYOUT
  5
22
102
{ACAD_XDICTIONARY
360
5DC
102
}
102
{ACAD_REACTORS
330
1A
102
}
330
1A
100
AcDbPlotSettings
  1

  2
none_device
  4
Letter_(8.50_x_11.00_Inches)
  6

 40
6.349999999999998
 41
6.349999999999998
 42
6.350005079999998
 43
6.350005079999998
 44
215.9
 45
279.4
 46
0.0
 47
0.0
 48
0.0
 49
0.0
140
0.0
141
0.0
142
1.0
143
1.0
 70
  1712
 72
     1
 73
     0
 74
     0
  7

 75
     0
147
1.0
148
0.0
149
0.0
100
AcDbLayout
  1
Model
 70
     1
 71
     0
 10
-344.6694488525389
 20
-490.7445983886717
 11
968.3167266845703
 21
645.5461730957027
 12
0.0
 22
0.0
 32
0.0
 14
-344.6694488525389
 24
-490.7445983886717
 34
0.0
 15
968.3167266845703
 25
645.5461730957027
 35
0.0
146
0.0
 13
0.0
 23
0.0
 33
0.0
 16
1.0
 26
0.0
 36
0.0
 17
0.0
 27
1.0
 37
0.0
 76
     0
330
1F
331
29
  0
LAYOUT
  5
28B
102
{ACAD_XDICTIONARY
360
613
102
}
102
{ACAD_REACTORS
330
1A
102
}
330
1A
100
AcDbPlotSettings
  1

  2
青梅 FX DocuCentre-V C2275 T2
  4

  6

 40
0.0
 41
0.0
 42
0.0
 43
0.0
 44
0.0
 45
0.0
 46
0.0
 47
0.0
 48
0.0
 49
0.0
140
0.0
141
0.0
142
1.0
143
1.0
 70
   688
 72
     0
 73
     0
 74
     5
  7
AutoCAD_PEN.ctb
 75
    16
147
1.0
148
0.0
149
0.0
100
AcDbLayout
  1
レイアウト1
 70
     1
 71
     2
 10
0.0
 20
0.0
 11
12.0
 21
9.0
 12
0.0
 22
0.0
 32
0.0
 14
0.0
 24
0.0
 34
0.0
 15
0.0
 25
0.0
 35
0.0
146
0.0
 13
0.0
 23
0.0
 33
0.0
 16
1.0
 26
0.0
 36
0.0
 17
0.0
 27
1.0
 37
0.0
 76
     0
330
23
  0
MATERIAL
  5
45
102
{ACAD_XDICTIONARY
360
27D
102
}
102
{ACAD_REACTORS
330
43
102
}
330
43
100
AcDbMaterial
  1
ByBlock
  0
MATERIAL
  5
44
102
{ACAD_XDICTIONARY
360
27B
102
}
102
{ACAD_REACTORS
330
43
102
}
330
43
100
AcDbMaterial
  1
ByLayer
  0
MATERIAL
  5
46
102
{ACAD_XDICTIONARY
360
27F
102
}
102
{ACAD_REACTORS
330
43
102
}
330
43
100
AcDbMaterial
  1
Global
  0
MLEADERSTYLE
  5
5C
102
{ACAD_REACTORS
330
5B
102
}
330
5B
100
AcDbMLeaderStyle
170
     2
171
     1
172
     0
 90
        2
 40
0.0
 41
0.0
173
     1
 91
-1056964608
340
14
 92
       -2
290
     1
 42
2.0
291
     1
 43
8.0
  3
Standard
 44
4.0
300

342
11
174
     1
178
     6
175
     1
176
     0
 93
-1056964608
 45
4.0
292
     0
297
     0
 46
4.0
 94
-1056964608
 47
1.0
 49
1.0
140
1.0
293
     1
141
0.0
294
     1
177
     0
142
1.0
295
     0
296
     0
143
3.75
1001
ACAD_MLEADERVER
1070
     2
  0
MLINESTYLE
  5
18
102
{ACAD_REACTORS
330
17
102
}
330
17
100
AcDbMlineStyle
  2
STANDARD
 70
     0
  3

 62
   256
 51
90.0
 52
90.0
 71
     2
 49
0.5
 62
   256
  6
BYLAYER
 49
-0.5
 62
   256
  6
BYLAYER
  0
ACDBPLACEHOLDER
  5
F
102
{ACAD_REACTORS
330
E
102
}
330
E
  0
SCALE
  5
48
102
{ACAD_REACTORS
330
47
102
}
330
47
100
AcDbScale
 70
     0
300
1:1
140
1.0
141
1.0
290
     1
  0
SCALE
  5
49
102
{ACAD_REACTORS
330
47
102
}
330
47
100
AcDbScale
 70
     0
300
1:2
140
1.0
141
2.0
290
     0
  0
SCALE
  5
4A
102
{ACAD_REACTORS
330
47
102
}
330
47
100
AcDbScale
 70
     0
300
1:4
140
1.0
141
4.0
290
     0
  0
SCALE
  5
4B
102
{ACAD_REACTORS
330
47
102
}
330
47
100
AcDbScale
 70
     0
300
1:5
140
1.0
141
5.0
290
     0
  0
SCALE
  5
4C
102
{ACAD_REACTORS
330
47
102
}
330
47
100
AcDbScale
 70
     0
300
1:8
140
1.0
141
8.0
290
     0
  0
SCALE
  5
4D
102
{ACAD_REACTORS
330
47
102
}
330
47
100
AcDbScale
 70
     0
300
1:10
140
1.0
141
10.0
290
     0
  0
SCALE
  5
4E
102
{ACAD_REACTORS
330
47
102
}
330
47
100
AcDbScale
 70
     0
300
1:16
140
1.0
141
16.0
290
     0
  0
SCALE
  5
4F
102
{ACAD_REACTORS
330
47
102
}
330
47
100
AcDbScale
 70
     0
300
1:20
140
1.0
141
20.0
290
     0
  0
SCALE
  5
50
102
{ACAD_REACTORS
330
47
102
}
330
47
100
AcDbScale
 70
     0
300
1:30
140
1.0
141
30.0
290
     0
  0
SCALE
  5
51
102
{ACAD_REACTORS
330
47
102
}
330
47
100
AcDbScale
 70
     0
300
1:40
140
1.0
141
40.0
290
     0
  0
SCALE
  5
52
102
{ACAD_REACTORS
330
47
102
}
330
47
100
AcDbScale
 70
     0
300
1:50
140
1.0
141
50.0
290
     0
  0
SCALE
  5
53
102
{ACAD_REACTORS
330
47
102
}
330
47
100
AcDbScale
 70
     0
300
1:100
140
1.0
141
100.0
290
     0
  0
SCALE
  5
54
102
{ACAD_REACTORS
330
47
102
}
330
47
100
AcDbScale
 70
     0
300
2:1
140
2.0
141
1.0
290
     0
  0
SCALE
  5
55
102
{ACAD_REACTORS
330
47
102
}
330
47
100
AcDbScale
 70
     0
300
4:1
140
4.0
141
1.0
290
     0
  0
SCALE
  5
56
102
{ACAD_REACTORS
330
47
102
}
330
47
100
AcDbScale
 70
     0
300
8:1
140
8.0
141
1.0
290
     0
  0
SCALE
  5
57
102
{ACAD_REACTORS
330
47
102
}
330
47
100
AcDbScale
 70
     0
300
10:1
140
10.0
141
1.0
290
     0
  0
SCALE
  5
58
102
{ACAD_REACTORS
330
47
102
}
330
47
100
AcDbScale
 70
     0
300
100:1
140
100.0
141
1.0
290
     0
  0
ACDBSECTIONVIEWSTYLE
  5
288
102
{ACAD_XDICTIONARY
360
60F
102
}
102
{ACAD_REACTORS
330
287
102
}
330
287
100
AcDbModelDocViewStyle
 70
     0
  3
Metric50
290
     0
100
AcDbSectionViewStyle
 70
     0
 71
     0
 90
      102
 71
     1
340
11
 40
5.0
340
0
340
0
 40
5.0
300
I, O, Q, S, X, Z
 40
10.0
 90
        0
 40
2.5
 90
        0
 71
     2
340
16
 90
       25
340
16
 90
       50
 40
5.0
 40
2.5
 40
5.0
 71
     3
340
11
 40
5.0
 90
        0
 40
15.0
 90
        1
300
%<\AcVar ViewSectionStartId>%-%<\AcVar ViewSectionEndId>% (%<\AcVar ViewScale \f "%sn">%)
 71
     4
300
ANSI31
 40
1.0
 90
        0
290
     0
290
     0
 90
        6
 40
0.0
 40
1.570796326794896
 40
0.2617993877991494
 40
1.308996938995747
 40
-0.2617993877991494
 40
1.832595714594045
  0
TABLESTYLE
  5
5A
102
{ACAD_XDICTIONARY
360
589
102
}
102
{ACAD_REACTORS
330
59
102
}
330
59
100
AcDbTableStyle
  3
Standard
 70
     0
 71
     0
 40
1.5
 41
1.5
280
     0
281
     0
  7
Standard
140
4.5
170
     2
 62
     0
 63
     7
283
     0
274
    -2
284
     1
 64
     0
275
    -2
285
     1
 65
     0
276
    -2
286
     1
 66
     0
277
    -2
287
     1
 67
     0
278
    -2
288
     1
 68
     0
279
    -2
289
     1
 69
     0
  7
Standard
140
6.0
170
     5
 62
     0
 63
     7
283
     0
274
    -2
284
     1
 64
     0
275
    -2
285
     1
 65
     0
276
    -2
286
     1
 66
     0
277
    -2
287
     1
 67
     0
278
    -2
288
     1
 68
     0
279
    -2
289
     1
 69
     0
  7
Standard
140
4.5
170
     5
 62
     0
 63
     7
283
     0
274
    -2
284
     1
 64
     0
275
    -2
285
     1
 65
     0
276
    -2
286
     1
 66
     0
277
    -2
287
     1
 67
     0
278
    -2
288
     1
 68
     0
279
    -2
289
     1
 69
     0
  0
VISUALSTYLE
  5
2F
102
{ACAD_XDICTIONARY
360
5E6
102
}
102
{ACAD_REACTORS
330
2A
102
}
330
2A
100
AcDbVisualStyle
  2

 70
     4
 71
     0
 72
     2
 73
     0
 90
        0
 40
-0.6
 41
-30.0
 62
     5
 63
     7
 74
     1
 91
        4
 64
     7
 65
   257
 75
     1
175
     1
 42
1.0
 92
        0
 66
   257
 43
1.0
 76
     1
 77
     6
 78
     2
 67
     7
 79
     5
170
     0
171
     0
290
     0
174
     0
 93
        1
 44
0.0
173
     0
291
     0
 45
0.0
1001
ACAD
1000
AcDbSavedByObjectVersion
1070
     0
  0
VISUALSTYLE
  5
32
102
{ACAD_XDICTIONARY
360
5EC
102
}
102
{ACAD_REACTORS
330
2A
102
}
330
2A
100
AcDbVisualStyle
  2

 70
     7
 71
     1
 72
     0
 73
     1
 90
        0
 40
-0.6
 41
-30.0
 62
     5
 63
     7
 74
     0
 91
        4
 64
     7
 65
   257
 75
     1
175
     1
 42
1.0
 92
        8
 66
     7
 43
1.0
 76
     1
 77
     6
 78
     2
 67
     7
 79
     5
170
     0
171
     0
290
     0
174
     0
 93
        1
 44
0.0
173
     0
291
     1
 45
0.0
1001
ACAD
1000
AcDbSavedByObjectVersion
1070
     0
  0
VISUALSTYLE
  5
36
102
{ACAD_XDICTIONARY
360
5F4
102
}
102
{ACAD_REACTORS
330
2A
102
}
330
2A
100
AcDbVisualStyle
  2

 70
    12
 71
     2
 72
     2
 73
     0
 90
        0
 40
-0.6
 41
-30.0
 62
     5
 63
     7
 74
     1
 91
        4
 64
     7
 65
   257
 75
     1
175
     1
 42
1.0
 92
        8
 66
     7
 43
1.0
 76
     1
 77
     6
 78
     2
 67
     7
 79
     5
170
     0
171
     0
290
     0
174
     0
 93
        1
 44
50.0
173
     0
291
     1
 45
0.0
1001
ACAD
1000
AcDbSavedByObjectVersion
1070
     0
  0
VISUALSTYLE
  5
3A
102
{ACAD_XDICTIONARY
360
5FC
102
}
102
{ACAD_REACTORS
330
2A
102
}
330
2A
100
AcDbVisualStyle
  2

 70
    16
 71
     2
 72
     2
 73
     3
 90
        0
 40
-0.6
 41
-30.0
 62
     5
 63
     8
 74
     1
 91
        4
 64
     7
 65
   257
 75
     1
175
     1
 42
1.0
 92
        8
 66
     8
 43
1.0
 76
     1
 77
     6
 78
     2
 67
     7
 79
     5
170
     0
171
     0
290
     0
174
     0
 93
        1
 44
0.0
173
     0
291
     1
 45
0.0
1001
ACAD
1000
AcDbSavedByObjectVersion
1070
     0
  0
VISUALSTYLE
  5
34
102
{ACAD_XDICTIONARY
360
5F0
102
}
102
{ACAD_REACTORS
330
2A
102
}
330
2A
100
AcDbVisualStyle
  2

 70
     9
 71
     3
 72
     2
 73
     0
 90
        0
 40
-0.6
 41
-30.0
 62
     5
 63
     7
 74
     2
 91
        2
 64
     7
 65
   257
 75
     1
175
     1
 42
179.0
 92
        8
 66
     7
 43
1.0
 76
     1
 77
     6
 78
     2
 67
     7
 79
     3
170
     0
171
     0
290
     0
174
     0
 93
        1
 44
0.0
173
     0
291
     0
 45
0.0
1001
ACAD
1000
AcDbSavedByObjectVersion
1070
     0
  0
VISUALSTYLE
  5
35
102
{ACAD_XDICTIONARY
360
5F2
102
}
102
{ACAD_REACTORS
330
2A
102
}
330
2A
100
AcDbVisualStyle
  2

 70
    11
 71
     2
 72
     2
 73
     0
 90
        0
 40
-0.6
 41
-30.0
 62
     5
 63
     7
 74
     1
 91
        4
 64
     7
 65
   257
 75
     1
175
     1
 42
1.0
 92
        8
 66
     7
 43
1.0
 76
     1
 77
     6
 78
     2
 67
     7
 79
     5
170
     0
171
     0
290
     0
174
     0
 93
        1
 44
-50.0
173
     0
291
     1
 45
0.0
1001
ACAD
1000
AcDbSavedByObjectVersion
1070
     0
  0
VISUALSTYLE
  5
3D
102
{ACAD_XDICTIONARY
360
602
102
}
102
{ACAD_REACTORS
330
2A
102
}
330
2A
100
AcDbVisualStyle
  2

 70
    22
 71
     2
 72
     2
 73
     0
 90
        0
 40
-0.6
 41
-30.0
 62
     5
 63
     7
 74
     1
 91
        4
 64
     7
 65
   257
 75
     1
175
     1
 42
1.0
 92
        8
 66
     7
 43
1.0
 76
     1
 77
     6
 78
     2
 67
     7
 79
     5
170
     0
171
     0
290
     0
174
     0
 93
        1
 44
0.0
173
     0
291
     1
 45
0.0
1001
ACAD
1000
AcDbSavedByObjectVersion
1070
     0
  0
VISUALSTYLE
  5
39
102
{ACAD_XDICTIONARY
360
5FA
102
}
102
{ACAD_REACTORS
330
2A
102
}
330
2A
100
AcDbVisualStyle
  2

 70
    15
 71
     2
 72
     2
 73
     0
 90
        0
 40
-0.6
 41
-30.0
 62
     5
 63
     7
 74
     1
 91
        4
 64
     7
 65
   257
 75
     1
175
     1
 42
1.0
 92
        8
 66
     7
 43
1.0
 76
     1
 77
     6
 78
     2
 67
     7
 79
     5
170
     0
171
     0
290
     0
174
     0
 93
        1
 44
0.0
173
     0
291
     1
 45
0.0
1001
ACAD
1000
AcDbSavedByObjectVersion
1070
     0
  0
VISUALSTYLE
  5
2B
102
{ACAD_XDICTIONARY
360
5DE
102
}
102
{ACAD_REACTORS
330
2A
102
}
330
2A
100
AcDbVisualStyle
  2

 70
     0
 71
     2
 72
     1
 73
     1
 90
        2
 40
-0.6
 41
30.0
 62
     5
 63
     7
 74
     0
 91
        0
 64
     7
 65
   257
 75
     1
175
     1
 42
1.0
 92
        8
 66
     7
 43
1.0
 76
     1
 77
     6
 78
     2
 67
     7
 79
     5
170
     0
171
     0
290
     0
174
     0
 93
       13
 44
0.0
173
     0
291
     1
 45
0.0
1001
ACAD
1000
AcDbSavedByObjectVersion
1070
     0
  0
VISUALSTYLE
  5
2C
102
{ACAD_XDICTIONARY
360
5E0
102
}
102
{ACAD_REACTORS
330
2A
102
}
330
2A
100
AcDbVisualStyle
  2

 70
     1
 71
     2
 72
     1
 73
     1
 90
        2
 40
-0.6
 41
30.0
 62
     5
 63
     7
 74
     1
 91
        0
 64
     7
 65
   257
 75
     1
175
     1
 42
1.0
 92
        0
 66
   257
 43
1.0
 76
     1
 77
     6
 78
     2
 67
     7
 79
     5
170
     0
171
     0
290
     0
174
     0
 93
       13
 44
0.0
173
     0
291
     1
 45
0.0
1001
ACAD
1000
AcDbSavedByObjectVersion
1070
     0
  0
VISUALSTYLE
  5
2D
102
{ACAD_XDICTIONARY
360
5E2
102
}
102
{ACAD_REACTORS
330
2A
102
}
330
2A
100
AcDbVisualStyle
  2

 70
     2
 71
     2
 72
     2
 73
     1
 90
        2
 40
-0.6
 41
30.0
 62
     5
 63
     7
 74
     0
 91
        0
 64
     7
 65
   257
 75
     1
175
     1
 42
1.0
 92
        0
 66
     7
 43
1.0
 76
     1
 77
     6
 78
     2
 67
     7
 79
     5
170
     0
171
     0
290
     0
174
     0
 93
       13
 44
0.0
173
     0
291
     1
 45
0.0
1001
ACAD
1000
AcDbSavedByObjectVersion
1070
     0
  0
VISUALSTYLE
  5
2E
102
{ACAD_XDICTIONARY
360
5E4
102
}
102
{ACAD_REACTORS
330
2A
102
}
330
2A
100
AcDbVisualStyle
  2

 70
     3
 71
     2
 72
     2
 73
     1
 90
        2
 40
-0.6
 41
30.0
 62
     5
 63
     7
 74
     1
 91
        0
 64
     7
 65
   257
 75
     1
175
     1
 42
1.0
 92
        0
 66
   257
 43
1.0
 76
     1
 77
     6
 78
     2
 67
     7
 79
     5
170
     0
171
     0
290
     0
174
     0
 93
       13
 44
0.0
173
     0
291
     1
 45
0.0
1001
ACAD
1000
AcDbSavedByObjectVersion
1070
     0
  0
VISUALSTYLE
  5
31
102
{ACAD_XDICTIONARY
360
5EA
102
}
102
{ACAD_REACTORS
330
2A
102
}
330
2A
100
AcDbVisualStyle
  2

 70
     6
 71
     1
 72
     2
 73
     2
 90
        0
 40
-0.6
 41
-30.0
 62
     5
 63
     7
 74
     2
 91
        2
 64
     7
 65
   257
 75
     2
175
     1
 42
40.0
 92
        0
 66
   257
 43
1.0
 76
     1
 77
     6
 78
     2
 67
     7
 79
     3
170
     0
171
     0
290
     0
174
     0
 93
        1
 44
0.0
173
     0
291
     0
 45
0.0
1001
ACAD
1000
AcDbSavedByObjectVersion
1070
     0
  0
VISUALSTYLE
  5
3B
102
{ACAD_XDICTIONARY
360
5FE
102
}
102
{ACAD_REACTORS
330
2A
102
}
330
2A
100
AcDbVisualStyle
  2

 70
    20
 71
     2
 72
     2
 73
     0
 90
        0
 40
-0.6
 41
-30.0
 62
     5
 63
     7
 74
     1
 91
        4
 64
     7
 65
   257
 75
     1
175
     1
 42
1.0
 92
       10
 66
     7
 43
1.0
 76
     1
 77
     6
 78
     2
 67
     7
 79
     5
170
     0
171
     0
290
     0
174
     0
 93
        1
 44
0.0
173
     0
291
     1
 45
0.0
1001
ACAD
1000
AcDbSavedByObjectVersion
1070
     0
  0
VISUALSTYLE
  5
38
102
{ACAD_XDICTIONARY
360
5F8
102
}
102
{ACAD_REACTORS
330
2A
102
}
330
2A
100
AcDbVisualStyle
  2

 70
    14
 71
     2
 72
     2
 73
     0
 90
        0
 40
-0.6
 41
-30.0
 62
     5
 63
     7
 74
     1
 91
        4
 64
     7
 65
   257
 75
     7
175
     7
 42
1.0
 92
        8
 66
     7
 43
1.0
 76
     1
 77
     6
 78
     2
 67
     7
 79
     5
170
     0
171
     0
290
     0
174
     0
 93
        1
 44
0.0
173
     0
291
     1
 45
0.0
1001
ACAD
1000
AcDbSavedByObjectVersion
1070
     0
  0
VISUALSTYLE
  5
3C
102
{ACAD_XDICTIONARY
360
600
102
}
102
{ACAD_REACTORS
330
2A
102
}
330
2A
100
AcDbVisualStyle
  2

 70
    21
 71
     2
 72
     2
 73
     0
 90
        0
 40
-0.6
 41
-30.0
 62
     5
 63
     7
 74
     1
 91
        4
 64
     7
 65
   257
 75
     1
175
     1
 42
1.0
 92
        9
 66
     7
 43
1.0
 76
     1
 77
     6
 78
     2
 67
     7
 79
     5
170
     0
171
     0
290
     0
174
     0
 93
        1
 44
0.0
173
     0
291
     1
 45
0.0
1001
ACAD
1000
AcDbSavedByObjectVersion
1070
     0
  0
VISUALSTYLE
  5
33
102
{ACAD_XDICTIONARY
360
5EE
102
}
102
{ACAD_REACTORS
330
2A
102
}
330
2A
100
AcDbVisualStyle
  2

 70
     8
 71
     2
 72
     3
 73
     0
 90
        2
 40
-0.6
 41
30.0
 62
     5
 63
     7
 74
     0
 91
        0
 64
     7
 65
   257
 75
     1
175
     1
 42
1.0
 92
        8
 66
   257
 43
1.0
 76
     1
 77
     6
 78
     2
 67
     7
 79
     3
170
     0
171
     0
290
     0
174
     0
 93
       13
 44
0.0
173
     0
291
     0
 45
0.0
1001
ACAD
1000
AcDbSavedByObjectVersion
1070
     0
  0
VISUALSTYLE
  5
42
102
{ACAD_XDICTIONARY
360
60C
102
}
102
{ACAD_REACTORS
330
2A
102
}
330
2A
100
AcDbVisualStyle
  2

 70
    27
 71
     2
 72
     2
 73
     1
 90
        2
 40
-0.6
 41
30.0
 62
     5
 63
     7
 74
     0
 91
        4
 64
     7
 65
   257
 75
     1
175
     1
 42
1.0
 92
        8
 66
   257
 43
1.0
 76
     1
 77
     6
 78
     2
 67
     8
 79
     3
170
     0
171
     0
290
     0
174
     0
 93
        5
 44
0.0
173
     0
291
     0
 45
0.0
1001
ACAD
1000
AcDbSavedByObjectVersion
1070
     0
  0
VISUALSTYLE
  5
41
102
{ACAD_XDICTIONARY
360
60A
102
}
102
{ACAD_REACTORS
330
2A
102
}
330
2A
100
AcDbVisualStyle
  2

 70
    26
 71
     2
 72
     2
 73
     1
 90
        2
 40
-0.6
 41
30.0
 62
     5
 63
     7
 74
     1
 91
       10
 64
     7
 65
   257
 75
     2
175
     1
 42
1.0
 92
        8
 66
   257
 43
1.0
 76
     1
 77
     6
 78
     2
 67
     7
 79
     3
170
     0
171
     0
290
     0
174
     0
 93
        5
 44
0.0
173
     0
291
     0
 45
0.0
1001
ACAD
1000
AcDbSavedByObjectVersion
1070
     0
  0
VISUALSTYLE
  5
3E
102
{ACAD_XDICTIONARY
360
604
102
}
102
{ACAD_REACTORS
330
2A
102
}
330
2A
100
AcDbVisualStyle
  2

 70
    23
 71
     2
 72
     2
 73
     3
 90
        0
 40
-0.6
 41
-30.0
 62
     5
 63
     7
 74
     2
 91
        2
 64
     7
 65
     7
 75
     1
175
     1
 42
40.0
 92
        8
 66
     7
 43
1.0
 76
     1
 77
     6
 78
     2
 67
     7
 79
     3
170
     0
171
     0
290
     0
174
     0
 93
        1
 44
0.0
173
     0
291
     0
 45
0.0
1001
ACAD
1000
AcDbSavedByObjectVersion
1070
     0
  0
VISUALSTYLE
  5
3F
102
{ACAD_XDICTIONARY
360
606
102
}
102
{ACAD_REACTORS
330
2A
102
}
330
2A
100
AcDbVisualStyle
  2

 70
    24
 71
     1
 72
     2
 73
     2
 90
        0
 40
-0.6
 41
-30.0
 62
     5
 63
     7
 74
     2
 91
        2
 64
     7
 65
     7
 75
     1
175
     1
 42
40.0
 92
       11
 66
     7
 43
1.0
 76
     1
 77
     6
 78
     2
 67
     7
 79
     6
170
     0
171
     0
290
     0
174
     0
 93
        1
 44
0.0
173
     0
291
     0
 45
0.0
1001
ACAD
1000
AcDbSavedByObjectVersion
1070
     0
  0
VISUALSTYLE
  5
37
102
{ACAD_XDICTIONARY
360
5F6
102
}
102
{ACAD_REACTORS
330
2A
102
}
330
2A
100
AcDbVisualStyle
  2

 70
    13
 71
     2
 72
     2
 73
     0
 90
        0
 40
-0.6
 41
-30.0
 62
     5
 63
     7
 74
     1
 91
        4
 64
     7
 65
   257
 75
     1
175
     1
 42
1.0
 92
       12
 66
     7
 43
1.0
 76
     1
 77
     6
 78
     2
 67
     7
 79
     5
170
     0
171
     0
290
     0
174
     0
 93
        1
 44
0.0
173
     0
291
     1
 45
0.0
1001
ACAD
1000
AcDbSavedByObjectVersion
1070
     0
  0
VISUALSTYLE
  5
30
102
{ACAD_XDICTIONARY
360
5E8
102
}
102
{ACAD_REACTORS
330
2A
102
}
330
2A
100
AcDbVisualStyle
  2

 70
     5
 71
     0
 72
     2
 73
     0
 90
        0
 40
-0.6
 41
-30.0
 62
     5
 63
     7
 74
     1
 91
        4
 64
     7
 65
   257
 75
     1
175
     1
 42
1.0
 92
        0
 66
   257
 43
1.0
 76
     1
 77
     6
 78
     2
 67
     7
 79
     3
170
     0
171
     0
290
     0
174
     0
 93
        1
 44
0.0
173
     0
291
     0
 45
0.0
1001
ACAD
1000
AcDbSavedByObjectVersion
1070
     0
  0
VISUALSTYLE
  5
40
102
{ACAD_XDICTIONARY
360
608
102
}
102
{ACAD_REACTORS
330
2A
102
}
330
2A
100
AcDbVisualStyle
  2

 70
    25
 71
     2
 72
     2
 73
     1
 90
        1
 40
0.5
 41
-30.0
 62
     5
 63
     7
 74
     1
 91
        0
 64
     7
 65
   257
 75
     1
175
     1
 42
1.0
 92
        8
 66
     7
 43
1.0
 76
     1
 77
     6
 78
     2
 67
     7
 79
     3
170
     0
171
     0
290
     0
174
     0
 93
       13
 44
0.0
173
     0
291
     0
 45
0.0
1001
ACAD
1000
AcDbSavedByObjectVersion
1070
     0
  0
DICTIONARYVAR
  5
249
102
{ACAD_REACTORS
330
23B
102
}
330
23B
100
DictionaryVariables
280
     0
  1
1:1
  0
DICTIONARYVAR
  5
242
102
{ACAD_REACTORS
330
23B
102
}
330
23B
100
DictionaryVariables
280
     0
  1
3.500000
  0
DICTIONARYVAR
  5
243
102
{ACAD_REACTORS
330
23B
102
}
330
23B
100
DictionaryVariables
280
     0
  1
acadiso.lin
  0
DICTIONARYVAR
  5
23D
102
{ACAD_REACTORS
330
23B
102
}
330
23B
100
DictionaryVariables
280
     0
  1
STANDARD
  0
DICTIONARYVAR
  5
23C
102
{ACAD_REACTORS
330
23B
102
}
330
23B
100
DictionaryVariables
280
     0
  1
STANDARD
  0
DICTIONARYVAR
  5
584
102
{ACAD_REACTORS
330
23B
102
}
330
23B
100
DictionaryVariables
280
     0
  1
Metric50
  0
DICTIONARYVAR
  5
585
102
{ACAD_REACTORS
330
23B
102
}
330
23B
100
DictionaryVariables
280
     0
  1
Metric50
  0
DICTIONARYVAR
  5
244
102
{ACAD_REACTORS
330
23B
102
}
330
23B
100
DictionaryVariables
280
     0
  1
2
  0
DICTIONARYVAR
  5
245
102
{ACAD_REACTORS
330
23B
102
}
330
23B
100
DictionaryVariables
280
     0
  1
1
  0
DICTIONARYVAR
  5
5D0
102
{ACAD_REACTORS
330
23B
102
}
330
23B
100
DictionaryVariables
280
     0
  1
0
  0
DICTIONARYVAR
  5
587
102
{ACAD_REACTORS
330
23B
102
}
330
23B
100
DictionaryVariables
280
     0
  1
1
  0
DICTIONARYVAR
  5
588
102
{ACAD_REACTORS
330
23B
102
}
330
23B
100
DictionaryVariables
280
     0
  1
15
  0
DICTIONARYVAR
  5
586
102
{ACAD_REACTORS
330
23B
102
}
330
23B
100
DictionaryVariables
280
     0
  1
0
  0
DICTIONARYVAR
  5
5D3
102
{ACAD_REACTORS
330
23B
102
}
330
23B
100
DictionaryVariables
280
     0
  1
1.570796
  0
DICTIONARYVAR
  5
5D4
102
{ACAD_REACTORS
330
23B
102
}
330
23B
100
DictionaryVariables
280
     0
  1
1.570796
  0
DICTIONARYVAR
  5
5D5
102
{ACAD_REACTORS
330
23B
102
}
330
23B
100
DictionaryVariables
280
     0
  1
-122.394000
  0
DICTIONARYVAR
  5
24A
102
{ACAD_REACTORS
330
23B
102
}
330
23B
100
DictionaryVariables
280
     0
  1
1
  0
DICTIONARYVAR
  5
5D2
102
{ACAD_REACTORS
330
23B
102
}
330
23B
100
DictionaryVariables
280
     0
  1
80.000000
  0
DICTIONARYVAR
  5
5D1
102
{ACAD_REACTORS
330
23B
102
}
330
23B
100
DictionaryVariables
280
     0
  1
5.000000
  0
DICTIONARYVAR
  5
5CF
102
{ACAD_REACTORS
330
23B
102
}
330
23B
100
DictionaryVariables
280
     0
  1
127
  0
DICTIONARYVAR
  5
5D6
102
{ACAD_REACTORS
330
23B
102
}
330
23B
100
DictionaryVariables
280
     0
  1
2
  0
DICTIONARY
  5
611
330
28A
100
AcDbDictionary
280
     1
281
     1
  3
ACAD_XREC_ROUNDTRIP
360
612
  0
DICTIONARY
  5
5DA
330
1E
100
AcDbDictionary
280
     1
281
     1
  3
ACAD_XREC_ROUNDTRIP
360
5DB
  0
DICTIONARY
  5
5DC
330
22
100
AcDbDictionary
280
     1
281
     1
  3
ACAD_XREC_ROUNDTRIP
360
5DD
  0
DICTIONARY
  5
613
330
28B
100
AcDbDictionary
280
     1
281
     1
  3
ACAD_XREC_ROUNDTRIP
360
614
  0
DICTIONARY
  5
27D
330
45
100
AcDbDictionary
280
     1
281
     1
  3
ACAD_XREC_ROUNDTRIP
360
27E
  0
DICTIONARY
  5
27B
330
44
100
AcDbDictionary
280
     1
281
     1
  3
ACAD_XREC_ROUNDTRIP
360
27C
  0
DICTIONARY
  5
27F
330
46
100
AcDbDictionary
280
     1
281
     1
  3
ACAD_XREC_ROUNDTRIP
360
280
  0
DICTIONARY
  5
60F
330
288
100
AcDbDictionary
280
     1
281
     1
  3
ACAD_XREC_ROUNDTRIP
360
610
  0
DICTIONARY
  5
589
330
5A
100
AcDbDictionary
280
     1
281
     1
  3
ACAD_ROUNDTRIP_2008_TABLESTYLE_CELLSTYLEMAP
360
5D7
  3
ACAD_XREC_ROUNDTRIP
360
60E
  0
DICTIONARY
  5
5E6
330
2F
100
AcDbDictionary
280
     1
281
     1
  3
ACAD_XREC_ROUNDTRIP
360
5E7
  0
DICTIONARY
  5
5EC
330
32
100
AcDbDictionary
280
     1
281
     1
  3
ACAD_XREC_ROUNDTRIP
360
5ED
  0
DICTIONARY
  5
5F4
330
36
100
AcDbDictionary
280
     1
281
     1
  3
ACAD_XREC_ROUNDTRIP
360
5F5
  0
DICTIONARY
  5
5FC
330
3A
100
AcDbDictionary
280
     1
281
     1
  3
ACAD_XREC_ROUNDTRIP
360
5FD
  0
DICTIONARY
  5
5F0
330
34
100
AcDbDictionary
280
     1
281
     1
  3
ACAD_XREC_ROUNDTRIP
360
5F1
  0
DICTIONARY
  5
5F2
330
35
100
AcDbDictionary
280
     1
281
     1
  3
ACAD_XREC_ROUNDTRIP
360
5F3
  0
DICTIONARY
  5
602
330
3D
100
AcDbDictionary
280
     1
281
     1
  3
ACAD_XREC_ROUNDTRIP
360
603
  0
DICTIONARY
  5
5FA
330
39
100
AcDbDictionary
280
     1
281
     1
  3
ACAD_XREC_ROUNDTRIP
360
5FB
  0
DICTIONARY
  5
5DE
330
2B
100
AcDbDictionary
280
     1
281
     1
  3
ACAD_XREC_ROUNDTRIP
360
5DF
  0
DICTIONARY
  5
5E0
330
2C
100
AcDbDictionary
280
     1
281
     1
  3
ACAD_XREC_ROUNDTRIP
360
5E1
  0
DICTIONARY
  5
5E2
330
2D
100
AcDbDictionary
280
     1
281
     1
  3
ACAD_XREC_ROUNDTRIP
360
5E3
  0
DICTIONARY
  5
5E4
330
2E
100
AcDbDictionary
280
     1
281
     1
  3
ACAD_XREC_ROUNDTRIP
360
5E5
  0
DICTIONARY
  5
5EA
330
31
100
AcDbDictionary
280
     1
281
     1
  3
ACAD_XREC_ROUNDTRIP
360
5EB
  0
DICTIONARY
  5
5FE
330
3B
100
AcDbDictionary
280
     1
281
     1
  3
ACAD_XREC_ROUNDTRIP
360
5FF
  0
DICTIONARY
  5
5F8
330
38
100
AcDbDictionary
280
     1
281
     1
  3
ACAD_XREC_ROUNDTRIP
360
5F9
  0
DICTIONARY
  5
600
330
3C
100
AcDbDictionary
280
     1
281
     1
  3
ACAD_XREC_ROUNDTRIP
360
601
  0
DICTIONARY
  5
5EE
330
33
100
AcDbDictionary
280
     1
281
     1
  3
ACAD_XREC_ROUNDTRIP
360
5EF
  0
DICTIONARY
  5
60C
330
42
100
AcDbDictionary
280
     1
281
     1
  3
ACAD_XREC_ROUNDTRIP
360
60D
  0
DICTIONARY
  5
60A
330
41
100
AcDbDictionary
280
     1
281
     1
  3
ACAD_XREC_ROUNDTRIP
360
60B
  0
DICTIONARY
  5
604
330
3E
100
AcDbDictionary
280
     1
281
     1
  3
ACAD_XREC_ROUNDTRIP
360
605
  0
DICTIONARY
  5
606
330
3F
100
AcDbDictionary
280
     1
281
     1
  3
ACAD_XREC_ROUNDTRIP
360
607
  0
DICTIONARY
  5
5F6
330
37
100
AcDbDictionary
280
     1
281
     1
  3
ACAD_XREC_ROUNDTRIP
360
5F7
  0
DICTIONARY
  5
5E8
330
30
100
AcDbDictionary
280
     1
281
     1
  3
ACAD_XREC_ROUNDTRIP
360
5E9
  0
DICTIONARY
  5
608
330
40
100
AcDbDictionary
280
     1
281
     1
  3
ACAD_XREC_ROUNDTRIP
360
609
  0
XRECORD
  5
612
102
{ACAD_REACTORS
330
611
102
}
330
611
100
AcDbXrecord
280
     1
102
DISPLAYNAME
  1
Metric50
102
FLAGS
 90
        0
  0
XRECORD
  5
5DB
102
{ACAD_REACTORS
330
5DA
102
}
330
5DA
100
AcDbXrecord
280
     1
102
SHADEPLOT
 70
     0
102
SHADEPLOTRESLEVEL
 70
     2
102
SHADEPLOTCUSTOMDPI
 70
   300
  0
XRECORD
  5
5DD
102
{ACAD_REACTORS
330
5DC
102
}
330
5DC
100
AcDbXrecord
280
     1
102
SHADEPLOT
 70
     0
102
SHADEPLOTRESLEVEL
 70
     2
102
SHADEPLOTCUSTOMDPI
 70
   300
  0
XRECORD
  5
614
102
{ACAD_REACTORS
330
613
102
}
330
613
100
AcDbXrecord
280
     1
102
SHADEPLOT
 70
     0
102
SHADEPLOTRESLEVEL
 70
     2
102
SHADEPLOTCUSTOMDPI
 70
   300
  0
XRECORD
  5
27E
102
{ACAD_REACTORS
330
27D
102
}
330
27D
100
AcDbXrecord
280
     1
102
MATERIAL
148
0.0
149
0.0
149
0.0
 93
        0
 94
      127
282
     0
 72
     1
 77
     1
171
     1
175
     1
179
     1
273
     0
  0
XRECORD
  5
27C
102
{ACAD_REACTORS
330
27B
102
}
330
27B
100
AcDbXrecord
280
     1
102
MATERIAL
148
0.0
149
0.0
149
0.0
 93
        0
 94
      127
282
     0
 72
     1
 77
     1
171
     1
175
     1
179
     1
273
     0
  0
XRECORD
  5
280
102
{ACAD_REACTORS
330
27F
102
}
330
27F
100
AcDbXrecord
280
     1
102
MATERIAL
148
0.0
149
0.0
149
0.0
 93
        0
 94
      127
282
     0
 72
     1
 77
     1
171
     1
175
     1
179
     1
273
     0
  0
XRECORD
  5
610
102
{ACAD_REACTORS
330
60F
102
}
330
60F
100
AcDbXrecord
280
     1
102
DISPLAYNAME
  1
Metric50
102
FLAGS
 90
        0
  0
CELLSTYLEMAP
  5
5D7
102
{ACAD_REACTORS
330
589
102
}
330
589
100
AcDbCellStyleMap
 90
        3
300
CELLSTYLE
  1
TABLEFORMAT_BEGIN
 90
        5
170
     1
 91
        0
 92
    32768
 62
   257
 93
        1
300
CONTENTFORMAT
  1
CONTENTFORMAT_BEGIN
 90
        0
 91
        0
 92
        4
 93
        0
300

 40
0.0
140
1.0
 94
        5
 62
     0
340
11
144
6.0
309
CONTENTFORMAT_END
171
     1
301
MARGIN
  1
CELLMARGIN_BEGIN
 40
1.5
 40
1.5
 40
1.5
 40
1.5
 40
0.18
 40
0.18
309
CELLMARGIN_END
 94
        6
 95
        1
302
GRIDFORMAT
  1
GRIDFORMAT_BEGIN
 90
        0
 91
        1
 62
     0
 92
       -2
340
0
 93
        0
 40
0.045
309
GRIDFORMAT_END
 95
        2
302
GRIDFORMAT
  1
GRIDFORMAT_BEGIN
 90
        0
 91
        1
 62
     0
 92
       -2
340
0
 93
        0
 40
0.045
309
GRIDFORMAT_END
 95
        4
302
GRIDFORMAT
  1
GRIDFORMAT_BEGIN
 90
        0
 91
        1
 62
     0
 92
       -2
340
0
 93
        0
 40
0.045
309
GRIDFORMAT_END
 95
        8
302
GRIDFORMAT
  1
GRIDFORMAT_BEGIN
 90
        0
 91
        1
 62
     0
 92
       -2
340
0
 93
        0
 40
0.045
309
GRIDFORMAT_END
 95
       16
302
GRIDFORMAT
  1
GRIDFORMAT_BEGIN
 90
        0
 91
        1
 62
     0
 92
       -2
340
0
 93
        0
 40
0.045
309
GRIDFORMAT_END
 95
       32
302
GRIDFORMAT
  1
GRIDFORMAT_BEGIN
 90
        0
 91
        1
 62
     0
 92
       -2
340
0
 93
        0
 40
0.045
309
GRIDFORMAT_END
309
TABLEFORMAT_END
  1
CELLSTYLE_BEGIN
 90
        1
 91
        1
300
_TITLE
309
CELLSTYLE_END
300
CELLSTYLE
  1
TABLEFORMAT_BEGIN
 90
        5
170
     1
 91
        0
 92
        0
 62
   257
 93
        1
300
CONTENTFORMAT
  1
CONTENTFORMAT_BEGIN
 90
        0
 91
        0
 92
        4
 93
        0
300

 40
0.0
140
1.0
 94
        5
 62
     0
340
11
144
4.5
309
CONTENTFORMAT_END
171
     1
301
MARGIN
  1
CELLMARGIN_BEGIN
 40
1.5
 40
1.5
 40
1.5
 40
1.5
 40
0.18
 40
0.18
309
CELLMARGIN_END
 94
        6
 95
        1
302
GRIDFORMAT
  1
GRIDFORMAT_BEGIN
 90
        0
 91
        1
 62
     0
 92
       -2
340
0
 93
        0
 40
0.045
309
GRIDFORMAT_END
 95
        2
302
GRIDFORMAT
  1
GRIDFORMAT_BEGIN
 90
        0
 91
        1
 62
     0
 92
       -2
340
0
 93
        0
 40
0.045
309
GRIDFORMAT_END
 95
        4
302
GRIDFORMAT
  1
GRIDFORMAT_BEGIN
 90
        0
 91
        1
 62
     0
 92
       -2
340
0
 93
        0
 40
0.045
309
GRIDFORMAT_END
 95
        8
302
GRIDFORMAT
  1
GRIDFORMAT_BEGIN
 90
        0
 91
        1
 62
     0
 92
       -2
340
0
 93
        0
 40
0.045
309
GRIDFORMAT_END
 95
       16
302
GRIDFORMAT
  1
GRIDFORMAT_BEGIN
 90
        0
 91
        1
 62
     0
 92
       -2
340
0
 93
        0
 40
0.045
309
GRIDFORMAT_END
 95
       32
302
GRIDFORMAT
  1
GRIDFORMAT_BEGIN
 90
        0
 91
        1
 62
     0
 92
       -2
340
0
 93
        0
 40
0.045
309
GRIDFORMAT_END
309
TABLEFORMAT_END
  1
CELLSTYLE_BEGIN
 90
        2
 91
        1
300
_HEADER
309
CELLSTYLE_END
300
CELLSTYLE
  1
TABLEFORMAT_BEGIN
 90
        5
170
     1
 91
        0
 92
        0
 62
   257
 93
        1
300
CONTENTFORMAT
  1
CONTENTFORMAT_BEGIN
 90
        0
 91
        0
 92
        4
 93
        0
300

 40
0.0
140
1.0
 94
        2
 62
     0
340
11
144
4.5
309
CONTENTFORMAT_END
171
     1
301
MARGIN
  1
CELLMARGIN_BEGIN
 40
1.5
 40
1.5
 40
1.5
 40
1.5
 40
0.18
 40
0.18
309
CELLMARGIN_END
 94
        6
 95
        1
302
GRIDFORMAT
  1
GRIDFORMAT_BEGIN
 90
        0
 91
        1
 62
     0
 92
       -2
340
0
 93
        0
 40
0.045
309
GRIDFORMAT_END
 95
        2
302
GRIDFORMAT
  1
GRIDFORMAT_BEGIN
 90
        0
 91
        1
 62
     0
 92
       -2
340
0
 93
        0
 40
0.045
309
GRIDFORMAT_END
 95
        4
302
GRIDFORMAT
  1
GRIDFORMAT_BEGIN
 90
        0
 91
        1
 62
     0
 92
       -2
340
0
 93
        0
 40
0.045
309
GRIDFORMAT_END
 95
        8
302
GRIDFORMAT
  1
GRIDFORMAT_BEGIN
 90
        0
 91
        1
 62
     0
 92
       -2
340
0
 93
        0
 40
0.045
309
GRIDFORMAT_END
 95
       16
302
GRIDFORMAT
  1
GRIDFORMAT_BEGIN
 90
        0
 91
        1
 62
     0
 92
       -2
340
0
 93
        0
 40
0.045
309
GRIDFORMAT_END
 95
       32
302
GRIDFORMAT
  1
GRIDFORMAT_BEGIN
 90
        0
 91
        1
 62
     0
 92
       -2
340
0
 93
        0
 40
0.045
309
GRIDFORMAT_END
309
TABLEFORMAT_END
  1
CELLSTYLE_BEGIN
 90
        3
 91
        2
300
_DATA
309
CELLSTYLE_END
  0
XRECORD
  5
60E
102
{ACAD_REACTORS
330
589
102
}
330
589
100
AcDbXrecord
280
     1
102
ACAD_ROUNDTRIP_PRE2007_TABLESTYLE
 90
        4
 91
        0
  1

 92
        4
 93
        0
  2

 94
        4
 95
        0
  3

  0
XRECORD
  5
5E7
102
{ACAD_REACTORS
330
5E6
102
}
330
5E6
100
AcDbXrecord
280
     1
102
RTVSPost2010Prop28
280
     1
102
RTVSPost2010PropOp28
 70
     1
102
RTVSPost2010Prop29
280
     1
102
RTVSPost2010PropOp29
 70
     1
102
RTVSPost2010Prop30
280
     0
102
RTVSPost2010PropOp30
 70
     1
102
RTVSPost2010Prop31
280
     0
102
RTVSPost2010PropOp31
 70
     1
102
RTVSPost2010Prop32
280
     0
102
RTVSPost2010PropOp32
 70
     1
102
RTVSPost2010Prop33
280
     0
102
RTVSPost2010PropOp33
 70
     1
102
RTVSPost2010Prop34
280
     0
102
RTVSPost2010PropOp34
 70
     1
102
RTVSPost2010Prop35
280
     0
102
RTVSPost2010PropOp35
 70
     1
102
RTVSPost2010Prop36
280
     0
102
RTVSPost2010PropOp36
 70
     1
102
RTVSPost2010Prop37
 90
       50
102
RTVSPost2010PropOp37
 70
     1
102
RTVSPost2010Prop38
140
0.0
102
RTVSPost2010PropOp38
 70
     1
102
RTVSPost2010Prop39
140
1.0
102
RTVSPost2010PropOp39
 70
     1
102
RTVSPost2010Prop40
 90
        0
102
RTVSPost2010PropOp40
 70
     1
102
RTVSPost2010Prop41ColorIndex
 90
       18
102
RTVSPost2010Prop41ColorRGB
 90
        0
102
RTVSPost2010PropOp41
 70
     1
102
RTVSPost2010Prop42
 90
       50
102
RTVSPost2010PropOp42
 70
     1
102
RTVSPost2010Prop43
 90
        3
102
RTVSPost2010PropOp43
 70
     1
102
RTVSPost2010Prop44ColorIndex
 90
        5
102
RTVSPost2010Prop44ColorRGB
 90
      255
102
RTVSPost2010PropOp44
 70
     1
102
RTVSPost2010Prop45
280
     0
102
RTVSPost2010PropOp45
 70
     1
102
RTVSPost2010Prop46
 90
       50
102
RTVSPost2010PropOp46
 70
     1
102
RTVSPost2010Prop47
 90
       50
102
RTVSPost2010PropOp47
 70
     1
102
RTVSPost2010Prop48
 90
       50
102
RTVSPost2010PropOp48
 70
     1
102
RTVSPost2010Prop49
280
     0
102
RTVSPost2010PropOp49
 70
     1
102
RTVSPost2010Prop50
 90
       50
102
RTVSPost2010PropOp50
 70
     1
102
RTVSPost2010Prop51ColorIndex
 90
      256
102
RTVSPost2010Prop51ColorRGB
 90
-16777216
102
RTVSPost2010PropOp51
 70
     0
102
RTVSPost2010Prop52
140
1.0
102
RTVSPost2010PropOp52
 70
     0
102
RTVSPost2010Prop53
 90
        2
102
RTVSPost2010PropOp53
 70
     1
102
RTVSPost2010Prop54
  1
strokes_ogs.tif
102
RTVSPost2010PropOp54
 70
     1
102
RTVSPost2010Prop55
280
     0
102
RTVSPost2010PropOp55
 70
     1
102
RTVSPost2010Prop56
140
1.0
102
RTVSPost2010PropOp56
 70
     1
102
RTVSPost2010Prop57
140
1.0
102
RTVSPost2010PropOp57
 70
     1
102
RTVSPropertyOp0
 70
     1
102
RTVSPropertyOp1
 70
     1
102
RTVSPropertyOp2
 70
     1
102
RTVSPropertyOp3
 70
     1
102
RTVSPropertyOp4
 70
     1
102
RTVSPropertyOp5
 70
     1
102
RTVSPropertyOp6
 70
     1
102
RTVSPropertyOp7
 70
     1
102
RTVSPropertyOp8
 70
     1
102
RTVSPropertyOp9
 70
     1
102
RTVSPropertyOp10
 70
     1
102
RTVSPropertyOp11
 70
     1
102
RTVSPropertyOp12
 70
     1
102
RTVSPropertyOp13
 70
     1
102
RTVSPropertyOp14
 70
     1
102
RTVSPropertyOp15
 70
     1
102
RTVSPropertyOp16
 70
     1
102
RTVSPropertyOp17
 70
     1
102
RTVSPropertyOp18
 70
     1
102
RTVSPropertyOp19
 70
     1
102
RTVSPropertyOp20
 70
     1
102
RTVSPropertyOp21
 70
     1
102
RTVSPropertyOp22
 70
     1
102
RTVSPropertyOp23
 70
     1
102
RTVSPropertyOp24
 70
     1
102
RTVSPropertyOp25
 70
     1
102
RTVSPropertyOp26
 70
     1
102
RTVSPropertyOp27
 70
     1
102
RTVSPropertyOp28
 70
     1
102
RTVSPropertyOp29
 70
     1
102
RTVSPropertyOp30
 70
     1
102
RTVSPropertyOp31
 70
     1
102
RTVSPropertyOp32
 70
     1
102
RTVSPropertyOp33
 70
     1
102
RTVSPropertyOp34
 70
     1
102
RTVSPropertyOp35
 70
     1
102
RTVSPropertyOp36
 70
     1
102
RTVSPropertyOp37
 70
     1
102
RTVSPropertyOp38
 70
     1
102
RTVSPropertyOp39
 70
     1
102
RTVSPropertyOp40
 70
     1
102
RTVSPropertyOp41
 70
     1
102
RTVSPropertyOp42
 70
     1
102
RTVSPropertyOp43
 70
     1
102
RTVSPropertyOp44
 70
     1
102
RTVSPropertyOp45
 70
     1
102
RTVSPropertyOp46
 70
     1
102
RTVSPropertyOp47
 70
     1
102
RTVSPropertyOp48
 70
     1
102
RTVSPropertyOp49
 70
     1
102
RTVSPropertyOp50
 70
     1
102
RTVSPropertyOp51
 70
     0
102
RTVSPropertyOp52
 70
     0
102
RTVSPropertyOp53
 70
     1
102
RTVSPropertyOp54
 70
     1
102
RTVSPropertyOp55
 70
     1
102
RTVSPropertyOp56
 70
     1
102
RTVSPropertyOp57
 70
     1
102
RTVSPropertyOp58
 70
     1
102
RTVSPropertyOp59
 70
     1
102
RTVSPropertyOp60
 70
     1
102
RTVSPropertyOp61
 70
     1
102
RTVSPropertyOp62
 70
     1
  0
XRECORD
  5
5ED
102
{ACAD_REACTORS
330
5EC
102
}
330
5EC
100
AcDbXrecord
280
     1
102
RTVSPost2010Prop28
280
     0
102
RTVSPost2010PropOp28
 70
     1
102
RTVSPost2010Prop29
280
     1
102
RTVSPost2010PropOp29
 70
     1
102
RTVSPost2010Prop30
280
     1
102
RTVSPost2010PropOp30
 70
     1
102
RTVSPost2010Prop31
280
     0
102
RTVSPost2010PropOp31
 70
     1
102
RTVSPost2010Prop32
280
     0
102
RTVSPost2010PropOp32
 70
     1
102
RTVSPost2010Prop33
280
     0
102
RTVSPost2010PropOp33
 70
     1
102
RTVSPost2010Prop34
280
     0
102
RTVSPost2010PropOp34
 70
     1
102
RTVSPost2010Prop35
280
     0
102
RTVSPost2010PropOp35
 70
     1
102
RTVSPost2010Prop36
280
     0
102
RTVSPost2010PropOp36
 70
     1
102
RTVSPost2010Prop37
 90
       50
102
RTVSPost2010PropOp37
 70
     1
102
RTVSPost2010Prop38
140
0.0
102
RTVSPost2010PropOp38
 70
     1
102
RTVSPost2010Prop39
140
1.0
102
RTVSPost2010PropOp39
 70
     1
102
RTVSPost2010Prop40
 90
        0
102
RTVSPost2010PropOp40
 70
     1
102
RTVSPost2010Prop41ColorIndex
 90
       18
102
RTVSPost2010Prop41ColorRGB
 90
        0
102
RTVSPost2010PropOp41
 70
     1
102
RTVSPost2010Prop42
 90
       50
102
RTVSPost2010PropOp42
 70
     1
102
RTVSPost2010Prop43
 90
        3
102
RTVSPost2010PropOp43
 70
     1
102
RTVSPost2010Prop44ColorIndex
 90
        5
102
RTVSPost2010Prop44ColorRGB
 90
      255
102
RTVSPost2010PropOp44
 70
     1
102
RTVSPost2010Prop45
280
     0
102
RTVSPost2010PropOp45
 70
     1
102
RTVSPost2010Prop46
 90
       50
102
RTVSPost2010PropOp46
 70
     1
102
RTVSPost2010Prop47
 90
       50
102
RTVSPost2010PropOp47
 70
     1
102
RTVSPost2010Prop48
 90
       50
102
RTVSPost2010PropOp48
 70
     1
102
RTVSPost2010Prop49
280
     0
102
RTVSPost2010PropOp49
 70
     1
102
RTVSPost2010Prop50
 90
       50
102
RTVSPost2010PropOp50
 70
     1
102
RTVSPost2010Prop51ColorIndex
 90
      256
102
RTVSPost2010Prop51ColorRGB
 90
-16777216
102
RTVSPost2010PropOp51
 70
     0
102
RTVSPost2010Prop52
140
1.0
102
RTVSPost2010PropOp52
 70
     0
102
RTVSPost2010Prop53
 90
        2
102
RTVSPost2010PropOp53
 70
     1
102
RTVSPost2010Prop54
  1
strokes_ogs.tif
102
RTVSPost2010PropOp54
 70
     1
102
RTVSPost2010Prop55
280
     0
102
RTVSPost2010PropOp55
 70
     1
102
RTVSPost2010Prop56
140
1.0
102
RTVSPost2010PropOp56
 70
     1
102
RTVSPost2010Prop57
140
1.0
102
RTVSPost2010PropOp57
 70
     1
102
RTVSPropertyOp0
 70
     1
102
RTVSPropertyOp1
 70
     1
102
RTVSPropertyOp2
 70
     1
102
RTVSPropertyOp3
 70
     1
102
RTVSPropertyOp4
 70
     1
102
RTVSPropertyOp5
 70
     1
102
RTVSPropertyOp6
 70
     1
102
RTVSPropertyOp7
 70
     1
102
RTVSPropertyOp8
 70
     1
102
RTVSPropertyOp9
 70
     1
102
RTVSPropertyOp10
 70
     1
102
RTVSPropertyOp11
 70
     1
102
RTVSPropertyOp12
 70
     1
102
RTVSPropertyOp13
 70
     1
102
RTVSPropertyOp14
 70
     1
102
RTVSPropertyOp15
 70
     1
102
RTVSPropertyOp16
 70
     1
102
RTVSPropertyOp17
 70
     1
102
RTVSPropertyOp18
 70
     1
102
RTVSPropertyOp19
 70
     1
102
RTVSPropertyOp20
 70
     1
102
RTVSPropertyOp21
 70
     1
102
RTVSPropertyOp22
 70
     1
102
RTVSPropertyOp23
 70
     1
102
RTVSPropertyOp24
 70
     1
102
RTVSPropertyOp25
 70
     1
102
RTVSPropertyOp26
 70
     1
102
RTVSPropertyOp27
 70
     1
102
RTVSPropertyOp28
 70
     1
102
RTVSPropertyOp29
 70
     1
102
RTVSPropertyOp30
 70
     1
102
RTVSPropertyOp31
 70
     1
102
RTVSPropertyOp32
 70
     1
102
RTVSPropertyOp33
 70
     1
102
RTVSPropertyOp34
 70
     1
102
RTVSPropertyOp35
 70
     1
102
RTVSPropertyOp36
 70
     1
102
RTVSPropertyOp37
 70
     1
102
RTVSPropertyOp38
 70
     1
102
RTVSPropertyOp39
 70
     1
102
RTVSPropertyOp40
 70
     1
102
RTVSPropertyOp41
 70
     1
102
RTVSPropertyOp42
 70
     1
102
RTVSPropertyOp43
 70
     1
102
RTVSPropertyOp44
 70
     1
102
RTVSPropertyOp45
 70
     1
102
RTVSPropertyOp46
 70
     1
102
RTVSPropertyOp47
 70
     1
102
RTVSPropertyOp48
 70
     1
102
RTVSPropertyOp49
 70
     1
102
RTVSPropertyOp50
 70
     1
102
RTVSPropertyOp51
 70
     0
102
RTVSPropertyOp52
 70
     0
102
RTVSPropertyOp53
 70
     1
102
RTVSPropertyOp54
 70
     1
102
RTVSPropertyOp55
 70
     1
102
RTVSPropertyOp56
 70
     1
102
RTVSPropertyOp57
 70
     1
102
RTVSPropertyOp58
 70
     1
102
RTVSPropertyOp59
 70
     1
102
RTVSPropertyOp60
 70
     1
102
RTVSPropertyOp61
 70
     1
102
RTVSPropertyOp62
 70
     1
  0
XRECORD
  5
5F5
102
{ACAD_REACTORS
330
5F4
102
}
330
5F4
100
AcDbXrecord
280
     1
102
RTVSPost2010Prop28
280
     0
102
RTVSPost2010PropOp28
 70
     1
102
RTVSPost2010Prop29
280
     1
102
RTVSPost2010PropOp29
 70
     1
102
RTVSPost2010Prop30
280
     1
102
RTVSPost2010PropOp30
 70
     1
102
RTVSPost2010Prop31
280
     0
102
RTVSPost2010PropOp31
 70
     1
102
RTVSPost2010Prop32
280
     0
102
RTVSPost2010PropOp32
 70
     1
102
RTVSPost2010Prop33
280
     0
102
RTVSPost2010PropOp33
 70
     1
102
RTVSPost2010Prop34
280
     0
102
RTVSPost2010PropOp34
 70
     1
102
RTVSPost2010Prop35
280
     0
102
RTVSPost2010PropOp35
 70
     1
102
RTVSPost2010Prop36
280
     0
102
RTVSPost2010PropOp36
 70
     1
102
RTVSPost2010Prop37
 90
       50
102
RTVSPost2010PropOp37
 70
     1
102
RTVSPost2010Prop38
140
0.0
102
RTVSPost2010PropOp38
 70
     1
102
RTVSPost2010Prop39
140
1.0
102
RTVSPost2010PropOp39
 70
     1
102
RTVSPost2010Prop40
 90
        0
102
RTVSPost2010PropOp40
 70
     1
102
RTVSPost2010Prop41ColorIndex
 90
       18
102
RTVSPost2010Prop41ColorRGB
 90
        0
102
RTVSPost2010PropOp41
 70
     1
102
RTVSPost2010Prop42
 90
       50
102
RTVSPost2010PropOp42
 70
     1
102
RTVSPost2010Prop43
 90
        3
102
RTVSPost2010PropOp43
 70
     1
102
RTVSPost2010Prop44ColorIndex
 90
        5
102
RTVSPost2010Prop44ColorRGB
 90
      255
102
RTVSPost2010PropOp44
 70
     1
102
RTVSPost2010Prop45
280
     0
102
RTVSPost2010PropOp45
 70
     1
102
RTVSPost2010Prop46
 90
       50
102
RTVSPost2010PropOp46
 70
     1
102
RTVSPost2010Prop47
 90
       50
102
RTVSPost2010PropOp47
 70
     1
102
RTVSPost2010Prop48
 90
       50
102
RTVSPost2010PropOp48
 70
     1
102
RTVSPost2010Prop49
280
     0
102
RTVSPost2010PropOp49
 70
     1
102
RTVSPost2010Prop50
 90
       50
102
RTVSPost2010PropOp50
 70
     1
102
RTVSPost2010Prop51ColorIndex
 90
      256
102
RTVSPost2010Prop51ColorRGB
 90
-16777216
102
RTVSPost2010PropOp51
 70
     0
102
RTVSPost2010Prop52
140
1.0
102
RTVSPost2010PropOp52
 70
     0
102
RTVSPost2010Prop53
 90
        2
102
RTVSPost2010PropOp53
 70
     1
102
RTVSPost2010Prop54
  1
strokes_ogs.tif
102
RTVSPost2010PropOp54
 70
     1
102
RTVSPost2010Prop55
280
     0
102
RTVSPost2010PropOp55
 70
     1
102
RTVSPost2010Prop56
140
1.0
102
RTVSPost2010PropOp56
 70
     1
102
RTVSPost2010Prop57
140
1.0
102
RTVSPost2010PropOp57
 70
     1
102
RTVSPropertyOp0
 70
     1
102
RTVSPropertyOp1
 70
     1
102
RTVSPropertyOp2
 70
     1
102
RTVSPropertyOp3
 70
     1
102
RTVSPropertyOp4
 70
     1
102
RTVSPropertyOp5
 70
     1
102
RTVSPropertyOp6
 70
     1
102
RTVSPropertyOp7
 70
     1
102
RTVSPropertyOp8
 70
     1
102
RTVSPropertyOp9
 70
     1
102
RTVSPropertyOp10
 70
     1
102
RTVSPropertyOp11
 70
     1
102
RTVSPropertyOp12
 70
     1
102
RTVSPropertyOp13
 70
     1
102
RTVSPropertyOp14
 70
     1
102
RTVSPropertyOp15
 70
     1
102
RTVSPropertyOp16
 70
     1
102
RTVSPropertyOp17
 70
     1
102
RTVSPropertyOp18
 70
     1
102
RTVSPropertyOp19
 70
     1
102
RTVSPropertyOp20
 70
     1
102
RTVSPropertyOp21
 70
     1
102
RTVSPropertyOp22
 70
     1
102
RTVSPropertyOp23
 70
     1
102
RTVSPropertyOp24
 70
     1
102
RTVSPropertyOp25
 70
     1
102
RTVSPropertyOp26
 70
     1
102
RTVSPropertyOp27
 70
     1
102
RTVSPropertyOp28
 70
     1
102
RTVSPropertyOp29
 70
     1
102
RTVSPropertyOp30
 70
     1
102
RTVSPropertyOp31
 70
     1
102
RTVSPropertyOp32
 70
     1
102
RTVSPropertyOp33
 70
     1
102
RTVSPropertyOp34
 70
     1
102
RTVSPropertyOp35
 70
     1
102
RTVSPropertyOp36
 70
     1
102
RTVSPropertyOp37
 70
     1
102
RTVSPropertyOp38
 70
     1
102
RTVSPropertyOp39
 70
     1
102
RTVSPropertyOp40
 70
     1
102
RTVSPropertyOp41
 70
     1
102
RTVSPropertyOp42
 70
     1
102
RTVSPropertyOp43
 70
     1
102
RTVSPropertyOp44
 70
     1
102
RTVSPropertyOp45
 70
     1
102
RTVSPropertyOp46
 70
     1
102
RTVSPropertyOp47
 70
     1
102
RTVSPropertyOp48
 70
     1
102
RTVSPropertyOp49
 70
     1
102
RTVSPropertyOp50
 70
     1
102
RTVSPropertyOp51
 70
     0
102
RTVSPropertyOp52
 70
     0
102
RTVSPropertyOp53
 70
     1
102
RTVSPropertyOp54
 70
     1
102
RTVSPropertyOp55
 70
     1
102
RTVSPropertyOp56
 70
     1
102
RTVSPropertyOp57
 70
     1
102
RTVSPropertyOp58
 70
     1
102
RTVSPropertyOp59
 70
     1
102
RTVSPropertyOp60
 70
     1
102
RTVSPropertyOp61
 70
     1
102
RTVSPropertyOp62
 70
     1
  0
XRECORD
  5
5FD
102
{ACAD_REACTORS
330
5FC
102
}
330
5FC
100
AcDbXrecord
280
     1
102
RTVSPost2010Prop28
280
     0
102
RTVSPost2010PropOp28
 70
     1
102
RTVSPost2010Prop29
280
     1
102
RTVSPost2010PropOp29
 70
     1
102
RTVSPost2010Prop30
280
     1
102
RTVSPost2010PropOp30
 70
     1
102
RTVSPost2010Prop31
280
     0
102
RTVSPost2010PropOp31
 70
     1
102
RTVSPost2010Prop32
280
     0
102
RTVSPost2010PropOp32
 70
     1
102
RTVSPost2010Prop33
280
     0
102
RTVSPost2010PropOp33
 70
     1
102
RTVSPost2010Prop34
280
     0
102
RTVSPost2010PropOp34
 70
     1
102
RTVSPost2010Prop35
280
     0
102
RTVSPost2010PropOp35
 70
     1
102
RTVSPost2010Prop36
280
     0
102
RTVSPost2010PropOp36
 70
     1
102
RTVSPost2010Prop37
 90
       50
102
RTVSPost2010PropOp37
 70
     1
102
RTVSPost2010Prop38
140
0.0
102
RTVSPost2010PropOp38
 70
     1
102
RTVSPost2010Prop39
140
1.0
102
RTVSPost2010PropOp39
 70
     1
102
RTVSPost2010Prop40
 90
        0
102
RTVSPost2010PropOp40
 70
     1
102
RTVSPost2010Prop41ColorIndex
 90
       18
102
RTVSPost2010Prop41ColorRGB
 90
        0
102
RTVSPost2010PropOp41
 70
     1
102
RTVSPost2010Prop42
 90
       50
102
RTVSPost2010PropOp42
 70
     1
102
RTVSPost2010Prop43
 90
        3
102
RTVSPost2010PropOp43
 70
     1
102
RTVSPost2010Prop44ColorIndex
 90
        5
102
RTVSPost2010Prop44ColorRGB
 90
      255
102
RTVSPost2010PropOp44
 70
     1
102
RTVSPost2010Prop45
280
     0
102
RTVSPost2010PropOp45
 70
     1
102
RTVSPost2010Prop46
 90
       50
102
RTVSPost2010PropOp46
 70
     1
102
RTVSPost2010Prop47
 90
       50
102
RTVSPost2010PropOp47
 70
     1
102
RTVSPost2010Prop48
 90
       50
102
RTVSPost2010PropOp48
 70
     1
102
RTVSPost2010Prop49
280
     0
102
RTVSPost2010PropOp49
 70
     1
102
RTVSPost2010Prop50
 90
       50
102
RTVSPost2010PropOp50
 70
     1
102
RTVSPost2010Prop51ColorIndex
 90
      256
102
RTVSPost2010Prop51ColorRGB
 90
-16777216
102
RTVSPost2010PropOp51
 70
     0
102
RTVSPost2010Prop52
140
1.0
102
RTVSPost2010PropOp52
 70
     0
102
RTVSPost2010Prop53
 90
        2
102
RTVSPost2010PropOp53
 70
     1
102
RTVSPost2010Prop54
  1
strokes_ogs.tif
102
RTVSPost2010PropOp54
 70
     1
102
RTVSPost2010Prop55
280
     0
102
RTVSPost2010PropOp55
 70
     1
102
RTVSPost2010Prop56
140
1.0
102
RTVSPost2010PropOp56
 70
     1
102
RTVSPost2010Prop57
140
1.0
102
RTVSPost2010PropOp57
 70
     1
102
RTVSPropertyOp0
 70
     1
102
RTVSPropertyOp1
 70
     1
102
RTVSPropertyOp2
 70
     1
102
RTVSPropertyOp3
 70
     1
102
RTVSPropertyOp4
 70
     1
102
RTVSPropertyOp5
 70
     1
102
RTVSPropertyOp6
 70
     1
102
RTVSPropertyOp7
 70
     1
102
RTVSPropertyOp8
 70
     1
102
RTVSPropertyOp9
 70
     1
102
RTVSPropertyOp10
 70
     1
102
RTVSPropertyOp11
 70
     1
102
RTVSPropertyOp12
 70
     1
102
RTVSPropertyOp13
 70
     1
102
RTVSPropertyOp14
 70
     1
102
RTVSPropertyOp15
 70
     1
102
RTVSPropertyOp16
 70
     1
102
RTVSPropertyOp17
 70
     1
102
RTVSPropertyOp18
 70
     1
102
RTVSPropertyOp19
 70
     1
102
RTVSPropertyOp20
 70
     1
102
RTVSPropertyOp21
 70
     1
102
RTVSPropertyOp22
 70
     1
102
RTVSPropertyOp23
 70
     1
102
RTVSPropertyOp24
 70
     1
102
RTVSPropertyOp25
 70
     1
102
RTVSPropertyOp26
 70
     1
102
RTVSPropertyOp27
 70
     1
102
RTVSPropertyOp28
 70
     1
102
RTVSPropertyOp29
 70
     1
102
RTVSPropertyOp30
 70
     1
102
RTVSPropertyOp31
 70
     1
102
RTVSPropertyOp32
 70
     1
102
RTVSPropertyOp33
 70
     1
102
RTVSPropertyOp34
 70
     1
102
RTVSPropertyOp35
 70
     1
102
RTVSPropertyOp36
 70
     1
102
RTVSPropertyOp37
 70
     1
102
RTVSPropertyOp38
 70
     1
102
RTVSPropertyOp39
 70
     1
102
RTVSPropertyOp40
 70
     1
102
RTVSPropertyOp41
 70
     1
102
RTVSPropertyOp42
 70
     1
102
RTVSPropertyOp43
 70
     1
102
RTVSPropertyOp44
 70
     1
102
RTVSPropertyOp45
 70
     1
102
RTVSPropertyOp46
 70
     1
102
RTVSPropertyOp47
 70
     1
102
RTVSPropertyOp48
 70
     1
102
RTVSPropertyOp49
 70
     1
102
RTVSPropertyOp50
 70
     1
102
RTVSPropertyOp51
 70
     0
102
RTVSPropertyOp52
 70
     0
102
RTVSPropertyOp53
 70
     1
102
RTVSPropertyOp54
 70
     1
102
RTVSPropertyOp55
 70
     1
102
RTVSPropertyOp56
 70
     1
102
RTVSPropertyOp57
 70
     1
102
RTVSPropertyOp58
 70
     1
102
RTVSPropertyOp59
 70
     1
102
RTVSPropertyOp60
 70
     1
102
RTVSPropertyOp61
 70
     1
102
RTVSPropertyOp62
 70
     1
  0
XRECORD
  5
5F1
102
{ACAD_REACTORS
330
5F0
102
}
330
5F0
100
AcDbXrecord
280
     1
102
RTVSPost2010Prop28
280
     0
102
RTVSPost2010PropOp28
 70
     1
102
RTVSPost2010Prop29
280
     1
102
RTVSPost2010PropOp29
 70
     1
102
RTVSPost2010Prop30
280
     1
102
RTVSPost2010PropOp30
 70
     1
102
RTVSPost2010Prop31
280
     0
102
RTVSPost2010PropOp31
 70
     1
102
RTVSPost2010Prop32
280
     0
102
RTVSPost2010PropOp32
 70
     1
102
RTVSPost2010Prop33
280
     0
102
RTVSPost2010PropOp33
 70
     1
102
RTVSPost2010Prop34
280
     0
102
RTVSPost2010PropOp34
 70
     1
102
RTVSPost2010Prop35
280
     0
102
RTVSPost2010PropOp35
 70
     1
102
RTVSPost2010Prop36
280
     0
102
RTVSPost2010PropOp36
 70
     1
102
RTVSPost2010Prop37
 90
       50
102
RTVSPost2010PropOp37
 70
     1
102
RTVSPost2010Prop38
140
0.0
102
RTVSPost2010PropOp38
 70
     1
102
RTVSPost2010Prop39
140
1.0
102
RTVSPost2010PropOp39
 70
     1
102
RTVSPost2010Prop40
 90
        0
102
RTVSPost2010PropOp40
 70
     1
102
RTVSPost2010Prop41ColorIndex
 90
       18
102
RTVSPost2010Prop41ColorRGB
 90
        0
102
RTVSPost2010PropOp41
 70
     1
102
RTVSPost2010Prop42
 90
       50
102
RTVSPost2010PropOp42
 70
     1
102
RTVSPost2010Prop43
 90
        3
102
RTVSPost2010PropOp43
 70
     1
102
RTVSPost2010Prop44ColorIndex
 90
        5
102
RTVSPost2010Prop44ColorRGB
 90
      255
102
RTVSPost2010PropOp44
 70
     1
102
RTVSPost2010Prop45
280
     0
102
RTVSPost2010PropOp45
 70
     1
102
RTVSPost2010Prop46
 90
       50
102
RTVSPost2010PropOp46
 70
     1
102
RTVSPost2010Prop47
 90
       50
102
RTVSPost2010PropOp47
 70
     1
102
RTVSPost2010Prop48
 90
       50
102
RTVSPost2010PropOp48
 70
     1
102
RTVSPost2010Prop49
280
     0
102
RTVSPost2010PropOp49
 70
     1
102
RTVSPost2010Prop50
 90
       50
102
RTVSPost2010PropOp50
 70
     1
102
RTVSPost2010Prop51ColorIndex
 90
      256
102
RTVSPost2010Prop51ColorRGB
 90
-16777216
102
RTVSPost2010PropOp51
 70
     0
102
RTVSPost2010Prop52
140
1.0
102
RTVSPost2010PropOp52
 70
     0
102
RTVSPost2010Prop53
 90
        2
102
RTVSPost2010PropOp53
 70
     1
102
RTVSPost2010Prop54
  1
strokes_ogs.tif
102
RTVSPost2010PropOp54
 70
     1
102
RTVSPost2010Prop55
280
     0
102
RTVSPost2010PropOp55
 70
     1
102
RTVSPost2010Prop56
140
1.0
102
RTVSPost2010PropOp56
 70
     1
102
RTVSPost2010Prop57
140
1.0
102
RTVSPost2010PropOp57
 70
     1
102
RTVSPropertyOp0
 70
     1
102
RTVSPropertyOp1
 70
     1
102
RTVSPropertyOp2
 70
     1
102
RTVSPropertyOp3
 70
     1
102
RTVSPropertyOp4
 70
     1
102
RTVSPropertyOp5
 70
     1
102
RTVSPropertyOp6
 70
     1
102
RTVSPropertyOp7
 70
     1
102
RTVSPropertyOp8
 70
     1
102
RTVSPropertyOp9
 70
     1
102
RTVSPropertyOp10
 70
     1
102
RTVSPropertyOp11
 70
     1
102
RTVSPropertyOp12
 70
     1
102
RTVSPropertyOp13
 70
     1
102
RTVSPropertyOp14
 70
     1
102
RTVSPropertyOp15
 70
     1
102
RTVSPropertyOp16
 70
     1
102
RTVSPropertyOp17
 70
     1
102
RTVSPropertyOp18
 70
     1
102
RTVSPropertyOp19
 70
     1
102
RTVSPropertyOp20
 70
     1
102
RTVSPropertyOp21
 70
     1
102
RTVSPropertyOp22
 70
     1
102
RTVSPropertyOp23
 70
     1
102
RTVSPropertyOp24
 70
     1
102
RTVSPropertyOp25
 70
     1
102
RTVSPropertyOp26
 70
     1
102
RTVSPropertyOp27
 70
     1
102
RTVSPropertyOp28
 70
     1
102
RTVSPropertyOp29
 70
     1
102
RTVSPropertyOp30
 70
     1
102
RTVSPropertyOp31
 70
     1
102
RTVSPropertyOp32
 70
     1
102
RTVSPropertyOp33
 70
     1
102
RTVSPropertyOp34
 70
     1
102
RTVSPropertyOp35
 70
     1
102
RTVSPropertyOp36
 70
     1
102
RTVSPropertyOp37
 70
     1
102
RTVSPropertyOp38
 70
     1
102
RTVSPropertyOp39
 70
     1
102
RTVSPropertyOp40
 70
     1
102
RTVSPropertyOp41
 70
     1
102
RTVSPropertyOp42
 70
     1
102
RTVSPropertyOp43
 70
     1
102
RTVSPropertyOp44
 70
     1
102
RTVSPropertyOp45
 70
     1
102
RTVSPropertyOp46
 70
     1
102
RTVSPropertyOp47
 70
     1
102
RTVSPropertyOp48
 70
     1
102
RTVSPropertyOp49
 70
     1
102
RTVSPropertyOp50
 70
     1
102
RTVSPropertyOp51
 70
     0
102
RTVSPropertyOp52
 70
     0
102
RTVSPropertyOp53
 70
     1
102
RTVSPropertyOp54
 70
     1
102
RTVSPropertyOp55
 70
     1
102
RTVSPropertyOp56
 70
     1
102
RTVSPropertyOp57
 70
     1
102
RTVSPropertyOp58
 70
     1
102
RTVSPropertyOp59
 70
     1
102
RTVSPropertyOp60
 70
     1
102
RTVSPropertyOp61
 70
     1
102
RTVSPropertyOp62
 70
     1
  0
XRECORD
  5
5F3
102
{ACAD_REACTORS
330
5F2
102
}
330
5F2
100
AcDbXrecord
280
     1
102
RTVSPost2010Prop28
280
     0
102
RTVSPost2010PropOp28
 70
     1
102
RTVSPost2010Prop29
280
     1
102
RTVSPost2010PropOp29
 70
     1
102
RTVSPost2010Prop30
280
     1
102
RTVSPost2010PropOp30
 70
     1
102
RTVSPost2010Prop31
280
     0
102
RTVSPost2010PropOp31
 70
     1
102
RTVSPost2010Prop32
280
     0
102
RTVSPost2010PropOp32
 70
     1
102
RTVSPost2010Prop33
280
     0
102
RTVSPost2010PropOp33
 70
     1
102
RTVSPost2010Prop34
280
     0
102
RTVSPost2010PropOp34
 70
     1
102
RTVSPost2010Prop35
280
     0
102
RTVSPost2010PropOp35
 70
     1
102
RTVSPost2010Prop36
280
     0
102
RTVSPost2010PropOp36
 70
     1
102
RTVSPost2010Prop37
 90
       50
102
RTVSPost2010PropOp37
 70
     1
102
RTVSPost2010Prop38
140
0.0
102
RTVSPost2010PropOp38
 70
     1
102
RTVSPost2010Prop39
140
1.0
102
RTVSPost2010PropOp39
 70
     1
102
RTVSPost2010Prop40
 90
        0
102
RTVSPost2010PropOp40
 70
     1
102
RTVSPost2010Prop41ColorIndex
 90
       18
102
RTVSPost2010Prop41ColorRGB
 90
        0
102
RTVSPost2010PropOp41
 70
     1
102
RTVSPost2010Prop42
 90
       50
102
RTVSPost2010PropOp42
 70
     1
102
RTVSPost2010Prop43
 90
        3
102
RTVSPost2010PropOp43
 70
     1
102
RTVSPost2010Prop44ColorIndex
 90
        5
102
RTVSPost2010Prop44ColorRGB
 90
      255
102
RTVSPost2010PropOp44
 70
     1
102
RTVSPost2010Prop45
280
     0
102
RTVSPost2010PropOp45
 70
     1
102
RTVSPost2010Prop46
 90
       50
102
RTVSPost2010PropOp46
 70
     1
102
RTVSPost2010Prop47
 90
       50
102
RTVSPost2010PropOp47
 70
     1
102
RTVSPost2010Prop48
 90
       50
102
RTVSPost2010PropOp48
 70
     1
102
RTVSPost2010Prop49
280
     0
102
RTVSPost2010PropOp49
 70
     1
102
RTVSPost2010Prop50
 90
       50
102
RTVSPost2010PropOp50
 70
     1
102
RTVSPost2010Prop51ColorIndex
 90
      256
102
RTVSPost2010Prop51ColorRGB
 90
-16777216
102
RTVSPost2010PropOp51
 70
     0
102
RTVSPost2010Prop52
140
1.0
102
RTVSPost2010PropOp52
 70
     0
102
RTVSPost2010Prop53
 90
        2
102
RTVSPost2010PropOp53
 70
     1
102
RTVSPost2010Prop54
  1
strokes_ogs.tif
102
RTVSPost2010PropOp54
 70
     1
102
RTVSPost2010Prop55
280
     0
102
RTVSPost2010PropOp55
 70
     1
102
RTVSPost2010Prop56
140
1.0
102
RTVSPost2010PropOp56
 70
     1
102
RTVSPost2010Prop57
140
1.0
102
RTVSPost2010PropOp57
 70
     1
102
RTVSPropertyOp0
 70
     1
102
RTVSPropertyOp1
 70
     1
102
RTVSPropertyOp2
 70
     1
102
RTVSPropertyOp3
 70
     1
102
RTVSPropertyOp4
 70
     1
102
RTVSPropertyOp5
 70
     1
102
RTVSPropertyOp6
 70
     1
102
RTVSPropertyOp7
 70
     1
102
RTVSPropertyOp8
 70
     1
102
RTVSPropertyOp9
 70
     1
102
RTVSPropertyOp10
 70
     1
102
RTVSPropertyOp11
 70
     1
102
RTVSPropertyOp12
 70
     1
102
RTVSPropertyOp13
 70
     1
102
RTVSPropertyOp14
 70
     1
102
RTVSPropertyOp15
 70
     1
102
RTVSPropertyOp16
 70
     1
102
RTVSPropertyOp17
 70
     1
102
RTVSPropertyOp18
 70
     1
102
RTVSPropertyOp19
 70
     1
102
RTVSPropertyOp20
 70
     1
102
RTVSPropertyOp21
 70
     1
102
RTVSPropertyOp22
 70
     1
102
RTVSPropertyOp23
 70
     1
102
RTVSPropertyOp24
 70
     1
102
RTVSPropertyOp25
 70
     1
102
RTVSPropertyOp26
 70
     1
102
RTVSPropertyOp27
 70
     1
102
RTVSPropertyOp28
 70
     1
102
RTVSPropertyOp29
 70
     1
102
RTVSPropertyOp30
 70
     1
102
RTVSPropertyOp31
 70
     1
102
RTVSPropertyOp32
 70
     1
102
RTVSPropertyOp33
 70
     1
102
RTVSPropertyOp34
 70
     1
102
RTVSPropertyOp35
 70
     1
102
RTVSPropertyOp36
 70
     1
102
RTVSPropertyOp37
 70
     1
102
RTVSPropertyOp38
 70
     1
102
RTVSPropertyOp39
 70
     1
102
RTVSPropertyOp40
 70
     1
102
RTVSPropertyOp41
 70
     1
102
RTVSPropertyOp42
 70
     1
102
RTVSPropertyOp43
 70
     1
102
RTVSPropertyOp44
 70
     1
102
RTVSPropertyOp45
 70
     1
102
RTVSPropertyOp46
 70
     1
102
RTVSPropertyOp47
 70
     1
102
RTVSPropertyOp48
 70
     1
102
RTVSPropertyOp49
 70
     1
102
RTVSPropertyOp50
 70
     1
102
RTVSPropertyOp51
 70
     0
102
RTVSPropertyOp52
 70
     0
102
RTVSPropertyOp53
 70
     1
102
RTVSPropertyOp54
 70
     1
102
RTVSPropertyOp55
 70
     1
102
RTVSPropertyOp56
 70
     1
102
RTVSPropertyOp57
 70
     1
102
RTVSPropertyOp58
 70
     1
102
RTVSPropertyOp59
 70
     1
102
RTVSPropertyOp60
 70
     1
102
RTVSPropertyOp61
 70
     1
102
RTVSPropertyOp62
 70
     1
  0
XRECORD
  5
603
102
{ACAD_REACTORS
330
602
102
}
330
602
100
AcDbXrecord
280
     1
102
RTVSPost2010Prop28
280
     0
102
RTVSPost2010PropOp28
 70
     0
102
RTVSPost2010Prop29
280
     1
102
RTVSPost2010PropOp29
 70
     0
102
RTVSPost2010Prop30
280
     1
102
RTVSPost2010PropOp30
 70
     0
102
RTVSPost2010Prop31
280
     0
102
RTVSPost2010PropOp31
 70
     0
102
RTVSPost2010Prop32
280
     0
102
RTVSPost2010PropOp32
 70
     0
102
RTVSPost2010Prop33
280
     0
102
RTVSPost2010PropOp33
 70
     0
102
RTVSPost2010Prop34
280
     0
102
RTVSPost2010PropOp34
 70
     0
102
RTVSPost2010Prop35
280
     0
102
RTVSPost2010PropOp35
 70
     0
102
RTVSPost2010Prop36
280
     0
102
RTVSPost2010PropOp36
 70
     0
102
RTVSPost2010Prop37
 90
       50
102
RTVSPost2010PropOp37
 70
     0
102
RTVSPost2010Prop38
140
0.0
102
RTVSPost2010PropOp38
 70
     0
102
RTVSPost2010Prop39
140
1.0
102
RTVSPost2010PropOp39
 70
     0
102
RTVSPost2010Prop40
 90
        0
102
RTVSPost2010PropOp40
 70
     0
102
RTVSPost2010Prop41ColorIndex
 90
       18
102
RTVSPost2010Prop41ColorRGB
 90
        0
102
RTVSPost2010PropOp41
 70
     0
102
RTVSPost2010Prop42
 90
       50
102
RTVSPost2010PropOp42
 70
     0
102
RTVSPost2010Prop43
 90
        3
102
RTVSPost2010PropOp43
 70
     0
102
RTVSPost2010Prop44ColorIndex
 90
        5
102
RTVSPost2010Prop44ColorRGB
 90
      255
102
RTVSPost2010PropOp44
 70
     0
102
RTVSPost2010Prop45
280
     0
102
RTVSPost2010PropOp45
 70
     0
102
RTVSPost2010Prop46
 90
       50
102
RTVSPost2010PropOp46
 70
     0
102
RTVSPost2010Prop47
 90
       50
102
RTVSPost2010PropOp47
 70
     0
102
RTVSPost2010Prop48
 90
       50
102
RTVSPost2010PropOp48
 70
     0
102
RTVSPost2010Prop49
280
     0
102
RTVSPost2010PropOp49
 70
     0
102
RTVSPost2010Prop50
 90
       50
102
RTVSPost2010PropOp50
 70
     0
102
RTVSPost2010Prop51ColorIndex
 90
      256
102
RTVSPost2010Prop51ColorRGB
 90
-16777216
102
RTVSPost2010PropOp51
 70
     0
102
RTVSPost2010Prop52
140
1.0
102
RTVSPost2010PropOp52
 70
     0
102
RTVSPost2010Prop53
 90
        2
102
RTVSPost2010PropOp53
 70
     0
102
RTVSPost2010Prop54
  1
strokes_ogs.tif
102
RTVSPost2010PropOp54
 70
     0
102
RTVSPost2010Prop55
280
     0
102
RTVSPost2010PropOp55
 70
     0
102
RTVSPost2010Prop56
140
1.0
102
RTVSPost2010PropOp56
 70
     0
102
RTVSPost2010Prop57
140
1.0
102
RTVSPost2010PropOp57
 70
     0
102
RTVSPropertyOp0
 70
     0
102
RTVSPropertyOp1
 70
     0
102
RTVSPropertyOp2
 70
     0
102
RTVSPropertyOp3
 70
     0
102
RTVSPropertyOp4
 70
     0
102
RTVSPropertyOp5
 70
     0
102
RTVSPropertyOp6
 70
     0
102
RTVSPropertyOp7
 70
     0
102
RTVSPropertyOp8
 70
     0
102
RTVSPropertyOp9
 70
     0
102
RTVSPropertyOp10
 70
     0
102
RTVSPropertyOp11
 70
     0
102
RTVSPropertyOp12
 70
     0
102
RTVSPropertyOp13
 70
     0
102
RTVSPropertyOp14
 70
     2
102
RTVSPropertyOp15
 70
     0
102
RTVSPropertyOp16
 70
     0
102
RTVSPropertyOp17
 70
     0
102
RTVSPropertyOp18
 70
     0
102
RTVSPropertyOp19
 70
     0
102
RTVSPropertyOp20
 70
     0
102
RTVSPropertyOp21
 70
     0
102
RTVSPropertyOp22
 70
     0
102
RTVSPropertyOp23
 70
     0
102
RTVSPropertyOp24
 70
     0
102
RTVSPropertyOp25
 70
     0
102
RTVSPropertyOp26
 70
     0
102
RTVSPropertyOp27
 70
     0
102
RTVSPropertyOp28
 70
     0
102
RTVSPropertyOp29
 70
     0
102
RTVSPropertyOp30
 70
     0
102
RTVSPropertyOp31
 70
     0
102
RTVSPropertyOp32
 70
     0
102
RTVSPropertyOp33
 70
     0
102
RTVSPropertyOp34
 70
     0
102
RTVSPropertyOp35
 70
     0
102
RTVSPropertyOp36
 70
     0
102
RTVSPropertyOp37
 70
     0
102
RTVSPropertyOp38
 70
     0
102
RTVSPropertyOp39
 70
     0
102
RTVSPropertyOp40
 70
     0
102
RTVSPropertyOp41
 70
     0
102
RTVSPropertyOp42
 70
     0
102
RTVSPropertyOp43
 70
     0
102
RTVSPropertyOp44
 70
     0
102
RTVSPropertyOp45
 70
     0
102
RTVSPropertyOp46
 70
     0
102
RTVSPropertyOp47
 70
     0
102
RTVSPropertyOp48
 70
     0
102
RTVSPropertyOp49
 70
     0
102
RTVSPropertyOp50
 70
     0
102
RTVSPropertyOp51
 70
     0
102
RTVSPropertyOp52
 70
     0
102
RTVSPropertyOp53
 70
     0
102
RTVSPropertyOp54
 70
     0
102
RTVSPropertyOp55
 70
     0
102
RTVSPropertyOp56
 70
     0
102
RTVSPropertyOp57
 70
     0
102
RTVSPropertyOp58
 70
     1
102
RTVSPropertyOp59
 70
     1
102
RTVSPropertyOp60
 70
     1
102
RTVSPropertyOp61
 70
     1
102
RTVSPropertyOp62
 70
     1
  0
XRECORD
  5
5FB
102
{ACAD_REACTORS
330
5FA
102
}
330
5FA
100
AcDbXrecord
280
     1
102
RTVSPost2010Prop28
280
     0
102
RTVSPost2010PropOp28
 70
     1
102
RTVSPost2010Prop29
280
     1
102
RTVSPost2010PropOp29
 70
     1
102
RTVSPost2010Prop30
280
     1
102
RTVSPost2010PropOp30
 70
     1
102
RTVSPost2010Prop31
280
     0
102
RTVSPost2010PropOp31
 70
     1
102
RTVSPost2010Prop32
280
     0
102
RTVSPost2010PropOp32
 70
     1
102
RTVSPost2010Prop33
280
     0
102
RTVSPost2010PropOp33
 70
     1
102
RTVSPost2010Prop34
280
     0
102
RTVSPost2010PropOp34
 70
     1
102
RTVSPost2010Prop35
280
     0
102
RTVSPost2010PropOp35
 70
     1
102
RTVSPost2010Prop36
280
     0
102
RTVSPost2010PropOp36
 70
     1
102
RTVSPost2010Prop37
 90
       50
102
RTVSPost2010PropOp37
 70
     1
102
RTVSPost2010Prop38
140
0.0
102
RTVSPost2010PropOp38
 70
     1
102
RTVSPost2010Prop39
140
1.0
102
RTVSPost2010PropOp39
 70
     1
102
RTVSPost2010Prop40
 90
        0
102
RTVSPost2010PropOp40
 70
     1
102
RTVSPost2010Prop41ColorIndex
 90
       18
102
RTVSPost2010Prop41ColorRGB
 90
        0
102
RTVSPost2010PropOp41
 70
     1
102
RTVSPost2010Prop42
 90
       50
102
RTVSPost2010PropOp42
 70
     1
102
RTVSPost2010Prop43
 90
        3
102
RTVSPost2010PropOp43
 70
     1
102
RTVSPost2010Prop44ColorIndex
 90
        5
102
RTVSPost2010Prop44ColorRGB
 90
      255
102
RTVSPost2010PropOp44
 70
     1
102
RTVSPost2010Prop45
280
     0
102
RTVSPost2010PropOp45
 70
     1
102
RTVSPost2010Prop46
 90
       50
102
RTVSPost2010PropOp46
 70
     1
102
RTVSPost2010Prop47
 90
       50
102
RTVSPost2010PropOp47
 70
     1
102
RTVSPost2010Prop48
 90
       50
102
RTVSPost2010PropOp48
 70
     1
102
RTVSPost2010Prop49
280
     0
102
RTVSPost2010PropOp49
 70
     1
102
RTVSPost2010Prop50
 90
       50
102
RTVSPost2010PropOp50
 70
     1
102
RTVSPost2010Prop51ColorIndex
 90
      256
102
RTVSPost2010Prop51ColorRGB
 90
-16777216
102
RTVSPost2010PropOp51
 70
     0
102
RTVSPost2010Prop52
140
1.0
102
RTVSPost2010PropOp52
 70
     0
102
RTVSPost2010Prop53
 90
        2
102
RTVSPost2010PropOp53
 70
     1
102
RTVSPost2010Prop54
  1
strokes_ogs.tif
102
RTVSPost2010PropOp54
 70
     1
102
RTVSPost2010Prop55
280
     0
102
RTVSPost2010PropOp55
 70
     1
102
RTVSPost2010Prop56
140
1.0
102
RTVSPost2010PropOp56
 70
     1
102
RTVSPost2010Prop57
140
1.0
102
RTVSPost2010PropOp57
 70
     1
102
RTVSPropertyOp0
 70
     1
102
RTVSPropertyOp1
 70
     1
102
RTVSPropertyOp2
 70
     1
102
RTVSPropertyOp3
 70
     1
102
RTVSPropertyOp4
 70
     1
102
RTVSPropertyOp5
 70
     1
102
RTVSPropertyOp6
 70
     1
102
RTVSPropertyOp7
 70
     1
102
RTVSPropertyOp8
 70
     1
102
RTVSPropertyOp9
 70
     1
102
RTVSPropertyOp10
 70
     1
102
RTVSPropertyOp11
 70
     1
102
RTVSPropertyOp12
 70
     1
102
RTVSPropertyOp13
 70
     1
102
RTVSPropertyOp14
 70
     1
102
RTVSPropertyOp15
 70
     1
102
RTVSPropertyOp16
 70
     1
102
RTVSPropertyOp17
 70
     1
102
RTVSPropertyOp18
 70
     1
102
RTVSPropertyOp19
 70
     1
102
RTVSPropertyOp20
 70
     1
102
RTVSPropertyOp21
 70
     1
102
RTVSPropertyOp22
 70
     1
102
RTVSPropertyOp23
 70
     1
102
RTVSPropertyOp24
 70
     1
102
RTVSPropertyOp25
 70
     1
102
RTVSPropertyOp26
 70
     1
102
RTVSPropertyOp27
 70
     1
102
RTVSPropertyOp28
 70
     1
102
RTVSPropertyOp29
 70
     1
102
RTVSPropertyOp30
 70
     1
102
RTVSPropertyOp31
 70
     1
102
RTVSPropertyOp32
 70
     1
102
RTVSPropertyOp33
 70
     1
102
RTVSPropertyOp34
 70
     1
102
RTVSPropertyOp35
 70
     1
102
RTVSPropertyOp36
 70
     1
102
RTVSPropertyOp37
 70
     1
102
RTVSPropertyOp38
 70
     1
102
RTVSPropertyOp39
 70
     1
102
RTVSPropertyOp40
 70
     1
102
RTVSPropertyOp41
 70
     1
102
RTVSPropertyOp42
 70
     1
102
RTVSPropertyOp43
 70
     1
102
RTVSPropertyOp44
 70
     1
102
RTVSPropertyOp45
 70
     1
102
RTVSPropertyOp46
 70
     1
102
RTVSPropertyOp47
 70
     1
102
RTVSPropertyOp48
 70
     1
102
RTVSPropertyOp49
 70
     1
102
RTVSPropertyOp50
 70
     1
102
RTVSPropertyOp51
 70
     0
102
RTVSPropertyOp52
 70
     0
102
RTVSPropertyOp53
 70
     1
102
RTVSPropertyOp54
 70
     1
102
RTVSPropertyOp55
 70
     1
102
RTVSPropertyOp56
 70
     1
102
RTVSPropertyOp57
 70
     1
102
RTVSPropertyOp58
 70
     1
102
RTVSPropertyOp59
 70
     1
102
RTVSPropertyOp60
 70
     1
102
RTVSPropertyOp61
 70
     1
102
RTVSPropertyOp62
 70
     1
  0
XRECORD
  5
5DF
102
{ACAD_REACTORS
330
5DE
102
}
330
5DE
100
AcDbXrecord
280
     1
102
RTVSPost2010Prop28
280
     0
102
RTVSPost2010PropOp28
 70
     1
102
RTVSPost2010Prop29
280
     1
102
RTVSPost2010PropOp29
 70
     1
102
RTVSPost2010Prop30
280
     1
102
RTVSPost2010PropOp30
 70
     1
102
RTVSPost2010Prop31
280
     0
102
RTVSPost2010PropOp31
 70
     1
102
RTVSPost2010Prop32
280
     0
102
RTVSPost2010PropOp32
 70
     1
102
RTVSPost2010Prop33
280
     0
102
RTVSPost2010PropOp33
 70
     1
102
RTVSPost2010Prop34
280
     0
102
RTVSPost2010PropOp34
 70
     1
102
RTVSPost2010Prop35
280
     0
102
RTVSPost2010PropOp35
 70
     1
102
RTVSPost2010Prop36
280
     0
102
RTVSPost2010PropOp36
 70
     1
102
RTVSPost2010Prop37
 90
       50
102
RTVSPost2010PropOp37
 70
     1
102
RTVSPost2010Prop38
140
0.0
102
RTVSPost2010PropOp38
 70
     1
102
RTVSPost2010Prop39
140
1.0
102
RTVSPost2010PropOp39
 70
     1
102
RTVSPost2010Prop40
 90
        0
102
RTVSPost2010PropOp40
 70
     1
102
RTVSPost2010Prop41ColorIndex
 90
       18
102
RTVSPost2010Prop41ColorRGB
 90
        0
102
RTVSPost2010PropOp41
 70
     1
102
RTVSPost2010Prop42
 90
       50
102
RTVSPost2010PropOp42
 70
     1
102
RTVSPost2010Prop43
 90
        3
102
RTVSPost2010PropOp43
 70
     1
102
RTVSPost2010Prop44ColorIndex
 90
        5
102
RTVSPost2010Prop44ColorRGB
 90
      255
102
RTVSPost2010PropOp44
 70
     1
102
RTVSPost2010Prop45
280
     0
102
RTVSPost2010PropOp45
 70
     1
102
RTVSPost2010Prop46
 90
       50
102
RTVSPost2010PropOp46
 70
     1
102
RTVSPost2010Prop47
 90
       50
102
RTVSPost2010PropOp47
 70
     1
102
RTVSPost2010Prop48
 90
       50
102
RTVSPost2010PropOp48
 70
     1
102
RTVSPost2010Prop49
280
     0
102
RTVSPost2010PropOp49
 70
     1
102
RTVSPost2010Prop50
 90
       50
102
RTVSPost2010PropOp50
 70
     1
102
RTVSPost2010Prop51ColorIndex
 90
      256
102
RTVSPost2010Prop51ColorRGB
 90
-16777216
102
RTVSPost2010PropOp51
 70
     0
102
RTVSPost2010Prop52
140
1.0
102
RTVSPost2010PropOp52
 70
     0
102
RTVSPost2010Prop53
 90
        2
102
RTVSPost2010PropOp53
 70
     1
102
RTVSPost2010Prop54
  1
strokes_ogs.tif
102
RTVSPost2010PropOp54
 70
     1
102
RTVSPost2010Prop55
280
     0
102
RTVSPost2010PropOp55
 70
     1
102
RTVSPost2010Prop56
140
1.0
102
RTVSPost2010PropOp56
 70
     1
102
RTVSPost2010Prop57
140
1.0
102
RTVSPost2010PropOp57
 70
     1
102
RTVSPropertyOp0
 70
     1
102
RTVSPropertyOp1
 70
     1
102
RTVSPropertyOp2
 70
     1
102
RTVSPropertyOp3
 70
     1
102
RTVSPropertyOp4
 70
     1
102
RTVSPropertyOp5
 70
     1
102
RTVSPropertyOp6
 70
     1
102
RTVSPropertyOp7
 70
     1
102
RTVSPropertyOp8
 70
     1
102
RTVSPropertyOp9
 70
     1
102
RTVSPropertyOp10
 70
     1
102
RTVSPropertyOp11
 70
     1
102
RTVSPropertyOp12
 70
     1
102
RTVSPropertyOp13
 70
     1
102
RTVSPropertyOp14
 70
     1
102
RTVSPropertyOp15
 70
     1
102
RTVSPropertyOp16
 70
     1
102
RTVSPropertyOp17
 70
     1
102
RTVSPropertyOp18
 70
     1
102
RTVSPropertyOp19
 70
     1
102
RTVSPropertyOp20
 70
     1
102
RTVSPropertyOp21
 70
     1
102
RTVSPropertyOp22
 70
     1
102
RTVSPropertyOp23
 70
     1
102
RTVSPropertyOp24
 70
     1
102
RTVSPropertyOp25
 70
     1
102
RTVSPropertyOp26
 70
     1
102
RTVSPropertyOp27
 70
     1
102
RTVSPropertyOp28
 70
     1
102
RTVSPropertyOp29
 70
     1
102
RTVSPropertyOp30
 70
     1
102
RTVSPropertyOp31
 70
     1
102
RTVSPropertyOp32
 70
     1
102
RTVSPropertyOp33
 70
     1
102
RTVSPropertyOp34
 70
     1
102
RTVSPropertyOp35
 70
     1
102
RTVSPropertyOp36
 70
     1
102
RTVSPropertyOp37
 70
     1
102
RTVSPropertyOp38
 70
     1
102
RTVSPropertyOp39
 70
     1
102
RTVSPropertyOp40
 70
     1
102
RTVSPropertyOp41
 70
     1
102
RTVSPropertyOp42
 70
     1
102
RTVSPropertyOp43
 70
     1
102
RTVSPropertyOp44
 70
     1
102
RTVSPropertyOp45
 70
     1
102
RTVSPropertyOp46
 70
     1
102
RTVSPropertyOp47
 70
     1
102
RTVSPropertyOp48
 70
     1
102
RTVSPropertyOp49
 70
     1
102
RTVSPropertyOp50
 70
     1
102
RTVSPropertyOp51
 70
     0
102
RTVSPropertyOp52
 70
     0
102
RTVSPropertyOp53
 70
     1
102
RTVSPropertyOp54
 70
     1
102
RTVSPropertyOp55
 70
     1
102
RTVSPropertyOp56
 70
     1
102
RTVSPropertyOp57
 70
     1
102
RTVSPropertyOp58
 70
     1
102
RTVSPropertyOp59
 70
     1
102
RTVSPropertyOp60
 70
     1
102
RTVSPropertyOp61
 70
     1
102
RTVSPropertyOp62
 70
     1
  0
XRECORD
  5
5E1
102
{ACAD_REACTORS
330
5E0
102
}
330
5E0
100
AcDbXrecord
280
     1
102
RTVSPost2010Prop28
280
     0
102
RTVSPost2010PropOp28
 70
     1
102
RTVSPost2010Prop29
280
     1
102
RTVSPost2010PropOp29
 70
     1
102
RTVSPost2010Prop30
280
     1
102
RTVSPost2010PropOp30
 70
     1
102
RTVSPost2010Prop31
280
     0
102
RTVSPost2010PropOp31
 70
     1
102
RTVSPost2010Prop32
280
     0
102
RTVSPost2010PropOp32
 70
     1
102
RTVSPost2010Prop33
280
     0
102
RTVSPost2010PropOp33
 70
     1
102
RTVSPost2010Prop34
280
     0
102
RTVSPost2010PropOp34
 70
     1
102
RTVSPost2010Prop35
280
     0
102
RTVSPost2010PropOp35
 70
     1
102
RTVSPost2010Prop36
280
     0
102
RTVSPost2010PropOp36
 70
     1
102
RTVSPost2010Prop37
 90
       50
102
RTVSPost2010PropOp37
 70
     1
102
RTVSPost2010Prop38
140
0.0
102
RTVSPost2010PropOp38
 70
     1
102
RTVSPost2010Prop39
140
1.0
102
RTVSPost2010PropOp39
 70
     1
102
RTVSPost2010Prop40
 90
        0
102
RTVSPost2010PropOp40
 70
     1
102
RTVSPost2010Prop41ColorIndex
 90
       18
102
RTVSPost2010Prop41ColorRGB
 90
        0
102
RTVSPost2010PropOp41
 70
     1
102
RTVSPost2010Prop42
 90
       50
102
RTVSPost2010PropOp42
 70
     1
102
RTVSPost2010Prop43
 90
        3
102
RTVSPost2010PropOp43
 70
     1
102
RTVSPost2010Prop44ColorIndex
 90
        5
102
RTVSPost2010Prop44ColorRGB
 90
      255
102
RTVSPost2010PropOp44
 70
     1
102
RTVSPost2010Prop45
280
     0
102
RTVSPost2010PropOp45
 70
     1
102
RTVSPost2010Prop46
 90
       50
102
RTVSPost2010PropOp46
 70
     1
102
RTVSPost2010Prop47
 90
       50
102
RTVSPost2010PropOp47
 70
     1
102
RTVSPost2010Prop48
 90
       50
102
RTVSPost2010PropOp48
 70
     1
102
RTVSPost2010Prop49
280
     0
102
RTVSPost2010PropOp49
 70
     1
102
RTVSPost2010Prop50
 90
       50
102
RTVSPost2010PropOp50
 70
     1
102
RTVSPost2010Prop51ColorIndex
 90
      256
102
RTVSPost2010Prop51ColorRGB
 90
-16777216
102
RTVSPost2010PropOp51
 70
     0
102
RTVSPost2010Prop52
140
1.0
102
RTVSPost2010PropOp52
 70
     0
102
RTVSPost2010Prop53
 90
        2
102
RTVSPost2010PropOp53
 70
     1
102
RTVSPost2010Prop54
  1
strokes_ogs.tif
102
RTVSPost2010PropOp54
 70
     1
102
RTVSPost2010Prop55
280
     0
102
RTVSPost2010PropOp55
 70
     1
102
RTVSPost2010Prop56
140
1.0
102
RTVSPost2010PropOp56
 70
     1
102
RTVSPost2010Prop57
140
1.0
102
RTVSPost2010PropOp57
 70
     1
102
RTVSPropertyOp0
 70
     1
102
RTVSPropertyOp1
 70
     1
102
RTVSPropertyOp2
 70
     1
102
RTVSPropertyOp3
 70
     1
102
RTVSPropertyOp4
 70
     1
102
RTVSPropertyOp5
 70
     1
102
RTVSPropertyOp6
 70
     1
102
RTVSPropertyOp7
 70
     1
102
RTVSPropertyOp8
 70
     1
102
RTVSPropertyOp9
 70
     1
102
RTVSPropertyOp10
 70
     1
102
RTVSPropertyOp11
 70
     1
102
RTVSPropertyOp12
 70
     1
102
RTVSPropertyOp13
 70
     1
102
RTVSPropertyOp14
 70
     1
102
RTVSPropertyOp15
 70
     1
102
RTVSPropertyOp16
 70
     1
102
RTVSPropertyOp17
 70
     1
102
RTVSPropertyOp18
 70
     1
102
RTVSPropertyOp19
 70
     1
102
RTVSPropertyOp20
 70
     1
102
RTVSPropertyOp21
 70
     1
102
RTVSPropertyOp22
 70
     1
102
RTVSPropertyOp23
 70
     1
102
RTVSPropertyOp24
 70
     1
102
RTVSPropertyOp25
 70
     1
102
RTVSPropertyOp26
 70
     1
102
RTVSPropertyOp27
 70
     1
102
RTVSPropertyOp28
 70
     1
102
RTVSPropertyOp29
 70
     1
102
RTVSPropertyOp30
 70
     1
102
RTVSPropertyOp31
 70
     1
102
RTVSPropertyOp32
 70
     1
102
RTVSPropertyOp33
 70
     1
102
RTVSPropertyOp34
 70
     1
102
RTVSPropertyOp35
 70
     1
102
RTVSPropertyOp36
 70
     1
102
RTVSPropertyOp37
 70
     1
102
RTVSPropertyOp38
 70
     1
102
RTVSPropertyOp39
 70
     1
102
RTVSPropertyOp40
 70
     1
102
RTVSPropertyOp41
 70
     1
102
RTVSPropertyOp42
 70
     1
102
RTVSPropertyOp43
 70
     1
102
RTVSPropertyOp44
 70
     1
102
RTVSPropertyOp45
 70
     1
102
RTVSPropertyOp46
 70
     1
102
RTVSPropertyOp47
 70
     1
102
RTVSPropertyOp48
 70
     1
102
RTVSPropertyOp49
 70
     1
102
RTVSPropertyOp50
 70
     1
102
RTVSPropertyOp51
 70
     0
102
RTVSPropertyOp52
 70
     0
102
RTVSPropertyOp53
 70
     1
102
RTVSPropertyOp54
 70
     1
102
RTVSPropertyOp55
 70
     1
102
RTVSPropertyOp56
 70
     1
102
RTVSPropertyOp57
 70
     1
102
RTVSPropertyOp58
 70
     1
102
RTVSPropertyOp59
 70
     1
102
RTVSPropertyOp60
 70
     1
102
RTVSPropertyOp61
 70
     1
102
RTVSPropertyOp62
 70
     1
  0
XRECORD
  5
5E3
102
{ACAD_REACTORS
330
5E2
102
}
330
5E2
100
AcDbXrecord
280
     1
102
RTVSPost2010Prop28
280
     0
102
RTVSPost2010PropOp28
 70
     1
102
RTVSPost2010Prop29
280
     1
102
RTVSPost2010PropOp29
 70
     1
102
RTVSPost2010Prop30
280
     1
102
RTVSPost2010PropOp30
 70
     1
102
RTVSPost2010Prop31
280
     0
102
RTVSPost2010PropOp31
 70
     1
102
RTVSPost2010Prop32
280
     0
102
RTVSPost2010PropOp32
 70
     1
102
RTVSPost2010Prop33
280
     0
102
RTVSPost2010PropOp33
 70
     1
102
RTVSPost2010Prop34
280
     0
102
RTVSPost2010PropOp34
 70
     1
102
RTVSPost2010Prop35
280
     0
102
RTVSPost2010PropOp35
 70
     1
102
RTVSPost2010Prop36
280
     0
102
RTVSPost2010PropOp36
 70
     1
102
RTVSPost2010Prop37
 90
       50
102
RTVSPost2010PropOp37
 70
     1
102
RTVSPost2010Prop38
140
0.0
102
RTVSPost2010PropOp38
 70
     1
102
RTVSPost2010Prop39
140
1.0
102
RTVSPost2010PropOp39
 70
     1
102
RTVSPost2010Prop40
 90
        0
102
RTVSPost2010PropOp40
 70
     1
102
RTVSPost2010Prop41ColorIndex
 90
       18
102
RTVSPost2010Prop41ColorRGB
 90
        0
102
RTVSPost2010PropOp41
 70
     1
102
RTVSPost2010Prop42
 90
       50
102
RTVSPost2010PropOp42
 70
     1
102
RTVSPost2010Prop43
 90
        3
102
RTVSPost2010PropOp43
 70
     1
102
RTVSPost2010Prop44ColorIndex
 90
        5
102
RTVSPost2010Prop44ColorRGB
 90
      255
102
RTVSPost2010PropOp44
 70
     1
102
RTVSPost2010Prop45
280
     0
102
RTVSPost2010PropOp45
 70
     1
102
RTVSPost2010Prop46
 90
       50
102
RTVSPost2010PropOp46
 70
     1
102
RTVSPost2010Prop47
 90
       50
102
RTVSPost2010PropOp47
 70
     1
102
RTVSPost2010Prop48
 90
       50
102
RTVSPost2010PropOp48
 70
     1
102
RTVSPost2010Prop49
280
     0
102
RTVSPost2010PropOp49
 70
     1
102
RTVSPost2010Prop50
 90
       50
102
RTVSPost2010PropOp50
 70
     1
102
RTVSPost2010Prop51ColorIndex
 90
      256
102
RTVSPost2010Prop51ColorRGB
 90
-16777216
102
RTVSPost2010PropOp51
 70
     0
102
RTVSPost2010Prop52
140
1.0
102
RTVSPost2010PropOp52
 70
     0
102
RTVSPost2010Prop53
 90
        2
102
RTVSPost2010PropOp53
 70
     1
102
RTVSPost2010Prop54
  1
strokes_ogs.tif
102
RTVSPost2010PropOp54
 70
     1
102
RTVSPost2010Prop55
280
     0
102
RTVSPost2010PropOp55
 70
     1
102
RTVSPost2010Prop56
140
1.0
102
RTVSPost2010PropOp56
 70
     1
102
RTVSPost2010Prop57
140
1.0
102
RTVSPost2010PropOp57
 70
     1
102
RTVSPropertyOp0
 70
     1
102
RTVSPropertyOp1
 70
     1
102
RTVSPropertyOp2
 70
     1
102
RTVSPropertyOp3
 70
     1
102
RTVSPropertyOp4
 70
     1
102
RTVSPropertyOp5
 70
     1
102
RTVSPropertyOp6
 70
     1
102
RTVSPropertyOp7
 70
     1
102
RTVSPropertyOp8
 70
     1
102
RTVSPropertyOp9
 70
     1
102
RTVSPropertyOp10
 70
     1
102
RTVSPropertyOp11
 70
     1
102
RTVSPropertyOp12
 70
     1
102
RTVSPropertyOp13
 70
     1
102
RTVSPropertyOp14
 70
     1
102
RTVSPropertyOp15
 70
     1
102
RTVSPropertyOp16
 70
     1
102
RTVSPropertyOp17
 70
     1
102
RTVSPropertyOp18
 70
     1
102
RTVSPropertyOp19
 70
     1
102
RTVSPropertyOp20
 70
     1
102
RTVSPropertyOp21
 70
     1
102
RTVSPropertyOp22
 70
     1
102
RTVSPropertyOp23
 70
     1
102
RTVSPropertyOp24
 70
     1
102
RTVSPropertyOp25
 70
     1
102
RTVSPropertyOp26
 70
     1
102
RTVSPropertyOp27
 70
     1
102
RTVSPropertyOp28
 70
     1
102
RTVSPropertyOp29
 70
     1
102
RTVSPropertyOp30
 70
     1
102
RTVSPropertyOp31
 70
     1
102
RTVSPropertyOp32
 70
     1
102
RTVSPropertyOp33
 70
     1
102
RTVSPropertyOp34
 70
     1
102
RTVSPropertyOp35
 70
     1
102
RTVSPropertyOp36
 70
     1
102
RTVSPropertyOp37
 70
     1
102
RTVSPropertyOp38
 70
     1
102
RTVSPropertyOp39
 70
     1
102
RTVSPropertyOp40
 70
     1
102
RTVSPropertyOp41
 70
     1
102
RTVSPropertyOp42
 70
     1
102
RTVSPropertyOp43
 70
     1
102
RTVSPropertyOp44
 70
     1
102
RTVSPropertyOp45
 70
     1
102
RTVSPropertyOp46
 70
     1
102
RTVSPropertyOp47
 70
     1
102
RTVSPropertyOp48
 70
     1
102
RTVSPropertyOp49
 70
     1
102
RTVSPropertyOp50
 70
     1
102
RTVSPropertyOp51
 70
     0
102
RTVSPropertyOp52
 70
     0
102
RTVSPropertyOp53
 70
     1
102
RTVSPropertyOp54
 70
     1
102
RTVSPropertyOp55
 70
     1
102
RTVSPropertyOp56
 70
     1
102
RTVSPropertyOp57
 70
     1
102
RTVSPropertyOp58
 70
     1
102
RTVSPropertyOp59
 70
     1
102
RTVSPropertyOp60
 70
     1
102
RTVSPropertyOp61
 70
     1
102
RTVSPropertyOp62
 70
     1
  0
XRECORD
  5
5E5
102
{ACAD_REACTORS
330
5E4
102
}
330
5E4
100
AcDbXrecord
280
     1
102
RTVSPost2010Prop28
280
     0
102
RTVSPost2010PropOp28
 70
     1
102
RTVSPost2010Prop29
280
     1
102
RTVSPost2010PropOp29
 70
     1
102
RTVSPost2010Prop30
280
     1
102
RTVSPost2010PropOp30
 70
     1
102
RTVSPost2010Prop31
280
     0
102
RTVSPost2010PropOp31
 70
     1
102
RTVSPost2010Prop32
280
     0
102
RTVSPost2010PropOp32
 70
     1
102
RTVSPost2010Prop33
280
     0
102
RTVSPost2010PropOp33
 70
     1
102
RTVSPost2010Prop34
280
     0
102
RTVSPost2010PropOp34
 70
     1
102
RTVSPost2010Prop35
280
     0
102
RTVSPost2010PropOp35
 70
     1
102
RTVSPost2010Prop36
280
     0
102
RTVSPost2010PropOp36
 70
     1
102
RTVSPost2010Prop37
 90
       50
102
RTVSPost2010PropOp37
 70
     1
102
RTVSPost2010Prop38
140
0.0
102
RTVSPost2010PropOp38
 70
     1
102
RTVSPost2010Prop39
140
1.0
102
RTVSPost2010PropOp39
 70
     1
102
RTVSPost2010Prop40
 90
        0
102
RTVSPost2010PropOp40
 70
     1
102
RTVSPost2010Prop41ColorIndex
 90
       18
102
RTVSPost2010Prop41ColorRGB
 90
        0
102
RTVSPost2010PropOp41
 70
     1
102
RTVSPost2010Prop42
 90
       50
102
RTVSPost2010PropOp42
 70
     1
102
RTVSPost2010Prop43
 90
        3
102
RTVSPost2010PropOp43
 70
     1
102
RTVSPost2010Prop44ColorIndex
 90
        5
102
RTVSPost2010Prop44ColorRGB
 90
      255
102
RTVSPost2010PropOp44
 70
     1
102
RTVSPost2010Prop45
280
     0
102
RTVSPost2010PropOp45
 70
     1
102
RTVSPost2010Prop46
 90
       50
102
RTVSPost2010PropOp46
 70
     1
102
RTVSPost2010Prop47
 90
       50
102
RTVSPost2010PropOp47
 70
     1
102
RTVSPost2010Prop48
 90
       50
102
RTVSPost2010PropOp48
 70
     1
102
RTVSPost2010Prop49
280
     0
102
RTVSPost2010PropOp49
 70
     1
102
RTVSPost2010Prop50
 90
       50
102
RTVSPost2010PropOp50
 70
     1
102
RTVSPost2010Prop51ColorIndex
 90
      256
102
RTVSPost2010Prop51ColorRGB
 90
-16777216
102
RTVSPost2010PropOp51
 70
     0
102
RTVSPost2010Prop52
140
1.0
102
RTVSPost2010PropOp52
 70
     0
102
RTVSPost2010Prop53
 90
        2
102
RTVSPost2010PropOp53
 70
     1
102
RTVSPost2010Prop54
  1
strokes_ogs.tif
102
RTVSPost2010PropOp54
 70
     1
102
RTVSPost2010Prop55
280
     0
102
RTVSPost2010PropOp55
 70
     1
102
RTVSPost2010Prop56
140
1.0
102
RTVSPost2010PropOp56
 70
     1
102
RTVSPost2010Prop57
140
1.0
102
RTVSPost2010PropOp57
 70
     1
102
RTVSPropertyOp0
 70
     1
102
RTVSPropertyOp1
 70
     1
102
RTVSPropertyOp2
 70
     1
102
RTVSPropertyOp3
 70
     1
102
RTVSPropertyOp4
 70
     1
102
RTVSPropertyOp5
 70
     1
102
RTVSPropertyOp6
 70
     1
102
RTVSPropertyOp7
 70
     1
102
RTVSPropertyOp8
 70
     1
102
RTVSPropertyOp9
 70
     1
102
RTVSPropertyOp10
 70
     1
102
RTVSPropertyOp11
 70
     1
102
RTVSPropertyOp12
 70
     1
102
RTVSPropertyOp13
 70
     1
102
RTVSPropertyOp14
 70
     1
102
RTVSPropertyOp15
 70
     1
102
RTVSPropertyOp16
 70
     1
102
RTVSPropertyOp17
 70
     1
102
RTVSPropertyOp18
 70
     1
102
RTVSPropertyOp19
 70
     1
102
RTVSPropertyOp20
 70
     1
102
RTVSPropertyOp21
 70
     1
102
RTVSPropertyOp22
 70
     1
102
RTVSPropertyOp23
 70
     1
102
RTVSPropertyOp24
 70
     1
102
RTVSPropertyOp25
 70
     1
102
RTVSPropertyOp26
 70
     1
102
RTVSPropertyOp27
 70
     1
102
RTVSPropertyOp28
 70
     1
102
RTVSPropertyOp29
 70
     1
102
RTVSPropertyOp30
 70
     1
102
RTVSPropertyOp31
 70
     1
102
RTVSPropertyOp32
 70
     1
102
RTVSPropertyOp33
 70
     1
102
RTVSPropertyOp34
 70
     1
102
RTVSPropertyOp35
 70
     1
102
RTVSPropertyOp36
 70
     1
102
RTVSPropertyOp37
 70
     1
102
RTVSPropertyOp38
 70
     1
102
RTVSPropertyOp39
 70
     1
102
RTVSPropertyOp40
 70
     1
102
RTVSPropertyOp41
 70
     1
102
RTVSPropertyOp42
 70
     1
102
RTVSPropertyOp43
 70
     1
102
RTVSPropertyOp44
 70
     1
102
RTVSPropertyOp45
 70
     1
102
RTVSPropertyOp46
 70
     1
102
RTVSPropertyOp47
 70
     1
102
RTVSPropertyOp48
 70
     1
102
RTVSPropertyOp49
 70
     1
102
RTVSPropertyOp50
 70
     1
102
RTVSPropertyOp51
 70
     0
102
RTVSPropertyOp52
 70
     0
102
RTVSPropertyOp53
 70
     1
102
RTVSPropertyOp54
 70
     1
102
RTVSPropertyOp55
 70
     1
102
RTVSPropertyOp56
 70
     1
102
RTVSPropertyOp57
 70
     1
102
RTVSPropertyOp58
 70
     1
102
RTVSPropertyOp59
 70
     1
102
RTVSPropertyOp60
 70
     1
102
RTVSPropertyOp61
 70
     1
102
RTVSPropertyOp62
 70
     1
  0
XRECORD
  5
5EB
102
{ACAD_REACTORS
330
5EA
102
}
330
5EA
100
AcDbXrecord
280
     1
102
RTVSPost2010Prop28
280
     0
102
RTVSPost2010PropOp28
 70
     1
102
RTVSPost2010Prop29
280
     1
102
RTVSPost2010PropOp29
 70
     1
102
RTVSPost2010Prop30
280
     1
102
RTVSPost2010PropOp30
 70
     1
102
RTVSPost2010Prop31
280
     0
102
RTVSPost2010PropOp31
 70
     1
102
RTVSPost2010Prop32
280
     0
102
RTVSPost2010PropOp32
 70
     1
102
RTVSPost2010Prop33
280
     0
102
RTVSPost2010PropOp33
 70
     1
102
RTVSPost2010Prop34
280
     0
102
RTVSPost2010PropOp34
 70
     1
102
RTVSPost2010Prop35
280
     0
102
RTVSPost2010PropOp35
 70
     1
102
RTVSPost2010Prop36
280
     0
102
RTVSPost2010PropOp36
 70
     1
102
RTVSPost2010Prop37
 90
       50
102
RTVSPost2010PropOp37
 70
     1
102
RTVSPost2010Prop38
140
0.0
102
RTVSPost2010PropOp38
 70
     1
102
RTVSPost2010Prop39
140
1.0
102
RTVSPost2010PropOp39
 70
     1
102
RTVSPost2010Prop40
 90
        0
102
RTVSPost2010PropOp40
 70
     1
102
RTVSPost2010Prop41ColorIndex
 90
       18
102
RTVSPost2010Prop41ColorRGB
 90
        0
102
RTVSPost2010PropOp41
 70
     1
102
RTVSPost2010Prop42
 90
       50
102
RTVSPost2010PropOp42
 70
     1
102
RTVSPost2010Prop43
 90
        3
102
RTVSPost2010PropOp43
 70
     1
102
RTVSPost2010Prop44ColorIndex
 90
        5
102
RTVSPost2010Prop44ColorRGB
 90
      255
102
RTVSPost2010PropOp44
 70
     1
102
RTVSPost2010Prop45
280
     0
102
RTVSPost2010PropOp45
 70
     1
102
RTVSPost2010Prop46
 90
       50
102
RTVSPost2010PropOp46
 70
     1
102
RTVSPost2010Prop47
 90
       50
102
RTVSPost2010PropOp47
 70
     1
102
RTVSPost2010Prop48
 90
       50
102
RTVSPost2010PropOp48
 70
     1
102
RTVSPost2010Prop49
280
     0
102
RTVSPost2010PropOp49
 70
     1
102
RTVSPost2010Prop50
 90
       50
102
RTVSPost2010PropOp50
 70
     1
102
RTVSPost2010Prop51ColorIndex
 90
      256
102
RTVSPost2010Prop51ColorRGB
 90
-16777216
102
RTVSPost2010PropOp51
 70
     0
102
RTVSPost2010Prop52
140
1.0
102
RTVSPost2010PropOp52
 70
     0
102
RTVSPost2010Prop53
 90
        2
102
RTVSPost2010PropOp53
 70
     1
102
RTVSPost2010Prop54
  1
strokes_ogs.tif
102
RTVSPost2010PropOp54
 70
     1
102
RTVSPost2010Prop55
280
     0
102
RTVSPost2010PropOp55
 70
     1
102
RTVSPost2010Prop56
140
1.0
102
RTVSPost2010PropOp56
 70
     1
102
RTVSPost2010Prop57
140
1.0
102
RTVSPost2010PropOp57
 70
     1
102
RTVSPropertyOp0
 70
     1
102
RTVSPropertyOp1
 70
     1
102
RTVSPropertyOp2
 70
     1
102
RTVSPropertyOp3
 70
     1
102
RTVSPropertyOp4
 70
     1
102
RTVSPropertyOp5
 70
     1
102
RTVSPropertyOp6
 70
     1
102
RTVSPropertyOp7
 70
     1
102
RTVSPropertyOp8
 70
     1
102
RTVSPropertyOp9
 70
     1
102
RTVSPropertyOp10
 70
     1
102
RTVSPropertyOp11
 70
     1
102
RTVSPropertyOp12
 70
     1
102
RTVSPropertyOp13
 70
     1
102
RTVSPropertyOp14
 70
     1
102
RTVSPropertyOp15
 70
     1
102
RTVSPropertyOp16
 70
     1
102
RTVSPropertyOp17
 70
     1
102
RTVSPropertyOp18
 70
     1
102
RTVSPropertyOp19
 70
     1
102
RTVSPropertyOp20
 70
     1
102
RTVSPropertyOp21
 70
     1
102
RTVSPropertyOp22
 70
     1
102
RTVSPropertyOp23
 70
     1
102
RTVSPropertyOp24
 70
     1
102
RTVSPropertyOp25
 70
     1
102
RTVSPropertyOp26
 70
     1
102
RTVSPropertyOp27
 70
     1
102
RTVSPropertyOp28
 70
     1
102
RTVSPropertyOp29
 70
     1
102
RTVSPropertyOp30
 70
     1
102
RTVSPropertyOp31
 70
     1
102
RTVSPropertyOp32
 70
     1
102
RTVSPropertyOp33
 70
     1
102
RTVSPropertyOp34
 70
     1
102
RTVSPropertyOp35
 70
     1
102
RTVSPropertyOp36
 70
     1
102
RTVSPropertyOp37
 70
     1
102
RTVSPropertyOp38
 70
     1
102
RTVSPropertyOp39
 70
     1
102
RTVSPropertyOp40
 70
     1
102
RTVSPropertyOp41
 70
     1
102
RTVSPropertyOp42
 70
     1
102
RTVSPropertyOp43
 70
     1
102
RTVSPropertyOp44
 70
     1
102
RTVSPropertyOp45
 70
     1
102
RTVSPropertyOp46
 70
     1
102
RTVSPropertyOp47
 70
     1
102
RTVSPropertyOp48
 70
     1
102
RTVSPropertyOp49
 70
     1
102
RTVSPropertyOp50
 70
     1
102
RTVSPropertyOp51
 70
     0
102
RTVSPropertyOp52
 70
     0
102
RTVSPropertyOp53
 70
     1
102
RTVSPropertyOp54
 70
     1
102
RTVSPropertyOp55
 70
     1
102
RTVSPropertyOp56
 70
     1
102
RTVSPropertyOp57
 70
     1
102
RTVSPropertyOp58
 70
     1
102
RTVSPropertyOp59
 70
     1
102
RTVSPropertyOp60
 70
     1
102
RTVSPropertyOp61
 70
     1
102
RTVSPropertyOp62
 70
     1
  0
XRECORD
  5
5FF
102
{ACAD_REACTORS
330
5FE
102
}
330
5FE
100
AcDbXrecord
280
     1
102
RTVSPost2010Prop28
280
     0
102
RTVSPost2010PropOp28
 70
     0
102
RTVSPost2010Prop29
280
     1
102
RTVSPost2010PropOp29
 70
     0
102
RTVSPost2010Prop30
280
     1
102
RTVSPost2010PropOp30
 70
     0
102
RTVSPost2010Prop31
280
     0
102
RTVSPost2010PropOp31
 70
     0
102
RTVSPost2010Prop32
280
     0
102
RTVSPost2010PropOp32
 70
     0
102
RTVSPost2010Prop33
280
     0
102
RTVSPost2010PropOp33
 70
     0
102
RTVSPost2010Prop34
280
     0
102
RTVSPost2010PropOp34
 70
     0
102
RTVSPost2010Prop35
280
     0
102
RTVSPost2010PropOp35
 70
     0
102
RTVSPost2010Prop36
280
     0
102
RTVSPost2010PropOp36
 70
     0
102
RTVSPost2010Prop37
 90
       50
102
RTVSPost2010PropOp37
 70
     0
102
RTVSPost2010Prop38
140
0.0
102
RTVSPost2010PropOp38
 70
     0
102
RTVSPost2010Prop39
140
1.0
102
RTVSPost2010PropOp39
 70
     0
102
RTVSPost2010Prop40
 90
        0
102
RTVSPost2010PropOp40
 70
     0
102
RTVSPost2010Prop41ColorIndex
 90
       18
102
RTVSPost2010Prop41ColorRGB
 90
        0
102
RTVSPost2010PropOp41
 70
     0
102
RTVSPost2010Prop42
 90
       50
102
RTVSPost2010PropOp42
 70
     0
102
RTVSPost2010Prop43
 90
        3
102
RTVSPost2010PropOp43
 70
     0
102
RTVSPost2010Prop44ColorIndex
 90
        5
102
RTVSPost2010Prop44ColorRGB
 90
      255
102
RTVSPost2010PropOp44
 70
     0
102
RTVSPost2010Prop45
280
     0
102
RTVSPost2010PropOp45
 70
     0
102
RTVSPost2010Prop46
 90
       50
102
RTVSPost2010PropOp46
 70
     0
102
RTVSPost2010Prop47
 90
       50
102
RTVSPost2010PropOp47
 70
     0
102
RTVSPost2010Prop48
 90
       50
102
RTVSPost2010PropOp48
 70
     0
102
RTVSPost2010Prop49
280
     0
102
RTVSPost2010PropOp49
 70
     0
102
RTVSPost2010Prop50
 90
       50
102
RTVSPost2010PropOp50
 70
     0
102
RTVSPost2010Prop51ColorIndex
 90
      256
102
RTVSPost2010Prop51ColorRGB
 90
-16777216
102
RTVSPost2010PropOp51
 70
     0
102
RTVSPost2010Prop52
140
1.0
102
RTVSPost2010PropOp52
 70
     0
102
RTVSPost2010Prop53
 90
        2
102
RTVSPost2010PropOp53
 70
     0
102
RTVSPost2010Prop54
  1
strokes_ogs.tif
102
RTVSPost2010PropOp54
 70
     0
102
RTVSPost2010Prop55
280
     0
102
RTVSPost2010PropOp55
 70
     0
102
RTVSPost2010Prop56
140
1.0
102
RTVSPost2010PropOp56
 70
     0
102
RTVSPost2010Prop57
140
1.0
102
RTVSPost2010PropOp57
 70
     0
102
RTVSPropertyOp0
 70
     0
102
RTVSPropertyOp1
 70
     0
102
RTVSPropertyOp2
 70
     0
102
RTVSPropertyOp3
 70
     0
102
RTVSPropertyOp4
 70
     0
102
RTVSPropertyOp5
 70
     0
102
RTVSPropertyOp6
 70
     0
102
RTVSPropertyOp7
 70
     0
102
RTVSPropertyOp8
 70
     0
102
RTVSPropertyOp9
 70
     0
102
RTVSPropertyOp10
 70
     0
102
RTVSPropertyOp11
 70
     0
102
RTVSPropertyOp12
 70
     0
102
RTVSPropertyOp13
 70
     0
102
RTVSPropertyOp14
 70
     2
102
RTVSPropertyOp15
 70
     0
102
RTVSPropertyOp16
 70
     0
102
RTVSPropertyOp17
 70
     0
102
RTVSPropertyOp18
 70
     0
102
RTVSPropertyOp19
 70
     0
102
RTVSPropertyOp20
 70
     0
102
RTVSPropertyOp21
 70
     0
102
RTVSPropertyOp22
 70
     0
102
RTVSPropertyOp23
 70
     0
102
RTVSPropertyOp24
 70
     0
102
RTVSPropertyOp25
 70
     0
102
RTVSPropertyOp26
 70
     0
102
RTVSPropertyOp27
 70
     0
102
RTVSPropertyOp28
 70
     0
102
RTVSPropertyOp29
 70
     0
102
RTVSPropertyOp30
 70
     0
102
RTVSPropertyOp31
 70
     0
102
RTVSPropertyOp32
 70
     0
102
RTVSPropertyOp33
 70
     0
102
RTVSPropertyOp34
 70
     0
102
RTVSPropertyOp35
 70
     0
102
RTVSPropertyOp36
 70
     0
102
RTVSPropertyOp37
 70
     0
102
RTVSPropertyOp38
 70
     0
102
RTVSPropertyOp39
 70
     0
102
RTVSPropertyOp40
 70
     0
102
RTVSPropertyOp41
 70
     0
102
RTVSPropertyOp42
 70
     0
102
RTVSPropertyOp43
 70
     0
102
RTVSPropertyOp44
 70
     0
102
RTVSPropertyOp45
 70
     0
102
RTVSPropertyOp46
 70
     0
102
RTVSPropertyOp47
 70
     0
102
RTVSPropertyOp48
 70
     0
102
RTVSPropertyOp49
 70
     0
102
RTVSPropertyOp50
 70
     0
102
RTVSPropertyOp51
 70
     0
102
RTVSPropertyOp52
 70
     0
102
RTVSPropertyOp53
 70
     0
102
RTVSPropertyOp54
 70
     0
102
RTVSPropertyOp55
 70
     0
102
RTVSPropertyOp56
 70
     0
102
RTVSPropertyOp57
 70
     0
102
RTVSPropertyOp58
 70
     1
102
RTVSPropertyOp59
 70
     1
102
RTVSPropertyOp60
 70
     1
102
RTVSPropertyOp61
 70
     1
102
RTVSPropertyOp62
 70
     1
  0
XRECORD
  5
5F9
102
{ACAD_REACTORS
330
5F8
102
}
330
5F8
100
AcDbXrecord
280
     1
102
RTVSPost2010Prop28
280
     0
102
RTVSPost2010PropOp28
 70
     1
102
RTVSPost2010Prop29
280
     1
102
RTVSPost2010PropOp29
 70
     1
102
RTVSPost2010Prop30
280
     1
102
RTVSPost2010PropOp30
 70
     1
102
RTVSPost2010Prop31
280
     0
102
RTVSPost2010PropOp31
 70
     1
102
RTVSPost2010Prop32
280
     0
102
RTVSPost2010PropOp32
 70
     1
102
RTVSPost2010Prop33
280
     0
102
RTVSPost2010PropOp33
 70
     1
102
RTVSPost2010Prop34
280
     0
102
RTVSPost2010PropOp34
 70
     1
102
RTVSPost2010Prop35
280
     0
102
RTVSPost2010PropOp35
 70
     1
102
RTVSPost2010Prop36
280
     0
102
RTVSPost2010PropOp36
 70
     1
102
RTVSPost2010Prop37
 90
       50
102
RTVSPost2010PropOp37
 70
     1
102
RTVSPost2010Prop38
140
0.0
102
RTVSPost2010PropOp38
 70
     1
102
RTVSPost2010Prop39
140
1.0
102
RTVSPost2010PropOp39
 70
     1
102
RTVSPost2010Prop40
 90
        0
102
RTVSPost2010PropOp40
 70
     1
102
RTVSPost2010Prop41ColorIndex
 90
       18
102
RTVSPost2010Prop41ColorRGB
 90
        0
102
RTVSPost2010PropOp41
 70
     1
102
RTVSPost2010Prop42
 90
       50
102
RTVSPost2010PropOp42
 70
     1
102
RTVSPost2010Prop43
 90
        3
102
RTVSPost2010PropOp43
 70
     1
102
RTVSPost2010Prop44ColorIndex
 90
        5
102
RTVSPost2010Prop44ColorRGB
 90
      255
102
RTVSPost2010PropOp44
 70
     1
102
RTVSPost2010Prop45
280
     0
102
RTVSPost2010PropOp45
 70
     1
102
RTVSPost2010Prop46
 90
       50
102
RTVSPost2010PropOp46
 70
     1
102
RTVSPost2010Prop47
 90
       50
102
RTVSPost2010PropOp47
 70
     1
102
RTVSPost2010Prop48
 90
       50
102
RTVSPost2010PropOp48
 70
     1
102
RTVSPost2010Prop49
280
     0
102
RTVSPost2010PropOp49
 70
     1
102
RTVSPost2010Prop50
 90
       50
102
RTVSPost2010PropOp50
 70
     1
102
RTVSPost2010Prop51ColorIndex
 90
      256
102
RTVSPost2010Prop51ColorRGB
 90
-16777216
102
RTVSPost2010PropOp51
 70
     0
102
RTVSPost2010Prop52
140
1.0
102
RTVSPost2010PropOp52
 70
     0
102
RTVSPost2010Prop53
 90
        2
102
RTVSPost2010PropOp53
 70
     1
102
RTVSPost2010Prop54
  1
strokes_ogs.tif
102
RTVSPost2010PropOp54
 70
     1
102
RTVSPost2010Prop55
280
     0
102
RTVSPost2010PropOp55
 70
     1
102
RTVSPost2010Prop56
140
1.0
102
RTVSPost2010PropOp56
 70
     1
102
RTVSPost2010Prop57
140
1.0
102
RTVSPost2010PropOp57
 70
     1
102
RTVSPropertyOp0
 70
     1
102
RTVSPropertyOp1
 70
     1
102
RTVSPropertyOp2
 70
     1
102
RTVSPropertyOp3
 70
     1
102
RTVSPropertyOp4
 70
     1
102
RTVSPropertyOp5
 70
     1
102
RTVSPropertyOp6
 70
     1
102
RTVSPropertyOp7
 70
     1
102
RTVSPropertyOp8
 70
     1
102
RTVSPropertyOp9
 70
     1
102
RTVSPropertyOp10
 70
     1
102
RTVSPropertyOp11
 70
     1
102
RTVSPropertyOp12
 70
     1
102
RTVSPropertyOp13
 70
     1
102
RTVSPropertyOp14
 70
     1
102
RTVSPropertyOp15
 70
     1
102
RTVSPropertyOp16
 70
     1
102
RTVSPropertyOp17
 70
     1
102
RTVSPropertyOp18
 70
     1
102
RTVSPropertyOp19
 70
     1
102
RTVSPropertyOp20
 70
     1
102
RTVSPropertyOp21
 70
     1
102
RTVSPropertyOp22
 70
     1
102
RTVSPropertyOp23
 70
     1
102
RTVSPropertyOp24
 70
     1
102
RTVSPropertyOp25
 70
     1
102
RTVSPropertyOp26
 70
     1
102
RTVSPropertyOp27
 70
     1
102
RTVSPropertyOp28
 70
     1
102
RTVSPropertyOp29
 70
     1
102
RTVSPropertyOp30
 70
     1
102
RTVSPropertyOp31
 70
     1
102
RTVSPropertyOp32
 70
     1
102
RTVSPropertyOp33
 70
     1
102
RTVSPropertyOp34
 70
     1
102
RTVSPropertyOp35
 70
     1
102
RTVSPropertyOp36
 70
     1
102
RTVSPropertyOp37
 70
     1
102
RTVSPropertyOp38
 70
     1
102
RTVSPropertyOp39
 70
     1
102
RTVSPropertyOp40
 70
     1
102
RTVSPropertyOp41
 70
     1
102
RTVSPropertyOp42
 70
     1
102
RTVSPropertyOp43
 70
     1
102
RTVSPropertyOp44
 70
     1
102
RTVSPropertyOp45
 70
     1
102
RTVSPropertyOp46
 70
     1
102
RTVSPropertyOp47
 70
     1
102
RTVSPropertyOp48
 70
     1
102
RTVSPropertyOp49
 70
     1
102
RTVSPropertyOp50
 70
     1
102
RTVSPropertyOp51
 70
     0
102
RTVSPropertyOp52
 70
     0
102
RTVSPropertyOp53
 70
     1
102
RTVSPropertyOp54
 70
     1
102
RTVSPropertyOp55
 70
     1
102
RTVSPropertyOp56
 70
     1
102
RTVSPropertyOp57
 70
     1
102
RTVSPropertyOp58
 70
     1
102
RTVSPropertyOp59
 70
     1
102
RTVSPropertyOp60
 70
     1
102
RTVSPropertyOp61
 70
     1
102
RTVSPropertyOp62
 70
     1
  0
XRECORD
  5
601
102
{ACAD_REACTORS
330
600
102
}
330
600
100
AcDbXrecord
280
     1
102
RTVSPost2010Prop28
280
     0
102
RTVSPost2010PropOp28
 70
     0
102
RTVSPost2010Prop29
280
     1
102
RTVSPost2010PropOp29
 70
     0
102
RTVSPost2010Prop30
280
     1
102
RTVSPost2010PropOp30
 70
     0
102
RTVSPost2010Prop31
280
     0
102
RTVSPost2010PropOp31
 70
     0
102
RTVSPost2010Prop32
280
     0
102
RTVSPost2010PropOp32
 70
     0
102
RTVSPost2010Prop33
280
     0
102
RTVSPost2010PropOp33
 70
     0
102
RTVSPost2010Prop34
280
     0
102
RTVSPost2010PropOp34
 70
     0
102
RTVSPost2010Prop35
280
     0
102
RTVSPost2010PropOp35
 70
     0
102
RTVSPost2010Prop36
280
     0
102
RTVSPost2010PropOp36
 70
     0
102
RTVSPost2010Prop37
 90
       50
102
RTVSPost2010PropOp37
 70
     0
102
RTVSPost2010Prop38
140
0.0
102
RTVSPost2010PropOp38
 70
     0
102
RTVSPost2010Prop39
140
1.0
102
RTVSPost2010PropOp39
 70
     0
102
RTVSPost2010Prop40
 90
        0
102
RTVSPost2010PropOp40
 70
     0
102
RTVSPost2010Prop41ColorIndex
 90
       18
102
RTVSPost2010Prop41ColorRGB
 90
        0
102
RTVSPost2010PropOp41
 70
     0
102
RTVSPost2010Prop42
 90
       50
102
RTVSPost2010PropOp42
 70
     0
102
RTVSPost2010Prop43
 90
        3
102
RTVSPost2010PropOp43
 70
     0
102
RTVSPost2010Prop44ColorIndex
 90
        5
102
RTVSPost2010Prop44ColorRGB
 90
      255
102
RTVSPost2010PropOp44
 70
     0
102
RTVSPost2010Prop45
280
     0
102
RTVSPost2010PropOp45
 70
     0
102
RTVSPost2010Prop46
 90
       50
102
RTVSPost2010PropOp46
 70
     0
102
RTVSPost2010Prop47
 90
       50
102
RTVSPost2010PropOp47
 70
     0
102
RTVSPost2010Prop48
 90
       50
102
RTVSPost2010PropOp48
 70
     0
102
RTVSPost2010Prop49
280
     0
102
RTVSPost2010PropOp49
 70
     0
102
RTVSPost2010Prop50
 90
       50
102
RTVSPost2010PropOp50
 70
     0
102
RTVSPost2010Prop51ColorIndex
 90
      256
102
RTVSPost2010Prop51ColorRGB
 90
-16777216
102
RTVSPost2010PropOp51
 70
     0
102
RTVSPost2010Prop52
140
1.0
102
RTVSPost2010PropOp52
 70
     0
102
RTVSPost2010Prop53
 90
        2
102
RTVSPost2010PropOp53
 70
     0
102
RTVSPost2010Prop54
  1
strokes_ogs.tif
102
RTVSPost2010PropOp54
 70
     0
102
RTVSPost2010Prop55
280
     0
102
RTVSPost2010PropOp55
 70
     0
102
RTVSPost2010Prop56
140
1.0
102
RTVSPost2010PropOp56
 70
     0
102
RTVSPost2010Prop57
140
1.0
102
RTVSPost2010PropOp57
 70
     0
102
RTVSPropertyOp0
 70
     0
102
RTVSPropertyOp1
 70
     0
102
RTVSPropertyOp2
 70
     0
102
RTVSPropertyOp3
 70
     0
102
RTVSPropertyOp4
 70
     0
102
RTVSPropertyOp5
 70
     0
102
RTVSPropertyOp6
 70
     0
102
RTVSPropertyOp7
 70
     0
102
RTVSPropertyOp8
 70
     0
102
RTVSPropertyOp9
 70
     0
102
RTVSPropertyOp10
 70
     0
102
RTVSPropertyOp11
 70
     0
102
RTVSPropertyOp12
 70
     0
102
RTVSPropertyOp13
 70
     0
102
RTVSPropertyOp14
 70
     2
102
RTVSPropertyOp15
 70
     0
102
RTVSPropertyOp16
 70
     0
102
RTVSPropertyOp17
 70
     0
102
RTVSPropertyOp18
 70
     0
102
RTVSPropertyOp19
 70
     0
102
RTVSPropertyOp20
 70
     0
102
RTVSPropertyOp21
 70
     0
102
RTVSPropertyOp22
 70
     0
102
RTVSPropertyOp23
 70
     0
102
RTVSPropertyOp24
 70
     0
102
RTVSPropertyOp25
 70
     0
102
RTVSPropertyOp26
 70
     0
102
RTVSPropertyOp27
 70
     0
102
RTVSPropertyOp28
 70
     0
102
RTVSPropertyOp29
 70
     0
102
RTVSPropertyOp30
 70
     0
102
RTVSPropertyOp31
 70
     0
102
RTVSPropertyOp32
 70
     0
102
RTVSPropertyOp33
 70
     0
102
RTVSPropertyOp34
 70
     0
102
RTVSPropertyOp35
 70
     0
102
RTVSPropertyOp36
 70
     0
102
RTVSPropertyOp37
 70
     0
102
RTVSPropertyOp38
 70
     0
102
RTVSPropertyOp39
 70
     0
102
RTVSPropertyOp40
 70
     0
102
RTVSPropertyOp41
 70
     0
102
RTVSPropertyOp42
 70
     0
102
RTVSPropertyOp43
 70
     0
102
RTVSPropertyOp44
 70
     0
102
RTVSPropertyOp45
 70
     0
102
RTVSPropertyOp46
 70
     0
102
RTVSPropertyOp47
 70
     0
102
RTVSPropertyOp48
 70
     0
102
RTVSPropertyOp49
 70
     0
102
RTVSPropertyOp50
 70
     0
102
RTVSPropertyOp51
 70
     0
102
RTVSPropertyOp52
 70
     0
102
RTVSPropertyOp53
 70
     0
102
RTVSPropertyOp54
 70
     0
102
RTVSPropertyOp55
 70
     0
102
RTVSPropertyOp56
 70
     0
102
RTVSPropertyOp57
 70
     0
102
RTVSPropertyOp58
 70
     1
102
RTVSPropertyOp59
 70
     1
102
RTVSPropertyOp60
 70
     1
102
RTVSPropertyOp61
 70
     1
102
RTVSPropertyOp62
 70
     1
  0
XRECORD
  5
5EF
102
{ACAD_REACTORS
330
5EE
102
}
330
5EE
100
AcDbXrecord
280
     1
102
RTVSPost2010Prop28
280
     0
102
RTVSPost2010PropOp28
 70
     1
102
RTVSPost2010Prop29
280
     1
102
RTVSPost2010PropOp29
 70
     1
102
RTVSPost2010Prop30
280
     1
102
RTVSPost2010PropOp30
 70
     1
102
RTVSPost2010Prop31
280
     0
102
RTVSPost2010PropOp31
 70
     1
102
RTVSPost2010Prop32
280
     0
102
RTVSPost2010PropOp32
 70
     1
102
RTVSPost2010Prop33
280
     0
102
RTVSPost2010PropOp33
 70
     1
102
RTVSPost2010Prop34
280
     0
102
RTVSPost2010PropOp34
 70
     1
102
RTVSPost2010Prop35
280
     0
102
RTVSPost2010PropOp35
 70
     1
102
RTVSPost2010Prop36
280
     0
102
RTVSPost2010PropOp36
 70
     1
102
RTVSPost2010Prop37
 90
       50
102
RTVSPost2010PropOp37
 70
     1
102
RTVSPost2010Prop38
140
0.0
102
RTVSPost2010PropOp38
 70
     1
102
RTVSPost2010Prop39
140
1.0
102
RTVSPost2010PropOp39
 70
     1
102
RTVSPost2010Prop40
 90
        0
102
RTVSPost2010PropOp40
 70
     1
102
RTVSPost2010Prop41ColorIndex
 90
       18
102
RTVSPost2010Prop41ColorRGB
 90
        0
102
RTVSPost2010PropOp41
 70
     1
102
RTVSPost2010Prop42
 90
       50
102
RTVSPost2010PropOp42
 70
     1
102
RTVSPost2010Prop43
 90
        3
102
RTVSPost2010PropOp43
 70
     1
102
RTVSPost2010Prop44ColorIndex
 90
        5
102
RTVSPost2010Prop44ColorRGB
 90
      255
102
RTVSPost2010PropOp44
 70
     1
102
RTVSPost2010Prop45
280
     0
102
RTVSPost2010PropOp45
 70
     1
102
RTVSPost2010Prop46
 90
       50
102
RTVSPost2010PropOp46
 70
     1
102
RTVSPost2010Prop47
 90
       50
102
RTVSPost2010PropOp47
 70
     1
102
RTVSPost2010Prop48
 90
       50
102
RTVSPost2010PropOp48
 70
     1
102
RTVSPost2010Prop49
280
     0
102
RTVSPost2010PropOp49
 70
     1
102
RTVSPost2010Prop50
 90
       50
102
RTVSPost2010PropOp50
 70
     1
102
RTVSPost2010Prop51ColorIndex
 90
      256
102
RTVSPost2010Prop51ColorRGB
 90
-16777216
102
RTVSPost2010PropOp51
 70
     0
102
RTVSPost2010Prop52
140
1.0
102
RTVSPost2010PropOp52
 70
     0
102
RTVSPost2010Prop53
 90
        2
102
RTVSPost2010PropOp53
 70
     1
102
RTVSPost2010Prop54
  1
strokes_ogs.tif
102
RTVSPost2010PropOp54
 70
     1
102
RTVSPost2010Prop55
280
     0
102
RTVSPost2010PropOp55
 70
     1
102
RTVSPost2010Prop56
140
1.0
102
RTVSPost2010PropOp56
 70
     1
102
RTVSPost2010Prop57
140
1.0
102
RTVSPost2010PropOp57
 70
     1
102
RTVSPropertyOp0
 70
     1
102
RTVSPropertyOp1
 70
     1
102
RTVSPropertyOp2
 70
     1
102
RTVSPropertyOp3
 70
     1
102
RTVSPropertyOp4
 70
     1
102
RTVSPropertyOp5
 70
     1
102
RTVSPropertyOp6
 70
     1
102
RTVSPropertyOp7
 70
     1
102
RTVSPropertyOp8
 70
     1
102
RTVSPropertyOp9
 70
     1
102
RTVSPropertyOp10
 70
     1
102
RTVSPropertyOp11
 70
     1
102
RTVSPropertyOp12
 70
     1
102
RTVSPropertyOp13
 70
     1
102
RTVSPropertyOp14
 70
     1
102
RTVSPropertyOp15
 70
     1
102
RTVSPropertyOp16
 70
     1
102
RTVSPropertyOp17
 70
     1
102
RTVSPropertyOp18
 70
     1
102
RTVSPropertyOp19
 70
     1
102
RTVSPropertyOp20
 70
     1
102
RTVSPropertyOp21
 70
     1
102
RTVSPropertyOp22
 70
     1
102
RTVSPropertyOp23
 70
     1
102
RTVSPropertyOp24
 70
     1
102
RTVSPropertyOp25
 70
     1
102
RTVSPropertyOp26
 70
     1
102
RTVSPropertyOp27
 70
     1
102
RTVSPropertyOp28
 70
     1
102
RTVSPropertyOp29
 70
     1
102
RTVSPropertyOp30
 70
     1
102
RTVSPropertyOp31
 70
     1
102
RTVSPropertyOp32
 70
     1
102
RTVSPropertyOp33
 70
     1
102
RTVSPropertyOp34
 70
     1
102
RTVSPropertyOp35
 70
     1
102
RTVSPropertyOp36
 70
     1
102
RTVSPropertyOp37
 70
     1
102
RTVSPropertyOp38
 70
     1
102
RTVSPropertyOp39
 70
     1
102
RTVSPropertyOp40
 70
     1
102
RTVSPropertyOp41
 70
     1
102
RTVSPropertyOp42
 70
     1
102
RTVSPropertyOp43
 70
     1
102
RTVSPropertyOp44
 70
     1
102
RTVSPropertyOp45
 70
     1
102
RTVSPropertyOp46
 70
     1
102
RTVSPropertyOp47
 70
     1
102
RTVSPropertyOp48
 70
     1
102
RTVSPropertyOp49
 70
     1
102
RTVSPropertyOp50
 70
     1
102
RTVSPropertyOp51
 70
     0
102
RTVSPropertyOp52
 70
     0
102
RTVSPropertyOp53
 70
     1
102
RTVSPropertyOp54
 70
     1
102
RTVSPropertyOp55
 70
     1
102
RTVSPropertyOp56
 70
     1
102
RTVSPropertyOp57
 70
     1
102
RTVSPropertyOp58
 70
     1
102
RTVSPropertyOp59
 70
     1
102
RTVSPropertyOp60
 70
     1
102
RTVSPropertyOp61
 70
     1
102
RTVSPropertyOp62
 70
     1
  0
XRECORD
  5
60D
102
{ACAD_REACTORS
330
60C
102
}
330
60C
100
AcDbXrecord
280
     1
102
RTVSPost2010Prop28
280
     0
102
RTVSPost2010PropOp28
 70
     1
102
RTVSPost2010Prop29
280
     1
102
RTVSPost2010PropOp29
 70
     1
102
RTVSPost2010Prop30
280
     1
102
RTVSPost2010PropOp30
 70
     1
102
RTVSPost2010Prop31
280
     0
102
RTVSPost2010PropOp31
 70
     1
102
RTVSPost2010Prop32
280
     0
102
RTVSPost2010PropOp32
 70
     1
102
RTVSPost2010Prop33
280
     0
102
RTVSPost2010PropOp33
 70
     1
102
RTVSPost2010Prop34
280
     0
102
RTVSPost2010PropOp34
 70
     1
102
RTVSPost2010Prop35
280
     0
102
RTVSPost2010PropOp35
 70
     1
102
RTVSPost2010Prop36
280
     0
102
RTVSPost2010PropOp36
 70
     1
102
RTVSPost2010Prop37
 90
       50
102
RTVSPost2010PropOp37
 70
     1
102
RTVSPost2010Prop38
140
0.0
102
RTVSPost2010PropOp38
 70
     1
102
RTVSPost2010Prop39
140
1.0
102
RTVSPost2010PropOp39
 70
     1
102
RTVSPost2010Prop40
 90
        0
102
RTVSPost2010PropOp40
 70
     1
102
RTVSPost2010Prop41ColorIndex
 90
       18
102
RTVSPost2010Prop41ColorRGB
 90
        0
102
RTVSPost2010PropOp41
 70
     1
102
RTVSPost2010Prop42
 90
       50
102
RTVSPost2010PropOp42
 70
     1
102
RTVSPost2010Prop43
 90
        3
102
RTVSPost2010PropOp43
 70
     1
102
RTVSPost2010Prop44ColorIndex
 90
        5
102
RTVSPost2010Prop44ColorRGB
 90
      255
102
RTVSPost2010PropOp44
 70
     1
102
RTVSPost2010Prop45
280
     0
102
RTVSPost2010PropOp45
 70
     1
102
RTVSPost2010Prop46
 90
       50
102
RTVSPost2010PropOp46
 70
     1
102
RTVSPost2010Prop47
 90
       50
102
RTVSPost2010PropOp47
 70
     1
102
RTVSPost2010Prop48
 90
       50
102
RTVSPost2010PropOp48
 70
     1
102
RTVSPost2010Prop49
280
     0
102
RTVSPost2010PropOp49
 70
     1
102
RTVSPost2010Prop50
 90
       50
102
RTVSPost2010PropOp50
 70
     1
102
RTVSPost2010Prop51ColorIndex
 90
      256
102
RTVSPost2010Prop51ColorRGB
 90
-16777216
102
RTVSPost2010PropOp51
 70
     0
102
RTVSPost2010Prop52
140
1.0
102
RTVSPost2010PropOp52
 70
     0
102
RTVSPost2010Prop53
 90
        2
102
RTVSPost2010PropOp53
 70
     1
102
RTVSPost2010Prop54
  1
strokes_ogs.tif
102
RTVSPost2010PropOp54
 70
     1
102
RTVSPost2010Prop55
280
     0
102
RTVSPost2010PropOp55
 70
     1
102
RTVSPost2010Prop56
140
1.0
102
RTVSPost2010PropOp56
 70
     1
102
RTVSPost2010Prop57
140
1.0
102
RTVSPost2010PropOp57
 70
     1
102
RTVSPropertyOp0
 70
     1
102
RTVSPropertyOp1
 70
     1
102
RTVSPropertyOp2
 70
     1
102
RTVSPropertyOp3
 70
     1
102
RTVSPropertyOp4
 70
     1
102
RTVSPropertyOp5
 70
     1
102
RTVSPropertyOp6
 70
     1
102
RTVSPropertyOp7
 70
     1
102
RTVSPropertyOp8
 70
     1
102
RTVSPropertyOp9
 70
     1
102
RTVSPropertyOp10
 70
     1
102
RTVSPropertyOp11
 70
     1
102
RTVSPropertyOp12
 70
     1
102
RTVSPropertyOp13
 70
     1
102
RTVSPropertyOp14
 70
     1
102
RTVSPropertyOp15
 70
     1
102
RTVSPropertyOp16
 70
     1
102
RTVSPropertyOp17
 70
     1
102
RTVSPropertyOp18
 70
     1
102
RTVSPropertyOp19
 70
     1
102
RTVSPropertyOp20
 70
     1
102
RTVSPropertyOp21
 70
     1
102
RTVSPropertyOp22
 70
     1
102
RTVSPropertyOp23
 70
     1
102
RTVSPropertyOp24
 70
     1
102
RTVSPropertyOp25
 70
     1
102
RTVSPropertyOp26
 70
     1
102
RTVSPropertyOp27
 70
     1
102
RTVSPropertyOp28
 70
     1
102
RTVSPropertyOp29
 70
     1
102
RTVSPropertyOp30
 70
     1
102
RTVSPropertyOp31
 70
     1
102
RTVSPropertyOp32
 70
     1
102
RTVSPropertyOp33
 70
     1
102
RTVSPropertyOp34
 70
     1
102
RTVSPropertyOp35
 70
     1
102
RTVSPropertyOp36
 70
     1
102
RTVSPropertyOp37
 70
     1
102
RTVSPropertyOp38
 70
     1
102
RTVSPropertyOp39
 70
     1
102
RTVSPropertyOp40
 70
     1
102
RTVSPropertyOp41
 70
     1
102
RTVSPropertyOp42
 70
     1
102
RTVSPropertyOp43
 70
     1
102
RTVSPropertyOp44
 70
     1
102
RTVSPropertyOp45
 70
     1
102
RTVSPropertyOp46
 70
     1
102
RTVSPropertyOp47
 70
     1
102
RTVSPropertyOp48
 70
     1
102
RTVSPropertyOp49
 70
     1
102
RTVSPropertyOp50
 70
     1
102
RTVSPropertyOp51
 70
     0
102
RTVSPropertyOp52
 70
     0
102
RTVSPropertyOp53
 70
     1
102
RTVSPropertyOp54
 70
     1
102
RTVSPropertyOp55
 70
     1
102
RTVSPropertyOp56
 70
     1
102
RTVSPropertyOp57
 70
     1
102
RTVSPropertyOp58
 70
     1
102
RTVSPropertyOp59
 70
     1
102
RTVSPropertyOp60
 70
     1
102
RTVSPropertyOp61
 70
     1
102
RTVSPropertyOp62
 70
     1
  0
XRECORD
  5
60B
102
{ACAD_REACTORS
330
60A
102
}
330
60A
100
AcDbXrecord
280
     1
102
RTVSPost2010Prop28
280
     0
102
RTVSPost2010PropOp28
 70
     1
102
RTVSPost2010Prop29
280
     1
102
RTVSPost2010PropOp29
 70
     1
102
RTVSPost2010Prop30
280
     1
102
RTVSPost2010PropOp30
 70
     1
102
RTVSPost2010Prop31
280
     0
102
RTVSPost2010PropOp31
 70
     1
102
RTVSPost2010Prop32
280
     0
102
RTVSPost2010PropOp32
 70
     1
102
RTVSPost2010Prop33
280
     0
102
RTVSPost2010PropOp33
 70
     1
102
RTVSPost2010Prop34
280
     0
102
RTVSPost2010PropOp34
 70
     1
102
RTVSPost2010Prop35
280
     0
102
RTVSPost2010PropOp35
 70
     1
102
RTVSPost2010Prop36
280
     0
102
RTVSPost2010PropOp36
 70
     1
102
RTVSPost2010Prop37
 90
       50
102
RTVSPost2010PropOp37
 70
     1
102
RTVSPost2010Prop38
140
0.0
102
RTVSPost2010PropOp38
 70
     1
102
RTVSPost2010Prop39
140
1.0
102
RTVSPost2010PropOp39
 70
     1
102
RTVSPost2010Prop40
 90
        0
102
RTVSPost2010PropOp40
 70
     1
102
RTVSPost2010Prop41ColorIndex
 90
       18
102
RTVSPost2010Prop41ColorRGB
 90
        0
102
RTVSPost2010PropOp41
 70
     1
102
RTVSPost2010Prop42
 90
       50
102
RTVSPost2010PropOp42
 70
     1
102
RTVSPost2010Prop43
 90
        3
102
RTVSPost2010PropOp43
 70
     1
102
RTVSPost2010Prop44ColorIndex
 90
        5
102
RTVSPost2010Prop44ColorRGB
 90
      255
102
RTVSPost2010PropOp44
 70
     1
102
RTVSPost2010Prop45
280
     0
102
RTVSPost2010PropOp45
 70
     1
102
RTVSPost2010Prop46
 90
       50
102
RTVSPost2010PropOp46
 70
     1
102
RTVSPost2010Prop47
 90
       50
102
RTVSPost2010PropOp47
 70
     1
102
RTVSPost2010Prop48
 90
       50
102
RTVSPost2010PropOp48
 70
     1
102
RTVSPost2010Prop49
280
     0
102
RTVSPost2010PropOp49
 70
     1
102
RTVSPost2010Prop50
 90
       50
102
RTVSPost2010PropOp50
 70
     1
102
RTVSPost2010Prop51ColorIndex
 90
      256
102
RTVSPost2010Prop51ColorRGB
 90
-16777216
102
RTVSPost2010PropOp51
 70
     0
102
RTVSPost2010Prop52
140
1.0
102
RTVSPost2010PropOp52
 70
     0
102
RTVSPost2010Prop53
 90
        2
102
RTVSPost2010PropOp53
 70
     1
102
RTVSPost2010Prop54
  1
strokes_ogs.tif
102
RTVSPost2010PropOp54
 70
     1
102
RTVSPost2010Prop55
280
     0
102
RTVSPost2010PropOp55
 70
     1
102
RTVSPost2010Prop56
140
1.0
102
RTVSPost2010PropOp56
 70
     1
102
RTVSPost2010Prop57
140
1.0
102
RTVSPost2010PropOp57
 70
     1
102
RTVSPropertyOp0
 70
     1
102
RTVSPropertyOp1
 70
     1
102
RTVSPropertyOp2
 70
     1
102
RTVSPropertyOp3
 70
     1
102
RTVSPropertyOp4
 70
     1
102
RTVSPropertyOp5
 70
     1
102
RTVSPropertyOp6
 70
     1
102
RTVSPropertyOp7
 70
     1
102
RTVSPropertyOp8
 70
     1
102
RTVSPropertyOp9
 70
     1
102
RTVSPropertyOp10
 70
     1
102
RTVSPropertyOp11
 70
     1
102
RTVSPropertyOp12
 70
     1
102
RTVSPropertyOp13
 70
     1
102
RTVSPropertyOp14
 70
     1
102
RTVSPropertyOp15
 70
     1
102
RTVSPropertyOp16
 70
     1
102
RTVSPropertyOp17
 70
     1
102
RTVSPropertyOp18
 70
     1
102
RTVSPropertyOp19
 70
     1
102
RTVSPropertyOp20
 70
     1
102
RTVSPropertyOp21
 70
     1
102
RTVSPropertyOp22
 70
     1
102
RTVSPropertyOp23
 70
     1
102
RTVSPropertyOp24
 70
     1
102
RTVSPropertyOp25
 70
     1
102
RTVSPropertyOp26
 70
     1
102
RTVSPropertyOp27
 70
     1
102
RTVSPropertyOp28
 70
     1
102
RTVSPropertyOp29
 70
     1
102
RTVSPropertyOp30
 70
     1
102
RTVSPropertyOp31
 70
     1
102
RTVSPropertyOp32
 70
     1
102
RTVSPropertyOp33
 70
     1
102
RTVSPropertyOp34
 70
     1
102
RTVSPropertyOp35
 70
     1
102
RTVSPropertyOp36
 70
     1
102
RTVSPropertyOp37
 70
     1
102
RTVSPropertyOp38
 70
     1
102
RTVSPropertyOp39
 70
     1
102
RTVSPropertyOp40
 70
     1
102
RTVSPropertyOp41
 70
     1
102
RTVSPropertyOp42
 70
     1
102
RTVSPropertyOp43
 70
     1
102
RTVSPropertyOp44
 70
     1
102
RTVSPropertyOp45
 70
     1
102
RTVSPropertyOp46
 70
     1
102
RTVSPropertyOp47
 70
     1
102
RTVSPropertyOp48
 70
     1
102
RTVSPropertyOp49
 70
     1
102
RTVSPropertyOp50
 70
     1
102
RTVSPropertyOp51
 70
     0
102
RTVSPropertyOp52
 70
     0
102
RTVSPropertyOp53
 70
     1
102
RTVSPropertyOp54
 70
     1
102
RTVSPropertyOp55
 70
     1
102
RTVSPropertyOp56
 70
     1
102
RTVSPropertyOp57
 70
     1
102
RTVSPropertyOp58
 70
     1
102
RTVSPropertyOp59
 70
     1
102
RTVSPropertyOp60
 70
     1
102
RTVSPropertyOp61
 70
     1
102
RTVSPropertyOp62
 70
     1
  0
XRECORD
  5
605
102
{ACAD_REACTORS
330
604
102
}
330
604
100
AcDbXrecord
280
     1
102
RTVSPost2010Prop28
280
     0
102
RTVSPost2010PropOp28
 70
     1
102
RTVSPost2010Prop29
280
     1
102
RTVSPost2010PropOp29
 70
     1
102
RTVSPost2010Prop30
280
     1
102
RTVSPost2010PropOp30
 70
     1
102
RTVSPost2010Prop31
280
     0
102
RTVSPost2010PropOp31
 70
     1
102
RTVSPost2010Prop32
280
     0
102
RTVSPost2010PropOp32
 70
     1
102
RTVSPost2010Prop33
280
     0
102
RTVSPost2010PropOp33
 70
     1
102
RTVSPost2010Prop34
280
     0
102
RTVSPost2010PropOp34
 70
     1
102
RTVSPost2010Prop35
280
     0
102
RTVSPost2010PropOp35
 70
     1
102
RTVSPost2010Prop36
280
     0
102
RTVSPost2010PropOp36
 70
     1
102
RTVSPost2010Prop37
 90
       50
102
RTVSPost2010PropOp37
 70
     1
102
RTVSPost2010Prop38
140
0.0
102
RTVSPost2010PropOp38
 70
     1
102
RTVSPost2010Prop39
140
1.0
102
RTVSPost2010PropOp39
 70
     1
102
RTVSPost2010Prop40
 90
        0
102
RTVSPost2010PropOp40
 70
     1
102
RTVSPost2010Prop41ColorIndex
 90
       18
102
RTVSPost2010Prop41ColorRGB
 90
        0
102
RTVSPost2010PropOp41
 70
     1
102
RTVSPost2010Prop42
 90
       50
102
RTVSPost2010PropOp42
 70
     1
102
RTVSPost2010Prop43
 90
        3
102
RTVSPost2010PropOp43
 70
     1
102
RTVSPost2010Prop44ColorIndex
 90
        5
102
RTVSPost2010Prop44ColorRGB
 90
      255
102
RTVSPost2010PropOp44
 70
     1
102
RTVSPost2010Prop45
280
     0
102
RTVSPost2010PropOp45
 70
     1
102
RTVSPost2010Prop46
 90
       50
102
RTVSPost2010PropOp46
 70
     1
102
RTVSPost2010Prop47
 90
       50
102
RTVSPost2010PropOp47
 70
     1
102
RTVSPost2010Prop48
 90
       50
102
RTVSPost2010PropOp48
 70
     1
102
RTVSPost2010Prop49
280
     0
102
RTVSPost2010PropOp49
 70
     1
102
RTVSPost2010Prop50
 90
       50
102
RTVSPost2010PropOp50
 70
     1
102
RTVSPost2010Prop51ColorIndex
 90
      256
102
RTVSPost2010Prop51ColorRGB
 90
-16777216
102
RTVSPost2010PropOp51
 70
     0
102
RTVSPost2010Prop52
140
1.0
102
RTVSPost2010PropOp52
 70
     0
102
RTVSPost2010Prop53
 90
        2
102
RTVSPost2010PropOp53
 70
     1
102
RTVSPost2010Prop54
  1
strokes_ogs.tif
102
RTVSPost2010PropOp54
 70
     1
102
RTVSPost2010Prop55
280
     0
102
RTVSPost2010PropOp55
 70
     1
102
RTVSPost2010Prop56
140
1.0
102
RTVSPost2010PropOp56
 70
     1
102
RTVSPost2010Prop57
140
1.0
102
RTVSPost2010PropOp57
 70
     1
102
RTVSPropertyOp0
 70
     1
102
RTVSPropertyOp1
 70
     1
102
RTVSPropertyOp2
 70
     1
102
RTVSPropertyOp3
 70
     1
102
RTVSPropertyOp4
 70
     1
102
RTVSPropertyOp5
 70
     1
102
RTVSPropertyOp6
 70
     1
102
RTVSPropertyOp7
 70
     1
102
RTVSPropertyOp8
 70
     1
102
RTVSPropertyOp9
 70
     1
102
RTVSPropertyOp10
 70
     1
102
RTVSPropertyOp11
 70
     1
102
RTVSPropertyOp12
 70
     1
102
RTVSPropertyOp13
 70
     1
102
RTVSPropertyOp14
 70
     1
102
RTVSPropertyOp15
 70
     1
102
RTVSPropertyOp16
 70
     1
102
RTVSPropertyOp17
 70
     1
102
RTVSPropertyOp18
 70
     1
102
RTVSPropertyOp19
 70
     1
102
RTVSPropertyOp20
 70
     1
102
RTVSPropertyOp21
 70
     1
102
RTVSPropertyOp22
 70
     1
102
RTVSPropertyOp23
 70
     1
102
RTVSPropertyOp24
 70
     1
102
RTVSPropertyOp25
 70
     1
102
RTVSPropertyOp26
 70
     1
102
RTVSPropertyOp27
 70
     1
102
RTVSPropertyOp28
 70
     1
102
RTVSPropertyOp29
 70
     1
102
RTVSPropertyOp30
 70
     1
102
RTVSPropertyOp31
 70
     1
102
RTVSPropertyOp32
 70
     1
102
RTVSPropertyOp33
 70
     1
102
RTVSPropertyOp34
 70
     1
102
RTVSPropertyOp35
 70
     1
102
RTVSPropertyOp36
 70
     1
102
RTVSPropertyOp37
 70
     1
102
RTVSPropertyOp38
 70
     1
102
RTVSPropertyOp39
 70
     1
102
RTVSPropertyOp40
 70
     1
102
RTVSPropertyOp41
 70
     1
102
RTVSPropertyOp42
 70
     1
102
RTVSPropertyOp43
 70
     1
102
RTVSPropertyOp44
 70
     1
102
RTVSPropertyOp45
 70
     1
102
RTVSPropertyOp46
 70
     1
102
RTVSPropertyOp47
 70
     1
102
RTVSPropertyOp48
 70
     1
102
RTVSPropertyOp49
 70
     1
102
RTVSPropertyOp50
 70
     1
102
RTVSPropertyOp51
 70
     0
102
RTVSPropertyOp52
 70
     0
102
RTVSPropertyOp53
 70
     1
102
RTVSPropertyOp54
 70
     1
102
RTVSPropertyOp55
 70
     1
102
RTVSPropertyOp56
 70
     1
102
RTVSPropertyOp57
 70
     1
102
RTVSPropertyOp58
 70
     1
102
RTVSPropertyOp59
 70
     1
102
RTVSPropertyOp60
 70
     1
102
RTVSPropertyOp61
 70
     1
102
RTVSPropertyOp62
 70
     1
  0
XRECORD
  5
607
102
{ACAD_REACTORS
330
606
102
}
330
606
100
AcDbXrecord
280
     1
102
RTVSPost2010Prop28
280
     0
102
RTVSPost2010PropOp28
 70
     1
102
RTVSPost2010Prop29
280
     1
102
RTVSPost2010PropOp29
 70
     1
102
RTVSPost2010Prop30
280
     1
102
RTVSPost2010PropOp30
 70
     1
102
RTVSPost2010Prop31
280
     0
102
RTVSPost2010PropOp31
 70
     1
102
RTVSPost2010Prop32
280
     0
102
RTVSPost2010PropOp32
 70
     1
102
RTVSPost2010Prop33
280
     0
102
RTVSPost2010PropOp33
 70
     1
102
RTVSPost2010Prop34
280
     0
102
RTVSPost2010PropOp34
 70
     1
102
RTVSPost2010Prop35
280
     0
102
RTVSPost2010PropOp35
 70
     1
102
RTVSPost2010Prop36
280
     0
102
RTVSPost2010PropOp36
 70
     1
102
RTVSPost2010Prop37
 90
       50
102
RTVSPost2010PropOp37
 70
     1
102
RTVSPost2010Prop38
140
0.0
102
RTVSPost2010PropOp38
 70
     1
102
RTVSPost2010Prop39
140
1.0
102
RTVSPost2010PropOp39
 70
     1
102
RTVSPost2010Prop40
 90
        0
102
RTVSPost2010PropOp40
 70
     1
102
RTVSPost2010Prop41ColorIndex
 90
       18
102
RTVSPost2010Prop41ColorRGB
 90
        0
102
RTVSPost2010PropOp41
 70
     1
102
RTVSPost2010Prop42
 90
       50
102
RTVSPost2010PropOp42
 70
     1
102
RTVSPost2010Prop43
 90
        3
102
RTVSPost2010PropOp43
 70
     1
102
RTVSPost2010Prop44ColorIndex
 90
        5
102
RTVSPost2010Prop44ColorRGB
 90
      255
102
RTVSPost2010PropOp44
 70
     1
102
RTVSPost2010Prop45
280
     0
102
RTVSPost2010PropOp45
 70
     1
102
RTVSPost2010Prop46
 90
       50
102
RTVSPost2010PropOp46
 70
     1
102
RTVSPost2010Prop47
 90
       50
102
RTVSPost2010PropOp47
 70
     1
102
RTVSPost2010Prop48
 90
       50
102
RTVSPost2010PropOp48
 70
     1
102
RTVSPost2010Prop49
280
     0
102
RTVSPost2010PropOp49
 70
     1
102
RTVSPost2010Prop50
 90
       50
102
RTVSPost2010PropOp50
 70
     1
102
RTVSPost2010Prop51ColorIndex
 90
      256
102
RTVSPost2010Prop51ColorRGB
 90
-16777216
102
RTVSPost2010PropOp51
 70
     0
102
RTVSPost2010Prop52
140
1.0
102
RTVSPost2010PropOp52
 70
     0
102
RTVSPost2010Prop53
 90
        2
102
RTVSPost2010PropOp53
 70
     1
102
RTVSPost2010Prop54
  1
strokes_ogs.tif
102
RTVSPost2010PropOp54
 70
     1
102
RTVSPost2010Prop55
280
     0
102
RTVSPost2010PropOp55
 70
     1
102
RTVSPost2010Prop56
140
1.0
102
RTVSPost2010PropOp56
 70
     1
102
RTVSPost2010Prop57
140
1.0
102
RTVSPost2010PropOp57
 70
     1
102
RTVSPropertyOp0
 70
     1
102
RTVSPropertyOp1
 70
     1
102
RTVSPropertyOp2
 70
     1
102
RTVSPropertyOp3
 70
     1
102
RTVSPropertyOp4
 70
     1
102
RTVSPropertyOp5
 70
     1
102
RTVSPropertyOp6
 70
     1
102
RTVSPropertyOp7
 70
     1
102
RTVSPropertyOp8
 70
     1
102
RTVSPropertyOp9
 70
     1
102
RTVSPropertyOp10
 70
     1
102
RTVSPropertyOp11
 70
     1
102
RTVSPropertyOp12
 70
     1
102
RTVSPropertyOp13
 70
     1
102
RTVSPropertyOp14
 70
     1
102
RTVSPropertyOp15
 70
     1
102
RTVSPropertyOp16
 70
     1
102
RTVSPropertyOp17
 70
     1
102
RTVSPropertyOp18
 70
     1
102
RTVSPropertyOp19
 70
     1
102
RTVSPropertyOp20
 70
     1
102
RTVSPropertyOp21
 70
     1
102
RTVSPropertyOp22
 70
     1
102
RTVSPropertyOp23
 70
     1
102
RTVSPropertyOp24
 70
     1
102
RTVSPropertyOp25
 70
     1
102
RTVSPropertyOp26
 70
     1
102
RTVSPropertyOp27
 70
     1
102
RTVSPropertyOp28
 70
     1
102
RTVSPropertyOp29
 70
     1
102
RTVSPropertyOp30
 70
     1
102
RTVSPropertyOp31
 70
     1
102
RTVSPropertyOp32
 70
     1
102
RTVSPropertyOp33
 70
     1
102
RTVSPropertyOp34
 70
     1
102
RTVSPropertyOp35
 70
     1
102
RTVSPropertyOp36
 70
     1
102
RTVSPropertyOp37
 70
     1
102
RTVSPropertyOp38
 70
     1
102
RTVSPropertyOp39
 70
     1
102
RTVSPropertyOp40
 70
     1
102
RTVSPropertyOp41
 70
     1
102
RTVSPropertyOp42
 70
     1
102
RTVSPropertyOp43
 70
     1
102
RTVSPropertyOp44
 70
     1
102
RTVSPropertyOp45
 70
     1
102
RTVSPropertyOp46
 70
     1
102
RTVSPropertyOp47
 70
     1
102
RTVSPropertyOp48
 70
     1
102
RTVSPropertyOp49
 70
     1
102
RTVSPropertyOp50
 70
     1
102
RTVSPropertyOp51
 70
     0
102
RTVSPropertyOp52
 70
     0
102
RTVSPropertyOp53
 70
     1
102
RTVSPropertyOp54
 70
     1
102
RTVSPropertyOp55
 70
     1
102
RTVSPropertyOp56
 70
     1
102
RTVSPropertyOp57
 70
     1
102
RTVSPropertyOp58
 70
     1
102
RTVSPropertyOp59
 70
     1
102
RTVSPropertyOp60
 70
     1
102
RTVSPropertyOp61
 70
     1
102
RTVSPropertyOp62
 70
     1
  0
XRECORD
  5
5F7
102
{ACAD_REACTORS
330
5F6
102
}
330
5F6
100
AcDbXrecord
280
     1
102
RTVSPost2010Prop28
280
     0
102
RTVSPost2010PropOp28
 70
     1
102
RTVSPost2010Prop29
280
     1
102
RTVSPost2010PropOp29
 70
     1
102
RTVSPost2010Prop30
280
     1
102
RTVSPost2010PropOp30
 70
     1
102
RTVSPost2010Prop31
280
     0
102
RTVSPost2010PropOp31
 70
     1
102
RTVSPost2010Prop32
280
     0
102
RTVSPost2010PropOp32
 70
     1
102
RTVSPost2010Prop33
280
     0
102
RTVSPost2010PropOp33
 70
     1
102
RTVSPost2010Prop34
280
     0
102
RTVSPost2010PropOp34
 70
     1
102
RTVSPost2010Prop35
280
     0
102
RTVSPost2010PropOp35
 70
     1
102
RTVSPost2010Prop36
280
     0
102
RTVSPost2010PropOp36
 70
     1
102
RTVSPost2010Prop37
 90
       50
102
RTVSPost2010PropOp37
 70
     1
102
RTVSPost2010Prop38
140
0.0
102
RTVSPost2010PropOp38
 70
     1
102
RTVSPost2010Prop39
140
1.0
102
RTVSPost2010PropOp39
 70
     1
102
RTVSPost2010Prop40
 90
        0
102
RTVSPost2010PropOp40
 70
     1
102
RTVSPost2010Prop41ColorIndex
 90
       18
102
RTVSPost2010Prop41ColorRGB
 90
        0
102
RTVSPost2010PropOp41
 70
     1
102
RTVSPost2010Prop42
 90
       50
102
RTVSPost2010PropOp42
 70
     1
102
RTVSPost2010Prop43
 90
        3
102
RTVSPost2010PropOp43
 70
     1
102
RTVSPost2010Prop44ColorIndex
 90
        5
102
RTVSPost2010Prop44ColorRGB
 90
      255
102
RTVSPost2010PropOp44
 70
     1
102
RTVSPost2010Prop45
280
     0
102
RTVSPost2010PropOp45
 70
     1
102
RTVSPost2010Prop46
 90
       50
102
RTVSPost2010PropOp46
 70
     1
102
RTVSPost2010Prop47
 90
       50
102
RTVSPost2010PropOp47
 70
     1
102
RTVSPost2010Prop48
 90
       50
102
RTVSPost2010PropOp48
 70
     1
102
RTVSPost2010Prop49
280
     0
102
RTVSPost2010PropOp49
 70
     1
102
RTVSPost2010Prop50
 90
       50
102
RTVSPost2010PropOp50
 70
     1
102
RTVSPost2010Prop51ColorIndex
 90
      256
102
RTVSPost2010Prop51ColorRGB
 90
-16777216
102
RTVSPost2010PropOp51
 70
     0
102
RTVSPost2010Prop52
140
1.0
102
RTVSPost2010PropOp52
 70
     0
102
RTVSPost2010Prop53
 90
        2
102
RTVSPost2010PropOp53
 70
     1
102
RTVSPost2010Prop54
  1
strokes_ogs.tif
102
RTVSPost2010PropOp54
 70
     1
102
RTVSPost2010Prop55
280
     0
102
RTVSPost2010PropOp55
 70
     1
102
RTVSPost2010Prop56
140
1.0
102
RTVSPost2010PropOp56
 70
     1
102
RTVSPost2010Prop57
140
1.0
102
RTVSPost2010PropOp57
 70
     1
102
RTVSPropertyOp0
 70
     1
102
RTVSPropertyOp1
 70
     1
102
RTVSPropertyOp2
 70
     1
102
RTVSPropertyOp3
 70
     1
102
RTVSPropertyOp4
 70
     1
102
RTVSPropertyOp5
 70
     1
102
RTVSPropertyOp6
 70
     1
102
RTVSPropertyOp7
 70
     1
102
RTVSPropertyOp8
 70
     1
102
RTVSPropertyOp9
 70
     1
102
RTVSPropertyOp10
 70
     1
102
RTVSPropertyOp11
 70
     1
102
RTVSPropertyOp12
 70
     1
102
RTVSPropertyOp13
 70
     1
102
RTVSPropertyOp14
 70
     1
102
RTVSPropertyOp15
 70
     1
102
RTVSPropertyOp16
 70
     1
102
RTVSPropertyOp17
 70
     1
102
RTVSPropertyOp18
 70
     1
102
RTVSPropertyOp19
 70
     1
102
RTVSPropertyOp20
 70
     1
102
RTVSPropertyOp21
 70
     1
102
RTVSPropertyOp22
 70
     1
102
RTVSPropertyOp23
 70
     1
102
RTVSPropertyOp24
 70
     1
102
RTVSPropertyOp25
 70
     1
102
RTVSPropertyOp26
 70
     1
102
RTVSPropertyOp27
 70
     1
102
RTVSPropertyOp28
 70
     1
102
RTVSPropertyOp29
 70
     1
102
RTVSPropertyOp30
 70
     1
102
RTVSPropertyOp31
 70
     1
102
RTVSPropertyOp32
 70
     1
102
RTVSPropertyOp33
 70
     1
102
RTVSPropertyOp34
 70
     1
102
RTVSPropertyOp35
 70
     1
102
RTVSPropertyOp36
 70
     1
102
RTVSPropertyOp37
 70
     1
102
RTVSPropertyOp38
 70
     1
102
RTVSPropertyOp39
 70
     1
102
RTVSPropertyOp40
 70
     1
102
RTVSPropertyOp41
 70
     1
102
RTVSPropertyOp42
 70
     1
102
RTVSPropertyOp43
 70
     1
102
RTVSPropertyOp44
 70
     1
102
RTVSPropertyOp45
 70
     1
102
RTVSPropertyOp46
 70
     1
102
RTVSPropertyOp47
 70
     1
102
RTVSPropertyOp48
 70
     1
102
RTVSPropertyOp49
 70
     1
102
RTVSPropertyOp50
 70
     1
102
RTVSPropertyOp51
 70
     0
102
RTVSPropertyOp52
 70
     0
102
RTVSPropertyOp53
 70
     1
102
RTVSPropertyOp54
 70
     1
102
RTVSPropertyOp55
 70
     1
102
RTVSPropertyOp56
 70
     1
102
RTVSPropertyOp57
 70
     1
102
RTVSPropertyOp58
 70
     1
102
RTVSPropertyOp59
 70
     1
102
RTVSPropertyOp60
 70
     1
102
RTVSPropertyOp61
 70
     1
102
RTVSPropertyOp62
 70
     1
  0
XRECORD
  5
5E9
102
{ACAD_REACTORS
330
5E8
102
}
330
5E8
100
AcDbXrecord
280
     1
102
RTVSPost2010Prop28
280
     0
102
RTVSPost2010PropOp28
 70
     1
102
RTVSPost2010Prop29
280
     1
102
RTVSPost2010PropOp29
 70
     1
102
RTVSPost2010Prop30
280
     1
102
RTVSPost2010PropOp30
 70
     1
102
RTVSPost2010Prop31
280
     0
102
RTVSPost2010PropOp31
 70
     1
102
RTVSPost2010Prop32
280
     0
102
RTVSPost2010PropOp32
 70
     1
102
RTVSPost2010Prop33
280
     0
102
RTVSPost2010PropOp33
 70
     1
102
RTVSPost2010Prop34
280
     0
102
RTVSPost2010PropOp34
 70
     1
102
RTVSPost2010Prop35
280
     0
102
RTVSPost2010PropOp35
 70
     1
102
RTVSPost2010Prop36
280
     0
102
RTVSPost2010PropOp36
 70
     1
102
RTVSPost2010Prop37
 90
       50
102
RTVSPost2010PropOp37
 70
     1
102
RTVSPost2010Prop38
140
0.0
102
RTVSPost2010PropOp38
 70
     1
102
RTVSPost2010Prop39
140
1.0
102
RTVSPost2010PropOp39
 70
     1
102
RTVSPost2010Prop40
 90
        0
102
RTVSPost2010PropOp40
 70
     1
102
RTVSPost2010Prop41ColorIndex
 90
       18
102
RTVSPost2010Prop41ColorRGB
 90
        0
102
RTVSPost2010PropOp41
 70
     1
102
RTVSPost2010Prop42
 90
       50
102
RTVSPost2010PropOp42
 70
     1
102
RTVSPost2010Prop43
 90
        3
102
RTVSPost2010PropOp43
 70
     1
102
RTVSPost2010Prop44ColorIndex
 90
        5
102
RTVSPost2010Prop44ColorRGB
 90
      255
102
RTVSPost2010PropOp44
 70
     1
102
RTVSPost2010Prop45
280
     0
102
RTVSPost2010PropOp45
 70
     1
102
RTVSPost2010Prop46
 90
       50
102
RTVSPost2010PropOp46
 70
     1
102
RTVSPost2010Prop47
 90
       50
102
RTVSPost2010PropOp47
 70
     1
102
RTVSPost2010Prop48
 90
       50
102
RTVSPost2010PropOp48
 70
     1
102
RTVSPost2010Prop49
280
     0
102
RTVSPost2010PropOp49
 70
     1
102
RTVSPost2010Prop50
 90
       50
102
RTVSPost2010PropOp50
 70
     1
102
RTVSPost2010Prop51ColorIndex
 90
      256
102
RTVSPost2010Prop51ColorRGB
 90
-16777216
102
RTVSPost2010PropOp51
 70
     0
102
RTVSPost2010Prop52
140
1.0
102
RTVSPost2010PropOp52
 70
     0
102
RTVSPost2010Prop53
 90
        2
102
RTVSPost2010PropOp53
 70
     1
102
RTVSPost2010Prop54
  1
strokes_ogs.tif
102
RTVSPost2010PropOp54
 70
     1
102
RTVSPost2010Prop55
280
     0
102
RTVSPost2010PropOp55
 70
     1
102
RTVSPost2010Prop56
140
1.0
102
RTVSPost2010PropOp56
 70
     1
102
RTVSPost2010Prop57
140
1.0
102
RTVSPost2010PropOp57
 70
     1
102
RTVSPropertyOp0
 70
     1
102
RTVSPropertyOp1
 70
     1
102
RTVSPropertyOp2
 70
     1
102
RTVSPropertyOp3
 70
     1
102
RTVSPropertyOp4
 70
     1
102
RTVSPropertyOp5
 70
     1
102
RTVSPropertyOp6
 70
     1
102
RTVSPropertyOp7
 70
     1
102
RTVSPropertyOp8
 70
     1
102
RTVSPropertyOp9
 70
     1
102
RTVSPropertyOp10
 70
     1
102
RTVSPropertyOp11
 70
     1
102
RTVSPropertyOp12
 70
     1
102
RTVSPropertyOp13
 70
     1
102
RTVSPropertyOp14
 70
     1
102
RTVSPropertyOp15
 70
     1
102
RTVSPropertyOp16
 70
     1
102
RTVSPropertyOp17
 70
     1
102
RTVSPropertyOp18
 70
     1
102
RTVSPropertyOp19
 70
     1
102
RTVSPropertyOp20
 70
     1
102
RTVSPropertyOp21
 70
     1
102
RTVSPropertyOp22
 70
     1
102
RTVSPropertyOp23
 70
     1
102
RTVSPropertyOp24
 70
     1
102
RTVSPropertyOp25
 70
     1
102
RTVSPropertyOp26
 70
     1
102
RTVSPropertyOp27
 70
     1
102
RTVSPropertyOp28
 70
     1
102
RTVSPropertyOp29
 70
     1
102
RTVSPropertyOp30
 70
     1
102
RTVSPropertyOp31
 70
     1
102
RTVSPropertyOp32
 70
     1
102
RTVSPropertyOp33
 70
     1
102
RTVSPropertyOp34
 70
     1
102
RTVSPropertyOp35
 70
     1
102
RTVSPropertyOp36
 70
     1
102
RTVSPropertyOp37
 70
     1
102
RTVSPropertyOp38
 70
     1
102
RTVSPropertyOp39
 70
     1
102
RTVSPropertyOp40
 70
     1
102
RTVSPropertyOp41
 70
     1
102
RTVSPropertyOp42
 70
     1
102
RTVSPropertyOp43
 70
     1
102
RTVSPropertyOp44
 70
     1
102
RTVSPropertyOp45
 70
     1
102
RTVSPropertyOp46
 70
     1
102
RTVSPropertyOp47
 70
     1
102
RTVSPropertyOp48
 70
     1
102
RTVSPropertyOp49
 70
     1
102
RTVSPropertyOp50
 70
     1
102
RTVSPropertyOp51
 70
     0
102
RTVSPropertyOp52
 70
     0
102
RTVSPropertyOp53
 70
     1
102
RTVSPropertyOp54
 70
     1
102
RTVSPropertyOp55
 70
     1
102
RTVSPropertyOp56
 70
     1
102
RTVSPropertyOp57
 70
     1
102
RTVSPropertyOp58
 70
     1
102
RTVSPropertyOp59
 70
     1
102
RTVSPropertyOp60
 70
     1
102
RTVSPropertyOp61
 70
     1
102
RTVSPropertyOp62
 70
     1
  0
XRECORD
  5
609
102
{ACAD_REACTORS
330
608
102
}
330
608
100
AcDbXrecord
280
     1
102
RTVSPost2010Prop28
280
     0
102
RTVSPost2010PropOp28
 70
     1
102
RTVSPost2010Prop29
280
     1
102
RTVSPost2010PropOp29
 70
     1
102
RTVSPost2010Prop30
280
     1
102
RTVSPost2010PropOp30
 70
     1
102
RTVSPost2010Prop31
280
     0
102
RTVSPost2010PropOp31
 70
     1
102
RTVSPost2010Prop32
280
     0
102
RTVSPost2010PropOp32
 70
     1
102
RTVSPost2010Prop33
280
     0
102
RTVSPost2010PropOp33
 70
     1
102
RTVSPost2010Prop34
280
     0
102
RTVSPost2010PropOp34
 70
     1
102
RTVSPost2010Prop35
280
     0
102
RTVSPost2010PropOp35
 70
     1
102
RTVSPost2010Prop36
280
     0
102
RTVSPost2010PropOp36
 70
     1
102
RTVSPost2010Prop37
 90
       50
102
RTVSPost2010PropOp37
 70
     1
102
RTVSPost2010Prop38
140
0.0
102
RTVSPost2010PropOp38
 70
     1
102
RTVSPost2010Prop39
140
1.0
102
RTVSPost2010PropOp39
 70
     1
102
RTVSPost2010Prop40
 90
        0
102
RTVSPost2010PropOp40
 70
     1
102
RTVSPost2010Prop41ColorIndex
 90
       18
102
RTVSPost2010Prop41ColorRGB
 90
        0
102
RTVSPost2010PropOp41
 70
     1
102
RTVSPost2010Prop42
 90
       50
102
RTVSPost2010PropOp42
 70
     1
102
RTVSPost2010Prop43
 90
        3
102
RTVSPost2010PropOp43
 70
     1
102
RTVSPost2010Prop44ColorIndex
 90
        5
102
RTVSPost2010Prop44ColorRGB
 90
      255
102
RTVSPost2010PropOp44
 70
     1
102
RTVSPost2010Prop45
280
     0
102
RTVSPost2010PropOp45
 70
     1
102
RTVSPost2010Prop46
 90
       50
102
RTVSPost2010PropOp46
 70
     1
102
RTVSPost2010Prop47
 90
       50
102
RTVSPost2010PropOp47
 70
     1
102
RTVSPost2010Prop48
 90
       50
102
RTVSPost2010PropOp48
 70
     1
102
RTVSPost2010Prop49
280
     0
102
RTVSPost2010PropOp49
 70
     1
102
RTVSPost2010Prop50
 90
       50
102
RTVSPost2010PropOp50
 70
     1
102
RTVSPost2010Prop51ColorIndex
 90
      256
102
RTVSPost2010Prop51ColorRGB
 90
-16777216
102
RTVSPost2010PropOp51
 70
     0
102
RTVSPost2010Prop52
140
1.0
102
RTVSPost2010PropOp52
 70
     0
102
RTVSPost2010Prop53
 90
        2
102
RTVSPost2010PropOp53
 70
     1
102
RTVSPost2010Prop54
  1
strokes_ogs.tif
102
RTVSPost2010PropOp54
 70
     1
102
RTVSPost2010Prop55
280
     0
102
RTVSPost2010PropOp55
 70
     1
102
RTVSPost2010Prop56
140
1.0
102
RTVSPost2010PropOp56
 70
     1
102
RTVSPost2010Prop57
140
1.0
102
RTVSPost2010PropOp57
 70
     1
102
RTVSPropertyOp0
 70
     1
102
RTVSPropertyOp1
 70
     1
102
RTVSPropertyOp2
 70
     1
102
RTVSPropertyOp3
 70
     1
102
RTVSPropertyOp4
 70
     1
102
RTVSPropertyOp5
 70
     1
102
RTVSPropertyOp6
 70
     1
102
RTVSPropertyOp7
 70
     1
102
RTVSPropertyOp8
 70
     1
102
RTVSPropertyOp9
 70
     1
102
RTVSPropertyOp10
 70
     1
102
RTVSPropertyOp11
 70
     1
102
RTVSPropertyOp12
 70
     1
102
RTVSPropertyOp13
 70
     1
102
RTVSPropertyOp14
 70
     1
102
RTVSPropertyOp15
 70
     1
102
RTVSPropertyOp16
 70
     1
102
RTVSPropertyOp17
 70
     1
102
RTVSPropertyOp18
 70
     1
102
RTVSPropertyOp19
 70
     1
102
RTVSPropertyOp20
 70
     1
102
RTVSPropertyOp21
 70
     1
102
RTVSPropertyOp22
 70
     1
102
RTVSPropertyOp23
 70
     1
102
RTVSPropertyOp24
 70
     1
102
RTVSPropertyOp25
 70
     1
102
RTVSPropertyOp26
 70
     1
102
RTVSPropertyOp27
 70
     1
102
RTVSPropertyOp28
 70
     1
102
RTVSPropertyOp29
 70
     1
102
RTVSPropertyOp30
 70
     1
102
RTVSPropertyOp31
 70
     1
102
RTVSPropertyOp32
 70
     1
102
RTVSPropertyOp33
 70
     1
102
RTVSPropertyOp34
 70
     1
102
RTVSPropertyOp35
 70
     1
102
RTVSPropertyOp36
 70
     1
102
RTVSPropertyOp37
 70
     1
102
RTVSPropertyOp38
 70
     1
102
RTVSPropertyOp39
 70
     1
102
RTVSPropertyOp40
 70
     1
102
RTVSPropertyOp41
 70
     1
102
RTVSPropertyOp42
 70
     1
102
RTVSPropertyOp43
 70
     1
102
RTVSPropertyOp44
 70
     1
102
RTVSPropertyOp45
 70
     1
102
RTVSPropertyOp46
 70
     1
102
RTVSPropertyOp47
 70
     1
102
RTVSPropertyOp48
 70
     1
102
RTVSPropertyOp49
 70
     1
102
RTVSPropertyOp50
 70
     1
102
RTVSPropertyOp51
 70
     0
102
RTVSPropertyOp52
 70
     0
102
RTVSPropertyOp53
 70
     1
102
RTVSPropertyOp54
 70
     1
102
RTVSPropertyOp55
 70
     1
102
RTVSPropertyOp56
 70
     1
102
RTVSPropertyOp57
 70
     1
102
RTVSPropertyOp58
 70
     1
102
RTVSPropertyOp59
 70
     1
102
RTVSPropertyOp60
 70
     1
102
RTVSPropertyOp61
 70
     1
102
RTVSPropertyOp62
 70
     1
  0
ENDSEC
  0
EOF
