  0
SECTION
  2
HEADER
  9
$ACADVER
  1
AC1015
  9
$ACADMAINTVER
 70
    20
  9
$DWGCODEPAGE
  3
ANSI_932
  9
$INSBASE
 10
0.0
 20
0.0
 30
0.0
  9
$EXTMIN
 10
29.67542963137532
 20
17.4688939042702
 30
0.0
  9
$EXTMAX
 10
1975.030949201803
 20
1344.043388930954
 30
0.0
  9
$LIMMIN
 10
-459.8160858154295
 20
-471.5292968749998
  9
$LIMMAX
 10
1327.430816650391
 20
786.3995666503902
  9
$ORTHOMODE
 70
     0
  9
$REGENMODE
 70
     1
  9
$FILLMODE
 70
     1
  9
$QTEXTMODE
 70
     0
  9
$MIRRTEXT
 70
     1
  9
$LTSCALE
 40
0.1049892315401493
  9
$ATTMODE
 70
     1
  9
$TEXTSIZE
 40
2.5
  9
$TRACEWID
 40
1.0
  9
$TEXTSTYLE
  7
Standard
  9
$CLAYER
  8
0
  9
$CELTYPE
  6
ByLayer
  9
$CECOLOR
 62
   256
  9
$CELTSCALE
 40
1.0
  9
$DISPSILH
 70
     0
  9
$DIMSCALE
 40
1.0
  9
$DIMASZ
 40
2.5
  9
$DIMEXO
 40
0.625
  9
$DIMDLI
 40
3.75
  9
$DIMRND
 40
0.0
  9
$DIMDLE
 40
0.0
  9
$DIMEXE
 40
1.25
  9
$DIMTP
 40
0.0
  9
$DIMTM
 40
0.0
  9
$DIMTXT
 40
2.5
  9
$DIMCEN
 40
2.5
  9
$DIMTSZ
 40
0.0
  9
$DIMTOL
 70
     0
  9
$DIMLIM
 70
     0
  9
$DIMTIH
 70
     0
  9
$DIMTOH
 70
     0
  9
$DIMSE1
 70
     0
  9
$DIMSE2
 70
     0
  9
$DIMTAD
 70
     1
  9
$DIMZIN
 70
     0
  9
$DIMBLK
  1

  9
$DIMASO
 70
     1
  9
$DIMSHO
 70
     1
  9
$DIMPOST
  1

  9
$DIMAPOST
  1

  9
$DIMALT
 70
     0
  9
$DIMALTD
 70
     3
  9
$DIMALTF
 40
0.03937007874016
  9
$DIMLFAC
 40
1.0
  9
$DIMTOFL
 70
     1
  9
$DIMTVP
 40
0.0
  9
$DIMTIX
 70
     0
  9
$DIMSOXD
 70
     0
  9
$DIMSAH
 70
     0
  9
$DIMBLK1
  1

  9
$DIMBLK2
  1

  9
$DIMSTYLE
  2
Standard
  9
$DIMCLRD
 70
     0
  9
$DIMCLRE
 70
     0
  9
$DIMCLRT
 70
     0
  9
$DIMTFAC
 40
0.75
  9
$DIMGAP
 40
0.625
  9
$DIMJUST
 70
     0
  9
$DIMSD1
 70
     0
  9
$DIMSD2
 70
     0
  9
$DIMTOLJ
 70
     0
  9
$DIMTZIN
 70
     8
  9
$DIMALTZ
 70
     0
  9
$DIMALTTZ
 70
     0
  9
$DIMUPT
 70
     0
  9
$DIMDEC
 70
     2
  9
$DIMTDEC
 70
     2
  9
$DIMALTU
 70
     2
  9
$DIMALTTD
 70
     3
  9
$DIMTXSTY
  7
Standard
  9
$DIMAUNIT
 70
     0
  9
$DIMADEC
 70
     0
  9
$DIMALTRND
 40
0.0
  9
$DIMAZIN
 70
     0
  9
$DIMDSEP
 70
    46
  9
$DIMATFIT
 70
     3
  9
$DIMFRAC
 70
     0
  9
$DIMLDRBLK
  1

  9
$DIMLUNIT
 70
     2
  9
$DIMLWD
 70
    -2
  9
$DIMLWE
 70
    -2
  9
$DIMTMOVE
 70
     0
  9
$LUNITS
 70
     2
  9
$LUPREC
 70
     4
  9
$SKETCHINC
 40
1.0
  9
$FILLETRAD
 40
0.0
  9
$AUNITS
 70
     0
  9
$AUPREC
 70
     0
  9
$MENU
  1
.
  9
$ELEVATION
 40
0.0
  9
$PELEVATION
 40
0.0
  9
$THICKNESS
 40
0.0
  9
$LIMCHECK
 70
     0
  9
$CHAMFERA
 40
10.0
  9
$CHAMFERB
 40
10.0
  9
$CHAMFERC
 40
20.0
  9
$CHAMFERD
 40
0.0
  9
$SKPOLY
 70
     0
  9
$TDCREATE
 40
2455188.750000000
  9
$TDUCREATE
 40
2455188.375000000
  9
$TDUPDATE
 40
2459759.347697361
  9
$TDUUPDATE
 40
2459758.972697361
  9
$TDINDWG
 40
0.0601154514
  9
$TDUSRTIMER
 40
0.0601152778
  9
$USRTIMER
 70
     1
  9
$ANGBASE
 50
0.0
  9
$ANGDIR
 70
     0
  9
$PDMODE
 70
     0
  9
$PDSIZE
 40
0.0
  9
$PLINEWID
 40
0.0
  9
$SPLFRAME
 70
     0
  9
$SPLINETYPE
 70
     6
  9
$SPLINESEGS
 70
     8
  9
$HANDSEED
  5
67A
  9
$SURFTAB1
 70
     6
  9
$SURFTAB2
 70
     6
  9
$SURFTYPE
 70
     6
  9
$SURFU
 70
     6
  9
$SURFV
 70
     6
  9
$UCSBASE
  2

  9
$UCSNAME
  2

  9
$UCSORG
 10
0.0
 20
0.0
 30
0.0
  9
$UCSXDIR
 10
1.0
 20
0.0
 30
0.0
  9
$UCSYDIR
 10
0.0
 20
1.0
 30
0.0
  9
$UCSORTHOREF
  2

  9
$UCSORTHOVIEW
 70
     0
  9
$UCSORGTOP
 10
0.0
 20
0.0
 30
0.0
  9
$UCSORGBOTTOM
 10
0.0
 20
0.0
 30
0.0
  9
$UCSORGLEFT
 10
0.0
 20
0.0
 30
0.0
  9
$UCSORGRIGHT
 10
0.0
 20
0.0
 30
0.0
  9
$UCSORGFRONT
 10
0.0
 20
0.0
 30
0.0
  9
$UCSORGBACK
 10
0.0
 20
0.0
 30
0.0
  9
$PUCSBASE
  2

  9
$PUCSNAME
  2

  9
$PUCSORG
 10
0.0
 20
0.0
 30
0.0
  9
$PUCSXDIR
 10
1.0
 20
0.0
 30
0.0
  9
$PUCSYDIR
 10
0.0
 20
1.0
 30
0.0
  9
$PUCSORTHOREF
  2

  9
$PUCSORTHOVIEW
 70
     0
  9
$PUCSORGTOP
 10
0.0
 20
0.0
 30
0.0
  9
$PUCSORGBOTTOM
 10
0.0
 20
0.0
 30
0.0
  9
$PUCSORGLEFT
 10
0.0
 20
0.0
 30
0.0
  9
$PUCSORGRIGHT
 10
0.0
 20
0.0
 30
0.0
  9
$PUCSORGFRONT
 10
0.0
 20
0.0
 30
0.0
  9
$PUCSORGBACK
 10
0.0
 20
0.0
 30
0.0
  9
$USERI1
 70
     0
  9
$USERI2
 70
     0
  9
$USERI3
 70
     0
  9
$USERI4
 70
     0
  9
$USERI5
 70
     0
  9
$USERR1
 40
0.0
  9
$USERR2
 40
0.0
  9
$USERR3
 40
0.0
  9
$USERR4
 40
0.0
  9
$USERR5
 40
0.0
  9
$WORLDVIEW
 70
     1
  9
$SHADEDGE
 70
     3
  9
$SHADEDIF
 70
    70
  9
$TILEMODE
 70
     1
  9
$MAXACTVP
 70
    64
  9
$PINSBASE
 10
0.0
 20
0.0
 30
0.0
  9
$PLIMCHECK
 70
     0
  9
$PEXTMIN
 10
1.000000000000000E+20
 20
1.000000000000000E+20
 30
1.000000000000000E+20
  9
$PEXTMAX
 10
-1.000000000000000E+20
 20
-1.000000000000000E+20
 30
-1.000000000000000E+20
  9
$PLIMMIN
 10
0.0
 20
0.0
  9
$PLIMMAX
 10
420.0
 20
297.0
  9
$UNITMODE
 70
     0
  9
$VISRETAIN
 70
     1
  9
$PLINEGEN
 70
     0
  9
$PSLTSCALE
 70
     1
  9
$TREEDEPTH
 70
  3020
  9
$CMLSTYLE
  2
Standard
  9
$CMLJUST
 70
     0
  9
$CMLSCALE
 40
20.0
  9
$PROXYGRAPHICS
 70
     1
  9
$MEASUREMENT
 70
     1
  9
$CELWEIGHT
370
    -1
  9
$ENDCAPS
280
     0
  9
$JOINSTYLE
280
     0
  9
$LWDISPLAY
290
     0
  9
$INSUNITS
 70
     4
  9
$HYPERLINKBASE
  1

  9
$STYLESHEET
  1

  9
$XEDIT
290
     1
  9
$CEPSNTYPE
380
     0
  9
$PSTYLEMODE
290
     1
  9
$FINGERPRINTGUID
  2
{0BBC0162-E272-4FAF-8758-2460FD8B6044}
  9
$VERSIONGUID
  2
{27BD2356-362E-4AD5-AB5B-AF9ADBD18063}
  9
$EXTNAMES
290
     1
  9
$PSVPSCALE
 40
0.0
  9
$OLESTARTUP
290
     0
  0
ENDSEC
  0
SECTION
  2
CLASSES
  0
CLASS
  1
ACDBDICTIONARYWDFLT
  2
AcDbDictionaryWithDefault
  3
ObjectDBX Classes
 90
        0
280
     0
281
     0
  0
CLASS
  1
VISUALSTYLE
  2
AcDbVisualStyle
  3
ObjectDBX Classes
 90
     4095
280
     0
281
     0
  0
CLASS
  1
MATERIAL
  2
AcDbMaterial
  3
ObjectDBX Classes
 90
     1153
280
     0
281
     0
  0
CLASS
  1
SCALE
  2
AcDbScale
  3
ObjectDBX Classes
 90
     1153
280
     0
281
     0
  0
CLASS
  1
TABLESTYLE
  2
AcDbTableStyle
  3
ObjectDBX Classes
 90
     4095
280
     0
281
     0
  0
CLASS
  1
MLEADERSTYLE
  2
AcDbMLeaderStyle
  3
ACDB_MLEADERSTYLE_CLASS
 90
     4095
280
     0
281
     0
  0
CLASS
  1
SUN
  2
AcDbSun
  3
SCENEOE
 90
    33921
280
     0
281
     0
  0
CLASS
  1
DICTIONARYVAR
  2
AcDbDictionaryVar
  3
ObjectDBX Classes
 90
        0
280
     0
281
     0
  0
CLASS
  1
ACDBSECTIONVIEWSTYLE
  2
AcDbSectionViewStyle
  3
ObjectDBX Classes
 90
     1025
280
     0
281
     0
  0
CLASS
  1
ACDBDETAILVIEWSTYLE
  2
AcDbDetailViewStyle
  3
ObjectDBX Classes
 90
     1025
280
     0
281
     0
  0
CLASS
  1
SORTENTSTABLE
  2
AcDbSortentsTable
  3
ObjectDBX Classes
 90
        0
280
     0
281
     0
  0
CLASS
  1
CELLSTYLEMAP
  2
AcDbCellStyleMap
  3
ObjectDBX Classes
 90
     1152
280
     0
281
     0
  0
CLASS
  1
ACDBPLACEHOLDER
  2
AcDbPlaceHolder
  3
ObjectDBX Classes
 90
        0
280
     0
281
     0
  0
CLASS
  1
LAYOUT
  2
AcDbLayout
  3
ObjectDBX Classes
 90
        0
280
     0
281
     0
  0
ENDSEC
  0
SECTION
  2
TABLES
  0
TABLE
  2
VPORT
  5
8
330
0
100
AcDbSymbolTable
 70
     1
  0
VPORT
  5
29
330
8
100
AcDbSymbolTableRecord
100
AcDbViewportTableRecord
  2
*Active
 70
     0
 10
0.0
 20
0.0
 11
1.0
 21
1.0
 12
1167.662555708395
 22
422.3922422084597
 13
0.0
 23
0.0
 14
10.0
 24
10.0
 15
10.0
 25
10.0
 16
0.0
 26
0.0
 36
1.0
 17
0.0
 27
0.0
 37
0.0
 40
1546.47922379247
 41
2.204301075268817
 42
50.0
 43
0.0
 44
0.0
 50
0.0
 51
0.0
 71
     0
 72
 20000
 73
     1
 74
     3
 75
     0
 76
     0
 77
     0
 78
     0
281
     0
 65
     1
110
0.0
120
0.0
130
0.0
111
1.0
121
0.0
131
0.0
112
0.0
122
1.0
132
0.0
 79
     0
146
0.0
1001
ACAD_NAV_VCDISPLAY
1070
     3
  0
ENDTAB
  0
TABLE
  2
LTYPE
  5
5
330
0
100
AcDbSymbolTable
 70
     2
  0
LTYPE
  5
14
330
5
100
AcDbSymbolTableRecord
100
AcDbLinetypeTableRecord
  2
ByBlock
 70
     0
  3

 72
    65
 73
     0
 40
0.0
  0
LTYPE
  5
15
330
5
100
AcDbSymbolTableRecord
100
AcDbLinetypeTableRecord
  2
ByLayer
 70
     0
  3

 72
    65
 73
     0
 40
0.0
  0
LTYPE
  5
16
330
5
100
AcDbSymbolTableRecord
100
AcDbLinetypeTableRecord
  2
Continuous
 70
     0
  3
Solid line
 72
    65
 73
     0
 40
0.0
  0
LTYPE
  5
3C5
330
5
100
AcDbSymbolTableRecord
100
AcDbLinetypeTableRecord
  2
CENTER2
 70
     0
  3
Center (.5x) ___ _ ___ _ ___ _ ___ _ ___ _ ___
 72
    65
 73
     4
 40
28.575
 49
19.05
 74
     0
 49
-3.174999999999998
 74
     0
 49
3.174999999999998
 74
     0
 49
-3.174999999999998
 74
     0
  0
ENDTAB
  0
TABLE
  2
LAYER
  5
2
102
{ACAD_XDICTIONARY
360
3CB
102
}
330
0
100
AcDbSymbolTable
 70
     4
  0
LAYER
  5
10
102
{ACAD_XDICTIONARY
360
50E
102
}
330
2
100
AcDbSymbolTableRecord
100
AcDbLayerTableRecord
  2
0
 70
     0
 62
     7
  6
Continuous
370
    -3
390
F
  0
LAYER
  5
66
330
2
100
AcDbSymbolTableRecord
100
AcDbLayerTableRecord
  2
Defpoints
 70
     0
 62
     7
  6
Continuous
290
     0
370
    -3
390
F
  0
LAYER
  5
3C6
102
{ACAD_XDICTIONARY
360
3C7
102
}
330
2
100
AcDbSymbolTableRecord
100
AcDbLayerTableRecord
  2
中心線
 70
     0
 62
     3
  6
CENTER2
370
    -3
390
F
  0
LAYER
  5
3C8
102
{ACAD_XDICTIONARY
360
3C9
102
}
330
2
100
AcDbSymbolTableRecord
100
AcDbLayerTableRecord
  2
実線
 70
     0
 62
     7
  6
Continuous
370
    -3
390
F
  0
ENDTAB
  0
TABLE
  2
STYLE
  5
3
330
0
100
AcDbSymbolTable
 70
     1
  0
STYLE
  5
11
330
3
100
AcDbSymbolTableRecord
100
AcDbTextStyleTableRecord
  2
Standard
 70
     0
 40
0.0
 41
1.0
 50
0.0
 71
     0
 42
2.5
  3
txt
  4
extfont2
  0
ENDTAB
  0
TABLE
  2
VIEW
  5
6
330
0
100
AcDbSymbolTable
 70
     0
  0
ENDTAB
  0
TABLE
  2
UCS
  5
7
330
0
100
AcDbSymbolTable
 70
     0
  0
ENDTAB
  0
TABLE
  2
APPID
  5
9
330
0
100
AcDbSymbolTable
 70
     4
  0
APPID
  5
12
330
9
100
AcDbSymbolTableRecord
100
AcDbRegAppTableRecord
  2
ACAD
 70
     0
  0
APPID
  5
23C
330
9
100
AcDbSymbolTableRecord
100
AcDbRegAppTableRecord
  2
ACAD_MLEADERVER
 70
     0
  0
APPID
  5
3CA
330
9
100
AcDbSymbolTableRecord
100
AcDbRegAppTableRecord
  2
ACAD_NAV_VCDISPLAY
 70
     0
  0
APPID
  5
4FB
330
9
100
AcDbSymbolTableRecord
100
AcDbRegAppTableRecord
  2
ACAD_EXEMPT_FROM_CAD_STANDARDS
 70
     0
  0
ENDTAB
  0
TABLE
  2
DIMSTYLE
  5
A
330
0
100
AcDbSymbolTable
 70
     1
100
AcDbDimStyleTable
 71
     1
340
27
  0
DIMSTYLE
105
27
330
A
100
AcDbSymbolTableRecord
100
AcDbDimStyleTableRecord
  2
Standard
 70
     0
 41
2.5
 42
0.625
 43
3.75
 44
1.25
 73
     0
 74
     0
 77
     1
140
2.5
141
2.5
143
0.03937007874016
146
0.75
147
0.625
171
     3
172
     1
271
     2
272
     2
274
     3
283
     0
284
     8
340
11
  0
ENDTAB
  0
TABLE
  2
BLOCK_RECORD
  5
1
330
0
100
AcDbSymbolTable
 70
     1
  0
BLOCK_RECORD
  5
1F
102
{ACAD_XDICTIONARY
360
27D
102
}
330
1
100
AcDbSymbolTableRecord
100
AcDbBlockTableRecord
  2
*Model_Space
340
22
  0
BLOCK_RECORD
  5
1B
330
1
100
AcDbSymbolTableRecord
100
AcDbBlockTableRecord
  2
*Paper_Space
340
1E
  0
BLOCK_RECORD
  5
23
330
1
100
AcDbSymbolTableRecord
100
AcDbBlockTableRecord
  2
*Paper_Space0
340
246
  0
ENDTAB
  0
ENDSEC
  0
SECTION
  2
BLOCKS
  0
BLOCK
  5
20
330
1F
100
AcDbEntity
  8
0
100
AcDbBlockBegin
  2
*Model_Space
 70
     0
 10
0.0
 20
0.0
 30
0.0
  3
*Model_Space
  1

  0
ENDBLK
  5
21
330
1F
100
AcDbEntity
  8
0
100
AcDbBlockEnd
  0
BLOCK
  5
1C
330
1B
100
AcDbEntity
 67
     1
  8
0
100
AcDbBlockBegin
  2
*Paper_Space
 70
     0
 10
0.0
 20
0.0
 30
0.0
  3
*Paper_Space
  1

  0
ENDBLK
  5
1D
330
1B
100
AcDbEntity
 67
     1
  8
0
100
AcDbBlockEnd
  0
BLOCK
  5
24
330
23
100
AcDbEntity
 67
     1
  8
0
100
AcDbBlockBegin
  2
*Paper_Space0
 70
     0
 10
0.0
 20
0.0
 30
0.0
  3
*Paper_Space0
  1

  0
ENDBLK
  5
25
330
23
100
AcDbEntity
 67
     1
  8
0
100
AcDbBlockEnd
  0
ENDSEC
  0
SECTION
  2
ENTITIES
  0
CIRCLE
  5
24C
102
{ACAD_REACTORS
330
50D
102
}
330
1F
100
AcDbEntity
  8
実線
100
AcDbCircle
 10
339.6754296313754
 20
87.46889390427037
 30
0.0
 40
32.0
  0
LINE
  5
24D
102
{ACAD_REACTORS
330
50D
102
}
330
1F
100
AcDbEntity
  8
実線
100
AcDbLine
 10
262.9754296313753
 20
62.06889390427034
 30
0.0
 11
297.7726850911905
 21
62.06889390427034
 31
0.0
  0
LINE
  5
24E
102
{ACAD_REACTORS
330
50D
102
}
330
1F
100
AcDbEntity
  8
実線
100
AcDbLine
 10
297.7726850911905
 20
112.8688939042703
 30
0.0
 11
262.9754296313753
 21
112.8688939042703
 31
0.0
  0
LINE
  5
24F
102
{ACAD_REACTORS
330
50D
102
}
330
1F
100
AcDbEntity
  8
実線
100
AcDbLine
 10
262.9754296313753
 20
112.8688939042703
 30
0.0
 11
260.5754296313754
 21
119.4688939042704
 31
0.0
  0
LINE
  5
250
102
{ACAD_REACTORS
330
50D
102
}
330
1F
100
AcDbEntity
  8
実線
100
AcDbLine
 10
260.5754296313754
 20
55.46889390427037
 30
0.0
 11
262.9754296313753
 21
62.06889390427034
 31
0.0
  0
LINE
  5
251
102
{ACAD_REACTORS
330
50D
102
}
330
1F
100
AcDbEntity
  8
実線
100
AcDbLine
 10
262.9754296313753
 20
112.8688939042703
 30
0.0
 11
262.9754296313753
 21
62.06889390427034
 31
0.0
  0
LINE
  5
252
102
{ACAD_REACTORS
330
50D
102
}
330
1F
100
AcDbEntity
  8
実線
100
AcDbLine
 10
257.6754296313755
 20
55.46889390427037
 30
0.0
 11
260.5754296313754
 21
55.46889390427037
 31
0.0
  0
LINE
  5
253
102
{ACAD_REACTORS
330
50D
102
}
330
1F
100
AcDbEntity
  8
実線
100
AcDbLine
 10
260.5754296313754
 20
119.4688939042704
 30
0.0
 11
257.6754296313755
 21
119.4688939042704
 31
0.0
  0
LINE
  5
254
102
{ACAD_REACTORS
330
50D
102
}
330
1F
100
AcDbEntity
  8
実線
100
AcDbLine
 10
257.6754296313755
 20
119.4688939042704
 30
0.0
 11
257.6754296313755
 21
55.46889390427037
 31
0.0
  0
LINE
  5
255
102
{ACAD_REACTORS
330
50D
102
}
330
1F
100
AcDbEntity
  8
実線
100
AcDbLine
 10
260.5754296313754
 20
119.4688939042704
 30
0.0
 11
260.5754296313754
 21
55.46889390427037
 31
0.0
  0
LINE
  5
256
102
{ACAD_REACTORS
330
50D
102
}
330
1F
100
AcDbEntity
  8
実線
100
AcDbLine
 10
416.3754296313754
 20
112.8688939042703
 30
0.0
 11
381.5781741715605
 21
112.8688939042703
 31
0.0
  0
LINE
  5
257
102
{ACAD_REACTORS
330
50D
102
}
330
1F
100
AcDbEntity
  8
実線
100
AcDbLine
 10
381.5781741715605
 20
62.06889390427034
 30
0.0
 11
416.3754296313754
 21
62.06889390427034
 31
0.0
  0
LINE
  5
258
102
{ACAD_REACTORS
330
50D
102
}
330
1F
100
AcDbEntity
  8
実線
100
AcDbLine
 10
421.6754296313754
 20
119.4688939042704
 30
0.0
 11
418.7754296313753
 21
119.4688939042704
 31
0.0
  0
LINE
  5
259
102
{ACAD_REACTORS
330
50D
102
}
330
1F
100
AcDbEntity
  8
実線
100
AcDbLine
 10
418.7754296313753
 20
55.46889390427037
 30
0.0
 11
421.6754296313754
 21
55.46889390427037
 31
0.0
  0
LINE
  5
25A
102
{ACAD_REACTORS
330
50D
102
}
330
1F
100
AcDbEntity
  8
実線
100
AcDbLine
 10
421.6754296313754
 20
55.46889390427037
 30
0.0
 11
421.6754296313754
 21
119.4688939042704
 31
0.0
  0
LINE
  5
25B
102
{ACAD_REACTORS
330
50D
102
}
330
1F
100
AcDbEntity
  8
実線
100
AcDbLine
 10
416.3754296313754
 20
62.06889390427034
 30
0.0
 11
418.7754296313753
 21
55.46889390427043
 31
0.0
  0
LINE
  5
25C
102
{ACAD_REACTORS
330
50D
102
}
330
1F
100
AcDbEntity
  8
実線
100
AcDbLine
 10
418.7754296313753
 20
119.4688939042703
 30
0.0
 11
416.3754296313754
 21
112.8688939042703
 31
0.0
  0
LINE
  5
25D
102
{ACAD_REACTORS
330
50D
102
}
330
1F
100
AcDbEntity
  8
実線
100
AcDbLine
 10
418.7754296313753
 20
55.46889390427043
 30
0.0
 11
418.7754296313753
 21
119.4688939042703
 31
0.0
  0
LINE
  5
25E
102
{ACAD_REACTORS
330
50D
102
}
330
1F
100
AcDbEntity
  8
実線
100
AcDbLine
 10
416.3754296313754
 20
62.06889390427034
 30
0.0
 11
416.3754296313754
 21
112.8688939042703
 31
0.0
  0
ARC
  5
25F
102
{ACAD_REACTORS
330
50D
102
}
330
1F
100
AcDbEntity
  8
実線
100
AcDbCircle
 10
339.6754296313755
 20
87.46889390427048
 30
0.0
 40
62.5
100
AcDbArc
 50
56.46656599471263
 51
123.5334340052874
  0
ARC
  5
260
102
{ACAD_REACTORS
330
50D
102
}
330
1F
100
AcDbEntity
  8
実線
100
AcDbCircle
 10
339.6754296313755
 20
87.46889390427048
 30
0.0
 40
62.5
100
AcDbArc
 50
146.466565994714
 51
156.0211118622471
  0
ARC
  5
261
102
{ACAD_REACTORS
330
50D
102
}
330
1F
100
AcDbEntity
  8
実線
100
AcDbCircle
 10
339.6754296313755
 20
87.46889390427048
 30
0.0
 40
62.5
100
AcDbArc
 50
203.9788881377529
 51
213.533434005286
  0
ARC
  5
262
102
{ACAD_REACTORS
330
50D
102
}
330
1F
100
AcDbEntity
  8
実線
100
AcDbCircle
 10
339.6754296313755
 20
87.46889390427048
 30
0.0
 40
62.5
100
AcDbArc
 50
236.4665659947127
 51
303.5334340052874
  0
ARC
  5
263
102
{ACAD_REACTORS
330
50D
102
}
330
1F
100
AcDbEntity
  8
実線
100
AcDbCircle
 10
339.6754296313755
 20
87.46889390427048
 30
0.0
 40
62.5
100
AcDbArc
 50
326.4665659947139
 51
336.0211118622443
  0
ARC
  5
264
102
{ACAD_REACTORS
330
50D
102
}
330
1F
100
AcDbEntity
  8
実線
100
AcDbCircle
 10
339.6754296313755
 20
87.46889390427048
 30
0.0
 40
62.5
100
AcDbArc
 50
23.97888813775294
 51
33.53343400528601
  0
ARC
  5
265
102
{ACAD_REACTORS
330
50D
102
}
330
1F
100
AcDbEntity
  8
実線
100
AcDbCircle
 10
339.6754296313755
 20
87.46889390427048
 30
0.0
 40
50.0
100
AcDbArc
 50
62.22254048957997
 51
117.77745951042
  0
ARC
  5
266
102
{ACAD_REACTORS
330
50D
102
}
330
1F
100
AcDbEntity
  8
実線
100
AcDbCircle
 10
339.6754296313755
 20
87.46889390427048
 30
0.0
 40
50.0
100
AcDbArc
 50
242.22254048958
 51
297.77745951042
  0
LINE
  5
267
102
{ACAD_REACTORS
330
50D
102
}
330
1F
100
AcDbEntity
  8
実線
100
AcDbLine
 10
362.0536729185185
 20
131.0603406270099
 30
0.0
 11
377.9107420106265
 21
142.1635799392161
 31
0.0
  0
LINE
  5
268
102
{ACAD_REACTORS
330
50D
102
}
330
1F
100
AcDbEntity
  8
実線
100
AcDbLine
 10
394.3701156663212
 20
125.7042062835215
 30
0.0
 11
385.3827331830932
 21
112.8688939042703
 31
0.0
  0
ARC
  5
269
102
{ACAD_REACTORS
330
50D
102
}
330
1F
100
AcDbEntity
  8
実線
100
AcDbCircle
 10
386.1785952234313
 20
131.439970647032
 30
0.0
 40
9.999999999999976
100
AcDbArc
 50
325.0000000000026
 51
43.39689020481751
  0
ARC
  5
26A
102
{ACAD_REACTORS
330
50D
102
}
330
1F
100
AcDbEntity
  8
実線
100
AcDbCircle
 10
339.6754296313755
 20
87.46889390427048
 30
0.0
 40
73.99999999999984
100
AcDbArc
 50
43.39689020481751
 51
46.6031097951848
  0
ARC
  5
26B
102
{ACAD_REACTORS
330
50D
102
}
330
1F
100
AcDbEntity
  8
実線
100
AcDbCircle
 10
383.6465063741371
 20
133.9720594963262
 30
0.0
 40
10.00000000000003
100
AcDbArc
 50
46.6031097951848
 51
124.9999999999974
  0
LINE
  5
26C
102
{ACAD_REACTORS
330
50D
102
}
330
1F
100
AcDbEntity
  8
実線
100
AcDbLine
 10
377.9107420106267
 20
32.77420786932458
 30
0.0
 11
362.0536729185185
 21
43.87744718153089
 31
0.0
  0
ARC
  5
26D
102
{ACAD_REACTORS
330
50D
102
}
330
1F
100
AcDbEntity
  8
実線
100
AcDbCircle
 10
339.6754296313755
 20
87.46889390427048
 30
0.0
 40
74.00000000000003
100
AcDbArc
 50
313.3968902048152
 51
316.6031097951825
  0
ARC
  5
26E
102
{ACAD_REACTORS
330
50D
102
}
330
1F
100
AcDbEntity
  8
実線
100
AcDbCircle
 10
383.6465063741371
 20
40.96572831221453
 30
0.0
 40
10.00000000000001
100
AcDbArc
 50
235.0000000000026
 51
313.3968902048152
  0
LINE
  5
26F
102
{ACAD_REACTORS
330
50D
102
}
330
1F
100
AcDbEntity
  8
実線
100
AcDbLine
 10
385.3827331830932
 20
62.06889390427034
 30
0.0
 11
394.3701156663212
 21
49.23358152501925
 31
0.0
  0
ARC
  5
270
102
{ACAD_REACTORS
330
50D
102
}
330
1F
100
AcDbEntity
  8
実線
100
AcDbCircle
 10
386.1785952234313
 20
43.49781716150874
 30
0.0
 40
10.00000000000002
100
AcDbArc
 50
316.6031097951825
 51
34.99999999999737
  0
LINE
  5
271
102
{ACAD_REACTORS
330
50D
102
}
330
1F
100
AcDbEntity
  8
実線
100
AcDbLine
 10
317.2971863442323
 20
43.87744718153084
 30
0.0
 11
301.4401172521243
 21
32.77420786932458
 31
0.0
  0
LINE
  5
272
102
{ACAD_REACTORS
330
50D
102
}
330
1F
100
AcDbEntity
  8
実線
100
AcDbLine
 10
284.9807435964296
 20
49.23358152501918
 30
0.0
 11
293.9681260796577
 21
62.06889390427034
 31
0.0
  0
ARC
  5
273
102
{ACAD_REACTORS
330
50D
102
}
330
1F
100
AcDbEntity
  8
実線
100
AcDbCircle
 10
293.1722640393195
 20
43.49781716150874
 30
0.0
 40
10.00000000000001
100
AcDbArc
 50
145.0000000000026
 51
223.3968902048175
  0
ARC
  5
274
102
{ACAD_REACTORS
330
50D
102
}
330
1F
100
AcDbEntity
  8
実線
100
AcDbCircle
 10
339.6754296313755
 20
87.46889390427048
 30
0.0
 40
74.00000000000019
100
AcDbArc
 50
223.3968902048175
 51
226.6031097951848
  0
ARC
  5
275
102
{ACAD_REACTORS
330
50D
102
}
330
1F
100
AcDbEntity
  8
実線
100
AcDbCircle
 10
295.7043528886138
 20
40.96572831221453
 30
0.0
 40
10.0
100
AcDbArc
 50
226.6031097951848
 51
304.9999999999974
  0
LINE
  5
276
102
{ACAD_REACTORS
330
50D
102
}
330
1F
100
AcDbEntity
  8
実線
100
AcDbLine
 10
293.9681260796577
 20
112.8688939042703
 30
0.0
 11
284.9807435964296
 21
125.7042062835215
 31
0.0
  0
LINE
  5
277
102
{ACAD_REACTORS
330
50D
102
}
330
1F
100
AcDbEntity
  8
実線
100
AcDbLine
 10
301.4401172521243
 20
142.1635799392161
 30
0.0
 11
317.2971863442323
 21
131.0603406270099
 31
0.0
  0
ARC
  5
278
102
{ACAD_REACTORS
330
50D
102
}
330
1F
100
AcDbEntity
  8
実線
100
AcDbCircle
 10
295.7043528886138
 20
133.9720594963262
 30
0.0
 40
10.00000000000001
100
AcDbArc
 50
55.00000000000264
 51
133.3968902048152
  0
ARC
  5
279
102
{ACAD_REACTORS
330
50D
102
}
330
1F
100
AcDbEntity
  8
実線
100
AcDbCircle
 10
339.6754296313755
 20
87.46889390427048
 30
0.0
 40
73.99999999999997
100
AcDbArc
 50
133.3968902048152
 51
136.6031097951825
  0
ARC
  5
27A
102
{ACAD_REACTORS
330
50D
102
}
330
1F
100
AcDbEntity
  8
実線
100
AcDbCircle
 10
293.1722640393195
 20
131.439970647032
 30
0.0
 40
10.00000000000001
100
AcDbArc
 50
136.6031097951825
 51
214.9999999999974
  0
ARC
  5
27B
102
{ACAD_REACTORS
330
50D
102
}
330
1F
100
AcDbEntity
  8
実線
100
AcDbCircle
 10
339.6754296313754
 20
87.46889390427037
 30
0.0
 40
49.0
100
AcDbArc
 50
207.5287869161047
 51
332.4712130838953
  0
ARC
  5
27C
102
{ACAD_REACTORS
330
50D
102
}
330
1F
100
AcDbEntity
  8
実線
100
AcDbCircle
 10
339.6754296313754
 20
87.46889390427037
 30
0.0
 40
49.0
100
AcDbArc
 50
27.52878691610473
 51
152.4712130838953
  0
LINE
  5
27F
102
{ACAD_REACTORS
330
50A
102
}
330
1F
100
AcDbEntity
  8
実線
100
AcDbLine
 10
262.9754296313753
 20
902.0688939042713
 30
0.0
 11
282.5694754759636
 21
902.0688939042713
 31
0.0
  0
LINE
  5
280
102
{ACAD_REACTORS
330
50A
102
}
330
1F
100
AcDbEntity
  8
実線
100
AcDbLine
 10
282.5694754759637
 20
952.8688939042712
 30
0.0
 11
262.9754296313753
 21
952.8688939042712
 31
0.0
  0
LINE
  5
281
102
{ACAD_REACTORS
330
50A
102
}
330
1F
100
AcDbEntity
  8
実線
100
AcDbLine
 10
262.9754296313753
 20
902.0688939042713
 30
0.0
 11
262.9754296313753
 21
952.8688939042712
 31
0.0
  0
LINE
  5
282
102
{ACAD_REACTORS
330
50A
102
}
330
1F
100
AcDbEntity
  8
実線
100
AcDbLine
 10
262.9754296313753
 20
952.8688939042712
 30
0.0
 11
260.5754296313754
 21
959.4688939042711
 31
0.0
  0
LINE
  5
283
102
{ACAD_REACTORS
330
50A
102
}
330
1F
100
AcDbEntity
  8
実線
100
AcDbLine
 10
260.5754296313754
 20
895.4688939042712
 30
0.0
 11
262.9754296313753
 21
902.0688939042713
 31
0.0
  0
LINE
  5
284
102
{ACAD_REACTORS
330
50A
102
}
330
1F
100
AcDbEntity
  8
実線
100
AcDbLine
 10
257.6754296313755
 20
895.4688939042712
 30
0.0
 11
257.6754296313755
 21
959.4688939042711
 31
0.0
  0
LINE
  5
285
102
{ACAD_REACTORS
330
50A
102
}
330
1F
100
AcDbEntity
  8
実線
100
AcDbLine
 10
260.5754296313754
 20
895.4688939042712
 30
0.0
 11
260.5754296313754
 21
959.4688939042711
 31
0.0
  0
LINE
  5
286
102
{ACAD_REACTORS
330
50A
102
}
330
1F
100
AcDbEntity
  8
実線
100
AcDbLine
 10
257.6754296313755
 20
895.4688939042712
 30
0.0
 11
260.5754296313754
 21
895.4688939042712
 31
0.0
  0
LINE
  5
287
102
{ACAD_REACTORS
330
50A
102
}
330
1F
100
AcDbEntity
  8
実線
100
AcDbLine
 10
260.5754296313754
 20
959.4688939042711
 30
0.0
 11
257.6754296313755
 21
959.4688939042711
 31
0.0
  0
LINE
  5
288
102
{ACAD_REACTORS
330
50A
102
}
330
1F
100
AcDbEntity
  8
実線
100
AcDbLine
 10
416.3754296313754
 20
952.8688939042712
 30
0.0
 11
396.7813837867872
 21
952.8688939042712
 31
0.0
  0
LINE
  5
289
102
{ACAD_REACTORS
330
50A
102
}
330
1F
100
AcDbEntity
  8
実線
100
AcDbLine
 10
396.7813837867875
 20
902.0688939042713
 30
0.0
 11
416.3754296313754
 21
902.0688939042713
 31
0.0
  0
LINE
  5
28A
102
{ACAD_REACTORS
330
50A
102
}
330
1F
100
AcDbEntity
  8
実線
100
AcDbLine
 10
416.3754296313754
 20
952.8688939042712
 30
0.0
 11
416.3754296313754
 21
902.0688939042713
 31
0.0
  0
LINE
  5
28B
102
{ACAD_REACTORS
330
50A
102
}
330
1F
100
AcDbEntity
  8
実線
100
AcDbLine
 10
416.3754296313754
 20
902.0688939042713
 30
0.0
 11
418.7754296313753
 21
895.4688939042712
 31
0.0
  0
LINE
  5
28C
102
{ACAD_REACTORS
330
50A
102
}
330
1F
100
AcDbEntity
  8
実線
100
AcDbLine
 10
418.7754296313753
 20
959.4688939042711
 30
0.0
 11
416.3754296313754
 21
952.8688939042712
 31
0.0
  0
LINE
  5
28D
102
{ACAD_REACTORS
330
50A
102
}
330
1F
100
AcDbEntity
  8
実線
100
AcDbLine
 10
421.6754296313754
 20
959.4688939042711
 30
0.0
 11
421.6754296313754
 21
895.4688939042712
 31
0.0
  0
LINE
  5
28E
102
{ACAD_REACTORS
330
50A
102
}
330
1F
100
AcDbEntity
  8
実線
100
AcDbLine
 10
418.7754296313753
 20
959.4688939042711
 30
0.0
 11
418.7754296313753
 21
895.4688939042712
 31
0.0
  0
LINE
  5
28F
102
{ACAD_REACTORS
330
50A
102
}
330
1F
100
AcDbEntity
  8
実線
100
AcDbLine
 10
421.6754296313754
 20
959.4688939042711
 30
0.0
 11
418.7754296313753
 21
959.4688939042711
 31
0.0
  0
LINE
  5
290
102
{ACAD_REACTORS
330
50A
102
}
330
1F
100
AcDbEntity
  8
実線
100
AcDbLine
 10
418.7754296313753
 20
895.4688939042712
 30
0.0
 11
421.6754296313754
 21
895.4688939042712
 31
0.0
  0
ARC
  5
291
102
{ACAD_REACTORS
330
50A
102
}
330
1F
100
AcDbEntity
  8
実線
100
AcDbCircle
 10
295.7043528886139
 20
880.9657283122152
 30
0.0
 40
10.00000000000001
100
AcDbArc
 50
226.6031097951848
 51
304.9999999999974
  0
LINE
  5
292
102
{ACAD_REACTORS
330
50A
102
}
330
1F
100
AcDbEntity
  8
実線
100
AcDbLine
 10
301.4401172521243
 20
872.7742078693253
 30
0.0
 11
305.1489614060623
 21
875.3711685039572
 31
0.0
  0
LINE
  5
293
102
{ACAD_REACTORS
330
50A
102
}
330
1F
100
AcDbEntity
  8
実線
100
AcDbLine
 10
374.2018978566885
 20
875.3711685039572
 30
0.0
 11
377.9107420106267
 21
872.7742078693253
 31
0.0
  0
ARC
  5
294
102
{ACAD_REACTORS
330
50A
102
}
330
1F
100
AcDbEntity
  8
実線
100
AcDbCircle
 10
383.6465063741372
 20
880.9657283122152
 30
0.0
 40
10.00000000000003
100
AcDbArc
 50
235.0000000000026
 51
313.3968902048152
  0
ARC
  5
295
102
{ACAD_REACTORS
330
50A
102
}
330
1F
100
AcDbEntity
  8
実線
100
AcDbCircle
 10
339.6754296313755
 20
927.4688939042702
 30
0.0
 40
73.99999999999984
100
AcDbArc
 50
313.3968902048152
 51
316.6031097951825
  0
LINE
  5
296
102
{ACAD_REACTORS
330
50A
102
}
330
1F
100
AcDbEntity
  8
実線
100
AcDbLine
 10
391.7731550316888
 20
961.9953621295833
 30
0.0
 11
394.3701156663213
 21
965.7042062835223
 31
0.0
  0
ARC
  5
297
102
{ACAD_REACTORS
330
50A
102
}
330
1F
100
AcDbEntity
  8
実線
100
AcDbCircle
 10
386.1785952234313
 20
971.4399706470324
 30
0.0
 40
10.00000000000002
100
AcDbArc
 50
325.0000000000026
 51
43.39689020481751
  0
ARC
  5
298
102
{ACAD_REACTORS
330
50A
102
}
330
1F
100
AcDbEntity
  8
実線
100
AcDbCircle
 10
339.6754296313757
 20
927.4688939042702
 30
0.0
 40
74.00000000000003
100
AcDbArc
 50
43.39689020481751
 51
46.6031097951848
  0
ARC
  5
299
102
{ACAD_REACTORS
330
50A
102
}
330
1F
100
AcDbEntity
  8
実線
100
AcDbCircle
 10
383.6465063741372
 20
973.9720594963264
 30
0.0
 40
10.00000000000001
100
AcDbArc
 50
46.6031097951848
 51
124.9999999999974
  0
LINE
  5
29A
102
{ACAD_REACTORS
330
50A
102
}
330
1F
100
AcDbEntity
  8
実線
100
AcDbLine
 10
377.9107420106267
 20
982.1635799392163
 30
0.0
 11
374.2018978566885
 21
979.5666193045843
 31
0.0
  0
LINE
  5
29B
102
{ACAD_REACTORS
330
50A
102
}
330
1F
100
AcDbEntity
  8
実線
100
AcDbLine
 10
305.1489614060623
 20
979.5666193045843
 30
0.0
 11
301.4401172521243
 21
982.1635799392163
 31
0.0
  0
ARC
  5
29C
102
{ACAD_REACTORS
330
50A
102
}
330
1F
100
AcDbEntity
  8
実線
100
AcDbCircle
 10
295.7043528886139
 20
973.9720594963264
 30
0.0
 40
10.0
100
AcDbArc
 50
55.00000000000264
 51
133.3968902048152
  0
ARC
  5
29D
102
{ACAD_REACTORS
330
50A
102
}
330
1F
100
AcDbEntity
  8
実線
100
AcDbCircle
 10
339.6754296313757
 20
927.4688939042702
 30
0.0
 40
74.00000000000019
100
AcDbArc
 50
133.3968902048152
 51
136.6031097951825
  0
ARC
  5
29E
102
{ACAD_REACTORS
330
50A
102
}
330
1F
100
AcDbEntity
  8
実線
100
AcDbCircle
 10
293.1722640393196
 20
971.4399706470324
 30
0.0
 40
10.00000000000001
100
AcDbArc
 50
136.6031097951825
 51
214.9999999999974
  0
LINE
  5
29F
102
{ACAD_REACTORS
330
50A
102
}
330
1F
100
AcDbEntity
  8
実線
100
AcDbLine
 10
284.9807435964296
 20
965.7042062835223
 30
0.0
 11
287.5777042310622
 21
961.9953621295833
 31
0.0
  0
LINE
  5
2A0
102
{ACAD_REACTORS
330
50A
102
}
330
1F
100
AcDbEntity
  8
実線
100
AcDbLine
 10
287.5777042310622
 20
892.9424256789573
 30
0.0
 11
284.9807435964296
 21
889.2335815250193
 31
0.0
  0
ARC
  5
2A1
102
{ACAD_REACTORS
330
50A
102
}
330
1F
100
AcDbEntity
  8
実線
100
AcDbCircle
 10
293.1722640393196
 20
883.4978171615093
 30
0.0
 40
10.00000000000001
100
AcDbArc
 50
145.0000000000026
 51
223.3968902048175
  0
ARC
  5
2A2
102
{ACAD_REACTORS
330
50A
102
}
330
1F
100
AcDbEntity
  8
実線
100
AcDbCircle
 10
339.6754296313757
 20
927.4688939042702
 30
0.0
 40
73.99999999999997
100
AcDbArc
 50
223.3968902048175
 51
226.6031097951848
  0
ARC
  5
2A3
102
{ACAD_REACTORS
330
50A
102
}
330
1F
100
AcDbEntity
  8
実線
100
AcDbCircle
 10
386.1785952234313
 20
883.4978171615093
 30
0.0
 40
9.999999999999976
100
AcDbArc
 50
316.6031097951825
 51
34.99999999999737
  0
LINE
  5
2A4
102
{ACAD_REACTORS
330
50A
102
}
330
1F
100
AcDbEntity
  8
実線
100
AcDbLine
 10
394.3701156663213
 20
889.2335815250193
 30
0.0
 11
391.7731550316888
 21
892.9424256789573
 31
0.0
  0
CIRCLE
  5
2A5
102
{ACAD_REACTORS
330
50A
102
}
330
1F
100
AcDbEntity
  8
実線
100
AcDbCircle
 10
339.6754296313755
 20
927.4688939042713
 30
0.0
 40
46.0
  0
CIRCLE
  5
2A6
102
{ACAD_REACTORS
330
50A
102
}
330
1F
100
AcDbEntity
  8
実線
100
AcDbCircle
 10
339.6754296313755
 20
927.4688939042713
 30
0.0
 40
43.3
  0
CIRCLE
  5
2A7
102
{ACAD_REACTORS
330
50A
102
}
330
1F
100
AcDbEntity
  8
実線
100
AcDbCircle
 10
339.6754296313755
 20
927.4688939042713
 30
0.0
 40
42.5
  0
CIRCLE
  5
2A8
102
{ACAD_REACTORS
330
50A
102
}
330
1F
100
AcDbEntity
  8
実線
100
AcDbCircle
 10
339.6754296313755
 20
927.4688939042713
 30
0.0
 40
16.5
  0
CIRCLE
  5
2A9
102
{ACAD_REACTORS
330
50A
102
}
330
1F
100
AcDbEntity
  8
実線
100
AcDbCircle
 10
339.6754296313755
 20
927.4688939042713
 30
0.0
 40
44.0
  0
CIRCLE
  5
2AA
102
{ACAD_REACTORS
330
50A
102
}
330
1F
100
AcDbEntity
  8
実線
100
AcDbCircle
 10
339.6754296313755
 20
927.4688939042713
 30
0.0
 40
62.5
  0
LINE
  5
2AB
102
{ACAD_REACTORS
330
508
102
}
330
1F
100
AcDbEntity
  8
実線
100
AcDbLine
 10
845.0754296313748
 20
289.7688939042705
 30
0.0
 11
845.0754296313748
 21
298.9688939042704
 31
0.0
  0
LINE
  5
2AC
102
{ACAD_REACTORS
330
508
102
}
330
1F
100
AcDbEntity
  8
実線
100
AcDbLine
 10
794.2754296313746
 20
298.9688939042704
 30
0.0
 11
794.2754296313746
 21
289.7688939042705
 31
0.0
  0
LINE
  5
2AD
102
{ACAD_REACTORS
330
508
102
}
330
1F
100
AcDbEntity
  8
実線
100
AcDbLine
 10
794.2754296313746
 20
289.7688939042705
 30
0.0
 11
787.6754296313747
 21
287.3688939042704
 31
0.0
  0
LINE
  5
2AE
102
{ACAD_REACTORS
330
508
102
}
330
1F
100
AcDbEntity
  8
実線
100
AcDbLine
 10
851.6754296313747
 20
287.3688939042704
 30
0.0
 11
845.0754296313748
 21
289.7688939042705
 31
0.0
  0
LINE
  5
2AF
102
{ACAD_REACTORS
330
508
102
}
330
1F
100
AcDbEntity
  8
実線
100
AcDbLine
 10
794.2754296313746
 20
289.7688939042705
 30
0.0
 11
845.0754296313748
 21
289.7688939042705
 31
0.0
  0
LINE
  5
2B0
102
{ACAD_REACTORS
330
508
102
}
330
1F
100
AcDbEntity
  8
実線
100
AcDbLine
 10
851.6754296313747
 20
284.4688939042704
 30
0.0
 11
851.6754296313747
 21
287.3688939042704
 31
0.0
  0
LINE
  5
2B1
102
{ACAD_REACTORS
330
508
102
}
330
1F
100
AcDbEntity
  8
実線
100
AcDbLine
 10
787.6754296313747
 20
287.3688939042704
 30
0.0
 11
787.6754296313747
 21
284.4688939042704
 31
0.0
  0
LINE
  5
2B2
102
{ACAD_REACTORS
330
508
102
}
330
1F
100
AcDbEntity
  8
実線
100
AcDbLine
 10
851.6754296313747
 20
284.4688939042704
 30
0.0
 11
787.6754296313747
 21
284.4688939042704
 31
0.0
  0
LINE
  5
2B3
102
{ACAD_REACTORS
330
508
102
}
330
1F
100
AcDbEntity
  8
実線
100
AcDbLine
 10
851.6754296313747
 20
287.3688939042704
 30
0.0
 11
787.6754296313747
 21
287.3688939042704
 31
0.0
  0
LINE
  5
2B4
102
{ACAD_REACTORS
330
508
102
}
330
1F
100
AcDbEntity
  8
実線
100
AcDbLine
 10
896.3754296313748
 20
352.8688939042704
 30
0.0
 11
876.1785952234307
 21
352.8688939042704
 31
0.0
  0
LINE
  5
2B5
102
{ACAD_REACTORS
330
508
102
}
330
1F
100
AcDbEntity
  8
実線
100
AcDbLine
 10
861.4626662178689
 20
302.0688939042704
 30
0.0
 11
896.3754296313748
 21
302.0688939042704
 31
0.0
  0
LINE
  5
2B6
102
{ACAD_REACTORS
330
508
102
}
330
1F
100
AcDbEntity
  8
実線
100
AcDbLine
 10
896.3754296313748
 20
302.0688939042704
 30
0.0
 11
898.7754296313747
 21
295.4688939042704
 31
0.0
  0
LINE
  5
2B7
102
{ACAD_REACTORS
330
508
102
}
330
1F
100
AcDbEntity
  8
実線
100
AcDbLine
 10
898.7754296313747
 20
359.4688939042705
 30
0.0
 11
896.3754296313748
 21
352.8688939042704
 31
0.0
  0
LINE
  5
2B8
102
{ACAD_REACTORS
330
508
102
}
330
1F
100
AcDbEntity
  8
実線
100
AcDbLine
 10
896.3754296313748
 20
302.0688939042704
 30
0.0
 11
896.3754296313748
 21
352.8688939042704
 31
0.0
  0
LINE
  5
2B9
102
{ACAD_REACTORS
330
508
102
}
330
1F
100
AcDbEntity
  8
実線
100
AcDbLine
 10
901.6754296313747
 20
359.4688939042705
 30
0.0
 11
898.7754296313747
 21
359.4688939042705
 31
0.0
  0
LINE
  5
2BA
102
{ACAD_REACTORS
330
508
102
}
330
1F
100
AcDbEntity
  8
実線
100
AcDbLine
 10
898.7754296313747
 20
295.4688939042704
 30
0.0
 11
901.6754296313747
 21
295.4688939042704
 31
0.0
  0
LINE
  5
2BB
102
{ACAD_REACTORS
330
508
102
}
330
1F
100
AcDbEntity
  8
実線
100
AcDbLine
 10
901.6754296313747
 20
359.4688939042705
 30
0.0
 11
901.6754296313747
 21
295.4688939042704
 31
0.0
  0
LINE
  5
2BC
102
{ACAD_REACTORS
330
508
102
}
330
1F
100
AcDbEntity
  8
実線
100
AcDbLine
 10
898.7754296313747
 20
359.4688939042705
 30
0.0
 11
898.7754296313747
 21
295.4688939042704
 31
0.0
  0
LINE
  5
2BD
102
{ACAD_REACTORS
330
508
102
}
330
1F
100
AcDbEntity
  8
実線
100
AcDbLine
 10
742.9754296313746
 20
302.0688939042704
 30
0.0
 11
777.8881930448808
 21
302.0688939042704
 31
0.0
  0
LINE
  5
2BE
102
{ACAD_REACTORS
330
508
102
}
330
1F
100
AcDbEntity
  8
実線
100
AcDbLine
 10
763.1722640393189
 20
352.8688939042704
 30
0.0
 11
742.9754296313746
 21
352.8688939042704
 31
0.0
  0
LINE
  5
2BF
102
{ACAD_REACTORS
330
508
102
}
330
1F
100
AcDbEntity
  8
実線
100
AcDbLine
 10
742.9754296313746
 20
352.8688939042704
 30
0.0
 11
742.9754296313746
 21
302.0688939042704
 31
0.0
  0
LINE
  5
2C0
102
{ACAD_REACTORS
330
508
102
}
330
1F
100
AcDbEntity
  8
実線
100
AcDbLine
 10
742.9754296313746
 20
352.8688939042704
 30
0.0
 11
740.5754296313748
 21
359.4688939042703
 31
0.0
  0
LINE
  5
2C1
102
{ACAD_REACTORS
330
508
102
}
330
1F
100
AcDbEntity
  8
実線
100
AcDbLine
 10
740.5754296313748
 20
295.4688939042704
 30
0.0
 11
742.9754296313746
 21
302.0688939042704
 31
0.0
  0
LINE
  5
2C2
102
{ACAD_REACTORS
330
508
102
}
330
1F
100
AcDbEntity
  8
実線
100
AcDbLine
 10
737.6754296313747
 20
359.4688939042705
 30
0.0
 11
737.6754296313747
 21
295.4688939042704
 31
0.0
  0
LINE
  5
2C3
102
{ACAD_REACTORS
330
508
102
}
330
1F
100
AcDbEntity
  8
実線
100
AcDbLine
 10
740.5754296313748
 20
359.4688939042705
 30
0.0
 11
740.5754296313748
 21
295.4688939042704
 31
0.0
  0
LINE
  5
2C4
102
{ACAD_REACTORS
330
508
102
}
330
1F
100
AcDbEntity
  8
実線
100
AcDbLine
 10
737.6754296313747
 20
295.4688939042704
 30
0.0
 11
740.5754296313748
 21
295.4688939042704
 31
0.0
  0
LINE
  5
2C5
102
{ACAD_REACTORS
330
508
102
}
330
1F
100
AcDbEntity
  8
実線
100
AcDbLine
 10
740.5754296313748
 20
359.4688939042705
 30
0.0
 11
737.6754296313747
 21
359.4688939042705
 31
0.0
  0
LINE
  5
2C6
102
{ACAD_REACTORS
330
508
102
}
330
1F
100
AcDbEntity
  8
実線
100
AcDbLine
 10
763.1722640393189
 20
362.4688939042703
 30
0.0
 11
876.1785952234307
 21
362.4688939042703
 31
0.0
  0
LINE
  5
2C7
102
{ACAD_REACTORS
330
508
102
}
330
1F
100
AcDbEntity
  8
実線
100
AcDbLine
 10
763.1722640393189
 20
375.9688939042703
 30
0.0
 11
876.1785952234307
 21
375.9688939042703
 31
0.0
  0
LINE
  5
2C8
102
{ACAD_REACTORS
330
508
102
}
330
1F
100
AcDbEntity
  8
実線
100
AcDbLine
 10
876.1785952234307
 20
362.4688939042703
 30
0.0
 11
876.1785952234307
 21
375.9688939042703
 31
0.0
  0
LINE
  5
2C9
102
{ACAD_REACTORS
330
508
102
}
330
1F
100
AcDbEntity
  8
実線
100
AcDbLine
 10
763.1722640393189
 20
375.9688939042703
 30
0.0
 11
763.1722640393189
 21
362.4688939042703
 31
0.0
  0
LINE
  5
2CA
102
{ACAD_REACTORS
330
508
102
}
330
1F
100
AcDbEntity
  8
実線
100
AcDbLine
 10
797.2971863442319
 20
375.9688939042703
 30
0.0
 11
797.2971863442319
 21
362.4688939042703
 31
0.0
  0
LINE
  5
2CB
102
{ACAD_REACTORS
330
508
102
}
330
1F
100
AcDbEntity
  8
実線
100
AcDbLine
 10
842.0536729185178
 20
375.9688939042703
 30
0.0
 11
842.0536729185178
 21
362.4688939042703
 31
0.0
  0
LINE
  5
2CC
102
{ACAD_REACTORS
330
508
102
}
330
1F
100
AcDbEntity
  8
実線
100
AcDbLine
 10
757.1754296313748
 20
553.8688939042704
 30
0.0
 11
882.1754296313747
 21
553.8688939042704
 31
0.0
  0
LINE
  5
2CD
102
{ACAD_REACTORS
330
508
102
}
330
1F
100
AcDbEntity
  8
実線
100
AcDbLine
 10
882.1754296313747
 20
461.8688939042704
 30
0.0
 11
882.1754296313747
 21
553.8688939042704
 31
0.0
  0
LINE
  5
2CE
102
{ACAD_REACTORS
330
508
102
}
330
1F
100
AcDbEntity
  8
実線
100
AcDbLine
 10
757.1754296313748
 20
553.8688939042704
 30
0.0
 11
757.1754296313748
 21
461.8688939042704
 31
0.0
  0
LINE
  5
2CF
102
{ACAD_REACTORS
330
508
102
}
330
1F
100
AcDbEntity
  8
実線
100
AcDbLine
 10
882.1754296313747
 20
461.8688939042704
 30
0.0
 11
757.1754296313748
 21
461.8688939042704
 31
0.0
  0
LINE
  5
2D0
102
{ACAD_REACTORS
330
508
102
}
330
1F
100
AcDbEntity
  8
実線
100
AcDbLine
 10
827.6754296313747
 20
375.9688939042703
 30
0.0
 11
827.6754296313747
 21
408.4688939042703
 31
0.0
  0
LINE
  5
2D1
102
{ACAD_REACTORS
330
508
102
}
330
1F
100
AcDbEntity
  8
実線
100
AcDbLine
 10
811.6754296313747
 20
408.4688939042703
 30
0.0
 11
811.6754296313747
 21
375.9688939042703
 31
0.0
  0
LINE
  5
2D2
102
{ACAD_REACTORS
330
508
102
}
330
1F
100
AcDbEntity
  8
実線
100
AcDbLine
 10
773.6754296313748
 20
569.8688939042703
 30
0.0
 11
865.6754296313748
 21
569.8688939042703
 31
0.0
  0
LINE
  5
2D3
102
{ACAD_REACTORS
330
508
102
}
330
1F
100
AcDbEntity
  8
実線
100
AcDbLine
 10
865.6754296313748
 20
558.3688939042704
 30
0.0
 11
865.6754296313748
 21
569.8688939042703
 31
0.0
  0
LINE
  5
2D4
102
{ACAD_REACTORS
330
508
102
}
330
1F
100
AcDbEntity
  8
実線
100
AcDbLine
 10
773.6754296313748
 20
569.8688939042703
 30
0.0
 11
773.6754296313748
 21
558.3688939042704
 31
0.0
  0
LINE
  5
2D5
102
{ACAD_REACTORS
330
508
102
}
330
1F
100
AcDbEntity
  8
実線
100
AcDbLine
 10
835.1754296313748
 20
569.8688939042703
 30
0.0
 11
835.1754296313748
 21
576.8688939042704
 31
0.0
  0
LINE
  5
2D6
102
{ACAD_REACTORS
330
508
102
}
330
1F
100
AcDbEntity
  8
実線
100
AcDbLine
 10
804.1754296313747
 20
576.8688939042704
 30
0.0
 11
804.1754296313747
 21
569.8688939042703
 31
0.0
  0
LINE
  5
2D7
102
{ACAD_REACTORS
330
508
102
}
330
1F
100
AcDbEntity
  8
実線
100
AcDbLine
 10
776.3754296313748
 20
616.5688939042703
 30
0.0
 11
862.9754296313747
 21
616.5688939042703
 31
0.0
  0
LINE
  5
2D8
102
{ACAD_REACTORS
330
508
102
}
330
1F
100
AcDbEntity
  8
実線
100
AcDbLine
 10
862.9754296313747
 20
580.5688939042703
 30
0.0
 11
862.9754296313747
 21
616.5688939042703
 31
0.0
  0
LINE
  5
2D9
102
{ACAD_REACTORS
330
508
102
}
330
1F
100
AcDbEntity
  8
実線
100
AcDbLine
 10
776.3754296313748
 20
616.5688939042703
 30
0.0
 11
776.3754296313748
 21
580.5688939042703
 31
0.0
  0
LINE
  5
2DA
102
{ACAD_REACTORS
330
508
102
}
330
1F
100
AcDbEntity
  8
実線
100
AcDbLine
 10
862.9754296313747
 20
580.5688939042703
 30
0.0
 11
776.3754296313748
 21
580.5688939042703
 31
0.0
  0
LINE
  5
2DB
102
{ACAD_REACTORS
330
508
102
}
330
1F
100
AcDbEntity
  8
実線
100
AcDbLine
 10
862.1754296313747
 20
616.5688939042703
 30
0.0
 11
862.1754296313747
 21
693.5688939042703
 31
0.0
  0
LINE
  5
2DC
102
{ACAD_REACTORS
330
508
102
}
330
1F
100
AcDbEntity
  8
実線
100
AcDbLine
 10
777.1754296313747
 20
693.5688939042703
 30
0.0
 11
777.1754296313747
 21
616.5688939042703
 31
0.0
  0
LINE
  5
2DD
102
{ACAD_REACTORS
330
508
102
}
330
1F
100
AcDbEntity
  8
実線
100
AcDbLine
 10
803.1754296313748
 20
702.7688939042707
 30
0.0
 11
836.1754296313748
 21
702.7688939042707
 31
0.0
  0
LINE
  5
2DE
102
{ACAD_REACTORS
330
508
102
}
330
1F
100
AcDbEntity
  8
実線
100
AcDbLine
 10
803.1754296313748
 20
702.7688939042707
 30
0.0
 11
777.1754296313747
 21
693.5688939042703
 31
0.0
  0
LINE
  5
2DF
102
{ACAD_REACTORS
330
508
102
}
330
1F
100
AcDbEntity
  8
実線
100
AcDbLine
 10
862.1754296313747
 20
693.5688939042703
 30
0.0
 11
836.1754296313748
 21
702.7688939042707
 31
0.0
  0
LINE
  5
2E0
102
{ACAD_REACTORS
330
508
102
}
330
1F
100
AcDbEntity
  8
実線
100
AcDbLine
 10
777.1754296313747
 20
693.5688939042703
 30
0.0
 11
862.1754296313747
 21
693.5688939042703
 31
0.0
  0
LINE
  5
2E1
102
{ACAD_REACTORS
330
508
102
}
330
1F
100
AcDbEntity
  8
実線
100
AcDbLine
 10
776.3754296313748
 20
580.5688939042703
 30
0.0
 11
775.6754296313747
 21
576.8688939042704
 31
0.0
  0
LINE
  5
2E2
102
{ACAD_REACTORS
330
508
102
}
330
1F
100
AcDbEntity
  8
実線
100
AcDbLine
 10
863.6754296313748
 20
576.8688939042704
 30
0.0
 11
862.9754296313747
 21
580.5688939042703
 31
0.0
  0
LINE
  5
2E3
102
{ACAD_REACTORS
330
508
102
}
330
1F
100
AcDbEntity
  8
実線
100
AcDbLine
 10
775.6754296313747
 20
576.8688939042704
 30
0.0
 11
863.6754296313748
 21
576.8688939042704
 31
0.0
  0
ARC
  5
2E4
102
{ACAD_REACTORS
330
508
102
}
330
1F
100
AcDbEntity
  8
実線
100
AcDbCircle
 10
816.9754296313747
 20
421.9688939042702
 30
0.0
 40
60.00000000000005
100
AcDbArc
 50
309.9445051898157
 51
0.0
  0
ARC
  5
2E5
102
{ACAD_REACTORS
330
508
102
}
330
1F
100
AcDbEntity
  8
実線
100
AcDbCircle
 10
814.9754296313746
 20
421.9688939042702
 30
0.0
 40
47.99999999999999
100
AcDbArc
 50
286.5978421358644
 51
343.6651772193136
  0
LINE
  5
2E6
102
{ACAD_REACTORS
330
508
102
}
330
1F
100
AcDbEntity
  8
実線
100
AcDbLine
 10
876.9754296313747
 20
461.8688939042704
 30
0.0
 11
876.9754296313747
 21
421.9688939042702
 31
0.0
  0
ARC
  5
2E7
102
{ACAD_REACTORS
330
508
102
}
330
1F
100
AcDbEntity
  8
実線
100
AcDbCircle
 10
824.3754296313747
 20
421.9688939042702
 30
0.0
 40
47.99999999999999
100
AcDbArc
 50
196.3348227806864
 51
253.4021578641356
  0
ARC
  5
2E8
102
{ACAD_REACTORS
330
508
102
}
330
1F
100
AcDbEntity
  8
実線
100
AcDbCircle
 10
822.3754296313748
 20
421.9688939042702
 30
0.0
 40
60.00000000000005
100
AcDbArc
 50
180.0
 51
230.0554948101843
  0
LINE
  5
2E9
102
{ACAD_REACTORS
330
508
102
}
330
1F
100
AcDbEntity
  8
実線
100
AcDbLine
 10
762.3754296313748
 20
461.8688939042704
 30
0.0
 11
762.3754296313748
 21
421.9688939042702
 31
0.0
  0
LINE
  5
2EA
102
{ACAD_REACTORS
330
508
102
}
330
1F
100
AcDbEntity
  8
実線
100
AcDbLine
 10
771.5324135231167
 20
408.4688939042703
 30
0.0
 11
771.5324135231167
 21
461.8688939042704
 31
0.0
  0
LINE
  5
2EB
102
{ACAD_REACTORS
330
508
102
}
330
1F
100
AcDbEntity
  8
実線
100
AcDbLine
 10
771.5324135231167
 20
408.4688939042703
 30
0.0
 11
867.8184457396328
 21
408.4688939042703
 31
0.0
  0
LINE
  5
2EC
102
{ACAD_REACTORS
330
508
102
}
330
1F
100
AcDbEntity
  8
実線
100
AcDbLine
 10
867.8184457396328
 20
408.4688939042703
 30
0.0
 11
867.8184457396328
 21
461.8688939042704
 31
0.0
  0
LINE
  5
2ED
102
{ACAD_REACTORS
330
508
102
}
330
1F
100
AcDbEntity
  8
実線
100
AcDbLine
 10
760.1754296313747
 20
558.3688939042704
 30
0.0
 11
879.1754296312817
 21
558.3688939042704
 31
0.0
  0
ARC
  5
2EE
102
{ACAD_REACTORS
330
508
102
}
330
1F
100
AcDbEntity
  8
実線
100
AcDbCircle
 10
879.1754296313747
 20
555.3688939042704
 30
0.0
 40
3.0
100
AcDbArc
 50
0.0
 51
90.0
  0
ARC
  5
2EF
102
{ACAD_REACTORS
330
508
102
}
330
1F
100
AcDbEntity
  8
実線
100
AcDbCircle
 10
760.1754296313747
 20
555.3688939042704
 30
0.0
 40
3.0
100
AcDbArc
 50
90.0
 51
180.0
  0
LINE
  5
2F0
102
{ACAD_REACTORS
330
508
102
}
330
1F
100
AcDbEntity
  8
実線
100
AcDbLine
 10
882.1754296313747
 20
553.8688939042704
 30
0.0
 11
882.1754296313747
 21
555.3688939042704
 31
0.0
  0
LINE
  5
2F1
102
{ACAD_REACTORS
330
508
102
}
330
1F
100
AcDbEntity
  8
実線
100
AcDbLine
 10
757.1754296313748
 20
555.3688939042704
 30
0.0
 11
757.1754296313748
 21
553.8688939042704
 31
0.0
  0
LINE
  5
2F2
102
{ACAD_REACTORS
330
508
102
}
330
1F
100
AcDbEntity
  8
実線
100
AcDbLine
 10
851.6754296313747
 20
298.9688939042704
 30
0.0
 11
787.6754296313747
 21
298.9688939042704
 31
0.0
  0
ARC
  5
2F3
102
{ACAD_REACTORS
330
508
102
}
330
1F
100
AcDbEntity
  8
実線
100
AcDbCircle
 10
787.6754296313747
 20
315.9688939042703
 30
0.0
 40
17.0
100
AcDbArc
 50
234.8499442294477
 51
270.0
  0
ARC
  5
2F4
102
{ACAD_REACTORS
330
508
102
}
330
1F
100
AcDbEntity
  8
実線
100
AcDbCircle
 10
851.6754296313747
 20
315.9688939042703
 30
0.0
 40
17.0
100
AcDbArc
 50
270.0
 51
305.1500557705523
  0
LINE
  5
2F5
102
{ACAD_REACTORS
330
508
102
}
330
1F
100
AcDbEntity
  8
実線
100
AcDbLine
 10
876.1785952234307
 20
347.4688939042703
 30
0.0
 11
842.0536729185178
 21
347.4688939042703
 31
0.0
  0
LINE
  5
2F6
102
{ACAD_REACTORS
330
508
102
}
330
1F
100
AcDbEntity
  8
実線
100
AcDbLine
 10
876.1785952234307
 20
347.4688939042703
 30
0.0
 11
876.1785952234307
 21
362.4688939042703
 31
0.0
  0
LINE
  5
2F7
102
{ACAD_REACTORS
330
508
102
}
330
1F
100
AcDbEntity
  8
実線
100
AcDbLine
 10
763.1722640393189
 20
362.4688939042703
 30
0.0
 11
763.1722640393189
 21
347.4688939042703
 31
0.0
  0
LINE
  5
2F8
102
{ACAD_REACTORS
330
508
102
}
330
1F
100
AcDbEntity
  8
実線
100
AcDbLine
 10
763.1722640393189
 20
347.4688939042703
 30
0.0
 11
797.2971863442319
 21
347.4688939042703
 31
0.0
  0
LINE
  5
2F9
102
{ACAD_REACTORS
330
508
102
}
330
1F
100
AcDbEntity
  8
実線
100
AcDbLine
 10
797.2971863442319
 20
362.4688939042703
 30
0.0
 11
797.2971863442319
 21
347.4688939042703
 31
0.0
  0
LINE
  5
2FA
102
{ACAD_REACTORS
330
508
102
}
330
1F
100
AcDbEntity
  8
実線
100
AcDbLine
 10
842.0536729185178
 20
362.4688939042703
 30
0.0
 11
842.0536729185178
 21
347.4688939042703
 31
0.0
  0
LINE
  5
2FB
102
{ACAD_REACTORS
330
509
102
}
330
1F
100
AcDbEntity
  8
実線
100
AcDbLine
 10
605.0754296313754
 20
289.7688939042703
 30
0.0
 11
605.0754296313754
 21
298.9688939042703
 31
0.0
  0
LINE
  5
2FC
102
{ACAD_REACTORS
330
509
102
}
330
1F
100
AcDbEntity
  8
実線
100
AcDbLine
 10
554.2754296313754
 20
298.9688939042703
 30
0.0
 11
554.2754296313754
 21
289.7688939042703
 31
0.0
  0
LINE
  5
2FD
102
{ACAD_REACTORS
330
509
102
}
330
1F
100
AcDbEntity
  8
実線
100
AcDbLine
 10
554.2754296313754
 20
289.7688939042703
 30
0.0
 11
547.6754296313753
 21
287.3688939042704
 31
0.0
  0
LINE
  5
2FE
102
{ACAD_REACTORS
330
509
102
}
330
1F
100
AcDbEntity
  8
実線
100
AcDbLine
 10
611.6754296313753
 20
287.3688939042704
 30
0.0
 11
605.0754296313754
 21
289.7688939042703
 31
0.0
  0
LINE
  5
2FF
102
{ACAD_REACTORS
330
509
102
}
330
1F
100
AcDbEntity
  8
実線
100
AcDbLine
 10
554.2754296313754
 20
289.7688939042703
 30
0.0
 11
605.0754296313754
 21
289.7688939042703
 31
0.0
  0
LINE
  5
300
102
{ACAD_REACTORS
330
509
102
}
330
1F
100
AcDbEntity
  8
実線
100
AcDbLine
 10
611.6754296313753
 20
284.4688939042703
 30
0.0
 11
611.6754296313753
 21
287.3688939042704
 31
0.0
  0
LINE
  5
301
102
{ACAD_REACTORS
330
509
102
}
330
1F
100
AcDbEntity
  8
実線
100
AcDbLine
 10
547.6754296313753
 20
287.3688939042704
 30
0.0
 11
547.6754296313753
 21
284.4688939042703
 31
0.0
  0
LINE
  5
302
102
{ACAD_REACTORS
330
509
102
}
330
1F
100
AcDbEntity
  8
実線
100
AcDbLine
 10
547.6754296313753
 20
284.4688939042703
 30
0.0
 11
611.6754296313753
 21
284.4688939042703
 31
0.0
  0
LINE
  5
303
102
{ACAD_REACTORS
330
509
102
}
330
1F
100
AcDbEntity
  8
実線
100
AcDbLine
 10
547.6754296313753
 20
287.3688939042704
 30
0.0
 11
611.6754296313753
 21
287.3688939042704
 31
0.0
  0
CIRCLE
  5
304
102
{ACAD_REACTORS
330
509
102
}
330
1F
100
AcDbEntity
  8
実線
100
AcDbCircle
 10
579.6754296313753
 20
327.4688939042702
 30
0.0
 40
32.0
  0
LINE
  5
305
102
{ACAD_REACTORS
330
509
102
}
330
1F
100
AcDbEntity
  8
実線
100
AcDbLine
 10
636.1785952234314
 20
375.9688939042702
 30
0.0
 11
523.1722640393194
 21
375.9688939042702
 31
0.0
  0
LINE
  5
306
102
{ACAD_REACTORS
330
509
102
}
330
1F
100
AcDbEntity
  8
実線
100
AcDbLine
 10
636.1785952234314
 20
362.4688939042702
 30
0.0
 11
523.1722640393194
 21
362.4688939042702
 31
0.0
  0
LINE
  5
307
102
{ACAD_REACTORS
330
509
102
}
330
1F
100
AcDbEntity
  8
実線
100
AcDbLine
 10
523.1722640393194
 20
375.9688939042702
 30
0.0
 11
523.1722640393194
 21
362.4688939042702
 31
0.0
  0
LINE
  5
308
102
{ACAD_REACTORS
330
509
102
}
330
1F
100
AcDbEntity
  8
実線
100
AcDbLine
 10
636.1785952234314
 20
362.4688939042702
 30
0.0
 11
636.1785952234314
 21
375.9688939042702
 31
0.0
  0
LINE
  5
309
102
{ACAD_REACTORS
330
509
102
}
330
1F
100
AcDbEntity
  8
実線
100
AcDbLine
 10
602.0536729185184
 20
375.9688939042702
 30
0.0
 11
602.0536729185184
 21
362.4688939042702
 31
0.0
  0
LINE
  5
30A
102
{ACAD_REACTORS
330
509
102
}
330
1F
100
AcDbEntity
  8
実線
100
AcDbLine
 10
557.2971863442313
 20
375.9688939042702
 30
0.0
 11
557.2971863442313
 21
362.4688939042702
 31
0.0
  0
LINE
  5
30B
102
{ACAD_REACTORS
330
509
102
}
330
1F
100
AcDbEntity
  8
実線
100
AcDbLine
 10
642.1754296313753
 20
553.8688939042702
 30
0.0
 11
517.1754296313753
 21
553.8688939042702
 31
0.0
  0
LINE
  5
30C
102
{ACAD_REACTORS
330
509
102
}
330
1F
100
AcDbEntity
  8
実線
100
AcDbLine
 10
517.1754296313753
 20
461.8688939042702
 30
0.0
 11
642.1754296313753
 21
461.8688939042702
 31
0.0
  0
LINE
  5
30D
102
{ACAD_REACTORS
330
509
102
}
330
1F
100
AcDbEntity
  8
実線
100
AcDbLine
 10
642.1754296313753
 20
461.8688939042702
 30
0.0
 11
642.1754296313753
 21
553.8688939042702
 31
0.0
  0
LINE
  5
30E
102
{ACAD_REACTORS
330
509
102
}
330
1F
100
AcDbEntity
  8
実線
100
AcDbLine
 10
517.1754296313753
 20
553.8688939042702
 30
0.0
 11
517.1754296313753
 21
461.8688939042702
 31
0.0
  0
LINE
  5
30F
102
{ACAD_REACTORS
330
509
102
}
330
1F
100
AcDbEntity
  8
実線
100
AcDbLine
 10
625.6754296313753
 20
569.8688939042702
 30
0.0
 11
533.6754296313744
 21
569.8688939042702
 31
0.0
  0
LINE
  5
310
102
{ACAD_REACTORS
330
509
102
}
330
1F
100
AcDbEntity
  8
実線
100
AcDbLine
 10
625.6754296313753
 20
558.3688939042702
 30
0.0
 11
625.6754296313753
 21
569.8688939042702
 31
0.0
  0
LINE
  5
311
102
{ACAD_REACTORS
330
509
102
}
330
1F
100
AcDbEntity
  8
実線
100
AcDbLine
 10
533.6754296313744
 20
569.8688939042702
 30
0.0
 11
533.6754296313744
 21
558.3688939042702
 31
0.0
  0
LINE
  5
312
102
{ACAD_REACTORS
330
509
102
}
330
1F
100
AcDbEntity
  8
実線
100
AcDbLine
 10
595.1754296313744
 20
569.8688939042702
 30
0.0
 11
595.1754296313744
 21
576.8688939042703
 31
0.0
  0
LINE
  5
313
102
{ACAD_REACTORS
330
509
102
}
330
1F
100
AcDbEntity
  8
実線
100
AcDbLine
 10
564.1754296313743
 20
576.8688939042703
 30
0.0
 11
564.1754296313743
 21
569.8688939042702
 31
0.0
  0
LINE
  5
314
102
{ACAD_REACTORS
330
509
102
}
330
1F
100
AcDbEntity
  8
実線
100
AcDbLine
 10
622.9754296313745
 20
616.5688939042702
 30
0.0
 11
536.3754296313744
 21
616.5688939042702
 31
0.0
  0
LINE
  5
315
102
{ACAD_REACTORS
330
509
102
}
330
1F
100
AcDbEntity
  8
実線
100
AcDbLine
 10
622.9754296313745
 20
580.5688939042702
 30
0.0
 11
622.9754296313745
 21
616.5688939042702
 31
0.0
  0
LINE
  5
316
102
{ACAD_REACTORS
330
509
102
}
330
1F
100
AcDbEntity
  8
実線
100
AcDbLine
 10
536.3754296313744
 20
616.5688939042702
 30
0.0
 11
536.3754296313744
 21
580.5688939042702
 31
0.0
  0
LINE
  5
317
102
{ACAD_REACTORS
330
509
102
}
330
1F
100
AcDbEntity
  8
実線
100
AcDbLine
 10
622.1754296313753
 20
616.5688939042702
 30
0.0
 11
622.1754296313753
 21
693.5688939042702
 31
0.0
  0
LINE
  5
318
102
{ACAD_REACTORS
330
509
102
}
330
1F
100
AcDbEntity
  8
実線
100
AcDbLine
 10
537.1754296313753
 20
693.5688939042702
 30
0.0
 11
537.1754296313753
 21
616.5688939042702
 31
0.0
  0
LINE
  5
319
102
{ACAD_REACTORS
330
509
102
}
330
1F
100
AcDbEntity
  8
実線
100
AcDbLine
 10
537.1754296313753
 20
693.5688939042702
 30
0.0
 11
622.1754296313753
 21
693.5688939042702
 31
0.0
  0
LINE
  5
31A
102
{ACAD_REACTORS
330
509
102
}
330
1F
100
AcDbEntity
  8
実線
100
AcDbLine
 10
596.1754296313744
 20
702.7688939042706
 30
0.0
 11
563.1754296313753
 21
702.7688939042706
 31
0.0
  0
LINE
  5
31B
102
{ACAD_REACTORS
330
509
102
}
330
1F
100
AcDbEntity
  8
実線
100
AcDbLine
 10
563.1754296313753
 20
702.7688939042706
 30
0.0
 11
537.1754296313753
 21
693.5688939042702
 31
0.0
  0
LINE
  5
31C
102
{ACAD_REACTORS
330
509
102
}
330
1F
100
AcDbEntity
  8
実線
100
AcDbLine
 10
622.1754296313753
 20
693.5688939042702
 30
0.0
 11
596.1754296313744
 21
702.7688939042706
 31
0.0
  0
LINE
  5
31D
102
{ACAD_REACTORS
330
509
102
}
330
1F
100
AcDbEntity
  8
実線
100
AcDbLine
 10
535.6754296313744
 20
576.8688939042703
 30
0.0
 11
623.6754296313744
 21
576.8688939042703
 31
0.0
  0
LINE
  5
31E
102
{ACAD_REACTORS
330
509
102
}
330
1F
100
AcDbEntity
  8
実線
100
AcDbLine
 10
622.9754296313745
 20
580.5688939042702
 30
0.0
 11
536.3754296313744
 21
580.5688939042702
 31
0.0
  0
LINE
  5
31F
102
{ACAD_REACTORS
330
509
102
}
330
1F
100
AcDbEntity
  8
実線
100
AcDbLine
 10
536.3754296313744
 20
580.5688939042702
 30
0.0
 11
535.6754296313744
 21
576.8688939042703
 31
0.0
  0
LINE
  5
320
102
{ACAD_REACTORS
330
509
102
}
330
1F
100
AcDbEntity
  8
実線
100
AcDbLine
 10
623.6754296313744
 20
576.8688939042703
 30
0.0
 11
622.9754296313745
 21
580.5688939042702
 31
0.0
  0
LINE
  5
321
102
{ACAD_REACTORS
330
509
102
}
330
1F
100
AcDbEntity
  8
実線
100
AcDbLine
 10
593.1754296313743
 20
408.4688939042702
 30
0.0
 11
629.6754296313753
 21
408.4688939042702
 31
0.0
  0
LINE
  5
322
102
{ACAD_REACTORS
330
509
102
}
330
1F
100
AcDbEntity
  8
実線
100
AcDbLine
 10
629.6754296313753
 20
408.4688939042702
 30
0.0
 11
629.6754296313753
 21
461.8688939042702
 31
0.0
  0
LINE
  5
323
102
{ACAD_REACTORS
330
509
102
}
330
1F
100
AcDbEntity
  8
実線
100
AcDbLine
 10
529.6754296313744
 20
461.8688939042702
 30
0.0
 11
529.6754296313744
 21
408.4688939042702
 31
0.0
  0
LINE
  5
324
102
{ACAD_REACTORS
330
509
102
}
330
1F
100
AcDbEntity
  8
実線
100
AcDbLine
 10
566.1754296313744
 20
408.4688939042702
 30
0.0
 11
529.6754296313744
 21
408.4688939042702
 31
0.0
  0
LINE
  5
325
102
{ACAD_REACTORS
330
509
102
}
330
1F
100
AcDbEntity
  8
実線
100
AcDbLine
 10
593.1754296313743
 20
375.9688939042702
 30
0.0
 11
593.1754296313743
 21
461.8688939042702
 31
0.0
  0
LINE
  5
326
102
{ACAD_REACTORS
330
509
102
}
330
1F
100
AcDbEntity
  8
実線
100
AcDbLine
 10
566.1754296313744
 20
375.9688939042702
 30
0.0
 11
566.1754296313744
 21
461.8688939042702
 31
0.0
  0
LINE
  5
327
102
{ACAD_REACTORS
330
509
102
}
330
1F
100
AcDbEntity
  8
実線
100
AcDbLine
 10
639.1754296313753
 20
558.3688939042702
 30
0.0
 11
520.1754296313744
 21
558.3688939042702
 31
0.0
  0
ARC
  5
328
102
{ACAD_REACTORS
330
509
102
}
330
1F
100
AcDbEntity
  8
実線
100
AcDbCircle
 10
639.1754296313753
 20
555.3688939042703
 30
0.0
 40
3.0
100
AcDbArc
 50
0.0
 51
90.0
  0
ARC
  5
329
102
{ACAD_REACTORS
330
509
102
}
330
1F
100
AcDbEntity
  8
実線
100
AcDbCircle
 10
520.1754296313744
 20
555.3688939042703
 30
0.0
 40
3.0
100
AcDbArc
 50
90.0
 51
180.0
  0
LINE
  5
32A
102
{ACAD_REACTORS
330
509
102
}
330
1F
100
AcDbEntity
  8
実線
100
AcDbLine
 10
642.1754296313753
 20
553.8688939042702
 30
0.0
 11
642.1754296313753
 21
555.3688939042703
 31
0.0
  0
LINE
  5
32B
102
{ACAD_REACTORS
330
509
102
}
330
1F
100
AcDbEntity
  8
実線
100
AcDbLine
 10
517.1754296313753
 20
555.3688939042703
 30
0.0
 11
517.1754296313753
 21
553.8688939042702
 31
0.0
  0
LINE
  5
32C
102
{ACAD_REACTORS
330
509
102
}
330
1F
100
AcDbEntity
  8
実線
100
AcDbLine
 10
565.1237974205204
 20
298.9688939042703
 30
0.0
 11
547.6754296313753
 21
298.9688939042703
 31
0.0
  0
LINE
  5
32D
102
{ACAD_REACTORS
330
509
102
}
330
1F
100
AcDbEntity
  8
実線
100
AcDbLine
 10
611.6754296313753
 20
298.9688939042703
 30
0.0
 11
594.2270618422305
 21
298.9688939042703
 31
0.0
  0
ARC
  5
32E
102
{ACAD_REACTORS
330
509
102
}
330
1F
100
AcDbEntity
  8
実線
100
AcDbCircle
 10
547.6754296313753
 20
315.9688939042702
 30
0.0
 40
17.0
100
AcDbArc
 50
180.0
 51
270.0
  0
ARC
  5
32F
102
{ACAD_REACTORS
330
509
102
}
330
1F
100
AcDbEntity
  8
実線
100
AcDbCircle
 10
611.6754296313753
 20
315.9688939042702
 30
0.0
 40
17.0
100
AcDbArc
 50
270.0
 51
0.0
  0
LINE
  5
330
102
{ACAD_REACTORS
330
509
102
}
330
1F
100
AcDbEntity
  8
実線
100
AcDbLine
 10
530.6754296313753
 20
347.4688939042702
 30
0.0
 11
530.6754296313753
 21
315.9688939042702
 31
0.0
  0
LINE
  5
331
102
{ACAD_REACTORS
330
509
102
}
330
1F
100
AcDbEntity
  8
実線
100
AcDbLine
 10
628.6754296313753
 20
315.9688939042702
 30
0.0
 11
628.6754296313753
 21
347.4688939042702
 31
0.0
  0
LINE
  5
332
102
{ACAD_REACTORS
330
509
102
}
330
1F
100
AcDbEntity
  8
実線
100
AcDbLine
 10
523.1722640393194
 20
362.4688939042702
 30
0.0
 11
523.1722640393194
 21
347.4688939042702
 31
0.0
  0
LINE
  5
333
102
{ACAD_REACTORS
330
509
102
}
330
1F
100
AcDbEntity
  8
実線
100
AcDbLine
 10
523.1722640393194
 20
347.4688939042702
 30
0.0
 11
554.6954376377815
 21
347.4688939042702
 31
0.0
  0
LINE
  5
334
102
{ACAD_REACTORS
330
509
102
}
330
1F
100
AcDbEntity
  8
実線
100
AcDbLine
 10
636.1785952234314
 20
347.4688939042702
 30
0.0
 11
604.6554216249684
 21
347.4688939042702
 31
0.0
  0
LINE
  5
335
102
{ACAD_REACTORS
330
509
102
}
330
1F
100
AcDbEntity
  8
実線
100
AcDbLine
 10
636.1785952234314
 20
347.4688939042702
 30
0.0
 11
636.1785952234314
 21
362.4688939042702
 31
0.0
  0
LINE
  5
336
102
{ACAD_REACTORS
330
509
102
}
330
1F
100
AcDbEntity
  8
実線
100
AcDbLine
 10
602.0536729185184
 20
362.4688939042702
 30
0.0
 11
602.0536729185184
 21
350.3427704314669
 31
0.0
  0
LINE
  5
337
102
{ACAD_REACTORS
330
509
102
}
330
1F
100
AcDbEntity
  8
実線
100
AcDbLine
 10
557.2971863442325
 20
362.4688939042702
 30
0.0
 11
557.2971863442325
 21
350.3427704314669
 31
0.0
  0
LINE
  5
338
102
{ACAD_REACTORS
330
50C
102
}
330
1F
100
AcDbEntity
  8
実線
100
AcDbLine
 10
125.0754296313753
 20
289.7688939042703
 30
0.0
 11
125.0754296313753
 21
298.9688939042703
 31
0.0
  0
LINE
  5
339
102
{ACAD_REACTORS
330
50C
102
}
330
1F
100
AcDbEntity
  8
実線
100
AcDbLine
 10
74.27542963137534
 20
298.9688939042703
 30
0.0
 11
74.27542963137534
 21
289.7688939042703
 31
0.0
  0
LINE
  5
33A
102
{ACAD_REACTORS
330
50C
102
}
330
1F
100
AcDbEntity
  8
実線
100
AcDbLine
 10
125.0754296313753
 20
289.7688939042703
 30
0.0
 11
74.27542963137534
 21
289.7688939042703
 31
0.0
  0
LINE
  5
33B
102
{ACAD_REACTORS
330
50C
102
}
330
1F
100
AcDbEntity
  8
実線
100
AcDbLine
 10
74.27542963137534
 20
289.7688939042703
 30
0.0
 11
67.67542963137533
 21
287.3688939042704
 31
0.0
  0
LINE
  5
33C
102
{ACAD_REACTORS
330
50C
102
}
330
1F
100
AcDbEntity
  8
実線
100
AcDbLine
 10
131.6754296313753
 20
287.3688939042704
 30
0.0
 11
125.0754296313753
 21
289.7688939042703
 31
0.0
  0
LINE
  5
33D
102
{ACAD_REACTORS
330
50C
102
}
330
1F
100
AcDbEntity
  8
実線
100
AcDbLine
 10
131.6754296313753
 20
284.4688939042703
 30
0.0
 11
67.67542963137533
 21
284.4688939042703
 31
0.0
  0
LINE
  5
33E
102
{ACAD_REACTORS
330
50C
102
}
330
1F
100
AcDbEntity
  8
実線
100
AcDbLine
 10
131.6754296313753
 20
287.3688939042704
 30
0.0
 11
67.67542963137533
 21
287.3688939042704
 31
0.0
  0
LINE
  5
33F
102
{ACAD_REACTORS
330
50C
102
}
330
1F
100
AcDbEntity
  8
実線
100
AcDbLine
 10
131.6754296313753
 20
284.4688939042703
 30
0.0
 11
131.6754296313753
 21
287.3688939042704
 31
0.0
  0
LINE
  5
340
102
{ACAD_REACTORS
330
50C
102
}
330
1F
100
AcDbEntity
  8
実線
100
AcDbLine
 10
67.67542963137533
 20
287.3688939042704
 30
0.0
 11
67.67542963137533
 21
284.4688939042703
 31
0.0
  0
CIRCLE
  5
341
102
{ACAD_REACTORS
330
50C
102
}
330
1F
100
AcDbEntity
  8
実線
100
AcDbCircle
 10
99.67542963137532
 20
327.4688939042702
 30
0.0
 40
32.0
  0
LINE
  5
342
102
{ACAD_REACTORS
330
50C
102
}
330
1F
100
AcDbEntity
  8
実線
100
AcDbLine
 10
156.1785952234313
 20
375.9688939042702
 30
0.0
 11
43.17226403931965
 21
375.9688939042702
 31
0.0
  0
LINE
  5
343
102
{ACAD_REACTORS
330
50C
102
}
330
1F
100
AcDbEntity
  8
実線
100
AcDbLine
 10
43.17226403931965
 20
375.9688939042702
 30
0.0
 11
43.17226403931965
 21
362.4688939042702
 31
0.0
  0
LINE
  5
344
102
{ACAD_REACTORS
330
50C
102
}
330
1F
100
AcDbEntity
  8
実線
100
AcDbLine
 10
156.1785952234313
 20
362.4688939042702
 30
0.0
 11
156.1785952234313
 21
375.9688939042702
 31
0.0
  0
LINE
  5
345
102
{ACAD_REACTORS
330
50C
102
}
330
1F
100
AcDbEntity
  8
実線
100
AcDbLine
 10
77.29718634423239
 20
375.9688939042702
 30
0.0
 11
77.29718634423239
 21
362.4688939042702
 31
0.0
  0
LINE
  5
346
102
{ACAD_REACTORS
330
50C
102
}
330
1F
100
AcDbEntity
  8
実線
100
AcDbLine
 10
122.0536729185186
 20
375.9688939042702
 30
0.0
 11
122.0536729185186
 21
362.4688939042702
 31
0.0
  0
LINE
  5
347
102
{ACAD_REACTORS
330
50C
102
}
330
1F
100
AcDbEntity
  8
実線
100
AcDbLine
 10
162.1754296313756
 20
461.8688939042702
 30
0.0
 11
162.1754296313756
 21
553.8688939042702
 31
0.0
  0
LINE
  5
348
102
{ACAD_REACTORS
330
50C
102
}
330
1F
100
AcDbEntity
  8
実線
100
AcDbLine
 10
37.17542963137555
 20
553.8688939042702
 30
0.0
 11
37.17542963137555
 21
461.8688939042702
 31
0.0
  0
LINE
  5
349
102
{ACAD_REACTORS
330
50C
102
}
330
1F
100
AcDbEntity
  8
実線
100
AcDbLine
 10
162.1754296313756
 20
553.8688939042702
 30
0.0
 11
37.17542963137555
 21
553.8688939042702
 31
0.0
  0
LINE
  5
34A
102
{ACAD_REACTORS
330
50C
102
}
330
1F
100
AcDbEntity
  8
実線
100
AcDbLine
 10
162.1754296313756
 20
461.8688939042702
 30
0.0
 11
37.17542963137555
 21
461.8688939042702
 31
0.0
  0
LINE
  5
34B
102
{ACAD_REACTORS
330
50C
102
}
330
1F
100
AcDbEntity
  8
実線
100
AcDbLine
 10
145.6754296313756
 20
558.3688939042702
 30
0.0
 11
145.6754296313756
 21
569.8688939042702
 31
0.0
  0
LINE
  5
34C
102
{ACAD_REACTORS
330
50C
102
}
330
1F
100
AcDbEntity
  8
実線
100
AcDbLine
 10
53.67542963137555
 20
569.8688939042702
 30
0.0
 11
53.67542963137555
 21
558.3688939042702
 31
0.0
  0
LINE
  5
34D
102
{ACAD_REACTORS
330
50C
102
}
330
1F
100
AcDbEntity
  8
実線
100
AcDbLine
 10
145.6754296313756
 20
569.8688939042702
 30
0.0
 11
53.67542963137555
 21
569.8688939042702
 31
0.0
  0
LINE
  5
34E
102
{ACAD_REACTORS
330
50C
102
}
330
1F
100
AcDbEntity
  8
実線
100
AcDbLine
 10
115.1754296313755
 20
569.8688939042702
 30
0.0
 11
115.1754296313755
 21
576.8688939042703
 31
0.0
  0
LINE
  5
34F
102
{ACAD_REACTORS
330
50C
102
}
330
1F
100
AcDbEntity
  8
実線
100
AcDbLine
 10
84.17542963137554
 20
576.8688939042703
 30
0.0
 11
84.17542963137554
 21
569.8688939042702
 31
0.0
  0
LINE
  5
350
102
{ACAD_REACTORS
330
50C
102
}
330
1F
100
AcDbEntity
  8
実線
100
AcDbLine
 10
142.9754296313756
 20
580.5688939042702
 30
0.0
 11
142.9754296313756
 21
616.5688939042702
 31
0.0
  0
LINE
  5
351
102
{ACAD_REACTORS
330
50C
102
}
330
1F
100
AcDbEntity
  8
実線
100
AcDbLine
 10
56.37542963137548
 20
616.5688939042702
 30
0.0
 11
56.37542963137548
 21
580.5688939042702
 31
0.0
  0
LINE
  5
352
102
{ACAD_REACTORS
330
50C
102
}
330
1F
100
AcDbEntity
  8
実線
100
AcDbLine
 10
142.9754296313756
 20
616.5688939042702
 30
0.0
 11
56.37542963137548
 21
616.5688939042702
 31
0.0
  0
LINE
  5
353
102
{ACAD_REACTORS
330
50C
102
}
330
1F
100
AcDbEntity
  8
実線
100
AcDbLine
 10
142.1754296313755
 20
616.5688939042702
 30
0.0
 11
142.1754296313755
 21
693.5688939042702
 31
0.0
  0
LINE
  5
354
102
{ACAD_REACTORS
330
50C
102
}
330
1F
100
AcDbEntity
  8
実線
100
AcDbLine
 10
57.17542963137555
 20
693.5688939042702
 30
0.0
 11
57.17542963137555
 21
616.5688939042702
 31
0.0
  0
LINE
  5
355
102
{ACAD_REACTORS
330
50C
102
}
330
1F
100
AcDbEntity
  8
実線
100
AcDbLine
 10
83.17542963137555
 20
702.7688939042706
 30
0.0
 11
57.17542963137543
 21
693.5688939042702
 31
0.0
  0
LINE
  5
356
102
{ACAD_REACTORS
330
50C
102
}
330
1F
100
AcDbEntity
  8
実線
100
AcDbLine
 10
142.1754296313756
 20
693.5688939042702
 30
0.0
 11
116.1754296313756
 21
702.7688939042706
 31
0.0
  0
LINE
  5
357
102
{ACAD_REACTORS
330
50C
102
}
330
1F
100
AcDbEntity
  8
実線
100
AcDbLine
 10
57.17542963137543
 20
693.5688939042702
 30
0.0
 11
142.1754296313755
 21
693.5688939042702
 31
0.0
  0
LINE
  5
358
102
{ACAD_REACTORS
330
50C
102
}
330
1F
100
AcDbEntity
  8
実線
100
AcDbLine
 10
116.1754296313755
 20
702.7688939042706
 30
0.0
 11
83.17542963137555
 21
702.7688939042706
 31
0.0
  0
LINE
  5
359
102
{ACAD_REACTORS
330
50C
102
}
330
1F
100
AcDbEntity
  8
実線
100
AcDbLine
 10
56.37542963137548
 20
580.5688939042702
 30
0.0
 11
55.67542963137555
 21
576.8688939042703
 31
0.0
  0
LINE
  5
35A
102
{ACAD_REACTORS
330
50C
102
}
330
1F
100
AcDbEntity
  8
実線
100
AcDbLine
 10
143.6754296313756
 20
576.8688939042703
 30
0.0
 11
142.9754296313756
 21
580.5688939042702
 31
0.0
  0
LINE
  5
35B
102
{ACAD_REACTORS
330
50C
102
}
330
1F
100
AcDbEntity
  8
実線
100
AcDbLine
 10
55.67542963137555
 20
576.8688939042703
 30
0.0
 11
143.6754296313756
 21
576.8688939042703
 31
0.0
  0
LINE
  5
35C
102
{ACAD_REACTORS
330
50C
102
}
330
1F
100
AcDbEntity
  8
実線
100
AcDbLine
 10
142.9754296313756
 20
580.5688939042702
 30
0.0
 11
56.37542963137548
 21
580.5688939042702
 31
0.0
  0
LINE
  5
35D
102
{ACAD_REACTORS
330
50C
102
}
330
1F
100
AcDbEntity
  8
実線
100
AcDbLine
 10
49.67542963137555
 20
461.8688939042702
 30
0.0
 11
49.67542963137555
 21
408.4688939042702
 31
0.0
  0
LINE
  5
35E
102
{ACAD_REACTORS
330
50C
102
}
330
1F
100
AcDbEntity
  8
実線
100
AcDbLine
 10
49.67542963137555
 20
408.4688939042702
 30
0.0
 11
86.17542963137555
 21
408.4688939042702
 31
0.0
  0
LINE
  5
35F
102
{ACAD_REACTORS
330
50C
102
}
330
1F
100
AcDbEntity
  8
実線
100
AcDbLine
 10
113.1754296313755
 20
408.4688939042702
 30
0.0
 11
149.6754296313756
 21
408.4688939042702
 31
0.0
  0
LINE
  5
360
102
{ACAD_REACTORS
330
50C
102
}
330
1F
100
AcDbEntity
  8
実線
100
AcDbLine
 10
149.6754296313756
 20
408.4688939042702
 30
0.0
 11
149.6754296313756
 21
461.8688939042702
 31
0.0
  0
LINE
  5
361
102
{ACAD_REACTORS
330
50C
102
}
330
1F
100
AcDbEntity
  8
実線
100
AcDbLine
 10
86.17542963137555
 20
375.9688939042702
 30
0.0
 11
86.17542963137555
 21
461.8688939042702
 31
0.0
  0
LINE
  5
362
102
{ACAD_REACTORS
330
50C
102
}
330
1F
100
AcDbEntity
  8
実線
100
AcDbLine
 10
113.1754296313755
 20
375.9688939042702
 30
0.0
 11
113.1754296313755
 21
461.8688939042702
 31
0.0
  0
LINE
  5
363
102
{ACAD_REACTORS
330
50C
102
}
330
1F
100
AcDbEntity
  8
実線
100
AcDbLine
 10
40.17542963137555
 20
558.3688939042702
 30
0.0
 11
159.1754296313755
 21
558.3688939042702
 31
0.0
  0
ARC
  5
364
102
{ACAD_REACTORS
330
50C
102
}
330
1F
100
AcDbEntity
  8
実線
100
AcDbCircle
 10
159.1754296313755
 20
555.3688939042703
 30
0.0
 40
3.0
100
AcDbArc
 50
0.0
 51
90.0
  0
ARC
  5
365
102
{ACAD_REACTORS
330
50C
102
}
330
1F
100
AcDbEntity
  8
実線
100
AcDbCircle
 10
40.17542963137555
 20
555.3688939042703
 30
0.0
 40
3.0
100
AcDbArc
 50
90.0
 51
180.0
  0
LINE
  5
366
102
{ACAD_REACTORS
330
50C
102
}
330
1F
100
AcDbEntity
  8
実線
100
AcDbLine
 10
162.1754296313756
 20
553.8688939042702
 30
0.0
 11
162.1754296313756
 21
555.3688939042703
 31
0.0
  0
LINE
  5
367
102
{ACAD_REACTORS
330
50C
102
}
330
1F
100
AcDbEntity
  8
実線
100
AcDbLine
 10
37.17542963137555
 20
555.3688939042703
 30
0.0
 11
37.17542963137555
 21
553.8688939042702
 31
0.0
  0
LINE
  5
368
102
{ACAD_REACTORS
330
50C
102
}
330
1F
100
AcDbEntity
  8
実線
100
AcDbLine
 10
85.12379742052008
 20
298.9688939042703
 30
0.0
 11
67.67542963137533
 21
298.9688939042703
 31
0.0
  0
LINE
  5
369
102
{ACAD_REACTORS
330
50C
102
}
330
1F
100
AcDbEntity
  8
実線
100
AcDbLine
 10
131.6754296313753
 20
298.9688939042703
 30
0.0
 11
114.2270618422306
 21
298.9688939042703
 31
0.0
  0
ARC
  5
36A
102
{ACAD_REACTORS
330
50C
102
}
330
1F
100
AcDbEntity
  8
実線
100
AcDbCircle
 10
67.67542963137533
 20
315.9688939042702
 30
0.0
 40
17.0
100
AcDbArc
 50
180.0
 51
270.0
  0
ARC
  5
36B
102
{ACAD_REACTORS
330
50C
102
}
330
1F
100
AcDbEntity
  8
実線
100
AcDbCircle
 10
131.6754296313753
 20
315.9688939042702
 30
0.0
 40
17.0
100
AcDbArc
 50
270.0
 51
0.0
  0
LINE
  5
36C
102
{ACAD_REACTORS
330
50C
102
}
330
1F
100
AcDbEntity
  8
実線
100
AcDbLine
 10
156.1785952234312
 20
362.4688939042702
 30
0.0
 11
43.17226403931942
 21
362.4688939042702
 31
0.0
  0
LINE
  5
36D
102
{ACAD_REACTORS
330
50C
102
}
330
1F
100
AcDbEntity
  8
実線
100
AcDbLine
 10
50.67542963137532
 20
347.4688939042702
 30
0.0
 11
50.67542963137532
 21
315.9688939042702
 31
0.0
  0
LINE
  5
36E
102
{ACAD_REACTORS
330
50C
102
}
330
1F
100
AcDbEntity
  8
実線
100
AcDbLine
 10
148.6754296313753
 20
315.9688939042702
 30
0.0
 11
148.6754296313753
 21
347.4688939042702
 31
0.0
  0
LINE
  5
36F
102
{ACAD_REACTORS
330
50C
102
}
330
1F
100
AcDbEntity
  8
実線
100
AcDbLine
 10
43.17226403931954
 20
362.4688939042702
 30
0.0
 11
43.17226403931954
 21
347.4688939042702
 31
0.0
  0
LINE
  5
370
102
{ACAD_REACTORS
330
50C
102
}
330
1F
100
AcDbEntity
  8
実線
100
AcDbLine
 10
43.17226403931954
 20
347.4688939042702
 30
0.0
 11
74.69543763778171
 21
347.4688939042702
 31
0.0
  0
LINE
  5
371
102
{ACAD_REACTORS
330
50C
102
}
330
1F
100
AcDbEntity
  8
実線
100
AcDbLine
 10
156.1785952234312
 20
347.4688939042702
 30
0.0
 11
124.655421624969
 21
347.4688939042702
 31
0.0
  0
LINE
  5
372
102
{ACAD_REACTORS
330
50C
102
}
330
1F
100
AcDbEntity
  8
実線
100
AcDbLine
 10
156.1785952234312
 20
347.4688939042702
 30
0.0
 11
156.1785952234312
 21
362.4688939042702
 31
0.0
  0
LINE
  5
373
102
{ACAD_REACTORS
330
50C
102
}
330
1F
100
AcDbEntity
  8
実線
100
AcDbLine
 10
77.29718634423239
 20
362.4688939042702
 30
0.0
 11
77.29718634423239
 21
350.3427704314669
 31
0.0
  0
LINE
  5
374
102
{ACAD_REACTORS
330
50C
102
}
330
1F
100
AcDbEntity
  8
実線
100
AcDbLine
 10
122.0536729185185
 20
362.4688939042702
 30
0.0
 11
122.0536729185185
 21
350.3427704314669
 31
0.0
  0
LINE
  5
375
102
{ACAD_REACTORS
330
50B
102
}
330
1F
100
AcDbEntity
  8
実線
100
AcDbLine
 10
365.0754296313754
 20
289.7688939042703
 30
0.0
 11
365.0754296313754
 21
298.9688939042703
 31
0.0
  0
LINE
  5
376
102
{ACAD_REACTORS
330
50B
102
}
330
1F
100
AcDbEntity
  8
実線
100
AcDbLine
 10
314.2754296313754
 20
298.9688939042703
 30
0.0
 11
314.2754296313754
 21
289.7688939042703
 31
0.0
  0
LINE
  5
377
102
{ACAD_REACTORS
330
50B
102
}
330
1F
100
AcDbEntity
  8
実線
100
AcDbLine
 10
314.2754296313754
 20
289.7688939042703
 30
0.0
 11
365.0754296313754
 21
289.7688939042703
 31
0.0
  0
LINE
  5
378
102
{ACAD_REACTORS
330
50B
102
}
330
1F
100
AcDbEntity
  8
実線
100
AcDbLine
 10
314.2754296313754
 20
289.7688939042703
 30
0.0
 11
307.6754296313755
 21
287.3688939042704
 31
0.0
  0
LINE
  5
379
102
{ACAD_REACTORS
330
50B
102
}
330
1F
100
AcDbEntity
  8
実線
100
AcDbLine
 10
371.6754296313754
 20
287.3688939042704
 30
0.0
 11
365.0754296313754
 21
289.7688939042703
 31
0.0
  0
LINE
  5
37A
102
{ACAD_REACTORS
330
50B
102
}
330
1F
100
AcDbEntity
  8
実線
100
AcDbLine
 10
307.6754296313755
 20
284.4688939042703
 30
0.0
 11
371.6754296313754
 21
284.4688939042703
 31
0.0
  0
LINE
  5
37B
102
{ACAD_REACTORS
330
50B
102
}
330
1F
100
AcDbEntity
  8
実線
100
AcDbLine
 10
307.6754296313755
 20
287.3688939042704
 30
0.0
 11
371.6754296313754
 21
287.3688939042704
 31
0.0
  0
LINE
  5
37C
102
{ACAD_REACTORS
330
50B
102
}
330
1F
100
AcDbEntity
  8
実線
100
AcDbLine
 10
371.6754296313754
 20
284.4688939042703
 30
0.0
 11
371.6754296313754
 21
287.3688939042704
 31
0.0
  0
LINE
  5
37D
102
{ACAD_REACTORS
330
50B
102
}
330
1F
100
AcDbEntity
  8
実線
100
AcDbLine
 10
307.6754296313755
 20
287.3688939042704
 30
0.0
 11
307.6754296313755
 21
284.4688939042703
 31
0.0
  0
LINE
  5
37E
102
{ACAD_REACTORS
330
50B
102
}
330
1F
100
AcDbEntity
  8
実線
100
AcDbLine
 10
262.9754296313753
 20
302.0688939042703
 30
0.0
 11
297.8881930448817
 21
302.0688939042703
 31
0.0
  0
LINE
  5
37F
102
{ACAD_REACTORS
330
50B
102
}
330
1F
100
AcDbEntity
  8
実線
100
AcDbLine
 10
283.1722640393195
 20
352.8688939042703
 30
0.0
 11
262.9754296313753
 21
352.8688939042703
 31
0.0
  0
LINE
  5
380
102
{ACAD_REACTORS
330
50B
102
}
330
1F
100
AcDbEntity
  8
実線
100
AcDbLine
 10
262.9754296313753
 20
352.8688939042703
 30
0.0
 11
262.9754296313753
 21
302.0688939042703
 31
0.0
  0
LINE
  5
381
102
{ACAD_REACTORS
330
50B
102
}
330
1F
100
AcDbEntity
  8
実線
100
AcDbLine
 10
262.9754296313753
 20
352.8688939042703
 30
0.0
 11
260.5754296313754
 21
359.4688939042703
 31
0.0
  0
LINE
  5
382
102
{ACAD_REACTORS
330
50B
102
}
330
1F
100
AcDbEntity
  8
実線
100
AcDbLine
 10
260.5754296313754
 20
295.4688939042703
 30
0.0
 11
262.9754296313753
 21
302.0688939042703
 31
0.0
  0
LINE
  5
383
102
{ACAD_REACTORS
330
50B
102
}
330
1F
100
AcDbEntity
  8
実線
100
AcDbLine
 10
257.6754296313755
 20
359.4688939042703
 30
0.0
 11
257.6754296313755
 21
295.4688939042703
 31
0.0
  0
LINE
  5
384
102
{ACAD_REACTORS
330
50B
102
}
330
1F
100
AcDbEntity
  8
実線
100
AcDbLine
 10
260.5754296313754
 20
359.4688939042703
 30
0.0
 11
260.5754296313754
 21
295.4688939042703
 31
0.0
  0
LINE
  5
385
102
{ACAD_REACTORS
330
50B
102
}
330
1F
100
AcDbEntity
  8
実線
100
AcDbLine
 10
257.6754296313755
 20
295.4688939042703
 30
0.0
 11
260.5754296313754
 21
295.4688939042703
 31
0.0
  0
LINE
  5
386
102
{ACAD_REACTORS
330
50B
102
}
330
1F
100
AcDbEntity
  8
実線
100
AcDbLine
 10
260.5754296313754
 20
359.4688939042703
 30
0.0
 11
257.6754296313755
 21
359.4688939042703
 31
0.0
  0
LINE
  5
387
102
{ACAD_REACTORS
330
50B
102
}
330
1F
100
AcDbEntity
  8
実線
100
AcDbLine
 10
416.3754296313754
 20
352.8688939042703
 30
0.0
 11
396.1785952234312
 21
352.8688939042703
 31
0.0
  0
LINE
  5
388
102
{ACAD_REACTORS
330
50B
102
}
330
1F
100
AcDbEntity
  8
実線
100
AcDbLine
 10
381.4626662178692
 20
302.0688939042703
 30
0.0
 11
416.3754296313754
 21
302.0688939042703
 31
0.0
  0
LINE
  5
389
102
{ACAD_REACTORS
330
50B
102
}
330
1F
100
AcDbEntity
  8
実線
100
AcDbLine
 10
416.3754296313754
 20
302.0688939042703
 30
0.0
 11
418.7754296313753
 21
295.4688939042703
 31
0.0
  0
LINE
  5
38A
102
{ACAD_REACTORS
330
50B
102
}
330
1F
100
AcDbEntity
  8
実線
100
AcDbLine
 10
418.7754296313753
 20
359.4688939042702
 30
0.0
 11
416.3754296313754
 21
352.8688939042703
 31
0.0
  0
LINE
  5
38B
102
{ACAD_REACTORS
330
50B
102
}
330
1F
100
AcDbEntity
  8
実線
100
AcDbLine
 10
416.3754296313754
 20
302.0688939042703
 30
0.0
 11
416.3754296313754
 21
352.8688939042703
 31
0.0
  0
LINE
  5
38C
102
{ACAD_REACTORS
330
50B
102
}
330
1F
100
AcDbEntity
  8
実線
100
AcDbLine
 10
421.6754296313754
 20
359.4688939042703
 30
0.0
 11
418.7754296313753
 21
359.4688939042703
 31
0.0
  0
LINE
  5
38D
102
{ACAD_REACTORS
330
50B
102
}
330
1F
100
AcDbEntity
  8
実線
100
AcDbLine
 10
418.7754296313753
 20
295.4688939042703
 30
0.0
 11
421.6754296313754
 21
295.4688939042703
 31
0.0
  0
LINE
  5
38E
102
{ACAD_REACTORS
330
50B
102
}
330
1F
100
AcDbEntity
  8
実線
100
AcDbLine
 10
421.6754296313754
 20
359.4688939042703
 30
0.0
 11
421.6754296313754
 21
295.4688939042703
 31
0.0
  0
LINE
  5
38F
102
{ACAD_REACTORS
330
50B
102
}
330
1F
100
AcDbEntity
  8
実線
100
AcDbLine
 10
418.7754296313753
 20
359.4688939042703
 30
0.0
 11
418.7754296313753
 21
295.4688939042703
 31
0.0
  0
LINE
  5
390
102
{ACAD_REACTORS
330
50B
102
}
330
1F
100
AcDbEntity
  8
実線
100
AcDbLine
 10
283.1722640393197
 20
362.4688939042702
 30
0.0
 11
396.1785952234313
 21
362.4688939042702
 31
0.0
  0
LINE
  5
391
102
{ACAD_REACTORS
330
50B
102
}
330
1F
100
AcDbEntity
  8
実線
100
AcDbLine
 10
283.1722640393197
 20
375.9688939042702
 30
0.0
 11
396.1785952234313
 21
375.9688939042702
 31
0.0
  0
LINE
  5
392
102
{ACAD_REACTORS
330
50B
102
}
330
1F
100
AcDbEntity
  8
実線
100
AcDbLine
 10
396.1785952234313
 20
362.4688939042702
 30
0.0
 11
396.1785952234313
 21
375.9688939042702
 31
0.0
  0
LINE
  5
393
102
{ACAD_REACTORS
330
50B
102
}
330
1F
100
AcDbEntity
  8
実線
100
AcDbLine
 10
283.1722640393197
 20
375.9688939042702
 30
0.0
 11
283.1722640393197
 21
362.4688939042702
 31
0.0
  0
LINE
  5
394
102
{ACAD_REACTORS
330
50B
102
}
330
1F
100
AcDbEntity
  8
実線
100
AcDbLine
 10
317.2971863442323
 20
375.9688939042702
 30
0.0
 11
317.2971863442323
 21
362.4688939042702
 31
0.0
  0
LINE
  5
395
102
{ACAD_REACTORS
330
50B
102
}
330
1F
100
AcDbEntity
  8
実線
100
AcDbLine
 10
362.0536729185185
 20
375.9688939042702
 30
0.0
 11
362.0536729185185
 21
362.4688939042702
 31
0.0
  0
LINE
  5
396
102
{ACAD_REACTORS
330
50B
102
}
330
1F
100
AcDbEntity
  8
実線
100
AcDbLine
 10
402.1754296313755
 20
461.8688939042702
 30
0.0
 11
277.1754296313755
 21
461.8688939042702
 31
0.0
  0
LINE
  5
397
102
{ACAD_REACTORS
330
50B
102
}
330
1F
100
AcDbEntity
  8
実線
100
AcDbLine
 10
402.1754296313755
 20
461.8688939042702
 30
0.0
 11
402.1754296313755
 21
553.8688939042702
 31
0.0
  0
LINE
  5
398
102
{ACAD_REACTORS
330
50B
102
}
330
1F
100
AcDbEntity
  8
実線
100
AcDbLine
 10
277.1754296313755
 20
553.8688939042702
 30
0.0
 11
277.1754296313755
 21
461.8688939042702
 31
0.0
  0
LINE
  5
399
102
{ACAD_REACTORS
330
50B
102
}
330
1F
100
AcDbEntity
  8
実線
100
AcDbLine
 10
402.1754296313755
 20
553.8688939042702
 30
0.0
 11
277.1754296313755
 21
553.8688939042702
 31
0.0
  0
LINE
  5
39A
102
{ACAD_REACTORS
330
50B
102
}
330
1F
100
AcDbEntity
  8
実線
100
AcDbLine
 10
347.6754296313752
 20
375.9688939042702
 30
0.0
 11
347.6754296313752
 21
408.4688939042702
 31
0.0
  0
LINE
  5
39B
102
{ACAD_REACTORS
330
50B
102
}
330
1F
100
AcDbEntity
  8
実線
100
AcDbLine
 10
331.6754296313756
 20
408.4688939042702
 30
0.0
 11
331.6754296313756
 21
375.9688939042702
 31
0.0
  0
LINE
  5
39C
102
{ACAD_REACTORS
330
50B
102
}
330
1F
100
AcDbEntity
  8
実線
100
AcDbLine
 10
385.6754296313756
 20
558.3688939042702
 30
0.0
 11
385.6754296313756
 21
569.8688939042702
 31
0.0
  0
LINE
  5
39D
102
{ACAD_REACTORS
330
50B
102
}
330
1F
100
AcDbEntity
  8
実線
100
AcDbLine
 10
293.6754296313755
 20
569.8688939042702
 30
0.0
 11
293.6754296313755
 21
558.3688939042702
 31
0.0
  0
LINE
  5
39E
102
{ACAD_REACTORS
330
50B
102
}
330
1F
100
AcDbEntity
  8
実線
100
AcDbLine
 10
385.6754296313756
 20
569.8688939042702
 30
0.0
 11
293.6754296313755
 21
569.8688939042702
 31
0.0
  0
LINE
  5
39F
102
{ACAD_REACTORS
330
50B
102
}
330
1F
100
AcDbEntity
  8
実線
100
AcDbLine
 10
355.1754296313754
 20
569.8688939042702
 30
0.0
 11
355.1754296313754
 21
576.8688939042703
 31
0.0
  0
LINE
  5
3A0
102
{ACAD_REACTORS
330
50B
102
}
330
1F
100
AcDbEntity
  8
実線
100
AcDbLine
 10
324.1754296313756
 20
576.8688939042703
 30
0.0
 11
324.1754296313756
 21
569.8688939042702
 31
0.0
  0
LINE
  5
3A1
102
{ACAD_REACTORS
330
50B
102
}
330
1F
100
AcDbEntity
  8
実線
100
AcDbLine
 10
382.9754296313755
 20
580.5688939042702
 30
0.0
 11
382.9754296313755
 21
616.5688939042702
 31
0.0
  0
LINE
  5
3A2
102
{ACAD_REACTORS
330
50B
102
}
330
1F
100
AcDbEntity
  8
実線
100
AcDbLine
 10
296.3754296313755
 20
616.5688939042702
 30
0.0
 11
296.3754296313755
 21
580.5688939042702
 31
0.0
  0
LINE
  5
3A3
102
{ACAD_REACTORS
330
50B
102
}
330
1F
100
AcDbEntity
  8
実線
100
AcDbLine
 10
382.9754296313753
 20
616.5688939042702
 30
0.0
 11
296.3754296313755
 21
616.5688939042702
 31
0.0
  0
LINE
  5
3A4
102
{ACAD_REACTORS
330
50B
102
}
330
1F
100
AcDbEntity
  8
実線
100
AcDbLine
 10
382.1754296313756
 20
616.5688939042702
 30
0.0
 11
382.1754296313756
 21
693.5688939042702
 31
0.0
  0
LINE
  5
3A5
102
{ACAD_REACTORS
330
50B
102
}
330
1F
100
AcDbEntity
  8
実線
100
AcDbLine
 10
297.1754296313756
 20
693.5688939042702
 30
0.0
 11
297.1754296313756
 21
616.5688939042702
 31
0.0
  0
LINE
  5
3A6
102
{ACAD_REACTORS
330
50B
102
}
330
1F
100
AcDbEntity
  8
実線
100
AcDbLine
 10
382.1754296313756
 20
693.5688939042702
 30
0.0
 11
297.1754296313753
 21
693.5688939042702
 31
0.0
  0
LINE
  5
3A7
102
{ACAD_REACTORS
330
50B
102
}
330
1F
100
AcDbEntity
  8
実線
100
AcDbLine
 10
323.1754296313756
 20
702.7688939042706
 30
0.0
 11
297.1754296313753
 21
693.5688939042702
 31
0.0
  0
LINE
  5
3A8
102
{ACAD_REACTORS
330
50B
102
}
330
1F
100
AcDbEntity
  8
実線
100
AcDbLine
 10
382.1754296313756
 20
693.5688939042702
 30
0.0
 11
356.1754296313755
 21
702.7688939042706
 31
0.0
  0
LINE
  5
3A9
102
{ACAD_REACTORS
330
50B
102
}
330
1F
100
AcDbEntity
  8
実線
100
AcDbLine
 10
356.1754296313755
 20
702.7688939042706
 30
0.0
 11
323.1754296313756
 21
702.7688939042706
 31
0.0
  0
LINE
  5
3AA
102
{ACAD_REACTORS
330
50B
102
}
330
1F
100
AcDbEntity
  8
実線
100
AcDbLine
 10
383.6754296313756
 20
576.8688939042703
 30
0.0
 11
295.6754296313755
 21
576.8688939042703
 31
0.0
  0
LINE
  5
3AB
102
{ACAD_REACTORS
330
50B
102
}
330
1F
100
AcDbEntity
  8
実線
100
AcDbLine
 10
296.3754296313755
 20
580.5688939042702
 30
0.0
 11
295.6754296313755
 21
576.8688939042703
 31
0.0
  0
LINE
  5
3AC
102
{ACAD_REACTORS
330
50B
102
}
330
1F
100
AcDbEntity
  8
実線
100
AcDbLine
 10
383.6754296313756
 20
576.8688939042703
 30
0.0
 11
382.9754296313755
 21
580.5688939042702
 31
0.0
  0
LINE
  5
3AD
102
{ACAD_REACTORS
330
50B
102
}
330
1F
100
AcDbEntity
  8
実線
100
AcDbLine
 10
382.9754296313753
 20
580.5688939042702
 30
0.0
 11
296.3754296313755
 21
580.5688939042702
 31
0.0
  0
ARC
  5
3AE
102
{ACAD_REACTORS
330
50B
102
}
330
1F
100
AcDbEntity
  8
実線
100
AcDbCircle
 10
344.3754296313754
 20
421.9688939042701
 30
0.0
 40
47.99999999999999
100
AcDbArc
 50
196.3348227806864
 51
253.4021578641356
  0
LINE
  5
3AF
102
{ACAD_REACTORS
330
50B
102
}
330
1F
100
AcDbEntity
  8
実線
100
AcDbLine
 10
282.3754296313755
 20
461.8688939042702
 30
0.0
 11
282.3754296313755
 21
421.9688939042701
 31
0.0
  0
ARC
  5
3B0
102
{ACAD_REACTORS
330
50B
102
}
330
1F
100
AcDbEntity
  8
実線
100
AcDbCircle
 10
342.3754296313755
 20
421.9688939042701
 30
0.0
 40
60.00000000000005
100
AcDbArc
 50
180.0
 51
230.0554948101843
  0
ARC
  5
3B1
102
{ACAD_REACTORS
330
50B
102
}
330
1F
100
AcDbEntity
  8
実線
100
AcDbCircle
 10
334.9754296313754
 20
421.9688939042701
 30
0.0
 40
47.99999999999999
100
AcDbArc
 50
286.5978421358644
 51
343.6651772193136
  0
ARC
  5
3B2
102
{ACAD_REACTORS
330
50B
102
}
330
1F
100
AcDbEntity
  8
実線
100
AcDbCircle
 10
336.9754296313753
 20
421.9688939042701
 30
0.0
 40
60.00000000000005
100
AcDbArc
 50
309.9445051898157
 51
0.0
  0
LINE
  5
3B3
102
{ACAD_REACTORS
330
50B
102
}
330
1F
100
AcDbEntity
  8
実線
100
AcDbLine
 10
396.9754296313755
 20
461.8688939042702
 30
0.0
 11
396.9754296313754
 21
421.9688939042701
 31
0.0
  0
LINE
  5
3B4
102
{ACAD_REACTORS
330
50B
102
}
330
1F
100
AcDbEntity
  8
実線
100
AcDbLine
 10
291.5324135231174
 20
408.4688939042702
 30
0.0
 11
387.8184457396337
 21
408.4688939042702
 31
0.0
  0
LINE
  5
3B5
102
{ACAD_REACTORS
330
50B
102
}
330
1F
100
AcDbEntity
  8
実線
100
AcDbLine
 10
387.8184457396337
 20
408.4688939042702
 30
0.0
 11
387.8184457396337
 21
461.8688939042702
 31
0.0
  0
LINE
  5
3B6
102
{ACAD_REACTORS
330
50B
102
}
330
1F
100
AcDbEntity
  8
実線
100
AcDbLine
 10
291.5324135231174
 20
408.4688939042702
 30
0.0
 11
291.5324135231174
 21
461.8688939042702
 31
0.0
  0
LINE
  5
3B7
102
{ACAD_REACTORS
330
50B
102
}
330
1F
100
AcDbEntity
  8
実線
100
AcDbLine
 10
399.1754296313756
 20
558.3688939042702
 30
0.0
 11
280.1754296313754
 21
558.3688939042702
 31
0.0
  0
ARC
  5
3B8
102
{ACAD_REACTORS
330
50B
102
}
330
1F
100
AcDbEntity
  8
実線
100
AcDbCircle
 10
399.1754296313756
 20
555.3688939042703
 30
0.0
 40
3.0
100
AcDbArc
 50
0.0
 51
90.0
  0
ARC
  5
3B9
102
{ACAD_REACTORS
330
50B
102
}
330
1F
100
AcDbEntity
  8
実線
100
AcDbCircle
 10
280.1754296313754
 20
555.3688939042703
 30
0.0
 40
3.0
100
AcDbArc
 50
90.0
 51
180.0
  0
LINE
  5
3BA
102
{ACAD_REACTORS
330
50B
102
}
330
1F
100
AcDbEntity
  8
実線
100
AcDbLine
 10
402.1754296313755
 20
553.8688939042702
 30
0.0
 11
402.1754296313755
 21
555.3688939042703
 31
0.0
  0
LINE
  5
3BB
102
{ACAD_REACTORS
330
50B
102
}
330
1F
100
AcDbEntity
  8
実線
100
AcDbLine
 10
277.1754296313755
 20
555.3688939042703
 30
0.0
 11
277.1754296313755
 21
553.8688939042702
 31
0.0
  0
LINE
  5
3BC
102
{ACAD_REACTORS
330
50B
102
}
330
1F
100
AcDbEntity
  8
実線
100
AcDbLine
 10
371.675429631283
 20
298.9688939042703
 30
0.0
 11
307.6754296313755
 21
298.9688939042703
 31
0.0
  0
ARC
  5
3BD
102
{ACAD_REACTORS
330
50B
102
}
330
1F
100
AcDbEntity
  8
実線
100
AcDbCircle
 10
307.6754296313755
 20
315.9688939042702
 30
0.0
 40
17.0
100
AcDbArc
 50
234.8499442294432
 51
270.0
  0
ARC
  5
3BE
102
{ACAD_REACTORS
330
50B
102
}
330
1F
100
AcDbEntity
  8
実線
100
AcDbCircle
 10
371.6754296313754
 20
315.9688939042702
 30
0.0
 40
17.0
100
AcDbArc
 50
270.0
 51
305.1500557705568
  0
LINE
  5
3BF
102
{ACAD_REACTORS
330
50B
102
}
330
1F
100
AcDbEntity
  8
実線
100
AcDbLine
 10
396.1785952234312
 20
347.4688939042702
 30
0.0
 11
362.0536729185185
 21
347.4688939042702
 31
0.0
  0
LINE
  5
3C0
102
{ACAD_REACTORS
330
50B
102
}
330
1F
100
AcDbEntity
  8
実線
100
AcDbLine
 10
396.1785952234312
 20
347.4688939042702
 30
0.0
 11
396.1785952234312
 21
362.4688939042702
 31
0.0
  0
LINE
  5
3C1
102
{ACAD_REACTORS
330
50B
102
}
330
1F
100
AcDbEntity
  8
実線
100
AcDbLine
 10
283.1722640393195
 20
362.4688939042702
 30
0.0
 11
283.1722640393195
 21
347.4688939042702
 31
0.0
  0
LINE
  5
3C2
102
{ACAD_REACTORS
330
50B
102
}
330
1F
100
AcDbEntity
  8
実線
100
AcDbLine
 10
283.1722640393195
 20
347.4688939042702
 30
0.0
 11
317.2971863442323
 21
347.4688939042702
 31
0.0
  0
LINE
  5
3C3
102
{ACAD_REACTORS
330
50B
102
}
330
1F
100
AcDbEntity
  8
実線
100
AcDbLine
 10
317.2971863442323
 20
362.4688939042702
 30
0.0
 11
317.2971863442323
 21
347.4688939042702
 31
0.0
  0
LINE
  5
3C4
102
{ACAD_REACTORS
330
50B
102
}
330
1F
100
AcDbEntity
  8
実線
100
AcDbLine
 10
362.0536729185185
 20
362.4688939042702
 30
0.0
 11
362.0536729185185
 21
347.4688939042702
 31
0.0
  0
LINE
  5
4F5
102
{ACAD_REACTORS
330
50D
102
}
330
1F
100
AcDbEntity
  8
中心線
100
AcDbLine
 10
255.6754296313755
 20
87.46889390427019
 30
0.0
 11
423.6754296313754
 21
87.46889390427019
 31
0.0
  0
LINE
  5
4F6
102
{ACAD_REACTORS
330
50D
102
}
330
1F
100
AcDbEntity
  8
中心線
100
AcDbLine
 10
339.6754296313754
 20
17.4688939042702
 30
0.0
 11
339.6754296313754
 21
157.4688939042702
 31
0.0
  0
LINE
  5
4F7
102
{ACAD_REACTORS
330
50A
102
}
330
1F
100
AcDbEntity
  8
中心線
100
AcDbLine
 10
255.6754296313755
 20
927.4688939042702
 30
0.0
 11
423.6754296313754
 21
927.4688939042702
 31
0.0
  0
LINE
  5
4F8
102
{ACAD_REACTORS
330
50A
102
}
330
1F
100
AcDbEntity
  8
中心線
100
AcDbLine
 10
339.6754296313754
 20
857.4688939042703
 30
0.0
 11
339.6754296313754
 21
997.4688939042703
 31
0.0
  0
LINE
  5
4F9
102
{ACAD_REACTORS
330
508
102
}
330
1F
100
AcDbEntity
  8
中心線
100
AcDbLine
 10
819.6754296313747
 20
257.4688939042703
 30
0.0
 11
819.675429631375
 21
712.1213567465782
 31
0.0
  0
LINE
  5
4FA
102
{ACAD_REACTORS
330
508
102
}
330
1F
100
AcDbEntity
  8
中心線
100
AcDbLine
 10
735.6754296313747
 20
327.4688939042703
 30
0.0
 11
903.6754296313747
 21
327.4688939042703
 31
0.0
  0
LINE
  5
502
102
{ACAD_REACTORS
330
509
102
}
330
1F
100
AcDbEntity
  8
中心線
100
AcDbLine
 10
579.6754296313753
 20
257.4688939042702
 30
0.0
 11
579.6754296313753
 21
712.1213567465782
 31
0.0
  0
LINE
  5
503
102
{ACAD_REACTORS
330
509
102
}
330
1F
100
AcDbEntity
  8
中心線
100
AcDbLine
 10
509.6754296313753
 20
327.4688939042702
 30
0.0
 11
649.6754296313752
 21
327.4688939042702
 31
0.0
  0
LINE
  5
504
102
{ACAD_REACTORS
330
50B
102
}
330
1F
100
AcDbEntity
  8
中心線
100
AcDbLine
 10
339.6754296313754
 20
257.4688939042702
 30
0.0
 11
339.6754296313754
 21
712.1213567465782
 31
0.0
  0
LINE
  5
505
102
{ACAD_REACTORS
330
50B
102
}
330
1F
100
AcDbEntity
  8
中心線
100
AcDbLine
 10
255.6754296313755
 20
327.4688939042702
 30
0.0
 11
435.5057891444378
 21
327.4688939042702
 31
0.0
  0
LINE
  5
506
102
{ACAD_REACTORS
330
50C
102
}
330
1F
100
AcDbEntity
  8
中心線
100
AcDbLine
 10
99.67542963137532
 20
257.4688939042702
 30
0.0
 11
99.67542963137532
 21
712.1213567465782
 31
0.0
  0
LINE
  5
507
102
{ACAD_REACTORS
330
50C
102
}
330
1F
100
AcDbEntity
  8
中心線
100
AcDbLine
 10
29.67542963137532
 20
327.4688939042702
 30
0.0
 11
169.6754296313753
 21
327.4688939042702
 31
0.0
  0
ENDSEC
  0
SECTION
  2
OBJECTS
  0
DICTIONARY
  5
C
330
0
100
AcDbDictionary
281
     1
  3
ACAD_CIP_PREVIOUS_PRODUCT_INFO
350
24B
  3
ACAD_COLOR
350
241
  3
ACAD_DETAILVIEWSTYLE
350
244
  3
ACAD_GROUP
350
D
  3
ACAD_LAYOUT
350
1A
  3
ACAD_MATERIAL
350
43
  3
ACAD_MLEADERSTYLE
350
5B
  3
ACAD_MLINESTYLE
350
17
  3
ACAD_PLOTSETTINGS
350
19
  3
ACAD_PLOTSTYLENAME
350
E
  3
ACAD_SCALELIST
350
47
  3
ACAD_SECTIONVIEWSTYLE
350
242
  3
ACAD_TABLESTYLE
350
59
  3
ACAD_VISUALSTYLE
350
2A
  3
ACDB_RECOMPOSE_DATA
350
63D
  3
AcDbVariableDictionary
350
1F6
  3
DWGPROPS
350
63E
  0
DICTIONARY
  5
3CB
330
2
100
AcDbDictionary
280
     1
281
     1
  3
ACAD_LAYERSTATES
360
3CC
  0
DICTIONARY
  5
50E
330
10
100
AcDbDictionary
280
     1
281
     1
  3
ADSK_XREC_LAYER_RECONCILED
360
50F
  0
DICTIONARY
  5
3C7
330
3C6
100
AcDbDictionary
280
     1
281
     1
  3
ADSK_XREC_LAYER_RECONCILED
360
510
  0
DICTIONARY
  5
3C9
330
3C8
100
AcDbDictionary
280
     1
281
     1
  3
ADSK_XREC_LAYER_RECONCILED
360
511
  0
DICTIONARY
  5
27D
330
1F
100
AcDbDictionary
280
     1
281
     1
  3
ACAD_SORTENTS
360
27E
  0
XRECORD
  5
24B
102
{ACAD_REACTORS
330
C
102
}
330
C
100
AcDbXrecord
280
     1
300
ACDLT
300
2016
300
ACDLT_F_S
  0
DICTIONARY
  5
241
102
{ACAD_REACTORS
330
C
102
}
330
C
100
AcDbDictionary
281
     1
  0
DICTIONARY
  5
244
102
{ACAD_REACTORS
330
C
102
}
330
C
100
AcDbDictionary
281
     1
  3
Metric50
350
245
  0
DICTIONARY
  5
D
102
{ACAD_REACTORS
330
C
102
}
330
C
100
AcDbDictionary
281
     1
  3
*A1
350
508
  3
*A2
350
509
  3
*A3
350
50A
  3
*A4
350
50B
  3
*A5
350
50C
  3
*A6
350
50D
  0
DICTIONARY
  5
1A
102
{ACAD_REACTORS
330
C
102
}
330
C
100
AcDbDictionary
281
     1
  3
Layout1
350
1E
  3
Model
350
22
  3
レイアウト1
350
246
  0
DICTIONARY
  5
43
102
{ACAD_REACTORS
330
C
102
}
330
C
100
AcDbDictionary
281
     1
  3
ByBlock
350
45
  3
ByLayer
350
44
  3
Global
350
46
  0
DICTIONARY
  5
5B
102
{ACAD_REACTORS
330
C
102
}
330
C
100
AcDbDictionary
281
     1
  3
Standard
350
5C
  0
DICTIONARY
  5
17
102
{ACAD_REACTORS
330
C
102
}
330
C
100
AcDbDictionary
281
     1
  3
Standard
350
18
  0
DICTIONARY
  5
19
102
{ACAD_REACTORS
330
C
102
}
330
C
100
AcDbDictionary
281
     1
  0
ACDBDICTIONARYWDFLT
  5
E
102
{ACAD_REACTORS
330
C
102
}
330
C
100
AcDbDictionary
281
     1
  3
Normal
350
F
100
AcDbDictionaryWithDefault
340
F
  0
DICTIONARY
  5
47
102
{ACAD_REACTORS
330
C
102
}
330
C
100
AcDbDictionary
281
     1
  3
A0
350
48
  3
A1
350
49
  3
A2
350
4A
  3
A3
350
4B
  3
A4
350
4C
  3
A5
350
4D
  3
A6
350
4E
  3
A7
350
4F
  3
A8
350
50
  3
A9
350
51
  3
B0
350
52
  3
B1
350
53
  3
B2
350
54
  3
B3
350
55
  3
B4
350
56
  3
B5
350
57
  3
B6
350
58
  0
DICTIONARY
  5
242
102
{ACAD_REACTORS
330
C
102
}
330
C
100
AcDbDictionary
281
     1
  3
Metric50
350
243
  0
DICTIONARY
  5
59
102
{ACAD_REACTORS
330
C
102
}
330
C
100
AcDbDictionary
281
     1
  3
Standard
350
5A
  0
DICTIONARY
  5
2A
102
{ACAD_REACTORS
330
C
102
}
330
C
100
AcDbDictionary
281
     1
  3
2dWireframe
350
2F
  3
Basic
350
32
  3
Brighten
350
36
  3
ColorChange
350
3A
  3
Conceptual
350
34
  3
Dim
350
35
  3
EdgeColorOff
350
3D
  3
Facepattern
350
39
  3
Flat
350
2B
  3
FlatWithEdges
350
2C
  3
Gouraud
350
2D
  3
GouraudWithEdges
350
2E
  3
Hidden
350
31
  3
JitterOff
350
3B
  3
Linepattern
350
38
  3
OverhangOff
350
3C
  3
Realistic
350
33
  3
Shaded
350
42
  3
Shaded with edges
350
41
  3
Shades of Gray
350
3E
  3
Sketchy
350
3F
  3
Thicken
350
37
  3
Wireframe
350
30
  3
X-Ray
350
40
  0
XRECORD
  5
63D
102
{ACAD_REACTORS
330
C
102
}
330
C
100
AcDbXrecord
280
     1
 90
        1
330
5A
  0
DICTIONARY
  5
1F6
102
{ACAD_REACTORS
330
C
102
}
330
C
100
AcDbDictionary
281
     1
  3
CANNOSCALE
350
204
  3
CENTEREXE
350
1FD
  3
CENTERLTYPEFILE
350
1FE
  3
CMLEADERSTYLE
350
1F8
  3
CTABLESTYLE
350
1F7
  3
CVIEWDETAILSTYLE
350
512
  3
CVIEWSECTIONSTYLE
350
513
  3
DIMASSOC
350
1FF
  3
HIDETEXT
350
200
  3
INDEXCTL
350
635
  3
LAYEREVAL
350
515
  3
LAYERNOTIFY
350
516
  3
LIGHTINGUNITS
350
514
  3
LOFTANG1
350
638
  3
LOFTANG2
350
639
  3
LONGITUDE
350
63A
  3
MSLTSCALE
350
205
  3
PSOLHEIGHT
350
637
  3
PSOLWIDTH
350
636
  3
SORTENTS
350
634
  3
XCLIPFRAME
350
63B
  0
XRECORD
  5
63E
102
{ACAD_REACTORS
330
C
102
}
330
C
100
AcDbXrecord
280
     1
  1
DWGPROPS COOKIE
  2

  3

  4

  6
File was created by TR2_DExp
  7

  8
fujino
  9

300
=
301
=
302
=
303
=
304
=
305
=
306
=
307
=
308
=
309
=
 40
0.0601145949074074
 41
2455188.75
 42
2459759.347697361
  1

 90
        0
  0
DICTIONARY
  5
3CC
102
{ACAD_REACTORS
330
3CB
102
}
330
3CB
100
AcDbDictionary
281
     1
  0
XRECORD
  5
50F
102
{ACAD_REACTORS
330
50E
102
}
330
50E
100
AcDbXrecord
280
     1
290
     1
  0
XRECORD
  5
510
102
{ACAD_REACTORS
330
3C7
102
}
330
3C7
100
AcDbXrecord
280
     1
290
     1
  0
XRECORD
  5
511
102
{ACAD_REACTORS
330
3C9
102
}
330
3C9
100
AcDbXrecord
280
     1
290
     1
  0
SORTENTSTABLE
  5
27E
102
{ACAD_REACTORS
330
27D
102
}
330
27D
100
AcDbSortentsTable
330
1F
331
28D
  5
376
331
2CC
  5
339
331
2C8
  5
335
331
25E
  5
3A6
331
289
  5
372
331
25A
  5
3A2
331
377
  5
24E
331
305
  5
2E5
331
301
  5
2E1
331
373
  5
2D9
331
3AE
  5
287
331
2FD
  5
2DD
331
33C
  5
2A2
331
36F
  5
2D5
331
36B
  5
2D1
331
3AA
  5
283
331
2F9
  5
366
331
338
  5
29E
331
285
  5
36E
331
2C4
  5
331
331
281
  5
36A
331
2C0
  5
32D
331
256
  5
39E
331
252
  5
39A
331
275
  5
3BD
331
2BC
  5
329
331
2B8
  5
325
331
24E
  5
396
331
271
  5
3B9
331
334
  5
314
331
367
  5
2CD
331
3A6
  5
27F
331
2F5
  5
362
331
2F1
  5
35E
331
330
  5
310
331
363
  5
2C9
331
3A2
  5
279
331
39E
  5
275
331
2ED
  5
35A
331
32C
  5
30C
331
35F
  5
2C5
331
35B
  5
2C1
331
39A
  5
271
331
2E9
  5
356
331
328
  5
308
331
507
  5
507
331
26D
  5
3B5
331
2B4
  5
321
331
503
  5
503
331
269
  5
3B1
331
2B0
  5
31D
331
4F7
  5
4F7
331
265
  5
3AD
331
3C3
  5
29C
331
2AC
  5
319
331
2A8
  5
391
331
261
  5
3A9
331
324
  5
304
331
357
  5
2BD
331
396
  5
26D
331
2E5
  5
352
331
2E1
  5
34E
331
320
  5
300
331
353
  5
2B9
331
392
  5
269
331
38E
  5
265
331
2DD
  5
34A
331
31C
  5
2FC
331
34F
  5
2B5
331
38A
  5
261
331
2D9
  5
346
331
318
  5
2F8
331
34B
  5
2B1
331
2A4
  5
38D
331
3BF
  5
298
331
2A0
  5
389
331
3BB
  5
294
331
29C
  5
385
331
3B7
  5
290
331
27A
  5
3C2
331
3B3
  5
28C
331
298
  5
381
331
314
  5
2F4
331
347
  5
2AD
331
386
  5
25D
331
2D5
  5
342
331
2D1
  5
33E
331
310
  5
2F0
331
343
  5
2A9
331
382
  5
259
331
30C
  5
2EC
331
37E
  5
255
331
37A
  5
251
331
308
  5
2E8
331
294
  5
37D
331
290
  5
379
331
2CF
  5
33C
331
28C
  5
375
331
2CB
  5
338
331
25D
  5
3A5
331
288
  5
371
331
4FA
  5
4FA
331
259
  5
3A1
331
304
  5
2E4
331
376
  5
24D
331
300
  5
2E0
331
33F
  5
2A5
331
372
  5
2D8
331
3AD
  5
286
331
2FC
  5
2DC
331
33B
  5
2A1
331
36E
  5
2D4
331
36A
  5
2D0
331
3A9
  5
282
331
2F8
  5
365
331
2C7
  5
334
331
284
  5
36D
331
2C3
  5
330
331
280
  5
369
331
2BF
  5
32C
331
255
  5
39D
331
251
  5
399
331
274
  5
3BC
331
2BB
  5
328
331
24D
  5
395
331
270
  5
3B8
331
337
  5
317
331
333
  5
313
331
366
  5
2CC
331
3A5
  5
27C
331
2F4
  5
361
331
2F0
  5
35D
331
32F
  5
30F
331
362
  5
2C8
331
3A1
  5
278
331
39D
  5
274
331
2EC
  5
359
331
32B
  5
30B
331
35E
  5
2C4
331
35A
  5
2C0
331
399
  5
270
331
2E8
  5
355
331
2B7
  5
324
331
506
  5
506
331
26C
  5
3B4
331
2B3
  5
320
331
502
  5
502
331
268
  5
3B0
331
2AF
  5
31C
331
4F6
  5
4F6
331
264
  5
3AC
331
3C2
  5
29B
331
2AB
  5
318
331
260
  5
3A8
331
327
  5
307
331
323
  5
303
331
356
  5
2BC
331
395
  5
26C
331
2E4
  5
351
331
2E0
  5
34D
331
31F
  5
2FF
331
352
  5
2B8
331
391
  5
268
331
38D
  5
264
331
2DC
  5
349
331
31B
  5
2FB
331
34E
  5
2B4
331
34A
  5
2B0
331
389
  5
260
331
2D8
  5
345
331
2A7
  5
390
331
2A3
  5
38C
331
3BE
  5
297
331
29F
  5
388
331
3BA
  5
293
331
29B
  5
384
331
279
  5
3C1
331
3B6
  5
28F
331
3B2
  5
28B
331
317
  5
2F7
331
313
  5
2F3
331
346
  5
2AC
331
385
  5
25C
331
2D4
  5
341
331
2D0
  5
33D
331
30F
  5
2EF
331
342
  5
2A8
331
381
  5
258
331
37D
  5
254
331
30B
  5
2EB
331
379
  5
250
331
297
  5
380
331
293
  5
37C
331
28F
  5
378
331
2CE
  5
33B
331
2CA
  5
337
331
28B
  5
374
331
25C
  5
3A4
331
4F9
  5
4F9
331
258
  5
3A0
331
307
  5
2E7
331
303
  5
2E3
331
375
  5
24C
331
2FF
  5
2DF
331
33E
  5
2A4
331
371
  5
2D7
331
3AC
  5
285
331
2FB
  5
2DB
331
33A
  5
2A0
331
36D
  5
2D3
331
369
  5
2CF
331
3A8
  5
281
331
2C6
  5
333
331
287
  5
370
331
283
  5
36C
331
2C2
  5
32F
331
277
  5
3BF
331
2BE
  5
32B
331
254
  5
39C
331
250
  5
398
331
273
  5
3BB
331
2BA
  5
327
331
24C
  5
394
331
336
  5
316
331
2F7
  5
364
331
2F3
  5
360
331
332
  5
312
331
365
  5
2CB
331
3A4
  5
27B
331
2EF
  5
35C
331
32E
  5
30E
331
361
  5
2C7
331
3A0
  5
277
331
39C
  5
273
331
2EB
  5
358
331
32A
  5
30A
331
35D
  5
2C3
331
359
  5
2BF
331
398
  5
26F
331
2B6
  5
323
331
26F
  5
3B7
331
505
  5
505
331
26B
  5
3B3
331
2B2
  5
31F
331
267
  5
3AF
331
2AE
  5
31B
331
4F5
  5
4F5
331
263
  5
3AB
331
3C1
  5
29A
331
2AA
  5
393
331
326
  5
306
331
2E7
  5
354
331
322
  5
302
331
355
  5
2BB
331
394
  5
26B
331
2E3
  5
350
331
2DF
  5
34C
331
31E
  5
2FE
331
351
  5
2B7
331
390
  5
267
331
38C
  5
263
331
2DB
  5
348
331
31A
  5
2FA
331
34D
  5
2B3
331
349
  5
2AF
331
388
  5
25F
331
2A6
  5
38F
331
2A2
  5
38B
331
3BD
  5
296
331
29E
  5
387
331
3B9
  5
292
331
27C
  5
3C4
331
29A
  5
383
331
278
  5
3C0
331
3B5
  5
28E
331
3B1
  5
28A
331
2D7
  5
344
331
316
  5
2F6
331
312
  5
2F2
331
345
  5
2AB
331
384
  5
25B
331
2D3
  5
340
331
30E
  5
2EE
331
341
  5
2A7
331
380
  5
257
331
37C
  5
253
331
30A
  5
2EA
331
378
  5
24F
331
296
  5
37F
331
292
  5
37B
331
28E
  5
377
331
2CD
  5
33A
331
2C9
  5
336
331
25F
  5
3A7
331
28A
  5
373
331
25B
  5
3A3
331
4F8
  5
4F8
331
306
  5
2E6
331
302
  5
2E2
331
374
  5
2DA
331
3AF
  5
288
331
2FE
  5
2DE
331
33D
  5
2A3
331
370
  5
2D6
331
36C
  5
2D2
331
3AB
  5
284
331
2FA
  5
367
331
339
  5
29F
331
368
  5
2CE
331
286
  5
36F
331
2C5
  5
332
331
282
  5
36B
331
2C1
  5
32E
331
257
  5
39F
331
253
  5
39B
331
276
  5
3BE
331
2BD
  5
32A
331
2B9
  5
326
331
24F
  5
397
331
272
  5
3BA
331
335
  5
315
331
3A7
  5
280
331
2F6
  5
363
331
2F2
  5
35F
331
331
  5
311
331
364
  5
2CA
331
3A3
  5
27A
331
39F
  5
276
331
2EE
  5
35B
331
32D
  5
30D
331
360
  5
2C6
331
39B
  5
272
331
2EA
  5
357
331
329
  5
309
331
35C
  5
2C2
331
358
  5
2BE
331
2B5
  5
322
331
26E
  5
3B6
331
504
  5
504
331
26A
  5
3B2
331
2B1
  5
31E
331
266
  5
3AE
331
3C4
  5
29D
331
2AD
  5
31A
331
262
  5
3AA
331
3C0
  5
299
331
2A9
  5
392
331
325
  5
305
331
397
  5
26E
331
2E6
  5
353
331
2E2
  5
34F
331
321
  5
301
331
354
  5
2BA
331
393
  5
26A
331
2DE
  5
34B
331
31D
  5
2FD
331
350
  5
2B6
331
38F
  5
266
331
38B
  5
262
331
2DA
  5
347
331
319
  5
2F9
331
34C
  5
2B2
331
348
  5
2AE
331
2A5
  5
38E
331
2A1
  5
38A
331
3BC
  5
295
331
27F
  5
368
331
29D
  5
386
331
3B8
  5
291
331
27B
  5
3C3
331
3B4
  5
28D
331
299
  5
382
331
3B0
  5
289
331
315
  5
2F5
331
387
  5
25E
331
2D6
  5
343
331
311
  5
2F1
331
344
  5
2AA
331
383
  5
25A
331
2D2
  5
33F
331
30D
  5
2ED
331
340
  5
2A6
331
37F
  5
256
331
37B
  5
252
331
309
  5
2E9
331
295
  5
37E
331
291
  5
37A
  0
ACDBDETAILVIEWSTYLE
  5
245
102
{ACAD_XDICTIONARY
360
676
102
}
102
{ACAD_REACTORS
330
244
102
}
330
244
100
AcDbModelDocViewStyle
 70
     0
  3
Metric50
290
     0
100
AcDbDetailViewStyle
 70
     0
 71
     0
 90
        3
 71
     1
340
11
 40
5.0
340
0
 40
5.0
300

 40
0.0
280
     1
 71
     2
340
16
 90
       25
 71
     3
340
11
 40
5.0
 90
        0
 40
15.0
 90
        1
300
%<\AcVar ViewDetailId>% (%<\AcVar ViewScale \f "%sn">%)
 71
     4
340
16
 90
       25
340
16
 90
       25
280
     0
  0
GROUP
  5
508
102
{ACAD_REACTORS
330
D
102
}
330
D
100
AcDbGroup
300

 70
     1
 71
     1
340
4FA
340
4F9
340
2FA
340
2F9
340
2F8
340
2F7
340
2F6
340
2F5
340
2F4
340
2F3
340
2F2
340
2F1
340
2F0
340
2EF
340
2EE
340
2ED
340
2EC
340
2EB
340
2EA
340
2E9
340
2E8
340
2E7
340
2E6
340
2E5
340
2E4
340
2E3
340
2E2
340
2E1
340
2E0
340
2DF
340
2DE
340
2DD
340
2DC
340
2DB
340
2DA
340
2D9
340
2D8
340
2D7
340
2D6
340
2D5
340
2D4
340
2D3
340
2D2
340
2D1
340
2D0
340
2CF
340
2CE
340
2CD
340
2CC
340
2CB
340
2CA
340
2C9
340
2C8
340
2C7
340
2C6
340
2C5
340
2C4
340
2C3
340
2C2
340
2C1
340
2C0
340
2BF
340
2BE
340
2BD
340
2BC
340
2BB
340
2BA
340
2B9
340
2B8
340
2B7
340
2B6
340
2B5
340
2B4
340
2B3
340
2B2
340
2B1
340
2B0
340
2AF
340
2AE
340
2AD
340
2AC
340
2AB
  0
GROUP
  5
509
102
{ACAD_REACTORS
330
D
102
}
330
D
100
AcDbGroup
300

 70
     1
 71
     1
340
503
340
502
340
337
340
336
340
335
340
334
340
333
340
332
340
331
340
330
340
32F
340
32E
340
32D
340
32C
340
32B
340
32A
340
329
340
328
340
327
340
326
340
325
340
324
340
323
340
322
340
321
340
320
340
31F
340
31E
340
31D
340
31C
340
31B
340
31A
340
319
340
318
340
317
340
316
340
315
340
314
340
313
340
312
340
311
340
310
340
30F
340
30E
340
30D
340
30C
340
30B
340
30A
340
309
340
308
340
307
340
306
340
305
340
304
340
303
340
302
340
301
340
300
340
2FF
340
2FE
340
2FD
340
2FC
340
2FB
  0
GROUP
  5
50A
102
{ACAD_REACTORS
330
D
102
}
330
D
100
AcDbGroup
300

 70
     1
 71
     1
340
4F8
340
4F7
340
2AA
340
2A9
340
2A8
340
2A7
340
2A6
340
2A5
340
2A4
340
2A3
340
2A2
340
2A1
340
2A0
340
29F
340
29E
340
29D
340
29C
340
29B
340
29A
340
299
340
298
340
297
340
296
340
295
340
294
340
293
340
292
340
291
340
290
340
28F
340
28E
340
28D
340
28C
340
28B
340
28A
340
289
340
288
340
287
340
286
340
285
340
284
340
283
340
282
340
281
340
280
340
27F
  0
GROUP
  5
50B
102
{ACAD_REACTORS
330
D
102
}
330
D
100
AcDbGroup
300

 70
     1
 71
     1
340
505
340
504
340
3C4
340
3C3
340
3C2
340
3C1
340
3C0
340
3BF
340
3BE
340
3BD
340
3BC
340
3BB
340
3BA
340
3B9
340
3B8
340
3B7
340
3B6
340
3B5
340
3B4
340
3B3
340
3B2
340
3B1
340
3B0
340
3AF
340
3AE
340
3AD
340
3AC
340
3AB
340
3AA
340
3A9
340
3A8
340
3A7
340
3A6
340
3A5
340
3A4
340
3A3
340
3A2
340
3A1
340
3A0
340
39F
340
39E
340
39D
340
39C
340
39B
340
39A
340
399
340
398
340
397
340
396
340
395
340
394
340
393
340
392
340
391
340
390
340
38F
340
38E
340
38D
340
38C
340
38B
340
38A
340
389
340
388
340
387
340
386
340
385
340
384
340
383
340
382
340
381
340
380
340
37F
340
37E
340
37D
340
37C
340
37B
340
37A
340
379
340
378
340
377
340
376
340
375
  0
GROUP
  5
50C
102
{ACAD_REACTORS
330
D
102
}
330
D
100
AcDbGroup
300

 70
     1
 71
     1
340
507
340
506
340
374
340
373
340
372
340
371
340
370
340
36F
340
36E
340
36D
340
36C
340
36B
340
36A
340
369
340
368
340
367
340
366
340
365
340
364
340
363
340
362
340
361
340
360
340
35F
340
35E
340
35D
340
35C
340
35B
340
35A
340
359
340
358
340
357
340
356
340
355
340
354
340
353
340
352
340
351
340
350
340
34F
340
34E
340
34D
340
34C
340
34B
340
34A
340
349
340
348
340
347
340
346
340
345
340
344
340
343
340
342
340
341
340
340
340
33F
340
33E
340
33D
340
33C
340
33B
340
33A
340
339
340
338
  0
GROUP
  5
50D
102
{ACAD_REACTORS
330
D
102
}
330
D
100
AcDbGroup
300

 70
     1
 71
     1
340
4F6
340
4F5
340
27C
340
27B
340
27A
340
279
340
278
340
277
340
276
340
275
340
274
340
273
340
272
340
271
340
270
340
26F
340
26E
340
26D
340
26C
340
26B
340
26A
340
269
340
268
340
267
340
266
340
265
340
264
340
263
340
262
340
261
340
260
340
25F
340
25E
340
25D
340
25C
340
25B
340
25A
340
259
340
258
340
257
340
256
340
255
340
254
340
253
340
252
340
251
340
250
340
24F
340
24E
340
24D
340
24C
  0
LAYOUT
  5
1E
102
{ACAD_XDICTIONARY
360
63F
102
}
102
{ACAD_REACTORS
330
1A
102
}
330
1A
100
AcDbPlotSettings
  1

  2
none_device
  4

  6

 40
0.0
 41
0.0
 42
0.0
 43
0.0
 44
0.0
 45
0.0
 46
0.0
 47
0.0
 48
0.0
 49
0.0
140
0.0
141
0.0
142
1.0
143
1.0
 70
   688
 72
     1
 73
     0
 74
     5
  7

 75
    16
147
1.0
148
0.0
149
0.0
100
AcDbLayout
  1
Layout1
 70
     1
 71
     1
 10
0.0
 20
0.0
 11
420.0
 21
297.0
 12
0.0
 22
0.0
 32
0.0
 14
1.000000000000000E+20
 24
1.000000000000000E+20
 34
1.000000000000000E+20
 15
-1.000000000000000E+20
 25
-1.000000000000000E+20
 35
-1.000000000000000E+20
146
0.0
 13
0.0
 23
0.0
 33
0.0
 16
1.0
 26
0.0
 36
0.0
 17
0.0
 27
1.0
 37
0.0
 76
     0
330
1B
  0
LAYOUT
  5
22
102
{ACAD_XDICTIONARY
360
641
102
}
102
{ACAD_REACTORS
330
1A
102
}
330
1A
100
AcDbPlotSettings
  1

  2
none_device
  4
Letter_(8.50_x_11.00_Inches)
  6

 40
6.349999999999998
 41
6.349999999999998
 42
6.350005079999998
 43
6.350005079999998
 44
215.9
 45
279.4
 46
0.0
 47
0.0
 48
0.0
 49
0.0
140
0.0
141
0.0
142
1.0
143
1.0
 70
  1712
 72
     1
 73
     0
 74
     0
  7

 75
     0
147
1.0
148
0.0
149
0.0
100
AcDbLayout
  1
Model
 70
     1
 71
     0
 10
-459.8160858154295
 20
-471.5292968749998
 11
1327.430816650391
 21
786.3995666503902
 12
0.0
 22
0.0
 32
0.0
 14
-459.8160858154295
 24
-471.5292968749998
 34
0.0
 15
1327.430816650391
 25
786.3995666503902
 35
0.0
146
0.0
 13
0.0
 23
0.0
 33
0.0
 16
1.0
 26
0.0
 36
0.0
 17
0.0
 27
1.0
 37
0.0
 76
     0
330
1F
331
29
  0
LAYOUT
  5
246
102
{ACAD_XDICTIONARY
360
678
102
}
102
{ACAD_REACTORS
330
1A
102
}
330
1A
100
AcDbPlotSettings
  1

  2
青梅 FX DocuCentre-V C2275 T2
  4

  6

 40
0.0
 41
0.0
 42
0.0
 43
0.0
 44
0.0
 45
0.0
 46
0.0
 47
0.0
 48
0.0
 49
0.0
140
0.0
141
0.0
142
1.0
143
1.0
 70
   688
 72
     0
 73
     0
 74
     5
  7
AutoCAD_PEN.ctb
 75
    16
147
1.0
148
0.0
149
0.0
100
AcDbLayout
  1
レイアウト1
 70
     1
 71
     2
 10
0.0
 20
0.0
 11
12.0
 21
9.0
 12
0.0
 22
0.0
 32
0.0
 14
0.0
 24
0.0
 34
0.0
 15
0.0
 25
0.0
 35
0.0
146
0.0
 13
0.0
 23
0.0
 33
0.0
 16
1.0
 26
0.0
 36
0.0
 17
0.0
 27
1.0
 37
0.0
 76
     0
330
23
  0
MATERIAL
  5
45
102
{ACAD_XDICTIONARY
360
238
102
}
102
{ACAD_REACTORS
330
43
102
}
330
43
100
AcDbMaterial
  1
ByBlock
  0
MATERIAL
  5
44
102
{ACAD_XDICTIONARY
360
236
102
}
102
{ACAD_REACTORS
330
43
102
}
330
43
100
AcDbMaterial
  1
ByLayer
  0
MATERIAL
  5
46
102
{ACAD_XDICTIONARY
360
23A
102
}
102
{ACAD_REACTORS
330
43
102
}
330
43
100
AcDbMaterial
  1
Global
  0
MLEADERSTYLE
  5
5C
102
{ACAD_REACTORS
330
5B
102
}
330
5B
100
AcDbMLeaderStyle
170
     2
171
     1
172
     0
 90
        2
 40
0.0
 41
0.0
173
     1
 91
-1056964608
340
14
 92
       -2
290
     1
 42
2.0
291
     1
 43
8.0
  3
Standard
 44
4.0
300

342
11
174
     1
178
     6
175
     1
176
     0
 93
-1056964608
 45
4.0
292
     0
297
     0
 46
4.0
 94
-1056964608
 47
1.0
 49
1.0
140
1.0
293
     1
141
0.0
294
     1
177
     0
142
1.0
295
     0
296
     0
143
3.75
1001
ACAD_MLEADERVER
1070
     2
  0
MLINESTYLE
  5
18
102
{ACAD_REACTORS
330
17
102
}
330
17
100
AcDbMlineStyle
  2
STANDARD
 70
     0
  3

 62
   256
 51
90.0
 52
90.0
 71
     2
 49
0.5
 62
   256
  6
BYLAYER
 49
-0.5
 62
   256
  6
BYLAYER
  0
ACDBPLACEHOLDER
  5
F
102
{ACAD_REACTORS
330
E
102
}
330
E
  0
SCALE
  5
48
102
{ACAD_REACTORS
330
47
102
}
330
47
100
AcDbScale
 70
     0
300
1:1
140
1.0
141
1.0
290
     1
  0
SCALE
  5
49
102
{ACAD_REACTORS
330
47
102
}
330
47
100
AcDbScale
 70
     0
300
1:2
140
1.0
141
2.0
290
     0
  0
SCALE
  5
4A
102
{ACAD_REACTORS
330
47
102
}
330
47
100
AcDbScale
 70
     0
300
1:4
140
1.0
141
4.0
290
     0
  0
SCALE
  5
4B
102
{ACAD_REACTORS
330
47
102
}
330
47
100
AcDbScale
 70
     0
300
1:5
140
1.0
141
5.0
290
     0
  0
SCALE
  5
4C
102
{ACAD_REACTORS
330
47
102
}
330
47
100
AcDbScale
 70
     0
300
1:8
140
1.0
141
8.0
290
     0
  0
SCALE
  5
4D
102
{ACAD_REACTORS
330
47
102
}
330
47
100
AcDbScale
 70
     0
300
1:10
140
1.0
141
10.0
290
     0
  0
SCALE
  5
4E
102
{ACAD_REACTORS
330
47
102
}
330
47
100
AcDbScale
 70
     0
300
1:16
140
1.0
141
16.0
290
     0
  0
SCALE
  5
4F
102
{ACAD_REACTORS
330
47
102
}
330
47
100
AcDbScale
 70
     0
300
1:20
140
1.0
141
20.0
290
     0
  0
SCALE
  5
50
102
{ACAD_REACTORS
330
47
102
}
330
47
100
AcDbScale
 70
     0
300
1:30
140
1.0
141
30.0
290
     0
  0
SCALE
  5
51
102
{ACAD_REACTORS
330
47
102
}
330
47
100
AcDbScale
 70
     0
300
1:40
140
1.0
141
40.0
290
     0
  0
SCALE
  5
52
102
{ACAD_REACTORS
330
47
102
}
330
47
100
AcDbScale
 70
     0
300
1:50
140
1.0
141
50.0
290
     0
  0
SCALE
  5
53
102
{ACAD_REACTORS
330
47
102
}
330
47
100
AcDbScale
 70
     0
300
1:100
140
1.0
141
100.0
290
     0
  0
SCALE
  5
54
102
{ACAD_REACTORS
330
47
102
}
330
47
100
AcDbScale
 70
     0
300
2:1
140
2.0
141
1.0
290
     0
  0
SCALE
  5
55
102
{ACAD_REACTORS
330
47
102
}
330
47
100
AcDbScale
 70
     0
300
4:1
140
4.0
141
1.0
290
     0
  0
SCALE
  5
56
102
{ACAD_REACTORS
330
47
102
}
330
47
100
AcDbScale
 70
     0
300
8:1
140
8.0
141
1.0
290
     0
  0
SCALE
  5
57
102
{ACAD_REACTORS
330
47
102
}
330
47
100
AcDbScale
 70
     0
300
10:1
140
10.0
141
1.0
290
     0
  0
SCALE
  5
58
102
{ACAD_REACTORS
330
47
102
}
330
47
100
AcDbScale
 70
     0
300
100:1
140
100.0
141
1.0
290
     0
  0
ACDBSECTIONVIEWSTYLE
  5
243
102
{ACAD_XDICTIONARY
360
674
102
}
102
{ACAD_REACTORS
330
242
102
}
330
242
100
AcDbModelDocViewStyle
 70
     0
  3
Metric50
290
     0
100
AcDbSectionViewStyle
 70
     0
 71
     0
 90
      102
 71
     1
340
11
 40
5.0
340
0
340
0
 40
5.0
300
I, O, Q, S, X, Z
 40
10.0
 90
        0
 40
2.5
 90
        0
 71
     2
340
16
 90
       25
340
16
 90
       50
 40
5.0
 40
2.5
 40
5.0
 71
     3
340
11
 40
5.0
 90
        0
 40
15.0
 90
        1
300
%<\AcVar ViewSectionStartId>%-%<\AcVar ViewSectionEndId>% (%<\AcVar ViewScale \f "%sn">%)
 71
     4
300
ANSI31
 40
1.0
 90
        0
290
     0
290
     0
 90
        6
 40
0.0
 40
1.570796326794896
 40
0.2617993877991494
 40
1.308996938995747
 40
-0.2617993877991494
 40
1.832595714594045
  0
TABLESTYLE
  5
5A
102
{ACAD_XDICTIONARY
360
5E6
102
}
102
{ACAD_REACTORS
330
59
102
}
330
59
100
AcDbTableStyle
  3
Standard
 70
     0
 71
     0
 40
1.5
 41
1.5
280
     0
281
     0
  7
Standard
140
4.5
170
     2
 62
     0
 63
     7
283
     0
274
    -2
284
     1
 64
     0
275
    -2
285
     1
 65
     0
276
    -2
286
     1
 66
     0
277
    -2
287
     1
 67
     0
278
    -2
288
     1
 68
     0
279
    -2
289
     1
 69
     0
  7
Standard
140
6.0
170
     5
 62
     0
 63
     7
283
     0
274
    -2
284
     1
 64
     0
275
    -2
285
     1
 65
     0
276
    -2
286
     1
 66
     0
277
    -2
287
     1
 67
     0
278
    -2
288
     1
 68
     0
279
    -2
289
     1
 69
     0
  7
Standard
140
4.5
170
     5
 62
     0
 63
     7
283
     0
274
    -2
284
     1
 64
     0
275
    -2
285
     1
 65
     0
276
    -2
286
     1
 66
     0
277
    -2
287
     1
 67
     0
278
    -2
288
     1
 68
     0
279
    -2
289
     1
 69
     0
  0
VISUALSTYLE
  5
2F
102
{ACAD_XDICTIONARY
360
64B
102
}
102
{ACAD_REACTORS
330
2A
102
}
330
2A
100
AcDbVisualStyle
  2

 70
     4
 71
     0
 72
     2
 73
     0
 90
        0
 40
-0.6
 41
-30.0
 62
     5
 63
     7
 74
     1
 91
        4
 64
     7
 65
   257
 75
     1
175
     1
 42
1.0
 92
        0
 66
   257
 43
1.0
 76
     1
 77
     6
 78
     2
 67
     7
 79
     5
170
     0
171
     0
290
     0
174
     0
 93
        1
 44
0.0
173
     0
291
     0
 45
0.0
1001
ACAD
1000
AcDbSavedByObjectVersion
1070
     0
  0
VISUALSTYLE
  5
32
102
{ACAD_XDICTIONARY
360
651
102
}
102
{ACAD_REACTORS
330
2A
102
}
330
2A
100
AcDbVisualStyle
  2

 70
     7
 71
     1
 72
     0
 73
     1
 90
        0
 40
-0.6
 41
-30.0
 62
     5
 63
     7
 74
     0
 91
        4
 64
     7
 65
   257
 75
     1
175
     1
 42
1.0
 92
        8
 66
     7
 43
1.0
 76
     1
 77
     6
 78
     2
 67
     7
 79
     5
170
     0
171
     0
290
     0
174
     0
 93
        1
 44
0.0
173
     0
291
     1
 45
0.0
1001
ACAD
1000
AcDbSavedByObjectVersion
1070
     0
  0
VISUALSTYLE
  5
36
102
{ACAD_XDICTIONARY
360
659
102
}
102
{ACAD_REACTORS
330
2A
102
}
330
2A
100
AcDbVisualStyle
  2

 70
    12
 71
     2
 72
     2
 73
     0
 90
        0
 40
-0.6
 41
-30.0
 62
     5
 63
     7
 74
     1
 91
        4
 64
     7
 65
   257
 75
     1
175
     1
 42
1.0
 92
        8
 66
     7
 43
1.0
 76
     1
 77
     6
 78
     2
 67
     7
 79
     5
170
     0
171
     0
290
     0
174
     0
 93
        1
 44
50.0
173
     0
291
     1
 45
0.0
1001
ACAD
1000
AcDbSavedByObjectVersion
1070
     0
  0
VISUALSTYLE
  5
3A
102
{ACAD_XDICTIONARY
360
661
102
}
102
{ACAD_REACTORS
330
2A
102
}
330
2A
100
AcDbVisualStyle
  2

 70
    16
 71
     2
 72
     2
 73
     3
 90
        0
 40
-0.6
 41
-30.0
 62
     5
 63
     8
 74
     1
 91
        4
 64
     7
 65
   257
 75
     1
175
     1
 42
1.0
 92
        8
 66
     8
 43
1.0
 76
     1
 77
     6
 78
     2
 67
     7
 79
     5
170
     0
171
     0
290
     0
174
     0
 93
        1
 44
0.0
173
     0
291
     1
 45
0.0
1001
ACAD
1000
AcDbSavedByObjectVersion
1070
     0
  0
VISUALSTYLE
  5
34
102
{ACAD_XDICTIONARY
360
655
102
}
102
{ACAD_REACTORS
330
2A
102
}
330
2A
100
AcDbVisualStyle
  2

 70
     9
 71
     3
 72
     2
 73
     0
 90
        0
 40
-0.6
 41
-30.0
 62
     5
 63
     7
 74
     2
 91
        2
 64
     7
 65
   257
 75
     1
175
     1
 42
179.0
 92
        8
 66
     7
 43
1.0
 76
     1
 77
     6
 78
     2
 67
     7
 79
     3
170
     0
171
     0
290
     0
174
     0
 93
        1
 44
0.0
173
     0
291
     0
 45
0.0
1001
ACAD
1000
AcDbSavedByObjectVersion
1070
     0
  0
VISUALSTYLE
  5
35
102
{ACAD_XDICTIONARY
360
657
102
}
102
{ACAD_REACTORS
330
2A
102
}
330
2A
100
AcDbVisualStyle
  2

 70
    11
 71
     2
 72
     2
 73
     0
 90
        0
 40
-0.6
 41
-30.0
 62
     5
 63
     7
 74
     1
 91
        4
 64
     7
 65
   257
 75
     1
175
     1
 42
1.0
 92
        8
 66
     7
 43
1.0
 76
     1
 77
     6
 78
     2
 67
     7
 79
     5
170
     0
171
     0
290
     0
174
     0
 93
        1
 44
-50.0
173
     0
291
     1
 45
0.0
1001
ACAD
1000
AcDbSavedByObjectVersion
1070
     0
  0
VISUALSTYLE
  5
3D
102
{ACAD_XDICTIONARY
360
667
102
}
102
{ACAD_REACTORS
330
2A
102
}
330
2A
100
AcDbVisualStyle
  2

 70
    22
 71
     2
 72
     2
 73
     0
 90
        0
 40
-0.6
 41
-30.0
 62
     5
 63
     7
 74
     1
 91
        4
 64
     7
 65
   257
 75
     1
175
     1
 42
1.0
 92
        8
 66
     7
 43
1.0
 76
     1
 77
     6
 78
     2
 67
     7
 79
     5
170
     0
171
     0
290
     0
174
     0
 93
        1
 44
0.0
173
     0
291
     1
 45
0.0
1001
ACAD
1000
AcDbSavedByObjectVersion
1070
     0
  0
VISUALSTYLE
  5
39
102
{ACAD_XDICTIONARY
360
65F
102
}
102
{ACAD_REACTORS
330
2A
102
}
330
2A
100
AcDbVisualStyle
  2

 70
    15
 71
     2
 72
     2
 73
     0
 90
        0
 40
-0.6
 41
-30.0
 62
     5
 63
     7
 74
     1
 91
        4
 64
     7
 65
   257
 75
     1
175
     1
 42
1.0
 92
        8
 66
     7
 43
1.0
 76
     1
 77
     6
 78
     2
 67
     7
 79
     5
170
     0
171
     0
290
     0
174
     0
 93
        1
 44
0.0
173
     0
291
     1
 45
0.0
1001
ACAD
1000
AcDbSavedByObjectVersion
1070
     0
  0
VISUALSTYLE
  5
2B
102
{ACAD_XDICTIONARY
360
643
102
}
102
{ACAD_REACTORS
330
2A
102
}
330
2A
100
AcDbVisualStyle
  2

 70
     0
 71
     2
 72
     1
 73
     1
 90
        2
 40
-0.6
 41
30.0
 62
     5
 63
     7
 74
     0
 91
        0
 64
     7
 65
   257
 75
     1
175
     1
 42
1.0
 92
        8
 66
     7
 43
1.0
 76
     1
 77
     6
 78
     2
 67
     7
 79
     5
170
     0
171
     0
290
     0
174
     0
 93
       13
 44
0.0
173
     0
291
     1
 45
0.0
1001
ACAD
1000
AcDbSavedByObjectVersion
1070
     0
  0
VISUALSTYLE
  5
2C
102
{ACAD_XDICTIONARY
360
645
102
}
102
{ACAD_REACTORS
330
2A
102
}
330
2A
100
AcDbVisualStyle
  2

 70
     1
 71
     2
 72
     1
 73
     1
 90
        2
 40
-0.6
 41
30.0
 62
     5
 63
     7
 74
     1
 91
        0
 64
     7
 65
   257
 75
     1
175
     1
 42
1.0
 92
        0
 66
   257
 43
1.0
 76
     1
 77
     6
 78
     2
 67
     7
 79
     5
170
     0
171
     0
290
     0
174
     0
 93
       13
 44
0.0
173
     0
291
     1
 45
0.0
1001
ACAD
1000
AcDbSavedByObjectVersion
1070
     0
  0
VISUALSTYLE
  5
2D
102
{ACAD_XDICTIONARY
360
647
102
}
102
{ACAD_REACTORS
330
2A
102
}
330
2A
100
AcDbVisualStyle
  2

 70
     2
 71
     2
 72
     2
 73
     1
 90
        2
 40
-0.6
 41
30.0
 62
     5
 63
     7
 74
     0
 91
        0
 64
     7
 65
   257
 75
     1
175
     1
 42
1.0
 92
        0
 66
     7
 43
1.0
 76
     1
 77
     6
 78
     2
 67
     7
 79
     5
170
     0
171
     0
290
     0
174
     0
 93
       13
 44
0.0
173
     0
291
     1
 45
0.0
1001
ACAD
1000
AcDbSavedByObjectVersion
1070
     0
  0
VISUALSTYLE
  5
2E
102
{ACAD_XDICTIONARY
360
649
102
}
102
{ACAD_REACTORS
330
2A
102
}
330
2A
100
AcDbVisualStyle
  2

 70
     3
 71
     2
 72
     2
 73
     1
 90
        2
 40
-0.6
 41
30.0
 62
     5
 63
     7
 74
     1
 91
        0
 64
     7
 65
   257
 75
     1
175
     1
 42
1.0
 92
        0
 66
   257
 43
1.0
 76
     1
 77
     6
 78
     2
 67
     7
 79
     5
170
     0
171
     0
290
     0
174
     0
 93
       13
 44
0.0
173
     0
291
     1
 45
0.0
1001
ACAD
1000
AcDbSavedByObjectVersion
1070
     0
  0
VISUALSTYLE
  5
31
102
{ACAD_XDICTIONARY
360
64F
102
}
102
{ACAD_REACTORS
330
2A
102
}
330
2A
100
AcDbVisualStyle
  2

 70
     6
 71
     1
 72
     2
 73
     2
 90
        0
 40
-0.6
 41
-30.0
 62
     5
 63
     7
 74
     2
 91
        2
 64
     7
 65
   257
 75
     2
175
     1
 42
40.0
 92
        0
 66
   257
 43
1.0
 76
     1
 77
     6
 78
     2
 67
     7
 79
     3
170
     0
171
     0
290
     0
174
     0
 93
        1
 44
0.0
173
     0
291
     0
 45
0.0
1001
ACAD
1000
AcDbSavedByObjectVersion
1070
     0
  0
VISUALSTYLE
  5
3B
102
{ACAD_XDICTIONARY
360
663
102
}
102
{ACAD_REACTORS
330
2A
102
}
330
2A
100
AcDbVisualStyle
  2

 70
    20
 71
     2
 72
     2
 73
     0
 90
        0
 40
-0.6
 41
-30.0
 62
     5
 63
     7
 74
     1
 91
        4
 64
     7
 65
   257
 75
     1
175
     1
 42
1.0
 92
       10
 66
     7
 43
1.0
 76
     1
 77
     6
 78
     2
 67
     7
 79
     5
170
     0
171
     0
290
     0
174
     0
 93
        1
 44
0.0
173
     0
291
     1
 45
0.0
1001
ACAD
1000
AcDbSavedByObjectVersion
1070
     0
  0
VISUALSTYLE
  5
38
102
{ACAD_XDICTIONARY
360
65D
102
}
102
{ACAD_REACTORS
330
2A
102
}
330
2A
100
AcDbVisualStyle
  2

 70
    14
 71
     2
 72
     2
 73
     0
 90
        0
 40
-0.6
 41
-30.0
 62
     5
 63
     7
 74
     1
 91
        4
 64
     7
 65
   257
 75
     7
175
     7
 42
1.0
 92
        8
 66
     7
 43
1.0
 76
     1
 77
     6
 78
     2
 67
     7
 79
     5
170
     0
171
     0
290
     0
174
     0
 93
        1
 44
0.0
173
     0
291
     1
 45
0.0
1001
ACAD
1000
AcDbSavedByObjectVersion
1070
     0
  0
VISUALSTYLE
  5
3C
102
{ACAD_XDICTIONARY
360
665
102
}
102
{ACAD_REACTORS
330
2A
102
}
330
2A
100
AcDbVisualStyle
  2

 70
    21
 71
     2
 72
     2
 73
     0
 90
        0
 40
-0.6
 41
-30.0
 62
     5
 63
     7
 74
     1
 91
        4
 64
     7
 65
   257
 75
     1
175
     1
 42
1.0
 92
        9
 66
     7
 43
1.0
 76
     1
 77
     6
 78
     2
 67
     7
 79
     5
170
     0
171
     0
290
     0
174
     0
 93
        1
 44
0.0
173
     0
291
     1
 45
0.0
1001
ACAD
1000
AcDbSavedByObjectVersion
1070
     0
  0
VISUALSTYLE
  5
33
102
{ACAD_XDICTIONARY
360
653
102
}
102
{ACAD_REACTORS
330
2A
102
}
330
2A
100
AcDbVisualStyle
  2

 70
     8
 71
     2
 72
     3
 73
     0
 90
        2
 40
-0.6
 41
30.0
 62
     5
 63
     7
 74
     0
 91
        0
 64
     7
 65
   257
 75
     1
175
     1
 42
1.0
 92
        8
 66
   257
 43
1.0
 76
     1
 77
     6
 78
     2
 67
     7
 79
     3
170
     0
171
     0
290
     0
174
     0
 93
       13
 44
0.0
173
     0
291
     0
 45
0.0
1001
ACAD
1000
AcDbSavedByObjectVersion
1070
     0
  0
VISUALSTYLE
  5
42
102
{ACAD_XDICTIONARY
360
671
102
}
102
{ACAD_REACTORS
330
2A
102
}
330
2A
100
AcDbVisualStyle
  2

 70
    27
 71
     2
 72
     2
 73
     1
 90
        2
 40
-0.6
 41
30.0
 62
     5
 63
     7
 74
     0
 91
        4
 64
     7
 65
   257
 75
     1
175
     1
 42
1.0
 92
        8
 66
   257
 43
1.0
 76
     1
 77
     6
 78
     2
 67
     8
 79
     3
170
     0
171
     0
290
     0
174
     0
 93
        5
 44
0.0
173
     0
291
     0
 45
0.0
1001
ACAD
1000
AcDbSavedByObjectVersion
1070
     0
  0
VISUALSTYLE
  5
41
102
{ACAD_XDICTIONARY
360
66F
102
}
102
{ACAD_REACTORS
330
2A
102
}
330
2A
100
AcDbVisualStyle
  2

 70
    26
 71
     2
 72
     2
 73
     1
 90
        2
 40
-0.6
 41
30.0
 62
     5
 63
     7
 74
     1
 91
       10
 64
     7
 65
   257
 75
     2
175
     1
 42
1.0
 92
        8
 66
   257
 43
1.0
 76
     1
 77
     6
 78
     2
 67
     7
 79
     3
170
     0
171
     0
290
     0
174
     0
 93
        5
 44
0.0
173
     0
291
     0
 45
0.0
1001
ACAD
1000
AcDbSavedByObjectVersion
1070
     0
  0
VISUALSTYLE
  5
3E
102
{ACAD_XDICTIONARY
360
669
102
}
102
{ACAD_REACTORS
330
2A
102
}
330
2A
100
AcDbVisualStyle
  2

 70
    23
 71
     2
 72
     2
 73
     3
 90
        0
 40
-0.6
 41
-30.0
 62
     5
 63
     7
 74
     2
 91
        2
 64
     7
 65
     7
 75
     1
175
     1
 42
40.0
 92
        8
 66
     7
 43
1.0
 76
     1
 77
     6
 78
     2
 67
     7
 79
     3
170
     0
171
     0
290
     0
174
     0
 93
        1
 44
0.0
173
     0
291
     0
 45
0.0
1001
ACAD
1000
AcDbSavedByObjectVersion
1070
     0
  0
VISUALSTYLE
  5
3F
102
{ACAD_XDICTIONARY
360
66B
102
}
102
{ACAD_REACTORS
330
2A
102
}
330
2A
100
AcDbVisualStyle
  2

 70
    24
 71
     1
 72
     2
 73
     2
 90
        0
 40
-0.6
 41
-30.0
 62
     5
 63
     7
 74
     2
 91
        2
 64
     7
 65
     7
 75
     1
175
     1
 42
40.0
 92
       11
 66
     7
 43
1.0
 76
     1
 77
     6
 78
     2
 67
     7
 79
     6
170
     0
171
     0
290
     0
174
     0
 93
        1
 44
0.0
173
     0
291
     0
 45
0.0
1001
ACAD
1000
AcDbSavedByObjectVersion
1070
     0
  0
VISUALSTYLE
  5
37
102
{ACAD_XDICTIONARY
360
65B
102
}
102
{ACAD_REACTORS
330
2A
102
}
330
2A
100
AcDbVisualStyle
  2

 70
    13
 71
     2
 72
     2
 73
     0
 90
        0
 40
-0.6
 41
-30.0
 62
     5
 63
     7
 74
     1
 91
        4
 64
     7
 65
   257
 75
     1
175
     1
 42
1.0
 92
       12
 66
     7
 43
1.0
 76
     1
 77
     6
 78
     2
 67
     7
 79
     5
170
     0
171
     0
290
     0
174
     0
 93
        1
 44
0.0
173
     0
291
     1
 45
0.0
1001
ACAD
1000
AcDbSavedByObjectVersion
1070
     0
  0
VISUALSTYLE
  5
30
102
{ACAD_XDICTIONARY
360
64D
102
}
102
{ACAD_REACTORS
330
2A
102
}
330
2A
100
AcDbVisualStyle
  2

 70
     5
 71
     0
 72
     2
 73
     0
 90
        0
 40
-0.6
 41
-30.0
 62
     5
 63
     7
 74
     1
 91
        4
 64
     7
 65
   257
 75
     1
175
     1
 42
1.0
 92
        0
 66
   257
 43
1.0
 76
     1
 77
     6
 78
     2
 67
     7
 79
     3
170
     0
171
     0
290
     0
174
     0
 93
        1
 44
0.0
173
     0
291
     0
 45
0.0
1001
ACAD
1000
AcDbSavedByObjectVersion
1070
     0
  0
VISUALSTYLE
  5
40
102
{ACAD_XDICTIONARY
360
66D
102
}
102
{ACAD_REACTORS
330
2A
102
}
330
2A
100
AcDbVisualStyle
  2

 70
    25
 71
     2
 72
     2
 73
     1
 90
        1
 40
0.5
 41
-30.0
 62
     5
 63
     7
 74
     1
 91
        0
 64
     7
 65
   257
 75
     1
175
     1
 42
1.0
 92
        8
 66
     7
 43
1.0
 76
     1
 77
     6
 78
     2
 67
     7
 79
     3
170
     0
171
     0
290
     0
174
     0
 93
       13
 44
0.0
173
     0
291
     0
 45
0.0
1001
ACAD
1000
AcDbSavedByObjectVersion
1070
     0
  0
DICTIONARYVAR
  5
204
102
{ACAD_REACTORS
330
1F6
102
}
330
1F6
100
DictionaryVariables
280
     0
  1
1:1
  0
DICTIONARYVAR
  5
1FD
102
{ACAD_REACTORS
330
1F6
102
}
330
1F6
100
DictionaryVariables
280
     0
  1
3.500000
  0
DICTIONARYVAR
  5
1FE
102
{ACAD_REACTORS
330
1F6
102
}
330
1F6
100
DictionaryVariables
280
     0
  1
acadiso.lin
  0
DICTIONARYVAR
  5
1F8
102
{ACAD_REACTORS
330
1F6
102
}
330
1F6
100
DictionaryVariables
280
     0
  1
STANDARD
  0
DICTIONARYVAR
  5
1F7
102
{ACAD_REACTORS
330
1F6
102
}
330
1F6
100
DictionaryVariables
280
     0
  1
STANDARD
  0
DICTIONARYVAR
  5
512
102
{ACAD_REACTORS
330
1F6
102
}
330
1F6
100
DictionaryVariables
280
     0
  1
Metric50
  0
DICTIONARYVAR
  5
513
102
{ACAD_REACTORS
330
1F6
102
}
330
1F6
100
DictionaryVariables
280
     0
  1
Metric50
  0
DICTIONARYVAR
  5
1FF
102
{ACAD_REACTORS
330
1F6
102
}
330
1F6
100
DictionaryVariables
280
     0
  1
2
  0
DICTIONARYVAR
  5
200
102
{ACAD_REACTORS
330
1F6
102
}
330
1F6
100
DictionaryVariables
280
     0
  1
1
  0
DICTIONARYVAR
  5
635
102
{ACAD_REACTORS
330
1F6
102
}
330
1F6
100
DictionaryVariables
280
     0
  1
0
  0
DICTIONARYVAR
  5
515
102
{ACAD_REACTORS
330
1F6
102
}
330
1F6
100
DictionaryVariables
280
     0
  1
1
  0
DICTIONARYVAR
  5
516
102
{ACAD_REACTORS
330
1F6
102
}
330
1F6
100
DictionaryVariables
280
     0
  1
15
  0
DICTIONARYVAR
  5
514
102
{ACAD_REACTORS
330
1F6
102
}
330
1F6
100
DictionaryVariables
280
     0
  1
0
  0
DICTIONARYVAR
  5
638
102
{ACAD_REACTORS
330
1F6
102
}
330
1F6
100
DictionaryVariables
280
     0
  1
1.570796
  0
DICTIONARYVAR
  5
639
102
{ACAD_REACTORS
330
1F6
102
}
330
1F6
100
DictionaryVariables
280
     0
  1
1.570796
  0
DICTIONARYVAR
  5
63A
102
{ACAD_REACTORS
330
1F6
102
}
330
1F6
100
DictionaryVariables
280
     0
  1
-122.394000
  0
DICTIONARYVAR
  5
205
102
{ACAD_REACTORS
330
1F6
102
}
330
1F6
100
DictionaryVariables
280
     0
  1
1
  0
DICTIONARYVAR
  5
637
102
{ACAD_REACTORS
330
1F6
102
}
330
1F6
100
DictionaryVariables
280
     0
  1
80.000000
  0
DICTIONARYVAR
  5
636
102
{ACAD_REACTORS
330
1F6
102
}
330
1F6
100
DictionaryVariables
280
     0
  1
5.000000
  0
DICTIONARYVAR
  5
634
102
{ACAD_REACTORS
330
1F6
102
}
330
1F6
100
DictionaryVariables
280
     0
  1
127
  0
DICTIONARYVAR
  5
63B
102
{ACAD_REACTORS
330
1F6
102
}
330
1F6
100
DictionaryVariables
280
     0
  1
2
  0
DICTIONARY
  5
676
330
245
100
AcDbDictionary
280
     1
281
     1
  3
ACAD_XREC_ROUNDTRIP
360
677
  0
DICTIONARY
  5
63F
330
1E
100
AcDbDictionary
280
     1
281
     1
  3
ACAD_XREC_ROUNDTRIP
360
640
  0
DICTIONARY
  5
641
330
22
100
AcDbDictionary
280
     1
281
     1
  3
ACAD_XREC_ROUNDTRIP
360
642
  0
DICTIONARY
  5
678
330
246
100
AcDbDictionary
280
     1
281
     1
  3
ACAD_XREC_ROUNDTRIP
360
679
  0
DICTIONARY
  5
238
330
45
100
AcDbDictionary
280
     1
281
     1
  3
ACAD_XREC_ROUNDTRIP
360
239
  0
DICTIONARY
  5
236
330
44
100
AcDbDictionary
280
     1
281
     1
  3
ACAD_XREC_ROUNDTRIP
360
237
  0
DICTIONARY
  5
23A
330
46
100
AcDbDictionary
280
     1
281
     1
  3
ACAD_XREC_ROUNDTRIP
360
23B
  0
DICTIONARY
  5
674
330
243
100
AcDbDictionary
280
     1
281
     1
  3
ACAD_XREC_ROUNDTRIP
360
675
  0
DICTIONARY
  5
5E6
330
5A
100
AcDbDictionary
280
     1
281
     1
  3
ACAD_ROUNDTRIP_2008_TABLESTYLE_CELLSTYLEMAP
360
63C
  3
ACAD_XREC_ROUNDTRIP
360
673
  0
DICTIONARY
  5
64B
330
2F
100
AcDbDictionary
280
     1
281
     1
  3
ACAD_XREC_ROUNDTRIP
360
64C
  0
DICTIONARY
  5
651
330
32
100
AcDbDictionary
280
     1
281
     1
  3
ACAD_XREC_ROUNDTRIP
360
652
  0
DICTIONARY
  5
659
330
36
100
AcDbDictionary
280
     1
281
     1
  3
ACAD_XREC_ROUNDTRIP
360
65A
  0
DICTIONARY
  5
661
330
3A
100
AcDbDictionary
280
     1
281
     1
  3
ACAD_XREC_ROUNDTRIP
360
662
  0
DICTIONARY
  5
655
330
34
100
AcDbDictionary
280
     1
281
     1
  3
ACAD_XREC_ROUNDTRIP
360
656
  0
DICTIONARY
  5
657
330
35
100
AcDbDictionary
280
     1
281
     1
  3
ACAD_XREC_ROUNDTRIP
360
658
  0
DICTIONARY
  5
667
330
3D
100
AcDbDictionary
280
     1
281
     1
  3
ACAD_XREC_ROUNDTRIP
360
668
  0
DICTIONARY
  5
65F
330
39
100
AcDbDictionary
280
     1
281
     1
  3
ACAD_XREC_ROUNDTRIP
360
660
  0
DICTIONARY
  5
643
330
2B
100
AcDbDictionary
280
     1
281
     1
  3
ACAD_XREC_ROUNDTRIP
360
644
  0
DICTIONARY
  5
645
330
2C
100
AcDbDictionary
280
     1
281
     1
  3
ACAD_XREC_ROUNDTRIP
360
646
  0
DICTIONARY
  5
647
330
2D
100
AcDbDictionary
280
     1
281
     1
  3
ACAD_XREC_ROUNDTRIP
360
648
  0
DICTIONARY
  5
649
330
2E
100
AcDbDictionary
280
     1
281
     1
  3
ACAD_XREC_ROUNDTRIP
360
64A
  0
DICTIONARY
  5
64F
330
31
100
AcDbDictionary
280
     1
281
     1
  3
ACAD_XREC_ROUNDTRIP
360
650
  0
DICTIONARY
  5
663
330
3B
100
AcDbDictionary
280
     1
281
     1
  3
ACAD_XREC_ROUNDTRIP
360
664
  0
DICTIONARY
  5
65D
330
38
100
AcDbDictionary
280
     1
281
     1
  3
ACAD_XREC_ROUNDTRIP
360
65E
  0
DICTIONARY
  5
665
330
3C
100
AcDbDictionary
280
     1
281
     1
  3
ACAD_XREC_ROUNDTRIP
360
666
  0
DICTIONARY
  5
653
330
33
100
AcDbDictionary
280
     1
281
     1
  3
ACAD_XREC_ROUNDTRIP
360
654
  0
DICTIONARY
  5
671
330
42
100
AcDbDictionary
280
     1
281
     1
  3
ACAD_XREC_ROUNDTRIP
360
672
  0
DICTIONARY
  5
66F
330
41
100
AcDbDictionary
280
     1
281
     1
  3
ACAD_XREC_ROUNDTRIP
360
670
  0
DICTIONARY
  5
669
330
3E
100
AcDbDictionary
280
     1
281
     1
  3
ACAD_XREC_ROUNDTRIP
360
66A
  0
DICTIONARY
  5
66B
330
3F
100
AcDbDictionary
280
     1
281
     1
  3
ACAD_XREC_ROUNDTRIP
360
66C
  0
DICTIONARY
  5
65B
330
37
100
AcDbDictionary
280
     1
281
     1
  3
ACAD_XREC_ROUNDTRIP
360
65C
  0
DICTIONARY
  5
64D
330
30
100
AcDbDictionary
280
     1
281
     1
  3
ACAD_XREC_ROUNDTRIP
360
64E
  0
DICTIONARY
  5
66D
330
40
100
AcDbDictionary
280
     1
281
     1
  3
ACAD_XREC_ROUNDTRIP
360
66E
  0
XRECORD
  5
677
102
{ACAD_REACTORS
330
676
102
}
330
676
100
AcDbXrecord
280
     1
102
DISPLAYNAME
  1
Metric50
102
FLAGS
 90
        0
  0
XRECORD
  5
640
102
{ACAD_REACTORS
330
63F
102
}
330
63F
100
AcDbXrecord
280
     1
102
SHADEPLOT
 70
     0
102
SHADEPLOTRESLEVEL
 70
     2
102
SHADEPLOTCUSTOMDPI
 70
   300
  0
XRECORD
  5
642
102
{ACAD_REACTORS
330
641
102
}
330
641
100
AcDbXrecord
280
     1
102
SHADEPLOT
 70
     0
102
SHADEPLOTRESLEVEL
 70
     2
102
SHADEPLOTCUSTOMDPI
 70
   300
  0
XRECORD
  5
679
102
{ACAD_REACTORS
330
678
102
}
330
678
100
AcDbXrecord
280
     1
102
SHADEPLOT
 70
     0
102
SHADEPLOTRESLEVEL
 70
     2
102
SHADEPLOTCUSTOMDPI
 70
   300
  0
XRECORD
  5
239
102
{ACAD_REACTORS
330
238
102
}
330
238
100
AcDbXrecord
280
     1
102
MATERIAL
148
0.0
149
0.0
149
0.0
 93
        0
 94
      127
282
     0
 72
     1
 77
     1
171
     1
175
     1
179
     1
273
     0
  0
XRECORD
  5
237
102
{ACAD_REACTORS
330
236
102
}
330
236
100
AcDbXrecord
280
     1
102
MATERIAL
148
0.0
149
0.0
149
0.0
 93
        0
 94
      127
282
     0
 72
     1
 77
     1
171
     1
175
     1
179
     1
273
     0
  0
XRECORD
  5
23B
102
{ACAD_REACTORS
330
23A
102
}
330
23A
100
AcDbXrecord
280
     1
102
MATERIAL
148
0.0
149
0.0
149
0.0
 93
        0
 94
      127
282
     0
 72
     1
 77
     1
171
     1
175
     1
179
     1
273
     0
  0
XRECORD
  5
675
102
{ACAD_REACTORS
330
674
102
}
330
674
100
AcDbXrecord
280
     1
102
DISPLAYNAME
  1
Metric50
102
FLAGS
 90
        0
  0
CELLSTYLEMAP
  5
63C
102
{ACAD_REACTORS
330
5E6
102
}
330
5E6
100
AcDbCellStyleMap
 90
        3
300
CELLSTYLE
  1
TABLEFORMAT_BEGIN
 90
        5
170
     1
 91
        0
 92
    32768
 62
   257
 93
        1
300
CONTENTFORMAT
  1
CONTENTFORMAT_BEGIN
 90
        0
 91
        0
 92
        4
 93
        0
300

 40
0.0
140
1.0
 94
        5
 62
     0
340
11
144
6.0
309
CONTENTFORMAT_END
171
     1
301
MARGIN
  1
CELLMARGIN_BEGIN
 40
1.5
 40
1.5
 40
1.5
 40
1.5
 40
0.18
 40
0.18
309
CELLMARGIN_END
 94
        6
 95
        1
302
GRIDFORMAT
  1
GRIDFORMAT_BEGIN
 90
        0
 91
        1
 62
     0
 92
       -2
340
0
 93
        0
 40
0.045
309
GRIDFORMAT_END
 95
        2
302
GRIDFORMAT
  1
GRIDFORMAT_BEGIN
 90
        0
 91
        1
 62
     0
 92
       -2
340
0
 93
        0
 40
0.045
309
GRIDFORMAT_END
 95
        4
302
GRIDFORMAT
  1
GRIDFORMAT_BEGIN
 90
        0
 91
        1
 62
     0
 92
       -2
340
0
 93
        0
 40
0.045
309
GRIDFORMAT_END
 95
        8
302
GRIDFORMAT
  1
GRIDFORMAT_BEGIN
 90
        0
 91
        1
 62
     0
 92
       -2
340
0
 93
        0
 40
0.045
309
GRIDFORMAT_END
 95
       16
302
GRIDFORMAT
  1
GRIDFORMAT_BEGIN
 90
        0
 91
        1
 62
     0
 92
       -2
340
0
 93
        0
 40
0.045
309
GRIDFORMAT_END
 95
       32
302
GRIDFORMAT
  1
GRIDFORMAT_BEGIN
 90
        0
 91
        1
 62
     0
 92
       -2
340
0
 93
        0
 40
0.045
309
GRIDFORMAT_END
309
TABLEFORMAT_END
  1
CELLSTYLE_BEGIN
 90
        1
 91
        1
300
_TITLE
309
CELLSTYLE_END
300
CELLSTYLE
  1
TABLEFORMAT_BEGIN
 90
        5
170
     1
 91
        0
 92
        0
 62
   257
 93
        1
300
CONTENTFORMAT
  1
CONTENTFORMAT_BEGIN
 90
        0
 91
        0
 92
        4
 93
        0
300

 40
0.0
140
1.0
 94
        5
 62
     0
340
11
144
4.5
309
CONTENTFORMAT_END
171
     1
301
MARGIN
  1
CELLMARGIN_BEGIN
 40
1.5
 40
1.5
 40
1.5
 40
1.5
 40
0.18
 40
0.18
309
CELLMARGIN_END
 94
        6
 95
        1
302
GRIDFORMAT
  1
GRIDFORMAT_BEGIN
 90
        0
 91
        1
 62
     0
 92
       -2
340
0
 93
        0
 40
0.045
309
GRIDFORMAT_END
 95
        2
302
GRIDFORMAT
  1
GRIDFORMAT_BEGIN
 90
        0
 91
        1
 62
     0
 92
       -2
340
0
 93
        0
 40
0.045
309
GRIDFORMAT_END
 95
        4
302
GRIDFORMAT
  1
GRIDFORMAT_BEGIN
 90
        0
 91
        1
 62
     0
 92
       -2
340
0
 93
        0
 40
0.045
309
GRIDFORMAT_END
 95
        8
302
GRIDFORMAT
  1
GRIDFORMAT_BEGIN
 90
        0
 91
        1
 62
     0
 92
       -2
340
0
 93
        0
 40
0.045
309
GRIDFORMAT_END
 95
       16
302
GRIDFORMAT
  1
GRIDFORMAT_BEGIN
 90
        0
 91
        1
 62
     0
 92
       -2
340
0
 93
        0
 40
0.045
309
GRIDFORMAT_END
 95
       32
302
GRIDFORMAT
  1
GRIDFORMAT_BEGIN
 90
        0
 91
        1
 62
     0
 92
       -2
340
0
 93
        0
 40
0.045
309
GRIDFORMAT_END
309
TABLEFORMAT_END
  1
CELLSTYLE_BEGIN
 90
        2
 91
        1
300
_HEADER
309
CELLSTYLE_END
300
CELLSTYLE
  1
TABLEFORMAT_BEGIN
 90
        5
170
     1
 91
        0
 92
        0
 62
   257
 93
        1
300
CONTENTFORMAT
  1
CONTENTFORMAT_BEGIN
 90
        0
 91
        0
 92
        4
 93
        0
300

 40
0.0
140
1.0
 94
        2
 62
     0
340
11
144
4.5
309
CONTENTFORMAT_END
171
     1
301
MARGIN
  1
CELLMARGIN_BEGIN
 40
1.5
 40
1.5
 40
1.5
 40
1.5
 40
0.18
 40
0.18
309
CELLMARGIN_END
 94
        6
 95
        1
302
GRIDFORMAT
  1
GRIDFORMAT_BEGIN
 90
        0
 91
        1
 62
     0
 92
       -2
340
0
 93
        0
 40
0.045
309
GRIDFORMAT_END
 95
        2
302
GRIDFORMAT
  1
GRIDFORMAT_BEGIN
 90
        0
 91
        1
 62
     0
 92
       -2
340
0
 93
        0
 40
0.045
309
GRIDFORMAT_END
 95
        4
302
GRIDFORMAT
  1
GRIDFORMAT_BEGIN
 90
        0
 91
        1
 62
     0
 92
       -2
340
0
 93
        0
 40
0.045
309
GRIDFORMAT_END
 95
        8
302
GRIDFORMAT
  1
GRIDFORMAT_BEGIN
 90
        0
 91
        1
 62
     0
 92
       -2
340
0
 93
        0
 40
0.045
309
GRIDFORMAT_END
 95
       16
302
GRIDFORMAT
  1
GRIDFORMAT_BEGIN
 90
        0
 91
        1
 62
     0
 92
       -2
340
0
 93
        0
 40
0.045
309
GRIDFORMAT_END
 95
       32
302
GRIDFORMAT
  1
GRIDFORMAT_BEGIN
 90
        0
 91
        1
 62
     0
 92
       -2
340
0
 93
        0
 40
0.045
309
GRIDFORMAT_END
309
TABLEFORMAT_END
  1
CELLSTYLE_BEGIN
 90
        3
 91
        2
300
_DATA
309
CELLSTYLE_END
  0
XRECORD
  5
673
102
{ACAD_REACTORS
330
5E6
102
}
330
5E6
100
AcDbXrecord
280
     1
102
ACAD_ROUNDTRIP_PRE2007_TABLESTYLE
 90
        4
 91
        0
  1

 92
        4
 93
        0
  2

 94
        4
 95
        0
  3

  0
XRECORD
  5
64C
102
{ACAD_REACTORS
330
64B
102
}
330
64B
100
AcDbXrecord
280
     1
102
RTVSPost2010Prop28
280
     1
102
RTVSPost2010PropOp28
 70
     1
102
RTVSPost2010Prop29
280
     1
102
RTVSPost2010PropOp29
 70
     1
102
RTVSPost2010Prop30
280
     0
102
RTVSPost2010PropOp30
 70
     1
102
RTVSPost2010Prop31
280
     0
102
RTVSPost2010PropOp31
 70
     1
102
RTVSPost2010Prop32
280
     0
102
RTVSPost2010PropOp32
 70
     1
102
RTVSPost2010Prop33
280
     0
102
RTVSPost2010PropOp33
 70
     1
102
RTVSPost2010Prop34
280
     0
102
RTVSPost2010PropOp34
 70
     1
102
RTVSPost2010Prop35
280
     0
102
RTVSPost2010PropOp35
 70
     1
102
RTVSPost2010Prop36
280
     0
102
RTVSPost2010PropOp36
 70
     1
102
RTVSPost2010Prop37
 90
       50
102
RTVSPost2010PropOp37
 70
     1
102
RTVSPost2010Prop38
140
0.0
102
RTVSPost2010PropOp38
 70
     1
102
RTVSPost2010Prop39
140
1.0
102
RTVSPost2010PropOp39
 70
     1
102
RTVSPost2010Prop40
 90
        0
102
RTVSPost2010PropOp40
 70
     1
102
RTVSPost2010Prop41ColorIndex
 90
       18
102
RTVSPost2010Prop41ColorRGB
 90
        0
102
RTVSPost2010PropOp41
 70
     1
102
RTVSPost2010Prop42
 90
       50
102
RTVSPost2010PropOp42
 70
     1
102
RTVSPost2010Prop43
 90
        3
102
RTVSPost2010PropOp43
 70
     1
102
RTVSPost2010Prop44ColorIndex
 90
        5
102
RTVSPost2010Prop44ColorRGB
 90
      255
102
RTVSPost2010PropOp44
 70
     1
102
RTVSPost2010Prop45
280
     0
102
RTVSPost2010PropOp45
 70
     1
102
RTVSPost2010Prop46
 90
       50
102
RTVSPost2010PropOp46
 70
     1
102
RTVSPost2010Prop47
 90
       50
102
RTVSPost2010PropOp47
 70
     1
102
RTVSPost2010Prop48
 90
       50
102
RTVSPost2010PropOp48
 70
     1
102
RTVSPost2010Prop49
280
     0
102
RTVSPost2010PropOp49
 70
     1
102
RTVSPost2010Prop50
 90
       50
102
RTVSPost2010PropOp50
 70
     1
102
RTVSPost2010Prop51ColorIndex
 90
      256
102
RTVSPost2010Prop51ColorRGB
 90
-16777216
102
RTVSPost2010PropOp51
 70
     0
102
RTVSPost2010Prop52
140
1.0
102
RTVSPost2010PropOp52
 70
     0
102
RTVSPost2010Prop53
 90
        2
102
RTVSPost2010PropOp53
 70
     1
102
RTVSPost2010Prop54
  1
strokes_ogs.tif
102
RTVSPost2010PropOp54
 70
     1
102
RTVSPost2010Prop55
280
     0
102
RTVSPost2010PropOp55
 70
     1
102
RTVSPost2010Prop56
140
1.0
102
RTVSPost2010PropOp56
 70
     1
102
RTVSPost2010Prop57
140
1.0
102
RTVSPost2010PropOp57
 70
     1
102
RTVSPropertyOp0
 70
     1
102
RTVSPropertyOp1
 70
     1
102
RTVSPropertyOp2
 70
     1
102
RTVSPropertyOp3
 70
     1
102
RTVSPropertyOp4
 70
     1
102
RTVSPropertyOp5
 70
     1
102
RTVSPropertyOp6
 70
     1
102
RTVSPropertyOp7
 70
     1
102
RTVSPropertyOp8
 70
     1
102
RTVSPropertyOp9
 70
     1
102
RTVSPropertyOp10
 70
     1
102
RTVSPropertyOp11
 70
     1
102
RTVSPropertyOp12
 70
     1
102
RTVSPropertyOp13
 70
     1
102
RTVSPropertyOp14
 70
     1
102
RTVSPropertyOp15
 70
     1
102
RTVSPropertyOp16
 70
     1
102
RTVSPropertyOp17
 70
     1
102
RTVSPropertyOp18
 70
     1
102
RTVSPropertyOp19
 70
     1
102
RTVSPropertyOp20
 70
     1
102
RTVSPropertyOp21
 70
     1
102
RTVSPropertyOp22
 70
     1
102
RTVSPropertyOp23
 70
     1
102
RTVSPropertyOp24
 70
     1
102
RTVSPropertyOp25
 70
     1
102
RTVSPropertyOp26
 70
     1
102
RTVSPropertyOp27
 70
     1
102
RTVSPropertyOp28
 70
     1
102
RTVSPropertyOp29
 70
     1
102
RTVSPropertyOp30
 70
     1
102
RTVSPropertyOp31
 70
     1
102
RTVSPropertyOp32
 70
     1
102
RTVSPropertyOp33
 70
     1
102
RTVSPropertyOp34
 70
     1
102
RTVSPropertyOp35
 70
     1
102
RTVSPropertyOp36
 70
     1
102
RTVSPropertyOp37
 70
     1
102
RTVSPropertyOp38
 70
     1
102
RTVSPropertyOp39
 70
     1
102
RTVSPropertyOp40
 70
     1
102
RTVSPropertyOp41
 70
     1
102
RTVSPropertyOp42
 70
     1
102
RTVSPropertyOp43
 70
     1
102
RTVSPropertyOp44
 70
     1
102
RTVSPropertyOp45
 70
     1
102
RTVSPropertyOp46
 70
     1
102
RTVSPropertyOp47
 70
     1
102
RTVSPropertyOp48
 70
     1
102
RTVSPropertyOp49
 70
     1
102
RTVSPropertyOp50
 70
     1
102
RTVSPropertyOp51
 70
     0
102
RTVSPropertyOp52
 70
     0
102
RTVSPropertyOp53
 70
     1
102
RTVSPropertyOp54
 70
     1
102
RTVSPropertyOp55
 70
     1
102
RTVSPropertyOp56
 70
     1
102
RTVSPropertyOp57
 70
     1
102
RTVSPropertyOp58
 70
     1
102
RTVSPropertyOp59
 70
     1
102
RTVSPropertyOp60
 70
     1
102
RTVSPropertyOp61
 70
     1
102
RTVSPropertyOp62
 70
     1
  0
XRECORD
  5
652
102
{ACAD_REACTORS
330
651
102
}
330
651
100
AcDbXrecord
280
     1
102
RTVSPost2010Prop28
280
     0
102
RTVSPost2010PropOp28
 70
     1
102
RTVSPost2010Prop29
280
     1
102
RTVSPost2010PropOp29
 70
     1
102
RTVSPost2010Prop30
280
     1
102
RTVSPost2010PropOp30
 70
     1
102
RTVSPost2010Prop31
280
     0
102
RTVSPost2010PropOp31
 70
     1
102
RTVSPost2010Prop32
280
     0
102
RTVSPost2010PropOp32
 70
     1
102
RTVSPost2010Prop33
280
     0
102
RTVSPost2010PropOp33
 70
     1
102
RTVSPost2010Prop34
280
     0
102
RTVSPost2010PropOp34
 70
     1
102
RTVSPost2010Prop35
280
     0
102
RTVSPost2010PropOp35
 70
     1
102
RTVSPost2010Prop36
280
     0
102
RTVSPost2010PropOp36
 70
     1
102
RTVSPost2010Prop37
 90
       50
102
RTVSPost2010PropOp37
 70
     1
102
RTVSPost2010Prop38
140
0.0
102
RTVSPost2010PropOp38
 70
     1
102
RTVSPost2010Prop39
140
1.0
102
RTVSPost2010PropOp39
 70
     1
102
RTVSPost2010Prop40
 90
        0
102
RTVSPost2010PropOp40
 70
     1
102
RTVSPost2010Prop41ColorIndex
 90
       18
102
RTVSPost2010Prop41ColorRGB
 90
        0
102
RTVSPost2010PropOp41
 70
     1
102
RTVSPost2010Prop42
 90
       50
102
RTVSPost2010PropOp42
 70
     1
102
RTVSPost2010Prop43
 90
        3
102
RTVSPost2010PropOp43
 70
     1
102
RTVSPost2010Prop44ColorIndex
 90
        5
102
RTVSPost2010Prop44ColorRGB
 90
      255
102
RTVSPost2010PropOp44
 70
     1
102
RTVSPost2010Prop45
280
     0
102
RTVSPost2010PropOp45
 70
     1
102
RTVSPost2010Prop46
 90
       50
102
RTVSPost2010PropOp46
 70
     1
102
RTVSPost2010Prop47
 90
       50
102
RTVSPost2010PropOp47
 70
     1
102
RTVSPost2010Prop48
 90
       50
102
RTVSPost2010PropOp48
 70
     1
102
RTVSPost2010Prop49
280
     0
102
RTVSPost2010PropOp49
 70
     1
102
RTVSPost2010Prop50
 90
       50
102
RTVSPost2010PropOp50
 70
     1
102
RTVSPost2010Prop51ColorIndex
 90
      256
102
RTVSPost2010Prop51ColorRGB
 90
-16777216
102
RTVSPost2010PropOp51
 70
     0
102
RTVSPost2010Prop52
140
1.0
102
RTVSPost2010PropOp52
 70
     0
102
RTVSPost2010Prop53
 90
        2
102
RTVSPost2010PropOp53
 70
     1
102
RTVSPost2010Prop54
  1
strokes_ogs.tif
102
RTVSPost2010PropOp54
 70
     1
102
RTVSPost2010Prop55
280
     0
102
RTVSPost2010PropOp55
 70
     1
102
RTVSPost2010Prop56
140
1.0
102
RTVSPost2010PropOp56
 70
     1
102
RTVSPost2010Prop57
140
1.0
102
RTVSPost2010PropOp57
 70
     1
102
RTVSPropertyOp0
 70
     1
102
RTVSPropertyOp1
 70
     1
102
RTVSPropertyOp2
 70
     1
102
RTVSPropertyOp3
 70
     1
102
RTVSPropertyOp4
 70
     1
102
RTVSPropertyOp5
 70
     1
102
RTVSPropertyOp6
 70
     1
102
RTVSPropertyOp7
 70
     1
102
RTVSPropertyOp8
 70
     1
102
RTVSPropertyOp9
 70
     1
102
RTVSPropertyOp10
 70
     1
102
RTVSPropertyOp11
 70
     1
102
RTVSPropertyOp12
 70
     1
102
RTVSPropertyOp13
 70
     1
102
RTVSPropertyOp14
 70
     1
102
RTVSPropertyOp15
 70
     1
102
RTVSPropertyOp16
 70
     1
102
RTVSPropertyOp17
 70
     1
102
RTVSPropertyOp18
 70
     1
102
RTVSPropertyOp19
 70
     1
102
RTVSPropertyOp20
 70
     1
102
RTVSPropertyOp21
 70
     1
102
RTVSPropertyOp22
 70
     1
102
RTVSPropertyOp23
 70
     1
102
RTVSPropertyOp24
 70
     1
102
RTVSPropertyOp25
 70
     1
102
RTVSPropertyOp26
 70
     1
102
RTVSPropertyOp27
 70
     1
102
RTVSPropertyOp28
 70
     1
102
RTVSPropertyOp29
 70
     1
102
RTVSPropertyOp30
 70
     1
102
RTVSPropertyOp31
 70
     1
102
RTVSPropertyOp32
 70
     1
102
RTVSPropertyOp33
 70
     1
102
RTVSPropertyOp34
 70
     1
102
RTVSPropertyOp35
 70
     1
102
RTVSPropertyOp36
 70
     1
102
RTVSPropertyOp37
 70
     1
102
RTVSPropertyOp38
 70
     1
102
RTVSPropertyOp39
 70
     1
102
RTVSPropertyOp40
 70
     1
102
RTVSPropertyOp41
 70
     1
102
RTVSPropertyOp42
 70
     1
102
RTVSPropertyOp43
 70
     1
102
RTVSPropertyOp44
 70
     1
102
RTVSPropertyOp45
 70
     1
102
RTVSPropertyOp46
 70
     1
102
RTVSPropertyOp47
 70
     1
102
RTVSPropertyOp48
 70
     1
102
RTVSPropertyOp49
 70
     1
102
RTVSPropertyOp50
 70
     1
102
RTVSPropertyOp51
 70
     0
102
RTVSPropertyOp52
 70
     0
102
RTVSPropertyOp53
 70
     1
102
RTVSPropertyOp54
 70
     1
102
RTVSPropertyOp55
 70
     1
102
RTVSPropertyOp56
 70
     1
102
RTVSPropertyOp57
 70
     1
102
RTVSPropertyOp58
 70
     1
102
RTVSPropertyOp59
 70
     1
102
RTVSPropertyOp60
 70
     1
102
RTVSPropertyOp61
 70
     1
102
RTVSPropertyOp62
 70
     1
  0
XRECORD
  5
65A
102
{ACAD_REACTORS
330
659
102
}
330
659
100
AcDbXrecord
280
     1
102
RTVSPost2010Prop28
280
     0
102
RTVSPost2010PropOp28
 70
     1
102
RTVSPost2010Prop29
280
     1
102
RTVSPost2010PropOp29
 70
     1
102
RTVSPost2010Prop30
280
     1
102
RTVSPost2010PropOp30
 70
     1
102
RTVSPost2010Prop31
280
     0
102
RTVSPost2010PropOp31
 70
     1
102
RTVSPost2010Prop32
280
     0
102
RTVSPost2010PropOp32
 70
     1
102
RTVSPost2010Prop33
280
     0
102
RTVSPost2010PropOp33
 70
     1
102
RTVSPost2010Prop34
280
     0
102
RTVSPost2010PropOp34
 70
     1
102
RTVSPost2010Prop35
280
     0
102
RTVSPost2010PropOp35
 70
     1
102
RTVSPost2010Prop36
280
     0
102
RTVSPost2010PropOp36
 70
     1
102
RTVSPost2010Prop37
 90
       50
102
RTVSPost2010PropOp37
 70
     1
102
RTVSPost2010Prop38
140
0.0
102
RTVSPost2010PropOp38
 70
     1
102
RTVSPost2010Prop39
140
1.0
102
RTVSPost2010PropOp39
 70
     1
102
RTVSPost2010Prop40
 90
        0
102
RTVSPost2010PropOp40
 70
     1
102
RTVSPost2010Prop41ColorIndex
 90
       18
102
RTVSPost2010Prop41ColorRGB
 90
        0
102
RTVSPost2010PropOp41
 70
     1
102
RTVSPost2010Prop42
 90
       50
102
RTVSPost2010PropOp42
 70
     1
102
RTVSPost2010Prop43
 90
        3
102
RTVSPost2010PropOp43
 70
     1
102
RTVSPost2010Prop44ColorIndex
 90
        5
102
RTVSPost2010Prop44ColorRGB
 90
      255
102
RTVSPost2010PropOp44
 70
     1
102
RTVSPost2010Prop45
280
     0
102
RTVSPost2010PropOp45
 70
     1
102
RTVSPost2010Prop46
 90
       50
102
RTVSPost2010PropOp46
 70
     1
102
RTVSPost2010Prop47
 90
       50
102
RTVSPost2010PropOp47
 70
     1
102
RTVSPost2010Prop48
 90
       50
102
RTVSPost2010PropOp48
 70
     1
102
RTVSPost2010Prop49
280
     0
102
RTVSPost2010PropOp49
 70
     1
102
RTVSPost2010Prop50
 90
       50
102
RTVSPost2010PropOp50
 70
     1
102
RTVSPost2010Prop51ColorIndex
 90
      256
102
RTVSPost2010Prop51ColorRGB
 90
-16777216
102
RTVSPost2010PropOp51
 70
     0
102
RTVSPost2010Prop52
140
1.0
102
RTVSPost2010PropOp52
 70
     0
102
RTVSPost2010Prop53
 90
        2
102
RTVSPost2010PropOp53
 70
     1
102
RTVSPost2010Prop54
  1
strokes_ogs.tif
102
RTVSPost2010PropOp54
 70
     1
102
RTVSPost2010Prop55
280
     0
102
RTVSPost2010PropOp55
 70
     1
102
RTVSPost2010Prop56
140
1.0
102
RTVSPost2010PropOp56
 70
     1
102
RTVSPost2010Prop57
140
1.0
102
RTVSPost2010PropOp57
 70
     1
102
RTVSPropertyOp0
 70
     1
102
RTVSPropertyOp1
 70
     1
102
RTVSPropertyOp2
 70
     1
102
RTVSPropertyOp3
 70
     1
102
RTVSPropertyOp4
 70
     1
102
RTVSPropertyOp5
 70
     1
102
RTVSPropertyOp6
 70
     1
102
RTVSPropertyOp7
 70
     1
102
RTVSPropertyOp8
 70
     1
102
RTVSPropertyOp9
 70
     1
102
RTVSPropertyOp10
 70
     1
102
RTVSPropertyOp11
 70
     1
102
RTVSPropertyOp12
 70
     1
102
RTVSPropertyOp13
 70
     1
102
RTVSPropertyOp14
 70
     1
102
RTVSPropertyOp15
 70
     1
102
RTVSPropertyOp16
 70
     1
102
RTVSPropertyOp17
 70
     1
102
RTVSPropertyOp18
 70
     1
102
RTVSPropertyOp19
 70
     1
102
RTVSPropertyOp20
 70
     1
102
RTVSPropertyOp21
 70
     1
102
RTVSPropertyOp22
 70
     1
102
RTVSPropertyOp23
 70
     1
102
RTVSPropertyOp24
 70
     1
102
RTVSPropertyOp25
 70
     1
102
RTVSPropertyOp26
 70
     1
102
RTVSPropertyOp27
 70
     1
102
RTVSPropertyOp28
 70
     1
102
RTVSPropertyOp29
 70
     1
102
RTVSPropertyOp30
 70
     1
102
RTVSPropertyOp31
 70
     1
102
RTVSPropertyOp32
 70
     1
102
RTVSPropertyOp33
 70
     1
102
RTVSPropertyOp34
 70
     1
102
RTVSPropertyOp35
 70
     1
102
RTVSPropertyOp36
 70
     1
102
RTVSPropertyOp37
 70
     1
102
RTVSPropertyOp38
 70
     1
102
RTVSPropertyOp39
 70
     1
102
RTVSPropertyOp40
 70
     1
102
RTVSPropertyOp41
 70
     1
102
RTVSPropertyOp42
 70
     1
102
RTVSPropertyOp43
 70
     1
102
RTVSPropertyOp44
 70
     1
102
RTVSPropertyOp45
 70
     1
102
RTVSPropertyOp46
 70
     1
102
RTVSPropertyOp47
 70
     1
102
RTVSPropertyOp48
 70
     1
102
RTVSPropertyOp49
 70
     1
102
RTVSPropertyOp50
 70
     1
102
RTVSPropertyOp51
 70
     0
102
RTVSPropertyOp52
 70
     0
102
RTVSPropertyOp53
 70
     1
102
RTVSPropertyOp54
 70
     1
102
RTVSPropertyOp55
 70
     1
102
RTVSPropertyOp56
 70
     1
102
RTVSPropertyOp57
 70
     1
102
RTVSPropertyOp58
 70
     1
102
RTVSPropertyOp59
 70
     1
102
RTVSPropertyOp60
 70
     1
102
RTVSPropertyOp61
 70
     1
102
RTVSPropertyOp62
 70
     1
  0
XRECORD
  5
662
102
{ACAD_REACTORS
330
661
102
}
330
661
100
AcDbXrecord
280
     1
102
RTVSPost2010Prop28
280
     0
102
RTVSPost2010PropOp28
 70
     1
102
RTVSPost2010Prop29
280
     1
102
RTVSPost2010PropOp29
 70
     1
102
RTVSPost2010Prop30
280
     1
102
RTVSPost2010PropOp30
 70
     1
102
RTVSPost2010Prop31
280
     0
102
RTVSPost2010PropOp31
 70
     1
102
RTVSPost2010Prop32
280
     0
102
RTVSPost2010PropOp32
 70
     1
102
RTVSPost2010Prop33
280
     0
102
RTVSPost2010PropOp33
 70
     1
102
RTVSPost2010Prop34
280
     0
102
RTVSPost2010PropOp34
 70
     1
102
RTVSPost2010Prop35
280
     0
102
RTVSPost2010PropOp35
 70
     1
102
RTVSPost2010Prop36
280
     0
102
RTVSPost2010PropOp36
 70
     1
102
RTVSPost2010Prop37
 90
       50
102
RTVSPost2010PropOp37
 70
     1
102
RTVSPost2010Prop38
140
0.0
102
RTVSPost2010PropOp38
 70
     1
102
RTVSPost2010Prop39
140
1.0
102
RTVSPost2010PropOp39
 70
     1
102
RTVSPost2010Prop40
 90
        0
102
RTVSPost2010PropOp40
 70
     1
102
RTVSPost2010Prop41ColorIndex
 90
       18
102
RTVSPost2010Prop41ColorRGB
 90
        0
102
RTVSPost2010PropOp41
 70
     1
102
RTVSPost2010Prop42
 90
       50
102
RTVSPost2010PropOp42
 70
     1
102
RTVSPost2010Prop43
 90
        3
102
RTVSPost2010PropOp43
 70
     1
102
RTVSPost2010Prop44ColorIndex
 90
        5
102
RTVSPost2010Prop44ColorRGB
 90
      255
102
RTVSPost2010PropOp44
 70
     1
102
RTVSPost2010Prop45
280
     0
102
RTVSPost2010PropOp45
 70
     1
102
RTVSPost2010Prop46
 90
       50
102
RTVSPost2010PropOp46
 70
     1
102
RTVSPost2010Prop47
 90
       50
102
RTVSPost2010PropOp47
 70
     1
102
RTVSPost2010Prop48
 90
       50
102
RTVSPost2010PropOp48
 70
     1
102
RTVSPost2010Prop49
280
     0
102
RTVSPost2010PropOp49
 70
     1
102
RTVSPost2010Prop50
 90
       50
102
RTVSPost2010PropOp50
 70
     1
102
RTVSPost2010Prop51ColorIndex
 90
      256
102
RTVSPost2010Prop51ColorRGB
 90
-16777216
102
RTVSPost2010PropOp51
 70
     0
102
RTVSPost2010Prop52
140
1.0
102
RTVSPost2010PropOp52
 70
     0
102
RTVSPost2010Prop53
 90
        2
102
RTVSPost2010PropOp53
 70
     1
102
RTVSPost2010Prop54
  1
strokes_ogs.tif
102
RTVSPost2010PropOp54
 70
     1
102
RTVSPost2010Prop55
280
     0
102
RTVSPost2010PropOp55
 70
     1
102
RTVSPost2010Prop56
140
1.0
102
RTVSPost2010PropOp56
 70
     1
102
RTVSPost2010Prop57
140
1.0
102
RTVSPost2010PropOp57
 70
     1
102
RTVSPropertyOp0
 70
     1
102
RTVSPropertyOp1
 70
     1
102
RTVSPropertyOp2
 70
     1
102
RTVSPropertyOp3
 70
     1
102
RTVSPropertyOp4
 70
     1
102
RTVSPropertyOp5
 70
     1
102
RTVSPropertyOp6
 70
     1
102
RTVSPropertyOp7
 70
     1
102
RTVSPropertyOp8
 70
     1
102
RTVSPropertyOp9
 70
     1
102
RTVSPropertyOp10
 70
     1
102
RTVSPropertyOp11
 70
     1
102
RTVSPropertyOp12
 70
     1
102
RTVSPropertyOp13
 70
     1
102
RTVSPropertyOp14
 70
     1
102
RTVSPropertyOp15
 70
     1
102
RTVSPropertyOp16
 70
     1
102
RTVSPropertyOp17
 70
     1
102
RTVSPropertyOp18
 70
     1
102
RTVSPropertyOp19
 70
     1
102
RTVSPropertyOp20
 70
     1
102
RTVSPropertyOp21
 70
     1
102
RTVSPropertyOp22
 70
     1
102
RTVSPropertyOp23
 70
     1
102
RTVSPropertyOp24
 70
     1
102
RTVSPropertyOp25
 70
     1
102
RTVSPropertyOp26
 70
     1
102
RTVSPropertyOp27
 70
     1
102
RTVSPropertyOp28
 70
     1
102
RTVSPropertyOp29
 70
     1
102
RTVSPropertyOp30
 70
     1
102
RTVSPropertyOp31
 70
     1
102
RTVSPropertyOp32
 70
     1
102
RTVSPropertyOp33
 70
     1
102
RTVSPropertyOp34
 70
     1
102
RTVSPropertyOp35
 70
     1
102
RTVSPropertyOp36
 70
     1
102
RTVSPropertyOp37
 70
     1
102
RTVSPropertyOp38
 70
     1
102
RTVSPropertyOp39
 70
     1
102
RTVSPropertyOp40
 70
     1
102
RTVSPropertyOp41
 70
     1
102
RTVSPropertyOp42
 70
     1
102
RTVSPropertyOp43
 70
     1
102
RTVSPropertyOp44
 70
     1
102
RTVSPropertyOp45
 70
     1
102
RTVSPropertyOp46
 70
     1
102
RTVSPropertyOp47
 70
     1
102
RTVSPropertyOp48
 70
     1
102
RTVSPropertyOp49
 70
     1
102
RTVSPropertyOp50
 70
     1
102
RTVSPropertyOp51
 70
     0
102
RTVSPropertyOp52
 70
     0
102
RTVSPropertyOp53
 70
     1
102
RTVSPropertyOp54
 70
     1
102
RTVSPropertyOp55
 70
     1
102
RTVSPropertyOp56
 70
     1
102
RTVSPropertyOp57
 70
     1
102
RTVSPropertyOp58
 70
     1
102
RTVSPropertyOp59
 70
     1
102
RTVSPropertyOp60
 70
     1
102
RTVSPropertyOp61
 70
     1
102
RTVSPropertyOp62
 70
     1
  0
XRECORD
  5
656
102
{ACAD_REACTORS
330
655
102
}
330
655
100
AcDbXrecord
280
     1
102
RTVSPost2010Prop28
280
     0
102
RTVSPost2010PropOp28
 70
     1
102
RTVSPost2010Prop29
280
     1
102
RTVSPost2010PropOp29
 70
     1
102
RTVSPost2010Prop30
280
     1
102
RTVSPost2010PropOp30
 70
     1
102
RTVSPost2010Prop31
280
     0
102
RTVSPost2010PropOp31
 70
     1
102
RTVSPost2010Prop32
280
     0
102
RTVSPost2010PropOp32
 70
     1
102
RTVSPost2010Prop33
280
     0
102
RTVSPost2010PropOp33
 70
     1
102
RTVSPost2010Prop34
280
     0
102
RTVSPost2010PropOp34
 70
     1
102
RTVSPost2010Prop35
280
     0
102
RTVSPost2010PropOp35
 70
     1
102
RTVSPost2010Prop36
280
     0
102
RTVSPost2010PropOp36
 70
     1
102
RTVSPost2010Prop37
 90
       50
102
RTVSPost2010PropOp37
 70
     1
102
RTVSPost2010Prop38
140
0.0
102
RTVSPost2010PropOp38
 70
     1
102
RTVSPost2010Prop39
140
1.0
102
RTVSPost2010PropOp39
 70
     1
102
RTVSPost2010Prop40
 90
        0
102
RTVSPost2010PropOp40
 70
     1
102
RTVSPost2010Prop41ColorIndex
 90
       18
102
RTVSPost2010Prop41ColorRGB
 90
        0
102
RTVSPost2010PropOp41
 70
     1
102
RTVSPost2010Prop42
 90
       50
102
RTVSPost2010PropOp42
 70
     1
102
RTVSPost2010Prop43
 90
        3
102
RTVSPost2010PropOp43
 70
     1
102
RTVSPost2010Prop44ColorIndex
 90
        5
102
RTVSPost2010Prop44ColorRGB
 90
      255
102
RTVSPost2010PropOp44
 70
     1
102
RTVSPost2010Prop45
280
     0
102
RTVSPost2010PropOp45
 70
     1
102
RTVSPost2010Prop46
 90
       50
102
RTVSPost2010PropOp46
 70
     1
102
RTVSPost2010Prop47
 90
       50
102
RTVSPost2010PropOp47
 70
     1
102
RTVSPost2010Prop48
 90
       50
102
RTVSPost2010PropOp48
 70
     1
102
RTVSPost2010Prop49
280
     0
102
RTVSPost2010PropOp49
 70
     1
102
RTVSPost2010Prop50
 90
       50
102
RTVSPost2010PropOp50
 70
     1
102
RTVSPost2010Prop51ColorIndex
 90
      256
102
RTVSPost2010Prop51ColorRGB
 90
-16777216
102
RTVSPost2010PropOp51
 70
     0
102
RTVSPost2010Prop52
140
1.0
102
RTVSPost2010PropOp52
 70
     0
102
RTVSPost2010Prop53
 90
        2
102
RTVSPost2010PropOp53
 70
     1
102
RTVSPost2010Prop54
  1
strokes_ogs.tif
102
RTVSPost2010PropOp54
 70
     1
102
RTVSPost2010Prop55
280
     0
102
RTVSPost2010PropOp55
 70
     1
102
RTVSPost2010Prop56
140
1.0
102
RTVSPost2010PropOp56
 70
     1
102
RTVSPost2010Prop57
140
1.0
102
RTVSPost2010PropOp57
 70
     1
102
RTVSPropertyOp0
 70
     1
102
RTVSPropertyOp1
 70
     1
102
RTVSPropertyOp2
 70
     1
102
RTVSPropertyOp3
 70
     1
102
RTVSPropertyOp4
 70
     1
102
RTVSPropertyOp5
 70
     1
102
RTVSPropertyOp6
 70
     1
102
RTVSPropertyOp7
 70
     1
102
RTVSPropertyOp8
 70
     1
102
RTVSPropertyOp9
 70
     1
102
RTVSPropertyOp10
 70
     1
102
RTVSPropertyOp11
 70
     1
102
RTVSPropertyOp12
 70
     1
102
RTVSPropertyOp13
 70
     1
102
RTVSPropertyOp14
 70
     1
102
RTVSPropertyOp15
 70
     1
102
RTVSPropertyOp16
 70
     1
102
RTVSPropertyOp17
 70
     1
102
RTVSPropertyOp18
 70
     1
102
RTVSPropertyOp19
 70
     1
102
RTVSPropertyOp20
 70
     1
102
RTVSPropertyOp21
 70
     1
102
RTVSPropertyOp22
 70
     1
102
RTVSPropertyOp23
 70
     1
102
RTVSPropertyOp24
 70
     1
102
RTVSPropertyOp25
 70
     1
102
RTVSPropertyOp26
 70
     1
102
RTVSPropertyOp27
 70
     1
102
RTVSPropertyOp28
 70
     1
102
RTVSPropertyOp29
 70
     1
102
RTVSPropertyOp30
 70
     1
102
RTVSPropertyOp31
 70
     1
102
RTVSPropertyOp32
 70
     1
102
RTVSPropertyOp33
 70
     1
102
RTVSPropertyOp34
 70
     1
102
RTVSPropertyOp35
 70
     1
102
RTVSPropertyOp36
 70
     1
102
RTVSPropertyOp37
 70
     1
102
RTVSPropertyOp38
 70
     1
102
RTVSPropertyOp39
 70
     1
102
RTVSPropertyOp40
 70
     1
102
RTVSPropertyOp41
 70
     1
102
RTVSPropertyOp42
 70
     1
102
RTVSPropertyOp43
 70
     1
102
RTVSPropertyOp44
 70
     1
102
RTVSPropertyOp45
 70
     1
102
RTVSPropertyOp46
 70
     1
102
RTVSPropertyOp47
 70
     1
102
RTVSPropertyOp48
 70
     1
102
RTVSPropertyOp49
 70
     1
102
RTVSPropertyOp50
 70
     1
102
RTVSPropertyOp51
 70
     0
102
RTVSPropertyOp52
 70
     0
102
RTVSPropertyOp53
 70
     1
102
RTVSPropertyOp54
 70
     1
102
RTVSPropertyOp55
 70
     1
102
RTVSPropertyOp56
 70
     1
102
RTVSPropertyOp57
 70
     1
102
RTVSPropertyOp58
 70
     1
102
RTVSPropertyOp59
 70
     1
102
RTVSPropertyOp60
 70
     1
102
RTVSPropertyOp61
 70
     1
102
RTVSPropertyOp62
 70
     1
  0
XRECORD
  5
658
102
{ACAD_REACTORS
330
657
102
}
330
657
100
AcDbXrecord
280
     1
102
RTVSPost2010Prop28
280
     0
102
RTVSPost2010PropOp28
 70
     1
102
RTVSPost2010Prop29
280
     1
102
RTVSPost2010PropOp29
 70
     1
102
RTVSPost2010Prop30
280
     1
102
RTVSPost2010PropOp30
 70
     1
102
RTVSPost2010Prop31
280
     0
102
RTVSPost2010PropOp31
 70
     1
102
RTVSPost2010Prop32
280
     0
102
RTVSPost2010PropOp32
 70
     1
102
RTVSPost2010Prop33
280
     0
102
RTVSPost2010PropOp33
 70
     1
102
RTVSPost2010Prop34
280
     0
102
RTVSPost2010PropOp34
 70
     1
102
RTVSPost2010Prop35
280
     0
102
RTVSPost2010PropOp35
 70
     1
102
RTVSPost2010Prop36
280
     0
102
RTVSPost2010PropOp36
 70
     1
102
RTVSPost2010Prop37
 90
       50
102
RTVSPost2010PropOp37
 70
     1
102
RTVSPost2010Prop38
140
0.0
102
RTVSPost2010PropOp38
 70
     1
102
RTVSPost2010Prop39
140
1.0
102
RTVSPost2010PropOp39
 70
     1
102
RTVSPost2010Prop40
 90
        0
102
RTVSPost2010PropOp40
 70
     1
102
RTVSPost2010Prop41ColorIndex
 90
       18
102
RTVSPost2010Prop41ColorRGB
 90
        0
102
RTVSPost2010PropOp41
 70
     1
102
RTVSPost2010Prop42
 90
       50
102
RTVSPost2010PropOp42
 70
     1
102
RTVSPost2010Prop43
 90
        3
102
RTVSPost2010PropOp43
 70
     1
102
RTVSPost2010Prop44ColorIndex
 90
        5
102
RTVSPost2010Prop44ColorRGB
 90
      255
102
RTVSPost2010PropOp44
 70
     1
102
RTVSPost2010Prop45
280
     0
102
RTVSPost2010PropOp45
 70
     1
102
RTVSPost2010Prop46
 90
       50
102
RTVSPost2010PropOp46
 70
     1
102
RTVSPost2010Prop47
 90
       50
102
RTVSPost2010PropOp47
 70
     1
102
RTVSPost2010Prop48
 90
       50
102
RTVSPost2010PropOp48
 70
     1
102
RTVSPost2010Prop49
280
     0
102
RTVSPost2010PropOp49
 70
     1
102
RTVSPost2010Prop50
 90
       50
102
RTVSPost2010PropOp50
 70
     1
102
RTVSPost2010Prop51ColorIndex
 90
      256
102
RTVSPost2010Prop51ColorRGB
 90
-16777216
102
RTVSPost2010PropOp51
 70
     0
102
RTVSPost2010Prop52
140
1.0
102
RTVSPost2010PropOp52
 70
     0
102
RTVSPost2010Prop53
 90
        2
102
RTVSPost2010PropOp53
 70
     1
102
RTVSPost2010Prop54
  1
strokes_ogs.tif
102
RTVSPost2010PropOp54
 70
     1
102
RTVSPost2010Prop55
280
     0
102
RTVSPost2010PropOp55
 70
     1
102
RTVSPost2010Prop56
140
1.0
102
RTVSPost2010PropOp56
 70
     1
102
RTVSPost2010Prop57
140
1.0
102
RTVSPost2010PropOp57
 70
     1
102
RTVSPropertyOp0
 70
     1
102
RTVSPropertyOp1
 70
     1
102
RTVSPropertyOp2
 70
     1
102
RTVSPropertyOp3
 70
     1
102
RTVSPropertyOp4
 70
     1
102
RTVSPropertyOp5
 70
     1
102
RTVSPropertyOp6
 70
     1
102
RTVSPropertyOp7
 70
     1
102
RTVSPropertyOp8
 70
     1
102
RTVSPropertyOp9
 70
     1
102
RTVSPropertyOp10
 70
     1
102
RTVSPropertyOp11
 70
     1
102
RTVSPropertyOp12
 70
     1
102
RTVSPropertyOp13
 70
     1
102
RTVSPropertyOp14
 70
     1
102
RTVSPropertyOp15
 70
     1
102
RTVSPropertyOp16
 70
     1
102
RTVSPropertyOp17
 70
     1
102
RTVSPropertyOp18
 70
     1
102
RTVSPropertyOp19
 70
     1
102
RTVSPropertyOp20
 70
     1
102
RTVSPropertyOp21
 70
     1
102
RTVSPropertyOp22
 70
     1
102
RTVSPropertyOp23
 70
     1
102
RTVSPropertyOp24
 70
     1
102
RTVSPropertyOp25
 70
     1
102
RTVSPropertyOp26
 70
     1
102
RTVSPropertyOp27
 70
     1
102
RTVSPropertyOp28
 70
     1
102
RTVSPropertyOp29
 70
     1
102
RTVSPropertyOp30
 70
     1
102
RTVSPropertyOp31
 70
     1
102
RTVSPropertyOp32
 70
     1
102
RTVSPropertyOp33
 70
     1
102
RTVSPropertyOp34
 70
     1
102
RTVSPropertyOp35
 70
     1
102
RTVSPropertyOp36
 70
     1
102
RTVSPropertyOp37
 70
     1
102
RTVSPropertyOp38
 70
     1
102
RTVSPropertyOp39
 70
     1
102
RTVSPropertyOp40
 70
     1
102
RTVSPropertyOp41
 70
     1
102
RTVSPropertyOp42
 70
     1
102
RTVSPropertyOp43
 70
     1
102
RTVSPropertyOp44
 70
     1
102
RTVSPropertyOp45
 70
     1
102
RTVSPropertyOp46
 70
     1
102
RTVSPropertyOp47
 70
     1
102
RTVSPropertyOp48
 70
     1
102
RTVSPropertyOp49
 70
     1
102
RTVSPropertyOp50
 70
     1
102
RTVSPropertyOp51
 70
     0
102
RTVSPropertyOp52
 70
     0
102
RTVSPropertyOp53
 70
     1
102
RTVSPropertyOp54
 70
     1
102
RTVSPropertyOp55
 70
     1
102
RTVSPropertyOp56
 70
     1
102
RTVSPropertyOp57
 70
     1
102
RTVSPropertyOp58
 70
     1
102
RTVSPropertyOp59
 70
     1
102
RTVSPropertyOp60
 70
     1
102
RTVSPropertyOp61
 70
     1
102
RTVSPropertyOp62
 70
     1
  0
XRECORD
  5
668
102
{ACAD_REACTORS
330
667
102
}
330
667
100
AcDbXrecord
280
     1
102
RTVSPost2010Prop28
280
     0
102
RTVSPost2010PropOp28
 70
     0
102
RTVSPost2010Prop29
280
     1
102
RTVSPost2010PropOp29
 70
     0
102
RTVSPost2010Prop30
280
     1
102
RTVSPost2010PropOp30
 70
     0
102
RTVSPost2010Prop31
280
     0
102
RTVSPost2010PropOp31
 70
     0
102
RTVSPost2010Prop32
280
     0
102
RTVSPost2010PropOp32
 70
     0
102
RTVSPost2010Prop33
280
     0
102
RTVSPost2010PropOp33
 70
     0
102
RTVSPost2010Prop34
280
     0
102
RTVSPost2010PropOp34
 70
     0
102
RTVSPost2010Prop35
280
     0
102
RTVSPost2010PropOp35
 70
     0
102
RTVSPost2010Prop36
280
     0
102
RTVSPost2010PropOp36
 70
     0
102
RTVSPost2010Prop37
 90
       50
102
RTVSPost2010PropOp37
 70
     0
102
RTVSPost2010Prop38
140
0.0
102
RTVSPost2010PropOp38
 70
     0
102
RTVSPost2010Prop39
140
1.0
102
RTVSPost2010PropOp39
 70
     0
102
RTVSPost2010Prop40
 90
        0
102
RTVSPost2010PropOp40
 70
     0
102
RTVSPost2010Prop41ColorIndex
 90
       18
102
RTVSPost2010Prop41ColorRGB
 90
        0
102
RTVSPost2010PropOp41
 70
     0
102
RTVSPost2010Prop42
 90
       50
102
RTVSPost2010PropOp42
 70
     0
102
RTVSPost2010Prop43
 90
        3
102
RTVSPost2010PropOp43
 70
     0
102
RTVSPost2010Prop44ColorIndex
 90
        5
102
RTVSPost2010Prop44ColorRGB
 90
      255
102
RTVSPost2010PropOp44
 70
     0
102
RTVSPost2010Prop45
280
     0
102
RTVSPost2010PropOp45
 70
     0
102
RTVSPost2010Prop46
 90
       50
102
RTVSPost2010PropOp46
 70
     0
102
RTVSPost2010Prop47
 90
       50
102
RTVSPost2010PropOp47
 70
     0
102
RTVSPost2010Prop48
 90
       50
102
RTVSPost2010PropOp48
 70
     0
102
RTVSPost2010Prop49
280
     0
102
RTVSPost2010PropOp49
 70
     0
102
RTVSPost2010Prop50
 90
       50
102
RTVSPost2010PropOp50
 70
     0
102
RTVSPost2010Prop51ColorIndex
 90
      256
102
RTVSPost2010Prop51ColorRGB
 90
-16777216
102
RTVSPost2010PropOp51
 70
     0
102
RTVSPost2010Prop52
140
1.0
102
RTVSPost2010PropOp52
 70
     0
102
RTVSPost2010Prop53
 90
        2
102
RTVSPost2010PropOp53
 70
     0
102
RTVSPost2010Prop54
  1
strokes_ogs.tif
102
RTVSPost2010PropOp54
 70
     0
102
RTVSPost2010Prop55
280
     0
102
RTVSPost2010PropOp55
 70
     0
102
RTVSPost2010Prop56
140
1.0
102
RTVSPost2010PropOp56
 70
     0
102
RTVSPost2010Prop57
140
1.0
102
RTVSPost2010PropOp57
 70
     0
102
RTVSPropertyOp0
 70
     0
102
RTVSPropertyOp1
 70
     0
102
RTVSPropertyOp2
 70
     0
102
RTVSPropertyOp3
 70
     0
102
RTVSPropertyOp4
 70
     0
102
RTVSPropertyOp5
 70
     0
102
RTVSPropertyOp6
 70
     0
102
RTVSPropertyOp7
 70
     0
102
RTVSPropertyOp8
 70
     0
102
RTVSPropertyOp9
 70
     0
102
RTVSPropertyOp10
 70
     0
102
RTVSPropertyOp11
 70
     0
102
RTVSPropertyOp12
 70
     0
102
RTVSPropertyOp13
 70
     0
102
RTVSPropertyOp14
 70
     2
102
RTVSPropertyOp15
 70
     0
102
RTVSPropertyOp16
 70
     0
102
RTVSPropertyOp17
 70
     0
102
RTVSPropertyOp18
 70
     0
102
RTVSPropertyOp19
 70
     0
102
RTVSPropertyOp20
 70
     0
102
RTVSPropertyOp21
 70
     0
102
RTVSPropertyOp22
 70
     0
102
RTVSPropertyOp23
 70
     0
102
RTVSPropertyOp24
 70
     0
102
RTVSPropertyOp25
 70
     0
102
RTVSPropertyOp26
 70
     0
102
RTVSPropertyOp27
 70
     0
102
RTVSPropertyOp28
 70
     0
102
RTVSPropertyOp29
 70
     0
102
RTVSPropertyOp30
 70
     0
102
RTVSPropertyOp31
 70
     0
102
RTVSPropertyOp32
 70
     0
102
RTVSPropertyOp33
 70
     0
102
RTVSPropertyOp34
 70
     0
102
RTVSPropertyOp35
 70
     0
102
RTVSPropertyOp36
 70
     0
102
RTVSPropertyOp37
 70
     0
102
RTVSPropertyOp38
 70
     0
102
RTVSPropertyOp39
 70
     0
102
RTVSPropertyOp40
 70
     0
102
RTVSPropertyOp41
 70
     0
102
RTVSPropertyOp42
 70
     0
102
RTVSPropertyOp43
 70
     0
102
RTVSPropertyOp44
 70
     0
102
RTVSPropertyOp45
 70
     0
102
RTVSPropertyOp46
 70
     0
102
RTVSPropertyOp47
 70
     0
102
RTVSPropertyOp48
 70
     0
102
RTVSPropertyOp49
 70
     0
102
RTVSPropertyOp50
 70
     0
102
RTVSPropertyOp51
 70
     0
102
RTVSPropertyOp52
 70
     0
102
RTVSPropertyOp53
 70
     0
102
RTVSPropertyOp54
 70
     0
102
RTVSPropertyOp55
 70
     0
102
RTVSPropertyOp56
 70
     0
102
RTVSPropertyOp57
 70
     0
102
RTVSPropertyOp58
 70
     1
102
RTVSPropertyOp59
 70
     1
102
RTVSPropertyOp60
 70
     1
102
RTVSPropertyOp61
 70
     1
102
RTVSPropertyOp62
 70
     1
  0
XRECORD
  5
660
102
{ACAD_REACTORS
330
65F
102
}
330
65F
100
AcDbXrecord
280
     1
102
RTVSPost2010Prop28
280
     0
102
RTVSPost2010PropOp28
 70
     1
102
RTVSPost2010Prop29
280
     1
102
RTVSPost2010PropOp29
 70
     1
102
RTVSPost2010Prop30
280
     1
102
RTVSPost2010PropOp30
 70
     1
102
RTVSPost2010Prop31
280
     0
102
RTVSPost2010PropOp31
 70
     1
102
RTVSPost2010Prop32
280
     0
102
RTVSPost2010PropOp32
 70
     1
102
RTVSPost2010Prop33
280
     0
102
RTVSPost2010PropOp33
 70
     1
102
RTVSPost2010Prop34
280
     0
102
RTVSPost2010PropOp34
 70
     1
102
RTVSPost2010Prop35
280
     0
102
RTVSPost2010PropOp35
 70
     1
102
RTVSPost2010Prop36
280
     0
102
RTVSPost2010PropOp36
 70
     1
102
RTVSPost2010Prop37
 90
       50
102
RTVSPost2010PropOp37
 70
     1
102
RTVSPost2010Prop38
140
0.0
102
RTVSPost2010PropOp38
 70
     1
102
RTVSPost2010Prop39
140
1.0
102
RTVSPost2010PropOp39
 70
     1
102
RTVSPost2010Prop40
 90
        0
102
RTVSPost2010PropOp40
 70
     1
102
RTVSPost2010Prop41ColorIndex
 90
       18
102
RTVSPost2010Prop41ColorRGB
 90
        0
102
RTVSPost2010PropOp41
 70
     1
102
RTVSPost2010Prop42
 90
       50
102
RTVSPost2010PropOp42
 70
     1
102
RTVSPost2010Prop43
 90
        3
102
RTVSPost2010PropOp43
 70
     1
102
RTVSPost2010Prop44ColorIndex
 90
        5
102
RTVSPost2010Prop44ColorRGB
 90
      255
102
RTVSPost2010PropOp44
 70
     1
102
RTVSPost2010Prop45
280
     0
102
RTVSPost2010PropOp45
 70
     1
102
RTVSPost2010Prop46
 90
       50
102
RTVSPost2010PropOp46
 70
     1
102
RTVSPost2010Prop47
 90
       50
102
RTVSPost2010PropOp47
 70
     1
102
RTVSPost2010Prop48
 90
       50
102
RTVSPost2010PropOp48
 70
     1
102
RTVSPost2010Prop49
280
     0
102
RTVSPost2010PropOp49
 70
     1
102
RTVSPost2010Prop50
 90
       50
102
RTVSPost2010PropOp50
 70
     1
102
RTVSPost2010Prop51ColorIndex
 90
      256
102
RTVSPost2010Prop51ColorRGB
 90
-16777216
102
RTVSPost2010PropOp51
 70
     0
102
RTVSPost2010Prop52
140
1.0
102
RTVSPost2010PropOp52
 70
     0
102
RTVSPost2010Prop53
 90
        2
102
RTVSPost2010PropOp53
 70
     1
102
RTVSPost2010Prop54
  1
strokes_ogs.tif
102
RTVSPost2010PropOp54
 70
     1
102
RTVSPost2010Prop55
280
     0
102
RTVSPost2010PropOp55
 70
     1
102
RTVSPost2010Prop56
140
1.0
102
RTVSPost2010PropOp56
 70
     1
102
RTVSPost2010Prop57
140
1.0
102
RTVSPost2010PropOp57
 70
     1
102
RTVSPropertyOp0
 70
     1
102
RTVSPropertyOp1
 70
     1
102
RTVSPropertyOp2
 70
     1
102
RTVSPropertyOp3
 70
     1
102
RTVSPropertyOp4
 70
     1
102
RTVSPropertyOp5
 70
     1
102
RTVSPropertyOp6
 70
     1
102
RTVSPropertyOp7
 70
     1
102
RTVSPropertyOp8
 70
     1
102
RTVSPropertyOp9
 70
     1
102
RTVSPropertyOp10
 70
     1
102
RTVSPropertyOp11
 70
     1
102
RTVSPropertyOp12
 70
     1
102
RTVSPropertyOp13
 70
     1
102
RTVSPropertyOp14
 70
     1
102
RTVSPropertyOp15
 70
     1
102
RTVSPropertyOp16
 70
     1
102
RTVSPropertyOp17
 70
     1
102
RTVSPropertyOp18
 70
     1
102
RTVSPropertyOp19
 70
     1
102
RTVSPropertyOp20
 70
     1
102
RTVSPropertyOp21
 70
     1
102
RTVSPropertyOp22
 70
     1
102
RTVSPropertyOp23
 70
     1
102
RTVSPropertyOp24
 70
     1
102
RTVSPropertyOp25
 70
     1
102
RTVSPropertyOp26
 70
     1
102
RTVSPropertyOp27
 70
     1
102
RTVSPropertyOp28
 70
     1
102
RTVSPropertyOp29
 70
     1
102
RTVSPropertyOp30
 70
     1
102
RTVSPropertyOp31
 70
     1
102
RTVSPropertyOp32
 70
     1
102
RTVSPropertyOp33
 70
     1
102
RTVSPropertyOp34
 70
     1
102
RTVSPropertyOp35
 70
     1
102
RTVSPropertyOp36
 70
     1
102
RTVSPropertyOp37
 70
     1
102
RTVSPropertyOp38
 70
     1
102
RTVSPropertyOp39
 70
     1
102
RTVSPropertyOp40
 70
     1
102
RTVSPropertyOp41
 70
     1
102
RTVSPropertyOp42
 70
     1
102
RTVSPropertyOp43
 70
     1
102
RTVSPropertyOp44
 70
     1
102
RTVSPropertyOp45
 70
     1
102
RTVSPropertyOp46
 70
     1
102
RTVSPropertyOp47
 70
     1
102
RTVSPropertyOp48
 70
     1
102
RTVSPropertyOp49
 70
     1
102
RTVSPropertyOp50
 70
     1
102
RTVSPropertyOp51
 70
     0
102
RTVSPropertyOp52
 70
     0
102
RTVSPropertyOp53
 70
     1
102
RTVSPropertyOp54
 70
     1
102
RTVSPropertyOp55
 70
     1
102
RTVSPropertyOp56
 70
     1
102
RTVSPropertyOp57
 70
     1
102
RTVSPropertyOp58
 70
     1
102
RTVSPropertyOp59
 70
     1
102
RTVSPropertyOp60
 70
     1
102
RTVSPropertyOp61
 70
     1
102
RTVSPropertyOp62
 70
     1
  0
XRECORD
  5
644
102
{ACAD_REACTORS
330
643
102
}
330
643
100
AcDbXrecord
280
     1
102
RTVSPost2010Prop28
280
     0
102
RTVSPost2010PropOp28
 70
     1
102
RTVSPost2010Prop29
280
     1
102
RTVSPost2010PropOp29
 70
     1
102
RTVSPost2010Prop30
280
     1
102
RTVSPost2010PropOp30
 70
     1
102
RTVSPost2010Prop31
280
     0
102
RTVSPost2010PropOp31
 70
     1
102
RTVSPost2010Prop32
280
     0
102
RTVSPost2010PropOp32
 70
     1
102
RTVSPost2010Prop33
280
     0
102
RTVSPost2010PropOp33
 70
     1
102
RTVSPost2010Prop34
280
     0
102
RTVSPost2010PropOp34
 70
     1
102
RTVSPost2010Prop35
280
     0
102
RTVSPost2010PropOp35
 70
     1
102
RTVSPost2010Prop36
280
     0
102
RTVSPost2010PropOp36
 70
     1
102
RTVSPost2010Prop37
 90
       50
102
RTVSPost2010PropOp37
 70
     1
102
RTVSPost2010Prop38
140
0.0
102
RTVSPost2010PropOp38
 70
     1
102
RTVSPost2010Prop39
140
1.0
102
RTVSPost2010PropOp39
 70
     1
102
RTVSPost2010Prop40
 90
        0
102
RTVSPost2010PropOp40
 70
     1
102
RTVSPost2010Prop41ColorIndex
 90
       18
102
RTVSPost2010Prop41ColorRGB
 90
        0
102
RTVSPost2010PropOp41
 70
     1
102
RTVSPost2010Prop42
 90
       50
102
RTVSPost2010PropOp42
 70
     1
102
RTVSPost2010Prop43
 90
        3
102
RTVSPost2010PropOp43
 70
     1
102
RTVSPost2010Prop44ColorIndex
 90
        5
102
RTVSPost2010Prop44ColorRGB
 90
      255
102
RTVSPost2010PropOp44
 70
     1
102
RTVSPost2010Prop45
280
     0
102
RTVSPost2010PropOp45
 70
     1
102
RTVSPost2010Prop46
 90
       50
102
RTVSPost2010PropOp46
 70
     1
102
RTVSPost2010Prop47
 90
       50
102
RTVSPost2010PropOp47
 70
     1
102
RTVSPost2010Prop48
 90
       50
102
RTVSPost2010PropOp48
 70
     1
102
RTVSPost2010Prop49
280
     0
102
RTVSPost2010PropOp49
 70
     1
102
RTVSPost2010Prop50
 90
       50
102
RTVSPost2010PropOp50
 70
     1
102
RTVSPost2010Prop51ColorIndex
 90
      256
102
RTVSPost2010Prop51ColorRGB
 90
-16777216
102
RTVSPost2010PropOp51
 70
     0
102
RTVSPost2010Prop52
140
1.0
102
RTVSPost2010PropOp52
 70
     0
102
RTVSPost2010Prop53
 90
        2
102
RTVSPost2010PropOp53
 70
     1
102
RTVSPost2010Prop54
  1
strokes_ogs.tif
102
RTVSPost2010PropOp54
 70
     1
102
RTVSPost2010Prop55
280
     0
102
RTVSPost2010PropOp55
 70
     1
102
RTVSPost2010Prop56
140
1.0
102
RTVSPost2010PropOp56
 70
     1
102
RTVSPost2010Prop57
140
1.0
102
RTVSPost2010PropOp57
 70
     1
102
RTVSPropertyOp0
 70
     1
102
RTVSPropertyOp1
 70
     1
102
RTVSPropertyOp2
 70
     1
102
RTVSPropertyOp3
 70
     1
102
RTVSPropertyOp4
 70
     1
102
RTVSPropertyOp5
 70
     1
102
RTVSPropertyOp6
 70
     1
102
RTVSPropertyOp7
 70
     1
102
RTVSPropertyOp8
 70
     1
102
RTVSPropertyOp9
 70
     1
102
RTVSPropertyOp10
 70
     1
102
RTVSPropertyOp11
 70
     1
102
RTVSPropertyOp12
 70
     1
102
RTVSPropertyOp13
 70
     1
102
RTVSPropertyOp14
 70
     1
102
RTVSPropertyOp15
 70
     1
102
RTVSPropertyOp16
 70
     1
102
RTVSPropertyOp17
 70
     1
102
RTVSPropertyOp18
 70
     1
102
RTVSPropertyOp19
 70
     1
102
RTVSPropertyOp20
 70
     1
102
RTVSPropertyOp21
 70
     1
102
RTVSPropertyOp22
 70
     1
102
RTVSPropertyOp23
 70
     1
102
RTVSPropertyOp24
 70
     1
102
RTVSPropertyOp25
 70
     1
102
RTVSPropertyOp26
 70
     1
102
RTVSPropertyOp27
 70
     1
102
RTVSPropertyOp28
 70
     1
102
RTVSPropertyOp29
 70
     1
102
RTVSPropertyOp30
 70
     1
102
RTVSPropertyOp31
 70
     1
102
RTVSPropertyOp32
 70
     1
102
RTVSPropertyOp33
 70
     1
102
RTVSPropertyOp34
 70
     1
102
RTVSPropertyOp35
 70
     1
102
RTVSPropertyOp36
 70
     1
102
RTVSPropertyOp37
 70
     1
102
RTVSPropertyOp38
 70
     1
102
RTVSPropertyOp39
 70
     1
102
RTVSPropertyOp40
 70
     1
102
RTVSPropertyOp41
 70
     1
102
RTVSPropertyOp42
 70
     1
102
RTVSPropertyOp43
 70
     1
102
RTVSPropertyOp44
 70
     1
102
RTVSPropertyOp45
 70
     1
102
RTVSPropertyOp46
 70
     1
102
RTVSPropertyOp47
 70
     1
102
RTVSPropertyOp48
 70
     1
102
RTVSPropertyOp49
 70
     1
102
RTVSPropertyOp50
 70
     1
102
RTVSPropertyOp51
 70
     0
102
RTVSPropertyOp52
 70
     0
102
RTVSPropertyOp53
 70
     1
102
RTVSPropertyOp54
 70
     1
102
RTVSPropertyOp55
 70
     1
102
RTVSPropertyOp56
 70
     1
102
RTVSPropertyOp57
 70
     1
102
RTVSPropertyOp58
 70
     1
102
RTVSPropertyOp59
 70
     1
102
RTVSPropertyOp60
 70
     1
102
RTVSPropertyOp61
 70
     1
102
RTVSPropertyOp62
 70
     1
  0
XRECORD
  5
646
102
{ACAD_REACTORS
330
645
102
}
330
645
100
AcDbXrecord
280
     1
102
RTVSPost2010Prop28
280
     0
102
RTVSPost2010PropOp28
 70
     1
102
RTVSPost2010Prop29
280
     1
102
RTVSPost2010PropOp29
 70
     1
102
RTVSPost2010Prop30
280
     1
102
RTVSPost2010PropOp30
 70
     1
102
RTVSPost2010Prop31
280
     0
102
RTVSPost2010PropOp31
 70
     1
102
RTVSPost2010Prop32
280
     0
102
RTVSPost2010PropOp32
 70
     1
102
RTVSPost2010Prop33
280
     0
102
RTVSPost2010PropOp33
 70
     1
102
RTVSPost2010Prop34
280
     0
102
RTVSPost2010PropOp34
 70
     1
102
RTVSPost2010Prop35
280
     0
102
RTVSPost2010PropOp35
 70
     1
102
RTVSPost2010Prop36
280
     0
102
RTVSPost2010PropOp36
 70
     1
102
RTVSPost2010Prop37
 90
       50
102
RTVSPost2010PropOp37
 70
     1
102
RTVSPost2010Prop38
140
0.0
102
RTVSPost2010PropOp38
 70
     1
102
RTVSPost2010Prop39
140
1.0
102
RTVSPost2010PropOp39
 70
     1
102
RTVSPost2010Prop40
 90
        0
102
RTVSPost2010PropOp40
 70
     1
102
RTVSPost2010Prop41ColorIndex
 90
       18
102
RTVSPost2010Prop41ColorRGB
 90
        0
102
RTVSPost2010PropOp41
 70
     1
102
RTVSPost2010Prop42
 90
       50
102
RTVSPost2010PropOp42
 70
     1
102
RTVSPost2010Prop43
 90
        3
102
RTVSPost2010PropOp43
 70
     1
102
RTVSPost2010Prop44ColorIndex
 90
        5
102
RTVSPost2010Prop44ColorRGB
 90
      255
102
RTVSPost2010PropOp44
 70
     1
102
RTVSPost2010Prop45
280
     0
102
RTVSPost2010PropOp45
 70
     1
102
RTVSPost2010Prop46
 90
       50
102
RTVSPost2010PropOp46
 70
     1
102
RTVSPost2010Prop47
 90
       50
102
RTVSPost2010PropOp47
 70
     1
102
RTVSPost2010Prop48
 90
       50
102
RTVSPost2010PropOp48
 70
     1
102
RTVSPost2010Prop49
280
     0
102
RTVSPost2010PropOp49
 70
     1
102
RTVSPost2010Prop50
 90
       50
102
RTVSPost2010PropOp50
 70
     1
102
RTVSPost2010Prop51ColorIndex
 90
      256
102
RTVSPost2010Prop51ColorRGB
 90
-16777216
102
RTVSPost2010PropOp51
 70
     0
102
RTVSPost2010Prop52
140
1.0
102
RTVSPost2010PropOp52
 70
     0
102
RTVSPost2010Prop53
 90
        2
102
RTVSPost2010PropOp53
 70
     1
102
RTVSPost2010Prop54
  1
strokes_ogs.tif
102
RTVSPost2010PropOp54
 70
     1
102
RTVSPost2010Prop55
280
     0
102
RTVSPost2010PropOp55
 70
     1
102
RTVSPost2010Prop56
140
1.0
102
RTVSPost2010PropOp56
 70
     1
102
RTVSPost2010Prop57
140
1.0
102
RTVSPost2010PropOp57
 70
     1
102
RTVSPropertyOp0
 70
     1
102
RTVSPropertyOp1
 70
     1
102
RTVSPropertyOp2
 70
     1
102
RTVSPropertyOp3
 70
     1
102
RTVSPropertyOp4
 70
     1
102
RTVSPropertyOp5
 70
     1
102
RTVSPropertyOp6
 70
     1
102
RTVSPropertyOp7
 70
     1
102
RTVSPropertyOp8
 70
     1
102
RTVSPropertyOp9
 70
     1
102
RTVSPropertyOp10
 70
     1
102
RTVSPropertyOp11
 70
     1
102
RTVSPropertyOp12
 70
     1
102
RTVSPropertyOp13
 70
     1
102
RTVSPropertyOp14
 70
     1
102
RTVSPropertyOp15
 70
     1
102
RTVSPropertyOp16
 70
     1
102
RTVSPropertyOp17
 70
     1
102
RTVSPropertyOp18
 70
     1
102
RTVSPropertyOp19
 70
     1
102
RTVSPropertyOp20
 70
     1
102
RTVSPropertyOp21
 70
     1
102
RTVSPropertyOp22
 70
     1
102
RTVSPropertyOp23
 70
     1
102
RTVSPropertyOp24
 70
     1
102
RTVSPropertyOp25
 70
     1
102
RTVSPropertyOp26
 70
     1
102
RTVSPropertyOp27
 70
     1
102
RTVSPropertyOp28
 70
     1
102
RTVSPropertyOp29
 70
     1
102
RTVSPropertyOp30
 70
     1
102
RTVSPropertyOp31
 70
     1
102
RTVSPropertyOp32
 70
     1
102
RTVSPropertyOp33
 70
     1
102
RTVSPropertyOp34
 70
     1
102
RTVSPropertyOp35
 70
     1
102
RTVSPropertyOp36
 70
     1
102
RTVSPropertyOp37
 70
     1
102
RTVSPropertyOp38
 70
     1
102
RTVSPropertyOp39
 70
     1
102
RTVSPropertyOp40
 70
     1
102
RTVSPropertyOp41
 70
     1
102
RTVSPropertyOp42
 70
     1
102
RTVSPropertyOp43
 70
     1
102
RTVSPropertyOp44
 70
     1
102
RTVSPropertyOp45
 70
     1
102
RTVSPropertyOp46
 70
     1
102
RTVSPropertyOp47
 70
     1
102
RTVSPropertyOp48
 70
     1
102
RTVSPropertyOp49
 70
     1
102
RTVSPropertyOp50
 70
     1
102
RTVSPropertyOp51
 70
     0
102
RTVSPropertyOp52
 70
     0
102
RTVSPropertyOp53
 70
     1
102
RTVSPropertyOp54
 70
     1
102
RTVSPropertyOp55
 70
     1
102
RTVSPropertyOp56
 70
     1
102
RTVSPropertyOp57
 70
     1
102
RTVSPropertyOp58
 70
     1
102
RTVSPropertyOp59
 70
     1
102
RTVSPropertyOp60
 70
     1
102
RTVSPropertyOp61
 70
     1
102
RTVSPropertyOp62
 70
     1
  0
XRECORD
  5
648
102
{ACAD_REACTORS
330
647
102
}
330
647
100
AcDbXrecord
280
     1
102
RTVSPost2010Prop28
280
     0
102
RTVSPost2010PropOp28
 70
     1
102
RTVSPost2010Prop29
280
     1
102
RTVSPost2010PropOp29
 70
     1
102
RTVSPost2010Prop30
280
     1
102
RTVSPost2010PropOp30
 70
     1
102
RTVSPost2010Prop31
280
     0
102
RTVSPost2010PropOp31
 70
     1
102
RTVSPost2010Prop32
280
     0
102
RTVSPost2010PropOp32
 70
     1
102
RTVSPost2010Prop33
280
     0
102
RTVSPost2010PropOp33
 70
     1
102
RTVSPost2010Prop34
280
     0
102
RTVSPost2010PropOp34
 70
     1
102
RTVSPost2010Prop35
280
     0
102
RTVSPost2010PropOp35
 70
     1
102
RTVSPost2010Prop36
280
     0
102
RTVSPost2010PropOp36
 70
     1
102
RTVSPost2010Prop37
 90
       50
102
RTVSPost2010PropOp37
 70
     1
102
RTVSPost2010Prop38
140
0.0
102
RTVSPost2010PropOp38
 70
     1
102
RTVSPost2010Prop39
140
1.0
102
RTVSPost2010PropOp39
 70
     1
102
RTVSPost2010Prop40
 90
        0
102
RTVSPost2010PropOp40
 70
     1
102
RTVSPost2010Prop41ColorIndex
 90
       18
102
RTVSPost2010Prop41ColorRGB
 90
        0
102
RTVSPost2010PropOp41
 70
     1
102
RTVSPost2010Prop42
 90
       50
102
RTVSPost2010PropOp42
 70
     1
102
RTVSPost2010Prop43
 90
        3
102
RTVSPost2010PropOp43
 70
     1
102
RTVSPost2010Prop44ColorIndex
 90
        5
102
RTVSPost2010Prop44ColorRGB
 90
      255
102
RTVSPost2010PropOp44
 70
     1
102
RTVSPost2010Prop45
280
     0
102
RTVSPost2010PropOp45
 70
     1
102
RTVSPost2010Prop46
 90
       50
102
RTVSPost2010PropOp46
 70
     1
102
RTVSPost2010Prop47
 90
       50
102
RTVSPost2010PropOp47
 70
     1
102
RTVSPost2010Prop48
 90
       50
102
RTVSPost2010PropOp48
 70
     1
102
RTVSPost2010Prop49
280
     0
102
RTVSPost2010PropOp49
 70
     1
102
RTVSPost2010Prop50
 90
       50
102
RTVSPost2010PropOp50
 70
     1
102
RTVSPost2010Prop51ColorIndex
 90
      256
102
RTVSPost2010Prop51ColorRGB
 90
-16777216
102
RTVSPost2010PropOp51
 70
     0
102
RTVSPost2010Prop52
140
1.0
102
RTVSPost2010PropOp52
 70
     0
102
RTVSPost2010Prop53
 90
        2
102
RTVSPost2010PropOp53
 70
     1
102
RTVSPost2010Prop54
  1
strokes_ogs.tif
102
RTVSPost2010PropOp54
 70
     1
102
RTVSPost2010Prop55
280
     0
102
RTVSPost2010PropOp55
 70
     1
102
RTVSPost2010Prop56
140
1.0
102
RTVSPost2010PropOp56
 70
     1
102
RTVSPost2010Prop57
140
1.0
102
RTVSPost2010PropOp57
 70
     1
102
RTVSPropertyOp0
 70
     1
102
RTVSPropertyOp1
 70
     1
102
RTVSPropertyOp2
 70
     1
102
RTVSPropertyOp3
 70
     1
102
RTVSPropertyOp4
 70
     1
102
RTVSPropertyOp5
 70
     1
102
RTVSPropertyOp6
 70
     1
102
RTVSPropertyOp7
 70
     1
102
RTVSPropertyOp8
 70
     1
102
RTVSPropertyOp9
 70
     1
102
RTVSPropertyOp10
 70
     1
102
RTVSPropertyOp11
 70
     1
102
RTVSPropertyOp12
 70
     1
102
RTVSPropertyOp13
 70
     1
102
RTVSPropertyOp14
 70
     1
102
RTVSPropertyOp15
 70
     1
102
RTVSPropertyOp16
 70
     1
102
RTVSPropertyOp17
 70
     1
102
RTVSPropertyOp18
 70
     1
102
RTVSPropertyOp19
 70
     1
102
RTVSPropertyOp20
 70
     1
102
RTVSPropertyOp21
 70
     1
102
RTVSPropertyOp22
 70
     1
102
RTVSPropertyOp23
 70
     1
102
RTVSPropertyOp24
 70
     1
102
RTVSPropertyOp25
 70
     1
102
RTVSPropertyOp26
 70
     1
102
RTVSPropertyOp27
 70
     1
102
RTVSPropertyOp28
 70
     1
102
RTVSPropertyOp29
 70
     1
102
RTVSPropertyOp30
 70
     1
102
RTVSPropertyOp31
 70
     1
102
RTVSPropertyOp32
 70
     1
102
RTVSPropertyOp33
 70
     1
102
RTVSPropertyOp34
 70
     1
102
RTVSPropertyOp35
 70
     1
102
RTVSPropertyOp36
 70
     1
102
RTVSPropertyOp37
 70
     1
102
RTVSPropertyOp38
 70
     1
102
RTVSPropertyOp39
 70
     1
102
RTVSPropertyOp40
 70
     1
102
RTVSPropertyOp41
 70
     1
102
RTVSPropertyOp42
 70
     1
102
RTVSPropertyOp43
 70
     1
102
RTVSPropertyOp44
 70
     1
102
RTVSPropertyOp45
 70
     1
102
RTVSPropertyOp46
 70
     1
102
RTVSPropertyOp47
 70
     1
102
RTVSPropertyOp48
 70
     1
102
RTVSPropertyOp49
 70
     1
102
RTVSPropertyOp50
 70
     1
102
RTVSPropertyOp51
 70
     0
102
RTVSPropertyOp52
 70
     0
102
RTVSPropertyOp53
 70
     1
102
RTVSPropertyOp54
 70
     1
102
RTVSPropertyOp55
 70
     1
102
RTVSPropertyOp56
 70
     1
102
RTVSPropertyOp57
 70
     1
102
RTVSPropertyOp58
 70
     1
102
RTVSPropertyOp59
 70
     1
102
RTVSPropertyOp60
 70
     1
102
RTVSPropertyOp61
 70
     1
102
RTVSPropertyOp62
 70
     1
  0
XRECORD
  5
64A
102
{ACAD_REACTORS
330
649
102
}
330
649
100
AcDbXrecord
280
     1
102
RTVSPost2010Prop28
280
     0
102
RTVSPost2010PropOp28
 70
     1
102
RTVSPost2010Prop29
280
     1
102
RTVSPost2010PropOp29
 70
     1
102
RTVSPost2010Prop30
280
     1
102
RTVSPost2010PropOp30
 70
     1
102
RTVSPost2010Prop31
280
     0
102
RTVSPost2010PropOp31
 70
     1
102
RTVSPost2010Prop32
280
     0
102
RTVSPost2010PropOp32
 70
     1
102
RTVSPost2010Prop33
280
     0
102
RTVSPost2010PropOp33
 70
     1
102
RTVSPost2010Prop34
280
     0
102
RTVSPost2010PropOp34
 70
     1
102
RTVSPost2010Prop35
280
     0
102
RTVSPost2010PropOp35
 70
     1
102
RTVSPost2010Prop36
280
     0
102
RTVSPost2010PropOp36
 70
     1
102
RTVSPost2010Prop37
 90
       50
102
RTVSPost2010PropOp37
 70
     1
102
RTVSPost2010Prop38
140
0.0
102
RTVSPost2010PropOp38
 70
     1
102
RTVSPost2010Prop39
140
1.0
102
RTVSPost2010PropOp39
 70
     1
102
RTVSPost2010Prop40
 90
        0
102
RTVSPost2010PropOp40
 70
     1
102
RTVSPost2010Prop41ColorIndex
 90
       18
102
RTVSPost2010Prop41ColorRGB
 90
        0
102
RTVSPost2010PropOp41
 70
     1
102
RTVSPost2010Prop42
 90
       50
102
RTVSPost2010PropOp42
 70
     1
102
RTVSPost2010Prop43
 90
        3
102
RTVSPost2010PropOp43
 70
     1
102
RTVSPost2010Prop44ColorIndex
 90
        5
102
RTVSPost2010Prop44ColorRGB
 90
      255
102
RTVSPost2010PropOp44
 70
     1
102
RTVSPost2010Prop45
280
     0
102
RTVSPost2010PropOp45
 70
     1
102
RTVSPost2010Prop46
 90
       50
102
RTVSPost2010PropOp46
 70
     1
102
RTVSPost2010Prop47
 90
       50
102
RTVSPost2010PropOp47
 70
     1
102
RTVSPost2010Prop48
 90
       50
102
RTVSPost2010PropOp48
 70
     1
102
RTVSPost2010Prop49
280
     0
102
RTVSPost2010PropOp49
 70
     1
102
RTVSPost2010Prop50
 90
       50
102
RTVSPost2010PropOp50
 70
     1
102
RTVSPost2010Prop51ColorIndex
 90
      256
102
RTVSPost2010Prop51ColorRGB
 90
-16777216
102
RTVSPost2010PropOp51
 70
     0
102
RTVSPost2010Prop52
140
1.0
102
RTVSPost2010PropOp52
 70
     0
102
RTVSPost2010Prop53
 90
        2
102
RTVSPost2010PropOp53
 70
     1
102
RTVSPost2010Prop54
  1
strokes_ogs.tif
102
RTVSPost2010PropOp54
 70
     1
102
RTVSPost2010Prop55
280
     0
102
RTVSPost2010PropOp55
 70
     1
102
RTVSPost2010Prop56
140
1.0
102
RTVSPost2010PropOp56
 70
     1
102
RTVSPost2010Prop57
140
1.0
102
RTVSPost2010PropOp57
 70
     1
102
RTVSPropertyOp0
 70
     1
102
RTVSPropertyOp1
 70
     1
102
RTVSPropertyOp2
 70
     1
102
RTVSPropertyOp3
 70
     1
102
RTVSPropertyOp4
 70
     1
102
RTVSPropertyOp5
 70
     1
102
RTVSPropertyOp6
 70
     1
102
RTVSPropertyOp7
 70
     1
102
RTVSPropertyOp8
 70
     1
102
RTVSPropertyOp9
 70
     1
102
RTVSPropertyOp10
 70
     1
102
RTVSPropertyOp11
 70
     1
102
RTVSPropertyOp12
 70
     1
102
RTVSPropertyOp13
 70
     1
102
RTVSPropertyOp14
 70
     1
102
RTVSPropertyOp15
 70
     1
102
RTVSPropertyOp16
 70
     1
102
RTVSPropertyOp17
 70
     1
102
RTVSPropertyOp18
 70
     1
102
RTVSPropertyOp19
 70
     1
102
RTVSPropertyOp20
 70
     1
102
RTVSPropertyOp21
 70
     1
102
RTVSPropertyOp22
 70
     1
102
RTVSPropertyOp23
 70
     1
102
RTVSPropertyOp24
 70
     1
102
RTVSPropertyOp25
 70
     1
102
RTVSPropertyOp26
 70
     1
102
RTVSPropertyOp27
 70
     1
102
RTVSPropertyOp28
 70
     1
102
RTVSPropertyOp29
 70
     1
102
RTVSPropertyOp30
 70
     1
102
RTVSPropertyOp31
 70
     1
102
RTVSPropertyOp32
 70
     1
102
RTVSPropertyOp33
 70
     1
102
RTVSPropertyOp34
 70
     1
102
RTVSPropertyOp35
 70
     1
102
RTVSPropertyOp36
 70
     1
102
RTVSPropertyOp37
 70
     1
102
RTVSPropertyOp38
 70
     1
102
RTVSPropertyOp39
 70
     1
102
RTVSPropertyOp40
 70
     1
102
RTVSPropertyOp41
 70
     1
102
RTVSPropertyOp42
 70
     1
102
RTVSPropertyOp43
 70
     1
102
RTVSPropertyOp44
 70
     1
102
RTVSPropertyOp45
 70
     1
102
RTVSPropertyOp46
 70
     1
102
RTVSPropertyOp47
 70
     1
102
RTVSPropertyOp48
 70
     1
102
RTVSPropertyOp49
 70
     1
102
RTVSPropertyOp50
 70
     1
102
RTVSPropertyOp51
 70
     0
102
RTVSPropertyOp52
 70
     0
102
RTVSPropertyOp53
 70
     1
102
RTVSPropertyOp54
 70
     1
102
RTVSPropertyOp55
 70
     1
102
RTVSPropertyOp56
 70
     1
102
RTVSPropertyOp57
 70
     1
102
RTVSPropertyOp58
 70
     1
102
RTVSPropertyOp59
 70
     1
102
RTVSPropertyOp60
 70
     1
102
RTVSPropertyOp61
 70
     1
102
RTVSPropertyOp62
 70
     1
  0
XRECORD
  5
650
102
{ACAD_REACTORS
330
64F
102
}
330
64F
100
AcDbXrecord
280
     1
102
RTVSPost2010Prop28
280
     0
102
RTVSPost2010PropOp28
 70
     1
102
RTVSPost2010Prop29
280
     1
102
RTVSPost2010PropOp29
 70
     1
102
RTVSPost2010Prop30
280
     1
102
RTVSPost2010PropOp30
 70
     1
102
RTVSPost2010Prop31
280
     0
102
RTVSPost2010PropOp31
 70
     1
102
RTVSPost2010Prop32
280
     0
102
RTVSPost2010PropOp32
 70
     1
102
RTVSPost2010Prop33
280
     0
102
RTVSPost2010PropOp33
 70
     1
102
RTVSPost2010Prop34
280
     0
102
RTVSPost2010PropOp34
 70
     1
102
RTVSPost2010Prop35
280
     0
102
RTVSPost2010PropOp35
 70
     1
102
RTVSPost2010Prop36
280
     0
102
RTVSPost2010PropOp36
 70
     1
102
RTVSPost2010Prop37
 90
       50
102
RTVSPost2010PropOp37
 70
     1
102
RTVSPost2010Prop38
140
0.0
102
RTVSPost2010PropOp38
 70
     1
102
RTVSPost2010Prop39
140
1.0
102
RTVSPost2010PropOp39
 70
     1
102
RTVSPost2010Prop40
 90
        0
102
RTVSPost2010PropOp40
 70
     1
102
RTVSPost2010Prop41ColorIndex
 90
       18
102
RTVSPost2010Prop41ColorRGB
 90
        0
102
RTVSPost2010PropOp41
 70
     1
102
RTVSPost2010Prop42
 90
       50
102
RTVSPost2010PropOp42
 70
     1
102
RTVSPost2010Prop43
 90
        3
102
RTVSPost2010PropOp43
 70
     1
102
RTVSPost2010Prop44ColorIndex
 90
        5
102
RTVSPost2010Prop44ColorRGB
 90
      255
102
RTVSPost2010PropOp44
 70
     1
102
RTVSPost2010Prop45
280
     0
102
RTVSPost2010PropOp45
 70
     1
102
RTVSPost2010Prop46
 90
       50
102
RTVSPost2010PropOp46
 70
     1
102
RTVSPost2010Prop47
 90
       50
102
RTVSPost2010PropOp47
 70
     1
102
RTVSPost2010Prop48
 90
       50
102
RTVSPost2010PropOp48
 70
     1
102
RTVSPost2010Prop49
280
     0
102
RTVSPost2010PropOp49
 70
     1
102
RTVSPost2010Prop50
 90
       50
102
RTVSPost2010PropOp50
 70
     1
102
RTVSPost2010Prop51ColorIndex
 90
      256
102
RTVSPost2010Prop51ColorRGB
 90
-16777216
102
RTVSPost2010PropOp51
 70
     0
102
RTVSPost2010Prop52
140
1.0
102
RTVSPost2010PropOp52
 70
     0
102
RTVSPost2010Prop53
 90
        2
102
RTVSPost2010PropOp53
 70
     1
102
RTVSPost2010Prop54
  1
strokes_ogs.tif
102
RTVSPost2010PropOp54
 70
     1
102
RTVSPost2010Prop55
280
     0
102
RTVSPost2010PropOp55
 70
     1
102
RTVSPost2010Prop56
140
1.0
102
RTVSPost2010PropOp56
 70
     1
102
RTVSPost2010Prop57
140
1.0
102
RTVSPost2010PropOp57
 70
     1
102
RTVSPropertyOp0
 70
     1
102
RTVSPropertyOp1
 70
     1
102
RTVSPropertyOp2
 70
     1
102
RTVSPropertyOp3
 70
     1
102
RTVSPropertyOp4
 70
     1
102
RTVSPropertyOp5
 70
     1
102
RTVSPropertyOp6
 70
     1
102
RTVSPropertyOp7
 70
     1
102
RTVSPropertyOp8
 70
     1
102
RTVSPropertyOp9
 70
     1
102
RTVSPropertyOp10
 70
     1
102
RTVSPropertyOp11
 70
     1
102
RTVSPropertyOp12
 70
     1
102
RTVSPropertyOp13
 70
     1
102
RTVSPropertyOp14
 70
     1
102
RTVSPropertyOp15
 70
     1
102
RTVSPropertyOp16
 70
     1
102
RTVSPropertyOp17
 70
     1
102
RTVSPropertyOp18
 70
     1
102
RTVSPropertyOp19
 70
     1
102
RTVSPropertyOp20
 70
     1
102
RTVSPropertyOp21
 70
     1
102
RTVSPropertyOp22
 70
     1
102
RTVSPropertyOp23
 70
     1
102
RTVSPropertyOp24
 70
     1
102
RTVSPropertyOp25
 70
     1
102
RTVSPropertyOp26
 70
     1
102
RTVSPropertyOp27
 70
     1
102
RTVSPropertyOp28
 70
     1
102
RTVSPropertyOp29
 70
     1
102
RTVSPropertyOp30
 70
     1
102
RTVSPropertyOp31
 70
     1
102
RTVSPropertyOp32
 70
     1
102
RTVSPropertyOp33
 70
     1
102
RTVSPropertyOp34
 70
     1
102
RTVSPropertyOp35
 70
     1
102
RTVSPropertyOp36
 70
     1
102
RTVSPropertyOp37
 70
     1
102
RTVSPropertyOp38
 70
     1
102
RTVSPropertyOp39
 70
     1
102
RTVSPropertyOp40
 70
     1
102
RTVSPropertyOp41
 70
     1
102
RTVSPropertyOp42
 70
     1
102
RTVSPropertyOp43
 70
     1
102
RTVSPropertyOp44
 70
     1
102
RTVSPropertyOp45
 70
     1
102
RTVSPropertyOp46
 70
     1
102
RTVSPropertyOp47
 70
     1
102
RTVSPropertyOp48
 70
     1
102
RTVSPropertyOp49
 70
     1
102
RTVSPropertyOp50
 70
     1
102
RTVSPropertyOp51
 70
     0
102
RTVSPropertyOp52
 70
     0
102
RTVSPropertyOp53
 70
     1
102
RTVSPropertyOp54
 70
     1
102
RTVSPropertyOp55
 70
     1
102
RTVSPropertyOp56
 70
     1
102
RTVSPropertyOp57
 70
     1
102
RTVSPropertyOp58
 70
     1
102
RTVSPropertyOp59
 70
     1
102
RTVSPropertyOp60
 70
     1
102
RTVSPropertyOp61
 70
     1
102
RTVSPropertyOp62
 70
     1
  0
XRECORD
  5
664
102
{ACAD_REACTORS
330
663
102
}
330
663
100
AcDbXrecord
280
     1
102
RTVSPost2010Prop28
280
     0
102
RTVSPost2010PropOp28
 70
     0
102
RTVSPost2010Prop29
280
     1
102
RTVSPost2010PropOp29
 70
     0
102
RTVSPost2010Prop30
280
     1
102
RTVSPost2010PropOp30
 70
     0
102
RTVSPost2010Prop31
280
     0
102
RTVSPost2010PropOp31
 70
     0
102
RTVSPost2010Prop32
280
     0
102
RTVSPost2010PropOp32
 70
     0
102
RTVSPost2010Prop33
280
     0
102
RTVSPost2010PropOp33
 70
     0
102
RTVSPost2010Prop34
280
     0
102
RTVSPost2010PropOp34
 70
     0
102
RTVSPost2010Prop35
280
     0
102
RTVSPost2010PropOp35
 70
     0
102
RTVSPost2010Prop36
280
     0
102
RTVSPost2010PropOp36
 70
     0
102
RTVSPost2010Prop37
 90
       50
102
RTVSPost2010PropOp37
 70
     0
102
RTVSPost2010Prop38
140
0.0
102
RTVSPost2010PropOp38
 70
     0
102
RTVSPost2010Prop39
140
1.0
102
RTVSPost2010PropOp39
 70
     0
102
RTVSPost2010Prop40
 90
        0
102
RTVSPost2010PropOp40
 70
     0
102
RTVSPost2010Prop41ColorIndex
 90
       18
102
RTVSPost2010Prop41ColorRGB
 90
        0
102
RTVSPost2010PropOp41
 70
     0
102
RTVSPost2010Prop42
 90
       50
102
RTVSPost2010PropOp42
 70
     0
102
RTVSPost2010Prop43
 90
        3
102
RTVSPost2010PropOp43
 70
     0
102
RTVSPost2010Prop44ColorIndex
 90
        5
102
RTVSPost2010Prop44ColorRGB
 90
      255
102
RTVSPost2010PropOp44
 70
     0
102
RTVSPost2010Prop45
280
     0
102
RTVSPost2010PropOp45
 70
     0
102
RTVSPost2010Prop46
 90
       50
102
RTVSPost2010PropOp46
 70
     0
102
RTVSPost2010Prop47
 90
       50
102
RTVSPost2010PropOp47
 70
     0
102
RTVSPost2010Prop48
 90
       50
102
RTVSPost2010PropOp48
 70
     0
102
RTVSPost2010Prop49
280
     0
102
RTVSPost2010PropOp49
 70
     0
102
RTVSPost2010Prop50
 90
       50
102
RTVSPost2010PropOp50
 70
     0
102
RTVSPost2010Prop51ColorIndex
 90
      256
102
RTVSPost2010Prop51ColorRGB
 90
-16777216
102
RTVSPost2010PropOp51
 70
     0
102
RTVSPost2010Prop52
140
1.0
102
RTVSPost2010PropOp52
 70
     0
102
RTVSPost2010Prop53
 90
        2
102
RTVSPost2010PropOp53
 70
     0
102
RTVSPost2010Prop54
  1
strokes_ogs.tif
102
RTVSPost2010PropOp54
 70
     0
102
RTVSPost2010Prop55
280
     0
102
RTVSPost2010PropOp55
 70
     0
102
RTVSPost2010Prop56
140
1.0
102
RTVSPost2010PropOp56
 70
     0
102
RTVSPost2010Prop57
140
1.0
102
RTVSPost2010PropOp57
 70
     0
102
RTVSPropertyOp0
 70
     0
102
RTVSPropertyOp1
 70
     0
102
RTVSPropertyOp2
 70
     0
102
RTVSPropertyOp3
 70
     0
102
RTVSPropertyOp4
 70
     0
102
RTVSPropertyOp5
 70
     0
102
RTVSPropertyOp6
 70
     0
102
RTVSPropertyOp7
 70
     0
102
RTVSPropertyOp8
 70
     0
102
RTVSPropertyOp9
 70
     0
102
RTVSPropertyOp10
 70
     0
102
RTVSPropertyOp11
 70
     0
102
RTVSPropertyOp12
 70
     0
102
RTVSPropertyOp13
 70
     0
102
RTVSPropertyOp14
 70
     2
102
RTVSPropertyOp15
 70
     0
102
RTVSPropertyOp16
 70
     0
102
RTVSPropertyOp17
 70
     0
102
RTVSPropertyOp18
 70
     0
102
RTVSPropertyOp19
 70
     0
102
RTVSPropertyOp20
 70
     0
102
RTVSPropertyOp21
 70
     0
102
RTVSPropertyOp22
 70
     0
102
RTVSPropertyOp23
 70
     0
102
RTVSPropertyOp24
 70
     0
102
RTVSPropertyOp25
 70
     0
102
RTVSPropertyOp26
 70
     0
102
RTVSPropertyOp27
 70
     0
102
RTVSPropertyOp28
 70
     0
102
RTVSPropertyOp29
 70
     0
102
RTVSPropertyOp30
 70
     0
102
RTVSPropertyOp31
 70
     0
102
RTVSPropertyOp32
 70
     0
102
RTVSPropertyOp33
 70
     0
102
RTVSPropertyOp34
 70
     0
102
RTVSPropertyOp35
 70
     0
102
RTVSPropertyOp36
 70
     0
102
RTVSPropertyOp37
 70
     0
102
RTVSPropertyOp38
 70
     0
102
RTVSPropertyOp39
 70
     0
102
RTVSPropertyOp40
 70
     0
102
RTVSPropertyOp41
 70
     0
102
RTVSPropertyOp42
 70
     0
102
RTVSPropertyOp43
 70
     0
102
RTVSPropertyOp44
 70
     0
102
RTVSPropertyOp45
 70
     0
102
RTVSPropertyOp46
 70
     0
102
RTVSPropertyOp47
 70
     0
102
RTVSPropertyOp48
 70
     0
102
RTVSPropertyOp49
 70
     0
102
RTVSPropertyOp50
 70
     0
102
RTVSPropertyOp51
 70
     0
102
RTVSPropertyOp52
 70
     0
102
RTVSPropertyOp53
 70
     0
102
RTVSPropertyOp54
 70
     0
102
RTVSPropertyOp55
 70
     0
102
RTVSPropertyOp56
 70
     0
102
RTVSPropertyOp57
 70
     0
102
RTVSPropertyOp58
 70
     1
102
RTVSPropertyOp59
 70
     1
102
RTVSPropertyOp60
 70
     1
102
RTVSPropertyOp61
 70
     1
102
RTVSPropertyOp62
 70
     1
  0
XRECORD
  5
65E
102
{ACAD_REACTORS
330
65D
102
}
330
65D
100
AcDbXrecord
280
     1
102
RTVSPost2010Prop28
280
     0
102
RTVSPost2010PropOp28
 70
     1
102
RTVSPost2010Prop29
280
     1
102
RTVSPost2010PropOp29
 70
     1
102
RTVSPost2010Prop30
280
     1
102
RTVSPost2010PropOp30
 70
     1
102
RTVSPost2010Prop31
280
     0
102
RTVSPost2010PropOp31
 70
     1
102
RTVSPost2010Prop32
280
     0
102
RTVSPost2010PropOp32
 70
     1
102
RTVSPost2010Prop33
280
     0
102
RTVSPost2010PropOp33
 70
     1
102
RTVSPost2010Prop34
280
     0
102
RTVSPost2010PropOp34
 70
     1
102
RTVSPost2010Prop35
280
     0
102
RTVSPost2010PropOp35
 70
     1
102
RTVSPost2010Prop36
280
     0
102
RTVSPost2010PropOp36
 70
     1
102
RTVSPost2010Prop37
 90
       50
102
RTVSPost2010PropOp37
 70
     1
102
RTVSPost2010Prop38
140
0.0
102
RTVSPost2010PropOp38
 70
     1
102
RTVSPost2010Prop39
140
1.0
102
RTVSPost2010PropOp39
 70
     1
102
RTVSPost2010Prop40
 90
        0
102
RTVSPost2010PropOp40
 70
     1
102
RTVSPost2010Prop41ColorIndex
 90
       18
102
RTVSPost2010Prop41ColorRGB
 90
        0
102
RTVSPost2010PropOp41
 70
     1
102
RTVSPost2010Prop42
 90
       50
102
RTVSPost2010PropOp42
 70
     1
102
RTVSPost2010Prop43
 90
        3
102
RTVSPost2010PropOp43
 70
     1
102
RTVSPost2010Prop44ColorIndex
 90
        5
102
RTVSPost2010Prop44ColorRGB
 90
      255
102
RTVSPost2010PropOp44
 70
     1
102
RTVSPost2010Prop45
280
     0
102
RTVSPost2010PropOp45
 70
     1
102
RTVSPost2010Prop46
 90
       50
102
RTVSPost2010PropOp46
 70
     1
102
RTVSPost2010Prop47
 90
       50
102
RTVSPost2010PropOp47
 70
     1
102
RTVSPost2010Prop48
 90
       50
102
RTVSPost2010PropOp48
 70
     1
102
RTVSPost2010Prop49
280
     0
102
RTVSPost2010PropOp49
 70
     1
102
RTVSPost2010Prop50
 90
       50
102
RTVSPost2010PropOp50
 70
     1
102
RTVSPost2010Prop51ColorIndex
 90
      256
102
RTVSPost2010Prop51ColorRGB
 90
-16777216
102
RTVSPost2010PropOp51
 70
     0
102
RTVSPost2010Prop52
140
1.0
102
RTVSPost2010PropOp52
 70
     0
102
RTVSPost2010Prop53
 90
        2
102
RTVSPost2010PropOp53
 70
     1
102
RTVSPost2010Prop54
  1
strokes_ogs.tif
102
RTVSPost2010PropOp54
 70
     1
102
RTVSPost2010Prop55
280
     0
102
RTVSPost2010PropOp55
 70
     1
102
RTVSPost2010Prop56
140
1.0
102
RTVSPost2010PropOp56
 70
     1
102
RTVSPost2010Prop57
140
1.0
102
RTVSPost2010PropOp57
 70
     1
102
RTVSPropertyOp0
 70
     1
102
RTVSPropertyOp1
 70
     1
102
RTVSPropertyOp2
 70
     1
102
RTVSPropertyOp3
 70
     1
102
RTVSPropertyOp4
 70
     1
102
RTVSPropertyOp5
 70
     1
102
RTVSPropertyOp6
 70
     1
102
RTVSPropertyOp7
 70
     1
102
RTVSPropertyOp8
 70
     1
102
RTVSPropertyOp9
 70
     1
102
RTVSPropertyOp10
 70
     1
102
RTVSPropertyOp11
 70
     1
102
RTVSPropertyOp12
 70
     1
102
RTVSPropertyOp13
 70
     1
102
RTVSPropertyOp14
 70
     1
102
RTVSPropertyOp15
 70
     1
102
RTVSPropertyOp16
 70
     1
102
RTVSPropertyOp17
 70
     1
102
RTVSPropertyOp18
 70
     1
102
RTVSPropertyOp19
 70
     1
102
RTVSPropertyOp20
 70
     1
102
RTVSPropertyOp21
 70
     1
102
RTVSPropertyOp22
 70
     1
102
RTVSPropertyOp23
 70
     1
102
RTVSPropertyOp24
 70
     1
102
RTVSPropertyOp25
 70
     1
102
RTVSPropertyOp26
 70
     1
102
RTVSPropertyOp27
 70
     1
102
RTVSPropertyOp28
 70
     1
102
RTVSPropertyOp29
 70
     1
102
RTVSPropertyOp30
 70
     1
102
RTVSPropertyOp31
 70
     1
102
RTVSPropertyOp32
 70
     1
102
RTVSPropertyOp33
 70
     1
102
RTVSPropertyOp34
 70
     1
102
RTVSPropertyOp35
 70
     1
102
RTVSPropertyOp36
 70
     1
102
RTVSPropertyOp37
 70
     1
102
RTVSPropertyOp38
 70
     1
102
RTVSPropertyOp39
 70
     1
102
RTVSPropertyOp40
 70
     1
102
RTVSPropertyOp41
 70
     1
102
RTVSPropertyOp42
 70
     1
102
RTVSPropertyOp43
 70
     1
102
RTVSPropertyOp44
 70
     1
102
RTVSPropertyOp45
 70
     1
102
RTVSPropertyOp46
 70
     1
102
RTVSPropertyOp47
 70
     1
102
RTVSPropertyOp48
 70
     1
102
RTVSPropertyOp49
 70
     1
102
RTVSPropertyOp50
 70
     1
102
RTVSPropertyOp51
 70
     0
102
RTVSPropertyOp52
 70
     0
102
RTVSPropertyOp53
 70
     1
102
RTVSPropertyOp54
 70
     1
102
RTVSPropertyOp55
 70
     1
102
RTVSPropertyOp56
 70
     1
102
RTVSPropertyOp57
 70
     1
102
RTVSPropertyOp58
 70
     1
102
RTVSPropertyOp59
 70
     1
102
RTVSPropertyOp60
 70
     1
102
RTVSPropertyOp61
 70
     1
102
RTVSPropertyOp62
 70
     1
  0
XRECORD
  5
666
102
{ACAD_REACTORS
330
665
102
}
330
665
100
AcDbXrecord
280
     1
102
RTVSPost2010Prop28
280
     0
102
RTVSPost2010PropOp28
 70
     0
102
RTVSPost2010Prop29
280
     1
102
RTVSPost2010PropOp29
 70
     0
102
RTVSPost2010Prop30
280
     1
102
RTVSPost2010PropOp30
 70
     0
102
RTVSPost2010Prop31
280
     0
102
RTVSPost2010PropOp31
 70
     0
102
RTVSPost2010Prop32
280
     0
102
RTVSPost2010PropOp32
 70
     0
102
RTVSPost2010Prop33
280
     0
102
RTVSPost2010PropOp33
 70
     0
102
RTVSPost2010Prop34
280
     0
102
RTVSPost2010PropOp34
 70
     0
102
RTVSPost2010Prop35
280
     0
102
RTVSPost2010PropOp35
 70
     0
102
RTVSPost2010Prop36
280
     0
102
RTVSPost2010PropOp36
 70
     0
102
RTVSPost2010Prop37
 90
       50
102
RTVSPost2010PropOp37
 70
     0
102
RTVSPost2010Prop38
140
0.0
102
RTVSPost2010PropOp38
 70
     0
102
RTVSPost2010Prop39
140
1.0
102
RTVSPost2010PropOp39
 70
     0
102
RTVSPost2010Prop40
 90
        0
102
RTVSPost2010PropOp40
 70
     0
102
RTVSPost2010Prop41ColorIndex
 90
       18
102
RTVSPost2010Prop41ColorRGB
 90
        0
102
RTVSPost2010PropOp41
 70
     0
102
RTVSPost2010Prop42
 90
       50
102
RTVSPost2010PropOp42
 70
     0
102
RTVSPost2010Prop43
 90
        3
102
RTVSPost2010PropOp43
 70
     0
102
RTVSPost2010Prop44ColorIndex
 90
        5
102
RTVSPost2010Prop44ColorRGB
 90
      255
102
RTVSPost2010PropOp44
 70
     0
102
RTVSPost2010Prop45
280
     0
102
RTVSPost2010PropOp45
 70
     0
102
RTVSPost2010Prop46
 90
       50
102
RTVSPost2010PropOp46
 70
     0
102
RTVSPost2010Prop47
 90
       50
102
RTVSPost2010PropOp47
 70
     0
102
RTVSPost2010Prop48
 90
       50
102
RTVSPost2010PropOp48
 70
     0
102
RTVSPost2010Prop49
280
     0
102
RTVSPost2010PropOp49
 70
     0
102
RTVSPost2010Prop50
 90
       50
102
RTVSPost2010PropOp50
 70
     0
102
RTVSPost2010Prop51ColorIndex
 90
      256
102
RTVSPost2010Prop51ColorRGB
 90
-16777216
102
RTVSPost2010PropOp51
 70
     0
102
RTVSPost2010Prop52
140
1.0
102
RTVSPost2010PropOp52
 70
     0
102
RTVSPost2010Prop53
 90
        2
102
RTVSPost2010PropOp53
 70
     0
102
RTVSPost2010Prop54
  1
strokes_ogs.tif
102
RTVSPost2010PropOp54
 70
     0
102
RTVSPost2010Prop55
280
     0
102
RTVSPost2010PropOp55
 70
     0
102
RTVSPost2010Prop56
140
1.0
102
RTVSPost2010PropOp56
 70
     0
102
RTVSPost2010Prop57
140
1.0
102
RTVSPost2010PropOp57
 70
     0
102
RTVSPropertyOp0
 70
     0
102
RTVSPropertyOp1
 70
     0
102
RTVSPropertyOp2
 70
     0
102
RTVSPropertyOp3
 70
     0
102
RTVSPropertyOp4
 70
     0
102
RTVSPropertyOp5
 70
     0
102
RTVSPropertyOp6
 70
     0
102
RTVSPropertyOp7
 70
     0
102
RTVSPropertyOp8
 70
     0
102
RTVSPropertyOp9
 70
     0
102
RTVSPropertyOp10
 70
     0
102
RTVSPropertyOp11
 70
     0
102
RTVSPropertyOp12
 70
     0
102
RTVSPropertyOp13
 70
     0
102
RTVSPropertyOp14
 70
     2
102
RTVSPropertyOp15
 70
     0
102
RTVSPropertyOp16
 70
     0
102
RTVSPropertyOp17
 70
     0
102
RTVSPropertyOp18
 70
     0
102
RTVSPropertyOp19
 70
     0
102
RTVSPropertyOp20
 70
     0
102
RTVSPropertyOp21
 70
     0
102
RTVSPropertyOp22
 70
     0
102
RTVSPropertyOp23
 70
     0
102
RTVSPropertyOp24
 70
     0
102
RTVSPropertyOp25
 70
     0
102
RTVSPropertyOp26
 70
     0
102
RTVSPropertyOp27
 70
     0
102
RTVSPropertyOp28
 70
     0
102
RTVSPropertyOp29
 70
     0
102
RTVSPropertyOp30
 70
     0
102
RTVSPropertyOp31
 70
     0
102
RTVSPropertyOp32
 70
     0
102
RTVSPropertyOp33
 70
     0
102
RTVSPropertyOp34
 70
     0
102
RTVSPropertyOp35
 70
     0
102
RTVSPropertyOp36
 70
     0
102
RTVSPropertyOp37
 70
     0
102
RTVSPropertyOp38
 70
     0
102
RTVSPropertyOp39
 70
     0
102
RTVSPropertyOp40
 70
     0
102
RTVSPropertyOp41
 70
     0
102
RTVSPropertyOp42
 70
     0
102
RTVSPropertyOp43
 70
     0
102
RTVSPropertyOp44
 70
     0
102
RTVSPropertyOp45
 70
     0
102
RTVSPropertyOp46
 70
     0
102
RTVSPropertyOp47
 70
     0
102
RTVSPropertyOp48
 70
     0
102
RTVSPropertyOp49
 70
     0
102
RTVSPropertyOp50
 70
     0
102
RTVSPropertyOp51
 70
     0
102
RTVSPropertyOp52
 70
     0
102
RTVSPropertyOp53
 70
     0
102
RTVSPropertyOp54
 70
     0
102
RTVSPropertyOp55
 70
     0
102
RTVSPropertyOp56
 70
     0
102
RTVSPropertyOp57
 70
     0
102
RTVSPropertyOp58
 70
     1
102
RTVSPropertyOp59
 70
     1
102
RTVSPropertyOp60
 70
     1
102
RTVSPropertyOp61
 70
     1
102
RTVSPropertyOp62
 70
     1
  0
XRECORD
  5
654
102
{ACAD_REACTORS
330
653
102
}
330
653
100
AcDbXrecord
280
     1
102
RTVSPost2010Prop28
280
     0
102
RTVSPost2010PropOp28
 70
     1
102
RTVSPost2010Prop29
280
     1
102
RTVSPost2010PropOp29
 70
     1
102
RTVSPost2010Prop30
280
     1
102
RTVSPost2010PropOp30
 70
     1
102
RTVSPost2010Prop31
280
     0
102
RTVSPost2010PropOp31
 70
     1
102
RTVSPost2010Prop32
280
     0
102
RTVSPost2010PropOp32
 70
     1
102
RTVSPost2010Prop33
280
     0
102
RTVSPost2010PropOp33
 70
     1
102
RTVSPost2010Prop34
280
     0
102
RTVSPost2010PropOp34
 70
     1
102
RTVSPost2010Prop35
280
     0
102
RTVSPost2010PropOp35
 70
     1
102
RTVSPost2010Prop36
280
     0
102
RTVSPost2010PropOp36
 70
     1
102
RTVSPost2010Prop37
 90
       50
102
RTVSPost2010PropOp37
 70
     1
102
RTVSPost2010Prop38
140
0.0
102
RTVSPost2010PropOp38
 70
     1
102
RTVSPost2010Prop39
140
1.0
102
RTVSPost2010PropOp39
 70
     1
102
RTVSPost2010Prop40
 90
        0
102
RTVSPost2010PropOp40
 70
     1
102
RTVSPost2010Prop41ColorIndex
 90
       18
102
RTVSPost2010Prop41ColorRGB
 90
        0
102
RTVSPost2010PropOp41
 70
     1
102
RTVSPost2010Prop42
 90
       50
102
RTVSPost2010PropOp42
 70
     1
102
RTVSPost2010Prop43
 90
        3
102
RTVSPost2010PropOp43
 70
     1
102
RTVSPost2010Prop44ColorIndex
 90
        5
102
RTVSPost2010Prop44ColorRGB
 90
      255
102
RTVSPost2010PropOp44
 70
     1
102
RTVSPost2010Prop45
280
     0
102
RTVSPost2010PropOp45
 70
     1
102
RTVSPost2010Prop46
 90
       50
102
RTVSPost2010PropOp46
 70
     1
102
RTVSPost2010Prop47
 90
       50
102
RTVSPost2010PropOp47
 70
     1
102
RTVSPost2010Prop48
 90
       50
102
RTVSPost2010PropOp48
 70
     1
102
RTVSPost2010Prop49
280
     0
102
RTVSPost2010PropOp49
 70
     1
102
RTVSPost2010Prop50
 90
       50
102
RTVSPost2010PropOp50
 70
     1
102
RTVSPost2010Prop51ColorIndex
 90
      256
102
RTVSPost2010Prop51ColorRGB
 90
-16777216
102
RTVSPost2010PropOp51
 70
     0
102
RTVSPost2010Prop52
140
1.0
102
RTVSPost2010PropOp52
 70
     0
102
RTVSPost2010Prop53
 90
        2
102
RTVSPost2010PropOp53
 70
     1
102
RTVSPost2010Prop54
  1
strokes_ogs.tif
102
RTVSPost2010PropOp54
 70
     1
102
RTVSPost2010Prop55
280
     0
102
RTVSPost2010PropOp55
 70
     1
102
RTVSPost2010Prop56
140
1.0
102
RTVSPost2010PropOp56
 70
     1
102
RTVSPost2010Prop57
140
1.0
102
RTVSPost2010PropOp57
 70
     1
102
RTVSPropertyOp0
 70
     1
102
RTVSPropertyOp1
 70
     1
102
RTVSPropertyOp2
 70
     1
102
RTVSPropertyOp3
 70
     1
102
RTVSPropertyOp4
 70
     1
102
RTVSPropertyOp5
 70
     1
102
RTVSPropertyOp6
 70
     1
102
RTVSPropertyOp7
 70
     1
102
RTVSPropertyOp8
 70
     1
102
RTVSPropertyOp9
 70
     1
102
RTVSPropertyOp10
 70
     1
102
RTVSPropertyOp11
 70
     1
102
RTVSPropertyOp12
 70
     1
102
RTVSPropertyOp13
 70
     1
102
RTVSPropertyOp14
 70
     1
102
RTVSPropertyOp15
 70
     1
102
RTVSPropertyOp16
 70
     1
102
RTVSPropertyOp17
 70
     1
102
RTVSPropertyOp18
 70
     1
102
RTVSPropertyOp19
 70
     1
102
RTVSPropertyOp20
 70
     1
102
RTVSPropertyOp21
 70
     1
102
RTVSPropertyOp22
 70
     1
102
RTVSPropertyOp23
 70
     1
102
RTVSPropertyOp24
 70
     1
102
RTVSPropertyOp25
 70
     1
102
RTVSPropertyOp26
 70
     1
102
RTVSPropertyOp27
 70
     1
102
RTVSPropertyOp28
 70
     1
102
RTVSPropertyOp29
 70
     1
102
RTVSPropertyOp30
 70
     1
102
RTVSPropertyOp31
 70
     1
102
RTVSPropertyOp32
 70
     1
102
RTVSPropertyOp33
 70
     1
102
RTVSPropertyOp34
 70
     1
102
RTVSPropertyOp35
 70
     1
102
RTVSPropertyOp36
 70
     1
102
RTVSPropertyOp37
 70
     1
102
RTVSPropertyOp38
 70
     1
102
RTVSPropertyOp39
 70
     1
102
RTVSPropertyOp40
 70
     1
102
RTVSPropertyOp41
 70
     1
102
RTVSPropertyOp42
 70
     1
102
RTVSPropertyOp43
 70
     1
102
RTVSPropertyOp44
 70
     1
102
RTVSPropertyOp45
 70
     1
102
RTVSPropertyOp46
 70
     1
102
RTVSPropertyOp47
 70
     1
102
RTVSPropertyOp48
 70
     1
102
RTVSPropertyOp49
 70
     1
102
RTVSPropertyOp50
 70
     1
102
RTVSPropertyOp51
 70
     0
102
RTVSPropertyOp52
 70
     0
102
RTVSPropertyOp53
 70
     1
102
RTVSPropertyOp54
 70
     1
102
RTVSPropertyOp55
 70
     1
102
RTVSPropertyOp56
 70
     1
102
RTVSPropertyOp57
 70
     1
102
RTVSPropertyOp58
 70
     1
102
RTVSPropertyOp59
 70
     1
102
RTVSPropertyOp60
 70
     1
102
RTVSPropertyOp61
 70
     1
102
RTVSPropertyOp62
 70
     1
  0
XRECORD
  5
672
102
{ACAD_REACTORS
330
671
102
}
330
671
100
AcDbXrecord
280
     1
102
RTVSPost2010Prop28
280
     0
102
RTVSPost2010PropOp28
 70
     1
102
RTVSPost2010Prop29
280
     1
102
RTVSPost2010PropOp29
 70
     1
102
RTVSPost2010Prop30
280
     1
102
RTVSPost2010PropOp30
 70
     1
102
RTVSPost2010Prop31
280
     0
102
RTVSPost2010PropOp31
 70
     1
102
RTVSPost2010Prop32
280
     0
102
RTVSPost2010PropOp32
 70
     1
102
RTVSPost2010Prop33
280
     0
102
RTVSPost2010PropOp33
 70
     1
102
RTVSPost2010Prop34
280
     0
102
RTVSPost2010PropOp34
 70
     1
102
RTVSPost2010Prop35
280
     0
102
RTVSPost2010PropOp35
 70
     1
102
RTVSPost2010Prop36
280
     0
102
RTVSPost2010PropOp36
 70
     1
102
RTVSPost2010Prop37
 90
       50
102
RTVSPost2010PropOp37
 70
     1
102
RTVSPost2010Prop38
140
0.0
102
RTVSPost2010PropOp38
 70
     1
102
RTVSPost2010Prop39
140
1.0
102
RTVSPost2010PropOp39
 70
     1
102
RTVSPost2010Prop40
 90
        0
102
RTVSPost2010PropOp40
 70
     1
102
RTVSPost2010Prop41ColorIndex
 90
       18
102
RTVSPost2010Prop41ColorRGB
 90
        0
102
RTVSPost2010PropOp41
 70
     1
102
RTVSPost2010Prop42
 90
       50
102
RTVSPost2010PropOp42
 70
     1
102
RTVSPost2010Prop43
 90
        3
102
RTVSPost2010PropOp43
 70
     1
102
RTVSPost2010Prop44ColorIndex
 90
        5
102
RTVSPost2010Prop44ColorRGB
 90
      255
102
RTVSPost2010PropOp44
 70
     1
102
RTVSPost2010Prop45
280
     0
102
RTVSPost2010PropOp45
 70
     1
102
RTVSPost2010Prop46
 90
       50
102
RTVSPost2010PropOp46
 70
     1
102
RTVSPost2010Prop47
 90
       50
102
RTVSPost2010PropOp47
 70
     1
102
RTVSPost2010Prop48
 90
       50
102
RTVSPost2010PropOp48
 70
     1
102
RTVSPost2010Prop49
280
     0
102
RTVSPost2010PropOp49
 70
     1
102
RTVSPost2010Prop50
 90
       50
102
RTVSPost2010PropOp50
 70
     1
102
RTVSPost2010Prop51ColorIndex
 90
      256
102
RTVSPost2010Prop51ColorRGB
 90
-16777216
102
RTVSPost2010PropOp51
 70
     0
102
RTVSPost2010Prop52
140
1.0
102
RTVSPost2010PropOp52
 70
     0
102
RTVSPost2010Prop53
 90
        2
102
RTVSPost2010PropOp53
 70
     1
102
RTVSPost2010Prop54
  1
strokes_ogs.tif
102
RTVSPost2010PropOp54
 70
     1
102
RTVSPost2010Prop55
280
     0
102
RTVSPost2010PropOp55
 70
     1
102
RTVSPost2010Prop56
140
1.0
102
RTVSPost2010PropOp56
 70
     1
102
RTVSPost2010Prop57
140
1.0
102
RTVSPost2010PropOp57
 70
     1
102
RTVSPropertyOp0
 70
     1
102
RTVSPropertyOp1
 70
     1
102
RTVSPropertyOp2
 70
     1
102
RTVSPropertyOp3
 70
     1
102
RTVSPropertyOp4
 70
     1
102
RTVSPropertyOp5
 70
     1
102
RTVSPropertyOp6
 70
     1
102
RTVSPropertyOp7
 70
     1
102
RTVSPropertyOp8
 70
     1
102
RTVSPropertyOp9
 70
     1
102
RTVSPropertyOp10
 70
     1
102
RTVSPropertyOp11
 70
     1
102
RTVSPropertyOp12
 70
     1
102
RTVSPropertyOp13
 70
     1
102
RTVSPropertyOp14
 70
     1
102
RTVSPropertyOp15
 70
     1
102
RTVSPropertyOp16
 70
     1
102
RTVSPropertyOp17
 70
     1
102
RTVSPropertyOp18
 70
     1
102
RTVSPropertyOp19
 70
     1
102
RTVSPropertyOp20
 70
     1
102
RTVSPropertyOp21
 70
     1
102
RTVSPropertyOp22
 70
     1
102
RTVSPropertyOp23
 70
     1
102
RTVSPropertyOp24
 70
     1
102
RTVSPropertyOp25
 70
     1
102
RTVSPropertyOp26
 70
     1
102
RTVSPropertyOp27
 70
     1
102
RTVSPropertyOp28
 70
     1
102
RTVSPropertyOp29
 70
     1
102
RTVSPropertyOp30
 70
     1
102
RTVSPropertyOp31
 70
     1
102
RTVSPropertyOp32
 70
     1
102
RTVSPropertyOp33
 70
     1
102
RTVSPropertyOp34
 70
     1
102
RTVSPropertyOp35
 70
     1
102
RTVSPropertyOp36
 70
     1
102
RTVSPropertyOp37
 70
     1
102
RTVSPropertyOp38
 70
     1
102
RTVSPropertyOp39
 70
     1
102
RTVSPropertyOp40
 70
     1
102
RTVSPropertyOp41
 70
     1
102
RTVSPropertyOp42
 70
     1
102
RTVSPropertyOp43
 70
     1
102
RTVSPropertyOp44
 70
     1
102
RTVSPropertyOp45
 70
     1
102
RTVSPropertyOp46
 70
     1
102
RTVSPropertyOp47
 70
     1
102
RTVSPropertyOp48
 70
     1
102
RTVSPropertyOp49
 70
     1
102
RTVSPropertyOp50
 70
     1
102
RTVSPropertyOp51
 70
     0
102
RTVSPropertyOp52
 70
     0
102
RTVSPropertyOp53
 70
     1
102
RTVSPropertyOp54
 70
     1
102
RTVSPropertyOp55
 70
     1
102
RTVSPropertyOp56
 70
     1
102
RTVSPropertyOp57
 70
     1
102
RTVSPropertyOp58
 70
     1
102
RTVSPropertyOp59
 70
     1
102
RTVSPropertyOp60
 70
     1
102
RTVSPropertyOp61
 70
     1
102
RTVSPropertyOp62
 70
     1
  0
XRECORD
  5
670
102
{ACAD_REACTORS
330
66F
102
}
330
66F
100
AcDbXrecord
280
     1
102
RTVSPost2010Prop28
280
     0
102
RTVSPost2010PropOp28
 70
     1
102
RTVSPost2010Prop29
280
     1
102
RTVSPost2010PropOp29
 70
     1
102
RTVSPost2010Prop30
280
     1
102
RTVSPost2010PropOp30
 70
     1
102
RTVSPost2010Prop31
280
     0
102
RTVSPost2010PropOp31
 70
     1
102
RTVSPost2010Prop32
280
     0
102
RTVSPost2010PropOp32
 70
     1
102
RTVSPost2010Prop33
280
     0
102
RTVSPost2010PropOp33
 70
     1
102
RTVSPost2010Prop34
280
     0
102
RTVSPost2010PropOp34
 70
     1
102
RTVSPost2010Prop35
280
     0
102
RTVSPost2010PropOp35
 70
     1
102
RTVSPost2010Prop36
280
     0
102
RTVSPost2010PropOp36
 70
     1
102
RTVSPost2010Prop37
 90
       50
102
RTVSPost2010PropOp37
 70
     1
102
RTVSPost2010Prop38
140
0.0
102
RTVSPost2010PropOp38
 70
     1
102
RTVSPost2010Prop39
140
1.0
102
RTVSPost2010PropOp39
 70
     1
102
RTVSPost2010Prop40
 90
        0
102
RTVSPost2010PropOp40
 70
     1
102
RTVSPost2010Prop41ColorIndex
 90
       18
102
RTVSPost2010Prop41ColorRGB
 90
        0
102
RTVSPost2010PropOp41
 70
     1
102
RTVSPost2010Prop42
 90
       50
102
RTVSPost2010PropOp42
 70
     1
102
RTVSPost2010Prop43
 90
        3
102
RTVSPost2010PropOp43
 70
     1
102
RTVSPost2010Prop44ColorIndex
 90
        5
102
RTVSPost2010Prop44ColorRGB
 90
      255
102
RTVSPost2010PropOp44
 70
     1
102
RTVSPost2010Prop45
280
     0
102
RTVSPost2010PropOp45
 70
     1
102
RTVSPost2010Prop46
 90
       50
102
RTVSPost2010PropOp46
 70
     1
102
RTVSPost2010Prop47
 90
       50
102
RTVSPost2010PropOp47
 70
     1
102
RTVSPost2010Prop48
 90
       50
102
RTVSPost2010PropOp48
 70
     1
102
RTVSPost2010Prop49
280
     0
102
RTVSPost2010PropOp49
 70
     1
102
RTVSPost2010Prop50
 90
       50
102
RTVSPost2010PropOp50
 70
     1
102
RTVSPost2010Prop51ColorIndex
 90
      256
102
RTVSPost2010Prop51ColorRGB
 90
-16777216
102
RTVSPost2010PropOp51
 70
     0
102
RTVSPost2010Prop52
140
1.0
102
RTVSPost2010PropOp52
 70
     0
102
RTVSPost2010Prop53
 90
        2
102
RTVSPost2010PropOp53
 70
     1
102
RTVSPost2010Prop54
  1
strokes_ogs.tif
102
RTVSPost2010PropOp54
 70
     1
102
RTVSPost2010Prop55
280
     0
102
RTVSPost2010PropOp55
 70
     1
102
RTVSPost2010Prop56
140
1.0
102
RTVSPost2010PropOp56
 70
     1
102
RTVSPost2010Prop57
140
1.0
102
RTVSPost2010PropOp57
 70
     1
102
RTVSPropertyOp0
 70
     1
102
RTVSPropertyOp1
 70
     1
102
RTVSPropertyOp2
 70
     1
102
RTVSPropertyOp3
 70
     1
102
RTVSPropertyOp4
 70
     1
102
RTVSPropertyOp5
 70
     1
102
RTVSPropertyOp6
 70
     1
102
RTVSPropertyOp7
 70
     1
102
RTVSPropertyOp8
 70
     1
102
RTVSPropertyOp9
 70
     1
102
RTVSPropertyOp10
 70
     1
102
RTVSPropertyOp11
 70
     1
102
RTVSPropertyOp12
 70
     1
102
RTVSPropertyOp13
 70
     1
102
RTVSPropertyOp14
 70
     1
102
RTVSPropertyOp15
 70
     1
102
RTVSPropertyOp16
 70
     1
102
RTVSPropertyOp17
 70
     1
102
RTVSPropertyOp18
 70
     1
102
RTVSPropertyOp19
 70
     1
102
RTVSPropertyOp20
 70
     1
102
RTVSPropertyOp21
 70
     1
102
RTVSPropertyOp22
 70
     1
102
RTVSPropertyOp23
 70
     1
102
RTVSPropertyOp24
 70
     1
102
RTVSPropertyOp25
 70
     1
102
RTVSPropertyOp26
 70
     1
102
RTVSPropertyOp27
 70
     1
102
RTVSPropertyOp28
 70
     1
102
RTVSPropertyOp29
 70
     1
102
RTVSPropertyOp30
 70
     1
102
RTVSPropertyOp31
 70
     1
102
RTVSPropertyOp32
 70
     1
102
RTVSPropertyOp33
 70
     1
102
RTVSPropertyOp34
 70
     1
102
RTVSPropertyOp35
 70
     1
102
RTVSPropertyOp36
 70
     1
102
RTVSPropertyOp37
 70
     1
102
RTVSPropertyOp38
 70
     1
102
RTVSPropertyOp39
 70
     1
102
RTVSPropertyOp40
 70
     1
102
RTVSPropertyOp41
 70
     1
102
RTVSPropertyOp42
 70
     1
102
RTVSPropertyOp43
 70
     1
102
RTVSPropertyOp44
 70
     1
102
RTVSPropertyOp45
 70
     1
102
RTVSPropertyOp46
 70
     1
102
RTVSPropertyOp47
 70
     1
102
RTVSPropertyOp48
 70
     1
102
RTVSPropertyOp49
 70
     1
102
RTVSPropertyOp50
 70
     1
102
RTVSPropertyOp51
 70
     0
102
RTVSPropertyOp52
 70
     0
102
RTVSPropertyOp53
 70
     1
102
RTVSPropertyOp54
 70
     1
102
RTVSPropertyOp55
 70
     1
102
RTVSPropertyOp56
 70
     1
102
RTVSPropertyOp57
 70
     1
102
RTVSPropertyOp58
 70
     1
102
RTVSPropertyOp59
 70
     1
102
RTVSPropertyOp60
 70
     1
102
RTVSPropertyOp61
 70
     1
102
RTVSPropertyOp62
 70
     1
  0
XRECORD
  5
66A
102
{ACAD_REACTORS
330
669
102
}
330
669
100
AcDbXrecord
280
     1
102
RTVSPost2010Prop28
280
     0
102
RTVSPost2010PropOp28
 70
     1
102
RTVSPost2010Prop29
280
     1
102
RTVSPost2010PropOp29
 70
     1
102
RTVSPost2010Prop30
280
     1
102
RTVSPost2010PropOp30
 70
     1
102
RTVSPost2010Prop31
280
     0
102
RTVSPost2010PropOp31
 70
     1
102
RTVSPost2010Prop32
280
     0
102
RTVSPost2010PropOp32
 70
     1
102
RTVSPost2010Prop33
280
     0
102
RTVSPost2010PropOp33
 70
     1
102
RTVSPost2010Prop34
280
     0
102
RTVSPost2010PropOp34
 70
     1
102
RTVSPost2010Prop35
280
     0
102
RTVSPost2010PropOp35
 70
     1
102
RTVSPost2010Prop36
280
     0
102
RTVSPost2010PropOp36
 70
     1
102
RTVSPost2010Prop37
 90
       50
102
RTVSPost2010PropOp37
 70
     1
102
RTVSPost2010Prop38
140
0.0
102
RTVSPost2010PropOp38
 70
     1
102
RTVSPost2010Prop39
140
1.0
102
RTVSPost2010PropOp39
 70
     1
102
RTVSPost2010Prop40
 90
        0
102
RTVSPost2010PropOp40
 70
     1
102
RTVSPost2010Prop41ColorIndex
 90
       18
102
RTVSPost2010Prop41ColorRGB
 90
        0
102
RTVSPost2010PropOp41
 70
     1
102
RTVSPost2010Prop42
 90
       50
102
RTVSPost2010PropOp42
 70
     1
102
RTVSPost2010Prop43
 90
        3
102
RTVSPost2010PropOp43
 70
     1
102
RTVSPost2010Prop44ColorIndex
 90
        5
102
RTVSPost2010Prop44ColorRGB
 90
      255
102
RTVSPost2010PropOp44
 70
     1
102
RTVSPost2010Prop45
280
     0
102
RTVSPost2010PropOp45
 70
     1
102
RTVSPost2010Prop46
 90
       50
102
RTVSPost2010PropOp46
 70
     1
102
RTVSPost2010Prop47
 90
       50
102
RTVSPost2010PropOp47
 70
     1
102
RTVSPost2010Prop48
 90
       50
102
RTVSPost2010PropOp48
 70
     1
102
RTVSPost2010Prop49
280
     0
102
RTVSPost2010PropOp49
 70
     1
102
RTVSPost2010Prop50
 90
       50
102
RTVSPost2010PropOp50
 70
     1
102
RTVSPost2010Prop51ColorIndex
 90
      256
102
RTVSPost2010Prop51ColorRGB
 90
-16777216
102
RTVSPost2010PropOp51
 70
     0
102
RTVSPost2010Prop52
140
1.0
102
RTVSPost2010PropOp52
 70
     0
102
RTVSPost2010Prop53
 90
        2
102
RTVSPost2010PropOp53
 70
     1
102
RTVSPost2010Prop54
  1
strokes_ogs.tif
102
RTVSPost2010PropOp54
 70
     1
102
RTVSPost2010Prop55
280
     0
102
RTVSPost2010PropOp55
 70
     1
102
RTVSPost2010Prop56
140
1.0
102
RTVSPost2010PropOp56
 70
     1
102
RTVSPost2010Prop57
140
1.0
102
RTVSPost2010PropOp57
 70
     1
102
RTVSPropertyOp0
 70
     1
102
RTVSPropertyOp1
 70
     1
102
RTVSPropertyOp2
 70
     1
102
RTVSPropertyOp3
 70
     1
102
RTVSPropertyOp4
 70
     1
102
RTVSPropertyOp5
 70
     1
102
RTVSPropertyOp6
 70
     1
102
RTVSPropertyOp7
 70
     1
102
RTVSPropertyOp8
 70
     1
102
RTVSPropertyOp9
 70
     1
102
RTVSPropertyOp10
 70
     1
102
RTVSPropertyOp11
 70
     1
102
RTVSPropertyOp12
 70
     1
102
RTVSPropertyOp13
 70
     1
102
RTVSPropertyOp14
 70
     1
102
RTVSPropertyOp15
 70
     1
102
RTVSPropertyOp16
 70
     1
102
RTVSPropertyOp17
 70
     1
102
RTVSPropertyOp18
 70
     1
102
RTVSPropertyOp19
 70
     1
102
RTVSPropertyOp20
 70
     1
102
RTVSPropertyOp21
 70
     1
102
RTVSPropertyOp22
 70
     1
102
RTVSPropertyOp23
 70
     1
102
RTVSPropertyOp24
 70
     1
102
RTVSPropertyOp25
 70
     1
102
RTVSPropertyOp26
 70
     1
102
RTVSPropertyOp27
 70
     1
102
RTVSPropertyOp28
 70
     1
102
RTVSPropertyOp29
 70
     1
102
RTVSPropertyOp30
 70
     1
102
RTVSPropertyOp31
 70
     1
102
RTVSPropertyOp32
 70
     1
102
RTVSPropertyOp33
 70
     1
102
RTVSPropertyOp34
 70
     1
102
RTVSPropertyOp35
 70
     1
102
RTVSPropertyOp36
 70
     1
102
RTVSPropertyOp37
 70
     1
102
RTVSPropertyOp38
 70
     1
102
RTVSPropertyOp39
 70
     1
102
RTVSPropertyOp40
 70
     1
102
RTVSPropertyOp41
 70
     1
102
RTVSPropertyOp42
 70
     1
102
RTVSPropertyOp43
 70
     1
102
RTVSPropertyOp44
 70
     1
102
RTVSPropertyOp45
 70
     1
102
RTVSPropertyOp46
 70
     1
102
RTVSPropertyOp47
 70
     1
102
RTVSPropertyOp48
 70
     1
102
RTVSPropertyOp49
 70
     1
102
RTVSPropertyOp50
 70
     1
102
RTVSPropertyOp51
 70
     0
102
RTVSPropertyOp52
 70
     0
102
RTVSPropertyOp53
 70
     1
102
RTVSPropertyOp54
 70
     1
102
RTVSPropertyOp55
 70
     1
102
RTVSPropertyOp56
 70
     1
102
RTVSPropertyOp57
 70
     1
102
RTVSPropertyOp58
 70
     1
102
RTVSPropertyOp59
 70
     1
102
RTVSPropertyOp60
 70
     1
102
RTVSPropertyOp61
 70
     1
102
RTVSPropertyOp62
 70
     1
  0
XRECORD
  5
66C
102
{ACAD_REACTORS
330
66B
102
}
330
66B
100
AcDbXrecord
280
     1
102
RTVSPost2010Prop28
280
     0
102
RTVSPost2010PropOp28
 70
     1
102
RTVSPost2010Prop29
280
     1
102
RTVSPost2010PropOp29
 70
     1
102
RTVSPost2010Prop30
280
     1
102
RTVSPost2010PropOp30
 70
     1
102
RTVSPost2010Prop31
280
     0
102
RTVSPost2010PropOp31
 70
     1
102
RTVSPost2010Prop32
280
     0
102
RTVSPost2010PropOp32
 70
     1
102
RTVSPost2010Prop33
280
     0
102
RTVSPost2010PropOp33
 70
     1
102
RTVSPost2010Prop34
280
     0
102
RTVSPost2010PropOp34
 70
     1
102
RTVSPost2010Prop35
280
     0
102
RTVSPost2010PropOp35
 70
     1
102
RTVSPost2010Prop36
280
     0
102
RTVSPost2010PropOp36
 70
     1
102
RTVSPost2010Prop37
 90
       50
102
RTVSPost2010PropOp37
 70
     1
102
RTVSPost2010Prop38
140
0.0
102
RTVSPost2010PropOp38
 70
     1
102
RTVSPost2010Prop39
140
1.0
102
RTVSPost2010PropOp39
 70
     1
102
RTVSPost2010Prop40
 90
        0
102
RTVSPost2010PropOp40
 70
     1
102
RTVSPost2010Prop41ColorIndex
 90
       18
102
RTVSPost2010Prop41ColorRGB
 90
        0
102
RTVSPost2010PropOp41
 70
     1
102
RTVSPost2010Prop42
 90
       50
102
RTVSPost2010PropOp42
 70
     1
102
RTVSPost2010Prop43
 90
        3
102
RTVSPost2010PropOp43
 70
     1
102
RTVSPost2010Prop44ColorIndex
 90
        5
102
RTVSPost2010Prop44ColorRGB
 90
      255
102
RTVSPost2010PropOp44
 70
     1
102
RTVSPost2010Prop45
280
     0
102
RTVSPost2010PropOp45
 70
     1
102
RTVSPost2010Prop46
 90
       50
102
RTVSPost2010PropOp46
 70
     1
102
RTVSPost2010Prop47
 90
       50
102
RTVSPost2010PropOp47
 70
     1
102
RTVSPost2010Prop48
 90
       50
102
RTVSPost2010PropOp48
 70
     1
102
RTVSPost2010Prop49
280
     0
102
RTVSPost2010PropOp49
 70
     1
102
RTVSPost2010Prop50
 90
       50
102
RTVSPost2010PropOp50
 70
     1
102
RTVSPost2010Prop51ColorIndex
 90
      256
102
RTVSPost2010Prop51ColorRGB
 90
-16777216
102
RTVSPost2010PropOp51
 70
     0
102
RTVSPost2010Prop52
140
1.0
102
RTVSPost2010PropOp52
 70
     0
102
RTVSPost2010Prop53
 90
        2
102
RTVSPost2010PropOp53
 70
     1
102
RTVSPost2010Prop54
  1
strokes_ogs.tif
102
RTVSPost2010PropOp54
 70
     1
102
RTVSPost2010Prop55
280
     0
102
RTVSPost2010PropOp55
 70
     1
102
RTVSPost2010Prop56
140
1.0
102
RTVSPost2010PropOp56
 70
     1
102
RTVSPost2010Prop57
140
1.0
102
RTVSPost2010PropOp57
 70
     1
102
RTVSPropertyOp0
 70
     1
102
RTVSPropertyOp1
 70
     1
102
RTVSPropertyOp2
 70
     1
102
RTVSPropertyOp3
 70
     1
102
RTVSPropertyOp4
 70
     1
102
RTVSPropertyOp5
 70
     1
102
RTVSPropertyOp6
 70
     1
102
RTVSPropertyOp7
 70
     1
102
RTVSPropertyOp8
 70
     1
102
RTVSPropertyOp9
 70
     1
102
RTVSPropertyOp10
 70
     1
102
RTVSPropertyOp11
 70
     1
102
RTVSPropertyOp12
 70
     1
102
RTVSPropertyOp13
 70
     1
102
RTVSPropertyOp14
 70
     1
102
RTVSPropertyOp15
 70
     1
102
RTVSPropertyOp16
 70
     1
102
RTVSPropertyOp17
 70
     1
102
RTVSPropertyOp18
 70
     1
102
RTVSPropertyOp19
 70
     1
102
RTVSPropertyOp20
 70
     1
102
RTVSPropertyOp21
 70
     1
102
RTVSPropertyOp22
 70
     1
102
RTVSPropertyOp23
 70
     1
102
RTVSPropertyOp24
 70
     1
102
RTVSPropertyOp25
 70
     1
102
RTVSPropertyOp26
 70
     1
102
RTVSPropertyOp27
 70
     1
102
RTVSPropertyOp28
 70
     1
102
RTVSPropertyOp29
 70
     1
102
RTVSPropertyOp30
 70
     1
102
RTVSPropertyOp31
 70
     1
102
RTVSPropertyOp32
 70
     1
102
RTVSPropertyOp33
 70
     1
102
RTVSPropertyOp34
 70
     1
102
RTVSPropertyOp35
 70
     1
102
RTVSPropertyOp36
 70
     1
102
RTVSPropertyOp37
 70
     1
102
RTVSPropertyOp38
 70
     1
102
RTVSPropertyOp39
 70
     1
102
RTVSPropertyOp40
 70
     1
102
RTVSPropertyOp41
 70
     1
102
RTVSPropertyOp42
 70
     1
102
RTVSPropertyOp43
 70
     1
102
RTVSPropertyOp44
 70
     1
102
RTVSPropertyOp45
 70
     1
102
RTVSPropertyOp46
 70
     1
102
RTVSPropertyOp47
 70
     1
102
RTVSPropertyOp48
 70
     1
102
RTVSPropertyOp49
 70
     1
102
RTVSPropertyOp50
 70
     1
102
RTVSPropertyOp51
 70
     0
102
RTVSPropertyOp52
 70
     0
102
RTVSPropertyOp53
 70
     1
102
RTVSPropertyOp54
 70
     1
102
RTVSPropertyOp55
 70
     1
102
RTVSPropertyOp56
 70
     1
102
RTVSPropertyOp57
 70
     1
102
RTVSPropertyOp58
 70
     1
102
RTVSPropertyOp59
 70
     1
102
RTVSPropertyOp60
 70
     1
102
RTVSPropertyOp61
 70
     1
102
RTVSPropertyOp62
 70
     1
  0
XRECORD
  5
65C
102
{ACAD_REACTORS
330
65B
102
}
330
65B
100
AcDbXrecord
280
     1
102
RTVSPost2010Prop28
280
     0
102
RTVSPost2010PropOp28
 70
     1
102
RTVSPost2010Prop29
280
     1
102
RTVSPost2010PropOp29
 70
     1
102
RTVSPost2010Prop30
280
     1
102
RTVSPost2010PropOp30
 70
     1
102
RTVSPost2010Prop31
280
     0
102
RTVSPost2010PropOp31
 70
     1
102
RTVSPost2010Prop32
280
     0
102
RTVSPost2010PropOp32
 70
     1
102
RTVSPost2010Prop33
280
     0
102
RTVSPost2010PropOp33
 70
     1
102
RTVSPost2010Prop34
280
     0
102
RTVSPost2010PropOp34
 70
     1
102
RTVSPost2010Prop35
280
     0
102
RTVSPost2010PropOp35
 70
     1
102
RTVSPost2010Prop36
280
     0
102
RTVSPost2010PropOp36
 70
     1
102
RTVSPost2010Prop37
 90
       50
102
RTVSPost2010PropOp37
 70
     1
102
RTVSPost2010Prop38
140
0.0
102
RTVSPost2010PropOp38
 70
     1
102
RTVSPost2010Prop39
140
1.0
102
RTVSPost2010PropOp39
 70
     1
102
RTVSPost2010Prop40
 90
        0
102
RTVSPost2010PropOp40
 70
     1
102
RTVSPost2010Prop41ColorIndex
 90
       18
102
RTVSPost2010Prop41ColorRGB
 90
        0
102
RTVSPost2010PropOp41
 70
     1
102
RTVSPost2010Prop42
 90
       50
102
RTVSPost2010PropOp42
 70
     1
102
RTVSPost2010Prop43
 90
        3
102
RTVSPost2010PropOp43
 70
     1
102
RTVSPost2010Prop44ColorIndex
 90
        5
102
RTVSPost2010Prop44ColorRGB
 90
      255
102
RTVSPost2010PropOp44
 70
     1
102
RTVSPost2010Prop45
280
     0
102
RTVSPost2010PropOp45
 70
     1
102
RTVSPost2010Prop46
 90
       50
102
RTVSPost2010PropOp46
 70
     1
102
RTVSPost2010Prop47
 90
       50
102
RTVSPost2010PropOp47
 70
     1
102
RTVSPost2010Prop48
 90
       50
102
RTVSPost2010PropOp48
 70
     1
102
RTVSPost2010Prop49
280
     0
102
RTVSPost2010PropOp49
 70
     1
102
RTVSPost2010Prop50
 90
       50
102
RTVSPost2010PropOp50
 70
     1
102
RTVSPost2010Prop51ColorIndex
 90
      256
102
RTVSPost2010Prop51ColorRGB
 90
-16777216
102
RTVSPost2010PropOp51
 70
     0
102
RTVSPost2010Prop52
140
1.0
102
RTVSPost2010PropOp52
 70
     0
102
RTVSPost2010Prop53
 90
        2
102
RTVSPost2010PropOp53
 70
     1
102
RTVSPost2010Prop54
  1
strokes_ogs.tif
102
RTVSPost2010PropOp54
 70
     1
102
RTVSPost2010Prop55
280
     0
102
RTVSPost2010PropOp55
 70
     1
102
RTVSPost2010Prop56
140
1.0
102
RTVSPost2010PropOp56
 70
     1
102
RTVSPost2010Prop57
140
1.0
102
RTVSPost2010PropOp57
 70
     1
102
RTVSPropertyOp0
 70
     1
102
RTVSPropertyOp1
 70
     1
102
RTVSPropertyOp2
 70
     1
102
RTVSPropertyOp3
 70
     1
102
RTVSPropertyOp4
 70
     1
102
RTVSPropertyOp5
 70
     1
102
RTVSPropertyOp6
 70
     1
102
RTVSPropertyOp7
 70
     1
102
RTVSPropertyOp8
 70
     1
102
RTVSPropertyOp9
 70
     1
102
RTVSPropertyOp10
 70
     1
102
RTVSPropertyOp11
 70
     1
102
RTVSPropertyOp12
 70
     1
102
RTVSPropertyOp13
 70
     1
102
RTVSPropertyOp14
 70
     1
102
RTVSPropertyOp15
 70
     1
102
RTVSPropertyOp16
 70
     1
102
RTVSPropertyOp17
 70
     1
102
RTVSPropertyOp18
 70
     1
102
RTVSPropertyOp19
 70
     1
102
RTVSPropertyOp20
 70
     1
102
RTVSPropertyOp21
 70
     1
102
RTVSPropertyOp22
 70
     1
102
RTVSPropertyOp23
 70
     1
102
RTVSPropertyOp24
 70
     1
102
RTVSPropertyOp25
 70
     1
102
RTVSPropertyOp26
 70
     1
102
RTVSPropertyOp27
 70
     1
102
RTVSPropertyOp28
 70
     1
102
RTVSPropertyOp29
 70
     1
102
RTVSPropertyOp30
 70
     1
102
RTVSPropertyOp31
 70
     1
102
RTVSPropertyOp32
 70
     1
102
RTVSPropertyOp33
 70
     1
102
RTVSPropertyOp34
 70
     1
102
RTVSPropertyOp35
 70
     1
102
RTVSPropertyOp36
 70
     1
102
RTVSPropertyOp37
 70
     1
102
RTVSPropertyOp38
 70
     1
102
RTVSPropertyOp39
 70
     1
102
RTVSPropertyOp40
 70
     1
102
RTVSPropertyOp41
 70
     1
102
RTVSPropertyOp42
 70
     1
102
RTVSPropertyOp43
 70
     1
102
RTVSPropertyOp44
 70
     1
102
RTVSPropertyOp45
 70
     1
102
RTVSPropertyOp46
 70
     1
102
RTVSPropertyOp47
 70
     1
102
RTVSPropertyOp48
 70
     1
102
RTVSPropertyOp49
 70
     1
102
RTVSPropertyOp50
 70
     1
102
RTVSPropertyOp51
 70
     0
102
RTVSPropertyOp52
 70
     0
102
RTVSPropertyOp53
 70
     1
102
RTVSPropertyOp54
 70
     1
102
RTVSPropertyOp55
 70
     1
102
RTVSPropertyOp56
 70
     1
102
RTVSPropertyOp57
 70
     1
102
RTVSPropertyOp58
 70
     1
102
RTVSPropertyOp59
 70
     1
102
RTVSPropertyOp60
 70
     1
102
RTVSPropertyOp61
 70
     1
102
RTVSPropertyOp62
 70
     1
  0
XRECORD
  5
64E
102
{ACAD_REACTORS
330
64D
102
}
330
64D
100
AcDbXrecord
280
     1
102
RTVSPost2010Prop28
280
     0
102
RTVSPost2010PropOp28
 70
     1
102
RTVSPost2010Prop29
280
     1
102
RTVSPost2010PropOp29
 70
     1
102
RTVSPost2010Prop30
280
     1
102
RTVSPost2010PropOp30
 70
     1
102
RTVSPost2010Prop31
280
     0
102
RTVSPost2010PropOp31
 70
     1
102
RTVSPost2010Prop32
280
     0
102
RTVSPost2010PropOp32
 70
     1
102
RTVSPost2010Prop33
280
     0
102
RTVSPost2010PropOp33
 70
     1
102
RTVSPost2010Prop34
280
     0
102
RTVSPost2010PropOp34
 70
     1
102
RTVSPost2010Prop35
280
     0
102
RTVSPost2010PropOp35
 70
     1
102
RTVSPost2010Prop36
280
     0
102
RTVSPost2010PropOp36
 70
     1
102
RTVSPost2010Prop37
 90
       50
102
RTVSPost2010PropOp37
 70
     1
102
RTVSPost2010Prop38
140
0.0
102
RTVSPost2010PropOp38
 70
     1
102
RTVSPost2010Prop39
140
1.0
102
RTVSPost2010PropOp39
 70
     1
102
RTVSPost2010Prop40
 90
        0
102
RTVSPost2010PropOp40
 70
     1
102
RTVSPost2010Prop41ColorIndex
 90
       18
102
RTVSPost2010Prop41ColorRGB
 90
        0
102
RTVSPost2010PropOp41
 70
     1
102
RTVSPost2010Prop42
 90
       50
102
RTVSPost2010PropOp42
 70
     1
102
RTVSPost2010Prop43
 90
        3
102
RTVSPost2010PropOp43
 70
     1
102
RTVSPost2010Prop44ColorIndex
 90
        5
102
RTVSPost2010Prop44ColorRGB
 90
      255
102
RTVSPost2010PropOp44
 70
     1
102
RTVSPost2010Prop45
280
     0
102
RTVSPost2010PropOp45
 70
     1
102
RTVSPost2010Prop46
 90
       50
102
RTVSPost2010PropOp46
 70
     1
102
RTVSPost2010Prop47
 90
       50
102
RTVSPost2010PropOp47
 70
     1
102
RTVSPost2010Prop48
 90
       50
102
RTVSPost2010PropOp48
 70
     1
102
RTVSPost2010Prop49
280
     0
102
RTVSPost2010PropOp49
 70
     1
102
RTVSPost2010Prop50
 90
       50
102
RTVSPost2010PropOp50
 70
     1
102
RTVSPost2010Prop51ColorIndex
 90
      256
102
RTVSPost2010Prop51ColorRGB
 90
-16777216
102
RTVSPost2010PropOp51
 70
     0
102
RTVSPost2010Prop52
140
1.0
102
RTVSPost2010PropOp52
 70
     0
102
RTVSPost2010Prop53
 90
        2
102
RTVSPost2010PropOp53
 70
     1
102
RTVSPost2010Prop54
  1
strokes_ogs.tif
102
RTVSPost2010PropOp54
 70
     1
102
RTVSPost2010Prop55
280
     0
102
RTVSPost2010PropOp55
 70
     1
102
RTVSPost2010Prop56
140
1.0
102
RTVSPost2010PropOp56
 70
     1
102
RTVSPost2010Prop57
140
1.0
102
RTVSPost2010PropOp57
 70
     1
102
RTVSPropertyOp0
 70
     1
102
RTVSPropertyOp1
 70
     1
102
RTVSPropertyOp2
 70
     1
102
RTVSPropertyOp3
 70
     1
102
RTVSPropertyOp4
 70
     1
102
RTVSPropertyOp5
 70
     1
102
RTVSPropertyOp6
 70
     1
102
RTVSPropertyOp7
 70
     1
102
RTVSPropertyOp8
 70
     1
102
RTVSPropertyOp9
 70
     1
102
RTVSPropertyOp10
 70
     1
102
RTVSPropertyOp11
 70
     1
102
RTVSPropertyOp12
 70
     1
102
RTVSPropertyOp13
 70
     1
102
RTVSPropertyOp14
 70
     1
102
RTVSPropertyOp15
 70
     1
102
RTVSPropertyOp16
 70
     1
102
RTVSPropertyOp17
 70
     1
102
RTVSPropertyOp18
 70
     1
102
RTVSPropertyOp19
 70
     1
102
RTVSPropertyOp20
 70
     1
102
RTVSPropertyOp21
 70
     1
102
RTVSPropertyOp22
 70
     1
102
RTVSPropertyOp23
 70
     1
102
RTVSPropertyOp24
 70
     1
102
RTVSPropertyOp25
 70
     1
102
RTVSPropertyOp26
 70
     1
102
RTVSPropertyOp27
 70
     1
102
RTVSPropertyOp28
 70
     1
102
RTVSPropertyOp29
 70
     1
102
RTVSPropertyOp30
 70
     1
102
RTVSPropertyOp31
 70
     1
102
RTVSPropertyOp32
 70
     1
102
RTVSPropertyOp33
 70
     1
102
RTVSPropertyOp34
 70
     1
102
RTVSPropertyOp35
 70
     1
102
RTVSPropertyOp36
 70
     1
102
RTVSPropertyOp37
 70
     1
102
RTVSPropertyOp38
 70
     1
102
RTVSPropertyOp39
 70
     1
102
RTVSPropertyOp40
 70
     1
102
RTVSPropertyOp41
 70
     1
102
RTVSPropertyOp42
 70
     1
102
RTVSPropertyOp43
 70
     1
102
RTVSPropertyOp44
 70
     1
102
RTVSPropertyOp45
 70
     1
102
RTVSPropertyOp46
 70
     1
102
RTVSPropertyOp47
 70
     1
102
RTVSPropertyOp48
 70
     1
102
RTVSPropertyOp49
 70
     1
102
RTVSPropertyOp50
 70
     1
102
RTVSPropertyOp51
 70
     0
102
RTVSPropertyOp52
 70
     0
102
RTVSPropertyOp53
 70
     1
102
RTVSPropertyOp54
 70
     1
102
RTVSPropertyOp55
 70
     1
102
RTVSPropertyOp56
 70
     1
102
RTVSPropertyOp57
 70
     1
102
RTVSPropertyOp58
 70
     1
102
RTVSPropertyOp59
 70
     1
102
RTVSPropertyOp60
 70
     1
102
RTVSPropertyOp61
 70
     1
102
RTVSPropertyOp62
 70
     1
  0
XRECORD
  5
66E
102
{ACAD_REACTORS
330
66D
102
}
330
66D
100
AcDbXrecord
280
     1
102
RTVSPost2010Prop28
280
     0
102
RTVSPost2010PropOp28
 70
     1
102
RTVSPost2010Prop29
280
     1
102
RTVSPost2010PropOp29
 70
     1
102
RTVSPost2010Prop30
280
     1
102
RTVSPost2010PropOp30
 70
     1
102
RTVSPost2010Prop31
280
     0
102
RTVSPost2010PropOp31
 70
     1
102
RTVSPost2010Prop32
280
     0
102
RTVSPost2010PropOp32
 70
     1
102
RTVSPost2010Prop33
280
     0
102
RTVSPost2010PropOp33
 70
     1
102
RTVSPost2010Prop34
280
     0
102
RTVSPost2010PropOp34
 70
     1
102
RTVSPost2010Prop35
280
     0
102
RTVSPost2010PropOp35
 70
     1
102
RTVSPost2010Prop36
280
     0
102
RTVSPost2010PropOp36
 70
     1
102
RTVSPost2010Prop37
 90
       50
102
RTVSPost2010PropOp37
 70
     1
102
RTVSPost2010Prop38
140
0.0
102
RTVSPost2010PropOp38
 70
     1
102
RTVSPost2010Prop39
140
1.0
102
RTVSPost2010PropOp39
 70
     1
102
RTVSPost2010Prop40
 90
        0
102
RTVSPost2010PropOp40
 70
     1
102
RTVSPost2010Prop41ColorIndex
 90
       18
102
RTVSPost2010Prop41ColorRGB
 90
        0
102
RTVSPost2010PropOp41
 70
     1
102
RTVSPost2010Prop42
 90
       50
102
RTVSPost2010PropOp42
 70
     1
102
RTVSPost2010Prop43
 90
        3
102
RTVSPost2010PropOp43
 70
     1
102
RTVSPost2010Prop44ColorIndex
 90
        5
102
RTVSPost2010Prop44ColorRGB
 90
      255
102
RTVSPost2010PropOp44
 70
     1
102
RTVSPost2010Prop45
280
     0
102
RTVSPost2010PropOp45
 70
     1
102
RTVSPost2010Prop46
 90
       50
102
RTVSPost2010PropOp46
 70
     1
102
RTVSPost2010Prop47
 90
       50
102
RTVSPost2010PropOp47
 70
     1
102
RTVSPost2010Prop48
 90
       50
102
RTVSPost2010PropOp48
 70
     1
102
RTVSPost2010Prop49
280
     0
102
RTVSPost2010PropOp49
 70
     1
102
RTVSPost2010Prop50
 90
       50
102
RTVSPost2010PropOp50
 70
     1
102
RTVSPost2010Prop51ColorIndex
 90
      256
102
RTVSPost2010Prop51ColorRGB
 90
-16777216
102
RTVSPost2010PropOp51
 70
     0
102
RTVSPost2010Prop52
140
1.0
102
RTVSPost2010PropOp52
 70
     0
102
RTVSPost2010Prop53
 90
        2
102
RTVSPost2010PropOp53
 70
     1
102
RTVSPost2010Prop54
  1
strokes_ogs.tif
102
RTVSPost2010PropOp54
 70
     1
102
RTVSPost2010Prop55
280
     0
102
RTVSPost2010PropOp55
 70
     1
102
RTVSPost2010Prop56
140
1.0
102
RTVSPost2010PropOp56
 70
     1
102
RTVSPost2010Prop57
140
1.0
102
RTVSPost2010PropOp57
 70
     1
102
RTVSPropertyOp0
 70
     1
102
RTVSPropertyOp1
 70
     1
102
RTVSPropertyOp2
 70
     1
102
RTVSPropertyOp3
 70
     1
102
RTVSPropertyOp4
 70
     1
102
RTVSPropertyOp5
 70
     1
102
RTVSPropertyOp6
 70
     1
102
RTVSPropertyOp7
 70
     1
102
RTVSPropertyOp8
 70
     1
102
RTVSPropertyOp9
 70
     1
102
RTVSPropertyOp10
 70
     1
102
RTVSPropertyOp11
 70
     1
102
RTVSPropertyOp12
 70
     1
102
RTVSPropertyOp13
 70
     1
102
RTVSPropertyOp14
 70
     1
102
RTVSPropertyOp15
 70
     1
102
RTVSPropertyOp16
 70
     1
102
RTVSPropertyOp17
 70
     1
102
RTVSPropertyOp18
 70
     1
102
RTVSPropertyOp19
 70
     1
102
RTVSPropertyOp20
 70
     1
102
RTVSPropertyOp21
 70
     1
102
RTVSPropertyOp22
 70
     1
102
RTVSPropertyOp23
 70
     1
102
RTVSPropertyOp24
 70
     1
102
RTVSPropertyOp25
 70
     1
102
RTVSPropertyOp26
 70
     1
102
RTVSPropertyOp27
 70
     1
102
RTVSPropertyOp28
 70
     1
102
RTVSPropertyOp29
 70
     1
102
RTVSPropertyOp30
 70
     1
102
RTVSPropertyOp31
 70
     1
102
RTVSPropertyOp32
 70
     1
102
RTVSPropertyOp33
 70
     1
102
RTVSPropertyOp34
 70
     1
102
RTVSPropertyOp35
 70
     1
102
RTVSPropertyOp36
 70
     1
102
RTVSPropertyOp37
 70
     1
102
RTVSPropertyOp38
 70
     1
102
RTVSPropertyOp39
 70
     1
102
RTVSPropertyOp40
 70
     1
102
RTVSPropertyOp41
 70
     1
102
RTVSPropertyOp42
 70
     1
102
RTVSPropertyOp43
 70
     1
102
RTVSPropertyOp44
 70
     1
102
RTVSPropertyOp45
 70
     1
102
RTVSPropertyOp46
 70
     1
102
RTVSPropertyOp47
 70
     1
102
RTVSPropertyOp48
 70
     1
102
RTVSPropertyOp49
 70
     1
102
RTVSPropertyOp50
 70
     1
102
RTVSPropertyOp51
 70
     0
102
RTVSPropertyOp52
 70
     0
102
RTVSPropertyOp53
 70
     1
102
RTVSPropertyOp54
 70
     1
102
RTVSPropertyOp55
 70
     1
102
RTVSPropertyOp56
 70
     1
102
RTVSPropertyOp57
 70
     1
102
RTVSPropertyOp58
 70
     1
102
RTVSPropertyOp59
 70
     1
102
RTVSPropertyOp60
 70
     1
102
RTVSPropertyOp61
 70
     1
102
RTVSPropertyOp62
 70
     1
  0
ENDSEC
  0
EOF
